999
DXF file: XBD_assy_2.dxf
999
Pro/ENGINEER 2014200 by Parametric Technology Corporation
  0
SECTION
  2
HEADER
  9
$ACADVER
  1
AC1021
  9
$DWGCODEPAGE
  3
ANSI_1252
  9
$EXTMAX
 10
22.0
 20
17.0
 30
0.0
  9
$EXTMIN
 10
0.0
 20
0.0
 30
0.0
  9
$LIMMIN
 10
0.0
 20
0.0
  9
$LIMMAX
 10
22.0
 20
17.0
  9
$VIEWCTR
 10
11.0
 20
8.5
  9
$VIEWSIZE
 40
17.0
  9
$CLAYER
  8
0
  9
$LTSCALE
 40
1.21
  9
$CELTYPE
  6
BYLAYER
  9
$DIMSCALE
 40
1.0
  9
$DIMASZ
 40
0.1875
  9
$DIMEXO
 40
0.0625
  9
$DIMDLI
 40
0.836
  9
$DIMEXE
 40
0.125
  9
$DIMCEN
 40
0.198
  9
$DIMLFAC
 40
1.0
  9
$DIMBLK
  1
_FILLED
  9
$DIMTXT
 40
0.1
  9
$DIMTOL
 70
0
  9
$DIMLIM
 70
0
  9
$DIMTFAC
 40
1.0
  9
$DIMGAP
 40
0.09
  9
$DIMDSEP
 70
46
  9
$AUNITS
 70
0
  9
$PDMODE
 70
3
  9
$PDSIZE
 40
0.3125
  9
$HANDSEED
  5
3E8
  9
$TILEMODE
 70
1
  9
$MEASUREMENT
 70
0
  9
$INSUNITS
 70
1
  0
ENDSEC
  0
SECTION
  2
CLASSES
  0
CLASS
  1
ACDBDICTIONARYWDFLT
  2
AcDbDictionaryWithDefault
  3
AutoCAD 2000
 90
0
 91
1
280
0
281
0
  0
CLASS
  1
ACDBPLACEHOLDER
  2
AcDbPlaceHolder
  3
AutoCAD 2000
 90
0
 91
1
280
0
281
0
  0
CLASS
  1
LAYOUT
  2
AcDbLayout
  3
AutoCAD 2000
 90
0
 91
0
280
0
281
0
  0
CLASS
  1
RASTERVARIABLES
  2
AcDbRasterVariables
  3
ISM
 90
0
 91
1
280
0
281
0
  0
CLASS
  1
IMAGEDEF
  2
AcDbRasterImageDef
  3
ISM
 90
0
 91
1
280
0
281
0
  0
CLASS
  1
IMAGEDEF_REACTOR
  2
AcDbRasterImageDefReactor
  3
ISM
 90
0
 91
1
280
0
281
0
  0
CLASS
  1
IMAGE
  2
AcDbRasterImage
  3
ISM
 90
127
 91
1
280
0
281
1
  0
CLASS
  1
TABLESTYLE
  2
AcDbTableStyle
  3
ObjectDBX Classes
 90
2047
 91
1
280
0
281
0
  0
CLASS
  1
ACAD_TABLE
  2
AcDbTable
  3
ObjectDBX Classes
 90
1025
 91
3
280
0
281
1
  0
ENDSEC
  0
SECTION
  2
TABLES
  0
TABLE
  2
VPORT
  5
8
100
AcDbSymbolTable
 70
2
  0
VPORT
  5
1F4
100
AcDbSymbolTableRecord
100
AcDbViewportTableRecord
  2
*ACTIVE
 70
0
 10
0.0
 20
0.0
 11
1.0
 21
1.0
 12
11.0
 22
8.5
 13
0.0
 23
0.0
 14
1.0
 24
1.0
 15
0.0
 25
0.0
 16
0.0
 26
0.0
 36
1.0
 17
0.0
 27
0.0
 37
0.0
 40
17.0
 41
1.2941176471
 42
50.0
 43
0.0
 44
0.0
 50
0.0
 51
0.0
 71
0
 72
100
 73
1
 74
1
 75
0
 76
0
 77
0
 78
0
  0
ENDTAB
  0
TABLE
  2
LTYPE
  5
5
100
AcDbSymbolTable
 70
6
  0
LTYPE
  5
14
100
AcDbSymbolTableRecord
100
AcDbLinetypeTableRecord
  2
BYBLOCK
 70
0
  3

 72
65
 73
0
 40
0.0
  0
LTYPE
  5
15
100
AcDbSymbolTableRecord
100
AcDbLinetypeTableRecord
  2
BYLAYER
 70
0
  3

 72
65
 73
0
 40
0.0
  0
LTYPE
  5
16
100
AcDbSymbolTableRecord
100
AcDbLinetypeTableRecord
  2
CONTINUOUS
 70
64
  3
Solid line
 72
65
 73
0
 40
0.0
  0
LTYPE
  5
1F5
100
AcDbSymbolTableRecord
100
AcDbLinetypeTableRecord
  2
CENTER
 70
64
  3
____ _ ____ _ ____ _ ____ _ ____ _ ____ _ ____
 72
65
 73
4
 40
0.6
 49
0.375
 74
0
 49
-0.075
 74
0
 49
0.075
 74
0
 49
-0.075
 74
0
  0
LTYPE
  5
1F6
100
AcDbSymbolTableRecord
100
AcDbLinetypeTableRecord
  2
HIDDEN
 70
64
  3
- - - - - - - - - - - - - - - - - - - -
 72
65
 73
2
 40
0.2
 49
0.1
 74
0
 49
-0.1
 74
0
  0
LTYPE
  5
1F7
100
AcDbSymbolTableRecord
100
AcDbLinetypeTableRecord
  2
PHANTOM
 70
64
  3
_____ _ _ _____ _ _ _____ _ _ _____
 72
65
 73
6
 40
0.8
 49
0.45
 74
0
 49
-0.05
 74
0
 49
0.1
 74
0
 49
-0.05
 74
0
 49
0.1
 74
0
 49
-0.05
 74
0
  0
LTYPE
  5
1F8
100
AcDbSymbolTableRecord
100
AcDbLinetypeTableRecord
  2
DOT
 70
64
  3
. . . . . . . . . . . . . . . . . . . .
 72
65
 73
2
 40
0.2
 49
0.1
 74
0
 49
-0.1
 74
0
  0
LTYPE
  5
1F9
100
AcDbSymbolTableRecord
100
AcDbLinetypeTableRecord
  2
DASHED
 70
64
  3
- - - - - - - - - - - - - - - - - - - -
 72
65
 73
2
 40
0.2
 49
0.1
 74
0
 49
-0.1
 74
0
  0
ENDTAB
  0
TABLE
  2
LAYER
  5
2
100
AcDbSymbolTable
 70
36
  0
LAYER
  5
10
100
AcDbSymbolTableRecord
100
AcDbLayerTableRecord
  2
0
 70
0
 62
7
  6
CONTINUOUS
370
-3
390
F
  0
LAYER
  5
1FA
100
AcDbSymbolTableRecord
100
AcDbLayerTableRecord
  2
DEFAULT_1
 70
0
 62
7
  6
CENTER
370
-3
390
F
  0
LAYER
  5
1FB
100
AcDbSymbolTableRecord
100
AcDbLayerTableRecord
  2
DEFAULT_2
 70
0
 62
8
  6
HIDDEN
370
-3
390
F
  0
LAYER
  5
1FC
100
AcDbSymbolTableRecord
100
AcDbLayerTableRecord
  2
DEFAULT_3
 70
0
 62
7
  6
PHANTOM
370
-3
390
F
  0
LAYER
  5
1FD
100
AcDbSymbolTableRecord
100
AcDbLayerTableRecord
  2
DATUM_PLANES
 70
0
 62
7
  6
CONTINUOUS
370
-3
390
F
  0
LAYER
  5
1FE
100
AcDbSymbolTableRecord
100
AcDbLayerTableRecord
  2
PORT_AREAS
 70
0
 62
7
  6
CONTINUOUS
370
-3
390
F
  0
LAYER
  5
1FF
100
AcDbSymbolTableRecord
100
AcDbLayerTableRecord
  2
SUNNBOMCOSMETIC
 70
0
 62
7
  6
CONTINUOUS
370
-3
390
F
  0
LAYER
  5
200
100
AcDbSymbolTableRecord
100
AcDbLayerTableRecord
  2
SUNNBOMSTAMPING
 70
0
 62
7
  6
CONTINUOUS
370
-3
390
F
  0
LAYER
  5
201
100
AcDbSymbolTableRecord
100
AcDbLayerTableRecord
  2
THREADS
 70
0
 62
7
  6
CONTINUOUS
370
-3
390
F
  0
ENDTAB
  0
TABLE
  2
STYLE
  5
3
100
AcDbSymbolTable
 70
1
  0
STYLE
  5
11
100
AcDbSymbolTableRecord
100
AcDbTextStyleTableRecord
  2
STANDARD
 70
0
 40
0.0
 41
0.8
 50
0.0
 71
0
 42
0.2
  3
txt
  4

  0
STYLE
  5
202
100
AcDbSymbolTableRecord
100
AcDbTextStyleTableRecord
  2
TEXTSTYLE_1
 70
0
 40
0.0
 41
0.8
 50
0.0
 71
0
 42
0.2
  3
gdt
  4

  0
ENDTAB
  0
TABLE
  2
VIEW
  5
6
100
AcDbSymbolTable
 70
0
  0
ENDTAB
  0
TABLE
  2
UCS
  5
7
100
AcDbSymbolTable
 70
0
  0
ENDTAB
  0
TABLE
  2
APPID
  5
9
100
AcDbSymbolTable
 70
1
  0
APPID
  5
203
100
AcDbSymbolTableRecord
100
AcDbRegAppTableRecord
  2
ACAD
 70
0
  0
ENDTAB
  0
TABLE
  2
BLOCK_RECORD
  5
1
100
AcDbSymbolTable
 70
0
  0
BLOCK_RECORD
  5
204
100
AcDbSymbolTableRecord
100
AcDbBlockTableRecord
  2
*Model_Space
  0
BLOCK_RECORD
  5
205
100
AcDbSymbolTableRecord
100
AcDbBlockTableRecord
  2
*Paper_Space
  0
BLOCK_RECORD
  5
206
100
AcDbSymbolTableRecord
100
AcDbBlockTableRecord
  2
SUN_FIRST_THIRD_ANGLE_BL0
  0
BLOCK_RECORD
  5
207
100
AcDbSymbolTableRecord
100
AcDbBlockTableRecord
  2
*T1
  0
BLOCK_RECORD
  5
208
100
AcDbSymbolTableRecord
100
AcDbBlockTableRecord
  2
*T2
  0
BLOCK_RECORD
  5
209
100
AcDbSymbolTableRecord
100
AcDbBlockTableRecord
  2
*T3
  0
ENDTAB
  0
TABLE
  2
DIMSTYLE
  5
A
100
AcDbSymbolTable
 70
1
100
AcDbDimStyleTable
 71
0
  0
DIMSTYLE
105
20A
100
AcDbSymbolTableRecord
100
AcDbDimStyleTableRecord
  2
STANDARD
 70
0
  3

  4

 40
1.0
 41
0.1875
 42
0.0625
 43
0.38
 44
0.125
 45
0.0
 46
0.0
 47
0.001
 48
0.001
140
0.1
141
0.09
142
0.0
143
25.4
144
1.0
145
0.0
146
1.0
147
0.09
 71
0.0
 72
0.0
 73
1
 74
1
 75
0
 76
0
 77
0
 78
4
170
0
171
2
172
0
173
0
174
0
175
0
176
0
177
0
178
0
270
2
271
3
272
3
273
2
274
2
275
0
280
0
281
0
282
0
283
1
284
4
285
0
286
0
287
3
288
0
340
11
278
46
  0
ENDTAB
  0
ENDSEC
  0
SECTION
  2
BLOCKS
  0
BLOCK
  5
20
100
AcDbEntity
  8
0
100
AcDbBlockBegin
  2
*Model_Space
 70
0
 10
0.0
 20
0.0
 30
0.0
  3
*Model_Space
  1

  0
ENDBLK
  5
21
100
AcDbEntity
  8
0
100
AcDbBlockEnd
  0
BLOCK
  5
1C
100
AcDbEntity
  8
0
100
AcDbBlockBegin
  2
*Paper_Space
 70
0
 10
0.0
 20
0.0
 30
0.0
  3
*Paper_Space
  1

  0
ENDBLK
  5
1D
100
AcDbEntity
  8
0
100
AcDbBlockEnd
  0
BLOCK
  5
20B
100
AcDbEntity
  8
0
100
AcDbBlockBegin
 62
2
  6
CONTINUOUS
  2
SUN_FIRST_THIRD_ANGLE_BL0
 70
64
 10
20.4816717061
 20
1.2289683772
  3
SUN_FIRST_THIRD_ANGLE_BL0
  1

  0
TEXT
  5
20C
100
AcDbEntity
  8
0
100
AcDbText
 62
2
  6
CONTINUOUS
 10
19.4750896608
 20
1.4136269581
  7
STANDARD
 40
0.08
  1
FIRST ANGLE
 41
0.8
 72
0
100
AcDbText
  0
TEXT
  5
20D
100
AcDbEntity
  8
0
100
AcDbText
 62
2
  6
CONTINUOUS
 10
20.7842537513
 20
1.4047600029
  7
STANDARD
 40
0.08
  1
THIRD ANGLE
 41
0.8
 72
0
100
AcDbText
  0
LINE
  5
20E
100
AcDbEntity
  8
0
100
AcDbLine
 62
7
  6
CONTINUOUS
 10
19.4767170086
 20
1.1727031207
 11
19.6334271527
 21
1.1717972817
  0
LINE
  5
20F
100
AcDbEntity
  8
0
100
AcDbLine
 62
7
  6
CONTINUOUS
 10
19.6596964832
 20
1.1717972817
 11
19.6950230232
 21
1.171593082
  0
LINE
  5
210
100
AcDbEntity
  8
0
100
AcDbLine
 62
7
  6
CONTINUOUS
 10
19.7194818561
 20
1.1708914427
 11
19.8852396156
 21
1.1699333054
  0
LINE
  5
211
100
AcDbEntity
  8
0
100
AcDbLine
 62
7
  6
CONTINUOUS
 10
19.4758111696
 20
1.2723454088
 11
19.88525039
 21
1.3511534004
  0
LINE
  5
212
100
AcDbEntity
  8
0
100
AcDbLine
 62
7
  6
CONTINUOUS
 10
19.88525039
 20
1.3511534004
 11
19.8831348489
 21
0.9851647912
  0
LINE
  5
213
100
AcDbEntity
  8
0
100
AcDbLine
 62
7
  6
CONTINUOUS
 10
19.8831348489
 20
0.9851647912
 11
19.4767170086
 21
1.0658141206
  0
LINE
  5
214
100
AcDbEntity
  8
0
100
AcDbLine
 62
7
  6
CONTINUOUS
 10
19.4767170086
 20
1.0658141206
 11
19.4779056764
 21
1.2714536432
  0
CIRCLE
  5
215
100
AcDbEntity
  8
0
100
AcDbCircle
 62
7
  6
CONTINUOUS
 10
20.2068232291
 20
1.1717972817
 40
0.175742101
  0
CIRCLE
  5
216
100
AcDbEntity
  8
0
100
AcDbCircle
 62
7
  6
CONTINUOUS
 10
20.2068232291
 20
1.1717972817
 40
0.1005522074
  0
LINE
  5
217
100
AcDbEntity
  8
0
100
AcDbLine
 62
7
  6
CONTINUOUS
 10
20.2077290681
 20
1.3756110529
 11
20.2071171714
 21
1.2379342989
  0
LINE
  5
218
100
AcDbEntity
  8
0
100
AcDbLine
 62
7
  6
CONTINUOUS
 10
20.2077290681
 20
1.2016899681
 11
20.2074674401
 21
1.1428236749
  0
LINE
  5
219
100
AcDbEntity
  8
0
100
AcDbLine
 62
7
  6
CONTINUOUS
 10
20.208634907
 20
1.101141841
 11
20.2080230104
 21
0.963465087
  0
LINE
  5
21A
100
AcDbEntity
  8
0
100
AcDbLine
 62
7
  6
CONTINUOUS
 10
20.0066328138
 20
1.1745147986
 11
20.1443095678
 21
1.1739029019
  0
LINE
  5
21B
100
AcDbEntity
  8
0
100
AcDbLine
 62
7
  6
CONTINUOUS
 10
20.1832714155
 20
1.1727031207
 11
20.238153505
 21
1.172335442
  0
LINE
  5
21C
100
AcDbEntity
  8
0
100
AcDbLine
 62
7
  6
CONTINUOUS
 10
20.2756669918
 20
1.1717972817
 11
20.407916871
 21
1.1712095044
  0
CIRCLE
  5
21D
100
AcDbEntity
  8
0
100
AcDbCircle
 62
7
  6
CONTINUOUS
 10
20.7509457401
 20
1.1693297793
 40
0.1722024983
  0
CIRCLE
  5
21E
100
AcDbEntity
  8
0
100
AcDbCircle
 62
7
  6
CONTINUOUS
 10
20.7509457401
 20
1.1693297793
 40
0.0985164967
  0
LINE
  5
21F
100
AcDbEntity
  8
0
100
AcDbLine
 62
7
  6
CONTINUOUS
 10
20.7169767782
 20
1.170462078
 11
20.7825395137
 21
1.1682766535
  0
LINE
  5
220
100
AcDbEntity
  8
0
100
AcDbLine
 62
7
  6
CONTINUOUS
 10
20.8177513651
 20
1.1693297793
 11
20.947965719
 21
1.1693297793
  0
LINE
  5
221
100
AcDbEntity
  8
0
100
AcDbLine
 62
7
  6
CONTINUOUS
 10
20.6875370113
 20
1.170462078
 11
20.5573226574
 21
1.170462078
  0
LINE
  5
222
100
AcDbEntity
  8
0
100
AcDbLine
 62
7
  6
CONTINUOUS
 10
20.7486811426
 20
1.1987695462
 11
20.7486811426
 21
1.1432869085
  0
LINE
  5
223
100
AcDbEntity
  8
0
100
AcDbLine
 62
7
  6
CONTINUOUS
 10
20.7498134414
 20
1.1059210505
 11
20.7498134414
 21
0.9757066966
  0
LINE
  5
224
100
AcDbEntity
  8
0
100
AcDbLine
 62
7
  6
CONTINUOUS
 10
20.7486811426
 20
1.2338708068
 11
20.7486811426
 21
1.3640851607
  0
LINE
  5
225
100
AcDbEntity
  8
0
100
AcDbLine
 62
7
  6
CONTINUOUS
 10
21.0702539817
 20
1.2701043662
 11
21.4790138229
 21
1.3448360823
  0
LINE
  5
226
100
AcDbEntity
  8
0
100
AcDbLine
 62
7
  6
CONTINUOUS
 10
21.4790138229
 20
1.3448360823
 11
21.4790138229
 21
0.9779712941
  0
LINE
  5
227
100
AcDbEntity
  8
0
100
AcDbLine
 62
7
  6
CONTINUOUS
 10
21.4790138229
 20
0.9779712941
 11
21.069121683
 21
1.0617614
  0
LINE
  5
228
100
AcDbEntity
  8
0
100
AcDbLine
 62
7
  6
CONTINUOUS
 10
21.0702539817
 20
1.2701043662
 11
21.069121683
 21
1.0617614
  0
LINE
  5
229
100
AcDbEntity
  8
0
100
AcDbLine
 62
7
  6
CONTINUOUS
 10
21.4790138229
 20
1.1693297793
 11
21.3159628059
 21
1.1693297793
  0
LINE
  5
22A
100
AcDbEntity
  8
0
100
AcDbLine
 62
7
  6
CONTINUOUS
 10
21.2876553377
 20
1.1693297793
 11
21.2502894796
 21
1.1693297793
  0
LINE
  5
22B
100
AcDbEntity
  8
0
100
AcDbLine
 62
7
  6
CONTINUOUS
 10
21.2208497126
 20
1.1659328831
 11
21.0713862804
 21
1.1659328831
  0
LINE
  5
22C
100
AcDbEntity
  8
0
100
AcDbLine
 62
7
  6
CONTINUOUS
 10
20.4796138713
 20
1.5284908897
 11
20.4766766948
 21
0.9294458646
  0
ENDBLK
  5
22D
100
AcDbEntity
  8
0
  6
BYBLOCK
 62
0
100
AcDbBlockEnd
  0
BLOCK
  5
22E
100
AcDbEntity
  8
0
100
AcDbBlockBegin
  2
*T1
 70
1
 10
0.0
 20
0.0
  3
*T1
  1

  0
LINE
  5
22F
100
AcDbEntity
  8
0
100
AcDbLine
 62
2
  6
CONTINUOUS
 10
9.275
 20
0.0
 11
-0.0
 21
0.0
  0
LINE
  5
230
100
AcDbEntity
  8
0
100
AcDbLine
 62
2
  6
CONTINUOUS
 10
9.275
 20
0.0
 11
9.275
 21
1.25
  0
LINE
  5
231
100
AcDbEntity
  8
0
100
AcDbLine
 62
2
  6
CONTINUOUS
 10
9.275
 20
0.625
 11
-0.0
 21
0.625
  0
LINE
  5
232
100
AcDbEntity
  8
0
100
AcDbLine
 62
2
  6
CONTINUOUS
 10
9.275
 20
1.25
 11
-0.0
 21
1.25
  0
LINE
  5
233
100
AcDbEntity
  8
0
100
AcDbLine
 62
2
  6
CONTINUOUS
 10
6.8
 20
0.0
 11
6.8
 21
1.25
  0
LINE
  5
234
100
AcDbEntity
  8
0
100
AcDbLine
 62
2
  6
CONTINUOUS
 10
6.4
 20
0.0
 11
6.4
 21
0.625
  0
LINE
  5
235
100
AcDbEntity
  8
0
100
AcDbLine
 62
2
  6
CONTINUOUS
 10
5.9
 20
0.0
 11
5.9
 21
0.625
  0
LINE
  5
236
100
AcDbEntity
  8
0
100
AcDbLine
 62
2
  6
CONTINUOUS
 10
5.2
 20
0.0
 11
5.2
 21
0.625
  0
LINE
  5
237
100
AcDbEntity
  8
0
100
AcDbLine
 62
2
  6
CONTINUOUS
 10
4.1
 20
0.0
 11
4.1
 21
1.25
  0
LINE
  5
238
100
AcDbEntity
  8
0
100
AcDbLine
 62
2
  6
CONTINUOUS
 10
-0.0
 20
0.0
 11
-0.0
 21
1.25
  0
MTEXT
  5
239
100
AcDbEntity
  8
0
100
AcDbMText
 62
2
  6
CONTINUOUS
  7
STANDARD
 71
2
 72
1
 10
6.6
 20
0.325
 30
0.0
 11
1.0
 21
0.0
 31
0.0
 44
0.9
  1
2
 40
0.125
 41
0.2
  0
MTEXT
  5
23A
100
AcDbEntity
  8
0
100
AcDbMText
 62
2
  6
CONTINUOUS
  7
STANDARD
 71
2
 72
1
 10
6.15
 20
0.325
 30
0.0
 11
1.0
 21
0.0
 31
0.0
 44
0.9
  1
C
 40
0.125
 41
0.2
  0
MTEXT
  5
23B
100
AcDbEntity
  8
0
100
AcDbMText
 62
2
  6
CONTINUOUS
  7
STANDARD
 71
2
 72
1
 10
5.55
 20
0.325
 30
0.0
 11
1.0
 21
0.0
 31
0.0
 44
0.9
  1
1.000
 40
0.125
 41
1.0
  0
MTEXT
  5
23C
100
AcDbEntity
  8
0
100
AcDbMText
 62
2
  6
CONTINUOUS
  7
STANDARD
 71
2
 72
1
 10
4.65
 20
0.325
 30
0.0
 11
1.0
 21
0.0
 31
0.0
 44
0.9
  1
Jun-21-22
 40
0.125
 41
1.8
  0
MTEXT
  5
23D
100
AcDbEntity
  8
0
100
AcDbMText
 62
2
  6
CONTINUOUS
  7
STANDARD
 71
2
 72
1
 10
2.05
 20
0.4625
 30
0.0
 11
1.0
 21
0.0
 31
0.0
 44
0.9
  1
T-2A Line mount\PCross port with shuttle on port 3s
 40
0.125
 41
6.8
  0
MTEXT
  5
23E
100
AcDbEntity
  8
0
100
AcDbMText
 62
2
  6
CONTINUOUS
  7
STANDARD
 71
1
 72
1
 10
6.45
 20
0.5625
 30
0.0
 11
1.0
 21
0.0
 31
0.0
 44
0.9
  1
SHEET
 40
0.06
 41
0.48
  0
MTEXT
  5
23F
100
AcDbEntity
  8
0
100
AcDbMText
 62
2
  6
CONTINUOUS
  7
STANDARD
 71
1
 72
1
 10
5.95
 20
0.5625
 30
0.0
 11
1.0
 21
0.0
 31
0.0
 44
0.9
  1
DWG SIZE
 40
0.06
 41
0.768
  0
MTEXT
  5
240
100
AcDbEntity
  8
0
100
AcDbMText
 62
2
  6
CONTINUOUS
  7
STANDARD
 71
1
 72
1
 10
5.25
 20
0.5625
 30
0.0
 11
1.0
 21
0.0
 31
0.0
 44
0.9
  1
SCALE
 40
0.06
 41
0.48
  0
MTEXT
  5
241
100
AcDbEntity
  8
0
100
AcDbMText
 62
2
  6
CONTINUOUS
  7
STANDARD
 71
1
 72
1
 10
4.15
 20
0.5625
 30
0.0
 11
1.0
 21
0.0
 31
0.0
 44
0.9
  1
DATE
 40
0.06
 41
0.384
  0
MTEXT
  5
242
100
AcDbEntity
  8
0
100
AcDbMText
 62
2
  6
CONTINUOUS
  7
STANDARD
 71
1
 72
1
 10
0.05
 20
0.5625
 30
0.0
 11
1.0
 21
0.0
 31
0.0
 44
0.9
  1
DESCRIPTION
 40
0.06
 41
1.056
  0
MTEXT
  5
243
100
AcDbEntity
  8
0
100
AcDbMText
 62
2
  6
CONTINUOUS
  7
STANDARD
 71
2
 72
1
 10
5.45
 20
1.0375
 30
0.0
 11
1.0
 21
0.0
 31
0.0
 44
0.9
  1
ALL DIMENSIONS IN INCH\PVIEWS ARE THIRD ANGLE
 40
0.12
 41
4.224
  0
MTEXT
  5
244
100
AcDbEntity
  8
0
100
AcDbMText
 62
2
  6
CONTINUOUS
  7
STANDARD
 71
2
 72
1
 10
2.05
 20
0.95
 30
0.0
 11
1.0
 21
0.0
 31
0.0
 44
0.9
  1
XBD
 40
0.125
 41
0.6
  0
MTEXT
  5
245
100
AcDbEntity
  8
0
100
AcDbMText
 62
2
  6
CONTINUOUS
  7
STANDARD
 71
1
 72
1
 10
0.05
 20
1.1875
 30
0.0
 11
1.0
 21
0.0
 31
0.0
 44
0.9
  1
MODEL
 40
0.06
 41
0.48
  0
ENDBLK
  5
246
100
AcDbEntity
  8
0
  6
BYBLOCK
 62
0
100
AcDbBlockEnd
  0
BLOCK
  5
247
100
AcDbEntity
  8
0
100
AcDbBlockBegin
  2
*T2
 70
1
 10
0.0
 20
0.0
  3
*T2
  1

  0
LINE
  5
248
100
AcDbEntity
  8
0
100
AcDbLine
 62
2
  6
CONTINUOUS
 10
0.0
 20
0.0
 11
9.055
 21
0.0
  0
LINE
  5
249
100
AcDbEntity
  8
0
100
AcDbLine
 62
2
  6
CONTINUOUS
 10
0.0
 20
0.0
 11
0.0
 21
-2.594
  0
LINE
  5
24A
100
AcDbEntity
  8
0
100
AcDbLine
 62
2
  6
CONTINUOUS
 10
0.0
 20
-0.344
 11
9.055
 21
-0.344
  0
LINE
  5
24B
100
AcDbEntity
  8
0
100
AcDbLine
 62
2
  6
CONTINUOUS
 10
0.0
 20
-0.594
 11
9.055
 21
-0.594
  0
LINE
  5
24C
100
AcDbEntity
  8
0
100
AcDbLine
 62
2
  6
CONTINUOUS
 10
0.0
 20
-0.844
 11
9.055
 21
-0.844
  0
LINE
  5
24D
100
AcDbEntity
  8
0
100
AcDbLine
 62
2
  6
CONTINUOUS
 10
0.0
 20
-1.094
 11
9.055
 21
-1.094
  0
LINE
  5
24E
100
AcDbEntity
  8
0
100
AcDbLine
 62
2
  6
CONTINUOUS
 10
0.0
 20
-1.344
 11
9.055
 21
-1.344
  0
LINE
  5
24F
100
AcDbEntity
  8
0
100
AcDbLine
 62
2
  6
CONTINUOUS
 10
0.0
 20
-1.594
 11
9.055
 21
-1.594
  0
LINE
  5
250
100
AcDbEntity
  8
0
100
AcDbLine
 62
2
  6
CONTINUOUS
 10
0.0
 20
-1.844
 11
9.055
 21
-1.844
  0
LINE
  5
251
100
AcDbEntity
  8
0
100
AcDbLine
 62
2
  6
CONTINUOUS
 10
0.0
 20
-2.094
 11
9.055
 21
-2.094
  0
LINE
  5
252
100
AcDbEntity
  8
0
100
AcDbLine
 62
2
  6
CONTINUOUS
 10
0.0
 20
-2.344
 11
9.055
 21
-2.344
  0
LINE
  5
253
100
AcDbEntity
  8
0
100
AcDbLine
 62
2
  6
CONTINUOUS
 10
0.0
 20
-2.594
 11
9.055
 21
-2.594
  0
LINE
  5
254
100
AcDbEntity
  8
0
100
AcDbLine
 62
2
  6
CONTINUOUS
 10
3.055
 20
0.0
 11
3.055
 21
-2.594
  0
LINE
  5
255
100
AcDbEntity
  8
0
100
AcDbLine
 62
2
  6
CONTINUOUS
 10
9.055
 20
0.0
 11
9.055
 21
-2.594
  0
MTEXT
  5
256
100
AcDbEntity
  8
0
100
AcDbMText
 62
2
  6
CONTINUOUS
  7
STANDARD
 71
2
 72
1
 10
1.5275
 20
-0.0995
 30
0.0
 11
1.0
 21
0.0
 31
0.0
 44
0.9
  1
Technical Data
 40
0.145
 41
3.248
  0
MTEXT
  5
257
100
AcDbEntity
  8
0
100
AcDbMText
 62
2
  6
CONTINUOUS
  7
STANDARD
 71
2
 72
1
 10
4.555
 20
-0.0995
 30
0.0
 11
1.0
 21
0.0
 31
0.0
 44
0.9
  1
U.S. Units
 40
0.145
 41
2.32
  0
MTEXT
  5
258
100
AcDbEntity
  8
0
100
AcDbMText
 62
2
  6
CONTINUOUS
  7
STANDARD
 71
2
 72
1
 10
7.555
 20
-0.0995
 30
0.0
 11
1.0
 21
0.0
 31
0.0
 44
0.9
  1
Metric Units
 40
0.145
 41
2.784
  0
MTEXT
  5
259
100
AcDbEntity
  8
0
100
AcDbMText
 62
2
  6
CONTINUOUS
  7
STANDARD
 71
2
 72
1
 10
1.5275
 20
-0.4065
 30
0.0
 11
1.0
 21
0.0
 31
0.0
 44
0.9
  1
Cavity
 40
0.125
 41
1.2
  0
MTEXT
  5
25A
100
AcDbEntity
  8
0
100
AcDbMText
 62
2
  6
CONTINUOUS
  7
STANDARD
 71
2
 72
1
 10
6.055
 20
-0.4065
 30
0.0
 11
1.0
 21
0.0
 31
0.0
 44
0.9
  1
T-2A
 40
0.125
 41
0.8
  0
MTEXT
  5
25B
100
AcDbEntity
  8
0
100
AcDbMText
 62
2
  6
CONTINUOUS
  7
STANDARD
 71
2
 72
1
 10
1.5275
 20
-0.6565
 30
0.0
 11
1.0
 21
0.0
 31
0.0
 44
0.9
  1
Body Features
 40
0.125
 41
2.6
  0
MTEXT
  5
25C
100
AcDbEntity
  8
0
100
AcDbMText
 62
2
  6
CONTINUOUS
  7
STANDARD
 71
2
 72
1
 10
6.055
 20
-0.6565
 30
0.0
 11
1.0
 21
0.0
 31
0.0
 44
0.9
  1
Cross port with shuttle on port 3s
 40
0.125
 41
6.8
  0
MTEXT
  5
25D
100
AcDbEntity
  8
0
100
AcDbMText
 62
2
  6
CONTINUOUS
  7
STANDARD
 71
2
 72
1
 10
1.5275
 20
-0.9065
 30
0.0
 11
1.0
 21
0.0
 31
0.0
 44
0.9
  1
Body Type
 40
0.125
 41
1.8
  0
MTEXT
  5
25E
100
AcDbEntity
  8
0
100
AcDbMText
 62
2
  6
CONTINUOUS
  7
STANDARD
 71
2
 72
1
 10
6.055
 20
-0.9065
 30
0.0
 11
1.0
 21
0.0
 31
0.0
 44
0.9
  1
Line mount
 40
0.125
 41
2.0
  0
MTEXT
  5
25F
100
AcDbEntity
  8
0
100
AcDbMText
 62
2
  6
CONTINUOUS
  7
STANDARD
 71
2
 72
1
 10
1.5275
 20
-1.1565
 30
0.0
 11
1.0
 21
0.0
 31
0.0
 44
0.9
  1
Interface
 40
0.125
 41
1.8
  0
MTEXT
  5
260
100
AcDbEntity
  8
0
100
AcDbMText
 62
2
  6
CONTINUOUS
  7
STANDARD
 71
2
 72
1
 10
6.055
 20
-1.1565
 30
0.0
 11
1.0
 21
0.0
 31
0.0
 44
0.9
  1
None
 40
0.125
 41
0.8
  0
MTEXT
  5
261
100
AcDbEntity
  8
0
100
AcDbMText
 62
2
  6
CONTINUOUS
  7
STANDARD
 71
2
 72
1
 10
1.5275
 20
-1.4065
 30
0.0
 11
1.0
 21
0.0
 31
0.0
 44
0.9
  1
Open Cavity Quantity
 40
0.125
 41
4.0
  0
MTEXT
  5
262
100
AcDbEntity
  8
0
100
AcDbMText
 62
2
  6
CONTINUOUS
  7
STANDARD
 71
2
 72
1
 10
6.055
 20
-1.4065
 30
0.0
 11
1.0
 21
0.0
 31
0.0
 44
0.9
  1
2
 40
0.125
 41
0.2
  0
MTEXT
  5
263
100
AcDbEntity
  8
0
100
AcDbMText
 62
2
  6
CONTINUOUS
  7
STANDARD
 71
2
 72
1
 10
1.5275
 20
-1.6565
 30
0.0
 11
1.0
 21
0.0
 31
0.0
 44
0.9
  1
Weight
 40
0.125
 41
1.2
  0
MTEXT
  5
264
100
AcDbEntity
  8
0
100
AcDbMText
 62
2
  6
CONTINUOUS
  7
STANDARD
 71
2
 72
1
 10
4.555
 20
-1.6565
 30
0.0
 11
1.0
 21
0.0
 31
0.0
 44
0.9
  1
6.160 lb.
 40
0.125
 41
1.8
  0
MTEXT
  5
265
100
AcDbEntity
  8
0
100
AcDbMText
 62
2
  6
CONTINUOUS
  7
STANDARD
 71
2
 72
1
 10
7.555
 20
-1.6565
 30
0.0
 11
1.0
 21
0.0
 31
0.0
 44
0.9
  1
2,794 kg.
 40
0.125
 41
1.8
  0
MTEXT
  5
266
100
AcDbEntity
  8
0
100
AcDbMText
 62
2
  6
CONTINUOUS
  7
STANDARD
 71
2
 72
1
 10
1.5275
 20
-1.9065
 30
0.0
 11
1.0
 21
0.0
 31
0.0
 44
0.9
  1
Mounting Hole Diameter
 40
0.125
 41
4.4
  0
MTEXT
  5
267
100
AcDbEntity
  8
0
100
AcDbMText
 62
2
  6
CONTINUOUS
  7
STANDARD
 71
2
 72
1
 10
4.555
 20
-1.9065
 30
0.0
 11
1.0
 21
0.0
 31
0.0
 44
0.9
  1
.41 in.
 40
0.125
 41
1.4
  0
MTEXT
  5
268
100
AcDbEntity
  8
0
100
AcDbMText
 62
2
  6
CONTINUOUS
  7
STANDARD
 71
2
 72
1
 10
7.555
 20
-1.9065
 30
0.0
 11
1.0
 21
0.0
 31
0.0
 44
0.9
  1
10,4 mm
 40
0.125
 41
1.4
  0
MTEXT
  5
269
100
AcDbEntity
  8
0
100
AcDbMText
 62
2
  6
CONTINUOUS
  7
STANDARD
 71
2
 72
1
 10
1.5275
 20
-2.1565
 30
0.0
 11
1.0
 21
0.0
 31
0.0
 44
0.9
  1
Mounting Hole Depth
 40
0.125
 41
3.8
  0
MTEXT
  5
26A
100
AcDbEntity
  8
0
100
AcDbMText
 62
2
  6
CONTINUOUS
  7
STANDARD
 71
2
 72
1
 10
6.055
 20
-2.1565
 30
0.0
 11
1.0
 21
0.0
 31
0.0
 44
0.9
  1
Through
 40
0.125
 41
1.4
  0
MTEXT
  5
26B
100
AcDbEntity
  8
0
100
AcDbMText
 62
2
  6
CONTINUOUS
  7
STANDARD
 71
2
 72
1
 10
1.5275
 20
-2.4065
 30
0.0
 11
1.0
 21
0.0
 31
0.0
 44
0.9
  1
Mounting Hole Quantity
 40
0.125
 41
4.4
  0
MTEXT
  5
26C
100
AcDbEntity
  8
0
100
AcDbMText
 62
2
  6
CONTINUOUS
  7
STANDARD
 71
2
 72
1
 10
6.055
 20
-2.4065
 30
0.0
 11
1.0
 21
0.0
 31
0.0
 44
0.9
  1
2
 40
0.125
 41
0.2
  0
ENDBLK
  5
26D
100
AcDbEntity
  8
0
  6
BYBLOCK
 62
0
100
AcDbBlockEnd
  0
BLOCK
  5
26E
100
AcDbEntity
  8
0
100
AcDbBlockBegin
  2
*T3
 70
1
 10
0.0
 20
0.0
  3
*T3
  1

  0
LINE
  5
26F
100
AcDbEntity
  8
0
100
AcDbLine
 62
2
  6
CONTINUOUS
 10
0.0
 20
0.0
 11
4.6
 21
0.0
  0
LINE
  5
270
100
AcDbEntity
  8
0
100
AcDbLine
 62
2
  6
CONTINUOUS
 10
0.0
 20
0.0
 11
0.0
 21
-1.43775
  0
LINE
  5
271
100
AcDbEntity
  8
0
100
AcDbLine
 62
2
  6
CONTINUOUS
 10
0.0
 20
-0.34375
 11
4.6
 21
-0.34375
  0
LINE
  5
272
100
AcDbEntity
  8
0
100
AcDbLine
 62
2
  6
CONTINUOUS
 10
0.0
 20
-0.68775
 11
4.6
 21
-0.68775
  0
LINE
  5
273
100
AcDbEntity
  8
0
100
AcDbLine
 62
2
  6
CONTINUOUS
 10
0.0
 20
-0.93775
 11
4.6
 21
-0.93775
  0
LINE
  5
274
100
AcDbEntity
  8
0
100
AcDbLine
 62
2
  6
CONTINUOUS
 10
0.0
 20
-1.18775
 11
4.6
 21
-1.18775
  0
LINE
  5
275
100
AcDbEntity
  8
0
100
AcDbLine
 62
2
  6
CONTINUOUS
 10
0.0
 20
-1.43775
 11
4.6
 21
-1.43775
  0
LINE
  5
276
100
AcDbEntity
  8
0
100
AcDbLine
 62
2
  6
CONTINUOUS
 10
1.3
 20
-0.34375
 11
1.3
 21
-1.43775
  0
LINE
  5
277
100
AcDbEntity
  8
0
100
AcDbLine
 62
2
  6
CONTINUOUS
 10
3.3
 20
-0.34375
 11
3.3
 21
-1.43775
  0
LINE
  5
278
100
AcDbEntity
  8
0
100
AcDbLine
 62
2
  6
CONTINUOUS
 10
4.6
 20
0.0
 11
4.6
 21
-1.43775
  0
MTEXT
  5
279
100
AcDbEntity
  8
0
100
AcDbMText
 62
2
  6
CONTINUOUS
  7
STANDARD
 71
2
 72
1
 10
2.3
 20
-0.099375
 30
0.0
 11
1.0
 21
0.0
 31
0.0
 44
0.9
  1
Port Headings
 40
0.145
 41
3.016
  0
MTEXT
  5
27A
100
AcDbEntity
  8
0
100
AcDbMText
 62
2
  6
CONTINUOUS
  7
STANDARD
 71
2
 72
1
 10
0.65
 20
-0.44325
 30
0.0
 11
1.0
 21
0.0
 31
0.0
 44
0.9
  1
Product
 40
0.145
 41
1.624
  0
MTEXT
  5
27B
100
AcDbEntity
  8
0
100
AcDbMText
 62
2
  6
CONTINUOUS
  7
STANDARD
 71
2
 72
1
 10
2.3
 20
-0.44325
 30
0.0
 11
1.0
 21
0.0
 31
0.0
 44
0.9
  1
Port
 40
0.145
 41
0.928
  0
MTEXT
  5
27C
100
AcDbEntity
  8
0
100
AcDbMText
 62
2
  6
CONTINUOUS
  7
STANDARD
 71
2
 72
1
 10
3.95
 20
-0.44325
 30
0.0
 11
1.0
 21
0.0
 31
0.0
 44
0.9
  1
Size
 40
0.145
 41
0.928
  0
MTEXT
  5
27D
100
AcDbEntity
  8
0
100
AcDbMText
 62
2
  6
CONTINUOUS
  7
STANDARD
 71
2
 72
1
 10
0.65
 20
-0.75025
 30
0.0
 11
1.0
 21
0.0
 31
0.0
 44
0.9
  1
XBD
 40
0.125
 41
0.6
  0
MTEXT
  5
27E
100
AcDbEntity
  8
0
100
AcDbMText
 62
2
  6
CONTINUOUS
  7
STANDARD
 71
2
 72
1
 10
2.3
 20
-0.75025
 30
0.0
 11
1.0
 21
0.0
 31
0.0
 44
0.9
  1
Ports 1 &  2
 40
0.125
 41
2.4
  0
MTEXT
  5
27F
100
AcDbEntity
  8
0
100
AcDbMText
 62
2
  6
CONTINUOUS
  7
STANDARD
 71
2
 72
1
 10
3.95
 20
-0.75025
 30
0.0
 11
1.0
 21
0.0
 31
0.0
 44
0.9
  1
3/4" NPTF
 40
0.125
 41
1.8
  0
MTEXT
  5
280
100
AcDbEntity
  8
0
100
AcDbMText
 62
2
  6
CONTINUOUS
  7
STANDARD
 71
2
 72
1
 10
0.65
 20
-1.00025
 30
0.0
 11
1.0
 21
0.0
 31
0.0
 44
0.9
  1
XBD
 40
0.125
 41
0.6
  0
MTEXT
  5
281
100
AcDbEntity
  8
0
100
AcDbMText
 62
2
  6
CONTINUOUS
  7
STANDARD
 71
2
 72
1
 10
2.3
 20
-1.00025
 30
0.0
 11
1.0
 21
0.0
 31
0.0
 44
0.9
  1
Port V
 40
0.125
 41
1.2
  0
MTEXT
  5
282
100
AcDbEntity
  8
0
100
AcDbMText
 62
2
  6
CONTINUOUS
  7
STANDARD
 71
2
 72
1
 10
3.95
 20
-1.00025
 30
0.0
 11
1.0
 21
0.0
 31
0.0
 44
0.9
  1
1/4" NPTF
 40
0.125
 41
1.8
  0
MTEXT
  5
283
100
AcDbEntity
  8
0
100
AcDbMText
 62
2
  6
CONTINUOUS
  7
STANDARD
 71
2
 72
1
 10
0.65
 20
-1.25025
 30
0.0
 11
1.0
 21
0.0
 31
0.0
 44
0.9
  1
XBD
 40
0.125
 41
0.6
  0
MTEXT
  5
284
100
AcDbEntity
  8
0
100
AcDbMText
 62
2
  6
CONTINUOUS
  7
STANDARD
 71
2
 72
1
 10
2.3
 20
-1.25025
 30
0.0
 11
1.0
 21
0.0
 31
0.0
 44
0.9
  1
Gage Ports
 40
0.125
 41
2.0
  0
MTEXT
  5
285
100
AcDbEntity
  8
0
100
AcDbMText
 62
2
  6
CONTINUOUS
  7
STANDARD
 71
2
 72
1
 10
3.95
 20
-1.25025
 30
0.0
 11
1.0
 21
0.0
 31
0.0
 44
0.9
  1
1/4" NPTF
 40
0.125
 41
1.8
  0
ENDBLK
  5
286
100
AcDbEntity
  8
0
  6
BYBLOCK
 62
0
100
AcDbBlockEnd
  0
ENDSEC
  0
SECTION
  2
ENTITIES
  0
IMAGE
  5
287
100
AcDbEntity
  8
0
100
AcDbRasterImage
 62
7
  6
CONTINUOUS
 10
19.2297077316
 20
0.3094318264
 30
0.0
 11
0.0066666667
 21
0.0
 31
0.0
 12
0.0
 22
0.0066666667
 32
0.0
 13
369.0
 23
92.0
340
       3E5
 70
9
280
0
281
50
282
50
283
0
360
       3DF
 71
1
 91
2
 14
-0.5
 24
-0.5
 14
368.5
 24
91.5
  0
INSERT
  5
288
100
AcDbEntity
  8
0
100
AcDbBlockReference
 62
2
  6
CONTINUOUS
  2
SUN_FIRST_THIRD_ANGLE_BL0
 10
20.4816717061
 20
1.2289683772
  0
ACAD_TABLE
  5
289
100
AcDbEntity
  8
0
 62
2
  6
CONTINUOUS
100
AcDbBlockReference
  2
*T1
 10
12.42375
 20
0.30125
 30
0.0
100
AcDbTable
342
       3E7
343
207
 11
1.0
 21
0.0
 31
0.0
 90
6
 91
4
 92
6
 93
20
 94
0
 95
0
 96
0
 70
1
 41
0.0
141
0.525
141
0.1
141
0.525
141
0.1
142
4.1
142
1.1
142
0.7
142
0.5
142
0.4
142
2.475
171
1
172
0
173
0
174
0
175
1
176
1
 91
33
178
0
145
0.0
301
CELL_VALUE
 90
4
  1
T-2A Line mount\PCross port with shuttle on port 3s
304
ACVALUE_END
170
2
140
0.125
171
1
172
0
173
0
174
0
175
1
176
1
 91
33
178
0
145
0.0
301
CELL_VALUE
 90
4
  1
Jun-21-22
304
ACVALUE_END
170
5
140
0.125
171
1
172
0
173
0
174
0
175
1
176
1
 91
33
178
0
145
0.0
301
CELL_VALUE
 90
4
  1
1.000
304
ACVALUE_END
170
5
140
0.125
171
1
172
0
173
0
174
0
175
1
176
1
 91
33
178
0
145
0.0
301
CELL_VALUE
 90
4
  1
C
304
ACVALUE_END
170
5
140
0.125
171
1
172
0
173
0
174
0
175
1
176
1
 91
33
178
0
145
0.0
301
CELL_VALUE
 90
4
  1
2
304
ACVALUE_END
170
5
140
0.125
171
1
172
0
173
0
174
0
175
1
176
1
 91
33
178
0
145
0.0
301
CELL_VALUE
 90
4
  1
 
304
ACVALUE_END
170
1
140
0.125
171
1
172
0
173
0
174
0
175
1
176
1
 91
33
178
0
145
0.0
301
CELL_VALUE
 90
4
  1
DESCRIPTION
304
ACVALUE_END
170
1
140
0.06
171
1
172
0
173
0
174
0
175
1
176
1
 91
33
178
0
145
0.0
301
CELL_VALUE
 90
4
  1
DATE
304
ACVALUE_END
170
1
140
0.06
171
1
172
0
173
0
174
0
175
1
176
1
 91
33
178
0
145
0.0
301
CELL_VALUE
 90
4
  1
SCALE
304
ACVALUE_END
170
1
140
0.06
171
1
172
0
173
0
174
0
175
1
176
1
 91
33
178
0
145
0.0
301
CELL_VALUE
 90
4
  1
DWG SIZE
304
ACVALUE_END
170
1
140
0.06
171
1
172
0
173
0
174
0
175
1
176
1
 91
33
178
0
145
0.0
301
CELL_VALUE
 90
4
  1
SHEET
304
ACVALUE_END
170
1
140
0.06
171
1
172
0
173
0
174
0
175
1
176
1
 91
33
178
0
145
0.0
301
CELL_VALUE
 90
4
  1
 
304
ACVALUE_END
170
1
140
0.125
171
1
172
0
173
0
174
0
175
1
176
1
 91
33
178
0
145
0.0
301
CELL_VALUE
 90
4
  1
XBD
304
ACVALUE_END
170
5
140
0.125
171
1
172
0
173
0
174
0
175
4
176
1
 91
33
178
0
145
0.0
301
CELL_VALUE
 90
4
  1
ALL DIMENSIONS IN INCH\PVIEWS ARE THIRD ANGLE
304
ACVALUE_END
170
5
140
0.12
171
1
172
0
173
1
174
0
175
1
176
1
 91
1
178
0
145
0.0
170
1
171
1
172
0
173
1
174
0
175
1
176
1
 91
1
178
0
145
0.0
170
1
171
1
172
0
173
1
174
0
175
1
176
1
 91
1
178
0
145
0.0
170
5
171
1
172
0
173
0
174
0
175
1
176
1
 91
33
178
0
145
0.0
301
CELL_VALUE
 90
4
  1
 
304
ACVALUE_END
170
1
140
0.125
171
1
172
0
173
0
174
0
175
1
176
1
 91
33
178
0
145
0.0
301
CELL_VALUE
 90
4
  1
MODEL
304
ACVALUE_END
170
1
140
0.06
171
1
172
0
173
0
174
0
175
1
176
1
 91
33
178
0
145
0.0
301
CELL_VALUE
 90
4
  1
 
304
ACVALUE_END
170
1
140
0.125
171
1
172
0
173
0
174
0
175
1
176
1
 91
33
178
0
145
0.0
301
CELL_VALUE
 90
4
  1
 
304
ACVALUE_END
170
1
140
0.125
171
1
172
0
173
0
174
0
175
1
176
1
 91
33
178
0
145
0.0
301
CELL_VALUE
 90
4
  1
 
304
ACVALUE_END
170
1
140
0.125
171
1
172
0
173
0
174
0
175
1
176
1
 91
33
178
0
145
0.0
301
CELL_VALUE
 90
4
  1
 
304
ACVALUE_END
170
1
140
0.125
171
1
172
0
173
0
174
0
175
1
176
1
 91
33
178
0
145
0.0
301
CELL_VALUE
 90
4
  1
 
304
ACVALUE_END
170
1
140
0.125
  0
ACAD_TABLE
  5
28A
100
AcDbEntity
  8
0
 62
2
  6
CONTINUOUS
100
AcDbBlockReference
  2
*T2
 10
12.4237499994
 20
16.47875
 30
0.0
100
AcDbTable
342
       3E6
343
208
 11
1.0
 21
0.0
 31
0.0
 90
22
 91
10
 92
3
 93
16
 94
0
 95
0
 96
0
 41
0.028
141
0.344
141
0.25
141
0.25
141
0.25
141
0.25
141
0.25
141
0.25
141
0.25
141
0.25
141
0.25
142
3.055
142
3.0
142
3.0
171
1
172
0
173
0
174
0
175
1
176
1
 91
33
178
0
145
0.0
301
CELL_VALUE
 90
4
  1
Technical Data
304
ACVALUE_END
170
5
140
0.145
171
1
172
0
173
0
174
0
175
1
176
1
 91
33
178
0
145
0.0
301
CELL_VALUE
 90
4
  1
U.S. Units
304
ACVALUE_END
170
5
140
0.145
171
1
172
0
173
0
174
0
175
1
176
1
 91
33
178
0
145
0.0
301
CELL_VALUE
 90
4
  1
Metric Units
304
ACVALUE_END
170
5
140
0.145
171
1
172
0
173
0
174
0
175
1
176
1
 91
33
178
0
145
0.0
301
CELL_VALUE
 90
4
  1
Cavity
304
ACVALUE_END
170
5
140
0.125
171
1
172
0
173
0
174
0
175
2
176
1
 91
33
178
0
145
0.0
301
CELL_VALUE
 90
4
  1
T-2A
304
ACVALUE_END
170
5
140
0.125
171
1
172
0
173
1
174
0
175
1
176
1
 91
1
178
0
145
0.0
170
1
171
1
172
0
173
0
174
0
175
1
176
1
 91
33
178
0
145
0.0
301
CELL_VALUE
 90
4
  1
Body Features
304
ACVALUE_END
170
5
140
0.125
171
1
172
0
173
0
174
0
175
2
176
1
 91
33
178
0
145
0.0
301
CELL_VALUE
 90
4
  1
Cross port with shuttle on port 3s
304
ACVALUE_END
170
5
140
0.125
171
1
172
0
173
1
174
0
175
1
176
1
 91
1
178
0
145
0.0
170
1
171
1
172
0
173
0
174
0
175
1
176
1
 91
33
178
0
145
0.0
301
CELL_VALUE
 90
4
  1
Body Type
304
ACVALUE_END
170
5
140
0.125
171
1
172
0
173
0
174
0
175
2
176
1
 91
33
178
0
145
0.0
301
CELL_VALUE
 90
4
  1
Line mount
304
ACVALUE_END
170
5
140
0.125
171
1
172
0
173
1
174
0
175
1
176
1
 91
1
178
0
145
0.0
170
1
171
1
172
0
173
0
174
0
175
1
176
1
 91
33
178
0
145
0.0
301
CELL_VALUE
 90
4
  1
Interface
304
ACVALUE_END
170
5
140
0.125
171
1
172
0
173
0
174
0
175
2
176
1
 91
33
178
0
145
0.0
301
CELL_VALUE
 90
4
  1
None
304
ACVALUE_END
170
5
140
0.125
171
1
172
0
173
1
174
0
175
1
176
1
 91
1
178
0
145
0.0
170
1
171
1
172
0
173
0
174
0
175
1
176
1
 91
33
178
0
145
0.0
301
CELL_VALUE
 90
4
  1
Open Cavity Quantity
304
ACVALUE_END
170
5
140
0.125
171
1
172
0
173
0
174
0
175
2
176
1
 91
33
178
0
145
0.0
301
CELL_VALUE
 90
4
  1
2
304
ACVALUE_END
170
5
140
0.125
171
1
172
0
173
1
174
0
175
1
176
1
 91
1
178
0
145
0.0
170
1
171
1
172
0
173
0
174
0
175
1
176
1
 91
33
178
0
145
0.0
301
CELL_VALUE
 90
4
  1
Weight
304
ACVALUE_END
170
5
140
0.125
171
1
172
0
173
0
174
0
175
1
176
1
 91
33
178
0
145
0.0
301
CELL_VALUE
 90
4
  1
6.160 lb.
304
ACVALUE_END
170
5
140
0.125
171
1
172
0
173
0
174
0
175
1
176
1
 91
33
178
0
145
0.0
301
CELL_VALUE
 90
4
  1
2,794 kg.
304
ACVALUE_END
170
5
140
0.125
171
1
172
0
173
0
174
0
175
1
176
1
 91
33
178
0
145
0.0
301
CELL_VALUE
 90
4
  1
Mounting Hole Diameter
304
ACVALUE_END
170
5
140
0.125
171
1
172
0
173
0
174
0
175
1
176
1
 91
33
178
0
145
0.0
301
CELL_VALUE
 90
4
  1
.41 in.
304
ACVALUE_END
170
5
140
0.125
171
1
172
0
173
0
174
0
175
1
176
1
 91
33
178
0
145
0.0
301
CELL_VALUE
 90
4
  1
10,4 mm
304
ACVALUE_END
170
5
140
0.125
171
1
172
0
173
0
174
0
175
1
176
1
 91
33
178
0
145
0.0
301
CELL_VALUE
 90
4
  1
Mounting Hole Depth
304
ACVALUE_END
170
5
140
0.125
171
1
172
0
173
0
174
0
175
2
176
1
 91
33
178
0
145
0.0
301
CELL_VALUE
 90
4
  1
Through
304
ACVALUE_END
170
5
140
0.125
171
1
172
0
173
1
174
0
175
1
176
1
 91
1
178
0
145
0.0
170
1
171
1
172
0
173
0
174
0
175
1
176
1
 91
33
178
0
145
0.0
301
CELL_VALUE
 90
4
  1
Mounting Hole Quantity
304
ACVALUE_END
170
5
140
0.125
171
1
172
0
173
0
174
0
175
2
176
1
 91
33
178
0
145
0.0
301
CELL_VALUE
 90
4
  1
2
304
ACVALUE_END
170
5
140
0.125
171
1
172
0
173
1
174
0
175
1
176
1
 91
1
178
0
145
0.0
170
1
  0
ACAD_TABLE
  5
28B
100
AcDbEntity
  8
0
 62
2
  6
CONTINUOUS
100
AcDbBlockReference
  2
*T3
 10
0.52125
 20
1.959
 30
0.0
100
AcDbTable
342
       3E6
343
209
 11
1.0
 21
0.0
 31
0.0
 90
22
 91
5
 92
3
 93
16
 94
0
 95
0
 96
0
 41
0.05
141
0.34375
141
0.344
141
0.25
141
0.25
141
0.25
142
1.3
142
2.0
142
1.3
171
1
172
0
173
0
174
0
175
3
176
1
 91
33
178
0
145
0.0
301
CELL_VALUE
 90
4
  1
Port Headings
304
ACVALUE_END
170
5
140
0.145
171
1
172
0
173
1
174
0
175
1
176
1
 91
1
178
0
145
0.0
170
1
171
1
172
0
173
1
174
0
175
1
176
1
 91
1
178
0
145
0.0
170
1
171
1
172
0
173
0
174
0
175
1
176
1
 91
33
178
0
145
0.0
301
CELL_VALUE
 90
4
  1
Product
304
ACVALUE_END
170
5
140
0.145
171
1
172
0
173
0
174
0
175
1
176
1
 91
33
178
0
145
0.0
301
CELL_VALUE
 90
4
  1
Port
304
ACVALUE_END
170
5
140
0.145
171
1
172
0
173
0
174
0
175
1
176
1
 91
33
178
0
145
0.0
301
CELL_VALUE
 90
4
  1
Size
304
ACVALUE_END
170
5
140
0.145
171
1
172
0
173
0
174
0
175
1
176
1
 91
33
178
0
145
0.0
301
CELL_VALUE
 90
4
  1
XBD
304
ACVALUE_END
170
5
140
0.125
171
1
172
0
173
0
174
0
175
1
176
1
 91
33
178
0
145
0.0
301
CELL_VALUE
 90
4
  1
Ports 1 &  2
304
ACVALUE_END
170
5
140
0.125
171
1
172
0
173
0
174
0
175
1
176
1
 91
33
178
0
145
0.0
301
CELL_VALUE
 90
4
  1
3/4" NPTF
304
ACVALUE_END
170
5
140
0.125
171
1
172
0
173
0
174
0
175
1
176
1
 91
33
178
0
145
0.0
301
CELL_VALUE
 90
4
  1
XBD
304
ACVALUE_END
170
5
140
0.125
171
1
172
0
173
0
174
0
175
1
176
1
 91
33
178
0
145
0.0
301
CELL_VALUE
 90
4
  1
Port V
304
ACVALUE_END
170
5
140
0.125
171
1
172
0
173
0
174
0
175
1
176
1
 91
33
178
0
145
0.0
301
CELL_VALUE
 90
4
  1
1/4" NPTF
304
ACVALUE_END
170
5
140
0.125
171
1
172
0
173
0
174
0
175
1
176
1
 91
33
178
0
145
0.0
301
CELL_VALUE
 90
4
  1
XBD
304
ACVALUE_END
170
5
140
0.125
171
1
172
0
173
0
174
0
175
1
176
1
 91
33
178
0
145
0.0
301
CELL_VALUE
 90
4
  1
Gage Ports
304
ACVALUE_END
170
5
140
0.125
171
1
172
0
173
0
174
0
175
1
176
1
 91
33
178
0
145
0.0
301
CELL_VALUE
 90
4
  1
1/4" NPTF
304
ACVALUE_END
170
5
140
0.125
  0
MTEXT
  5
28C
100
AcDbEntity
  8
0
100
AcDbMText
 62
2
  6
CONTINUOUS
  7
STANDARD
 71
1
 72
1
 10
0.52125
 20
5.75995
 30
0.0
 11
1.0
 21
0.0
 31
0.0
 44
0.6
  3
Notes\P \P1. Important: Carefully consider\P   the maximum system pressure. The\P   pressure rating of the manifold is\P   dependent on the manifold material,\P   with the port type/size a secondary\P   consideration. Manifolds\P   constructed of alu
  1
minum are not\P   rated for pressures higher than\P   3000 psi (210 bar), regardless of\P   the port type/size specified.\P2. Items without balloons are\P   shipped loose.
 40
0.1
 41
3.04
  0
LINE
  5
28D
100
AcDbEntity
  8
0
100
AcDbLine
 62
7
  6
CONTINUOUS
 10
0.30125
 20
0.30125
 11
0.30125
 21
16.69875
  0
LINE
  5
28E
100
AcDbEntity
  8
0
100
AcDbLine
 62
7
  6
CONTINUOUS
 10
0.30125
 20
0.30125
 11
21.69875
 21
0.30125
  0
LINE
  5
28F
100
AcDbEntity
  8
0
100
AcDbLine
 62
7
  6
CONTINUOUS
 10
0.30125
 20
16.69875
 11
21.69875
 21
16.69875
  0
LINE
  5
290
100
AcDbEntity
  8
0
100
AcDbLine
 62
7
  6
CONTINUOUS
 10
21.69875
 20
0.30125
 11
21.69875
 21
16.69875
  0
LINE
  5
291
100
AcDbEntity
  8
0
100
AcDbLine
 62
7
  6
CONTINUOUS
 10
7.9381382124
 20
6.6539499901
 11
7.9381382124
 21
9.4309869052
  0
LINE
  5
292
100
AcDbEntity
  8
0
100
AcDbLine
 62
7
  6
CONTINUOUS
 10
7.9381382124
 20
9.4309869052
 11
9.23223237
 21
10.6809859477
  0
LINE
  5
293
100
AcDbEntity
  8
0
100
AcDbLine
 62
4
  6
CONTINUOUS
 10
9.1539424514
 20
10.3273637551
 11
9.1487660761
 21
10.3223637602
  0
LINE
  5
294
100
AcDbEntity
  8
0
100
AcDbLine
 62
4
  6
CONTINUOUS
 10
8.6123546471
 20
9.8022302217
 11
8.581296388
 21
9.7722302454
  0
LINE
  5
295
100
AcDbEntity
  8
0
100
AcDbLine
 62
4
  6
CONTINUOUS
 10
9.0851140265
 20
10.3133805968
 11
9.0701050177
 21
10.3063830066
  0
LINE
  5
296
100
AcDbEntity
  8
0
100
AcDbLine
 62
4
  6
CONTINUOUS
 10
8.8871604294
 20
7.7569054245
 11
8.9233826492
 21
7.6384823016
  0
LINE
  5
297
100
AcDbEntity
  8
0
100
AcDbLine
 62
7
  6
CONTINUOUS
 10
12.76776763
 20
6.3190140523
 11
7.9381382124
 21
6.6539499901
  0
LINE
  5
298
100
AcDbEntity
  8
0
100
AcDbLine
 62
4
  6
CONTINUOUS
 10
10.1108034505
 20
10.0910490418
 11
10.1152403444
 21
10.0953347525
  0
LINE
  5
299
100
AcDbEntity
  8
0
100
AcDbLine
 62
4
  6
CONTINUOUS
 10
8.9233826492
 20
7.6384823016
 11
8.959604869
 21
7.7518813855
  0
LINE
  5
29A
100
AcDbEntity
  8
0
100
AcDbLine
 62
4
  6
CONTINUOUS
 10
10.1510114253
 20
10.0698869667
 11
10.1554483197
 21
10.0741726778
  0
LINE
  5
29B
100
AcDbEntity
  8
0
100
AcDbLine
 62
4
  6
CONTINUOUS
 10
10.2107502462
 20
10.0933045286
 11
10.1841288815
 21
10.0675902633
  0
LINE
  5
29C
100
AcDbEntity
  8
0
100
AcDbLine
 62
4
  6
CONTINUOUS
 10
10.0571721263
 20
9.9078165764
 11
10.0882303853
 21
9.9378165527
  0
LINE
  5
29D
100
AcDbEntity
  8
0
100
AcDbLine
 62
4
  6
CONTINUOUS
 10
10.2420844332
 20
10.0635710322
 11
10.2687057979
 21
10.0892852974
  0
LINE
  5
29E
100
AcDbEntity
  8
0
100
AcDbLine
 62
4
  6
CONTINUOUS
 10
9.9791647564
 20
9.7824673036
 11
9.9688120035
 21
9.7724673116
  0
LINE
  5
29F
100
AcDbEntity
  8
0
100
AcDbLine
 62
4
  6
CONTINUOUS
 10
10.270764995
 20
10.0569886177
 11
10.3018232541
 21
10.086988594
  0
LINE
  5
2A0
100
AcDbEntity
  8
0
100
AcDbLine
 62
4
  6
CONTINUOUS
 10
10.1417490363
 20
9.9295116114
 11
10.1195645654
 21
9.9080830568
  0
LINE
  5
2A1
100
AcDbEntity
  8
0
100
AcDbLine
 62
4
  6
CONTINUOUS
 10
10.3287205467
 20
10.0529693865
 11
10.3597788058
 21
10.0829693629
  0
LINE
  5
2A2
100
AcDbEntity
  8
0
100
AcDbLine
 62
4
  6
CONTINUOUS
 10
10.0816272135
 20
9.791438445
 11
10.0505689544
 21
9.7614384686
  0
LINE
  5
2A3
100
AcDbEntity
  8
0
100
AcDbLine
 62
4
  6
CONTINUOUS
 10
10.4529110107
 20
10.0443567486
 11
10.4839692698
 21
10.0743567249
  0
LINE
  5
2A4
100
AcDbEntity
  8
0
100
AcDbLine
 62
4
  6
CONTINUOUS
 10
10.2945139091
 20
9.8913568678
 11
10.3255721682
 21
9.9213568442
  0
LINE
  5
2A5
100
AcDbEntity
  8
0
100
AcDbLine
 62
7
  6
CONTINUOUS
 10
9.7881862845
 20
9.6879962238
 11
9.7874872284
 21
9.6873337173
  0
LINE
  5
2A6
100
AcDbEntity
  8
0
100
AcDbLine
 62
4
  6
CONTINUOUS
 10
9.9067203167
 20
9.7874913425
 11
9.9217293255
 21
9.7944889327
  0
LINE
  5
2A7
100
AcDbEntity
  8
0
100
AcDbLine
 62
4
  6
CONTINUOUS
 10
10.1620440707
 20
9.9005436823
 11
10.226219786
 21
9.9282469553
  0
LINE
  5
2A8
100
AcDbEntity
  8
0
100
AcDbLine
 62
4
  6
CONTINUOUS
 10
10.5448685694
 20
10.0303237859
 11
10.6075653066
 21
10.0565984901
  0
LINE
  5
2A9
100
AcDbEntity
  8
0
100
AcDbLine
 62
4
  6
CONTINUOUS
 10
10.5225532253
 20
10.0601973919
 11
10.5025872018
 21
10.040911693
  0
LINE
  5
2AA
100
AcDbEntity
  8
0
100
AcDbLine
 62
4
  6
CONTINUOUS
 10
10.3607488214
 20
9.8867634611
 11
10.3918070805
 21
9.9167634374
  0
LINE
  5
2AB
100
AcDbEntity
  8
0
100
AcDbLine
 62
4
  6
CONTINUOUS
 10
10.5160103339
 20
9.9467345613
 11
10.547068593
 21
9.9767345376
  0
LINE
  5
2AC
100
AcDbEntity
  8
0
100
AcDbLine
 62
4
  6
CONTINUOUS
 10
10.6096776142
 20
10.0357816531
 11
10.6274251905
 21
10.0529244964
  0
LINE
  5
2AD
100
AcDbEntity
  8
0
100
AcDbLine
 62
4
  6
CONTINUOUS
 10
10.5923078833
 20
9.9690037719
 11
10.5856525416
 21
9.962575205
  0
LINE
  5
2AE
100
AcDbEntity
  8
0
100
AcDbLine
 62
4
  6
CONTINUOUS
 10
10.6881935896
 20
10.0601937202
 11
10.6571353305
 21
10.0301937439
  0
LINE
  5
2AF
100
AcDbEntity
  8
0
100
AcDbLine
 62
4
  6
CONTINUOUS
 10
10.5850581144
 20
9.9534296081
 11
10.5784027731
 21
9.9470010417
  0
LINE
  5
2B0
100
AcDbEntity
  8
0
100
AcDbLine
 62
4
  6
CONTINUOUS
 10
10.6902528281
 20
10.0278970376
 11
10.7124372994
 21
10.0493255927
  0
LINE
  5
2B1
100
AcDbEntity
  8
0
100
AcDbLine
 62
4
  6
CONTINUOUS
 10
10.5390523986
 20
9.8789914768
 11
10.5612368694
 21
9.9004200314
  0
LINE
  5
2B2
100
AcDbEntity
  8
0
100
AcDbLine
 62
4
  6
CONTINUOUS
 10
10.6070833487
 20
9.9404186262
 11
10.6381416078
 21
9.9704186026
  0
LINE
  5
2B3
100
AcDbEntity
  8
0
100
AcDbLine
 62
4
  6
CONTINUOUS
 10
10.7488558492
 20
10.0445032516
 11
10.7444189553
 21
10.0402175409
  0
LINE
  5
2B4
100
AcDbEntity
  8
0
100
AcDbLine
 62
4
  6
CONTINUOUS
 10
10.6916602518
 20
9.9621136617
 11
10.6694757809
 21
9.9406851071
  0
LINE
  5
2B5
100
AcDbEntity
  8
0
100
AcDbLine
 62
4
  6
CONTINUOUS
 10
10.7669855482
 20
10.0248723108
 11
10.7736408897
 21
10.0313008775
  0
LINE
  5
2B6
100
AcDbEntity
  8
0
100
AcDbLine
 62
4
  6
CONTINUOUS
 10
10.6356449479
 20
9.8722927607
 11
10.6578294188
 21
9.8937213153
  0
LINE
  5
2B7
100
AcDbEntity
  8
0
100
AcDbLine
 62
4
  6
CONTINUOUS
 10
10.8144432645
 20
10.0192844016
 11
10.8321908419
 21
10.036427246
  0
LINE
  5
2B8
100
AcDbEntity
  8
0
100
AcDbLine
 62
4
  6
CONTINUOUS
 10
11.0386866776
 20
10.035886942
 11
11.033708452
 21
10.033935477
  0
LINE
  5
2B9
100
AcDbEntity
  8
0
100
AcDbLine
 62
4
  6
CONTINUOUS
 10
9.824108591
 20
7.7305648545
 11
9.8096197031
 21
7.7412289212
  0
LINE
  5
2BA
100
AcDbEntity
  8
0
100
AcDbLine
 62
4
  6
CONTINUOUS
 10
9.9400196944
 20
7.7225263921
 11
9.9255308065
 21
7.7331904588
  0
LINE
  5
2BB
100
AcDbEntity
  8
0
100
AcDbLine
 62
4
  6
CONTINUOUS
 10
9.8096197031
 20
7.7412289212
 11
9.7951308151
 21
7.7615522459
  0
LINE
  5
2BC
100
AcDbEntity
  8
0
100
AcDbLine
 62
4
  6
CONTINUOUS
 10
9.8530863669
 20
7.834807086
 11
9.8603308108
 21
7.8246454189
  0
LINE
  5
2BD
100
AcDbEntity
  8
0
100
AcDbLine
 62
4
  6
CONTINUOUS
 10
9.9255308065
 20
7.7331904588
 11
9.9110419186
 21
7.7535137836
  0
LINE
  5
2BE
100
AcDbEntity
  8
0
100
AcDbLine
 62
4
  6
CONTINUOUS
 10
9.9182863625
 20
7.8109669314
 11
9.9255308065
 21
7.8008052712
  0
LINE
  5
2BF
100
AcDbEntity
  8
0
100
AcDbLine
 62
4
  6
CONTINUOUS
 10
9.9689974703
 20
7.7688130685
 11
9.9762419142
 21
7.7586514083
  0
LINE
  5
2C0
100
AcDbEntity
  8
0
100
AcDbLine
 62
4
  6
CONTINUOUS
 10
9.9762419142
 20
7.8166069566
 11
9.9689974703
 21
7.8267686237
  0
LINE
  5
2C1
100
AcDbEntity
  8
0
100
AcDbLine
 62
4
  6
CONTINUOUS
 10
9.7951308151
 20
7.7615522459
 11
9.7878863712
 21
7.7910324257
  0
LINE
  5
2C2
100
AcDbEntity
  8
0
100
AcDbLine
 62
4
  6
CONTINUOUS
 10
9.9182863625
 20
7.8206261877
 11
9.9182863625
 21
7.8109669314
  0
LINE
  5
2C3
100
AcDbEntity
  8
0
100
AcDbLine
 62
4
  6
CONTINUOUS
 10
9.9762419142
 20
7.7586514083
 11
9.9762419142
 21
7.7393328905
  0
LINE
  5
2C4
100
AcDbEntity
  8
0
100
AcDbLine
 62
4
  6
CONTINUOUS
 10
9.9062001959
 20
9.7794889445
 11
9.9067203167
 21
9.7874913425
  0
LINE
  5
2C5
100
AcDbEntity
  8
0
100
AcDbLine
 62
4
  6
CONTINUOUS
 10
9.7878863712
 20
7.7910324257
 11
9.7951308151
 21
7.8195077976
  0
LINE
  5
2C6
100
AcDbEntity
  8
0
100
AcDbLine
 62
4
  6
CONTINUOUS
 10
10.8697451782
 20
10.0384162542
 11
10.849779154
 21
10.0191305547
  0
LINE
  5
2C7
100
AcDbEntity
  8
0
100
AcDbLine
 62
4
  6
CONTINUOUS
 10
10.7157849705
 20
9.8897020841
 11
10.6936004996
 21
9.8682735295
  0
LINE
  5
2C8
100
AcDbEntity
  8
0
100
AcDbLine
 62
4
  6
CONTINUOUS
 10
10.7222810476
 20
9.861691116
 11
10.7533393067
 21
9.8916910924
  0
LINE
  5
2C9
100
AcDbEntity
  8
0
100
AcDbLine
 62
4
  6
CONTINUOUS
 10
10.8972369256
 20
10.0135426417
 11
10.9194213969
 21
10.0349711968
  0
LINE
  5
2CA
100
AcDbEntity
  8
0
100
AcDbLine
 62
4
  6
CONTINUOUS
 10
10.9325728151
 20
10.0133887948
 11
10.961412627
 21
10.0412459156
  0
LINE
  5
2CB
100
AcDbEntity
  8
0
100
AcDbLine
 62
4
  6
CONTINUOUS
 10
10.8068579645
 20
9.8833861506
 11
10.7846734937
 21
9.861957596
  0
LINE
  5
2CC
100
AcDbEntity
  8
0
100
AcDbLine
 62
4
  6
CONTINUOUS
 10
10.8271530405
 20
9.8544182186
 11
10.8582112995
 21
9.884418195
  0
LINE
  5
2CD
100
AcDbEntity
  8
0
100
AcDbLine
 62
4
  6
CONTINUOUS
 10
11.0048686408
 20
10.0060783569
 11
11.0270531121
 21
10.027506912
  0
LINE
  5
2CE
100
AcDbEntity
  8
0
100
AcDbLine
 62
4
  6
CONTINUOUS
 10
11.033708452
 20
10.033935477
 11
11.0359268999
 21
10.0360783333
  0
LINE
  5
2CF
100
AcDbEntity
  8
0
100
AcDbLine
 62
4
  6
CONTINUOUS
 10
11.0512436962
 20
10.0051589413
 11
11.0689912725
 21
10.0223017846
  0
LINE
  5
2D0
100
AcDbEntity
  8
0
100
AcDbLine
 62
4
  6
CONTINUOUS
 10
11.1368502598
 20
10.0107056324
 11
11.1435056006
 21
10.0171341984
  0
LINE
  5
2D1
100
AcDbEntity
  8
0
100
AcDbLine
 62
4
  6
CONTINUOUS
 10
9.8385974789
 20
7.8454711501
 11
9.8530863669
 21
7.834807086
  0
LINE
  5
2D2
100
AcDbEntity
  8
0
100
AcDbLine
 62
4
  6
CONTINUOUS
 10
9.9255308065
 20
7.8008052712
 11
9.9689974703
 21
7.7688130685
  0
LINE
  5
2D3
100
AcDbEntity
  8
0
100
AcDbLine
 62
4
  6
CONTINUOUS
 10
9.9689974703
 20
7.8267686237
 11
9.9545085824
 21
7.8374326878
  0
LINE
  5
2D4
100
AcDbEntity
  8
0
100
AcDbLine
 62
4
  6
CONTINUOUS
 10
10.2080641211
 20
7.75223374
 11
10.1935752332
 21
7.7725570638
  0
LINE
  5
2D5
100
AcDbEntity
  8
0
100
AcDbLine
 62
4
  6
CONTINUOUS
 10
10.2008196771
 20
7.810691699
 11
10.1935752332
 21
7.8208533592
  0
LINE
  5
2D6
100
AcDbEntity
  8
0
100
AcDbLine
 62
4
  6
CONTINUOUS
 10
10.0631752418
 20
7.8298966294
 11
10.0993974616
 21
7.7114735065
  0
LINE
  5
2D7
100
AcDbEntity
  8
0
100
AcDbLine
 62
4
  6
CONTINUOUS
 10
10.1428641254
 20
7.8243701865
 11
10.1428641254
 21
7.7084590831
  0
LINE
  5
2D8
100
AcDbEntity
  8
0
100
AcDbLine
 62
4
  6
CONTINUOUS
 10
10.2008196771
 20
7.7817139232
 11
10.2008196771
 21
7.810691699
  0
LINE
  5
2D9
100
AcDbEntity
  8
0
100
AcDbLine
 62
4
  6
CONTINUOUS
 10
10.2080641211
 20
7.7232559658
 11
10.2080641211
 21
7.75223374
  0
LINE
  5
2DA
100
AcDbEntity
  8
0
100
AcDbLine
 62
4
  6
CONTINUOUS
 10
11.1754341326
 20
9.9965463053
 11
11.1820894741
 21
10.0029748719
  0
LINE
  5
2DB
100
AcDbEntity
  8
0
100
AcDbLine
 62
4
  6
CONTINUOUS
 10
12.0065444082
 20
9.9687657804
 11
12.0215534169
 21
9.9757633706
  0
LINE
  5
2DC
100
AcDbEntity
  8
0
100
AcDbLine
 62
4
  6
CONTINUOUS
 10
12.1364242788
 20
9.9517201123
 11
12.12141527
 21
9.9447225222
  0
LINE
  5
2DD
100
AcDbEntity
  8
0
100
AcDbLine
 62
4
  6
CONTINUOUS
 10
9.9545085824
 20
7.7215215844
 11
9.9400196944
 21
7.7225263921
  0
LINE
  5
2DE
100
AcDbEntity
  8
0
100
AcDbLine
 62
4
  6
CONTINUOUS
 10
9.8385974789
 20
7.7295600467
 11
9.824108591
 21
7.7305648545
  0
LINE
  5
2DF
100
AcDbEntity
  8
0
100
AcDbLine
 62
4
  6
CONTINUOUS
 10
10.1428641254
 20
7.7084590831
 11
10.1935752332
 21
7.7049422558
  0
LINE
  5
2E0
100
AcDbEntity
  8
0
100
AcDbLine
 62
4
  6
CONTINUOUS
 10
10.0414419099
 20
7.7541297732
 11
10.0849085737
 21
7.7511153499
  0
LINE
  5
2E1
100
AcDbEntity
  8
0
100
AcDbLine
 62
4
  6
CONTINUOUS
 10
10.1428641254
 20
7.7760738911
 11
10.1935752332
 21
7.7725570638
  0
LINE
  5
2E2
100
AcDbEntity
  8
0
100
AcDbLine
 62
4
  6
CONTINUOUS
 10
10.1935752332
 20
7.8208533592
 11
10.1428641254
 21
7.8243701865
  0
LINE
  5
2E3
100
AcDbEntity
  8
0
100
AcDbLine
 62
4
  6
CONTINUOUS
 10
9.9545085824
 20
7.8374326878
 11
9.9400196944
 21
7.8384374956
  0
LINE
  5
2E4
100
AcDbEntity
  8
0
100
AcDbLine
 62
4
  6
CONTINUOUS
 10
9.824108591
 20
7.8464759579
 11
9.8385974789
 21
7.8454711501
  0
LINE
  5
2E5
100
AcDbEntity
  8
0
100
AcDbLine
 62
4
  6
CONTINUOUS
 10
10.226219786
 20
9.9282469553
 11
10.2282789968
 21
9.8959502746
  0
LINE
  5
2E6
100
AcDbEntity
  8
0
100
AcDbLine
 62
4
  6
CONTINUOUS
 10
10.026953022
 20
7.7164975454
 11
10.0631752418
 21
7.8298966294
  0
LINE
  5
2E7
100
AcDbEntity
  8
0
100
AcDbLine
 62
4
  6
CONTINUOUS
 10
9.7951308151
 20
7.8195077976
 11
9.8096197031
 21
7.8378215094
  0
LINE
  5
2E8
100
AcDbEntity
  8
0
100
AcDbLine
 62
4
  6
CONTINUOUS
 10
9.9255308065
 20
7.8297830471
 11
9.9182863625
 21
7.8206261877
  0
LINE
  5
2E9
100
AcDbEntity
  8
0
100
AcDbLine
 62
4
  6
CONTINUOUS
 10
9.8603308108
 20
7.7473713528
 11
9.8530863669
 21
7.7382144978
  0
LINE
  5
2EA
100
AcDbEntity
  8
0
100
AcDbLine
 62
4
  6
CONTINUOUS
 10
9.9762419142
 20
7.7393328905
 11
9.9689974703
 21
7.7301760355
  0
LINE
  5
2EB
100
AcDbEntity
  8
0
100
AcDbLine
 62
4
  6
CONTINUOUS
 10
12.0789888478
 20
9.9637417415
 11
12.068636095
 21
9.9537417495
  0
LINE
  5
2EC
100
AcDbEntity
  8
0
100
AcDbLine
 62
4
  6
CONTINUOUS
 10
13.4337124156
 20
10.0118042742
 11
13.4187034069
 21
10.004806684
  0
LINE
  5
2ED
100
AcDbEntity
  8
0
100
AcDbLine
 62
4
  6
CONTINUOUS
 10
10.5578891431
 20
10.0600435437
 11
10.5605427812
 21
10.0368924599
  0
LINE
  5
2EE
100
AcDbEntity
  8
0
100
AcDbLine
 62
4
  6
CONTINUOUS
 10
10.1935752332
 20
7.7725570638
 11
10.2008196771
 21
7.7817139232
  0
LINE
  5
2EF
100
AcDbEntity
  8
0
100
AcDbLine
 62
4
  6
CONTINUOUS
 10
10.1935752332
 20
7.7049422558
 11
10.2080641211
 21
7.7232559658
  0
LINE
  5
2F0
100
AcDbEntity
  8
0
100
AcDbLine
 62
4
  6
CONTINUOUS
 10
12.2052527037
 20
9.9657032707
 11
12.2000763284
 21
9.9607032758
  0
LINE
  5
2F1
100
AcDbEntity
  8
0
100
AcDbLine
 62
4
  6
CONTINUOUS
 10
9.8096197031
 20
7.8378215094
 11
9.824108591
 21
7.8464759579
  0
LINE
  5
2F2
100
AcDbEntity
  8
0
100
AcDbLine
 62
4
  6
CONTINUOUS
 10
9.9400196944
 20
7.8384374956
 11
9.9255308065
 21
7.8297830471
  0
LINE
  5
2F3
100
AcDbEntity
  8
0
100
AcDbLine
 62
7
  6
CONTINUOUS
 10
12.7527322102
 20
10.0515278663
 11
12.7520331541
 21
10.0508653598
  0
LINE
  5
2F4
100
AcDbEntity
  8
0
100
AcDbLine
 62
4
  6
CONTINUOUS
 10
9.8530863669
 20
7.7382144978
 11
9.8385974789
 21
7.7295600467
  0
LINE
  5
2F5
100
AcDbEntity
  8
0
100
AcDbLine
 62
4
  6
CONTINUOUS
 10
9.9689974703
 20
7.7301760355
 11
9.9545085824
 21
7.7215215844
  0
LINE
  5
2F6
100
AcDbEntity
  8
0
100
AcDbLine
 62
4
  6
CONTINUOUS
 10
9.9155127074
 20
9.7734841408
 11
9.9062001959
 21
9.7794889445
  0
LINE
  5
2F7
100
AcDbEntity
  8
0
100
AcDbLine
 62
4
  6
CONTINUOUS
 10
10.3018232541
 20
10.086988594
 11
10.3287205467
 21
10.0529693865
  0
LINE
  5
2F8
100
AcDbEntity
  8
0
100
AcDbLine
 62
4
  6
CONTINUOUS
 10
12.9512939305
 20
9.5013237604
 11
12.9202356715
 21
9.471323784
  0
LINE
  5
2F9
100
AcDbEntity
  8
0
100
AcDbLine
 62
4
  6
CONTINUOUS
 10
13.5025408405
 20
10.0257874325
 11
13.4973644652
 21
10.0207874377
  0
LINE
  5
2FA
100
AcDbEntity
  8
0
100
AcDbLine
 62
7
  6
CONTINUOUS
 10
7.9381382124
 20
9.4309869052
 11
12.76776763
 21
9.0960509675
  0
LINE
  5
2FB
100
AcDbEntity
  8
0
100
AcDbLine
 62
4
  6
CONTINUOUS
 10
9.1492861969
 20
10.3303661582
 11
9.1539424514
 21
10.3273637551
  0
LINE
  5
2FC
100
AcDbEntity
  8
0
100
AcDbLine
 62
4
  6
CONTINUOUS
 10
9.9848612543
 20
9.7954696982
 11
9.9895175088
 21
9.7924672951
  0
LINE
  5
2FD
100
AcDbEntity
  8
0
100
AcDbLine
 62
4
  6
CONTINUOUS
 10
10.4477162176
 20
9.9836246482
 11
10.4828928778
 21
9.9490312646
  0
LINE
  5
2FE
100
AcDbEntity
  8
0
100
AcDbLine
 62
4
  6
CONTINUOUS
 10
12.0060242874
 20
9.9607633825
 11
12.0065444082
 21
9.9687657804
  0
LINE
  5
2FF
100
AcDbEntity
  8
0
100
AcDbLine
 62
7
  6
CONTINUOUS
 10
12.76776763
 20
9.0960509675
 11
14.0618617876
 21
10.3460500099
  0
LINE
  5
300
100
AcDbEntity
  8
0
100
AcDbLine
 62
4
  6
CONTINUOUS
 10
13.4973644652
 20
10.0207874377
 11
13.4875318318
 21
10.0187898423
  0
LINE
  5
301
100
AcDbEntity
  8
0
100
AcDbLine
 62
4
  6
CONTINUOUS
 10
13.4533776797
 20
10.0157994622
 11
13.4337124156
 21
10.0118042742
  0
LINE
  5
302
100
AcDbEntity
  8
0
100
AcDbLine
 62
4
  6
CONTINUOUS
 10
13.4445852888
 20
10.0298066637
 11
13.4544179223
 21
10.031804259
  0
LINE
  5
303
100
AcDbEntity
  8
0
100
AcDbLine
 62
4
  6
CONTINUOUS
 10
9.927413407
 20
9.7699793349
 11
9.9155127074
 21
9.7734841408
  0
LINE
  5
304
100
AcDbEntity
  8
0
100
AcDbLine
 62
4
  6
CONTINUOUS
 10
9.972960554
 20
9.7989745034
 11
9.9848612543
 21
9.7954696982
  0
LINE
  5
305
100
AcDbEntity
  8
0
100
AcDbLine
 62
4
  6
CONTINUOUS
 10
10.1296272021
 20
9.9349456737
 11
10.1417490363
 21
9.9295116114
  0
LINE
  5
306
100
AcDbEntity
  8
0
100
AcDbLine
 62
4
  6
CONTINUOUS
 10
10.8321908419
 20
10.036427246
 11
10.8283484029
 21
10.0412871304
  0
LINE
  5
307
100
AcDbEntity
  8
0
100
AcDbLine
 62
7
  6
CONTINUOUS
 10
13.6896803172
 20
9.3867103032
 11
13.6909886167
 21
9.3879507913
  0
LINE
  5
308
100
AcDbEntity
  8
0
100
AcDbLine
 62
7
  6
CONTINUOUS
 10
13.1399491004
 20
8.8557106919
 11
13.1412573998
 21
8.8569511799
  0
LINE
  5
309
100
AcDbEntity
  8
0
100
AcDbLine
 62
4
  6
CONTINUOUS
 10
12.2000763284
 20
9.9607032758
 11
12.190243695
 21
9.9587056805
  0
LINE
  5
30A
100
AcDbEntity
  8
0
100
AcDbLine
 62
4
  6
CONTINUOUS
 10
12.1560895429
 20
9.9557153003
 11
12.1364242788
 21
9.9517201123
  0
LINE
  5
30B
100
AcDbEntity
  8
0
100
AcDbLine
 62
4
  6
CONTINUOUS
 10
12.147297152
 20
9.9697225018
 11
12.1571297854
 21
9.9717200972
  0
LINE
  5
30C
100
AcDbEntity
  8
0
100
AcDbLine
 62
4
  6
CONTINUOUS
 10
12.068636095
 20
9.9537417495
 11
12.0588034627
 21
9.9517441553
  0
LINE
  5
30D
100
AcDbEntity
  8
0
100
AcDbLine
 62
4
  6
CONTINUOUS
 10
12.0215534169
 20
9.9757633706
 11
12.041218682
 21
9.9797585595
  0
LINE
  5
30E
100
AcDbEntity
  8
0
100
AcDbLine
 62
4
  6
CONTINUOUS
 10
9.9419022949
 20
9.7689745271
 11
9.927413407
 21
9.7699793349
  0
LINE
  5
30F
100
AcDbEntity
  8
0
100
AcDbLine
 62
4
  6
CONTINUOUS
 10
9.9501869805
 20
9.7844769191
 11
9.9791647564
 21
9.7824673036
  0
LINE
  5
310
100
AcDbEntity
  8
0
100
AcDbLine
 62
4
  6
CONTINUOUS
 10
9.9584716661
 20
9.7999793112
 11
9.972960554
 21
9.7989745034
  0
LINE
  5
311
100
AcDbEntity
  8
0
100
AcDbLine
 62
4
  6
CONTINUOUS
 10
10.0042478896
 20
9.9252671165
 11
10.0424886423
 21
9.9164905637
  0
LINE
  5
312
100
AcDbEntity
  8
0
100
AcDbLine
 62
4
  6
CONTINUOUS
 10
9.1373854967
 20
10.3338709634
 11
9.1492861969
 21
10.3303661582
  0
LINE
  5
313
100
AcDbEntity
  8
0
100
AcDbLine
 62
4
  6
CONTINUOUS
 10
10.5794465728
 20
9.9737235477
 11
10.5923078833
 21
9.9690037719
  0
LINE
  5
314
100
AcDbEntity
  8
0
100
AcDbLine
 62
4
  6
CONTINUOUS
 10
10.1554483197
 20
10.0741726778
 11
10.1108034505
 21
10.0910490418
  0
LINE
  5
315
100
AcDbEntity
  8
0
100
AcDbLine
 62
4
  6
CONTINUOUS
 10
10.0908374264
 20
10.0717633423
 11
10.0968983441
 21
10.0690463109
  0
LINE
  5
316
100
AcDbEntity
  8
0
100
AcDbLine
 62
4
  6
CONTINUOUS
 10
10.5511742254
 20
9.8735574144
 11
10.5390523986
 21
9.8789914768
  0
LINE
  5
317
100
AcDbEntity
  8
0
100
AcDbLine
 62
4
  6
CONTINUOUS
 10
10.1841288815
 20
10.0675902633
 11
10.1962507152
 21
10.0621562005
  0
LINE
  5
318
100
AcDbEntity
  8
0
100
AcDbLine
 62
4
  6
CONTINUOUS
 10
10.6477667747
 20
9.8668586984
 11
10.6356449479
 21
9.8722927607
  0
LINE
  5
319
100
AcDbEntity
  8
0
100
AcDbLine
 62
4
  6
CONTINUOUS
 10
10.169353426
 20
10.0961754078
 11
10.1754143422
 21
10.0934583757
  0
LINE
  5
31A
100
AcDbEntity
  8
0
100
AcDbLine
 62
4
  6
CONTINUOUS
 10
10.7036631432
 20
9.895136146
 11
10.7157849705
 21
9.8897020841
  0
LINE
  5
31B
100
AcDbEntity
  8
0
100
AcDbLine
 62
4
  6
CONTINUOUS
 10
10.5729362871
 20
9.95886367
 11
10.5850581144
 21
9.9534296081
  0
LINE
  5
31C
100
AcDbEntity
  8
0
100
AcDbLine
 62
4
  6
CONTINUOUS
 10
10.7947361373
 20
9.8888202124
 11
10.8068579645
 21
9.8833861506
  0
LINE
  5
31D
100
AcDbEntity
  8
0
100
AcDbLine
 62
4
  6
CONTINUOUS
 10
10.6795384245
 20
9.9675477236
 11
10.6916602518
 21
9.9621136617
  0
LINE
  5
31E
100
AcDbEntity
  8
0
100
AcDbLine
 62
4
  6
CONTINUOUS
 10
10.5164923126
 20
10.0629144237
 11
10.5225532253
 21
10.0601973919
  0
LINE
  5
31F
100
AcDbEntity
  8
0
100
AcDbLine
 62
4
  6
CONTINUOUS
 10
10.7455547418
 20
10.0470288903
 11
10.7488558492
 21
10.0445032516
  0
LINE
  5
320
100
AcDbEntity
  8
0
100
AcDbLine
 62
4
  6
CONTINUOUS
 10
9.9688120035
 20
9.7724673116
 11
9.9589793712
 21
9.7704697174
  0
LINE
  5
321
100
AcDbEntity
  8
0
100
AcDbLine
 62
4
  6
CONTINUOUS
 10
9.9217293255
 20
9.7944889327
 11
9.9413945905
 21
9.7984841216
  0
LINE
  5
322
100
AcDbEntity
  8
0
100
AcDbLine
 62
4
  6
CONTINUOUS
 10
10.7846734937
 20
9.861957596
 11
10.7636778782
 21
9.8588202361
  0
LINE
  5
323
100
AcDbEntity
  8
0
100
AcDbLine
 62
4
  6
CONTINUOUS
 10
10.6936004996
 20
9.8682735295
 11
10.6726048841
 21
9.8651361697
  0
LINE
  5
324
100
AcDbEntity
  8
0
100
AcDbLine
 62
4
  6
CONTINUOUS
 10
10.6578294188
 20
9.8937213153
 11
10.6788250338
 21
9.8968586747
  0
LINE
  5
325
100
AcDbEntity
  8
0
100
AcDbLine
 62
4
  6
CONTINUOUS
 10
10.5612368694
 20
9.9004200314
 11
10.5822324845
 21
9.9035573908
  0
LINE
  5
326
100
AcDbEntity
  8
0
100
AcDbLine
 62
4
  6
CONTINUOUS
 10
11.1649363525
 20
9.9949776234
 11
11.1754341326
 21
9.9965463053
  0
LINE
  5
327
100
AcDbEntity
  8
0
100
AcDbLine
 62
4
  6
CONTINUOUS
 10
10.6694757809
 20
9.9406851071
 11
10.6484801654
 21
9.9375477472
  0
LINE
  5
328
100
AcDbEntity
  8
0
100
AcDbLine
 62
4
  6
CONTINUOUS
 10
11.1435056006
 20
10.0171341984
 11
11.1540033814
 21
10.0187028809
  0
LINE
  5
329
100
AcDbEntity
  8
0
100
AcDbLine
 62
4
  6
CONTINUOUS
 10
10.5784027731
 20
9.9470010417
 11
10.5574071575
 21
9.9438636818
  0
LINE
  5
32A
100
AcDbEntity
  8
0
100
AcDbLine
 62
4
  6
CONTINUOUS
 10
11.0689912725
 20
10.0223017846
 11
11.0794890533
 21
10.0238704671
  0
LINE
  5
32B
100
AcDbEntity
  8
0
100
AcDbLine
 62
4
  6
CONTINUOUS
 10
10.5856525416
 20
9.962575205
 11
10.5646569265
 21
9.9594378456
  0
LINE
  5
32C
100
AcDbEntity
  8
0
100
AcDbLine
 62
4
  6
CONTINUOUS
 10
10.1195645654
 20
9.9080830568
 11
10.098568943
 21
9.9049456974
  0
LINE
  5
32D
100
AcDbEntity
  8
0
100
AcDbLine
 62
4
  6
CONTINUOUS
 10
13.4875318318
 20
10.0187898423
 11
13.4533776797
 21
10.0157994622
  0
LINE
  5
32E
100
AcDbEntity
  8
0
100
AcDbLine
 62
4
  6
CONTINUOUS
 10
13.4544179223
 20
10.031804259
 11
13.4714949978
 21
10.0332994487
  0
LINE
  5
32F
100
AcDbEntity
  8
0
100
AcDbLine
 62
4
  6
CONTINUOUS
 10
12.190243695
 20
9.9587056805
 11
12.1560895429
 21
9.9557153003
  0
LINE
  5
330
100
AcDbEntity
  8
0
100
AcDbLine
 62
4
  6
CONTINUOUS
 10
12.0588034627
 20
9.9517441553
 11
12.0417263864
 21
9.950248965
  0
LINE
  5
331
100
AcDbEntity
  8
0
100
AcDbLine
 62
4
  6
CONTINUOUS
 10
9.9589793712
 20
9.7704697174
 11
9.9419022949
 21
9.7689745271
  0
LINE
  5
332
100
AcDbEntity
  8
0
100
AcDbLine
 62
4
  6
CONTINUOUS
 10
12.1571297854
 20
9.9717200972
 11
12.174206861
 21
9.9732152868
  0
LINE
  5
333
100
AcDbEntity
  8
0
100
AcDbLine
 62
4
  6
CONTINUOUS
 10
12.041218682
 20
9.9797585595
 11
12.0582957576
 21
9.9812537491
  0
LINE
  5
334
100
AcDbEntity
  8
0
100
AcDbLine
 62
4
  6
CONTINUOUS
 10
9.9413945905
 20
9.7984841216
 11
9.9584716661
 21
9.7999793112
  0
LINE
  5
335
100
AcDbEntity
  8
0
100
AcDbLine
 62
4
  6
CONTINUOUS
 10
10.9674139371
 20
9.8584713242
 11
10.9173414699
 21
9.8558193141
  0
LINE
  5
336
100
AcDbEntity
  8
0
100
AcDbLine
 62
4
  6
CONTINUOUS
 10
10.0543203607
 20
9.9279191268
 11
10.0042478896
 21
9.9252671165
  0
LINE
  5
337
100
AcDbEntity
  8
0
100
AcDbLine
 62
4
  6
CONTINUOUS
 10
10.7636778782
 20
9.8588202361
 11
10.7222810476
 21
9.861691116
  0
LINE
  5
338
100
AcDbEntity
  8
0
100
AcDbLine
 62
4
  6
CONTINUOUS
 10
10.6726048841
 20
9.8651361697
 11
10.6477667747
 21
9.8668586984
  0
LINE
  5
339
100
AcDbEntity
  8
0
100
AcDbLine
 62
4
  6
CONTINUOUS
 10
10.5842916677
 20
9.871260712
 11
10.5511742254
 21
9.8735574144
  0
LINE
  5
33A
100
AcDbEntity
  8
0
100
AcDbLine
 62
4
  6
CONTINUOUS
 10
10.098568943
 20
9.9049456974
 11
10.0571721263
 21
9.9078165764
  0
LINE
  5
33B
100
AcDbEntity
  8
0
100
AcDbLine
 62
4
  6
CONTINUOUS
 10
10.3607488214
 20
9.8867634611
 11
10.4104250126
 21
9.8833184055
  0
LINE
  5
33C
100
AcDbEntity
  8
0
100
AcDbLine
 62
4
  6
CONTINUOUS
 10
10.8271530405
 20
9.8544182186
 11
10.876829204
 21
9.850973165
  0
LINE
  5
33D
100
AcDbEntity
  8
0
100
AcDbLine
 62
4
  6
CONTINUOUS
 10
10.1819570115
 20
9.9083495367
 11
10.2261136197
 21
9.9052872655
  0
LINE
  5
33E
100
AcDbEntity
  8
0
100
AcDbLine
 62
4
  6
CONTINUOUS
 10
10.8780180602
 20
9.8692643606
 11
10.8449006179
 21
9.871561063
  0
LINE
  5
33F
100
AcDbEntity
  8
0
100
AcDbLine
 62
4
  6
CONTINUOUS
 10
10.4116138688
 20
9.9016096011
 11
10.3784963989
 21
9.9039063055
  0
LINE
  5
340
100
AcDbEntity
  8
0
100
AcDbLine
 62
4
  6
CONTINUOUS
 10
10.0882303853
 20
9.9378165527
 11
10.1296272021
 21
9.9349456737
  0
LINE
  5
341
100
AcDbEntity
  8
0
100
AcDbLine
 62
4
  6
CONTINUOUS
 10
10.2924546983
 20
9.9236535485
 11
10.3586896106
 21
9.9190601418
  0
LINE
  5
342
100
AcDbEntity
  8
0
100
AcDbLine
 62
4
  6
CONTINUOUS
 10
10.3918070805
 20
9.9167634374
 11
10.4414832717
 21
9.9133183819
  0
LINE
  5
343
100
AcDbEntity
  8
0
100
AcDbLine
 62
4
  6
CONTINUOUS
 10
10.5822324845
 20
9.9035573908
 11
10.6153499268
 21
9.9012606884
  0
LINE
  5
344
100
AcDbEntity
  8
0
100
AcDbLine
 62
4
  6
CONTINUOUS
 10
10.6788250338
 20
9.8968586747
 11
10.7036631432
 21
9.895136146
  0
LINE
  5
345
100
AcDbEntity
  8
0
100
AcDbLine
 62
4
  6
CONTINUOUS
 10
10.7533393067
 20
9.8916910924
 11
10.7947361373
 21
9.8888202124
  0
LINE
  5
346
100
AcDbEntity
  8
0
100
AcDbLine
 62
4
  6
CONTINUOUS
 10
10.8582112995
 20
9.884418195
 11
10.907887463
 21
9.8809731413
  0
LINE
  5
347
100
AcDbEntity
  8
0
100
AcDbLine
 62
4
  6
CONTINUOUS
 10
10.6484801654
 20
9.9375477472
 11
10.6070833487
 21
9.9404186262
  0
LINE
  5
348
100
AcDbEntity
  8
0
100
AcDbLine
 62
4
  6
CONTINUOUS
 10
10.5574071575
 20
9.9438636818
 11
10.5160103339
 21
9.9467345613
  0
LINE
  5
349
100
AcDbEntity
  8
0
100
AcDbLine
 62
4
  6
CONTINUOUS
 10
10.5315394634
 20
9.9617345494
 11
10.5729362871
 21
9.95886367
  0
LINE
  5
34A
100
AcDbEntity
  8
0
100
AcDbLine
 62
4
  6
CONTINUOUS
 10
10.547068593
 20
9.9767345376
 11
10.5719066816
 21
9.9750120103
  0
LINE
  5
34B
100
AcDbEntity
  8
0
100
AcDbLine
 62
4
  6
CONTINUOUS
 10
10.6381416078
 20
9.9704186026
 11
10.6795384245
 21
9.9675477236
  0
LINE
  5
34C
100
AcDbEntity
  8
0
100
AcDbLine
 62
4
  6
CONTINUOUS
 10
10.5283098482
 20
10.0314721371
 11
10.5448685694
 21
10.0303237859
  0
LINE
  5
34D
100
AcDbEntity
  8
0
100
AcDbLine
 62
4
  6
CONTINUOUS
 10
11.0904221349
 20
10.000145202
 11
11.057304582
 21
10.0024419121
  0
LINE
  5
34E
100
AcDbEntity
  8
0
100
AcDbLine
 62
4
  6
CONTINUOUS
 10
10.9551924773
 20
10.0095234106
 11
10.9386337562
 21
10.0106717618
  0
LINE
  5
34F
100
AcDbEntity
  8
0
100
AcDbLine
 62
4
  6
CONTINUOUS
 10
10.8144432645
 20
10.0192844016
 11
10.7813258222
 21
10.021581104
  0
LINE
  5
350
100
AcDbEntity
  8
0
100
AcDbLine
 62
4
  6
CONTINUOUS
 10
10.6571353305
 20
10.0301937439
 11
10.6240178882
 21
10.0324904463
  0
LINE
  5
351
100
AcDbEntity
  8
0
100
AcDbLine
 62
4
  6
CONTINUOUS
 10
10.0968983441
 20
10.0690463109
 11
10.1300158029
 21
10.0667496073
  0
LINE
  5
352
100
AcDbEntity
  8
0
100
AcDbLine
 62
4
  6
CONTINUOUS
 10
10.1962507152
 20
10.0621562005
 11
10.2210888177
 21
10.0604336723
  0
LINE
  5
353
100
AcDbEntity
  8
0
100
AcDbLine
 62
4
  6
CONTINUOUS
 10
10.8558400951
 20
10.0164135217
 11
10.8972369256
 21
10.0135426417
  0
LINE
  5
354
100
AcDbEntity
  8
0
100
AcDbLine
 62
4
  6
CONTINUOUS
 10
11.1318189101
 20
9.9972743258
 11
11.1649363525
 21
9.9949776234
  0
LINE
  5
355
100
AcDbEntity
  8
0
100
AcDbLine
 62
4
  6
CONTINUOUS
 10
10.7924180578
 20
10.0322953816
 11
10.8255355002
 21
10.0299986791
  0
LINE
  5
356
100
AcDbEntity
  8
0
100
AcDbLine
 62
4
  6
CONTINUOUS
 10
12.0417263864
 20
9.950248965
 11
12.0272374985
 21
9.9512537728
  0
LINE
  5
357
100
AcDbEntity
  8
0
100
AcDbLine
 62
4
  6
CONTINUOUS
 10
12.12141527
 20
9.9447225222
 11
12.1793708217
 21
9.940703291
  0
LINE
  5
358
100
AcDbEntity
  8
0
100
AcDbLine
 62
4
  6
CONTINUOUS
 10
10.8283484029
 20
10.0412871304
 11
10.7869515723
 21
10.0441580103
  0
LINE
  5
359
100
AcDbEntity
  8
0
100
AcDbLine
 62
4
  6
CONTINUOUS
 10
10.475095482
 20
10.0657853036
 11
10.5164923126
 21
10.0629144237
  0
LINE
  5
35A
100
AcDbEntity
  8
0
100
AcDbLine
 62
4
  6
CONTINUOUS
 10
10.6462023595
 20
10.0539190014
 11
10.6793198018
 21
10.0516222989
  0
LINE
  5
35B
100
AcDbEntity
  8
0
100
AcDbLine
 62
4
  6
CONTINUOUS
 10
10.7124372994
 20
10.0493255927
 11
10.7455547418
 21
10.0470288903
  0
LINE
  5
35C
100
AcDbEntity
  8
0
100
AcDbLine
 62
4
  6
CONTINUOUS
 10
11.0794890533
 20
10.0238704671
 11
11.1126066062
 21
10.021573757
  0
LINE
  5
35D
100
AcDbEntity
  8
0
100
AcDbLine
 62
4
  6
CONTINUOUS
 10
11.1540033814
 20
10.0187028809
 11
11.1871208238
 21
10.0164061785
  0
LINE
  5
35E
100
AcDbEntity
  8
0
100
AcDbLine
 62
4
  6
CONTINUOUS
 10
10.1362359681
 20
10.0984721113
 11
10.169353426
 21
10.0961754078
  0
LINE
  5
35F
100
AcDbEntity
  8
0
100
AcDbLine
 62
4
  6
CONTINUOUS
 10
11.0359268999
 20
10.0360783333
 11
11.0386866776
 21
10.035886942
  0
LINE
  5
360
100
AcDbEntity
  8
0
100
AcDbLine
 62
4
  6
CONTINUOUS
 10
12.050011072
 20
9.9657513571
 11
12.0789888478
 21
9.9637417415
  0
LINE
  5
361
100
AcDbEntity
  8
0
100
AcDbLine
 62
4
  6
CONTINUOUS
 10
11.1752891058
 20
10.0049776158
 11
11.1436506281
 21
10.0087028885
  0
LINE
  5
362
100
AcDbEntity
  8
0
100
AcDbLine
 62
4
  6
CONTINUOUS
 10
10.5719066816
 20
9.9750120103
 11
10.5794465728
 21
9.9737235477
  0
LINE
  5
363
100
AcDbEntity
  8
0
100
AcDbLine
 62
4
  6
CONTINUOUS
 10
10.9291731883
 20
9.8672478772
 11
10.9674139371
 21
9.8584713242
  0
LINE
  5
364
100
AcDbEntity
  8
0
100
AcDbLine
 62
4
  6
CONTINUOUS
 10
10.6240178882
 20
10.0324904463
 11
10.6096776142
 21
10.0357816531
  0
LINE
  5
365
100
AcDbEntity
  8
0
100
AcDbLine
 62
4
  6
CONTINUOUS
 10
10.7813258222
 20
10.021581104
 11
10.7669855482
 21
10.0248723108
  0
LINE
  5
366
100
AcDbEntity
  8
0
100
AcDbLine
 62
4
  6
CONTINUOUS
 10
11.1436506281
 20
10.0087028885
 11
11.1368502598
 21
10.0107056324
  0
LINE
  5
367
100
AcDbEntity
  8
0
100
AcDbLine
 62
4
  6
CONTINUOUS
 10
11.1820894741
 20
10.0029748719
 11
11.1752891058
 21
10.0049776158
  0
LINE
  5
368
100
AcDbEntity
  8
0
100
AcDbLine
 62
4
  6
CONTINUOUS
 10
10.849779154
 20
10.0191305547
 11
10.8558400951
 21
10.0164135217
  0
LINE
  5
369
100
AcDbEntity
  8
0
100
AcDbLine
 62
4
  6
CONTINUOUS
 10
10.9386337562
 20
10.0106717618
 11
10.9325728151
 21
10.0133887948
  0
LINE
  5
36A
100
AcDbEntity
  8
0
100
AcDbLine
 62
4
  6
CONTINUOUS
 10
11.057304582
 20
10.0024419121
 11
11.0512436962
 21
10.0051589413
  0
LINE
  5
36B
100
AcDbEntity
  8
0
100
AcDbLine
 62
4
  6
CONTINUOUS
 10
11.1257580244
 20
9.9999913551
 11
11.1318189101
 21
9.9972743258
  0
LINE
  5
36C
100
AcDbEntity
  8
0
100
AcDbLine
 62
4
  6
CONTINUOUS
 10
11.1871208238
 20
10.0164061785
 11
11.1931817088
 21
10.0136891486
  0
LINE
  5
36D
100
AcDbEntity
  8
0
100
AcDbLine
 62
7
  6
CONTINUOUS
 10
12.76776763
 20
9.0960509675
 11
12.76776763
 21
6.3190140523
  0
LINE
  5
36E
100
AcDbEntity
  8
0
100
AcDbLine
 62
4
  6
CONTINUOUS
 10
10.4166579585
 20
9.9536246719
 11
10.5139511368
 21
9.979031241
  0
LINE
  5
36F
100
AcDbEntity
  8
0
100
AcDbLine
 62
4
  6
CONTINUOUS
 10
10.2210888177
 20
10.0604336723
 11
10.2420844332
 21
10.0635710322
  0
LINE
  5
370
100
AcDbEntity
  8
0
100
AcDbLine
 62
4
  6
CONTINUOUS
 10
10.1300158029
 20
10.0667496073
 11
10.1510114253
 21
10.0698869667
  0
LINE
  5
371
100
AcDbEntity
  8
0
100
AcDbLine
 62
4
  6
CONTINUOUS
 10
10.1152403444
 20
10.0953347525
 11
10.1362359681
 21
10.0984721113
  0
LINE
  5
372
100
AcDbEntity
  8
0
100
AcDbLine
 62
4
  6
CONTINUOUS
 10
10.7736408897
 20
10.0313008775
 11
10.7924180578
 21
10.0322953816
  0
LINE
  5
373
100
AcDbEntity
  8
0
100
AcDbLine
 62
4
  6
CONTINUOUS
 10
10.6274251905
 20
10.0529244964
 11
10.6462023595
 21
10.0539190014
  0
LINE
  5
374
100
AcDbEntity
  8
0
100
AcDbLine
 62
4
  6
CONTINUOUS
 10
12.0582957576
 20
9.9812537491
 11
12.0727846455
 21
9.9802489414
  0
LINE
  5
375
100
AcDbEntity
  8
0
100
AcDbLine
 62
4
  6
CONTINUOUS
 10
12.174206861
 20
9.9732152868
 11
12.1886957489
 21
9.972210479
  0
LINE
  5
376
100
AcDbEntity
  8
0
100
AcDbLine
 62
4
  6
CONTINUOUS
 10
9.0701050177
 20
10.3063830066
 11
9.1280605695
 21
10.3023637754
  0
LINE
  5
377
100
AcDbEntity
  8
0
100
AcDbLine
 62
4
  6
CONTINUOUS
 10
13.4187034069
 20
10.004806684
 11
13.4766589586
 21
10.0007874528
  0
LINE
  5
378
100
AcDbEntity
  8
0
100
AcDbLine
 62
4
  6
CONTINUOUS
 10
9.1228966087
 20
10.3348757712
 11
9.1373854967
 21
10.3338709634
  0
LINE
  5
379
100
AcDbEntity
  8
0
100
AcDbLine
 62
4
  6
CONTINUOUS
 10
13.4714949978
 20
10.0332994487
 11
13.4859838858
 21
10.0322946409
  0
LINE
  5
37A
100
AcDbEntity
  8
0
100
AcDbLine
 62
4
  6
CONTINUOUS
 10
12.0272374985
 20
9.9512537728
 11
12.0153367989
 21
9.9547585787
  0
LINE
  5
37B
100
AcDbEntity
  8
0
100
AcDbLine
 62
4
  6
CONTINUOUS
 10
12.0727846455
 20
9.9802489414
 11
12.0846853458
 21
9.9767441361
  0
LINE
  5
37C
100
AcDbEntity
  8
0
100
AcDbLine
 62
4
  6
CONTINUOUS
 10
12.1886957489
 20
9.972210479
 11
12.2005964492
 21
9.9687056738
  0
LINE
  5
37D
100
AcDbEntity
  8
0
100
AcDbLine
 62
4
  6
CONTINUOUS
 10
12.0153367989
 20
9.9547585787
 11
12.0060242874
 21
9.9607633825
  0
LINE
  5
37E
100
AcDbEntity
  8
0
100
AcDbLine
 62
4
  6
CONTINUOUS
 10
9.1389334427
 20
10.3203661649
 11
9.1047792906
 21
10.3173757847
  0
LINE
  5
37F
100
AcDbEntity
  8
0
100
AcDbLine
 62
4
  6
CONTINUOUS
 10
9.1058195332
 20
10.3333805816
 11
9.1228966087
 21
10.3348757712
  0
LINE
  5
380
100
AcDbEntity
  8
0
100
AcDbLine
 62
4
  6
CONTINUOUS
 10
12.0846853458
 20
9.9767441361
 11
12.0893416003
 21
9.973741733
  0
LINE
  5
381
100
AcDbEntity
  8
0
100
AcDbLine
 62
4
  6
CONTINUOUS
 10
12.2005964492
 20
9.9687056738
 11
12.2052527037
 21
9.9657032707
  0
LINE
  5
382
100
AcDbEntity
  8
0
100
AcDbLine
 62
4
  6
CONTINUOUS
 10
9.1487660761
 20
10.3223637602
 11
9.1389334427
 21
10.3203661649
  0
LINE
  5
383
100
AcDbEntity
  8
0
100
AcDbLine
 62
4
  6
CONTINUOUS
 10
9.1047792906
 20
10.3173757847
 11
9.0851140265
 21
10.3133805968
  0
LINE
  5
384
100
AcDbEntity
  8
0
100
AcDbLine
 62
4
  6
CONTINUOUS
 10
9.0959868997
 20
10.3313829863
 11
9.1058195332
 21
10.3333805816
  0
LINE
  5
385
100
AcDbEntity
  8
0
100
AcDbLine
 62
7
  6
CONTINUOUS
 10
9.23223237
 20
10.6809859477
 11
14.0618617876
 21
10.3460500099
  0
LINE
  5
386
100
AcDbEntity
  8
0
100
AcDbLine
 62
4
  6
CONTINUOUS
 10
13.4859838858
 20
10.0322946409
 11
13.4978845861
 21
10.0287898356
  0
LINE
  5
387
100
AcDbEntity
  8
0
100
AcDbLine
 62
4
  6
CONTINUOUS
 10
13.4978845861
 20
10.0287898356
 11
13.5025408405
 21
10.0257874325
  0
LINE
  5
388
100
AcDbEntity
  8
0
100
AcDbLine
 62
7
  6
CONTINUOUS
 10
12.76776763
 20
6.3190140523
 11
14.0618617876
 21
7.5690130948
  0
LINE
  5
389
100
AcDbEntity
  8
0
100
AcDbLine
 62
7
  6
CONTINUOUS
 10
14.0618617876
 20
10.3460500099
 11
14.0618617876
 21
7.5690130948
  0
ARC
  5
38A
100
AcDbEntity
  8
0
100
AcDbCircle
 62
7
  6
CONTINUOUS
 10
11.5585475122
 20
8.144522046
 40
0.4466687
100
AcDbArc
 50
172.7542887723
 51
180.0157507753
  0
ARC
  5
38B
100
AcDbEntity
  8
0
100
AcDbCircle
 62
7
  6
CONTINUOUS
 10
11.5672871428
 20
8.1499806242
 40
0.4186659821
100
AcDbArc
 50
173.5480567965
 51
180.0124522951
  0
SPLINE
  5
38C
100
AcDbEntity
  8
0
100
AcDbSpline
 62
7
  6
CONTINUOUS
 70
0
 71
3
 72
58
 73
54
 74
0
 42
0.0000001
 43
0.0000001
 44
0.0000000001
 40
0.0
 40
0.0
 40
0.0
 40
0.0
 40
0.0081223305
 40
0.0169168975
 40
0.0264087397
 40
0.0366143893
 40
0.0475415919
 40
0.0591912278
 40
0.0715586516
 40
0.0846347975
 40
0.0984066254
 40
0.112857697
 40
0.1279687991
 40
0.1437179559
 40
0.1600810137
 40
0.1770317001
 40
0.2125802303
 40
0.2501202969
 40
0.2893844218
 40
0.3300865608
 40
0.3719257492
 40
0.4145895607
 40
0.4577574053
 40
0.5011037527
 40
0.5443013266
 40
0.587024304
 40
0.6289515139
 40
0.6697696572
 40
0.7091765902
 40
0.7468847529
 40
0.7826248208
 40
0.7996793841
 40
0.8161512809
 40
0.8320139346
 40
0.8472427441
 40
0.8618153344
 40
0.8757119895
 40
0.8889156785
 40
0.9014127874
 40
0.9131934095
 40
0.9242520347
 40
0.9345886083
 40
0.9442093599
 40
0.953128682
 40
0.9613709503
 40
0.9689732053
 40
0.9759886321
 40
0.9824900189
 40
0.9885734021
 40
0.9914974267
 40
0.9943641369
 40
0.9971919109
 40
1.0
 40
1.0
 40
1.0
 40
1.0
 10
13.3765558853
 20
10.2930952774
 30
0.0
 10
13.375735445
 20
10.2923027929
 30
0.0
 10
13.3739492662
 20
10.2907313511
 30
0.0
 10
13.3709843716
 20
10.2884986236
 30
0.0
 10
13.3676360577
 20
10.2863032523
 30
0.0
 10
13.3639111211
 20
10.2841494652
 30
0.0
 10
13.3598165561
 20
10.2820411264
 30
0.0
 10
13.3553603022
 20
10.2799824518
 30
0.0
 10
13.3505511392
 20
10.2779774484
 30
0.0
 10
13.3453985741
 20
10.2760301694
 30
0.0
 10
13.3399128639
 20
10.2741445484
 30
0.0
 10
13.3341049851
 20
10.2723243767
 30
0.0
 10
13.3279865786
 20
10.2705734032
 30
0.0
 10
13.321569955
 20
10.2688951508
 30
0.0
 10
13.3148680209
 20
10.2672930305
 30
0.0
 10
13.3054192297
 20
10.2652300491
 30
0.0
 10
13.2929920692
 20
10.2628783128
 30
0.0
 10
13.2773992267
 20
10.2604490395
 30
0.0
 10
13.2610236351
 20
10.2583899225
 30
0.0
 10
13.2439974983
 20
10.2567179036
 30
0.0
 10
13.2264581569
 20
10.2554467877
 30
0.0
 10
13.2085472653
 20
10.2545870402
 30
0.0
 10
13.1904095143
 20
10.2541457403
 30
0.0
 10
13.1721914657
 20
10.2541265227
 30
0.0
 10
13.1540403399
 20
10.2545295488
 30
0.0
 10
13.136102809
 20
10.255351497
 30
0.0
 10
13.1185237825
 20
10.2565855982
 30
0.0
 10
13.1014452401
 20
10.2582216914
 30
0.0
 10
13.085004958
 20
10.2602462685
 30
0.0
 10
13.0693356752
 20
10.2626426787
 30
0.0
 10
13.0568373251
 20
10.2649677306
 30
0.0
 10
13.0473260079
 20
10.2670101694
 30
0.0
 10
13.0405736354
 20
10.268598096
 30
0.0
 10
13.0341041582
 20
10.2702627429
 30
0.0
 10
13.0279305956
 20
10.2720007589
 30
0.0
 10
13.0220653705
 20
10.2738086242
 30
0.0
 10
13.0165202445
 20
10.2756826156
 30
0.0
 10
13.0113063237
 20
10.2776189851
 30
0.0
 10
13.006433991
 20
10.279613782
 30
0.0
 10
13.0019129001
 20
10.2816630028
 30
0.0
 10
12.9977519554
 20
10.2837626136
 30
0.0
 10
12.9939592298
 20
10.2859084535
 30
0.0
 10
12.9905420364
 20
10.2880965254
 30
0.0
 10
12.9875068317
 20
10.2903228296
 30
0.0
 10
12.984859314
 20
10.2925836564
 30
0.0
 10
12.98260462
 20
10.2948756336
 30
0.0
 10
12.9807474175
 20
10.2971959305
 30
0.0
 10
12.9792928238
 20
10.2995414504
 30
0.0
 10
12.9784092405
 20
10.3015419178
 30
0.0
 10
12.9779211037
 20
10.3031381081
 30
0.0
 10
12.9776626276
 20
10.3043220441
 30
0.0
 10
12.9775074714
 20
10.3055073991
 30
0.0
 10
12.9774729449
 20
10.3062993149
 30
0.0
 10
12.9774729447
 20
10.3066936765
 30
0.0
  0
SPLINE
  5
38D
100
AcDbEntity
  8
0
100
AcDbSpline
 62
7
  6
CONTINUOUS
 70
0
 71
3
 72
58
 73
54
 74
0
 42
0.0000001
 43
0.0000001
 44
0.0000000001
 40
0.0
 40
0.0
 40
0.0
 40
0.0
 40
0.0081223305
 40
0.0169168975
 40
0.0264087397
 40
0.0366143893
 40
0.0475415919
 40
0.0591912278
 40
0.0715586516
 40
0.0846347975
 40
0.0984066254
 40
0.112857697
 40
0.1279687991
 40
0.1437179559
 40
0.1600810137
 40
0.1770317001
 40
0.2125802303
 40
0.2501202969
 40
0.2893844218
 40
0.3300865608
 40
0.3719257492
 40
0.4145895607
 40
0.4577574053
 40
0.5011037527
 40
0.5443013266
 40
0.587024304
 40
0.6289515139
 40
0.6697696572
 40
0.7091765902
 40
0.7468847529
 40
0.7826248208
 40
0.7996793841
 40
0.8161512809
 40
0.8320139346
 40
0.8472427441
 40
0.8618153344
 40
0.8757119895
 40
0.8889156785
 40
0.9014127874
 40
0.9131934095
 40
0.9242520347
 40
0.9345886083
 40
0.9442093599
 40
0.953128682
 40
0.9613709503
 40
0.9689732053
 40
0.9759886321
 40
0.9824900189
 40
0.9885734021
 40
0.9914974267
 40
0.9943641369
 40
0.9971919109
 40
1.0
 40
1.0
 40
1.0
 40
1.0
 10
12.2765758514
 20
9.2305960913
 30
0.0
 10
12.2757554111
 20
9.2298036068
 30
0.0
 10
12.2739692323
 20
9.228232165
 30
0.0
 10
12.2710043377
 20
9.2259994375
 30
0.0
 10
12.2676560238
 20
9.2238040662
 30
0.0
 10
12.2639310872
 20
9.2216502791
 30
0.0
 10
12.2598365222
 20
9.2195419403
 30
0.0
 10
12.2553802683
 20
9.2174832658
 30
0.0
 10
12.2505711053
 20
9.2154782623
 30
0.0
 10
12.2454185402
 20
9.2135309833
 30
0.0
 10
12.23993283
 20
9.2116453623
 30
0.0
 10
12.2341249512
 20
9.2098251906
 30
0.0
 10
12.2280065447
 20
9.2080742171
 30
0.0
 10
12.2215899211
 20
9.2063959647
 30
0.0
 10
12.214887987
 20
9.2047938444
 30
0.0
 10
12.2054391958
 20
9.202730863
 30
0.0
 10
12.1930120353
 20
9.2003791267
 30
0.0
 10
12.1774191928
 20
9.1979498534
 30
0.0
 10
12.1610436012
 20
9.1958907364
 30
0.0
 10
12.1440174644
 20
9.1942187175
 30
0.0
 10
12.126478123
 20
9.1929476016
 30
0.0
 10
12.1085672314
 20
9.1920878541
 30
0.0
 10
12.0904294804
 20
9.1916465542
 30
0.0
 10
12.0722114318
 20
9.1916273366
 30
0.0
 10
12.054060306
 20
9.1920303627
 30
0.0
 10
12.0361227751
 20
9.1928523109
 30
0.0
 10
12.0185437486
 20
9.1940864121
 30
0.0
 10
12.0014652062
 20
9.1957225053
 30
0.0
 10
11.9850249241
 20
9.1977470825
 30
0.0
 10
11.9693556413
 20
9.2001434926
 30
0.0
 10
11.9568572912
 20
9.2024685445
 30
0.0
 10
11.947345974
 20
9.2045109833
 30
0.0
 10
11.9405936015
 20
9.2060989099
 30
0.0
 10
11.9341241243
 20
9.2077635568
 30
0.0
 10
11.9279505617
 20
9.2095015728
 30
0.0
 10
11.9220853366
 20
9.2113094381
 30
0.0
 10
11.9165402106
 20
9.2131834295
 30
0.0
 10
11.9113262898
 20
9.215119799
 30
0.0
 10
11.9064539571
 20
9.2171145959
 30
0.0
 10
11.9019328662
 20
9.2191638167
 30
0.0
 10
11.8977719215
 20
9.2212634275
 30
0.0
 10
11.8939791959
 20
9.2234092674
 30
0.0
 10
11.8905620025
 20
9.2255973393
 30
0.0
 10
11.8875267978
 20
9.2278236435
 30
0.0
 10
11.8848792801
 20
9.2300844703
 30
0.0
 10
11.8826245861
 20
9.2323764475
 30
0.0
 10
11.8807673836
 20
9.2346967444
 30
0.0
 10
11.8793127899
 20
9.2370422643
 30
0.0
 10
11.8784292066
 20
9.2390427317
 30
0.0
 10
11.8779410698
 20
9.240638922
 30
0.0
 10
11.8776825937
 20
9.241822858
 30
0.0
 10
11.8775274375
 20
9.243008213
 30
0.0
 10
11.877492911
 20
9.2438001288
 30
0.0
 10
11.8774929108
 20
9.2441944904
 30
0.0
  0
SPLINE
  5
38E
100
AcDbEntity
  8
0
100
AcDbSpline
 62
7
  6
CONTINUOUS
 70
0
 71
3
 72
15
 73
11
 74
0
 42
0.0000001
 43
0.0000001
 44
0.0000000001
 40
0.0
 40
0.0
 40
0.0
 40
0.0
 40
0.1273483176
 40
0.2538606274
 40
0.3795878627
 40
0.5046051194
 40
0.6290174385
 40
0.7529533738
 40
0.8765605773
 40
1.0
 40
1.0
 40
1.0
 40
1.0
 10
8.7635107504
 20
7.2797557185
 30
0.0
 10
8.7635107504
 20
7.2732573386
 30
0.0
 10
8.7628902823
 20
7.2602942549
 30
0.0
 10
8.7600842977
 20
7.2410989549
 30
0.0
 10
8.7554314975
 20
7.2223859607
 30
0.0
 10
8.7489739208
 20
7.2043302752
 30
0.0
 10
8.7407707726
 20
7.1870984229
 30
0.0
 10
8.7308968766
 20
7.1708495111
 30
0.0
 10
8.7194450762
 20
7.1557357774
 30
0.0
 10
8.7108224516
 20
7.1465034457
 30
0.0
 10
8.706291924
 20
7.1421272996
 30
0.0
  0
SPLINE
  5
38F
100
AcDbEntity
  8
0
100
AcDbSpline
 62
7
  6
CONTINUOUS
 70
0
 71
3
 72
41
 73
37
 74
0
 42
0.0000001
 43
0.0000001
 44
0.0000000001
 40
0.0
 40
0.0
 40
0.0
 40
0.0
 40
0.0310747705
 40
0.0623072725
 40
0.0936920139
 40
0.1252208392
 40
0.1568822171
 40
0.1886620102
 40
0.2205435978
 40
0.2525083095
 40
0.2845357945
 40
0.3166044477
 40
0.3486918434
 40
0.3807751835
 40
0.4128317507
 40
0.4448393598
 40
0.4767768022
 40
0.5086242765
 40
0.5403637988
 40
0.5719795854
 40
0.603458402
 40
0.6347898701
 40
0.6659667248
 40
0.6969850144
 40
0.7278442368
 40
0.7585474029
 40
0.7891010235
 40
0.8195150139
 40
0.8498025133
 40
0.8649066328
 40
0.8799853948
 40
0.9100708242
 40
0.9400854817
 40
0.9550762305
 40
0.9700578769
 40
1.0
 40
1.0
 40
1.0
 40
1.0
 10
8.7635107504
 20
7.2797557185
 30
0.0
 10
8.7635107504
 20
7.2848065495
 30
0.0
 10
8.7631339544
 20
7.2949377345
 30
0.0
 10
8.7614517376
 20
7.3100859942
 30
0.0
 10
8.7586604296
 20
7.3251453338
 30
0.0
 10
8.7547755742
 20
7.3400319193
 30
0.0
 10
8.7498186096
 20
7.3546643393
 30
0.0
 10
8.743816899
 20
7.3689621914
 30
0.0
 10
8.7368034843
 20
7.382847035
 30
0.0
 10
8.7288169525
 20
7.3962426749
 30
0.0
 10
8.7199012025
 20
7.4090756112
 30
0.0
 10
8.7101052144
 20
7.4212754282
 30
0.0
 10
8.6994827787
 20
7.4327751786
 30
0.0
 10
8.6880922056
 20
7.4435117464
 30
0.0
 10
8.675996007
 20
7.4534261898
 30
0.0
 10
8.6632605576
 20
7.4624640617
 30
0.0
 10
8.6499557344
 20
7.4705757059
 30
0.0
 10
8.6361545382
 20
7.4777165279
 30
0.0
 10
8.621932698
 20
7.4838472386
 30
0.0
 10
8.6073682607
 20
7.4889340695
 30
0.0
 10
8.5925411692
 20
7.4929489592
 30
0.0
 10
8.5775328298
 20
7.4958697097
 30
0.0
 10
8.5624256706
 20
7.4976801111
 30
0.0
 10
8.5473026991
 20
7.4983700382
 30
0.0
 10
8.5322470347
 20
7.4979355054
 30
0.0
 10
8.5173415185
 20
7.4963787244
 30
0.0
 10
8.5026680299
 20
7.4937080034
 30
0.0
 10
8.4883078877
 20
7.4899380762
 30
0.0
 10
8.4766552281
 20
7.4858929973
 30
0.0
 10
8.4675725579
 20
7.4821311268
 30
0.0
 10
8.4586737122
 20
7.4780307728
 30
0.0
 10
8.4478838523
 20
7.4722669987
 30
0.0
 10
8.4375942709
 20
7.4656776771
 30
0.0
 10
8.4297085746
 20
7.4599394323
 30
0.0
 10
8.4220662052
 20
7.4539007544
 30
0.0
 10
8.4166092769
 20
7.4490338735
 30
0.0
 10
8.413108854
 20
7.4456527305
 30
0.0
  0
SPLINE
  5
390
100
AcDbEntity
  8
0
100
AcDbSpline
 62
7
  6
CONTINUOUS
 70
0
 71
3
 72
23
 73
19
 74
0
 42
0.0000001
 43
0.0000001
 44
0.0000000001
 40
0.0
 40
0.0
 40
0.0
 40
0.0
 40
0.063776763
 40
0.1273450105
 40
0.1907019658
 40
0.2538561083
 40
0.3168132129
 40
0.3795820829
 40
0.4421733857
 40
0.5045993396
 40
0.5668738671
 40
0.6290123792
 40
0.6910316488
 40
0.752949646
 40
0.8147853557
 40
0.8765586025
 40
0.9382898529
 40
1.0
 40
1.0
 40
1.0
 40
1.0
 10
10.4459523059
 20
7.0935163123
 30
0.0
 10
10.4459523059
 20
7.0868742684
 30
0.0
 10
10.445634372
 20
7.0736096464
 30
0.0
 10
10.4441994797
 20
7.053793423
 30
0.0
 10
10.4418103253
 20
7.0341342546
 30
0.0
 10
10.4384726645
 20
7.0146783522
 30
0.0
 10
10.43419393
 20
6.9954701608
 30
0.0
 10
10.4289840307
 20
6.9765540841
 30
0.0
 10
10.4228549524
 20
6.9579737018
 30
0.0
 10
10.4158207542
 20
6.9397718639
 30
0.0
 10
10.4078975879
 20
6.9219905684
 30
0.0
 10
10.3991037272
 20
6.9046708115
 30
0.0
 10
10.3894594335
 20
6.8878525408
 30
0.0
 10
10.3789868982
 20
6.8715745536
 30
0.0
 10
10.3677102563
 20
6.8558744625
 30
0.0
 10
10.3556554091
 20
6.8407883416
 30
0.0
 10
10.342850643
 20
6.8263514504
 30
0.0
 10
10.333832144
 20
6.8171802122
 30
0.0
 10
10.3292096294
 20
6.8127152016
 30
0.0
  0
SPLINE
  5
391
100
AcDbEntity
  8
0
100
AcDbSpline
 62
7
  6
CONTINUOUS
 70
0
 71
3
 72
36
 73
32
 74
0
 42
0.0000001
 43
0.0000001
 44
0.0000000001
 40
0.0
 40
0.0
 40
0.0
 40
0.0
 40
0.0996096153
 40
0.2008700421
 40
0.301192579
 40
0.3981290078
 40
0.489587877
 40
0.5327551212
 40
0.5740106639
 40
0.6132510956
 40
0.650407382
 40
0.6854411119
 40
0.718340159
 40
0.7491145791
 40
0.7777921941
 40
0.8044138877
 40
0.8290311369
 40
0.8517037076
 40
0.8724971946
 40
0.8914834938
 40
0.9087405124
 40
0.9243550985
 40
0.938426274
 40
0.9510729991
 40
0.9624434807
 40
0.9727304208
 40
0.9821867836
 40
0.9867079977
 40
0.9911496804
 40
0.9955627053
 40
1.0
 40
1.0
 40
1.0
 40
1.0
 10
9.6782762153
 20
7.2129981062
 30
0.0
 10
9.6782762153
 20
7.2194561766
 30
0.0
 10
9.6788927268
 20
7.232485505
 30
0.0
 10
9.6814736822
 20
7.2518621633
 30
0.0
 10
9.6855231712
 20
7.2708069739
 30
0.0
 10
9.6907402861
 20
7.2887988417
 30
0.0
 10
9.6958625584
 20
7.3029226299
 30
0.0
 10
9.7002449331
 20
7.3134514602
 30
0.0
 10
9.7035431443
 20
7.3207605021
 30
0.0
 10
9.7068790445
 20
7.3276213434
 30
0.0
 10
9.7102200283
 20
7.3340279264
 30
0.0
 10
9.7135380217
 20
7.3399797579
 30
0.0
 10
9.7168095046
 20
7.3454809033
 30
0.0
 10
9.7200152956
 20
7.3505388313
 30
0.0
 10
9.7231402632
 20
7.3551633053
 30
0.0
 10
9.7261727359
 20
7.3593655608
 30
0.0
 10
9.7291039759
 20
7.363157627
 30
0.0
 10
9.731928117
 20
7.3665514116
 30
0.0
 10
9.7346412101
 20
7.3695586553
 30
0.0
 10
9.7372411809
 20
7.3721902808
 30
0.0
 10
9.7397276772
 20
7.3744559805
 30
0.0
 10
9.742101217
 20
7.3763646541
 30
0.0
 10
9.7443641444
 20
7.3779230022
 30
0.0
 10
9.7465193307
 20
7.3791367656
 30
0.0
 10
9.748571747
 20
7.3800082155
 30
0.0
 10
9.7505260049
 20
7.3805372922
 30
0.0
 10
9.7521016043
 20
7.380689322
 30
0.0
 10
9.7532959522
 20
7.3806261573
 30
0.0
 10
9.7541542743
 20
7.3804912229
 30
0.0
 10
9.7549880403
 20
7.3802671996
 30
0.0
 10
9.7555242423
 20
7.3800593238
 30
0.0
 10
9.7557866422
 20
7.3799413836
 30
0.0
  0
SPLINE
  5
392
100
AcDbEntity
  8
0
100
AcDbSpline
 62
7
  6
CONTINUOUS
 70
0
 71
3
 72
39
 73
35
 74
0
 42
0.0000001
 43
0.0000001
 44
0.0000000001
 40
0.0
 40
0.0
 40
0.0
 40
0.0
 40
0.0310753465
 40
0.0623079051
 40
0.0936931343
 40
0.1252222873
 40
0.1568840442
 40
0.1886642041
 40
0.2205461646
 40
0.2525112494
 40
0.2845391086
 40
0.3166081364
 40
0.3486959073
 40
0.3807796231
 40
0.4128365661
 40
0.4448445503
 40
0.4767823667
 40
0.5086302139
 40
0.540370108
 40
0.5719862655
 40
0.6034654513
 40
0.6347972861
 40
0.6659745048
 40
0.6969931564
 40
0.7278527389
 40
0.7585562636
 40
0.7891102411
 40
0.8195245859
 40
0.8498124376
 40
0.8799898959
 40
0.9100756748
 40
0.9400906811
 40
0.9700575287
 40
1.0
 40
1.0
 40
1.0
 40
1.0
 10
10.4459523059
 20
7.0935163123
 30
0.0
 10
10.4459523059
 20
7.1038215149
 30
0.0
 10
10.4451835632
 20
7.1244919849
 30
0.0
 10
10.4417512779
 20
7.1553987416
 30
0.0
 10
10.4360562848
 20
7.1861240129
 30
0.0
 10
10.4281300408
 20
7.2164969042
 30
0.0
 10
10.4180164525
 20
7.2463511992
 30
0.0
 10
10.4057712611
 20
7.2755228891
 30
0.0
 10
10.3914619044
 20
7.3038519199
 30
0.0
 10
10.3751671018
 20
7.331182832
 30
0.0
 10
10.3569764335
 20
7.3573656699
 30
0.0
 10
10.3369898334
 20
7.3822567682
 30
0.0
 10
10.3153170499
 20
7.4057195363
 30
0.0
 10
10.2920770485
 20
7.4276251978
 30
0.0
 10
10.2673973653
 20
7.4478534875
 30
0.0
 10
10.2414134207
 20
7.4662933114
 30
0.0
 10
10.2142677923
 20
7.4828433664
 30
0.0
 10
10.1861094244
 20
7.4974126719
 30
0.0
 10
10.1570928256
 20
7.5099210691
 30
0.0
 10
10.1273772324
 20
7.520299659
 30
0.0
 10
10.0971257488
 20
7.5284911826
 30
0.0
 10
10.0665044651
 20
7.5344503368
 30
0.0
 10
10.0356815628
 20
7.5381440585
 30
0.0
 10
10.0048263959
 20
7.5395516953
 30
0.0
 10
9.974108572
 20
7.5386651285
 30
0.0
 10
9.9436970305
 20
7.5354888359
 30
0.0
 10
9.9137591201
 20
7.5300398891
 30
0.0
 10
9.8844596766
 20
7.5223478747
 30
0.0
 10
9.8559601216
 20
7.5124547884
 30
0.0
 10
9.8284175008
 20
7.5004147714
 30
0.0
 10
9.8019838163
 20
7.4862940113
 30
0.0
 10
9.7768043963
 20
7.4701696544
 30
0.0
 10
9.7530199359
 20
7.4521321479
 30
0.0
 10
9.7381746453
 20
7.4388918941
 30
0.0
 10
9.7310327967
 20
7.4319933915
 30
0.0
  0
SPLINE
  5
393
100
AcDbEntity
  8
0
100
AcDbSpline
 62
7
  6
CONTINUOUS
 70
0
 71
3
 72
23
 73
19
 74
0
 42
0.0000001
 43
0.0000001
 44
0.0000000001
 40
0.0
 40
0.0
 40
0.0
 40
0.0
 40
0.0637771706
 40
0.1273448423
 40
0.190701976
 40
0.2538561364
 40
0.3168131911
 40
0.379582093
 40
0.4421733865
 40
0.504599335
 40
0.5668738647
 40
0.6290123811
 40
0.6910316516
 40
0.752949644
 40
0.8147853513
 40
0.8765586011
 40
0.9382898546
 40
1.0
 40
1.0
 40
1.0
 40
1.0
 10
11.63696441
 20
7.6430930091
 30
0.0
 10
11.63696441
 20
7.6347614721
 30
0.0
 10
11.6365656299
 20
7.6181229429
 30
0.0
 10
11.634765732
 20
7.5932663568
 30
0.0
 10
11.6317688968
 20
7.5686068212
 30
0.0
 10
11.6275822718
 20
7.5442021874
 30
0.0
 10
11.6222152407
 20
7.520108284
 30
0.0
 10
11.6156801824
 20
7.4963808019
 30
0.0
 10
11.6079921129
 20
7.4730744051
 30
0.0
 10
11.5991687125
 20
7.45024284
 30
0.0
 10
11.5892302803
 20
7.4279387609
 30
0.0
 10
11.5781996691
 20
7.4062136203
 30
0.0
 10
11.5661022713
 20
7.3851175456
 30
0.0
 10
11.5529659661
 20
7.3646991815
 30
0.0
 10
11.5388210732
 20
7.3450056715
 30
0.0
 10
11.5237000292
 20
7.3260822983
 30
0.0
 10
11.5076382967
 20
7.3079733074
 30
0.0
 10
11.4963258635
 20
7.2964693456
 30
0.0
 10
11.4905275946
 20
7.2908686283
 30
0.0
  0
SPLINE
  5
394
100
AcDbEntity
  8
0
100
AcDbSpline
 62
7
  6
CONTINUOUS
 70
0
 71
3
 72
32
 73
28
 74
0
 42
0.0000001
 43
0.0000001
 44
0.0000000001
 40
0.0
 40
0.0
 40
0.0
 40
0.0
 40
0.060339443
 40
0.1201626694
 40
0.1776395535
 40
0.2318539985
 40
0.2825689965
 40
0.3298991402
 40
0.374098897
 40
0.4154565425
 40
0.4907005277
 40
0.5575281304
 40
0.6173789933
 40
0.6713698219
 40
0.7204089275
 40
0.7652915975
 40
0.8067845493
 40
0.8265281475
 40
0.845743366
 40
0.8645573787
 40
0.8831129086
 40
0.9015723134
 40
0.920121155
 40
0.9389727313
 40
0.9583727299
 40
0.978604655
 40
1.0
 40
1.0
 40
1.0
 40
1.0
 10
10.7192708889
 20
7.6251569329
 30
0.0
 10
10.7184271768
 20
7.6275313314
 30
0.0
 10
10.7169559461
 20
7.6323364749
 30
0.0
 10
10.7153625337
 20
7.639588912
 30
0.0
 10
10.7143459161
 20
7.6466852057
 30
0.0
 10
10.7138392498
 20
7.6534532368
 30
0.0
 10
10.7137587576
 20
7.6598150565
 30
0.0
 10
10.7140261953
 20
7.665752386
 30
0.0
 10
10.7145765812
 20
7.6712773008
 30
0.0
 10
10.7155876583
 20
7.6779183094
 30
0.0
 10
10.7172905138
 20
7.6854004692
 30
0.0
 10
10.7199511946
 20
7.6934156418
 30
0.0
 10
10.7230187395
 20
7.7003224257
 30
0.0
 10
10.7264028775
 20
7.7062372268
 30
0.0
 10
10.7300461865
 20
7.7112423203
 30
0.0
 10
10.7339116484
 20
7.7153901599
 30
0.0
 10
10.7373598542
 20
7.7182018568
 30
0.0
 10
10.7401994845
 20
7.7200036511
 30
0.0
 10
10.7423397419
 20
7.7211238663
 30
0.0
 10
10.7445252555
 20
7.7220310501
 30
0.0
 10
10.7467565788
 20
7.7227195405
 30
0.0
 10
10.7490347489
 20
7.7231808766
 30
0.0
 10
10.7513611528
 20
7.7234045108
 30
0.0
 10
10.7537377241
 20
7.7233765125
 30
0.0
 10
10.7561669298
 20
7.7230789126
 30
0.0
 10
10.7586516733
 20
7.7224901168
 30
0.0
 10
10.7602924645
 20
7.7219034935
 30
0.0
 10
10.761116955
 20
7.7215591861
 30
0.0
  0
SPLINE
  5
395
100
AcDbEntity
  8
0
100
AcDbSpline
 62
7
  6
CONTINUOUS
 70
0
 71
3
 72
39
 73
35
 74
0
 42
0.0000001
 43
0.0000001
 44
0.0000000001
 40
0.0
 40
0.0
 40
0.0
 40
0.0
 40
0.0310753533
 40
0.062307914
 40
0.0936931276
 40
0.125222289
 40
0.1568840436
 40
0.1886642048
 40
0.2205461649
 40
0.252511249
 40
0.2845391082
 40
0.3166081364
 40
0.3486959074
 40
0.3807796231
 40
0.412836566
 40
0.44484455
 40
0.4767823665
 40
0.508630214
 40
0.5403701087
 40
0.5719862657
 40
0.6034654504
 40
0.634797285
 40
0.6659745047
 40
0.6969931573
 40
0.7278527396
 40
0.7585562634
 40
0.7891102405
 40
0.8195245856
 40
0.8498124374
 40
0.8799898958
 40
0.9100756749
 40
0.9400906815
 40
0.970057529
 40
1.0
 40
1.0
 40
1.0
 40
1.0
 10
11.63696441
 20
7.6430930091
 30
0.0
 10
11.63696441
 20
7.6560193985
 30
0.0
 10
11.6360001295
 20
7.6819475178
 30
0.0
 10
11.631694828
 20
7.7207155728
 30
0.0
 10
11.6245512864
 20
7.7592559811
 30
0.0
 10
11.6146089804
 20
7.7973543833
 30
0.0
 10
11.601922928
 20
7.8348022776
 30
0.0
 10
11.5865630827
 20
7.8713939338
 30
0.0
 10
11.5686140646
 20
7.9069286064
 30
0.0
 10
11.5481746136
 20
7.9412112965
 30
0.0
 10
11.5253570645
 20
7.9740538913
 30
0.0
 10
11.5002867519
 20
8.0052761656
 30
0.0
 10
11.4731013675
 20
8.0347068052
 30
0.0
 10
11.4439501435
 20
8.0621842868
 30
0.0
 10
11.4129930568
 20
8.08755776
 30
0.0
 10
11.3803999559
 20
8.1106878538
 30
0.0
 10
11.3463496888
 20
8.1314475029
 30
0.0
 10
11.3110290905
 20
8.1497225954
 30
0.0
 10
11.2746319669
 20
8.1654125811
 30
0.0
 10
11.2373580485
 20
8.1784310129
 30
0.0
 10
11.1994119304
 20
8.1887060685
 30
0.0
 10
11.161001959
 20
8.1961809683
 30
0.0
 10
11.1223390872
 20
8.2008142318
 30
0.0
 10
11.0836357413
 20
8.2025799295
 30
0.0
 10
11.0451046728
 20
8.2014678428
 30
0.0
 10
11.0069577942
 20
8.1974836228
 30
0.0
 10
10.9694050166
 20
8.1906487
 30
0.0
 10
10.9326530971
 20
8.1810001972
 30
0.0
 10
10.8969045229
 20
8.1685907579
 30
0.0
 10
10.8623562896
 20
8.1534882921
 30
0.0
 10
10.8291990545
 20
8.135775841
 30
0.0
 10
10.7976151074
 20
8.1155501742
 30
0.0
 10
10.7677809483
 20
8.092924721
 30
0.0
 10
10.7491596765
 20
8.0763167378
 30
0.0
 10
10.7402012712
 20
8.0676635524
 30
0.0
  0
SPLINE
  5
396
100
AcDbEntity
  8
0
100
AcDbSpline
 62
7
  6
CONTINUOUS
 70
0
 71
3
 72
15
 73
11
 74
0
 42
0.0000001
 43
0.0000001
 44
0.0000000001
 40
0.0
 40
0.0
 40
0.0
 40
0.0
 40
0.1098906373
 40
0.2214016819
 40
0.3360757822
 40
0.4553202911
 40
0.5803741285
 40
0.7122942594
 40
0.8519453747
 40
1.0
 40
1.0
 40
1.0
 40
1.0
 10
13.3834729171
 20
10.3066936765
 30
0.0
 10
13.3834729175
 20
10.30611951
 30
0.0
 10
13.3833992058
 20
10.3049614089
 30
0.0
 10
13.3830685576
 20
10.3032325799
 30
0.0
 10
13.382518845
 20
10.3015091882
 30
0.0
 10
13.3817515349
 20
10.2997938207
 30
0.0
 10
13.3807683098
 20
10.2980881197
 30
0.0
 10
13.3795708076
 20
10.2963935765
 30
0.0
 10
13.3781608513
 20
10.2947117861
 30
0.0
 10
13.3771122784
 20
10.293632712
 30
0.0
 10
13.3765558853
 20
10.2930952774
 30
0.0
  0
SPLINE
  5
397
100
AcDbEntity
  8
0
100
AcDbSpline
 62
7
  6
CONTINUOUS
 70
0
 71
3
 72
15
 73
11
 74
0
 42
0.0000001
 43
0.0000001
 44
0.0000000001
 40
0.0
 40
0.0
 40
0.0
 40
0.0
 40
0.1098906373
 40
0.2214016819
 40
0.3360757822
 40
0.4553202911
 40
0.5803741285
 40
0.7122942594
 40
0.8519453747
 40
1.0
 40
1.0
 40
1.0
 40
1.0
 10
12.2834928832
 20
9.2441944904
 30
0.0
 10
12.2834928836
 20
9.2436203239
 30
0.0
 10
12.2834191719
 20
9.2424622228
 30
0.0
 10
12.2830885237
 20
9.2407333938
 30
0.0
 10
12.2825388111
 20
9.2390100021
 30
0.0
 10
12.281771501
 20
9.2372946346
 30
0.0
 10
12.2807882759
 20
9.2355889336
 30
0.0
 10
12.2795907737
 20
9.2338943904
 30
0.0
 10
12.2781808175
 20
9.2322126
 30
0.0
 10
12.2771322445
 20
9.2311335259
 30
0.0
 10
12.2765758514
 20
9.2305960913
 30
0.0
  0
SPLINE
  5
398
100
AcDbEntity
  8
0
100
AcDbSpline
 62
7
  6
CONTINUOUS
 70
0
 71
3
 72
55
 73
51
 74
0
 42
0.0000001
 43
0.0000001
 44
0.0000000001
 40
0.0
 40
0.0
 40
0.0
 40
0.0
 40
0.0077405257
 40
0.0160544501
 40
0.0249606726
 40
0.0344721687
 40
0.044595521
 40
0.0553324833
 40
0.0666807747
 40
0.0786348526
 40
0.0911862043
 40
0.1043237792
 40
0.1180344224
 40
0.1323028749
 40
0.1471122616
 40
0.162444009
 40
0.1782781527
 40
0.1945934236
 40
0.2285751811
 40
0.2641976254
 40
0.3012529971
 40
0.3395210523
 40
0.3787713176
 40
0.4187652369
 40
0.4592582441
 40
0.5000017836
 40
0.5407453086
 40
0.5812382691
 40
0.6212321052
 40
0.6604822534
 40
0.6987501673
 40
0.7358053802
 40
0.7714276421
 40
0.8054091819
 40
0.8217243075
 40
0.837558339
 40
0.8528899611
 40
0.8676991902
 40
0.8819675391
 40
0.8956779981
 40
0.9088154605
 40
0.9213666419
 40
0.9333205641
 40
0.9446687312
 40
0.9554054953
 40
0.9655287052
 40
0.975040063
 40
0.98394624
 40
0.9922596592
 40
1.0
 40
1.0
 40
1.0
 40
1.0
 10
12.7520332977
 20
10.0508653495
 30
0.0
 10
12.7509800898
 20
10.049885295
 30
0.0
 10
12.7487128234
 20
10.0479405228
 30
0.0
 10
12.7449934981
 20
10.0451629375
 30
0.0
 10
12.7408430582
 20
10.0424272532
 30
0.0
 10
12.7362683472
 20
10.0397378282
 30
0.0
 10
12.731276442
 20
10.0370986219
 30
0.0
 10
12.7258752711
 20
10.034513959
 30
0.0
 10
12.7200735325
 20
10.031987931
 30
0.0
 10
12.7138805812
 20
10.0295246936
 30
0.0
 10
12.7073064682
 20
10.0271282861
 30
0.0
 10
12.7003619104
 20
10.02480263
 30
0.0
 10
12.6930582459
 20
10.0225516211
 30
0.0
 10
12.6854074419
 20
10.0203789216
 30
0.0
 10
12.6774220381
 20
10.0182881844
 30
0.0
 10
12.6691151525
 20
10.0162828463
 30
0.0
 10
12.660500422
 20
10.0143662079
 30
0.0
 10
12.6484587052
 20
10.0118998041
 30
0.0
 10
12.6327388586
 20
10.0090739974
 30
0.0
 10
12.6131328862
 20
10.0061267482
 30
0.0
 10
12.5926656405
 20
10.0035987568
 30
0.0
 10
12.5714718146
 20
10.0015069192
 30
0.0
 10
12.5496907573
 20
9.9998652571
 30
0.0
 10
12.5274658222
 20
9.9986847465
 30
0.0
 10
12.5049433122
 20
9.9979732807
 30
0.0
 10
12.4822715216
 20
9.9977356143
 30
0.0
 10
12.4595997403
 20
9.9979733366
 30
0.0
 10
12.437077259
 20
9.998684862
 30
0.0
 10
12.4148523732
 20
9.999865436
 30
0.0
 10
12.3930713843
 20
10.0015071606
 30
0.0
 10
12.371877642
 20
10.0035990554
 30
0.0
 10
12.3514104926
 20
10.0061270963
 30
0.0
 10
12.331804633
 20
10.0090743961
 30
0.0
 10
12.3160848948
 20
10.0119002344
 30
0.0
 10
12.3040432789
 20
10.0143666908
 30
0.0
 10
12.2954286244
 20
10.0162833424
 30
0.0
 10
12.2871218184
 20
10.0182886987
 30
0.0
 10
12.2791364995
 20
10.0203794759
 30
0.0
 10
12.2714857787
 20
10.0225521656
 30
0.0
 10
12.2641822086
 20
10.0248032281
 30
0.0
 10
12.2572377389
 20
10.0271288738
 30
0.0
 10
12.2506637243
 20
10.0295253142
 30
0.0
 10
12.244470871
 20
10.0319885702
 30
0.0
 10
12.2386692267
 20
10.0345145941
 30
0.0
 10
12.2332681763
 20
10.0370993071
 30
0.0
 10
12.2282763516
 20
10.039738476
 30
0.0
 10
12.2237017503
 20
10.0424279695
 30
0.0
 10
12.2195514532
 20
10.0451636359
 30
0.0
 10
12.2158322608
 20
10.0479411704
 30
0.0
 10
12.2135651269
 20
10.0498859023
 30
0.0
 10
12.2125119737
 20
10.0508659651
 30
0.0
  0
SPLINE
  5
399
100
AcDbEntity
  8
0
100
AcDbSpline
 62
7
  6
CONTINUOUS
 70
0
 71
3
 72
55
 73
51
 74
0
 42
0.0000001
 43
0.0000001
 44
0.0000000001
 40
0.0
 40
0.0
 40
0.0
 40
0.0
 40
0.0077405257
 40
0.0160544501
 40
0.0249606726
 40
0.0344721687
 40
0.044595521
 40
0.0553324833
 40
0.0666807747
 40
0.0786348526
 40
0.0911862043
 40
0.1043237792
 40
0.1180344224
 40
0.1323028749
 40
0.1471122616
 40
0.162444009
 40
0.1782781527
 40
0.1945934236
 40
0.2285751811
 40
0.2641976254
 40
0.3012529971
 40
0.3395210523
 40
0.3787713176
 40
0.4187652369
 40
0.4592582441
 40
0.5000017836
 40
0.5407453086
 40
0.5812382691
 40
0.6212321052
 40
0.6604822534
 40
0.6987501673
 40
0.7358053802
 40
0.7714276421
 40
0.8054091819
 40
0.8217243075
 40
0.837558339
 40
0.8528899611
 40
0.8676991902
 40
0.8819675391
 40
0.8956779981
 40
0.9088154605
 40
0.9213666419
 40
0.9333205641
 40
0.9446687312
 40
0.9554054953
 40
0.9655287052
 40
0.975040063
 40
0.98394624
 40
0.9922596592
 40
1.0
 40
1.0
 40
1.0
 40
1.0
 10
9.787487372
 20
9.687333707
 30
0.0
 10
9.7864341642
 20
9.6863536525
 30
0.0
 10
9.7841668978
 20
9.6844088803
 30
0.0
 10
9.7804475724
 20
9.681631295
 30
0.0
 10
9.7762971325
 20
9.6788956107
 30
0.0
 10
9.7717224216
 20
9.6762061857
 30
0.0
 10
9.7667305163
 20
9.6735669794
 30
0.0
 10
9.7613293454
 20
9.6709823165
 30
0.0
 10
9.7555276068
 20
9.6684562885
 30
0.0
 10
9.7493346555
 20
9.6659930511
 30
0.0
 10
9.7427605425
 20
9.6635966436
 30
0.0
 10
9.7358159847
 20
9.6612709875
 30
0.0
 10
9.7285123202
 20
9.6590199786
 30
0.0
 10
9.7208615163
 20
9.6568472791
 30
0.0
 10
9.7128761124
 20
9.6547565419
 30
0.0
 10
9.7045692268
 20
9.6527512038
 30
0.0
 10
9.6959544963
 20
9.6508345654
 30
0.0
 10
9.6839127795
 20
9.6483681616
 30
0.0
 10
9.668192933
 20
9.6455423549
 30
0.0
 10
9.6485869606
 20
9.6425951057
 30
0.0
 10
9.6281197148
 20
9.6400671143
 30
0.0
 10
9.6069258889
 20
9.6379752767
 30
0.0
 10
9.5851448316
 20
9.6363336146
 30
0.0
 10
9.5629198965
 20
9.635153104
 30
0.0
 10
9.5403973865
 20
9.6344416382
 30
0.0
 10
9.5177255959
 20
9.6342039718
 30
0.0
 10
9.4950538146
 20
9.6344416941
 30
0.0
 10
9.4725313333
 20
9.6351532195
 30
0.0
 10
9.4503064475
 20
9.6363337935
 30
0.0
 10
9.4285254586
 20
9.637975518
 30
0.0
 10
9.4073317163
 20
9.6400674129
 30
0.0
 10
9.3868645669
 20
9.6425954538
 30
0.0
 10
9.3672587073
 20
9.6455427536
 30
0.0
 10
9.3515389691
 20
9.6483685919
 30
0.0
 10
9.3394973532
 20
9.6508350483
 30
0.0
 10
9.3308826987
 20
9.6527516999
 30
0.0
 10
9.3225758927
 20
9.6547570562
 30
0.0
 10
9.3145905739
 20
9.6568478333
 30
0.0
 10
9.306939853
 20
9.6590205231
 30
0.0
 10
9.2996362829
 20
9.6612715856
 30
0.0
 10
9.2926918133
 20
9.6635972313
 30
0.0
 10
9.2861177986
 20
9.6659936717
 30
0.0
 10
9.2799249453
 20
9.6684569277
 30
0.0
 10
9.2741233011
 20
9.6709829516
 30
0.0
 10
9.2687222506
 20
9.6735676646
 30
0.0
 10
9.2637304259
 20
9.6762068335
 30
0.0
 10
9.2591558246
 20
9.678896327
 30
0.0
 10
9.2550055275
 20
9.6816319934
 30
0.0
 10
9.2512863351
 20
9.6844095279
 30
0.0
 10
9.2490192012
 20
9.6863542598
 30
0.0
 10
9.247966048
 20
9.6873343226
 30
0.0
  0
SPLINE
  5
39A
100
AcDbEntity
  8
0
100
AcDbSpline
 62
7
  6
CONTINUOUS
 70
0
 71
3
 72
60
 73
56
 74
0
 42
0.0000001
 43
0.0000001
 44
0.0000000001
 40
0.0
 40
0.0
 40
0.0
 40
0.0
 40
0.0075207957
 40
0.0156241118
 40
0.0243309861
 40
0.0336547841
 40
0.0436026263
 40
0.0541766026
 40
0.0653746733
 40
0.0771912651
 40
0.0896178234
 40
0.1026432592
 40
0.1162542047
 40
0.1304352709
 40
0.1451693161
 40
0.1604375757
 40
0.1762197831
 40
0.1924943615
 40
0.2092385129
 40
0.2264282745
 40
0.2440386683
 40
0.2620437807
 40
0.2804167947
 40
0.2991301073
 40
0.3374630684
 40
0.37680932
 40
0.4169265214
 40
0.4575661003
 40
0.4984753203
 40
0.539399312
 40
0.5800830891
 40
0.6202735652
 40
0.6597215802
 40
0.6981839683
 40
0.7354256003
 40
0.7535182851
 40
0.7712223813
 40
0.7885117671
 40
0.805361234
 40
0.8217465727
 40
0.8376447178
 40
0.8530337951
 40
0.8678932165
 40
0.8822038693
 40
0.8959482199
 40
0.9091104458
 40
0.9216767004
 40
0.9336353458
 40
0.9449771943
 40
0.9556959425
 40
0.9657887125
 40
0.97525652
 40
0.984105174
 40
0.9923468743
 40
1.0
 40
1.0
 40
1.0
 40
1.0
 10
13.6194704903
 20
8.3567086029
 30
0.0
 10
13.6177854754
 20
8.3587804207
 30
0.0
 10
13.6144654565
 20
8.3632331853
 30
0.0
 10
13.609793345
 20
8.3705070335
 30
0.0
 10
13.6052546047
 20
8.3786068559
 30
0.0
 10
13.6008564814
 20
8.3875194089
 30
0.0
 10
13.5966055952
 20
8.3972308122
 30
0.0
 10
13.592508774
 20
8.4077254934
 30
0.0
 10
13.5885727067
 20
8.4189865483
 30
0.0
 10
13.5848038702
 20
8.4309956523
 30
0.0
 10
13.5812085078
 20
8.4437331601
 30
0.0
 10
13.577792643
 20
8.457178162
 30
0.0
 10
13.5745619905
 20
8.4713085094
 30
0.0
 10
13.5715219432
 20
8.4861008669
 30
0.0
 10
13.5686776164
 20
8.5015307779
 30
0.0
 10
13.5660337944
 20
8.5175726979
 30
0.0
 10
13.5635948912
 20
8.5342000364
 30
0.0
 10
13.5613650089
 20
8.5513852219
 30
0.0
 10
13.5593479089
 20
8.5690997443
 30
0.0
 10
13.5575469559
 20
8.5873141955
 30
0.0
 10
13.5559651722
 20
8.6059983343
 30
0.0
 10
13.5546052417
 20
8.6251211262
 30
0.0
 10
13.5534694047
 20
8.6446508327
 30
0.0
 10
13.5522466381
 20
8.6714037641
 30
0.0
 10
13.5513029864
 20
8.7056217439
 30
0.0
 10
13.5510928427
 20
8.7474522722
 30
0.0
 10
13.5517980959
 20
8.7900965014
 30
0.0
 10
13.5534142258
 20
8.8332711514
 30
0.0
 10
13.5559306488
 20
8.8766896086
 30
0.0
 10
13.5593307305
 20
8.9200635524
 30
0.0
 10
13.5635918274
 20
8.96310499
 30
0.0
 10
13.5686855291
 20
9.0055281355
 30
0.0
 10
13.5745777949
 20
9.0470514478
 30
0.0
 10
13.5812291993
 20
9.0873991681
 30
0.0
 10
13.5874255049
 20
9.1201273444
 30
0.0
 10
13.5927416181
 20
9.1455121788
 30
0.0
 10
13.596851142
 20
9.1639095084
 30
0.0
 10
13.6011144966
 20
9.1818183338
 30
0.0
 10
13.6055246113
 20
9.1992089437
 30
0.0
 10
13.6100741386
 20
9.216052463
 30
0.0
 10
13.6147554701
 20
9.2323209559
 30
0.0
 10
13.619560789
 20
9.2479874483
 30
0.0
 10
13.6244820995
 20
9.263025972
 30
0.0
 10
13.6295111751
 20
9.2774116361
 30
0.0
 10
13.6346396154
 20
9.2911206597
 30
0.0
 10
13.6398588943
 20
9.3041304003
 30
0.0
 10
13.6451603182
 20
9.3164194288
 30
0.0
 10
13.6505350616
 20
9.3279675706
 30
0.0
 10
13.6559742483
 20
9.3387559206
 30
0.0
 10
13.6614689314
 20
9.3487669207
 30
0.0
 10
13.6670101559
 20
9.3579844132
 30
0.0
 10
13.6725889707
 20
9.3663935653
 30
0.0
 10
13.6781968582
 20
9.3739813214
 30
0.0
 10
13.6838247907
 20
9.3807350656
 30
0.0
 10
13.6877257332
 20
9.3848223199
 30
0.0
 10
13.6896803172
 20
9.3867103032
 30
0.0
  0
SPLINE
  5
39B
100
AcDbEntity
  8
0
100
AcDbSpline
 62
7
  6
CONTINUOUS
 70
0
 71
3
 72
60
 73
56
 74
0
 42
0.0000001
 43
0.0000001
 44
0.0000000001
 40
0.0
 40
0.0
 40
0.0
 40
0.0
 40
0.0075207957
 40
0.0156241118
 40
0.0243309861
 40
0.0336547841
 40
0.0436026263
 40
0.0541766026
 40
0.0653746733
 40
0.0771912651
 40
0.0896178234
 40
0.1026432592
 40
0.1162542047
 40
0.1304352709
 40
0.1451693161
 40
0.1604375757
 40
0.1762197831
 40
0.1924943615
 40
0.2092385129
 40
0.2264282745
 40
0.2440386683
 40
0.2620437807
 40
0.2804167947
 40
0.2991301073
 40
0.3374630684
 40
0.37680932
 40
0.4169265214
 40
0.4575661003
 40
0.4984753203
 40
0.539399312
 40
0.5800830891
 40
0.6202735652
 40
0.6597215802
 40
0.6981839683
 40
0.7354256003
 40
0.7535182851
 40
0.7712223813
 40
0.7885117671
 40
0.805361234
 40
0.8217465727
 40
0.8376447178
 40
0.8530337951
 40
0.8678932165
 40
0.8822038693
 40
0.8959482199
 40
0.9091104458
 40
0.9216767004
 40
0.9336353458
 40
0.9449771943
 40
0.9556959425
 40
0.9657887125
 40
0.97525652
 40
0.984105174
 40
0.9923468743
 40
1.0
 40
1.0
 40
1.0
 40
1.0
 10
13.0697392735
 20
7.8257089915
 30
0.0
 10
13.0680542585
 20
7.8277808093
 30
0.0
 10
13.0647342396
 20
7.8322335739
 30
0.0
 10
13.0600621282
 20
7.8395074221
 30
0.0
 10
13.0555233878
 20
7.8476072445
 30
0.0
 10
13.0511252646
 20
7.8565197976
 30
0.0
 10
13.0468743784
 20
7.8662312009
 30
0.0
 10
13.0427775571
 20
7.876725882
 30
0.0
 10
13.0388414898
 20
7.8879869369
 30
0.0
 10
13.0350726534
 20
7.8999960409
 30
0.0
 10
13.0314772909
 20
7.9127335487
 30
0.0
 10
13.0280614262
 20
7.9261785506
 30
0.0
 10
13.0248307736
 20
7.940308898
 30
0.0
 10
13.0217907263
 20
7.9551012555
 30
0.0
 10
13.0189463995
 20
7.9705311665
 30
0.0
 10
13.0163025775
 20
7.9865730865
 30
0.0
 10
13.0138636744
 20
8.0032004251
 30
0.0
 10
13.0116337921
 20
8.0203856106
 30
0.0
 10
13.009616692
 20
8.0381001329
 30
0.0
 10
13.0078157391
 20
8.0563145841
 30
0.0
 10
13.0062339553
 20
8.0749987229
 30
0.0
 10
13.0048740248
 20
8.0941215149
 30
0.0
 10
13.0037381879
 20
8.1136512213
 30
0.0
 10
13.0025154212
 20
8.1404041528
 30
0.0
 10
13.0015717695
 20
8.1746221326
 30
0.0
 10
13.0013616258
 20
8.2164526608
 30
0.0
 10
13.002066879
 20
8.25909689
 30
0.0
 10
13.0036830089
 20
8.30227154
 30
0.0
 10
13.0061994319
 20
8.3456899973
 30
0.0
 10
13.0095995137
 20
8.389063941
 30
0.0
 10
13.0138606105
 20
8.4321053786
 30
0.0
 10
13.0189543122
 20
8.4745285241
 30
0.0
 10
13.024846578
 20
8.5160518364
 30
0.0
 10
13.0314979825
 20
8.5563995567
 30
0.0
 10
13.037694288
 20
8.5891277331
 30
0.0
 10
13.0430104012
 20
8.6145125675
 30
0.0
 10
13.0471199251
 20
8.6329098971
 30
0.0
 10
13.0513832797
 20
8.6508187225
 30
0.0
 10
13.0557933944
 20
8.6682093324
 30
0.0
 10
13.0603429217
 20
8.6850528516
 30
0.0
 10
13.0650242533
 20
8.7013213445
 30
0.0
 10
13.0698295722
 20
8.7169878369
 30
0.0
 10
13.0747508826
 20
8.7320263606
 30
0.0
 10
13.0797799582
 20
8.7464120248
 30
0.0
 10
13.0849083985
 20
8.7601210484
 30
0.0
 10
13.0901276774
 20
8.7731307889
 30
0.0
 10
13.0954291013
 20
8.7854198175
 30
0.0
 10
13.1008038447
 20
8.7969679592
 30
0.0
 10
13.1062430315
 20
8.8077563093
 30
0.0
 10
13.1117377145
 20
8.8177673093
 30
0.0
 10
13.1172789391
 20
8.8269848018
 30
0.0
 10
13.1228577538
 20
8.835393954
 30
0.0
 10
13.1284656413
 20
8.84298171
 30
0.0
 10
13.1340935738
 20
8.8497354543
 30
0.0
 10
13.1379945163
 20
8.8538227085
 30
0.0
 10
13.1399491004
 20
8.8557106919
 30
0.0
  0
SPLINE
  5
39C
100
AcDbEntity
  8
0
100
AcDbSpline
 62
7
  6
CONTINUOUS
 70
0
 71
3
 72
23
 73
19
 74
0
 42
0.0000001
 43
0.0000001
 44
0.0000000001
 40
0.0
 40
0.0
 40
0.0
 40
0.0
 40
0.0351356269
 40
0.0731167566
 40
0.114352788
 40
0.159181863
 40
0.2078677791
 40
0.2605983835
 40
0.3174854946
 40
0.3785658229
 40
0.4438024189
 40
0.5130873303
 40
0.5862453893
 40
0.6630391687
 40
0.7431755565
 40
0.8263107123
 40
0.9120601969
 40
1.0
 40
1.0
 40
1.0
 40
1.0
 10
9.7125506034
 20
7.1253525472
 30
0.0
 10
9.7115003622
 20
7.125823655
 30
0.0
 10
9.7093798172
 20
7.1269538005
 30
0.0
 10
9.7063026799
 20
7.1291038877
 30
0.0
 10
9.7032380152
 20
7.1317838936
 30
0.0
 10
9.7002113292
 20
7.1350061988
 30
0.0
 10
9.6972501539
 20
7.1387799002
 30
0.0
 10
9.6943852516
 20
7.1431090455
 30
0.0
 10
9.6916495921
 20
7.1479917654
 30
0.0
 10
9.6890777048
 20
7.1534194437
 30
0.0
 10
9.6867046604
 20
7.1593762048
 30
0.0
 10
9.6845649913
 20
7.165838672
 30
0.0
 10
9.6826915403
 20
7.1727760378
 30
0.0
 10
9.6811143166
 20
7.1801504552
 30
0.0
 10
9.6798594671
 20
7.1879176179
 30
0.0
 10
9.6789482933
 20
7.1960277447
 30
0.0
 10
9.6783966067
 20
7.2044261292
 30
0.0
 10
9.6782762153
 20
7.2101171451
 30
0.0
 10
9.6782762153
 20
7.2129981062
 30
0.0
  0
SPLINE
  5
39D
100
AcDbEntity
  8
0
100
AcDbSpline
 62
7
  6
CONTINUOUS
 70
0
 71
3
 72
24
 73
20
 74
0
 42
0.0000001
 43
0.0000001
 44
0.0000000001
 40
0.0
 40
0.0
 40
0.0
 40
0.0
 40
0.0982352545
 40
0.1906313754
 40
0.2772421391
 40
0.3581487601
 40
0.4334672892
 40
0.5033638728
 40
0.5680530668
 40
0.6278259878
 40
0.6830584491
 40
0.7091293541
 40
0.7342585173
 40
0.7819982367
 40
0.8270605668
 40
0.8703545305
 40
0.9128995244
 40
0.9557656574
 40
1.0
 40
1.0
 40
1.0
 40
1.0
 10
11.0170678123
 20
8.1981254981
 30
0.0
 10
11.0168875704
 20
8.1971545494
 30
0.0
 10
11.0165756225
 20
8.1952630311
 30
0.0
 10
11.0162457727
 20
8.1924945831
 30
0.0
 10
11.01606385
 20
8.1898869182
 30
0.0
 10
11.0160252736
 20
8.1874447465
 30
0.0
 10
11.0161254653
 20
8.1851722883
 30
0.0
 10
11.0163596576
 20
8.1830734249
 30
0.0
 10
11.0167233062
 20
8.1811515234
 30
0.0
 10
11.0172118354
 20
8.1794098639
 30
0.0
 10
11.0177291756
 20
8.1780861783
 30
0.0
 10
11.0182040667
 20
8.1771267195
 30
0.0
 10
11.0186989848
 20
8.1762634208
 30
0.0
 10
11.0193866046
 20
8.1752927573
 30
0.0
 10
11.0203356374
 20
8.1742998924
 30
0.0
 10
11.0213902546
 20
8.1735027808
 30
0.0
 10
11.0225451074
 20
8.1729053429
 30
0.0
 10
11.0237933404
 20
8.1725104065
 30
0.0
 10
11.0246642234
 20
8.1723853421
 30
0.0
 10
11.0251078312
 20
8.1723545129
 30
0.0
  0
SPLINE
  5
39E
100
AcDbEntity
  8
0
100
AcDbSpline
 62
7
  6
CONTINUOUS
 70
0
 71
3
 72
15
 73
11
 74
0
 42
0.0000001
 43
0.0000001
 44
0.0000000001
 40
0.0
 40
0.0
 40
0.0
 40
0.0
 40
0.0836370061
 40
0.1755291364
 40
0.2775893666
 40
0.3919536032
 40
0.5207813835
 40
0.6656820662
 40
0.8265288182
 40
1.0
 40
1.0
 40
1.0
 40
1.0
 10
10.7458685053
 20
7.5924999361
 30
0.0
 10
10.7447549606
 20
7.5929647795
 30
0.0
 10
10.7424748684
 20
7.5940816048
 30
0.0
 10
10.7390926627
 20
7.5962409595
 30
0.0
 10
10.7356219243
 20
7.5990373297
 30
0.0
 10
10.7320931931
 20
7.6025660466
 30
0.0
 10
10.7285621064
 20
7.6069242276
 30
0.0
 10
10.7251247929
 20
7.6121806128
 30
0.0
 10
10.7219252195
 20
7.6183214784
 30
0.0
 10
10.7201088795
 20
7.622798636
 30
0.0
 10
10.7192708889
 20
7.6251569329
 30
0.0
  0
SPLINE
  5
39F
100
AcDbEntity
  8
0
100
AcDbSpline
 62
7
  6
CONTINUOUS
 70
0
 71
3
 72
71
 73
67
 74
0
 42
0.0000001
 43
0.0000001
 44
0.0000000001
 40
0.0
 40
0.0
 40
0.0
 40
0.0
 40
0.0155842357
 40
0.031115943
 40
0.0465952487
 40
0.0620238831
 40
0.0774034484
 40
0.0927362827
 40
0.1080251234
 40
0.1232731737
 40
0.1384840555
 40
0.1536617759
 40
0.1688106894
 40
0.1839354528
 40
0.1990409785
 40
0.2141323826
 40
0.2292149324
 40
0.2442939897
 40
0.2593749538
 40
0.2744632037
 40
0.2895640404
 40
0.3046826304
 40
0.3198239511
 40
0.3349927396
 40
0.3501934435
 40
0.3654301766
 40
0.3807066777
 40
0.3960262752
 40
0.4113918557
 40
0.4268058391
 40
0.4422701589
 40
0.4577862478
 40
0.4733550285
 40
0.4889769092
 40
0.5046517848
 40
0.5203790431
 40
0.5361575763
 40
0.5519857963
 40
0.5678616538
 40
0.5837826609
 40
0.5997459179
 40
0.6157481418
 40
0.6317856999
 40
0.6478546445
 40
0.6639507499
 40
0.6800695506
 40
0.6962063818
 40
0.7123564201
 40
0.7285147273
 40
0.7446762933
 40
0.7608360799
 40
0.7769890645
 40
0.7931302835
 40
0.8092548753
 40
0.8253581239
 40
0.8414355006
 40
0.8574827053
 40
0.873495705
 40
0.8894707706
 40
0.9054045132
 40
0.921293919
 40
0.9371363616
 40
0.9529297193
 40
0.9686720808
 40
0.9843626423
 40
1.0
 40
1.0
 40
1.0
 40
1.0
 10
11.6588847158
 20
7.6332664179
 30
0.0
 10
11.6588847158
 20
7.6242581411
 30
0.0
 10
11.6584438624
 20
7.6062687567
 30
0.0
 10
11.6564538505
 20
7.5793980171
 30
0.0
 10
11.6531407362
 20
7.5527480051
 30
0.0
 10
11.6485126714
 20
7.5263839856
 30
0.0
 10
11.6425805763
 20
7.50036911
 30
0.0
 10
11.635358763
 20
7.4747662178
 30
0.0
 10
11.6268645315
 20
7.4496370038
 30
0.0
 10
11.6171183128
 20
7.4250420728
 30
0.0
 10
11.6061435569
 20
7.4010407343
 30
0.0
 10
11.5939666797
 20
7.3776908772
 30
0.0
 10
11.5806170013
 20
7.3550488259
 30
0.0
 10
11.5661266758
 20
7.333169204
 30
0.0
 10
11.5505306142
 20
7.3121048024
 30
0.0
 10
11.5338664054
 20
7.2919064466
 30
0.0
 10
11.5161742387
 20
7.272622859
 30
0.0
 10
11.4974967841
 20
7.254300555
 30
0.0
 10
11.4778790929
 20
7.2369837277
 30
0.0
 10
11.4573684864
 20
7.2207141415
 30
0.0
 10
11.436014442
 20
7.2055310298
 30
0.0
 10
11.4138684712
 20
7.1914710029
 30
0.0
 10
11.3909840068
 20
7.1785679378
 30
0.0
 10
11.36741626
 20
7.1668529098
 30
0.0
 10
11.3432220826
 20
7.1563541239
 30
0.0
 10
11.3184598293
 20
7.1470968469
 30
0.0
 10
11.293189217
 20
7.1391033476
 30
0.0
 10
11.267471179
 20
7.1323928474
 30
0.0
 10
11.2413677219
 20
7.1269814625
 30
0.0
 10
11.2149417739
 20
7.1228821592
 30
0.0
 10
11.1882570268
 20
7.1201047455
 30
0.0
 10
11.1613777849
 20
7.118655845
 30
0.0
 10
11.1343688101
 20
7.118538884
 30
0.0
 10
11.1072951675
 20
7.1197540844
 30
0.0
 10
11.0802220704
 20
7.1222984643
 30
0.0
 10
11.0532147208
 20
7.1261658228
 30
0.0
 10
11.0263381531
 20
7.1313467802
 30
0.0
 10
10.9996570789
 20
7.1378288014
 30
0.0
 10
10.973235733
 20
7.1455962273
 30
0.0
 10
10.9471377207
 20
7.1546303116
 30
0.0
 10
10.9214258678
 20
7.1649092698
 30
0.0
 10
10.8961620631
 20
7.1764083128
 30
0.0
 10
10.8714071103
 20
7.1890997134
 30
0.0
 10
10.8472205876
 20
7.2029528862
 30
0.0
 10
10.8236607046
 20
7.2179344575
 30
0.0
 10
10.8007841645
 20
7.2340083455
 30
0.0
 10
10.7786460296
 20
7.2511358477
 30
0.0
 10
10.7572995864
 20
7.2692757279
 30
0.0
 10
10.7367962063
 20
7.288384304
 30
0.0
 10
10.7171852363
 20
7.3084155718
 30
0.0
 10
10.6985138799
 20
7.3293213123
 30
0.0
 10
10.6808270854
 20
7.3510512072
 30
0.0
 10
10.6641674377
 20
7.3735529584
 30
0.0
 10
10.6485750599
 20
7.3967724141
 30
0.0
 10
10.6340874958
 20
7.4206536854
 30
0.0
 10
10.6207396333
 20
7.4451392917
 30
0.0
 10
10.6085636252
 20
7.4701703007
 30
0.0
 10
10.5975888126
 20
7.4956864682
 30
0.0
 10
10.587841653
 20
7.5216263805
 30
0.0
 10
10.5793456585
 20
7.5479276045
 30
0.0
 10
10.5721213404
 20
7.574526819
 30
0.0
 10
10.5661860964
 20
7.6013600249
 30
0.0
 10
10.5615543483
 20
7.6283624891
 30
0.0
 10
10.5582371421
 20
7.655469593
 30
0.0
 10
10.556242757
 20
7.6826150017
 30
0.0
 10
10.5557973918
 20
7.7007268003
 30
0.0
 10
10.5557973918
 20
7.7097657837
 30
0.0
  0
SPLINE
  5
3A0
100
AcDbEntity
  8
0
100
AcDbSpline
 62
7
  6
CONTINUOUS
 70
0
 71
3
 72
70
 73
66
 74
0
 42
0.0000001
 43
0.0000001
 44
0.0000000001
 40
0.0
 40
0.0
 40
0.0
 40
0.0
 40
0.0085742128
 40
0.0179225174
 40
0.0280750681
 40
0.0390499684
 40
0.0508538305
 40
0.0634848013
 40
0.0769342559
 40
0.0911878009
 40
0.1062261691
 40
0.1220260053
 40
0.138560371
 40
0.1557990732
 40
0.1737091024
 40
0.1922549504
 40
0.211398781
 40
0.2311006759
 40
0.2513188999
 40
0.2720100432
 40
0.3146288917
 40
0.3585841998
 40
0.4034855347
 40
0.4489313437
 40
0.4945137112
 40
0.5398231418
 40
0.5844533008
 40
0.6280058207
 40
0.6492573827
 40
0.6700962428
 40
0.6904770235
 40
0.7103557569
 40
0.7296901326
 40
0.7484396302
 40
0.7665656785
 40
0.7840319485
 40
0.8008045956
 40
0.8168524592
 40
0.8321474327
 40
0.8466649349
 40
0.8603842961
 40
0.8732893758
 40
0.8853694933
 40
0.896620431
 40
0.9070458371
 40
0.9166593113
 40
0.9254871329
 40
0.9296201465
 40
0.9335744016
 40
0.9373585101
 40
0.940982832
 40
0.9477983657
 40
0.9510242667
 40
0.954151261
 40
0.9571997333
 40
0.9601919004
 40
0.9631513546
 40
0.9661025682
 40
0.9690702375
 40
0.9720786223
 40
0.9751509051
 40
0.9783086733
 40
0.9849529369
 40
0.9921503643
 40
1.0
 40
1.0
 40
1.0
 40
1.0
 10
9.2472677898
 20
9.7255090488
 30
0.0
 10
9.2485068374
 20
9.726705877
 30
0.0
 10
9.2512250776
 20
9.7290764523
 30
0.0
 10
9.2557685393
 20
9.7324273023
 30
0.0
 10
9.2609387428
 20
9.735715521
 30
0.0
 10
9.2667234272
 20
9.7389336477
 30
0.0
 10
9.2731097509
 20
9.7420746603
 30
0.0
 10
9.2800829035
 20
9.7451312294
 30
0.0
 10
9.2876266261
 20
9.7480961306
 30
0.0
 10
9.2957231545
 20
9.7509622441
 30
0.0
 10
9.3043532813
 20
9.7537226875
 30
0.0
 10
9.3134964595
 20
9.7563707775
 30
0.0
 10
9.3231308587
 20
9.7589000741
 30
0.0
 10
9.3332334088
 20
9.761304459
 30
0.0
 10
9.3437798857
 20
9.7635781025
 30
0.0
 10
9.3547449811
 20
9.7657154683
 30
0.0
 10
9.3661023552
 20
9.7677113743
 30
0.0
 10
9.3778246969
 20
9.7695609848
 30
0.0
 10
9.3898838425
 20
9.7712598383
 30
0.0
 10
9.4065371776
 20
9.7733387842
 30
0.0
 10
9.4279809631
 20
9.7755206543
 30
0.0
 10
9.454328247
 20
9.7774586549
 30
0.0
 10
9.4812850399
 20
9.7787222993
 30
0.0
 10
9.5085920946
 20
9.7792992011
 30
0.0
 10
9.5359869666
 20
9.7791836917
 30
0.0
 10
9.5632063397
 20
9.7783769301
 30
0.0
 10
9.5899884156
 20
9.7768867545
 30
0.0
 10
9.6119035654
 20
9.7750733573
 30
0.0
 10
9.6290176337
 20
9.7732833259
 30
0.0
 10
9.641480574
 20
9.7717918713
 30
0.0
 10
9.6536455603
 20
9.7701442514
 30
0.0
 10
9.6654833455
 20
9.7683444145
 30
0.0
 10
9.6769654559
 20
9.7663967482
 30
0.0
 10
9.6880642915
 20
9.7643059818
 30
0.0
 10
9.6987531777
 20
9.7620771717
 30
0.0
 10
9.7090064514
 20
9.7597157295
 30
0.0
 10
9.7187995261
 20
9.7572274025
 30
0.0
 10
9.728108941
 20
9.7546182203
 30
0.0
 10
9.7369124358
 20
9.7518944945
 30
0.0
 10
9.745189033
 20
9.7490628421
 30
0.0
 10
9.7529190813
 20
9.7461301007
 30
0.0
 10
9.7600843114
 20
9.7431032876
 30
0.0
 10
9.7666679576
 20
9.7399896094
 30
0.0
 10
9.772654744
 20
9.7367963805
 30
0.0
 10
9.7780311278
 20
9.7335307544
 30
0.0
 10
9.7827846345
 20
9.7302000143
 30
0.0
 10
9.7862921886
 20
9.7273150043
 30
0.0
 10
9.7887590987
 20
9.7249756865
 30
0.0
 10
9.7904055592
 20
9.723248512
 30
0.0
 10
9.7918882319
 20
9.7215106939
 30
0.0
 10
9.7936097441
 20
9.7192283077
 30
0.0
 10
9.7950505967
 20
9.7168780223
 30
0.0
 10
9.7961614812
 20
9.7144741423
 30
0.0
 10
9.7968114582
 20
9.7126981572
 30
0.0
 10
9.7972924829
 20
9.7109176629
 30
0.0
 10
9.7976041146
 20
9.7091338492
 30
0.0
 10
9.7977458601
 20
9.7073480894
 30
0.0
 10
9.7977174845
 20
9.7055618388
 30
0.0
 10
9.7975191161
 20
9.7037765612
 30
0.0
 10
9.7971509625
 20
9.7019937095
 30
0.0
 10
9.7966134835
 20
9.700214561
 30
0.0
 10
9.7956561521
 20
9.6978087168
 30
0.0
 10
9.794007832
 20
9.6948009225
 30
0.0
 10
9.7913995378
 20
9.6912961271
 30
0.0
 10
9.7893206246
 20
9.6890919122
 30
0.0
 10
9.7881862845
 20
9.6879962238
 30
0.0
  0
SPLINE
  5
3A1
100
AcDbEntity
  8
0
100
AcDbSpline
 62
7
  6
CONTINUOUS
 70
0
 71
3
 72
71
 73
67
 74
0
 42
0.0000001
 43
0.0000001
 44
0.0000000001
 40
0.0
 40
0.0
 40
0.0
 40
0.0
 40
0.0155842357
 40
0.031115943
 40
0.0465952487
 40
0.0620238831
 40
0.0774034484
 40
0.0927362827
 40
0.1080251234
 40
0.1232731737
 40
0.1384840555
 40
0.1536617759
 40
0.1688106894
 40
0.1839354528
 40
0.1990409785
 40
0.2141323826
 40
0.2292149324
 40
0.2442939897
 40
0.2593749538
 40
0.2744632037
 40
0.2895640404
 40
0.3046826304
 40
0.3198239511
 40
0.3349927396
 40
0.3501934435
 40
0.3654301766
 40
0.3807066777
 40
0.3960262752
 40
0.4113918557
 40
0.4268058391
 40
0.4422701589
 40
0.4577862478
 40
0.4733550285
 40
0.4889769092
 40
0.5046517848
 40
0.5203790431
 40
0.5361575763
 40
0.5519857963
 40
0.5678616538
 40
0.5837826609
 40
0.5997459179
 40
0.6157481418
 40
0.6317856999
 40
0.6478546445
 40
0.6639507499
 40
0.6800695506
 40
0.6962063818
 40
0.7123564201
 40
0.7285147273
 40
0.7446762933
 40
0.7608360799
 40
0.7769890645
 40
0.7931302835
 40
0.8092548753
 40
0.8253581239
 40
0.8414355006
 40
0.8574827053
 40
0.873495705
 40
0.8894707706
 40
0.9054045132
 40
0.921293919
 40
0.9371363616
 40
0.9529297193
 40
0.9686720808
 40
0.9843626423
 40
1.0
 40
1.0
 40
1.0
 40
1.0
 10
10.5557973918
 20
7.7097657837
 30
0.0
 10
10.5557973918
 20
7.7187740605
 30
0.0
 10
10.5562382452
 20
7.7367634449
 30
0.0
 10
10.558228257
 20
7.7636341845
 30
0.0
 10
10.5615413713
 20
7.7902841965
 30
0.0
 10
10.5661694362
 20
7.816648216
 30
0.0
 10
10.5721015313
 20
7.8426630917
 30
0.0
 10
10.5793233445
 20
7.8682659839
 30
0.0
 10
10.587817576
 20
7.8933951978
 30
0.0
 10
10.5975637948
 20
7.9179901288
 30
0.0
 10
10.6085385506
 20
7.9419914674
 30
0.0
 10
10.6207154279
 20
7.9653413244
 30
0.0
 10
10.6340651063
 20
7.9879833758
 30
0.0
 10
10.6485554318
 20
8.0098629976
 30
0.0
 10
10.6641514934
 20
8.0309273992
 30
0.0
 10
10.6808157021
 20
8.051125755
 30
0.0
 10
10.6985078689
 20
8.0704093426
 30
0.0
 10
10.7171853234
 20
8.0887316466
 30
0.0
 10
10.7368030146
 20
8.1060484739
 30
0.0
 10
10.7573136212
 20
8.1223180601
 30
0.0
 10
10.7786676655
 20
8.1375011719
 30
0.0
 10
10.8008136363
 20
8.1515611988
 30
0.0
 10
10.8236981007
 20
8.1644642638
 30
0.0
 10
10.8472658475
 20
8.1761792918
 30
0.0
 10
10.871460025
 20
8.1866780777
 30
0.0
 10
10.8962222782
 20
8.1959353547
 30
0.0
 10
10.9214928905
 20
8.203928854
 30
0.0
 10
10.9472109285
 20
8.2106393542
 30
0.0
 10
10.9733143856
 20
8.2160507391
 30
0.0
 10
10.9997403337
 20
8.2201500425
 30
0.0
 10
11.0264250807
 20
8.2229274562
 30
0.0
 10
11.0533043226
 20
8.2243763566
 30
0.0
 10
11.0803132974
 20
8.2244933176
 30
0.0
 10
11.1073869401
 20
8.2232781172
 30
0.0
 10
11.1344600372
 20
8.2207337373
 30
0.0
 10
11.1614673868
 20
8.2168663788
 30
0.0
 10
11.1883439545
 20
8.2116854215
 30
0.0
 10
11.2150250287
 20
8.2052034002
 30
0.0
 10
11.2414463745
 20
8.1974359743
 30
0.0
 10
11.2675443869
 20
8.18840189
 30
0.0
 10
11.2932562398
 20
8.1781229318
 30
0.0
 10
11.3185200444
 20
8.1666238889
 30
0.0
 10
11.3432749972
 20
8.1539324882
 30
0.0
 10
11.36746152
 20
8.1400793154
 30
0.0
 10
11.3910214029
 20
8.1250977441
 30
0.0
 10
11.413897943
 20
8.1090238561
 30
0.0
 10
11.436036078
 20
8.091896354
 30
0.0
 10
11.4573825211
 20
8.0737564737
 30
0.0
 10
11.4778859013
 20
8.0546478976
 30
0.0
 10
11.4974968713
 20
8.0346166298
 30
0.0
 10
11.5161682277
 20
8.0137108894
 30
0.0
 10
11.5338550222
 20
7.9919809944
 30
0.0
 10
11.5505146698
 20
7.9694792432
 30
0.0
 10
11.5661070477
 20
7.9462597875
 30
0.0
 10
11.5805946118
 20
7.9223785162
 30
0.0
 10
11.5939424743
 20
7.8978929099
 30
0.0
 10
11.6061184823
 20
7.8728619009
 30
0.0
 10
11.6170932949
 20
7.8473457334
 30
0.0
 10
11.6268404545
 20
7.8214058212
 30
0.0
 10
11.635336449
 20
7.7951045971
 30
0.0
 10
11.6425607672
 20
7.7685053827
 30
0.0
 10
11.6484960112
 20
7.7416721768
 30
0.0
 10
11.6531277593
 20
7.7146697125
 30
0.0
 10
11.6564449655
 20
7.6875626087
 30
0.0
 10
11.6584393506
 20
7.6604171999
 30
0.0
 10
11.6588847158
 20
7.6423054013
 30
0.0
 10
11.6588847158
 20
7.6332664179
 30
0.0
  0
SPLINE
  5
3A2
100
AcDbEntity
  8
0
100
AcDbSpline
 62
7
  6
CONTINUOUS
 70
0
 71
3
 72
39
 73
35
 74
0
 42
0.0000001
 43
0.0000001
 44
0.0000000001
 40
0.0
 40
0.0
 40
0.0
 40
0.0
 40
0.0311159435
 40
0.0620233446
 40
0.0927351373
 40
0.1232711777
 40
0.1536587331
 40
0.1839312108
 40
0.2141268399
 40
0.2442870988
 40
0.274454976
 40
0.3046731308
 40
0.3349820902
 40
0.3654185441
 40
0.3960138642
 40
0.4267928828
 40
0.4577729963
 40
0.4889636214
 40
0.5203659689
 40
0.5519731787
 40
0.5837707188
 40
0.6157370636
 40
0.647844591
 40
0.6800606403
 40
0.712348731
 40
0.744669863
 40
0.7769838843
 40
0.8092508935
 40
0.8414326252
 40
0.8734938001
 40
0.9054034144
 40
0.9371358873
 40
0.968671823
 40
1.0
 40
1.0
 40
1.0
 40
1.0
 10
8.812301137
 20
7.2578836158
 30
0.0
 10
8.812301137
 20
7.2490664237
 30
0.0
 10
8.8114403296
 20
7.231478379
 30
0.0
 10
8.8075474229
 20
7.2054479504
 30
0.0
 10
8.8010937457
 20
7.1800975115
 30
0.0
 10
8.7921404729
 20
7.1556750841
 30
0.0
 10
8.7807732824
 20
7.132415963
 30
0.0
 10
8.7671011972
 20
7.1105455638
 30
0.0
 10
8.7512560649
 20
7.0902755597
 30
0.0
 10
8.7333908194
 20
7.0718023699
 30
0.0
 10
8.7136783314
 20
7.0553048062
 30
0.0
 10
8.6923094974
 20
7.0409423372
 30
0.0
 10
8.6694912263
 20
7.0288536431
 30
0.0
 10
8.6454445181
 20
7.019154882
 30
0.0
 10
8.6204019563
 20
7.0119390943
 30
0.0
 10
8.5946055743
 20
7.0072749352
 30
0.0
 10
8.5683043329
 20
7.005206349
 30
0.0
 10
8.5417517463
 20
7.0057523092
 30
0.0
 10
8.5152034266
 20
7.0089063933
 30
0.0
 10
8.4889146872
 20
7.014637444
 30
0.0
 10
8.4631380904
 20
7.0228894217
 30
0.0
 10
8.4381211115
 20
7.0335823327
 30
0.0
 10
8.4141038561
 20
7.0466129509
 30
0.0
 10
8.3913166721
 20
7.0618556122
 30
0.0
 10
8.3699782332
 20
7.079163808
 30
0.0
 10
8.3502931992
 20
7.0983711417
 30
0.0
 10
8.3324505218
 20
7.1192932373
 30
0.0
 10
8.3166215938
 20
7.1417293426
 30
0.0
 10
8.3029584825
 20
7.1654641303
 30
0.0
 10
8.2915928389
 20
7.1902700374
 30
0.0
 10
8.2826341815
 20
7.2159087438
 30
0.0
 10
8.2761693067
 20
7.2421350415
 30
0.0
 10
8.2722610088
 20
7.2686937357
 30
0.0
 10
8.2713826422
 20
7.286519109
 30
0.0
 10
8.2713826422
 20
7.2953964408
 30
0.0
  0
SPLINE
  5
3A3
100
AcDbEntity
  8
0
100
AcDbSpline
 62
7
  6
CONTINUOUS
 70
0
 71
3
 72
44
 73
40
 74
0
 42
0.0000001
 43
0.0000001
 44
0.0000000001
 40
0.0
 40
0.0
 40
0.0
 40
0.0
 40
0.0504822332
 40
0.1018282238
 40
0.1530655996
 40
0.2034285625
 40
0.2523989672
 40
0.2996732305
 40
0.3451034997
 40
0.3886424343
 40
0.4303015416
 40
0.4701234543
 40
0.50816525
 40
0.5444881763
 40
0.5791514992
 40
0.6122107531
 40
0.643715524
 40
0.6737095841
 40
0.7022326382
 40
0.7293187693
 40
0.7550018306
 40
0.7793137935
 40
0.8022913236
 40
0.8239775311
 40
0.8444285057
 40
0.8637216255
 40
0.8819626489
 40
0.8993003593
 40
0.9159364629
 40
0.9240778343
 40
0.9321492492
 40
0.9401944386
 40
0.9482601067
 40
0.9563969249
 40
0.964657195
 40
0.9730941493
 40
0.9817621284
 40
0.9907135996
 40
1.0
 40
1.0
 40
1.0
 40
1.0
 10
9.7697824907
 20
7.3013863862
 30
0.0
 10
9.7697824907
 20
7.2979589897
 30
0.0
 10
9.769733766
 20
7.2910454773
 30
0.0
 10
9.7695255845
 20
7.2806551974
 30
0.0
 10
9.7691872171
 20
7.2702764335
 30
0.0
 10
9.76872673
 20
7.2600638252
 30
0.0
 10
9.7681523895
 20
7.2501264838
 30
0.0
 10
9.7674713921
 20
7.2405315775
 30
0.0
 10
9.7666892813
 20
7.2313143953
 30
0.0
 10
9.7658098621
 20
7.2224889987
 30
0.0
 10
9.7648353712
 20
7.2140567491
 30
0.0
 10
9.7637667258
 20
7.2060122176
 30
0.0
 10
9.7626038091
 20
7.1983469618
 30
0.0
 10
9.7613456465
 20
7.1910518556
 30
0.0
 10
9.75999054
 20
7.1841184258
 30
0.0
 10
9.7585363793
 20
7.1775396208
 30
0.0
 10
9.7569805435
 20
7.1713102496
 30
0.0
 10
9.7553200609
 20
7.1654271824
 30
0.0
 10
9.7535519171
 20
7.1598894844
 30
0.0
 10
9.7516725838
 20
7.1546985058
 30
0.0
 10
9.749678878
 20
7.1498578651
 30
0.0
 10
9.7475671418
 20
7.1453735871
 30
0.0
 10
9.7453341438
 20
7.1412540217
 30
0.0
 10
9.7429765016
 20
7.1375100523
 30
0.0
 10
9.7404910543
 20
7.1341551116
 30
0.0
 10
9.7378750131
 20
7.1312054106
 30
0.0
 10
9.7351254869
 20
7.1286803928
 30
0.0
 10
9.7322413906
 20
7.12660325
 30
0.0
 10
9.7297054552
 20
7.1252583938
 30
0.0
 10
9.7276258538
 20
7.1244471592
 30
0.0
 10
9.7260467585
 20
7.123972706
 30
0.0
 10
9.7244386879
 20
7.1236321029
 30
0.0
 10
9.7228028979
 20
7.1234294444
 30
0.0
 10
9.7211410499
 20
7.1233688564
 30
0.0
 10
9.7194550324
 20
7.12345445
 30
0.0
 10
9.7177470216
 20
7.123690419
 30
0.0
 10
9.7160194388
 20
7.124080817
 30
0.0
 10
9.7142750918
 20
7.1246296182
 30
0.0
 10
9.7131258614
 20
7.1250945031
 30
0.0
 10
9.7125506034
 20
7.1253525472
 30
0.0
  0
SPLINE
  5
3A4
100
AcDbEntity
  8
0
100
AcDbSpline
 62
7
  6
CONTINUOUS
 70
0
 71
3
 72
23
 73
19
 74
0
 42
0.0000001
 43
0.0000001
 44
0.0000000001
 40
0.0
 40
0.0
 40
0.0
 40
0.0
 40
0.0755966894
 40
0.1466391965
 40
0.2134647074
 40
0.2765134986
 40
0.3363257304
 40
0.3935458535
 40
0.4489219493
 40
0.5032869296
 40
0.5575247817
 40
0.6125261135
 40
0.6691421681
 40
0.7281478382
 40
0.7902185594
 40
0.8559229117
 40
0.9257262624
 40
1.0
 40
1.0
 40
1.0
 40
1.0
 10
13.6896803172
 20
8.3531696079
 30
0.0
 10
13.6881933974
 20
8.3517333535
 30
0.0
 10
13.6852215459
 20
8.349035632
 30
0.0
 10
13.6806223032
 20
8.3454316612
 30
0.0
 10
13.6760284651
 20
8.3424048274
 30
0.0
 10
13.6714442277
 20
8.3399597193
 30
0.0
 10
13.6668734524
 20
8.3381006832
 30
0.0
 10
13.6623208074
 20
8.3368324285
 30
0.0
 10
13.6577923057
 20
8.3361592604
 30
0.0
 10
13.6532954693
 20
8.3360845392
 30
0.0
 10
13.6488389369
 20
8.3366091877
 30
0.0
 10
13.6444313734
 20
8.3377318268
 30
0.0
 10
13.6400802224
 20
8.3394485079
 30
0.0
 10
13.6357912963
 20
8.3417543394
 30
0.0
 10
13.631568909
 20
8.3446439823
 30
0.0
 10
13.627416463
 20
8.3481124288
 30
0.0
 10
13.6233373569
 20
8.3521545942
 30
0.0
 10
13.6207520668
 20
8.3551328347
 30
0.0
 10
13.6194704903
 20
8.3567086029
 30
0.0
  0
SPLINE
  5
3A5
100
AcDbEntity
  8
0
100
AcDbSpline
 62
7
  6
CONTINUOUS
 70
0
 71
3
 72
43
 73
39
 74
0
 42
0.0000001
 43
0.0000001
 44
0.0000000001
 40
0.0
 40
0.0
 40
0.0
 40
0.0
 40
0.0299703487
 40
0.0449893437
 40
0.0600318595
 40
0.0901898003
 40
0.1204612735
 40
0.1356451458
 40
0.1508611084
 40
0.1813885553
 40
0.2120537465
 40
0.242859905
 40
0.2738077517
 40
0.3048955264
 40
0.3361190515
 40
0.3674718347
 40
0.3989452075
 40
0.4305284944
 40
0.4622092099
 40
0.49397328
 40
0.5258052823
 40
0.5576887032
 40
0.5896062079
 40
0.6215399188
 40
0.6534717014
 40
0.6853834516
 40
0.7172573833
 40
0.7331766938
 40
0.7490801752
 40
0.7808277987
 40
0.8124889592
 40
0.8440498987
 40
0.8754985041
 40
0.9068244914
 40
0.9380196962
 40
0.953568101
 40
0.9690821228
 40
1.0
 40
1.0
 40
1.0
 40
1.0
 10
10.4098873161
 20
6.9270057829
 30
0.0
 10
10.4022852463
 20
6.9228611577
 30
0.0
 10
10.3906487293
 20
6.9170394181
 30
0.0
 10
10.3747500321
 20
6.910103429
 30
0.0
 10
10.3585678681
 20
6.9037062594
 30
0.0
 10
10.337882193
 20
6.8967545668
 30
0.0
 10
10.316726402
 20
6.8912383222
 30
0.0
 10
10.299557762
 20
6.8876922382
 30
0.0
 10
10.2822052422
 20
6.8847216547
 30
0.0
 10
10.2602671866
 20
6.8821100833
 30
0.0
 10
10.233703793
 20
6.8807521508
 30
0.0
 10
10.2069872186
 20
6.8811719163
 30
0.0
 10
10.18023564
 20
6.8833674558
 30
0.0
 10
10.1535663657
 20
6.8873288793
 30
0.0
 10
10.1270965711
 20
6.8930386016
 30
0.0
 10
10.1009424524
 20
6.9004713663
 30
0.0
 10
10.0752188133
 20
6.9095943768
 30
0.0
 10
10.0500385418
 20
6.9203674388
 30
0.0
 10
10.0255121276
 20
6.9327431398
 30
0.0
 10
10.0017471803
 20
6.9466670579
 30
0.0
 10
9.9788479629
 20
6.9620780011
 30
0.0
 10
9.9569149412
 20
6.978908271
 30
0.0
 10
9.9360443365
 20
6.9970839756
 30
0.0
 10
9.9163277485
 20
7.0165252858
 30
0.0
 10
9.8978516049
 20
7.0371470304
 30
0.0
 10
9.8806973491
 20
7.0588581433
 30
0.0
 10
9.8675596964
 20
7.0777891333
 30
0.0
 10
9.8577832609
 20
7.0933825022
 30
0.0
 10
9.8485156892
 20
7.1092413002
 30
0.0
 10
9.8378855131
 20
7.1295580552
 30
0.0
 10
9.8267082222
 20
7.1546344389
 30
0.0
 10
9.8171648461
 20
7.1802855718
 30
0.0
 10
9.8092977357
 20
7.2063985091
 30
0.0
 10
9.8031415427
 20
7.2328581062
 30
0.0
 10
9.7994555387
 20
7.2551266943
 30
0.0
 10
9.7973886802
 20
7.2729968047
 30
0.0
 10
9.7959137089
 20
7.2908444286
 30
0.0
 10
9.7954676254
 20
7.3042640938
 30
0.0
 10
9.7954676254
 20
7.3131963226
 30
0.0
  0
SPLINE
  5
3A6
100
AcDbEntity
  8
0
100
AcDbSpline
 62
7
  6
CONTINUOUS
 70
0
 71
3
 72
58
 73
54
 74
0
 42
0.0000001
 43
0.0000001
 44
0.0000000001
 40
0.0
 40
0.0
 40
0.0
 40
0.0
 40
0.0081223305
 40
0.0169168975
 40
0.0264087397
 40
0.0366143893
 40
0.0475415919
 40
0.0591912278
 40
0.0715586516
 40
0.0846347975
 40
0.0984066254
 40
0.112857697
 40
0.1279687991
 40
0.1437179559
 40
0.1600810137
 40
0.1770317001
 40
0.2125802303
 40
0.2501202969
 40
0.2893844218
 40
0.3300865608
 40
0.3719257492
 40
0.4145895607
 40
0.4577574053
 40
0.5011037527
 40
0.5443013266
 40
0.587024304
 40
0.6289515139
 40
0.6697696572
 40
0.7091765902
 40
0.7468847529
 40
0.7826248208
 40
0.7996793841
 40
0.8161512809
 40
0.8320139346
 40
0.8472427441
 40
0.8618153344
 40
0.8757119895
 40
0.8889156785
 40
0.9014127874
 40
0.9131934095
 40
0.9242520347
 40
0.9345886083
 40
0.9442093599
 40
0.953128682
 40
0.9613709503
 40
0.9689732053
 40
0.9759886321
 40
0.9824900189
 40
0.9885734021
 40
0.9914974267
 40
0.9943641369
 40
0.9971919109
 40
1.0
 40
1.0
 40
1.0
 40
1.0
 10
12.9843899765
 20
10.3202920755
 30
0.0
 10
12.9852104168
 20
10.32108456
 30
0.0
 10
12.9869965956
 20
10.3226560018
 30
0.0
 10
12.9899614902
 20
10.3248887293
 30
0.0
 10
12.9933098041
 20
10.3270841007
 30
0.0
 10
12.9970347407
 20
10.3292378877
 30
0.0
 10
13.0011293057
 20
10.3313462265
 30
0.0
 10
13.0055855596
 20
10.3334049011
 30
0.0
 10
13.0103947226
 20
10.3354099046
 30
0.0
 10
13.0155472877
 20
10.3373571835
 30
0.0
 10
13.0210329979
 20
10.3392428045
 30
0.0
 10
13.0268408767
 20
10.3410629763
 30
0.0
 10
13.0329592832
 20
10.3428139498
 30
0.0
 10
13.0393759068
 20
10.3444922021
 30
0.0
 10
13.0460778409
 20
10.3460943224
 30
0.0
 10
13.0555266321
 20
10.3481573038
 30
0.0
 10
13.0679537926
 20
10.3505090401
 30
0.0
 10
13.0835466351
 20
10.3529383135
 30
0.0
 10
13.0999222267
 20
10.3549974305
 30
0.0
 10
13.1169483635
 20
10.3566694494
 30
0.0
 10
13.1344877049
 20
10.3579405652
 30
0.0
 10
13.1523985965
 20
10.3588003127
 30
0.0
 10
13.1705363475
 20
10.3592416126
 30
0.0
 10
13.1887543961
 20
10.3592608302
 30
0.0
 10
13.2069055219
 20
10.3588578041
 30
0.0
 10
13.2248430528
 20
10.358035856
 30
0.0
 10
13.2424220793
 20
10.3568017548
 30
0.0
 10
13.2595006217
 20
10.3551656616
 30
0.0
 10
13.2759409038
 20
10.3531410844
 30
0.0
 10
13.2916101866
 20
10.3507446743
 30
0.0
 10
13.3041085367
 20
10.3484196223
 30
0.0
 10
13.3136198539
 20
10.3463771835
 30
0.0
 10
13.3203722264
 20
10.3447892569
 30
0.0
 10
13.3268417036
 20
10.34312461
 30
0.0
 10
13.3330152662
 20
10.341386594
 30
0.0
 10
13.3388804913
 20
10.3395787288
 30
0.0
 10
13.3444256173
 20
10.3377047374
 30
0.0
 10
13.3496395381
 20
10.3357683679
 30
0.0
 10
13.3545118708
 20
10.333773571
 30
0.0
 10
13.3590329617
 20
10.3317243501
 30
0.0
 10
13.3631939064
 20
10.3296247394
 30
0.0
 10
13.366986632
 20
10.3274788995
 30
0.0
 10
13.3704038254
 20
10.3252908276
 30
0.0
 10
13.3734390301
 20
10.3230645233
 30
0.0
 10
13.3760865478
 20
10.3208036965
 30
0.0
 10
13.3783412418
 20
10.3185117194
 30
0.0
 10
13.3801984443
 20
10.3161914225
 30
0.0
 10
13.381653038
 20
10.3138459026
 30
0.0
 10
13.3825366213
 20
10.3118454352
 30
0.0
 10
13.3830247581
 20
10.3102492448
 30
0.0
 10
13.3832832342
 20
10.3090653089
 30
0.0
 10
13.3834383904
 20
10.3078799538
 30
0.0
 10
13.3834729169
 20
10.307088038
 30
0.0
 10
13.3834729171
 20
10.3066936765
 30
0.0
  0
SPLINE
  5
3A7
100
AcDbEntity
  8
0
100
AcDbSpline
 62
7
  6
CONTINUOUS
 70
0
 71
3
 72
39
 73
35
 74
0
 42
0.0000001
 43
0.0000001
 44
0.0000000001
 40
0.0
 40
0.0
 40
0.0
 40
0.0
 40
0.0311159435
 40
0.0620233446
 40
0.0927351373
 40
0.1232711777
 40
0.1536587331
 40
0.1839312108
 40
0.2141268399
 40
0.2442870988
 40
0.274454976
 40
0.3046731308
 40
0.3349820902
 40
0.3654185441
 40
0.3960138642
 40
0.4267928828
 40
0.4577729963
 40
0.4889636214
 40
0.5203659689
 40
0.5519731787
 40
0.5837707188
 40
0.6157370636
 40
0.647844591
 40
0.6800606403
 40
0.712348731
 40
0.744669863
 40
0.7769838843
 40
0.8092508935
 40
0.8414326252
 40
0.8734938001
 40
0.9054034144
 40
0.9371358873
 40
0.968671823
 40
1.0
 40
1.0
 40
1.0
 40
1.0
 10
8.2713826422
 20
7.2953964408
 30
0.0
 10
8.2713826422
 20
7.3042136329
 30
0.0
 10
8.2722434497
 20
7.3218016776
 30
0.0
 10
8.2761363564
 20
7.3478321062
 30
0.0
 10
8.2825900335
 20
7.3731825451
 30
0.0
 10
8.2915433064
 20
7.3976049725
 30
0.0
 10
8.3029104969
 20
7.4208640936
 30
0.0
 10
8.3165825821
 20
7.4427344927
 30
0.0
 10
8.3324277143
 20
7.4630044968
 30
0.0
 10
8.3502929598
 20
7.4814776866
 30
0.0
 10
8.3700054479
 20
7.4979752504
 30
0.0
 10
8.3913742819
 20
7.5123377194
 30
0.0
 10
8.414192553
 20
7.5244264134
 30
0.0
 10
8.4382392612
 20
7.5341251746
 30
0.0
 10
8.463281823
 20
7.5413409623
 30
0.0
 10
8.489078205
 20
7.5460051214
 30
0.0
 10
8.5153794464
 20
7.5480737076
 30
0.0
 10
8.541932033
 20
7.5475277474
 30
0.0
 10
8.5684803527
 20
7.5443736632
 30
0.0
 10
8.5947690921
 20
7.5386426126
 30
0.0
 10
8.6205456888
 20
7.5303906348
 30
0.0
 10
8.6455626677
 20
7.5196977238
 30
0.0
 10
8.6695799232
 20
7.5066671056
 30
0.0
 10
8.6923671072
 20
7.4914244443
 30
0.0
 10
8.7137055461
 20
7.4741162485
 30
0.0
 10
8.7333905801
 20
7.4549089148
 30
0.0
 10
8.7512332574
 20
7.4339868193
 30
0.0
 10
8.7670621854
 20
7.4115507139
 30
0.0
 10
8.7807252967
 20
7.3878159262
 30
0.0
 10
8.7920909404
 20
7.3630100192
 30
0.0
 10
8.8010495978
 20
7.3373713127
 30
0.0
 10
8.8075144726
 20
7.311145015
 30
0.0
 10
8.8114227704
 20
7.2845863208
 30
0.0
 10
8.812301137
 20
7.2667609475
 30
0.0
 10
8.812301137
 20
7.2578836158
 30
0.0
  0
SPLINE
  5
3A8
100
AcDbEntity
  8
0
100
AcDbSpline
 62
7
  6
CONTINUOUS
 70
0
 71
3
 72
58
 73
54
 74
0
 42
0.0000001
 43
0.0000001
 44
0.0000000001
 40
0.0
 40
0.0
 40
0.0
 40
0.0
 40
0.0081223305
 40
0.0169168975
 40
0.0264087397
 40
0.0366143893
 40
0.0475415919
 40
0.0591912278
 40
0.0715586516
 40
0.0846347975
 40
0.0984066254
 40
0.112857697
 40
0.1279687991
 40
0.1437179559
 40
0.1600810137
 40
0.1770317001
 40
0.2125802303
 40
0.2501202969
 40
0.2893844218
 40
0.3300865608
 40
0.3719257492
 40
0.4145895607
 40
0.4577574053
 40
0.5011037527
 40
0.5443013266
 40
0.587024304
 40
0.6289515139
 40
0.6697696572
 40
0.7091765902
 40
0.7468847529
 40
0.7826248208
 40
0.7996793841
 40
0.8161512809
 40
0.8320139346
 40
0.8472427441
 40
0.8618153344
 40
0.8757119895
 40
0.8889156785
 40
0.9014127874
 40
0.9131934095
 40
0.9242520347
 40
0.9345886083
 40
0.9442093599
 40
0.953128682
 40
0.9613709503
 40
0.9689732053
 40
0.9759886321
 40
0.9824900189
 40
0.9885734021
 40
0.9914974267
 40
0.9943641369
 40
0.9971919109
 40
1.0
 40
1.0
 40
1.0
 40
1.0
 10
11.8844099427
 20
9.2577928895
 30
0.0
 10
11.8852303829
 20
9.2585853739
 30
0.0
 10
11.8870165617
 20
9.2601568157
 30
0.0
 10
11.8899814563
 20
9.2623895432
 30
0.0
 10
11.8933297702
 20
9.2645849146
 30
0.0
 10
11.8970547068
 20
9.2667387016
 30
0.0
 10
11.9011492718
 20
9.2688470405
 30
0.0
 10
11.9056055257
 20
9.270905715
 30
0.0
 10
11.9104146887
 20
9.2729107185
 30
0.0
 10
11.9155672538
 20
9.2748579974
 30
0.0
 10
11.921052964
 20
9.2767436185
 30
0.0
 10
11.9268608428
 20
9.2785637902
 30
0.0
 10
11.9329792493
 20
9.2803147637
 30
0.0
 10
11.9393958729
 20
9.281993016
 30
0.0
 10
11.946097807
 20
9.2835951363
 30
0.0
 10
11.9555465982
 20
9.2856581177
 30
0.0
 10
11.9679737587
 20
9.288009854
 30
0.0
 10
11.9835666012
 20
9.2904391274
 30
0.0
 10
11.9999421928
 20
9.2924982444
 30
0.0
 10
12.0169683297
 20
9.2941702633
 30
0.0
 10
12.034507671
 20
9.2954413791
 30
0.0
 10
12.0524185626
 20
9.2963011267
 30
0.0
 10
12.0705563136
 20
9.2967424265
 30
0.0
 10
12.0887743622
 20
9.2967616441
 30
0.0
 10
12.106925488
 20
9.296358618
 30
0.0
 10
12.1248630189
 20
9.2955366699
 30
0.0
 10
12.1424420454
 20
9.2943025687
 30
0.0
 10
12.1595205879
 20
9.2926664755
 30
0.0
 10
12.1759608699
 20
9.2906418983
 30
0.0
 10
12.1916301527
 20
9.2882454882
 30
0.0
 10
12.2041285028
 20
9.2859204362
 30
0.0
 10
12.21363982
 20
9.2838779974
 30
0.0
 10
12.2203921925
 20
9.2822900708
 30
0.0
 10
12.2268616697
 20
9.2806254239
 30
0.0
 10
12.2330352323
 20
9.2788874079
 30
0.0
 10
12.2389004574
 20
9.2770795427
 30
0.0
 10
12.2444455834
 20
9.2752055513
 30
0.0
 10
12.2496595043
 20
9.2732691818
 30
0.0
 10
12.2545318369
 20
9.2712743849
 30
0.0
 10
12.2590529278
 20
9.269225164
 30
0.0
 10
12.2632138725
 20
9.2671255533
 30
0.0
 10
12.2670065981
 20
9.2649797134
 30
0.0
 10
12.2704237915
 20
9.2627916415
 30
0.0
 10
12.2734589962
 20
9.2605653372
 30
0.0
 10
12.2761065139
 20
9.2583045104
 30
0.0
 10
12.2783612079
 20
9.2560125333
 30
0.0
 10
12.2802184104
 20
9.2536922364
 30
0.0
 10
12.2816730041
 20
9.2513467165
 30
0.0
 10
12.2825565874
 20
9.2493462491
 30
0.0
 10
12.2830447242
 20
9.2477500587
 30
0.0
 10
12.2833032003
 20
9.2465661228
 30
0.0
 10
12.2834583565
 20
9.2453807677
 30
0.0
 10
12.283492883
 20
9.2445888519
 30
0.0
 10
12.2834928832
 20
9.2441944904
 30
0.0
  0
SPLINE
  5
3A9
100
AcDbEntity
  8
0
100
AcDbSpline
 62
7
  6
CONTINUOUS
 70
0
 71
3
 72
15
 73
11
 74
0
 42
0.0000001
 43
0.0000001
 44
0.0000000001
 40
0.0
 40
0.0
 40
0.0
 40
0.0
 40
0.1098906373
 40
0.2214016819
 40
0.3360757822
 40
0.4553202911
 40
0.5803741285
 40
0.7122942594
 40
0.8519453747
 40
1.0
 40
1.0
 40
1.0
 40
1.0
 10
12.9774729447
 20
10.3066936765
 30
0.0
 10
12.9774729443
 20
10.307267843
 30
0.0
 10
12.977546656
 20
10.3084259441
 30
0.0
 10
12.9778773042
 20
10.310154773
 30
0.0
 10
12.9784270168
 20
10.3118781647
 30
0.0
 10
12.9791943269
 20
10.3135935322
 30
0.0
 10
12.980177552
 20
10.3152992333
 30
0.0
 10
12.9813750542
 20
10.3169937764
 30
0.0
 10
12.9827850105
 20
10.3186755669
 30
0.0
 10
12.9838335834
 20
10.319754641
 30
0.0
 10
12.9843899765
 20
10.3202920755
 30
0.0
  0
SPLINE
  5
3AA
100
AcDbEntity
  8
0
100
AcDbSpline
 62
7
  6
CONTINUOUS
 70
0
 71
3
 72
23
 73
19
 74
0
 42
0.0000001
 43
0.0000001
 44
0.0000000001
 40
0.0
 40
0.0
 40
0.0
 40
0.0
 40
0.0755966894
 40
0.1466391965
 40
0.2134647074
 40
0.2765134986
 40
0.3363257304
 40
0.3935458535
 40
0.4489219493
 40
0.5032869296
 40
0.5575247817
 40
0.6125261135
 40
0.6691421681
 40
0.7281478382
 40
0.7902185594
 40
0.8559229117
 40
0.9257262624
 40
1.0
 40
1.0
 40
1.0
 40
1.0
 10
13.1399491004
 20
7.8221699965
 30
0.0
 10
13.1384621805
 20
7.8207337421
 30
0.0
 10
13.135490329
 20
7.8180360207
 30
0.0
 10
13.1308910864
 20
7.8144320498
 30
0.0
 10
13.1262972482
 20
7.811405216
 30
0.0
 10
13.1217130109
 20
7.8089601079
 30
0.0
 10
13.1171422355
 20
7.8071010719
 30
0.0
 10
13.1125895905
 20
7.8058328172
 30
0.0
 10
13.1080610888
 20
7.8051596491
 30
0.0
 10
13.1035642525
 20
7.8050849278
 30
0.0
 10
13.09910772
 20
7.8056095763
 30
0.0
 10
13.0947001565
 20
7.8067322155
 30
0.0
 10
13.0903490055
 20
7.8084488966
 30
0.0
 10
13.0860600794
 20
7.810754728
 30
0.0
 10
13.0818376921
 20
7.8136443709
 30
0.0
 10
13.0776852461
 20
7.8171128175
 30
0.0
 10
13.07360614
 20
7.8211549828
 30
0.0
 10
13.0710208499
 20
7.8241332233
 30
0.0
 10
13.0697392735
 20
7.8257089915
 30
0.0
  0
SPLINE
  5
3AB
100
AcDbEntity
  8
0
100
AcDbSpline
 62
7
  6
CONTINUOUS
 70
0
 71
3
 72
15
 73
11
 74
0
 42
0.0000001
 43
0.0000001
 44
0.0000000001
 40
0.0
 40
0.0
 40
0.0
 40
0.0
 40
0.1453704723
 40
0.2840482116
 40
0.4163642545
 40
0.5427313609
 40
0.663651093
 40
0.7797073106
 40
0.8915710365
 40
1.0
 40
1.0
 40
1.0
 40
1.0
 10
13.6104743948
 20
8.4378684797
 30
0.0
 10
13.6095120283
 20
8.4369389049
 30
0.0
 10
13.6075880613
 20
8.4351667873
 30
0.0
 10
13.6046332993
 20
8.4327233573
 30
0.0
 10
13.601681066
 20
8.4305605986
 30
0.0
 10
13.5987331524
 20
8.4286802579
 30
0.0
 10
13.59579121
 20
8.4270836634
 30
0.0
 10
13.5928566683
 20
8.4257722296
 30
0.0
 10
13.5899316549
 20
8.4247472306
 30
0.0
 10
13.5879626978
 20
8.4242490928
 30
0.0
 10
13.5869846042
 20
8.4240507982
 30
0.0
  0
SPLINE
  5
3AC
100
AcDbEntity
  8
0
100
AcDbSpline
 62
7
  6
CONTINUOUS
 70
0
 71
3
 72
15
 73
11
 74
0
 42
0.0000001
 43
0.0000001
 44
0.0000000001
 40
0.0
 40
0.0
 40
0.0
 40
0.0
 40
0.1098906373
 40
0.2214016819
 40
0.3360757822
 40
0.4553202911
 40
0.5803741285
 40
0.7122942594
 40
0.8519453747
 40
1.0
 40
1.0
 40
1.0
 40
1.0
 10
11.8774929108
 20
9.2441944904
 30
0.0
 10
11.8774929104
 20
9.2447686569
 30
0.0
 10
11.8775666221
 20
9.245926758
 30
0.0
 10
11.8778972703
 20
9.2476555869
 30
0.0
 10
11.8784469829
 20
9.2493789786
 30
0.0
 10
11.879214293
 20
9.2510943461
 30
0.0
 10
11.8801975181
 20
9.2528000472
 30
0.0
 10
11.8813950203
 20
9.2544945903
 30
0.0
 10
11.8828049766
 20
9.2561763808
 30
0.0
 10
11.8838535495
 20
9.2572554549
 30
0.0
 10
11.8844099427
 20
9.2577928895
 30
0.0
  0
SPLINE
  5
3AD
100
AcDbEntity
  8
0
100
AcDbSpline
 62
7
  6
CONTINUOUS
 70
0
 71
3
 72
23
 73
19
 74
0
 42
0.0000001
 43
0.0000001
 44
0.0000000001
 40
0.0
 40
0.0
 40
0.0
 40
0.0
 40
0.0749628755
 40
0.1455692105
 40
0.2121610308
 40
0.2751643503
 40
0.3350995418
 40
0.3925846725
 40
0.4483308921
 40
0.5031250774
 40
0.5577995457
 40
0.6131926739
 40
0.670107897
 40
0.7292790073
 40
0.7913522907
 40
0.8568786303
 40
0.9263109639
 40
1.0
 40
1.0
 40
1.0
 40
1.0
 10
12.2125119737
 20
10.0508659651
 30
0.0
 10
12.2117034229
 20
10.0516184013
 30
0.0
 10
12.2101781254
 20
10.0531290176
 30
0.0
 10
12.2081200365
 20
10.0554858045
 30
0.0
 10
12.206365026
 20
10.0578612556
 30
0.0
 10
12.2049157079
 20
10.06025331
 30
0.0
 10
12.2037745142
 20
10.0626598591
 30
0.0
 10
12.2029439802
 20
10.0650784295
 30
0.0
 10
12.202426486
 20
10.0675059209
 30
0.0
 10
12.202223805
 20
10.0699384772
 30
0.0
 10
12.2023368127
 20
10.0723716833
 30
0.0
 10
12.2027649748
 20
10.0748010477
 30
0.0
 10
12.2035068164
 20
10.0772224838
 30
0.0
 10
12.2045599248
 20
10.0796327261
 30
0.0
 10
12.2059219509
 20
10.0820291132
 30
0.0
 10
12.2075903785
 20
10.0844095766
 30
0.0
 10
12.2095626329
 20
10.0867717966
 30
0.0
 10
12.2110328001
 20
10.0882863849
 30
0.0
 10
12.2118137155
 20
10.0890406913
 30
0.0
  0
SPLINE
  5
3AE
100
AcDbEntity
  8
0
100
AcDbSpline
 62
7
  6
CONTINUOUS
 70
0
 71
3
 72
15
 73
11
 74
0
 42
0.0000001
 43
0.0000001
 44
0.0000000001
 40
0.0
 40
0.0
 40
0.0
 40
0.0
 40
0.1234622958
 40
0.2472702039
 40
0.3714803094
 40
0.4961420016
 40
0.6212966408
 40
0.7469770206
 40
0.8732066613
 40
1.0
 40
1.0
 40
1.0
 40
1.0
 10
9.8480323626
 20
7.5086311742
 30
0.0
 10
9.8437452468
 20
7.5013761143
 30
0.0
 10
9.8356550838
 20
7.4865460127
 30
0.0
 10
9.8250498142
 20
7.4634941713
 30
0.0
 10
9.8160007561
 20
7.4396994773
 30
0.0
 10
9.8085462653
 20
7.4152625044
 30
0.0
 10
9.8027170174
 20
7.3902848786
 30
0.0
 10
9.7985371788
 20
7.3648704366
 30
0.0
 10
9.7960239446
 20
7.3391264428
 30
0.0
 10
9.7954676254
 20
7.3218507416
 30
0.0
 10
9.7954676254
 20
7.3131963226
 30
0.0
  0
SPLINE
  5
3AF
100
AcDbEntity
  8
0
100
AcDbSpline
 62
7
  6
CONTINUOUS
 70
0
 71
3
 72
51
 73
47
 74
0
 42
0.0000001
 43
0.0000001
 44
0.0000000001
 40
0.0
 40
0.0
 40
0.0
 40
0.0
 40
0.008080737
 40
0.0167285458
 40
0.0259565579
 40
0.0357724608
 40
0.0461790531
 40
0.0571755041
 40
0.0687574553
 40
0.0809180121
 40
0.0936475916
 40
0.1069347421
 40
0.1207658721
 40
0.1351259397
 40
0.1653632844
 40
0.1974988173
 40
0.2313644
 40
0.2667761596
 40
0.3035369359
 40
0.3414384526
 40
0.3802633205
 40
0.419786939
 40
0.4597793374
 40
0.5000069804
 40
0.5402345547
 40
0.5802267476
 40
0.6197500249
 40
0.6585744183
 40
0.6964753307
 40
0.7332353773
 40
0.7686462878
 40
0.8025109088
 40
0.8346453759
 40
0.8648815607
 40
0.8792409939
 40
0.8930715156
 40
0.9063579986
 40
0.9190869379
 40
0.9312468049
 40
0.942828077
 40
0.9538238292
 40
0.9642297725
 40
0.9740449679
 40
0.9832721482
 40
0.9919193669
 40
1.0
 40
1.0
 40
1.0
 40
1.0
 10
12.6836355529
 20
10.0199514525
 30
0.0
 10
12.6827738527
 20
10.0206638266
 30
0.0
 10
12.6809378131
 20
10.0220761632
 30
0.0
 10
12.6779654088
 20
10.0240946561
 30
0.0
 10
12.6746873596
 20
10.0260810229
 30
0.0
 10
12.6711087153
 20
10.0280320992
 30
0.0
 10
12.6672348689
 20
10.0299451007
 30
0.0
 10
12.6630717077
 20
10.0318169834
 30
0.0
 10
12.6586256435
 20
10.033644958
 30
0.0
 10
12.6539035133
 20
10.0354260734
 30
0.0
 10
12.6489126475
 20
10.0371576408
 30
0.0
 10
12.643660786
 20
10.0388368402
 30
0.0
 10
12.6381561071
 20
10.0404611498
 30
0.0
 10
12.6303560006
 20
10.0425867905
 30
0.0
 10
12.6200324877
 20
10.0450754274
 30
0.0
 10
12.6069875663
 20
10.0477562021
 30
0.0
 10
12.5931622762
 20
10.0501632788
 30
0.0
 10
12.5786430254
 20
10.0522813396
 30
0.0
 10
12.5635204485
 20
10.0540968616
 30
0.0
 10
12.5478891267
 20
10.0555982833
 30
0.0
 10
12.5318468715
 20
10.0567760484
 30
0.0
 10
12.5154941181
 20
10.0576226676
 30
0.0
 10
12.4989332741
 20
10.05813276
 30
0.0
 10
12.4822680691
 20
10.058303085
 30
0.0
 10
12.4656028946
 20
10.0581325608
 30
0.0
 10
12.449042142
 20
10.0576222704
 30
0.0
 10
12.4326895401
 20
10.0567754556
 30
0.0
 10
12.4166474959
 20
10.0555974986
 30
0.0
 10
12.4010164435
 20
10.0540958897
 30
0.0
 10
12.3858941923
 20
10.0522801867
 30
0.0
 10
12.3713753221
 20
10.0501619519
 30
0.0
 10
12.3575504644
 20
10.0477547106
 30
0.0
 10
12.3445060258
 20
10.0450737771
 30
0.0
 10
12.3341829477
 20
10.0425850227
 30
0.0
 10
12.3263832164
 20
10.0404592696
 30
0.0
 10
12.3208788279
 20
10.0388349093
 30
0.0
 10
12.3156272696
 20
10.037155632
 30
0.0
 10
12.3106367123
 20
10.0354240183
 30
0.0
 10
12.3059149052
 20
10.0336428336
 30
0.0
 10
12.3014691667
 20
10.0318148189
 30
0.0
 10
12.2973063393
 20
10.0299428771
 30
0.0
 10
12.2934328337
 20
10.0280298271
 30
0.0
 10
12.2898545558
 20
10.0260787112
 30
0.0
 10
12.2865768598
 20
10.0240923298
 30
0.0
 10
12.2836047621
 20
10.022073759
 30
0.0
 10
12.281768918
 20
10.0206613245
 30
0.0
 10
12.2809072924
 20
10.0199488827
 30
0.0
  0
SPLINE
  5
3B0
100
AcDbEntity
  8
0
100
AcDbSpline
 62
7
  6
CONTINUOUS
 70
0
 71
3
 72
70
 73
66
 74
0
 42
0.0000001
 43
0.0000001
 44
0.0000000001
 40
0.0
 40
0.0
 40
0.0
 40
0.0
 40
0.0085742128
 40
0.0179225174
 40
0.0280750681
 40
0.0390499684
 40
0.0508538305
 40
0.0634848013
 40
0.0769342559
 40
0.0911878009
 40
0.1062261691
 40
0.1220260053
 40
0.138560371
 40
0.1557990732
 40
0.1737091024
 40
0.1922549504
 40
0.211398781
 40
0.2311006759
 40
0.2513188999
 40
0.2720100432
 40
0.3146288917
 40
0.3585841998
 40
0.4034855347
 40
0.4489313437
 40
0.4945137112
 40
0.5398231418
 40
0.5844533008
 40
0.6280058207
 40
0.6492573827
 40
0.6700962428
 40
0.6904770235
 40
0.7103557569
 40
0.7296901326
 40
0.7484396302
 40
0.7665656785
 40
0.7840319485
 40
0.8008045956
 40
0.8168524592
 40
0.8321474327
 40
0.8466649349
 40
0.8603842961
 40
0.8732893758
 40
0.8853694933
 40
0.896620431
 40
0.9070458371
 40
0.9166593113
 40
0.9254871329
 40
0.9296201465
 40
0.9335744016
 40
0.9373585101
 40
0.940982832
 40
0.9477983657
 40
0.9510242667
 40
0.954151261
 40
0.9571997333
 40
0.9601919004
 40
0.9631513546
 40
0.9661025682
 40
0.9690702375
 40
0.9720786223
 40
0.9751509051
 40
0.9783086733
 40
0.9849529369
 40
0.9921503643
 40
1.0
 40
1.0
 40
1.0
 40
1.0
 10
12.2118137155
 20
10.0890406913
 30
0.0
 10
12.2130527631
 20
10.0902375195
 30
0.0
 10
12.2157710033
 20
10.0926080948
 30
0.0
 10
12.220314465
 20
10.0959589448
 30
0.0
 10
12.2254846685
 20
10.0992471635
 30
0.0
 10
12.2312693528
 20
10.1024652902
 30
0.0
 10
12.2376556766
 20
10.1056063028
 30
0.0
 10
12.2446288291
 20
10.1086628719
 30
0.0
 10
12.2521725518
 20
10.1116277731
 30
0.0
 10
12.2602690801
 20
10.1144938866
 30
0.0
 10
12.268899207
 20
10.11725433
 30
0.0
 10
12.2780423852
 20
10.1199024201
 30
0.0
 10
12.2876767843
 20
10.1224317166
 30
0.0
 10
12.2977793345
 20
10.1248361015
 30
0.0
 10
12.3083258113
 20
10.127109745
 30
0.0
 10
12.3192909068
 20
10.1292471108
 30
0.0
 10
12.3306482809
 20
10.1312430168
 30
0.0
 10
12.3423706225
 20
10.1330926273
 30
0.0
 10
12.3544297682
 20
10.1347914808
 30
0.0
 10
12.3710831033
 20
10.1368704267
 30
0.0
 10
12.3925268888
 20
10.1390522968
 30
0.0
 10
12.4188741727
 20
10.1409902974
 30
0.0
 10
12.4458309656
 20
10.1422539418
 30
0.0
 10
12.4731380202
 20
10.1428308436
 30
0.0
 10
12.5005328922
 20
10.1427153342
 30
0.0
 10
12.5277522654
 20
10.1419085726
 30
0.0
 10
12.5545343413
 20
10.140418397
 30
0.0
 10
12.5764494911
 20
10.1386049998
 30
0.0
 10
12.5935635593
 20
10.1368149684
 30
0.0
 10
12.6060264997
 20
10.1353235138
 30
0.0
 10
12.618191486
 20
10.1336758939
 30
0.0
 10
12.6300292711
 20
10.131876057
 30
0.0
 10
12.6415113816
 20
10.1299283907
 30
0.0
 10
12.6526102172
 20
10.1278376243
 30
0.0
 10
12.6632991034
 20
10.1256088142
 30
0.0
 10
12.673552377
 20
10.123247372
 30
0.0
 10
12.6833454518
 20
10.120759045
 30
0.0
 10
12.6926548667
 20
10.1181498628
 30
0.0
 10
12.7014583615
 20
10.115426137
 30
0.0
 10
12.7097349586
 20
10.1125944847
 30
0.0
 10
12.717465007
 20
10.1096617432
 30
0.0
 10
12.7246302371
 20
10.1066349301
 30
0.0
 10
12.7312138833
 20
10.1035212519
 30
0.0
 10
12.7372006697
 20
10.100328023
 30
0.0
 10
12.7425770535
 20
10.0970623969
 30
0.0
 10
12.7473305602
 20
10.0937316568
 30
0.0
 10
12.7508381142
 20
10.0908466468
 30
0.0
 10
12.7533050243
 20
10.0885073291
 30
0.0
 10
12.7549514849
 20
10.0867801545
 30
0.0
 10
12.7564341576
 20
10.0850423364
 30
0.0
 10
12.7581556698
 20
10.0827599502
 30
0.0
 10
12.7595965223
 20
10.0804096648
 30
0.0
 10
12.7607074069
 20
10.0780057848
 30
0.0
 10
12.7613573839
 20
10.0762297997
 30
0.0
 10
12.7618384086
 20
10.0744493054
 30
0.0
 10
12.7621500403
 20
10.0726654918
 30
0.0
 10
12.7622917858
 20
10.0708797319
 30
0.0
 10
12.7622634102
 20
10.0690934813
 30
0.0
 10
12.7620650417
 20
10.0673082037
 30
0.0
 10
12.7616968882
 20
10.065525352
 30
0.0
 10
12.7611594092
 20
10.0637462035
 30
0.0
 10
12.7602020778
 20
10.0613403593
 30
0.0
 10
12.7585537577
 20
10.058332565
 30
0.0
 10
12.7559454635
 20
10.0548277696
 30
0.0
 10
12.7538665502
 20
10.0526235547
 30
0.0
 10
12.7527322102
 20
10.0515278663
 30
0.0
  0
SPLINE
  5
3B1
100
AcDbEntity
  8
0
100
AcDbSpline
 62
7
  6
CONTINUOUS
 70
0
 71
3
 72
23
 73
19
 74
0
 42
0.0000001
 43
0.0000001
 44
0.0000000001
 40
0.0
 40
0.0
 40
0.0
 40
0.0
 40
0.0749628755
 40
0.1455692105
 40
0.2121610308
 40
0.2751643503
 40
0.3350995418
 40
0.3925846725
 40
0.4483308921
 40
0.5031250774
 40
0.5577995457
 40
0.6131926739
 40
0.670107897
 40
0.7292790073
 40
0.7913522907
 40
0.8568786303
 40
0.9263109639
 40
1.0
 40
1.0
 40
1.0
 40
1.0
 10
9.247966048
 20
9.6873343226
 30
0.0
 10
9.2471574972
 20
9.6880867588
 30
0.0
 10
9.2456321997
 20
9.6895973751
 30
0.0
 10
9.2435741108
 20
9.691954162
 30
0.0
 10
9.2418191003
 20
9.6943296131
 30
0.0
 10
9.2403697822
 20
9.6967216675
 30
0.0
 10
9.2392285885
 20
9.6991282166
 30
0.0
 10
9.2383980546
 20
9.701546787
 30
0.0
 10
9.2378805603
 20
9.7039742784
 30
0.0
 10
9.2376778793
 20
9.7064068347
 30
0.0
 10
9.237790887
 20
9.7088400407
 30
0.0
 10
9.2382190491
 20
9.7112694051
 30
0.0
 10
9.2389608908
 20
9.7136908413
 30
0.0
 10
9.2400139991
 20
9.7161010836
 30
0.0
 10
9.2413760252
 20
9.7184974707
 30
0.0
 10
9.2430444528
 20
9.7208779341
 30
0.0
 10
9.2450167072
 20
9.7232401541
 30
0.0
 10
9.2464868744
 20
9.7247547424
 30
0.0
 10
9.2472677898
 20
9.7255090488
 30
0.0
  0
SPLINE
  5
3B2
100
AcDbEntity
  8
0
100
AcDbSpline
 62
7
  6
CONTINUOUS
 70
0
 71
3
 72
69
 73
65
 74
0
 42
0.0000001
 43
0.0000001
 44
0.0000000001
 40
0.0
 40
0.0
 40
0.0
 40
0.0
 40
0.0155844242
 40
0.0311165117
 40
0.0465960341
 40
0.0620249407
 40
0.0774047719
 40
0.092737864
 40
0.1080269664
 40
0.1232752759
 40
0.1384864179
 40
0.1536643983
 40
0.1688135704
 40
0.1839385913
 40
0.1990443739
 40
0.2141360354
 40
0.2292188431
 40
0.2442981582
 40
0.2593793797
 40
0.2744678867
 40
0.2895689807
 40
0.3046878287
 40
0.319829408
 40
0.3349984552
 40
0.3501994183
 40
0.3654364114
 40
0.3807131738
 40
0.3960330329
 40
0.411398875
 40
0.4268131206
 40
0.4422777041
 40
0.4577940588
 40
0.4733631061
 40
0.488985253
 40
0.5046603948
 40
0.5203879209
 40
0.536166724
 40
0.551995215
 40
0.5678713435
 40
0.5837926217
 40
0.5997561504
 40
0.6157586476
 40
0.6317964797
 40
0.6478656985
 40
0.6800725945
 40
0.7123515122
 40
0.7285100946
 40
0.7446719364
 40
0.7608319994
 40
0.7769852601
 40
0.793126754
 40
0.80925162
 40
0.8253551433
 40
0.8414327953
 40
0.8574802745
 40
0.8734935471
 40
0.8894688837
 40
0.9054028997
 40
0.9212925739
 40
0.9371352902
 40
0.9529289256
 40
0.9686715078
 40
0.9843624525
 40
1.0
 40
1.0
 40
1.0
 40
1.0
 10
10.4717617298
 20
7.0819462795
 30
0.0
 10
10.4717617298
 20
7.0745787757
 30
0.0
 10
10.4714011566
 20
7.0598658983
 30
0.0
 10
10.4697736228
 20
7.0378893048
 30
0.0
 10
10.4670639272
 20
7.0160931997
 30
0.0
 10
10.463278822
 20
6.9945310452
 30
0.0
 10
10.4584271807
 20
6.9732544236
 30
0.0
 10
10.4525207025
 20
6.9523147593
 30
0.0
 10
10.4455735754
 20
6.9317624975
 30
0.0
 10
10.4376025064
 20
6.9116471992
 30
0.0
 10
10.4286266709
 20
6.8920173737
 30
0.0
 10
10.4186676552
 20
6.8729203735
 30
0.0
 10
10.4077494255
 20
6.8544022755
 30
0.0
 10
10.3958983041
 20
6.8365077422
 30
0.0
 10
10.3831428549
 20
6.8192799395
 30
0.0
 10
10.3695138226
 20
6.8027604302
 30
0.0
 10
10.3550440553
 20
6.7869890787
 30
0.0
 10
10.3397684397
 20
6.7720039428
 30
0.0
 10
10.3237238393
 20
6.757841151
 30
0.0
 10
10.3069489617
 20
6.7445348541
 30
0.0
 10
10.2894842734
 20
6.7321171366
 30
0.0
 10
10.2713718974
 20
6.7206179473
 30
0.0
 10
10.2526555268
 20
6.7100650071
 30
0.0
 10
10.2333803268
 20
6.7004837163
 30
0.0
 10
10.2135927946
 20
6.6918971398
 30
0.0
 10
10.193340655
 20
6.6843259437
 30
0.0
 10
10.1726727425
 20
6.6777883569
 30
0.0
 10
10.1516388952
 20
6.6723000986
 30
0.0
 10
10.1302898323
 20
6.6678743242
 30
0.0
 10
10.1086770174
 20
6.6645216428
 30
0.0
 10
10.0868525393
 20
6.6622500824
 30
0.0
 10
10.0648689881
 20
6.6610650825
 30
0.0
 10
10.0427793336
 20
6.6609694452
 30
0.0
 10
10.0206367916
 20
6.6619633239
 30
0.0
 10
9.998494695
 20
6.6640442683
 30
0.0
 10
9.9764063681
 20
6.6672072191
 30
0.0
 10
9.954425004
 20
6.6714445324
 30
0.0
 10
9.9326035313
 20
6.6767459552
 30
0.0
 10
9.9109944794
 20
6.6830986605
 30
0.0
 10
9.8896498751
 20
6.6904873043
 30
0.0
 10
9.8686210646
 20
6.6988940896
 30
0.0
 10
9.8479587971
 20
6.7082986783
 30
0.0
 10
9.8277123394
 20
6.7186787219
 30
0.0
 10
9.8013212312
 20
6.7337944172
 30
0.0
 10
9.7696195124
 20
6.7549993131
 30
0.0
 10
9.7399668699
 20
6.7790522533
 30
0.0
 10
9.7176194563
 20
6.799879629
 30
0.0
 10
9.7015800681
 20
6.8162626851
 30
0.0
 10
9.6863095164
 20
6.833360661
 30
0.0
 10
9.6718441224
 20
6.8511327724
 30
0.0
 10
9.6582188257
 20
6.8695361386
 30
0.0
 10
9.6454663878
 20
6.8885264827
 30
0.0
 10
9.6336175255
 20
6.9080580933
 30
0.0
 10
9.6227007812
 20
6.9280839689
 30
0.0
 10
9.6127424762
 20
6.948555921
 30
0.0
 10
9.6037665939
 20
6.9694246683
 30
0.0
 10
9.5957947554
 20
6.9906399771
 30
0.0
 10
9.5888461865
 20
7.0121507838
 30
0.0
 10
9.5829376601
 20
7.0339053048
 30
0.0
 10
9.5780834431
 20
7.0558512089
 30
0.0
 10
9.5742953253
 20
7.0779355233
 30
0.0
 10
9.5715822834
 20
7.100105467
 30
0.0
 10
9.5699511726
 20
7.1223067023
 30
0.0
 10
9.5695869095
 20
7.137119698
 30
0.0
 10
9.5695869095
 20
7.1445123158
 30
0.0
  0
SPLINE
  5
3B3
100
AcDbEntity
  8
0
100
AcDbSpline
 62
7
  6
CONTINUOUS
 70
0
 71
3
 72
51
 73
47
 74
0
 42
0.0000001
 43
0.0000001
 44
0.0000000001
 40
0.0
 40
0.0
 40
0.0
 40
0.0
 40
0.008080737
 40
0.0167285458
 40
0.0259565579
 40
0.0357724608
 40
0.0461790531
 40
0.0571755041
 40
0.0687574553
 40
0.0809180121
 40
0.0936475916
 40
0.1069347421
 40
0.1207658721
 40
0.1351259397
 40
0.1653632844
 40
0.1974988173
 40
0.2313644
 40
0.2667761596
 40
0.3035369359
 40
0.3414384526
 40
0.3802633205
 40
0.419786939
 40
0.4597793374
 40
0.5000069804
 40
0.5402345547
 40
0.5802267476
 40
0.6197500249
 40
0.6585744183
 40
0.6964753307
 40
0.7332353773
 40
0.7686462878
 40
0.8025109088
 40
0.8346453759
 40
0.8648815607
 40
0.8792409939
 40
0.8930715156
 40
0.9063579986
 40
0.9190869379
 40
0.9312468049
 40
0.942828077
 40
0.9538238292
 40
0.9642297725
 40
0.9740449679
 40
0.9832721482
 40
0.9919193669
 40
1.0
 40
1.0
 40
1.0
 40
1.0
 10
9.7190896272
 20
9.65641981
 30
0.0
 10
9.718227927
 20
9.6571321841
 30
0.0
 10
9.7163918875
 20
9.6585445207
 30
0.0
 10
9.7134194831
 20
9.6605630136
 30
0.0
 10
9.710141434
 20
9.6625493804
 30
0.0
 10
9.7065627896
 20
9.6645004567
 30
0.0
 10
9.7026889432
 20
9.6664134582
 30
0.0
 10
9.698525782
 20
9.6682853408
 30
0.0
 10
9.6940797179
 20
9.6701133155
 30
0.0
 10
9.6893575876
 20
9.6718944309
 30
0.0
 10
9.6843667218
 20
9.6736259983
 30
0.0
 10
9.6791148603
 20
9.6753051977
 30
0.0
 10
9.6736101814
 20
9.6769295073
 30
0.0
 10
9.6658100749
 20
9.679055148
 30
0.0
 10
9.655486562
 20
9.6815437849
 30
0.0
 10
9.6424416406
 20
9.6842245596
 30
0.0
 10
9.6286163506
 20
9.6866316363
 30
0.0
 10
9.6140970998
 20
9.6887496971
 30
0.0
 10
9.5989745228
 20
9.6905652191
 30
0.0
 10
9.583343201
 20
9.6920666408
 30
0.0
 10
9.5673009458
 20
9.6932444059
 30
0.0
 10
9.5509481924
 20
9.6940910251
 30
0.0
 10
9.5343873484
 20
9.6946011175
 30
0.0
 10
9.5177221435
 20
9.6947714425
 30
0.0
 10
9.501056969
 20
9.6946009183
 30
0.0
 10
9.4844962163
 20
9.6940906279
 30
0.0
 10
9.4681436145
 20
9.6932438131
 30
0.0
 10
9.4521015703
 20
9.6920658561
 30
0.0
 10
9.4364705178
 20
9.6905642472
 30
0.0
 10
9.4213482666
 20
9.6887485442
 30
0.0
 10
9.4068293964
 20
9.6866303094
 30
0.0
 10
9.3930045387
 20
9.6842230681
 30
0.0
 10
9.3799601001
 20
9.6815421346
 30
0.0
 10
9.369637022
 20
9.6790533802
 30
0.0
 10
9.3618372907
 20
9.6769276271
 30
0.0
 10
9.3563329023
 20
9.6753032668
 30
0.0
 10
9.3510813439
 20
9.6736239895
 30
0.0
 10
9.3460907866
 20
9.6718923758
 30
0.0
 10
9.3413689795
 20
9.6701111911
 30
0.0
 10
9.336923241
 20
9.6682831764
 30
0.0
 10
9.3327604136
 20
9.6664112346
 30
0.0
 10
9.328886908
 20
9.6644981846
 30
0.0
 10
9.3253086301
 20
9.6625470687
 30
0.0
 10
9.3220309341
 20
9.6605606873
 30
0.0
 10
9.3190588364
 20
9.6585421165
 30
0.0
 10
9.3172229923
 20
9.657129682
 30
0.0
 10
9.3163613668
 20
9.6564172401
 30
0.0
  0
SPLINE
  5
3B4
100
AcDbEntity
  8
0
100
AcDbSpline
 62
7
  6
CONTINUOUS
 70
0
 71
3
 72
89
 73
85
 74
0
 42
0.0000001
 43
0.0000001
 44
0.0000000001
 40
0.0
 40
0.0
 40
0.0
 40
0.0
 40
0.0039487845
 40
0.0077209333
 40
0.0113257028
 40
0.0147746243
 40
0.0212567735
 40
0.0243283296
 40
0.0273114233
 40
0.0302283033
 40
0.0331028961
 40
0.0359603013
 40
0.0388261026
 40
0.041725648
 40
0.0446833283
 40
0.0477220217
 40
0.0508626262
 40
0.0541238676
 40
0.0575222068
 40
0.0610718663
 40
0.0647850368
 40
0.0686719491
 40
0.0727411842
 40
0.0769997876
 40
0.0814534757
 40
0.0861068491
 40
0.0909634292
 40
0.0960259243
 40
0.1012962084
 40
0.1067754948
 40
0.1124644073
 40
0.1183629776
 40
0.1244708277
 40
0.1373098767
 40
0.1509709309
 40
0.165437361
 40
0.1806880533
 40
0.1966980287
 40
0.2134389245
 40
0.230879378
 40
0.2489853439
 40
0.2677203589
 40
0.2870457735
 40
0.3069209729
 40
0.3273035713
 40
0.3481495898
 40
0.3694136256
 40
0.3910490091
 40
0.4130079636
 40
0.4352417641
 40
0.4577008878
 40
0.5030930374
 40
0.5487787535
 40
0.5943481172
 40
0.616961744
 40
0.6393934284
 40
0.6615930752
 40
0.6835112612
 40
0.7050993833
 40
0.7263098077
 40
0.7470960235
 40
0.7674128035
 40
0.7872163744
 40
0.8064645816
 40
0.8251170683
 40
0.8431354691
 40
0.8604836237
 40
0.8771278254
 40
0.8930370995
 40
0.9081835206
 40
0.9225426052
 40
0.9360938052
 40
0.9425615383
 40
0.9488217559
 40
0.9548732789
 40
0.9607153916
 40
0.9663478109
 40
0.9717707152
 40
0.9769848722
 40
0.9819916133
 40
0.9867931461
 40
0.9913924707
 40
0.9957932688
 40
1.0
 40
1.0
 40
1.0
 40
1.0
 10
13.6909886171
 20
9.387950947
 30
0.0
 10
13.6920923752
 20
9.3889781596
 30
0.0
 10
13.6942989802
 20
9.3909355712
 30
0.0
 10
13.6976846523
 20
9.3936294768
 30
0.0
 10
13.7010672908
 20
9.3960106806
 30
0.0
 10
13.7054775084
 20
9.3987097996
 30
0.0
 10
13.7099770873
 20
9.4008623126
 30
0.0
 10
13.7145242716
 20
9.4023744866
 30
0.0
 10
13.7178615538
 20
9.4031684432
 30
0.0
 10
13.7211834744
 20
9.4036411118
 30
0.0
 10
13.7244877076
 20
9.4037916561
 30
0.0
 10
13.7277714505
 20
9.4036197298
 30
0.0
 10
13.7310319236
 20
9.4031254478
 30
0.0
 10
13.7342663779
 20
9.4023093343
 30
0.0
 10
13.7374723478
 20
9.4011725627
 30
0.0
 10
13.7406475517
 20
9.3997163351
 30
0.0
 10
13.7437900778
 20
9.39794229
 30
0.0
 10
13.7468981587
 20
9.3958519932
 30
0.0
 10
13.74997017
 20
9.3934471078
 30
0.0
 10
13.7530046372
 20
9.3907294131
 30
0.0
 10
13.7559999635
 20
9.3877006141
 30
0.0
 10
13.7589547256
 20
9.3843626759
 30
0.0
 10
13.7618673277
 20
9.3807175489
 30
0.0
 10
13.7647362442
 20
9.3767674054
 30
0.0
 10
13.7675599383
 20
9.3725145652
 30
0.0
 10
13.7703367717
 20
9.3679614757
 30
0.0
 10
13.7730652587
 20
9.3631108351
 30
0.0
 10
13.7757437524
 20
9.3579654445
 30
0.0
 10
13.7783707496
 20
9.352528345
 30
0.0
 10
13.780944705
 20
9.3468027276
 30
0.0
 10
13.7834640601
 20
9.3407919637
 30
0.0
 10
13.7859274225
 20
9.3344996124
 30
0.0
 10
13.78918953
 20
9.3255904586
 30
0.0
 10
13.7931020002
 20
9.3137665163
 30
0.0
 10
13.7974763256
 20
9.2987450219
 30
0.0
 10
13.8015943105
 20
9.2826989876
 30
0.0
 10
13.8054460203
 20
9.2656665683
 30
0.0
 10
13.8090221244
 20
9.2476880772
 30
0.0
 10
13.8123139488
 20
9.2288062775
 30
0.0
 10
13.8153135024
 20
9.2090661324
 30
0.0
 10
13.8180134998
 20
9.1885147187
 30
0.0
 10
13.8204073824
 20
9.1672010962
 30
0.0
 10
13.8224893424
 20
9.1451761842
 30
0.0
 10
13.8242543252
 20
9.1224926284
 30
0.0
 10
13.825698043
 20
9.0992046659
 30
0.0
 10
13.8268169844
 20
9.0753679924
 30
0.0
 10
13.8276084196
 20
9.0510396297
 30
0.0
 10
13.8280704156
 20
9.0262777834
 30
0.0
 10
13.8282018286
 20
9.0011417219
 30
0.0
 10
13.8280023495
 20
8.9756915507
 30
0.0
 10
13.8272931492
 20
8.9413002038
 30
0.0
 10
13.8255817517
 20
8.8979763706
 30
0.0
 10
13.822246003
 20
8.8459011185
 30
0.0
 10
13.8184086521
 20
8.8025865503
 30
0.0
 10
13.814713819
 20
8.7681835322
 30
0.0
 10
13.8116508691
 20
8.7426894749
 30
0.0
 10
13.8082966235
 20
8.7174999891
 30
0.0
 10
13.8046590981
 20
8.6926753092
 30
0.0
 10
13.8007470364
 20
8.6682748507
 30
0.0
 10
13.7965698309
 20
8.6443569937
 30
0.0
 10
13.7921375156
 20
8.6209789615
 30
0.0
 10
13.78746074
 20
8.5981966731
 30
0.0
 10
13.7825507517
 20
8.5760646054
 30
0.0
 10
13.7774193601
 20
8.5546356616
 30
0.0
 10
13.7720789103
 20
8.5339610443
 30
0.0
 10
13.7665422533
 20
8.5140901279
 30
0.0
 10
13.760822713
 20
8.4950703343
 30
0.0
 10
13.7549340573
 20
8.4769469954
 30
0.0
 10
13.7488904647
 20
8.45976326
 30
0.0
 10
13.7427064726
 20
8.4435598752
 30
0.0
 10
13.7363969399
 20
8.4283754281
 30
0.0
 10
13.730965866
 20
8.4164215678
 30
0.0
 10
13.7265600436
 20
8.4074055644
 30
0.0
 10
13.7232851825
 20
8.4010257748
 30
0.0
 10
13.7199902774
 20
8.3949264791
 30
0.0
 10
13.7166772822
 20
8.3891112764
 30
0.0
 10
13.7133481734
 20
8.3835836047
 30
0.0
 10
13.7100048787
 20
8.3783467586
 30
0.0
 10
13.7066494561
 20
8.3734038022
 30
0.0
 10
13.7032837866
 20
8.3687576635
 30
0.0
 10
13.6999098344
 20
8.3644110038
 30
0.0
 10
13.6965294486
 20
8.3603663449
 30
0.0
 10
13.6931447787
 20
8.3566262905
 30
0.0
 10
13.6908356483
 20
8.354285572
 30
0.0
 10
13.6896803172
 20
8.3531696079
 30
0.0
  0
SPLINE
  5
3B5
100
AcDbEntity
  8
0
100
AcDbSpline
 62
7
  6
CONTINUOUS
 70
0
 71
3
 72
64
 73
60
 74
0
 42
0.0000001
 43
0.0000001
 44
0.0000000001
 40
0.0
 40
0.0
 40
0.0
 40
0.0
 40
0.0080089169
 40
0.0166792562
 40
0.0260321349
 40
0.0360808128
 40
0.0468306827
 40
0.058281289
 40
0.0704274454
 40
0.0832598607
 40
0.0967657678
 40
0.1109294622
 40
0.1257326285
 40
0.1411545797
 40
0.157172577
 40
0.1737620295
 40
0.1908965969
 40
0.208548394
 40
0.2266881501
 40
0.2452852769
 40
0.2643079935
 40
0.283723476
 40
0.3235958652
 40
0.364622951
 40
0.4065134459
 40
0.4489680352
 40
0.4916822075
 40
0.534349089
 40
0.5766622376
 40
0.6183184445
 40
0.6590205473
 40
0.6984803268
 40
0.7176578575
 40
0.736422289
 40
0.7547414282
 40
0.7725842052
 40
0.7899208382
 40
0.8067228971
 40
0.8229634204
 40
0.8386171313
 40
0.8536605631
 40
0.8680722076
 40
0.8818328035
 40
0.8949256141
 40
0.9073366929
 40
0.9190553432
 40
0.9300747195
 40
0.9403924524
 40
0.9500115906
 40
0.9589419415
 40
0.9631547734
 40
0.9672030668
 40
0.9710907655
 40
0.9748226984
 40
0.9818409336
 40
0.9883187414
 40
0.9943359152
 40
0.9972051482
 40
1.0
 40
1.0
 40
1.0
 40
1.0
 10
13.6104743948
 20
8.4378684797
 30
0.0
 10
13.6122565066
 20
8.4395898676
 30
0.0
 10
13.6158119502
 20
8.4433381999
 30
0.0
 10
13.6209262577
 20
8.4495663304
 30
0.0
 10
13.6260196013
 20
8.456606473
 30
0.0
 10
13.6310825842
 20
8.4644452275
 30
0.0
 10
13.6361062892
 20
8.4730686241
 30
0.0
 10
13.6410813529
 20
8.4824606874
 30
0.0
 10
13.6459984149
 20
8.4926039527
 30
0.0
 10
13.6508481158
 20
8.5034793934
 30
0.0
 10
13.6556212084
 20
8.5150664734
 30
0.0
 10
13.6603085257
 20
8.5273432457
 30
0.0
 10
13.6649010396
 20
8.5402863903
 30
0.0
 10
13.6693899381
 20
8.5538712477
 30
0.0
 10
13.6737665791
 20
8.5680719077
 30
0.0
 10
13.6780225143
 20
8.5828612629
 30
0.0
 10
13.6821495652
 20
8.5982110425
 30
0.0
 10
13.6861397948
 20
8.6140918868
 30
0.0
 10
13.6899855085
 20
8.6304734181
 30
0.0
 10
13.6936792979
 20
8.6473242744
 30
0.0
 10
13.6972141095
 20
8.66461221
 30
0.0
 10
13.7017461044
 20
8.6884121357
 30
0.0
 10
13.706952188
 20
8.7190104813
 30
0.0
 10
13.7124129983
 20
8.7566069496
 30
0.0
 10
13.7170989538
 20
8.7951126565
 30
0.0
 10
13.720973945
 20
8.8342327578
 30
0.0
 10
13.724008174
 20
8.8736678938
 30
0.0
 10
13.7261783442
 20
8.9131161922
 30
0.0
 10
13.7274679346
 20
8.9522756741
 30
0.0
 10
13.7278672971
 20
8.9908466728
 30
0.0
 10
13.7273735909
 20
9.0285338301
 30
0.0
 10
13.7262110227
 20
9.0592482261
 30
0.0
 10
13.7248241975
 20
9.0831544658
 30
0.0
 10
13.7235751648
 20
9.1005157069
 30
0.0
 10
13.7221098799
 20
9.1174456139
 30
0.0
 10
13.7204311323
 20
9.1339117982
 30
0.0
 10
13.718542206
 20
9.1498827397
 30
0.0
 10
13.7164467636
 20
9.1653278845
 30
0.0
 10
13.7141488449
 20
9.1802176924
 30
0.0
 10
13.7116529181
 20
9.1945237148
 30
0.0
 10
13.7089638333
 20
9.2082186463
 30
0.0
 10
13.7060867805
 20
9.2212763714
 30
0.0
 10
13.7030273271
 20
9.2336720404
 30
0.0
 10
13.6997914075
 20
9.245382133
 30
0.0
 10
13.6963852462
 20
9.2563844913
 30
0.0
 10
13.6928153473
 20
9.2666584062
 30
0.0
 10
13.68908853
 20
9.2761846513
 30
0.0
 10
13.6852117348
 20
9.2849457011
 30
0.0
 10
13.6811921138
 20
9.2929251468
 30
0.0
 10
13.6776636669
 20
9.2990253487
 30
0.0
 10
13.6747665442
 20
9.3034867556
 30
0.0
 10
13.6726050803
 20
9.3065626304
 30
0.0
 10
13.6704135545
 20
9.3094323659
 30
0.0
 10
13.6675121467
 20
9.3129106417
 30
0.0
 10
13.6638194739
 20
9.3167674686
 30
0.0
 10
13.6591826695
 20
9.320653814
 30
0.0
 10
13.6551639301
 20
9.323223958
 30
0.0
 10
13.6519175618
 20
9.3248183969
 30
0.0
 10
13.6502870984
 20
9.3254665774
 30
0.0
 10
13.6494710818
 20
9.3257524552
 30
0.0
  0
SPLINE
  5
3B6
100
AcDbEntity
  8
0
100
AcDbSpline
 62
7
  6
CONTINUOUS
 70
0
 71
3
 72
31
 73
27
 74
0
 42
0.0000001
 43
0.0000001
 44
0.0000000001
 40
0.0
 40
0.0
 40
0.0
 40
0.0
 40
0.0605355681
 40
0.1196695499
 40
0.1751471955
 40
0.2264359356
 40
0.2738047415
 40
0.317735526
 40
0.3970785943
 40
0.4674276663
 40
0.5307570944
 40
0.5884185272
 40
0.641396718
 40
0.6904765669
 40
0.7363599972
 40
0.779764366
 40
0.8008091742
 40
0.8215648402
 40
0.8421712963
 40
0.8627933802
 40
0.8836204419
 40
0.9048749466
 40
0.9268147916
 40
0.9497401215
 40
0.9739998496
 40
1.0
 40
1.0
 40
1.0
 40
1.0
 10
10.786002968
 20
7.6896151754
 30
0.0
 10
10.7868642566
 20
7.6871913126
 30
0.0
 10
10.7883756897
 20
7.6823298977
 30
0.0
 10
10.7900778807
 20
7.6750792961
 30
0.0
 10
10.7912530607
 20
7.6681239657
 30
0.0
 10
10.7919763884
 20
7.6616112148
 30
0.0
 10
10.7923318669
 20
7.6555599803
 30
0.0
 10
10.792405015
 20
7.648307084
 30
0.0
 10
10.7919348438
 20
7.6400808111
 30
0.0
 10
10.7906163573
 20
7.631113772
 30
0.0
 10
10.7887146018
 20
7.6231970289
 30
0.0
 10
10.7863158574
 20
7.6161922152
 30
0.0
 10
10.7834700054
 20
7.6100166126
 30
0.0
 10
10.7802041925
 20
7.6046272422
 30
0.0
 10
10.7765313542
 20
7.6000137485
 30
0.0
 10
10.77309243
 20
7.5967956185
 30
0.0
 10
10.7701530441
 20
7.5946747161
 30
0.0
 10
10.7678692407
 20
7.5933192919
 30
0.0
 10
10.7654822812
 20
7.5921958845
 30
0.0
 10
10.7629909935
 20
7.5913173249
 30
0.0
 10
10.760393127
 20
7.5907021914
 30
0.0
 10
10.7576872266
 20
7.5903702608
 30
0.0
 10
10.7548714956
 20
7.5903477628
 30
0.0
 10
10.7519446207
 20
7.5906650218
 30
0.0
 10
10.7489062549
 20
7.5913588205
 30
0.0
 10
10.7468880618
 20
7.5920743275
 30
0.0
 10
10.7458685053
 20
7.5924999361
 30
0.0
  0
SPLINE
  5
3B7
100
AcDbEntity
  8
0
100
AcDbSpline
 62
7
  6
CONTINUOUS
 70
0
 71
3
 72
43
 73
39
 74
0
 42
0.0000001
 43
0.0000001
 44
0.0000000001
 40
0.0
 40
0.0
 40
0.0
 40
0.0
 40
0.0149672865
 40
0.0299517182
 40
0.04495549
 40
0.059980694
 40
0.0900984567
 40
0.120324286
 40
0.1354840101
 40
0.1506751829
 40
0.1658989737
 40
0.1811564011
 40
0.2117708691
 40
0.2425280664
 40
0.2734301901
 40
0.3044767647
 40
0.3356646878
 40
0.3669883214
 40
0.3984396246
 40
0.430008324
 40
0.4616821164
 40
0.4934468999
 40
0.5252870292
 40
0.5571855907
 40
0.5891246935
 40
0.6210857717
 40
0.6530498944
 40
0.6849980803
 40
0.7169116124
 40
0.7487723502
 40
0.7805630346
 40
0.8122675838
 40
0.8438713716
 40
0.8753614984
 40
0.9067269914
 40
0.9379591703
 40
0.9690513233
 40
1.0
 40
1.0
 40
1.0
 40
1.0
 10
11.580340607
 20
7.4108832788
 30
0.0
 10
11.5755869727
 20
7.4079694176
 30
0.0
 10
11.5659679983
 20
7.4023096965
 30
0.0
 10
11.551234692
 20
7.3943409546
 30
0.0
 10
11.5362047746
 20
7.3868971846
 30
0.0
 10
11.5157792738
 20
7.3776774652
 30
0.0
 10
11.4895826543
 20
7.3675063593
 30
0.0
 10
11.4626827135
 20
7.359205728
 30
0.0
 10
11.4407950059
 20
7.3536982891
 30
0.0
 10
11.4241919701
 20
7.3501349427
 30
0.0
 10
11.4074387554
 20
7.3471475151
 30
0.0
 10
11.3849036204
 20
7.3439333024
 30
0.0
 10
11.3564476915
 20
7.3413751304
 30
0.0
 10
11.3220552825
 20
7.3406526321
 30
0.0
 10
11.2875319939
 20
7.3422762188
 30
0.0
 10
11.2530374917
 20
7.3462383082
 30
0.0
 10
11.2187298734
 20
7.3525203684
 30
0.0
 10
11.1847667012
 20
7.3610933034
 30
0.0
 10
11.1513038146
 20
7.371917515
 30
0.0
 10
11.1184947513
 20
7.3849431115
 30
0.0
 10
11.0864900174
 20
7.4001101334
 30
0.0
 10
11.0554364152
 20
7.4173488334
 30
0.0
 10
11.0254763725
 20
7.4365799901
 30
0.0
 10
10.9967472933
 20
7.4577152686
 30
0.0
 10
10.9693809394
 20
7.4806576328
 30
0.0
 10
10.9435028315
 20
7.5053017867
 30
0.0
 10
10.919231679
 20
7.5315346536
 30
0.0
 10
10.8966788409
 20
7.5592358904
 30
0.0
 10
10.8759478193
 20
7.5882784348
 30
0.0
 10
10.8571337885
 20
7.6185290828
 30
0.0
 10
10.840323159
 20
7.6498490909
 30
0.0
 10
10.8255931759
 20
7.6820948075
 30
0.0
 10
10.813011569
 20
7.7151183144
 30
0.0
 10
10.8026362643
 20
7.7487681571
 30
0.0
 10
10.7945150492
 20
7.7828898153
 30
0.0
 10
10.7886855175
 20
7.8173272046
 30
0.0
 10
10.7851745626
 20
7.8519202336
 30
0.0
 10
10.7843888483
 20
7.8750391759
 30
0.0
 10
10.7843888483
 20
7.8865682064
 30
0.0
  0
SPLINE
  5
3B8
100
AcDbEntity
  8
0
100
AcDbSpline
 62
7
  6
CONTINUOUS
 70
0
 71
3
 72
89
 73
85
 74
0
 42
0.0000001
 43
0.0000001
 44
0.0000000001
 40
0.0
 40
0.0
 40
0.0
 40
0.0
 40
0.0039487845
 40
0.0077209333
 40
0.0113257028
 40
0.0147746243
 40
0.0212567735
 40
0.0243283296
 40
0.0273114233
 40
0.0302283033
 40
0.0331028961
 40
0.0359603013
 40
0.0388261026
 40
0.041725648
 40
0.0446833283
 40
0.0477220217
 40
0.0508626262
 40
0.0541238676
 40
0.0575222068
 40
0.0610718663
 40
0.0647850368
 40
0.0686719491
 40
0.0727411842
 40
0.0769997876
 40
0.0814534757
 40
0.0861068491
 40
0.0909634292
 40
0.0960259243
 40
0.1012962084
 40
0.1067754948
 40
0.1124644073
 40
0.1183629776
 40
0.1244708277
 40
0.1373098767
 40
0.1509709309
 40
0.165437361
 40
0.1806880533
 40
0.1966980287
 40
0.2134389245
 40
0.230879378
 40
0.2489853439
 40
0.2677203589
 40
0.2870457735
 40
0.3069209729
 40
0.3273035713
 40
0.3481495898
 40
0.3694136256
 40
0.3910490091
 40
0.4130079636
 40
0.4352417641
 40
0.4577008878
 40
0.5030930374
 40
0.5487787535
 40
0.5943481172
 40
0.616961744
 40
0.6393934284
 40
0.6615930752
 40
0.6835112612
 40
0.7050993833
 40
0.7263098077
 40
0.7470960235
 40
0.7674128035
 40
0.7872163744
 40
0.8064645816
 40
0.8251170683
 40
0.8431354691
 40
0.8604836237
 40
0.8771278254
 40
0.8930370995
 40
0.9081835206
 40
0.9225426052
 40
0.9360938052
 40
0.9425615383
 40
0.9488217559
 40
0.9548732789
 40
0.9607153916
 40
0.9663478109
 40
0.9717707152
 40
0.9769848722
 40
0.9819916133
 40
0.9867931461
 40
0.9913924707
 40
0.9957932688
 40
1.0
 40
1.0
 40
1.0
 40
1.0
 10
13.1412574002
 20
8.8569513356
 30
0.0
 10
13.1423611583
 20
8.8579785482
 30
0.0
 10
13.1445677633
 20
8.8599359599
 30
0.0
 10
13.1479534354
 20
8.8626298655
 30
0.0
 10
13.1513360739
 20
8.8650110693
 30
0.0
 10
13.1557462915
 20
8.8677101882
 30
0.0
 10
13.1602458704
 20
8.8698627013
 30
0.0
 10
13.1647930547
 20
8.8713748752
 30
0.0
 10
13.168130337
 20
8.8721688318
 30
0.0
 10
13.1714522575
 20
8.8726415004
 30
0.0
 10
13.1747564907
 20
8.8727920448
 30
0.0
 10
13.1780402336
 20
8.8726201185
 30
0.0
 10
13.1813007068
 20
8.8721258364
 30
0.0
 10
13.184535161
 20
8.871309723
 30
0.0
 10
13.1877411309
 20
8.8701729514
 30
0.0
 10
13.1909163349
 20
8.8687167237
 30
0.0
 10
13.1940588609
 20
8.8669426786
 30
0.0
 10
13.1971669418
 20
8.8648523818
 30
0.0
 10
13.2002389531
 20
8.8624474965
 30
0.0
 10
13.2032734203
 20
8.8597298018
 30
0.0
 10
13.2062687466
 20
8.8567010027
 30
0.0
 10
13.2092235087
 20
8.8533630645
 30
0.0
 10
13.2121361108
 20
8.8497179376
 30
0.0
 10
13.2150050273
 20
8.8457677941
 30
0.0
 10
13.2178287214
 20
8.8415149539
 30
0.0
 10
13.2206055548
 20
8.8369618644
 30
0.0
 10
13.2233340419
 20
8.8321112237
 30
0.0
 10
13.2260125356
 20
8.8269658332
 30
0.0
 10
13.2286395328
 20
8.8215287336
 30
0.0
 10
13.2312134882
 20
8.8158031162
 30
0.0
 10
13.2337328432
 20
8.8097923524
 30
0.0
 10
13.2361962056
 20
8.803500001
 30
0.0
 10
13.2394583131
 20
8.7945908472
 30
0.0
 10
13.2433707833
 20
8.7827669049
 30
0.0
 10
13.2477451087
 20
8.7677454105
 30
0.0
 10
13.2518630936
 20
8.7516993762
 30
0.0
 10
13.2557148035
 20
8.7346669569
 30
0.0
 10
13.2592909075
 20
8.7166884659
 30
0.0
 10
13.262582732
 20
8.6978066662
 30
0.0
 10
13.2655822855
 20
8.678066521
 30
0.0
 10
13.2682822829
 20
8.6575151074
 30
0.0
 10
13.2706761656
 20
8.6362014848
 30
0.0
 10
13.2727581255
 20
8.6141765729
 30
0.0
 10
13.2745231083
 20
8.591493017
 30
0.0
 10
13.2759668261
 20
8.5682050545
 30
0.0
 10
13.2770857675
 20
8.544368381
 30
0.0
 10
13.2778772027
 20
8.5200400183
 30
0.0
 10
13.2783391987
 20
8.495278172
 30
0.0
 10
13.2784706118
 20
8.4701421105
 30
0.0
 10
13.2782711326
 20
8.4446919393
 30
0.0
 10
13.2775619323
 20
8.4103005925
 30
0.0
 10
13.2758505349
 20
8.3669767592
 30
0.0
 10
13.2725147861
 20
8.3149015071
 30
0.0
 10
13.2686774352
 20
8.2715869389
 30
0.0
 10
13.2649826021
 20
8.2371839208
 30
0.0
 10
13.2619196522
 20
8.2116898636
 30
0.0
 10
13.2585654067
 20
8.1865003777
 30
0.0
 10
13.2549278812
 20
8.1616756979
 30
0.0
 10
13.2510158195
 20
8.1372752394
 30
0.0
 10
13.246838614
 20
8.1133573823
 30
0.0
 10
13.2424062987
 20
8.0899793501
 30
0.0
 10
13.2377295231
 20
8.0671970617
 30
0.0
 10
13.2328195348
 20
8.045064994
 30
0.0
 10
13.2276881433
 20
8.0236360503
 30
0.0
 10
13.2223476934
 20
8.0029614329
 30
0.0
 10
13.2168110365
 20
7.9830905165
 30
0.0
 10
13.2110914961
 20
7.9640707229
 30
0.0
 10
13.2052028404
 20
7.9459473841
 30
0.0
 10
13.1991592478
 20
7.9287636486
 30
0.0
 10
13.1929752557
 20
7.9125602639
 30
0.0
 10
13.186665723
 20
7.8973758167
 30
0.0
 10
13.1812346492
 20
7.8854219564
 30
0.0
 10
13.1768288267
 20
7.8764059531
 30
0.0
 10
13.1735539657
 20
7.8700261634
 30
0.0
 10
13.1702590606
 20
7.8639268677
 30
0.0
 10
13.1669460653
 20
7.8581116651
 30
0.0
 10
13.1636169566
 20
7.8525839933
 30
0.0
 10
13.1602736619
 20
7.8473471472
 30
0.0
 10
13.1569182393
 20
7.8424041908
 30
0.0
 10
13.1535525697
 20
7.8377580522
 30
0.0
 10
13.1501786176
 20
7.8334113924
 30
0.0
 10
13.1467982317
 20
7.8293667336
 30
0.0
 10
13.1434135618
 20
7.8256266791
 30
0.0
 10
13.1411044314
 20
7.8232859607
 30
0.0
 10
13.1399491004
 20
7.8221699965
 30
0.0
  0
SPLINE
  5
3B9
100
AcDbEntity
  8
0
100
AcDbSpline
 62
7
  6
CONTINUOUS
 70
0
 71
3
 72
15
 73
11
 74
0
 42
0.0000001
 43
0.0000001
 44
0.0000000001
 40
0.0
 40
0.0
 40
0.0
 40
0.0
 40
0.0868362486
 40
0.1818384209
 40
0.2869162715
 40
0.40345715
 40
0.5324414411
 40
0.6745697339
 40
0.8303233694
 40
1.0
 40
1.0
 40
1.0
 40
1.0
 10
11.0251078312
 20
8.1723545129
 30
0.0
 10
11.0257299146
 20
8.1723112803
 30
0.0
 10
11.0270438364
 20
8.1723549943
 30
0.0
 10
11.0290694162
 20
8.1727707822
 30
0.0
 10
11.0312174066
 20
8.1735349036
 30
0.0
 10
11.0334819735
 20
8.1746452064
 30
0.0
 10
11.0358587927
 20
8.1761008338
 30
0.0
 10
11.0383434304
 20
8.1779004844
 30
0.0
 10
11.0409311915
 20
8.1800428468
 30
0.0
 10
11.0426485346
 20
8.181629486
 30
0.0
 10
11.0435249267
 20
8.1824760158
 30
0.0
  0
SPLINE
  5
3BA
100
AcDbEntity
  8
0
100
AcDbSpline
 62
7
  6
CONTINUOUS
 70
0
 71
3
 72
15
 73
11
 74
0
 42
0.0000001
 43
0.0000001
 44
0.0000000001
 40
0.0
 40
0.0
 40
0.0
 40
0.0
 40
0.1234086468
 40
0.2471513763
 40
0.3713005425
 40
0.4959197682
 40
0.6210625824
 40
0.7467719591
 40
0.8730774627
 40
1.0
 40
1.0
 40
1.0
 40
1.0
 10
10.863330827
 20
8.1533762518
 30
0.0
 10
10.856922051
 20
8.1436973528
 30
0.0
 10
10.8448118998
 20
8.1238222736
 30
0.0
 10
10.8289052226
 20
8.0926941087
 30
0.0
 10
10.8153102047
 20
8.0603637215
 30
0.0
 10
10.8040957163
 20
8.0269944617
 30
0.0
 10
10.795316862
 20
7.9927522157
 30
0.0
 10
10.789017185
 20
7.9578071995
 30
0.0
 10
10.7852274945
 20
7.9223355948
 30
0.0
 10
10.7843888483
 20
7.8985070751
 30
0.0
 10
10.7843888483
 20
7.8865682064
 30
0.0
  0
SPLINE
  5
3BB
100
AcDbEntity
  8
0
100
AcDbSpline
 62
7
  6
CONTINUOUS
 70
0
 71
3
 72
41
 73
37
 74
0
 42
0.0000001
 43
0.0000001
 44
0.0000000001
 40
0.0
 40
0.0
 40
0.0
 40
0.0
 40
0.0299421231
 40
0.0449237695
 40
0.0599145183
 40
0.0899291758
 40
0.1200146052
 40
0.1350933672
 40
0.1501974867
 40
0.1804849861
 40
0.2108989765
 40
0.2414525971
 40
0.2721557632
 40
0.3030149856
 40
0.3340332752
 40
0.3652101299
 40
0.396541598
 40
0.4280204146
 40
0.4596362012
 40
0.4913757235
 40
0.5232231978
 40
0.5551606402
 40
0.5871682493
 40
0.6192248165
 40
0.6513081566
 40
0.6833955523
 40
0.7154642055
 40
0.7474916905
 40
0.7794564022
 40
0.8113379898
 40
0.8431177829
 40
0.8747791608
 40
0.9063079861
 40
0.9376927275
 40
0.9689252295
 40
1.0
 40
1.0
 40
1.0
 40
1.0
 10
8.706291924
 20
7.1421272996
 30
0.0
 10
8.7027915011
 20
7.1387461566
 30
0.0
 10
8.6973345728
 20
7.1338792757
 30
0.0
 10
8.6896922034
 20
7.1278405978
 30
0.0
 10
8.6818065071
 20
7.122102353
 30
0.0
 10
8.6715169258
 20
7.1155130314
 30
0.0
 10
8.6607270658
 20
7.1097492574
 30
0.0
 10
8.6518282201
 20
7.1056489033
 30
0.0
 10
8.6427455499
 20
7.1018870329
 30
0.0
 10
8.6310928903
 20
7.0978419539
 30
0.0
 10
8.6167327481
 20
7.0940720267
 30
0.0
 10
8.6020592595
 20
7.0914013057
 30
0.0
 10
8.5871537433
 20
7.0898445247
 30
0.0
 10
8.572098079
 20
7.089409992
 30
0.0
 10
8.5569751074
 20
7.090099919
 30
0.0
 10
8.5418679482
 20
7.0919103204
 30
0.0
 10
8.5268596088
 20
7.0948310709
 30
0.0
 10
8.5120325173
 20
7.0988459606
 30
0.0
 10
8.4974680801
 20
7.1039327916
 30
0.0
 10
8.4832462398
 20
7.1100635022
 30
0.0
 10
8.4694450436
 20
7.1172043242
 30
0.0
 10
8.4561402204
 20
7.1253159684
 30
0.0
 10
8.443404771
 20
7.1343538403
 30
0.0
 10
8.4313085724
 20
7.1442682838
 30
0.0
 10
8.4199179993
 20
7.1550048516
 30
0.0
 10
8.4092955636
 20
7.166504602
 30
0.0
 10
8.3994995755
 20
7.1787044189
 30
0.0
 10
8.3905838255
 20
7.1915373552
 30
0.0
 10
8.3825972937
 20
7.2049329951
 30
0.0
 10
8.375583879
 20
7.2188178387
 30
0.0
 10
8.3695821684
 20
7.2331156909
 30
0.0
 10
8.3646252038
 20
7.2477481109
 30
0.0
 10
8.3607403484
 20
7.2626346963
 30
0.0
 10
8.3579490404
 20
7.2776940359
 30
0.0
 10
8.3562668236
 20
7.2928422957
 30
0.0
 10
8.3558900276
 20
7.3029734806
 30
0.0
 10
8.3558900276
 20
7.3080243116
 30
0.0
  0
SPLINE
  5
3BC
100
AcDbEntity
  8
0
100
AcDbSpline
 62
7
  6
CONTINUOUS
 70
0
 71
3
 72
15
 73
11
 74
0
 42
0.0000001
 43
0.0000001
 44
0.0000000001
 40
0.0
 40
0.0
 40
0.0
 40
0.0
 40
0.1234394227
 40
0.2470466262
 40
0.3709825615
 40
0.4953948806
 40
0.6204121373
 40
0.7461393726
 40
0.8726516824
 40
1.0
 40
1.0
 40
1.0
 40
1.0
 10
8.413108854
 20
7.4456527305
 30
0.0
 10
8.4085783264
 20
7.4412765845
 30
0.0
 10
8.3999557019
 20
7.4320442527
 30
0.0
 10
8.3885039014
 20
7.416930519
 30
0.0
 10
8.3786300055
 20
7.4006816072
 30
0.0
 10
8.3704268573
 20
7.383449755
 30
0.0
 10
8.3639692806
 20
7.3653940695
 30
0.0
 10
8.3593164803
 20
7.3466810752
 30
0.0
 10
8.3565104957
 20
7.3274857752
 30
0.0
 10
8.3558900276
 20
7.3145226916
 30
0.0
 10
8.3558900276
 20
7.3080243116
 30
0.0
  0
SPLINE
  5
3BD
100
AcDbEntity
  8
0
100
AcDbSpline
 62
7
  6
CONTINUOUS
 70
0
 71
3
 72
39
 73
35
 74
0
 42
0.0000001
 43
0.0000001
 44
0.0000000001
 40
0.0
 40
0.0
 40
0.0
 40
0.0
 40
0.0299424713
 40
0.0599093189
 40
0.0899243252
 40
0.1200101041
 40
0.1501875624
 40
0.1804754141
 40
0.2108897589
 40
0.2414437364
 40
0.2721472611
 40
0.3030068436
 40
0.3340254952
 40
0.3652027139
 40
0.3965345487
 40
0.4280137345
 40
0.459629892
 40
0.4913697861
 40
0.5232176333
 40
0.5551554497
 40
0.5871634339
 40
0.6192203769
 40
0.6513040927
 40
0.6833918636
 40
0.7154608914
 40
0.7474887506
 40
0.7794538354
 40
0.8113357959
 40
0.8431159558
 40
0.8747777127
 40
0.9063068657
 40
0.9376920949
 40
0.9689246535
 40
1.0
 40
1.0
 40
1.0
 40
1.0
 10
10.3292096294
 20
6.8127152016
 30
0.0
 10
10.3220677808
 20
6.805816699
 30
0.0
 10
10.3072224903
 20
6.7925764452
 30
0.0
 10
10.2834380298
 20
6.7745389387
 30
0.0
 10
10.2582586098
 20
6.7584145818
 30
0.0
 10
10.2318249253
 20
6.7442938217
 30
0.0
 10
10.2042823046
 20
6.7322538047
 30
0.0
 10
10.1757827495
 20
6.7223607184
 30
0.0
 10
10.1464833061
 20
6.714668704
 30
0.0
 10
10.1165453956
 20
6.7092197572
 30
0.0
 10
10.0861338541
 20
6.7060434646
 30
0.0
 10
10.0554160302
 20
6.7051568978
 30
0.0
 10
10.0245608633
 20
6.7065645345
 30
0.0
 10
9.993737961
 20
6.7102582563
 30
0.0
 10
9.9631166773
 20
6.7162174105
 30
0.0
 10
9.9328651937
 20
6.7244089341
 30
0.0
 10
9.9031496005
 20
6.7347875239
 30
0.0
 10
9.8741330017
 20
6.7472959211
 30
0.0
 10
9.8459746338
 20
6.7618652266
 30
0.0
 10
9.8188290054
 20
6.7784152817
 30
0.0
 10
9.7928450608
 20
6.7968551056
 30
0.0
 10
9.7681653776
 20
6.8170833953
 30
0.0
 10
9.7449253763
 20
6.8389890568
 30
0.0
 10
9.7232525927
 20
6.8624518249
 30
0.0
 10
9.7032659926
 20
6.8873429232
 30
0.0
 10
9.6850753243
 20
6.9135257611
 30
0.0
 10
9.6687805217
 20
6.9408566732
 30
0.0
 10
9.654471165
 20
6.9691857039
 30
0.0
 10
9.6422259736
 20
6.9983573939
 30
0.0
 10
9.6321123853
 20
7.0282116889
 30
0.0
 10
9.6241861413
 20
7.0585845802
 30
0.0
 10
9.6184911482
 20
7.0893098515
 30
0.0
 10
9.6150588629
 20
7.1202166082
 30
0.0
 10
9.6142901202
 20
7.1408870782
 30
0.0
 10
9.6142901202
 20
7.1511922808
 30
0.0
  0
SPLINE
  5
3BE
100
AcDbEntity
  8
0
100
AcDbSpline
 62
7
  6
CONTINUOUS
 70
0
 71
3
 72
42
 73
38
 74
0
 42
0.0000001
 43
0.0000001
 44
0.0000000001
 40
0.0
 40
0.0
 40
0.0
 40
0.0
 40
0.0299994656
 40
0.0450358289
 40
0.060097374
 40
0.0902976778
 40
0.1206154903
 40
0.1358233658
 40
0.1510636855
 40
0.1816402857
 40
0.212353647
 40
0.2432055721
 40
0.2741955232
 40
0.3053206617
 40
0.3365759246
 40
0.3679541352
 40
0.3994461428
 40
0.4310409897
 40
0.4627261021
 40
0.4944874996
 40
0.5263100223
 40
0.5581775714
 40
0.5900733594
 40
0.6219801684
 40
0.6538806132
 40
0.6857574048
 40
0.717593615
 40
0.7493729352
 40
0.7810799297
 40
0.8127002791
 40
0.8442210102
 40
0.8756307151
 40
0.9069197329
 40
0.9380803655
 40
0.9536124342
 40
0.9691108944
 40
1.0
 40
1.0
 40
1.0
 40
1.0
 10
10.4004589744
 20
6.9076116241
 30
0.0
 10
10.3925811331
 20
6.9037878314
 30
0.0
 10
10.3805518928
 20
6.8984522286
 30
0.0
 10
10.3641709625
 20
6.8921686568
 30
0.0
 10
10.3475295749
 20
6.8864268012
 30
0.0
 10
10.3263179997
 20
6.8802972142
 30
0.0
 10
10.3047003992
 20
6.8756004919
 30
0.0
 10
10.2871977157
 20
6.8727060606
 30
0.0
 10
10.2695335921
 20
6.8703854102
 30
0.0
 10
10.2472499495
 20
6.8685788509
 30
0.0
 10
10.2203382523
 20
6.8681690381
 30
0.0
 10
10.1933360226
 20
6.8695159489
 30
0.0
 10
10.1663577134
 20
6.8726138333
 30
0.0
 10
10.1395166965
 20
6.8774494291
 30
0.0
 10
10.11292599
 20
6.884002215
 30
0.0
 10
10.0866974635
 20
6.89224445
 30
0.0
 10
10.0609414594
 20
6.9021413072
 30
0.0
 10
10.0357663108
 20
6.9136510187
 30
0.0
 10
10.0112778966
 20
6.9267250538
 30
0.0
 10
9.9875791997
 20
6.9413083233
 30
0.0
 10
9.9647698783
 20
6.9573394107
 30
0.0
 10
9.9429458508
 20
6.9747508299
 30
0.0
 10
9.9221988964
 20
6.9934693072
 30
0.0
 10
9.9026162723
 20
7.0134160883
 30
0.0
 10
9.8842803499
 20
7.0345072664
 30
0.0
 10
9.8672682705
 20
7.0566541332
 30
0.0
 10
9.8516516239
 20
7.0797635483
 30
0.0
 10
9.8374961486
 20
7.1037383291
 30
0.0
 10
9.824861457
 20
7.1284776502
 30
0.0
 10
9.8138007846
 20
7.1538774846
 30
0.0
 10
9.804360772
 20
7.1798309582
 30
0.0
 10
9.7965812443
 20
7.2062290862
 30
0.0
 10
9.7904951399
 20
7.2329601454
 30
0.0
 10
9.7868518769
 20
7.2554462964
 30
0.0
 10
9.7848091311
 20
7.2734873602
 30
0.0
 10
9.7833513779
 20
7.2915049402
 30
0.0
 10
9.7829105889
 20
7.3050506581
 30
0.0
 10
9.7829105889
 20
7.314067156
 30
0.0
  0
SPLINE
  5
3BF
100
AcDbEntity
  8
0
100
AcDbSpline
 62
7
  6
CONTINUOUS
 70
0
 71
3
 72
43
 73
39
 74
0
 42
0.0000001
 43
0.0000001
 44
0.0000000001
 40
0.0
 40
0.0
 40
0.0
 40
0.0
 40
0.0149714532
 40
0.029961249
 40
0.0449714732
 40
0.0600041192
 40
0.0901393976
 40
0.1203853743
 40
0.1355558275
 40
0.150758058
 40
0.18125745
 40
0.2118947736
 40
0.2426741358
 40
0.2735970488
 40
0.3046624384
 40
0.3358666987
 40
0.3672037889
 40
0.398665369
 40
0.4302409702
 40
0.4619181949
 40
0.4936829441
 40
0.5255196657
 40
0.5574116217
 40
0.5893411687
 40
0.6212900503
 40
0.6532396952
 40
0.6851715198
 40
0.7170672306
 40
0.7489091229
 40
0.7806803736
 40
0.8123653238
 40
0.8439497436
 40
0.8754210946
 40
0.9067687184
 40
0.9379841639
 40
0.9535421381
 40
0.9690652754
 40
1.0
 40
1.0
 40
1.0
 40
1.0
 10
10.4179560165
 20
6.9454467334
 30
0.0
 10
10.4142684696
 20
6.9433014982
 30
0.0
 10
10.406811492
 20
6.9391398211
 30
0.0
 10
10.3954038298
 20
6.9332962345
 30
0.0
 10
10.383779739
 20
6.9278540016
 30
0.0
 10
10.3679990717
 20
6.9211366029
 30
0.0
 10
10.3477904285
 20
6.913773155
 30
0.0
 10
10.3270778404
 20
6.9078342824
 30
0.0
 10
10.3102449003
 20
6.9039447875
 30
0.0
 10
10.2932164509
 20
6.9006270948
 30
0.0
 10
10.2716596359
 20
6.89757633
 30
0.0
 10
10.2455163615
 20
6.895686786
 30
0.0
 10
10.2191841185
 20
6.8955721904
 30
0.0
 10
10.1927822771
 20
6.8972330051
 30
0.0
 10
10.1664294887
 20
6.9006614886
 30
0.0
 10
10.1402444106
 20
6.9058420155
 30
0.0
 10
10.1143448393
 20
6.912751078
 30
0.0
 10
10.0888472771
 20
6.9213574169
 30
0.0
 10
10.0638663895
 20
6.9316221606
 30
0.0
 10
10.0395145026
 20
6.9434990037
 30
0.0
 10
10.0159011016
 20
6.9569344163
 30
0.0
 10
9.9931323447
 20
6.9718678843
 30
0.0
 10
9.9713105908
 20
6.9882321815
 30
0.0
 10
9.9505339439
 20
7.0059536698
 30
0.0
 10
9.9308958164
 20
7.024952629
 30
0.0
 10
9.9124845129
 20
7.0451436122
 30
0.0
 10
9.8953828363
 20
7.0664358272
 30
0.0
 10
9.8796677186
 20
7.0887335411
 30
0.0
 10
9.8654098776
 20
7.1119365084
 30
0.0
 10
9.8526735001
 20
7.1359404113
 30
0.0
 10
9.8415159555
 20
7.1606373462
 30
0.0
 10
9.8319875392
 20
7.1859162221
 30
0.0
 10
9.8241312334
 20
7.211663557
 30
0.0
 10
9.817982587
 20
7.2377628626
 30
0.0
 10
9.8143006295
 20
7.2597345988
 30
0.0
 10
9.8122359524
 20
7.2773686194
 30
0.0
 10
9.8107625316
 20
7.2949809241
 30
0.0
 10
9.8103168645
 20
7.308224666
 30
0.0
 10
9.8103168645
 20
7.317039587
 30
0.0
  0
SPLINE
  5
3C0
100
AcDbEntity
  8
0
100
AcDbSpline
 62
7
  6
CONTINUOUS
 70
0
 71
3
 72
42
 73
38
 74
0
 42
0.0000001
 43
0.0000001
 44
0.0000000001
 40
0.0
 40
0.0
 40
0.0
 40
0.0
 40
0.0300095125
 40
0.0450516634
 40
0.0601194379
 40
0.0903333369
 40
0.1206657321
 40
0.1358810775
 40
0.151128922
 40
0.1817205763
 40
0.2124485356
 40
0.2433141967
 40
0.2743166648
 40
0.3054527989
 40
0.3367172913
 40
0.3681027794
 40
0.3995999861
 40
0.4311978859
 40
0.4628838925
 40
0.4946440662
 40
0.5264633361
 40
0.5583257355
 40
0.5902146471
 40
0.6221130546
 40
0.6540037995
 40
0.6858698379
 40
0.7176944978
 40
0.749461731
 40
0.7811563593
 40
0.8127643112
 40
0.8442728451
 40
0.8756707605
 40
0.9069485808
 40
0.9380987429
 40
0.9536258654
 40
0.9691196129
 40
1.0
 40
1.0
 40
1.0
 40
1.0
 10
10.4251822318
 20
6.9650127547
 30
0.0
 10
10.4177277965
 20
6.9615246277
 30
0.0
 10
10.4063530621
 20
6.9566683055
 30
0.0
 10
10.3908780992
 20
6.9509719758
 30
0.0
 10
10.3751657818
 20
6.9457835103
 30
0.0
 10
10.3551550547
 20
6.9402797511
 30
0.0
 10
10.3347820156
 20
6.9361166082
 30
0.0
 10
10.3182981175
 20
6.9335930209
 30
0.0
 10
10.3016693783
 20
6.931606043
 30
0.0
 10
10.2807051446
 20
6.9301448618
 30
0.0
 10
10.2554061122
 20
6.9300324271
 30
0.0
 10
10.2300397495
 20
6.9315589727
 30
0.0
 10
10.2047121842
 20
6.9347180639
 30
0.0
 10
10.1795284738
 20
6.9394963782
 30
0.0
 10
10.1545932873
 20
6.9458739098
 30
0.0
 10
10.1300101739
 20
6.9538240181
 30
0.0
 10
10.1058812189
 20
6.9633135513
 30
0.0
 10
10.0823066024
 20
6.9743029835
 30
0.0
 10
10.0593841937
 20
6.9867465803
 30
0.0
 10
10.0372091473
 20
7.0005925891
 30
0.0
 10
10.0158735129
 20
7.0157834533
 30
0.0
 10
9.9954658561
 20
7.0322560509
 30
0.0
 10
9.9760708946
 20
7.0499419545
 30
0.0
 10
9.9577691491
 20
7.0687677146
 30
0.0
 10
9.9406366122
 20
7.0886551614
 30
0.0
 10
9.9247444346
 20
7.109521728
 30
0.0
 10
9.9101586326
 20
7.1312807891
 30
0.0
 10
9.8969398146
 20
7.15384202
 30
0.0
 10
9.8851429321
 20
7.177111762
 30
0.0
 10
9.8748170503
 20
7.200993428
 30
0.0
 10
9.8660051506
 20
7.2253878261
 30
0.0
 10
9.8587439278
 20
7.2501938382
 30
0.0
 10
9.8530637323
 20
7.2753078305
 30
0.0
 10
9.849663671
 20
7.2964306647
 30
0.0
 10
9.8477573265
 20
7.3133769035
 30
0.0
 10
9.8463969157
 20
7.330300872
 30
0.0
 10
9.8459855849
 20
7.3430239221
 30
0.0
 10
9.8459855849
 20
7.3514929272
 30
0.0
  0
SPLINE
  5
3C1
100
AcDbEntity
  8
0
100
AcDbSpline
 62
7
  6
CONTINUOUS
 70
0
 71
3
 72
42
 73
38
 74
0
 42
0.0000001
 43
0.0000001
 44
0.0000000001
 40
0.0
 40
0.0
 40
0.0
 40
0.0
 40
0.0299624049
 40
0.044976411
 40
0.0600133293
 40
0.0901584735
 40
0.1204156047
 40
0.1355919471
 40
0.1508002115
 40
0.1813119643
 40
0.2119616032
 40
0.2427528433
 40
0.273686845
 40
0.3047622286
 40
0.3359751326
 40
0.3673193138
 40
0.398786284
 40
0.4303654796
 40
0.4620444615
 40
0.4938091385
 40
0.525644013
 40
0.5575324436
 40
0.5894569208
 40
0.6213993535
 40
0.6533413613
 40
0.6852645709
 40
0.7171509114
 40
0.7489829073
 40
0.7807439637
 40
0.8124186424
 40
0.8439929232
 40
0.8754544483
 40
0.9067927468
 40
0.9379994277
 40
0.9535532579
 40
0.9690725719
 40
1.0
 40
1.0
 40
1.0
 40
1.0
 10
10.4394844807
 20
7.0217839491
 30
0.0
 10
10.432817472
 20
7.0180132249
 30
0.0
 10
10.4226036569
 20
7.0127062987
 30
0.0
 10
10.4086327456
 20
7.0063623683
 30
0.0
 10
10.3944034741
 20
7.0004958096
 30
0.0
 10
10.3761962105
 20
6.9940888319
 30
0.0
 10
10.3575526814
 20
6.9889564488
 30
0.0
 10
10.3424108052
 20
6.9856210584
 30
0.0
 10
10.3270991217
 20
6.9827969648
 30
0.0
 10
10.3077269193
 20
6.9802467078
 30
0.0
 10
10.2842495563
 20
6.9787678603
 30
0.0
 10
10.2606176521
 20
6.9788729717
 30
0.0
 10
10.2369371952
 20
6.9805615062
 30
0.0
 10
10.2133134715
 20
6.983825717
 30
0.0
 10
10.1898517179
 20
6.9886508977
 30
0.0
 10
10.1666563565
 20
6.9950153963
 30
0.0
 10
10.1438306162
 20
7.0028907312
 30
0.0
 10
10.1214760565
 20
7.0122417166
 30
0.0
 10
10.0996921274
 20
7.0230266225
 30
0.0
 10
10.0785757295
 20
7.0351973603
 30
0.0
 10
10.0582207886
 20
7.0486996974
 30
0.0
 10
10.0387178424
 20
7.0634734975
 30
0.0
 10
10.020153641
 20
7.079452987
 30
0.0
 10
10.0026107656
 20
7.0965670458
 30
0.0
 10
9.9861672636
 20
7.1147395216
 30
0.0
 10
9.9708963048
 20
7.133889566
 30
0.0
 10
9.9568658582
 20
7.1539319907
 30
0.0
 10
9.9441383915
 20
7.1747776447
 30
0.0
 10
9.9327705956
 20
7.1963338018
 30
0.0
 10
9.9228131313
 20
7.218504589
 30
0.0
 10
9.914310412
 20
7.2411913346
 30
0.0
 10
9.907300377
 20
7.2642932749
 30
0.0
 10
9.9018144298
 20
7.2877069888
 30
0.0
 10
9.8985294825
 20
7.3074153346
 30
0.0
 10
9.8966874744
 20
7.3232319899
 30
0.0
 10
9.8953729604
 20
7.3390289743
 30
0.0
 10
9.8949753735
 20
7.3509072752
 30
0.0
 10
9.8949753735
 20
7.3588134321
 30
0.0
  0
SPLINE
  5
3C2
100
AcDbEntity
  8
0
100
AcDbSpline
 62
7
  6
CONTINUOUS
 70
0
 71
3
 72
23
 73
19
 74
0
 42
0.0000001
 43
0.0000001
 44
0.0000000001
 40
0.0
 40
0.0
 40
0.0
 40
0.0
 40
0.0617141799
 40
0.1237227725
 40
0.1859977711
 40
0.2485048896
 40
0.3112044338
 40
0.374052273
 40
0.437000884
 40
0.5000004503
 40
0.5629999989
 40
0.6259485572
 40
0.6887963098
 40
0.7514957352
 40
0.8140027064
 40
0.876277533
 40
0.9382859117
 40
1.0
 40
1.0
 40
1.0
 40
1.0
 10
10.4302984293
 20
7.2067148463
 30
0.0
 10
10.4209994642
 20
7.2086157211
 30
0.0
 10
10.4024973895
 20
7.2131522297
 30
0.0
 10
10.3752933366
 20
7.2220804722
 30
0.0
 10
10.3487312895
 20
7.2330945903
 30
0.0
 10
10.3229797405
 20
7.2461248849
 30
0.0
 10
10.2981992548
 20
7.2610896435
 30
0.0
 10
10.2745450694
 20
7.2778949628
 30
0.0
 10
10.2521651723
 20
7.296435521
 30
0.0
 10
10.2311996507
 20
7.3165951797
 30
0.0
 10
10.2117797593
 20
7.3382477151
 30
0.0
 10
10.1940270922
 20
7.3612575718
 30
0.0
 10
10.178052855
 20
7.3854807155
 30
0.0
 10
10.1639571694
 20
7.4107655921
 30
0.0
 10
10.1518284932
 20
7.4369537992
 30
0.0
 10
10.1417429198
 20
7.4638820305
 30
0.0
 10
10.1337642444
 20
7.4913794952
 30
0.0
 10
10.1298726516
 20
7.5100278308
 30
0.0
 10
10.1282956785
 20
7.5193871559
 30
0.0
  0
SPLINE
  5
3C3
100
AcDbEntity
  8
0
100
AcDbSpline
 62
7
  6
CONTINUOUS
 70
0
 71
3
 72
69
 73
65
 74
0
 42
0.0000001
 43
0.0000001
 44
0.0000000001
 40
0.0
 40
0.0
 40
0.0
 40
0.0
 40
0.0155844242
 40
0.0311165117
 40
0.0465960341
 40
0.0620249407
 40
0.0774047719
 40
0.092737864
 40
0.1080269664
 40
0.1232752759
 40
0.1384864179
 40
0.1536643983
 40
0.1688135704
 40
0.1839385913
 40
0.1990443739
 40
0.2141360354
 40
0.2292188431
 40
0.2442981582
 40
0.2593793797
 40
0.2744678867
 40
0.2895689807
 40
0.3046878287
 40
0.319829408
 40
0.3349984552
 40
0.3501994183
 40
0.3654364114
 40
0.3807131738
 40
0.3960330329
 40
0.411398875
 40
0.4268131206
 40
0.4422777041
 40
0.4577940588
 40
0.4733631061
 40
0.488985253
 40
0.5046603948
 40
0.5203879209
 40
0.536166724
 40
0.551995215
 40
0.5678713435
 40
0.5837926217
 40
0.5997561504
 40
0.6157586476
 40
0.6317964797
 40
0.6478656985
 40
0.6800725945
 40
0.7123515122
 40
0.7285100946
 40
0.7446719364
 40
0.7608319994
 40
0.7769852601
 40
0.793126754
 40
0.80925162
 40
0.8253551433
 40
0.8414327953
 40
0.8574802745
 40
0.8734935471
 40
0.8894688837
 40
0.9054028997
 40
0.9212925739
 40
0.9371352902
 40
0.9529289256
 40
0.9686715078
 40
0.9843624525
 40
1.0
 40
1.0
 40
1.0
 40
1.0
 10
9.5695869095
 20
7.1445123158
 30
0.0
 10
9.5695869095
 20
7.1518798197
 30
0.0
 10
9.5699474827
 20
7.1665926971
 30
0.0
 10
9.5715750165
 20
7.1885692905
 30
0.0
 10
9.5742847121
 20
7.2103653957
 30
0.0
 10
9.5780698173
 20
7.2319275502
 30
0.0
 10
9.5829214586
 20
7.2532041717
 30
0.0
 10
9.5888279368
 20
7.2741438361
 30
0.0
 10
9.5957750639
 20
7.2946960978
 30
0.0
 10
9.6037461329
 20
7.3148113962
 30
0.0
 10
9.6127219684
 20
7.3344412217
 30
0.0
 10
9.6226809842
 20
7.3535382219
 30
0.0
 10
9.6335992139
 20
7.3720563198
 30
0.0
 10
9.6454503352
 20
7.3899508531
 30
0.0
 10
9.6582057844
 20
7.4071786559
 30
0.0
 10
9.6718348167
 20
7.4236981652
 30
0.0
 10
9.686304584
 20
7.4394695167
 30
0.0
 10
9.7015801996
 20
7.4544546526
 30
0.0
 10
9.7176248
 20
7.4686174444
 30
0.0
 10
9.7343996776
 20
7.4819237413
 30
0.0
 10
9.751864366
 20
7.4943414588
 30
0.0
 10
9.769976742
 20
7.5058406481
 30
0.0
 10
9.7886931125
 20
7.5163935882
 30
0.0
 10
9.8079683126
 20
7.525974879
 30
0.0
 10
9.8277558447
 20
7.5345614556
 30
0.0
 10
9.8480079843
 20
7.5421326516
 30
0.0
 10
9.8686758968
 20
7.5486702384
 30
0.0
 10
9.8897097442
 20
7.5541584968
 30
0.0
 10
9.911058807
 20
7.5585842712
 30
0.0
 10
9.9326716219
 20
7.5619369525
 30
0.0
 10
9.9544961
 20
7.5642085129
 30
0.0
 10
9.9764796512
 20
7.5653935128
 30
0.0
 10
9.9985693057
 20
7.5654891502
 30
0.0
 10
10.0207118477
 20
7.5644952715
 30
0.0
 10
10.0428539443
 20
7.5624143271
 30
0.0
 10
10.0649422712
 20
7.5592513762
 30
0.0
 10
10.0869236353
 20
7.555014063
 30
0.0
 10
10.108745108
 20
7.5497126401
 30
0.0
 10
10.1303541599
 20
7.5433599349
 30
0.0
 10
10.1516987642
 20
7.5359712911
 30
0.0
 10
10.1727275747
 20
7.5275645058
 30
0.0
 10
10.1933898422
 20
7.5181599171
 30
0.0
 10
10.2136362999
 20
7.5077798735
 30
0.0
 10
10.2400274081
 20
7.4926641781
 30
0.0
 10
10.2717291269
 20
7.4714592823
 30
0.0
 10
10.3013817694
 20
7.447406342
 30
0.0
 10
10.323729183
 20
7.4265789664
 30
0.0
 10
10.3397685712
 20
7.4101959102
 30
0.0
 10
10.3550391229
 20
7.3930979344
 30
0.0
 10
10.3695045169
 20
7.375325823
 30
0.0
 10
10.3831298136
 20
7.3569224568
 30
0.0
 10
10.3958822515
 20
7.3379321127
 30
0.0
 10
10.4077311138
 20
7.3184005021
 30
0.0
 10
10.4186478581
 20
7.2983746265
 30
0.0
 10
10.4286061631
 20
7.2779026744
 30
0.0
 10
10.4375820454
 20
7.2570339271
 30
0.0
 10
10.4455538839
 20
7.2358186183
 30
0.0
 10
10.4525024528
 20
7.2143078116
 30
0.0
 10
10.4584109792
 20
7.1925532906
 30
0.0
 10
10.4632651962
 20
7.1706073865
 30
0.0
 10
10.467053314
 20
7.148523072
 30
0.0
 10
10.4697663559
 20
7.1263531284
 30
0.0
 10
10.4713974667
 20
7.1041518931
 30
0.0
 10
10.4717617298
 20
7.0893388974
 30
0.0
 10
10.4717617298
 20
7.0819462795
 30
0.0
  0
SPLINE
  5
3C4
100
AcDbEntity
  8
0
100
AcDbSpline
 62
7
  6
CONTINUOUS
 70
0
 71
3
 72
23
 73
19
 74
0
 42
0.0000001
 43
0.0000001
 44
0.0000000001
 40
0.0
 40
0.0
 40
0.0
 40
0.0
 40
0.0618344496
 40
0.1239213044
 40
0.1862342675
 40
0.2487426547
 40
0.3114120266
 40
0.3742048764
 40
0.4370813593
 40
0.5000000549
 40
0.5629187493
 40
0.6257952284
 40
0.6885880718
 40
0.7512574348
 40
0.8137658113
 40
0.8760787587
 40
0.9381656089
 40
1.0
 40
1.0
 40
1.0
 40
1.0
 10
10.4203638037
 20
7.2380343249
 30
0.0
 10
10.4124944616
 20
7.2401025784
 30
0.0
 10
10.3968636579
 20
7.2448022458
 30
0.0
 10
10.373923867
 20
7.2534750423
 30
0.0
 10
10.3515534019
 20
7.2637425485
 30
0.0
 10
10.3298698699
 20
7.2755509318
 30
0.0
 10
10.3089853571
 20
7.2888388897
 30
0.0
 10
10.2890083243
 20
7.3035373398
 30
0.0
 10
10.2700423857
 20
7.3195699454
 30
0.0
 10
10.2521859561
 20
7.3368534638
 30
0.0
 10
10.2355316985
 20
7.3552981856
 30
0.0
 10
10.220166057
 20
7.3748083947
 30
0.0
 10
10.2061688135
 20
7.3952828501
 30
0.0
 10
10.1936126673
 20
7.416615354
 30
0.0
 10
10.1825629015
 20
7.4386951166
 30
0.0
 10
10.1730768924
 20
7.4614079948
 30
0.0
 10
10.1652043775
 20
7.4846345829
 30
0.0
 10
10.1610492698
 20
7.5004188697
 30
0.0
 10
10.159255003
 20
7.5083551596
 30
0.0
  0
SPLINE
  5
3C5
100
AcDbEntity
  8
0
100
AcDbSpline
 62
7
  6
CONTINUOUS
 70
0
 71
3
 72
23
 73
19
 74
0
 42
0.0000001
 43
0.0000001
 44
0.0000000001
 40
0.0
 40
0.0
 40
0.0
 40
0.0
 40
0.0617101471
 40
0.1234413975
 40
0.1852146443
 40
0.247050354
 40
0.3089683512
 40
0.3709876208
 40
0.4331261329
 40
0.4954006604
 40
0.5578266143
 40
0.6204179171
 40
0.6831867871
 40
0.7461438917
 40
0.8092980342
 40
0.8726549895
 40
0.936223237
 40
1.0
 40
1.0
 40
1.0
 40
1.0
 10
9.7310327967
 20
7.4319933915
 30
0.0
 10
9.7264102821
 20
7.4275283809
 30
0.0
 10
9.7173917831
 20
7.4183571427
 30
0.0
 10
9.704587017
 20
7.4039202515
 30
0.0
 10
9.6925321699
 20
7.3888341306
 30
0.0
 10
9.6812555279
 20
7.3731340395
 30
0.0
 10
9.6707829926
 20
7.3568560522
 30
0.0
 10
9.6611386989
 20
7.3400377815
 30
0.0
 10
9.6523448382
 20
7.3227180247
 30
0.0
 10
9.6444216719
 20
7.3049367292
 30
0.0
 10
9.6373874737
 20
7.2867348913
 30
0.0
 10
9.6312583955
 20
7.268154509
 30
0.0
 10
9.6260484961
 20
7.2492384323
 30
0.0
 10
9.6217697616
 20
7.2300302409
 30
0.0
 10
9.6184321008
 20
7.2105743385
 30
0.0
 10
9.6160429464
 20
7.1909151701
 30
0.0
 10
9.6146080541
 20
7.1710989467
 30
0.0
 10
9.6142901202
 20
7.1578343247
 30
0.0
 10
9.6142901202
 20
7.1511922808
 30
0.0
  0
SPLINE
  5
3C6
100
AcDbEntity
  8
0
100
AcDbSpline
 62
7
  6
CONTINUOUS
 70
0
 71
3
 72
15
 73
11
 74
0
 42
0.0000001
 43
0.0000001
 44
0.0000000001
 40
0.0
 40
0.0
 40
0.0
 40
0.0
 40
0.1235308141
 40
0.2474090068
 40
0.3716785294
 40
0.4963773663
 40
0.6215376188
 40
0.7471834443
 40
0.8733348897
 40
1.0
 40
1.0
 40
1.0
 40
1.0
 10
9.8283284474
 20
7.499887046
 30
0.0
 10
9.8246099229
 20
7.4928559998
 30
0.0
 10
9.8176006391
 20
7.478537392
 30
0.0
 10
9.8084273552
 20
7.4564182547
 30
0.0
 10
9.8006110876
 20
7.4337035513
 30
0.0
 10
9.7941794567
 20
7.410473409
 30
0.0
 10
9.7891546273
 20
7.3868084845
 30
0.0
 10
9.7855538886
 20
7.3627908168
 30
0.0
 10
9.7833897682
 20
7.3385051176
 30
0.0
 10
9.7829105889
 20
7.322222771
 30
0.0
 10
9.7829105889
 20
7.314067156
 30
0.0
  0
SPLINE
  5
3C7
100
AcDbEntity
  8
0
100
AcDbSpline
 62
7
  6
CONTINUOUS
 70
0
 71
3
 72
15
 73
11
 74
0
 42
0.0000001
 43
0.0000001
 44
0.0000000001
 40
0.0
 40
0.0
 40
0.0
 40
0.0
 40
0.1234302908
 40
0.2472011617
 40
0.3713775376
 40
0.4960163405
 40
0.621165279
 40
0.7468626052
 40
0.8731348879
 40
1.0
 40
1.0
 40
1.0
 40
1.0
 10
9.866775534
 20
7.5161113709
 30
0.0
 10
9.8621821602
 20
7.5088113917
 30
0.0
 10
9.853507835
 20
7.4938533353
 30
0.0
 10
9.8421247457
 20
7.470509076
 30
0.0
 10
9.8324033951
 20
7.4463330791
 30
0.0
 10
9.8243893084
 20
7.4214382105
 30
0.0
 10
9.8181188809
 20
7.3959388228
 30
0.0
 10
9.8136208568
 20
7.3699520288
 30
0.0
 10
9.8109155992
 20
7.34359893
 30
0.0
 10
9.8103168645
 20
7.3259044937
 30
0.0
 10
9.8103168645
 20
7.317039587
 30
0.0
  0
SPLINE
  5
3C8
100
AcDbEntity
  8
0
100
AcDbSpline
 62
7
  6
CONTINUOUS
 70
0
 71
3
 72
15
 73
11
 74
0
 42
0.0000001
 43
0.0000001
 44
0.0000000001
 40
0.0
 40
0.0
 40
0.0
 40
0.0
 40
0.1235546402
 40
0.2474555893
 40
0.3717433775
 40
0.4964529296
 40
0.6216138938
 40
0.7472480457
 40
0.8733747416
 40
1.0
 40
1.0
 40
1.0
 40
1.0
 10
9.8865759444
 20
7.5226525265
 30
0.0
 10
9.8832490897
 20
7.5161417503
 30
0.0
 10
9.8769800739
 20
7.5028963335
 30
0.0
 10
9.8687793205
 20
7.4824700875
 30
0.0
 10
9.8617944597
 20
7.4615239648
 30
0.0
 10
9.8560487845
 20
7.4401277344
 30
0.0
 10
9.8515610176
 20
7.4183515561
 30
0.0
 10
9.8483457018
 20
7.3962666828
 30
0.0
 10
9.8464134618
 20
7.3739467085
 30
0.0
 10
9.8459855849
 20
7.3589861445
 30
0.0
 10
9.8459855849
 20
7.3514929272
 30
0.0
  0
SPLINE
  5
3C9
100
AcDbEntity
  8
0
100
AcDbSpline
 62
7
  6
CONTINUOUS
 70
0
 71
3
 72
15
 73
11
 74
0
 42
0.0000001
 43
0.0000001
 44
0.0000000001
 40
0.0
 40
0.0
 40
0.0
 40
0.0
 40
0.1234434215
 40
0.2472299802
 40
0.3714209033
 40
0.4960697307
 40
0.6212214305
 40
0.746911549
 40
0.8731659664
 40
1.0
 40
1.0
 40
1.0
 40
1.0
 10
9.9438143283
 20
7.5349844154
 30
0.0
 10
9.9398365657
 20
7.5284890377
 30
0.0
 10
9.932327128
 20
7.5151939425
 30
0.0
 10
9.9224773401
 20
7.4944818406
 30
0.0
 10
9.9140687372
 20
7.473062987
 30
0.0
 10
9.9071390524
 20
7.4510331945
 30
0.0
 10
9.9017184692
 20
7.4284894425
 30
0.0
 10
9.8978307533
 20
7.4055309148
 30
0.0
 10
9.8954928475
 20
7.382260182
 30
0.0
 10
9.8949753735
 20
7.3666392321
 30
0.0
 10
9.8949753735
 20
7.3588134321
 30
0.0
  0
SPLINE
  5
3CA
100
AcDbEntity
  8
0
100
AcDbSpline
 62
7
  6
CONTINUOUS
 70
0
 71
3
 72
28
 73
24
 74
0
 42
0.0000001
 43
0.0000001
 44
0.0000000001
 40
0.0
 40
0.0
 40
0.0
 40
0.0
 40
0.0111761179
 40
0.022696899
 40
0.047281588
 40
0.0606194446
 40
0.0747943621
 40
0.0899061226
 40
0.106050149
 40
0.1233143604
 40
0.1417813882
 40
0.1615343917
 40
0.1826529087
 40
0.2292971573
 40
0.28236386
 40
0.342510481
 40
0.4104029708
 40
0.4866805991
 40
0.5718767085
 40
0.6662824251
 40
0.7697536465
 40
0.8815033172
 40
1.0
 40
1.0
 40
1.0
 40
1.0
 10
9.7557866422
 20
7.3799413836
 30
0.0
 10
9.7560649661
 20
7.3798162861
 30
0.0
 10
9.7566164698
 20
7.3795304321
 30
0.0
 10
9.757694664
 20
7.3788169869
 30
0.0
 10
9.7587003762
 20
7.3779026487
 30
0.0
 10
9.759627784
 20
7.3768230991
 30
0.0
 10
9.76031794
 20
7.3758845939
 30
0.0
 10
9.7609838155
 20
7.3748371171
 30
0.0
 10
9.7616258642
 20
7.3736775051
 30
0.0
 10
9.762244419
 20
7.3724026737
 30
0.0
 10
9.7628398968
 20
7.3710091525
 30
0.0
 10
9.7634123827
 20
7.3694930538
 30
0.0
 10
9.764170643
 20
7.3672265725
 30
0.0
 10
9.7650522466
 20
7.3640450675
 30
0.0
 10
9.7659876382
 20
7.3597801997
 30
0.0
 10
9.7668316583
 20
7.3549065868
 30
0.0
 10
9.7675820233
 20
7.3493777376
 30
0.0
 10
9.7682348097
 20
7.3431485759
 30
0.0
 10
9.768784463
 20
7.336183224
 30
0.0
 10
9.7692239131
 20
7.3284663646
 30
0.0
 10
9.7695451879
 20
7.3200181953
 30
0.0
 10
9.7697406894
 20
7.3109083379
 30
0.0
 10
9.7697824907
 20
7.3046217395
 30
0.0
 10
9.7697824907
 20
7.3013863862
 30
0.0
  0
SPLINE
  5
3CB
100
AcDbEntity
  8
0
100
AcDbSpline
 62
7
  6
CONTINUOUS
 70
0
 71
3
 72
39
 73
35
 74
0
 42
0.0000001
 43
0.0000001
 44
0.0000000001
 40
0.0
 40
0.0
 40
0.0
 40
0.0
 40
0.029942471
 40
0.0599093185
 40
0.0899243251
 40
0.1200101042
 40
0.1501875626
 40
0.1804754144
 40
0.2108897595
 40
0.2414437366
 40
0.2721472604
 40
0.3030068427
 40
0.3340254953
 40
0.365202715
 40
0.3965345496
 40
0.4280137343
 40
0.4596298913
 40
0.491369786
 40
0.5232176335
 40
0.55515545
 40
0.587163434
 40
0.6192203769
 40
0.6513040926
 40
0.6833918636
 40
0.7154608918
 40
0.747488751
 40
0.7794538351
 40
0.8113357952
 40
0.8431159564
 40
0.874777711
 40
0.9063068724
 40
0.937692086
 40
0.9689246467
 40
1.0
 40
1.0
 40
1.0
 40
1.0
 10
11.4905275946
 20
7.2908686283
 30
0.0
 10
11.4815691892
 20
7.2822154429
 30
0.0
 10
11.4629479174
 20
7.2656074597
 30
0.0
 10
11.4331137583
 20
7.2429820065
 30
0.0
 10
11.4015298112
 20
7.2227563397
 30
0.0
 10
11.3683725761
 20
7.2050438886
 30
0.0
 10
11.3338243428
 20
7.1899414228
 30
0.0
 10
11.2980757686
 20
7.1775319835
 30
0.0
 10
11.2613238491
 20
7.1678834807
 30
0.0
 10
11.2237710715
 20
7.1610485579
 30
0.0
 10
11.185624193
 20
7.1570643378
 30
0.0
 10
11.1470931244
 20
7.1559522512
 30
0.0
 10
11.1083897785
 20
7.1577179489
 30
0.0
 10
11.0697269067
 20
7.1623512124
 30
0.0
 10
11.0313169353
 20
7.1698261121
 30
0.0
 10
10.9933708172
 20
7.1801011678
 30
0.0
 10
10.9560968989
 20
7.1931195996
 30
0.0
 10
10.9196997752
 20
7.2088095853
 30
0.0
 10
10.8843791769
 20
7.2270846778
 30
0.0
 10
10.8503289098
 20
7.2478443269
 30
0.0
 10
10.8177358089
 20
7.2709744207
 30
0.0
 10
10.7867787222
 20
7.2963478939
 30
0.0
 10
10.7576274982
 20
7.3238253755
 30
0.0
 10
10.7304421138
 20
7.3532560151
 30
0.0
 10
10.7053718013
 20
7.3844782894
 30
0.0
 10
10.6825542521
 20
7.4173208842
 30
0.0
 10
10.6621148011
 20
7.4516035743
 30
0.0
 10
10.644165783
 20
7.4871382469
 30
0.0
 10
10.6288059377
 20
7.5237299031
 30
0.0
 10
10.6161198853
 20
7.5611777974
 30
0.0
 10
10.6061775793
 20
7.5992761996
 30
0.0
 10
10.5990340377
 20
7.6378166079
 30
0.0
 10
10.5947287362
 20
7.6765846629
 30
0.0
 10
10.5937644558
 20
7.7025127822
 30
0.0
 10
10.5937644558
 20
7.7154391716
 30
0.0
  0
SPLINE
  5
3CC
100
AcDbEntity
  8
0
100
AcDbSpline
 62
7
  6
CONTINUOUS
 70
0
 71
3
 72
44
 73
40
 74
0
 42
0.0000001
 43
0.0000001
 44
0.0000000001
 40
0.0
 40
0.0
 40
0.0
 40
0.0
 40
0.0299684946
 40
0.0449863569
 40
0.0600276177
 40
0.0901827258
 40
0.1204510577
 40
0.1356332879
 40
0.150847578
 40
0.1660948839
 40
0.1813760098
 40
0.2120378331
 40
0.2428407598
 40
0.2737856002
 40
0.3048706714
 40
0.3360918599
 40
0.3674427239
 40
0.3989146308
 40
0.4304969272
 40
0.4621771364
 40
0.4939411801
 40
0.5257736203
 40
0.5576579169
 40
0.5895766992
 40
0.6215120457
 40
0.6534457714
 40
0.6853597167
 40
0.7172360372
 40
0.7490574893
 40
0.7808077093
 40
0.8124714831
 40
0.8440349987
 40
0.8597772903
 40
0.8754901075
 40
0.9068184517
 40
0.9380158812
 40
0.953565369
 40
0.969080263
 40
1.0
 40
1.0
 40
1.0
 40
1.0
 10
11.567868755
 20
7.3886675942
 30
0.0
 10
11.5580405646
 20
7.3832683987
 30
0.0
 10
11.5429939258
 20
7.375681331
 30
0.0
 10
11.522431275
 20
7.3666357181
 30
0.0
 10
11.501499205
 20
7.3582881896
 30
0.0
 10
11.4747363742
 20
7.3492074636
 30
0.0
 10
11.4473584566
 20
7.3419873031
 30
0.0
 10
11.4251370224
 20
7.3373349478
 30
0.0
 10
11.4083072006
 20
7.3344082213
 30
0.0
 10
11.3913508418
 20
7.3320512332
 30
0.0
 10
11.368575326
 20
7.3296691968
 30
0.0
 10
11.3398761049
 20
7.3281318932
 30
0.0
 10
11.3052765283
 20
7.328595557
 30
0.0
 10
11.2706253185
 20
7.3313626689
 30
0.0
 10
11.2360761718
 20
7.3364209101
 30
0.0
 10
11.2017809628
 20
7.3437477088
 30
0.0
 10
11.1678907647
 20
7.3533105763
 30
0.0
 10
11.1345547375
 20
7.3650671924
 30
0.0
 10
11.1019195986
 20
7.3789656078
 30
0.0
 10
11.0701289536
 20
7.3949444776
 30
0.0
 10
11.0393226798
 20
7.4129333326
 30
0.0
 10
11.0096363155
 20
7.4328528893
 30
0.0
 10
10.9812004706
 20
7.4546153979
 30
0.0
 10
10.9541402574
 20
7.4781250263
 30
0.0
 10
10.9285747456
 20
7.5032782786
 30
0.0
 10
10.9046164426
 20
7.5299644495
 30
0.0
 10
10.8823708047
 20
7.5580660998
 30
0.0
 10
10.8619357683
 20
7.5874595962
 30
0.0
 10
10.8434013464
 20
7.6180155448
 30
0.0
 10
10.8268491281
 20
7.6495997409
 30
0.0
 10
10.8123523374
 20
7.6820723369
 30
0.0
 10
10.8020277542
 20
7.7097817048
 30
0.0
 10
10.7948581153
 20
7.7322492013
 30
0.0
 10
10.7884336238
 20
7.7548495765
 30
0.0
 10
10.7817853954
 20
7.7833819932
 30
0.0
 10
10.7770045104
 20
7.8122243785
 30
0.0
 10
10.7743235863
 20
7.83537055
 30
0.0
 10
10.7724104285
 20
7.8584876028
 30
0.0
 10
10.7718318118
 20
7.8758695129
 30
0.0
 10
10.7718318118
 20
7.8874390399
 30
0.0
  0
SPLINE
  5
3CD
100
AcDbEntity
  8
0
100
AcDbSpline
 62
7
  6
CONTINUOUS
 70
0
 71
3
 72
41
 73
37
 74
0
 42
0.0000001
 43
0.0000001
 44
0.0000000001
 40
0.0
 40
0.0
 40
0.0
 40
0.0
 40
0.0299370913
 40
0.0599453711
 40
0.0900422682
 40
0.1051313521
 40
0.1202482713
 40
0.1505671305
 40
0.1810148595
 40
0.2116000452
 40
0.2423285872
 40
0.257749995
 40
0.2732081845
 40
0.3042300629
 40
0.3353963844
 40
0.3667020783
 40
0.3981395322
 40
0.4296987619
 40
0.4613676169
 40
0.493132017
 40
0.5249762156
 40
0.5568830858
 40
0.5888344232
 40
0.6208112628
 40
0.6527942051
 40
0.6847637469
 40
0.7167006133
 40
0.7485860866
 40
0.7804023297
 40
0.8121326976
 40
0.8437620347
 40
0.8752769593
 40
0.9066660821
 40
0.9379203815
 40
0.9690328801
 40
1.0
 40
1.0
 40
1.0
 40
1.0
 10
11.5908869723
 20
7.4315297129
 30
0.0
 10
11.5816309854
 20
7.4254641711
 30
0.0
 10
11.5626439177
 20
7.4139943325
 30
0.0
 10
11.532950512
 20
7.3988955658
 30
0.0
 10
11.5073005745
 20
7.38811718
 30
0.0
 10
11.4863096232
 20
7.3806033089
 30
0.0
 10
11.4649840655
 20
7.3738232417
 30
0.0
 10
11.4378089211
 20
7.3667664241
 30
0.0
 10
11.4045773136
 20
7.3606150359
 30
0.0
 10
11.3708451681
 20
7.3567992443
 30
0.0
 10
11.3424811719
 20
7.3555822472
 30
0.0
 10
11.3197045517
 20
7.3557844805
 30
0.0
 10
11.2968399497
 20
7.3567740326
 30
0.0
 10
11.2682420714
 20
7.3594886737
 30
0.0
 10
11.234111435
 20
7.3650821826
 30
0.0
 10
11.2002831834
 20
7.3729890275
 30
0.0
 10
11.1669176713
 20
7.3831716635
 30
0.0
 10
11.1341717279
 20
7.3955819014
 30
0.0
 10
11.1021995891
 20
7.4101610896
 30
0.0
 10
11.071151733
 20
7.4268404056
 30
0.0
 10
11.0411743008
 20
7.4455411762
 30
0.0
 10
11.0124083867
 20
7.4661752503
 30
0.0
 10
10.9849893811
 20
7.4886453997
 30
0.0
 10
10.9590463385
 20
7.5128457796
 30
0.0
 10
10.9347013822
 20
7.538662431
 30
0.0
 10
10.9120691333
 20
7.5659738101
 30
0.0
 10
10.8912561774
 20
7.594651356
 30
0.0
 10
10.8723605658
 20
7.6245600894
 30
0.0
 10
10.855471359
 20
7.6555592408
 30
0.0
 10
10.8406682053
 20
7.6875029075
 30
0.0
 10
10.8280209514
 20
7.7202407133
 30
0.0
 10
10.8175893502
 20
7.7536185784
 30
0.0
 10
10.8094227101
 20
7.7874792128
 30
0.0
 10
10.8035598267
 20
7.8216636637
 30
0.0
 10
10.8000284587
 20
7.8560088501
 30
0.0
 10
10.7992380874
 20
7.8789643677
 30
0.0
 10
10.7992380874
 20
7.8904114708
 30
0.0
  0
SPLINE
  5
3CE
100
AcDbEntity
  8
0
100
AcDbSpline
 62
7
  6
CONTINUOUS
 70
0
 71
3
 72
45
 73
41
 74
0
 42
0.0000001
 43
0.0000001
 44
0.0000000001
 40
0.0
 40
0.0
 40
0.0
 40
0.0
 40
0.0149755525
 40
0.0299704131
 40
0.044986582
 40
0.0600259577
 40
0.0901767877
 40
0.1204403537
 40
0.1356200884
 40
0.1508318296
 40
0.1660765573
 40
0.1813550954
 40
0.212011778
 40
0.2428097685
 40
0.2737500167
 40
0.3048309604
 40
0.3360485864
 40
0.3673965317
 40
0.3988662209
 40
0.430447036
 40
0.4621265146
 40
0.4938905727
 40
0.5257237482
 40
0.5576094601
 40
0.5895302821
 40
0.6214682246
 40
0.6534050245
 40
0.6853224366
 40
0.7172025258
 40
0.7490279557
 40
0.7807822701
 40
0.8124501655
 40
0.8440177462
 40
0.8597620338
 40
0.8754768051
 40
0.9068088837
 40
0.9380097964
 40
0.9535609286
 40
0.9690773859
 40
1.0
 40
1.0
 40
1.0
 40
1.0
 10
11.5982808446
 20
7.4488929861
 30
0.0
 10
11.5935863144
 20
7.4462835887
 30
0.0
 10
11.5840979417
 20
7.4412272151
 30
0.0
 10
11.5695975754
 20
7.4341447231
 30
0.0
 10
11.5548358137
 20
7.4275671739
 30
0.0
 10
11.5348127624
 20
7.4194741602
 30
0.0
 10
11.509203534
 20
7.410655847
 30
0.0
 10
11.482995908
 20
7.4036229946
 30
0.0
 10
11.461718929
 20
7.3990753793
 30
0.0
 10
11.4456018429
 20
7.3962045935
 30
0.0
 10
11.4293610631
 20
7.3938808501
 30
0.0
 10
11.4075434855
 20
7.3915127771
 30
0.0
 10
11.3800454568
 20
7.3899358607
 30
0.0
 10
11.3468855303
 20
7.3902612354
 30
0.0
 10
11.313668265
 20
7.3927998795
 30
0.0
 10
11.2805416478
 20
7.3975404339
 30
0.0
 10
11.2476519424
 20
7.4044616429
 30
0.0
 10
11.2151446691
 20
7.4135326754
 30
0.0
 10
11.1831635315
 20
7.4247132084
 30
0.0
 10
11.1518499043
 20
7.4379536192
 30
0.0
 10
11.1213421837
 20
7.4531952063
 30
0.0
 10
11.0917751927
 20
7.4703704539
 30
0.0
 10
11.0632795884
 20
7.4894033294
 30
0.0
 10
11.0359812925
 20
7.5102096187
 30
0.0
 10
11.0100009394
 20
7.5326972965
 30
0.0
 10
10.9854533492
 20
7.5567669298
 30
0.0
 10
10.9624470238
 20
7.5823121166
 30
0.0
 10
10.9410836734
 20
7.6092199443
 30
0.0
 10
10.9214577636
 20
7.6373715121
 30
0.0
 10
10.9036561236
 20
7.6666423491
 30
0.0
 10
10.8877574603
 20
7.6969033297
 30
0.0
 10
10.8738324152
 20
7.7280198765
 30
0.0
 10
10.8639146198
 20
7.7545751995
 30
0.0
 10
10.8570273006
 20
7.776108456
 30
0.0
 10
10.8508557115
 20
7.7977698843
 30
0.0
 10
10.8444690532
 20
7.8251183218
 30
0.0
 10
10.8398761598
 20
7.8527653242
 30
0.0
 10
10.8373006337
 20
7.8749526735
 30
0.0
 10
10.835462689
 20
7.8971122153
 30
0.0
 10
10.8349068078
 20
7.913774392
 30
0.0
 10
10.8349068078
 20
7.9248648111
 30
0.0
  0
SPLINE
  5
3CF
100
AcDbEntity
  8
0
100
AcDbSpline
 62
7
  6
CONTINUOUS
 70
0
 71
3
 72
43
 73
39
 74
0
 42
0.0000001
 43
0.0000001
 44
0.0000000001
 40
0.0
 40
0.0
 40
0.0
 40
0.0
 40
0.0149603362
 40
0.0299341758
 40
0.0449239842
 40
0.0599321478
 40
0.0900074729
 40
0.1201822008
 40
0.1353140662
 40
0.1504761479
 40
0.1656699311
 40
0.1808967295
 40
0.2114489514
 40
0.2421448433
 40
0.272988647
 40
0.3039816967
 40
0.3351224349
 40
0.3664064826
 40
0.3978267611
 40
0.4293736583
 40
0.4610352363
 40
0.492797474
 40
0.5246445403
 40
0.5565590917
 40
0.5885225894
 40
0.6205156327
 40
0.6525183021
 40
0.6845105091
 40
0.7164723487
 40
0.7483844487
 40
0.7802283133
 40
0.8119866563
 40
0.8436437149
 40
0.8751855573
 40
0.9066003098
 40
0.937878564
 40
0.9690130545
 40
1.0
 40
1.0
 40
1.0
 40
1.0
 10
11.6232734565
 20
7.5252311374
 30
0.0
 10
11.619116782
 20
7.5223011081
 30
0.0
 10
11.6106896744
 20
7.5165926913
 30
0.0
 10
11.5977337113
 20
7.5085021521
 30
0.0
 10
11.5844722022
 20
7.5008893137
 30
0.0
 10
11.566394311
 20
7.4913829611
 30
0.0
 10
11.5431040298
 20
7.4807378376
 30
0.0
 10
11.5190566717
 20
7.4718151205
 30
0.0
 10
11.4994199226
 20
7.4657255467
 30
0.0
 10
11.4844910637
 20
7.4616832442
 30
0.0
 10
11.4693944488
 20
7.4581758335
 30
0.0
 10
11.4490460089
 20
7.4542137487
 30
0.0
 10
11.4232744372
 20
7.4506213391
 30
0.0
 10
11.3920149326
 20
7.4485083326
 30
0.0
 10
11.3605339079
 20
7.4485973394
 30
0.0
 10
11.32898517
 20
7.4508878365
 30
0.0
 10
11.2975214588
 20
7.4553683536
 30
0.0
 10
11.2662954061
 20
7.4620168978
 30
0.0
 10
11.2354583466
 20
7.4708009727
 30
0.0
 10
11.2051597174
 20
7.4816777699
 30
0.0
 10
11.1755463087
 20
7.4945943696
 30
0.0
 10
11.1467615673
 20
7.5094879992
 30
0.0
 10
11.1189449112
 20
7.5262863461
 30
0.0
 10
11.0922310623
 20
7.5449079061
 30
0.0
 10
11.0667494014
 20
7.565262377
 30
0.0
 10
11.0426233489
 20
7.5872510933
 30
0.0
 10
11.0199697727
 20
7.6107675008
 30
0.0
 10
10.9988984277
 20
7.6356976682
 30
0.0
 10
10.9795114296
 20
7.6619208338
 30
0.0
 10
10.9619027626
 20
7.6893099844
 30
0.0
 10
10.9461578203
 20
7.71773246
 30
0.0
 10
10.9323530041
 20
7.7470505998
 30
0.0
 10
10.9205553454
 20
7.777122384
 30
0.0
 10
10.9108222066
 20
7.8078021727
 30
0.0
 10
10.9032009315
 20
7.8389411924
 30
0.0
 10
10.8977287806
 20
7.8703890265
 30
0.0
 10
10.894432422
 20
7.9019912822
 30
0.0
 10
10.8936945541
 20
7.9231158129
 30
0.0
 10
10.8936945541
 20
7.9336494169
 30
0.0
  0
SPLINE
  5
3D0
100
AcDbEntity
  8
0
100
AcDbSpline
 62
7
  6
CONTINUOUS
 70
0
 71
3
 72
39
 73
35
 74
0
 42
0.0000001
 43
0.0000001
 44
0.0000000001
 40
0.0
 40
0.0
 40
0.0
 40
0.0
 40
0.0304133839
 40
0.0609403934
 40
0.0915821277
 40
0.1223383395
 40
0.1532074528
 40
0.1841865967
 40
0.2152716517
 40
0.2464573095
 40
0.2777371424
 40
0.3091036846
 40
0.3405485216
 40
0.3720623892
 40
0.4036352794
 40
0.4352565531
 40
0.4669150558
 40
0.4985992382
 40
0.5302972784
 40
0.561997208
 40
0.5936870375
 40
0.6253548848
 40
0.6569891009
 40
0.6885783942
 40
0.7201119507
 40
0.7515795525
 40
0.7829716895
 40
0.8142796674
 40
0.8454957186
 40
0.8766130438
 40
0.9076261021
 40
0.9385300129
 40
0.9693224006
 40
1.0
 40
1.0
 40
1.0
 40
1.0
 10
11.6364453998
 20
7.6612534967
 30
0.0
 10
11.6283774102
 20
7.6605122505
 30
0.0
 10
11.6121668886
 20
7.6594724097
 30
0.0
 10
11.5877595268
 20
7.6592421278
 30
0.0
 10
11.5632836753
 20
7.6603386993
 30
0.0
 10
11.5388118623
 20
7.6627589353
 30
0.0
 10
11.5144153615
 20
7.6664956478
 30
0.0
 10
11.4901655441
 20
7.6715378352
 30
0.0
 10
11.4661332527
 20
7.6778706824
 30
0.0
 10
11.442388709
 20
7.6854756141
 30
0.0
 10
11.4190012806
 20
7.6943303477
 30
0.0
 10
11.3960392886
 20
7.7044089587
 30
0.0
 10
11.3735698097
 20
7.7156819589
 30
0.0
 10
11.3516584754
 20
7.7281163696
 30
0.0
 10
11.3303692803
 20
7.7416758207
 30
0.0
 10
11.3097644028
 20
7.7563206682
 30
0.0
 10
11.2899040229
 20
7.7720081065
 30
0.0
 10
11.2708461498
 20
7.7886922939
 30
0.0
 10
11.2526464528
 20
7.806324484
 30
0.0
 10
11.2353581019
 20
7.8248531694
 30
0.0
 10
11.2190316069
 20
7.8442242236
 30
0.0
 10
11.203714664
 20
7.8643810565
 30
0.0
 10
11.1894520293
 20
7.8852647898
 30
0.0
 10
11.1762853869
 20
7.9068144253
 30
0.0
 10
11.1642532286
 20
7.928967022
 30
0.0
 10
11.1533907421
 20
7.9516578779
 30
0.0
 10
11.1437297103
 20
7.9748207171
 30
0.0
 10
11.1352984091
 20
7.9983878826
 30
0.0
 10
11.128121533
 20
8.0222905156
 30
0.0
 10
11.1222200707
 20
8.0464588208
 30
0.0
 10
11.1176114212
 20
8.0708220538
 30
0.0
 10
11.1143089585
 20
8.095309424
 30
0.0
 10
11.1123226489
 20
8.1198482415
 30
0.0
 10
11.1118788291
 20
8.1362269007
 30
0.0
 10
11.1118788291
 20
8.1443992554
 30
0.0
  0
SPLINE
  5
3D1
100
AcDbEntity
  8
0
100
AcDbSpline
 62
7
  6
CONTINUOUS
 70
0
 71
3
 72
39
 73
35
 74
0
 42
0.0000001
 43
0.0000001
 44
0.0000000001
 40
0.0
 40
0.0
 40
0.0
 40
0.0
 40
0.0304342553
 40
0.0609816151
 40
0.0916428478
 40
0.1224174101
 40
0.1533034672
 40
0.1842979266
 40
0.2153964869
 40
0.2465936983
 40
0.2778830334
 40
0.3092569664
 40
0.3407070623
 40
0.3722240733
 40
0.4037980411
 40
0.435418408
 40
0.4670741306
 40
0.4987537964
 40
0.5304457438
 40
0.5621381826
 40
0.5938193169
 40
0.6254774679
 40
0.6571011971
 40
0.6886794262
 40
0.7202015541
 40
0.7516575704
 40
0.7830381636
 40
0.8143348255
 40
0.8455399566
 40
0.8766469084
 40
0.9076502706
 40
0.9385452477
 40
0.9693295893
 40
1.0
 40
1.0
 40
1.0
 40
1.0
 10
11.6339865485
 20
7.6972047283
 30
0.0
 10
11.6264781814
 20
7.6966179262
 30
0.0
 10
11.6113982826
 20
7.6958528046
 30
0.0
 10
11.588710038
 20
7.6959300893
 30
0.0
 10
11.5659739894
 20
7.6972297276
 30
0.0
 10
11.5432564656
 20
7.6997479618
 30
0.0
 10
11.5206226082
 20
7.7034774635
 30
0.0
 10
11.4981376113
 20
7.7084074356
 30
0.0
 10
11.4758661469
 20
7.7145236158
 30
0.0
 10
11.4538722871
 20
7.7218083427
 30
0.0
 10
11.4322192925
 20
7.7302406017
 30
0.0
 10
11.4109694407
 20
7.7397960875
 30
0.0
 10
11.390183847
 20
7.7504472729
 30
0.0
 10
11.3699222922
 20
7.7621634904
 30
0.0
 10
11.3502430446
 20
7.7749110063
 30
0.0
 10
11.3312026923
 20
7.7886531213
 30
0.0
 10
11.3128559885
 20
7.8033502872
 30
0.0
 10
11.295255694
 20
7.8189602171
 30
0.0
 10
11.2784524274
 20
7.8354380067
 30
0.0
 10
11.2624945206
 20
7.8527362615
 30
0.0
 10
11.2474278835
 20
7.8708052341
 30
0.0
 10
11.2332958573
 20
7.889592954
 30
0.0
 10
11.220139097
 20
7.909045385
 30
0.0
 10
11.2079954612
 20
7.9291065843
 30
0.0
 10
11.196899903
 20
7.9497188605
 30
0.0
 10
11.1868843707
 20
7.9708229381
 30
0.0
 10
11.1779777162
 20
7.9923581254
 30
0.0
 10
11.17020561
 20
8.0142624906
 30
0.0
 10
11.1635904663
 20
8.0364730192
 30
0.0
 10
11.1581513296
 20
8.0589258565
 30
0.0
 10
11.1539039915
 20
8.081556288
 30
0.0
 10
11.150860577
 20
8.1042995817
 30
0.0
 10
11.1490301437
 20
8.1270892536
 30
0.0
 10
11.1486211705
 20
8.1422999326
 30
0.0
 10
11.1486211705
 20
8.1498896341
 30
0.0
  0
SPLINE
  5
3D2
100
AcDbEntity
  8
0
100
AcDbSpline
 62
7
  6
CONTINUOUS
 70
0
 71
3
 72
24
 73
20
 74
0
 42
0.0000001
 43
0.0000001
 44
0.0000000001
 40
0.0
 40
0.0
 40
0.0
 40
0.0
 40
0.0307591877
 40
0.0616050388
 40
0.123531903
 40
0.1857657788
 40
0.248269529
 40
0.3109985503
 40
0.3739020782
 40
0.4369246108
 40
0.5000074449
 40
0.5630902607
 40
0.6261127367
 40
0.6890161691
 40
0.7517450645
 40
0.8142486569
 40
0.8764823518
 40
0.9384089916
 40
1.0
 40
1.0
 40
1.0
 40
1.0
 10
11.6192270813
 20
7.7782049585
 30
0.0
 10
11.6131547083
 20
7.7791052098
 30
0.0
 10
11.6010293997
 20
7.7811668657
 30
0.0
 10
11.5769147663
 20
7.786321708
 30
0.0
 10
11.5470919558
 20
7.794690516
 30
0.0
 10
11.5121435324
 20
7.8077097966
 30
0.0
 10
11.4782367171
 20
7.8236237628
 30
0.0
 10
11.4456242352
 20
7.8423138557
 30
0.0
 10
11.4145469105
 20
7.8636415115
 30
0.0
 10
11.3852347293
 20
7.8874485139
 30
0.0
 10
11.3579045959
 20
7.9135585989
 30
0.0
 10
11.3327587696
 20
7.9417784307
 30
0.0
 10
11.3099833671
 20
7.9718991296
 30
0.0
 10
11.2897472016
 20
8.0036978751
 30
0.0
 10
11.2722002136
 20
8.0369394122
 30
0.0
 10
11.257472679
 20
8.0713775536
 30
0.0
 10
11.2456740567
 20
8.1067584181
 30
0.0
 10
11.2368925449
 20
8.1428165603
 30
0.0
 10
11.2330817514
 20
8.1672062386
 30
0.0
 10
11.2317022531
 20
8.1794205662
 30
0.0
  0
SPLINE
  5
3D3
100
AcDbEntity
  8
0
100
AcDbSpline
 62
7
  6
CONTINUOUS
 70
0
 71
3
 72
15
 73
11
 74
0
 42
0.0000001
 43
0.0000001
 44
0.0000000001
 40
0.0
 40
0.0
 40
0.0
 40
0.0
 40
0.1453704723
 40
0.2840482116
 40
0.4163642545
 40
0.5427313609
 40
0.663651093
 40
0.7797073106
 40
0.8915710365
 40
1.0
 40
1.0
 40
1.0
 40
1.0
 10
13.0607431779
 20
7.9068688683
 30
0.0
 10
13.0597808114
 20
7.9059392936
 30
0.0
 10
13.0578568445
 20
7.9041671759
 30
0.0
 10
13.0549020824
 20
7.9017237459
 30
0.0
 10
13.0519498491
 20
7.8995609872
 30
0.0
 10
13.0490019356
 20
7.8976806466
 30
0.0
 10
13.0460599932
 20
7.896084052
 30
0.0
 10
13.0431254514
 20
7.8947726182
 30
0.0
 10
13.0402004381
 20
7.8937476193
 30
0.0
 10
13.0382314809
 20
7.8932494814
 30
0.0
 10
13.0372533874
 20
7.8930511869
 30
0.0
  0
SPLINE
  5
3D4
100
AcDbEntity
  8
0
100
AcDbSpline
 62
7
  6
CONTINUOUS
 70
0
 71
3
 72
23
 73
19
 74
0
 42
0.0000001
 43
0.0000001
 44
0.0000000001
 40
0.0
 40
0.0
 40
0.0
 40
0.0
 40
0.0617101454
 40
0.1234413989
 40
0.1852146487
 40
0.247050356
 40
0.3089683484
 40
0.3709876189
 40
0.4331261353
 40
0.495400665
 40
0.5578266135
 40
0.620417907
 40
0.6831868089
 40
0.7461438636
 40
0.809298024
 40
0.8726551577
 40
0.9362228294
 40
1.0
 40
1.0
 40
1.0
 40
1.0
 10
10.7402012712
 20
8.0676635524
 30
0.0
 10
10.7344030022
 20
8.0620628351
 30
0.0
 10
10.723090569
 20
8.0505588733
 30
0.0
 10
10.7070288365
 20
8.0324498824
 30
0.0
 10
10.6919077925
 20
8.0135265092
 30
0.0
 10
10.6777628996
 20
7.9938329992
 30
0.0
 10
10.6646265944
 20
7.9734146351
 30
0.0
 10
10.6525291966
 20
7.9523185604
 30
0.0
 10
10.6414985854
 20
7.9305934198
 30
0.0
 10
10.6315601532
 20
7.9082893407
 30
0.0
 10
10.6227367528
 20
7.8854577756
 30
0.0
 10
10.6150486833
 20
7.8621513788
 30
0.0
 10
10.6085136251
 20
7.8384238967
 30
0.0
 10
10.603146594
 20
7.8143299933
 30
0.0
 10
10.5989599689
 20
7.7899253595
 30
0.0
 10
10.5959631337
 20
7.7652658239
 30
0.0
 10
10.5941632358
 20
7.7404092378
 30
0.0
 10
10.5937644558
 20
7.7237707085
 30
0.0
 10
10.5937644558
 20
7.7154391716
 30
0.0
  0
SPLINE
  5
3D5
100
AcDbEntity
  8
0
100
AcDbSpline
 62
7
  6
CONTINUOUS
 70
0
 71
3
 72
15
 73
11
 74
0
 42
0.0000001
 43
0.0000001
 44
0.0000000001
 40
0.0
 40
0.0
 40
0.0
 40
0.0
 40
0.1234572711
 40
0.2472596132
 40
0.371464773
 40
0.4961232102
 40
0.6212770932
 40
0.7469602255
 40
0.8731958544
 40
1.0
 40
1.0
 40
1.0
 40
1.0
 10
10.8408016927
 20
8.1418711527
 30
0.0
 10
10.8351785675
 20
8.1324422437
 30
0.0
 10
10.8245661013
 20
8.113162057
 30
0.0
 10
10.8106523546
 20
8.0831760885
 30
0.0
 10
10.7987787996
 20
8.0522094483
 30
0.0
 10
10.7889965378
 20
8.0203949537
 30
0.0
 10
10.781346387
 20
7.9878668593
 30
0.0
 10
10.775860587
 20
7.9547624334
 30
0.0
 10
10.772561954
 20
7.9212234081
 30
0.0
 10
10.7718318118
 20
7.8987149939
 30
0.0
 10
10.7718318118
 20
7.8874390399
 30
0.0
  0
SPLINE
  5
3D6
100
AcDbEntity
  8
0
100
AcDbSpline
 62
7
  6
CONTINUOUS
 70
0
 71
3
 72
15
 73
11
 74
0
 42
0.0000001
 43
0.0000001
 44
0.0000000001
 40
0.0
 40
0.0
 40
0.0
 40
0.0
 40
0.1233882443
 40
0.2470995725
 40
0.3712161218
 40
0.4958104374
 40
0.6209438343
 40
0.7466654841
 40
0.8730095791
 40
1.0
 40
1.0
 40
1.0
 40
1.0
 10
10.883958876
 20
8.1626671572
 30
0.0
 10
10.8771002134
 20
8.1529291656
 30
0.0
 10
10.8641293423
 20
8.1328763802
 30
0.0
 10
10.8470713866
 20
8.1013230086
 30
0.0
 10
10.8324778138
 20
8.068427413
 30
0.0
 10
10.8204298612
 20
8.0343720604
 30
0.0
 10
10.8109925441
 20
7.9993428843
 30
0.0
 10
10.8042171993
 20
7.9635310926
 30
0.0
 10
10.8001402034
 20
7.9271349388
 30
0.0
 10
10.7992380874
 20
7.9026701041
 30
0.0
 10
10.7992380874
 20
7.8904114708
 30
0.0
  0
SPLINE
  5
3D7
100
AcDbEntity
  8
0
100
AcDbSpline
 62
7
  6
CONTINUOUS
 70
0
 71
3
 72
15
 73
11
 74
0
 42
0.0000001
 43
0.0000001
 44
0.0000000001
 40
0.0
 40
0.0
 40
0.0
 40
0.0
 40
0.1234511986
 40
0.2472467049
 40
0.3714457392
 40
0.4961000834
 40
0.621253035
 40
0.7469393263
 40
0.8731827972
 40
1.0
 40
1.0
 40
1.0
 40
1.0
 10
10.9020538746
 20
8.1701895424
 30
0.0
 10
10.8965817592
 20
8.161117876
 30
0.0
 10
10.886252964
 20
8.1425602462
 30
0.0
 10
10.872708599
 20
8.1136775356
 30
0.0
 10
10.8611484409
 20
8.0838328144
 30
0.0
 10
10.8516231571
 20
8.05315643
 30
0.0
 10
10.8441732177
 20
8.0217802072
 30
0.0
 10
10.8388305945
 20
7.9898389809
 30
0.0
 10
10.8356179077
 20
7.9574720025
 30
0.0
 10
10.8349068078
 20
7.9357479732
 30
0.0
 10
10.8349068078
 20
7.9248648111
 30
0.0
  0
SPLINE
  5
3D8
100
AcDbEntity
  8
0
100
AcDbSpline
 62
7
  6
CONTINUOUS
 70
0
 71
3
 72
15
 73
11
 74
0
 42
0.0000001
 43
0.0000001
 44
0.0000000001
 40
0.0
 40
0.0
 40
0.0
 40
0.0
 40
0.1233733694
 40
0.2470523798
 40
0.3711316686
 40
0.4956953092
 40
0.6208147035
 40
0.7465472312
 40
0.8729330667
 40
1.0
 40
1.0
 40
1.0
 40
1.0
 10
10.978841445
 20
8.1919680765
 30
0.0
 10
10.9719725998
 20
8.1828936305
 30
0.0
 10
10.9589692196
 20
8.1641394222
 30
0.0
 10
10.9418420035
 20
8.1344523146
 30
0.0
 10
10.9271708113
 20
8.1033540692
 30
0.0
 10
10.9150464307
 20
8.0710364842
 30
0.0
 10
10.9055416308
 20
8.0376957702
 30
0.0
 10
10.8987138591
 20
8.0035342817
 30
0.0
 10
10.8946038485
 20
7.9687622907
 30
0.0
 10
10.8936945541
 20
7.9453711172
 30
0.0
 10
10.8936945541
 20
7.9336494169
 30
0.0
  0
SPLINE
  5
3D9
100
AcDbEntity
  8
0
100
AcDbSpline
 62
7
  6
CONTINUOUS
 70
0
 71
3
 72
25
 73
21
 74
0
 42
0.0000001
 43
0.0000001
 44
0.0000000001
 40
0.0
 40
0.0
 40
0.0
 40
0.0
 40
0.0618726765
 40
0.1239841394
 40
0.1863088313
 40
0.248817326
 40
0.3114768931
 40
0.3742521073
 40
0.4371054933
 40
0.4999981956
 40
0.5628906671
 40
0.6257433643
 40
0.6885174438
 40
0.7198674332
 40
0.7511838842
 40
0.8136904188
 40
0.8760127855
 40
0.9070998962
 40
0.9381302661
 40
1.0
 40
1.0
 40
1.0
 40
1.0
 10
11.5830753911
 20
7.8770348125
 30
0.0
 10
11.5754770689
 20
7.8791812868
 30
0.0
 10
11.5603919207
 20
7.883999683
 30
0.0
 10
11.5382638626
 20
7.8927408841
 30
0.0
 10
11.5166917911
 20
7.9029691525
 30
0.0
 10
11.4957819768
 20
7.914634243
 30
0.0
 10
11.4756357081
 20
7.9276794238
 30
0.0
 10
11.4563510325
 20
7.9420411465
 30
0.0
 10
11.4380216761
 20
7.9576495321
 30
0.0
 10
11.4207367928
 20
7.9744286019
 30
0.0
 10
11.4045803432
 20
7.9922968931
 30
0.0
 10
11.3896312592
 20
8.0111669612
 30
0.0
 10
11.3782340757
 20
8.0276597326
 30
0.0
 10
11.3697902054
 20
8.0412621774
 30
0.0
 10
11.3618140254
 20
8.0551046912
 30
0.0
 10
11.3527217008
 20
8.0728525426
 30
0.0
 10
11.3448336436
 20
8.0911357197
 30
0.0
 10
11.3392779168
 20
8.1060150472
 30
0.0
 10
11.3342405478
 20
8.1210161602
 30
0.0
 10
11.3310326125
 20
8.132441286
 30
0.0
 10
11.3291569101
 20
8.1401105534
 30
0.0
  0
SPLINE
  5
3DA
100
AcDbEntity
  8
0
100
AcDbSpline
 62
7
  6
CONTINUOUS
 70
0
 71
3
 72
64
 73
60
 74
0
 42
0.0000001
 43
0.0000001
 44
0.0000000001
 40
0.0
 40
0.0
 40
0.0
 40
0.0
 40
0.0080089169
 40
0.0166792562
 40
0.0260321349
 40
0.0360808128
 40
0.0468306827
 40
0.058281289
 40
0.0704274454
 40
0.0832598607
 40
0.0967657678
 40
0.1109294622
 40
0.1257326285
 40
0.1411545797
 40
0.157172577
 40
0.1737620295
 40
0.1908965969
 40
0.208548394
 40
0.2266881501
 40
0.2452852769
 40
0.2643079935
 40
0.283723476
 40
0.3235958652
 40
0.364622951
 40
0.4065134459
 40
0.4489680352
 40
0.4916822075
 40
0.534349089
 40
0.5766622376
 40
0.6183184445
 40
0.6590205473
 40
0.6984803268
 40
0.7176578575
 40
0.736422289
 40
0.7547414282
 40
0.7725842052
 40
0.7899208382
 40
0.8067228971
 40
0.8229634204
 40
0.8386171313
 40
0.8536605631
 40
0.8680722076
 40
0.8818328035
 40
0.8949256141
 40
0.9073366929
 40
0.9190553432
 40
0.9300747195
 40
0.9403924524
 40
0.9500115906
 40
0.9589419415
 40
0.9631547734
 40
0.9672030668
 40
0.9710907655
 40
0.9748226984
 40
0.9818409336
 40
0.9883187414
 40
0.9943359152
 40
0.9972051482
 40
1.0
 40
1.0
 40
1.0
 40
1.0
 10
13.0607431779
 20
7.9068688683
 30
0.0
 10
13.0625252898
 20
7.9085902563
 30
0.0
 10
13.0660807333
 20
7.9123385885
 30
0.0
 10
13.0711950408
 20
7.918566719
 30
0.0
 10
13.0762883845
 20
7.9256068616
 30
0.0
 10
13.0813513674
 20
7.9334456161
 30
0.0
 10
13.0863750723
 20
7.9420690127
 30
0.0
 10
13.0913501361
 20
7.951461076
 30
0.0
 10
13.096267198
 20
7.9616043414
 30
0.0
 10
13.1011168989
 20
7.9724797821
 30
0.0
 10
13.1058899916
 20
7.984066862
 30
0.0
 10
13.1105773088
 20
7.9963436343
 30
0.0
 10
13.1151698227
 20
8.0092867789
 30
0.0
 10
13.1196587212
 20
8.0228716364
 30
0.0
 10
13.1240353623
 20
8.0370722964
 30
0.0
 10
13.1282912975
 20
8.0518616515
 30
0.0
 10
13.1324183483
 20
8.0672114312
 30
0.0
 10
13.136408578
 20
8.0830922754
 30
0.0
 10
13.1402542916
 20
8.0994738068
 30
0.0
 10
13.143948081
 20
8.1163246631
 30
0.0
 10
13.1474828926
 20
8.1336125987
 30
0.0
 10
13.1520148875
 20
8.1574125244
 30
0.0
 10
13.1572209712
 20
8.1880108699
 30
0.0
 10
13.1626817814
 20
8.2256073382
 30
0.0
 10
13.1673677369
 20
8.2641130451
 30
0.0
 10
13.1712427281
 20
8.3032331464
 30
0.0
 10
13.1742769571
 20
8.3426682824
 30
0.0
 10
13.1764471273
 20
8.3821165808
 30
0.0
 10
13.1777367177
 20
8.4212760628
 30
0.0
 10
13.1781360803
 20
8.4598470614
 30
0.0
 10
13.1776423741
 20
8.4975342188
 30
0.0
 10
13.1764798059
 20
8.5282486147
 30
0.0
 10
13.1750929806
 20
8.5521548544
 30
0.0
 10
13.173843948
 20
8.5695160956
 30
0.0
 10
13.172378663
 20
8.5864460026
 30
0.0
 10
13.1706999154
 20
8.6029121869
 30
0.0
 10
13.1688109891
 20
8.6188831283
 30
0.0
 10
13.1667155467
 20
8.6343282732
 30
0.0
 10
13.1644176281
 20
8.6492180811
 30
0.0
 10
13.1619217012
 20
8.6635241034
 30
0.0
 10
13.1592326165
 20
8.6772190349
 30
0.0
 10
13.1563555636
 20
8.6902767601
 30
0.0
 10
13.1532961102
 20
8.702672429
 30
0.0
 10
13.1500601906
 20
8.7143825217
 30
0.0
 10
13.1466540293
 20
8.7253848799
 30
0.0
 10
13.1430841305
 20
8.7356587948
 30
0.0
 10
13.1393573131
 20
8.7451850399
 30
0.0
 10
13.1354805179
 20
8.7539460897
 30
0.0
 10
13.1314608969
 20
8.7619255354
 30
0.0
 10
13.1279324501
 20
8.7680257374
 30
0.0
 10
13.1250353274
 20
8.7724871443
 30
0.0
 10
13.1228738635
 20
8.775563019
 30
0.0
 10
13.1206823376
 20
8.7784327546
 30
0.0
 10
13.1177809298
 20
8.7819110303
 30
0.0
 10
13.114088257
 20
8.7857678572
 30
0.0
 10
13.1094514526
 20
8.7896542026
 30
0.0
 10
13.1054327132
 20
8.7922243467
 30
0.0
 10
13.1021863449
 20
8.7938187856
 30
0.0
 10
13.1005558815
 20
8.7944669661
 30
0.0
 10
13.0997398649
 20
8.7947528439
 30
0.0
  0
SPLINE
  5
3DB
100
AcDbEntity
  8
0
100
AcDbSpline
 62
7
  6
CONTINUOUS
 70
0
 71
3
 72
15
 73
11
 74
0
 42
0.0000001
 43
0.0000001
 44
0.0000000001
 40
0.0
 40
0.0
 40
0.0
 40
0.0
 40
0.0770449349
 40
0.1617951275
 40
0.25667265
 40
0.3647466915
 40
0.489863244
 40
0.6363807409
 40
0.8073923462
 40
1.0
 40
1.0
 40
1.0
 40
1.0
 10
10.761116955
 20
7.7215591861
 30
0.0
 10
10.7621026014
 20
7.7211475799
 30
0.0
 10
10.7641197604
 20
7.7201522867
 30
0.0
 10
10.7671113593
 20
7.718211777
 30
0.0
 10
10.7701987004
 20
7.7156734586
 30
0.0
 10
10.7733857994
 20
7.7124168006
 30
0.0
 10
10.7766639599
 20
7.7082863294
 30
0.0
 10
10.7799857819
 20
7.7031145507
 30
0.0
 10
10.7832226247
 20
7.6968148735
 30
0.0
 10
10.7851088863
 20
7.6921313256
 30
0.0
 10
10.786002968
 20
7.6896151754
 30
0.0
  0
SPLINE
  5
3DC
100
AcDbEntity
  8
0
100
AcDbSpline
 62
7
  6
CONTINUOUS
 70
0
 71
3
 72
12
 73
8
 74
0
 42
0.0000001
 43
0.0000001
 44
0.0000000001
 40
0.0
 40
0.0
 40
0.0
 40
0.0
 40
0.1054700756
 40
0.2165109935
 40
0.4553322604
 40
0.716517282
 40
1.0
 40
1.0
 40
1.0
 40
1.0
 10
11.0435249267
 20
8.1824760158
 30
0.0
 10
11.0441539566
 20
8.1830836121
 30
0.0
 10
11.0454253334
 20
8.1843516358
 30
0.0
 10
11.0480231605
 20
8.1870919735
 30
0.0
 10
11.0513657307
 20
8.1909025224
 30
0.0
 10
11.0554469972
 20
8.1959589622
 30
0.0
 10
11.0581637968
 20
8.1995678885
 30
0.0
 10
11.059552433
 20
8.2014645155
 30
0.0
  0
SPLINE
  5
3DD
100
AcDbEntity
  8
0
100
AcDbSpline
 62
4
  6
CONTINUOUS
 70
0
 71
3
 72
281
 73
277
 74
0
 42
0.0000001
 43
0.0000001
 44
0.0000000001
 40
0.0
 40
0.0
 40
0.0
 40
0.0
 40
0.015625
 40
0.03125
 40
0.0390625
 40
0.046875
 40
0.0546875
 40
0.05859375
 40
0.060546875
 40
0.0625
 40
0.064453125
 40
0.06640625
 40
0.0703125
 40
0.078125
 40
0.0859375
 40
0.09375
 40
0.1015625
 40
0.109375
 40
0.1171875
 40
0.12109375
 40
0.123046875
 40
0.125
 40
0.126953125
 40
0.12890625
 40
0.1328125
 40
0.140625
 40
0.1484375
 40
0.15625
 40
0.1640625
 40
0.171875
 40
0.17578125
 40
0.1796875
 40
0.18359375
 40
0.185546875
 40
0.1865234375
 40
0.1875
 40
0.1884765625
 40
0.189453125
 40
0.19140625
 40
0.1953125
 40
0.19921875
 40
0.203125
 40
0.2109375
 40
0.21875
 40
0.2265625
 40
0.234375
 40
0.23828125
 40
0.2421875
 40
0.24609375
 40
0.248046875
 40
0.2490234375
 40
0.25
 40
0.2509765625
 40
0.251953125
 40
0.25390625
 40
0.2578125
 40
0.26171875
 40
0.265625
 40
0.2734375
 40
0.28125
 40
0.2890625
 40
0.296875
 40
0.30078125
 40
0.3046875
 40
0.306640625
 40
0.30859375
 40
0.310546875
 40
0.3115234375
 40
0.3120117188
 40
0.3125
 40
0.3129882812
 40
0.3134765625
 40
0.314453125
 40
0.31640625
 40
0.318359375
 40
0.3203125
 40
0.32421875
 40
0.328125
 40
0.3359375
 40
0.34375
 40
0.3515625
 40
0.359375
 40
0.36328125
 40
0.3671875
 40
0.369140625
 40
0.37109375
 40
0.373046875
 40
0.3740234375
 40
0.3745117188
 40
0.375
 40
0.3754882812
 40
0.3759765625
 40
0.376953125
 40
0.37890625
 40
0.380859375
 40
0.3828125
 40
0.38671875
 40
0.390625
 40
0.3984375
 40
0.40625
 40
0.4140625
 40
0.421875
 40
0.42578125
 40
0.4296875
 40
0.431640625
 40
0.43359375
 40
0.435546875
 40
0.4365234375
 40
0.4370117188
 40
0.4375
 40
0.4379882812
 40
0.4384765625
 40
0.439453125
 40
0.44140625
 40
0.443359375
 40
0.4453125
 40
0.44921875
 40
0.453125
 40
0.4609375
 40
0.46875
 40
0.4765625
 40
0.484375
 40
0.48828125
 40
0.4921875
 40
0.494140625
 40
0.49609375
 40
0.498046875
 40
0.4990234375
 40
0.4995117188
 40
0.5
 40
0.5004882812
 40
0.5009765625
 40
0.501953125
 40
0.50390625
 40
0.505859375
 40
0.5078125
 40
0.51171875
 40
0.515625
 40
0.5234375
 40
0.53125
 40
0.5390625
 40
0.546875
 40
0.55078125
 40
0.5546875
 40
0.556640625
 40
0.55859375
 40
0.560546875
 40
0.5615234375
 40
0.5620117188
 40
0.5625
 40
0.5629882812
 40
0.5634765625
 40
0.564453125
 40
0.56640625
 40
0.568359375
 40
0.5703125
 40
0.57421875
 40
0.578125
 40
0.5859375
 40
0.59375
 40
0.6015625
 40
0.609375
 40
0.61328125
 40
0.6171875
 40
0.619140625
 40
0.62109375
 40
0.623046875
 40
0.6240234375
 40
0.6245117188
 40
0.625
 40
0.6254882812
 40
0.6259765625
 40
0.626953125
 40
0.62890625
 40
0.630859375
 40
0.6328125
 40
0.63671875
 40
0.640625
 40
0.6484375
 40
0.65625
 40
0.6640625
 40
0.671875
 40
0.67578125
 40
0.6796875
 40
0.681640625
 40
0.68359375
 40
0.685546875
 40
0.6865234375
 40
0.6870117188
 40
0.6875
 40
0.6879882812
 40
0.6884765625
 40
0.689453125
 40
0.69140625
 40
0.693359375
 40
0.6953125
 40
0.69921875
 40
0.703125
 40
0.7109375
 40
0.71875
 40
0.7265625
 40
0.734375
 40
0.73828125
 40
0.7421875
 40
0.744140625
 40
0.74609375
 40
0.748046875
 40
0.7490234375
 40
0.7495117188
 40
0.75
 40
0.7504882812
 40
0.7509765625
 40
0.751953125
 40
0.75390625
 40
0.755859375
 40
0.7578125
 40
0.76171875
 40
0.765625
 40
0.7734375
 40
0.78125
 40
0.7890625
 40
0.796875
 40
0.80078125
 40
0.8046875
 40
0.806640625
 40
0.80859375
 40
0.810546875
 40
0.8115234375
 40
0.8120117188
 40
0.8125
 40
0.8129882812
 40
0.8134765625
 40
0.814453125
 40
0.81640625
 40
0.818359375
 40
0.8203125
 40
0.82421875
 40
0.828125
 40
0.8359375
 40
0.84375
 40
0.8515625
 40
0.859375
 40
0.86328125
 40
0.8671875
 40
0.869140625
 40
0.87109375
 40
0.873046875
 40
0.8740234375
 40
0.875
 40
0.8759765625
 40
0.876953125
 40
0.87890625
 40
0.880859375
 40
0.8828125
 40
0.88671875
 40
0.890625
 40
0.8984375
 40
0.90625
 40
0.9140625
 40
0.921875
 40
0.92578125
 40
0.9296875
 40
0.93359375
 40
0.935546875
 40
0.9365234375
 40
0.9375
 40
0.9384765625
 40
0.939453125
 40
0.94140625
 40
0.9453125
 40
0.94921875
 40
0.953125
 40
0.9609375
 40
0.96875
 40
0.984375
 40
1.0
 40
1.0
 40
1.0
 40
1.0
 10
10.1691854317
 20
10.0264131518
 30
0.0
 10
10.1724009357
 20
10.0262753767
 30
0.0
 10
10.1788319527
 20
10.0259998621
 30
0.0
 10
10.1868706784
 20
10.0256552911
 30
0.0
 10
10.1933017548
 20
10.0253800075
 30
0.0
 10
10.198124802
 20
10.0251725316
 30
0.0
 10
10.2021448349
 20
10.025002857
 30
0.0
 10
10.2049572353
 20
10.0248777619
 30
0.0
 10
10.2065668548
 20
10.0248161516
 30
0.0
 10
10.2077669323
 20
10.0247421326
 30
0.0
 10
10.2089942915
 20
10.0247744224
 30
0.0
 10
10.2106212542
 20
10.0247803936
 30
0.0
 10
10.2134728725
 20
10.024808121
 30
0.0
 10
10.2175442968
 20
10.024838693
 30
0.0
 10
10.2224309897
 20
10.0248792728
 30
0.0
 10
10.2273174535
 20
10.0249187407
 30
0.0
 10
10.23220385
 20
10.024958763
 30
0.0
 10
10.2370907449
 20
10.0249976793
 30
0.0
 10
10.241161552
 20
10.0250333343
 30
0.0
 10
10.24401427
 20
10.0250520046
 30
0.0
 10
10.2456394709
 20
10.0250724857
 30
0.0
 10
10.2468722418
 20
10.0250602061
 30
0.0
 10
10.2480519938
 20
10.0251535821
 30
0.0
 10
10.24964349
 20
10.0252412295
 30
0.0
 10
10.2524199918
 20
10.0254117836
 30
0.0
 10
10.2563909289
 20
10.0256464533
 30
0.0
 10
10.2611541199
 20
10.0259319081
 30
0.0
 10
10.2659178352
 20
10.0262163244
 30
0.0
 10
10.2706813869
 20
10.0265010439
 30
0.0
 10
10.2746511218
 20
10.0267381646
 30
0.0
 10
10.2778267311
 20
10.026928059
 30
0.0
 10
10.2802089088
 20
10.0270699737
 30
0.0
 10
10.2821925625
 20
10.0271898403
 30
0.0
 10
10.2835840522
 20
10.0272705992
 30
0.0
 10
10.284374611
 20
10.027321662
 30
0.0
 10
10.2849804269
 20
10.027346114
 30
0.0
 10
10.2855369447
 20
10.0274234887
 30
0.0
 10
10.2862961641
 20
10.0275081949
 30
0.0
 10
10.2876167863
 20
10.0276650316
 30
0.0
 10
10.2895075781
 20
10.0278845875
 30
0.0
 10
10.2917747353
 20
10.0281499792
 30
0.0
 10
10.2947982384
 20
10.0285031624
 30
0.0
 10
10.2985773987
 20
10.0289448734
 30
0.0
 10
10.3031124998
 20
10.0294748216
 30
0.0
 10
10.3076475155
 20
10.0300048186
 30
0.0
 10
10.3114268891
 20
10.0304464074
 30
0.0
 10
10.3144499656
 20
10.0307998351
 30
0.0
 10
10.3167184239
 20
10.031064481
 30
0.0
 10
10.3186051453
 20
10.0312863701
 30
0.0
 10
10.3199330338
 20
10.0314390416
 30
0.0
 10
10.3206806108
 20
10.0315304215
 30
0.0
 10
10.3212728904
 20
10.0315872968
 30
0.0
 10
10.3217443907
 20
10.0316887412
 30
0.0
 10
10.3224151868
 20
10.0318084543
 30
0.0
 10
10.3235694514
 20
10.0320251954
 30
0.0
 10
10.3252286629
 20
10.0323310386
 30
0.0
 10
10.3272153241
 20
10.0326996715
 30
0.0
 10
10.3298657402
 20
10.0331906157
 30
0.0
 10
10.3331782334
 20
10.0338044904
 30
0.0
 10
10.3371534527
 20
10.0345410562
 30
0.0
 10
10.341128605
 20
10.0352776463
 30
0.0
 10
10.3444412659
 20
10.0358914603
 30
0.0
 10
10.3470913465
 20
10.036382526
 30
0.0
 10
10.3487477502
 20
10.0366894114
 30
0.0
 10
10.3500726373
 20
10.0369349895
 30
0.0
 10
10.3510669484
 20
10.0371189822
 30
0.0
 10
10.3518934865
 20
10.0372729168
 30
0.0
 10
10.3524760949
 20
10.037379479
 30
0.0
 10
10.3528027188
 20
10.0374422329
 30
0.0
 10
10.3530654205
 20
10.0374840554
 30
0.0
 10
10.3532603347
 20
10.037545919
 30
0.0
 10
10.3535438653
 20
10.0376214132
 30
0.0
 10
10.3540290272
 20
10.0377567852
 30
0.0
 10
10.3547278753
 20
10.0379484709
 30
0.0
 10
10.3555640278
 20
10.0381792225
 30
0.0
 10
10.3566797587
 20
10.0384866369
 30
0.0
 10
10.3580741276
 20
10.0388709919
 30
0.0
 10
10.3603052826
 20
10.0394859113
 30
0.0
 10
10.3630941694
 20
10.0402545774
 30
0.0
 10
10.3664408599
 20
10.041176969
 30
0.0
 10
10.3697875361
 20
10.0420993642
 30
0.0
 10
10.3725764587
 20
10.0428680215
 30
0.0
 10
10.374807542
 20
10.0434829583
 30
0.0
 10
10.3762020931
 20
10.0438672691
 30
0.0
 10
10.3773174502
 20
10.0441747743
 30
0.0
 10
10.3781547448
 20
10.0444052484
 30
0.0
 10
10.3788500192
 20
10.0445978026
 30
0.0
 10
10.3793415608
 20
10.044731624
 30
0.0
 10
10.3796148696
 20
10.0448096026
 30
0.0
 10
10.3798411819
 20
10.044863835
 30
0.0
 10
10.3799859575
 20
10.0449343191
 30
0.0
 10
10.3802074326
 20
10.045022629
 30
0.0
 10
10.3805817628
 20
10.0451798127
 30
0.0
 10
10.3811234482
 20
10.0454029799
 30
0.0
 10
10.3817705052
 20
10.0456713715
 30
0.0
 10
10.3826342837
 20
10.0460290207
 30
0.0
 10
10.3837136522
 20
10.0464761528
 30
0.0
 10
10.38544084
 20
10.0471915247
 30
0.0
 10
10.3875997563
 20
10.0480857531
 30
0.0
 10
10.3901904874
 20
10.0491588211
 30
0.0
 10
10.392781202
 20
10.050231892
 30
0.0
 10
10.3949401593
 20
10.0511261132
 30
0.0
 10
10.396667265
 20
10.0518414997
 30
0.0
 10
10.3977468424
 20
10.0522885947
 30
0.0
 10
10.3986101921
 20
10.05264632
 30
0.0
 10
10.3992585592
 20
10.0529144788
 30
0.0
 10
10.3997961458
 20
10.0531383748
 30
0.0
 10
10.4001777929
 20
10.0532942574
 30
0.0
 10
10.4003875446
 20
10.0533846519
 30
0.0
 10
10.4005683307
 20
10.053448733
 30
0.0
 10
10.4006593936
 20
10.0535270139
 30
0.0
 10
10.4008121073
 20
10.0536264354
 30
0.0
 10
10.4010647746
 20
10.0538027308
 30
0.0
 10
10.4014333513
 20
10.0540533748
 30
0.0
 10
10.4018723803
 20
10.0543546641
 30
0.0
 10
10.4024588921
 20
10.0547562027
 30
0.0
 10
10.4031916415
 20
10.0552581878
 30
0.0
 10
10.4043642588
 20
10.0560613294
 30
0.0
 10
10.4058299549
 20
10.0570652682
 30
0.0
 10
10.4075888251
 20
10.0582699896
 30
0.0
 10
10.4093476767
 20
10.0594747128
 30
0.0
 10
10.4108134192
 20
10.0604786471
 30
0.0
 10
10.4119859437
 20
10.0612817978
 30
0.0
 10
10.4127189289
 20
10.0617837598
 30
0.0
 10
10.4133049567
 20
10.0621853458
 30
0.0
 10
10.4137454643
 20
10.0624864904
 30
0.0
 10
10.4141094147
 20
10.0627375869
 30
0.0
 10
10.4143703408
 20
10.0629130746
 30
0.0
 10
10.4145098219
 20
10.0630137902
 30
0.0
 10
10.4146415312
 20
10.063088096
 30
0.0
 10
10.4146696559
 20
10.0631671072
 30
0.0
 10
10.414743287
 20
10.0632708143
 30
0.0
 10
10.414855307
 20
10.0634530663
 30
0.0
 10
10.4150241369
 20
10.0637130264
 30
0.0
 10
10.4152229655
 20
10.0640251498
 30
0.0
 10
10.4154893861
 20
10.0644412545
 30
0.0
 10
10.4158219613
 20
10.0649614059
 30
0.0
 10
10.4163543335
 20
10.0657936366
 30
0.0
 10
10.4170197117
 20
10.0668339289
 30
0.0
 10
10.4178182054
 20
10.068082278
 30
0.0
 10
10.4186166793
 20
10.0693306277
 30
0.0
 10
10.4192821071
 20
10.0703709185
 30
0.0
 10
10.4198143803
 20
10.0712031523
 30
0.0
 10
10.4201472071
 20
10.0717232958
 30
0.0
 10
10.4204131112
 20
10.0721394167
 30
0.0
 10
10.4206135177
 20
10.0724514905
 30
0.0
 10
10.4207774109
 20
10.0727116056
 30
0.0
 10
10.4208982436
 20
10.0728935811
 30
0.0
 10
10.4209577546
 20
10.0729977311
 30
0.0
 10
10.4210292515
 20
10.0730753818
 30
0.0
 10
10.420998062
 20
10.0731547977
 30
0.0
 10
10.4209922942
 20
10.0732600698
 30
0.0
 10
10.4209655121
 20
10.073444583
 30
0.0
 10
10.4209359769
 20
10.0737080232
 30
0.0
 10
10.4208968001
 20
10.0740242156
 30
0.0
 10
10.4208458688
 20
10.0744457832
 30
0.0
 10
10.420781758
 20
10.0749727502
 30
0.0
 10
10.4206794305
 20
10.0758158933
 30
0.0
 10
10.4205514348
 20
10.0768698235
 30
0.0
 10
10.4203978794
 20
10.0781345393
 30
0.0
 10
10.4202443044
 20
10.0793992549
 30
0.0
 10
10.4201163578
 20
10.0804531856
 30
0.0
 10
10.420013932
 20
10.0812963278
 30
0.0
 10
10.419950071
 20
10.0818232969
 30
0.0
 10
10.4198986271
 20
10.0822448603
 30
0.0
 10
10.4198610164
 20
10.0825610655
 30
0.0
 10
10.4198265812
 20
10.0828244658
 30
0.0
 10
10.4198085464
 20
10.0830090501
 30
0.0
 10
10.4197887633
 20
10.0831142083
 30
0.0
 10
10.4198006244
 20
10.0831939744
 30
0.0
 10
10.4197104301
 20
10.0832703099
 30
0.0
 10
10.4196257691
 20
10.0833732872
 30
0.0
 10
10.4194610266
 20
10.0835529399
 30
0.0
 10
10.4192343513
 20
10.0838098782
 30
0.0
 10
10.4189586294
 20
10.0841180793
 30
0.0
 10
10.4185922966
 20
10.0845290578
 30
0.0
 10
10.4181339367
 20
10.0850427659
 30
0.0
 10
10.417400809
 20
10.0858647072
 30
0.0
 10
10.4164843137
 20
10.086892131
 30
0.0
 10
10.4153845586
 20
10.088125041
 30
0.0
 10
10.4142847838
 20
10.08935795
 30
0.0
 10
10.4133683375
 20
10.0903853761
 30
0.0
 10
10.4126351118
 20
10.0912073128
 30
0.0
 10
10.4121770011
 20
10.0917210329
 30
0.0
 10
10.4118101568
 20
10.0921319867
 30
0.0
 10
10.4115359976
 20
10.0924402629
 30
0.0
 10
10.411304433
 20
10.0926969664
 30
0.0
 10
10.4111484186
 20
10.0928770383
 30
0.0
 10
10.4110497729
 20
10.092979344
 30
0.0
 10
10.4110025352
 20
10.0930577423
 30
0.0
 10
10.4108530587
 20
10.0931297609
 30
0.0
 10
10.4106894187
 20
10.0932280111
 30
0.0
 10
10.4103864331
 20
10.093398912
 30
0.0
 10
10.4099622835
 20
10.0936435983
 30
0.0
 10
10.4094495856
 20
10.0939369898
 30
0.0
 10
10.4087672872
 20
10.0943282595
 30
0.0
 10
10.4079139694
 20
10.0948173189
 30
0.0
 10
10.4065489096
 20
10.0955998294
 30
0.0
 10
10.4048424991
 20
10.0965779622
 30
0.0
 10
10.4027948453
 20
10.0977517242
 30
0.0
 10
10.4007471735
 20
10.098925484
 30
0.0
 10
10.3990408082
 20
10.0999036221
 30
0.0
 10
10.397675658
 20
10.100686122
 30
0.0
 10
10.39682257
 20
10.1011752083
 30
0.0
 10
10.3961398
 20
10.1015664229
 30
0.0
 10
10.3956285428
 20
10.1018599827
 30
0.0
 10
10.3951998857
 20
10.1021041422
 30
0.0
 10
10.3949049467
 20
10.1022759835
 30
0.0
 10
10.3947284141
 20
10.102372727
 30
0.0
 10
10.3946185395
 20
10.1024493736
 30
0.0
 10
10.3944225637
 20
10.1025103902
 30
0.0
 10
10.3941912956
 20
10.1025971975
 30
0.0
 10
10.3937725836
 20
10.1027465702
 30
0.0
 10
10.3931817393
 20
10.1029612878
 30
0.0
 10
10.3924695948
 20
10.1032183805
 30
0.0
 10
10.3915211624
 20
10.1035613692
 30
0.0
 10
10.3903352475
 20
10.1039900372
 30
0.0
 10
10.388437993
 20
10.104675944
 30
0.0
 10
10.3860663527
 20
10.1055333143
 30
0.0
 10
10.383220417
 20
10.1065621648
 30
0.0
 10
10.3803744657
 20
10.1075910121
 30
0.0
 10
10.3780028646
 20
10.1084483904
 30
0.0
 10
10.3761055316
 20
10.1091342812
 30
0.0
 10
10.3749198162
 20
10.1095629897
 30
0.0
 10
10.3739709744
 20
10.1099058954
 30
0.0
 10
10.3732600808
 20
10.1101632418
 30
0.0
 10
10.3726653227
 20
10.1103771655
 30
0.0
 10
10.3722535974
 20
10.1105279555
 30
0.0
 10
10.3720111349
 20
10.1106124919
 30
0.0
 10
10.3718495451
 20
10.1106804841
 30
0.0
 10
10.3716105223
 20
10.1107309315
 30
0.0
 10
10.3713188347
 20
10.1108043146
 30
0.0
 10
10.3707957972
 20
10.1109298836
 30
0.0
 10
10.37005518
 20
10.1111107587
 30
0.0
 10
10.3691636233
 20
10.1113271707
 30
0.0
 10
10.3679758646
 20
10.1116159429
 30
0.0
 10
10.3664908294
 20
10.1119768318
 30
0.0
 10
10.3641149612
 20
10.1125542967
 30
0.0
 10
10.3611450624
 20
10.1132761135
 30
0.0
 10
10.3575812069
 20
10.1141422984
 30
0.0
 10
10.3540173609
 20
10.1150084873
 30
0.0
 10
10.3510474382
 20
10.115730294
 30
0.0
 10
10.3486716179
 20
10.1163077791
 30
0.0
 10
10.347186461
 20
10.1166686168
 30
0.0
 10
10.3459989521
 20
10.1169574941
 30
0.0
 10
10.3451066323
 20
10.1171735848
 30
0.0
 10
10.3443684023
 20
10.1173554651
 30
0.0
 10
10.3437657749
 20
10.1174969217
 30
0.0
 10
10.3433467125
 20
10.1176140741
 30
0.0
 10
10.3428020395
 20
10.1176890108
 30
0.0
 10
10.3421196863
 20
10.1178036729
 30
0.0
 10
10.3412516907
 20
10.1179419412
 30
0.0
 10
10.3402165395
 20
10.1181100286
 30
0.0
 10
10.3388340874
 20
10.1183333888
 30
0.0
 10
10.3371067928
 20
10.1186128481
 30
0.0
 10
10.3343426912
 20
10.1190598383
 30
0.0
 10
10.3308877087
 20
10.1196186244
 30
0.0
 10
10.3267416813
 20
10.1202891527
 30
0.0
 10
10.322595616
 20
10.1209596635
 30
0.0
 10
10.3191407286
 20
10.1215184935
 30
0.0
 10
10.3163764368
 20
10.1219653958
 30
0.0
 10
10.3143042633
 20
10.122301015
 30
0.0
 10
10.3125741266
 20
10.1225792901
 30
0.0
 10
10.3113695571
 20
10.122776845
 30
0.0
 10
10.3106710415
 20
10.1228854204
 30
0.0
 10
10.3101758608
 20
10.1229790021
 30
0.0
 10
10.3095709512
 20
10.1230261397
 30
0.0
 10
10.3088026798
 20
10.1231051901
 30
0.0
 10
10.307440372
 20
10.1232359803
 30
0.0
 10
10.3055035412
 20
10.1234267695
 30
0.0
 10
10.3031753536
 20
10.1236540275
 30
0.0
 10
10.3000724972
 20
10.1239576282
 30
0.0
 10
10.2961934496
 20
10.124336927
 30
0.0
 10
10.2899872402
 20
10.1249439181
 30
0.0
 10
10.2822293862
 20
10.1257026179
 30
0.0
 10
10.2760231312
 20
10.1263095896
 30
0.0
 10
10.2729200001
 20
10.126613074
 30
0.0
  0
SPLINE
  5
3DE
100
AcDbEntity
  8
0
100
AcDbSpline
 62
4
  6
CONTINUOUS
 70
0
 71
3
 72
281
 73
277
 74
0
 42
0.0000001
 43
0.0000001
 44
0.0000000001
 40
0.0
 40
0.0
 40
0.0
 40
0.0
 40
0.015625
 40
0.03125
 40
0.0390625
 40
0.046875
 40
0.0546875
 40
0.05859375
 40
0.060546875
 40
0.0625
 40
0.064453125
 40
0.06640625
 40
0.0703125
 40
0.078125
 40
0.0859375
 40
0.09375
 40
0.1015625
 40
0.109375
 40
0.1171875
 40
0.12109375
 40
0.123046875
 40
0.125
 40
0.126953125
 40
0.12890625
 40
0.1328125
 40
0.140625
 40
0.1484375
 40
0.15625
 40
0.1640625
 40
0.171875
 40
0.17578125
 40
0.1796875
 40
0.18359375
 40
0.185546875
 40
0.1865234375
 40
0.1875
 40
0.1884765625
 40
0.189453125
 40
0.19140625
 40
0.1953125
 40
0.19921875
 40
0.203125
 40
0.2109375
 40
0.21875
 40
0.2265625
 40
0.234375
 40
0.23828125
 40
0.2421875
 40
0.24609375
 40
0.248046875
 40
0.2490234375
 40
0.25
 40
0.2509765625
 40
0.251953125
 40
0.25390625
 40
0.2578125
 40
0.26171875
 40
0.265625
 40
0.2734375
 40
0.28125
 40
0.2890625
 40
0.296875
 40
0.30078125
 40
0.3046875
 40
0.306640625
 40
0.30859375
 40
0.310546875
 40
0.3115234375
 40
0.3120117188
 40
0.3125
 40
0.3129882812
 40
0.3134765625
 40
0.314453125
 40
0.31640625
 40
0.318359375
 40
0.3203125
 40
0.32421875
 40
0.328125
 40
0.3359375
 40
0.34375
 40
0.3515625
 40
0.359375
 40
0.36328125
 40
0.3671875
 40
0.369140625
 40
0.37109375
 40
0.373046875
 40
0.3740234375
 40
0.3745117188
 40
0.375
 40
0.3754882812
 40
0.3759765625
 40
0.376953125
 40
0.37890625
 40
0.380859375
 40
0.3828125
 40
0.38671875
 40
0.390625
 40
0.3984375
 40
0.40625
 40
0.4140625
 40
0.421875
 40
0.42578125
 40
0.4296875
 40
0.431640625
 40
0.43359375
 40
0.435546875
 40
0.4365234375
 40
0.4370117188
 40
0.4375
 40
0.4379882812
 40
0.4384765625
 40
0.439453125
 40
0.44140625
 40
0.443359375
 40
0.4453125
 40
0.44921875
 40
0.453125
 40
0.4609375
 40
0.46875
 40
0.4765625
 40
0.484375
 40
0.48828125
 40
0.4921875
 40
0.494140625
 40
0.49609375
 40
0.498046875
 40
0.4990234375
 40
0.4995117188
 40
0.5
 40
0.5004882812
 40
0.5009765625
 40
0.501953125
 40
0.50390625
 40
0.505859375
 40
0.5078125
 40
0.51171875
 40
0.515625
 40
0.5234375
 40
0.53125
 40
0.5390625
 40
0.546875
 40
0.55078125
 40
0.5546875
 40
0.556640625
 40
0.55859375
 40
0.560546875
 40
0.5615234375
 40
0.5620117188
 40
0.5625
 40
0.5629882812
 40
0.5634765625
 40
0.564453125
 40
0.56640625
 40
0.568359375
 40
0.5703125
 40
0.57421875
 40
0.578125
 40
0.5859375
 40
0.59375
 40
0.6015625
 40
0.609375
 40
0.61328125
 40
0.6171875
 40
0.619140625
 40
0.62109375
 40
0.623046875
 40
0.6240234375
 40
0.6245117188
 40
0.625
 40
0.6254882812
 40
0.6259765625
 40
0.626953125
 40
0.62890625
 40
0.630859375
 40
0.6328125
 40
0.63671875
 40
0.640625
 40
0.6484375
 40
0.65625
 40
0.6640625
 40
0.671875
 40
0.67578125
 40
0.6796875
 40
0.681640625
 40
0.68359375
 40
0.685546875
 40
0.6865234375
 40
0.6870117188
 40
0.6875
 40
0.6879882812
 40
0.6884765625
 40
0.689453125
 40
0.69140625
 40
0.693359375
 40
0.6953125
 40
0.69921875
 40
0.703125
 40
0.7109375
 40
0.71875
 40
0.7265625
 40
0.734375
 40
0.73828125
 40
0.7421875
 40
0.744140625
 40
0.74609375
 40
0.748046875
 40
0.7490234375
 40
0.7495117188
 40
0.75
 40
0.7504882812
 40
0.7509765625
 40
0.751953125
 40
0.75390625
 40
0.755859375
 40
0.7578125
 40
0.76171875
 40
0.765625
 40
0.7734375
 40
0.78125
 40
0.7890625
 40
0.796875
 40
0.80078125
 40
0.8046875
 40
0.806640625
 40
0.80859375
 40
0.810546875
 40
0.8115234375
 40
0.8120117188
 40
0.8125
 40
0.8129882812
 40
0.8134765625
 40
0.814453125
 40
0.81640625
 40
0.818359375
 40
0.8203125
 40
0.82421875
 40
0.828125
 40
0.8359375
 40
0.84375
 40
0.8515625
 40
0.859375
 40
0.86328125
 40
0.8671875
 40
0.869140625
 40
0.87109375
 40
0.873046875
 40
0.8740234375
 40
0.875
 40
0.8759765625
 40
0.876953125
 40
0.87890625
 40
0.880859375
 40
0.8828125
 40
0.88671875
 40
0.890625
 40
0.8984375
 40
0.90625
 40
0.9140625
 40
0.921875
 40
0.92578125
 40
0.9296875
 40
0.93359375
 40
0.935546875
 40
0.9365234375
 40
0.9375
 40
0.9384765625
 40
0.939453125
 40
0.94140625
 40
0.9453125
 40
0.94921875
 40
0.953125
 40
0.9609375
 40
0.96875
 40
0.984375
 40
1.0
 40
1.0
 40
1.0
 40
1.0
 10
10.2729200171
 20
10.1266130728
 30
0.0
 10
10.2697045131
 20
10.1267508479
 30
0.0
 10
10.2632734961
 20
10.1270263625
 30
0.0
 10
10.2552347704
 20
10.1273709336
 30
0.0
 10
10.248803694
 20
10.1276462171
 30
0.0
 10
10.2439806468
 20
10.127853693
 30
0.0
 10
10.2399606139
 20
10.1280233676
 30
0.0
 10
10.2371482135
 20
10.1281484627
 30
0.0
 10
10.235538594
 20
10.128210073
 30
0.0
 10
10.2343385165
 20
10.128284092
 30
0.0
 10
10.2331111573
 20
10.1282518023
 30
0.0
 10
10.2314841946
 20
10.128245831
 30
0.0
 10
10.2286325763
 20
10.1282181036
 30
0.0
 10
10.224561152
 20
10.1281875316
 30
0.0
 10
10.2196744591
 20
10.1281469518
 30
0.0
 10
10.2147879953
 20
10.128107484
 30
0.0
 10
10.2099015988
 20
10.1280674616
 30
0.0
 10
10.2050147039
 20
10.1280285454
 30
0.0
 10
10.2009438968
 20
10.1279928903
 30
0.0
 10
10.1980911788
 20
10.12797422
 30
0.0
 10
10.1964659779
 20
10.1279537389
 30
0.0
 10
10.195233207
 20
10.1279660185
 30
0.0
 10
10.194053455
 20
10.1278726425
 30
0.0
 10
10.1924619588
 20
10.1277849951
 30
0.0
 10
10.189685457
 20
10.127614441
 30
0.0
 10
10.1857145199
 20
10.1273797714
 30
0.0
 10
10.1809513289
 20
10.1270943165
 30
0.0
 10
10.1761876136
 20
10.1268099003
 30
0.0
 10
10.1714240619
 20
10.1265251807
 30
0.0
 10
10.167454327
 20
10.12628806
 30
0.0
 10
10.1642787177
 20
10.1260981657
 30
0.0
 10
10.16189654
 20
10.1259562509
 30
0.0
 10
10.1599128863
 20
10.1258363843
 30
0.0
 10
10.1585213966
 20
10.1257556254
 30
0.0
 10
10.1577308378
 20
10.1257045627
 30
0.0
 10
10.1571250219
 20
10.1256801106
 30
0.0
 10
10.1565685041
 20
10.1256027359
 30
0.0
 10
10.1558092847
 20
10.1255180297
 30
0.0
 10
10.1544886625
 20
10.125361193
 30
0.0
 10
10.1525978707
 20
10.1251416371
 30
0.0
 10
10.1503307135
 20
10.1248762454
 30
0.0
 10
10.1473072104
 20
10.1245230622
 30
0.0
 10
10.1435280501
 20
10.1240813512
 30
0.0
 10
10.138992949
 20
10.1235514031
 30
0.0
 10
10.1344579333
 20
10.123021406
 30
0.0
 10
10.1306785597
 20
10.1225798173
 30
0.0
 10
10.1276554832
 20
10.1222263896
 30
0.0
 10
10.1253870249
 20
10.1219617436
 30
0.0
 10
10.1235003035
 20
10.1217398545
 30
0.0
 10
10.122172415
 20
10.121587183
 30
0.0
 10
10.121424838
 20
10.1214958031
 30
0.0
 10
10.1208325584
 20
10.1214389279
 30
0.0
 10
10.1203610581
 20
10.1213374834
 30
0.0
 10
10.1196902619
 20
10.1212177704
 30
0.0
 10
10.1185359974
 20
10.1210010293
 30
0.0
 10
10.1168767859
 20
10.120695186
 30
0.0
 10
10.1148901247
 20
10.1203265531
 30
0.0
 10
10.1122397086
 20
10.1198356089
 30
0.0
 10
10.1089272154
 20
10.1192217342
 30
0.0
 10
10.104951996
 20
10.1184851684
 30
0.0
 10
10.1009768438
 20
10.1177485783
 30
0.0
 10
10.0976641829
 20
10.1171347643
 30
0.0
 10
10.0950141022
 20
10.1166436987
 30
0.0
 10
10.0933576985
 20
10.1163368132
 30
0.0
 10
10.0920328115
 20
10.1160912351
 30
0.0
 10
10.0910385004
 20
10.1159072424
 30
0.0
 10
10.0902119623
 20
10.1157533078
 30
0.0
 10
10.0896293538
 20
10.1156467456
 30
0.0
 10
10.08930273
 20
10.1155839917
 30
0.0
 10
10.0890400283
 20
10.1155421692
 30
0.0
 10
10.0888451141
 20
10.1154803056
 30
0.0
 10
10.0885615835
 20
10.1154048114
 30
0.0
 10
10.0880764215
 20
10.1152694395
 30
0.0
 10
10.0873775734
 20
10.1150777538
 30
0.0
 10
10.086541421
 20
10.1148470021
 30
0.0
 10
10.0854256901
 20
10.1145395878
 30
0.0
 10
10.0840313212
 20
10.1141552327
 30
0.0
 10
10.0818001662
 20
10.1135403133
 30
0.0
 10
10.0790112794
 20
10.1127716473
 30
0.0
 10
10.0756645889
 20
10.1118492556
 30
0.0
 10
10.0723179127
 20
10.1109268605
 30
0.0
 10
10.0695289901
 20
10.1101582031
 30
0.0
 10
10.0672979068
 20
10.1095432663
 30
0.0
 10
10.0659033557
 20
10.1091589555
 30
0.0
 10
10.0647879986
 20
10.1088514503
 30
0.0
 10
10.063950704
 20
10.1086209763
 30
0.0
 10
10.0632554296
 20
10.108428422
 30
0.0
 10
10.062763888
 20
10.1082946006
 30
0.0
 10
10.0624905792
 20
10.108216622
 30
0.0
 10
10.0622642669
 20
10.1081623896
 30
0.0
 10
10.0621194913
 20
10.1080919056
 30
0.0
 10
10.0618980162
 20
10.1080035956
 30
0.0
 10
10.061523686
 20
10.107846412
 30
0.0
 10
10.0609820006
 20
10.1076232448
 30
0.0
 10
10.0603349436
 20
10.1073548531
 30
0.0
 10
10.0594711651
 20
10.1069972039
 30
0.0
 10
10.0583917966
 20
10.1065500718
 30
0.0
 10
10.0566646087
 20
10.1058347
 30
0.0
 10
10.0545056925
 20
10.1049404715
 30
0.0
 10
10.0519149614
 20
10.1038674035
 30
0.0
 10
10.0493242468
 20
10.1027943326
 30
0.0
 10
10.0471652894
 20
10.1019001114
 30
0.0
 10
10.0454381838
 20
10.1011847249
 30
0.0
 10
10.0443586064
 20
10.10073763
 30
0.0
 10
10.0434952567
 20
10.1003799046
 30
0.0
 10
10.0428468896
 20
10.1001117458
 30
0.0
 10
10.042309303
 20
10.0998878499
 30
0.0
 10
10.0419276559
 20
10.0997319672
 30
0.0
 10
10.0417179042
 20
10.0996415727
 30
0.0
 10
10.0415371181
 20
10.0995774917
 30
0.0
 10
10.0414460552
 20
10.0994992107
 30
0.0
 10
10.0412933415
 20
10.0993997892
 30
0.0
 10
10.0410406742
 20
10.0992234938
 30
0.0
 10
10.0406720975
 20
10.0989728498
 30
0.0
 10
10.0402330685
 20
10.0986715605
 30
0.0
 10
10.0396465567
 20
10.0982700219
 30
0.0
 10
10.0389138073
 20
10.0977680368
 30
0.0
 10
10.03774119
 20
10.0969648953
 30
0.0
 10
10.0362754939
 20
10.0959609564
 30
0.0
 10
10.0345166237
 20
10.094756235
 30
0.0
 10
10.0327577721
 20
10.0935515118
 30
0.0
 10
10.0312920296
 20
10.0925475775
 30
0.0
 10
10.0301195051
 20
10.0917444268
 30
0.0
 10
10.0293865199
 20
10.0912424648
 30
0.0
 10
10.0288004921
 20
10.0908408789
 30
0.0
 10
10.0283599844
 20
10.0905397342
 30
0.0
 10
10.027996034
 20
10.0902886377
 30
0.0
 10
10.0277351079
 20
10.0901131501
 30
0.0
 10
10.0275956269
 20
10.0900124344
 30
0.0
 10
10.0274639175
 20
10.0899381287
 30
0.0
 10
10.0274357929
 20
10.0898591174
 30
0.0
 10
10.0273621618
 20
10.0897554104
 30
0.0
 10
10.0272501417
 20
10.0895731584
 30
0.0
 10
10.0270813119
 20
10.0893131982
 30
0.0
 10
10.0268824833
 20
10.0890010748
 30
0.0
 10
10.0266160627
 20
10.0885849701
 30
0.0
 10
10.0262834875
 20
10.0880648188
 30
0.0
 10
10.0257511153
 20
10.087232588
 30
0.0
 10
10.025085737
 20
10.0861922957
 30
0.0
 10
10.0242872434
 20
10.0849439466
 30
0.0
 10
10.0234887695
 20
10.0836955969
 30
0.0
 10
10.0228233417
 20
10.0826553062
 30
0.0
 10
10.0222910685
 20
10.0818230723
 30
0.0
 10
10.0219582417
 20
10.0813029289
 30
0.0
 10
10.0216923375
 20
10.080886808
 30
0.0
 10
10.0214919311
 20
10.0805747341
 30
0.0
 10
10.0213280379
 20
10.080314619
 30
0.0
 10
10.0212072052
 20
10.0801326435
 30
0.0
 10
10.0211476942
 20
10.0800284935
 30
0.0
 10
10.0210761973
 20
10.0799508429
 30
0.0
 10
10.0211073868
 20
10.079871427
 30
0.0
 10
10.0211131546
 20
10.0797661548
 30
0.0
 10
10.0211399367
 20
10.0795816417
 30
0.0
 10
10.0211694719
 20
10.0793182014
 30
0.0
 10
10.0212086487
 20
10.079002009
 30
0.0
 10
10.02125958
 20
10.0785804415
 30
0.0
 10
10.0213236908
 20
10.0780534744
 30
0.0
 10
10.0214260183
 20
10.0772103313
 30
0.0
 10
10.021554014
 20
10.0761564011
 30
0.0
 10
10.0217075694
 20
10.0748916853
 30
0.0
 10
10.0218611444
 20
10.0736269697
 30
0.0
 10
10.021989091
 20
10.0725730391
 30
0.0
 10
10.0220915168
 20
10.0717298968
 30
0.0
 10
10.0221553778
 20
10.0712029277
 30
0.0
 10
10.0222068217
 20
10.0707813644
 30
0.0
 10
10.0222444324
 20
10.0704651592
 30
0.0
 10
10.0222788676
 20
10.0702017588
 30
0.0
 10
10.0222969024
 20
10.0700171745
 30
0.0
 10
10.0223166855
 20
10.0699120164
 30
0.0
 10
10.0223048244
 20
10.0698322503
 30
0.0
 10
10.0223950187
 20
10.0697559148
 30
0.0
 10
10.0224796797
 20
10.0696529375
 30
0.0
 10
10.0226444222
 20
10.0694732847
 30
0.0
 10
10.0228710975
 20
10.0692163465
 30
0.0
 10
10.0231468194
 20
10.0689081453
 30
0.0
 10
10.0235131522
 20
10.0684971669
 30
0.0
 10
10.0239715121
 20
10.0679834587
 30
0.0
 10
10.0247046398
 20
10.0671615174
 30
0.0
 10
10.0256211351
 20
10.0661340936
 30
0.0
 10
10.0267208902
 20
10.0649011837
 30
0.0
 10
10.027820665
 20
10.0636682747
 30
0.0
 10
10.0287371113
 20
10.0626408485
 30
0.0
 10
10.029470337
 20
10.0618189119
 30
0.0
 10
10.0299284477
 20
10.0613051918
 30
0.0
 10
10.030295292
 20
10.0608942379
 30
0.0
 10
10.0305694512
 20
10.0605859617
 30
0.0
 10
10.0308010157
 20
10.0603292582
 30
0.0
 10
10.0309570301
 20
10.0601491864
 30
0.0
 10
10.0310556759
 20
10.0600468806
 30
0.0
 10
10.0311029136
 20
10.0599684823
 30
0.0
 10
10.0312523901
 20
10.0598964637
 30
0.0
 10
10.0314160301
 20
10.0597982135
 30
0.0
 10
10.0317190156
 20
10.0596273126
 30
0.0
 10
10.0321431653
 20
10.0593826263
 30
0.0
 10
10.0326558632
 20
10.0590892348
 30
0.0
 10
10.0333381616
 20
10.0586979651
 30
0.0
 10
10.0341914794
 20
10.0582089057
 30
0.0
 10
10.0355565392
 20
10.0574263952
 30
0.0
 10
10.0372629497
 20
10.0564482625
 30
0.0
 10
10.0393106034
 20
10.0552745005
 30
0.0
 10
10.0413582753
 20
10.0541007406
 30
0.0
 10
10.0430646406
 20
10.0531226026
 30
0.0
 10
10.0444297908
 20
10.0523401026
 30
0.0
 10
10.0452828788
 20
10.0518510164
 30
0.0
 10
10.0459656488
 20
10.0514598018
 30
0.0
 10
10.046476906
 20
10.0511662419
 30
0.0
 10
10.0469055631
 20
10.0509220824
 30
0.0
 10
10.0472005021
 20
10.0507502411
 30
0.0
 10
10.0473770347
 20
10.0506534976
 30
0.0
 10
10.0474869093
 20
10.050576851
 30
0.0
 10
10.0476828851
 20
10.0505158345
 30
0.0
 10
10.0479141532
 20
10.0504290271
 30
0.0
 10
10.0483328652
 20
10.0502796544
 30
0.0
 10
10.0489237095
 20
10.0500649368
 30
0.0
 10
10.049635854
 20
10.0498078442
 30
0.0
 10
10.0505842863
 20
10.0494648554
 30
0.0
 10
10.0517702013
 20
10.0490361874
 30
0.0
 10
10.0536674557
 20
10.0483502806
 30
0.0
 10
10.0560390961
 20
10.0474929103
 30
0.0
 10
10.0588850317
 20
10.0464640598
 30
0.0
 10
10.0617309831
 20
10.0454352126
 30
0.0
 10
10.0641025842
 20
10.0445778343
 30
0.0
 10
10.0659999172
 20
10.0438919434
 30
0.0
 10
10.0671856326
 20
10.0434632349
 30
0.0
 10
10.0681344744
 20
10.0431203292
 30
0.0
 10
10.068845368
 20
10.0428629828
 30
0.0
 10
10.0694401261
 20
10.0426490592
 30
0.0
 10
10.0698518514
 20
10.0424982691
 30
0.0
 10
10.0700943139
 20
10.0424137327
 30
0.0
 10
10.0702559037
 20
10.0423457406
 30
0.0
 10
10.0704949265
 20
10.0422952931
 30
0.0
 10
10.0707866141
 20
10.04222191
 30
0.0
 10
10.0713096515
 20
10.042096341
 30
0.0
 10
10.0720502688
 20
10.0419154659
 30
0.0
 10
10.0729418255
 20
10.041699054
 30
0.0
 10
10.0741295842
 20
10.0414102818
 30
0.0
 10
10.0756146194
 20
10.0410493928
 30
0.0
 10
10.0779904876
 20
10.040471928
 30
0.0
 10
10.0809603864
 20
10.0397501111
 30
0.0
 10
10.0845242419
 20
10.0388839263
 30
0.0
 10
10.0880880879
 20
10.0380177373
 30
0.0
 10
10.0910580106
 20
10.0372959306
 30
0.0
 10
10.0934338309
 20
10.0367184456
 30
0.0
 10
10.0949189877
 20
10.0363576079
 30
0.0
 10
10.0961064967
 20
10.0360687305
 30
0.0
 10
10.0969988164
 20
10.0358526398
 30
0.0
 10
10.0977370465
 20
10.0356707596
 30
0.0
 10
10.0983396738
 20
10.0355293029
 30
0.0
 10
10.0987587363
 20
10.0354121506
 30
0.0
 10
10.0993034093
 20
10.0353372138
 30
0.0
 10
10.0999857625
 20
10.0352225517
 30
0.0
 10
10.1008537581
 20
10.0350842835
 30
0.0
 10
10.1018889093
 20
10.034916196
 30
0.0
 10
10.1032713614
 20
10.0346928358
 30
0.0
 10
10.104998656
 20
10.0344133766
 30
0.0
 10
10.1077627576
 20
10.0339663863
 30
0.0
 10
10.1112177401
 20
10.0334076003
 30
0.0
 10
10.1153637674
 20
10.0327370719
 30
0.0
 10
10.1195098328
 20
10.0320665611
 30
0.0
 10
10.1229647202
 20
10.0315077311
 30
0.0
 10
10.125729012
 20
10.0310608288
 30
0.0
 10
10.1278011855
 20
10.0307252096
 30
0.0
 10
10.1295313222
 20
10.0304469345
 30
0.0
 10
10.1307358917
 20
10.0302493796
 30
0.0
 10
10.1314344073
 20
10.0301408042
 30
0.0
 10
10.131929588
 20
10.0300472225
 30
0.0
 10
10.1325344976
 20
10.0300000849
 30
0.0
 10
10.133302769
 20
10.0299210345
 30
0.0
 10
10.1346650768
 20
10.0297902444
 30
0.0
 10
10.1366019076
 20
10.0295994551
 30
0.0
 10
10.1389300952
 20
10.0293721971
 30
0.0
 10
10.1420329515
 20
10.0290685964
 30
0.0
 10
10.1459119992
 20
10.0286892976
 30
0.0
 10
10.1521182086
 20
10.0280823066
 30
0.0
 10
10.1598760625
 20
10.0273236068
 30
0.0
 10
10.1660823176
 20
10.026716635
 30
0.0
 10
10.1691854486
 20
10.0264131506
 30
0.0
  0
ENDSEC
  0
SECTION
  2
OBJECTS
  0
DICTIONARY
  5
C
100
AcDbDictionary
280
0
281
1
  3
ACAD_GROUP
350
D
  3
ACAD_MLINESTYLE
350
17
  3
ACAD_LAYOUT
350
1A
  3
ACAD_PLOTSETTINGS
350
19
  3
ACAD_PLOTSTYLENAME
350
E
  3
ACAD_IMAGE_DICT
350
       3E0
  3
ACAD_IMAGE_VARS
350
       3E1
  3
ACAD_TABLESTYLE
350
       3E2
  0
IMAGEDEF_REACTOR
  5
3DF
100
AcDbRasterImageDefReactor
 90
2
330
287
  0
DICTIONARY
  5
D
102
{ACAD_REACTORS
330
C
102
}
100
AcDbDictionary
280
0
281
1
  0
ACDBDICTIONARYWDFLT
  5
E
102
{ACAD_REACTORS
330
C
102
}
100
AcDbDictionary
281
1
  3
Normal
350
F
100
AcDbDictionaryWithDefault
340
F
  0
DICTIONARY
  5
3E0
330
C
100
AcDbDictionary
281
1
  3
XBD_assy_2_img_1
350
       3E5
  0
RASTERVARIABLES
  5
3E1
330
C
100
AcDbRasterVariables
 90
0
 70
0
 71
1
 72
5
  0
DICTIONARY
  5
17
102
{ACAD_REACTORS
330
C
102
}
100
AcDbDictionary
280
0
281
1
  3
Standard
350
18
  0
DICTIONARY
  5
3E2
330
C
100
AcDbDictionary
281
1
  3
Standard
350
       3E6
  3
Standard1
350
       3E7
  0
DICTIONARY
  5
19
102
{ACAD_REACTORS
330
C
102
}
100
AcDbDictionary
281
1
  0
DICTIONARY
  5
1A
102
{ACAD_REACTORS
330
C
102
}
100
AcDbDictionary
281
1
  3
Model
350
3E3
  3
Layout1
350
3E4
  0
ACDBPLACEHOLDER
  5
F
102
{ACAD_REACTORS
330
E
102
}
  0
MLINESTYLE
  5
18
102
{ACAD_REACTORS
330
17
102
}
100
AcDbMlineStyle
  2
STANDARD
 70
0
  3

 62
256
 51
90.0
 52
90.0
 71
2
 49
0.5
 62
256
  6
BYLAYER
 49
-0.5
 62
256
  6
BYLAYER
  0
LAYOUT
  5
3E3
102
{ACAD_REACTORS
330
1A
102
}
100
AcDbPlotSettings
  1

  2
none_device
  4
ANSI_C_(22.00_x_17.00_Inches)
  6

 40
0.0
 41
0.0
 42
0.0
 43
0.0
 44
558.8
 45
431.8
 46
0.0
 47
0.0
 48
0.0
 49
0.0
140
0.0
141
0.0
142
1.0
143
1.0
 70
1024
 72
0
 73
0
 74
0
  7

 75
0
147
1.0
148
0.0
149
0.0
100
AcDbLayout
  1
Model
 70
0
 71
0
 10
0.0
 20
0.0
 11
22.0
 21
17.0
 12
0.0
 22
0.0
 32
0.0
 14
0.0
 24
0.0
 34
0.0
 15
0.0
 25
0.0
 35
0.0
146
0.0
 13
0.0
 23
0.0
 33
0.0
 16
1.0
 26
0.0
 36
0.0
 17
0.0
 27
1.0
 37
0.0
 76
0
330
204
345
0
346
0
  0
LAYOUT
  5
3E4
102
{ACAD_REACTORS
330
1A
102
}
100
AcDbPlotSettings
  1

  2
none_device
  4
ANSI_C_(22.00_x_17.00_Inches)
  6

 40
0.0
 41
0.0
 42
0.0
 43
0.0
 44
558.8
 45
431.8
 46
0.0
 47
0.0
 48
0.0
 49
0.0
140
0.0
141
0.0
142
1.0
143
1.0
 70
0
 72
0
 73
0
 74
0
  7

 75
0
147
1.0
148
0.0
149
0.0
100
AcDbLayout
  1
Layout1
 70
0
 71
1
 10
0.0
 20
0.0
 11
22.0
 21
17.0
 12
0.0
 22
0.0
 32
0.0
 14
0.0
 24
0.0
 34
0.0
 15
0.0
 25
0.0
 35
0.0
146
0.0
 13
0.0
 23
0.0
 33
0.0
 16
1.0
 26
0.0
 36
0.0
 17
0.0
 27
1.0
 37
0.0
 76
0
330
205
345
0
346
0
  0
IMAGEDEF
  5
3E5
102
{ACAD_REACTORS
330
3E0
330
3DF
102
}
100
AcDbRasterImageDef
 90
0
  1
XBD_assy_2_img_1.png
 10
369.0
 20
92.0
 11
0.0066666667
 21
0.0066666667
280
1
281
0
  0
TABLESTYLE
  5
3E6
102
{ACAD_REACTORS
330
3E2
330
28A
330
28B
102
}
330
3E2
100
AcDbTableStyle
  3
Standard
 70
0
 71
0
 40
0.06
 41
0.06
280
1
281
1
  7
Standard
140
0.18
170
1
 62
0
 63
7
283
0
  7
Standard
140
0.18
170
1
 62
0
 63
7
283
0
  7
Standard
140
0.18
170
1
 62
0
 63
7
283
0
  0
TABLESTYLE
  5
3E7
102
{ACAD_REACTORS
330
3E2
330
289
102
}
330
3E2
100
AcDbTableStyle
  3
Standard1
 70
1
 71
0
 40
0.06
 41
0.06
280
1
281
1
  7
Standard
140
0.18
170
1
 62
0
 63
7
283
0
  7
Standard
140
0.18
170
1
 62
0
 63
7
283
0
  7
Standard
140
0.18
170
1
 62
0
 63
7
283
0
  0
ENDSEC
  0
EOF
