999
DXF file: X9Y_assy_2.dxf
999
Pro/ENGINEER 2014200 by Parametric Technology Corporation
  0
SECTION
  2
HEADER
  9
$ACADVER
  1
AC1021
  9
$DWGCODEPAGE
  3
ANSI_1252
  9
$EXTMAX
 10
22.0
 20
17.0
 30
0.0
  9
$EXTMIN
 10
0.0
 20
0.0
 30
0.0
  9
$LIMMIN
 10
0.0
 20
0.0
  9
$LIMMAX
 10
22.0
 20
17.0
  9
$VIEWCTR
 10
11.0
 20
8.5
  9
$VIEWSIZE
 40
17.0
  9
$CLAYER
  8
0
  9
$LTSCALE
 40
1.21
  9
$CELTYPE
  6
BYLAYER
  9
$DIMSCALE
 40
1.0
  9
$DIMASZ
 40
0.1875
  9
$DIMEXO
 40
0.0625
  9
$DIMDLI
 40
0.836
  9
$DIMEXE
 40
0.125
  9
$DIMCEN
 40
0.198
  9
$DIMLFAC
 40
1.0
  9
$DIMBLK
  1
_FILLED
  9
$DIMTXT
 40
0.1
  9
$DIMTOL
 70
0
  9
$DIMLIM
 70
0
  9
$DIMTFAC
 40
1.0
  9
$DIMGAP
 40
0.09
  9
$DIMDSEP
 70
46
  9
$AUNITS
 70
0
  9
$PDMODE
 70
3
  9
$PDSIZE
 40
0.3125
  9
$HANDSEED
  5
315
  9
$TILEMODE
 70
1
  9
$MEASUREMENT
 70
0
  9
$INSUNITS
 70
1
  0
ENDSEC
  0
SECTION
  2
CLASSES
  0
CLASS
  1
ACDBDICTIONARYWDFLT
  2
AcDbDictionaryWithDefault
  3
AutoCAD 2000
 90
0
 91
1
280
0
281
0
  0
CLASS
  1
ACDBPLACEHOLDER
  2
AcDbPlaceHolder
  3
AutoCAD 2000
 90
0
 91
1
280
0
281
0
  0
CLASS
  1
LAYOUT
  2
AcDbLayout
  3
AutoCAD 2000
 90
0
 91
0
280
0
281
0
  0
CLASS
  1
RASTERVARIABLES
  2
AcDbRasterVariables
  3
ISM
 90
0
 91
1
280
0
281
0
  0
CLASS
  1
IMAGEDEF
  2
AcDbRasterImageDef
  3
ISM
 90
0
 91
1
280
0
281
0
  0
CLASS
  1
IMAGEDEF_REACTOR
  2
AcDbRasterImageDefReactor
  3
ISM
 90
0
 91
1
280
0
281
0
  0
CLASS
  1
IMAGE
  2
AcDbRasterImage
  3
ISM
 90
127
 91
1
280
0
281
1
  0
CLASS
  1
TABLESTYLE
  2
AcDbTableStyle
  3
ObjectDBX Classes
 90
2047
 91
1
280
0
281
0
  0
CLASS
  1
ACAD_TABLE
  2
AcDbTable
  3
ObjectDBX Classes
 90
1025
 91
2
280
0
281
1
  0
ENDSEC
  0
SECTION
  2
TABLES
  0
TABLE
  2
VPORT
  5
8
100
AcDbSymbolTable
 70
2
  0
VPORT
  5
1F4
100
AcDbSymbolTableRecord
100
AcDbViewportTableRecord
  2
*ACTIVE
 70
0
 10
0.0
 20
0.0
 11
1.0
 21
1.0
 12
11.0
 22
8.5
 13
0.0
 23
0.0
 14
1.0
 24
1.0
 15
0.0
 25
0.0
 16
0.0
 26
0.0
 36
1.0
 17
0.0
 27
0.0
 37
0.0
 40
17.0
 41
1.2941176471
 42
50.0
 43
0.0
 44
0.0
 50
0.0
 51
0.0
 71
0
 72
100
 73
1
 74
1
 75
0
 76
0
 77
0
 78
0
  0
ENDTAB
  0
TABLE
  2
LTYPE
  5
5
100
AcDbSymbolTable
 70
6
  0
LTYPE
  5
14
100
AcDbSymbolTableRecord
100
AcDbLinetypeTableRecord
  2
BYBLOCK
 70
0
  3

 72
65
 73
0
 40
0.0
  0
LTYPE
  5
15
100
AcDbSymbolTableRecord
100
AcDbLinetypeTableRecord
  2
BYLAYER
 70
0
  3

 72
65
 73
0
 40
0.0
  0
LTYPE
  5
16
100
AcDbSymbolTableRecord
100
AcDbLinetypeTableRecord
  2
CONTINUOUS
 70
64
  3
Solid line
 72
65
 73
0
 40
0.0
  0
LTYPE
  5
1F5
100
AcDbSymbolTableRecord
100
AcDbLinetypeTableRecord
  2
CENTER
 70
64
  3
____ _ ____ _ ____ _ ____ _ ____ _ ____ _ ____
 72
65
 73
4
 40
0.6
 49
0.375
 74
0
 49
-0.075
 74
0
 49
0.075
 74
0
 49
-0.075
 74
0
  0
LTYPE
  5
1F6
100
AcDbSymbolTableRecord
100
AcDbLinetypeTableRecord
  2
HIDDEN
 70
64
  3
- - - - - - - - - - - - - - - - - - - -
 72
65
 73
2
 40
0.2
 49
0.1
 74
0
 49
-0.1
 74
0
  0
LTYPE
  5
1F7
100
AcDbSymbolTableRecord
100
AcDbLinetypeTableRecord
  2
PHANTOM
 70
64
  3
_____ _ _ _____ _ _ _____ _ _ _____
 72
65
 73
6
 40
0.8
 49
0.45
 74
0
 49
-0.05
 74
0
 49
0.1
 74
0
 49
-0.05
 74
0
 49
0.1
 74
0
 49
-0.05
 74
0
  0
LTYPE
  5
1F8
100
AcDbSymbolTableRecord
100
AcDbLinetypeTableRecord
  2
DOT
 70
64
  3
. . . . . . . . . . . . . . . . . . . .
 72
65
 73
2
 40
0.2
 49
0.1
 74
0
 49
-0.1
 74
0
  0
LTYPE
  5
1F9
100
AcDbSymbolTableRecord
100
AcDbLinetypeTableRecord
  2
DASHED
 70
64
  3
- - - - - - - - - - - - - - - - - - - -
 72
65
 73
2
 40
0.2
 49
0.1
 74
0
 49
-0.1
 74
0
  0
ENDTAB
  0
TABLE
  2
LAYER
  5
2
100
AcDbSymbolTable
 70
36
  0
LAYER
  5
10
100
AcDbSymbolTableRecord
100
AcDbLayerTableRecord
  2
0
 70
0
 62
7
  6
CONTINUOUS
370
-3
390
F
  0
LAYER
  5
1FA
100
AcDbSymbolTableRecord
100
AcDbLayerTableRecord
  2
DEFAULT_1
 70
0
 62
7
  6
CENTER
370
-3
390
F
  0
LAYER
  5
1FB
100
AcDbSymbolTableRecord
100
AcDbLayerTableRecord
  2
DEFAULT_2
 70
0
 62
8
  6
HIDDEN
370
-3
390
F
  0
LAYER
  5
1FC
100
AcDbSymbolTableRecord
100
AcDbLayerTableRecord
  2
DEFAULT_3
 70
0
 62
7
  6
PHANTOM
370
-3
390
F
  0
LAYER
  5
1FD
100
AcDbSymbolTableRecord
100
AcDbLayerTableRecord
  2
01___PRT_ALL_DTM_PLN
 70
0
 62
7
  6
CONTINUOUS
370
-3
390
F
  0
LAYER
  5
1FE
100
AcDbSymbolTableRecord
100
AcDbLayerTableRecord
  2
01___PRT_DEF_DTM_PLN
 70
0
 62
7
  6
CONTINUOUS
370
-3
390
F
  0
LAYER
  5
1FF
100
AcDbSymbolTableRecord
100
AcDbLayerTableRecord
  2
02___PRT_ALL_AXES
 70
0
 62
7
  6
CONTINUOUS
370
-3
390
F
  0
LAYER
  5
200
100
AcDbSymbolTableRecord
100
AcDbLayerTableRecord
  2
03___PRT_ALL_CURVES
 70
0
 62
7
  6
CONTINUOUS
370
-3
390
F
  0
LAYER
  5
201
100
AcDbSymbolTableRecord
100
AcDbLayerTableRecord
  2
04___PRT_ALL_DTM_PNT
 70
0
 62
7
  6
CONTINUOUS
370
-3
390
F
  0
LAYER
  5
202
100
AcDbSymbolTableRecord
100
AcDbLayerTableRecord
  2
05___PRT_ALL_DTM_CSYS
 70
0
 62
7
  6
CONTINUOUS
370
-3
390
F
  0
LAYER
  5
203
100
AcDbSymbolTableRecord
100
AcDbLayerTableRecord
  2
05___PRT_DEF_DTM_CSYS
 70
0
 62
7
  6
CONTINUOUS
370
-3
390
F
  0
LAYER
  5
204
100
AcDbSymbolTableRecord
100
AcDbLayerTableRecord
  2
06___PRT_ALL_SURFS
 70
0
 62
7
  6
CONTINUOUS
370
-3
390
F
  0
LAYER
  5
205
100
AcDbSymbolTableRecord
100
AcDbLayerTableRecord
  2
DATUM_PLANES
 70
0
 62
7
  6
CONTINUOUS
370
-3
390
F
  0
LAYER
  5
206
100
AcDbSymbolTableRecord
100
AcDbLayerTableRecord
  2
DIMENSIONS
 70
0
 62
7
  6
CONTINUOUS
370
-3
390
F
  0
LAYER
  5
207
100
AcDbSymbolTableRecord
100
AcDbLayerTableRecord
  2
PARAMETERDIMENSIONS
 70
0
 62
7
  6
CONTINUOUS
370
-3
390
F
  0
LAYER
  5
208
100
AcDbSymbolTableRecord
100
AcDbLayerTableRecord
  2
PORT_AREAS
 70
0
 62
7
  6
CONTINUOUS
370
-3
390
F
  0
LAYER
  5
209
100
AcDbSymbolTableRecord
100
AcDbLayerTableRecord
  2
SUNNBOMCOSMETIC
 70
0
 62
7
  6
CONTINUOUS
370
-3
390
F
  0
LAYER
  5
20A
100
AcDbSymbolTableRecord
100
AcDbLayerTableRecord
  2
SUNNBOMSTAMPING
 70
0
 62
7
  6
CONTINUOUS
370
-3
390
F
  0
LAYER
  5
20B
100
AcDbSymbolTableRecord
100
AcDbLayerTableRecord
  2
THREADS
 70
0
 62
7
  6
CONTINUOUS
370
-3
390
F
  0
ENDTAB
  0
TABLE
  2
STYLE
  5
3
100
AcDbSymbolTable
 70
1
  0
STYLE
  5
11
100
AcDbSymbolTableRecord
100
AcDbTextStyleTableRecord
  2
STANDARD
 70
0
 40
0.0
 41
0.8
 50
0.0
 71
0
 42
0.2
  3
txt
  4

  0
STYLE
  5
20C
100
AcDbSymbolTableRecord
100
AcDbTextStyleTableRecord
  2
TEXTSTYLE_1
 70
0
 40
0.0
 41
0.8
 50
0.0
 71
0
 42
0.2
  3
gdt
  4

  0
ENDTAB
  0
TABLE
  2
VIEW
  5
6
100
AcDbSymbolTable
 70
0
  0
ENDTAB
  0
TABLE
  2
UCS
  5
7
100
AcDbSymbolTable
 70
0
  0
ENDTAB
  0
TABLE
  2
APPID
  5
9
100
AcDbSymbolTable
 70
1
  0
APPID
  5
20D
100
AcDbSymbolTableRecord
100
AcDbRegAppTableRecord
  2
ACAD
 70
0
  0
ENDTAB
  0
TABLE
  2
BLOCK_RECORD
  5
1
100
AcDbSymbolTable
 70
0
  0
BLOCK_RECORD
  5
20E
100
AcDbSymbolTableRecord
100
AcDbBlockTableRecord
  2
*Model_Space
  0
BLOCK_RECORD
  5
20F
100
AcDbSymbolTableRecord
100
AcDbBlockTableRecord
  2
*Paper_Space
  0
BLOCK_RECORD
  5
210
100
AcDbSymbolTableRecord
100
AcDbBlockTableRecord
  2
SUN_FIRST_THIRD_ANGLE_BL0
  0
BLOCK_RECORD
  5
211
100
AcDbSymbolTableRecord
100
AcDbBlockTableRecord
  2
*T1
  0
BLOCK_RECORD
  5
212
100
AcDbSymbolTableRecord
100
AcDbBlockTableRecord
  2
*T2
  0
ENDTAB
  0
TABLE
  2
DIMSTYLE
  5
A
100
AcDbSymbolTable
 70
1
100
AcDbDimStyleTable
 71
0
  0
DIMSTYLE
105
213
100
AcDbSymbolTableRecord
100
AcDbDimStyleTableRecord
  2
STANDARD
 70
0
  3

  4

 40
1.0
 41
0.1875
 42
0.0625
 43
0.38
 44
0.125
 45
0.0
 46
0.0
 47
0.001
 48
0.001
140
0.1
141
0.09
142
0.0
143
25.4
144
1.0
145
0.0
146
1.0
147
0.09
 71
0.0
 72
0.0
 73
1
 74
1
 75
0
 76
0
 77
0
 78
4
170
0
171
2
172
0
173
0
174
0
175
0
176
0
177
0
178
0
270
2
271
3
272
3
273
2
274
2
275
0
280
0
281
0
282
0
283
1
284
4
285
0
286
0
287
3
288
0
340
11
278
46
  0
ENDTAB
  0
ENDSEC
  0
SECTION
  2
BLOCKS
  0
BLOCK
  5
20
100
AcDbEntity
  8
0
100
AcDbBlockBegin
  2
*Model_Space
 70
0
 10
0.0
 20
0.0
 30
0.0
  3
*Model_Space
  1

  0
ENDBLK
  5
21
100
AcDbEntity
  8
0
100
AcDbBlockEnd
  0
BLOCK
  5
1C
100
AcDbEntity
  8
0
100
AcDbBlockBegin
  2
*Paper_Space
 70
0
 10
0.0
 20
0.0
 30
0.0
  3
*Paper_Space
  1

  0
ENDBLK
  5
1D
100
AcDbEntity
  8
0
100
AcDbBlockEnd
  0
BLOCK
  5
214
100
AcDbEntity
  8
0
100
AcDbBlockBegin
 62
2
  6
CONTINUOUS
  2
SUN_FIRST_THIRD_ANGLE_BL0
 70
64
 10
20.4816717061
 20
1.2289683772
  3
SUN_FIRST_THIRD_ANGLE_BL0
  1

  0
TEXT
  5
215
100
AcDbEntity
  8
0
100
AcDbText
 62
2
  6
CONTINUOUS
 10
19.4750896608
 20
1.4136269581
  7
STANDARD
 40
0.08
  1
FIRST ANGLE
 41
0.8
 72
0
100
AcDbText
  0
TEXT
  5
216
100
AcDbEntity
  8
0
100
AcDbText
 62
2
  6
CONTINUOUS
 10
20.7842537513
 20
1.4047600029
  7
STANDARD
 40
0.08
  1
THIRD ANGLE
 41
0.8
 72
0
100
AcDbText
  0
LINE
  5
217
100
AcDbEntity
  8
0
100
AcDbLine
 62
7
  6
CONTINUOUS
 10
19.4767170086
 20
1.1727031207
 11
19.6334271527
 21
1.1717972817
  0
LINE
  5
218
100
AcDbEntity
  8
0
100
AcDbLine
 62
7
  6
CONTINUOUS
 10
19.6596964832
 20
1.1717972817
 11
19.6950230232
 21
1.171593082
  0
LINE
  5
219
100
AcDbEntity
  8
0
100
AcDbLine
 62
7
  6
CONTINUOUS
 10
19.7194818561
 20
1.1708914427
 11
19.8852396156
 21
1.1699333054
  0
LINE
  5
21A
100
AcDbEntity
  8
0
100
AcDbLine
 62
7
  6
CONTINUOUS
 10
19.4758111696
 20
1.2723454088
 11
19.88525039
 21
1.3511534004
  0
LINE
  5
21B
100
AcDbEntity
  8
0
100
AcDbLine
 62
7
  6
CONTINUOUS
 10
19.88525039
 20
1.3511534004
 11
19.8831348489
 21
0.9851647912
  0
LINE
  5
21C
100
AcDbEntity
  8
0
100
AcDbLine
 62
7
  6
CONTINUOUS
 10
19.8831348489
 20
0.9851647912
 11
19.4767170086
 21
1.0658141206
  0
LINE
  5
21D
100
AcDbEntity
  8
0
100
AcDbLine
 62
7
  6
CONTINUOUS
 10
19.4767170086
 20
1.0658141206
 11
19.4779056764
 21
1.2714536432
  0
CIRCLE
  5
21E
100
AcDbEntity
  8
0
100
AcDbCircle
 62
7
  6
CONTINUOUS
 10
20.2068232291
 20
1.1717972817
 40
0.175742101
  0
CIRCLE
  5
21F
100
AcDbEntity
  8
0
100
AcDbCircle
 62
7
  6
CONTINUOUS
 10
20.2068232291
 20
1.1717972817
 40
0.1005522074
  0
LINE
  5
220
100
AcDbEntity
  8
0
100
AcDbLine
 62
7
  6
CONTINUOUS
 10
20.2077290681
 20
1.3756110529
 11
20.2071171714
 21
1.2379342989
  0
LINE
  5
221
100
AcDbEntity
  8
0
100
AcDbLine
 62
7
  6
CONTINUOUS
 10
20.2077290681
 20
1.2016899681
 11
20.2074674401
 21
1.1428236749
  0
LINE
  5
222
100
AcDbEntity
  8
0
100
AcDbLine
 62
7
  6
CONTINUOUS
 10
20.208634907
 20
1.101141841
 11
20.2080230104
 21
0.963465087
  0
LINE
  5
223
100
AcDbEntity
  8
0
100
AcDbLine
 62
7
  6
CONTINUOUS
 10
20.0066328138
 20
1.1745147986
 11
20.1443095678
 21
1.1739029019
  0
LINE
  5
224
100
AcDbEntity
  8
0
100
AcDbLine
 62
7
  6
CONTINUOUS
 10
20.1832714155
 20
1.1727031207
 11
20.238153505
 21
1.172335442
  0
LINE
  5
225
100
AcDbEntity
  8
0
100
AcDbLine
 62
7
  6
CONTINUOUS
 10
20.2756669918
 20
1.1717972817
 11
20.407916871
 21
1.1712095044
  0
CIRCLE
  5
226
100
AcDbEntity
  8
0
100
AcDbCircle
 62
7
  6
CONTINUOUS
 10
20.7509457401
 20
1.1693297793
 40
0.1722024983
  0
CIRCLE
  5
227
100
AcDbEntity
  8
0
100
AcDbCircle
 62
7
  6
CONTINUOUS
 10
20.7509457401
 20
1.1693297793
 40
0.0985164967
  0
LINE
  5
228
100
AcDbEntity
  8
0
100
AcDbLine
 62
7
  6
CONTINUOUS
 10
20.7169767782
 20
1.170462078
 11
20.7825395137
 21
1.1682766535
  0
LINE
  5
229
100
AcDbEntity
  8
0
100
AcDbLine
 62
7
  6
CONTINUOUS
 10
20.8177513651
 20
1.1693297793
 11
20.947965719
 21
1.1693297793
  0
LINE
  5
22A
100
AcDbEntity
  8
0
100
AcDbLine
 62
7
  6
CONTINUOUS
 10
20.6875370113
 20
1.170462078
 11
20.5573226574
 21
1.170462078
  0
LINE
  5
22B
100
AcDbEntity
  8
0
100
AcDbLine
 62
7
  6
CONTINUOUS
 10
20.7486811426
 20
1.1987695462
 11
20.7486811426
 21
1.1432869085
  0
LINE
  5
22C
100
AcDbEntity
  8
0
100
AcDbLine
 62
7
  6
CONTINUOUS
 10
20.7498134414
 20
1.1059210505
 11
20.7498134414
 21
0.9757066966
  0
LINE
  5
22D
100
AcDbEntity
  8
0
100
AcDbLine
 62
7
  6
CONTINUOUS
 10
20.7486811426
 20
1.2338708068
 11
20.7486811426
 21
1.3640851607
  0
LINE
  5
22E
100
AcDbEntity
  8
0
100
AcDbLine
 62
7
  6
CONTINUOUS
 10
21.0702539817
 20
1.2701043662
 11
21.4790138229
 21
1.3448360823
  0
LINE
  5
22F
100
AcDbEntity
  8
0
100
AcDbLine
 62
7
  6
CONTINUOUS
 10
21.4790138229
 20
1.3448360823
 11
21.4790138229
 21
0.9779712941
  0
LINE
  5
230
100
AcDbEntity
  8
0
100
AcDbLine
 62
7
  6
CONTINUOUS
 10
21.4790138229
 20
0.9779712941
 11
21.069121683
 21
1.0617614
  0
LINE
  5
231
100
AcDbEntity
  8
0
100
AcDbLine
 62
7
  6
CONTINUOUS
 10
21.0702539817
 20
1.2701043662
 11
21.069121683
 21
1.0617614
  0
LINE
  5
232
100
AcDbEntity
  8
0
100
AcDbLine
 62
7
  6
CONTINUOUS
 10
21.4790138229
 20
1.1693297793
 11
21.3159628059
 21
1.1693297793
  0
LINE
  5
233
100
AcDbEntity
  8
0
100
AcDbLine
 62
7
  6
CONTINUOUS
 10
21.2876553377
 20
1.1693297793
 11
21.2502894796
 21
1.1693297793
  0
LINE
  5
234
100
AcDbEntity
  8
0
100
AcDbLine
 62
7
  6
CONTINUOUS
 10
21.2208497126
 20
1.1659328831
 11
21.0713862804
 21
1.1659328831
  0
LINE
  5
235
100
AcDbEntity
  8
0
100
AcDbLine
 62
7
  6
CONTINUOUS
 10
20.4796138713
 20
1.5284908897
 11
20.4766766948
 21
0.9294458646
  0
ENDBLK
  5
236
100
AcDbEntity
  8
0
  6
BYBLOCK
 62
0
100
AcDbBlockEnd
  0
BLOCK
  5
237
100
AcDbEntity
  8
0
100
AcDbBlockBegin
  2
*T1
 70
1
 10
0.0
 20
0.0
  3
*T1
  1

  0
LINE
  5
238
100
AcDbEntity
  8
0
100
AcDbLine
 62
2
  6
CONTINUOUS
 10
9.275
 20
0.0
 11
-0.0
 21
0.0
  0
LINE
  5
239
100
AcDbEntity
  8
0
100
AcDbLine
 62
2
  6
CONTINUOUS
 10
9.275
 20
0.0
 11
9.275
 21
1.25
  0
LINE
  5
23A
100
AcDbEntity
  8
0
100
AcDbLine
 62
2
  6
CONTINUOUS
 10
9.275
 20
0.625
 11
-0.0
 21
0.625
  0
LINE
  5
23B
100
AcDbEntity
  8
0
100
AcDbLine
 62
2
  6
CONTINUOUS
 10
9.275
 20
1.25
 11
-0.0
 21
1.25
  0
LINE
  5
23C
100
AcDbEntity
  8
0
100
AcDbLine
 62
2
  6
CONTINUOUS
 10
6.8
 20
0.0
 11
6.8
 21
1.25
  0
LINE
  5
23D
100
AcDbEntity
  8
0
100
AcDbLine
 62
2
  6
CONTINUOUS
 10
6.4
 20
0.0
 11
6.4
 21
0.625
  0
LINE
  5
23E
100
AcDbEntity
  8
0
100
AcDbLine
 62
2
  6
CONTINUOUS
 10
5.9
 20
0.0
 11
5.9
 21
0.625
  0
LINE
  5
23F
100
AcDbEntity
  8
0
100
AcDbLine
 62
2
  6
CONTINUOUS
 10
5.2
 20
0.0
 11
5.2
 21
0.625
  0
LINE
  5
240
100
AcDbEntity
  8
0
100
AcDbLine
 62
2
  6
CONTINUOUS
 10
4.1
 20
0.0
 11
4.1
 21
1.25
  0
LINE
  5
241
100
AcDbEntity
  8
0
100
AcDbLine
 62
2
  6
CONTINUOUS
 10
-0.0
 20
0.0
 11
-0.0
 21
1.25
  0
MTEXT
  5
242
100
AcDbEntity
  8
0
100
AcDbMText
 62
2
  6
CONTINUOUS
  7
STANDARD
 71
2
 72
1
 10
6.6
 20
0.325
 30
0.0
 11
1.0
 21
0.0
 31
0.0
 44
0.9
  1
2
 40
0.125
 41
0.2
  0
MTEXT
  5
243
100
AcDbEntity
  8
0
100
AcDbMText
 62
2
  6
CONTINUOUS
  7
STANDARD
 71
2
 72
1
 10
6.15
 20
0.325
 30
0.0
 11
1.0
 21
0.0
 31
0.0
 44
0.9
  1
C
 40
0.125
 41
0.2
  0
MTEXT
  5
244
100
AcDbEntity
  8
0
100
AcDbMText
 62
2
  6
CONTINUOUS
  7
STANDARD
 71
2
 72
1
 10
5.55
 20
0.325
 30
0.0
 11
1.0
 21
0.0
 31
0.0
 44
0.9
  1
1.000
 40
0.125
 41
1.0
  0
MTEXT
  5
245
100
AcDbEntity
  8
0
100
AcDbMText
 62
2
  6
CONTINUOUS
  7
STANDARD
 71
2
 72
1
 10
4.65
 20
0.325
 30
0.0
 11
1.0
 21
0.0
 31
0.0
 44
0.9
  1
Nov-05-19
 40
0.125
 41
1.8
  0
MTEXT
  5
246
100
AcDbEntity
  8
0
100
AcDbMText
 62
2
  6
CONTINUOUS
  7
STANDARD
 71
2
 72
1
 10
2.05
 20
0.4625
 30
0.0
 11
1.0
 21
0.0
 31
0.0
 44
0.9
  1
T-17A Sandwich ISO 05 - X&Y\PReducer on B with reverse flow check
 40
0.125
 41
7.2
  0
MTEXT
  5
247
100
AcDbEntity
  8
0
100
AcDbMText
 62
2
  6
CONTINUOUS
  7
STANDARD
 71
1
 72
1
 10
6.45
 20
0.5625
 30
0.0
 11
1.0
 21
0.0
 31
0.0
 44
0.9
  1
SHEET
 40
0.06
 41
0.48
  0
MTEXT
  5
248
100
AcDbEntity
  8
0
100
AcDbMText
 62
2
  6
CONTINUOUS
  7
STANDARD
 71
1
 72
1
 10
5.95
 20
0.5625
 30
0.0
 11
1.0
 21
0.0
 31
0.0
 44
0.9
  1
DWG SIZE
 40
0.06
 41
0.768
  0
MTEXT
  5
249
100
AcDbEntity
  8
0
100
AcDbMText
 62
2
  6
CONTINUOUS
  7
STANDARD
 71
1
 72
1
 10
5.25
 20
0.5625
 30
0.0
 11
1.0
 21
0.0
 31
0.0
 44
0.9
  1
SCALE
 40
0.06
 41
0.48
  0
MTEXT
  5
24A
100
AcDbEntity
  8
0
100
AcDbMText
 62
2
  6
CONTINUOUS
  7
STANDARD
 71
1
 72
1
 10
4.15
 20
0.5625
 30
0.0
 11
1.0
 21
0.0
 31
0.0
 44
0.9
  1
DATE
 40
0.06
 41
0.384
  0
MTEXT
  5
24B
100
AcDbEntity
  8
0
100
AcDbMText
 62
2
  6
CONTINUOUS
  7
STANDARD
 71
1
 72
1
 10
0.05
 20
0.5625
 30
0.0
 11
1.0
 21
0.0
 31
0.0
 44
0.9
  1
DESCRIPTION
 40
0.06
 41
1.056
  0
MTEXT
  5
24C
100
AcDbEntity
  8
0
100
AcDbMText
 62
2
  6
CONTINUOUS
  7
STANDARD
 71
2
 72
1
 10
5.45
 20
1.0375
 30
0.0
 11
1.0
 21
0.0
 31
0.0
 44
0.9
  1
ALL DIMENSIONS IN INCH\PVIEWS ARE THIRD ANGLE
 40
0.12
 41
4.224
  0
MTEXT
  5
24D
100
AcDbEntity
  8
0
100
AcDbMText
 62
2
  6
CONTINUOUS
  7
STANDARD
 71
2
 72
1
 10
2.05
 20
0.95
 30
0.0
 11
1.0
 21
0.0
 31
0.0
 44
0.9
  1
X9Y
 40
0.125
 41
0.6
  0
MTEXT
  5
24E
100
AcDbEntity
  8
0
100
AcDbMText
 62
2
  6
CONTINUOUS
  7
STANDARD
 71
1
 72
1
 10
0.05
 20
1.1875
 30
0.0
 11
1.0
 21
0.0
 31
0.0
 44
0.9
  1
MODEL
 40
0.06
 41
0.48
  0
ENDBLK
  5
24F
100
AcDbEntity
  8
0
  6
BYBLOCK
 62
0
100
AcDbBlockEnd
  0
BLOCK
  5
250
100
AcDbEntity
  8
0
100
AcDbBlockBegin
  2
*T2
 70
1
 10
0.0
 20
0.0
  3
*T2
  1

  0
LINE
  5
251
100
AcDbEntity
  8
0
100
AcDbLine
 62
2
  6
CONTINUOUS
 10
0.0
 20
0.0
 11
9.055
 21
0.0
  0
LINE
  5
252
100
AcDbEntity
  8
0
100
AcDbLine
 62
2
  6
CONTINUOUS
 10
0.0
 20
0.0
 11
0.0
 21
-2.094
  0
LINE
  5
253
100
AcDbEntity
  8
0
100
AcDbLine
 62
2
  6
CONTINUOUS
 10
0.0
 20
-0.344
 11
9.055
 21
-0.344
  0
LINE
  5
254
100
AcDbEntity
  8
0
100
AcDbLine
 62
2
  6
CONTINUOUS
 10
0.0
 20
-0.594
 11
9.055
 21
-0.594
  0
LINE
  5
255
100
AcDbEntity
  8
0
100
AcDbLine
 62
2
  6
CONTINUOUS
 10
0.0
 20
-0.844
 11
9.055
 21
-0.844
  0
LINE
  5
256
100
AcDbEntity
  8
0
100
AcDbLine
 62
2
  6
CONTINUOUS
 10
0.0
 20
-1.094
 11
9.055
 21
-1.094
  0
LINE
  5
257
100
AcDbEntity
  8
0
100
AcDbLine
 62
2
  6
CONTINUOUS
 10
0.0
 20
-1.344
 11
9.055
 21
-1.344
  0
LINE
  5
258
100
AcDbEntity
  8
0
100
AcDbLine
 62
2
  6
CONTINUOUS
 10
0.0
 20
-1.594
 11
9.055
 21
-1.594
  0
LINE
  5
259
100
AcDbEntity
  8
0
100
AcDbLine
 62
2
  6
CONTINUOUS
 10
0.0
 20
-1.844
 11
9.055
 21
-1.844
  0
LINE
  5
25A
100
AcDbEntity
  8
0
100
AcDbLine
 62
2
  6
CONTINUOUS
 10
0.0
 20
-2.094
 11
9.055
 21
-2.094
  0
LINE
  5
25B
100
AcDbEntity
  8
0
100
AcDbLine
 62
2
  6
CONTINUOUS
 10
3.055
 20
0.0
 11
3.055
 21
-2.094
  0
LINE
  5
25C
100
AcDbEntity
  8
0
100
AcDbLine
 62
2
  6
CONTINUOUS
 10
9.055
 20
0.0
 11
9.055
 21
-2.094
  0
MTEXT
  5
25D
100
AcDbEntity
  8
0
100
AcDbMText
 62
2
  6
CONTINUOUS
  7
STANDARD
 71
2
 72
1
 10
1.5275
 20
-0.0995
 30
0.0
 11
1.0
 21
0.0
 31
0.0
 44
0.9
  1
Technical Data
 40
0.145
 41
3.248
  0
MTEXT
  5
25E
100
AcDbEntity
  8
0
100
AcDbMText
 62
2
  6
CONTINUOUS
  7
STANDARD
 71
2
 72
1
 10
4.555
 20
-0.0995
 30
0.0
 11
1.0
 21
0.0
 31
0.0
 44
0.9
  1
U.S. Units
 40
0.145
 41
2.32
  0
MTEXT
  5
25F
100
AcDbEntity
  8
0
100
AcDbMText
 62
2
  6
CONTINUOUS
  7
STANDARD
 71
2
 72
1
 10
7.555
 20
-0.0995
 30
0.0
 11
1.0
 21
0.0
 31
0.0
 44
0.9
  1
Metric Units
 40
0.145
 41
2.784
  0
MTEXT
  5
260
100
AcDbEntity
  8
0
100
AcDbMText
 62
2
  6
CONTINUOUS
  7
STANDARD
 71
2
 72
1
 10
1.5275
 20
-0.4065
 30
0.0
 11
1.0
 21
0.0
 31
0.0
 44
0.9
  1
Cavity
 40
0.125
 41
1.2
  0
MTEXT
  5
261
100
AcDbEntity
  8
0
100
AcDbMText
 62
2
  6
CONTINUOUS
  7
STANDARD
 71
2
 72
1
 10
6.055
 20
-0.4065
 30
0.0
 11
1.0
 21
0.0
 31
0.0
 44
0.9
  1
T-17A
 40
0.125
 41
1.0
  0
MTEXT
  5
262
100
AcDbEntity
  8
0
100
AcDbMText
 62
2
  6
CONTINUOUS
  7
STANDARD
 71
2
 72
1
 10
1.5275
 20
-0.6565
 30
0.0
 11
1.0
 21
0.0
 31
0.0
 44
0.9
  1
Body Features
 40
0.125
 41
2.6
  0
MTEXT
  5
263
100
AcDbEntity
  8
0
100
AcDbMText
 62
2
  6
CONTINUOUS
  7
STANDARD
 71
2
 72
1
 10
6.055
 20
-0.6565
 30
0.0
 11
1.0
 21
0.0
 31
0.0
 44
0.9
  1
Reducer on B with reverse flow check
 40
0.125
 41
7.2
  0
MTEXT
  5
264
100
AcDbEntity
  8
0
100
AcDbMText
 62
2
  6
CONTINUOUS
  7
STANDARD
 71
2
 72
1
 10
1.5275
 20
-0.9065
 30
0.0
 11
1.0
 21
0.0
 31
0.0
 44
0.9
  1
Body Type
 40
0.125
 41
1.8
  0
MTEXT
  5
265
100
AcDbEntity
  8
0
100
AcDbMText
 62
2
  6
CONTINUOUS
  7
STANDARD
 71
2
 72
1
 10
6.055
 20
-0.9065
 30
0.0
 11
1.0
 21
0.0
 31
0.0
 44
0.9
  1
Sandwich
 40
0.125
 41
1.6
  0
MTEXT
  5
266
100
AcDbEntity
  8
0
100
AcDbMText
 62
2
  6
CONTINUOUS
  7
STANDARD
 71
2
 72
1
 10
1.5275
 20
-1.1565
 30
0.0
 11
1.0
 21
0.0
 31
0.0
 44
0.9
  1
Interface
 40
0.125
 41
1.8
  0
MTEXT
  5
267
100
AcDbEntity
  8
0
100
AcDbMText
 62
2
  6
CONTINUOUS
  7
STANDARD
 71
2
 72
1
 10
6.055
 20
-1.1565
 30
0.0
 11
1.0
 21
0.0
 31
0.0
 44
0.9
  1
ISO 05 - X&Y
 40
0.125
 41
2.4
  0
MTEXT
  5
268
100
AcDbEntity
  8
0
100
AcDbMText
 62
2
  6
CONTINUOUS
  7
STANDARD
 71
2
 72
1
 10
1.5275
 20
-1.4065
 30
0.0
 11
1.0
 21
0.0
 31
0.0
 44
0.9
  1
Open Cavity Quantity
 40
0.125
 41
4.0
  0
MTEXT
  5
269
100
AcDbEntity
  8
0
100
AcDbMText
 62
2
  6
CONTINUOUS
  7
STANDARD
 71
2
 72
1
 10
6.055
 20
-1.4065
 30
0.0
 11
1.0
 21
0.0
 31
0.0
 44
0.9
  1
1
 40
0.125
 41
0.2
  0
MTEXT
  5
26A
100
AcDbEntity
  8
0
100
AcDbMText
 62
2
  6
CONTINUOUS
  7
STANDARD
 71
2
 72
1
 10
1.5275
 20
-1.6565
 30
0.0
 11
1.0
 21
0.0
 31
0.0
 44
0.9
  1
Stack Height
 40
0.125
 41
2.4
  0
MTEXT
  5
26B
100
AcDbEntity
  8
0
100
AcDbMText
 62
2
  6
CONTINUOUS
  7
STANDARD
 71
2
 72
1
 10
4.555
 20
-1.6565
 30
0.0
 11
1.0
 21
0.0
 31
0.0
 44
0.9
  1
3.99 in.
 40
0.125
 41
1.6
  0
MTEXT
  5
26C
100
AcDbEntity
  8
0
100
AcDbMText
 62
2
  6
CONTINUOUS
  7
STANDARD
 71
2
 72
1
 10
7.555
 20
-1.6565
 30
0.0
 11
1.0
 21
0.0
 31
0.0
 44
0.9
  1
101 mm
 40
0.125
 41
1.2
  0
MTEXT
  5
26D
100
AcDbEntity
  8
0
100
AcDbMText
 62
2
  6
CONTINUOUS
  7
STANDARD
 71
2
 72
1
 10
1.5275
 20
-1.9065
 30
0.0
 11
1.0
 21
0.0
 31
0.0
 44
0.9
  1
Weight
 40
0.125
 41
1.2
  0
MTEXT
  5
26E
100
AcDbEntity
  8
0
100
AcDbMText
 62
2
  6
CONTINUOUS
  7
STANDARD
 71
2
 72
1
 10
4.555
 20
-1.9065
 30
0.0
 11
1.0
 21
0.0
 31
0.0
 44
0.9
  1
4.392 lb.
 40
0.125
 41
1.8
  0
MTEXT
  5
26F
100
AcDbEntity
  8
0
100
AcDbMText
 62
2
  6
CONTINUOUS
  7
STANDARD
 71
2
 72
1
 10
7.555
 20
-1.9065
 30
0.0
 11
1.0
 21
0.0
 31
0.0
 44
0.9
  1
1,992 kg.
 40
0.125
 41
1.8
  0
ENDBLK
  5
270
100
AcDbEntity
  8
0
  6
BYBLOCK
 62
0
100
AcDbBlockEnd
  0
ENDSEC
  0
SECTION
  2
ENTITIES
  0
IMAGE
  5
271
100
AcDbEntity
  8
0
100
AcDbRasterImage
 62
7
  6
CONTINUOUS
 10
19.2297077316
 20
0.3094318264
 30
0.0
 11
0.0066666667
 21
0.0
 31
0.0
 12
0.0
 22
0.0066666667
 32
0.0
 13
369.0
 23
92.0
340
       312
 70
9
280
0
281
50
282
50
283
0
360
       30C
 71
1
 91
2
 14
-0.5
 24
-0.5
 14
368.5
 24
91.5
  0
INSERT
  5
272
100
AcDbEntity
  8
0
100
AcDbBlockReference
 62
2
  6
CONTINUOUS
  2
SUN_FIRST_THIRD_ANGLE_BL0
 10
20.4816717061
 20
1.2289683772
  0
ACAD_TABLE
  5
273
100
AcDbEntity
  8
0
 62
2
  6
CONTINUOUS
100
AcDbBlockReference
  2
*T1
 10
12.42375
 20
0.30125
 30
0.0
100
AcDbTable
342
       314
343
211
 11
1.0
 21
0.0
 31
0.0
 90
6
 91
4
 92
6
 93
20
 94
0
 95
0
 96
0
 70
1
 41
0.0
141
0.525
141
0.1
141
0.525
141
0.1
142
4.1
142
1.1
142
0.7
142
0.5
142
0.4
142
2.475
171
1
172
0
173
0
174
0
175
1
176
1
 91
33
178
0
145
0.0
301
CELL_VALUE
 90
4
  1
T-17A Sandwich ISO 05 - X&Y\PReducer on B with reverse flow check
304
ACVALUE_END
170
2
140
0.125
171
1
172
0
173
0
174
0
175
1
176
1
 91
33
178
0
145
0.0
301
CELL_VALUE
 90
4
  1
Nov-05-19
304
ACVALUE_END
170
5
140
0.125
171
1
172
0
173
0
174
0
175
1
176
1
 91
33
178
0
145
0.0
301
CELL_VALUE
 90
4
  1
1.000
304
ACVALUE_END
170
5
140
0.125
171
1
172
0
173
0
174
0
175
1
176
1
 91
33
178
0
145
0.0
301
CELL_VALUE
 90
4
  1
C
304
ACVALUE_END
170
5
140
0.125
171
1
172
0
173
0
174
0
175
1
176
1
 91
33
178
0
145
0.0
301
CELL_VALUE
 90
4
  1
2
304
ACVALUE_END
170
5
140
0.125
171
1
172
0
173
0
174
0
175
1
176
1
 91
33
178
0
145
0.0
301
CELL_VALUE
 90
4
  1
 
304
ACVALUE_END
170
1
140
0.125
171
1
172
0
173
0
174
0
175
1
176
1
 91
33
178
0
145
0.0
301
CELL_VALUE
 90
4
  1
DESCRIPTION
304
ACVALUE_END
170
1
140
0.06
171
1
172
0
173
0
174
0
175
1
176
1
 91
33
178
0
145
0.0
301
CELL_VALUE
 90
4
  1
DATE
304
ACVALUE_END
170
1
140
0.06
171
1
172
0
173
0
174
0
175
1
176
1
 91
33
178
0
145
0.0
301
CELL_VALUE
 90
4
  1
SCALE
304
ACVALUE_END
170
1
140
0.06
171
1
172
0
173
0
174
0
175
1
176
1
 91
33
178
0
145
0.0
301
CELL_VALUE
 90
4
  1
DWG SIZE
304
ACVALUE_END
170
1
140
0.06
171
1
172
0
173
0
174
0
175
1
176
1
 91
33
178
0
145
0.0
301
CELL_VALUE
 90
4
  1
SHEET
304
ACVALUE_END
170
1
140
0.06
171
1
172
0
173
0
174
0
175
1
176
1
 91
33
178
0
145
0.0
301
CELL_VALUE
 90
4
  1
 
304
ACVALUE_END
170
1
140
0.125
171
1
172
0
173
0
174
0
175
1
176
1
 91
33
178
0
145
0.0
301
CELL_VALUE
 90
4
  1
X9Y
304
ACVALUE_END
170
5
140
0.125
171
1
172
0
173
0
174
0
175
4
176
1
 91
33
178
0
145
0.0
301
CELL_VALUE
 90
4
  1
ALL DIMENSIONS IN INCH\PVIEWS ARE THIRD ANGLE
304
ACVALUE_END
170
5
140
0.12
171
1
172
0
173
1
174
0
175
1
176
1
 91
1
178
0
145
0.0
170
1
171
1
172
0
173
1
174
0
175
1
176
1
 91
1
178
0
145
0.0
170
1
171
1
172
0
173
1
174
0
175
1
176
1
 91
1
178
0
145
0.0
170
5
171
1
172
0
173
0
174
0
175
1
176
1
 91
33
178
0
145
0.0
301
CELL_VALUE
 90
4
  1
 
304
ACVALUE_END
170
1
140
0.125
171
1
172
0
173
0
174
0
175
1
176
1
 91
33
178
0
145
0.0
301
CELL_VALUE
 90
4
  1
MODEL
304
ACVALUE_END
170
1
140
0.06
171
1
172
0
173
0
174
0
175
1
176
1
 91
33
178
0
145
0.0
301
CELL_VALUE
 90
4
  1
 
304
ACVALUE_END
170
1
140
0.125
171
1
172
0
173
0
174
0
175
1
176
1
 91
33
178
0
145
0.0
301
CELL_VALUE
 90
4
  1
 
304
ACVALUE_END
170
1
140
0.125
171
1
172
0
173
0
174
0
175
1
176
1
 91
33
178
0
145
0.0
301
CELL_VALUE
 90
4
  1
 
304
ACVALUE_END
170
1
140
0.125
171
1
172
0
173
0
174
0
175
1
176
1
 91
33
178
0
145
0.0
301
CELL_VALUE
 90
4
  1
 
304
ACVALUE_END
170
1
140
0.125
171
1
172
0
173
0
174
0
175
1
176
1
 91
33
178
0
145
0.0
301
CELL_VALUE
 90
4
  1
 
304
ACVALUE_END
170
1
140
0.125
  0
ACAD_TABLE
  5
274
100
AcDbEntity
  8
0
 62
2
  6
CONTINUOUS
100
AcDbBlockReference
  2
*T2
 10
12.4237499994
 20
16.47875
 30
0.0
100
AcDbTable
342
       313
343
212
 11
1.0
 21
0.0
 31
0.0
 90
22
 91
8
 92
3
 93
16
 94
0
 95
0
 96
0
 41
0.028
141
0.344
141
0.25
141
0.25
141
0.25
141
0.25
141
0.25
141
0.25
141
0.25
142
3.055
142
3.0
142
3.0
171
1
172
0
173
0
174
0
175
1
176
1
 91
33
178
0
145
0.0
301
CELL_VALUE
 90
4
  1
Technical Data
304
ACVALUE_END
170
5
140
0.145
171
1
172
0
173
0
174
0
175
1
176
1
 91
33
178
0
145
0.0
301
CELL_VALUE
 90
4
  1
U.S. Units
304
ACVALUE_END
170
5
140
0.145
171
1
172
0
173
0
174
0
175
1
176
1
 91
33
178
0
145
0.0
301
CELL_VALUE
 90
4
  1
Metric Units
304
ACVALUE_END
170
5
140
0.145
171
1
172
0
173
0
174
0
175
1
176
1
 91
33
178
0
145
0.0
301
CELL_VALUE
 90
4
  1
Cavity
304
ACVALUE_END
170
5
140
0.125
171
1
172
0
173
0
174
0
175
2
176
1
 91
33
178
0
145
0.0
301
CELL_VALUE
 90
4
  1
T-17A
304
ACVALUE_END
170
5
140
0.125
171
1
172
0
173
1
174
0
175
1
176
1
 91
1
178
0
145
0.0
170
1
171
1
172
0
173
0
174
0
175
1
176
1
 91
33
178
0
145
0.0
301
CELL_VALUE
 90
4
  1
Body Features
304
ACVALUE_END
170
5
140
0.125
171
1
172
0
173
0
174
0
175
2
176
1
 91
33
178
0
145
0.0
301
CELL_VALUE
 90
4
  1
Reducer on B with reverse flow check
304
ACVALUE_END
170
5
140
0.125
171
1
172
0
173
1
174
0
175
1
176
1
 91
1
178
0
145
0.0
170
1
171
1
172
0
173
0
174
0
175
1
176
1
 91
33
178
0
145
0.0
301
CELL_VALUE
 90
4
  1
Body Type
304
ACVALUE_END
170
5
140
0.125
171
1
172
0
173
0
174
0
175
2
176
1
 91
33
178
0
145
0.0
301
CELL_VALUE
 90
4
  1
Sandwich
304
ACVALUE_END
170
5
140
0.125
171
1
172
0
173
1
174
0
175
1
176
1
 91
1
178
0
145
0.0
170
1
171
1
172
0
173
0
174
0
175
1
176
1
 91
33
178
0
145
0.0
301
CELL_VALUE
 90
4
  1
Interface
304
ACVALUE_END
170
5
140
0.125
171
1
172
0
173
0
174
0
175
2
176
1
 91
33
178
0
145
0.0
301
CELL_VALUE
 90
4
  1
ISO 05 - X&Y
304
ACVALUE_END
170
5
140
0.125
171
1
172
0
173
1
174
0
175
1
176
1
 91
1
178
0
145
0.0
170
1
171
1
172
0
173
0
174
0
175
1
176
1
 91
33
178
0
145
0.0
301
CELL_VALUE
 90
4
  1
Open Cavity Quantity
304
ACVALUE_END
170
5
140
0.125
171
1
172
0
173
0
174
0
175
2
176
1
 91
33
178
0
145
0.0
301
CELL_VALUE
 90
4
  1
1
304
ACVALUE_END
170
5
140
0.125
171
1
172
0
173
1
174
0
175
1
176
1
 91
1
178
0
145
0.0
170
1
171
1
172
0
173
0
174
0
175
1
176
1
 91
33
178
0
145
0.0
301
CELL_VALUE
 90
4
  1
Stack Height
304
ACVALUE_END
170
5
140
0.125
171
1
172
0
173
0
174
0
175
1
176
1
 91
33
178
0
145
0.0
301
CELL_VALUE
 90
4
  1
3.99 in.
304
ACVALUE_END
170
5
140
0.125
171
1
172
0
173
0
174
0
175
1
176
1
 91
33
178
0
145
0.0
301
CELL_VALUE
 90
4
  1
101 mm
304
ACVALUE_END
170
5
140
0.125
171
1
172
0
173
0
174
0
175
1
176
1
 91
33
178
0
145
0.0
301
CELL_VALUE
 90
4
  1
Weight
304
ACVALUE_END
170
5
140
0.125
171
1
172
0
173
0
174
0
175
1
176
1
 91
33
178
0
145
0.0
301
CELL_VALUE
 90
4
  1
4.392 lb.
304
ACVALUE_END
170
5
140
0.125
171
1
172
0
173
0
174
0
175
1
176
1
 91
33
178
0
145
0.0
301
CELL_VALUE
 90
4
  1
1,992 kg.
304
ACVALUE_END
170
5
140
0.125
  0
MTEXT
  5
275
100
AcDbEntity
  8
0
100
AcDbMText
 62
2
  6
CONTINUOUS
  7
STANDARD
 71
1
 72
1
 10
0.52125
 20
5.75995
 30
0.0
 11
1.0
 21
0.0
 31
0.0
 44
0.6
  3
Notes\P \P1. Important: Carefully consider\P   the maximum system pressure. The\P   pressure rating of the manifold is\P   dependent on the manifold material,\P   with the port type/size a secondary\P   consideration. Manifolds\P   constructed of alu
  1
minum are not\P   rated for pressures higher than\P   3000 psi (210 bar), regardless of\P   the port type/size specified.
 40
0.1
 41
3.04
  0
LINE
  5
276
100
AcDbEntity
  8
0
100
AcDbLine
 62
7
  6
CONTINUOUS
 10
0.30125
 20
0.30125
 11
0.30125
 21
16.69875
  0
LINE
  5
277
100
AcDbEntity
  8
0
100
AcDbLine
 62
7
  6
CONTINUOUS
 10
0.30125
 20
0.30125
 11
21.69875
 21
0.30125
  0
LINE
  5
278
100
AcDbEntity
  8
0
100
AcDbLine
 62
7
  6
CONTINUOUS
 10
0.30125
 20
16.69875
 11
21.69875
 21
16.69875
  0
LINE
  5
279
100
AcDbEntity
  8
0
100
AcDbLine
 62
7
  6
CONTINUOUS
 10
21.69875
 20
0.30125
 11
21.69875
 21
16.69875
  0
LINE
  5
27A
100
AcDbEntity
  8
0
100
AcDbLine
 62
7
  6
CONTINUOUS
 10
7.8080902954
 20
9.0392197686
 11
7.8080902954
 21
7.4695902079
  0
LINE
  5
27B
100
AcDbEntity
  8
0
100
AcDbLine
 62
7
  6
CONTINUOUS
 10
7.830010614
 20
9.0293931717
 11
7.830010614
 21
7.459763611
  0
LINE
  5
27C
100
AcDbEntity
  8
0
100
AcDbLine
 62
7
  6
CONTINUOUS
 10
7.8778552575
 20
7.1937718418
 11
7.8519797817
 21
7.2255870916
  0
LINE
  5
27D
100
AcDbEntity
  8
0
100
AcDbLine
 62
7
  6
CONTINUOUS
 10
8.7139562056
 20
10.2464976023
 11
7.8971239734
 21
9.4574982067
  0
LINE
  5
27E
100
AcDbEntity
  8
0
100
AcDbLine
 62
7
  6
CONTINUOUS
 10
8.743899908
 20
10.2743647019
 11
7.9270676758
 21
9.4853653063
  0
LINE
  5
27F
100
AcDbEntity
  8
0
100
AcDbLine
 62
7
  6
CONTINUOUS
 10
8.7448161111
 20
10.2752335468
 11
8.743899908
 21
10.2743647019
  0
LINE
  5
280
100
AcDbEntity
  8
0
100
AcDbLine
 62
7
  6
CONTINUOUS
 10
8.7147977157
 20
10.2472954241
 11
8.7139562056
 21
10.2464976023
  0
LINE
  5
281
100
AcDbEntity
  8
0
100
AcDbLine
 62
7
  6
CONTINUOUS
 10
8.7139562056
 20
10.2464976023
 11
8.7438918588
 21
10.2743733505
  0
LINE
  5
282
100
AcDbEntity
  8
0
100
AcDbLine
 62
7
  6
CONTINUOUS
 10
7.8971239734
 20
9.4574982067
 11
7.9270676758
 21
9.4853653063
  0
LINE
  5
283
100
AcDbEntity
  8
0
100
AcDbLine
 62
7
  6
CONTINUOUS
 10
7.8080902954
 20
7.4695902079
 11
7.830010614
 21
7.459763611
  0
LINE
  5
284
100
AcDbEntity
  8
0
100
AcDbLine
 62
7
  6
CONTINUOUS
 10
10.4446713646
 20
10.3210712422
 11
9.4254428155
 21
9.3365720054
  0
LINE
  5
285
100
AcDbEntity
  8
0
100
AcDbLine
 62
7
  6
CONTINUOUS
 10
9.4254428155
 20
6.9217572966
 11
12.9269239129
 21
6.6789287578
  0
LINE
  5
286
100
AcDbEntity
  8
0
100
AcDbLine
 62
7
  6
CONTINUOUS
 10
9.4254428155
 20
9.3365720054
 11
9.4254428155
 21
6.9217572966
  0
LINE
  5
287
100
AcDbEntity
  8
0
100
AcDbLine
 62
7
  6
CONTINUOUS
 10
9.4254428155
 20
7.0737001791
 11
7.9011236509
 21
7.1794120723
  0
LINE
  5
288
100
AcDbEntity
  8
0
100
AcDbLine
 62
7
  6
CONTINUOUS
 10
7.830010614
 20
7.459763611
 11
9.4254428155
 21
7.3491200121
  0
LINE
  5
289
100
AcDbEntity
  8
0
100
AcDbLine
 62
7
  6
CONTINUOUS
 10
9.8506474625
 20
7.553677998
 11
9.8475522313
 21
7.5538379496
  0
LINE
  5
28A
100
AcDbEntity
  8
0
100
AcDbLine
 62
7
  6
CONTINUOUS
 10
9.8444569811
 20
7.7419979128
 11
9.8475521929
 21
7.7418379617
  0
LINE
  5
28B
100
AcDbEntity
  8
0
100
AcDbLine
 62
7
  6
CONTINUOUS
 10
7.8080902954
 20
9.0392197686
 11
7.830010614
 21
9.0293931717
  0
LINE
  5
28C
100
AcDbEntity
  8
0
100
AcDbLine
 62
7
  6
CONTINUOUS
 10
13.6125812717
 20
7.7554014117
 11
13.996984713
 21
7.7287429425
  0
LINE
  5
28D
100
AcDbEntity
  8
0
100
AcDbLine
 62
7
  6
CONTINUOUS
 10
13.3960019291
 20
7.8504111605
 11
13.5015848854
 21
7.8430889576
  0
LINE
  5
28E
100
AcDbEntity
  8
0
100
AcDbLine
 62
7
  6
CONTINUOUS
 10
13.4814479739
 20
7.9112896025
 11
13.8658514152
 21
7.8846311333
  0
LINE
  5
28F
100
AcDbEntity
  8
0
100
AcDbLine
 62
7
  6
CONTINUOUS
 10
13.4742239617
 20
7.9510085322
 11
13.8586274031
 21
7.924350063
  0
LINE
  5
290
100
AcDbEntity
  8
0
100
AcDbLine
 62
7
  6
CONTINUOUS
 10
13.4742239617
 20
8.5161150068
 11
13.8586274031
 21
8.4894565376
  0
LINE
  5
291
100
AcDbEntity
  8
0
100
AcDbLine
 62
7
  6
CONTINUOUS
 10
13.4814479739
 20
8.5697896572
 11
13.8658514152
 21
8.543131188
  0
LINE
  5
292
100
AcDbEntity
  8
0
100
AcDbLine
 62
7
  6
CONTINUOUS
 10
7.830010614
 20
9.0293931717
 11
9.4254428155
 21
8.9187495728
  0
LINE
  5
293
100
AcDbEntity
  8
0
100
AcDbLine
 62
7
  6
CONTINUOUS
 10
13.4706858387
 20
8.923816197
 11
13.571966382
 21
8.9167923675
  0
LINE
  5
294
100
AcDbEntity
  8
0
100
AcDbLine
 62
7
  6
CONTINUOUS
 10
13.6125812717
 20
8.979007941
 11
13.996984713
 21
8.9523494718
  0
LINE
  5
295
100
AcDbEntity
  8
0
100
AcDbLine
 62
7
  6
CONTINUOUS
 10
13.6270292961
 20
8.9929636617
 11
14.0114327374
 21
8.9663051925
  0
LINE
  5
296
100
AcDbEntity
  8
0
100
AcDbLine
 62
7
  6
CONTINUOUS
 10
12.9269239129
 20
9.0937434666
 11
9.4254428155
 21
9.3365720054
  0
LINE
  5
297
100
AcDbEntity
  8
0
100
AcDbLine
 62
7
  6
CONTINUOUS
 10
13.946152462
 20
10.0782427034
 11
12.9269239129
 21
9.0937434666
  0
LINE
  5
298
100
AcDbEntity
  8
0
100
AcDbLine
 62
7
  6
CONTINUOUS
 10
7.9270676758
 20
9.4853653063
 11
9.4687941795
 21
9.3784462101
  0
LINE
  5
299
100
AcDbEntity
  8
0
100
AcDbLine
 62
7
  6
CONTINUOUS
 10
8.743899908
 20
10.2743647019
 11
10.2856264118
 21
10.1674456057
  0
LINE
  5
29A
100
AcDbEntity
  8
0
100
AcDbLine
 62
7
  6
CONTINUOUS
 10
10.2988388143
 20
10.1802078073
 11
8.7698439329
 21
10.2862439625
  0
LINE
  5
29B
100
AcDbEntity
  8
0
100
AcDbLine
 62
7
  6
CONTINUOUS
 10
12.9269239129
 20
6.6789287578
 11
12.9269239129
 21
9.0937434666
  0
LINE
  5
29C
100
AcDbEntity
  8
0
100
AcDbLine
 62
7
  6
CONTINUOUS
 10
13.946152462
 20
10.0782427034
 11
10.4446713646
 21
10.3210712422
  0
LINE
  5
29D
100
AcDbEntity
  8
0
100
AcDbLine
 62
7
  6
CONTINUOUS
 10
13.5395537349
 20
8.8621056992
 11
13.5685367454
 21
8.9112459522
  0
LINE
  5
29E
100
AcDbEntity
  8
0
100
AcDbLine
 62
7
  6
CONTINUOUS
 10
13.4729707229
 20
7.9020078495
 11
13.4874226572
 21
7.8672857766
  0
LINE
  5
29F
100
AcDbEntity
  8
0
100
AcDbLine
 62
7
  6
CONTINUOUS
 10
13.946152462
 20
7.6634279946
 11
12.9269239129
 21
6.6789287578
  0
LINE
  5
2A0
100
AcDbEntity
  8
0
100
AcDbLine
 62
7
  6
CONTINUOUS
 10
13.946152462
 20
7.6634279946
 11
13.946152462
 21
7.7322681711
  0
LINE
  5
2A1
100
AcDbEntity
  8
0
100
AcDbLine
 62
7
  6
CONTINUOUS
 10
13.946152462
 20
8.970832395
 11
13.946152462
 21
10.0782427034
  0
LINE
  5
2A2
100
AcDbEntity
  8
0
100
AcDbLine
 62
7
  6
CONTINUOUS
 10
14.0554772637
 20
7.8104606521
 11
14.075823894
 21
7.8449580541
  0
LINE
  5
2A3
100
AcDbEntity
  8
0
100
AcDbLine
 62
7
  6
CONTINUOUS
 10
14.1365913519
 20
8.8544208277
 11
14.1445108302
 21
8.8353935681
  0
ARC
  5
2A4
100
AcDbEntity
  8
0
100
AcDbCircle
 62
7
  6
CONTINUOUS
 10
15.7837228391
 20
8.2326055537
 40
2.3268353346
100
AcDbArc
 50
171.6678728683
 51
173.0014994771
  0
ARC
  5
2A5
100
AcDbEntity
  8
0
100
AcDbCircle
 62
7
  6
CONTINUOUS
 10
16.1437309072
 20
8.209230431
 40
2.3022216869
100
AcDbArc
 50
171.6607434676
 51
173.0086288778
  0
ARC
  5
2A6
100
AcDbEntity
  8
0
100
AcDbCircle
 62
7
  6
CONTINUOUS
 10
14.4206140304
 20
8.1026199566
 40
0.9584571905
100
AcDbArc
 50
189.1014340788
 51
191.5149294916
  0
ARC
  5
2A7
100
AcDbEntity
  8
0
100
AcDbCircle
 62
7
  6
CONTINUOUS
 10
14.8050174717
 20
8.0759614874
 40
0.9584571905
100
AcDbArc
 50
189.1014340788
 51
191.5149294916
  0
ARC
  5
2A8
100
AcDbEntity
  8
0
100
AcDbCircle
 62
7
  6
CONTINUOUS
 10
10.57360267
 20
8.1571660102
 40
0.2661514203
100
AcDbArc
 50
1.3737076112
 51
2.0565617751
  0
ARC
  5
2A9
100
AcDbEntity
  8
0
100
AcDbCircle
 62
7
  6
CONTINUOUS
 10
10.7047487376
 20
8.0330801697
 40
0.234211056
100
AcDbArc
 50
17.9964655036
 51
18.2823099301
  0
ARC
  5
2AA
100
AcDbEntity
  8
0
100
AcDbCircle
 62
7
  6
CONTINUOUS
 10
10.7020366368
 20
7.9402478191
 40
0.215056731
100
AcDbArc
 50
314.4720511659
 51
314.86919826
  0
ARC
  5
2AB
100
AcDbEntity
  8
0
100
AcDbCircle
 62
7
  6
CONTINUOUS
 10
10.7930974795
 20
7.989100218
 40
0.2102077737
100
AcDbArc
 50
286.7722144204
 51
300.4722263801
  0
ARC
  5
2AC
100
AcDbEntity
  8
0
100
AcDbCircle
 62
7
  6
CONTINUOUS
 10
11.4344380381
 20
7.6744638422
 40
0.2069041638
100
AcDbArc
 50
221.9816397142
 51
236.4378012373
  0
ARC
  5
2AD
100
AcDbEntity
  8
0
100
AcDbCircle
 62
7
  6
CONTINUOUS
 10
10.6859429489
 20
8.0679726468
 40
0.1783525301
100
AcDbArc
 50
234.4626149745
 51
262.7978372634
  0
ARC
  5
2AE
100
AcDbEntity
  8
0
100
AcDbCircle
 62
7
  6
CONTINUOUS
 10
10.7291430453
 20
8.1026644794
 40
0.1720705059
100
AcDbArc
 50
12.4486342694
 51
13.6829282868
  0
SPLINE
  5
2AF
100
AcDbEntity
  8
0
100
AcDbSpline
 62
7
  6
CONTINUOUS
 70
0
 71
3
 72
9
 73
5
 74
0
 42
0.0000001
 43
0.0000001
 44
0.0000000001
 40
0.0
 40
0.0
 40
0.0
 40
0.0
 40
0.2423492772
 40
1.0
 40
1.0
 40
1.0
 40
1.0
 10
13.6270292961
 20
8.9929636617
 30
0.0
 10
13.6264214611
 20
8.9924765032
 30
0.0
 10
13.6239388727
 20
8.9904346122
 30
0.0
 10
13.6215568559
 20
8.9882714357
 30
0.0
 10
13.6198052839
 20
8.9865795469
 30
0.0
  0
SPLINE
  5
2B0
100
AcDbEntity
  8
0
100
AcDbSpline
 62
7
  6
CONTINUOUS
 70
0
 71
3
 72
9
 73
5
 74
0
 42
0.0000001
 43
0.0000001
 44
0.0000000001
 40
0.0
 40
0.0
 40
0.0
 40
0.0
 40
0.2576616456
 40
1.0
 40
1.0
 40
1.0
 40
1.0
 10
13.6125812717
 20
8.979007941
 30
0.0
 10
13.613176896
 20
8.9796812268
 30
0.0
 10
13.6155118538
 20
8.9822734929
 30
0.0
 10
13.6179425
 20
8.9847802357
 30
0.0
 10
13.6198052839
 20
8.9865795469
 30
0.0
  0
SPLINE
  5
2B1
100
AcDbEntity
  8
0
100
AcDbSpline
 62
7
  6
CONTINUOUS
 70
0
 71
3
 72
9
 73
5
 74
0
 42
0.0000001
 43
0.0000001
 44
0.0000000001
 40
0.0
 40
0.0
 40
0.0
 40
0.0
 40
0.2424516602
 40
1.0
 40
1.0
 40
1.0
 40
1.0
 10
14.0042087252
 20
7.7351270574
 30
0.0
 10
14.0048171239
 20
7.7357147254
 30
0.0
 10
14.0073004143
 20
7.7381655111
 30
0.0
 10
14.0096815384
 20
7.7407191311
 30
0.0
 10
14.0114327374
 20
7.7426986632
 30
0.0
  0
SPLINE
  5
2B2
100
AcDbEntity
  8
0
100
AcDbSpline
 62
7
  6
CONTINUOUS
 70
0
 71
3
 72
9
 73
5
 74
0
 42
0.0000001
 43
0.0000001
 44
0.0000000001
 40
0.0
 40
0.0
 40
0.0
 40
0.0
 40
0.2423492772
 40
1.0
 40
1.0
 40
1.0
 40
1.0
 10
13.996984713
 20
7.7287429425
 30
0.0
 10
13.997592548
 20
7.729230101
 30
0.0
 10
14.0000751364
 20
7.7312719921
 30
0.0
 10
14.0024571532
 20
7.7334351686
 30
0.0
 10
14.0042087252
 20
7.7351270574
 30
0.0
  0
SPLINE
  5
2B3
100
AcDbEntity
  8
0
100
AcDbSpline
 62
7
  6
CONTINUOUS
 70
0
 71
3
 72
9
 73
5
 74
0
 42
0.0000001
 43
0.0000001
 44
0.0000000001
 40
0.0
 40
0.0
 40
0.0
 40
0.0
 40
0.5035395631
 40
1.0
 40
1.0
 40
1.0
 40
1.0
 10
14.0114327374
 20
7.7426986632
 30
0.0
 10
14.0192835825
 20
7.7538136941
 30
0.0
 10
14.0344935474
 20
7.7761602255
 30
0.0
 10
14.0487810121
 20
7.7991115287
 30
0.0
 10
14.0555988871
 20
7.8106668772
 30
0.0
  0
SPLINE
  5
2B4
100
AcDbEntity
  8
0
100
AcDbSpline
 62
7
  6
CONTINUOUS
 70
0
 71
3
 72
9
 73
5
 74
0
 42
0.0000001
 43
0.0000001
 44
0.0000000001
 40
0.0
 40
0.0
 40
0.0
 40
0.0
 40
0.5035395631
 40
1.0
 40
1.0
 40
1.0
 40
1.0
 10
13.6125812717
 20
8.979007941
 30
0.0
 10
13.6047304266
 20
8.9678929102
 30
0.0
 10
13.5895204617
 20
8.9455463788
 30
0.0
 10
13.575232997
 20
8.9225950756
 30
0.0
 10
13.568415122
 20
8.9110397271
 30
0.0
  0
SPLINE
  5
2B5
100
AcDbEntity
  8
0
100
AcDbSpline
 62
7
  6
CONTINUOUS
 70
0
 71
3
 72
23
 73
19
 74
0
 42
0.0000001
 43
0.0000001
 44
0.0000000001
 40
0.0
 40
0.0
 40
0.0
 40
0.0
 40
0.0432903358
 40
0.0886111095
 40
0.1362135929
 40
0.1863092711
 40
0.2390678977
 40
0.2946076476
 40
0.3530023406
 40
0.4142746704
 40
0.4784099503
 40
0.5453523313
 40
0.6150199742
 40
0.6873039377
 40
0.76208146
 40
0.8392182661
 40
0.9185728956
 40
1.0
 40
1.0
 40
1.0
 40
1.0
 10
13.4872499296
 20
7.8677010205
 30
0.0
 10
13.4881963521
 20
7.8654248133
 30
0.0
 10
13.4903172558
 20
7.86084012
 30
0.0
 10
13.4940813163
 20
7.8540511663
 30
0.0
 10
13.4985083164
 20
7.8472084057
 30
0.0
 10
13.5036054875
 20
7.8403156945
 30
0.0
 10
13.5093753658
 20
7.8333773317
 30
0.0
 10
13.5158133669
 20
7.8263970585
 30
0.0
 10
13.5229103091
 20
7.8193802253
 30
0.0
 10
13.5306502478
 20
7.8123308236
 30
0.0
 10
13.5390135682
 20
7.8052545295
 30
0.0
 10
13.5479753922
 20
7.7981553033
 30
0.0
 10
13.5575085684
 20
7.7910384384
 30
0.0
 10
13.5675827733
 20
7.7839075383
 30
0.0
 10
13.578166983
 20
7.7767669255
 30
0.0
 10
13.5892290336
 20
7.769619635
 30
0.0
 10
13.6007369578
 20
7.7624689001
 30
0.0
 10
13.6085886446
 20
7.7577590979
 30
0.0
 10
13.6125812717
 20
7.7554014117
 30
0.0
  0
SPLINE
  5
2B6
100
AcDbEntity
  8
0
100
AcDbSpline
 62
7
  6
CONTINUOUS
 70
0
 71
3
 72
23
 73
19
 74
0
 42
0.0000001
 43
0.0000001
 44
0.0000000001
 40
0.0
 40
0.0
 40
0.0
 40
0.0
 40
0.0432903358
 40
0.0886111095
 40
0.1362135929
 40
0.1863092711
 40
0.2390678977
 40
0.2946076476
 40
0.3530023406
 40
0.4142746704
 40
0.4784099503
 40
0.5453523313
 40
0.6150199742
 40
0.6873039377
 40
0.76208146
 40
0.8392182661
 40
0.9185728956
 40
1.0
 40
1.0
 40
1.0
 40
1.0
 10
14.1367640795
 20
8.8540055838
 30
0.0
 10
14.135817657
 20
8.856281791
 30
0.0
 10
14.1336967533
 20
8.8608664842
 30
0.0
 10
14.1299326928
 20
8.8676554379
 30
0.0
 10
14.1255056927
 20
8.8744981985
 30
0.0
 10
14.1204085216
 20
8.8813909098
 30
0.0
 10
14.1146386434
 20
8.8883292726
 30
0.0
 10
14.1082006422
 20
8.8953095458
 30
0.0
 10
14.1011037
 20
8.902326379
 30
0.0
 10
14.0933637613
 20
8.9093757807
 30
0.0
 10
14.0850004409
 20
8.9164520748
 30
0.0
 10
14.0760386169
 20
8.923551301
 30
0.0
 10
14.0665054407
 20
8.9306681659
 30
0.0
 10
14.0564312359
 20
8.937799066
 30
0.0
 10
14.0458470261
 20
8.9449396788
 30
0.0
 10
14.0347849755
 20
8.9520869692
 30
0.0
 10
14.0232770513
 20
8.9592377041
 30
0.0
 10
14.0154253645
 20
8.9639475064
 30
0.0
 10
14.0114327374
 20
8.9663051925
 30
0.0
  0
SPLINE
  5
2B7
100
AcDbEntity
  8
0
100
AcDbSpline
 62
7
  6
CONTINUOUS
 70
0
 71
3
 72
47
 73
43
 74
0
 42
0.0000001
 43
0.0000001
 44
0.0000000001
 40
0.0
 40
0.0
 40
0.0
 40
0.0
 40
0.0097390474
 40
0.0199698054
 40
0.0306887706
 40
0.0418911797
 40
0.0535705278
 40
0.0657187093
 40
0.0783268726
 40
0.0913848251
 40
0.1188026063
 40
0.1478725169
 40
0.1784807562
 40
0.2105024129
 40
0.2438034215
 40
0.2782411642
 40
0.3136659887
 40
0.3499225137
 40
0.3868501632
 40
0.4242845303
 40
0.4620583808
 40
0.5000024026
 40
0.537946423
 40
0.5757202051
 40
0.6131544659
 40
0.6500819745
 40
0.6863382449
 40
0.7217628641
 40
0.7562003755
 40
0.7895009924
 40
0.8215223322
 40
0.8521302096
 40
0.8811996138
 40
0.9086170193
 40
0.9216746676
 40
0.9342827067
 40
0.9464306368
 40
0.9581096421
 40
0.9693118429
 40
0.9800304705
 40
0.9902609046
 40
1.0
 40
1.0
 40
1.0
 40
1.0
 10
14.0758262668
 20
7.8449620571
 30
0.0
 10
14.0774941618
 20
7.8477900506
 30
0.0
 10
14.0808117055
 20
7.853649706
 30
0.0
 10
14.0856264672
 20
7.8628083731
 30
0.0
 10
14.0903971506
 20
7.8725425774
 30
0.0
 10
14.0951176386
 20
7.8828407722
 30
0.0
 10
14.099782316
 20
7.8936907625
 30
0.0
 10
14.104385848
 20
7.9050795461
 30
0.0
 10
14.108922539
 20
7.9169937242
 30
0.0
 10
14.1149736926
 20
7.9338360668
 30
0.0
 10
14.1223079688
 20
7.9561094538
 30
0.0
 10
14.1306225318
 20
7.984273339
 30
0.0
 10
14.1385475662
 20
8.0141576413
 30
0.0
 10
14.1460449882
 20
8.0456197813
 30
0.0
 10
14.1530783117
 20
8.0785099676
 30
0.0
 10
14.1596136925
 20
8.1126712296
 30
0.0
 10
14.1656197691
 20
8.147940429
 30
0.0
 10
14.171067375
 20
8.1841491
 30
0.0
 10
14.1759303976
 20
8.2211241846
 30
0.0
 10
14.1801855813
 20
8.2586888926
 30
0.0
 10
14.1838122581
 20
8.2966636379
 30
0.0
 10
14.1867931524
 20
8.3348668349
 30
0.0
 10
14.1891140995
 20
8.3731157759
 30
0.0
 10
14.1907637835
 20
8.4112275597
 30
0.0
 10
14.191734506
 20
8.449019933
 30
0.0
 10
14.1920218086
 20
8.4863121677
 30
0.0
 10
14.1916242077
 20
8.5229259813
 30
0.0
 10
14.1905439398
 20
8.5586863739
 30
0.0
 10
14.1887864841
 20
8.5934224506
 30
0.0
 10
14.1863602722
 20
8.6269683024
 30
0.0
 10
14.1832774389
 20
8.6591638037
 30
0.0
 10
14.1795532718
 20
8.689855557
 30
0.0
 10
14.1752056568
 20
8.7188970768
 30
0.0
 10
14.1710161563
 20
8.7419692415
 30
0.0
 10
14.1673475481
 20
8.7594853077
 30
0.0
 10
14.1644988989
 20
8.7719114311
 30
0.0
 10
14.1615114116
 20
8.7838263758
 30
0.0
 10
14.1583889227
 20
8.7952160708
 30
0.0
 10
14.1551352268
 20
8.8060669914
 30
0.0
 10
14.1517538577
 20
8.8163662237
 30
0.0
 10
14.1482492328
 20
8.8261015424
 30
0.0
 10
14.1457722403
 20
8.8323629245
 30
0.0
 10
14.1445106211
 20
8.8353940702
 30
0.0
  0
SPLINE
  5
2B8
100
AcDbEntity
  8
0
100
AcDbSpline
 62
7
  6
CONTINUOUS
 70
0
 71
3
 72
11
 73
7
 74
0
 42
0.0000001
 43
0.0000001
 44
0.0000000001
 40
0.0
 40
0.0
 40
0.0
 40
0.0
 40
0.2194295797
 40
0.4588777944
 40
0.7189534041
 40
1.0
 40
1.0
 40
1.0
 40
1.0
 10
14.0482652532
 20
7.8083798716
 30
0.0
 10
14.0506814743
 20
7.8107137622
 30
0.0
 10
14.0554993911
 20
7.8158405746
 30
0.0
 10
14.062400047
 20
7.8244262916
 30
0.0
 10
14.0692661356
 20
7.834215778
 30
0.0
 10
14.073640478
 20
7.8412559505
 30
0.0
 10
14.0758262668
 20
7.8449620571
 30
0.0
  0
SPLINE
  5
2B9
100
AcDbEntity
  8
0
100
AcDbSpline
 62
7
  6
CONTINUOUS
 70
0
 71
3
 72
71
 73
67
 74
0
 42
0.0000001
 43
0.0000001
 44
0.0000000001
 40
0.0
 40
0.0
 40
0.0
 40
0.0
 40
0.0086181769
 40
0.0180358616
 40
0.0282774586
 40
0.0393565278
 40
0.0512781193
 40
0.0640379079
 40
0.0776250778
 40
0.0920232712
 40
0.1072117669
 40
0.1231658877
 40
0.1398572575
 40
0.1572547554
 40
0.1753241015
 40
0.1940290556
 40
0.2133305876
 40
0.2331882383
 40
0.2743982911
 40
0.3173016118
 40
0.3615185692
 40
0.4066539401
 40
0.4523018244
 40
0.498050443
 40
0.543486841
 40
0.5882016236
 40
0.6317937783
 40
0.6530475103
 40
0.6738765743
 40
0.6942351706
 40
0.7140793344
 40
0.7333664045
 40
0.7520557961
 40
0.7701087697
 40
0.7874888656
 40
0.8041621724
 40
0.8200973098
 40
0.8352663455
 40
0.8496443226
 40
0.8632109019
 40
0.875949623
 40
0.8878502973
 40
0.8989084674
 40
0.9091286382
 40
0.9185247606
 40
0.9229228386
 40
0.9271266988
 40
0.9311424085
 40
0.9349775089
 40
0.9386412763
 40
0.9421446752
 40
0.9487194012
 40
0.9518277284
 40
0.9548406465
 40
0.9577799033
 40
0.9606691014
 40
0.9635332525
 40
0.9663980381
 40
0.9692890983
 40
0.9722313645
 40
0.9752484317
 40
0.9783620293
 40
0.9849505497
 40
0.9884623794
 40
0.9921350537
 40
1.0
 40
1.0
 40
1.0
 40
1.0
 10
14.0482652532
 20
8.8805576023
 30
0.0
 10
14.0458060843
 20
8.8781822274
 30
0.0
 10
14.0409031082
 20
8.8729560502
 30
0.0
 10
14.03388637
 20
8.8641917508
 30
0.0
 10
14.026905878
 20
8.8541831335
 30
0.0
 10
14.0199775074
 20
8.8429547646
 30
0.0
 10
14.013116882
 20
8.8305313626
 30
0.0
 10
14.0063393254
 20
8.8169416957
 30
0.0
 10
13.9996614906
 20
8.8022173368
 30
0.0
 10
13.9930992022
 20
8.7863931858
 30
0.0
 10
13.9866683256
 20
8.7695067552
 30
0.0
 10
13.9803844371
 20
8.7515982648
 30
0.0
 10
13.9742625655
 20
8.7327105125
 30
0.0
 10
13.9683178542
 20
8.7128887062
 30
0.0
 10
13.9625642831
 20
8.6921804059
 30
0.0
 10
13.9570162889
 20
8.6706353031
 30
0.0
 10
13.9516866912
 20
8.6483051529
 30
0.0
 10
13.9448048221
 20
8.6171708876
 30
0.0
 10
13.9368701498
 20
8.5766861696
 30
0.0
 10
13.9285208918
 20
8.526457144
 30
0.0
 10
13.9213117391
 20
8.4744794283
 30
0.0
 10
13.9153126901
 20
8.4212527615
 30
0.0
 10
13.910581938
 20
8.3672885583
 30
0.0
 10
13.9071651762
 20
8.3131056522
 30
0.0
 10
13.9050951407
 20
8.2592248744
 30
0.0
 10
13.904391542
 20
8.2061645271
 30
0.0
 10
13.9049531082
 20
8.1626967779
 30
0.0
 10
13.9061081934
 20
8.1287259745
 30
0.0
 10
13.9073087138
 20
8.1039820411
 30
0.0
 10
13.908847967
 20
8.0798171639
 30
0.0
 10
13.9107219053
 20
8.0562894843
 30
0.0
 10
13.9129261924
 20
8.0334555702
 30
0.0
 10
13.9154552862
 20
8.0113703444
 30
0.0
 10
13.918303056
 20
7.9900868627
 30
0.0
 10
13.9214626198
 20
7.9696562433
 30
0.0
 10
13.9249260545
 20
7.9501274942
 30
0.0
 10
13.9286852429
 20
7.9315474076
 30
0.0
 10
13.9327305332
 20
7.9139603899
 30
0.0
 10
13.9370526793
 20
7.8974084036
 30
0.0
 10
13.9416404486
 20
7.8819306868
 30
0.0
 10
13.946483608
 20
7.8675638521
 30
0.0
 10
13.9515696502
 20
7.8543414207
 30
0.0
 10
13.9568876914
 20
7.8422939206
 30
0.0
 10
13.9624245111
 20
7.8314491713
 30
0.0
 10
13.9673143633
 20
7.8232616176
 30
0.0
 10
13.9713408458
 20
7.8173626331
 30
0.0
 10
13.9743406085
 20
7.8133531058
 30
0.0
 10
13.9773854556
 20
7.8096626714
 30
0.0
 10
13.9804737693
 20
7.8062937239
 30
0.0
 10
13.9836043069
 20
7.8032477509
 30
0.0
 10
13.9877430531
 20
7.7996959446
 30
0.0
 10
13.9920535325
 20
7.7966907702
 30
0.0
 10
13.9965115223
 20
7.794335527
 30
0.0
 10
13.9998267222
 20
7.7929337634
 30
0.0
 10
14.0031731136
 20
7.7918658581
 30
0.0
 10
14.0065485113
 20
7.7911333754
 30
0.0
 10
14.0099500433
 20
7.7907370638
 30
0.0
 10
14.0133747905
 20
7.7906771299
 30
0.0
 10
14.0168198471
 20
7.7909535001
 30
0.0
 10
14.020282335
 20
7.7915658578
 30
0.0
 10
14.0237598639
 20
7.7925133194
 30
0.0
 10
14.0285016744
 20
7.7942536767
 30
0.0
 10
14.0331863636
 20
7.7966573641
 30
0.0
 10
14.0377764405
 20
7.7996258902
 30
0.0
 10
14.0425812388
 20
7.8031756575
 30
0.0
 10
14.0460210162
 20
7.806212105
 30
0.0
 10
14.0482652532
 20
7.8083798716
 30
0.0
  0
SPLINE
  5
2BA
100
AcDbEntity
  8
0
100
AcDbSpline
 62
7
  6
CONTINUOUS
 70
0
 71
3
 72
9
 73
5
 74
0
 42
0.0000001
 43
0.0000001
 44
0.0000000001
 40
0.0
 40
0.0
 40
0.0
 40
0.0
 40
0.2423492772
 40
1.0
 40
1.0
 40
1.0
 40
1.0
 10
14.0114327374
 20
8.9663051925
 30
0.0
 10
14.0108249024
 20
8.965818034
 30
0.0
 10
14.008342314
 20
8.963776143
 30
0.0
 10
14.0059602973
 20
8.9616129665
 30
0.0
 10
14.0042087252
 20
8.9599210777
 30
0.0
  0
SPLINE
  5
2BB
100
AcDbEntity
  8
0
100
AcDbSpline
 62
7
  6
CONTINUOUS
 70
0
 71
3
 72
9
 73
5
 74
0
 42
0.0000001
 43
0.0000001
 44
0.0000000001
 40
0.0
 40
0.0
 40
0.0
 40
0.0
 40
0.2424516602
 40
1.0
 40
1.0
 40
1.0
 40
1.0
 10
14.0042087252
 20
8.9599210777
 30
0.0
 10
14.0036003265
 20
8.9593334096
 30
0.0
 10
14.0011170362
 20
8.9568826239
 30
0.0
 10
13.998735912
 20
8.9543290039
 30
0.0
 10
13.996984713
 20
8.9523494718
 30
0.0
  0
SPLINE
  5
2BC
100
AcDbEntity
  8
0
100
AcDbSpline
 62
7
  6
CONTINUOUS
 70
0
 71
3
 72
21
 73
17
 74
0
 42
0.0000001
 43
0.0000001
 44
0.0000000001
 40
0.0
 40
0.0
 40
0.0
 40
0.0
 40
0.1269527041
 40
0.1902689165
 40
0.2534593491
 40
0.3165116873
 40
0.37941528
 40
0.4421620112
 40
0.5047460954
 40
0.5671657261
 40
0.6294227274
 40
0.6915221182
 40
0.7534726662
 40
0.8152847883
 40
0.8769699244
 40
1.0
 40
1.0
 40
1.0
 40
1.0
 10
13.8586274031
 20
8.4894565376
 30
0.0
 10
13.8647558511
 20
8.4660253804
 30
0.0
 10
13.8731328667
 20
8.430685091
 30
0.0
 10
13.8823041126
 20
8.3832036779
 30
0.0
 10
13.8880814948
 20
8.3474987454
 30
0.0
 10
13.8926788397
 20
8.3117016555
 30
0.0
 10
13.8960228969
 20
8.2758499606
 30
0.0
 10
13.8980546949
 20
8.2399889042
 30
0.0
 10
13.8987371655
 20
8.2041688106
 30
0.0
 10
13.8980582544
 20
8.1684420245
 30
0.0
 10
13.8960297175
 20
8.1328592551
 30
0.0
 10
13.8926883651
 20
8.097466047
 30
0.0
 10
13.888093061
 20
8.0623001181
 30
0.0
 10
13.8823169542
 20
8.0273892529
 30
0.0
 10
13.8731629372
 20
7.9812516409
 30
0.0
 10
13.864774979
 20
7.9470016812
 30
0.0
 10
13.8586274031
 20
7.924350063
 30
0.0
  0
SPLINE
  5
2BD
100
AcDbEntity
  8
0
100
AcDbSpline
 62
7
  6
CONTINUOUS
 70
0
 71
3
 72
21
 73
17
 74
0
 42
0.0000001
 43
0.0000001
 44
0.0000000001
 40
0.0
 40
0.0
 40
0.0
 40
0.0
 40
0.1230300756
 40
0.1847152118
 40
0.2465273339
 40
0.3084778819
 40
0.3705772727
 40
0.432834274
 40
0.4952539046
 40
0.5578379889
 40
0.6205847201
 40
0.6834883127
 40
0.746540651
 40
0.8097310835
 40
0.8730472959
 40
1.0
 40
1.0
 40
1.0
 40
1.0
 10
13.4742239617
 20
8.5161150068
 30
0.0
 10
13.4680763858
 20
8.4934633887
 30
0.0
 10
13.4596884276
 20
8.4592134289
 30
0.0
 10
13.4505344106
 20
8.4130758169
 30
0.0
 10
13.4447583038
 20
8.3781649517
 30
0.0
 10
13.4401629998
 20
8.3429990228
 30
0.0
 10
13.4368216473
 20
8.3076058147
 30
0.0
 10
13.4347931104
 20
8.2720230453
 30
0.0
 10
13.4341141993
 20
8.2362962592
 30
0.0
 10
13.4347966699
 20
8.2004761656
 30
0.0
 10
13.4368284679
 20
8.1646151092
 30
0.0
 10
13.4401725252
 20
8.1287634143
 30
0.0
 10
13.44476987
 20
8.0929663244
 30
0.0
 10
13.4505472523
 20
8.0572613919
 30
0.0
 10
13.4597184981
 20
8.0097799788
 30
0.0
 10
13.4680955137
 20
7.9744396894
 30
0.0
 10
13.4742239617
 20
7.9510085322
 30
0.0
  0
SPLINE
  5
2BE
100
AcDbEntity
  8
0
100
AcDbSpline
 62
7
  6
CONTINUOUS
 70
0
 71
3
 72
24
 73
20
 74
0
 42
0.0000001
 43
0.0000001
 44
0.0000000001
 40
0.0
 40
0.0
 40
0.0
 40
0.0
 40
0.0913270067
 40
0.1792345887
 40
0.2633975065
 40
0.3435123174
 40
0.419314425
 40
0.4906094671
 40
0.5245345675
 40
0.5573078303
 40
0.6194264789
 40
0.67715515
 40
0.7308292085
 40
0.7809307172
 40
0.8280591397
 40
0.8728796032
 40
0.9160685661
 40
0.9582602556
 40
1.0
 40
1.0
 40
1.0
 40
1.0
 10
13.8658514152
 20
7.8846311333
 30
0.0
 10
13.8714951854
 20
7.8812984308
 30
0.0
 10
13.8825082874
 20
7.8746498514
 30
0.0
 10
13.8984604492
 20
7.8645038658
 30
0.0
 10
13.9134599966
 20
7.8543709798
 30
0.0
 10
13.9274162027
 20
7.8442604037
 30
0.0
 10
13.9402417527
 20
7.8341828889
 30
0.0
 10
13.9500791597
 20
7.825687764
 30
0.0
 10
13.9572968505
 20
7.8189046702
 30
0.0
 10
13.9638416231
 20
7.8123737109
 30
0.0
 10
13.9712220296
 20
7.8042674998
 30
0.0
 10
13.9788942719
 20
7.7944412009
 30
0.0
 10
13.9852141812
 20
7.7847051366
 30
0.0
 10
13.9902001975
 20
7.7750695238
 30
0.0
 10
13.9938931681
 20
7.7655446991
 30
0.0
 10
13.9963519941
 20
7.7561406559
 30
0.0
 10
13.9976521007
 20
7.7468660085
 30
0.0
 10
13.9978814011
 20
7.7377275572
 30
0.0
 10
13.9973807848
 20
7.7317122019
 30
0.0
 10
13.996984713
 20
7.7287429425
 30
0.0
  0
SPLINE
  5
2BF
100
AcDbEntity
  8
0
100
AcDbSpline
 62
7
  6
CONTINUOUS
 70
0
 71
3
 72
15
 73
11
 74
0
 42
0.0000001
 43
0.0000001
 44
0.0000000001
 40
0.0
 40
0.0
 40
0.0
 40
0.0
 40
0.1195882985
 40
0.2396126262
 40
0.360556304
 40
0.482967703
 40
0.6074530981
 40
0.7346676949
 40
0.8652861107
 40
1.0
 40
1.0
 40
1.0
 40
1.0
 10
13.4814479739
 20
7.9112896025
 30
0.0
 10
13.4812134508
 20
7.9095314358
 30
0.0
 10
13.4808467115
 20
7.9059939274
 30
0.0
 10
13.480625091
 20
7.9006473049
 30
0.0
 10
13.4807503148
 20
7.8952551688
 30
0.0
 10
13.4812410638
 20
7.889817298
 30
0.0
 10
13.482115705
 20
7.884333429
 30
0.0
 10
13.4833925142
 20
7.8788038622
 30
0.0
 10
13.4850873139
 20
7.8732292707
 30
0.0
 10
13.4864828157
 20
7.8695459789
 30
0.0
 10
13.4872499296
 20
7.8677010205
 30
0.0
  0
SPLINE
  5
2C0
100
AcDbEntity
  8
0
100
AcDbSpline
 62
7
  6
CONTINUOUS
 70
0
 71
3
 72
20
 73
16
 74
0
 42
0.0000001
 43
0.0000001
 44
0.0000000001
 40
0.0
 40
0.0
 40
0.0
 40
0.0
 40
0.1331037673
 40
0.2634964055
 40
0.327677312
 40
0.3911929477
 40
0.4540734952
 40
0.5163596019
 40
0.5781028428
 40
0.6393597248
 40
0.700191946
 40
0.7606604287
 40
0.8208241912
 40
0.8807392578
 40
1.0
 40
1.0
 40
1.0
 40
1.0
 10
13.568415122
 20
8.9110397271
 30
0.0
 10
13.5603523638
 20
8.8973744749
 30
0.0
 10
13.5451467847
 20
8.8698653699
 30
0.0
 10
13.5285380301
 20
8.8344730823
 30
0.0
 10
13.5170492614
 20
8.8059262043
 30
0.0
 10
13.5093898558
 20
8.7845323171
 30
0.0
 10
13.50266006
 20
8.7630645896
 30
0.0
 10
13.4968664281
 20
8.7415441198
 30
0.0
 10
13.4920001196
 20
8.7199936569
 30
0.0
 10
13.488045087
 20
8.6984338943
 30
0.0
 10
13.4849707197
 20
8.6768848673
 30
0.0
 10
13.4827413656
 20
8.6553636245
 30
0.0
 10
13.4813127644
 20
8.6338841861
 30
0.0
 10
13.4804138695
 20
8.6053638681
 30
0.0
 10
13.4807914273
 20
8.5839908834
 30
0.0
 10
13.4814479739
 20
8.5697896572
 30
0.0
  0
SPLINE
  5
2C1
100
AcDbEntity
  8
0
100
AcDbSpline
 62
7
  6
CONTINUOUS
 70
0
 71
3
 72
23
 73
19
 74
0
 42
0.0000001
 43
0.0000001
 44
0.0000000001
 40
0.0
 40
0.0
 40
0.0
 40
0.0
 40
0.0586500584
 40
0.1174971748
 40
0.1766041375
 40
0.2360481059
 40
0.2959121929
 40
0.3562840494
 40
0.417251051
 40
0.4788922537
 40
0.5412731263
 40
0.604440809
 40
0.668420163
 40
0.7332144894
 40
0.7988073735
 40
0.8651659572
 40
0.9322480423
 40
1.0
 40
1.0
 40
1.0
 40
1.0
 10
13.996984713
 20
8.9523494718
 30
0.0
 10
13.9973807994
 20
8.9437820502
 30
0.0
 10
13.9978791825
 20
8.926602997
 30
0.0
 10
13.9976577
 20
8.9007722551
 30
0.0
 10
13.9963795654
 20
8.874854539
 30
0.0
 10
13.9939577039
 20
8.8488682076
 30
0.0
 10
13.9903131199
 20
8.8228372078
 30
0.0
 10
13.985380252
 20
8.7967918648
 30
0.0
 10
13.979110304
 20
8.7707678625
 30
0.0
 10
13.9714783092
 20
8.7448038853
 30
0.0
 10
13.9624852909
 20
8.7189388293
 30
0.0
 10
13.9521561867
 20
8.6932097145
 30
0.0
 10
13.9405399147
 20
8.6676484623
 30
0.0
 10
13.9277052605
 20
8.642279915
 30
0.0
 10
13.9137333479
 20
8.6171221225
 30
0.0
 10
13.8987137243
 20
8.5921853013
 30
0.0
 10
13.8827397826
 20
8.5674733709
 30
0.0
 10
13.8715673454
 20
8.5512236595
 30
0.0
 10
13.8658514152
 20
8.543131188
 30
0.0
  0
SPLINE
  5
2C2
100
AcDbEntity
  8
0
100
AcDbSpline
 62
7
  6
CONTINUOUS
 70
0
 71
3
 72
47
 73
43
 74
0
 42
0.0000001
 43
0.0000001
 44
0.0000000001
 40
0.0
 40
0.0
 40
0.0
 40
0.0
 40
0.0097391519
 40
0.0199696499
 40
0.0306883499
 40
0.0418906313
 40
0.0535697218
 40
0.0657177381
 40
0.0783258622
 40
0.0913835967
 40
0.1188011894
 40
0.1478708031
 40
0.1784789024
 40
0.2105004597
 40
0.2438012893
 40
0.2782390213
 40
0.3136638571
 40
0.3499203301
 40
0.3868480282
 40
0.4242824673
 40
0.4620564087
 40
0.5000005539
 40
0.5379446778
 40
0.5757186136
 40
0.6131530318
 40
0.6500806823
 40
0.6863371626
 40
0.7217619248
 40
0.7561995698
 40
0.7895004202
 40
0.8215218603
 40
0.852129847
 40
0.8811994802
 40
0.9086169292
 40
0.9216746935
 40
0.9342826567
 40
0.9464306281
 40
0.9581097577
 40
0.9693119419
 40
0.9800306772
 40
0.9902611984
 40
1.0
 40
1.0
 40
1.0
 40
1.0
 10
13.472970735
 20
7.9020078209
 30
0.0
 10
13.4717477524
 20
7.9049461544
 30
0.0
 10
13.469346617
 20
7.9110158173
 30
0.0
 10
13.465949321
 20
7.9204530492
 30
0.0
 10
13.4626715072
 20
7.9304369325
 30
0.0
 10
13.4595174581
 20
7.9409556153
 30
0.0
 10
13.4564905992
 20
7.9519965766
 30
0.0
 10
13.4535946097
 20
7.9635467028
 30
0.0
 10
13.4508332087
 20
7.9755923529
 30
0.0
 10
13.4472769666
 20
7.9925720964
 30
0.0
 10
13.4432157925
 20
8.0149378198
 30
0.0
 10
13.4390013555
 20
8.0430901263
 30
0.0
 10
13.435391282
 20
8.072842136
 30
0.0
 10
13.4324029086
 20
8.1040518403
 30
0.0
 10
13.4300510562
 20
8.1365705382
 30
0.0
 10
13.4283474867
 20
8.170243008
 30
0.0
 10
13.427300373
 20
8.2049084185
 30
0.0
 10
13.4269150274
 20
8.2404011017
 30
0.0
 10
13.4271936167
 20
8.2765514149
 30
0.0
 10
13.4281347029
 20
8.3131865336
 30
0.0
 10
13.4297339631
 20
8.3501312577
 30
0.0
 10
13.4319839336
 20
8.3872089115
 30
0.0
 10
13.4348736462
 20
8.4242421959
 30
0.0
 10
13.4383893675
 20
8.4610539986
 30
0.0
 10
13.4425143517
 20
8.4974682863
 30
0.0
 10
13.4472285603
 20
8.5333109632
 30
0.0
 10
13.4525094506
 20
8.5684106586
 30
0.0
 10
13.4583317107
 20
8.6025996188
 30
0.0
 10
13.4646670638
 20
8.6357145327
 30
0.0
 10
13.4714851084
 20
8.6675972442
 30
0.0
 10
13.4787530322
 20
8.6980955901
 30
0.0
 10
13.486435472
 20
8.7270643764
 30
0.0
 10
13.4944955061
 20
8.7543653913
 30
0.0
 10
13.5016052584
 20
8.775956331
 30
0.0
 10
13.5074711624
 20
8.792282586
 30
0.0
 10
13.5118689606
 20
8.8038316547
 30
0.0
 10
13.5163315503
 20
8.8148714072
 30
0.0
 10
13.5208534111
 20
8.825388856
 30
0.0
 10
13.5254293728
 20
8.835371398
 30
0.0
 10
13.5300539907
 20
8.8448072123
 30
0.0
 10
13.5347213342
 20
8.8536851042
 30
0.0
 10
13.5379373026
 20
8.859365106
 30
0.0
 10
13.53955413
 20
8.8621063887
 30
0.0
  0
SPLINE
  5
2C3
100
AcDbEntity
  8
0
100
AcDbSpline
 62
7
  6
CONTINUOUS
 70
0
 71
3
 72
9
 73
5
 74
0
 42
0.0000001
 43
0.0000001
 44
0.0000000001
 40
0.0
 40
0.0
 40
0.0
 40
0.0
 40
0.5156474505
 40
1.0
 40
1.0
 40
1.0
 40
1.0
 10
14.1445106211
 20
8.8353940702
 30
0.0
 10
14.1431511251
 20
8.8386603729
 30
0.0
 10
14.1403935852
 20
8.8449453155
 30
0.0
 10
14.1373600665
 20
8.8511027563
 30
0.0
 10
14.13581436
 20
8.8540446157
 30
0.0
  0
SPLINE
  5
2C4
100
AcDbEntity
  8
0
100
AcDbSpline
 62
7
  6
CONTINUOUS
 70
0
 71
3
 72
27
 73
23
 74
0
 42
0.0000001
 43
0.0000001
 44
0.0000000001
 40
0.0
 40
0.0
 40
0.0
 40
0.0
 40
0.0862376397
 40
0.166476999
 40
0.2409287868
 40
0.3098931797
 40
0.3737956139
 40
0.4332053045
 40
0.4888618794
 40
0.5155840016
 40
0.5417313436
 40
0.5674464209
 40
0.5928800766
 40
0.6181886775
 40
0.6435307976
 40
0.669064262
 40
0.6949432855
 40
0.7482846378
 40
0.8046652017
 40
0.8649789148
 40
0.929919677
 40
1.0
 40
1.0
 40
1.0
 40
1.0
 10
14.13581436
 20
8.8540446157
 30
0.0
 10
14.1343126625
 20
8.8569027149
 30
0.0
 10
14.1312734205
 20
8.8623484612
 30
0.0
 10
14.1264078845
 20
8.869950824
 30
0.0
 10
14.1214090732
 20
8.8766781363
 30
0.0
 10
14.1162825794
 20
8.8825189961
 30
0.0
 10
14.111033927
 20
8.8874639861
 30
0.0
 10
14.1056689792
 20
8.8915029326
 30
0.0
 10
14.1010408359
 20
8.8941395519
 30
0.0
 10
14.0973095647
 20
8.8957558459
 30
0.0
 10
14.0945268443
 20
8.8967200843
 30
0.0
 10
14.0917238288
 20
8.8974515002
 30
0.0
 10
14.0889018462
 20
8.897949538
 30
0.0
 10
14.0860624645
 20
8.8982140375
 30
0.0
 10
14.0832072609
 20
8.8982449347
 30
0.0
 10
14.0803376462
 20
8.8980421789
 30
0.0
 10
14.0764564479
 20
8.8974550636
 30
0.0
 10
14.0715402107
 20
8.8961089191
 30
0.0
 10
14.0656802203
 20
8.8935767901
 30
0.0
 10
14.0598052875
 20
8.8901221745
 30
0.0
 10
14.0539238118
 20
8.8857568448
 30
0.0
 10
14.0501523555
 20
8.8823804033
 30
0.0
 10
14.0482652532
 20
8.8805576023
 30
0.0
  0
SPLINE
  5
2C5
100
AcDbEntity
  8
0
100
AcDbSpline
 62
7
  6
CONTINUOUS
 70
0
 71
3
 72
15
 73
11
 74
0
 42
0.0000001
 43
0.0000001
 44
0.0000000001
 40
0.0
 40
0.0
 40
0.0
 40
0.0
 40
0.1273483281
 40
0.2538605602
 40
0.3795878981
 40
0.5046051042
 40
0.6290174419
 40
0.7529533761
 40
0.876560577
 40
1.0
 40
1.0
 40
1.0
 40
1.0
 10
12.3381920869
 20
7.0520359638
 30
0.0
 10
12.3381920869
 20
7.0477088348
 30
0.0
 10
12.3377789333
 20
7.0390770038
 30
0.0
 10
12.3359104799
 20
7.0262952747
 30
0.0
 10
12.332812274
 20
7.013834705
 30
0.0
 10
12.3285122988
 20
7.0018118242
 30
0.0
 10
12.3230500157
 20
6.9903375069
 30
0.0
 10
12.3164751916
 20
6.9795177194
 30
0.0
 10
12.3088496632
 20
6.9694538342
 30
0.0
 10
12.3031080248
 20
6.9633062489
 30
0.0
 10
12.3000912461
 20
6.960392269
 30
0.0
  0
SPLINE
  5
2C6
100
AcDbEntity
  8
0
100
AcDbSpline
 62
7
  6
CONTINUOUS
 70
0
 71
3
 72
15
 73
11
 74
0
 42
0.0000001
 43
0.0000001
 44
0.0000000001
 40
0.0
 40
0.0
 40
0.0
 40
0.0
 40
0.1273483281
 40
0.2538605602
 40
0.3795878981
 40
0.5046051042
 40
0.6290174419
 40
0.7529533761
 40
0.876560577
 40
1.0
 40
1.0
 40
1.0
 40
1.0
 10
10.2855995845
 20
7.1943837373
 30
0.0
 10
10.2855995845
 20
7.1900566083
 30
0.0
 10
10.2851864308
 20
7.1814247773
 30
0.0
 10
10.2833179774
 20
7.1686430483
 30
0.0
 10
10.2802197716
 20
7.1561824785
 30
0.0
 10
10.2759197963
 20
7.1441595978
 30
0.0
 10
10.2704575132
 20
7.1326852804
 30
0.0
 10
10.2638826891
 20
7.121865493
 30
0.0
 10
10.2562571607
 20
7.1118016078
 30
0.0
 10
10.2505155223
 20
7.1056540224
 30
0.0
 10
10.2474987436
 20
7.1027400425
 30
0.0
  0
SPLINE
  5
2C7
100
AcDbEntity
  8
0
100
AcDbSpline
 62
7
  6
CONTINUOUS
 70
0
 71
3
 72
15
 73
11
 74
0
 42
0.0000001
 43
0.0000001
 44
0.0000000001
 40
0.0
 40
0.0
 40
0.0
 40
0.0
 40
0.1273483281
 40
0.2538605602
 40
0.3795878981
 40
0.5046051042
 40
0.6290174419
 40
0.7529533761
 40
0.876560577
 40
1.0
 40
1.0
 40
1.0
 40
1.0
 10
10.2855995845
 20
8.9446413293
 30
0.0
 10
10.2855995845
 20
8.9403142003
 30
0.0
 10
10.2851864308
 20
8.9316823693
 30
0.0
 10
10.2833179774
 20
8.9189006403
 30
0.0
 10
10.2802197716
 20
8.9064400705
 30
0.0
 10
10.2759197963
 20
8.8944171898
 30
0.0
 10
10.2704575132
 20
8.8829428724
 30
0.0
 10
10.2638826891
 20
8.872123085
 30
0.0
 10
10.2562571607
 20
8.8620591998
 30
0.0
 10
10.2505155223
 20
8.8559116144
 30
0.0
 10
10.2474987436
 20
8.8529976345
 30
0.0
  0
SPLINE
  5
2C8
100
AcDbEntity
  8
0
100
AcDbSpline
 62
7
  6
CONTINUOUS
 70
0
 71
3
 72
15
 73
11
 74
0
 42
0.0000001
 43
0.0000001
 44
0.0000000001
 40
0.0
 40
0.0
 40
0.0
 40
0.0
 40
0.1273483281
 40
0.2538605602
 40
0.3795878981
 40
0.5046051042
 40
0.6290174419
 40
0.7529533761
 40
0.876560577
 40
1.0
 40
1.0
 40
1.0
 40
1.0
 10
12.3381920869
 20
8.8022935558
 30
0.0
 10
12.3381920869
 20
8.7979664268
 30
0.0
 10
12.3377789333
 20
8.7893345958
 30
0.0
 10
12.3359104799
 20
8.7765528667
 30
0.0
 10
12.332812274
 20
8.764092297
 30
0.0
 10
12.3285122988
 20
8.7520694162
 30
0.0
 10
12.3230500157
 20
8.7405950989
 30
0.0
 10
12.3164751916
 20
8.7297753114
 30
0.0
 10
12.3088496632
 20
8.7197114263
 30
0.0
 10
12.3031080248
 20
8.7135638409
 30
0.0
 10
12.3000912461
 20
8.710649861
 30
0.0
  0
SPLINE
  5
2C9
100
AcDbEntity
  8
0
100
AcDbSpline
 62
7
  6
CONTINUOUS
 70
0
 71
3
 72
39
 73
35
 74
0
 42
0.0000001
 43
0.0000001
 44
0.0000000001
 40
0.0
 40
0.0
 40
0.0
 40
0.0
 40
0.0299745274
 40
0.0599216172
 40
0.0898754134
 40
0.1198677942
 40
0.149928805
 40
0.1800847204
 40
0.2103574919
 40
0.2407642951
 40
0.2713174733
 40
0.3020247307
 40
0.3328895089
 40
0.3639114656
 40
0.3950869934
 40
0.4264097293
 40
0.4578710253
 40
0.4894603619
 40
0.5211656964
 40
0.5529737472
 40
0.58487022
 40
0.616839982
 40
0.648867196
 40
0.6809354233
 40
0.7130277058
 40
0.7451266375
 40
0.7772144366
 40
0.8092730301
 40
0.8412841629
 40
0.8732295458
 40
0.9050910585
 40
0.9368510206
 40
0.9684925473
 40
1.0
 40
1.0
 40
1.0
 40
1.0
 10
11.8996826446
 20
8.4438930705
 30
0.0
 10
11.9026358012
 20
8.4479058132
 30
0.0
 10
11.9089161611
 20
8.4556581311
 30
0.0
 10
11.9193727087
 20
8.4663559137
 30
0.0
 10
11.9307763607
 20
8.4760438516
 30
0.0
 10
11.9430327453
 20
8.4846589684
 30
0.0
 10
11.956042513
 20
8.4921538597
 30
0.0
 10
11.9697027085
 20
8.498494324
 30
0.0
 10
11.9839094681
 20
8.503659264
 30
0.0
 10
11.9985600235
 20
8.5076393279
 30
0.0
 10
12.0135543378
 20
8.5104355106
 30
0.0
 10
12.0287962643
 20
8.5120575682
 30
0.0
 10
12.0441942809
 20
8.512522466
 30
0.0
 10
12.0596618554
 20
8.5118529291
 30
0.0
 10
12.0751175118
 20
8.51007616
 30
0.0
 10
12.0904846712
 20
8.507222752
 30
0.0
 10
12.1056913304
 20
8.5033258044
 30
0.0
 10
12.120669635
 20
8.498420236
 30
0.0
 10
12.1353553884
 20
8.49254228
 30
0.0
 10
12.1496875333
 20
8.4857291443
 30
0.0
 10
12.1636076295
 20
8.4780188171
 30
0.0
 10
12.1770593479
 20
8.4694500016
 30
0.0
 10
12.1899879955
 20
8.4600621631
 30
0.0
 10
12.2023400816
 20
8.4498956762
 30
0.0
 10
12.2140629354
 20
8.4389920616
 30
0.0
 10
12.2251043845
 20
8.4273943038
 30
0.0
 10
12.2354125044
 20
8.4151472434
 30
0.0
 10
12.244935453
 20
8.4022980344
 30
0.0
 10
12.2536214011
 20
8.3888966718
 30
0.0
 10
12.2614185912
 20
8.3749965261
 30
0.0
 10
12.2682755015
 20
8.3606550721
 30
0.0
 10
12.2741413002
 20
8.3459340354
 30
0.0
 10
12.2789660215
 20
8.330901737
 30
0.0
 10
12.2814628026
 20
8.3206955272
 30
0.0
 10
12.282520756
 20
8.3155664082
 30
0.0
  0
SPLINE
  5
2CA
100
AcDbEntity
  8
0
100
AcDbSpline
 62
7
  6
CONTINUOUS
 70
0
 71
3
 72
15
 73
11
 74
0
 42
0.0000001
 43
0.0000001
 44
0.0000000001
 40
0.0
 40
0.0
 40
0.0
 40
0.0
 40
0.1234973226
 40
0.247471582
 40
0.3718941098
 40
0.4967553746
 40
0.6220279368
 40
0.7476824282
 40
0.8736856017
 40
1.0
 40
1.0
 40
1.0
 40
1.0
 10
11.5688321032
 20
7.7091503806
 30
0.0
 10
11.5654371723
 20
7.7093858198
 30
0.0
 10
11.5586458832
 20
7.7100475142
 30
0.0
 10
11.5485117917
 20
7.7116031269
 30
0.0
 10
11.5384408534
 20
7.7137180886
 30
0.0
 10
11.5284646256
 20
7.7163837417
 30
0.0
 10
11.5186130449
 20
7.7195895979
 30
0.0
 10
11.5089152918
 20
7.7233228148
 30
0.0
 10
11.4993996555
 20
7.7275684604
 30
0.0
 10
11.4932013384
 20
7.7307264422
 30
0.0
 10
11.4901410768
 20
7.7323848017
 30
0.0
  0
SPLINE
  5
2CB
100
AcDbEntity
  8
0
100
AcDbSpline
 62
7
  6
CONTINUOUS
 70
0
 71
3
 72
29
 73
25
 74
0
 42
0.0000001
 43
0.0000001
 44
0.0000000001
 40
0.0
 40
0.0
 40
0.0
 40
0.0
 40
0.0645955239
 40
0.0968515598
 40
0.1290654035
 40
0.1933261382
 40
0.2573385289
 40
0.2892444636
 40
0.3210723832
 40
0.3844639123
 40
0.4475013983
 40
0.5101697235
 40
0.5724648175
 40
0.6343937244
 40
0.6652334549
 40
0.6959892191
 40
0.7266648127
 40
0.7572646805
 40
0.818242481
 40
0.8789833328
 40
0.9092887162
 40
0.9395550049
 40
0.9697895692
 40
1.0
 40
1.0
 40
1.0
 40
1.0
 10
11.329191651
 20
7.4914758696
 30
0.0
 10
11.3328251513
 20
7.4868936483
 30
0.0
 10
11.3379943256
 20
7.4797950609
 30
0.0
 10
11.3442772361
 20
7.4699405879
 30
0.0
 10
11.3501334823
 20
7.4598610173
 30
0.0
 10
11.3566483154
 20
7.4468545097
 30
0.0
 10
11.3620499355
 20
7.4333773533
 30
0.0
 10
11.3656710788
 20
7.42239053
 30
0.0
 10
11.3688127744
 20
7.4113156484
 30
0.0
 10
11.3718496699
 20
7.3972948106
 30
0.0
 10
11.3740443665
 20
7.3802961989
 30
0.0
 10
11.3747740161
 20
7.3632704079
 30
0.0
 10
11.3740383771
 20
7.3463459374
 30
0.0
 10
11.3722100853
 20
7.3324075078
 30
0.0
 10
11.3700288956
 20
7.3214362795
 30
0.0
 10
11.3680408578
 20
7.3133198761
 30
0.0
 10
11.3657026535
 20
7.3053199511
 30
0.0
 10
11.3621296799
 20
7.2948414415
 30
0.0
 10
11.3568137948
 20
7.2820964447
 30
0.0
 10
11.3503941356
 20
7.2699000415
 30
0.0
 10
11.3446350834
 20
7.2605447624
 30
0.0
 10
11.3400139259
 20
7.253742079
 30
0.0
 10
11.3350970327
 20
7.2471611088
 30
0.0
 10
11.3316264271
 20
7.2429273972
 30
0.0
 10
11.3298453344
 20
7.2408518048
 30
0.0
  0
SPLINE
  5
2CC
100
AcDbEntity
  8
0
100
AcDbSpline
 62
7
  6
CONTINUOUS
 70
0
 71
3
 72
15
 73
11
 74
0
 42
0.0000001
 43
0.0000001
 44
0.0000000001
 40
0.0
 40
0.0
 40
0.0
 40
0.0
 40
0.1278198568
 40
0.2548780964
 40
0.3811144909
 40
0.5064947669
 40
0.631021786
 40
0.7547312144
 40
0.8776913933
 40
1.0
 40
1.0
 40
1.0
 40
1.0
 10
9.8144148837
 20
7.3493909741
 30
0.0
 10
9.8154259066
 20
7.3465430968
 30
0.0
 10
9.8171734925
 20
7.3407646908
 30
0.0
 10
9.8189438521
 20
7.3319160455
 30
0.0
 10
9.8198408475
 20
7.3229936342
 30
0.0
 10
9.8198567709
 20
7.3140860797
 30
0.0
 10
9.8189938315
 20
7.3052802362
 30
0.0
 10
9.8172629327
 20
7.2966610915
 30
0.0
 10
9.8146844504
 20
7.2883121968
 30
0.0
 10
9.8124124749
 20
7.2829639373
 30
0.0
 10
9.8111465455
 20
7.2803640469
 30
0.0
  0
SPLINE
  5
2CD
100
AcDbEntity
  8
0
100
AcDbSpline
 62
7
  6
CONTINUOUS
 70
0
 71
3
 72
40
 73
36
 74
0
 42
0.0000001
 43
0.0000001
 44
0.0000000001
 40
0.0
 40
0.0
 40
0.0
 40
0.0
 40
0.0312902349
 40
0.062755006
 40
0.0943838057
 40
0.1261640524
 40
0.1580778816
 40
0.1901046264
 40
0.2222206384
 40
0.2544002136
 40
0.2866161874
 40
0.3188406538
 40
0.3510456505
 40
0.3832038357
 40
0.4152891385
 40
0.4472773733
 40
0.4791468103
 40
0.510878692
 40
0.5424576924
 40
0.5738723097
 40
0.6051151836
 40
0.6361833314
 40
0.6670782896
 40
0.6978061553
 40
0.7283775145
 40
0.7588072533
 40
0.789114243
 40
0.8193209003
 40
0.849452624
 40
0.8795371201
 40
0.9096036309
 40
0.9396820913
 40
0.954738763
 40
0.9698095047
 40
1.0
 40
1.0
 40
1.0
 40
1.0
 10
12.5028824518
 20
7.5551690824
 30
0.0
 10
12.505379045
 20
7.5549959431
 30
0.0
 10
12.5103741464
 20
7.5544412228
 30
0.0
 10
12.5177917231
 20
7.552998039
 30
0.0
 10
12.5251070723
 20
7.5509514232
 30
0.0
 10
12.5322695326
 20
7.5483161022
 30
0.0
 10
12.5392306016
 20
7.5451106606
 30
0.0
 10
12.545943103
 20
7.5413577666
 30
0.0
 10
12.5523618681
 20
7.5370837315
 30
0.0
 10
12.5584439572
 20
7.5323183729
 30
0.0
 10
12.5641489569
 20
7.5270947026
 30
0.0
 10
12.5694392235
 20
7.5214486626
 30
0.0
 10
12.5742800957
 20
7.5154188258
 30
0.0
 10
12.5786400763
 20
7.5090461001
 30
0.0
 10
12.5824909835
 20
7.5023734278
 30
0.0
 10
12.5858080782
 20
7.49544549
 30
0.0
 10
12.5885701607
 20
7.488308411
 30
0.0
 10
12.5907596481
 20
7.481009472
 30
0.0
 10
12.592362634
 20
7.4735968312
 30
0.0
 10
12.5933689339
 20
7.4661192513
 30
0.0
 10
12.5937721169
 20
7.4586258326
 30
0.0
 10
12.5935695287
 20
7.4511657498
 30
0.0
 10
12.5927623045
 20
7.4437879914
 30
0.0
 10
12.5913553737
 20
7.4365410982
 30
0.0
 10
12.5893574556
 20
7.4294728999
 30
0.0
 10
12.5867810454
 20
7.4226302447
 30
0.0
 10
12.5836423911
 20
7.4160587241
 30
0.0
 10
12.5799614364
 20
7.4098023845
 30
0.0
 10
12.5757617891
 20
7.4039034587
 30
0.0
 10
12.5710705124
 20
7.3984019899
 30
0.0
 10
12.5659184559
 20
7.3933358284
 30
0.0
 10
12.5612696345
 20
7.3895063132
 30
0.0
 10
12.5573583196
 20
7.3866953111
 30
0.0
 10
12.5533201657
 20
7.3840538829
 30
0.0
 10
12.5501616028
 20
7.3822728833
 30
0.0
 10
12.5480085517
 20
7.3811798044
 30
0.0
  0
SPLINE
  5
2CE
100
AcDbEntity
  8
0
100
AcDbSpline
 62
7
  6
CONTINUOUS
 70
0
 71
3
 72
15
 73
11
 74
0
 42
0.0000001
 43
0.0000001
 44
0.0000000001
 40
0.0
 40
0.0
 40
0.0
 40
0.0
 40
0.1273479682
 40
0.253860626
 40
0.3795879528
 40
0.5046051059
 40
0.6290174614
 40
0.7529533792
 40
0.8765605791
 40
1.0
 40
1.0
 40
1.0
 40
1.0
 10
12.7163520641
 20
8.6852711719
 30
0.0
 10
12.7163520641
 20
8.6823761546
 30
0.0
 10
12.7160756458
 20
8.6766011069
 30
0.0
 10
12.7148255822
 20
8.668049607
 30
0.0
 10
12.7127527453
 20
8.6597129721
 30
0.0
 10
12.7098758703
 20
8.6516691821
 30
0.0
 10
12.7062213655
 20
8.643992405
 30
0.0
 10
12.7018225306
 20
8.6367535328
 30
0.0
 10
12.6967207374
 20
8.6300203871
 30
0.0
 10
12.6928793378
 20
8.6259074112
 30
0.0
 10
12.690860988
 20
8.6239578421
 30
0.0
  0
SPLINE
  5
2CF
100
AcDbEntity
  8
0
100
AcDbSpline
 62
7
  6
CONTINUOUS
 70
0
 71
3
 72
42
 73
38
 74
0
 42
0.0000001
 43
0.0000001
 44
0.0000000001
 40
0.0
 40
0.0
 40
0.0
 40
0.0
 40
0.0314061471
 40
0.0471947013
 40
0.063034296
 40
0.0948491911
 40
0.1268353379
 40
0.1428877804
 40
0.1589709433
 40
0.1912021519
 40
0.223499255
 40
0.2558222182
 40
0.2881312786
 40
0.3203883077
 40
0.3525579675
 40
0.3846086571
 40
0.4005847002
 40
0.4165212389
 40
0.4482577683
 40
0.4798097697
 40
0.5111667313
 40
0.5423243471
 40
0.5732847066
 40
0.6040563904
 40
0.6346544509
 40
0.6651002448
 40
0.6954210762
 40
0.7256496032
 40
0.7558229681
 40
0.7859816247
 40
0.81616786
 40
0.8464240465
 40
0.8767907031
 40
0.9073044576
 40
0.9379962955
 40
0.9688889084
 40
1.0
 40
1.0
 40
1.0
 40
1.0
 10
9.8475521929
 20
7.7418379617
 30
0.0
 10
9.8505531513
 20
7.7416298445
 30
0.0
 10
9.8550509568
 20
7.7410859361
 30
0.0
 10
9.8609752568
 20
7.739912806
 30
0.0
 10
9.866872442
 20
7.7384369396
 30
0.0
 10
9.8741272208
 20
7.7360378423
 30
0.0
 10
9.8811333769
 20
7.7329384479
 30
0.0
 10
9.8865599301
 20
7.7300577636
 30
0.0
 10
9.891864161
 20
7.7269113745
 30
0.0
 10
9.8982207648
 20
7.7225069272
 30
0.0
 10
9.9053340973
 20
7.7165324293
 30
0.0
 10
9.9118773281
 20
7.7099278031
 30
0.0
 10
9.9177940035
 20
7.7027619346
 30
0.0
 10
9.9230357787
 20
7.6951064344
 30
0.0
 10
9.9275612382
 20
7.6870357849
 30
0.0
 10
9.930711138
 20
7.6800177552
 30
0.0
 10
9.9328406035
 20
7.6742712831
 30
0.0
 10
9.9347021637
 20
7.6684641346
 30
0.0
 10
9.9365316996
 20
7.6610881746
 30
0.0
 10
9.9379150691
 20
7.6521166915
 30
0.0
 10
9.9384744953
 20
7.6431114601
 30
0.0
 10
9.9382058651
 20
7.6341494164
 30
0.0
 10
9.9371107463
 20
7.6253066486
 30
0.0
 10
9.9351962141
 20
7.6166589921
 30
0.0
 10
9.932475065
 20
7.6082817221
 30
0.0
 10
9.9289660546
 20
7.6002494001
 30
0.0
 10
9.9246942338
 20
7.5926355476
 30
0.0
 10
9.91969133
 20
7.5855121911
 30
0.0
 10
9.9139961358
 20
7.5789492331
 30
0.0
 10
9.9076548539
 20
7.5730136394
 30
0.0
 10
9.9007213286
 20
7.5677684447
 30
0.0
 10
9.8932571156
 20
7.5632715975
 30
0.0
 10
9.8853312677
 20
7.5595747061
 30
0.0
 10
9.8770199969
 20
7.5567216867
 30
0.0
 10
9.8684054212
 20
7.5547476606
 30
0.0
 10
9.8595760843
 20
7.5536774224
 30
0.0
 10
9.853625645
 20
7.5535766199
 30
0.0
 10
9.8506474638
 20
7.5536779626
 30
0.0
  0
SPLINE
  5
2D0
100
AcDbEntity
  8
0
100
AcDbSpline
 62
7
  6
CONTINUOUS
 70
0
 71
3
 72
31
 73
27
 74
0
 42
0.0000001
 43
0.0000001
 44
0.0000000001
 40
0.0
 40
0.0
 40
0.0
 40
0.0
 40
0.0323931246
 40
0.0647728683
 40
0.0971229469
 40
0.1294346159
 40
0.1938780515
 40
0.258045085
 40
0.2900143647
 40
0.3218920529
 40
0.3536728265
 40
0.3853525776
 40
0.4483791936
 40
0.5109806742
 40
0.573163388
 40
0.6349490196
 40
0.665712327
 40
0.6963903156
 40
0.7269889861
 40
0.7575150074
 40
0.8183604471
 40
0.8790059055
 40
0.9092828782
 40
0.939535033
 40
0.9697711179
 40
1.0
 40
1.0
 40
1.0
 40
1.0
 10
10.4181776699
 20
8.5700903981
 30
0.0
 10
10.4205045509
 20
8.5676021474
 30
0.0
 10
10.4250337422
 20
8.5625093846
 30
0.0
 10
10.4314342354
 20
8.5545440833
 30
0.0
 10
10.4374238189
 20
8.5462753238
 30
0.0
 10
10.4448323888
 20
8.5348913103
 30
0.0
 10
10.4529916463
 20
8.5200299669
 30
0.0
 10
10.4596167345
 20
8.5044635551
 30
0.0
 10
10.4639522608
 20
8.4917128619
 30
0.0
 10
10.4667150082
 20
8.4820383744
 30
0.0
 10
10.4689884923
 20
8.4722686351
 30
0.0
 10
10.4713608357
 20
8.4591749621
 30
0.0
 10
10.4731044432
 20
8.4426940646
 30
0.0
 10
10.4732468119
 20
8.4229118247
 30
0.0
 10
10.4714705645
 20
8.4033404974
 30
0.0
 10
10.4684270381
 20
8.3873264815
 30
0.0
 10
10.4650873721
 20
8.3748003455
 30
0.0
 10
10.4621438575
 20
8.36557499
 30
0.0
 10
10.4587676738
 20
8.3565257193
 30
0.0
 10
10.4537092957
 20
8.344733331
 30
0.0
 10
10.4463543306
 20
8.330508838
 30
0.0
 10
10.4376858886
 20
8.3170758288
 30
0.0
 10
10.4300241313
 20
8.306887498
 30
0.0
 10
10.4239270321
 20
8.2995378636
 30
0.0
 10
10.4174900371
 20
8.2924914462
 30
0.0
 10
10.4129802406
 20
8.288004264
 30
0.0
 10
10.4106738314
 20
8.2858162867
 30
0.0
  0
SPLINE
  5
2D1
100
AcDbEntity
  8
0
100
AcDbSpline
 62
7
  6
CONTINUOUS
 70
0
 71
3
 72
51
 73
47
 74
0
 42
0.0000001
 43
0.0000001
 44
0.0000000001
 40
0.0
 40
0.0
 40
0.0
 40
0.0
 40
0.0417745182
 40
0.0840381526
 40
0.1266602401
 40
0.1695088421
 40
0.2124510407
 40
0.2553535857
 40
0.2980833694
 40
0.3405079697
 40
0.3824961696
 40
0.4239184888
 40
0.4646477158
 40
0.5045594497
 40
0.543532651
 40
0.5814502093
 40
0.6181995334
 40
0.6536731755
 40
0.6877695033
 40
0.7203934427
 40
0.7514573218
 40
0.7663795148
 40
0.7808827261
 40
0.7949585461
 40
0.8085992857
 40
0.8217979826
 40
0.8345485116
 40
0.8468456263
 40
0.8586850779
 40
0.8700637036
 40
0.8809795661
 40
0.8914321058
 40
0.9014223196
 40
0.9109530019
 40
0.9200289921
 40
0.9286575381
 40
0.9368486523
 40
0.9446156358
 40
0.9519755804
 40
0.9589500677
 40
0.9655657995
 40
0.9778459317
 40
0.9836071722
 40
0.9891799125
 40
0.9946230091
 40
1.0
 40
1.0
 40
1.0
 40
1.0
 10
13.3047994069
 20
8.2513358326
 30
0.0
 10
13.3047994069
 20
8.2614100023
 30
0.0
 10
13.3049565769
 20
8.2816766115
 30
0.0
 10
13.305651385
 20
8.3122146272
 30
0.0
 10
13.306804607
 20
8.3429980223
 30
0.0
 10
13.3084124473
 20
8.3739248467
 30
0.0
 10
13.3104696034
 20
8.4048928184
 30
0.0
 10
13.3129692699
 20
8.4357994703
 30
0.0
 10
13.3159031687
 20
8.4665425551
 30
0.0
 10
13.319261573
 20
8.4970203654
 30
0.0
 10
13.3230333406
 20
8.5271320787
 30
0.0
 10
13.3272059498
 20
8.5567780922
 30
0.0
 10
13.3317655401
 20
8.5858603555
 30
0.0
 10
13.3366969578
 20
8.614282699
 30
0.0
 10
13.3419838044
 20
8.6419511573
 30
0.0
 10
13.3476084903
 20
8.6687742845
 30
0.0
 10
13.3535522909
 20
8.6946634719
 30
0.0
 10
13.3597954107
 20
8.7195332278
 30
0.0
 10
13.3663170389
 20
8.7433015609
 30
0.0
 10
13.3730954541
 20
8.7658899712
 30
0.0
 10
13.3790157722
 20
8.7839018696
 30
0.0
 10
13.3838741057
 20
8.797656908
 30
0.0
 10
13.3875190653
 20
8.8074943763
 30
0.0
 10
13.3912110544
 20
8.8169834574
 30
0.0
 10
13.3949470316
 20
8.8261163397
 30
0.0
 10
13.3987239061
 20
8.8348854967
 30
0.0
 10
13.4025385461
 20
8.8432837151
 30
0.0
 10
13.4063878047
 20
8.8513040924
 30
0.0
 10
13.4102685022
 20
8.8589400489
 30
0.0
 10
13.4141774449
 20
8.8661853327
 30
0.0
 10
13.4181114273
 20
8.8730340242
 30
0.0
 10
13.4220672307
 20
8.8794805478
 30
0.0
 10
13.4260416517
 20
8.8855196668
 30
0.0
 10
13.4300314804
 20
8.8911465045
 30
0.0
 10
13.4340335552
 20
8.8963565191
 30
0.0
 10
13.43804473
 20
8.9011455434
 30
0.0
 10
13.4420619252
 20
8.9055097088
 30
0.0
 10
13.4460821982
 20
8.9094455612
 30
0.0
 10
13.4501023791
 20
8.9129497109
 30
0.0
 10
13.4541206292
 20
8.9160197129
 30
0.0
 10
13.4593392405
 20
8.9194439509
 30
0.0
 10
13.4646896974
 20
8.9221218779
 30
0.0
 10
13.4701091559
 20
8.9238981408
 30
0.0
 10
13.4740715462
 20
8.9247547608
 30
0.0
 10
13.4780117117
 20
8.925161438
 30
0.0
 10
13.4806276891
 20
8.9251315235
 30
0.0
 10
13.4819212745
 20
8.9250418072
 30
0.0
  0
SPLINE
  5
2D2
100
AcDbEntity
  8
0
100
AcDbSpline
 62
7
  6
CONTINUOUS
 70
0
 71
3
 72
11
 73
7
 74
0
 42
0.0000001
 43
0.0000001
 44
0.0000000001
 40
0.0
 40
0.0
 40
0.0
 40
0.0
 40
0.2497584802
 40
0.4994859022
 40
0.7494799913
 40
1.0
 40
1.0
 40
1.0
 40
1.0
 10
10.9515547368
 20
7.8519835091
 30
0.0
 10
10.9479265223
 20
7.8475983136
 30
0.0
 10
10.9402744077
 20
7.8391479743
 30
0.0
 10
10.9277228062
 20
7.8275342994
 30
0.0
 10
10.9142006575
 20
7.8170393236
 30
0.0
 10
10.904614281
 20
7.8108297361
 30
0.0
 10
10.8996971837
 20
7.8079290678
 30
0.0
  0
SPLINE
  5
2D3
100
AcDbEntity
  8
0
100
AcDbSpline
 62
7
  6
CONTINUOUS
 70
0
 71
3
 72
23
 73
19
 74
0
 42
0.0000001
 43
0.0000001
 44
0.0000000001
 40
0.0
 40
0.0
 40
0.0
 40
0.0
 40
0.0609085126
 40
0.1219039388
 40
0.1830148095
 40
0.2442762913
 40
0.3057189766
 40
0.3673735132
 40
0.4292682493
 40
0.4914289538
 40
0.5538780668
 40
0.6166339657
 40
0.6797104216
 40
0.7431159757
 40
0.8068538534
 40
0.8709205471
 40
0.9353081963
 40
1.0
 40
1.0
 40
1.0
 40
1.0
 10
10.6155138227
 20
8.0982029875
 30
0.0
 10
10.6131259797
 20
8.0953164017
 30
0.0
 10
10.6085162202
 20
8.0893965355
 30
0.0
 10
10.6021384506
 20
8.0801133976
 30
0.0
 10
10.5963201777
 20
8.0704437329
 30
0.0
 10
10.5910884715
 20
8.0604134471
 30
0.0
 10
10.5864692759
 20
8.0500499453
 30
0.0
 10
10.5824875043
 20
8.0393834999
 30
0.0
 10
10.5791666356
 20
8.0284468622
 30
0.0
 10
10.5765283174
 20
8.0172754804
 30
0.0
 10
10.5745919739
 20
8.0059074441
 30
0.0
 10
10.5733743632
 20
7.9943834124
 30
0.0
 10
10.5728891514
 20
7.9827464556
 30
0.0
 10
10.5731464598
 20
7.9710417661
 30
0.0
 10
10.5741525235
 20
7.95931644
 30
0.0
 10
10.5759093077
 20
7.947618689
 30
0.0
 10
10.5784141559
 20
7.9359984968
 30
0.0
 10
10.5805734974
 20
7.9283522761
 30
0.0
 10
10.5817737545
 20
7.9245587095
 30
0.0
  0
SPLINE
  5
2D4
100
AcDbEntity
  8
0
100
AcDbSpline
 62
7
  6
CONTINUOUS
 70
0
 71
3
 72
11
 73
7
 74
0
 42
0.0000001
 43
0.0000001
 44
0.0000000001
 40
0.0
 40
0.0
 40
0.0
 40
0.0
 40
0.2483495475
 40
0.4979431011
 40
0.748574494
 40
1.0
 40
1.0
 40
1.0
 40
1.0
 10
10.5817737545
 20
7.9245587095
 30
0.0
 10
10.5833549052
 20
7.9195610991
 30
0.0
 10
10.5869388997
 20
7.9096666393
 30
0.0
 10
10.5935127412
 20
7.8952813357
 30
0.0
 10
10.6012481429
 20
7.8814117478
 30
0.0
 10
10.6071314295
 20
7.8725830135
 30
0.0
 10
10.6102436129
 20
7.8682847239
 30
0.0
  0
SPLINE
  5
2D5
100
AcDbEntity
  8
0
100
AcDbSpline
 62
7
  6
CONTINUOUS
 70
0
 71
3
 72
37
 73
33
 74
0
 42
0.0000001
 43
0.0000001
 44
0.0000000001
 40
0.0
 40
0.0
 40
0.0
 40
0.0
 40
0.0071625163
 40
0.0146566855
 40
0.0224900841
 40
0.0306688224
 40
0.0391978881
 40
0.0480811142
 40
0.0573209621
 40
0.0669185876
 40
0.0871864145
 40
0.1088789618
 40
0.1319780012
 40
0.1564560409
 40
0.1822776811
 40
0.2094008015
 40
0.2377774489
 40
0.267354417
 40
0.2980737688
 40
0.3298734368
 40
0.3626876084
 40
0.3964469841
 40
0.4310791962
 40
0.4665091598
 40
0.5026593021
 40
0.5394498154
 40
0.6146219384
 40
0.6913554392
 40
0.7689602702
 40
0.8467363389
 40
0.9239810822
 40
1.0
 40
1.0
 40
1.0
 40
1.0
 10
7.8971239734
 20
9.4574982067
 30
0.0
 10
7.8963788364
 20
9.4567784595
 30
0.0
 10
7.894889539
 20
9.4552685547
 30
0.0
 10
7.8927066874
 20
9.4528555661
 30
0.0
 10
7.890526554
 20
9.4502455321
 30
0.0
 10
7.8883506277
 20
9.4474401343
 30
0.0
 10
7.8861800893
 20
9.4444410714
 30
0.0
 10
7.8840162111
 20
9.4412500528
 30
0.0
 10
7.8818602112
 20
9.4378689394
 30
0.0
 10
7.8789446008
 20
9.4330214943
 30
0.0
 10
7.8753382299
 20
9.4264909124
 30
0.0
 10
7.8711374638
 20
9.4180678449
 30
0.0
 10
7.8669983838
 20
9.4089413947
 30
0.0
 10
7.8629309653
 20
9.3991332827
 30
0.0
 10
7.8589449835
 20
9.3886667283
 30
0.0
 10
7.8550500685
 20
9.3775666922
 30
0.0
 10
7.8512556597
 20
9.3658596826
 30
0.0
 10
7.8475709517
 20
9.3535737316
 30
0.0
 10
7.8440048505
 20
9.3407383109
 30
0.0
 10
7.8405659946
 20
9.3273842324
 30
0.0
 10
7.8372627267
 20
9.3135435717
 30
0.0
 10
7.8341030309
 20
9.2992496052
 30
0.0
 10
7.8310945418
 20
9.2845367125
 30
0.0
 10
7.8282445532
 20
9.2694402908
 30
0.0
 10
7.8255599337
 20
9.253996639
 30
0.0
 10
7.8221855837
 20
9.2328404702
 30
0.0
 10
7.8184356727
 20
9.205802839
 30
0.0
 10
7.8147173212
 20
9.1728119865
 30
0.0
 10
7.8117851231
 20
9.1393638802
 30
0.0
 10
7.8096673432
 20
9.1057802523
 30
0.0
 10
7.8083843205
 20
9.0723841071
 30
0.0
 10
7.8080902954
 20
9.0502151314
 30
0.0
 10
7.8080902954
 20
9.0392197686
 30
0.0
  0
SPLINE
  5
2D6
100
AcDbEntity
  8
0
100
AcDbSpline
 62
7
  6
CONTINUOUS
 70
0
 71
3
 72
30
 73
26
 74
0
 42
0.0000001
 43
0.0000001
 44
0.0000000001
 40
0.0
 40
0.0
 40
0.0
 40
0.0
 40
0.0851784903
 40
0.1685810969
 40
0.2498834953
 40
0.3287745917
 40
0.4049551108
 40
0.4781414856
 40
0.5480673724
 40
0.6144864538
 40
0.6771752938
 40
0.7070594378
 40
0.735939494
 40
0.7637959642
 40
0.790611226
 40
0.8163706451
 40
0.8410619855
 40
0.8646766072
 40
0.8872090812
 40
0.9086584391
 40
0.9290281656
 40
0.9483275241
 40
0.96657212
 40
0.9837854028
 40
1.0
 40
1.0
 40
1.0
 40
1.0
 10
7.8080902954
 20
7.4695902079
 30
0.0
 10
7.8080902954
 20
7.4624627334
 30
0.0
 10
7.8082117529
 20
7.4483560412
 30
0.0
 10
7.8087687935
 20
7.4274528462
 30
0.0
 10
7.8096965802
 20
7.4070893062
 30
0.0
 10
7.810991059
 20
7.3873512643
 30
0.0
 10
7.8126466443
 20
7.3683216664
 30
0.0
 10
7.8146561745
 20
7.3500805403
 30
0.0
 10
7.8170109613
 20
7.3327044042
 30
0.0
 10
7.8197008826
 20
7.3162662837
 30
0.0
 10
7.8222509841
 20
7.3032063081
 30
0.0
 10
7.8244614979
 20
7.2932863077
 30
0.0
 10
7.8261693491
 20
7.2862417652
 30
0.0
 10
7.8279517121
 20
7.2794809097
 30
0.0
 10
7.8298068244
 20
7.2730108181
 30
0.0
 10
7.831732624
 20
7.2668382498
 30
0.0
 10
7.8337271771
 20
7.2609696564
 30
0.0
 10
7.8357882982
 20
7.2554111317
 30
0.0
 10
7.8379139185
 20
7.2501684549
 30
0.0
 10
7.8401017569
 20
7.2452470247
 30
0.0
 10
7.842349637
 20
7.2406519066
 30
0.0
 10
7.844655224
 20
7.236387793
 30
0.0
 10
7.8470163214
 20
7.2324589575
 30
0.0
 10
7.8494304919
 20
7.2288695604
 30
0.0
 10
7.851123306
 20
7.2266401941
 30
0.0
 10
7.8519793907
 20
7.2255875822
 30
0.0
  0
SPLINE
  5
2D7
100
AcDbEntity
  8
0
100
AcDbSpline
 62
7
  6
CONTINUOUS
 70
0
 71
3
 72
11
 73
7
 74
0
 42
0.0000001
 43
0.0000001
 44
0.0000000001
 40
0.0
 40
0.0
 40
0.0
 40
0.0
 40
0.2446810883
 40
0.4928019152
 40
0.7445511117
 40
1.0
 40
1.0
 40
1.0
 40
1.0
 10
10.8971681138
 20
8.1397567335
 30
0.0
 10
10.8982261189
 20
8.1349638717
 30
0.0
 10
10.8999102902
 20
8.1252065438
 30
0.0
 10
10.901124053
 20
8.1103017207
 30
0.0
 10
10.9010359613
 20
8.0951323878
 30
0.0
 10
10.9001162218
 20
8.0849858844
 30
0.0
 10
10.8994460297
 20
8.0799056523
 30
0.0
  0
SPLINE
  5
2D8
100
AcDbEntity
  8
0
100
AcDbSpline
 62
7
  6
CONTINUOUS
 70
0
 71
3
 72
40
 73
36
 74
0
 42
0.0000001
 43
0.0000001
 44
0.0000000001
 40
0.0
 40
0.0
 40
0.0
 40
0.0
 40
0.0299422956
 40
0.059908968
 40
0.0899238
 40
0.1200094056
 40
0.1350882594
 40
0.1501924656
 40
0.1804801452
 40
0.2108943177
 40
0.241448122
 40
0.2721514726
 40
0.3030108797
 40
0.334029354
 40
0.3652063934
 40
0.3965380465
 40
0.4280170486
 40
0.4596330217
 40
0.4913727316
 40
0.5232203951
 40
0.5551580282
 40
0.5871658292
 40
0.6192225887
 40
0.6513061205
 40
0.6833937063
 40
0.715462548
 40
0.7474902197
 40
0.779455117
 40
0.8113368874
 40
0.8431168691
 40
0.8747784143
 40
0.9063074703
 40
0.9376922765
 40
0.9689251917
 40
1.0
 40
1.0
 40
1.0
 40
1.0
 10
12.1048677545
 20
7.1625030583
 30
0.0
 10
12.1071986028
 20
7.1647544814
 30
0.0
 10
12.1120435728
 20
7.1690756155
 30
0.0
 10
12.1198060381
 20
7.1749624346
 30
0.0
 10
12.1280235008
 20
7.1802247504
 30
0.0
 10
12.1352083585
 20
7.1840627997
 30
0.0
 10
12.1411338709
 20
7.1867931162
 30
0.0
 10
12.1471818158
 20
7.1892980487
 30
0.0
 10
12.1549410455
 20
7.1919915657
 30
0.0
 10
12.1645031294
 20
7.1945018609
 30
0.0
 10
12.1742738617
 20
7.1962802187
 30
0.0
 10
12.1841990951
 20
7.197316829
 30
0.0
 10
12.1942243073
 20
7.1976061608
 30
0.0
 10
12.2042943366
 20
7.1971467422
 30
0.0
 10
12.2143538358
 20
7.1959412277
 30
0.0
 10
12.2243475325
 20
7.1939963599
 30
0.0
 10
12.2342205403
 20
7.1913229325
 30
0.0
 10
12.2439186529
 20
7.1879357266
 30
0.0
 10
12.2533886387
 20
7.1838534272
 30
0.0
 10
12.2625785277
 20
7.1790985193
 30
0.0
 10
12.2714378938
 20
7.1736971637
 30
0.0
 10
12.2799181268
 20
7.1676790543
 30
0.0
 10
12.2879726961
 20
7.161077255
 30
0.0
 10
12.2955574041
 20
7.1539280214
 30
0.0
 10
12.3026306263
 20
7.146270603
 30
0.0
 10
12.3091535362
 20
7.1381470278
 30
0.0
 10
12.3150903166
 20
7.1296018749
 30
0.0
 10
12.3204083529
 20
7.1206820325
 30
0.0
 10
12.3250784167
 20
7.1114364425
 30
0.0
 10
12.329074808
 20
7.1019158412
 30
0.0
 10
12.3323755397
 20
7.0921724574
 30
0.0
 10
12.3349623598
 20
7.0822598395
 30
0.0
 10
12.3368210483
 20
7.0722321684
 30
0.0
 10
12.3379411787
 20
7.062145302
 30
0.0
 10
12.3381920869
 20
7.0553991771
 30
0.0
 10
12.3381920869
 20
7.0520359638
 30
0.0
  0
SPLINE
  5
2D9
100
AcDbEntity
  8
0
100
AcDbSpline
 62
7
  6
CONTINUOUS
 70
0
 71
3
 72
40
 73
36
 74
0
 42
0.0000001
 43
0.0000001
 44
0.0000000001
 40
0.0
 40
0.0
 40
0.0
 40
0.0
 40
0.0299422956
 40
0.059908968
 40
0.0899238
 40
0.1200094056
 40
0.1350882594
 40
0.1501924656
 40
0.1804801452
 40
0.2108943177
 40
0.241448122
 40
0.2721514726
 40
0.3030108797
 40
0.334029354
 40
0.3652063934
 40
0.3965380465
 40
0.4280170486
 40
0.4596330217
 40
0.4913727316
 40
0.5232203951
 40
0.5551580282
 40
0.5871658292
 40
0.6192225887
 40
0.6513061205
 40
0.6833937063
 40
0.715462548
 40
0.7474902197
 40
0.779455117
 40
0.8113368874
 40
0.8431168691
 40
0.8747784143
 40
0.9063074703
 40
0.9376922765
 40
0.9689251917
 40
1.0
 40
1.0
 40
1.0
 40
1.0
 10
10.052275252
 20
7.3048508318
 30
0.0
 10
10.0546061003
 20
7.3071022549
 30
0.0
 10
10.0594510703
 20
7.311423389
 30
0.0
 10
10.0672135356
 20
7.3173102081
 30
0.0
 10
10.0754309983
 20
7.3225725239
 30
0.0
 10
10.082615856
 20
7.3264105732
 30
0.0
 10
10.0885413684
 20
7.3291408897
 30
0.0
 10
10.0945893133
 20
7.3316458222
 30
0.0
 10
10.102348543
 20
7.3343393393
 30
0.0
 10
10.1119106269
 20
7.3368496345
 30
0.0
 10
10.1216813592
 20
7.3386279923
 30
0.0
 10
10.1316065926
 20
7.3396646026
 30
0.0
 10
10.1416318049
 20
7.3399539343
 30
0.0
 10
10.1517018341
 20
7.3394945157
 30
0.0
 10
10.1617613333
 20
7.3382890012
 30
0.0
 10
10.17175503
 20
7.3363441334
 30
0.0
 10
10.1816280378
 20
7.333670706
 30
0.0
 10
10.1913261505
 20
7.3302835002
 30
0.0
 10
10.2007961362
 20
7.3262012008
 30
0.0
 10
10.2099860253
 20
7.3214462928
 30
0.0
 10
10.2188453913
 20
7.3160449373
 30
0.0
 10
10.2273256244
 20
7.3100268278
 30
0.0
 10
10.2353801936
 20
7.3034250285
 30
0.0
 10
10.2429649016
 20
7.2962757949
 30
0.0
 10
10.2500381239
 20
7.2886183765
 30
0.0
 10
10.2565610337
 20
7.2804948013
 30
0.0
 10
10.2624978141
 20
7.2719496485
 30
0.0
 10
10.2678158504
 20
7.263029806
 30
0.0
 10
10.2724859142
 20
7.253784216
 30
0.0
 10
10.2764823055
 20
7.2442636147
 30
0.0
 10
10.2797830372
 20
7.2345202309
 30
0.0
 10
10.2823698573
 20
7.224607613
 30
0.0
 10
10.2842285458
 20
7.2145799419
 30
0.0
 10
10.2853486762
 20
7.2044930755
 30
0.0
 10
10.2855995845
 20
7.1977469506
 30
0.0
 10
10.2855995845
 20
7.1943837373
 30
0.0
  0
SPLINE
  5
2DA
100
AcDbEntity
  8
0
100
AcDbSpline
 62
7
  6
CONTINUOUS
 70
0
 71
3
 72
40
 73
36
 74
0
 42
0.0000001
 43
0.0000001
 44
0.0000000001
 40
0.0
 40
0.0
 40
0.0
 40
0.0
 40
0.0299422956
 40
0.059908968
 40
0.0899238
 40
0.1200094056
 40
0.1350882594
 40
0.1501924656
 40
0.1804801452
 40
0.2108943177
 40
0.241448122
 40
0.2721514726
 40
0.3030108797
 40
0.334029354
 40
0.3652063934
 40
0.3965380465
 40
0.4280170486
 40
0.4596330217
 40
0.4913727316
 40
0.5232203951
 40
0.5551580282
 40
0.5871658292
 40
0.6192225887
 40
0.6513061205
 40
0.6833937063
 40
0.715462548
 40
0.7474902197
 40
0.779455117
 40
0.8113368874
 40
0.8431168691
 40
0.8747784143
 40
0.9063074703
 40
0.9376922765
 40
0.9689251917
 40
1.0
 40
1.0
 40
1.0
 40
1.0
 10
10.052275252
 20
9.0551084238
 30
0.0
 10
10.0546061003
 20
9.0573598469
 30
0.0
 10
10.0594510703
 20
9.061680981
 30
0.0
 10
10.0672135356
 20
9.0675678001
 30
0.0
 10
10.0754309983
 20
9.0728301159
 30
0.0
 10
10.082615856
 20
9.0766681652
 30
0.0
 10
10.0885413684
 20
9.0793984817
 30
0.0
 10
10.0945893133
 20
9.0819034143
 30
0.0
 10
10.102348543
 20
9.0845969313
 30
0.0
 10
10.1119106269
 20
9.0871072265
 30
0.0
 10
10.1216813592
 20
9.0888855843
 30
0.0
 10
10.1316065926
 20
9.0899221946
 30
0.0
 10
10.1416318049
 20
9.0902115263
 30
0.0
 10
10.1517018341
 20
9.0897521077
 30
0.0
 10
10.1617613333
 20
9.0885465932
 30
0.0
 10
10.17175503
 20
9.0866017254
 30
0.0
 10
10.1816280378
 20
9.083928298
 30
0.0
 10
10.1913261505
 20
9.0805410922
 30
0.0
 10
10.2007961362
 20
9.0764587928
 30
0.0
 10
10.2099860253
 20
9.0717038848
 30
0.0
 10
10.2188453913
 20
9.0663025293
 30
0.0
 10
10.2273256244
 20
9.0602844199
 30
0.0
 10
10.2353801936
 20
9.0536826205
 30
0.0
 10
10.2429649016
 20
9.0465333869
 30
0.0
 10
10.2500381239
 20
9.0388759685
 30
0.0
 10
10.2565610337
 20
9.0307523933
 30
0.0
 10
10.2624978141
 20
9.0222072405
 30
0.0
 10
10.2678158504
 20
9.0132873981
 30
0.0
 10
10.2724859142
 20
9.004041808
 30
0.0
 10
10.2764823055
 20
8.9945212067
 30
0.0
 10
10.2797830372
 20
8.9847778229
 30
0.0
 10
10.2823698573
 20
8.974865205
 30
0.0
 10
10.2842285458
 20
8.9648375339
 30
0.0
 10
10.2853486762
 20
8.9547506675
 30
0.0
 10
10.2855995845
 20
8.9480045426
 30
0.0
 10
10.2855995845
 20
8.9446413293
 30
0.0
  0
SPLINE
  5
2DB
100
AcDbEntity
  8
0
100
AcDbSpline
 62
7
  6
CONTINUOUS
 70
0
 71
3
 72
40
 73
36
 74
0
 42
0.0000001
 43
0.0000001
 44
0.0000000001
 40
0.0
 40
0.0
 40
0.0
 40
0.0
 40
0.0299422956
 40
0.059908968
 40
0.0899238
 40
0.1200094056
 40
0.1350882594
 40
0.1501924656
 40
0.1804801452
 40
0.2108943177
 40
0.241448122
 40
0.2721514726
 40
0.3030108797
 40
0.334029354
 40
0.3652063934
 40
0.3965380465
 40
0.4280170486
 40
0.4596330217
 40
0.4913727316
 40
0.5232203951
 40
0.5551580282
 40
0.5871658292
 40
0.6192225887
 40
0.6513061205
 40
0.6833937063
 40
0.715462548
 40
0.7474902197
 40
0.779455117
 40
0.8113368874
 40
0.8431168691
 40
0.8747784143
 40
0.9063074703
 40
0.9376922765
 40
0.9689251917
 40
1.0
 40
1.0
 40
1.0
 40
1.0
 10
12.1048677545
 20
8.9127606503
 30
0.0
 10
12.1071986028
 20
8.9150120734
 30
0.0
 10
12.1120435728
 20
8.9193332075
 30
0.0
 10
12.1198060381
 20
8.9252200266
 30
0.0
 10
12.1280235008
 20
8.9304823424
 30
0.0
 10
12.1352083585
 20
8.9343203917
 30
0.0
 10
12.1411338709
 20
8.9370507082
 30
0.0
 10
12.1471818158
 20
8.9395556407
 30
0.0
 10
12.1549410455
 20
8.9422491578
 30
0.0
 10
12.1645031294
 20
8.9447594529
 30
0.0
 10
12.1742738617
 20
8.9465378108
 30
0.0
 10
12.1841990951
 20
8.9475744211
 30
0.0
 10
12.1942243073
 20
8.9478637528
 30
0.0
 10
12.2042943366
 20
8.9474043342
 30
0.0
 10
12.2143538358
 20
8.9461988197
 30
0.0
 10
12.2243475325
 20
8.9442539519
 30
0.0
 10
12.2342205403
 20
8.9415805245
 30
0.0
 10
12.2439186529
 20
8.9381933186
 30
0.0
 10
12.2533886387
 20
8.9341110192
 30
0.0
 10
12.2625785277
 20
8.9293561113
 30
0.0
 10
12.2714378938
 20
8.9239547558
 30
0.0
 10
12.2799181268
 20
8.9179366463
 30
0.0
 10
12.2879726961
 20
8.911334847
 30
0.0
 10
12.2955574041
 20
8.9041856134
 30
0.0
 10
12.3026306263
 20
8.896528195
 30
0.0
 10
12.3091535362
 20
8.8884046198
 30
0.0
 10
12.3150903166
 20
8.8798594669
 30
0.0
 10
12.3204083529
 20
8.8709396245
 30
0.0
 10
12.3250784167
 20
8.8616940345
 30
0.0
 10
12.329074808
 20
8.8521734332
 30
0.0
 10
12.3323755397
 20
8.8424300494
 30
0.0
 10
12.3349623598
 20
8.8325174315
 30
0.0
 10
12.3368210483
 20
8.8224897604
 30
0.0
 10
12.3379411787
 20
8.812402894
 30
0.0
 10
12.3381920869
 20
8.8056567691
 30
0.0
 10
12.3381920869
 20
8.8022935558
 30
0.0
  0
SPLINE
  5
2DC
100
AcDbEntity
  8
0
100
AcDbSpline
 62
7
  6
CONTINUOUS
 70
0
 71
3
 72
20
 73
16
 74
0
 42
0.0000001
 43
0.0000001
 44
0.0000000001
 40
0.0
 40
0.0
 40
0.0
 40
0.0
 40
0.1278076577
 40
0.2547974646
 40
0.3809263401
 40
0.4436842198
 40
0.5062268232
 40
0.5685592075
 40
0.6306892565
 40
0.6926273648
 40
0.7543872132
 40
0.815984704
 40
0.8774373259
 40
0.9387711174
 40
1.0
 40
1.0
 40
1.0
 40
1.0
 10
11.8712975241
 20
8.2994476782
 30
0.0
 10
11.8699927628
 20
8.3057733593
 30
0.0
 10
11.8679583812
 20
8.3185098901
 30
0.0
 10
11.8667181907
 20
8.3377477154
 30
0.0
 10
11.8672544314
 20
8.3537312552
 30
0.0
 10
11.8686506501
 20
8.3663651486
 30
0.0
 10
11.8701803116
 20
8.3757276804
 30
0.0
 10
11.8721955643
 20
8.3849652602
 30
0.0
 10
11.874696081
 20
8.3940519806
 30
0.0
 10
11.8776794379
 20
8.4029614189
 30
0.0
 10
11.8811411876
 20
8.4116672847
 30
0.0
 10
11.8850747817
 20
8.420143422
 30
0.0
 10
11.889471574
 20
8.4283645825
 30
0.0
 10
11.8943204202
 20
8.4363053739
 30
0.0
 10
11.8978485936
 20
8.4414009661
 30
0.0
 10
11.8996826446
 20
8.4438930705
 30
0.0
  0
SPLINE
  5
2DD
100
AcDbEntity
  8
0
100
AcDbSpline
 62
7
  6
CONTINUOUS
 70
0
 71
3
 72
39
 73
35
 74
0
 42
0.0000001
 43
0.0000001
 44
0.0000000001
 40
0.0
 40
0.0
 40
0.0
 40
0.0
 40
0.0322366683
 40
0.0645602744
 40
0.0969378148
 40
0.1293364473
 40
0.1617245612
 40
0.1940725934
 40
0.2263536092
 40
0.2585436706
 40
0.2906220371
 40
0.3225712746
 40
0.354377297
 40
0.3860293728
 40
0.4175201245
 40
0.4488455379
 40
0.4800049935
 40
0.5110013236
 40
0.5418408927
 40
0.5725336903
 40
0.6030934218
 40
0.633537569
 40
0.6638873881
 40
0.6941677984
 40
0.7244071158
 40
0.7546365751
 40
0.7848895834
 40
0.815200676
 40
0.8456042321
 40
0.8761329341
 40
0.9068160767
 40
0.9376779218
 40
0.9687356221
 40
1.0
 40
1.0
 40
1.0
 40
1.0
 10
11.6475231295
 20
8.1088805169
 30
0.0
 10
11.6527959853
 20
8.1060231498
 30
0.0
 10
11.663110651
 20
8.0998350364
 30
0.0
 10
11.6777438975
 20
8.0892597585
 30
0.0
 10
11.6914675027
 20
8.0774810096
 30
0.0
 10
11.7041911875
 20
8.0646134111
 30
0.0
 10
11.7158401303
 20
8.0507733355
 30
0.0
 10
11.7263514066
 20
8.0360783213
 30
0.0
 10
11.7356734517
 20
8.0206452184
 30
0.0
 10
11.7437645504
 20
8.0045892798
 30
0.0
 10
11.7505915687
 20
7.9880235465
 30
0.0
 10
11.7561287376
 20
7.971058627
 30
0.0
 10
11.7603565996
 20
7.9538027398
 30
0.0
 10
11.7632611345
 20
7.9363619721
 30
0.0
 10
11.7648330847
 20
7.9188406893
 30
0.0
 10
11.7650674896
 20
7.9013420461
 30
0.0
 10
11.7639634316
 20
7.8839685524
 30
0.0
 10
11.7615239977
 20
7.8668226543
 30
0.0
 10
11.7577564566
 20
7.8500072915
 30
0.0
 10
11.752672656
 20
7.8336263889
 30
0.0
 10
11.7462896328
 20
7.8177852398
 30
0.0
 10
11.7386304403
 20
7.8025907282
 30
0.0
 10
11.7297251757
 20
7.788151333
 30
0.0
 10
11.7196121831
 20
7.7745768452
 30
0.0
 10
11.7083393871
 20
7.7619777297
 30
0.0
 10
11.6959656785
 20
7.7504640662
 30
0.0
 10
11.6825622622
 20
7.7401440085
 30
0.0
 10
11.668213819
 20
7.7311217002
 30
0.0
 10
11.6530192661
 20
7.7234947604
 30
0.0
 10
11.6370919026
 20
7.7173513705
 30
0.0
 10
11.6205591109
 20
7.7127671491
 30
0.0
 10
11.6035602402
 20
7.7098020914
 30
0.0
 10
11.5862474009
 20
7.7084973555
 30
0.0
 10
11.5746345777
 20
7.7087479776
 30
0.0
 10
11.5688321032
 20
7.7091503806
 30
0.0
  0
SPLINE
  5
2DE
100
AcDbEntity
  8
0
100
AcDbSpline
 62
7
  6
CONTINUOUS
 70
0
 71
3
 72
35
 73
31
 74
0
 42
0.0000001
 43
0.0000001
 44
0.0000000001
 40
0.0
 40
0.0
 40
0.0
 40
0.0
 40
0.0301728258
 40
0.0603376006
 40
0.0905073949
 40
0.1206951976
 40
0.1509137632
 40
0.1811754627
 40
0.2114921427
 40
0.2418749851
 40
0.2723343666
 40
0.3028797468
 40
0.3335195675
 40
0.3642611489
 40
0.3951105831
 40
0.4260726815
 40
0.4571509262
 40
0.4883474177
 40
0.5196628218
 40
0.551096383
 40
0.5826459374
 40
0.6143079218
 40
0.6460773864
 40
0.6779480712
 40
0.7099124864
 40
0.7419619835
 40
0.8062538616
 40
0.8707579394
 40
0.935374684
 40
1.0
 40
1.0
 40
1.0
 40
1.0
 10
11.0234870196
 20
7.5072871979
 30
0.0
 10
11.0257751992
 20
7.5099537228
 30
0.0
 10
11.0305064331
 20
7.5151548777
 30
0.0
 10
11.0380419258
 20
7.5225320243
 30
0.0
 10
11.0459930233
 20
7.5294624148
 30
0.0
 10
11.054336127
 20
7.5359255998
 30
0.0
 10
11.0630469722
 20
7.54190285
 30
0.0
 10
11.0721002027
 20
7.5473766149
 30
0.0
 10
11.0814695718
 20
7.5523306725
 30
0.0
 10
11.0911279446
 20
7.556750119
 30
0.0
 10
11.1010473155
 20
7.5606214968
 30
0.0
 10
11.1111988846
 20
7.5639327843
 30
0.0
 10
11.1215531157
 20
7.5666734142
 30
0.0
 10
11.13207978
 20
7.568834309
 30
0.0
 10
11.1427479942
 20
7.5704080135
 30
0.0
 10
11.1535263021
 20
7.5713886758
 30
0.0
 10
11.164382742
 20
7.5717720766
 30
0.0
 10
11.1752849089
 20
7.571555667
 30
0.0
 10
11.1862000336
 20
7.5707386988
 30
0.0
 10
11.197095074
 20
7.5693222004
 30
0.0
 10
11.2079368078
 20
7.5673089969
 30
0.0
 10
11.2186919115
 20
7.5647037433
 30
0.0
 10
11.2293271218
 20
7.5615130044
 30
0.0
 10
11.2398092019
 20
7.557745317
 30
0.0
 10
11.2501055915
 20
7.5534108278
 30
0.0
 10
11.2635541387
 20
7.5468870547
 30
0.0
 10
11.2797358666
 20
7.5373777902
 30
0.0
 10
11.297876352
 20
7.5239580842
 30
0.0
 10
11.3145334357
 20
7.5086805714
 30
0.0
 10
11.3245156996
 20
7.4973727298
 30
0.0
 10
11.329191651
 20
7.4914758696
 30
0.0
  0
SPLINE
  5
2DF
100
AcDbEntity
  8
0
100
AcDbSpline
 62
7
  6
CONTINUOUS
 70
0
 71
3
 72
39
 73
35
 74
0
 42
0.0000001
 43
0.0000001
 44
0.0000000001
 40
0.0
 40
0.0
 40
0.0
 40
0.0
 40
0.0303136899
 40
0.0605475661
 40
0.0907235409
 40
0.1208646689
 40
0.1509946066
 40
0.1811370834
 40
0.2113153682
 40
0.2415517623
 40
0.2718671355
 40
0.3022805087
 40
0.3328086865
 40
0.3634659449
 40
0.3942637795
 40
0.4252107094
 40
0.4563121369
 40
0.4875702567
 40
0.5189840221
 40
0.5505491891
 40
0.582258399
 40
0.6141013091
 40
0.6460647722
 40
0.6781330595
 40
0.7102881684
 40
0.7425101686
 40
0.7747775756
 40
0.8070677805
 40
0.8393574995
 40
0.8716231967
 40
0.9038420313
 40
0.9359908035
 40
0.9680509107
 40
1.0
 40
1.0
 40
1.0
 40
1.0
 10
9.6444081579
 20
7.3673676653
 30
0.0
 10
9.6453664526
 20
7.3693357538
 30
0.0
 10
9.6474345778
 20
7.3731938926
 30
0.0
 10
9.6509747559
 20
7.378713842
 30
0.0
 10
9.6549285205
 20
7.3839303998
 30
0.0
 10
9.6592731185
 20
7.3888160276
 30
0.0
 10
9.6639842919
 20
7.393345718
 30
0.0
 10
9.669036024
 20
7.3974963428
 30
0.0
 10
9.6744008198
 20
7.4012468864
 30
0.0
 10
9.680049828
 20
7.4045784206
 30
0.0
 10
9.6859529811
 20
7.4074741532
 30
0.0
 10
9.6920791217
 20
7.4099194437
 30
0.0
 10
9.6983961127
 20
7.4119018549
 30
0.0
 10
9.7048709573
 20
7.4134111804
 30
0.0
 10
9.7114699198
 20
7.414439445
 30
0.0
 10
9.7181586306
 20
7.4149809421
 30
0.0
 10
9.7249021956
 20
7.415032263
 30
0.0
 10
9.7316653072
 20
7.4145923475
 30
0.0
 10
9.7384123719
 20
7.4136625482
 30
0.0
 10
9.7451076416
 20
7.4122466344
 30
0.0
 10
9.7517153555
 20
7.4103508385
 30
0.0
 10
9.7581998946
 20
7.4079838921
 30
0.0
 10
9.7645259473
 20
7.405157053
 30
0.0
 10
9.7706587097
 20
7.4018841553
 30
0.0
 10
9.7765640825
 20
7.3981815883
 30
0.0
 10
9.7822088808
 20
7.3940682732
 30
0.0
 10
9.7875610619
 20
7.3895656295
 30
0.0
 10
9.7925899577
 20
7.3846975094
 30
0.0
 10
9.7972665031
 20
7.3794901128
 30
0.0
 10
9.801563549
 20
7.3739718703
 30
0.0
 10
9.8054559077
 20
7.3681733224
 30
0.0
 10
9.808921008
 20
7.3621266928
 30
0.0
 10
9.8119381781
 20
7.3558665103
 30
0.0
 10
9.8136430407
 20
7.3515651228
 30
0.0
 10
9.8144148837
 20
7.3493909741
 30
0.0
  0
SPLINE
  5
2E0
100
AcDbEntity
  8
0
100
AcDbSpline
 62
7
  6
CONTINUOUS
 70
0
 71
3
 72
15
 73
11
 74
0
 42
0.0000001
 43
0.0000001
 44
0.0000000001
 40
0.0
 40
0.0
 40
0.0
 40
0.0
 40
0.1233759672
 40
0.2471266849
 40
0.3713069079
 40
0.4959646913
 40
0.6211386059
 40
0.7468543558
 40
0.8731463839
 40
1.0
 40
1.0
 40
1.0
 40
1.0
 10
12.4577563282
 20
7.5462005551
 30
0.0
 10
12.4594637864
 20
7.5470674117
 30
0.0
 10
12.4629451274
 20
7.5486860146
 30
0.0
 10
12.4683296436
 20
7.5507521344
 30
0.0
 10
12.4738620425
 20
7.5524512812
 30
0.0
 10
12.4795184883
 20
7.5537756776
 30
0.0
 10
12.485274855
 20
7.5547193715
 30
0.0
 10
12.4911067233
 20
7.5552782315
 30
0.0
 10
12.4969885729
 20
7.555449542
 30
0.0
 10
12.5009182901
 20
7.5553052975
 30
0.0
 10
12.5028824518
 20
7.5551690824
 30
0.0
  0
SPLINE
  5
2E1
100
AcDbEntity
  8
0
100
AcDbSpline
 62
7
  6
CONTINUOUS
 70
0
 71
3
 72
37
 73
33
 74
0
 42
0.0000001
 43
0.0000001
 44
0.0000000001
 40
0.0
 40
0.0
 40
0.0
 40
0.0
 40
0.0299447936
 40
0.0599139685
 40
0.0899313111
 40
0.1200194352
 40
0.1501992442
 40
0.180489451
 40
0.2109061585
 40
0.2414625113
 40
0.2721684281
 40
0.3030304183
 40
0.3340514866
 40
0.3652311292
 40
0.3965653974
 40
0.4280470303
 40
0.4596656502
 40
0.491408017
 40
0.5551595119
 40
0.6191908015
 40
0.6512770143
 40
0.6833672795
 40
0.7154387951
 40
0.7474691381
 40
0.7794367026
 40
0.8113211444
 40
0.8431037821
 40
0.8747679493
 40
0.9062997436
 40
0.9376868029
 40
0.9689230915
 40
1.0
 40
1.0
 40
1.0
 40
1.0
 10
12.5602490741
 20
8.759178093
 30
0.0
 10
12.561808503
 20
8.7606843803
 30
0.0
 10
12.5650499913
 20
8.7635753807
 30
0.0
 10
12.570243344
 20
8.76751387
 30
0.0
 10
12.5757412886
 20
8.7710346209
 30
0.0
 10
12.5815131087
 20
8.7741178729
 30
0.0
 10
12.5875270656
 20
8.7767467872
 30
0.0
 10
12.5937499646
 20
8.7789069222
 30
0.0
 10
12.6001475146
 20
8.7805864622
 30
0.0
 10
12.6066844718
 20
8.7817762359
 30
0.0
 10
12.6133248476
 20
8.7824697726
 30
0.0
 10
12.6200321
 20
8.7826633316
 30
0.0
 10
12.6267693402
 20
8.7823559476
 30
0.0
 10
12.6334995284
 20
8.781549405
 30
0.0
 10
12.6401857116
 20
8.7802482022
 30
0.0
 10
12.6467910808
 20
8.778459612
 30
0.0
 10
12.6532796999
 20
8.7761933069
 30
0.0
 10
12.6617372851
 20
8.7725476018
 30
0.0
 10
12.6718371943
 20
8.766861274
 30
0.0
 10
12.6810683778
 20
8.759812467
 30
0.0
 10
12.6878276742
 20
8.7534410218
 30
0.0
 10
12.6925601301
 20
8.7483177578
 30
0.0
 10
12.6969241476
 20
8.742882808
 30
0.0
 10
12.7008960966
 20
8.7371657605
 30
0.0
 10
12.70445407
 20
8.7311980475
 30
0.0
 10
12.7075785298
 20
8.7250123919
 30
0.0
 10
12.7102522617
 20
8.7186427397
 30
0.0
 10
12.7124605757
 20
8.7121240315
 30
0.0
 10
12.7141912257
 20
8.7054921211
 30
0.0
 10
12.7154348019
 20
8.6987831924
 30
0.0
 10
12.7161841751
 20
8.6920346917
 30
0.0
 10
12.7163520641
 20
8.6875212556
 30
0.0
 10
12.7163520641
 20
8.6852711719
 30
0.0
  0
SPLINE
  5
2E2
100
AcDbEntity
  8
0
100
AcDbSpline
 62
7
  6
CONTINUOUS
 70
0
 71
3
 72
31
 73
27
 74
0
 42
0.0000001
 43
0.0000001
 44
0.0000000001
 40
0.0
 40
0.0
 40
0.0
 40
0.0
 40
0.0301969823
 40
0.0604047513
 40
0.0906323125
 40
0.1208885511
 40
0.1815040029
 40
0.2423352165
 40
0.2728599931
 40
0.3034610917
 40
0.3341449128
 40
0.3649172565
 40
0.426729106
 40
0.4889467997
 40
0.5515884334
 40
0.614656257
 40
0.6463556867
 40
0.6781546147
 40
0.7100482434
 40
0.7420306063
 40
0.8062122074
 40
0.8706508189
 40
0.9029515143
 40
0.9352839996
 40
0.9676390061
 40
1.0
 40
1.0
 40
1.0
 40
1.0
 10
10.1305816351
 20
8.5797298818
 30
0.0
 10
10.1329170916
 20
8.5819454148
 30
0.0
 10
10.1376965907
 20
8.5862652739
 30
0.0
 10
10.1451714436
 20
8.5923927801
 30
0.0
 10
10.1529385842
 20
8.598156636
 30
0.0
 10
10.1636681883
 20
8.6053431651
 30
0.0
 10
10.1777446736
 20
8.6133597129
 30
0.0
 10
10.1925561667
 20
8.6199903067
 30
0.0
 10
10.2047807454
 20
8.6244291237
 30
0.0
 10
10.2141354292
 20
8.6273205746
 30
0.0
 10
10.2236451938
 20
8.6297605202
 30
0.0
 10
10.2365219374
 20
8.6324039719
 30
0.0
 10
10.252915512
 20
8.6345335752
 30
0.0
 10
10.2728373825
 20
8.6351547328
 30
0.0
 10
10.2928579823
 20
8.6338065992
 30
0.0
 10
10.3094370033
 20
8.6310261508
 30
0.0
 10
10.3225455233
 20
8.6278105004
 30
0.0
 10
10.3322933296
 20
8.6248978953
 30
0.0
 10
10.34191206
 20
8.6214923298
 30
0.0
 10
10.3545414252
 20
8.6162965915
 30
0.0
 10
10.3698676062
 20
8.608596565
 30
0.0
 10
10.384371202
 20
8.599376789
 30
0.0
 10
10.3953962208
 20
8.591135888
 30
0.0
 10
10.4033582694
 20
8.5845323996
 30
0.0
 10
10.4109805819
 20
8.5775307513
 30
0.0
 10
10.4158213345
 20
8.5726101459
 30
0.0
 10
10.4181776699
 20
8.5700903981
 30
0.0
  0
SPLINE
  5
2E3
100
AcDbEntity
  8
0
100
AcDbSpline
 62
7
  6
CONTINUOUS
 70
0
 71
3
 72
16
 73
12
 74
0
 42
0.0000001
 43
0.0000001
 44
0.0000000001
 40
0.0
 40
0.0
 40
0.0
 40
0.0
 40
0.1090370723
 40
0.2197951412
 40
0.3339109286
 40
0.4528661465
 40
0.5145901985
 40
0.5779917797
 40
0.7103048078
 40
0.8507425743
 40
1.0
 40
1.0
 40
1.0
 40
1.0
 10
8.7698439329
 20
10.2862439623
 30
0.0
 10
8.7688242529
 20
10.2863146749
 30
0.0
 10
8.7667569615
 20
10.2863219706
 30
0.0
 10
8.7636436517
 20
10.2859281699
 30
0.0
 10
8.760512672
 20
10.2851315748
 30
0.0
 10
8.7579244681
 20
10.2841465802
 30
0.0
 10
8.7558544601
 20
10.2831700083
 30
0.0
 10
8.7537246156
 20
10.2820333872
 30
0.0
 10
8.7510530807
 20
10.2803536735
 30
0.0
 10
8.7478875342
 20
10.2779749372
 30
0.0
 10
8.7458403307
 20
10.2761867546
 30
0.0
 10
8.7448161111
 20
10.2752335373
 30
0.0
  0
SPLINE
  5
2E4
100
AcDbEntity
  8
0
100
AcDbSpline
 62
7
  6
CONTINUOUS
 70
0
 71
3
 72
16
 73
12
 74
0
 42
0.0000001
 43
0.0000001
 44
0.0000000001
 40
0.0
 40
0.0
 40
0.0
 40
0.0
 40
0.1492602522
 40
0.2896893759
 40
0.4220024472
 40
0.4854058074
 40
0.5471313448
 40
0.6660878352
 40
0.7802036583
 40
0.8909622447
 40
1.0
 40
1.0
 40
1.0
 40
1.0
 10
7.8778552587
 20
7.193771851
 30
0.0
 10
7.8787381067
 20
7.1926863546
 30
0.0
 10
7.8805188167
 20
7.1906327184
 30
0.0
 10
7.8833257106
 20
7.1878398716
 30
0.0
 10
7.8857397531
 20
7.185807504
 30
0.0
 10
7.8876923223
 20
7.1843877261
 30
0.0
 10
7.8896077435
 20
7.183134737
 30
0.0
 10
7.8920352166
 20
7.1818018689
 30
0.0
 10
7.8950262892
 20
7.1805807221
 30
0.0
 10
7.8980554459
 20
7.1797609366
 30
0.0
 10
7.9001039646
 20
7.1794827855
 30
0.0
 10
7.9011236509
 20
7.1794120724
 30
0.0
  0
SPLINE
  5
2E5
100
AcDbEntity
  8
0
100
AcDbSpline
 62
7
  6
CONTINUOUS
 70
0
 71
3
 72
9
 73
5
 74
0
 42
0.0000001
 43
0.0000001
 44
0.0000000001
 40
0.0
 40
0.0
 40
0.0
 40
0.0
 40
0.5045604157
 40
1.0
 40
1.0
 40
1.0
 40
1.0
 10
10.7015430539
 20
7.8903923034
 30
0.0
 10
10.6951733595
 20
7.8898312524
 30
0.0
 10
10.6824832328
 20
7.8893612938
 30
0.0
 10
10.6698125209
 20
7.8902442993
 30
0.0
 10
10.6635829593
 20
7.8910288176
 30
0.0
  0
SPLINE
  5
2E6
100
AcDbEntity
  8
0
100
AcDbSpline
 62
7
  6
CONTINUOUS
 70
0
 71
3
 72
40
 73
36
 74
0
 42
0.0000001
 43
0.0000001
 44
0.0000000001
 40
0.0
 40
0.0
 40
0.0
 40
0.0
 40
0.0063160317
 40
0.0126709803
 40
0.0191029757
 40
0.0256486833
 40
0.0323427436
 40
0.0392172655
 40
0.0536154772
 40
0.0690526586
 40
0.0856860581
 40
0.1036344402
 40
0.1229845836
 40
0.1437975252
 40
0.1661136309
 40
0.1899565788
 40
0.215336668
 40
0.2422532113
 40
0.2706962166
 40
0.3006479298
 40
0.3320839776
 40
0.3649740847
 40
0.3992827974
 40
0.4349701487
 40
0.4719920266
 40
0.5103004985
 40
0.5498442818
 40
0.5905689983
 40
0.6324173162
 40
0.6753293134
 40
0.7192426811
 40
0.7640927959
 40
0.8098131949
 40
0.9035868196
 40
1.0
 40
1.0
 40
1.0
 40
1.0
 10
13.4072018774
 20
7.8476296511
 30
0.0
 10
13.406289178
 20
7.8476929511
 30
0.0
 10
13.404462468
 20
7.8478946424
 30
0.0
 10
13.4017428826
 20
7.8484203985
 30
0.0
 10
13.3990414722
 20
7.8491692742
 30
0.0
 10
13.3963598087
 20
7.8501407116
 30
0.0
 10
13.3936990001
 20
7.8513341667
 30
0.0
 10
13.3901260756
 20
7.8532494596
 30
0.0
 10
13.3857049194
 20
7.8562318005
 30
0.0
 10
13.3805911212
 20
7.8606278968
 30
0.0
 10
13.3755912635
 20
7.8658862576
 30
0.0
 10
13.3707111352
 20
7.8719971375
 30
0.0
 10
13.3659559856
 20
7.8789509534
 30
0.0
 10
13.3613320882
 20
7.8867370068
 30
0.0
 10
13.3568460085
 20
7.8953433404
 30
0.0
 10
13.3525044908
 20
7.9047565293
 30
0.0
 10
13.3483143416
 20
7.9149617264
 30
0.0
 10
13.3442823117
 20
7.9259426592
 30
0.0
 10
13.3404149456
 20
7.9376816417
 30
0.0
 10
13.3367185962
 20
7.9501596532
 30
0.0
 10
13.3331993974
 20
7.9633563923
 30
0.0
 10
13.3298631827
 20
7.9772503006
 30
0.0
 10
13.3267154832
 20
7.9918186192
 30
0.0
 10
13.3237615523
 20
8.0070374524
 30
0.0
 10
13.3210063203
 20
8.0228817996
 30
0.0
 10
13.3184543573
 20
8.0393255969
 30
0.0
 10
13.3161099204
 20
8.0563417813
 30
0.0
 10
13.3139769348
 20
8.0739023334
 30
0.0
 10
13.3120589378
 20
8.0919783175
 30
0.0
 10
13.3103591208
 20
8.1105399415
 30
0.0
 10
13.3088803426
 20
8.1295565964
 30
0.0
 10
13.307625028
 20
8.1489969619
 30
0.0
 10
13.3062404956
 20
8.1756643217
 30
0.0
 10
13.3050952849
 20
8.2098201793
 30
0.0
 10
13.3047994069
 20
8.2373701607
 30
0.0
 10
13.3047994069
 20
8.2513358326
 30
0.0
  0
SPLINE
  5
2E7
100
AcDbEntity
  8
0
100
AcDbSpline
 62
7
  6
CONTINUOUS
 70
0
 71
3
 72
40
 73
36
 74
0
 42
0.0000001
 43
0.0000001
 44
0.0000000001
 40
0.0
 40
0.0
 40
0.0
 40
0.0
 40
0.0312902345
 40
0.0627550052
 40
0.0943838048
 40
0.1261640512
 40
0.1580778803
 40
0.190104625
 40
0.2222206369
 40
0.2544002121
 40
0.2866161858
 40
0.3188406523
 40
0.351045649
 40
0.3832038343
 40
0.4152891371
 40
0.4472773721
 40
0.4791468092
 40
0.510878691
 40
0.5424576916
 40
0.5738723089
 40
0.605115183
 40
0.6361833309
 40
0.6670782892
 40
0.697806155
 40
0.7283775143
 40
0.7588072532
 40
0.7891142429
 40
0.8193209002
 40
0.8494526239
 40
0.8795371201
 40
0.9096036309
 40
0.9396820913
 40
0.954738763
 40
0.9698095047
 40
1.0
 40
1.0
 40
1.0
 40
1.0
 10
12.5028824399
 20
7.3722112769
 30
0.0
 10
12.5003858466
 20
7.3723844162
 30
0.0
 10
12.4953907449
 20
7.3729391348
 30
0.0
 10
12.4879731677
 20
7.3743823179
 30
0.0
 10
12.4806578181
 20
7.376428933
 30
0.0
 10
12.4734953571
 20
7.3790642532
 30
0.0
 10
12.4665342874
 20
7.3822696943
 30
0.0
 10
12.4598217853
 20
7.3860225877
 30
0.0
 10
12.4534030196
 20
7.3902966224
 30
0.0
 10
12.4473209297
 20
7.3950619807
 30
0.0
 10
12.4416159293
 20
7.4002856507
 30
0.0
 10
12.4363256619
 20
7.4059316906
 30
0.0
 10
12.431484789
 20
7.4119615273
 30
0.0
 10
12.4271248076
 20
7.418334253
 30
0.0
 10
12.4232738998
 20
7.4250069254
 30
0.0
 10
12.4199568044
 20
7.4319348633
 30
0.0
 10
12.4171947213
 20
7.4390719424
 30
0.0
 10
12.4150052333
 20
7.4463708817
 30
0.0
 10
12.4134022468
 20
7.4537835228
 30
0.0
 10
12.4123959465
 20
7.461261103
 30
0.0
 10
12.4119927631
 20
7.4687545221
 30
0.0
 10
12.4121953509
 20
7.4762146053
 30
0.0
 10
12.4130025748
 20
7.4835923642
 30
0.0
 10
12.4144095053
 20
7.4908392578
 30
0.0
 10
12.4164074233
 20
7.4979074566
 30
0.0
 10
12.4189838334
 20
7.5047501122
 30
0.0
 10
12.4221224876
 20
7.5113216333
 30
0.0
 10
12.4258034423
 20
7.5175779732
 30
0.0
 10
12.4300030897
 20
7.5234768994
 30
0.0
 10
12.4346943665
 20
7.5289783687
 30
0.0
 10
12.4398464232
 20
7.5340445304
 30
0.0
 10
12.4444952448
 20
7.5378740459
 30
0.0
 10
12.4484065599
 20
7.5406850482
 30
0.0
 10
12.4524447139
 20
7.5433264765
 30
0.0
 10
12.455603277
 20
7.5451074762
 30
0.0
 10
12.4577563282
 20
7.5462005551
 30
0.0
  0
SPLINE
  5
2E8
100
AcDbEntity
  8
0
100
AcDbSpline
 62
7
  6
CONTINUOUS
 70
0
 71
3
 72
30
 73
26
 74
0
 42
0.0000001
 43
0.0000001
 44
0.0000000001
 40
0.0
 40
0.0
 40
0.0
 40
0.0
 40
0.0851786943
 40
0.1685814902
 40
0.2498840593
 40
0.3287753041
 40
0.404955946
 40
0.4781424148
 40
0.548068364
 40
0.6144874739
 40
0.6771763067
 40
0.7070604333
 40
0.7359404628
 40
0.7637968969
 40
0.7906121133
 40
0.8163714778
 40
0.8410627545
 40
0.8646773038
 40
0.887209697
 40
0.9086589662
 40
0.9290285969
 40
0.9483278536
 40
0.9665723425
 40
0.9837855148
 40
1.0
 40
1.0
 40
1.0
 40
1.0
 10
7.830010614
 20
7.459763611
 30
0.0
 10
7.830010614
 20
7.4519937972
 30
0.0
 10
7.8301430181
 20
7.4366157885
 30
0.0
 10
7.830750263
 20
7.4138287676
 30
0.0
 10
7.8317616682
 20
7.39163004
 30
0.0
 10
7.8331728144
 20
7.3701131863
 30
0.0
 10
7.8349776122
 20
7.3493686281
 30
0.0
 10
7.8371682548
 20
7.3294836065
 30
0.0
 10
7.8397352705
 20
7.3105415362
 30
0.0
 10
7.8426676251
 20
7.2926220246
 30
0.0
 10
7.8454475584
 20
7.2783851006
 30
0.0
 10
7.847857298
 20
7.2675711285
 30
0.0
 10
7.8497190714
 20
7.2598917495
 30
0.0
 10
7.851662072
 20
7.2525216262
 30
0.0
 10
7.8536843783
 20
7.2454684733
 30
0.0
 10
7.8557837424
 20
7.2387396593
 30
0.0
 10
7.8579580564
 20
7.2323422173
 30
0.0
 10
7.8602049377
 20
7.2262827903
 30
0.0
 10
7.8625221311
 20
7.2205676785
 30
0.0
 10
7.8649071496
 20
7.2152027668
 30
0.0
 10
7.8673576211
 20
7.2101935776
 30
0.0
 10
7.8698709999
 20
7.2055452259
 30
0.0
 10
7.8724448918
 20
7.2012623706
 30
0.0
 10
7.8750766398
 20
7.1973495469
 30
0.0
 10
7.8769220192
 20
7.1949193058
 30
0.0
 10
7.8778552587
 20
7.193771851
 30
0.0
  0
SPLINE
  5
2E9
100
AcDbEntity
  8
0
100
AcDbSpline
 62
7
  6
CONTINUOUS
 70
0
 71
3
 72
29
 73
25
 74
0
 42
0.0000001
 43
0.0000001
 44
0.0000000001
 40
0.0
 40
0.0
 40
0.0
 40
0.0
 40
0.0645955239
 40
0.0968515597
 40
0.1290654035
 40
0.1933261382
 40
0.2573385291
 40
0.2892444638
 40
0.3210723834
 40
0.3844639126
 40
0.4475013987
 40
0.510169724
 40
0.572464818
 40
0.6343937249
 40
0.6652334554
 40
0.6959892196
 40
0.7266648131
 40
0.7572646809
 40
0.8182424814
 40
0.878983333
 40
0.9092887164
 40
0.939555005
 40
0.9697895693
 40
1.0
 40
1.0
 40
1.0
 40
1.0
 10
11.0241407149
 20
7.2566631191
 30
0.0
 10
11.0205072143
 20
7.2612453406
 30
0.0
 10
11.0153380379
 20
7.2683439272
 30
0.0
 10
11.0090551265
 20
7.2781984006
 30
0.0
 10
11.0031988792
 20
7.2882779714
 30
0.0
 10
10.9966840446
 20
7.3012844794
 30
0.0
 10
10.9912824233
 20
7.3147616365
 30
0.0
 10
10.987661279
 20
7.3257484602
 30
0.0
 10
10.9845195825
 20
7.3368233424
 30
0.0
 10
10.981482686
 20
7.350844181
 30
0.0
 10
10.9792879884
 20
7.3678427938
 30
0.0
 10
10.9785583378
 20
7.3848685859
 30
0.0
 10
10.9792939762
 20
7.4017930576
 30
0.0
 10
10.9811222676
 20
7.4157314882
 30
0.0
 10
10.9833034571
 20
7.4267027173
 30
0.0
 10
10.9852914948
 20
7.4348191213
 30
0.0
 10
10.987629699
 20
7.4428190469
 30
0.0
 10
10.9912026726
 20
7.4532975573
 30
0.0
 10
10.9965185578
 20
7.466042555
 30
0.0
 10
11.0029382172
 20
7.4782389591
 30
0.0
 10
11.0086972697
 20
7.4875942389
 30
0.0
 10
11.0133184275
 20
7.4943969228
 30
0.0
 10
11.018235321
 20
7.5009778934
 30
0.0
 10
11.0217059268
 20
7.5052116053
 30
0.0
 10
11.0234870196
 20
7.5072871979
 30
0.0
  0
SPLINE
  5
2EA
100
AcDbEntity
  8
0
100
AcDbSpline
 62
7
  6
CONTINUOUS
 70
0
 71
3
 72
40
 73
36
 74
0
 42
0.0000001
 43
0.0000001
 44
0.0000000001
 40
0.0
 40
0.0
 40
0.0
 40
0.0
 40
0.0299422956
 40
0.059908968
 40
0.0899238
 40
0.1200094056
 40
0.1350882594
 40
0.1501924656
 40
0.1804801452
 40
0.2108943177
 40
0.241448122
 40
0.2721514726
 40
0.3030108797
 40
0.334029354
 40
0.3652063934
 40
0.3965380465
 40
0.4280170486
 40
0.4596330217
 40
0.4913727316
 40
0.5232203951
 40
0.5551580282
 40
0.5871658292
 40
0.6192225887
 40
0.6513061205
 40
0.6833937063
 40
0.715462548
 40
0.7474902197
 40
0.779455117
 40
0.8113368874
 40
0.8431168691
 40
0.8747784143
 40
0.9063074703
 40
0.9376922765
 40
0.9689251917
 40
1.0
 40
1.0
 40
1.0
 40
1.0
 10
12.3000912461
 20
6.960392269
 30
0.0
 10
12.2977603978
 20
6.9581408459
 30
0.0
 10
12.2929154278
 20
6.9538197118
 30
0.0
 10
12.2851529625
 20
6.9479328927
 30
0.0
 10
12.2769354998
 20
6.9426705769
 30
0.0
 10
12.2697506421
 20
6.9388325276
 30
0.0
 10
12.2638251297
 20
6.9361022111
 30
0.0
 10
12.2577771848
 20
6.9335972786
 30
0.0
 10
12.2500179551
 20
6.9309037615
 30
0.0
 10
12.2404558712
 20
6.9283934663
 30
0.0
 10
12.2306851389
 20
6.9266151085
 30
0.0
 10
12.2207599055
 20
6.9255784982
 30
0.0
 10
12.2107346933
 20
6.9252891665
 30
0.0
 10
12.200664664
 20
6.9257485851
 30
0.0
 10
12.1906051648
 20
6.9269540996
 30
0.0
 10
12.1806114681
 20
6.9288989674
 30
0.0
 10
12.1707384603
 20
6.9315723948
 30
0.0
 10
12.1610403477
 20
6.9349596007
 30
0.0
 10
12.1515703619
 20
6.9390419001
 30
0.0
 10
12.1423804729
 20
6.943796808
 30
0.0
 10
12.1335211068
 20
6.9491981635
 30
0.0
 10
12.1250408738
 20
6.955216273
 30
0.0
 10
12.1169863045
 20
6.9618180723
 30
0.0
 10
12.1094015965
 20
6.9689673059
 30
0.0
 10
12.1023283743
 20
6.9766247243
 30
0.0
 10
12.0958054645
 20
6.9847482995
 30
0.0
 10
12.089868684
 20
6.9932934523
 30
0.0
 10
12.0845506477
 20
7.0022132948
 30
0.0
 10
12.0798805839
 20
7.0114588848
 30
0.0
 10
12.0758841927
 20
7.0209794861
 30
0.0
 10
12.072583461
 20
7.0307228699
 30
0.0
 10
12.0699966408
 20
7.0406354878
 30
0.0
 10
12.0681379523
 20
7.0506631589
 30
0.0
 10
12.0670178219
 20
7.0607500253
 30
0.0
 10
12.0667669137
 20
7.0674961502
 30
0.0
 10
12.0667669137
 20
7.0708593635
 30
0.0
  0
SPLINE
  5
2EB
100
AcDbEntity
  8
0
100
AcDbSpline
 62
7
  6
CONTINUOUS
 70
0
 71
3
 72
40
 73
36
 74
0
 42
0.0000001
 43
0.0000001
 44
0.0000000001
 40
0.0
 40
0.0
 40
0.0
 40
0.0
 40
0.0299422956
 40
0.059908968
 40
0.0899238
 40
0.1200094056
 40
0.1350882594
 40
0.1501924656
 40
0.1804801452
 40
0.2108943177
 40
0.241448122
 40
0.2721514726
 40
0.3030108797
 40
0.334029354
 40
0.3652063934
 40
0.3965380465
 40
0.4280170486
 40
0.4596330217
 40
0.4913727316
 40
0.5232203951
 40
0.5551580282
 40
0.5871658292
 40
0.6192225887
 40
0.6513061205
 40
0.6833937063
 40
0.715462548
 40
0.7474902197
 40
0.779455117
 40
0.8113368874
 40
0.8431168691
 40
0.8747784143
 40
0.9063074703
 40
0.9376922765
 40
0.9689251917
 40
1.0
 40
1.0
 40
1.0
 40
1.0
 10
10.2474987436
 20
7.1027400425
 30
0.0
 10
10.2451678953
 20
7.1004886194
 30
0.0
 10
10.2403229254
 20
7.0961674853
 30
0.0
 10
10.23256046
 20
7.0902806663
 30
0.0
 10
10.2243429974
 20
7.0850183504
 30
0.0
 10
10.2171581396
 20
7.0811803012
 30
0.0
 10
10.2112326272
 20
7.0784499846
 30
0.0
 10
10.2051846823
 20
7.0759450521
 30
0.0
 10
10.1974254526
 20
7.0732515351
 30
0.0
 10
10.1878633687
 20
7.0707412399
 30
0.0
 10
10.1780926364
 20
7.0689628821
 30
0.0
 10
10.168167403
 20
7.0679262718
 30
0.0
 10
10.1581421908
 20
7.06763694
 30
0.0
 10
10.1480721615
 20
7.0680963586
 30
0.0
 10
10.1380126623
 20
7.0693018731
 30
0.0
 10
10.1280189656
 20
7.0712467409
 30
0.0
 10
10.1181459578
 20
7.0739201683
 30
0.0
 10
10.1084478452
 20
7.0773073742
 30
0.0
 10
10.0989778595
 20
7.0813896736
 30
0.0
 10
10.0897879704
 20
7.0861445815
 30
0.0
 10
10.0809286043
 20
7.0915459371
 30
0.0
 10
10.0724483713
 20
7.0975640465
 30
0.0
 10
10.064393802
 20
7.1041658459
 30
0.0
 10
10.056809094
 20
7.1113150794
 30
0.0
 10
10.0497358718
 20
7.1189724979
 30
0.0
 10
10.043212962
 20
7.1270960731
 30
0.0
 10
10.0372761815
 20
7.1356412259
 30
0.0
 10
10.0319581452
 20
7.1445610683
 30
0.0
 10
10.0272880814
 20
7.1538066583
 30
0.0
 10
10.0232916902
 20
7.1633272596
 30
0.0
 10
10.0199909585
 20
7.1730706434
 30
0.0
 10
10.0174041383
 20
7.1829832613
 30
0.0
 10
10.0155454498
 20
7.1930109324
 30
0.0
 10
10.0144253194
 20
7.2030977989
 30
0.0
 10
10.0141744112
 20
7.2098439238
 30
0.0
 10
10.0141744112
 20
7.213207137
 30
0.0
  0
SPLINE
  5
2EC
100
AcDbEntity
  8
0
100
AcDbSpline
 62
7
  6
CONTINUOUS
 70
0
 71
3
 72
15
 73
11
 74
0
 42
0.0000001
 43
0.0000001
 44
0.0000000001
 40
0.0
 40
0.0
 40
0.0
 40
0.0
 40
0.1273479682
 40
0.253860626
 40
0.3795879528
 40
0.5046051059
 40
0.6290174614
 40
0.7529533792
 40
0.8765605791
 40
1.0
 40
1.0
 40
1.0
 40
1.0
 10
12.534757998
 20
8.6978647632
 30
0.0
 10
12.534757998
 20
8.7007597805
 30
0.0
 10
12.5350344164
 20
8.7065348282
 30
0.0
 10
12.5362844799
 20
8.7150863281
 30
0.0
 10
12.5383573168
 20
8.723422963
 30
0.0
 10
12.5412341919
 20
8.731466753
 30
0.0
 10
12.5448886967
 20
8.7391435301
 30
0.0
 10
12.5492875315
 20
8.7463824023
 30
0.0
 10
12.5543893247
 20
8.753115548
 30
0.0
 10
12.5582307244
 20
8.7572285238
 30
0.0
 10
12.5602490741
 20
8.759178093
 30
0.0
  0
SPLINE
  5
2ED
100
AcDbEntity
  8
0
100
AcDbSpline
 62
7
  6
CONTINUOUS
 70
0
 71
3
 72
40
 73
36
 74
0
 42
0.0000001
 43
0.0000001
 44
0.0000000001
 40
0.0
 40
0.0
 40
0.0
 40
0.0
 40
0.0299422956
 40
0.059908968
 40
0.0899238
 40
0.1200094056
 40
0.1350882594
 40
0.1501924656
 40
0.1804801452
 40
0.2108943177
 40
0.241448122
 40
0.2721514726
 40
0.3030108797
 40
0.334029354
 40
0.3652063934
 40
0.3965380465
 40
0.4280170486
 40
0.4596330217
 40
0.4913727316
 40
0.5232203951
 40
0.5551580282
 40
0.5871658292
 40
0.6192225887
 40
0.6513061205
 40
0.6833937063
 40
0.715462548
 40
0.7474902197
 40
0.779455117
 40
0.8113368874
 40
0.8431168691
 40
0.8747784143
 40
0.9063074703
 40
0.9376922765
 40
0.9689251917
 40
1.0
 40
1.0
 40
1.0
 40
1.0
 10
10.2474987436
 20
8.8529976345
 30
0.0
 10
10.2451678953
 20
8.8507462114
 30
0.0
 10
10.2403229254
 20
8.8464250773
 30
0.0
 10
10.23256046
 20
8.8405382583
 30
0.0
 10
10.2243429974
 20
8.8352759424
 30
0.0
 10
10.2171581396
 20
8.8314378932
 30
0.0
 10
10.2112326272
 20
8.8287075766
 30
0.0
 10
10.2051846823
 20
8.8262026441
 30
0.0
 10
10.1974254526
 20
8.8235091271
 30
0.0
 10
10.1878633687
 20
8.8209988319
 30
0.0
 10
10.1780926364
 20
8.8192204741
 30
0.0
 10
10.168167403
 20
8.8181838638
 30
0.0
 10
10.1581421908
 20
8.817894532
 30
0.0
 10
10.1480721615
 20
8.8183539506
 30
0.0
 10
10.1380126623
 20
8.8195594651
 30
0.0
 10
10.1280189656
 20
8.821504333
 30
0.0
 10
10.1181459578
 20
8.8241777603
 30
0.0
 10
10.1084478452
 20
8.8275649662
 30
0.0
 10
10.0989778595
 20
8.8316472656
 30
0.0
 10
10.0897879704
 20
8.8364021735
 30
0.0
 10
10.0809286043
 20
8.8418035291
 30
0.0
 10
10.0724483713
 20
8.8478216385
 30
0.0
 10
10.064393802
 20
8.8544234379
 30
0.0
 10
10.056809094
 20
8.8615726714
 30
0.0
 10
10.0497358718
 20
8.8692300899
 30
0.0
 10
10.043212962
 20
8.8773536651
 30
0.0
 10
10.0372761815
 20
8.8858988179
 30
0.0
 10
10.0319581452
 20
8.8948186603
 30
0.0
 10
10.0272880814
 20
8.9040642503
 30
0.0
 10
10.0232916902
 20
8.9135848516
 30
0.0
 10
10.0199909585
 20
8.9233282354
 30
0.0
 10
10.0174041383
 20
8.9332408533
 30
0.0
 10
10.0155454498
 20
8.9432685244
 30
0.0
 10
10.0144253194
 20
8.9533553909
 30
0.0
 10
10.0141744112
 20
8.9601015158
 30
0.0
 10
10.0141744112
 20
8.963464729
 30
0.0
  0
SPLINE
  5
2EE
100
AcDbEntity
  8
0
100
AcDbSpline
 62
7
  6
CONTINUOUS
 70
0
 71
3
 72
40
 73
36
 74
0
 42
0.0000001
 43
0.0000001
 44
0.0000000001
 40
0.0
 40
0.0
 40
0.0
 40
0.0
 40
0.0299422956
 40
0.059908968
 40
0.0899238
 40
0.1200094056
 40
0.1350882594
 40
0.1501924656
 40
0.1804801452
 40
0.2108943177
 40
0.241448122
 40
0.2721514726
 40
0.3030108797
 40
0.334029354
 40
0.3652063934
 40
0.3965380465
 40
0.4280170486
 40
0.4596330217
 40
0.4913727316
 40
0.5232203951
 40
0.5551580282
 40
0.5871658292
 40
0.6192225887
 40
0.6513061205
 40
0.6833937063
 40
0.715462548
 40
0.7474902197
 40
0.779455117
 40
0.8113368874
 40
0.8431168691
 40
0.8747784143
 40
0.9063074703
 40
0.9376922765
 40
0.9689251917
 40
1.0
 40
1.0
 40
1.0
 40
1.0
 10
12.3000912461
 20
8.710649861
 30
0.0
 10
12.2977603978
 20
8.7083984379
 30
0.0
 10
12.2929154278
 20
8.7040773038
 30
0.0
 10
12.2851529625
 20
8.6981904847
 30
0.0
 10
12.2769354998
 20
8.6929281689
 30
0.0
 10
12.2697506421
 20
8.6890901196
 30
0.0
 10
12.2638251297
 20
8.6863598031
 30
0.0
 10
12.2577771848
 20
8.6838548706
 30
0.0
 10
12.2500179551
 20
8.6811613536
 30
0.0
 10
12.2404558712
 20
8.6786510584
 30
0.0
 10
12.2306851389
 20
8.6768727005
 30
0.0
 10
12.2207599055
 20
8.6758360903
 30
0.0
 10
12.2107346933
 20
8.6755467585
 30
0.0
 10
12.200664664
 20
8.6760061771
 30
0.0
 10
12.1906051648
 20
8.6772116916
 30
0.0
 10
12.1806114681
 20
8.6791565594
 30
0.0
 10
12.1707384603
 20
8.6818299868
 30
0.0
 10
12.1610403477
 20
8.6852171927
 30
0.0
 10
12.1515703619
 20
8.6892994921
 30
0.0
 10
12.1423804729
 20
8.6940544
 30
0.0
 10
12.1335211068
 20
8.6994557556
 30
0.0
 10
12.1250408738
 20
8.705473865
 30
0.0
 10
12.1169863045
 20
8.7120756643
 30
0.0
 10
12.1094015965
 20
8.7192248979
 30
0.0
 10
12.1023283743
 20
8.7268823163
 30
0.0
 10
12.0958054645
 20
8.7350058915
 30
0.0
 10
12.089868684
 20
8.7435510444
 30
0.0
 10
12.0845506477
 20
8.7524708868
 30
0.0
 10
12.0798805839
 20
8.7617164768
 30
0.0
 10
12.0758841927
 20
8.7712370781
 30
0.0
 10
12.072583461
 20
8.7809804619
 30
0.0
 10
12.0699966408
 20
8.7908930798
 30
0.0
 10
12.0681379523
 20
8.8009207509
 30
0.0
 10
12.0670178219
 20
8.8110076173
 30
0.0
 10
12.0667669137
 20
8.8177537422
 30
0.0
 10
12.0667669137
 20
8.8211169555
 30
0.0
  0
SPLINE
  5
2EF
100
AcDbEntity
  8
0
100
AcDbSpline
 62
7
  6
CONTINUOUS
 70
0
 71
3
 72
20
 73
16
 74
0
 42
0.0000001
 43
0.0000001
 44
0.0000000001
 40
0.0
 40
0.0
 40
0.0
 40
0.0
 40
0.1278076579
 40
0.2547974649
 40
0.3809263405
 40
0.4436842202
 40
0.5062268236
 40
0.5685592078
 40
0.6306892567
 40
0.6926273649
 40
0.7543872133
 40
0.8159847039
 40
0.8774373258
 40
0.9387711173
 40
1.0
 40
1.0
 40
1.0
 40
1.0
 10
12.282520756
 20
8.3155664082
 30
0.0
 10
12.2838255174
 20
8.3092407263
 30
0.0
 10
12.2858598992
 20
8.2965041941
 30
0.0
 10
12.2871000896
 20
8.2772663665
 30
0.0
 10
12.2865638483
 20
8.2612828249
 30
0.0
 10
12.285167629
 20
8.2486489302
 30
0.0
 10
12.2836379669
 20
8.2392863973
 30
0.0
 10
12.2816227135
 20
8.2300488166
 30
0.0
 10
12.279122196
 20
8.2209620953
 30
0.0
 10
12.2761388381
 20
8.2120526563
 30
0.0
 10
12.2726770874
 20
8.2033467897
 30
0.0
 10
12.2687434922
 20
8.1948706518
 30
0.0
 10
12.2643466986
 20
8.1866494908
 30
0.0
 10
12.2594978511
 20
8.178708699
 30
0.0
 10
12.2559696771
 20
8.1736131063
 30
0.0
 10
12.2541356259
 20
8.1711210016
 30
0.0
  0
SPLINE
  5
2F0
100
AcDbEntity
  8
0
100
AcDbSpline
 62
7
  6
CONTINUOUS
 70
0
 71
3
 72
24
 73
20
 74
0
 42
0.0000001
 43
0.0000001
 44
0.0000000001
 40
0.0
 40
0.0
 40
0.0
 40
0.0
 40
0.0639112976
 40
0.1278917973
 40
0.1918626683
 40
0.2557493803
 40
0.3194840473
 40
0.3830069732
 40
0.4462675873
 40
0.5092248418
 40
0.5718471985
 40
0.6341123357
 40
0.6960066908
 40
0.7575249313
 40
0.8186694204
 40
0.8794497078
 40
0.9097135224
 40
0.9398927713
 40
1.0
 40
1.0
 40
1.0
 40
1.0
 10
10.6102436129
 20
7.8682847239
 30
0.0
 10
10.6136563705
 20
7.8635713062
 30
0.0
 10
10.6208916086
 20
7.854426142
 30
0.0
 10
10.632851942
 20
7.8416670197
 30
0.0
 10
10.645819441
 20
7.829935362
 30
0.0
 10
10.6596741029
 20
7.8193043505
 30
0.0
 10
10.6742952977
 20
7.8098307621
 30
0.0
 10
10.6895625581
 20
7.8015582283
 30
0.0
 10
10.7053577692
 20
7.7945180377
 30
0.0
 10
10.7215663014
 20
7.7887308468
 30
0.0
 10
10.7380777864
 20
7.7842082135
 30
0.0
 10
10.7547864615
 20
7.7809540978
 30
0.0
 10
10.7715911081
 20
7.7789661971
 30
0.0
 10
10.7883950533
 20
7.7782370841
 30
0.0
 10
10.8051048254
 20
7.7787551173
 30
0.0
 10
10.8188986559
 20
7.7802157333
 30
0.0
 10
10.8297944693
 20
7.7819935675
 30
0.0
 10
10.8405553534
 20
7.7841664161
 30
0.0
 10
10.8485190447
 20
7.7862473455
 30
0.0
 10
10.8537571543
 20
7.7878329834
 30
0.0
  0
SPLINE
  5
2F1
100
AcDbEntity
  8
0
100
AcDbSpline
 62
7
  6
CONTINUOUS
 70
0
 71
3
 72
42
 73
38
 74
0
 42
0.0000001
 43
0.0000001
 44
0.0000000001
 40
0.0
 40
0.0
 40
0.0
 40
0.0
 40
0.0314061485
 40
0.047194703
 40
0.0630342979
 40
0.0948491938
 40
0.1268353411
 40
0.1428877838
 40
0.1589709469
 40
0.1912021558
 40
0.223499259
 40
0.2558222222
 40
0.2881312825
 40
0.3203883115
 40
0.352557971
 40
0.3846086604
 40
0.4005847034
 40
0.4165212419
 40
0.448257771
 40
0.4798097721
 40
0.5111667334
 40
0.542324349
 40
0.5732847084
 40
0.6040563921
 40
0.6346544525
 40
0.6651002464
 40
0.6954210778
 40
0.7256496048
 40
0.7558229698
 40
0.7859816263
 40
0.8161678615
 40
0.8464240479
 40
0.8767907044
 40
0.9073044586
 40
0.9379962962
 40
0.9688889087
 40
1.0
 40
1.0
 40
1.0
 40
1.0
 10
9.8475522313
 20
7.5538379496
 30
0.0
 10
9.8445512733
 20
7.5540460668
 30
0.0
 10
9.8400534693
 20
7.554589981
 30
0.0
 10
9.8341291707
 20
7.5557631125
 30
0.0
 10
9.8282319869
 20
7.5572389804
 30
0.0
 10
9.8209772104
 20
7.5596380804
 30
0.0
 10
9.8139710566
 20
7.5627374765
 30
0.0
 10
9.8085445054
 20
7.5656181621
 30
0.0
 10
9.8032402765
 20
7.5687645522
 30
0.0
 10
9.7968836752
 20
7.5731690006
 30
0.0
 10
9.7897703457
 20
7.5791434992
 30
0.0
 10
9.7832271178
 20
7.5857481258
 30
0.0
 10
9.7773104454
 20
7.5929139942
 30
0.0
 10
9.7720686729
 20
7.6005694939
 30
0.0
 10
9.7675432158
 20
7.6086401426
 30
0.0
 10
9.7643933179
 20
7.6156581714
 30
0.0
 10
9.7622638538
 20
7.6214046427
 30
0.0
 10
9.7604022949
 20
7.6272117903
 30
0.0
 10
9.7585727604
 20
7.634587749
 30
0.0
 10
9.7571893923
 20
7.6435592304
 30
0.0
 10
9.7566299672
 20
7.65256446
 30
0.0
 10
9.7568985981
 20
7.6615265018
 30
0.0
 10
9.7579937174
 20
7.6703692678
 30
0.0
 10
9.7599082497
 20
7.6790169224
 30
0.0
 10
9.7626293985
 20
7.6873941906
 30
0.0
 10
9.7661384083
 20
7.6954265109
 30
0.0
 10
9.7704102282
 20
7.7030403619
 30
0.0
 10
9.7754131309
 20
7.7101637171
 30
0.0
 10
9.7811083236
 20
7.7167266741
 30
0.0
 10
9.7874496039
 20
7.722662267
 30
0.0
 10
9.7943831274
 20
7.7279074612
 30
0.0
 10
9.8018473384
 20
7.7324043082
 30
0.0
 10
9.8097731842
 20
7.7361011999
 30
0.0
 10
9.8180844528
 20
7.73895422
 30
0.0
 10
9.8266990264
 20
7.7409282471
 30
0.0
 10
9.8355283612
 20
7.7419984869
 30
0.0
 10
9.8414787992
 20
7.7420992905
 30
0.0
 10
9.8444569799
 20
7.7419979478
 30
0.0
  0
SPLINE
  5
2F2
100
AcDbEntity
  8
0
100
AcDbSpline
 62
7
  6
CONTINUOUS
 70
0
 71
3
 72
31
 73
27
 74
0
 42
0.0000001
 43
0.0000001
 44
0.0000000001
 40
0.0
 40
0.0
 40
0.0
 40
0.0
 40
0.0323931246
 40
0.0647728686
 40
0.097122947
 40
0.1294346161
 40
0.1938780516
 40
0.258045085
 40
0.2900143647
 40
0.3218920528
 40
0.3536728263
 40
0.3853525774
 40
0.4483791932
 40
0.5109806738
 40
0.5731633875
 40
0.6349490192
 40
0.6657123265
 40
0.6963903152
 40
0.7269889856
 40
0.757515007
 40
0.8183604468
 40
0.8790059052
 40
0.9092828781
 40
0.9395350329
 40
0.9697711179
 40
1.0
 40
1.0
 40
1.0
 40
1.0
 10
10.1230777816
 20
8.2954557824
 30
0.0
 10
10.1207509008
 20
8.2979440329
 30
0.0
 10
10.116221712
 20
8.3030367975
 30
0.0
 10
10.1098212212
 20
8.3110020998
 30
0.0
 10
10.1038316376
 20
8.3192708586
 30
0.0
 10
10.0964230696
 20
8.3306548722
 30
0.0
 10
10.0882638136
 20
8.3455162153
 30
0.0
 10
10.0816387269
 20
8.3610826267
 30
0.0
 10
10.0773032017
 20
8.3738333193
 30
0.0
 10
10.0745404551
 20
8.3835078065
 30
0.0
 10
10.0722669718
 20
8.3932775453
 30
0.0
 10
10.0698946293
 20
8.4063712175
 30
0.0
 10
10.0681510228
 20
8.4228521141
 30
0.0
 10
10.0680086551
 20
8.4426343529
 30
0.0
 10
10.0697849031
 20
8.4622056789
 30
0.0
 10
10.07282843
 20
8.4782196938
 30
0.0
 10
10.0761680961
 20
8.4907458288
 30
0.0
 10
10.0791116108
 20
8.4999711838
 30
0.0
 10
10.0824877946
 20
8.5090204538
 30
0.0
 10
10.0875461727
 20
8.5208128412
 30
0.0
 10
10.0949011376
 20
8.5350373333
 30
0.0
 10
10.1035695793
 20
8.5484703416
 30
0.0
 10
10.1112313363
 20
8.5586586717
 30
0.0
 10
10.1173284351
 20
8.5660083056
 30
0.0
 10
10.1237654298
 20
8.5730547226
 30
0.0
 10
10.128275226
 20
8.5775419046
 30
0.0
 10
10.1305816351
 20
8.5797298818
 30
0.0
  0
SPLINE
  5
2F3
100
AcDbEntity
  8
0
100
AcDbSpline
 62
7
  6
CONTINUOUS
 70
0
 71
3
 72
39
 73
35
 74
0
 42
0.0000001
 43
0.0000001
 44
0.0000000001
 40
0.0
 40
0.0
 40
0.0
 40
0.0
 40
0.0322366683
 40
0.0645602744
 40
0.0969378149
 40
0.1293364473
 40
0.1617245612
 40
0.1940725934
 40
0.2263536092
 40
0.2585436705
 40
0.290622037
 40
0.3225712745
 40
0.3543772968
 40
0.3860293725
 40
0.4175201241
 40
0.4488455375
 40
0.480004993
 40
0.511001323
 40
0.541840892
 40
0.5725336896
 40
0.603093421
 40
0.6335375681
 40
0.6638873871
 40
0.6941677974
 40
0.7244071148
 40
0.754636574
 40
0.7848895824
 40
0.8152006751
 40
0.8456042312
 40
0.8761329334
 40
0.9068160762
 40
0.9376779214
 40
0.968735622
 40
1.0
 40
1.0
 40
1.0
 40
1.0
 10
11.4901410768
 20
7.7323848017
 30
0.0
 10
11.4848682209
 20
7.7352421689
 30
0.0
 10
11.4745535548
 20
7.7414302825
 30
0.0
 10
11.4599203079
 20
7.7520055608
 30
0.0
 10
11.4461967023
 20
7.7637843103
 30
0.0
 10
11.4334730172
 20
7.7766519093
 30
0.0
 10
11.4218240742
 20
7.7904919855
 30
0.0
 10
11.4113127978
 20
7.8051870004
 30
0.0
 10
11.4019907526
 20
7.820620104
 30
0.0
 10
11.393899654
 20
7.8366760433
 30
0.0
 10
11.3870726357
 20
7.8532417773
 30
0.0
 10
11.3815354671
 20
7.8702066975
 30
0.0
 10
11.3773076055
 20
7.8874625854
 30
0.0
 10
11.374403071
 20
7.9049033537
 30
0.0
 10
11.3728311213
 20
7.9224246371
 30
0.0
 10
11.372596717
 20
7.9399232809
 30
0.0
 10
11.3737007757
 20
7.9572967751
 30
0.0
 10
11.3761402105
 20
7.9744426736
 30
0.0
 10
11.3799077524
 20
7.9912580368
 30
0.0
 10
11.384991554
 20
8.0076389396
 30
0.0
 10
11.3913745782
 20
8.023480089
 30
0.0
 10
11.3990337718
 20
8.0386746005
 30
0.0
 10
11.4079390376
 20
8.0531139957
 30
0.0
 10
11.4180520314
 20
8.0666884833
 30
0.0
 10
11.4293248287
 20
8.0792875984
 30
0.0
 10
11.4416985386
 20
8.0908012614
 30
0.0
 10
11.4551019561
 20
8.1011213184
 30
0.0
 10
11.4694504006
 20
8.1101436258
 30
0.0
 10
11.4846449548
 20
8.1177705646
 30
0.0
 10
11.5005723194
 20
8.1239139533
 30
0.0
 10
11.5171051122
 20
8.1284981732
 30
0.0
 10
11.5341039839
 20
8.1314632294
 30
0.0
 10
11.551416824
 20
8.1327679635
 30
0.0
 10
11.5630296477
 20
8.1325173404
 30
0.0
 10
11.5688321224
 20
8.1321149374
 30
0.0
  0
SPLINE
  5
2F4
100
AcDbEntity
  8
0
100
AcDbSpline
 62
7
  6
CONTINUOUS
 70
0
 71
3
 72
35
 73
31
 74
0
 42
0.0000001
 43
0.0000001
 44
0.0000000001
 40
0.0
 40
0.0
 40
0.0
 40
0.0
 40
0.0301728259
 40
0.0603376007
 40
0.090507395
 40
0.1206951978
 40
0.1509137634
 40
0.181175463
 40
0.211492143
 40
0.2418749855
 40
0.272334367
 40
0.3028797472
 40
0.3335195679
 40
0.3642611492
 40
0.3951105835
 40
0.4260726819
 40
0.4571509265
 40
0.488347418
 40
0.5196628221
 40
0.5510963832
 40
0.5826459375
 40
0.6143079219
 40
0.6460773864
 40
0.6779480712
 40
0.7099124864
 40
0.7419619834
 40
0.8062538614
 40
0.8707579392
 40
0.9353746839
 40
1.0
 40
1.0
 40
1.0
 40
1.0
 10
11.3298453344
 20
7.2408518048
 30
0.0
 10
11.3275571549
 20
7.23818528
 30
0.0
 10
11.3228259213
 20
7.2329841253
 30
0.0
 10
11.315290429
 20
7.2256069791
 30
0.0
 10
11.3073393319
 20
7.2186765889
 30
0.0
 10
11.2989962287
 20
7.2122134041
 30
0.0
 10
11.2902853841
 20
7.2062361541
 30
0.0
 10
11.2812321541
 20
7.2007623894
 30
0.0
 10
11.2718627856
 20
7.1958083319
 30
0.0
 10
11.2622044134
 20
7.1913888853
 30
0.0
 10
11.2522850431
 20
7.1875175075
 30
0.0
 10
11.2421334746
 20
7.1842062199
 30
0.0
 10
11.2317792442
 20
7.1814655899
 30
0.0
 10
11.2212525804
 20
7.1793046948
 30
0.0
 10
11.2105843669
 20
7.17773099
 30
0.0
 10
11.1998060595
 20
7.1767503274
 30
0.0
 10
11.1889496203
 20
7.1763669262
 30
0.0
 10
11.178047454
 20
7.1765833353
 30
0.0
 10
11.1671323298
 20
7.1774003029
 30
0.0
 10
11.15623729
 20
7.1788168008
 30
0.0
 10
11.1453955567
 20
7.1808300036
 30
0.0
 10
11.1346404534
 20
7.1834352564
 30
0.0
 10
11.1240052434
 20
7.1866259945
 30
0.0
 10
11.1135231637
 20
7.1903936811
 30
0.0
 10
11.1032267744
 20
7.1947281695
 30
0.0
 10
11.0897782276
 20
7.2012519413
 30
0.0
 10
11.0735964998
 20
7.2107612043
 30
0.0
 10
11.0554560144
 20
7.2241809082
 30
0.0
 10
11.0387989304
 20
7.2394584189
 30
0.0
 10
11.0288166661
 20
7.2507662592
 30
0.0
 10
11.0241407149
 20
7.2566631191
 30
0.0
  0
SPLINE
  5
2F5
100
AcDbEntity
  8
0
100
AcDbSpline
 62
7
  6
CONTINUOUS
 70
0
 71
3
 72
39
 73
35
 74
0
 42
0.0000001
 43
0.0000001
 44
0.0000000001
 40
0.0
 40
0.0
 40
0.0
 40
0.0
 40
0.03031369
 40
0.0605475664
 40
0.0907235412
 40
0.1208646694
 40
0.1509946072
 40
0.181137084
 40
0.2113153688
 40
0.2415517629
 40
0.2718671362
 40
0.3022805094
 40
0.3328086871
 40
0.3634659453
 40
0.3942637798
 40
0.4252107095
 40
0.4563121368
 40
0.4875702564
 40
0.5189840215
 40
0.5505491883
 40
0.5822583979
 40
0.6141013078
 40
0.6460647707
 40
0.6781330578
 40
0.7102881666
 40
0.7425101667
 40
0.7747775736
 40
0.8070677786
 40
0.8393574977
 40
0.8716231952
 40
0.9038420301
 40
0.9359908028
 40
0.9680509105
 40
1.0
 40
1.0
 40
1.0
 40
1.0
 10
9.8111465455
 20
7.2803640469
 30
0.0
 10
9.810188251
 20
7.2783959587
 30
0.0
 10
9.8081201261
 20
7.2745378204
 30
0.0
 10
9.8045799485
 20
7.2690178717
 30
0.0
 10
9.8006261847
 20
7.2638013146
 30
0.0
 10
9.7962815875
 20
7.2589156872
 30
0.0
 10
9.7915704149
 20
7.2543859972
 30
0.0
 10
9.7865186838
 20
7.2502353727
 30
0.0
 10
9.781153889
 20
7.2464848293
 30
0.0
 10
9.7755048817
 20
7.2431532951
 30
0.0
 10
9.7696017298
 20
7.2402575623
 30
0.0
 10
9.7634755903
 20
7.2378122716
 30
0.0
 10
9.7571586005
 20
7.2358298599
 30
0.0
 10
9.7506837569
 20
7.2343205339
 30
0.0
 10
9.7440847955
 20
7.2332922686
 30
0.0
 10
9.7373960857
 20
7.2327507707
 30
0.0
 10
9.7306525218
 20
7.2326994488
 30
0.0
 10
9.7238894111
 20
7.2331393632
 30
0.0
 10
9.7171423472
 20
7.2340691613
 30
0.0
 10
9.7104470783
 20
7.2354850737
 30
0.0
 10
9.703839365
 20
7.2373808681
 30
0.0
 10
9.6973548264
 20
7.2397478129
 30
0.0
 10
9.6910287742
 20
7.2425746504
 30
0.0
 10
9.6848960119
 20
7.2458475463
 30
0.0
 10
9.6789906392
 20
7.2495501116
 30
0.0
 10
9.6733458408
 20
7.2536634248
 30
0.0
 10
9.6679936594
 20
7.2581660666
 30
0.0
 10
9.662964763
 20
7.2630341849
 30
0.0
 10
9.658288217
 20
7.2682415795
 30
0.0
 10
9.6539911702
 20
7.2737598201
 30
0.0
 10
9.6500988105
 20
7.2795583663
 30
0.0
 10
9.6466337088
 20
7.2856049941
 30
0.0
 10
9.6436165371
 20
7.2918651748
 30
0.0
 10
9.6419116741
 20
7.2961665615
 30
0.0
 10
9.6411398312
 20
7.2983407099
 30
0.0
  0
SPLINE
  5
2F6
100
AcDbEntity
  8
0
100
AcDbSpline
 62
7
  6
CONTINUOUS
 70
0
 71
3
 72
15
 73
11
 74
0
 42
0.0000001
 43
0.0000001
 44
0.0000000001
 40
0.0
 40
0.0
 40
0.0
 40
0.0
 40
0.1233759676
 40
0.2471266856
 40
0.3713069087
 40
0.4959646921
 40
0.6211386067
 40
0.7468543562
 40
0.8731463839
 40
1.0
 40
1.0
 40
1.0
 40
1.0
 10
12.5480085517
 20
7.3811798044
 30
0.0
 10
12.5463010939
 20
7.3803129481
 30
0.0
 10
12.5428197539
 20
7.3786943455
 30
0.0
 10
12.537435239
 20
7.3766282261
 30
0.0
 10
12.5319028416
 20
7.3749290795
 30
0.0
 10
12.5262463973
 20
7.3736046831
 30
0.0
 10
12.5204900322
 20
7.3726609891
 30
0.0
 10
12.5146581654
 20
7.3721021287
 30
0.0
 10
12.5087763174
 20
7.3719308175
 30
0.0
 10
12.5048466011
 20
7.3720750618
 30
0.0
 10
12.5028824399
 20
7.3722112769
 30
0.0
  0
SPLINE
  5
2F7
100
AcDbEntity
  8
0
100
AcDbSpline
 62
7
  6
CONTINUOUS
 70
0
 71
3
 72
37
 73
33
 74
0
 42
0.0000001
 43
0.0000001
 44
0.0000000001
 40
0.0
 40
0.0
 40
0.0
 40
0.0
 40
0.0299447936
 40
0.0599139685
 40
0.0899313111
 40
0.1200194352
 40
0.1501992442
 40
0.180489451
 40
0.2109061585
 40
0.2414625113
 40
0.2721684281
 40
0.3030304183
 40
0.3340514866
 40
0.3652311292
 40
0.3965653974
 40
0.4280470303
 40
0.4596656502
 40
0.491408017
 40
0.5551595119
 40
0.6191908015
 40
0.6512770143
 40
0.6833672795
 40
0.7154387951
 40
0.7474691381
 40
0.7794367026
 40
0.8113211444
 40
0.8431037821
 40
0.8747679493
 40
0.9062997436
 40
0.9376868029
 40
0.9689230915
 40
1.0
 40
1.0
 40
1.0
 40
1.0
 10
12.690860988
 20
8.6239578421
 30
0.0
 10
12.6893015591
 20
8.6224515548
 30
0.0
 10
12.6860600709
 20
8.6195605544
 30
0.0
 10
12.6808667181
 20
8.6156220651
 30
0.0
 10
12.6753687735
 20
8.6121013142
 30
0.0
 10
12.6695969535
 20
8.6090180622
 30
0.0
 10
12.6635829966
 20
8.6063891479
 30
0.0
 10
12.6573600975
 20
8.6042290128
 30
0.0
 10
12.6509625476
 20
8.6025494729
 30
0.0
 10
12.6444255903
 20
8.6013596992
 30
0.0
 10
12.6377852146
 20
8.6006661625
 30
0.0
 10
12.6310779621
 20
8.6004726034
 30
0.0
 10
12.6243407219
 20
8.6007799875
 30
0.0
 10
12.6176105338
 20
8.6015865301
 30
0.0
 10
12.6109243506
 20
8.6028877329
 30
0.0
 10
12.6043189813
 20
8.6046763231
 30
0.0
 10
12.5978303622
 20
8.6069426282
 30
0.0
 10
12.5893727771
 20
8.6105883333
 30
0.0
 10
12.5792728679
 20
8.6162746611
 30
0.0
 10
12.5700416843
 20
8.6233234681
 30
0.0
 10
12.5632823879
 20
8.6296949133
 30
0.0
 10
12.5585499321
 20
8.6348181772
 30
0.0
 10
12.5541859145
 20
8.6402531271
 30
0.0
 10
12.5502139655
 20
8.6459701746
 30
0.0
 10
12.5466559922
 20
8.6519378876
 30
0.0
 10
12.5435315323
 20
8.6581235432
 30
0.0
 10
12.5408578004
 20
8.6644931954
 30
0.0
 10
12.5386494864
 20
8.6710119036
 30
0.0
 10
12.5369188364
 20
8.677643814
 30
0.0
 10
12.5356752603
 20
8.6843527427
 30
0.0
 10
12.534925887
 20
8.6911012434
 30
0.0
 10
12.534757998
 20
8.6956146794
 30
0.0
 10
12.534757998
 20
8.6978647632
 30
0.0
  0
SPLINE
  5
2F8
100
AcDbEntity
  8
0
100
AcDbSpline
 62
7
  6
CONTINUOUS
 70
0
 71
3
 72
31
 73
27
 74
0
 42
0.0000001
 43
0.0000001
 44
0.0000000001
 40
0.0
 40
0.0
 40
0.0
 40
0.0
 40
0.0301969822
 40
0.0604047511
 40
0.0906323123
 40
0.1208885508
 40
0.1815040026
 40
0.2423352161
 40
0.2728599926
 40
0.3034610913
 40
0.3341449123
 40
0.364917256
 40
0.4267291055
 40
0.4889467993
 40
0.551588433
 40
0.6146562568
 40
0.6463556865
 40
0.6781546145
 40
0.7100482433
 40
0.7420306062
 40
0.8062122074
 40
0.870650819
 40
0.9029515144
 40
0.9352839995
 40
0.9676390062
 40
1.0
 40
1.0
 40
1.0
 40
1.0
 10
10.4106738314
 20
8.2858162867
 30
0.0
 10
10.4083383748
 20
8.2836007535
 30
0.0
 10
10.4035588754
 20
8.2792808942
 30
0.0
 10
10.396084022
 20
8.2731533876
 30
0.0
 10
10.3883168809
 20
8.2673895315
 30
0.0
 10
10.3775872762
 20
8.2602030021
 30
0.0
 10
10.3635107899
 20
8.252186454
 30
0.0
 10
10.3486992959
 20
8.2455558601
 30
0.0
 10
10.3364747163
 20
8.2411170431
 30
0.0
 10
10.3271200318
 20
8.2382255923
 30
0.0
 10
10.3176102666
 20
8.2357856469
 30
0.0
 10
10.3047335222
 20
8.2331421954
 30
0.0
 10
10.2883399465
 20
8.2310125926
 30
0.0
 10
10.2684180748
 20
8.2303914358
 30
0.0
 10
10.2483974739
 20
8.2317395704
 30
0.0
 10
10.231818452
 20
8.2345200199
 30
0.0
 10
10.2187099314
 20
8.2377356713
 30
0.0
 10
10.2089621247
 20
8.2406482771
 30
0.0
 10
10.1993433939
 20
8.2440538435
 30
0.0
 10
10.1867140283
 20
8.2492495829
 30
0.0
 10
10.1713878469
 20
8.256949611
 30
0.0
 10
10.156884251
 20
8.2661693888
 30
0.0
 10
10.145859232
 20
8.2744102909
 30
0.0
 10
10.1378971841
 20
8.2810137811
 30
0.0
 10
10.1302748711
 20
8.2880154297
 30
0.0
 10
10.1254341172
 20
8.2929360343
 30
0.0
 10
10.1230777816
 20
8.2954557824
 30
0.0
  0
SPLINE
  5
2F9
100
AcDbEntity
  8
0
100
AcDbSpline
 62
7
  6
CONTINUOUS
 70
0
 71
3
 72
15
 73
11
 74
0
 42
0.0000001
 43
0.0000001
 44
0.0000000001
 40
0.0
 40
0.0
 40
0.0
 40
0.0
 40
0.1273483281
 40
0.2538605602
 40
0.3795878981
 40
0.5046051042
 40
0.6290174419
 40
0.7529533761
 40
0.876560577
 40
1.0
 40
1.0
 40
1.0
 40
1.0
 10
12.0667669137
 20
8.8211169555
 30
0.0
 10
12.0667669137
 20
8.8254440845
 30
0.0
 10
12.0671800674
 20
8.8340759155
 30
0.0
 10
12.0690485207
 20
8.8468576446
 30
0.0
 10
12.0721467266
 20
8.8593182143
 30
0.0
 10
12.0764467018
 20
8.8713410951
 30
0.0
 10
12.0819089849
 20
8.8828154124
 30
0.0
 10
12.088483809
 20
8.8936351999
 30
0.0
 10
12.0961093374
 20
8.9036990851
 30
0.0
 10
12.1018509758
 20
8.9098466704
 30
0.0
 10
12.1048677545
 20
8.9127606503
 30
0.0
  0
SPLINE
  5
2FA
100
AcDbEntity
  8
0
100
AcDbSpline
 62
7
  6
CONTINUOUS
 70
0
 71
3
 72
31
 73
27
 74
0
 42
0.0000001
 43
0.0000001
 44
0.0000000001
 40
0.0
 40
0.0
 40
0.0
 40
0.0
 40
0.0663555686
 40
0.1001306617
 40
0.1342275978
 40
0.203137511
 40
0.2726140598
 40
0.3421526294
 40
0.4112465785
 40
0.4794039807
 40
0.5129935854
 40
0.5461801526
 40
0.6111328634
 40
0.6428299241
 40
0.6739530991
 40
0.7044733197
 40
0.7343682353
 40
0.7636228603
 40
0.792230226
 40
0.8474917431
 40
0.8742050798
 40
0.9003353223
 40
0.9259235989
 40
0.951021346
 40
0.9756899413
 40
1.0
 40
1.0
 40
1.0
 40
1.0
 10
10.8396775973
 20
8.163546571
 30
0.0
 10
10.8398726178
 20
8.1554158446
 30
0.0
 10
10.8396082499
 20
8.1431252802
 30
0.0
 10
10.8382094163
 20
8.1267296619
 30
0.0
 10
10.8360864924
 20
8.110095007
 30
0.0
 10
10.8321149564
 20
8.0893048069
 30
0.0
 10
10.8253377532
 20
8.0647103102
 30
0.0
 10
10.8166229241
 20
8.0407087263
 30
0.0
 10
10.806088854
 20
8.0176264028
 30
0.0
 10
10.7958611684
 20
7.9993245044
 30
0.0
 10
10.7868892864
 20
7.9854254994
 30
0.0
 10
10.7775529216
 20
7.9722483747
 30
0.0
 10
10.7675004147
 20
7.959877402
 30
0.0
 10
10.756781298
 20
7.9484531006
 30
0.0
 10
10.7485517043
 20
7.9404986773
 30
0.0
 10
10.7400957798
 20
7.9331169332
 30
0.0
 10
10.7314421518
 20
7.9263329331
 30
0.0
 10
10.7226192982
 20
7.9201695055
 30
0.0
 10
10.7108104344
 20
7.912893482
 30
0.0
 10
10.6986443069
 20
7.9068216474
 30
0.0
 10
10.686248642
 20
7.9021166667
 30
0.0
 10
10.6770390116
 20
7.8993314816
 30
0.0
 10
10.667845619
 20
7.8972612316
 30
0.0
 10
10.65869916
 20
7.895913271
 30
0.0
 10
10.6496319608
 20
7.8952927841
 30
0.0
 10
10.6436212779
 20
7.8953664272
 30
0.0
 10
10.6406459644
 20
7.8955268209
 30
0.0
  0
SPLINE
  5
2FB
100
AcDbEntity
  8
0
100
AcDbSpline
 62
7
  6
CONTINUOUS
 70
0
 71
3
 72
39
 73
35
 74
0
 42
0.0000001
 43
0.0000001
 44
0.0000000001
 40
0.0
 40
0.0
 40
0.0
 40
0.0
 40
0.0299745273
 40
0.0599216171
 40
0.0898754132
 40
0.119867794
 40
0.1499288049
 40
0.1800847203
 40
0.2103574919
 40
0.2407642952
 40
0.2713174735
 40
0.3020247309
 40
0.3328895092
 40
0.363911466
 40
0.3950869939
 40
0.4264097298
 40
0.4578710259
 40
0.4894603625
 40
0.521165697
 40
0.5529737478
 40
0.5848702206
 40
0.6168399825
 40
0.6488671965
 40
0.6809354238
 40
0.7130277063
 40
0.7451266379
 40
0.777214437
 40
0.8092730304
 40
0.8412841631
 40
0.8732295461
 40
0.9050910587
 40
0.9368510207
 40
0.9684925473
 40
1.0
 40
1.0
 40
1.0
 40
1.0
 10
12.2541356259
 20
8.1711210016
 30
0.0
 10
12.2511824693
 20
8.1671082591
 30
0.0
 10
12.2449021073
 20
8.1593559434
 30
0.0
 10
12.2344455598
 20
8.1486581616
 30
0.0
 10
12.223041907
 20
8.1389702254
 30
0.0
 10
12.2107855221
 20
8.1303551099
 30
0.0
 10
12.1977757541
 20
8.12286022
 30
0.0
 10
12.1841155586
 20
8.1165197571
 30
0.0
 10
12.1699087991
 20
8.1113548184
 30
0.0
 10
12.1552582438
 20
8.1073747557
 30
0.0
 10
12.1402639298
 20
8.104578574
 30
0.0
 10
12.1250220037
 20
8.1029565174
 30
0.0
 10
12.1096239876
 20
8.1024916205
 30
0.0
 10
12.0941564136
 20
8.1031611582
 30
0.0
 10
12.0787007578
 20
8.104937928
 30
0.0
 10
12.0633335991
 20
8.1077913366
 30
0.0
 10
12.0481269405
 20
8.1116882847
 30
0.0
 10
12.0331486366
 20
8.1165938536
 30
0.0
 10
12.0184628839
 20
8.1224718098
 30
0.0
 10
12.0041307397
 20
8.1292849458
 30
0.0
 10
11.9902106443
 20
8.1369952731
 30
0.0
 10
11.9767589266
 20
8.1455640887
 30
0.0
 10
11.9638302797
 20
8.1549519272
 30
0.0
 10
11.9514781942
 20
8.165118414
 30
0.0
 10
11.9397553411
 20
8.1760220284
 30
0.0
 10
11.9287138926
 20
8.1876197861
 30
0.0
 10
11.9184057732
 20
8.1998668462
 30
0.0
 10
11.9088828252
 20
8.2127160549
 30
0.0
 10
11.9001968776
 20
8.226117417
 30
0.0
 10
11.8923996878
 20
8.2400175623
 30
0.0
 10
11.8855427779
 20
8.2543590159
 30
0.0
 10
11.8796769795
 20
8.2690800521
 30
0.0
 10
11.8748522585
 20
8.28411235
 30
0.0
 10
11.8723554774
 20
8.2943185593
 30
0.0
 10
11.8712975241
 20
8.2994476782
 30
0.0
  0
SPLINE
  5
2FC
100
AcDbEntity
  8
0
100
AcDbSpline
 62
7
  6
CONTINUOUS
 70
0
 71
3
 72
15
 73
11
 74
0
 42
0.0000001
 43
0.0000001
 44
0.0000000001
 40
0.0
 40
0.0
 40
0.0
 40
0.0
 40
0.1273483281
 40
0.2538605602
 40
0.3795878981
 40
0.5046051042
 40
0.6290174419
 40
0.7529533761
 40
0.876560577
 40
1.0
 40
1.0
 40
1.0
 40
1.0
 10
12.0667669137
 20
7.0708593635
 30
0.0
 10
12.0667669137
 20
7.0751864925
 30
0.0
 10
12.0671800674
 20
7.0838183235
 30
0.0
 10
12.0690485207
 20
7.0966000526
 30
0.0
 10
12.0721467266
 20
7.1090606223
 30
0.0
 10
12.0764467018
 20
7.1210835031
 30
0.0
 10
12.0819089849
 20
7.1325578204
 30
0.0
 10
12.088483809
 20
7.1433776079
 30
0.0
 10
12.0961093374
 20
7.153441493
 30
0.0
 10
12.1018509758
 20
7.1595890784
 30
0.0
 10
12.1048677545
 20
7.1625030583
 30
0.0
  0
SPLINE
  5
2FD
100
AcDbEntity
  8
0
100
AcDbSpline
 62
7
  6
CONTINUOUS
 70
0
 71
3
 72
32
 73
28
 74
0
 42
0.0000001
 43
0.0000001
 44
0.0000000001
 40
0.0
 40
0.0
 40
0.0
 40
0.0
 40
0.0206584201
 40
0.041686712
 40
0.0630680883
 40
0.0847910686
 40
0.1293370472
 40
0.1522205307
 40
0.1755426329
 40
0.2235855921
 40
0.2736703625
 40
0.3260537177
 40
0.3532051498
 40
0.381054391
 40
0.4096546958
 40
0.4390649213
 40
0.4693548285
 40
0.5006031279
 40
0.5663550718
 40
0.6372782087
 40
0.6750798991
 40
0.7147052106
 40
0.756390208
 40
0.8003847541
 40
0.8469059108
 40
0.8960223417
 40
1.0
 40
1.0
 40
1.0
 40
1.0
 10
10.8537571543
 20
7.7878329834
 30
0.0
 10
10.85541713
 20
7.789492035
 30
0.0
 10
10.8587159395
 20
7.7928911628
 30
0.0
 10
10.8635491399
 20
7.7981817308
 30
0.0
 10
10.8682993749
 20
7.8037076403
 30
0.0
 10
10.874558685
 20
7.8114534765
 30
0.0
 10
10.8805669678
 20
7.8196154594
 30
0.0
 10
10.8863278196
 20
7.828166801
 30
0.0
 10
10.8920638639
 20
7.8372093132
 30
0.0
 10
10.8989692957
 20
7.8491628308
 30
0.0
 10
10.9067173712
 20
7.8644141426
 30
0.0
 10
10.9126824204
 20
7.8778856767
 30
0.0
 10
10.9171763055
 20
7.8892284574
 30
0.0
 10
10.9204365482
 20
7.8981501622
 30
0.0
 10
10.9235339899
 20
7.9074006929
 30
0.0
 10
10.9264567994
 20
7.9169981849
 30
0.0
 10
10.9291879526
 20
7.9269644122
 30
0.0
 10
10.9326087425
 20
7.9410165785
 30
0.0
 10
10.9362829929
 20
7.959749058
 30
0.0
 10
10.9388552801
 20
7.9794189483
 30
0.0
 10
10.940173407
 20
7.9962238567
 30
0.0
 10
10.9407242873
 20
8.0097479109
 30
0.0
 10
10.9407277014
 20
8.023987456
 30
0.0
 10
10.9400691603
 20
8.0389967537
 30
0.0
 10
10.9386035675
 20
8.0548000641
 30
0.0
 10
10.9352889745
 20
8.0772395047
 30
0.0
 10
10.931149477
 20
8.0942067275
 30
0.0
 10
10.927501153
 20
8.1054416251
 30
0.0
  0
SPLINE
  5
2FE
100
AcDbEntity
  8
0
100
AcDbSpline
 62
7
  6
CONTINUOUS
 70
0
 71
3
 72
11
 73
7
 74
0
 42
0.0000001
 43
0.0000001
 44
0.0000000001
 40
0.0
 40
0.0
 40
0.0
 40
0.0
 40
0.2553614788
 40
0.5061584345
 40
0.753860669
 40
1.0
 40
1.0
 40
1.0
 40
1.0
 10
13.4184294122
 20
7.8486927072
 30
0.0
 10
13.4174955888
 20
7.8484540328
 30
0.0
 10
13.4156262379
 20
7.8480493955
 30
0.0
 10
13.4128038448
 20
7.8476660991
 30
0.0
 10
13.4099944195
 20
7.8475133212
 30
0.0
 10
13.4081286849
 20
7.8475653726
 30
0.0
 10
13.4072018774
 20
7.8476296511
 30
0.0
  0
SPLINE
  5
2FF
100
AcDbEntity
  8
0
100
AcDbSpline
 62
7
  6
CONTINUOUS
 70
0
 71
3
 72
39
 73
35
 74
0
 42
0.0000001
 43
0.0000001
 44
0.0000000001
 40
0.0
 40
0.0
 40
0.0
 40
0.0
 40
0.0309739388
 40
0.0619731255
 40
0.0929977623
 40
0.1240511274
 40
0.1551340363
 40
0.1862476157
 40
0.2173922798
 40
0.248568008
 40
0.2797742929
 40
0.3110101525
 40
0.3422741501
 40
0.3735644147
 40
0.4048786699
 40
0.4362142698
 40
0.4675682421
 40
0.4989373355
 40
0.5303180692
 40
0.5617067853
 40
0.5930997032
 40
0.6244929767
 40
0.6558827536
 40
0.6872652367
 40
0.7186367409
 40
0.7499937493
 40
0.7813329637
 40
0.8126513583
 40
0.8439462299
 40
0.8752151854
 40
0.9064564643
 40
0.9376679537
 40
0.9688500229
 40
1.0
 40
1.0
 40
1.0
 40
1.0
 10
10.8971681138
 20
8.1397567335
 30
0.0
 10
10.8981685987
 20
8.1357109048
 30
0.0
 10
10.8999150519
 20
8.1275503502
 30
0.0
 10
10.9017584502
 20
8.1151655972
 30
0.0
 10
10.9028197519
 20
8.1026782456
 30
0.0
 10
10.9030948639
 20
8.0901377878
 30
0.0
 10
10.9025826489
 20
8.0775927835
 30
0.0
 10
10.9012851721
 20
8.0650922313
 30
0.0
 10
10.8992074727
 20
8.0526848158
 30
0.0
 10
10.8963576764
 20
8.0404188951
 30
0.0
 10
10.8927469136
 20
8.0283422592
 30
0.0
 10
10.8883892737
 20
8.0165019598
 30
0.0
 10
10.8833017521
 20
8.0049441249
 30
0.0
 10
10.8775041819
 20
7.9937137815
 30
0.0
 10
10.8710191574
 20
7.9828546817
 30
0.0
 10
10.8638719504
 20
7.9724091313
 30
0.0
 10
10.856090425
 20
7.9624178138
 30
0.0
 10
10.8477049075
 20
7.9529196447
 30
0.0
 10
10.8387480723
 20
7.9439516192
 30
0.0
 10
10.8292548138
 20
7.9355486707
 30
0.0
 10
10.8192621133
 20
7.927743535
 30
0.0
 10
10.8088088934
 20
7.9205666264
 30
0.0
 10
10.7979358807
 20
7.9140458996
 30
0.0
 10
10.7866854352
 20
7.9082067532
 30
0.0
 10
10.7751013833
 20
7.9030719357
 30
0.0
 10
10.763228849
 20
7.8986614576
 30
0.0
 10
10.7511140808
 20
7.8949925127
 30
0.0
 10
10.7388042695
 20
7.8920794128
 30
0.0
 10
10.7263473803
 20
7.8899335307
 30
0.0
 10
10.7137919169
 20
7.8885632037
 30
0.0
 10
10.7011869004
 20
7.8879738442
 30
0.0
 10
10.6885811354
 20
7.8881676608
 30
0.0
 10
10.6760245479
 20
7.8891440009
 30
0.0
 10
10.6677130749
 20
7.8903147838
 30
0.0
 10
10.6635829593
 20
7.8910288176
 30
0.0
  0
SPLINE
  5
300
100
AcDbEntity
  8
0
100
AcDbSpline
 62
7
  6
CONTINUOUS
 70
0
 71
3
 72
15
 73
11
 74
0
 42
0.0000001
 43
0.0000001
 44
0.0000000001
 40
0.0
 40
0.0
 40
0.0
 40
0.0
 40
0.1278198583
 40
0.2548780989
 40
0.3811144937
 40
0.50649477
 40
0.6310217888
 40
0.7547312167
 40
0.8776913946
 40
1.0
 40
1.0
 40
1.0
 40
1.0
 10
9.6411398312
 20
7.2983407099
 30
0.0
 10
9.6401288078
 20
7.3011885885
 30
0.0
 10
9.638381216
 20
7.3069669954
 30
0.0
 10
9.636610855
 20
7.3158156446
 30
0.0
 10
9.6357138566
 20
7.3247380594
 30
0.0
 10
9.6356979317
 20
7.3336456177
 30
0.0
 10
9.6365608702
 20
7.3424514651
 30
0.0
 10
9.6382917688
 20
7.3510706137
 30
0.0
 10
9.6408702517
 20
7.3594195121
 30
0.0
 10
9.643142228
 20
7.3647677739
 30
0.0
 10
9.6444081579
 20
7.3673676653
 30
0.0
  0
SPLINE
  5
301
100
AcDbEntity
  8
0
100
AcDbSpline
 62
7
  6
CONTINUOUS
 70
0
 71
3
 72
15
 73
11
 74
0
 42
0.0000001
 43
0.0000001
 44
0.0000000001
 40
0.0
 40
0.0
 40
0.0
 40
0.0
 40
0.1273483281
 40
0.2538605602
 40
0.3795878981
 40
0.5046051042
 40
0.6290174419
 40
0.7529533761
 40
0.876560577
 40
1.0
 40
1.0
 40
1.0
 40
1.0
 10
10.0141744112
 20
7.213207137
 30
0.0
 10
10.0141744112
 20
7.217534266
 30
0.0
 10
10.0145875649
 20
7.226166097
 30
0.0
 10
10.0164560182
 20
7.2389478261
 30
0.0
 10
10.0195542241
 20
7.2514083958
 30
0.0
 10
10.0238541994
 20
7.2634312766
 30
0.0
 10
10.0293164825
 20
7.2749055939
 30
0.0
 10
10.0358913065
 20
7.2857253814
 30
0.0
 10
10.043516835
 20
7.2957892666
 30
0.0
 10
10.0492584733
 20
7.3019368519
 30
0.0
 10
10.052275252
 20
7.3048508318
 30
0.0
  0
SPLINE
  5
302
100
AcDbEntity
  8
0
100
AcDbSpline
 62
7
  6
CONTINUOUS
 70
0
 71
3
 72
15
 73
11
 74
0
 42
0.0000001
 43
0.0000001
 44
0.0000000001
 40
0.0
 40
0.0
 40
0.0
 40
0.0
 40
0.1273483281
 40
0.2538605602
 40
0.3795878981
 40
0.5046051042
 40
0.6290174419
 40
0.7529533761
 40
0.876560577
 40
1.0
 40
1.0
 40
1.0
 40
1.0
 10
10.0141744112
 20
8.963464729
 30
0.0
 10
10.0141744112
 20
8.967791858
 30
0.0
 10
10.0145875649
 20
8.976423689
 30
0.0
 10
10.0164560182
 20
8.9892054181
 30
0.0
 10
10.0195542241
 20
9.0016659878
 30
0.0
 10
10.0238541994
 20
9.0136888686
 30
0.0
 10
10.0293164825
 20
9.0251631859
 30
0.0
 10
10.0358913065
 20
9.0359829734
 30
0.0
 10
10.043516835
 20
9.0460468586
 30
0.0
 10
10.0492584733
 20
9.0521944439
 30
0.0
 10
10.052275252
 20
9.0551084238
 30
0.0
  0
SPLINE
  5
303
100
AcDbEntity
  8
0
100
AcDbSpline
 62
7
  6
CONTINUOUS
 70
0
 71
3
 72
9
 73
5
 74
0
 42
0.0000001
 43
0.0000001
 44
0.0000000001
 40
0.0
 40
0.0
 40
0.0
 40
0.0
 40
0.2549090935
 40
1.0
 40
1.0
 40
1.0
 40
1.0
 10
10.9271373764
 20
8.1065520154
 30
0.0
 10
10.9265079716
 20
8.1084571148
 30
0.0
 10
10.9239426252
 20
8.115898454
 30
0.0
 10
10.9209870364
 20
8.1232066161
 30
0.0
 10
10.9185534267
 20
8.1285424216
 30
0.0
  0
SPLINE
  5
304
100
AcDbEntity
  8
0
100
AcDbSpline
 62
7
  6
CONTINUOUS
 70
0
 71
3
 72
15
 73
11
 74
0
 42
0.0000001
 43
0.0000001
 44
0.0000000001
 40
0.0
 40
0.0
 40
0.0
 40
0.0
 40
0.1234973233
 40
0.2474715837
 40
0.3718941111
 40
0.4967553759
 40
0.622027938
 40
0.747682429
 40
0.8736856021
 40
1.0
 40
1.0
 40
1.0
 40
1.0
 10
11.5688321224
 20
8.1321149374
 30
0.0
 10
11.5722270525
 20
8.1318794982
 30
0.0
 10
11.57901834
 20
8.1312178024
 30
0.0
 10
11.5891524289
 20
8.1296621887
 30
0.0
 10
11.5992233648
 20
8.1275472273
 30
0.0
 10
11.6091995902
 20
8.1248815741
 30
0.0
 10
11.6190511684
 20
8.1216757182
 30
0.0
 10
11.6287489191
 20
8.1179425019
 30
0.0
 10
11.638264553
 20
8.1136968571
 30
0.0
 10
11.6444628687
 20
8.110538876
 30
0.0
 10
11.6475231295
 20
8.1088805169
 30
0.0
  0
SPLINE
  5
305
100
AcDbEntity
  8
0
100
AcDbSpline
 62
7
  6
CONTINUOUS
 70
0
 71
3
 72
23
 73
19
 74
0
 42
0.0000001
 43
0.0000001
 44
0.0000000001
 40
0.0
 40
0.0
 40
0.0
 40
0.0
 40
0.0599875769
 40
0.1208952358
 40
0.1826516881
 40
0.2451584332
 40
0.3082938188
 40
0.3719173732
 40
0.4358743458
 40
0.5000004202
 40
0.5641264786
 40
0.6280834013
 40
0.6917068773
 40
0.7548421639
 40
0.8173487758
 40
0.8791050678
 40
0.9400125743
 40
1.0
 40
1.0
 40
1.0
 40
1.0
 10
10.8994460297
 20
8.0799056523
 30
0.0
 10
10.8986757742
 20
8.074066913
 30
0.0
 10
10.8965705463
 20
8.0623661135
 30
0.0
 10
10.8918140799
 20
8.045053364
 30
0.0
 10
10.885477116
 20
8.0279898496
 30
0.0
 10
10.8776177975
 20
8.0113310429
 30
0.0
 10
10.8683073882
 20
7.9952261481
 30
0.0
 10
10.8576301145
 20
7.9798201337
 30
0.0
 10
10.8456824127
 20
7.9652514812
 30
0.0
 10
10.8325720189
 20
7.9516512564
 30
0.0
 10
10.818417004
 20
7.9391419025
 30
0.0
 10
10.8033447856
 20
7.9278361101
 30
0.0
 10
10.7874910035
 20
7.917835802
 30
0.0
 10
10.7709981933
 20
7.9092313006
 30
0.0
 10
10.7540147953
 20
7.9021005543
 30
0.0
 10
10.7366929771
 20
7.8965082687
 30
0.0
 10
10.7191905902
 20
7.8925057679
 30
0.0
 10
10.7074096524
 20
7.890909041
 30
0.0
 10
10.7015430539
 20
7.8903923034
 30
0.0
  0
SPLINE
  5
306
100
AcDbEntity
  8
0
100
AcDbSpline
 62
7
  6
CONTINUOUS
 70
0
 71
3
 72
11
 73
7
 74
0
 42
0.0000001
 43
0.0000001
 44
0.0000000001
 40
0.0
 40
0.0
 40
0.0
 40
0.0
 40
0.2459755626
 40
0.4935816083
 40
0.7444132247
 40
1.0
 40
1.0
 40
1.0
 40
1.0
 10
13.4819212745
 20
8.9250418072
 30
0.0
 10
13.4828681688
 20
8.9249761356
 30
0.0
 10
13.4847636165
 20
8.9247639185
 30
0.0
 10
13.4875845603
 20
8.9242052681
 30
0.0
 10
13.4903856204
 20
8.9234065117
 30
0.0
 10
13.4922184075
 20
8.922721875
 30
0.0
 10
13.4931286411
 20
8.922342169
 30
0.0
  0
SPLINE
  5
307
100
AcDbEntity
  8
0
100
AcDbSpline
 62
7
  6
CONTINUOUS
 70
0
 71
3
 72
37
 73
33
 74
0
 42
0.0000001
 43
0.0000001
 44
0.0000000001
 40
0.0
 40
0.0
 40
0.0
 40
0.0
 40
0.0071625163
 40
0.0146566855
 40
0.0224900841
 40
0.0306688224
 40
0.0391978881
 40
0.0480811142
 40
0.0573209621
 40
0.0669185876
 40
0.0871864145
 40
0.1088789618
 40
0.1319780012
 40
0.1564560409
 40
0.1822776811
 40
0.2094008015
 40
0.2377774489
 40
0.267354417
 40
0.2980737688
 40
0.3298734368
 40
0.3626876084
 40
0.3964469841
 40
0.4310791962
 40
0.4665091598
 40
0.5026593021
 40
0.5394498154
 40
0.6146219384
 40
0.6913554392
 40
0.7689602702
 40
0.8467363389
 40
0.9239810822
 40
1.0
 40
1.0
 40
1.0
 40
1.0
 10
7.9270676758
 20
9.4853653063
 30
0.0
 10
7.9262553898
 20
9.4845806982
 30
0.0
 10
7.9246318824
 20
9.4829347263
 30
0.0
 10
7.9222523205
 20
9.4803042882
 30
0.0
 10
7.9198757215
 20
9.4774590476
 30
0.0
 10
7.9175037088
 20
9.4744008378
 30
0.0
 10
7.9151375696
 20
9.4711315106
 30
0.0
 10
7.9127786908
 20
9.4676529292
 30
0.0
 10
7.9104284002
 20
9.4639671225
 30
0.0
 10
7.9072500457
 20
9.4586828437
 30
0.0
 10
7.9033186822
 20
9.45156375
 30
0.0
 10
7.8987393587
 20
9.442381627
 30
0.0
 10
7.8942272801
 20
9.4324327351
 30
0.0
 10
7.889793321
 20
9.4217407525
 30
0.0
 10
7.8854481374
 20
9.4103309912
 30
0.0
 10
7.8812022272
 20
9.3982306611
 30
0.0
 10
7.8770658803
 20
9.3854686594
 30
0.0
 10
7.8730491201
 20
9.3720755442
 30
0.0
 10
7.8691616552
 20
9.3580834431
 30
0.0
 10
7.8654129024
 20
9.3435259448
 30
0.0
 10
7.8618119563
 20
9.3284380152
 30
0.0
 10
7.8583675205
 20
9.3128559296
 30
0.0
 10
7.8550879175
 20
9.2968171657
 30
0.0
 10
7.8519810985
 20
9.2803603108
 30
0.0
 10
7.8490545511
 20
9.2635249345
 30
0.0
 10
7.8453761173
 20
9.2404622505
 30
0.0
 10
7.8412882782
 20
9.2109880886
 30
0.0
 10
7.8372348427
 20
9.1750242232
 30
0.0
 10
7.8340384058
 20
9.1385618981
 30
0.0
 10
7.8317297795
 20
9.1019518385
 30
0.0
 10
7.8303311356
 20
9.065546157
 30
0.0
 10
7.830010614
 20
9.0413793958
 30
0.0
 10
7.830010614
 20
9.0293931717
 30
0.0
  0
ELLIPSE
  5
308
100
AcDbEntity
  8
0
100
AcDbEllipse
 62
7
  6
CONTINUOUS
 10
10.7835342798
 20
7.9750932483
 30
0.0
 11
0.2133252278
 21
-0.0053503375
 31
0.0
 40
0.9316363671
 41
5.6423482698
 42
8.2074293865
  0
ELLIPSE
  5
309
100
AcDbEntity
  8
0
100
AcDbEllipse
 62
7
  6
CONTINUOUS
 10
10.7835342798
 20
7.9750932483
 30
0.0
 11
0.205558424
 21
-0.0463146176
 31
0.0
 40
0.9339800658
 41
2.1137171356
 42
2.7052795751
  0
ELLIPSE
  5
30A
100
AcDbEntity
  8
0
100
AcDbEllipse
 62
7
  6
CONTINUOUS
 10
10.7835342798
 20
7.9750932483
 30
0.0
 11
0.205558424
 21
-0.0463146176
 31
0.0
 40
0.9339800658
 41
-1.027875518
 42
-0.4363130784
  0
ELLIPSE
  5
30B
100
AcDbEntity
  8
0
100
AcDbEllipse
 62
7
  6
CONTINUOUS
 10
10.7835342798
 20
7.9750932483
 30
0.0
 11
0.2133252278
 21
-0.0053503375
 31
0.0
 40
0.9316363671
 41
2.5007556162
 42
5.0658367329
  0
ENDSEC
  0
SECTION
  2
OBJECTS
  0
DICTIONARY
  5
C
100
AcDbDictionary
280
0
281
1
  3
ACAD_GROUP
350
D
  3
ACAD_MLINESTYLE
350
17
  3
ACAD_LAYOUT
350
1A
  3
ACAD_PLOTSETTINGS
350
19
  3
ACAD_PLOTSTYLENAME
350
E
  3
ACAD_IMAGE_DICT
350
       30D
  3
ACAD_IMAGE_VARS
350
       30E
  3
ACAD_TABLESTYLE
350
       30F
  0
IMAGEDEF_REACTOR
  5
30C
100
AcDbRasterImageDefReactor
 90
2
330
271
  0
DICTIONARY
  5
D
102
{ACAD_REACTORS
330
C
102
}
100
AcDbDictionary
280
0
281
1
  0
ACDBDICTIONARYWDFLT
  5
E
102
{ACAD_REACTORS
330
C
102
}
100
AcDbDictionary
281
1
  3
Normal
350
F
100
AcDbDictionaryWithDefault
340
F
  0
DICTIONARY
  5
30D
330
C
100
AcDbDictionary
281
1
  3
X9Y_assy_2_img_1
350
       312
  0
RASTERVARIABLES
  5
30E
330
C
100
AcDbRasterVariables
 90
0
 70
0
 71
1
 72
5
  0
DICTIONARY
  5
17
102
{ACAD_REACTORS
330
C
102
}
100
AcDbDictionary
280
0
281
1
  3
Standard
350
18
  0
DICTIONARY
  5
30F
330
C
100
AcDbDictionary
281
1
  3
Standard
350
       313
  3
Standard1
350
       314
  0
DICTIONARY
  5
19
102
{ACAD_REACTORS
330
C
102
}
100
AcDbDictionary
281
1
  0
DICTIONARY
  5
1A
102
{ACAD_REACTORS
330
C
102
}
100
AcDbDictionary
281
1
  3
Model
350
310
  3
Layout1
350
311
  0
ACDBPLACEHOLDER
  5
F
102
{ACAD_REACTORS
330
E
102
}
  0
MLINESTYLE
  5
18
102
{ACAD_REACTORS
330
17
102
}
100
AcDbMlineStyle
  2
STANDARD
 70
0
  3

 62
256
 51
90.0
 52
90.0
 71
2
 49
0.5
 62
256
  6
BYLAYER
 49
-0.5
 62
256
  6
BYLAYER
  0
LAYOUT
  5
310
102
{ACAD_REACTORS
330
1A
102
}
100
AcDbPlotSettings
  1

  2
none_device
  4
ANSI_C_(22.00_x_17.00_Inches)
  6

 40
0.0
 41
0.0
 42
0.0
 43
0.0
 44
558.8
 45
431.8
 46
0.0
 47
0.0
 48
0.0
 49
0.0
140
0.0
141
0.0
142
1.0
143
1.0
 70
1024
 72
0
 73
0
 74
0
  7

 75
0
147
1.0
148
0.0
149
0.0
100
AcDbLayout
  1
Model
 70
0
 71
0
 10
0.0
 20
0.0
 11
22.0
 21
17.0
 12
0.0
 22
0.0
 32
0.0
 14
0.0
 24
0.0
 34
0.0
 15
0.0
 25
0.0
 35
0.0
146
0.0
 13
0.0
 23
0.0
 33
0.0
 16
1.0
 26
0.0
 36
0.0
 17
0.0
 27
1.0
 37
0.0
 76
0
330
20E
345
0
346
0
  0
LAYOUT
  5
311
102
{ACAD_REACTORS
330
1A
102
}
100
AcDbPlotSettings
  1

  2
none_device
  4
ANSI_C_(22.00_x_17.00_Inches)
  6

 40
0.0
 41
0.0
 42
0.0
 43
0.0
 44
558.8
 45
431.8
 46
0.0
 47
0.0
 48
0.0
 49
0.0
140
0.0
141
0.0
142
1.0
143
1.0
 70
0
 72
0
 73
0
 74
0
  7

 75
0
147
1.0
148
0.0
149
0.0
100
AcDbLayout
  1
Layout1
 70
0
 71
1
 10
0.0
 20
0.0
 11
22.0
 21
17.0
 12
0.0
 22
0.0
 32
0.0
 14
0.0
 24
0.0
 34
0.0
 15
0.0
 25
0.0
 35
0.0
146
0.0
 13
0.0
 23
0.0
 33
0.0
 16
1.0
 26
0.0
 36
0.0
 17
0.0
 27
1.0
 37
0.0
 76
0
330
20F
345
0
346
0
  0
IMAGEDEF
  5
312
102
{ACAD_REACTORS
330
30D
330
30C
102
}
100
AcDbRasterImageDef
 90
0
  1
X9Y_assy_2_img_1.png
 10
369.0
 20
92.0
 11
0.0066666667
 21
0.0066666667
280
1
281
0
  0
TABLESTYLE
  5
313
102
{ACAD_REACTORS
330
30F
330
274
102
}
330
30F
100
AcDbTableStyle
  3
Standard
 70
0
 71
0
 40
0.06
 41
0.06
280
1
281
1
  7
Standard
140
0.18
170
1
 62
0
 63
7
283
0
  7
Standard
140
0.18
170
1
 62
0
 63
7
283
0
  7
Standard
140
0.18
170
1
 62
0
 63
7
283
0
  0
TABLESTYLE
  5
314
102
{ACAD_REACTORS
330
30F
330
273
102
}
330
30F
100
AcDbTableStyle
  3
Standard1
 70
1
 71
0
 40
0.06
 41
0.06
280
1
281
1
  7
Standard
140
0.18
170
1
 62
0
 63
7
283
0
  7
Standard
140
0.18
170
1
 62
0
 63
7
283
0
  7
Standard
140
0.18
170
1
 62
0
 63
7
283
0
  0
ENDSEC
  0
EOF
