999
DXF file: X8B_assy_2.dxf
999
Pro/ENGINEER 2014200 by Parametric Technology Corporation
  0
SECTION
  2
HEADER
  9
$ACADVER
  1
AC1021
  9
$DWGCODEPAGE
  3
ANSI_1252
  9
$EXTMAX
 10
22.0
 20
17.0
 30
0.0
  9
$EXTMIN
 10
0.0
 20
0.0
 30
0.0
  9
$LIMMIN
 10
0.0
 20
0.0
  9
$LIMMAX
 10
22.0
 20
17.0
  9
$VIEWCTR
 10
11.0
 20
8.5
  9
$VIEWSIZE
 40
17.0
  9
$CLAYER
  8
0
  9
$LTSCALE
 40
1.21
  9
$CELTYPE
  6
BYLAYER
  9
$DIMSCALE
 40
1.0
  9
$DIMASZ
 40
0.1875
  9
$DIMEXO
 40
0.0625
  9
$DIMDLI
 40
0.836
  9
$DIMEXE
 40
0.125
  9
$DIMCEN
 40
0.198
  9
$DIMLFAC
 40
1.0
  9
$DIMBLK
  1
_FILLED
  9
$DIMTXT
 40
0.1
  9
$DIMTOL
 70
0
  9
$DIMLIM
 70
0
  9
$DIMTFAC
 40
1.0
  9
$DIMGAP
 40
0.09
  9
$DIMDSEP
 70
46
  9
$AUNITS
 70
0
  9
$PDMODE
 70
3
  9
$PDSIZE
 40
0.3125
  9
$HANDSEED
  5
33D
  9
$TILEMODE
 70
1
  9
$MEASUREMENT
 70
0
  9
$INSUNITS
 70
1
  0
ENDSEC
  0
SECTION
  2
CLASSES
  0
CLASS
  1
ACDBDICTIONARYWDFLT
  2
AcDbDictionaryWithDefault
  3
AutoCAD 2000
 90
0
 91
1
280
0
281
0
  0
CLASS
  1
ACDBPLACEHOLDER
  2
AcDbPlaceHolder
  3
AutoCAD 2000
 90
0
 91
1
280
0
281
0
  0
CLASS
  1
LAYOUT
  2
AcDbLayout
  3
AutoCAD 2000
 90
0
 91
0
280
0
281
0
  0
CLASS
  1
RASTERVARIABLES
  2
AcDbRasterVariables
  3
ISM
 90
0
 91
1
280
0
281
0
  0
CLASS
  1
IMAGEDEF
  2
AcDbRasterImageDef
  3
ISM
 90
0
 91
1
280
0
281
0
  0
CLASS
  1
IMAGEDEF_REACTOR
  2
AcDbRasterImageDefReactor
  3
ISM
 90
0
 91
1
280
0
281
0
  0
CLASS
  1
IMAGE
  2
AcDbRasterImage
  3
ISM
 90
127
 91
1
280
0
281
1
  0
CLASS
  1
TABLESTYLE
  2
AcDbTableStyle
  3
ObjectDBX Classes
 90
2047
 91
1
280
0
281
0
  0
CLASS
  1
ACAD_TABLE
  2
AcDbTable
  3
ObjectDBX Classes
 90
1025
 91
3
280
0
281
1
  0
ENDSEC
  0
SECTION
  2
TABLES
  0
TABLE
  2
VPORT
  5
8
100
AcDbSymbolTable
 70
2
  0
VPORT
  5
1F4
100
AcDbSymbolTableRecord
100
AcDbViewportTableRecord
  2
*ACTIVE
 70
0
 10
0.0
 20
0.0
 11
1.0
 21
1.0
 12
11.0
 22
8.5
 13
0.0
 23
0.0
 14
1.0
 24
1.0
 15
0.0
 25
0.0
 16
0.0
 26
0.0
 36
1.0
 17
0.0
 27
0.0
 37
0.0
 40
17.0
 41
1.2941176471
 42
50.0
 43
0.0
 44
0.0
 50
0.0
 51
0.0
 71
0
 72
100
 73
1
 74
1
 75
0
 76
0
 77
0
 78
0
  0
ENDTAB
  0
TABLE
  2
LTYPE
  5
5
100
AcDbSymbolTable
 70
6
  0
LTYPE
  5
14
100
AcDbSymbolTableRecord
100
AcDbLinetypeTableRecord
  2
BYBLOCK
 70
0
  3

 72
65
 73
0
 40
0.0
  0
LTYPE
  5
15
100
AcDbSymbolTableRecord
100
AcDbLinetypeTableRecord
  2
BYLAYER
 70
0
  3

 72
65
 73
0
 40
0.0
  0
LTYPE
  5
16
100
AcDbSymbolTableRecord
100
AcDbLinetypeTableRecord
  2
CONTINUOUS
 70
64
  3
Solid line
 72
65
 73
0
 40
0.0
  0
LTYPE
  5
1F5
100
AcDbSymbolTableRecord
100
AcDbLinetypeTableRecord
  2
CENTER
 70
64
  3
____ _ ____ _ ____ _ ____ _ ____ _ ____ _ ____
 72
65
 73
4
 40
0.6
 49
0.375
 74
0
 49
-0.075
 74
0
 49
0.075
 74
0
 49
-0.075
 74
0
  0
LTYPE
  5
1F6
100
AcDbSymbolTableRecord
100
AcDbLinetypeTableRecord
  2
HIDDEN
 70
64
  3
- - - - - - - - - - - - - - - - - - - -
 72
65
 73
2
 40
0.2
 49
0.1
 74
0
 49
-0.1
 74
0
  0
LTYPE
  5
1F7
100
AcDbSymbolTableRecord
100
AcDbLinetypeTableRecord
  2
PHANTOM
 70
64
  3
_____ _ _ _____ _ _ _____ _ _ _____
 72
65
 73
6
 40
0.8
 49
0.45
 74
0
 49
-0.05
 74
0
 49
0.1
 74
0
 49
-0.05
 74
0
 49
0.1
 74
0
 49
-0.05
 74
0
  0
LTYPE
  5
1F8
100
AcDbSymbolTableRecord
100
AcDbLinetypeTableRecord
  2
DOT
 70
64
  3
. . . . . . . . . . . . . . . . . . . .
 72
65
 73
2
 40
0.2
 49
0.1
 74
0
 49
-0.1
 74
0
  0
LTYPE
  5
1F9
100
AcDbSymbolTableRecord
100
AcDbLinetypeTableRecord
  2
DASHED
 70
64
  3
- - - - - - - - - - - - - - - - - - - -
 72
65
 73
2
 40
0.2
 49
0.1
 74
0
 49
-0.1
 74
0
  0
ENDTAB
  0
TABLE
  2
LAYER
  5
2
100
AcDbSymbolTable
 70
36
  0
LAYER
  5
10
100
AcDbSymbolTableRecord
100
AcDbLayerTableRecord
  2
0
 70
0
 62
7
  6
CONTINUOUS
370
-3
390
F
  0
LAYER
  5
1FA
100
AcDbSymbolTableRecord
100
AcDbLayerTableRecord
  2
DEFAULT_1
 70
0
 62
7
  6
CENTER
370
-3
390
F
  0
LAYER
  5
1FB
100
AcDbSymbolTableRecord
100
AcDbLayerTableRecord
  2
DEFAULT_2
 70
0
 62
8
  6
HIDDEN
370
-3
390
F
  0
LAYER
  5
1FC
100
AcDbSymbolTableRecord
100
AcDbLayerTableRecord
  2
DEFAULT_3
 70
0
 62
7
  6
PHANTOM
370
-3
390
F
  0
LAYER
  5
1FD
100
AcDbSymbolTableRecord
100
AcDbLayerTableRecord
  2
01___PRT_ALL_DTM_PLN
 70
0
 62
7
  6
CONTINUOUS
370
-3
390
F
  0
LAYER
  5
1FE
100
AcDbSymbolTableRecord
100
AcDbLayerTableRecord
  2
01___PRT_DEF_DTM_PLN
 70
0
 62
7
  6
CONTINUOUS
370
-3
390
F
  0
LAYER
  5
1FF
100
AcDbSymbolTableRecord
100
AcDbLayerTableRecord
  2
02___PRT_ALL_AXES
 70
0
 62
7
  6
CONTINUOUS
370
-3
390
F
  0
LAYER
  5
200
100
AcDbSymbolTableRecord
100
AcDbLayerTableRecord
  2
03___PRT_ALL_CURVES
 70
0
 62
7
  6
CONTINUOUS
370
-3
390
F
  0
LAYER
  5
201
100
AcDbSymbolTableRecord
100
AcDbLayerTableRecord
  2
04___PRT_ALL_DTM_PNT
 70
0
 62
7
  6
CONTINUOUS
370
-3
390
F
  0
LAYER
  5
202
100
AcDbSymbolTableRecord
100
AcDbLayerTableRecord
  2
05___PRT_ALL_DTM_CSYS
 70
0
 62
7
  6
CONTINUOUS
370
-3
390
F
  0
LAYER
  5
203
100
AcDbSymbolTableRecord
100
AcDbLayerTableRecord
  2
05___PRT_DEF_DTM_CSYS
 70
0
 62
7
  6
CONTINUOUS
370
-3
390
F
  0
LAYER
  5
204
100
AcDbSymbolTableRecord
100
AcDbLayerTableRecord
  2
06___PRT_ALL_SURFS
 70
0
 62
7
  6
CONTINUOUS
370
-3
390
F
  0
LAYER
  5
205
100
AcDbSymbolTableRecord
100
AcDbLayerTableRecord
  2
DATUM_PLANES
 70
0
 62
7
  6
CONTINUOUS
370
-3
390
F
  0
LAYER
  5
206
100
AcDbSymbolTableRecord
100
AcDbLayerTableRecord
  2
DIMENSIONS
 70
0
 62
7
  6
CONTINUOUS
370
-3
390
F
  0
LAYER
  5
207
100
AcDbSymbolTableRecord
100
AcDbLayerTableRecord
  2
PARAMETERDIMENSIONS
 70
0
 62
7
  6
CONTINUOUS
370
-3
390
F
  0
LAYER
  5
208
100
AcDbSymbolTableRecord
100
AcDbLayerTableRecord
  2
PLANE
 70
0
 62
7
  6
CONTINUOUS
370
-3
390
F
  0
LAYER
  5
209
100
AcDbSymbolTableRecord
100
AcDbLayerTableRecord
  2
PORT_AREAS
 70
0
 62
7
  6
CONTINUOUS
370
-3
390
F
  0
LAYER
  5
20A
100
AcDbSymbolTableRecord
100
AcDbLayerTableRecord
  2
SUNNBOMCOSMETIC
 70
0
 62
7
  6
CONTINUOUS
370
-3
390
F
  0
LAYER
  5
20B
100
AcDbSymbolTableRecord
100
AcDbLayerTableRecord
  2
SUNNBOMSTAMPING
 70
0
 62
7
  6
CONTINUOUS
370
-3
390
F
  0
LAYER
  5
20C
100
AcDbSymbolTableRecord
100
AcDbLayerTableRecord
  2
THREADS
 70
0
 62
7
  6
CONTINUOUS
370
-3
390
F
  0
ENDTAB
  0
TABLE
  2
STYLE
  5
3
100
AcDbSymbolTable
 70
1
  0
STYLE
  5
11
100
AcDbSymbolTableRecord
100
AcDbTextStyleTableRecord
  2
STANDARD
 70
0
 40
0.0
 41
0.8
 50
0.0
 71
0
 42
0.2
  3
txt
  4

  0
STYLE
  5
20D
100
AcDbSymbolTableRecord
100
AcDbTextStyleTableRecord
  2
TEXTSTYLE_1
 70
0
 40
0.0
 41
0.8
 50
0.0
 71
0
 42
0.2
  3
gdt
  4

  0
ENDTAB
  0
TABLE
  2
VIEW
  5
6
100
AcDbSymbolTable
 70
0
  0
ENDTAB
  0
TABLE
  2
UCS
  5
7
100
AcDbSymbolTable
 70
0
  0
ENDTAB
  0
TABLE
  2
APPID
  5
9
100
AcDbSymbolTable
 70
1
  0
APPID
  5
20E
100
AcDbSymbolTableRecord
100
AcDbRegAppTableRecord
  2
ACAD
 70
0
  0
ENDTAB
  0
TABLE
  2
BLOCK_RECORD
  5
1
100
AcDbSymbolTable
 70
0
  0
BLOCK_RECORD
  5
20F
100
AcDbSymbolTableRecord
100
AcDbBlockTableRecord
  2
*Model_Space
  0
BLOCK_RECORD
  5
210
100
AcDbSymbolTableRecord
100
AcDbBlockTableRecord
  2
*Paper_Space
  0
BLOCK_RECORD
  5
211
100
AcDbSymbolTableRecord
100
AcDbBlockTableRecord
  2
SUN_FIRST_THIRD_ANGLE_BL0
  0
BLOCK_RECORD
  5
212
100
AcDbSymbolTableRecord
100
AcDbBlockTableRecord
  2
*T1
  0
BLOCK_RECORD
  5
213
100
AcDbSymbolTableRecord
100
AcDbBlockTableRecord
  2
*T2
  0
BLOCK_RECORD
  5
214
100
AcDbSymbolTableRecord
100
AcDbBlockTableRecord
  2
*T3
  0
ENDTAB
  0
TABLE
  2
DIMSTYLE
  5
A
100
AcDbSymbolTable
 70
1
100
AcDbDimStyleTable
 71
0
  0
DIMSTYLE
105
215
100
AcDbSymbolTableRecord
100
AcDbDimStyleTableRecord
  2
STANDARD
 70
0
  3

  4

 40
1.0
 41
0.1875
 42
0.0625
 43
0.38
 44
0.125
 45
0.0
 46
0.0
 47
0.001
 48
0.001
140
0.1
141
0.09
142
0.0
143
25.4
144
1.0
145
0.0
146
1.0
147
0.09
 71
0.0
 72
0.0
 73
1
 74
1
 75
0
 76
0
 77
0
 78
4
170
0
171
2
172
0
173
0
174
0
175
0
176
0
177
0
178
0
270
2
271
3
272
3
273
2
274
2
275
0
280
0
281
0
282
0
283
1
284
4
285
0
286
0
287
3
288
0
340
11
278
46
  0
ENDTAB
  0
ENDSEC
  0
SECTION
  2
BLOCKS
  0
BLOCK
  5
20
100
AcDbEntity
  8
0
100
AcDbBlockBegin
  2
*Model_Space
 70
0
 10
0.0
 20
0.0
 30
0.0
  3
*Model_Space
  1

  0
ENDBLK
  5
21
100
AcDbEntity
  8
0
100
AcDbBlockEnd
  0
BLOCK
  5
1C
100
AcDbEntity
  8
0
100
AcDbBlockBegin
  2
*Paper_Space
 70
0
 10
0.0
 20
0.0
 30
0.0
  3
*Paper_Space
  1

  0
ENDBLK
  5
1D
100
AcDbEntity
  8
0
100
AcDbBlockEnd
  0
BLOCK
  5
216
100
AcDbEntity
  8
0
100
AcDbBlockBegin
 62
2
  6
CONTINUOUS
  2
SUN_FIRST_THIRD_ANGLE_BL0
 70
64
 10
20.4816717061
 20
1.2289683772
  3
SUN_FIRST_THIRD_ANGLE_BL0
  1

  0
TEXT
  5
217
100
AcDbEntity
  8
0
100
AcDbText
 62
2
  6
CONTINUOUS
 10
19.4750896608
 20
1.4136269581
  7
STANDARD
 40
0.08
  1
FIRST ANGLE
 41
0.8
 72
0
100
AcDbText
  0
TEXT
  5
218
100
AcDbEntity
  8
0
100
AcDbText
 62
2
  6
CONTINUOUS
 10
20.7842537513
 20
1.4047600029
  7
STANDARD
 40
0.08
  1
THIRD ANGLE
 41
0.8
 72
0
100
AcDbText
  0
LINE
  5
219
100
AcDbEntity
  8
0
100
AcDbLine
 62
7
  6
CONTINUOUS
 10
19.4767170086
 20
1.1727031207
 11
19.6334271527
 21
1.1717972817
  0
LINE
  5
21A
100
AcDbEntity
  8
0
100
AcDbLine
 62
7
  6
CONTINUOUS
 10
19.6596964832
 20
1.1717972817
 11
19.6950230232
 21
1.171593082
  0
LINE
  5
21B
100
AcDbEntity
  8
0
100
AcDbLine
 62
7
  6
CONTINUOUS
 10
19.7194818561
 20
1.1708914427
 11
19.8852396156
 21
1.1699333054
  0
LINE
  5
21C
100
AcDbEntity
  8
0
100
AcDbLine
 62
7
  6
CONTINUOUS
 10
19.4758111696
 20
1.2723454088
 11
19.88525039
 21
1.3511534004
  0
LINE
  5
21D
100
AcDbEntity
  8
0
100
AcDbLine
 62
7
  6
CONTINUOUS
 10
19.88525039
 20
1.3511534004
 11
19.8831348489
 21
0.9851647912
  0
LINE
  5
21E
100
AcDbEntity
  8
0
100
AcDbLine
 62
7
  6
CONTINUOUS
 10
19.8831348489
 20
0.9851647912
 11
19.4767170086
 21
1.0658141206
  0
LINE
  5
21F
100
AcDbEntity
  8
0
100
AcDbLine
 62
7
  6
CONTINUOUS
 10
19.4767170086
 20
1.0658141206
 11
19.4779056764
 21
1.2714536432
  0
CIRCLE
  5
220
100
AcDbEntity
  8
0
100
AcDbCircle
 62
7
  6
CONTINUOUS
 10
20.2068232291
 20
1.1717972817
 40
0.175742101
  0
CIRCLE
  5
221
100
AcDbEntity
  8
0
100
AcDbCircle
 62
7
  6
CONTINUOUS
 10
20.2068232291
 20
1.1717972817
 40
0.1005522074
  0
LINE
  5
222
100
AcDbEntity
  8
0
100
AcDbLine
 62
7
  6
CONTINUOUS
 10
20.2077290681
 20
1.3756110529
 11
20.2071171714
 21
1.2379342989
  0
LINE
  5
223
100
AcDbEntity
  8
0
100
AcDbLine
 62
7
  6
CONTINUOUS
 10
20.2077290681
 20
1.2016899681
 11
20.2074674401
 21
1.1428236749
  0
LINE
  5
224
100
AcDbEntity
  8
0
100
AcDbLine
 62
7
  6
CONTINUOUS
 10
20.208634907
 20
1.101141841
 11
20.2080230104
 21
0.963465087
  0
LINE
  5
225
100
AcDbEntity
  8
0
100
AcDbLine
 62
7
  6
CONTINUOUS
 10
20.0066328138
 20
1.1745147986
 11
20.1443095678
 21
1.1739029019
  0
LINE
  5
226
100
AcDbEntity
  8
0
100
AcDbLine
 62
7
  6
CONTINUOUS
 10
20.1832714155
 20
1.1727031207
 11
20.238153505
 21
1.172335442
  0
LINE
  5
227
100
AcDbEntity
  8
0
100
AcDbLine
 62
7
  6
CONTINUOUS
 10
20.2756669918
 20
1.1717972817
 11
20.407916871
 21
1.1712095044
  0
CIRCLE
  5
228
100
AcDbEntity
  8
0
100
AcDbCircle
 62
7
  6
CONTINUOUS
 10
20.7509457401
 20
1.1693297793
 40
0.1722024983
  0
CIRCLE
  5
229
100
AcDbEntity
  8
0
100
AcDbCircle
 62
7
  6
CONTINUOUS
 10
20.7509457401
 20
1.1693297793
 40
0.0985164967
  0
LINE
  5
22A
100
AcDbEntity
  8
0
100
AcDbLine
 62
7
  6
CONTINUOUS
 10
20.7169767782
 20
1.170462078
 11
20.7825395137
 21
1.1682766535
  0
LINE
  5
22B
100
AcDbEntity
  8
0
100
AcDbLine
 62
7
  6
CONTINUOUS
 10
20.8177513651
 20
1.1693297793
 11
20.947965719
 21
1.1693297793
  0
LINE
  5
22C
100
AcDbEntity
  8
0
100
AcDbLine
 62
7
  6
CONTINUOUS
 10
20.6875370113
 20
1.170462078
 11
20.5573226574
 21
1.170462078
  0
LINE
  5
22D
100
AcDbEntity
  8
0
100
AcDbLine
 62
7
  6
CONTINUOUS
 10
20.7486811426
 20
1.1987695462
 11
20.7486811426
 21
1.1432869085
  0
LINE
  5
22E
100
AcDbEntity
  8
0
100
AcDbLine
 62
7
  6
CONTINUOUS
 10
20.7498134414
 20
1.1059210505
 11
20.7498134414
 21
0.9757066966
  0
LINE
  5
22F
100
AcDbEntity
  8
0
100
AcDbLine
 62
7
  6
CONTINUOUS
 10
20.7486811426
 20
1.2338708068
 11
20.7486811426
 21
1.3640851607
  0
LINE
  5
230
100
AcDbEntity
  8
0
100
AcDbLine
 62
7
  6
CONTINUOUS
 10
21.0702539817
 20
1.2701043662
 11
21.4790138229
 21
1.3448360823
  0
LINE
  5
231
100
AcDbEntity
  8
0
100
AcDbLine
 62
7
  6
CONTINUOUS
 10
21.4790138229
 20
1.3448360823
 11
21.4790138229
 21
0.9779712941
  0
LINE
  5
232
100
AcDbEntity
  8
0
100
AcDbLine
 62
7
  6
CONTINUOUS
 10
21.4790138229
 20
0.9779712941
 11
21.069121683
 21
1.0617614
  0
LINE
  5
233
100
AcDbEntity
  8
0
100
AcDbLine
 62
7
  6
CONTINUOUS
 10
21.0702539817
 20
1.2701043662
 11
21.069121683
 21
1.0617614
  0
LINE
  5
234
100
AcDbEntity
  8
0
100
AcDbLine
 62
7
  6
CONTINUOUS
 10
21.4790138229
 20
1.1693297793
 11
21.3159628059
 21
1.1693297793
  0
LINE
  5
235
100
AcDbEntity
  8
0
100
AcDbLine
 62
7
  6
CONTINUOUS
 10
21.2876553377
 20
1.1693297793
 11
21.2502894796
 21
1.1693297793
  0
LINE
  5
236
100
AcDbEntity
  8
0
100
AcDbLine
 62
7
  6
CONTINUOUS
 10
21.2208497126
 20
1.1659328831
 11
21.0713862804
 21
1.1659328831
  0
LINE
  5
237
100
AcDbEntity
  8
0
100
AcDbLine
 62
7
  6
CONTINUOUS
 10
20.4796138713
 20
1.5284908897
 11
20.4766766948
 21
0.9294458646
  0
ENDBLK
  5
238
100
AcDbEntity
  8
0
  6
BYBLOCK
 62
0
100
AcDbBlockEnd
  0
BLOCK
  5
239
100
AcDbEntity
  8
0
100
AcDbBlockBegin
  2
*T1
 70
1
 10
0.0
 20
0.0
  3
*T1
  1

  0
LINE
  5
23A
100
AcDbEntity
  8
0
100
AcDbLine
 62
2
  6
CONTINUOUS
 10
9.275
 20
0.0
 11
-0.0
 21
0.0
  0
LINE
  5
23B
100
AcDbEntity
  8
0
100
AcDbLine
 62
2
  6
CONTINUOUS
 10
9.275
 20
0.0
 11
9.275
 21
1.25
  0
LINE
  5
23C
100
AcDbEntity
  8
0
100
AcDbLine
 62
2
  6
CONTINUOUS
 10
9.275
 20
0.625
 11
-0.0
 21
0.625
  0
LINE
  5
23D
100
AcDbEntity
  8
0
100
AcDbLine
 62
2
  6
CONTINUOUS
 10
9.275
 20
1.25
 11
-0.0
 21
1.25
  0
LINE
  5
23E
100
AcDbEntity
  8
0
100
AcDbLine
 62
2
  6
CONTINUOUS
 10
6.8
 20
0.0
 11
6.8
 21
1.25
  0
LINE
  5
23F
100
AcDbEntity
  8
0
100
AcDbLine
 62
2
  6
CONTINUOUS
 10
6.4
 20
0.0
 11
6.4
 21
0.625
  0
LINE
  5
240
100
AcDbEntity
  8
0
100
AcDbLine
 62
2
  6
CONTINUOUS
 10
5.9
 20
0.0
 11
5.9
 21
0.625
  0
LINE
  5
241
100
AcDbEntity
  8
0
100
AcDbLine
 62
2
  6
CONTINUOUS
 10
5.2
 20
0.0
 11
5.2
 21
0.625
  0
LINE
  5
242
100
AcDbEntity
  8
0
100
AcDbLine
 62
2
  6
CONTINUOUS
 10
4.1
 20
0.0
 11
4.1
 21
1.25
  0
LINE
  5
243
100
AcDbEntity
  8
0
100
AcDbLine
 62
2
  6
CONTINUOUS
 10
-0.0
 20
0.0
 11
-0.0
 21
1.25
  0
MTEXT
  5
244
100
AcDbEntity
  8
0
100
AcDbMText
 62
2
  6
CONTINUOUS
  7
STANDARD
 71
2
 72
1
 10
6.6
 20
0.325
 30
0.0
 11
1.0
 21
0.0
 31
0.0
 44
0.9
  1
2
 40
0.125
 41
0.2
  0
MTEXT
  5
245
100
AcDbEntity
  8
0
100
AcDbMText
 62
2
  6
CONTINUOUS
  7
STANDARD
 71
2
 72
1
 10
6.15
 20
0.325
 30
0.0
 11
1.0
 21
0.0
 31
0.0
 44
0.9
  1
C
 40
0.125
 41
0.2
  0
MTEXT
  5
246
100
AcDbEntity
  8
0
100
AcDbMText
 62
2
  6
CONTINUOUS
  7
STANDARD
 71
2
 72
1
 10
5.55
 20
0.325
 30
0.0
 11
1.0
 21
0.0
 31
0.0
 44
0.9
  1
2.000
 40
0.125
 41
1.0
  0
MTEXT
  5
247
100
AcDbEntity
  8
0
100
AcDbMText
 62
2
  6
CONTINUOUS
  7
STANDARD
 71
2
 72
1
 10
4.65
 20
0.325
 30
0.0
 11
1.0
 21
0.0
 31
0.0
 44
0.9
  1
Jan-28-20
 40
0.125
 41
1.8
  0
MTEXT
  5
248
100
AcDbEntity
  8
0
100
AcDbMText
 62
2
  6
CONTINUOUS
  7
STANDARD
 71
2
 72
1
 10
2.05
 20
0.4625
 30
0.0
 11
1.0
 21
0.0
 31
0.0
 44
0.9
  1
T-11A Sandwich ISO 03\POn P, port 3 to T - Mirror
 40
0.125
 41
5.2
  0
MTEXT
  5
249
100
AcDbEntity
  8
0
100
AcDbMText
 62
2
  6
CONTINUOUS
  7
STANDARD
 71
1
 72
1
 10
6.45
 20
0.5625
 30
0.0
 11
1.0
 21
0.0
 31
0.0
 44
0.9
  1
SHEET
 40
0.06
 41
0.48
  0
MTEXT
  5
24A
100
AcDbEntity
  8
0
100
AcDbMText
 62
2
  6
CONTINUOUS
  7
STANDARD
 71
1
 72
1
 10
5.95
 20
0.5625
 30
0.0
 11
1.0
 21
0.0
 31
0.0
 44
0.9
  1
DWG SIZE
 40
0.06
 41
0.768
  0
MTEXT
  5
24B
100
AcDbEntity
  8
0
100
AcDbMText
 62
2
  6
CONTINUOUS
  7
STANDARD
 71
1
 72
1
 10
5.25
 20
0.5625
 30
0.0
 11
1.0
 21
0.0
 31
0.0
 44
0.9
  1
SCALE
 40
0.06
 41
0.48
  0
MTEXT
  5
24C
100
AcDbEntity
  8
0
100
AcDbMText
 62
2
  6
CONTINUOUS
  7
STANDARD
 71
1
 72
1
 10
4.15
 20
0.5625
 30
0.0
 11
1.0
 21
0.0
 31
0.0
 44
0.9
  1
DATE
 40
0.06
 41
0.384
  0
MTEXT
  5
24D
100
AcDbEntity
  8
0
100
AcDbMText
 62
2
  6
CONTINUOUS
  7
STANDARD
 71
1
 72
1
 10
0.05
 20
0.5625
 30
0.0
 11
1.0
 21
0.0
 31
0.0
 44
0.9
  1
DESCRIPTION
 40
0.06
 41
1.056
  0
MTEXT
  5
24E
100
AcDbEntity
  8
0
100
AcDbMText
 62
2
  6
CONTINUOUS
  7
STANDARD
 71
2
 72
1
 10
5.45
 20
1.0375
 30
0.0
 11
1.0
 21
0.0
 31
0.0
 44
0.9
  1
ALL DIMENSIONS IN INCH\PVIEWS ARE THIRD ANGLE
 40
0.12
 41
4.224
  0
MTEXT
  5
24F
100
AcDbEntity
  8
0
100
AcDbMText
 62
2
  6
CONTINUOUS
  7
STANDARD
 71
2
 72
1
 10
2.05
 20
0.95
 30
0.0
 11
1.0
 21
0.0
 31
0.0
 44
0.9
  1
X8B
 40
0.125
 41
0.6
  0
MTEXT
  5
250
100
AcDbEntity
  8
0
100
AcDbMText
 62
2
  6
CONTINUOUS
  7
STANDARD
 71
1
 72
1
 10
0.05
 20
1.1875
 30
0.0
 11
1.0
 21
0.0
 31
0.0
 44
0.9
  1
MODEL
 40
0.06
 41
0.48
  0
ENDBLK
  5
251
100
AcDbEntity
  8
0
  6
BYBLOCK
 62
0
100
AcDbBlockEnd
  0
BLOCK
  5
252
100
AcDbEntity
  8
0
100
AcDbBlockBegin
  2
*T2
 70
1
 10
0.0
 20
0.0
  3
*T2
  1

  0
LINE
  5
253
100
AcDbEntity
  8
0
100
AcDbLine
 62
2
  6
CONTINUOUS
 10
0.0
 20
0.0
 11
9.055
 21
0.0
  0
LINE
  5
254
100
AcDbEntity
  8
0
100
AcDbLine
 62
2
  6
CONTINUOUS
 10
0.0
 20
0.0
 11
0.0
 21
-2.094
  0
LINE
  5
255
100
AcDbEntity
  8
0
100
AcDbLine
 62
2
  6
CONTINUOUS
 10
0.0
 20
-0.344
 11
9.055
 21
-0.344
  0
LINE
  5
256
100
AcDbEntity
  8
0
100
AcDbLine
 62
2
  6
CONTINUOUS
 10
0.0
 20
-0.594
 11
9.055
 21
-0.594
  0
LINE
  5
257
100
AcDbEntity
  8
0
100
AcDbLine
 62
2
  6
CONTINUOUS
 10
0.0
 20
-0.844
 11
9.055
 21
-0.844
  0
LINE
  5
258
100
AcDbEntity
  8
0
100
AcDbLine
 62
2
  6
CONTINUOUS
 10
0.0
 20
-1.094
 11
9.055
 21
-1.094
  0
LINE
  5
259
100
AcDbEntity
  8
0
100
AcDbLine
 62
2
  6
CONTINUOUS
 10
0.0
 20
-1.344
 11
9.055
 21
-1.344
  0
LINE
  5
25A
100
AcDbEntity
  8
0
100
AcDbLine
 62
2
  6
CONTINUOUS
 10
0.0
 20
-1.594
 11
9.055
 21
-1.594
  0
LINE
  5
25B
100
AcDbEntity
  8
0
100
AcDbLine
 62
2
  6
CONTINUOUS
 10
0.0
 20
-1.844
 11
9.055
 21
-1.844
  0
LINE
  5
25C
100
AcDbEntity
  8
0
100
AcDbLine
 62
2
  6
CONTINUOUS
 10
0.0
 20
-2.094
 11
9.055
 21
-2.094
  0
LINE
  5
25D
100
AcDbEntity
  8
0
100
AcDbLine
 62
2
  6
CONTINUOUS
 10
3.055
 20
0.0
 11
3.055
 21
-2.094
  0
LINE
  5
25E
100
AcDbEntity
  8
0
100
AcDbLine
 62
2
  6
CONTINUOUS
 10
9.055
 20
0.0
 11
9.055
 21
-2.094
  0
MTEXT
  5
25F
100
AcDbEntity
  8
0
100
AcDbMText
 62
2
  6
CONTINUOUS
  7
STANDARD
 71
2
 72
1
 10
1.5275
 20
-0.0995
 30
0.0
 11
1.0
 21
0.0
 31
0.0
 44
0.9
  1
Technical Data
 40
0.145
 41
3.248
  0
MTEXT
  5
260
100
AcDbEntity
  8
0
100
AcDbMText
 62
2
  6
CONTINUOUS
  7
STANDARD
 71
2
 72
1
 10
4.555
 20
-0.0995
 30
0.0
 11
1.0
 21
0.0
 31
0.0
 44
0.9
  1
U.S. Units
 40
0.145
 41
2.32
  0
MTEXT
  5
261
100
AcDbEntity
  8
0
100
AcDbMText
 62
2
  6
CONTINUOUS
  7
STANDARD
 71
2
 72
1
 10
7.555
 20
-0.0995
 30
0.0
 11
1.0
 21
0.0
 31
0.0
 44
0.9
  1
Metric Units
 40
0.145
 41
2.784
  0
MTEXT
  5
262
100
AcDbEntity
  8
0
100
AcDbMText
 62
2
  6
CONTINUOUS
  7
STANDARD
 71
2
 72
1
 10
1.5275
 20
-0.4065
 30
0.0
 11
1.0
 21
0.0
 31
0.0
 44
0.9
  1
Cavity
 40
0.125
 41
1.2
  0
MTEXT
  5
263
100
AcDbEntity
  8
0
100
AcDbMText
 62
2
  6
CONTINUOUS
  7
STANDARD
 71
2
 72
1
 10
6.055
 20
-0.4065
 30
0.0
 11
1.0
 21
0.0
 31
0.0
 44
0.9
  1
T-11A
 40
0.125
 41
1.0
  0
MTEXT
  5
264
100
AcDbEntity
  8
0
100
AcDbMText
 62
2
  6
CONTINUOUS
  7
STANDARD
 71
2
 72
1
 10
1.5275
 20
-0.6565
 30
0.0
 11
1.0
 21
0.0
 31
0.0
 44
0.9
  1
Body Features
 40
0.125
 41
2.6
  0
MTEXT
  5
265
100
AcDbEntity
  8
0
100
AcDbMText
 62
2
  6
CONTINUOUS
  7
STANDARD
 71
2
 72
1
 10
6.055
 20
-0.6565
 30
0.0
 11
1.0
 21
0.0
 31
0.0
 44
0.9
  1
On P, port 3 to T - Mirror
 40
0.125
 41
5.2
  0
MTEXT
  5
266
100
AcDbEntity
  8
0
100
AcDbMText
 62
2
  6
CONTINUOUS
  7
STANDARD
 71
2
 72
1
 10
1.5275
 20
-0.9065
 30
0.0
 11
1.0
 21
0.0
 31
0.0
 44
0.9
  1
Body Type
 40
0.125
 41
1.8
  0
MTEXT
  5
267
100
AcDbEntity
  8
0
100
AcDbMText
 62
2
  6
CONTINUOUS
  7
STANDARD
 71
2
 72
1
 10
6.055
 20
-0.9065
 30
0.0
 11
1.0
 21
0.0
 31
0.0
 44
0.9
  1
Sandwich
 40
0.125
 41
1.6
  0
MTEXT
  5
268
100
AcDbEntity
  8
0
100
AcDbMText
 62
2
  6
CONTINUOUS
  7
STANDARD
 71
2
 72
1
 10
1.5275
 20
-1.1565
 30
0.0
 11
1.0
 21
0.0
 31
0.0
 44
0.9
  1
Interface
 40
0.125
 41
1.8
  0
MTEXT
  5
269
100
AcDbEntity
  8
0
100
AcDbMText
 62
2
  6
CONTINUOUS
  7
STANDARD
 71
2
 72
1
 10
6.055
 20
-1.1565
 30
0.0
 11
1.0
 21
0.0
 31
0.0
 44
0.9
  1
ISO 03
 40
0.125
 41
1.2
  0
MTEXT
  5
26A
100
AcDbEntity
  8
0
100
AcDbMText
 62
2
  6
CONTINUOUS
  7
STANDARD
 71
2
 72
1
 10
1.5275
 20
-1.4065
 30
0.0
 11
1.0
 21
0.0
 31
0.0
 44
0.9
  1
Open Cavity Quantity
 40
0.125
 41
4.0
  0
MTEXT
  5
26B
100
AcDbEntity
  8
0
100
AcDbMText
 62
2
  6
CONTINUOUS
  7
STANDARD
 71
2
 72
1
 10
6.055
 20
-1.4065
 30
0.0
 11
1.0
 21
0.0
 31
0.0
 44
0.9
  1
1
 40
0.125
 41
0.2
  0
MTEXT
  5
26C
100
AcDbEntity
  8
0
100
AcDbMText
 62
2
  6
CONTINUOUS
  7
STANDARD
 71
2
 72
1
 10
1.5275
 20
-1.6565
 30
0.0
 11
1.0
 21
0.0
 31
0.0
 44
0.9
  1
Stack Height
 40
0.125
 41
2.4
  0
MTEXT
  5
26D
100
AcDbEntity
  8
0
100
AcDbMText
 62
2
  6
CONTINUOUS
  7
STANDARD
 71
2
 72
1
 10
4.555
 20
-1.6565
 30
0.0
 11
1.0
 21
0.0
 31
0.0
 44
0.9
  1
1.75 in.
 40
0.125
 41
1.6
  0
MTEXT
  5
26E
100
AcDbEntity
  8
0
100
AcDbMText
 62
2
  6
CONTINUOUS
  7
STANDARD
 71
2
 72
1
 10
7.555
 20
-1.6565
 30
0.0
 11
1.0
 21
0.0
 31
0.0
 44
0.9
  1
44,5 mm
 40
0.125
 41
1.4
  0
MTEXT
  5
26F
100
AcDbEntity
  8
0
100
AcDbMText
 62
2
  6
CONTINUOUS
  7
STANDARD
 71
2
 72
1
 10
1.5275
 20
-1.9065
 30
0.0
 11
1.0
 21
0.0
 31
0.0
 44
0.9
  1
Weight
 40
0.125
 41
1.2
  0
MTEXT
  5
270
100
AcDbEntity
  8
0
100
AcDbMText
 62
2
  6
CONTINUOUS
  7
STANDARD
 71
2
 72
1
 10
4.555
 20
-1.9065
 30
0.0
 11
1.0
 21
0.0
 31
0.0
 44
0.9
  1
0.678 lb.
 40
0.125
 41
1.8
  0
MTEXT
  5
271
100
AcDbEntity
  8
0
100
AcDbMText
 62
2
  6
CONTINUOUS
  7
STANDARD
 71
2
 72
1
 10
7.555
 20
-1.9065
 30
0.0
 11
1.0
 21
0.0
 31
0.0
 44
0.9
  1
0,307 kg.
 40
0.125
 41
1.8
  0
ENDBLK
  5
272
100
AcDbEntity
  8
0
  6
BYBLOCK
 62
0
100
AcDbBlockEnd
  0
BLOCK
  5
273
100
AcDbEntity
  8
0
100
AcDbBlockBegin
  2
*T3
 70
1
 10
0.0
 20
0.0
  3
*T3
  1

  0
LINE
  5
274
100
AcDbEntity
  8
0
100
AcDbLine
 62
2
  6
CONTINUOUS
 10
0.0
 20
0.0
 11
4.6
 21
0.0
  0
LINE
  5
275
100
AcDbEntity
  8
0
100
AcDbLine
 62
2
  6
CONTINUOUS
 10
0.0
 20
0.0
 11
0.0
 21
-0.93775
  0
LINE
  5
276
100
AcDbEntity
  8
0
100
AcDbLine
 62
2
  6
CONTINUOUS
 10
0.0
 20
-0.34375
 11
4.6
 21
-0.34375
  0
LINE
  5
277
100
AcDbEntity
  8
0
100
AcDbLine
 62
2
  6
CONTINUOUS
 10
0.0
 20
-0.68775
 11
4.6
 21
-0.68775
  0
LINE
  5
278
100
AcDbEntity
  8
0
100
AcDbLine
 62
2
  6
CONTINUOUS
 10
0.0
 20
-0.93775
 11
4.6
 21
-0.93775
  0
LINE
  5
279
100
AcDbEntity
  8
0
100
AcDbLine
 62
2
  6
CONTINUOUS
 10
1.3
 20
-0.34375
 11
1.3
 21
-0.93775
  0
LINE
  5
27A
100
AcDbEntity
  8
0
100
AcDbLine
 62
2
  6
CONTINUOUS
 10
3.3
 20
-0.34375
 11
3.3
 21
-0.93775
  0
LINE
  5
27B
100
AcDbEntity
  8
0
100
AcDbLine
 62
2
  6
CONTINUOUS
 10
4.6
 20
0.0
 11
4.6
 21
-0.93775
  0
MTEXT
  5
27C
100
AcDbEntity
  8
0
100
AcDbMText
 62
2
  6
CONTINUOUS
  7
STANDARD
 71
2
 72
1
 10
2.3
 20
-0.099375
 30
0.0
 11
1.0
 21
0.0
 31
0.0
 44
0.9
  1
Port Headings
 40
0.145
 41
3.016
  0
MTEXT
  5
27D
100
AcDbEntity
  8
0
100
AcDbMText
 62
2
  6
CONTINUOUS
  7
STANDARD
 71
2
 72
1
 10
0.65
 20
-0.44325
 30
0.0
 11
1.0
 21
0.0
 31
0.0
 44
0.9
  1
Product
 40
0.145
 41
1.624
  0
MTEXT
  5
27E
100
AcDbEntity
  8
0
100
AcDbMText
 62
2
  6
CONTINUOUS
  7
STANDARD
 71
2
 72
1
 10
2.3
 20
-0.44325
 30
0.0
 11
1.0
 21
0.0
 31
0.0
 44
0.9
  1
Port
 40
0.145
 41
0.928
  0
MTEXT
  5
27F
100
AcDbEntity
  8
0
100
AcDbMText
 62
2
  6
CONTINUOUS
  7
STANDARD
 71
2
 72
1
 10
3.95
 20
-0.44325
 30
0.0
 11
1.0
 21
0.0
 31
0.0
 44
0.9
  1
Size
 40
0.145
 41
0.928
  0
MTEXT
  5
280
100
AcDbEntity
  8
0
100
AcDbMText
 62
2
  6
CONTINUOUS
  7
STANDARD
 71
2
 72
1
 10
0.65
 20
-0.75025
 30
0.0
 11
1.0
 21
0.0
 31
0.0
 44
0.9
  1
X8B
 40
0.125
 41
0.6
  0
MTEXT
  5
281
100
AcDbEntity
  8
0
100
AcDbMText
 62
2
  6
CONTINUOUS
  7
STANDARD
 71
2
 72
1
 10
2.3
 20
-0.75025
 30
0.0
 11
1.0
 21
0.0
 31
0.0
 44
0.9
  1
Gage Port (Plugged)
 40
0.125
 41
3.8
  0
MTEXT
  5
282
100
AcDbEntity
  8
0
100
AcDbMText
 62
2
  6
CONTINUOUS
  7
STANDARD
 71
2
 72
1
 10
3.95
 20
-0.75025
 30
0.0
 11
1.0
 21
0.0
 31
0.0
 44
0.9
  1
1/4" NPTF
 40
0.125
 41
1.8
  0
ENDBLK
  5
283
100
AcDbEntity
  8
0
  6
BYBLOCK
 62
0
100
AcDbBlockEnd
  0
ENDSEC
  0
SECTION
  2
ENTITIES
  0
IMAGE
  5
284
100
AcDbEntity
  8
0
100
AcDbRasterImage
 62
7
  6
CONTINUOUS
 10
19.2297077316
 20
0.3094318264
 30
0.0
 11
0.0066666667
 21
0.0
 31
0.0
 12
0.0
 22
0.0066666667
 32
0.0
 13
369.0
 23
92.0
340
       33A
 70
9
280
0
281
50
282
50
283
0
360
       334
 71
1
 91
2
 14
-0.5
 24
-0.5
 14
368.5
 24
91.5
  0
INSERT
  5
285
100
AcDbEntity
  8
0
100
AcDbBlockReference
 62
2
  6
CONTINUOUS
  2
SUN_FIRST_THIRD_ANGLE_BL0
 10
20.4816717061
 20
1.2289683772
  0
ACAD_TABLE
  5
286
100
AcDbEntity
  8
0
 62
2
  6
CONTINUOUS
100
AcDbBlockReference
  2
*T1
 10
12.42375
 20
0.30125
 30
0.0
100
AcDbTable
342
       33C
343
212
 11
1.0
 21
0.0
 31
0.0
 90
6
 91
4
 92
6
 93
20
 94
0
 95
0
 96
0
 70
1
 41
0.0
141
0.525
141
0.1
141
0.525
141
0.1
142
4.1
142
1.1
142
0.7
142
0.5
142
0.4
142
2.475
171
1
172
0
173
0
174
0
175
1
176
1
 91
33
178
0
145
0.0
301
CELL_VALUE
 90
4
  1
T-11A Sandwich ISO 03\POn P, port 3 to T - Mirror
304
ACVALUE_END
170
2
140
0.125
171
1
172
0
173
0
174
0
175
1
176
1
 91
33
178
0
145
0.0
301
CELL_VALUE
 90
4
  1
Jan-28-20
304
ACVALUE_END
170
5
140
0.125
171
1
172
0
173
0
174
0
175
1
176
1
 91
33
178
0
145
0.0
301
CELL_VALUE
 90
4
  1
2.000
304
ACVALUE_END
170
5
140
0.125
171
1
172
0
173
0
174
0
175
1
176
1
 91
33
178
0
145
0.0
301
CELL_VALUE
 90
4
  1
C
304
ACVALUE_END
170
5
140
0.125
171
1
172
0
173
0
174
0
175
1
176
1
 91
33
178
0
145
0.0
301
CELL_VALUE
 90
4
  1
2
304
ACVALUE_END
170
5
140
0.125
171
1
172
0
173
0
174
0
175
1
176
1
 91
33
178
0
145
0.0
301
CELL_VALUE
 90
4
  1
 
304
ACVALUE_END
170
1
140
0.125
171
1
172
0
173
0
174
0
175
1
176
1
 91
33
178
0
145
0.0
301
CELL_VALUE
 90
4
  1
DESCRIPTION
304
ACVALUE_END
170
1
140
0.06
171
1
172
0
173
0
174
0
175
1
176
1
 91
33
178
0
145
0.0
301
CELL_VALUE
 90
4
  1
DATE
304
ACVALUE_END
170
1
140
0.06
171
1
172
0
173
0
174
0
175
1
176
1
 91
33
178
0
145
0.0
301
CELL_VALUE
 90
4
  1
SCALE
304
ACVALUE_END
170
1
140
0.06
171
1
172
0
173
0
174
0
175
1
176
1
 91
33
178
0
145
0.0
301
CELL_VALUE
 90
4
  1
DWG SIZE
304
ACVALUE_END
170
1
140
0.06
171
1
172
0
173
0
174
0
175
1
176
1
 91
33
178
0
145
0.0
301
CELL_VALUE
 90
4
  1
SHEET
304
ACVALUE_END
170
1
140
0.06
171
1
172
0
173
0
174
0
175
1
176
1
 91
33
178
0
145
0.0
301
CELL_VALUE
 90
4
  1
 
304
ACVALUE_END
170
1
140
0.125
171
1
172
0
173
0
174
0
175
1
176
1
 91
33
178
0
145
0.0
301
CELL_VALUE
 90
4
  1
X8B
304
ACVALUE_END
170
5
140
0.125
171
1
172
0
173
0
174
0
175
4
176
1
 91
33
178
0
145
0.0
301
CELL_VALUE
 90
4
  1
ALL DIMENSIONS IN INCH\PVIEWS ARE THIRD ANGLE
304
ACVALUE_END
170
5
140
0.12
171
1
172
0
173
1
174
0
175
1
176
1
 91
1
178
0
145
0.0
170
1
171
1
172
0
173
1
174
0
175
1
176
1
 91
1
178
0
145
0.0
170
1
171
1
172
0
173
1
174
0
175
1
176
1
 91
1
178
0
145
0.0
170
5
171
1
172
0
173
0
174
0
175
1
176
1
 91
33
178
0
145
0.0
301
CELL_VALUE
 90
4
  1
 
304
ACVALUE_END
170
1
140
0.125
171
1
172
0
173
0
174
0
175
1
176
1
 91
33
178
0
145
0.0
301
CELL_VALUE
 90
4
  1
MODEL
304
ACVALUE_END
170
1
140
0.06
171
1
172
0
173
0
174
0
175
1
176
1
 91
33
178
0
145
0.0
301
CELL_VALUE
 90
4
  1
 
304
ACVALUE_END
170
1
140
0.125
171
1
172
0
173
0
174
0
175
1
176
1
 91
33
178
0
145
0.0
301
CELL_VALUE
 90
4
  1
 
304
ACVALUE_END
170
1
140
0.125
171
1
172
0
173
0
174
0
175
1
176
1
 91
33
178
0
145
0.0
301
CELL_VALUE
 90
4
  1
 
304
ACVALUE_END
170
1
140
0.125
171
1
172
0
173
0
174
0
175
1
176
1
 91
33
178
0
145
0.0
301
CELL_VALUE
 90
4
  1
 
304
ACVALUE_END
170
1
140
0.125
171
1
172
0
173
0
174
0
175
1
176
1
 91
33
178
0
145
0.0
301
CELL_VALUE
 90
4
  1
 
304
ACVALUE_END
170
1
140
0.125
  0
ACAD_TABLE
  5
287
100
AcDbEntity
  8
0
 62
2
  6
CONTINUOUS
100
AcDbBlockReference
  2
*T2
 10
12.4237499994
 20
16.47875
 30
0.0
100
AcDbTable
342
       33B
343
213
 11
1.0
 21
0.0
 31
0.0
 90
22
 91
8
 92
3
 93
16
 94
0
 95
0
 96
0
 41
0.028
141
0.344
141
0.25
141
0.25
141
0.25
141
0.25
141
0.25
141
0.25
141
0.25
142
3.055
142
3.0
142
3.0
171
1
172
0
173
0
174
0
175
1
176
1
 91
33
178
0
145
0.0
301
CELL_VALUE
 90
4
  1
Technical Data
304
ACVALUE_END
170
5
140
0.145
171
1
172
0
173
0
174
0
175
1
176
1
 91
33
178
0
145
0.0
301
CELL_VALUE
 90
4
  1
U.S. Units
304
ACVALUE_END
170
5
140
0.145
171
1
172
0
173
0
174
0
175
1
176
1
 91
33
178
0
145
0.0
301
CELL_VALUE
 90
4
  1
Metric Units
304
ACVALUE_END
170
5
140
0.145
171
1
172
0
173
0
174
0
175
1
176
1
 91
33
178
0
145
0.0
301
CELL_VALUE
 90
4
  1
Cavity
304
ACVALUE_END
170
5
140
0.125
171
1
172
0
173
0
174
0
175
2
176
1
 91
33
178
0
145
0.0
301
CELL_VALUE
 90
4
  1
T-11A
304
ACVALUE_END
170
5
140
0.125
171
1
172
0
173
1
174
0
175
1
176
1
 91
1
178
0
145
0.0
170
1
171
1
172
0
173
0
174
0
175
1
176
1
 91
33
178
0
145
0.0
301
CELL_VALUE
 90
4
  1
Body Features
304
ACVALUE_END
170
5
140
0.125
171
1
172
0
173
0
174
0
175
2
176
1
 91
33
178
0
145
0.0
301
CELL_VALUE
 90
4
  1
On P, port 3 to T - Mirror
304
ACVALUE_END
170
5
140
0.125
171
1
172
0
173
1
174
0
175
1
176
1
 91
1
178
0
145
0.0
170
1
171
1
172
0
173
0
174
0
175
1
176
1
 91
33
178
0
145
0.0
301
CELL_VALUE
 90
4
  1
Body Type
304
ACVALUE_END
170
5
140
0.125
171
1
172
0
173
0
174
0
175
2
176
1
 91
33
178
0
145
0.0
301
CELL_VALUE
 90
4
  1
Sandwich
304
ACVALUE_END
170
5
140
0.125
171
1
172
0
173
1
174
0
175
1
176
1
 91
1
178
0
145
0.0
170
1
171
1
172
0
173
0
174
0
175
1
176
1
 91
33
178
0
145
0.0
301
CELL_VALUE
 90
4
  1
Interface
304
ACVALUE_END
170
5
140
0.125
171
1
172
0
173
0
174
0
175
2
176
1
 91
33
178
0
145
0.0
301
CELL_VALUE
 90
4
  1
ISO 03
304
ACVALUE_END
170
5
140
0.125
171
1
172
0
173
1
174
0
175
1
176
1
 91
1
178
0
145
0.0
170
1
171
1
172
0
173
0
174
0
175
1
176
1
 91
33
178
0
145
0.0
301
CELL_VALUE
 90
4
  1
Open Cavity Quantity
304
ACVALUE_END
170
5
140
0.125
171
1
172
0
173
0
174
0
175
2
176
1
 91
33
178
0
145
0.0
301
CELL_VALUE
 90
4
  1
1
304
ACVALUE_END
170
5
140
0.125
171
1
172
0
173
1
174
0
175
1
176
1
 91
1
178
0
145
0.0
170
1
171
1
172
0
173
0
174
0
175
1
176
1
 91
33
178
0
145
0.0
301
CELL_VALUE
 90
4
  1
Stack Height
304
ACVALUE_END
170
5
140
0.125
171
1
172
0
173
0
174
0
175
1
176
1
 91
33
178
0
145
0.0
301
CELL_VALUE
 90
4
  1
1.75 in.
304
ACVALUE_END
170
5
140
0.125
171
1
172
0
173
0
174
0
175
1
176
1
 91
33
178
0
145
0.0
301
CELL_VALUE
 90
4
  1
44,5 mm
304
ACVALUE_END
170
5
140
0.125
171
1
172
0
173
0
174
0
175
1
176
1
 91
33
178
0
145
0.0
301
CELL_VALUE
 90
4
  1
Weight
304
ACVALUE_END
170
5
140
0.125
171
1
172
0
173
0
174
0
175
1
176
1
 91
33
178
0
145
0.0
301
CELL_VALUE
 90
4
  1
0.678 lb.
304
ACVALUE_END
170
5
140
0.125
171
1
172
0
173
0
174
0
175
1
176
1
 91
33
178
0
145
0.0
301
CELL_VALUE
 90
4
  1
0,307 kg.
304
ACVALUE_END
170
5
140
0.125
  0
ACAD_TABLE
  5
288
100
AcDbEntity
  8
0
 62
2
  6
CONTINUOUS
100
AcDbBlockReference
  2
*T3
 10
0.52125
 20
1.459
 30
0.0
100
AcDbTable
342
       33B
343
214
 11
1.0
 21
0.0
 31
0.0
 90
22
 91
3
 92
3
 93
16
 94
0
 95
0
 96
0
 41
0.05
141
0.34375
141
0.344
141
0.25
142
1.3
142
2.0
142
1.3
171
1
172
0
173
0
174
0
175
3
176
1
 91
33
178
0
145
0.0
301
CELL_VALUE
 90
4
  1
Port Headings
304
ACVALUE_END
170
5
140
0.145
171
1
172
0
173
1
174
0
175
1
176
1
 91
1
178
0
145
0.0
170
1
171
1
172
0
173
1
174
0
175
1
176
1
 91
1
178
0
145
0.0
170
1
171
1
172
0
173
0
174
0
175
1
176
1
 91
33
178
0
145
0.0
301
CELL_VALUE
 90
4
  1
Product
304
ACVALUE_END
170
5
140
0.145
171
1
172
0
173
0
174
0
175
1
176
1
 91
33
178
0
145
0.0
301
CELL_VALUE
 90
4
  1
Port
304
ACVALUE_END
170
5
140
0.145
171
1
172
0
173
0
174
0
175
1
176
1
 91
33
178
0
145
0.0
301
CELL_VALUE
 90
4
  1
Size
304
ACVALUE_END
170
5
140
0.145
171
1
172
0
173
0
174
0
175
1
176
1
 91
33
178
0
145
0.0
301
CELL_VALUE
 90
4
  1
X8B
304
ACVALUE_END
170
5
140
0.125
171
1
172
0
173
0
174
0
175
1
176
1
 91
33
178
0
145
0.0
301
CELL_VALUE
 90
4
  1
Gage Port (Plugged)
304
ACVALUE_END
170
5
140
0.125
171
1
172
0
173
0
174
0
175
1
176
1
 91
33
178
0
145
0.0
301
CELL_VALUE
 90
4
  1
1/4" NPTF
304
ACVALUE_END
170
5
140
0.125
  0
MTEXT
  5
289
100
AcDbEntity
  8
0
100
AcDbMText
 62
2
  6
CONTINUOUS
  7
STANDARD
 71
1
 72
1
 10
0.52125
 20
5.75995
 30
0.0
 11
1.0
 21
0.0
 31
0.0
 44
0.6
  3
Notes\P \P1. Important: Carefully consider\P   the maximum system pressure. The\P   pressure rating of the manifold is\P   dependent on the manifold material,\P   with the port type/size a secondary\P   consideration. Manifolds\P   constructed of alu
  1
minum are not\P   rated for pressures higher than\P   3000 psi (210 bar), regardless of\P   the port type/size specified.\P2. Items without balloons are\P   shipped loose.
 40
0.1
 41
3.04
  0
LINE
  5
28A
100
AcDbEntity
  8
0
100
AcDbLine
 62
7
  6
CONTINUOUS
 10
0.30125
 20
0.30125
 11
0.30125
 21
16.69875
  0
LINE
  5
28B
100
AcDbEntity
  8
0
100
AcDbLine
 62
7
  6
CONTINUOUS
 10
0.30125
 20
0.30125
 11
21.69875
 21
0.30125
  0
LINE
  5
28C
100
AcDbEntity
  8
0
100
AcDbLine
 62
7
  6
CONTINUOUS
 10
0.30125
 20
16.69875
 11
21.69875
 21
16.69875
  0
LINE
  5
28D
100
AcDbEntity
  8
0
100
AcDbLine
 62
7
  6
CONTINUOUS
 10
21.69875
 20
0.30125
 11
21.69875
 21
16.69875
  0
LINE
  5
28E
100
AcDbEntity
  8
0
100
AcDbLine
 62
7
  6
CONTINUOUS
 10
7.7651919455
 20
9.183259738
 11
7.7651919455
 21
7.4928894418
  0
LINE
  5
28F
100
AcDbEntity
  8
0
100
AcDbLine
 62
7
  6
CONTINUOUS
 10
7.8090325827
 20
9.1636065442
 11
7.8090325827
 21
7.4732362481
  0
LINE
  5
290
100
AcDbEntity
  8
0
100
AcDbLine
 62
7
  6
CONTINUOUS
 10
8.4184506762
 20
10.4788162625
 11
7.9432593016
 21
10.0198166141
  0
LINE
  5
291
100
AcDbEntity
  8
0
100
AcDbLine
 62
7
  6
CONTINUOUS
 10
8.478338081
 20
10.5345504616
 11
8.0031467063
 21
10.0755508132
  0
LINE
  5
292
100
AcDbEntity
  8
0
100
AcDbLine
 62
7
  6
CONTINUOUS
 10
8.4801704871
 20
10.5362881516
 11
8.478338081
 21
10.5345504616
  0
LINE
  5
293
100
AcDbEntity
  8
0
100
AcDbLine
 62
7
  6
CONTINUOUS
 10
8.4201330614
 20
10.4804114613
 11
8.4184506762
 21
10.4788162625
  0
LINE
  5
294
100
AcDbEntity
  8
0
100
AcDbLine
 62
7
  6
CONTINUOUS
 10
8.4184506762
 20
10.4788162625
 11
8.4783219825
 21
10.5345677589
  0
LINE
  5
295
100
AcDbEntity
  8
0
100
AcDbLine
 62
7
  6
CONTINUOUS
 10
7.9432593016
 20
10.0198166141
 11
8.0031467063
 21
10.0755508132
  0
LINE
  5
296
100
AcDbEntity
  8
0
100
AcDbLine
 62
7
  6
CONTINUOUS
 10
7.9047218697
 20
6.9412527096
 11
7.8529709181
 21
7.0048832092
  0
LINE
  5
297
100
AcDbEntity
  8
0
100
AcDbLine
 62
7
  6
CONTINUOUS
 10
9.888141809
 20
10.7660911465
 11
9.0081577572
 21
9.9160917738
  0
LINE
  5
298
100
AcDbEntity
  8
0
100
AcDbLine
 62
7
  6
CONTINUOUS
 10
9.0081577572
 20
6.5353511815
 11
13.3548240027
 21
6.2339088535
  0
LINE
  5
299
100
AcDbEntity
  8
0
100
AcDbLine
 62
7
  6
CONTINUOUS
 10
7.7651919455
 20
7.4928894418
 11
7.8090325827
 21
7.4732362481
  0
LINE
  5
29A
100
AcDbEntity
  8
0
100
AcDbLine
 62
7
  6
CONTINUOUS
 10
9.0081577572
 20
9.9160917738
 11
9.0081577572
 21
6.5353511815
  0
LINE
  5
29B
100
AcDbEntity
  8
0
100
AcDbLine
 62
7
  6
CONTINUOUS
 10
9.0081577572
 20
6.839236969
 11
7.9512586566
 21
6.9125331705
  0
LINE
  5
29C
100
AcDbEntity
  8
0
100
AcDbLine
 62
7
  6
CONTINUOUS
 10
7.8090325827
 20
7.4732362481
 11
9.0081577572
 21
7.3900766348
  0
LINE
  5
29D
100
AcDbEntity
  8
0
100
AcDbLine
 62
4
  6
CONTINUOUS
 10
10.1749962538
 20
7.9999120334
 11
10.1749962538
 21
8.0385490586
  0
LINE
  5
29E
100
AcDbEntity
  8
0
100
AcDbLine
 62
4
  6
CONTINUOUS
 10
10.2184629176
 20
7.9582605709
 11
10.1894851417
 21
7.9795886991
  0
LINE
  5
29F
100
AcDbEntity
  8
0
100
AcDbLine
 62
4
  6
CONTINUOUS
 10
10.1894851417
 20
7.9795886991
 11
10.1749962538
 21
7.9999120334
  0
LINE
  5
2A0
100
AcDbEntity
  8
0
100
AcDbLine
 62
4
  6
CONTINUOUS
 10
10.4213073486
 20
7.9635117745
 11
10.4357962365
 21
7.9431884541
  0
LINE
  5
2A1
100
AcDbEntity
  8
0
100
AcDbLine
 62
4
  6
CONTINUOUS
 10
10.4068184607
 20
8.1383832409
 11
10.4068184607
 21
8.0804276926
  0
LINE
  5
2A2
100
AcDbEntity
  8
0
100
AcDbLine
 62
4
  6
CONTINUOUS
 10
10.4213073486
 20
8.0214673262
 11
10.4213073486
 21
7.9635117745
  0
LINE
  5
2A3
100
AcDbEntity
  8
0
100
AcDbLine
 62
4
  6
CONTINUOUS
 10
10.2764184693
 20
8.1281079949
 11
10.2909073572
 21
8.1850587388
  0
LINE
  5
2A4
100
AcDbEntity
  8
0
100
AcDbLine
 62
4
  6
CONTINUOUS
 10
11.6190555217
 20
7.8611291439
 11
11.5900777459
 21
7.8631387595
  0
LINE
  5
2A5
100
AcDbEntity
  8
0
100
AcDbLine
 62
4
  6
CONTINUOUS
 10
10.2474406934
 20
7.9562509553
 11
10.2184629176
 21
7.9582605709
  0
LINE
  5
2A6
100
AcDbEntity
  8
0
100
AcDbLine
 62
4
  6
CONTINUOUS
 10
10.4357962365
 20
7.9431884541
 11
10.537218452
 21
7.9361547995
  0
LINE
  5
2A7
100
AcDbEntity
  8
0
100
AcDbLine
 62
4
  6
CONTINUOUS
 10
10.537218452
 20
8.0327473903
 11
10.4357962365
 21
8.0397810449
  0
LINE
  5
2A8
100
AcDbEntity
  8
0
100
AcDbLine
 62
7
  6
CONTINUOUS
 10
7.7651919455
 20
9.183259738
 11
7.8090325827
 21
9.1636065442
  0
LINE
  5
2A9
100
AcDbEntity
  8
0
100
AcDbLine
 62
4
  6
CONTINUOUS
 10
10.4068184607
 20
8.0804276926
 11
10.4357962365
 21
8.0397810449
  0
LINE
  5
2AA
100
AcDbEntity
  8
0
100
AcDbLine
 62
4
  6
CONTINUOUS
 10
10.537218452
 20
7.9361547995
 11
10.537218452
 21
8.1679770064
  0
LINE
  5
2AB
100
AcDbEntity
  8
0
100
AcDbLine
 62
4
  6
CONTINUOUS
 10
10.1749962538
 20
8.0385490586
 11
10.1894851417
 21
8.0568627773
  0
LINE
  5
2AC
100
AcDbEntity
  8
0
100
AcDbLine
 62
4
  6
CONTINUOUS
 10
10.2474406934
 20
8.0914805783
 11
10.2764184693
 21
8.1281079949
  0
LINE
  5
2AD
100
AcDbEntity
  8
0
100
AcDbLine
 62
4
  6
CONTINUOUS
 10
10.2909073572
 20
7.991873571
 11
10.2764184693
 21
7.9735598524
  0
LINE
  5
2AE
100
AcDbEntity
  8
0
100
AcDbLine
 62
4
  6
CONTINUOUS
 10
10.4357962365
 20
8.1750106609
 11
10.4068184607
 21
8.1383832409
  0
LINE
  5
2AF
100
AcDbEntity
  8
0
100
AcDbLine
 62
4
  6
CONTINUOUS
 10
13.5463499694
 20
8.196212373
 11
13.561879099
 21
8.1967234733
  0
LINE
  5
2B0
100
AcDbEntity
  8
0
100
AcDbLine
 62
4
  6
CONTINUOUS
 10
11.8798555045
 20
7.9975907393
 11
11.7929221769
 21
8.003619586
  0
LINE
  5
2B1
100
AcDbEntity
  8
0
100
AcDbLine
 62
4
  6
CONTINUOUS
 10
11.6625221855
 20
8.0899369274
 11
11.5466110821
 21
8.0979753897
  0
LINE
  5
2B2
100
AcDbEntity
  8
0
100
AcDbLine
 62
4
  6
CONTINUOUS
 10
10.537218452
 20
8.1679770064
 11
10.4357962365
 21
8.1750106609
  0
LINE
  5
2B3
100
AcDbEntity
  8
0
100
AcDbLine
 62
4
  6
CONTINUOUS
 10
10.2909073572
 20
8.1850587388
 11
10.1749962538
 21
8.1930972012
  0
LINE
  5
2B4
100
AcDbEntity
  8
0
100
AcDbLine
 62
4
  6
CONTINUOUS
 10
10.4357962365
 20
8.0397810449
 11
10.4213073486
 21
8.0214673262
  0
LINE
  5
2B5
100
AcDbEntity
  8
0
100
AcDbLine
 62
7
  6
CONTINUOUS
 10
11.3997112402
 20
8.8863103271
 11
11.3696917984
 21
8.858371403
  0
LINE
  5
2B6
100
AcDbEntity
  8
0
100
AcDbLine
 62
4
  6
CONTINUOUS
 10
10.1894851417
 20
8.0568627773
 11
10.2474406934
 21
8.0914805783
  0
LINE
  5
2B7
100
AcDbEntity
  8
0
100
AcDbLine
 62
7
  6
CONTINUOUS
 10
13.8321733091
 20
8.1438817293
 11
13.7432107088
 21
8.1500513066
  0
LINE
  5
2B8
100
AcDbEntity
  8
0
100
AcDbLine
 62
4
  6
CONTINUOUS
 10
11.5900777459
 20
7.8631387595
 11
11.56109997
 21
7.8844668877
  0
LINE
  5
2B9
100
AcDbEntity
  8
0
100
AcDbLine
 62
4
  6
CONTINUOUS
 10
10.2764184693
 20
7.9735598524
 11
10.2474406934
 21
7.9562509553
  0
LINE
  5
2BA
100
AcDbEntity
  8
0
100
AcDbLine
 62
7
  6
CONTINUOUS
 10
13.8695305896
 20
8.4214475644
 11
13.7407298836
 21
8.4303799237
  0
LINE
  5
2BB
100
AcDbEntity
  8
0
100
AcDbLine
 62
4
  6
CONTINUOUS
 10
11.56109997
 20
7.8844668877
 11
11.5466110821
 21
7.904790222
  0
LINE
  5
2BC
100
AcDbEntity
  8
0
100
AcDbLine
 62
4
  6
CONTINUOUS
 10
11.5466110821
 20
7.904790222
 11
11.5466110821
 21
7.9434272472
  0
LINE
  5
2BD
100
AcDbEntity
  8
0
100
AcDbLine
 62
7
  6
CONTINUOUS
 10
10.2432962324
 20
7.0102478891
 11
10.1398024854
 21
6.9102806
  0
LINE
  5
2BE
100
AcDbEntity
  8
0
100
AcDbLine
 62
7
  6
CONTINUOUS
 10
11.4142607473
 20
8.8927110487
 11
11.4223437138
 21
8.8921504931
  0
LINE
  5
2BF
100
AcDbEntity
  8
0
100
AcDbLine
 62
7
  6
CONTINUOUS
 10
7.8090325827
 20
9.1636065442
 11
9.0081577572
 21
9.0804469309
  0
LINE
  5
2C0
100
AcDbEntity
  8
0
100
AcDbLine
 62
4
  6
CONTINUOUS
 10
11.6480332976
 20
8.0329861835
 11
11.6625221855
 21
8.0899369274
  0
LINE
  5
2C1
100
AcDbEntity
  8
0
100
AcDbLine
 62
4
  6
CONTINUOUS
 10
11.5466110821
 20
7.9434272472
 11
11.56109997
 21
7.9617409659
  0
LINE
  5
2C2
100
AcDbEntity
  8
0
100
AcDbLine
 62
4
  6
CONTINUOUS
 10
11.6190555217
 20
7.9963587669
 11
11.6480332976
 21
8.0329861835
  0
LINE
  5
2C3
100
AcDbEntity
  8
0
100
AcDbLine
 62
7
  6
CONTINUOUS
 10
10.4169258042
 20
6.8303791089
 11
10.3134891384
 21
6.730466956
  0
LINE
  5
2C4
100
AcDbEntity
  8
0
100
AcDbLine
 62
4
  6
CONTINUOUS
 10
11.56109997
 20
7.9617409659
 11
11.6190555217
 21
7.9963587669
  0
LINE
  5
2C5
100
AcDbEntity
  8
0
100
AcDbLine
 62
4
  6
CONTINUOUS
 10
11.8363888407
 20
7.8460570271
 11
11.763944401
 21
8.0829032729
  0
LINE
  5
2C6
100
AcDbEntity
  8
0
100
AcDbLine
 62
4
  6
CONTINUOUS
 10
11.9088332803
 20
8.072855195
 11
11.8363888407
 21
7.8460570271
  0
LINE
  5
2C7
100
AcDbEntity
  8
0
100
AcDbLine
 62
4
  6
CONTINUOUS
 10
11.6625221855
 20
7.8967517596
 11
11.6480332976
 21
7.878438041
  0
LINE
  5
2C8
100
AcDbEntity
  8
0
100
AcDbLine
 62
7
  6
CONTINUOUS
 10
14.2348080545
 20
10.4646488185
 11
13.3548240027
 21
9.6146494458
  0
LINE
  5
2C9
100
AcDbEntity
  8
0
100
AcDbLine
 62
4
  6
CONTINUOUS
 10
11.6480332976
 20
7.878438041
 11
11.6190555217
 21
7.8611291439
  0
LINE
  5
2CA
100
AcDbEntity
  8
0
100
AcDbLine
 62
7
  6
CONTINUOUS
 10
9.0081577572
 20
9.9160917738
 11
13.3548240027
 21
9.6146494458
  0
LINE
  5
2CB
100
AcDbEntity
  8
0
100
AcDbLine
 62
7
  6
CONTINUOUS
 10
8.0031467063
 20
10.0755508132
 11
9.094860507
 21
9.999840204
  0
LINE
  5
2CC
100
AcDbEntity
  8
0
100
AcDbLine
 62
7
  6
CONTINUOUS
 10
13.8321733091
 20
8.6268446711
 11
13.7574587481
 21
8.5546759427
  0
LINE
  5
2CD
100
AcDbEntity
  8
0
100
AcDbLine
 62
7
  6
CONTINUOUS
 10
8.478338081
 20
10.5345504616
 11
9.5700518816
 21
10.4588398524
  0
LINE
  5
2CE
100
AcDbEntity
  8
0
100
AcDbLine
 62
4
  6
CONTINUOUS
 10
13.5463499694
 20
8.0513234937
 11
13.5256444637
 21
8.0313235098
  0
LINE
  5
2CF
100
AcDbEntity
  8
0
100
AcDbLine
 62
7
  6
CONTINUOUS
 10
9.5964766868
 20
10.4843642557
 11
8.5302261307
 21
10.5583089829
  0
LINE
  5
2D0
100
AcDbEntity
  8
0
100
AcDbLine
 62
4
  6
CONTINUOUS
 10
13.5256444637
 20
8.0313235098
 11
13.520468087
 21
8.0408124015
  0
LINE
  5
2D1
100
AcDbEntity
  8
0
100
AcDbLine
 62
4
  6
CONTINUOUS
 10
13.561879099
 20
8.1967234733
 11
13.5722318532
 21
8.1777456907
  0
LINE
  5
2D2
100
AcDbEntity
  8
0
100
AcDbLine
 62
7
  6
CONTINUOUS
 10
13.3548240027
 20
9.6146494458
 11
13.3548240027
 21
6.2339088535
  0
LINE
  5
2D3
100
AcDbEntity
  8
0
100
AcDbLine
 62
4
  6
CONTINUOUS
 10
13.5308208399
 20
8.1667234969
 11
13.5463499694
 21
8.196212373
  0
LINE
  5
2D4
100
AcDbEntity
  8
0
100
AcDbLine
 62
7
  6
CONTINUOUS
 10
13.7574587481
 20
8.071713001
 11
13.8321733091
 21
8.1438817293
  0
LINE
  5
2D5
100
AcDbEntity
  8
02___PRT_ALL_AXES
100
AcDbLine
 62
7
  6
CONTINUOUS
 10
13.7028193804
 20
7.8801684151
 11
13.793846075
 21
7.964886443
  0
LINE
  5
2D6
100
AcDbEntity
  8
0
100
AcDbLine
 62
7
  6
CONTINUOUS
 10
9.888141809
 20
10.7660911465
 11
14.2348080545
 21
10.4646488185
  0
LINE
  5
2D7
100
AcDbEntity
  8
02___PRT_ALL_AXES
100
AcDbLine
 62
7
  6
CONTINUOUS
 10
13.7684544553
 20
8.8265974274
 11
13.8469155755
 21
8.7301253797
  0
LINE
  5
2D8
100
AcDbEntity
  8
0
100
AcDbLine
 62
4
  6
CONTINUOUS
 10
13.520468087
 20
8.0408124015
 11
13.5152917103
 21
8.0647901812
  0
LINE
  5
2D9
100
AcDbEntity
  8
0
100
AcDbLine
 62
4
  6
CONTINUOUS
 10
13.5152917103
 20
8.0647901812
 11
13.5152917103
 21
8.093767957
  0
LINE
  5
2DA
100
AcDbEntity
  8
0
100
AcDbLine
 62
4
  6
CONTINUOUS
 10
13.5463499694
 20
8.1092790455
 11
13.5463499694
 21
8.0513234937
  0
LINE
  5
2DB
100
AcDbEntity
  8
0
100
AcDbLine
 62
4
  6
CONTINUOUS
 10
13.5774082285
 20
8.1537679097
 11
13.5774082285
 21
8.1247901339
  0
LINE
  5
2DC
100
AcDbEntity
  8
0
100
AcDbLine
 62
4
  6
CONTINUOUS
 10
13.5152917103
 20
8.093767957
 11
13.520468087
 21
8.1277457291
  0
LINE
  5
2DD
100
AcDbEntity
  8
0
100
AcDbLine
 62
4
  6
CONTINUOUS
 10
13.5774082285
 20
8.1247901339
 11
13.5722318532
 21
8.0908123632
  0
LINE
  5
2DE
100
AcDbEntity
  8
0
100
AcDbLine
 62
4
  6
CONTINUOUS
 10
13.520468087
 20
8.1277457291
 11
13.5308208399
 21
8.1667234969
  0
LINE
  5
2DF
100
AcDbEntity
  8
0
100
AcDbLine
 62
4
  6
CONTINUOUS
 10
13.5722318532
 20
8.0908123632
 11
13.5670554743
 21
8.0713234768
  0
LINE
  5
2E0
100
AcDbEntity
  8
0
100
AcDbLine
 62
4
  6
CONTINUOUS
 10
13.5722318532
 20
8.1777456907
 11
13.5774082285
 21
8.1537679097
  0
LINE
  5
2E1
100
AcDbEntity
  8
0
100
AcDbLine
 62
7
  6
CONTINUOUS
 10
13.7201014676
 20
8.2771101077
 11
13.7574587481
 21
8.071713001
  0
LINE
  5
2E2
100
AcDbEntity
  8
0
100
AcDbLine
 62
7
  6
CONTINUOUS
 10
13.7574587481
 20
8.5546759427
 11
13.7201014676
 21
8.2771101077
  0
LINE
  5
2E3
100
AcDbEntity
  8
0
100
AcDbLine
 62
7
  6
CONTINUOUS
 10
13.8321733091
 20
8.1438817293
 11
13.8695305896
 21
8.4214475644
  0
LINE
  5
2E4
100
AcDbEntity
  8
0
100
AcDbLine
 62
7
  6
CONTINUOUS
 10
13.8695305896
 20
8.4214475644
 11
13.8321733091
 21
8.6268446711
  0
LINE
  5
2E5
100
AcDbEntity
  8
0
100
AcDbLine
 62
7
  6
CONTINUOUS
 10
14.2348080545
 20
7.0839082262
 11
14.2348080545
 21
10.4646488185
  0
LINE
  5
2E6
100
AcDbEntity
  8
0
100
AcDbLine
 62
7
  6
CONTINUOUS
 10
13.3548240027
 20
6.2339088535
 11
14.2348080545
 21
7.0839082262
  0
ARC
  5
2E7
100
AcDbEntity
  8
0
100
AcDbCircle
 62
7
  6
CONTINUOUS
 10
11.1533621024
 20
8.8996244869
 40
0.2654854768
100
AcDbArc
 50
41.0762069587
 51
42.4066963931
  0
ARC
  5
2E8
100
AcDbEntity
  8
0
100
AcDbCircle
 62
7
  6
CONTINUOUS
 10
11.3431472333
 20
8.7215525267
 40
0.2367033575
100
AcDbArc
 50
72.4843661538
 51
86.087209704
  0
ARC
  5
2E9
100
AcDbEntity
  8
0
100
AcDbCircle
 62
7
  6
CONTINUOUS
 10
11.2034271147
 20
7.2375371428
 40
0.2232751034
100
AcDbArc
 50
338.4906913047
 51
345.7857794777
  0
ARC
  5
2EA
100
AcDbEntity
  8
0
100
AcDbCircle
 62
7
  6
CONTINUOUS
 10
11.1595546438
 20
7.2819806773
 40
0.2232748628
100
AcDbArc
 50
158.490692767
 51
165.7857808454
  0
ARC
  5
2EB
100
AcDbEntity
  8
0
100
AcDbCircle
 62
7
  6
CONTINUOUS
 10
10.3176993635
 20
6.8856919936
 40
0.1137217205
100
AcDbArc
 50
297.0769968024
 51
313.9874378238
  0
ARC
  5
2EC
100
AcDbEntity
  8
0
100
AcDbCircle
 62
7
  6
CONTINUOUS
 10
10.2950777669
 20
6.9091111111
 40
0.1137185738
100
AcDbArc
 50
134.0261681728
 51
150.8986504215
  0
SPLINE
  5
2ED
100
AcDbEntity
  8
0
100
AcDbSpline
 62
7
  6
CONTINUOUS
 70
0
 71
3
 72
19
 73
15
 74
0
 42
0.0000001
 43
0.0000001
 44
0.0000000001
 40
0.0
 40
0.0
 40
0.0
 40
0.0
 40
0.1274213112
 40
0.2540909021
 40
0.3171104092
 40
0.3799139389
 40
0.4425195515
 40
0.5049467033
 40
0.6292970547
 40
0.6912946145
 40
0.7531813298
 40
0.8766607223
 40
0.9383420763
 40
1.0
 40
1.0
 40
1.0
 40
1.0
 10
10.2266458119
 20
6.6996330426
 30
0.0
 10
10.2306665455
 20
6.6993542037
 30
0.0
 10
10.2387175677
 20
6.699198908
 30
0.0
 10
10.2487326418
 20
6.7000175289
 30
0.0
 10
10.2566214882
 20
6.7012819293
 30
0.0
 10
10.262452538
 20
6.702528411
 30
0.0
 10
10.2681930424
 20
6.7040711444
 30
0.0
 10
10.2756960027
 20
6.7065145877
 30
0.0
 10
10.2829788131
 20
6.7095402503
 30
0.0
 10
10.2899701768
 20
6.7131205563
 30
0.0
 10
10.2967371133
 20
6.7170542451
 30
0.0
 10
10.3031704653
 20
6.7215213085
 30
0.0
 10
10.3092066996
 20
6.7264765091
 30
0.0
 10
10.3120864249
 20
6.7291119893
 30
0.0
 10
10.3134890957
 20
6.7304670002
 30
0.0
  0
SPLINE
  5
2EE
100
AcDbEntity
  8
0
100
AcDbSpline
 62
7
  6
CONTINUOUS
 70
0
 71
3
 72
39
 73
35
 74
0
 42
0.0000001
 43
0.0000001
 44
0.0000000001
 40
0.0
 40
0.0
 40
0.0
 40
0.0
 40
0.0311222867
 40
0.0624317169
 40
0.0938913675
 40
0.1254764519
 40
0.1571804145
 40
0.1889958706
 40
0.2209080845
 40
0.2528957203
 40
0.2849372493
 40
0.3170116433
 40
0.3490969357
 40
0.38117169
 40
0.4132137917
 40
0.4452014252
 40
0.4771148878
 40
0.5089350628
 40
0.540644812
 40
0.5722298978
 40
0.6036774671
 40
0.6349782238
 40
0.6661259764
 40
0.6971168233
 40
0.7279513733
 40
0.7586328646
 40
0.7891676794
 40
0.819566429
 40
0.8498416233
 40
0.8800092737
 40
0.9100879712
 40
0.9400975999
 40
0.9700606975
 40
1.0
 40
1.0
 40
1.0
 40
1.0
 10
10.2266458119
 20
6.6996330426
 30
0.0
 10
10.2236995945
 20
6.6998373634
 30
0.0
 10
10.2178023288
 20
6.7004640854
 30
0.0
 10
10.2090258113
 20
6.702039745
 30
0.0
 10
10.2003406461
 20
6.70424692
 30
0.0
 10
10.1917984135
 20
6.7070756603
 30
0.0
 10
10.1834436679
 20
6.7105074369
 30
0.0
 10
10.1753203283
 20
6.714526272
 30
0.0
 10
10.1674706246
 20
6.7191097403
 30
0.0
 10
10.1599357139
 20
6.7242323992
 30
0.0
 10
10.1527580414
 20
6.729869576
 30
0.0
 10
10.1459742671
 20
6.7359888029
 30
0.0
 10
10.1396207241
 20
6.7425580989
 30
0.0
 10
10.1337325833
 20
6.7495435432
 30
0.0
 10
10.1283388542
 20
6.756905964
 30
0.0
 10
10.1234703339
 20
6.764607755
 30
0.0
 10
10.1191527093
 20
6.7726074193
 30
0.0
 10
10.115407266
 20
6.7808615833
 30
0.0
 10
10.1122569755
 20
6.789327575
 30
0.0
 10
10.1097163295
 20
6.7979592265
 30
0.0
 10
10.1077991332
 20
6.8067108374
 30
0.0
 10
10.1065179057
 20
6.8155360449
 30
0.0
 10
10.1058763312
 20
6.824387298
 30
0.0
 10
10.1058802479
 20
6.8332177151
 30
0.0
 10
10.1065297023
 20
6.841979907
 30
0.0
 10
10.1078190406
 20
6.8506274193
 30
0.0
 10
10.1097448036
 20
6.8591135515
 30
0.0
 10
10.1122944643
 20
6.8673932502
 30
0.0
 10
10.1154543807
 20
6.8754225464
 30
0.0
 10
10.1192101502
 20
6.883157338
 30
0.0
 10
10.1235386295
 20
6.8905576347
 30
0.0
 10
10.1284187893
 20
6.8975830455
 30
0.0
 10
10.1338241899
 20
6.9041950363
 30
0.0
 10
10.1377591978
 20
6.9083066536
 30
0.0
 10
10.1398025281
 20
6.9102805558
 30
0.0
  0
SPLINE
  5
2EF
100
AcDbEntity
  8
0
100
AcDbSpline
 62
7
  6
CONTINUOUS
 70
0
 71
3
 72
39
 73
35
 74
0
 42
0.0000001
 43
0.0000001
 44
0.0000000001
 40
0.0
 40
0.0
 40
0.0
 40
0.0
 40
0.0299393025
 40
0.0599024001
 40
0.0899120288
 40
0.1199907263
 40
0.1501583767
 40
0.180433571
 40
0.2108323206
 40
0.2413671354
 40
0.2720486267
 40
0.3028831767
 40
0.3338740236
 40
0.3650217762
 40
0.3963225329
 40
0.4277701022
 40
0.459355188
 40
0.4910649372
 40
0.5228851122
 40
0.5547985748
 40
0.5867862083
 40
0.61882831
 40
0.6509030643
 40
0.6829883567
 40
0.7150627507
 40
0.7471042797
 40
0.7790919155
 40
0.8110041294
 40
0.8428195855
 40
0.8745235481
 40
0.9061086325
 40
0.9375682831
 40
0.9688777133
 40
1.0
 40
1.0
 40
1.0
 40
1.0
 10
10.3134890957
 20
6.7304670002
 30
0.0
 10
10.3155324259
 20
6.7324409024
 30
0.0
 10
10.3194674338
 20
6.7365525197
 30
0.0
 10
10.3248728344
 20
6.7431645105
 30
0.0
 10
10.3297529943
 20
6.7501899213
 30
0.0
 10
10.3340814735
 20
6.757590218
 30
0.0
 10
10.337837243
 20
6.7653250096
 30
0.0
 10
10.3409971595
 20
6.7733543058
 30
0.0
 10
10.3435468202
 20
6.7816340046
 30
0.0
 10
10.3454725831
 20
6.7901201367
 30
0.0
 10
10.3467619214
 20
6.7987676491
 30
0.0
 10
10.3474113758
 20
6.8075298409
 30
0.0
 10
10.3474152925
 20
6.816360258
 30
0.0
 10
10.346773718
 20
6.8252115112
 30
0.0
 10
10.3454924905
 20
6.8340367186
 30
0.0
 10
10.3435752943
 20
6.8427883295
 30
0.0
 10
10.3410346483
 20
6.851419981
 30
0.0
 10
10.3378843578
 20
6.8598859727
 30
0.0
 10
10.3341389144
 20
6.8681401368
 30
0.0
 10
10.3298212899
 20
6.876139801
 30
0.0
 10
10.3249527695
 20
6.883841592
 30
0.0
 10
10.3195590404
 20
6.8912040128
 30
0.0
 10
10.3136708996
 20
6.8981894571
 30
0.0
 10
10.3073173567
 20
6.9047587532
 30
0.0
 10
10.3005335823
 20
6.91087798
 30
0.0
 10
10.2933559098
 20
6.9165151568
 30
0.0
 10
10.2858209991
 20
6.9216378157
 30
0.0
 10
10.2779712955
 20
6.926221284
 30
0.0
 10
10.2698479558
 20
6.9302401191
 30
0.0
 10
10.2614932102
 20
6.9336718957
 30
0.0
 10
10.2529509776
 20
6.936500636
 30
0.0
 10
10.2442658125
 20
6.938707811
 30
0.0
 10
10.2354892949
 20
6.9402834706
 30
0.0
 10
10.2295920292
 20
6.9409101926
 30
0.0
 10
10.2266458119
 20
6.9411145134
 30
0.0
  0
SPLINE
  5
2F0
100
AcDbEntity
  8
0
100
AcDbSpline
 62
7
  6
CONTINUOUS
 70
0
 71
3
 72
53
 73
49
 74
0
 42
0.0000001
 43
0.0000001
 44
0.0000000001
 40
0.0
 40
0.0
 40
0.0
 40
0.0
 40
0.0311665194
 40
0.0621600774
 40
0.077582624
 40
0.0929521611
 40
0.1235396148
 40
0.1387769159
 40
0.1539794993
 40
0.184285396
 40
0.1994069459
 40
0.2145104539
 40
0.2296013031
 40
0.2446847568
 40
0.2597661458
 40
0.2748510795
 40
0.2899450759
 40
0.3050532397
 40
0.3201805033
 40
0.3353318707
 40
0.3657155604
 40
0.3809661215
 40
0.3962573959
 40
0.4269652511
 40
0.4578685902
 40
0.4889803098
 40
0.5203040138
 40
0.5518360088
 40
0.5835642425
 40
0.6154695157
 40
0.6475265262
 40
0.6636064868
 40
0.6797124643
 40
0.6958398926
 40
0.711983855
 40
0.7281393757
 40
0.7443016663
 40
0.760465896
 40
0.7766269986
 40
0.7927799231
 40
0.8089198692
 40
0.8411325835
 40
0.8732332001
 40
0.9051913525
 40
0.9369921479
 40
0.9528328255
 40
0.9686215647
 40
1.0
 40
1.0
 40
1.0
 40
1.0
 10
10.2183636093
 20
6.7132762034
 30
0.0
 10
10.2215921915
 20
6.7130523005
 30
0.0
 10
10.2280575229
 20
6.7129209585
 30
0.0
 10
10.2361028303
 20
6.7135518983
 30
0.0
 10
10.2424453908
 20
6.714535439
 30
0.0
 10
10.248688361
 20
6.7158299754
 30
0.0
 10
10.2548070719
 20
6.7175928007
 30
0.0
 10
10.260744951
 20
6.7198131287
 30
0.0
 10
10.2665332701
 20
6.7223256397
 30
0.0
 10
10.272108812
 20
6.7252788864
 30
0.0
 10
10.2774173605
 20
6.7286486047
 30
0.0
 10
10.281254023
 20
6.7313770647
 30
0.0
 10
10.2849390575
 20
6.7343004227
 30
0.0
 10
10.2884639662
 20
6.7374115938
 30
0.0
 10
10.2918200588
 20
6.7407032936
 30
0.0
 10
10.294998537
 20
6.7441682922
 30
0.0
 10
10.2979923757
 20
6.747797608
 30
0.0
 10
10.3007946756
 20
6.7515821796
 30
0.0
 10
10.3033986917
 20
6.7555131838
 30
0.0
 10
10.3065989851
 20
6.7609413869
 30
0.0
 10
10.309375973
 20
6.7666246885
 30
0.0
 10
10.3117079442
 20
6.7725080768
 30
0.0
 10
10.3137455841
 20
6.7785356543
 30
0.0
 10
10.3157186311
 20
6.7862889801
 30
0.0
 10
10.3171462174
 20
6.7958268592
 30
0.0
 10
10.3176195232
 20
6.8055235177
 30
0.0
 10
10.3171398035
 20
6.8152847758
 30
0.0
 10
10.3157064489
 20
6.8250165573
 30
0.0
 10
10.3133388375
 20
6.8346261346
 30
0.0
 10
10.310055559
 20
6.8440197174
 30
0.0
 10
10.3065883684
 20
6.8515879515
 30
0.0
 10
10.3033946503
 20
6.8574469959
 30
0.0
 10
10.3007911561
 20
6.8617376338
 30
0.0
 10
10.2979895152
 20
6.8659094422
 30
0.0
 10
10.2949964907
 20
6.8699525833
 30
0.0
 10
10.2918189762
 20
6.8738570738
 30
0.0
 10
10.2884639826
 20
6.8776129786
 30
0.0
 10
10.2849402822
 20
6.8812118829
 30
0.0
 10
10.2812565291
 20
6.8846453141
 30
0.0
 10
10.2774213036
 20
6.8879049797
 30
0.0
 10
10.2721216103
 20
6.8920044939
 30
0.0
 10
10.2651667569
 20
6.8966562232
 30
0.0
 10
10.2563680106
 20
6.9014313189
 30
0.0
 10
10.2472017126
 20
6.9053489072
 30
0.0
 10
10.239316977
 20
6.9078735145
 30
0.0
 10
10.2329139403
 20
6.9094274793
 30
0.0
 10
10.2264876842
 20
6.9106657262
 30
0.0
 10
10.2216141441
 20
6.9112459395
 30
0.0
 10
10.2183636093
 20
6.9114713649
 30
0.0
  0
SPLINE
  5
2F1
100
AcDbEntity
  8
0
100
AcDbSpline
 62
7
  6
CONTINUOUS
 70
0
 71
3
 72
53
 73
49
 74
0
 42
0.0000001
 43
0.0000001
 44
0.0000000001
 40
0.0
 40
0.0
 40
0.0
 40
0.0
 40
0.0313784353
 40
0.0471671745
 40
0.0630078521
 40
0.0948086475
 40
0.1267667999
 40
0.1588674165
 40
0.1910801308
 40
0.2072200769
 40
0.2233730014
 40
0.239534104
 40
0.2556983337
 40
0.2718606243
 40
0.288016145
 40
0.3041601074
 40
0.3202875357
 40
0.3363935132
 40
0.3524734738
 40
0.3845304843
 40
0.4164357575
 40
0.4481639912
 40
0.4796959862
 40
0.5110196902
 40
0.5421314098
 40
0.5730347489
 40
0.6037426041
 40
0.6190338785
 40
0.6342844396
 40
0.6646681293
 40
0.6798194967
 40
0.6949467603
 40
0.7100549241
 40
0.7251489205
 40
0.7402338542
 40
0.7553152432
 40
0.7703986969
 40
0.7854895461
 40
0.8005930541
 40
0.815714604
 40
0.8460205007
 40
0.8612230841
 40
0.8764603852
 40
0.9070478389
 40
0.922417376
 40
0.9378399226
 40
0.9688334806
 40
1.0
 40
1.0
 40
1.0
 40
1.0
 10
10.2183636093
 20
6.7132762034
 30
0.0
 10
10.2151130744
 20
6.7135016288
 30
0.0
 10
10.2102395343
 20
6.7140818421
 30
0.0
 10
10.2038132782
 20
6.7153200889
 30
0.0
 10
10.1974102415
 20
6.7168740538
 30
0.0
 10
10.1895255059
 20
6.7193986611
 30
0.0
 10
10.1803592079
 20
6.7233162494
 30
0.0
 10
10.1715604616
 20
6.7280913451
 30
0.0
 10
10.1646056082
 20
6.7327430744
 30
0.0
 10
10.1593059149
 20
6.7368425885
 30
0.0
 10
10.1554706894
 20
6.7401022542
 30
0.0
 10
10.1517869363
 20
6.7435356854
 30
0.0
 10
10.1482632359
 20
6.7471345897
 30
0.0
 10
10.1449082423
 20
6.7508904944
 30
0.0
 10
10.1417307278
 20
6.754794985
 30
0.0
 10
10.1387377033
 20
6.7588381261
 30
0.0
 10
10.1359360624
 20
6.7630099344
 30
0.0
 10
10.1333325682
 20
6.7673005724
 30
0.0
 10
10.1301388501
 20
6.7731596168
 30
0.0
 10
10.1266716595
 20
6.7807278509
 30
0.0
 10
10.123388381
 20
6.7901214337
 30
0.0
 10
10.1210207696
 20
6.799731011
 30
0.0
 10
10.119587415
 20
6.8094627925
 30
0.0
 10
10.1191076953
 20
6.8192240506
 30
0.0
 10
10.1195810011
 20
6.8289207091
 30
0.0
 10
10.1210085874
 20
6.8384585881
 30
0.0
 10
10.1229816344
 20
6.8462119139
 30
0.0
 10
10.1250192744
 20
6.8522394914
 30
0.0
 10
10.1273512455
 20
6.8581228798
 30
0.0
 10
10.1301282334
 20
6.8638061814
 30
0.0
 10
10.1333285268
 20
6.8692343845
 30
0.0
 10
10.1359325429
 20
6.8731653887
 30
0.0
 10
10.1387348428
 20
6.8769499603
 30
0.0
 10
10.1417286815
 20
6.880579276
 30
0.0
 10
10.1449071597
 20
6.8840442747
 30
0.0
 10
10.1482632523
 20
6.8873359745
 30
0.0
 10
10.151788161
 20
6.8904471456
 30
0.0
 10
10.1554731955
 20
6.8933705036
 30
0.0
 10
10.159309858
 20
6.8960989636
 30
0.0
 10
10.1646184065
 20
6.8994686818
 30
0.0
 10
10.1701939484
 20
6.9024219286
 30
0.0
 10
10.1759822675
 20
6.9049344395
 30
0.0
 10
10.1819201466
 20
6.9071547676
 30
0.0
 10
10.1880388575
 20
6.9089175928
 30
0.0
 10
10.1942818278
 20
6.9102121293
 30
0.0
 10
10.2006243883
 20
6.91119567
 30
0.0
 10
10.2086696956
 20
6.9118266097
 30
0.0
 10
10.2151350271
 20
6.9116952678
 30
0.0
 10
10.2183636093
 20
6.9114713649
 30
0.0
  0
SPLINE
  5
2F2
100
AcDbEntity
  8
0
100
AcDbSpline
 62
7
  6
CONTINUOUS
 70
0
 71
3
 72
19
 73
15
 74
0
 42
0.0000001
 43
0.0000001
 44
0.0000000001
 40
0.0
 40
0.0
 40
0.0
 40
0.0
 40
0.0616579237
 40
0.1233392777
 40
0.2468186702
 40
0.3087053855
 40
0.3707029453
 40
0.4950532967
 40
0.5574804485
 40
0.6200860611
 40
0.6828895908
 40
0.7459090979
 40
0.8725786888
 40
1.0
 40
1.0
 40
1.0
 40
1.0
 10
10.1398025281
 20
6.9102805558
 30
0.0
 10
10.1412051988
 20
6.9116355668
 30
0.0
 10
10.1440849241
 20
6.9142710469
 30
0.0
 10
10.1501211584
 20
6.9192262476
 30
0.0
 10
10.1565545104
 20
6.9236933109
 30
0.0
 10
10.163321447
 20
6.9276269997
 30
0.0
 10
10.1703128107
 20
6.9312073057
 30
0.0
 10
10.1775956211
 20
6.9342329683
 30
0.0
 10
10.1850985814
 20
6.9366764116
 30
0.0
 10
10.1908390857
 20
6.938219145
 30
0.0
 10
10.1966701355
 20
6.9394656267
 30
0.0
 10
10.2045589819
 20
6.9407300271
 30
0.0
 10
10.214574056
 20
6.941548648
 30
0.0
 10
10.2226250783
 20
6.9413933523
 30
0.0
 10
10.2266458119
 20
6.9411145134
 30
0.0
  0
SPLINE
  5
2F3
100
AcDbEntity
  8
0
100
AcDbSpline
 62
7
  6
CONTINUOUS
 70
0
 71
3
 72
32
 73
28
 74
0
 42
0.0000001
 43
0.0000001
 44
0.0000000001
 40
0.0
 40
0.0
 40
0.0
 40
0.0
 40
0.0792136025
 40
0.1587850213
 40
0.2381193438
 40
0.3165985806
 40
0.3936131544
 40
0.4685721128
 40
0.5409060814
 40
0.5759174868
 40
0.6100716952
 40
0.6433058283
 40
0.6755588554
 40
0.7067750107
 40
0.7369005892
 40
0.7658835986
 40
0.7936782423
 40
0.8202431196
 40
0.8455391912
 40
0.8695340332
 40
0.8922031963
 40
0.913526872
 40
0.9334932849
 40
0.9521039458
 40
0.9693708675
 40
0.9853199465
 40
1.0
 40
1.0
 40
1.0
 40
1.0
 10
11.3212091396
 20
8.6533108468
 30
0.0
 10
11.3213919619
 20
8.6589519849
 30
0.0
 10
11.3218903013
 20
8.6702558785
 30
0.0
 10
11.3230228065
 20
8.6871858165
 30
0.0
 10
11.3245348117
 20
8.7040336665
 30
0.0
 10
11.3264135237
 20
8.7206612631
 30
0.0
 10
11.3286435029
 20
8.7369309144
 30
0.0
 10
11.3312063323
 20
8.7527080637
 30
0.0
 10
11.3336265169
 20
8.765471944
 30
0.0
 10
11.335719576
 20
8.7753346908
 30
0.0
 10
11.3373413715
 20
8.782448616
 30
0.0
 10
11.3390288228
 20
8.789345095
 30
0.0
 10
11.3407787089
 20
8.7960098134
 30
0.0
 10
11.3425871391
 20
8.8024291003
 30
0.0
 10
11.3444502775
 20
8.8085897399
 30
0.0
 10
11.3463645442
 20
8.8144789066
 30
0.0
 10
11.3483258361
 20
8.8200845276
 30
0.0
 10
11.350329877
 20
8.8253951865
 30
0.0
 10
11.3523727354
 20
8.8303998645
 30
0.0
 10
11.354450268
 20
8.8350882845
 30
0.0
 10
11.3565578725
 20
8.8394510912
 30
0.0
 10
11.3586913185
 20
8.8434793941
 30
0.0
 10
11.3608466052
 20
8.847164917
 30
0.0
 10
11.3630190372
 20
8.8505005734
 30
0.0
 10
11.3652044506
 20
8.8534800218
 30
0.0
 10
11.3673989822
 20
8.8560968542
 30
0.0
 10
11.368926951
 20
8.857659359
 30
0.0
 10
11.3696926381
 20
8.8583719551
 30
0.0
  0
SPLINE
  5
2F4
100
AcDbEntity
  8
0
100
AcDbSpline
 62
7
  6
CONTINUOUS
 70
0
 71
3
 72
16
 73
12
 74
0
 42
0.0000001
 43
0.0000001
 44
0.0000000001
 40
0.0
 40
0.0
 40
0.0
 40
0.0
 40
0.1090388197
 40
0.2197986414
 40
0.3339126617
 40
0.4528673351
 40
0.51459446
 40
0.5780002694
 40
0.7103177442
 40
0.8507448874
 40
1.0
 40
1.0
 40
1.0
 40
1.0
 10
11.414260745
 20
8.8927110153
 30
0.0
 10
11.4136679619
 20
8.8927520818
 30
0.0
 10
11.4124661625
 20
8.8927562026
 30
0.0
 10
11.410656313
 20
8.8925271932
 30
0.0
 10
11.4088361394
 20
8.8920643042
 30
0.0
 10
11.4073314949
 20
8.8914917749
 30
0.0
 10
11.4061281367
 20
8.8909239762
 30
0.0
 10
11.4048899855
 20
8.8902631031
 30
0.0
 10
11.4033370114
 20
8.8892865522
 30
0.0
 10
11.4014967495
 20
8.8879038514
 30
0.0
 10
11.40030665
 20
8.8868644285
 30
0.0
 10
11.3997112402
 20
8.8863103131
 30
0.0
  0
SPLINE
  5
2F5
100
AcDbEntity
  8
0
100
AcDbSpline
 62
7
  6
CONTINUOUS
 70
0
 71
3
 72
33
 73
29
 74
0
 42
0.0000001
 43
0.0000001
 44
0.0000000001
 40
0.0
 40
0.0
 40
0.0
 40
0.0
 40
0.0149947194
 40
0.0311778594
 40
0.0485917003
 40
0.0672643605
 40
0.0872104052
 40
0.1084316686
 40
0.1309230936
 40
0.1546736374
 40
0.1796633062
 40
0.2058672996
 40
0.2332581137
 40
0.2618028384
 40
0.291463488
 40
0.3222005092
 40
0.3539719066
 40
0.3867306122
 40
0.4204279076
 40
0.4550141445
 40
0.4904361535
 40
0.5266382971
 40
0.6011554723
 40
0.6780950216
 40
0.7569645215
 40
0.8372550022
 40
0.9184452236
 40
1.0
 40
1.0
 40
1.0
 40
1.0
 10
11.3997112402
 20
8.8863103131
 30
0.0
 10
11.3988955655
 20
8.885551209
 30
0.0
 10
11.3972673438
 20
8.8838991181
 30
0.0
 10
11.3949201804
 20
8.8811520941
 30
0.0
 10
11.3925807497
 20
8.8780488113
 30
0.0
 10
11.3902532053
 20
8.8745943231
 30
0.0
 10
11.3879413425
 20
8.8707942137
 30
0.0
 10
11.3856487254
 20
8.8666551145
 30
0.0
 10
11.3833793344
 20
8.8621839154
 30
0.0
 10
11.3811373671
 20
8.8573880391
 30
0.0
 10
11.3789264179
 20
8.8522758605
 30
0.0
 10
11.3767502696
 20
8.8468562207
 30
0.0
 10
11.374612952
 20
8.8411383058
 30
0.0
 10
11.3725181679
 20
8.8351320033
 30
0.0
 10
11.3704693611
 20
8.8288478344
 30
0.0
 10
11.3684702155
 20
8.8222966205
 30
0.0
 10
11.3665244231
 20
8.8154896336
 30
0.0
 10
11.3646351273
 20
8.8084387909
 30
0.0
 10
11.3628056131
 20
8.8011563599
 30
0.0
 10
11.3610393019
 20
8.7936548957
 30
0.0
 10
11.3593391705
 20
8.7859474442
 30
0.0
 10
11.3571432325
 20
8.7753117642
 30
0.0
 10
11.3545915761
 20
8.7616006739
 30
0.0
 10
11.3518653301
 20
8.7447021721
 30
0.0
 10
11.349465895
 20
8.7273210361
 30
0.0
 10
11.3474095025
 20
8.7095780386
 30
0.0
 10
11.3457111409
 20
8.6915968794
 30
0.0
 10
11.3448250984
 20
8.6795347914
 30
0.0
 10
11.3444441858
 20
8.6734864528
 30
0.0
  0
SPLINE
  5
2F6
100
AcDbEntity
  8
02___PRT_ALL_AXES
100
AcDbSpline
 62
7
  6
CONTINUOUS
 70
0
 71
3
 72
30
 73
26
 74
0
 42
0.0000001
 43
0.0000001
 44
0.0000000001
 40
0.0
 40
0.0
 40
0.0
 40
0.0
 40
0.016213995
 40
0.0334261294
 40
0.0516701016
 40
0.0709695332
 40
0.0913389446
 40
0.1127872651
 40
0.135319045
 40
0.1589338249
 40
0.1836251878
 40
0.2093838525
 40
0.2361984939
 40
0.2640552523
 40
0.2929357034
 40
0.3228194534
 40
0.3855077274
 40
0.4519270877
 40
0.5218538097
 40
0.5950424269
 40
0.6712203065
 40
0.7501074732
 40
0.8314188244
 40
0.9148432925
 40
1.0
 40
1.0
 40
1.0
 40
1.0
 10
13.8469136094
 20
8.7301274287
 30
0.0
 10
13.8479015986
 20
8.728912698
 30
0.0
 10
13.8498552941
 20
8.7263400755
 30
0.0
 10
13.8526416787
 20
8.7221980401
 30
0.0
 10
13.8553666677
 20
8.7176640717
 30
0.0
 10
13.8580274493
 20
8.7127429906
 30
0.0
 10
13.8606217506
 20
8.7074400101
 30
0.0
 10
13.8631469122
 20
8.7017605793
 30
0.0
 10
13.8656001791
 20
8.6957103027
 30
0.0
 10
13.8679788452
 20
8.689295337
 30
0.0
 10
13.8702807453
 20
8.6825225559
 30
0.0
 10
13.8725034618
 20
8.6753990903
 30
0.0
 10
13.8746445632
 20
8.6679322129
 30
0.0
 10
13.8767015398
 20
8.6601296075
 30
0.0
 10
13.8786725247
 20
8.6519995839
 30
0.0
 10
13.8812238616
 20
8.6405511789
 30
0.0
 10
13.8841670033
 20
8.6254789597
 30
0.0
 10
13.8872714281
 20
8.6065079461
 30
0.0
 10
13.8899892978
 20
8.5864541359
 30
0.0
 10
13.8923082718
 20
8.5654022872
 30
0.0
 10
13.8942192976
 20
8.5434409893
 30
0.0
 10
13.8957131978
 20
8.5206614031
 30
0.0
 10
13.8967841838
 20
8.4971575841
 30
0.0
 10
13.8974265878
 20
8.4730326641
 30
0.0
 10
13.8975671047
 20
8.4567523584
 30
0.0
 10
13.8975671047
 20
8.44852876
 30
0.0
  0
SPLINE
  5
2F7
100
AcDbEntity
  8
02___PRT_ALL_AXES
100
AcDbSpline
 62
7
  6
CONTINUOUS
 70
0
 71
3
 72
34
 73
30
 74
0
 42
0.0000001
 43
0.0000001
 44
0.0000000001
 40
0.0
 40
0.0
 40
0.0
 40
0.0
 40
0.01445202
 40
0.0302605643
 40
0.0474776771
 40
0.0661298761
 40
0.0862279732
 40
0.1077662913
 40
0.1307271313
 40
0.1550854279
 40
0.1808051919
 40
0.2078445428
 40
0.2361566825
 40
0.2656868626
 40
0.296377435
 40
0.3281663357
 40
0.3609860084
 40
0.3947673352
 40
0.4294370313
 40
0.4649184817
 40
0.5011339686
 40
0.5380021316
 40
0.6133616142
 40
0.6903184503
 40
0.7681719844
 40
0.8462062092
 40
0.9237286857
 40
0.9620721625
 40
1.0
 40
1.0
 40
1.0
 40
1.0
 10
13.793844594
 20
7.9648854007
 30
0.0
 10
13.7956152378
 20
7.9665332814
 30
0.0
 10
13.7991469778
 20
7.9701749028
 30
0.0
 10
13.8041995834
 20
7.9763166146
 30
0.0
 10
13.8092277924
 20
7.9833613816
 30
0.0
 10
13.8142208535
 20
7.9912921176
 30
0.0
 10
13.8191666282
 20
8.0000915089
 30
0.0
 10
13.8240538801
 20
8.0097386752
 30
0.0
 10
13.8288712761
 20
8.0202107746
 30
0.0
 10
13.8336062271
 20
8.0314831713
 30
0.0
 10
13.8382479679
 20
8.0435285388
 30
0.0
 10
13.8427850419
 20
8.0563179106
 30
0.0
 10
13.8472057535
 20
8.0698205196
 30
0.0
 10
13.8515000652
 20
8.0840034577
 30
0.0
 10
13.855657012
 20
8.0988324081
 30
0.0
 10
13.8596662214
 20
8.1142713802
 30
0.0
 10
13.8635184927
 20
8.1302827297
 30
0.0
 10
13.8672037782
 20
8.1468275998
 30
0.0
 10
13.8707132387
 20
8.1638657014
 30
0.0
 10
13.8740386329
 20
8.1813555055
 30
0.0
 10
13.8771712004
 20
8.1992545294
 30
0.0
 10
13.8811098427
 20
8.2237858073
 30
0.0
 10
13.8854872777
 20
8.2551494957
 30
0.0
 10
13.8898283703
 20
8.2934314121
 30
0.0
 10
13.8932519544
 20
8.3322557648
 30
0.0
 10
13.8957253061
 20
8.371246851
 30
0.0
 10
13.8969785033
 20
8.4036792613
 30
0.0
 10
13.8974820013
 20
8.4294151964
 30
0.0
 10
13.8975671047
 20
8.4421808159
 30
0.0
 10
13.8975671047
 20
8.44852876
 30
0.0
  0
SPLINE
  5
2F8
100
AcDbEntity
  8
02___PRT_ALL_AXES
100
AcDbSpline
 62
7
  6
CONTINUOUS
 70
0
 71
3
 72
48
 73
44
 74
0
 42
0.0000001
 43
0.0000001
 44
0.0000000001
 40
0.0
 40
0.0
 40
0.0
 40
0.0
 40
0.053194647
 40
0.1056240896
 40
0.2076412358
 40
0.2569994986
 40
0.3051213885
 40
0.3519076696
 40
0.3972606019
 40
0.4410842871
 40
0.4832912729
 40
0.523801237
 40
0.5625374525
 40
0.5994334446
 40
0.6344296856
 40
0.6674737932
 40
0.6985283541
 40
0.7275660989
 40
0.7545743229
 40
0.77956277
 40
0.8025613027
 40
0.8133340722
 40
0.8236359527
 40
0.8334810731
 40
0.842886496
 40
0.8604564564
 40
0.8686839729
 40
0.8765819651
 40
0.8841903458
 40
0.8915543286
 40
0.8987243879
 40
0.9057559774
 40
0.91270819
 40
0.9196421566
 40
0.9266194983
 40
0.9337007208
 40
0.9409436415
 40
0.9484016949
 40
0.9641400564
 40
0.9725125442
 40
0.9812623246
 40
0.9904171891
 40
1.0
 40
1.0
 40
1.0
 40
1.0
 10
13.6920649525
 20
8.250028912
 30
0.0
 10
13.6920649525
 20
8.2438361635
 30
0.0
 10
13.6921449181
 20
8.2315395409
 30
0.0
 10
13.6926262284
 20
8.2073709602
 30
0.0
 10
13.6935861313
 20
8.1836601066
 30
0.0
 10
13.6950526978
 20
8.1604808831
 30
0.0
 10
13.6963773693
 20
8.1437374058
 30
0.0
 10
13.6979357146
 20
8.127482404
 30
0.0
 10
13.69972346
 20
8.111754447
 30
0.0
 10
13.7017368973
 20
8.0965913176
 30
0.0
 10
13.7039710571
 20
8.0820291754
 30
0.0
 10
13.7064200402
 20
8.068102454
 30
0.0
 10
13.7090786986
 20
8.0548440988
 30
0.0
 10
13.7119401603
 20
8.042285346
 30
0.0
 10
13.7149972815
 20
8.0304557473
 30
0.0
 10
13.7182435885
 20
8.0193832772
 30
0.0
 10
13.7216705156
 20
8.0090936009
 30
0.0
 10
13.7252700492
 20
7.9996105392
 30
0.0
 10
13.7290346349
 20
7.9909559151
 30
0.0
 10
13.7329545887
 20
7.9831492908
 30
0.0
 10
13.7364160401
 20
7.9772416046
 30
0.0
 10
13.7392670654
 20
7.9729742098
 30
0.0
 10
13.7413917948
 20
7.9700672207
 30
0.0
 10
13.7435487457
 20
7.9673849613
 30
0.0
 10
13.7464009792
 20
7.9641837463
 30
0.0
 10
13.7493749109
 20
7.9613462882
 30
0.0
 10
13.7524748293
 20
7.9589379879
 30
0.0
 10
13.7547755651
 20
7.957403179
 30
0.0
 10
13.757101515
 20
7.9561015504
 30
0.0
 10
13.7594515132
 20
7.9550343296
 30
0.0
 10
13.7618241887
 20
7.9542029756
 30
0.0
 10
13.7642178339
 20
7.9536084164
 30
0.0
 10
13.766630541
 20
7.9532510994
 30
0.0
 10
13.7690603294
 20
7.9531313662
 30
0.0
 10
13.7715051775
 20
7.9532493272
 30
0.0
 10
13.7739630646
 20
7.9536048667
 30
0.0
 10
13.7764321909
 20
7.9541977518
 30
0.0
 10
13.7797963472
 20
7.9553228747
 30
0.0
 10
13.7831251776
 20
7.956919767
 30
0.0
 10
13.7863882176
 20
7.9589195587
 30
0.0
 10
13.7888907043
 20
7.9606828328
 30
0.0
 10
13.7913953918
 20
7.9626768938
 30
0.0
 10
13.7930279438
 20
7.9641253708
 30
0.0
 10
13.793844594
 20
7.9648854007
 30
0.0
  0
SPLINE
  5
2F9
100
AcDbEntity
  8
02___PRT_ALL_AXES
100
AcDbSpline
 62
7
  6
CONTINUOUS
 70
0
 71
3
 72
55
 73
51
 74
0
 42
0.0000001
 43
0.0000001
 44
0.0000000001
 40
0.0
 40
0.0
 40
0.0
 40
0.0
 40
0.0451991675
 40
0.0910017469
 40
0.1371940597
 40
0.1835894493
 40
0.2300085183
 40
0.2762641835
 40
0.3221669398
 40
0.367531767
 40
0.4121764885
 40
0.4559231931
 40
0.4985974147
 40
0.5400315788
 40
0.5800641956
 40
0.6185423823
 40
0.655322027
 40
0.6902696245
 40
0.7232641182
 40
0.7389950436
 40
0.754199026
 40
0.7688651326
 40
0.7829831619
 40
0.7965449878
 40
0.8095444168
 40
0.8219763409
 40
0.8338369832
 40
0.8451252538
 40
0.8558432692
 40
0.8659954995
 40
0.8755892665
 40
0.8846362404
 40
0.8931538358
 40
0.9011648238
 40
0.9086984166
 40
0.9157921397
 40
0.9191895852
 40
0.9224958769
 40
0.928863645
 40
0.9349662725
 40
0.9408831313
 40
0.9467024108
 40
0.9525169056
 40
0.9584196099
 40
0.9644993838
 40
0.9708367018
 40
0.977501434
 40
0.9845526702
 40
0.9920392965
 40
1.0
 40
1.0
 40
1.0
 40
1.0
 10
13.6920649525
 20
8.250028912
 30
0.0
 10
13.6920649525
 20
8.2584909758
 30
0.0
 10
13.6922162432
 20
8.2755284103
 30
0.0
 10
13.6928813688
 20
8.3012060417
 30
0.0
 10
13.6939853271
 20
8.3270927669
 30
0.0
 10
13.6955223606
 20
8.353072971
 30
0.0
 10
13.6974865058
 20
8.3790362776
 30
0.0
 10
13.6998684277
 20
8.4048719862
 30
0.0
 10
13.7026588022
 20
8.4304682727
 30
0.0
 10
13.7058447758
 20
8.4557144164
 30
0.0
 10
13.7094131652
 20
8.48050167
 30
0.0
 10
13.7133479311
 20
8.5047232963
 30
0.0
 10
13.7176324881
 20
8.5282749208
 30
0.0
 10
13.7222478795
 20
8.5510550431
 30
0.0
 10
13.7271742651
 20
8.5729656304
 30
0.0
 10
13.7323901355
 20
8.593912393
 30
0.0
 10
13.7378727101
 20
8.6138054415
 30
0.0
 10
13.7435983987
 20
8.6325591576
 30
0.0
 10
13.7486278348
 20
8.6473981155
 30
0.0
 10
13.7527667227
 20
8.6586289962
 30
0.0
 10
13.7558664841
 20
8.6665842449
 30
0.0
 10
13.7590079311
 20
8.6741974915
 30
0.0
 10
13.7621879314
 20
8.6814603718
 30
0.0
 10
13.7654030194
 20
8.6883651326
 30
0.0
 10
13.7686495488
 20
8.6949046275
 30
0.0
 10
13.7719240148
 20
8.7010719047
 30
0.0
 10
13.7752231123
 20
8.7068601744
 30
0.0
 10
13.7785434199
 20
8.7122632484
 30
0.0
 10
13.7818811896
 20
8.7172757345
 30
0.0
 10
13.7852329361
 20
8.7218924689
 30
0.0
 10
13.7885953818
 20
8.7261084053
 30
0.0
 10
13.791965396
 20
8.7299189515
 30
0.0
 10
13.7953394178
 20
8.7333205225
 30
0.0
 10
13.7987144243
 20
8.7363097256
 30
0.0
 10
13.8020873349
 20
8.7388829064
 30
0.0
 10
13.8049345442
 20
8.7407032407
 30
0.0
 10
13.8072047667
 20
8.741937553
 30
0.0
 10
13.8094104132
 20
8.7429995646
 30
0.0
 10
13.8121681234
 20
8.744074837
 30
0.0
 10
13.8155050316
 20
8.7449527717
 30
0.0
 10
13.8188240141
 20
8.7453984388
 30
0.0
 10
13.8221192418
 20
8.7454102578
 30
0.0
 10
13.825384682
 20
8.7449880039
 30
0.0
 10
13.8286143367
 20
8.7441327452
 30
0.0
 10
13.8318027211
 20
8.7428464901
 30
0.0
 10
13.8349458581
 20
8.7411333424
 30
0.0
 10
13.8380408647
 20
8.7389973861
 30
0.0
 10
13.8410853121
 20
8.7364420104
 30
0.0
 10
13.8440764162
 20
8.7334703604
 30
0.0
 10
13.8459732011
 20
8.7312836587
 30
0.0
 10
13.8469136094
 20
8.7301274287
 30
0.0
  0
SPLINE
  5
2FA
100
AcDbEntity
  8
0
100
AcDbSpline
 62
7
  6
CONTINUOUS
 70
0
 71
3
 72
48
 73
44
 74
0
 42
0.0000001
 43
0.0000001
 44
0.0000000001
 40
0.0
 40
0.0
 40
0.0
 40
0.0
 40
0.0379400332
 40
0.0762767462
 40
0.1149214572
 40
0.1537871279
 40
0.1927845943
 40
0.2318248925
 40
0.2708187528
 40
0.3096770819
 40
0.3483111754
 40
0.3866329822
 40
0.4245553653
 40
0.4619923616
 40
0.4988594453
 40
0.535073796
 40
0.5705545796
 40
0.6052232264
 40
0.6390037185
 40
0.6718228912
 40
0.7036107547
 40
0.7343008397
 40
0.7638305844
 40
0.7921417729
 40
0.8191810219
 40
0.8322087776
 40
0.8449010154
 40
0.857252758
 40
0.8692593831
 40
0.8809167761
 40
0.8922213503
 40
0.9031700002
 40
0.913760334
 40
0.9239904985
 40
0.93385948
 40
0.9433670042
 40
0.9525137165
 40
0.9613013171
 40
0.9697325608
 40
0.9778116186
 40
0.9855440211
 40
0.9929370815
 40
1.0
 40
1.0
 40
1.0
 40
1.0
 10
13.649877483
 20
8.2092789433
 30
0.0
 10
13.649877483
 20
8.2182362677
 30
0.0
 10
13.6499972618
 20
8.2362447792
 30
0.0
 10
13.6505280894
 20
8.2633722815
 30
0.0
 10
13.6514099282
 20
8.2907093249
 30
0.0
 10
13.6526405836
 20
8.3181890173
 30
0.0
 10
13.6542171075
 20
8.3457445825
 30
0.0
 10
13.6561356416
 20
8.373308784
 30
0.0
 10
13.6583915215
 20
8.4008144728
 30
0.0
 10
13.6609792424
 20
8.4281946082
 30
0.0
 10
13.6638924865
 20
8.4553824667
 30
0.0
 10
13.6671241392
 20
8.482311795
 30
0.0
 10
13.6706663055
 20
8.5089169731
 30
0.0
 10
13.6745103295
 20
8.5351331746
 30
0.0
 10
13.6786468149
 20
8.560896525
 30
0.0
 10
13.6830656487
 20
8.5861442601
 30
0.0
 10
13.6877560194
 20
8.6108148829
 30
0.0
 10
13.6927064472
 20
8.6348483161
 30
0.0
 10
13.6979048129
 20
8.6581860496
 30
0.0
 10
13.7033383865
 20
8.680771284
 30
0.0
 10
13.7089938579
 20
8.7025490778
 30
0.0
 10
13.71485737
 20
8.7234664713
 30
0.0
 10
13.7209145527
 20
8.7434726865
 30
0.0
 10
13.7271505564
 20
8.762519053
 30
0.0
 10
13.7325482366
 20
8.7777355643
 30
0.0
 10
13.7369519628
 20
8.7893875271
 30
0.0
 10
13.7402489881
 20
8.7977497747
 30
0.0
 10
13.7435791433
 20
8.805838779
 30
0.0
 10
13.7469404476
 20
8.8136496298
 30
0.0
 10
13.7503308461
 20
8.8211775831
 30
0.0
 10
13.7537482458
 20
8.8284180831
 30
0.0
 10
13.7571906225
 20
8.8353667255
 30
0.0
 10
13.7606558146
 20
8.8420193274
 30
0.0
 10
13.764141789
 20
8.8483718453
 30
0.0
 10
13.7676463835
 20
8.8544204646
 30
0.0
 10
13.7711675061
 20
8.8601615356
 30
0.0
 10
13.7747030536
 20
8.8655916004
 30
0.0
 10
13.7782508638
 20
8.8707074278
 30
0.0
 10
13.7818089061
 20
8.8755059212
 30
0.0
 10
13.7853749923
 20
8.8799842554
 30
0.0
 10
13.7889471575
 20
8.8841397531
 30
0.0
 10
13.7925231749
 20
8.8879698451
 30
0.0
 10
13.7949631545
 20
8.8903583508
 30
0.0
 10
13.7961837884
 20
8.8914943947
 30
0.0
  0
SPLINE
  5
2FB
100
AcDbEntity
  8
0
100
AcDbSpline
 62
7
  6
CONTINUOUS
 70
0
 71
3
 72
63
 73
59
 74
0
 42
0.0000001
 43
0.0000001
 44
0.0000000001
 40
0.0
 40
0.0
 40
0.0
 40
0.0
 40
0.0152130944
 40
0.0303925156
 40
0.0455400777
 40
0.0606613613
 40
0.0757609166
 40
0.0908434938
 40
0.1059142168
 40
0.1209782281
 40
0.1360407219
 40
0.1511068811
 40
0.1661818206
 40
0.1812705375
 40
0.1963778405
 40
0.2115083237
 40
0.2266663195
 40
0.2418558412
 40
0.2570805729
 40
0.2723438339
 40
0.2876485404
 40
0.3029972085
 40
0.3183919332
 40
0.3338343677
 40
0.3493257384
 40
0.3648668354
 40
0.3804580083
 40
0.3960991883
 40
0.4117898883
 40
0.4275292125
 40
0.4433158792
 40
0.4591482322
 40
0.4909338291
 40
0.5228738772
 40
0.554943619
 40
0.5871143448
 40
0.6193541975
 40
0.6516290256
 40
0.6839033177
 40
0.7161411871
 40
0.7322392739
 40
0.7483151932
 40
0.7643648197
 40
0.7803842232
 40
0.7963696863
 40
0.812317734
 40
0.8282251935
 40
0.8440892073
 40
0.8599072673
 40
0.8756772642
 40
0.8913974965
 40
0.9070666998
 40
0.9226840857
 40
0.9382493407
 40
0.9537626216
 40
0.9692246498
 40
0.9846366503
 40
1.0
 40
1.0
 40
1.0
 40
1.0
 10
10.9518290844
 20
7.3638449328
 30
0.0
 10
10.9532023419
 20
7.3673271552
 30
0.0
 10
10.9561232713
 20
7.3742154346
 30
0.0
 10
10.9610212855
 20
7.3842986812
 30
0.0
 10
10.9664196653
 20
7.3940977241
 30
0.0
 10
10.9723050033
 20
7.403589079
 30
0.0
 10
10.9786631621
 20
7.4127509936
 30
0.0
 10
10.9854786797
 20
7.4215622511
 30
0.0
 10
10.9927350225
 20
7.4300026441
 30
0.0
 10
11.0004145299
 20
7.4380530895
 30
0.0
 10
11.0084985762
 20
7.4456955605
 30
0.0
 10
11.0169676974
 20
7.4529130722
 30
0.0
 10
11.0258014918
 20
7.4596899076
 30
0.0
 10
11.0349788228
 20
7.466011519
 30
0.0
 10
11.0444779343
 20
7.4718644612
 30
0.0
 10
11.054276376
 20
7.4772366308
 30
0.0
 10
11.0643511863
 20
7.4821171321
 30
0.0
 10
11.0746789909
 20
7.4864961845
 30
0.0
 10
11.0852359571
 20
7.4903653676
 30
0.0
 10
11.0959979503
 20
7.493717448
 30
0.0
 10
11.1069406047
 20
7.4965462824
 30
0.0
 10
11.1180393077
 20
7.4988470668
 30
0.0
 10
11.1292693248
 20
7.5006161182
 30
0.0
 10
11.1406058401
 20
7.5018508014
 30
0.0
 10
11.1520239733
 20
7.5025497723
 30
0.0
 10
11.1634988638
 20
7.5027127158
 30
0.0
 10
11.1750056922
 20
7.5023403231
 30
0.0
 10
11.1865197204
 20
7.5014345115
 30
0.0
 10
11.1980163585
 20
7.4999981202
 30
0.0
 10
11.2094710661
 20
7.498035003
 30
0.0
 10
11.2208598594
 20
7.4955500271
 30
0.0
 10
11.2359421169
 20
7.4915442525
 30
0.0
 10
11.2545104179
 20
7.4852584899
 30
0.0
 10
11.2761132232
 20
7.4757568766
 30
0.0
 10
11.2968908766
 20
7.4643655543
 30
0.0
 10
11.316666603
 20
7.4511794251
 30
0.0
 10
11.335271967
 20
7.4363068889
 30
0.0
 10
11.3525461762
 20
7.4198696438
 30
0.0
 10
11.3683365623
 20
7.4020038166
 30
0.0
 10
11.3801488516
 20
7.3860362477
 30
0.0
 10
11.3887196755
 20
7.3727000022
 30
0.0
 10
11.3946913529
 20
7.3624420242
 30
0.0
 10
11.4001941932
 20
7.351947165
 30
0.0
 10
11.4052149502
 20
7.3412377863
 30
0.0
 10
11.4097410778
 20
7.3303371882
 30
0.0
 10
11.4137612309
 20
7.3192692599
 30
0.0
 10
11.4172649988
 20
7.3080584333
 30
0.0
 10
11.4202430686
 20
7.2967296609
 30
0.0
 10
11.4226874203
 20
7.2853084002
 30
0.0
 10
11.424591126
 20
7.2738204852
 30
0.0
 10
11.4259484953
 20
7.262292105
 30
0.0
 10
11.4267552724
 20
7.2507497418
 30
0.0
 10
11.4270084152
 20
7.2392200674
 30
0.0
 10
11.4267062195
 20
7.227729887
 30
0.0
 10
11.4258485406
 20
7.2163060734
 30
0.0
 10
11.4244364861
 20
7.2049753246
 30
0.0
 10
11.4224726494
 20
7.1937647719
 30
0.0
 10
11.4207956162
 20
7.1863766286
 30
0.0
 10
11.4198665249
 20
7.18271239
 30
0.0
  0
SPLINE
  5
2FC
100
AcDbEntity
  8
0
100
AcDbSpline
 62
7
  6
CONTINUOUS
 70
0
 71
3
 72
24
 73
20
 74
0
 42
0.0000001
 43
0.0000001
 44
0.0000000001
 40
0.0
 40
0.0
 40
0.0
 40
0.0
 40
0.0617213308
 40
0.1237559078
 40
0.1548856021
 40
0.1860775556
 40
0.217325571
 40
0.2486230388
 40
0.2799634924
 40
0.3113399586
 40
0.3741643044
 40
0.4370561367
 40
0.4999681251
 40
0.5628581549
 40
0.6256898359
 40
0.6884325115
 40
0.7510609248
 40
0.8758528219
 40
1.0
 40
1.0
 40
1.0
 40
1.0
 10
10.4400178099
 20
7.8237500994
 30
0.0
 10
10.4344810121
 20
7.8250110203
 30
0.0
 10
10.4234830362
 20
7.8280193139
 30
0.0
 10
10.4100892043
 20
7.8329343934
 30
0.0
 10
10.399610686
 20
7.8375347172
 30
0.0
 10
10.3918737371
 20
7.8413151678
 30
0.0
 10
10.3842814786
 20
7.8454105976
 30
0.0
 10
10.3768453795
 20
7.8498099247
 30
0.0
 10
10.3695756644
 20
7.8545009458
 30
0.0
 10
10.360114421
 20
7.8611300585
 30
0.0
 10
10.348749825
 20
7.8700825216
 30
0.0
 10
10.3359112641
 20
7.881779813
 30
0.0
 10
10.3239013421
 20
7.8943338267
 30
0.0
 10
10.3127455324
 20
7.9076437816
 30
0.0
 10
10.3024575814
 20
7.9216147151
 30
0.0
 10
10.2930423148
 20
7.9361587515
 30
0.0
 10
10.281665732
 20
7.9561786461
 30
0.0
 10
10.2695973228
 20
7.9822436772
 30
0.0
 10
10.2621569369
 20
8.0039505567
 30
0.0
 10
10.2589850712
 20
8.0149232483
 30
0.0
  0
SPLINE
  5
2FD
100
AcDbEntity
  8
0
100
AcDbSpline
 62
7
  6
CONTINUOUS
 70
0
 71
3
 72
40
 73
36
 74
0
 42
0.0000001
 43
0.0000001
 44
0.0000000001
 40
0.0
 40
0.0
 40
0.0
 40
0.0
 40
0.0311444947
 40
0.0624430116
 40
0.0938878326
 40
0.1254704216
 40
0.1571781344
 40
0.1889963661
 40
0.2209081245
 40
0.2528946404
 40
0.2689119976
 40
0.2849403504
 40
0.3170145907
 40
0.3491001014
 40
0.3811747228
 40
0.4132165051
 40
0.4452041336
 40
0.4771173445
 40
0.5089373259
 40
0.5406470987
 40
0.5722318701
 40
0.6036793542
 40
0.6349800517
 40
0.6661274822
 40
0.697118363
 40
0.7279527258
 40
0.7586339677
 40
0.7891688275
 40
0.8195672855
 40
0.8498423851
 40
0.8800099759
 40
0.9100883815
 40
0.9400979984
 40
0.9700608344
 40
1.0
 40
1.0
 40
1.0
 40
1.0
 10
12.0566197479
 20
6.9266773706
 30
0.0
 10
12.0602992716
 20
6.9264221948
 30
0.0
 10
12.0676605725
 20
6.9256412314
 30
0.0
 10
12.078613251
 20
6.9236740647
 30
0.0
 10
12.0894486499
 20
6.9209185342
 30
0.0
 10
12.1001081692
 20
6.9173896385
 30
0.0
 10
12.1105352292
 20
6.9131061783
 30
0.0
 10
12.1206742578
 20
6.9080910808
 30
0.0
 10
12.1304709851
 20
6.9023713161
 30
0.0
 10
12.1383036792
 20
6.8970447106
 30
0.0
 10
12.1443482052
 20
6.8924635033
 30
0.0
 10
12.1502407154
 20
6.8876718579
 30
0.0
 10
12.157298105
 20
6.8813056634
 30
0.0
 10
12.1652267685
 20
6.8731069002
 30
0.0
 10
12.1725761278
 20
6.8643897435
 30
0.0
 10
12.1793067421
 20
6.8552008599
 30
0.0
 10
12.1853827835
 20
6.8455891575
 30
0.0
 10
12.190771811
 20
6.8356058657
 30
0.0
 10
12.1954450531
 20
6.8253041754
 30
0.0
 10
12.1993775314
 20
6.8147389831
 30
0.0
 10
12.2025482011
 20
6.803966596
 30
0.0
 10
12.2049400622
 20
6.7930444381
 30
0.0
 10
12.2065402525
 20
6.7820307472
 30
0.0
 10
12.2073401189
 20
6.7709842698
 30
0.0
 10
12.2073352666
 20
6.7599639509
 30
0.0
 10
12.206525591
 20
6.7490286232
 30
0.0
 10
12.2049152849
 20
6.7382366943
 30
0.0
 10
12.2025128193
 20
6.7276458361
 30
0.0
 10
12.1993309046
 20
6.7173126755
 30
0.0
 10
12.1953864353
 20
6.7072924948
 30
0.0
 10
12.1907003876
 20
6.6976389129
 30
0.0
 10
12.1852977844
 20
6.688403663
 30
0.0
 10
12.1792073006
 20
6.6796360489
 30
0.0
 10
12.1724620982
 20
6.6713836374
 30
0.0
 10
12.1675507024
 20
6.6662528041
 30
0.0
 10
12.1650005045
 20
6.6637894948
 30
0.0
  0
SPLINE
  5
2FE
100
AcDbEntity
  8
0
100
AcDbSpline
 62
7
  6
CONTINUOUS
 70
0
 71
3
 72
42
 73
38
 74
0
 42
0.0000001
 43
0.0000001
 44
0.0000000001
 40
0.0
 40
0.0
 40
0.0
 40
0.0
 40
0.0311438942
 40
0.0624423672
 40
0.0938866334
 40
0.1254688884
 40
0.1571761972
 40
0.1889940414
 40
0.2209054133
 40
0.2528915406
 40
0.2849321764
 40
0.3170060194
 40
0.3490911298
 40
0.3811653513
 40
0.4132067372
 40
0.4451939736
 40
0.4771067941
 40
0.5089263835
 40
0.5406357617
 40
0.5722201374
 40
0.6036672265
 40
0.6349675315
 40
0.6661145727
 40
0.6971050657
 40
0.7279390408
 40
0.7586198955
 40
0.7891543699
 40
0.8195524461
 40
0.8498271685
 40
0.8649259233
 40
0.879999996
 40
0.910078031
 40
0.9400872769
 40
0.9550757892
 40
0.9700554665
 40
0.9850292167
 40
1.0
 40
1.0
 40
1.0
 40
1.0
 10
10.306362012
 20
7.0229440839
 30
0.0
 10
10.3094282669
 20
7.0227314384
 30
0.0
 10
10.3155627079
 20
7.0220806202
 30
0.0
 10
10.3246899588
 20
7.020441331
 30
0.0
 10
10.3337194932
 20
7.0181450179
 30
0.0
 10
10.3426024334
 20
7.0152042814
 30
0.0
 10
10.3512916807
 20
7.0116347093
 30
0.0
 10
10.359740853
 20
7.0074554815
 30
0.0
 10
10.3679049453
 20
7.0026888916
 30
0.0
 10
10.3757404485
 20
6.9973603957
 30
0.0
 10
10.3832056162
 20
6.9914984287
 30
0.0
 10
10.3902606745
 20
6.9851342604
 30
0.0
 10
10.3968680292
 20
6.9783018233
 30
0.0
 10
10.4029924639
 20
6.9710375343
 30
0.0
 10
10.4086013252
 20
6.9633801038
 30
0.0
 10
10.4136646947
 20
6.9553703321
 30
0.0
 10
10.4181555449
 20
6.9470508944
 30
0.0
 10
10.4220498958
 20
6.9384661226
 30
0.0
 10
10.425326939
 20
6.9296617672
 30
0.0
 10
10.4279691403
 20
6.9206847522
 30
0.0
 10
10.4299623351
 20
6.9115829308
 30
0.0
 10
10.4312958049
 20
6.902404834
 30
0.0
 10
10.4319623364
 20
6.8931994163
 30
0.0
 10
10.4319582625
 20
6.8840158004
 30
0.0
 10
10.4312834925
 20
6.8749030091
 30
0.0
 10
10.4299415376
 20
6.8659097378
 30
0.0
 10
10.4279394199
 20
6.857083963
 30
0.0
 10
10.4252878785
 20
6.8484731795
 30
0.0
 10
10.4225457644
 20
6.8415075515
 30
0.0
 10
10.4200434071
 20
6.8360907163
 30
0.0
 10
10.4173429345
 20
6.8307916332
 30
0.0
 10
10.4135934442
 20
6.8243821561
 30
0.0
 10
10.4093616622
 20
6.8182904644
 30
0.0
 10
10.4057049091
 20
6.8136342567
 30
0.0
 10
10.4028304054
 20
6.8102548684
 30
0.0
 10
10.3998271637
 20
6.8069919108
 30
0.0
 10
10.3977415426
 20
6.804896914
 30
0.0
 10
10.3966788568
 20
6.8038704409
 30
0.0
  0
SPLINE
  5
2FF
100
AcDbEntity
  8
0
100
AcDbSpline
 62
7
  6
CONTINUOUS
 70
0
 71
3
 72
42
 73
38
 74
0
 42
0.0000001
 43
0.0000001
 44
0.0000000001
 40
0.0
 40
0.0
 40
0.0
 40
0.0
 40
0.0311438942
 40
0.0624423672
 40
0.0938866334
 40
0.1254688884
 40
0.1571761972
 40
0.1889940414
 40
0.2209054133
 40
0.2528915406
 40
0.2849321764
 40
0.3170060194
 40
0.3490911298
 40
0.3811653513
 40
0.4132067372
 40
0.4451939736
 40
0.4771067941
 40
0.5089263835
 40
0.5406357617
 40
0.5722201374
 40
0.6036672265
 40
0.6349675315
 40
0.6661145727
 40
0.6971050657
 40
0.7279390408
 40
0.7586198955
 40
0.7891543699
 40
0.8195524461
 40
0.8498271685
 40
0.8649259233
 40
0.879999996
 40
0.910078031
 40
0.9400872769
 40
0.9550757892
 40
0.9700554665
 40
0.9850292167
 40
1.0
 40
1.0
 40
1.0
 40
1.0
 10
11.1814909951
 20
8.2005706705
 30
0.0
 10
11.18455725
 20
8.200358025
 30
0.0
 10
11.190691691
 20
8.1997072068
 30
0.0
 10
11.199818942
 20
8.1980679176
 30
0.0
 10
11.2088484763
 20
8.1957716046
 30
0.0
 10
11.2177314165
 20
8.192830868
 30
0.0
 10
11.2264206638
 20
8.1892612959
 30
0.0
 10
11.2348698361
 20
8.1850820681
 30
0.0
 10
11.2430339284
 20
8.1803154782
 30
0.0
 10
11.2508694316
 20
8.1749869824
 30
0.0
 10
11.2583345994
 20
8.1691250153
 30
0.0
 10
11.2653896576
 20
8.1627608471
 30
0.0
 10
11.2719970123
 20
8.1559284099
 30
0.0
 10
11.278121447
 20
8.1486641209
 30
0.0
 10
11.2837303083
 20
8.1410066904
 30
0.0
 10
11.2887936779
 20
8.1329969187
 30
0.0
 10
11.293284528
 20
8.124677481
 30
0.0
 10
11.2971788789
 20
8.1160927093
 30
0.0
 10
11.3004559221
 20
8.1072883538
 30
0.0
 10
11.3030981234
 20
8.0983113389
 30
0.0
 10
11.3050913182
 20
8.0892095174
 30
0.0
 10
11.306424788
 20
8.0800314207
 30
0.0
 10
11.3070913195
 20
8.0708260029
 30
0.0
 10
11.3070872456
 20
8.061642387
 30
0.0
 10
11.3064124756
 20
8.0525295957
 30
0.0
 10
11.3050705207
 20
8.0435363245
 30
0.0
 10
11.303068403
 20
8.0347105496
 30
0.0
 10
11.3004168616
 20
8.0260997662
 30
0.0
 10
11.2976747475
 20
8.0191341382
 30
0.0
 10
11.2951723902
 20
8.0137173029
 30
0.0
 10
11.2924719176
 20
8.0084182198
 30
0.0
 10
11.2887224273
 20
8.0020087428
 30
0.0
 10
11.2844906453
 20
7.9959170511
 30
0.0
 10
11.2808338922
 20
7.9912608434
 30
0.0
 10
11.2779593885
 20
7.987881455
 30
0.0
 10
11.2749561468
 20
7.9846184975
 30
0.0
 10
11.2728705258
 20
7.9825235007
 30
0.0
 10
11.27180784
 20
7.9814970275
 30
0.0
  0
SPLINE
  5
300
100
AcDbEntity
  8
0
100
AcDbSpline
 62
7
  6
CONTINUOUS
 70
0
 71
3
 72
39
 73
35
 74
0
 42
0.0000001
 43
0.0000001
 44
0.0000000001
 40
0.0
 40
0.0
 40
0.0
 40
0.0
 40
0.0311449917
 40
0.0624431057
 40
0.0938883404
 40
0.1254709744
 40
0.1571788692
 40
0.1889972397
 40
0.22090915
 40
0.2528958136
 40
0.2849369888
 40
0.3170113756
 40
0.3490970326
 40
0.3811718011
 40
0.4132137322
 40
0.4452015112
 40
0.4771148736
 40
0.5089350068
 40
0.5406449308
 40
0.5722298519
 40
0.6036774839
 40
0.6349783272
 40
0.6661259021
 40
0.6971169269
 40
0.7279514343
 40
0.7586328219
 40
0.789167828
 40
0.8195664326
 40
0.8498416785
 40
0.8800094145
 40
0.9100879636
 40
0.9400977218
 40
0.9700606971
 40
1.0
 40
1.0
 40
1.0
 40
1.0
 10
12.7211769511
 20
9.4615441379
 30
0.0
 10
12.7281586839
 20
9.4610599531
 30
0.0
 10
12.7421262297
 20
9.4595781704
 30
0.0
 10
12.7629082142
 20
9.4558455141
 30
0.0
 10
12.7834676104
 20
9.4506171864
 30
0.0
 10
12.8036933705
 20
9.4439212877
 30
0.0
 10
12.8234780481
 20
9.4357937262
 30
0.0
 10
12.8427161078
 20
9.4262779632
 30
0.0
 10
12.8613050659
 20
9.4154248587
 30
0.0
 10
12.8791458698
 20
9.4032923571
 30
0.0
 10
12.8961434647
 20
9.3899451979
 30
0.0
 10
12.9122072804
 20
9.3754545659
 30
0.0
 10
12.9272517131
 20
9.3598977173
 30
0.0
 10
12.9411965749
 20
9.3433575704
 30
0.0
 10
12.9539675178
 20
9.325922269
 30
0.0
 10
12.9654964261
 20
9.3076847167
 30
0.0
 10
12.9757217769
 20
9.2887420879
 30
0.0
 10
12.9845889676
 20
9.2691953166
 30
0.0
 10
12.9920506052
 20
9.2491485646
 30
0.0
 10
12.9980667585
 20
9.2287086727
 30
0.0
 10
13.002605173
 20
9.2079845997
 30
0.0
 10
13.0056414458
 20
9.1870868491
 30
0.0
 10
13.0071591614
 20
9.1661268877
 30
0.0
 10
13.0071499858
 20
9.1452165587
 30
0.0
 10
13.0056137213
 20
9.1244674909
 30
0.0
 10
13.0025583179
 20
9.1039905079
 30
0.0
 10
12.997999845
 20
9.0838950385
 30
0.0
 10
12.9919624168
 20
9.0642885294
 30
0.0
 10
12.9844780875
 20
9.0452758764
 30
0.0
 10
12.9755866571
 20
9.0269588194
 30
0.0
 10
12.9653356041
 20
9.0094355204
 30
0.0
 10
12.9537793401
 20
8.9927995291
 30
0.0
 10
12.940980787
 20
8.9771411028
 30
0.0
 10
12.931661762
 20
8.9674056612
 30
0.0
 10
12.9268229355
 20
8.9627316883
 30
0.0
  0
SPLINE
  5
301
100
AcDbEntity
  8
0
100
AcDbSpline
 62
7
  6
CONTINUOUS
 70
0
 71
3
 72
39
 73
35
 74
0
 42
0.0000001
 43
0.0000001
 44
0.0000000001
 40
0.0
 40
0.0
 40
0.0
 40
0.0
 40
0.0311449917
 40
0.0624431057
 40
0.0938883404
 40
0.1254709744
 40
0.1571788692
 40
0.1889972397
 40
0.22090915
 40
0.2528958136
 40
0.2849369888
 40
0.3170113756
 40
0.3490970326
 40
0.3811718011
 40
0.4132137322
 40
0.4452015112
 40
0.4771148736
 40
0.5089350068
 40
0.5406449308
 40
0.5722298519
 40
0.6036774839
 40
0.6349783272
 40
0.6661259021
 40
0.6971169269
 40
0.7279514343
 40
0.7586328219
 40
0.789167828
 40
0.8195664326
 40
0.8498416785
 40
0.8800094145
 40
0.9100879636
 40
0.9400977218
 40
0.9700606971
 40
1.0
 40
1.0
 40
1.0
 40
1.0
 10
9.6418051543
 20
9.6750992973
 30
0.0
 10
9.6487868871
 20
9.6746151125
 30
0.0
 10
9.6627544329
 20
9.6731333298
 30
0.0
 10
9.6835364174
 20
9.6694006735
 30
0.0
 10
9.7040958136
 20
9.6641723458
 30
0.0
 10
9.7243215736
 20
9.6574764472
 30
0.0
 10
9.7441062513
 20
9.6493488856
 30
0.0
 10
9.763344311
 20
9.6398331226
 30
0.0
 10
9.7819332691
 20
9.6289800182
 30
0.0
 10
9.799774073
 20
9.6168475165
 30
0.0
 10
9.8167716679
 20
9.6035003573
 30
0.0
 10
9.8328354836
 20
9.5890097254
 30
0.0
 10
9.8478799163
 20
9.5734528767
 30
0.0
 10
9.8618247781
 20
9.5569127299
 30
0.0
 10
9.874595721
 20
9.5394774284
 30
0.0
 10
9.8861246293
 20
9.5212398761
 30
0.0
 10
9.8963499801
 20
9.5022972473
 30
0.0
 10
9.9052171708
 20
9.4827504761
 30
0.0
 10
9.9126788084
 20
9.462703724
 30
0.0
 10
9.9186949617
 20
9.4422638321
 30
0.0
 10
9.9232333762
 20
9.4215397592
 30
0.0
 10
9.926269649
 20
9.4006420085
 30
0.0
 10
9.9277873646
 20
9.3796820472
 30
0.0
 10
9.927778189
 20
9.3587717181
 30
0.0
 10
9.9262419245
 20
9.3380226504
 30
0.0
 10
9.9231865211
 20
9.3175456673
 30
0.0
 10
9.9186280482
 20
9.2974501979
 30
0.0
 10
9.91259062
 20
9.2778436889
 30
0.0
 10
9.9051062907
 20
9.2588310358
 30
0.0
 10
9.8962148603
 20
9.2405139788
 30
0.0
 10
9.8859638073
 20
9.2229906798
 30
0.0
 10
9.8744075433
 20
9.2063546885
 30
0.0
 10
9.8616089902
 20
9.1906962623
 30
0.0
 10
9.8522899652
 20
9.1809608206
 30
0.0
 10
9.8474511387
 20
9.1762868478
 30
0.0
  0
SPLINE
  5
302
100
AcDbEntity
  8
0
100
AcDbSpline
 62
7
  6
CONTINUOUS
 70
0
 71
3
 72
39
 73
35
 74
0
 42
0.0000001
 43
0.0000001
 44
0.0000000001
 40
0.0
 40
0.0
 40
0.0
 40
0.0
 40
0.0311449917
 40
0.0624431057
 40
0.0938883404
 40
0.1254709744
 40
0.1571788692
 40
0.1889972397
 40
0.22090915
 40
0.2528958136
 40
0.2849369888
 40
0.3170113756
 40
0.3490970326
 40
0.3811718011
 40
0.4132137322
 40
0.4452015112
 40
0.4771148736
 40
0.5089350068
 40
0.5406449308
 40
0.5722298519
 40
0.6036774839
 40
0.6349783272
 40
0.6661259021
 40
0.6971169269
 40
0.7279514343
 40
0.7586328219
 40
0.789167828
 40
0.8195664326
 40
0.8498416785
 40
0.8800094145
 40
0.9100879636
 40
0.9400977218
 40
0.9700606971
 40
1.0
 40
1.0
 40
1.0
 40
1.0
 10
9.6418051543
 20
7.2602845885
 30
0.0
 10
9.6487868871
 20
7.2598004037
 30
0.0
 10
9.6627544329
 20
7.258318621
 30
0.0
 10
9.6835364174
 20
7.2545859647
 30
0.0
 10
9.7040958136
 20
7.249357637
 30
0.0
 10
9.7243215736
 20
7.2426617384
 30
0.0
 10
9.7441062513
 20
7.2345341768
 30
0.0
 10
9.763344311
 20
7.2250184138
 30
0.0
 10
9.7819332691
 20
7.2141653093
 30
0.0
 10
9.799774073
 20
7.2020328077
 30
0.0
 10
9.8167716679
 20
7.1886856485
 30
0.0
 10
9.8328354836
 20
7.1741950166
 30
0.0
 10
9.8478799163
 20
7.1586381679
 30
0.0
 10
9.8618247781
 20
7.1420980211
 30
0.0
 10
9.874595721
 20
7.1246627196
 30
0.0
 10
9.8861246293
 20
7.1064251673
 30
0.0
 10
9.8963499801
 20
7.0874825385
 30
0.0
 10
9.9052171708
 20
7.0679357673
 30
0.0
 10
9.9126788084
 20
7.0478890152
 30
0.0
 10
9.9186949617
 20
7.0274491233
 30
0.0
 10
9.9232333762
 20
7.0067250503
 30
0.0
 10
9.926269649
 20
6.9858272997
 30
0.0
 10
9.9277873646
 20
6.9648673384
 30
0.0
 10
9.927778189
 20
6.9439570093
 30
0.0
 10
9.9262419245
 20
6.9232079416
 30
0.0
 10
9.9231865211
 20
6.9027309585
 30
0.0
 10
9.9186280482
 20
6.8826354891
 30
0.0
 10
9.91259062
 20
6.8630289801
 30
0.0
 10
9.9051062907
 20
6.844016327
 30
0.0
 10
9.8962148603
 20
6.82569927
 30
0.0
 10
9.8859638073
 20
6.808175971
 30
0.0
 10
9.8744075433
 20
6.7915399797
 30
0.0
 10
9.8616089902
 20
6.7758815535
 30
0.0
 10
9.8522899652
 20
6.7661461118
 30
0.0
 10
9.8474511387
 20
6.7614721389
 30
0.0
  0
SPLINE
  5
303
100
AcDbEntity
  8
0
100
AcDbSpline
 62
7
  6
CONTINUOUS
 70
0
 71
3
 72
39
 73
35
 74
0
 42
0.0000001
 43
0.0000001
 44
0.0000000001
 40
0.0
 40
0.0
 40
0.0
 40
0.0
 40
0.0311449917
 40
0.0624431057
 40
0.0938883404
 40
0.1254709744
 40
0.1571788692
 40
0.1889972397
 40
0.22090915
 40
0.2528958136
 40
0.2849369888
 40
0.3170113756
 40
0.3490970326
 40
0.3811718011
 40
0.4132137322
 40
0.4452015112
 40
0.4771148736
 40
0.5089350068
 40
0.5406449308
 40
0.5722298519
 40
0.6036774839
 40
0.6349783272
 40
0.6661259021
 40
0.6971169269
 40
0.7279514343
 40
0.7586328219
 40
0.789167828
 40
0.8195664326
 40
0.8498416785
 40
0.8800094145
 40
0.9100879636
 40
0.9400977218
 40
0.9700606971
 40
1.0
 40
1.0
 40
1.0
 40
1.0
 10
12.7211769511
 20
7.0467294291
 30
0.0
 10
12.7281586839
 20
7.0462452442
 30
0.0
 10
12.7421262297
 20
7.0447634616
 30
0.0
 10
12.7629082142
 20
7.0410308053
 30
0.0
 10
12.7834676104
 20
7.0358024776
 30
0.0
 10
12.8036933705
 20
7.0291065789
 30
0.0
 10
12.8234780481
 20
7.0209790174
 30
0.0
 10
12.8427161078
 20
7.0114632544
 30
0.0
 10
12.8613050659
 20
7.0006101499
 30
0.0
 10
12.8791458698
 20
6.9884776483
 30
0.0
 10
12.8961434647
 20
6.9751304891
 30
0.0
 10
12.9122072804
 20
6.9606398571
 30
0.0
 10
12.9272517131
 20
6.9450830085
 30
0.0
 10
12.9411965749
 20
6.9285428616
 30
0.0
 10
12.9539675178
 20
6.9111075602
 30
0.0
 10
12.9654964261
 20
6.8928700079
 30
0.0
 10
12.9757217769
 20
6.8739273791
 30
0.0
 10
12.9845889676
 20
6.8543806078
 30
0.0
 10
12.9920506052
 20
6.8343338558
 30
0.0
 10
12.9980667585
 20
6.8138939639
 30
0.0
 10
13.002605173
 20
6.7931698909
 30
0.0
 10
13.0056414458
 20
6.7722721403
 30
0.0
 10
13.0071591614
 20
6.7513121789
 30
0.0
 10
13.0071499858
 20
6.7304018499
 30
0.0
 10
13.0056137213
 20
6.7096527821
 30
0.0
 10
13.0025583179
 20
6.6891757991
 30
0.0
 10
12.997999845
 20
6.6690803297
 30
0.0
 10
12.9919624168
 20
6.6494738206
 30
0.0
 10
12.9844780875
 20
6.6304611676
 30
0.0
 10
12.9755866571
 20
6.6121441106
 30
0.0
 10
12.9653356041
 20
6.5946208116
 30
0.0
 10
12.9537793401
 20
6.5779848203
 30
0.0
 10
12.940980787
 20
6.562326394
 30
0.0
 10
12.931661762
 20
6.5525909524
 30
0.0
 10
12.9268229355
 20
6.5479169795
 30
0.0
  0
SPLINE
  5
304
100
AcDbEntity
  8
0
100
AcDbSpline
 62
7
  6
CONTINUOUS
 70
0
 71
3
 72
36
 73
32
 74
0
 42
0.0000001
 43
0.0000001
 44
0.0000000001
 40
0.0
 40
0.0
 40
0.0
 40
0.0
 40
0.0851785676
 40
0.1685799412
 40
0.2498822288
 40
0.2896484595
 40
0.3287737794
 40
0.3672213323
 40
0.4049550248
 40
0.4419399621
 40
0.4781422097
 40
0.5135290828
 40
0.5480690991
 40
0.5817320933
 40
0.6144894081
 40
0.6463137811
 40
0.6771797808
 40
0.7070635563
 40
0.7359433837
 40
0.7637994846
 40
0.7906144915
 40
0.8163735534
 40
0.8410646067
 40
0.8646788865
 40
0.8872110453
 40
0.9086600689
 40
0.9290294673
 40
0.9483284919
 40
0.9665727628
 40
0.9837857144
 40
1.0
 40
1.0
 40
1.0
 40
1.0
 10
7.7651919455
 20
7.4928894418
 30
0.0
 10
7.7651919455
 20
7.4786342976
 30
0.0
 10
7.7654348495
 20
7.4504207274
 30
0.0
 10
7.766548995
 20
7.4086140965
 30
0.0
 10
7.7681064803
 20
7.3744278914
 30
0.0
 10
7.769730718
 20
7.3476673473
 30
0.0
 10
7.7711226991
 20
7.3280789667
 30
0.0
 10
7.7726958518
 20
7.3088455746
 30
0.0
 10
7.7744485898
 20
7.2899874103
 30
0.0
 10
7.7763789873
 20
7.271524352
 30
0.0
 10
7.7784850471
 20
7.2534758392
 30
0.0
 10
7.7807645039
 20
7.2358608791
 30
0.0
 10
7.7832149483
 20
7.2186980177
 30
0.0
 10
7.785833798
 20
7.2020053188
 30
0.0
 10
7.7886182336
 20
7.1858003485
 30
0.0
 10
7.7915653644
 20
7.1701001505
 30
0.0
 10
7.7946719892
 20
7.1549212304
 30
0.0
 10
7.7979348938
 20
7.1402795371
 30
0.0
 10
7.801350548
 20
7.1261904392
 30
0.0
 10
7.8049153884
 20
7.1126687151
 30
0.0
 10
7.8086256155
 20
7.099728526
 30
0.0
 10
7.8124773065
 20
7.0873834021
 30
0.0
 10
7.8164664392
 20
7.0756462314
 30
0.0
 10
7.820588756
 20
7.0645292162
 30
0.0
 10
7.8248400431
 20
7.0540439047
 30
0.0
 10
7.8292157832
 20
7.0442011005
 30
0.0
 10
7.8337116005
 20
7.0350109322
 30
0.0
 10
7.8383228356
 20
7.0264827847
 30
0.0
 10
7.8430450909
 20
7.018625207
 30
0.0
 10
7.8478734875
 20
7.0114465104
 30
0.0
 10
7.8512591805
 20
7.0069878732
 30
0.0
 10
7.8529713556
 20
7.0048826766
 30
0.0
  0
SPLINE
  5
305
100
AcDbEntity
  8
0
100
AcDbSpline
 62
7
  6
CONTINUOUS
 70
0
 71
3
 72
49
 73
45
 74
0
 42
0.0000001
 43
0.0000001
 44
0.0000000001
 40
0.0
 40
0.0
 40
0.0
 40
0.0
 40
0.007162651
 40
0.0146567047
 40
0.022489802
 40
0.0306682658
 40
0.039197236
 40
0.0480804432
 40
0.0573201505
 40
0.0669176598
 40
0.0768732462
 40
0.0871864326
 40
0.0978559349
 40
0.1088797421
 40
0.1202552948
 40
0.1319793485
 40
0.1440482505
 40
0.156457763
 40
0.1692032492
 40
0.1822796554
 40
0.19568148
 40
0.2094029484
 40
0.2377791912
 40
0.2673557091
 40
0.2980746237
 40
0.3298738609
 40
0.362687558
 40
0.3964464427
 40
0.4310781691
 40
0.466507628
 40
0.5026572389
 40
0.5394472298
 40
0.5767959041
 40
0.6146199124
 40
0.6528345158
 40
0.6913538428
 40
0.7300911403
 40
0.7689590294
 40
0.8078697587
 40
0.8467354142
 40
0.885468393
 40
0.9239808777
 40
0.9621872155
 40
1.0
 40
1.0
 40
1.0
 40
1.0
 10
7.9432593016
 20
10.0198166141
 30
0.0
 10
7.9417689782
 20
10.0183770722
 30
0.0
 10
7.9387903252
 20
10.0153572273
 30
0.0
 10
7.9344246014
 20
10.0105312521
 30
0.0
 10
7.9300644512
 20
10.0053112207
 30
0.0
 10
7.9257126372
 20
9.999700513
 30
0.0
 10
7.9213715735
 20
9.993702387
 30
0.0
 10
7.9170437941
 20
9.9873203153
 30
0.0
 10
7.9127317578
 20
9.9805580964
 30
0.0
 10
7.908438138
 20
9.9734197102
 30
0.0
 10
7.9041654108
 20
9.965909445
 30
0.0
 10
7.8999161699
 20
9.9580317495
 30
0.0
 10
7.8956929477
 20
9.9497913256
 30
0.0
 10
7.8914982448
 20
9.9411931053
 30
0.0
 10
7.887334649
 20
9.9322422141
 30
0.0
 10
7.8832045825
 20
9.9229440359
 30
0.0
 10
7.8791106076
 20
9.9133041236
 30
0.0
 10
7.8750551357
 20
9.9033282745
 30
0.0
 10
7.8710406302
 20
9.8930224701
 30
0.0
 10
7.8670695321
 20
9.8823929003
 30
0.0
 10
7.8631441687
 20
9.8714459494
 30
0.0
 10
7.8579160866
 20
9.8562655246
 30
0.0
 10
7.8515226824
 20
9.8365395071
 30
0.0
 10
7.8441532478
 20
9.8119676947
 30
0.0
 10
7.8370210465
 20
9.7862968314
 30
0.0
 10
7.8301433507
 20
9.7595886703
 30
0.0
 10
7.8235368086
 20
9.7319073459
 30
0.0
 10
7.817217409
 20
9.7033194155
 30
0.0
 10
7.8112004411
 20
9.6738936296
 30
0.0
 10
7.8055004584
 20
9.6437007781
 30
0.0
 10
7.8001312437
 20
9.6128135123
 30
0.0
 10
7.7951057782
 20
9.5813061704
 30
0.0
 10
7.7904362024
 20
9.5492545971
 30
0.0
 10
7.7861337929
 20
9.5167359564
 30
0.0
 10
7.7822089375
 20
9.4838285418
 30
0.0
 10
7.7786711095
 20
9.4506115866
 30
0.0
 10
7.7755288459
 20
9.4171650731
 30
0.0
 10
7.7727897265
 20
9.3835695381
 30
0.0
 10
7.7704603569
 20
9.3499058907
 30
0.0
 10
7.7685463321
 20
9.316255162
 30
0.0
 10
7.7670522811
 20
9.2826984881
 30
0.0
 10
7.7659817379
 20
9.2493164311
 30
0.0
 10
7.7653373384
 20
9.2161897158
 30
0.0
 10
7.7651919455
 20
9.1941983633
 30
0.0
 10
7.7651919455
 20
9.183259738
 30
0.0
  0
SPLINE
  5
306
100
AcDbEntity
  8
0
100
AcDbSpline
 62
7
  6
CONTINUOUS
 70
0
 71
3
 72
23
 73
19
 74
0
 42
0.0000001
 43
0.0000001
 44
0.0000000001
 40
0.0
 40
0.0
 40
0.0
 40
0.0
 40
0.0616260457
 40
0.1233675351
 40
0.185220259
 40
0.2471934498
 40
0.3092894938
 40
0.3715093316
 40
0.4338533898
 40
0.496320625
 40
0.5589087464
 40
0.6216141578
 40
0.6844324571
 40
0.7473582487
 40
0.8103851038
 40
0.8735061851
 40
0.9367138729
 40
1.0
 40
1.0
 40
1.0
 40
1.0
 10
11.1912033674
 20
9.1575347928
 30
0.0
 10
11.1949146385
 20
9.1572774308
 30
0.0
 10
11.2023323705
 20
9.1565727687
 30
0.0
 10
11.2134000946
 20
9.1549522434
 30
0.0
 10
11.2243928721
 20
9.1527717737
 30
0.0
 10
11.2352832733
 20
9.1500383037
 30
0.0
 10
11.2460455085
 20
9.1467604752
 30
0.0
 10
11.2566541096
 20
9.1429486561
 30
0.0
 10
11.267084532
 20
9.1386147654
 30
0.0
 10
11.2773133237
 20
9.1337723589
 30
0.0
 10
11.2873180978
 20
9.1284362723
 30
0.0
 10
11.2970775807
 20
9.1226224267
 30
0.0
 10
11.3065718405
 20
9.1163479785
 30
0.0
 10
11.3157821658
 20
9.1096308656
 30
0.0
 10
11.3246910557
 20
9.1024897217
 30
0.0
 10
11.3332824882
 20
9.0949438852
 30
0.0
 10
11.3415413618
 20
9.0870132839
 30
0.0
 10
11.3468138944
 20
9.0814857646
 30
0.0
 10
11.3493903468
 20
9.0786648897
 30
0.0
  0
SPLINE
  5
307
100
AcDbEntity
  8
0
100
AcDbSpline
 62
7
  6
CONTINUOUS
 70
0
 71
3
 72
35
 73
31
 74
0
 42
0.0000001
 43
0.0000001
 44
0.0000000001
 40
0.0
 40
0.0
 40
0.0
 40
0.0
 40
0.0162143026
 40
0.0334272723
 40
0.0516715624
 40
0.0709706074
 40
0.0913400271
 40
0.1127890733
 40
0.1353212558
 40
0.1589355604
 40
0.1836266397
 40
0.2093857288
 40
0.2362007638
 40
0.264056894
 40
0.2929367518
 40
0.3228205587
 40
0.3536865909
 40
0.3855109973
 40
0.4182683466
 40
0.4519313762
 40
0.4864714288
 40
0.5218583391
 40
0.5580606248
 40
0.595045601
 40
0.6327793332
 40
0.6712269265
 40
0.7501175084
 40
0.8314198815
 40
0.9148213429
 40
1.0
 40
1.0
 40
1.0
 40
1.0
 10
13.7213258401
 20
7.8120641343
 30
0.0
 10
13.7199322091
 20
7.8137776665
 30
0.0
 10
13.7171764125
 20
7.8174067898
 30
0.0
 10
13.7132463223
 20
7.8232499149
 30
0.0
 10
13.7094026261
 20
7.8296456177
 30
0.0
 10
13.7056492952
 20
7.8365871331
 30
0.0
 10
13.701989909
 20
7.8440675026
 30
0.0
 10
13.6984282601
 20
7.8520790874
 30
0.0
 10
13.6949679101
 20
7.8606136433
 30
0.0
 10
13.691612536
 20
7.8696623767
 30
0.0
 10
13.6883655675
 20
7.8792158877
 30
0.0
 10
13.6852304702
 20
7.8892642444
 30
0.0
 10
13.6822105179
 20
7.8997969564
 30
0.0
 10
13.6793089036
 20
7.9108030109
 30
0.0
 10
13.67652872
 20
7.9222708813
 30
0.0
 10
13.6738728674
 20
7.9341885386
 30
0.0
 10
13.6713442193
 20
7.9465434736
 30
0.0
 10
13.6689453919
 20
7.9593227045
 30
0.0
 10
13.6666789908
 20
7.9725127966
 30
0.0
 10
13.664547369
 20
7.9860998771
 30
0.0
 10
13.6625528212
 20
8.0000696481
 30
0.0
 10
13.6606974495
 20
8.0144074061
 30
0.0
 10
13.6589832141
 20
8.0290980567
 30
0.0
 10
13.6574119629
 20
8.0441261249
 30
0.0
 10
13.6559853061
 20
8.0594758031
 30
0.0
 10
13.6542632926
 20
8.0805297292
 30
0.0
 10
13.6524924138
 20
8.1075326298
 30
0.0
 10
13.6509820404
 20
8.1406826653
 30
0.0
 10
13.6500752008
 20
8.1747114047
 30
0.0
 10
13.649877483
 20
8.1976759189
 30
0.0
 10
13.649877483
 20
8.2092789433
 30
0.0
  0
SPLINE
  5
308
100
AcDbEntity
  8
0
100
AcDbSpline
 62
7
  6
CONTINUOUS
 70
0
 71
3
 72
25
 73
21
 74
0
 42
0.0000001
 43
0.0000001
 44
0.0000000001
 40
0.0
 40
0.0
 40
0.0
 40
0.0
 40
0.0616475324
 40
0.0924812818
 40
0.1233236521
 40
0.1850399988
 40
0.2468243992
 40
0.2777516371
 40
0.3087038682
 40
0.3706878964
 40
0.4328012845
 40
0.4950619149
 40
0.5574860747
 40
0.6200882862
 40
0.6828810671
 40
0.7458751796
 40
0.8090790771
 40
0.8724979014
 40
0.9361399151
 40
1.0
 40
1.0
 40
1.0
 40
1.0
 10
12.5155309667
 20
9.3885284644
 30
0.0
 10
12.5188527087
 20
9.3917370381
 30
0.0
 10
12.5239666868
 20
9.3964177022
 30
0.0
 10
12.5310283885
 20
9.4023760707
 30
0.0
 10
12.5382517339
 20
9.4081460471
 30
0.0
 10
12.5475739625
 20
9.4149963029
 30
0.0
 10
12.5572551391
 20
9.4213407346
 30
0.0
 10
12.5652018723
 20
9.4261045699
 30
0.0
 10
12.5732858574
 20
9.4306620831
 30
0.0
 10
12.5836294686
 20
9.4359601063
 30
0.0
 10
12.5963813589
 20
9.4416589764
 30
0.0
 10
12.6094473807
 20
9.4466882198
 30
0.0
 10
12.6227944095
 20
9.4510350442
 30
0.0
 10
12.6363888749
 20
9.454688564
 30
0.0
 10
12.6501965124
 20
9.4576396577
 30
0.0
 10
12.664182578
 20
9.4598809154
 30
0.0
 10
12.6783117547
 20
9.4614066638
 30
0.0
 10
12.6925488153
 20
9.4622132464
 30
0.0
 10
12.7068571787
 20
9.4622984779
 30
0.0
 10
12.7164043369
 20
9.4618751198
 30
0.0
 10
12.7211769511
 20
9.4615441379
 30
0.0
  0
SPLINE
  5
309
100
AcDbEntity
  8
0
100
AcDbSpline
 62
7
  6
CONTINUOUS
 70
0
 71
3
 72
25
 73
21
 74
0
 42
0.0000001
 43
0.0000001
 44
0.0000000001
 40
0.0
 40
0.0
 40
0.0
 40
0.0
 40
0.0616475324
 40
0.0924812818
 40
0.1233236521
 40
0.1850399988
 40
0.2468243992
 40
0.2777516371
 40
0.3087038682
 40
0.3706878964
 40
0.4328012845
 40
0.4950619149
 40
0.5574860747
 40
0.6200882862
 40
0.6828810671
 40
0.7458751796
 40
0.8090790771
 40
0.8724979014
 40
0.9361399151
 40
1.0
 40
1.0
 40
1.0
 40
1.0
 10
9.4361591699
 20
9.6020836238
 30
0.0
 10
9.4394809119
 20
9.6052921976
 30
0.0
 10
9.44459489
 20
9.6099728616
 30
0.0
 10
9.4516565917
 20
9.6159312302
 30
0.0
 10
9.4588799371
 20
9.6217012066
 30
0.0
 10
9.4682021657
 20
9.6285514623
 30
0.0
 10
9.4778833423
 20
9.634895894
 30
0.0
 10
9.4858300755
 20
9.6396597293
 30
0.0
 10
9.4939140606
 20
9.6442172425
 30
0.0
 10
9.5042576718
 20
9.6495152657
 30
0.0
 10
9.517009562
 20
9.6552141358
 30
0.0
 10
9.5300755839
 20
9.6602433792
 30
0.0
 10
9.5434226127
 20
9.6645902037
 30
0.0
 10
9.5570170781
 20
9.6682437234
 30
0.0
 10
9.5708247156
 20
9.6711948172
 30
0.0
 10
9.5848107812
 20
9.6734360748
 30
0.0
 10
9.5989399579
 20
9.6749618232
 30
0.0
 10
9.6131770184
 20
9.6757684058
 30
0.0
 10
9.6274853819
 20
9.6758536373
 30
0.0
 10
9.6370325401
 20
9.6754302792
 30
0.0
 10
9.6418051543
 20
9.6750992973
 30
0.0
  0
SPLINE
  5
30A
100
AcDbEntity
  8
0
100
AcDbSpline
 62
7
  6
CONTINUOUS
 70
0
 71
3
 72
25
 73
21
 74
0
 42
0.0000001
 43
0.0000001
 44
0.0000000001
 40
0.0
 40
0.0
 40
0.0
 40
0.0
 40
0.0616475324
 40
0.0924812818
 40
0.1233236521
 40
0.1850399988
 40
0.2468243992
 40
0.2777516371
 40
0.3087038682
 40
0.3706878964
 40
0.4328012845
 40
0.4950619149
 40
0.5574860747
 40
0.6200882862
 40
0.6828810671
 40
0.7458751796
 40
0.8090790771
 40
0.8724979014
 40
0.9361399151
 40
1.0
 40
1.0
 40
1.0
 40
1.0
 10
9.4361591699
 20
7.187268915
 30
0.0
 10
9.4394809119
 20
7.1904774888
 30
0.0
 10
9.44459489
 20
7.1951581528
 30
0.0
 10
9.4516565917
 20
7.2011165214
 30
0.0
 10
9.4588799371
 20
7.2068864977
 30
0.0
 10
9.4682021657
 20
7.2137367535
 30
0.0
 10
9.4778833423
 20
7.2200811852
 30
0.0
 10
9.4858300755
 20
7.2248450205
 30
0.0
 10
9.4939140606
 20
7.2294025337
 30
0.0
 10
9.5042576718
 20
7.2347005569
 30
0.0
 10
9.517009562
 20
7.240399427
 30
0.0
 10
9.5300755839
 20
7.2454286704
 30
0.0
 10
9.5434226127
 20
7.2497754949
 30
0.0
 10
9.5570170781
 20
7.2534290146
 30
0.0
 10
9.5708247156
 20
7.2563801084
 30
0.0
 10
9.5848107812
 20
7.258621366
 30
0.0
 10
9.5989399579
 20
7.2601471144
 30
0.0
 10
9.6131770184
 20
7.260953697
 30
0.0
 10
9.6274853819
 20
7.2610389285
 30
0.0
 10
9.6370325401
 20
7.2606155704
 30
0.0
 10
9.6418051543
 20
7.2602845885
 30
0.0
  0
SPLINE
  5
30B
100
AcDbEntity
  8
0
100
AcDbSpline
 62
7
  6
CONTINUOUS
 70
0
 71
3
 72
25
 73
21
 74
0
 42
0.0000001
 43
0.0000001
 44
0.0000000001
 40
0.0
 40
0.0
 40
0.0
 40
0.0
 40
0.0616475324
 40
0.0924812818
 40
0.1233236521
 40
0.1850399988
 40
0.2468243992
 40
0.2777516371
 40
0.3087038682
 40
0.3706878964
 40
0.4328012845
 40
0.4950619149
 40
0.5574860747
 40
0.6200882862
 40
0.6828810671
 40
0.7458751796
 40
0.8090790771
 40
0.8724979014
 40
0.9361399151
 40
1.0
 40
1.0
 40
1.0
 40
1.0
 10
12.5155309667
 20
6.9737137556
 30
0.0
 10
12.5188527087
 20
6.9769223293
 30
0.0
 10
12.5239666868
 20
6.9816029934
 30
0.0
 10
12.5310283885
 20
6.9875613619
 30
0.0
 10
12.5382517339
 20
6.9933313383
 30
0.0
 10
12.5475739625
 20
7.0001815941
 30
0.0
 10
12.5572551391
 20
7.0065260258
 30
0.0
 10
12.5652018723
 20
7.0112898611
 30
0.0
 10
12.5732858574
 20
7.0158473743
 30
0.0
 10
12.5836294686
 20
7.0211453974
 30
0.0
 10
12.5963813589
 20
7.0268442676
 30
0.0
 10
12.6094473807
 20
7.031873511
 30
0.0
 10
12.6227944095
 20
7.0362203354
 30
0.0
 10
12.6363888749
 20
7.0398738552
 30
0.0
 10
12.6501965124
 20
7.0428249489
 30
0.0
 10
12.664182578
 20
7.0450662066
 30
0.0
 10
12.6783117547
 20
7.046591955
 30
0.0
 10
12.6925488153
 20
7.0473985376
 30
0.0
 10
12.7068571787
 20
7.0474837691
 30
0.0
 10
12.7164043369
 20
7.047060411
 30
0.0
 10
12.7211769511
 20
7.0467294291
 30
0.0
  0
SPLINE
  5
30C
100
AcDbEntity
  8
0
100
AcDbSpline
 62
7
  6
CONTINUOUS
 70
0
 71
3
 72
40
 73
36
 74
0
 42
0.0000001
 43
0.0000001
 44
0.0000000001
 40
0.0
 40
0.0
 40
0.0
 40
0.0
 40
0.0163359971
 40
0.0249398827
 40
0.0338414532
 40
0.0430440426
 40
0.0525485032
 40
0.0623536739
 40
0.0724568621
 40
0.0935379809
 40
0.1157613185
 40
0.139088576
 40
0.1634835245
 40
0.1889147797
 40
0.2153572619
 40
0.2427920248
 40
0.2712055019
 40
0.3005883267
 40
0.3309332858
 40
0.3622328418
 40
0.39447671
 40
0.4276492122
 40
0.4617268218
 40
0.4966761832
 40
0.5324527408
 40
0.5690004038
 40
0.6062525324
 40
0.6441336312
 40
0.6825619751
 40
0.7214526367
 40
0.760720455
 40
0.8002829072
 40
0.8400623926
 40
0.9199749884
 40
1.0
 40
1.0
 40
1.0
 40
1.0
 10
11.116752364
 20
8.8832712613
 30
0.0
 10
11.1152852176
 20
8.8833735639
 30
0.0
 10
11.1130313448
 20
8.8833653315
 30
0.0
 10
11.1099972542
 20
8.8830791528
 30
0.0
 10
11.107618804
 20
8.882716672
 30
0.0
 10
11.1051841233
 20
8.8822110604
 30
0.0
 10
11.102699234
 20
8.8815632436
 30
0.0
 10
11.1001705246
 20
8.8807741736
 30
0.0
 10
11.0966998834
 20
8.8795171425
 30
0.0
 10
11.0922897348
 20
8.8775864553
 30
0.0
 10
11.0869964311
 20
8.8747521139
 30
0.0
 10
11.08167627
 20
8.8713728112
 30
0.0
 10
11.0763771888
 20
8.8674531103
 30
0.0
 10
11.0711462755
 20
8.8629969766
 30
0.0
 10
11.0660305435
 20
8.8580084817
 30
0.0
 10
11.061076948
 20
8.8524923419
 30
0.0
 10
11.0563325607
 20
8.8464546481
 30
0.0
 10
11.0518445913
 20
8.8399036388
 30
0.0
 10
11.0476602022
 20
8.8328506192
 30
0.0
 10
11.0438260301
 20
8.8253109328
 30
0.0
 10
11.0403875705
 20
8.8173047957
 30
0.0
 10
11.0373882504
 20
8.8088580181
 30
0.0
 10
11.0348682988
 20
8.8000024777
 30
0.0
 10
11.0328634623
 20
8.7907762478
 30
0.0
 10
11.0314037094
 20
8.7812232801
 30
0.0
 10
11.0305120817
 20
8.7713925857
 30
0.0
 10
11.0302038712
 20
8.7613369731
 30
0.0
 10
11.0304861597
 20
8.7511114486
 30
0.0
 10
11.0313578841
 20
8.7407714685
 30
0.0
 10
11.0328103329
 20
8.7303711835
 30
0.0
 10
11.034828051
 20
8.71996198
 30
0.0
 10
11.037390092
 20
8.7095909411
 30
0.0
 10
11.0415038184
 20
8.6958512804
 30
0.0
 10
11.0478650037
 20
8.6790063384
 30
0.0
 10
11.0540961119
 20
8.6660051291
 30
0.0
 10
11.0574640366
 20
8.6596362513
 30
0.0
  0
SPLINE
  5
30D
100
AcDbEntity
  8
0
100
AcDbSpline
 62
7
  6
CONTINUOUS
 70
0
 71
3
 72
22
 73
18
 74
0
 42
0.0000001
 43
0.0000001
 44
0.0000000001
 40
0.0
 40
0.0
 40
0.0
 40
0.0
 40
0.054424585
 40
0.1090659345
 40
0.1641380458
 40
0.2198496093
 40
0.2764013978
 40
0.3339846181
 40
0.3927796025
 40
0.4529540497
 40
0.5146627563
 40
0.5780480633
 40
0.6432400063
 40
0.7103565416
 40
0.7795043376
 40
0.8507788591
 40
1.0
 40
1.0
 40
1.0
 40
1.0
 10
8.5302261302
 20
10.5583089759
 30
0.0
 10
8.5292079359
 20
10.558379582
 30
0.0
 10
8.5271622396
 20
10.5584543614
 30
0.0
 10
8.524083324
 20
10.5583662977
 30
0.0
 10
8.5209923297
 20
10.5580781631
 30
0.0
 10
8.5178903853
 20
10.5575900557
 30
0.0
 10
8.5147783587
 20
10.5569022772
 30
0.0
 10
8.5116571483
 20
10.5560151232
 30
0.0
 10
8.5085276353
 20
10.5549288863
 30
0.0
 10
8.505390659
 20
10.553644012
 30
0.0
 10
8.5022470333
 20
10.5521609862
 30
0.0
 10
8.4990975793
 20
10.5504802622
 30
0.0
 10
8.4959430881
 20
10.5486023253
 30
0.0
 10
8.4927843187
 20
10.5465277584
 30
0.0
 10
8.489621951
 20
10.5442570692
 30
0.0
 10
8.4853365403
 20
10.5409178605
 30
0.0
 10
8.4822189672
 20
10.5381946264
 30
0.0
 10
8.4801704871
 20
10.5362881395
 30
0.0
  0
SPLINE
  5
30E
100
AcDbEntity
  8
0
100
AcDbSpline
 62
7
  6
CONTINUOUS
 70
0
 71
3
 72
22
 73
18
 74
0
 42
0.0000001
 43
0.0000001
 44
0.0000000001
 40
0.0
 40
0.0
 40
0.0
 40
0.0
 40
0.1492207712
 40
0.2204920371
 40
0.2896391336
 40
0.3567565018
 40
0.4219494148
 40
0.485335564
 40
0.5470447746
 40
0.6072191781
 40
0.6660140492
 40
0.7235975452
 40
0.7801496181
 40
0.835861325
 40
0.8909336716
 40
0.9455752459
 40
1.0
 40
1.0
 40
1.0
 40
1.0
 10
7.9047218722
 20
6.9412527281
 30
0.0
 10
7.9064875602
 20
6.9390817211
 30
0.0
 10
7.9091993089
 20
6.9359542391
 30
0.0
 10
7.9129827603
 20
6.9320555625
 30
0.0
 10
7.9158013606
 20
6.9293701148
 30
0.0
 10
7.9186435187
 20
6.9268793413
 30
0.0
 10
7.9215086389
 20
6.9245839291
 30
0.0
 10
7.9243959681
 20
6.9224845173
 30
0.0
 10
7.9273047861
 20
6.9205817037
 30
0.0
 10
7.9302343868
 20
6.9188761199
 30
0.0
 10
7.9331840195
 20
6.9173683264
 30
0.0
 10
7.9361528839
 20
6.9160587885
 30
0.0
 10
7.939140186
 20
6.9149479914
 30
0.0
 10
7.9421450845
 20
6.9140364137
 30
0.0
 10
7.9451667226
 20
6.913324351
 30
0.0
 10
7.9482040141
 20
6.9128120867
 30
0.0
 10
7.9502404595
 20
6.9126037838
 30
0.0
 10
7.9512586571
 20
6.9125331775
 30
0.0
  0
SPLINE
  5
30F
100
AcDbEntity
  8
0
100
AcDbSpline
 62
7
  6
CONTINUOUS
 70
0
 71
3
 72
25
 73
21
 74
0
 42
0.0000001
 43
0.0000001
 44
0.0000000001
 40
0.0
 40
0.0
 40
0.0
 40
0.0
 40
0.0631001716
 40
0.094596509
 40
0.126055403
 40
0.1888561835
 40
0.2515207896
 40
0.2828105163
 40
0.3140712466
 40
0.3765047898
 40
0.438849189
 40
0.5011257291
 40
0.5633581063
 40
0.6255720338
 40
0.6877947325
 40
0.7500541471
 40
0.8123782936
 40
0.8747942929
 40
0.9373272185
 40
1.0
 40
1.0
 40
1.0
 40
1.0
 10
10.9721357612
 20
9.0291974313
 30
0.0
 10
10.9747725604
 20
9.0341973785
 30
0.0
 10
10.9789644425
 20
9.0415708359
 30
0.0
 10
10.9850143514
 20
9.0511074151
 30
0.0
 10
10.991356245
 20
9.0604203866
 30
0.0
 10
10.9998370791
 20
9.0716451443
 30
0.0
 10
11.0090396986
 20
9.0822668816
 30
0.0
 10
11.0168098899
 20
9.090359394
 30
0.0
 10
11.0248388485
 20
9.0981654798
 30
0.0
 10
11.0353640124
 20
9.1073827945
 30
0.0
 10
11.0487301443
 20
9.11751195
 30
0.0
 10
11.0627760349
 20
9.1266438273
 30
0.0
 10
11.0774423313
 20
9.1347183842
 30
0.0
 10
11.0926636316
 20
9.141680027
 30
0.0
 10
11.1083679998
 20
9.1474781831
 30
0.0
 10
11.1244774889
 20
9.1520686154
 30
0.0
 10
11.1409085133
 20
9.155414542
 30
0.0
 10
11.1575732246
 20
9.1574876348
 30
0.0
 10
11.1743785012
 20
9.1582690711
 30
0.0
 10
11.1856024816
 20
9.1579232383
 30
0.0
 10
11.1912033674
 20
9.1575347928
 30
0.0
  0
SPLINE
  5
310
100
AcDbEntity
  8
0
100
AcDbSpline
 62
7
  6
CONTINUOUS
 70
0
 71
3
 72
46
 73
42
 74
0
 42
0.0000001
 43
0.0000001
 44
0.0000000001
 40
0.0
 40
0.0
 40
0.0
 40
0.0
 40
0.03225807
 40
0.0644094067
 40
0.096452283
 40
0.1283859676
 40
0.1919079224
 40
0.2235176323
 40
0.2550225267
 40
0.3177096138
 40
0.3489171175
 40
0.3800329685
 40
0.411061987
 40
0.4420096954
 40
0.4728825073
 40
0.5036879196
 40
0.5344346913
 40
0.5651329863
 40
0.5957946192
 40
0.6264333474
 40
0.6570651048
 40
0.6877081941
 40
0.7183833936
 40
0.7337429975
 40
0.7491197427
 40
0.764516667
 40
0.7799373104
 40
0.7953848595
 40
0.8108629343
 40
0.8263747724
 40
0.8419238042
 40
0.8575131856
 40
0.8731458535
 40
0.8888246216
 40
0.9045516874
 40
0.920329081
 40
0.9361582805
 40
0.9520398511
 40
0.9679741889
 40
0.9839622096
 40
1.0
 40
1.0
 40
1.0
 40
1.0
 10
10.7169274754
 20
8.231270956
 30
0.0
 10
10.7186788169
 20
8.2252123989
 30
0.0
 10
10.7218498491
 20
8.2130185026
 30
0.0
 10
10.7256312044
 20
8.1945365791
 30
0.0
 10
10.7284488873
 20
8.1759467174
 30
0.0
 10
10.7309389416
 20
8.1511369182
 30
0.0
 10
10.7315794723
 20
8.1262555157
 30
0.0
 10
10.7304038192
 20
8.1015175247
 30
0.0
 10
10.7280434424
 20
8.0770284335
 30
0.0
 10
10.7239132479
 20
8.0528151623
 30
0.0
 10
10.7180283421
 20
8.029086176
 30
0.0
 10
10.712752345
 20
8.0116059959
 30
0.0
 10
10.7066109317
 20
7.994465046
 30
0.0
 10
10.6996053362
 20
7.9777097116
 30
0.0
 10
10.6917361217
 20
7.9613902941
 30
0.0
 10
10.6830032979
 20
7.9455604734
 30
0.0
 10
10.6734068503
 20
7.930278334
 30
0.0
 10
10.6629473374
 20
7.9156070264
 30
0.0
 10
10.6516267134
 20
7.9016154859
 30
0.0
 10
10.6394494541
 20
7.8883791289
 30
0.0
 10
10.6264236254
 20
7.8759802757
 30
0.0
 10
10.6125635924
 20
7.8645091113
 30
0.0
 10
10.6003389457
 20
7.8558061524
 30
0.0
 10
10.5901746768
 20
7.8494110235
 30
0.0
 10
10.582357297
 20
7.8449077153
 30
0.0
 10
10.5743561211
 20
7.8407139468
 30
0.0
 10
10.5661780249
 20
7.8368437818
 30
0.0
 10
10.557831191
 20
7.8333112081
 30
0.0
 10
10.549324887
 20
7.8301304562
 30
0.0
 10
10.5406697039
 20
7.8273153154
 30
0.0
 10
10.5318775373
 20
7.8248793954
 30
0.0
 10
10.5229616569
 20
7.822835741
 30
0.0
 10
10.5139367617
 20
7.821196451
 30
0.0
 10
10.5048188973
 20
7.8199730071
 30
0.0
 10
10.4956254946
 20
7.8191751962
 30
0.0
 10
10.4863751961
 20
7.8188117048
 30
0.0
 10
10.4770878213
 20
7.8188894625
 30
0.0
 10
10.4677841439
 20
7.8194131893
 30
0.0
 10
10.4584853567
 20
7.820386055
 30
0.0
 10
10.4492140053
 20
7.8218086767
 30
0.0
 10
10.4430749998
 20
7.8230538713
 30
0.0
 10
10.4400178099
 20
7.8237500994
 30
0.0
  0
SPLINE
  5
311
100
AcDbEntity
  8
0
100
AcDbSpline
 62
7
  6
CONTINUOUS
 70
0
 71
3
 72
23
 73
19
 74
0
 42
0.0000001
 43
0.0000001
 44
0.0000000001
 40
0.0
 40
0.0
 40
0.0
 40
0.0
 40
0.0616482156
 40
0.1233194448
 40
0.1850364824
 40
0.2468215709
 40
0.3086962096
 40
0.3706809325
 40
0.432795002
 40
0.4950563289
 40
0.5574812109
 40
0.6200840208
 40
0.6828775523
 40
0.7458726718
 40
0.8090764916
 40
0.8724961142
 40
0.9361412363
 40
1.0
 40
1.0
 40
1.0
 40
1.0
 10
11.9482389913
 20
6.8881963708
 30
0.0
 10
11.9499896362
 20
6.889887369
 30
0.0
 10
11.9535833084
 20
6.8931764932
 30
0.0
 10
11.9592322595
 20
6.8978143027
 30
0.0
 10
11.9651265049
 20
6.9021455744
 30
0.0
 10
11.9712510298
 20
6.9061591455
 30
0.0
 10
11.9775903862
 20
6.9098450654
 30
0.0
 10
11.9841286379
 20
6.9131939548
 30
0.0
 10
11.9908492924
 20
6.9161974201
 30
0.0
 10
11.9977353958
 20
6.9188479651
 30
0.0
 10
12.0047696375
 20
6.9211388135
 30
0.0
 10
12.0119342603
 20
6.9230643283
 30
0.0
 10
12.0192112483
 20
6.9246196421
 30
0.0
 10
12.0265822558
 20
6.9258007725
 30
0.0
 10
12.0340286703
 20
6.9266049419
 30
0.0
 10
12.0415320353
 20
6.9270300243
 30
0.0
 10
12.0490729262
 20
6.9270748868
 30
0.0
 10
12.0541045383
 20
6.926851801
 30
0.0
 10
12.0566197479
 20
6.9266773706
 30
0.0
  0
SPLINE
  5
312
100
AcDbEntity
  8
0
100
AcDbSpline
 62
7
  6
CONTINUOUS
 70
0
 71
3
 72
19
 73
15
 74
0
 42
0.0000001
 43
0.0000001
 44
0.0000000001
 40
0.0
 40
0.0
 40
0.0
 40
0.0
 40
0.0616586063
 40
0.1233402597
 40
0.1850676991
 40
0.2468632206
 40
0.3706995305
 40
0.4950525397
 40
0.5574879361
 40
0.6201012893
 40
0.6829055283
 40
0.7459112878
 40
0.8725148857
 40
1.0
 40
1.0
 40
1.0
 40
1.0
 10
10.2160451671
 20
6.9908769972
 30
0.0
 10
10.2175040323
 20
6.9922861493
 30
0.0
 10
10.2204987417
 20
6.9950270789
 30
0.0
 10
10.2252061721
 20
6.9988918437
 30
0.0
 10
10.2301181575
 20
7.0025012265
 30
0.0
 10
10.2369266353
 20
7.0069631646
 30
0.0
 10
10.245894246
 20
7.0118606653
 30
0.0
 10
10.2553498042
 20
7.0157872076
 30
0.0
 10
10.263153752
 20
7.0183286723
 30
0.0
 10
10.2691243409
 20
7.0199332644
 30
0.0
 10
10.2751885338
 20
7.0212293486
 30
0.0
 10
10.2833903604
 20
7.0225436683
 30
0.0
 10
10.293805337
 20
7.0233976511
 30
0.0
 10
10.3021783564
 20
7.0232342214
 30
0.0
 10
10.306362012
 20
7.0229440839
 30
0.0
  0
SPLINE
  5
313
100
AcDbEntity
  8
0
100
AcDbSpline
 62
7
  6
CONTINUOUS
 70
0
 71
3
 72
19
 73
15
 74
0
 42
0.0000001
 43
0.0000001
 44
0.0000000001
 40
0.0
 40
0.0
 40
0.0
 40
0.0
 40
0.0616586063
 40
0.1233402597
 40
0.1850676991
 40
0.2468632206
 40
0.3706995305
 40
0.4950525397
 40
0.5574879361
 40
0.6201012893
 40
0.6829055283
 40
0.7459112878
 40
0.8725148857
 40
1.0
 40
1.0
 40
1.0
 40
1.0
 10
11.0911741502
 20
8.1685035838
 30
0.0
 10
11.0926330154
 20
8.169912736
 30
0.0
 10
11.0956277248
 20
8.1726536655
 30
0.0
 10
11.1003351552
 20
8.1765184303
 30
0.0
 10
11.1052471406
 20
8.1801278131
 30
0.0
 10
11.1120556185
 20
8.1845897512
 30
0.0
 10
11.1210232291
 20
8.189487252
 30
0.0
 10
11.1304787873
 20
8.1934137942
 30
0.0
 10
11.1382827351
 20
8.1959552589
 30
0.0
 10
11.1442533241
 20
8.197559851
 30
0.0
 10
11.1503175169
 20
8.1988559352
 30
0.0
 10
11.1585193435
 20
8.2001702549
 30
0.0
 10
11.1689343201
 20
8.2010242377
 30
0.0
 10
11.1773073395
 20
8.200860808
 30
0.0
 10
11.1814909951
 20
8.2005706705
 30
0.0
  0
SPLINE
  5
314
100
AcDbEntity
  8
0
100
AcDbSpline
 62
7
  6
CONTINUOUS
 70
0
 71
3
 72
36
 73
32
 74
0
 42
0.0000001
 43
0.0000001
 44
0.0000000001
 40
0.0
 40
0.0
 40
0.0
 40
0.0
 40
0.0851784873
 40
0.1685797224
 40
0.2498819138
 40
0.2896480997
 40
0.3287733959
 40
0.3672208989
 40
0.4049545771
 40
0.4419394643
 40
0.4781417155
 40
0.5135285478
 40
0.5480685609
 40
0.5817315466
 40
0.6144888374
 40
0.6463132436
 40
0.6771792056
 40
0.707063039
 40
0.7359428414
 40
0.7637989889
 40
0.7906140146
 40
0.8163730921
 40
0.8410642167
 40
0.8646784873
 40
0.8872107467
 40
0.9086597698
 40
0.9290292573
 40
0.9483283242
 40
0.96657265
 40
0.9837856883
 40
1.0
 40
1.0
 40
1.0
 40
1.0
 10
7.8090325827
 20
7.4732362481
 30
0.0
 10
7.8090325827
 20
7.4576965196
 30
0.0
 10
7.8092973748
 20
7.4269405303
 30
0.0
 10
7.810511918
 20
7.3813665624
 30
0.0
 10
7.8122097471
 20
7.3440997264
 30
0.0
 10
7.8139803463
 20
7.314927692
 30
0.0
 10
7.815497754
 20
7.29357413
 30
0.0
 10
7.8172126761
 20
7.272607542
 30
0.0
 10
7.8191233365
 20
7.2520499973
 30
0.0
 10
7.8212277039
 20
7.2319231575
 30
0.0
 10
7.8235235196
 20
7.2122482197
 30
0.0
 10
7.8260083976
 20
7.1930459003
 30
0.0
 10
7.8286796429
 20
7.1743364186
 30
0.0
 10
7.8315344771
 20
7.1561394657
 30
0.0
 10
7.834569835
 20
7.1384741891
 30
0.0
 10
7.8377825062
 20
7.1213591692
 30
0.0
 10
7.8411691068
 20
7.1048123993
 30
0.0
 10
7.8447259949
 20
7.0888512626
 30
0.0
 10
7.8484494703
 20
7.073492519
 30
0.0
 10
7.852335519
 20
7.058752271
 30
0.0
 10
7.8563800833
 20
7.0446459616
 30
0.0
 10
7.8605788677
 20
7.0311883399
 30
0.0
 10
7.8649274317
 20
7.0183934449
 30
0.0
 10
7.869421262
 20
7.0062746032
 30
0.0
 10
7.874055583
 20
6.994844364
 30
0.0
 10
7.8788256764
 20
6.9841145554
 30
0.0
 10
7.8837265798
 20
6.9740961652
 30
0.0
 10
7.8887533558
 20
6.9647994666
 30
0.0
 10
7.8939011453
 20
6.9562337607
 30
0.0
 10
7.8991646099
 20
6.9484080922
 30
0.0
 10
7.902855409
 20
6.9435476437
 30
0.0
 10
7.9047218722
 20
6.9412527281
 30
0.0
  0
SPLINE
  5
315
100
AcDbEntity
  8
0
100
AcDbSpline
 62
7
  6
CONTINUOUS
 70
0
 71
3
 72
42
 73
38
 74
0
 42
0.0000001
 43
0.0000001
 44
0.0000000001
 40
0.0
 40
0.0
 40
0.0
 40
0.0
 40
0.0311438942
 40
0.0624423672
 40
0.0938866334
 40
0.1254688884
 40
0.1571761972
 40
0.1889940414
 40
0.2209054133
 40
0.2528915406
 40
0.2849321764
 40
0.3170060194
 40
0.3490911298
 40
0.3811653513
 40
0.4132067372
 40
0.4451939736
 40
0.4771067941
 40
0.5089263835
 40
0.5406357617
 40
0.5722201374
 40
0.6036672265
 40
0.6349675315
 40
0.6661145727
 40
0.6971050657
 40
0.7279390408
 40
0.7586198955
 40
0.7891543699
 40
0.8195524461
 40
0.8498271685
 40
0.8649259233
 40
0.879999996
 40
0.910078031
 40
0.9400872769
 40
0.9550757892
 40
0.9700554665
 40
0.9850292167
 40
1.0
 40
1.0
 40
1.0
 40
1.0
 10
11.1814909951
 20
7.9494299408
 30
0.0
 10
11.1784247402
 20
7.9496425863
 30
0.0
 10
11.1722902991
 20
7.9502934045
 30
0.0
 10
11.1631630482
 20
7.9519326937
 30
0.0
 10
11.1541335139
 20
7.9542290067
 30
0.0
 10
11.1452505737
 20
7.9571697433
 30
0.0
 10
11.1365613264
 20
7.9607393154
 30
0.0
 10
11.1281121541
 20
7.9649185432
 30
0.0
 10
11.1199480618
 20
7.9696851331
 30
0.0
 10
11.1121125586
 20
7.9750136289
 30
0.0
 10
11.1046473908
 20
7.980875596
 30
0.0
 10
11.0975923326
 20
7.9872397642
 30
0.0
 10
11.0909849779
 20
7.9940722014
 30
0.0
 10
11.0848605431
 20
8.0013364904
 30
0.0
 10
11.0792516819
 20
8.0089939209
 30
0.0
 10
11.0741883123
 20
8.0170036926
 30
0.0
 10
11.0696974621
 20
8.0253231303
 30
0.0
 10
11.0658031113
 20
8.0339079021
 30
0.0
 10
11.0625260681
 20
8.0427122575
 30
0.0
 10
11.0598838668
 20
8.0516892724
 30
0.0
 10
11.0578906719
 20
8.0607910939
 30
0.0
 10
11.0565572022
 20
8.0699691906
 30
0.0
 10
11.0558906707
 20
8.0791746084
 30
0.0
 10
11.0558947446
 20
8.0883582243
 30
0.0
 10
11.0565695146
 20
8.0974710156
 30
0.0
 10
11.0579114695
 20
8.1064642869
 30
0.0
 10
11.0599135872
 20
8.1152900617
 30
0.0
 10
11.0625651286
 20
8.1239008452
 30
0.0
 10
11.0653072426
 20
8.1308664731
 30
0.0
 10
11.0678096
 20
8.1362833084
 30
0.0
 10
11.0705100726
 20
8.1415823915
 30
0.0
 10
11.0742595628
 20
8.1479918686
 30
0.0
 10
11.0784913449
 20
8.1540835602
 30
0.0
 10
11.082148098
 20
8.1587397679
 30
0.0
 10
11.0850226016
 20
8.1621191563
 30
0.0
 10
11.0880258434
 20
8.1653821139
 30
0.0
 10
11.0901114644
 20
8.1674771106
 30
0.0
 10
11.0911741502
 20
8.1685035838
 30
0.0
  0
SPLINE
  5
316
100
AcDbEntity
  8
0
100
AcDbSpline
 62
7
  6
CONTINUOUS
 70
0
 71
3
 72
50
 73
46
 74
0
 42
0.0000001
 43
0.0000001
 44
0.0000000001
 40
0.0
 40
0.0
 40
0.0
 40
0.0
 40
0.0071626893
 40
0.0146567314
 40
0.0224897869
 40
0.0306682281
 40
0.039197216
 40
0.048080423
 40
0.0573201283
 40
0.0669176272
 40
0.0768732013
 40
0.087186397
 40
0.0978558806
 40
0.1088796987
 40
0.1202552322
 40
0.131979287
 40
0.1440481842
 40
0.15645768
 40
0.1692031783
 40
0.1822795574
 40
0.1956813978
 40
0.2094028428
 40
0.2234377248
 40
0.2377795537
 40
0.2673560652
 40
0.2980749651
 40
0.3298741783
 40
0.362687851
 40
0.3964467171
 40
0.4310784322
 40
0.4665078819
 40
0.5026574802
 40
0.5394474519
 40
0.5767961041
 40
0.6146200916
 40
0.652834677
 40
0.6913539874
 40
0.730091269
 40
0.7689591383
 40
0.8078698494
 40
0.8467354897
 40
0.8854684304
 40
0.9239809666
 40
0.9621871389
 40
1.0
 40
1.0
 40
1.0
 40
1.0
 10
8.0031467063
 20
10.0755508132
 30
0.0
 10
8.0015220711
 20
10.073981536
 30
0.0
 10
7.998274983
 20
10.070689549
 30
0.0
 10
7.9935158366
 20
10.0654286763
 30
0.0
 10
7.9887627876
 20
10.0597382438
 30
0.0
 10
7.9840188048
 20
10.0536219336
 30
0.0
 10
7.9792865477
 20
10.047083271
 30
0.0
 10
7.9745687471
 20
10.0401260721
 30
0.0
 10
7.9698681334
 20
10.0327544623
 30
0.0
 10
7.9651875918
 20
10.0249727936
 30
0.0
 10
7.9605298134
 20
10.0167857358
 30
0.0
 10
7.9558976635
 20
10.0081981254
 30
0.0
 10
7.9512938368
 20
9.9992151113
 30
0.0
 10
7.9467211474
 20
9.9898420432
 30
0.0
 10
7.9421823241
 20
9.9800845372
 30
0.0
 10
7.9376800821
 20
9.969948439
 30
0.0
 10
7.9332171745
 20
9.9594398146
 30
0.0
 10
7.928796224
 20
9.9485649819
 30
0.0
 10
7.9244199717
 20
9.9373304523
 30
0.0
 10
7.9200909797
 20
9.9257429882
 30
0.0
 10
7.9158119203
 20
9.9138095394
 30
0.0
 10
7.9115853366
 20
9.9015372889
 30
0.0
 10
7.9074137752
 20
9.8889336012
 30
0.0
 10
7.9018716159
 20
9.871518118
 30
0.0
 10
7.8951095906
 20
9.8489712391
 30
0.0
 10
7.8873346584
 20
9.8209871102
 30
0.0
 10
7.8798371677
 20
9.7918720885
 30
0.0
 10
7.8726352644
 20
9.7616962414
 30
0.0
 10
7.865746382
 20
9.7305320735
 30
0.0
 10
7.8591871894
 20
9.6984545422
 30
0.0
 10
7.8529735495
 20
9.6655408168
 30
0.0
 10
7.8471204851
 20
9.6318701016
 30
0.0
 10
7.8416421426
 20
9.597523436
 30
0.0
 10
7.8365517586
 20
9.5625834976
 30
0.0
 10
7.8318616287
 20
9.5271344008
 30
0.0
 10
7.8275830782
 20
9.4912614929
 30
0.0
 10
7.8237264352
 20
9.455051148
 30
0.0
 10
7.8203010068
 20
9.4185905579
 30
0.0
 10
7.8173150504
 20
9.3819675178
 30
0.0
 10
7.8147757653
 20
9.3452702272
 30
0.0
 10
7.812689255
 20
9.3085870253
 30
0.0
 10
7.8110605609
 20
9.2720063323
 30
0.0
 10
7.8098935504
 20
9.235616039
 30
0.0
 10
7.8091910747
 20
9.1995040623
 30
0.0
 10
7.8090325827
 20
9.1755309476
 30
0.0
 10
7.8090325827
 20
9.1636065442
 30
0.0
  0
SPLINE
  5
317
100
AcDbEntity
  8
0
100
AcDbSpline
 62
7
  6
CONTINUOUS
 70
0
 71
3
 72
39
 73
35
 74
0
 42
0.0000001
 43
0.0000001
 44
0.0000000001
 40
0.0
 40
0.0
 40
0.0
 40
0.0
 40
0.0311449917
 40
0.0624431057
 40
0.0938883404
 40
0.1254709744
 40
0.1571788692
 40
0.1889972397
 40
0.22090915
 40
0.2528958136
 40
0.2849369888
 40
0.3170113756
 40
0.3490970326
 40
0.3811718011
 40
0.4132137322
 40
0.4452015112
 40
0.4771148736
 40
0.5089350068
 40
0.5406449308
 40
0.5722298519
 40
0.6036774839
 40
0.6349783272
 40
0.6661259021
 40
0.6971169269
 40
0.7279514343
 40
0.7586328219
 40
0.789167828
 40
0.8195664326
 40
0.8498416785
 40
0.8800094145
 40
0.9100879636
 40
0.9400977218
 40
0.9700606971
 40
1.0
 40
1.0
 40
1.0
 40
1.0
 10
12.7211769511
 20
8.8897160148
 30
0.0
 10
12.7141952183
 20
8.8902001996
 30
0.0
 10
12.7002276725
 20
8.8916819823
 30
0.0
 10
12.679445688
 20
8.8954146386
 30
0.0
 10
12.6588862917
 20
8.9006429663
 30
0.0
 10
12.6386605317
 20
8.907338865
 30
0.0
 10
12.6188758541
 20
8.9154664265
 30
0.0
 10
12.5996377943
 20
8.9249821895
 30
0.0
 10
12.5810488362
 20
8.935835294
 30
0.0
 10
12.5632080323
 20
8.9479677956
 30
0.0
 10
12.5462104375
 20
8.9613149548
 30
0.0
 10
12.5301466217
 20
8.9758055867
 30
0.0
 10
12.515102189
 20
8.9913624354
 30
0.0
 10
12.5011573272
 20
9.0079025822
 30
0.0
 10
12.4883863844
 20
9.0253378837
 30
0.0
 10
12.476857476
 20
9.043575436
 30
0.0
 10
12.4666321252
 20
9.0625180648
 30
0.0
 10
12.4577649345
 20
9.0820648361
 30
0.0
 10
12.450303297
 20
9.1021115881
 30
0.0
 10
12.4442871436
 20
9.12255148
 30
0.0
 10
12.4397487292
 20
9.143275553
 30
0.0
 10
12.4367124563
 20
9.1641733036
 30
0.0
 10
12.4351947408
 20
9.185133265
 30
0.0
 10
12.4352039163
 20
9.206043594
 30
0.0
 10
12.4367401808
 20
9.2267926617
 30
0.0
 10
12.4397955843
 20
9.2472696448
 30
0.0
 10
12.4443540572
 20
9.2673651142
 30
0.0
 10
12.4503914853
 20
9.2869716233
 30
0.0
 10
12.4578758146
 20
9.3059842763
 30
0.0
 10
12.466767245
 20
9.3243013333
 30
0.0
 10
12.477018298
 20
9.3418246323
 30
0.0
 10
12.488574562
 20
9.3584606236
 30
0.0
 10
12.5013731152
 20
9.3741190499
 30
0.0
 10
12.5106921401
 20
9.3838544915
 30
0.0
 10
12.5155309667
 20
9.3885284644
 30
0.0
  0
SPLINE
  5
318
100
AcDbEntity
  8
0
100
AcDbSpline
 62
7
  6
CONTINUOUS
 70
0
 71
3
 72
15
 73
11
 74
0
 42
0.0000001
 43
0.0000001
 44
0.0000000001
 40
0.0
 40
0.0
 40
0.0
 40
0.0
 40
0.1259300071
 40
0.2516244518
 40
0.3770537394
 40
0.5022150859
 40
0.6270949686
 40
0.7516876125
 40
0.8759893702
 40
1.0
 40
1.0
 40
1.0
 40
1.0
 10
10.9400095242
 20
8.9069886459
 30
0.0
 10
10.940202854
 20
8.9123333107
 30
0.0
 10
10.9408816697
 20
8.923004337
 30
0.0
 10
10.9427679183
 20
8.938913686
 30
0.0
 10
10.9455182369
 20
8.9546641237
 30
0.0
 10
10.949127981
 20
8.9702045635
 30
0.0
 10
10.9535897749
 20
8.9854852713
 30
0.0
 10
10.9588952986
 20
9.0004555263
 30
0.0
 10
10.9650336711
 20
9.0150635679
 30
0.0
 10
10.9696790116
 20
9.0245388974
 30
0.0
 10
10.9721357612
 20
9.0291974313
 30
0.0
  0
SPLINE
  5
319
100
AcDbEntity
  8
0
100
AcDbSpline
 62
7
  6
CONTINUOUS
 70
0
 71
3
 72
40
 73
36
 74
0
 42
0.0000001
 43
0.0000001
 44
0.0000000001
 40
0.0
 40
0.0
 40
0.0
 40
0.0
 40
0.0137699878
 40
0.0277086777
 40
0.0417564823
 40
0.0558618217
 40
0.0840489531
 40
0.1119359383
 40
0.1392880082
 40
0.1659612272
 40
0.2170245788
 40
0.2650187984
 40
0.3101559905
 40
0.3527305508
 40
0.3930298609
 40
0.4313065423
 40
0.4677744174
 40
0.5026128965
 40
0.5359723373
 40
0.5987352659
 40
0.6568521118
 40
0.6843534112
 40
0.7108934972
 40
0.7612790547
 40
0.7852036776
 40
0.8083259938
 40
0.8522718717
 40
0.8731395959
 40
0.8932935593
 40
0.9127503493
 40
0.9315252662
 40
0.9496341244
 40
0.9670890601
 40
0.9838824863
 40
1.0
 40
1.0
 40
1.0
 40
1.0
 10
11.3525371198
 20
8.9657450095
 30
0.0
 10
11.350615191
 20
8.9658780395
 30
0.0
 10
11.3467466618
 20
8.9661297468
 30
0.0
 10
11.3409139488
 20
8.9664610519
 30
0.0
 10
11.3350318993
 20
8.9667478025
 30
0.0
 10
11.327156044
 20
8.9670714113
 30
0.0
 10
11.3173414479
 20
8.967365894
 30
0.0
 10
11.3056707246
 20
8.9675568696
 30
0.0
 10
11.2942103552
 20
8.9675999743
 30
0.0
 10
11.2795078404
 20
8.967483753
 30
0.0
 10
11.261920828
 20
8.9670634354
 30
0.0
 10
11.2417643188
 20
8.9662004709
 30
0.0
 10
11.22281095
 20
8.9650687042
 30
0.0
 10
11.2049508585
 20
8.9637276137
 30
0.0
 10
11.1880676487
 20
8.9622196457
 30
0.0
 10
11.1720558658
 20
8.9605755751
 30
0.0
 10
11.1568250348
 20
8.9588181211
 30
0.0
 10
11.1422989146
 20
8.9569645163
 30
0.0
 10
11.1241517776
 20
8.9544337097
 30
0.0
 10
11.102830218
 20
8.9510964142
 30
0.0
 10
11.0823944534
 20
8.9474335522
 30
0.0
 10
11.0669971909
 20
8.9444059566
 30
0.0
 10
11.0526935662
 20
8.9414279176
 30
0.0
 10
11.0389279971
 20
8.9383239771
 30
0.0
 10
11.0256851425
 20
8.935090741
 30
0.0
 10
11.0133545955
 20
8.9319235252
 30
0.0
 10
11.0014947328
 20
8.9286455991
 30
0.0
 10
10.9901023967
 20
8.9252489767
 30
0.0
 10
10.9820270468
 20
8.9227213724
 30
0.0
 10
10.9742663052
 20
8.9201715121
 30
0.0
 10
10.9668164935
 20
8.9175948471
 30
0.0
 10
10.9596746019
 20
8.9149878878
 30
0.0
 10
10.9528412918
 20
8.9123477619
 30
0.0
 10
10.9463137131
 20
8.9096926775
 30
0.0
 10
10.9420772918
 20
8.9078882017
 30
0.0
 10
10.9400095242
 20
8.9069886459
 30
0.0
  0
SPLINE
  5
31A
100
AcDbEntity
  8
0
100
AcDbSpline
 62
7
  6
CONTINUOUS
 70
0
 71
3
 72
23
 73
19
 74
0
 42
0.0000001
 43
0.0000001
 44
0.0000000001
 40
0.0
 40
0.0
 40
0.0
 40
0.0
 40
0.0612039161
 40
0.1226591271
 40
0.1843565342
 40
0.246288281
 40
0.3084398212
 40
0.3707944176
 40
0.4333318001
 40
0.4960290272
 40
0.5588607106
 40
0.6217994407
 40
0.6848162395
 40
0.7478808484
 40
0.8109627234
 40
0.8740298009
 40
0.9370533405
 40
1.0
 40
1.0
 40
1.0
 40
1.0
 10
11.3592995263
 20
8.9577060192
 30
0.0
 10
11.3541516292
 20
8.9580630271
 30
0.0
 10
11.3438088546
 20
8.958448595
 30
0.0
 10
11.328260764
 20
8.9580435739
 30
0.0
 10
11.3127070848
 20
8.9566581332
 30
0.0
 10
11.2972120964
 20
8.954298141
 30
0.0
 10
11.28183852
 20
8.9509731568
 30
0.0
 10
11.2666490147
 20
8.9466968563
 30
0.0
 10
11.251705345
 20
8.9414866669
 30
0.0
 10
11.2370683081
 20
8.9353638511
 30
0.0
 10
11.2227974427
 20
8.9283533547
 30
0.0
 10
11.2089507881
 20
8.9204837422
 30
0.0
 10
11.1955846753
 20
8.911787055
 30
0.0
 10
11.1827534232
 20
8.9022986912
 30
0.0
 10
11.170509347
 20
8.8920572867
 30
0.0
 10
11.1589019491
 20
8.8811043491
 30
0.0
 10
11.1479791641
 20
8.8694850025
 30
0.0
 10
11.1411769292
 20
8.8613184034
 30
0.0
 10
11.1379046224
 20
8.8571400849
 30
0.0
  0
SPLINE
  5
31B
100
AcDbEntity
  8
0
100
AcDbSpline
 62
7
  6
CONTINUOUS
 70
0
 71
3
 72
39
 73
35
 74
0
 42
0.0000001
 43
0.0000001
 44
0.0000000001
 40
0.0
 40
0.0
 40
0.0
 40
0.0
 40
0.030881837
 40
0.061892776
 40
0.093024039
 40
0.1242730932
 40
0.1556319904
 40
0.1870920035
 40
0.2186432006
 40
0.2502742234
 40
0.2819726949
 40
0.3137253378
 40
0.3455181589
 40
0.377336626
 40
0.4091658616
 40
0.4409908609
 40
0.4727966741
 40
0.5045685904
 40
0.5362923535
 40
0.5679543567
 40
0.5995418056
 40
0.6310428975
 40
0.6624470116
 40
0.6937448504
 40
0.7249285621
 40
0.7559918846
 40
0.7869302618
 40
0.8177409076
 40
0.848422859
 40
0.8789770417
 40
0.9094062739
 40
0.9397152291
 40
0.9699103911
 40
1.0
 40
1.0
 40
1.0
 40
1.0
 10
12.1394417721
 20
6.7053084319
 30
0.0
 10
12.136402641
 20
6.7055191963
 30
0.0
 10
12.1303228608
 20
6.7061252653
 30
0.0
 10
12.1212568526
 20
6.7075785751
 30
0.0
 10
12.1122569479
 20
6.709573071
 30
0.0
 10
12.1033565892
 20
6.7121011325
 30
0.0
 10
12.0945879011
 20
6.7151537091
 30
0.0
 10
12.085982897
 20
6.7187195606
 30
0.0
 10
12.0775728848
 20
6.7227856535
 30
0.0
 10
12.0693885071
 20
6.7273372129
 30
0.0
 10
12.0614595613
 20
6.7323576235
 30
0.0
 10
12.0538148923
 20
6.7378285539
 30
0.0
 10
12.0464823345
 20
6.7437300787
 30
0.0
 10
12.0394886189
 20
6.7500407371
 30
0.0
 10
12.0328591869
 20
6.7567375123
 30
0.0
 10
12.0266181619
 20
6.7637960028
 30
0.0
 10
12.0207882902
 20
6.7711905241
 30
0.0
 10
12.01539084
 20
6.7788941729
 30
0.0
 10
12.0104454363
 20
6.7868788696
 30
0.0
 10
12.0059700946
 20
6.7951155431
 30
0.0
 10
12.0019811687
 20
6.8035742247
 30
0.0
 10
11.9984932178
 20
6.8122241155
 30
0.0
 10
11.9955189312
 20
6.8210337019
 30
0.0
 10
11.993069177
 20
6.829970908
 30
0.0
 10
11.9911529671
 20
6.8390031957
 30
0.0
 10
11.9897772973
 20
6.848097654
 30
0.0
 10
11.9889471933
 20
6.8572211461
 30
0.0
 10
11.9886657436
 20
6.8663404301
 30
0.0
 10
11.988934071
 20
6.8754222611
 30
0.0
 10
11.9897512006
 20
6.8844335338
 30
0.0
 10
11.9911141782
 20
6.8933413567
 30
0.0
 10
11.9930181618
 20
6.902113348
 30
0.0
 10
11.9954561167
 20
6.9107170434
 30
0.0
 10
11.9974351132
 20
6.9163300251
 30
0.0
 10
11.9985102944
 20
6.9190967317
 30
0.0
  0
SPLINE
  5
31C
100
AcDbEntity
  8
0
100
AcDbSpline
 62
7
  6
CONTINUOUS
 70
0
 71
3
 72
15
 73
11
 74
0
 42
0.0000001
 43
0.0000001
 44
0.0000000001
 40
0.0
 40
0.0
 40
0.0
 40
0.0
 40
0.1264496568
 40
0.2524837348
 40
0.3780759318
 40
0.5032445932
 40
0.6280049412
 40
0.7523699697
 40
0.8763601171
 40
1.0
 40
1.0
 40
1.0
 40
1.0
 10
12.1394417721
 20
6.7053084319
 30
0.0
 10
12.1419263411
 20
6.7051361264
 30
0.0
 10
12.1468966776
 20
6.7049142561
 30
0.0
 10
12.1543460538
 20
6.7049516971
 30
0.0
 10
12.1617592696
 20
6.705360174
 30
0.0
 10
12.1691175655
 20
6.7061385977
 30
0.0
 10
12.1764031503
 20
6.7072849332
 30
0.0
 10
12.1835981448
 20
6.7087966346
 30
0.0
 10
12.1906846191
 20
6.7106697331
 30
0.0
 10
12.1953317999
 20
6.7121586386
 30
0.0
 10
12.1976307932
 20
6.7129616376
 30
0.0
  0
SPLINE
  5
31D
100
AcDbEntity
  8
0
100
AcDbSpline
 62
7
  6
CONTINUOUS
 70
0
 71
3
 72
39
 73
35
 74
0
 42
0.0000001
 43
0.0000001
 44
0.0000000001
 40
0.0
 40
0.0
 40
0.0
 40
0.0
 40
0.0310279638
 40
0.0621994743
 40
0.0935048257
 40
0.1249394771
 40
0.1564927243
 40
0.1881529707
 40
0.2199066982
 40
0.2517387516
 40
0.2836327299
 40
0.3155711772
 40
0.3475359126
 40
0.3795083369
 40
0.4114697234
 40
0.4434015149
 40
0.4752856385
 40
0.5071048169
 40
0.5388428479
 40
0.5704848683
 40
0.6020176212
 40
0.6334297123
 40
0.6647118162
 40
0.6958568502
 40
0.7268601249
 40
0.7577194816
 40
0.7884353606
 40
0.8190108187
 40
0.8494515014
 40
0.8797655889
 40
0.9099636789
 40
0.9400586021
 40
0.9700651886
 40
1.0
 40
1.0
 40
1.0
 40
1.0
 10
11.2135845297
 20
7.9804299165
 30
0.0
 10
11.210761102
 20
7.9806257219
 30
0.0
 10
11.205112598
 20
7.9812085272
 30
0.0
 10
11.1966995271
 20
7.9826455708
 30
0.0
 10
11.1883627582
 20
7.9846413454
 30
0.0
 10
11.1801406815
 20
7.9871864058
 30
0.0
 10
11.1720702108
 20
7.9902694278
 30
0.0
 10
11.1641879345
 20
7.9938763315
 30
0.0
 10
11.1565294574
 20
7.9979907488
 30
0.0
 10
11.1491294077
 20
8.0025940468
 30
0.0
 10
11.1420212506
 20
8.0076653951
 30
0.0
 10
11.135237137
 20
8.0131818565
 30
0.0
 10
11.1288077189
 20
8.0191184422
 30
0.0
 10
11.1227620628
 20
8.025448297
 30
0.0
 10
11.117127515
 20
8.032142803
 30
0.0
 10
11.1119295925
 20
8.0391717103
 30
0.0
 10
11.1071917954
 20
8.0465032196
 30
0.0
 10
11.1029355544
 20
8.0541041762
 30
0.0
 10
11.0991801459
 20
8.0619402184
 30
0.0
 10
11.0959426179
 20
8.0699759288
 30
0.0
 10
11.0932376569
 20
8.0781749673
 30
0.0
 10
11.0910775172
 20
8.0865002437
 30
0.0
 10
11.0894720234
 20
8.0949141028
 30
0.0
 10
11.088428518
 20
8.1033784813
 30
0.0
 10
11.087951817
 20
8.1118550717
 30
0.0
 10
11.0880441116
 20
8.1203054951
 30
0.0
 10
11.0887050465
 20
8.1286914846
 30
0.0
 10
11.0899317087
 20
8.1369750499
 30
0.0
 10
11.0917186489
 20
8.1451186359
 30
0.0
 10
11.094057825
 20
8.1530853257
 30
0.0
 10
11.0969386534
 20
8.1608389558
 30
0.0
 10
11.1003482213
 20
8.1683444641
 30
0.0
 10
11.1042708118
 20
8.1755673184
 30
0.0
 10
11.1072198139
 20
8.1801779572
 30
0.0
 10
11.10877271
 20
8.1824238712
 30
0.0
  0
SPLINE
  5
31E
100
AcDbEntity
  8
0
100
AcDbSpline
 62
7
  6
CONTINUOUS
 70
0
 71
3
 72
15
 73
11
 74
0
 42
0.0000001
 43
0.0000001
 44
0.0000000001
 40
0.0
 40
0.0
 40
0.0
 40
0.0
 40
0.1271103746
 40
0.2535493218
 40
0.3793254863
 40
0.5044776385
 40
0.629051597
 40
0.7531110204
 40
0.8767314493
 40
1.0
 40
1.0
 40
1.0
 40
1.0
 10
11.2135845297
 20
7.9804299165
 30
0.0
 10
11.2167976106
 20
7.9802070886
 30
0.0
 10
11.2232266015
 20
7.9800074933
 30
0.0
 10
11.2328370769
 20
7.9804538219
 30
0.0
 10
11.2423347169
 20
7.9816441758
 30
0.0
 10
11.2516623799
 20
7.9835714957
 30
0.0
 10
11.2607649501
 20
7.9862245921
 30
0.0
 10
11.2695884931
 20
7.9895878938
 30
0.0
 10
11.2780799101
 20
7.9936411485
 30
0.0
 10
11.2834938517
 20
7.9967920603
 30
0.0
 10
11.2861265523
 20
7.998472786
 30
0.0
  0
SPLINE
  5
31F
100
AcDbEntity
  8
0
100
AcDbSpline
 62
7
  6
CONTINUOUS
 70
0
 71
3
 72
39
 73
35
 74
0
 42
0.0000001
 43
0.0000001
 44
0.0000000001
 40
0.0
 40
0.0
 40
0.0
 40
0.0
 40
0.0311449917
 40
0.0624431057
 40
0.0938883404
 40
0.1254709744
 40
0.1571788692
 40
0.1889972397
 40
0.22090915
 40
0.2528958136
 40
0.2849369888
 40
0.3170113756
 40
0.3490970326
 40
0.3811718011
 40
0.4132137322
 40
0.4452015112
 40
0.4771148736
 40
0.5089350068
 40
0.5406449308
 40
0.5722298519
 40
0.6036774839
 40
0.6349783272
 40
0.6661259021
 40
0.6971169269
 40
0.7279514343
 40
0.7586328219
 40
0.789167828
 40
0.8195664326
 40
0.8498416785
 40
0.8800094145
 40
0.9100879636
 40
0.9400977218
 40
0.9700606971
 40
1.0
 40
1.0
 40
1.0
 40
1.0
 10
9.6418051543
 20
9.1032711743
 30
0.0
 10
9.6348234215
 20
9.1037553591
 30
0.0
 10
9.6208558756
 20
9.1052371418
 30
0.0
 10
9.6000738912
 20
9.108969798
 30
0.0
 10
9.5795144949
 20
9.1141981257
 30
0.0
 10
9.5592887349
 20
9.1208940244
 30
0.0
 10
9.5395040573
 20
9.1290215859
 30
0.0
 10
9.5202659975
 20
9.1385373489
 30
0.0
 10
9.5016770394
 20
9.1493904534
 30
0.0
 10
9.4838362355
 20
9.161522955
 30
0.0
 10
9.4668386407
 20
9.1748701142
 30
0.0
 10
9.4507748249
 20
9.1893607462
 30
0.0
 10
9.4357303922
 20
9.2049175948
 30
0.0
 10
9.4217855304
 20
9.2214577417
 30
0.0
 10
9.4090145876
 20
9.2388930432
 30
0.0
 10
9.3974856792
 20
9.2571305955
 30
0.0
 10
9.3872603284
 20
9.2760732243
 30
0.0
 10
9.3783931377
 20
9.2956199955
 30
0.0
 10
9.3709315002
 20
9.3156667476
 30
0.0
 10
9.3649153468
 20
9.3361066394
 30
0.0
 10
9.3603769323
 20
9.3568307124
 30
0.0
 10
9.3573406595
 20
9.377728463
 30
0.0
 10
9.355822944
 20
9.3986884244
 30
0.0
 10
9.3558321195
 20
9.4195987534
 30
0.0
 10
9.357368384
 20
9.4403478212
 30
0.0
 10
9.3604237874
 20
9.4608248043
 30
0.0
 10
9.3649822604
 20
9.4809202737
 30
0.0
 10
9.3710196885
 20
9.5005267827
 30
0.0
 10
9.3785040178
 20
9.5195394358
 30
0.0
 10
9.3873954482
 20
9.5378564927
 30
0.0
 10
9.3976465012
 20
9.5553797917
 30
0.0
 10
9.4092027652
 20
9.572015783
 30
0.0
 10
9.4220013184
 20
9.5876742093
 30
0.0
 10
9.4313203433
 20
9.597409651
 30
0.0
 10
9.4361591699
 20
9.6020836238
 30
0.0
  0
SPLINE
  5
320
100
AcDbEntity
  8
0
100
AcDbSpline
 62
7
  6
CONTINUOUS
 70
0
 71
3
 72
59
 73
55
 74
0
 42
0.0000001
 43
0.0000001
 44
0.0000000001
 40
0.0
 40
0.0
 40
0.0
 40
0.0
 40
0.0095825228
 40
0.0187370884
 40
0.0274868844
 40
0.0358596439
 40
0.0438878393
 40
0.0516092377
 40
0.0590670239
 40
0.0663097252
 40
0.0733908815
 40
0.0803680914
 40
0.0873018335
 40
0.0942538063
 40
0.1012851949
 40
0.1084549488
 40
0.1158184195
 40
0.123426226
 40
0.1313238131
 40
0.1395511172
 40
0.1481427606
 40
0.1571283813
 40
0.1665329248
 40
0.1763773526
 40
0.1866788245
 40
0.197451407
 40
0.2087063045
 40
0.2204522358
 40
0.2326958756
 40
0.2454418501
 40
0.2586932942
 40
0.2724517285
 40
0.2867174368
 40
0.3014895429
 40
0.3167660205
 40
0.3325440425
 40
0.3488197367
 40
0.3655885849
 40
0.3828452517
 40
0.4005837312
 40
0.4187974677
 40
0.4374791845
 40
0.4762145012
 40
0.5167226169
 40
0.5589283217
 40
0.6027499093
 40
0.6480998265
 40
0.6948852497
 40
0.7430085845
 40
0.7923678683
 40
0.8428575293
 40
0.8943676723
 40
0.946787595
 40
1.0
 40
1.0
 40
1.0
 40
1.0
 10
13.7961837884
 20
8.8914943947
 30
0.0
 10
13.7973357362
 20
8.8925665125
 30
0.0
 10
13.7996385871
 20
8.8946097207
 30
0.0
 10
13.8031718676
 20
8.8974225765
 30
0.0
 10
13.8067015111
 20
8.8999098925
 30
0.0
 10
13.8102255292
 20
8.902070016
 30
0.0
 10
13.8137421893
 20
8.9039013287
 30
0.0
 10
13.8172496009
 20
8.9054023438
 30
0.0
 10
13.8207457909
 20
8.9065716564
 30
0.0
 10
13.8242286372
 20
8.9074078305
 30
0.0
 10
13.827695721
 20
8.907909851
 30
0.0
 10
13.8311444305
 20
8.9080767156
 30
0.0
 10
13.8345719187
 20
8.9079081246
 30
0.0
 10
13.8379752883
 20
8.9074041076
 30
0.0
 10
13.8413517025
 20
8.9065652665
 30
0.0
 10
13.8446985855
 20
8.9053927415
 30
0.0
 10
13.8480135623
 20
8.9038877867
 30
0.0
 10
13.8512946545
 20
8.9020521105
 30
0.0
 10
13.8545399811
 20
8.8998872759
 30
0.0
 10
13.8577479063
 20
8.8973950771
 30
0.0
 10
13.8609168357
 20
8.8945772832
 30
0.0
 10
13.8640451576
 20
8.8914357093
 30
0.0
 10
13.8671313788
 20
8.8879723657
 30
0.0
 10
13.8701738181
 20
8.884189253
 30
0.0
 10
13.8731709549
 20
8.8800886524
 30
0.0
 10
13.8761211122
 20
8.8756729112
 30
0.0
 10
13.8790226726
 20
8.8709446015
 30
0.0
 10
13.8818740359
 20
8.8659064771
 30
0.0
 10
13.8846735092
 20
8.8605614404
 30
0.0
 10
13.8874195618
 20
8.8549126387
 30
0.0
 10
13.8901105179
 20
8.8489633463
 30
0.0
 10
13.8927448573
 20
8.8427170695
 30
0.0
 10
13.895321011
 20
8.8361774708
 30
0.0
 10
13.8978374379
 20
8.8293483977
 30
0.0
 10
13.9002926988
 20
8.8222338871
 30
0.0
 10
13.9026852666
 20
8.8148381286
 30
0.0
 10
13.9050137878
 20
8.8071655074
 30
0.0
 10
13.9072768246
 20
8.7992205583
 30
0.0
 10
13.9094730522
 20
8.7910079915
 30
0.0
 10
13.9116011663
 20
8.7825326786
 30
0.0
 10
13.9136598777
 20
8.7737996353
 30
0.0
 10
13.9163430558
 20
8.7616723251
 30
0.0
 10
13.919505024
 20
8.7459028455
 30
0.0
 10
13.9229599176
 20
8.7262580141
 30
0.0
 10
13.926111223
 20
8.7057168453
 30
0.0
 10
13.9289513624
 20
8.6843281526
 30
0.0
 10
13.931473474
 20
8.6621426504
 30
0.0
 10
13.9336714712
 20
8.6392130233
 30
0.0
 10
13.9355400434
 20
8.6155937494
 30
0.0
 10
13.9370746917
 20
8.5913409387
 30
0.0
 10
13.9382716854
 20
8.5665123354
 30
0.0
 10
13.9391281733
 20
8.5411667769
 30
0.0
 10
13.9396420108
 20
8.5153648198
 30
0.0
 10
13.9397545743
 20
8.4980173962
 30
0.0
 10
13.9397545743
 20
8.4892787288
 30
0.0
  0
SPLINE
  5
321
100
AcDbEntity
  8
0
100
AcDbSpline
 62
7
  6
CONTINUOUS
 70
0
 71
3
 72
39
 73
35
 74
0
 42
0.0000001
 43
0.0000001
 44
0.0000000001
 40
0.0
 40
0.0
 40
0.0
 40
0.0
 40
0.0311449917
 40
0.0624431057
 40
0.0938883404
 40
0.1254709744
 40
0.1571788692
 40
0.1889972397
 40
0.22090915
 40
0.2528958136
 40
0.2849369888
 40
0.3170113756
 40
0.3490970326
 40
0.3811718011
 40
0.4132137322
 40
0.4452015112
 40
0.4771148736
 40
0.5089350068
 40
0.5406449308
 40
0.5722298519
 40
0.6036774839
 40
0.6349783272
 40
0.6661259021
 40
0.6971169269
 40
0.7279514343
 40
0.7586328219
 40
0.789167828
 40
0.8195664326
 40
0.8498416785
 40
0.8800094145
 40
0.9100879636
 40
0.9400977218
 40
0.9700606971
 40
1.0
 40
1.0
 40
1.0
 40
1.0
 10
9.6418051543
 20
6.6884564655
 30
0.0
 10
9.6348234215
 20
6.6889406503
 30
0.0
 10
9.6208558756
 20
6.690422433
 30
0.0
 10
9.6000738912
 20
6.6941550892
 30
0.0
 10
9.5795144949
 20
6.6993834169
 30
0.0
 10
9.5592887349
 20
6.7060793156
 30
0.0
 10
9.5395040573
 20
6.7142068771
 30
0.0
 10
9.5202659975
 20
6.7237226401
 30
0.0
 10
9.5016770394
 20
6.7345757446
 30
0.0
 10
9.4838362355
 20
6.7467082462
 30
0.0
 10
9.4668386407
 20
6.7600554054
 30
0.0
 10
9.4507748249
 20
6.7745460374
 30
0.0
 10
9.4357303922
 20
6.790102886
 30
0.0
 10
9.4217855304
 20
6.8066430329
 30
0.0
 10
9.4090145876
 20
6.8240783343
 30
0.0
 10
9.3974856792
 20
6.8423158867
 30
0.0
 10
9.3872603284
 20
6.8612585155
 30
0.0
 10
9.3783931377
 20
6.8808052867
 30
0.0
 10
9.3709315002
 20
6.9008520388
 30
0.0
 10
9.3649153468
 20
6.9212919306
 30
0.0
 10
9.3603769323
 20
6.9420160036
 30
0.0
 10
9.3573406595
 20
6.9629137542
 30
0.0
 10
9.355822944
 20
6.9838737156
 30
0.0
 10
9.3558321195
 20
7.0047840446
 30
0.0
 10
9.357368384
 20
7.0255331124
 30
0.0
 10
9.3604237874
 20
7.0460100955
 30
0.0
 10
9.3649822604
 20
7.0661055649
 30
0.0
 10
9.3710196885
 20
7.0857120739
 30
0.0
 10
9.3785040178
 20
7.1047247269
 30
0.0
 10
9.3873954482
 20
7.1230417839
 30
0.0
 10
9.3976465012
 20
7.1405650829
 30
0.0
 10
9.4092027652
 20
7.1572010742
 30
0.0
 10
9.4220013184
 20
7.1728595005
 30
0.0
 10
9.4313203433
 20
7.1825949421
 30
0.0
 10
9.4361591699
 20
7.187268915
 30
0.0
  0
SPLINE
  5
322
100
AcDbEntity
  8
0
100
AcDbSpline
 62
7
  6
CONTINUOUS
 70
0
 71
3
 72
24
 73
20
 74
0
 42
0.0000001
 43
0.0000001
 44
0.0000000001
 40
0.0
 40
0.0
 40
0.0
 40
0.0
 40
0.0617213317
 40
0.1237559083
 40
0.1548856026
 40
0.1860775561
 40
0.2173255713
 40
0.248623039
 40
0.2799634926
 40
0.3113399588
 40
0.3741643046
 40
0.4370561368
 40
0.4999681252
 40
0.562858155
 40
0.625689836
 40
0.6884325116
 40
0.7510609248
 40
0.8758528219
 40
1.0
 40
1.0
 40
1.0
 40
1.0
 10
10.5358947265
 20
8.4224441107
 30
0.0
 10
10.5414315246
 20
8.4211831898
 30
0.0
 10
10.5524294996
 20
8.4181748911
 30
0.0
 10
10.5658233331
 20
8.4132598147
 30
0.0
 10
10.5763018518
 20
8.4086594908
 30
0.0
 10
10.5840388013
 20
8.4048790404
 30
0.0
 10
10.5916310602
 20
8.4007836109
 30
0.0
 10
10.5990671598
 20
8.3963842839
 30
0.0
 10
10.6063368753
 20
8.3916932628
 30
0.0
 10
10.6157981194
 20
8.3850641502
 30
0.0
 10
10.6271627161
 20
8.3761116871
 30
0.0
 10
10.6400012778
 20
8.3644143956
 30
0.0
 10
10.6520112006
 20
8.3518603817
 30
0.0
 10
10.6631670111
 20
8.3385504264
 30
0.0
 10
10.6734549628
 20
8.3245794926
 30
0.0
 10
10.68287023
 20
8.3100354557
 30
0.0
 10
10.6942468134
 20
8.2900155605
 30
0.0
 10
10.7063152234
 20
8.2639505284
 30
0.0
 10
10.7137556096
 20
8.2422436481
 30
0.0
 10
10.7169274754
 20
8.231270956
 30
0.0
  0
SPLINE
  5
323
100
AcDbEntity
  8
0
100
AcDbSpline
 62
7
  6
CONTINUOUS
 70
0
 71
3
 72
25
 73
21
 74
0
 42
0.0000001
 43
0.0000001
 44
0.0000000001
 40
0.0
 40
0.0
 40
0.0
 40
0.0
 40
0.0616475324
 40
0.0924812818
 40
0.1233236521
 40
0.1850399988
 40
0.2468243992
 40
0.2777516371
 40
0.3087038682
 40
0.3706878964
 40
0.4328012845
 40
0.4950619149
 40
0.5574860747
 40
0.6200882862
 40
0.6828810671
 40
0.7458751796
 40
0.8090790771
 40
0.8724979014
 40
0.9361399151
 40
1.0
 40
1.0
 40
1.0
 40
1.0
 10
12.9268229355
 20
8.9627316883
 30
0.0
 10
12.9235011935
 20
8.9595231145
 30
0.0
 10
12.9183872153
 20
8.9548424505
 30
0.0
 10
12.9113255136
 20
8.948884082
 30
0.0
 10
12.9041021683
 20
8.9431141056
 30
0.0
 10
12.8947799396
 20
8.9362638498
 30
0.0
 10
12.8850987631
 20
8.9299194181
 30
0.0
 10
12.8771520299
 20
8.9251555828
 30
0.0
 10
12.8690680447
 20
8.9205980696
 30
0.0
 10
12.8587244335
 20
8.9153000464
 30
0.0
 10
12.8459725433
 20
8.9096011763
 30
0.0
 10
12.8329065214
 20
8.9045719329
 30
0.0
 10
12.8195594926
 20
8.9002251085
 30
0.0
 10
12.8059650272
 20
8.8965715887
 30
0.0
 10
12.7921573898
 20
8.893620495
 30
0.0
 10
12.7781713241
 20
8.8913792373
 30
0.0
 10
12.7640421474
 20
8.8898534889
 30
0.0
 10
12.7498050869
 20
8.8890469063
 30
0.0
 10
12.7354967235
 20
8.8889616748
 30
0.0
 10
12.7259495652
 20
8.8893850329
 30
0.0
 10
12.7211769511
 20
8.8897160148
 30
0.0
  0
SPLINE
  5
324
100
AcDbEntity
  8
0
100
AcDbSpline
 62
7
  6
CONTINUOUS
 70
0
 71
3
 72
39
 73
35
 74
0
 42
0.0000001
 43
0.0000001
 44
0.0000000001
 40
0.0
 40
0.0
 40
0.0
 40
0.0
 40
0.0311449917
 40
0.0624431057
 40
0.0938883404
 40
0.1254709744
 40
0.1571788692
 40
0.1889972397
 40
0.22090915
 40
0.2528958136
 40
0.2849369888
 40
0.3170113756
 40
0.3490970326
 40
0.3811718011
 40
0.4132137322
 40
0.4452015112
 40
0.4771148736
 40
0.5089350068
 40
0.5406449308
 40
0.5722298519
 40
0.6036774839
 40
0.6349783272
 40
0.6661259021
 40
0.6971169269
 40
0.7279514343
 40
0.7586328219
 40
0.789167828
 40
0.8195664326
 40
0.8498416785
 40
0.8800094145
 40
0.9100879636
 40
0.9400977218
 40
0.9700606971
 40
1.0
 40
1.0
 40
1.0
 40
1.0
 10
12.7211769511
 20
6.474901306
 30
0.0
 10
12.7141952183
 20
6.4753854908
 30
0.0
 10
12.7002276725
 20
6.4768672735
 30
0.0
 10
12.679445688
 20
6.4805999298
 30
0.0
 10
12.6588862917
 20
6.4858282575
 30
0.0
 10
12.6386605317
 20
6.4925241562
 30
0.0
 10
12.6188758541
 20
6.5006517177
 30
0.0
 10
12.5996377943
 20
6.5101674807
 30
0.0
 10
12.5810488362
 20
6.5210205852
 30
0.0
 10
12.5632080323
 20
6.5331530868
 30
0.0
 10
12.5462104375
 20
6.546500246
 30
0.0
 10
12.5301466217
 20
6.5609908779
 30
0.0
 10
12.515102189
 20
6.5765477266
 30
0.0
 10
12.5011573272
 20
6.5930878734
 30
0.0
 10
12.4883863844
 20
6.6105231749
 30
0.0
 10
12.476857476
 20
6.6287607272
 30
0.0
 10
12.4666321252
 20
6.647703356
 30
0.0
 10
12.4577649345
 20
6.6672501273
 30
0.0
 10
12.450303297
 20
6.6872968793
 30
0.0
 10
12.4442871436
 20
6.7077367712
 30
0.0
 10
12.4397487292
 20
6.7284608442
 30
0.0
 10
12.4367124563
 20
6.7493585948
 30
0.0
 10
12.4351947408
 20
6.7703185562
 30
0.0
 10
12.4352039163
 20
6.7912288852
 30
0.0
 10
12.4367401808
 20
6.8119779529
 30
0.0
 10
12.4397955843
 20
6.832454936
 30
0.0
 10
12.4443540572
 20
6.8525504054
 30
0.0
 10
12.4503914853
 20
6.8721569145
 30
0.0
 10
12.4578758146
 20
6.8911695675
 30
0.0
 10
12.466767245
 20
6.9094866245
 30
0.0
 10
12.477018298
 20
6.9270099235
 30
0.0
 10
12.488574562
 20
6.9436459148
 30
0.0
 10
12.5013731152
 20
6.9593043411
 30
0.0
 10
12.5106921401
 20
6.9690397827
 30
0.0
 10
12.5155309667
 20
6.9737137556
 30
0.0
  0
SPLINE
  5
325
100
AcDbEntity
  8
0
100
AcDbSpline
 62
7
  6
CONTINUOUS
 70
0
 71
3
 72
15
 73
11
 74
0
 42
0.0000001
 43
0.0000001
 44
0.0000000001
 40
0.0
 40
0.0
 40
0.0
 40
0.0
 40
0.1004390509
 40
0.2078599594
 40
0.3225376595
 40
0.4445952287
 40
0.5739325135
 40
0.7101559779
 40
0.85253315
 40
1.0
 40
1.0
 40
1.0
 40
1.0
 10
11.4117998657
 20
8.9583375518
 30
0.0
 10
11.4098369139
 20
8.958724855
 30
0.0
 10
11.4057670221
 20
8.9594885849
 30
0.0
 10
11.399432203
 20
8.9605637132
 30
0.0
 10
11.392654457
 20
8.9615971465
 30
0.0
 10
11.3854282125
 20
8.9625790888
 30
0.0
 10
11.37776131
 20
8.9634986955
 30
0.0
 10
11.3696787806
 20
8.964344112
 30
0.0
 10
11.3612251955
 20
8.9651050005
 30
0.0
 10
11.3554676442
 20
8.9655410586
 30
0.0
 10
11.3525371198
 20
8.9657450095
 30
0.0
  0
SPLINE
  5
326
100
AcDbEntity
  8
0
100
AcDbSpline
 62
7
  6
CONTINUOUS
 70
0
 71
3
 72
25
 73
21
 74
0
 42
0.0000001
 43
0.0000001
 44
0.0000000001
 40
0.0
 40
0.0
 40
0.0
 40
0.0
 40
0.0616475324
 40
0.0924812818
 40
0.1233236521
 40
0.1850399988
 40
0.2468243992
 40
0.2777516371
 40
0.3087038682
 40
0.3706878964
 40
0.4328012845
 40
0.4950619149
 40
0.5574860747
 40
0.6200882862
 40
0.6828810671
 40
0.7458751796
 40
0.8090790771
 40
0.8724979014
 40
0.9361399151
 40
1.0
 40
1.0
 40
1.0
 40
1.0
 10
9.8474511387
 20
9.1762868478
 30
0.0
 10
9.8441293967
 20
9.173078274
 30
0.0
 10
9.8390154185
 20
9.1683976099
 30
0.0
 10
9.8319537168
 20
9.1624392414
 30
0.0
 10
9.8247303715
 20
9.156669265
 30
0.0
 10
9.8154081428
 20
9.1498190092
 30
0.0
 10
9.8057269662
 20
9.1434745775
 30
0.0
 10
9.7977802331
 20
9.1387107423
 30
0.0
 10
9.7896962479
 20
9.134153229
 30
0.0
 10
9.7793526367
 20
9.1288552059
 30
0.0
 10
9.7666007465
 20
9.1231563357
 30
0.0
 10
9.7535347246
 20
9.1181270924
 30
0.0
 10
9.7401876958
 20
9.1137802679
 30
0.0
 10
9.7265932304
 20
9.1101267482
 30
0.0
 10
9.7127855929
 20
9.1071756544
 30
0.0
 10
9.6987995273
 20
9.1049343968
 30
0.0
 10
9.6846703506
 20
9.1034086483
 30
0.0
 10
9.6704332901
 20
9.1026020658
 30
0.0
 10
9.6561249267
 20
9.1025168343
 30
0.0
 10
9.6465777684
 20
9.1029401923
 30
0.0
 10
9.6418051543
 20
9.1032711743
 30
0.0
  0
SPLINE
  5
327
100
AcDbEntity
  8
0
100
AcDbSpline
 62
7
  6
CONTINUOUS
 70
0
 71
3
 72
65
 73
61
 74
0
 42
0.0000001
 43
0.0000001
 44
0.0000000001
 40
0.0
 40
0.0
 40
0.0
 40
0.0
 40
0.0452101927
 40
0.0910010513
 40
0.1371886991
 40
0.1835861507
 40
0.2300058742
 40
0.2762600571
 40
0.3221617787
 40
0.3675259239
 40
0.4121701674
 40
0.4559159554
 40
0.4985895022
 40
0.5400228122
 40
0.5602240273
 40
0.5800553529
 40
0.5994979231
 40
0.6185334196
 40
0.637144134
 40
0.6553130526
 40
0.6730237993
 40
0.6902608414
 40
0.707009362
 40
0.7232555034
 40
0.7389862877
 40
0.7541897856
 40
0.7688551946
 40
0.7829728765
 40
0.7965346271
 40
0.809533628
 40
0.8219648495
 40
0.8338250638
 40
0.8451132732
 40
0.855830963
 40
0.8659825122
 40
0.8755758034
 40
0.8846227048
 40
0.8931400696
 40
0.9011504878
 40
0.9086836016
 40
0.9157772462
 40
0.9224787885
 40
0.9288462102
 40
0.9319270747
 40
0.9349512235
 40
0.9379289194
 40
0.94087095
 40
0.9437885423
 40
0.9466932401
 40
0.9495967481
 40
0.9525107896
 40
0.9554469506
 40
0.9584165283
 40
0.9614304164
 40
0.964498997
 40
0.9708362237
 40
0.9775011049
 40
0.9845526874
 40
0.9920394154
 40
1.0
 40
1.0
 40
1.0
 40
1.0
 10
13.9397545743
 20
8.4892787288
 30
0.0
 10
13.9397545743
 20
8.4773391113
 30
0.0
 10
13.9395416388
 20
8.4533060442
 30
0.0
 10
13.9386027009
 20
8.41708625
 30
0.0
 10
13.9370457679
 20
8.3805738478
 30
0.0
 10
13.9348774829
 20
8.3439263309
 30
0.0
 10
13.9321071995
 20
8.307301771
 30
0.0
 10
13.9287468646
 20
8.2708580848
 30
0.0
 10
13.9248110063
 20
8.2347524245
 30
0.0
 10
13.9203166565
 20
8.199140464
 30
0.0
 10
13.915283282
 20
8.1641757412
 30
0.0
 10
13.9097327116
 20
8.1300089298
 30
0.0
 10
13.9036890122
 20
8.0967873811
 30
0.0
 10
13.898218522
 20
8.0697869794
 30
0.0
 10
13.8936074558
 20
8.0487721286
 30
0.0
 10
13.8900718348
 20
8.0334680266
 30
0.0
 10
13.8864336545
 20
8.0185046169
 30
0.0
 10
13.8826968211
 20
8.0038980178
 30
0.0
 10
13.8788653701
 20
7.9896639778
 30
0.0
 10
13.8749434758
 20
7.9758178332
 30
0.0
 10
13.8709353333
 20
7.9623745061
 30
0.0
 10
13.8668453353
 20
7.9493484691
 30
0.0
 10
13.8626778496
 20
7.9367537528
 30
0.0
 10
13.8584374309
 20
7.924603903
 30
0.0
 10
13.8541286366
 20
7.9129119889
 30
0.0
 10
13.8497561298
 20
7.9016905729
 30
0.0
 10
13.8453246562
 20
7.8909516954
 30
0.0
 10
13.8408389545
 20
7.880706879
 30
0.0
 10
13.8363039249
 20
7.8709670722
 30
0.0
 10
13.8317243744
 20
7.8617426971
 30
0.0
 10
13.8271052855
 20
7.8530435579
 30
0.0
 10
13.8224515387
 20
7.844878906
 30
0.0
 10
13.8177681021
 20
7.8372573632
 30
0.0
 10
13.813059905
 20
7.8301869413
 30
0.0
 10
13.808331798
 20
7.8236750547
 30
0.0
 10
13.8035886627
 20
7.8177284347
 30
0.0
 10
13.7988351179
 20
7.8123532952
 30
0.0
 10
13.7940758063
 20
7.8075551501
 30
0.0
 10
13.7893149789
 20
7.8033391239
 30
0.0
 10
13.7845568548
 20
7.7997098375
 30
0.0
 10
13.7798051632
 20
7.7966717033
 30
0.0
 10
13.7750642967
 20
7.794229247
 30
0.0
 10
13.7710816387
 20
7.7926769678
 30
0.0
 10
13.7679189711
 20
7.7917507485
 30
0.0
 10
13.7655795083
 20
7.7912143236
 30
0.0
 10
13.7632476221
 20
7.790828887
 30
0.0
 10
13.7609239439
 20
7.7905946171
 30
0.0
 10
13.7586092123
 20
7.7905116856
 30
0.0
 10
13.756304162
 20
7.7905800976
 30
0.0
 10
13.7540095293
 20
7.7907998421
 30
0.0
 10
13.7517260583
 20
7.7911708911
 30
0.0
 10
13.74945447
 20
7.7916930766
 30
0.0
 10
13.7471954723
 20
7.7923661389
 30
0.0
 10
13.7449496825
 20
7.7931898751
 30
0.0
 10
13.7419420399
 20
7.7945024819
 30
0.0
 10
13.7382069591
 20
7.7965379696
 30
0.0
 10
13.7338415713
 20
7.7995513145
 30
0.0
 10
13.7295472466
 20
7.8031565959
 30
0.0
 10
13.7253280457
 20
7.8073486045
 30
0.0
 10
13.7226523427
 20
7.8104331395
 30
0.0
 10
13.7213258401
 20
7.8120641343
 30
0.0
  0
SPLINE
  5
328
100
AcDbEntity
  8
0
100
AcDbSpline
 62
7
  6
CONTINUOUS
 70
0
 71
3
 72
40
 73
36
 74
0
 42
0.0000001
 43
0.0000001
 44
0.0000000001
 40
0.0
 40
0.0
 40
0.0
 40
0.0
 40
0.0311444947
 40
0.0624430116
 40
0.0938878326
 40
0.1254704216
 40
0.1571781344
 40
0.1889963661
 40
0.2209081245
 40
0.2528946404
 40
0.2689119976
 40
0.2849403504
 40
0.3170145907
 40
0.3491001014
 40
0.3811747228
 40
0.4132165051
 40
0.4452041336
 40
0.4771173445
 40
0.5089373259
 40
0.5406470987
 40
0.5722318701
 40
0.6036793542
 40
0.6349800517
 40
0.6661274822
 40
0.697118363
 40
0.7279527258
 40
0.7586339677
 40
0.7891688275
 40
0.8195672855
 40
0.8498423851
 40
0.8800099759
 40
0.9100883815
 40
0.9400979984
 40
0.9700608344
 40
1.0
 40
1.0
 40
1.0
 40
1.0
 10
12.0566197479
 20
6.6253084949
 30
0.0
 10
12.0529402242
 20
6.6255636708
 30
0.0
 10
12.0455789233
 20
6.6263446341
 30
0.0
 10
12.0346262448
 20
6.6283118008
 30
0.0
 10
12.0237908459
 20
6.6310673313
 30
0.0
 10
12.0131313266
 20
6.6345962271
 30
0.0
 10
12.0027042666
 20
6.6388796873
 30
0.0
 10
11.992565238
 20
6.6438947847
 30
0.0
 10
11.9827685107
 20
6.6496145495
 30
0.0
 10
11.9749358166
 20
6.6549411549
 30
0.0
 10
11.9688912906
 20
6.6595223623
 30
0.0
 10
11.9629987804
 20
6.6643140076
 30
0.0
 10
11.9559413909
 20
6.6706802021
 30
0.0
 10
11.9480127274
 20
6.6788789654
 30
0.0
 10
11.940663368
 20
6.6875961221
 30
0.0
 10
11.9339327537
 20
6.6967850056
 30
0.0
 10
11.9278567123
 20
6.706396708
 30
0.0
 10
11.9224676849
 20
6.7163799998
 30
0.0
 10
11.9177944427
 20
6.7266816901
 30
0.0
 10
11.9138619644
 20
6.7372468825
 30
0.0
 10
11.9106912948
 20
6.7480192695
 30
0.0
 10
11.9082994336
 20
6.7589414275
 30
0.0
 10
11.9066992433
 20
6.7699551183
 30
0.0
 10
11.905899377
 20
6.7810015957
 30
0.0
 10
11.9059042292
 20
6.7920219146
 30
0.0
 10
11.9067139048
 20
6.8029572423
 30
0.0
 10
11.9083242109
 20
6.8137491713
 30
0.0
 10
11.9107266766
 20
6.8243400295
 30
0.0
 10
11.9139085913
 20
6.83467319
 30
0.0
 10
11.9178530605
 20
6.8446933708
 30
0.0
 10
11.9225391082
 20
6.8543469527
 30
0.0
 10
11.9279417114
 20
6.8635822025
 30
0.0
 10
11.9340321952
 20
6.8723498166
 30
0.0
 10
11.9407773976
 20
6.8806022282
 30
0.0
 10
11.9456887934
 20
6.8857330614
 30
0.0
 10
11.9482389913
 20
6.8881963708
 30
0.0
  0
SPLINE
  5
329
100
AcDbEntity
  8
0
100
AcDbSpline
 62
7
  6
CONTINUOUS
 70
0
 71
3
 72
27
 73
23
 74
0
 42
0.0000001
 43
0.0000001
 44
0.0000000001
 40
0.0
 40
0.0
 40
0.0
 40
0.0
 40
0.0654545675
 40
0.1333233588
 40
0.2030869323
 40
0.2741793842
 40
0.3459951329
 40
0.4178972061
 40
0.4892267622
 40
0.5593130788
 40
0.6274851535
 40
0.6930831891
 40
0.7554702369
 40
0.7852700593
 40
0.8140451339
 40
0.8682526905
 40
0.8935602499
 40
0.9175934764
 40
0.9402997616
 40
0.9616309822
 40
0.9815451118
 40
1.0
 40
1.0
 40
1.0
 40
1.0
 10
11.1607301223
 20
8.6139874343
 30
0.0
 10
11.159997215
 20
8.6192660612
 30
0.0
 10
11.1585792664
 20
8.6300284792
 30
0.0
 10
11.1565979129
 20
8.6464447651
 30
0.0
 10
11.1547081504
 20
8.6633337689
 30
0.0
 10
11.1529014354
 20
8.6805549436
 30
0.0
 10
11.1511714345
 20
8.697958938
 30
0.0
 10
11.1495141835
 20
8.7153893757
 30
0.0
 10
11.147928237
 20
8.7326850347
 30
0.0
 10
11.1464148142
 20
8.7496823066
 30
0.0
 10
11.1449778074
 20
8.7662178375
 30
0.0
 10
11.1436238241
 20
8.7821313229
 30
0.0
 10
11.142556651
 20
8.7949336626
 30
0.0
 10
11.1417527126
 20
8.8047494319
 30
0.0
 10
11.1410129601
 20
8.8139022534
 30
0.0
 10
11.1403181269
 20
8.8226917566
 30
0.0
 10
11.1396755769
 20
8.8310980716
 30
0.0
 10
11.1392407306
 20
8.836947958
 30
0.0
 10
11.1388440555
 20
8.8424760217
 30
0.0
 10
11.1384878873
 20
8.8476707336
 30
0.0
 10
11.1381746742
 20
8.8525213964
 30
0.0
 10
11.1379889678
 20
8.8556398703
 30
0.0
 10
11.1379046224
 20
8.8571400849
 30
0.0
  0
SPLINE
  5
32A
100
AcDbEntity
  8
0
100
AcDbSpline
 62
7
  6
CONTINUOUS
 70
0
 71
3
 72
25
 73
21
 74
0
 42
0.0000001
 43
0.0000001
 44
0.0000000001
 40
0.0
 40
0.0
 40
0.0
 40
0.0
 40
0.0616475324
 40
0.0924812818
 40
0.1233236521
 40
0.1850399988
 40
0.2468243992
 40
0.2777516371
 40
0.3087038682
 40
0.3706878964
 40
0.4328012845
 40
0.4950619149
 40
0.5574860747
 40
0.6200882862
 40
0.6828810671
 40
0.7458751796
 40
0.8090790771
 40
0.8724979014
 40
0.9361399151
 40
1.0
 40
1.0
 40
1.0
 40
1.0
 10
9.8474511387
 20
6.7614721389
 30
0.0
 10
9.8441293967
 20
6.7582635652
 30
0.0
 10
9.8390154185
 20
6.7535829011
 30
0.0
 10
9.8319537168
 20
6.7476245326
 30
0.0
 10
9.8247303715
 20
6.7418545562
 30
0.0
 10
9.8154081428
 20
6.7350043004
 30
0.0
 10
9.8057269662
 20
6.7286598687
 30
0.0
 10
9.7977802331
 20
6.7238960335
 30
0.0
 10
9.7896962479
 20
6.7193385202
 30
0.0
 10
9.7793526367
 20
6.7140404971
 30
0.0
 10
9.7666007465
 20
6.7083416269
 30
0.0
 10
9.7535347246
 20
6.7033123836
 30
0.0
 10
9.7401876958
 20
6.6989655591
 30
0.0
 10
9.7265932304
 20
6.6953120394
 30
0.0
 10
9.7127855929
 20
6.6923609456
 30
0.0
 10
9.6987995273
 20
6.690119688
 30
0.0
 10
9.6846703506
 20
6.6885939395
 30
0.0
 10
9.6704332901
 20
6.687787357
 30
0.0
 10
9.6561249267
 20
6.6877021255
 30
0.0
 10
9.6465777684
 20
6.6881254835
 30
0.0
 10
9.6418051543
 20
6.6884564655
 30
0.0
  0
SPLINE
  5
32B
100
AcDbEntity
  8
0
100
AcDbSpline
 62
7
  6
CONTINUOUS
 70
0
 71
3
 72
63
 73
59
 74
0
 42
0.0000001
 43
0.0000001
 44
0.0000000001
 40
0.0
 40
0.0
 40
0.0
 40
0.0
 40
0.0152130942
 40
0.0303925153
 40
0.0455400773
 40
0.0606613609
 40
0.0757609161
 40
0.0908434932
 40
0.1059142162
 40
0.1209782275
 40
0.1360407213
 40
0.1511068804
 40
0.16618182
 40
0.1812705369
 40
0.19637784
 40
0.2115083232
 40
0.226666319
 40
0.2418558408
 40
0.2570805725
 40
0.2723438337
 40
0.2876485401
 40
0.3029972083
 40
0.3183919332
 40
0.3338343677
 40
0.3493257385
 40
0.3648668356
 40
0.3804580085
 40
0.3960991885
 40
0.4117898887
 40
0.4275292129
 40
0.4433158796
 40
0.4591482327
 40
0.4909338297
 40
0.5228738778
 40
0.5549436197
 40
0.5871143455
 40
0.6193541982
 40
0.6516290263
 40
0.6839033183
 40
0.7161411877
 40
0.7322392745
 40
0.7483151938
 40
0.7643648202
 40
0.7803842237
 40
0.7963696867
 40
0.8123177344
 40
0.8282251938
 40
0.8440892076
 40
0.8599072675
 40
0.8756772644
 40
0.8913974967
 40
0.9070666999
 40
0.9226840858
 40
0.9382493408
 40
0.9537626217
 40
0.9692246499
 40
0.9846366503
 40
1.0
 40
1.0
 40
1.0
 40
1.0
 10
11.4111528959
 20
7.1556727938
 30
0.0
 10
11.4097796384
 20
7.1521905716
 30
0.0
 10
11.4068587073
 20
7.1453022933
 30
0.0
 10
11.4019606908
 20
7.1352190483
 30
0.0
 10
11.3965623106
 20
7.1254200062
 30
0.0
 10
11.3906769716
 20
7.1159286526
 30
0.0
 10
11.3843188118
 20
7.1067667392
 30
0.0
 10
11.3775032935
 20
7.0979554829
 30
0.0
 10
11.3702469499
 20
7.0895150912
 30
0.0
 10
11.3625674419
 20
7.0814646471
 30
0.0
 10
11.3544833949
 20
7.0738221773
 30
0.0
 10
11.3460142732
 20
7.0666046669
 30
0.0
 10
11.3371804784
 20
7.0598278328
 30
0.0
 10
11.328003147
 20
7.0535062226
 30
0.0
 10
11.3185040352
 20
7.0476532817
 30
0.0
 10
11.3087055933
 20
7.0422811134
 30
0.0
 10
11.2986307829
 20
7.0374006133
 30
0.0
 10
11.2883029782
 20
7.0330215621
 30
0.0
 10
11.277746012
 20
7.0291523802
 30
0.0
 10
11.2669840188
 20
7.025800301
 30
0.0
 10
11.2560413645
 20
7.0229714676
 30
0.0
 10
11.2449426617
 20
7.0206706844
 30
0.0
 10
11.2337126449
 20
7.018901634
 30
0.0
 10
11.2223761298
 20
7.0176669518
 30
0.0
 10
11.210957997
 20
7.0169679819
 30
0.0
 10
11.1994831069
 20
7.0168050394
 30
0.0
 10
11.1879762789
 20
7.0171774329
 30
0.0
 10
11.1764622512
 20
7.0180832454
 30
0.0
 10
11.1649656136
 20
7.0195196375
 30
0.0
 10
11.1535109066
 20
7.0214827553
 30
0.0
 10
11.1421221138
 20
7.0239677319
 30
0.0
 10
11.1270398572
 20
7.0279735073
 30
0.0
 10
11.1084715572
 20
7.0342592709
 30
0.0
 10
11.0868687532
 20
7.0437608851
 30
0.0
 10
11.0660911013
 20
7.0551522081
 30
0.0
 10
11.0463153763
 20
7.0683383377
 30
0.0
 10
11.0277100137
 20
7.0832108743
 30
0.0
 10
11.010435806
 20
7.0996481195
 30
0.0
 10
10.9946454212
 20
7.1175139466
 30
0.0
 10
10.982833133
 20
7.1334815153
 30
0.0
 10
10.9742623099
 20
7.1468177605
 30
0.0
 10
10.9682906331
 20
7.1570757383
 30
0.0
 10
10.9627877934
 20
7.1675705972
 30
0.0
 10
10.9577670369
 20
7.1782799756
 30
0.0
 10
10.9532409098
 20
7.1891805734
 30
0.0
 10
10.9492207571
 20
7.2002485014
 30
0.0
 10
10.9457169897
 20
7.2114593276
 30
0.0
 10
10.9427389203
 20
7.2227880995
 30
0.0
 10
10.9402945689
 20
7.2342093599
 30
0.0
 10
10.9383908635
 20
7.2456972744
 30
0.0
 10
10.9370334945
 20
7.2572256541
 30
0.0
 10
10.9362267176
 20
7.2687680169
 30
0.0
 10
10.935973575
 20
7.2802976908
 30
0.0
 10
10.9362757708
 20
7.2917878708
 30
0.0
 10
10.9371334498
 20
7.3032116839
 30
0.0
 10
10.9385455043
 20
7.3145424322
 30
0.0
 10
10.9405093411
 20
7.3257529844
 30
0.0
 10
10.9421863742
 20
7.3331411274
 30
0.0
 10
10.9431154655
 20
7.3368053659
 30
0.0
  0
SPLINE
  5
32C
100
AcDbEntity
  8
0
100
AcDbSpline
 62
7
  6
CONTINUOUS
 70
0
 71
3
 72
25
 73
21
 74
0
 42
0.0000001
 43
0.0000001
 44
0.0000000001
 40
0.0
 40
0.0
 40
0.0
 40
0.0
 40
0.0616475324
 40
0.0924812818
 40
0.1233236521
 40
0.1850399988
 40
0.2468243992
 40
0.2777516371
 40
0.3087038682
 40
0.3706878964
 40
0.4328012845
 40
0.4950619149
 40
0.5574860747
 40
0.6200882862
 40
0.6828810671
 40
0.7458751796
 40
0.8090790771
 40
0.8724979014
 40
0.9361399151
 40
1.0
 40
1.0
 40
1.0
 40
1.0
 10
12.9268229355
 20
6.5479169795
 30
0.0
 10
12.9235011935
 20
6.5447084057
 30
0.0
 10
12.9183872153
 20
6.5400277417
 30
0.0
 10
12.9113255136
 20
6.5340693731
 30
0.0
 10
12.9041021683
 20
6.5282993968
 30
0.0
 10
12.8947799396
 20
6.521449141
 30
0.0
 10
12.8850987631
 20
6.5151047093
 30
0.0
 10
12.8771520299
 20
6.510340874
 30
0.0
 10
12.8690680447
 20
6.5057833608
 30
0.0
 10
12.8587244335
 20
6.5004853376
 30
0.0
 10
12.8459725433
 20
6.4947864675
 30
0.0
 10
12.8329065214
 20
6.4897572241
 30
0.0
 10
12.8195594926
 20
6.4854103997
 30
0.0
 10
12.8059650272
 20
6.4817568799
 30
0.0
 10
12.7921573898
 20
6.4788057862
 30
0.0
 10
12.7781713241
 20
6.4765645285
 30
0.0
 10
12.7640421474
 20
6.4750387801
 30
0.0
 10
12.7498050869
 20
6.4742321975
 30
0.0
 10
12.7354967235
 20
6.474146966
 30
0.0
 10
12.7259495652
 20
6.4745703241
 30
0.0
 10
12.7211769511
 20
6.474901306
 30
0.0
  0
SPLINE
  5
32D
100
AcDbEntity
  8
0
100
AcDbSpline
 62
7
  6
CONTINUOUS
 70
0
 71
3
 72
46
 73
42
 74
0
 42
0.0000001
 43
0.0000001
 44
0.0000000001
 40
0.0
 40
0.0
 40
0.0
 40
0.0
 40
0.03225807
 40
0.0644094068
 40
0.0964522831
 40
0.1283859678
 40
0.1919079226
 40
0.2235176325
 40
0.255022527
 40
0.3177096142
 40
0.3489171179
 40
0.3800329689
 40
0.4110619875
 40
0.4420096959
 40
0.4728825079
 40
0.5036879202
 40
0.5344346919
 40
0.565132987
 40
0.59579462
 40
0.6264333482
 40
0.6570651056
 40
0.6877081949
 40
0.7183833944
 40
0.7337429984
 40
0.7491197435
 40
0.7645166679
 40
0.7799373112
 40
0.7953848603
 40
0.8108629351
 40
0.8263747732
 40
0.8419238049
 40
0.8575131863
 40
0.8731458542
 40
0.8888246223
 40
0.904551688
 40
0.9203290815
 40
0.936158281
 40
0.9520398515
 40
0.9679741893
 40
0.9839622099
 40
1.0
 40
1.0
 40
1.0
 40
1.0
 10
10.2589850712
 20
8.0149232483
 30
0.0
 10
10.2572337298
 20
8.0209818052
 30
0.0
 10
10.2540626977
 20
8.0331757013
 30
0.0
 10
10.2502813424
 20
8.0516576245
 30
0.0
 10
10.2474636595
 20
8.0702474858
 30
0.0
 10
10.2449736052
 20
8.0950572845
 30
0.0
 10
10.2443330744
 20
8.1199386866
 30
0.0
 10
10.2455087274
 20
8.1446766771
 30
0.0
 10
10.247869104
 20
8.1691657679
 30
0.0
 10
10.2519992982
 20
8.1933790386
 30
0.0
 10
10.2578842037
 20
8.2171080246
 30
0.0
 10
10.2631602005
 20
8.2345882044
 30
0.0
 10
10.2693016135
 20
8.2517291541
 30
0.0
 10
10.2763072087
 20
8.2684844882
 30
0.0
 10
10.2841764228
 20
8.2848039055
 30
0.0
 10
10.2929092462
 20
8.3006337261
 30
0.0
 10
10.3025056933
 20
8.3159158654
 30
0.0
 10
10.3129652058
 20
8.3305871729
 30
0.0
 10
10.3242858293
 20
8.3445787134
 30
0.0
 10
10.336463088
 20
8.3578150704
 30
0.0
 10
10.3494889162
 20
8.3702139237
 30
0.0
 10
10.3633489486
 20
8.3816850882
 30
0.0
 10
10.3755735948
 20
8.3903880473
 30
0.0
 10
10.3857378633
 20
8.3967831764
 30
0.0
 10
10.3935552428
 20
8.4012864849
 30
0.0
 10
10.4015564183
 20
8.4054802535
 30
0.0
 10
10.4097345143
 20
8.4093504187
 30
0.0
 10
10.4180813479
 20
8.4128829927
 30
0.0
 10
10.4265876515
 20
8.4160637449
 30
0.0
 10
10.4352428343
 20
8.418878886
 30
0.0
 10
10.4440350007
 20
8.4213148063
 30
0.0
 10
10.4529508808
 20
8.423358461
 30
0.0
 10
10.4619757757
 20
8.4249977514
 30
0.0
 10
10.4710936398
 20
8.4262211957
 30
0.0
 10
10.4802870422
 20
8.4270190071
 30
0.0
 10
10.4895373406
 20
8.4273824989
 30
0.0
 10
10.4988247151
 20
8.4273047419
 30
0.0
 10
10.5081283924
 20
8.4267810156
 30
0.0
 10
10.5174271792
 20
8.4258081491
 30
0.0
 10
10.5266985308
 20
8.4243855306
 30
0.0
 10
10.5328375367
 20
8.4231403388
 30
0.0
 10
10.5358947265
 20
8.4224441107
 30
0.0
  0
SPLINE
  5
32E
100
AcDbEntity
  8
0
100
AcDbSpline
 62
7
  6
CONTINUOUS
 70
0
 71
3
 72
9
 73
5
 74
0
 42
0.0000001
 43
0.0000001
 44
0.0000000001
 40
0.0
 40
0.0
 40
0.0
 40
0.0
 40
0.5172055157
 40
1.0
 40
1.0
 40
1.0
 40
1.0
 10
11.1379046224
 20
8.8571400849
 30
0.0
 10
11.1378287348
 20
8.8584898639
 30
0.0
 10
11.1376009969
 20
8.8610960809
 30
0.0
 10
11.1371706577
 20
8.8636781329
 30
0.0
 10
11.1369031871
 20
8.8649114268
 30
0.0
  0
SPLINE
  5
32F
100
AcDbEntity
  8
0
100
AcDbSpline
 62
7
  6
CONTINUOUS
 70
0
 71
3
 72
23
 73
19
 74
0
 42
0.0000001
 43
0.0000001
 44
0.0000000001
 40
0.0
 40
0.0
 40
0.0
 40
0.0
 40
0.0616482156
 40
0.1233194448
 40
0.1850364824
 40
0.2468215709
 40
0.3086962096
 40
0.3706809325
 40
0.432795002
 40
0.4950563289
 40
0.5574812109
 40
0.6200840208
 40
0.6828775523
 40
0.7458726718
 40
0.8090764916
 40
0.8724961142
 40
0.9361412363
 40
1.0
 40
1.0
 40
1.0
 40
1.0
 10
12.1650005045
 20
6.6637894948
 30
0.0
 10
12.1632498596
 20
6.6620984966
 30
0.0
 10
12.1596561875
 20
6.6588093724
 30
0.0
 10
12.1540072363
 20
6.6541715628
 30
0.0
 10
12.1481129909
 20
6.6498402912
 30
0.0
 10
12.141988466
 20
6.6458267201
 30
0.0
 10
12.1356491097
 20
6.6421408002
 30
0.0
 10
12.129110858
 20
6.6387919107
 30
0.0
 10
12.1223902034
 20
6.6357884455
 30
0.0
 10
12.1155041001
 20
6.6331379004
 30
0.0
 10
12.1084698583
 20
6.630847052
 30
0.0
 10
12.1013052355
 20
6.6289215372
 30
0.0
 10
12.0940282476
 20
6.6273662235
 30
0.0
 10
12.0866572401
 20
6.626185093
 30
0.0
 10
12.0792108256
 20
6.6253809236
 30
0.0
 10
12.0717074605
 20
6.6249558413
 30
0.0
 10
12.0641665696
 20
6.6249109787
 30
0.0
 10
12.0591349576
 20
6.6251340646
 30
0.0
 10
12.0566197479
 20
6.6253084949
 30
0.0
  0
SPLINE
  5
330
100
AcDbEntity
  8
0
100
AcDbSpline
 62
7
  6
CONTINUOUS
 70
0
 71
3
 72
19
 73
15
 74
0
 42
0.0000001
 43
0.0000001
 44
0.0000000001
 40
0.0
 40
0.0
 40
0.0
 40
0.0
 40
0.0616586063
 40
0.1233402597
 40
0.1850676991
 40
0.2468632206
 40
0.3706995305
 40
0.4950525397
 40
0.5574879361
 40
0.6201012893
 40
0.6829055283
 40
0.7459112878
 40
0.8725148857
 40
1.0
 40
1.0
 40
1.0
 40
1.0
 10
11.27180784
 20
7.9814970275
 30
0.0
 10
11.2703489748
 20
7.9800878754
 30
0.0
 10
11.2673542654
 20
7.9773469458
 30
0.0
 10
11.262646835
 20
7.973482181
 30
0.0
 10
11.2577348496
 20
7.9698727982
 30
0.0
 10
11.2509263717
 20
7.9654108601
 30
0.0
 10
11.2419587611
 20
7.9605133593
 30
0.0
 10
11.2325032028
 20
7.9565868171
 30
0.0
 10
11.224699255
 20
7.9540453524
 30
0.0
 10
11.2187286661
 20
7.9524407603
 30
0.0
 10
11.2126644733
 20
7.9511446761
 30
0.0
 10
11.2044626467
 20
7.9498303564
 30
0.0
 10
11.1940476701
 20
7.9489763736
 30
0.0
 10
11.1856746506
 20
7.9491398033
 30
0.0
 10
11.1814909951
 20
7.9494299408
 30
0.0
  0
SPLINE
  5
331
100
AcDbEntity
  8
0
100
AcDbSpline
 62
7
  6
CONTINUOUS
 70
0
 71
3
 72
22
 73
18
 74
0
 42
0.0000001
 43
0.0000001
 44
0.0000000001
 40
0.0
 40
0.0
 40
0.0
 40
0.0
 40
0.071612876
 40
0.1404611405
 40
0.2067638597
 40
0.2707937069
 40
0.3328752528
 40
0.3933771197
 40
0.452696326
 40
0.5112542163
 40
0.5694837651
 40
0.6278096533
 40
0.6866434233
 40
0.7463596491
 40
0.8072942358
 40
0.8697399217
 40
1.0
 40
1.0
 40
1.0
 40
1.0
 10
11.1369031871
 20
8.8649114268
 30
0.0
 10
11.1367534981
 20
8.8656016353
 30
0.0
 10
11.13642289
 20
8.8669477948
 30
0.0
 10
11.1358156674
 20
8.868895832
 30
0.0
 10
11.1351052797
 20
8.8707289888
 30
0.0
 10
11.1342904054
 20
8.8724447703
 30
0.0
 10
11.1333706316
 20
8.8740412377
 30
0.0
 10
11.1323454062
 20
8.875516113
 30
0.0
 10
11.1312156311
 20
8.8768677099
 30
0.0
 10
11.1299823966
 20
8.8780941867
 30
0.0
 10
11.1286475601
 20
8.8791939167
 30
0.0
 10
11.1272138975
 20
8.8801660699
 30
0.0
 10
11.1256842748
 20
8.8810095359
 30
0.0
 10
11.1240624184
 20
8.8817241345
 30
0.0
 10
11.1223519983
 20
8.8823097518
 30
0.0
 10
11.1199258889
 20
8.8829271185
 30
0.0
 10
11.1180338912
 20
8.8831819017
 30
0.0
 10
11.116752364
 20
8.8832712613
 30
0.0
  0
ELLIPSE
  5
332
100
AcDbEntity
  8
0
100
AcDbEllipse
 62
7
  6
CONTINUOUS
 10
11.1814909951
 20
8.890241849
 30
0.0
 11
-0.0543000173
 21
0.2754636123
 31
0.0
 40
0.8541864234
 41
0.0
 42
6.2831853072
  0
ELLIPSE
  5
333
100
AcDbEntity
  8
0
100
AcDbEllipse
 62
7
  6
CONTINUOUS
 10
11.8750259471
 20
8.0269034934
 30
0.0
 11
-0.0289134608
 21
0.3196694214
 31
0.0
 40
0.7499755962
 41
0.0
 42
6.2831853072
  0
ENDSEC
  0
SECTION
  2
OBJECTS
  0
DICTIONARY
  5
C
100
AcDbDictionary
280
0
281
1
  3
ACAD_GROUP
350
D
  3
ACAD_MLINESTYLE
350
17
  3
ACAD_LAYOUT
350
1A
  3
ACAD_PLOTSETTINGS
350
19
  3
ACAD_PLOTSTYLENAME
350
E
  3
ACAD_IMAGE_DICT
350
       335
  3
ACAD_IMAGE_VARS
350
       336
  3
ACAD_TABLESTYLE
350
       337
  0
IMAGEDEF_REACTOR
  5
334
100
AcDbRasterImageDefReactor
 90
2
330
284
  0
DICTIONARY
  5
D
102
{ACAD_REACTORS
330
C
102
}
100
AcDbDictionary
280
0
281
1
  0
ACDBDICTIONARYWDFLT
  5
E
102
{ACAD_REACTORS
330
C
102
}
100
AcDbDictionary
281
1
  3
Normal
350
F
100
AcDbDictionaryWithDefault
340
F
  0
DICTIONARY
  5
335
330
C
100
AcDbDictionary
281
1
  3
X8B_assy_2_img_1
350
       33A
  0
RASTERVARIABLES
  5
336
330
C
100
AcDbRasterVariables
 90
0
 70
0
 71
1
 72
5
  0
DICTIONARY
  5
17
102
{ACAD_REACTORS
330
C
102
}
100
AcDbDictionary
280
0
281
1
  3
Standard
350
18
  0
DICTIONARY
  5
337
330
C
100
AcDbDictionary
281
1
  3
Standard
350
       33B
  3
Standard1
350
       33C
  0
DICTIONARY
  5
19
102
{ACAD_REACTORS
330
C
102
}
100
AcDbDictionary
281
1
  0
DICTIONARY
  5
1A
102
{ACAD_REACTORS
330
C
102
}
100
AcDbDictionary
281
1
  3
Model
350
338
  3
Layout1
350
339
  0
ACDBPLACEHOLDER
  5
F
102
{ACAD_REACTORS
330
E
102
}
  0
MLINESTYLE
  5
18
102
{ACAD_REACTORS
330
17
102
}
100
AcDbMlineStyle
  2
STANDARD
 70
0
  3

 62
256
 51
90.0
 52
90.0
 71
2
 49
0.5
 62
256
  6
BYLAYER
 49
-0.5
 62
256
  6
BYLAYER
  0
LAYOUT
  5
338
102
{ACAD_REACTORS
330
1A
102
}
100
AcDbPlotSettings
  1

  2
none_device
  4
ANSI_C_(22.00_x_17.00_Inches)
  6

 40
0.0
 41
0.0
 42
0.0
 43
0.0
 44
558.8
 45
431.8
 46
0.0
 47
0.0
 48
0.0
 49
0.0
140
0.0
141
0.0
142
1.0
143
1.0
 70
1024
 72
0
 73
0
 74
0
  7

 75
0
147
1.0
148
0.0
149
0.0
100
AcDbLayout
  1
Model
 70
0
 71
0
 10
0.0
 20
0.0
 11
22.0
 21
17.0
 12
0.0
 22
0.0
 32
0.0
 14
0.0
 24
0.0
 34
0.0
 15
0.0
 25
0.0
 35
0.0
146
0.0
 13
0.0
 23
0.0
 33
0.0
 16
1.0
 26
0.0
 36
0.0
 17
0.0
 27
1.0
 37
0.0
 76
0
330
20F
345
0
346
0
  0
LAYOUT
  5
339
102
{ACAD_REACTORS
330
1A
102
}
100
AcDbPlotSettings
  1

  2
none_device
  4
ANSI_C_(22.00_x_17.00_Inches)
  6

 40
0.0
 41
0.0
 42
0.0
 43
0.0
 44
558.8
 45
431.8
 46
0.0
 47
0.0
 48
0.0
 49
0.0
140
0.0
141
0.0
142
1.0
143
1.0
 70
0
 72
0
 73
0
 74
0
  7

 75
0
147
1.0
148
0.0
149
0.0
100
AcDbLayout
  1
Layout1
 70
0
 71
1
 10
0.0
 20
0.0
 11
22.0
 21
17.0
 12
0.0
 22
0.0
 32
0.0
 14
0.0
 24
0.0
 34
0.0
 15
0.0
 25
0.0
 35
0.0
146
0.0
 13
0.0
 23
0.0
 33
0.0
 16
1.0
 26
0.0
 36
0.0
 17
0.0
 27
1.0
 37
0.0
 76
0
330
210
345
0
346
0
  0
IMAGEDEF
  5
33A
102
{ACAD_REACTORS
330
335
330
334
102
}
100
AcDbRasterImageDef
 90
0
  1
X8B_assy_2_img_1.png
 10
369.0
 20
92.0
 11
0.0066666667
 21
0.0066666667
280
1
281
0
  0
TABLESTYLE
  5
33B
102
{ACAD_REACTORS
330
337
330
287
330
288
102
}
330
337
100
AcDbTableStyle
  3
Standard
 70
0
 71
0
 40
0.06
 41
0.06
280
1
281
1
  7
Standard
140
0.18
170
1
 62
0
 63
7
283
0
  7
Standard
140
0.18
170
1
 62
0
 63
7
283
0
  7
Standard
140
0.18
170
1
 62
0
 63
7
283
0
  0
TABLESTYLE
  5
33C
102
{ACAD_REACTORS
330
337
330
286
102
}
330
337
100
AcDbTableStyle
  3
Standard1
 70
1
 71
0
 40
0.06
 41
0.06
280
1
281
1
  7
Standard
140
0.18
170
1
 62
0
 63
7
283
0
  7
Standard
140
0.18
170
1
 62
0
 63
7
283
0
  7
Standard
140
0.18
170
1
 62
0
 63
7
283
0
  0
ENDSEC
  0
EOF
