999
DXF file: X8A_assy_2.dxf
999
Pro/ENGINEER 2014200 by Parametric Technology Corporation
  0
SECTION
  2
HEADER
  9
$ACADVER
  1
AC1021
  9
$DWGCODEPAGE
  3
ANSI_1252
  9
$EXTMAX
 10
22.0
 20
17.0
 30
0.0
  9
$EXTMIN
 10
0.0
 20
0.0
 30
0.0
  9
$LIMMIN
 10
0.0
 20
0.0
  9
$LIMMAX
 10
22.0
 20
17.0
  9
$VIEWCTR
 10
11.0
 20
8.5
  9
$VIEWSIZE
 40
17.0
  9
$CLAYER
  8
0
  9
$LTSCALE
 40
1.21
  9
$CELTYPE
  6
BYLAYER
  9
$DIMSCALE
 40
1.0
  9
$DIMASZ
 40
0.1875
  9
$DIMEXO
 40
0.0625
  9
$DIMDLI
 40
0.836
  9
$DIMEXE
 40
0.125
  9
$DIMCEN
 40
0.198
  9
$DIMLFAC
 40
1.0
  9
$DIMBLK
  1
_FILLED
  9
$DIMTXT
 40
0.1
  9
$DIMTOL
 70
0
  9
$DIMLIM
 70
0
  9
$DIMTFAC
 40
1.0
  9
$DIMGAP
 40
0.09
  9
$DIMDSEP
 70
46
  9
$AUNITS
 70
0
  9
$PDMODE
 70
3
  9
$PDSIZE
 40
0.3125
  9
$HANDSEED
  5
3C5
  9
$TILEMODE
 70
1
  9
$MEASUREMENT
 70
0
  9
$INSUNITS
 70
1
  0
ENDSEC
  0
SECTION
  2
CLASSES
  0
CLASS
  1
ACDBDICTIONARYWDFLT
  2
AcDbDictionaryWithDefault
  3
AutoCAD 2000
 90
0
 91
1
280
0
281
0
  0
CLASS
  1
ACDBPLACEHOLDER
  2
AcDbPlaceHolder
  3
AutoCAD 2000
 90
0
 91
1
280
0
281
0
  0
CLASS
  1
LAYOUT
  2
AcDbLayout
  3
AutoCAD 2000
 90
0
 91
0
280
0
281
0
  0
CLASS
  1
RASTERVARIABLES
  2
AcDbRasterVariables
  3
ISM
 90
0
 91
1
280
0
281
0
  0
CLASS
  1
IMAGEDEF
  2
AcDbRasterImageDef
  3
ISM
 90
0
 91
1
280
0
281
0
  0
CLASS
  1
IMAGEDEF_REACTOR
  2
AcDbRasterImageDefReactor
  3
ISM
 90
0
 91
1
280
0
281
0
  0
CLASS
  1
IMAGE
  2
AcDbRasterImage
  3
ISM
 90
127
 91
1
280
0
281
1
  0
CLASS
  1
TABLESTYLE
  2
AcDbTableStyle
  3
ObjectDBX Classes
 90
2047
 91
1
280
0
281
0
  0
CLASS
  1
ACAD_TABLE
  2
AcDbTable
  3
ObjectDBX Classes
 90
1025
 91
3
280
0
281
1
  0
ENDSEC
  0
SECTION
  2
TABLES
  0
TABLE
  2
VPORT
  5
8
100
AcDbSymbolTable
 70
2
  0
VPORT
  5
1F4
100
AcDbSymbolTableRecord
100
AcDbViewportTableRecord
  2
*ACTIVE
 70
0
 10
0.0
 20
0.0
 11
1.0
 21
1.0
 12
11.0
 22
8.5
 13
0.0
 23
0.0
 14
1.0
 24
1.0
 15
0.0
 25
0.0
 16
0.0
 26
0.0
 36
1.0
 17
0.0
 27
0.0
 37
0.0
 40
17.0
 41
1.2941176471
 42
50.0
 43
0.0
 44
0.0
 50
0.0
 51
0.0
 71
0
 72
100
 73
1
 74
1
 75
0
 76
0
 77
0
 78
0
  0
ENDTAB
  0
TABLE
  2
LTYPE
  5
5
100
AcDbSymbolTable
 70
6
  0
LTYPE
  5
14
100
AcDbSymbolTableRecord
100
AcDbLinetypeTableRecord
  2
BYBLOCK
 70
0
  3

 72
65
 73
0
 40
0.0
  0
LTYPE
  5
15
100
AcDbSymbolTableRecord
100
AcDbLinetypeTableRecord
  2
BYLAYER
 70
0
  3

 72
65
 73
0
 40
0.0
  0
LTYPE
  5
16
100
AcDbSymbolTableRecord
100
AcDbLinetypeTableRecord
  2
CONTINUOUS
 70
64
  3
Solid line
 72
65
 73
0
 40
0.0
  0
LTYPE
  5
1F5
100
AcDbSymbolTableRecord
100
AcDbLinetypeTableRecord
  2
CENTER
 70
64
  3
____ _ ____ _ ____ _ ____ _ ____ _ ____ _ ____
 72
65
 73
4
 40
0.6
 49
0.375
 74
0
 49
-0.075
 74
0
 49
0.075
 74
0
 49
-0.075
 74
0
  0
LTYPE
  5
1F6
100
AcDbSymbolTableRecord
100
AcDbLinetypeTableRecord
  2
HIDDEN
 70
64
  3
- - - - - - - - - - - - - - - - - - - -
 72
65
 73
2
 40
0.2
 49
0.1
 74
0
 49
-0.1
 74
0
  0
LTYPE
  5
1F7
100
AcDbSymbolTableRecord
100
AcDbLinetypeTableRecord
  2
PHANTOM
 70
64
  3
_____ _ _ _____ _ _ _____ _ _ _____
 72
65
 73
6
 40
0.8
 49
0.45
 74
0
 49
-0.05
 74
0
 49
0.1
 74
0
 49
-0.05
 74
0
 49
0.1
 74
0
 49
-0.05
 74
0
  0
LTYPE
  5
1F8
100
AcDbSymbolTableRecord
100
AcDbLinetypeTableRecord
  2
DOT
 70
64
  3
. . . . . . . . . . . . . . . . . . . .
 72
65
 73
2
 40
0.2
 49
0.1
 74
0
 49
-0.1
 74
0
  0
LTYPE
  5
1F9
100
AcDbSymbolTableRecord
100
AcDbLinetypeTableRecord
  2
DASHED
 70
64
  3
- - - - - - - - - - - - - - - - - - - -
 72
65
 73
2
 40
0.2
 49
0.1
 74
0
 49
-0.1
 74
0
  0
ENDTAB
  0
TABLE
  2
LAYER
  5
2
100
AcDbSymbolTable
 70
36
  0
LAYER
  5
10
100
AcDbSymbolTableRecord
100
AcDbLayerTableRecord
  2
0
 70
0
 62
7
  6
CONTINUOUS
370
-3
390
F
  0
LAYER
  5
1FA
100
AcDbSymbolTableRecord
100
AcDbLayerTableRecord
  2
DEFAULT_1
 70
0
 62
7
  6
CENTER
370
-3
390
F
  0
LAYER
  5
1FB
100
AcDbSymbolTableRecord
100
AcDbLayerTableRecord
  2
DEFAULT_2
 70
0
 62
8
  6
HIDDEN
370
-3
390
F
  0
LAYER
  5
1FC
100
AcDbSymbolTableRecord
100
AcDbLayerTableRecord
  2
DEFAULT_3
 70
0
 62
7
  6
PHANTOM
370
-3
390
F
  0
LAYER
  5
1FD
100
AcDbSymbolTableRecord
100
AcDbLayerTableRecord
  2
DATUM_PLANES
 70
0
 62
7
  6
CONTINUOUS
370
-3
390
F
  0
LAYER
  5
1FE
100
AcDbSymbolTableRecord
100
AcDbLayerTableRecord
  2
DIMENSIONS
 70
0
 62
7
  6
CONTINUOUS
370
-3
390
F
  0
LAYER
  5
1FF
100
AcDbSymbolTableRecord
100
AcDbLayerTableRecord
  2
PARAMETERDIMENSIONS
 70
0
 62
7
  6
CONTINUOUS
370
-3
390
F
  0
LAYER
  5
200
100
AcDbSymbolTableRecord
100
AcDbLayerTableRecord
  2
PORT_AREAS
 70
0
 62
7
  6
CONTINUOUS
370
-3
390
F
  0
LAYER
  5
201
100
AcDbSymbolTableRecord
100
AcDbLayerTableRecord
  2
SUNNBOMCOSMETIC
 70
0
 62
7
  6
CONTINUOUS
370
-3
390
F
  0
LAYER
  5
202
100
AcDbSymbolTableRecord
100
AcDbLayerTableRecord
  2
SUNNBOMSTAMPING
 70
0
 62
7
  6
CONTINUOUS
370
-3
390
F
  0
LAYER
  5
203
100
AcDbSymbolTableRecord
100
AcDbLayerTableRecord
  2
THREADS
 70
0
 62
7
  6
CONTINUOUS
370
-3
390
F
  0
ENDTAB
  0
TABLE
  2
STYLE
  5
3
100
AcDbSymbolTable
 70
1
  0
STYLE
  5
11
100
AcDbSymbolTableRecord
100
AcDbTextStyleTableRecord
  2
STANDARD
 70
0
 40
0.0
 41
0.8
 50
0.0
 71
0
 42
0.2
  3
txt
  4

  0
STYLE
  5
204
100
AcDbSymbolTableRecord
100
AcDbTextStyleTableRecord
  2
TEXTSTYLE_1
 70
0
 40
0.0
 41
0.8
 50
0.0
 71
0
 42
0.2
  3
gdt
  4

  0
ENDTAB
  0
TABLE
  2
VIEW
  5
6
100
AcDbSymbolTable
 70
0
  0
ENDTAB
  0
TABLE
  2
UCS
  5
7
100
AcDbSymbolTable
 70
0
  0
ENDTAB
  0
TABLE
  2
APPID
  5
9
100
AcDbSymbolTable
 70
1
  0
APPID
  5
205
100
AcDbSymbolTableRecord
100
AcDbRegAppTableRecord
  2
ACAD
 70
0
  0
ENDTAB
  0
TABLE
  2
BLOCK_RECORD
  5
1
100
AcDbSymbolTable
 70
0
  0
BLOCK_RECORD
  5
206
100
AcDbSymbolTableRecord
100
AcDbBlockTableRecord
  2
*Model_Space
  0
BLOCK_RECORD
  5
207
100
AcDbSymbolTableRecord
100
AcDbBlockTableRecord
  2
*Paper_Space
  0
BLOCK_RECORD
  5
208
100
AcDbSymbolTableRecord
100
AcDbBlockTableRecord
  2
SUN_FIRST_THIRD_ANGLE_BL0
  0
BLOCK_RECORD
  5
209
100
AcDbSymbolTableRecord
100
AcDbBlockTableRecord
  2
*T1
  0
BLOCK_RECORD
  5
20A
100
AcDbSymbolTableRecord
100
AcDbBlockTableRecord
  2
*T2
  0
BLOCK_RECORD
  5
20B
100
AcDbSymbolTableRecord
100
AcDbBlockTableRecord
  2
*T3
  0
ENDTAB
  0
TABLE
  2
DIMSTYLE
  5
A
100
AcDbSymbolTable
 70
1
100
AcDbDimStyleTable
 71
0
  0
DIMSTYLE
105
20C
100
AcDbSymbolTableRecord
100
AcDbDimStyleTableRecord
  2
STANDARD
 70
0
  3

  4

 40
1.0
 41
0.1875
 42
0.0625
 43
0.38
 44
0.125
 45
0.0
 46
0.0
 47
0.001
 48
0.001
140
0.1
141
0.09
142
0.0
143
25.4
144
1.0
145
0.0
146
1.0
147
0.09
 71
0.0
 72
0.0
 73
1
 74
1
 75
0
 76
0
 77
0
 78
4
170
0
171
2
172
0
173
0
174
0
175
0
176
0
177
0
178
0
270
2
271
3
272
3
273
2
274
2
275
0
280
0
281
0
282
0
283
1
284
4
285
0
286
0
287
3
288
0
340
11
278
46
  0
ENDTAB
  0
ENDSEC
  0
SECTION
  2
BLOCKS
  0
BLOCK
  5
20
100
AcDbEntity
  8
0
100
AcDbBlockBegin
  2
*Model_Space
 70
0
 10
0.0
 20
0.0
 30
0.0
  3
*Model_Space
  1

  0
ENDBLK
  5
21
100
AcDbEntity
  8
0
100
AcDbBlockEnd
  0
BLOCK
  5
1C
100
AcDbEntity
  8
0
100
AcDbBlockBegin
  2
*Paper_Space
 70
0
 10
0.0
 20
0.0
 30
0.0
  3
*Paper_Space
  1

  0
ENDBLK
  5
1D
100
AcDbEntity
  8
0
100
AcDbBlockEnd
  0
BLOCK
  5
20D
100
AcDbEntity
  8
0
100
AcDbBlockBegin
 62
2
  6
CONTINUOUS
  2
SUN_FIRST_THIRD_ANGLE_BL0
 70
64
 10
20.4816717061
 20
1.2289683772
  3
SUN_FIRST_THIRD_ANGLE_BL0
  1

  0
TEXT
  5
20E
100
AcDbEntity
  8
0
100
AcDbText
 62
2
  6
CONTINUOUS
 10
19.4750896608
 20
1.4136269581
  7
STANDARD
 40
0.08
  1
FIRST ANGLE
 41
0.8
 72
0
100
AcDbText
  0
TEXT
  5
20F
100
AcDbEntity
  8
0
100
AcDbText
 62
2
  6
CONTINUOUS
 10
20.7842537513
 20
1.4047600029
  7
STANDARD
 40
0.08
  1
THIRD ANGLE
 41
0.8
 72
0
100
AcDbText
  0
LINE
  5
210
100
AcDbEntity
  8
0
100
AcDbLine
 62
7
  6
CONTINUOUS
 10
19.4767170086
 20
1.1727031207
 11
19.6334271527
 21
1.1717972817
  0
LINE
  5
211
100
AcDbEntity
  8
0
100
AcDbLine
 62
7
  6
CONTINUOUS
 10
19.6596964832
 20
1.1717972817
 11
19.6950230232
 21
1.171593082
  0
LINE
  5
212
100
AcDbEntity
  8
0
100
AcDbLine
 62
7
  6
CONTINUOUS
 10
19.7194818561
 20
1.1708914427
 11
19.8852396156
 21
1.1699333054
  0
LINE
  5
213
100
AcDbEntity
  8
0
100
AcDbLine
 62
7
  6
CONTINUOUS
 10
19.4758111696
 20
1.2723454088
 11
19.88525039
 21
1.3511534004
  0
LINE
  5
214
100
AcDbEntity
  8
0
100
AcDbLine
 62
7
  6
CONTINUOUS
 10
19.88525039
 20
1.3511534004
 11
19.8831348489
 21
0.9851647912
  0
LINE
  5
215
100
AcDbEntity
  8
0
100
AcDbLine
 62
7
  6
CONTINUOUS
 10
19.8831348489
 20
0.9851647912
 11
19.4767170086
 21
1.0658141206
  0
LINE
  5
216
100
AcDbEntity
  8
0
100
AcDbLine
 62
7
  6
CONTINUOUS
 10
19.4767170086
 20
1.0658141206
 11
19.4779056764
 21
1.2714536432
  0
CIRCLE
  5
217
100
AcDbEntity
  8
0
100
AcDbCircle
 62
7
  6
CONTINUOUS
 10
20.2068232291
 20
1.1717972817
 40
0.175742101
  0
CIRCLE
  5
218
100
AcDbEntity
  8
0
100
AcDbCircle
 62
7
  6
CONTINUOUS
 10
20.2068232291
 20
1.1717972817
 40
0.1005522074
  0
LINE
  5
219
100
AcDbEntity
  8
0
100
AcDbLine
 62
7
  6
CONTINUOUS
 10
20.2077290681
 20
1.3756110529
 11
20.2071171714
 21
1.2379342989
  0
LINE
  5
21A
100
AcDbEntity
  8
0
100
AcDbLine
 62
7
  6
CONTINUOUS
 10
20.2077290681
 20
1.2016899681
 11
20.2074674401
 21
1.1428236749
  0
LINE
  5
21B
100
AcDbEntity
  8
0
100
AcDbLine
 62
7
  6
CONTINUOUS
 10
20.208634907
 20
1.101141841
 11
20.2080230104
 21
0.963465087
  0
LINE
  5
21C
100
AcDbEntity
  8
0
100
AcDbLine
 62
7
  6
CONTINUOUS
 10
20.0066328138
 20
1.1745147986
 11
20.1443095678
 21
1.1739029019
  0
LINE
  5
21D
100
AcDbEntity
  8
0
100
AcDbLine
 62
7
  6
CONTINUOUS
 10
20.1832714155
 20
1.1727031207
 11
20.238153505
 21
1.172335442
  0
LINE
  5
21E
100
AcDbEntity
  8
0
100
AcDbLine
 62
7
  6
CONTINUOUS
 10
20.2756669918
 20
1.1717972817
 11
20.407916871
 21
1.1712095044
  0
CIRCLE
  5
21F
100
AcDbEntity
  8
0
100
AcDbCircle
 62
7
  6
CONTINUOUS
 10
20.7509457401
 20
1.1693297793
 40
0.1722024983
  0
CIRCLE
  5
220
100
AcDbEntity
  8
0
100
AcDbCircle
 62
7
  6
CONTINUOUS
 10
20.7509457401
 20
1.1693297793
 40
0.0985164967
  0
LINE
  5
221
100
AcDbEntity
  8
0
100
AcDbLine
 62
7
  6
CONTINUOUS
 10
20.7169767782
 20
1.170462078
 11
20.7825395137
 21
1.1682766535
  0
LINE
  5
222
100
AcDbEntity
  8
0
100
AcDbLine
 62
7
  6
CONTINUOUS
 10
20.8177513651
 20
1.1693297793
 11
20.947965719
 21
1.1693297793
  0
LINE
  5
223
100
AcDbEntity
  8
0
100
AcDbLine
 62
7
  6
CONTINUOUS
 10
20.6875370113
 20
1.170462078
 11
20.5573226574
 21
1.170462078
  0
LINE
  5
224
100
AcDbEntity
  8
0
100
AcDbLine
 62
7
  6
CONTINUOUS
 10
20.7486811426
 20
1.1987695462
 11
20.7486811426
 21
1.1432869085
  0
LINE
  5
225
100
AcDbEntity
  8
0
100
AcDbLine
 62
7
  6
CONTINUOUS
 10
20.7498134414
 20
1.1059210505
 11
20.7498134414
 21
0.9757066966
  0
LINE
  5
226
100
AcDbEntity
  8
0
100
AcDbLine
 62
7
  6
CONTINUOUS
 10
20.7486811426
 20
1.2338708068
 11
20.7486811426
 21
1.3640851607
  0
LINE
  5
227
100
AcDbEntity
  8
0
100
AcDbLine
 62
7
  6
CONTINUOUS
 10
21.0702539817
 20
1.2701043662
 11
21.4790138229
 21
1.3448360823
  0
LINE
  5
228
100
AcDbEntity
  8
0
100
AcDbLine
 62
7
  6
CONTINUOUS
 10
21.4790138229
 20
1.3448360823
 11
21.4790138229
 21
0.9779712941
  0
LINE
  5
229
100
AcDbEntity
  8
0
100
AcDbLine
 62
7
  6
CONTINUOUS
 10
21.4790138229
 20
0.9779712941
 11
21.069121683
 21
1.0617614
  0
LINE
  5
22A
100
AcDbEntity
  8
0
100
AcDbLine
 62
7
  6
CONTINUOUS
 10
21.0702539817
 20
1.2701043662
 11
21.069121683
 21
1.0617614
  0
LINE
  5
22B
100
AcDbEntity
  8
0
100
AcDbLine
 62
7
  6
CONTINUOUS
 10
21.4790138229
 20
1.1693297793
 11
21.3159628059
 21
1.1693297793
  0
LINE
  5
22C
100
AcDbEntity
  8
0
100
AcDbLine
 62
7
  6
CONTINUOUS
 10
21.2876553377
 20
1.1693297793
 11
21.2502894796
 21
1.1693297793
  0
LINE
  5
22D
100
AcDbEntity
  8
0
100
AcDbLine
 62
7
  6
CONTINUOUS
 10
21.2208497126
 20
1.1659328831
 11
21.0713862804
 21
1.1659328831
  0
LINE
  5
22E
100
AcDbEntity
  8
0
100
AcDbLine
 62
7
  6
CONTINUOUS
 10
20.4796138713
 20
1.5284908897
 11
20.4766766948
 21
0.9294458646
  0
ENDBLK
  5
22F
100
AcDbEntity
  8
0
  6
BYBLOCK
 62
0
100
AcDbBlockEnd
  0
BLOCK
  5
230
100
AcDbEntity
  8
0
100
AcDbBlockBegin
  2
*T1
 70
1
 10
0.0
 20
0.0
  3
*T1
  1

  0
LINE
  5
231
100
AcDbEntity
  8
0
100
AcDbLine
 62
2
  6
CONTINUOUS
 10
9.275
 20
0.0
 11
-0.0
 21
0.0
  0
LINE
  5
232
100
AcDbEntity
  8
0
100
AcDbLine
 62
2
  6
CONTINUOUS
 10
9.275
 20
0.0
 11
9.275
 21
1.25
  0
LINE
  5
233
100
AcDbEntity
  8
0
100
AcDbLine
 62
2
  6
CONTINUOUS
 10
9.275
 20
0.625
 11
-0.0
 21
0.625
  0
LINE
  5
234
100
AcDbEntity
  8
0
100
AcDbLine
 62
2
  6
CONTINUOUS
 10
9.275
 20
1.25
 11
-0.0
 21
1.25
  0
LINE
  5
235
100
AcDbEntity
  8
0
100
AcDbLine
 62
2
  6
CONTINUOUS
 10
6.8
 20
0.0
 11
6.8
 21
1.25
  0
LINE
  5
236
100
AcDbEntity
  8
0
100
AcDbLine
 62
2
  6
CONTINUOUS
 10
6.4
 20
0.0
 11
6.4
 21
0.625
  0
LINE
  5
237
100
AcDbEntity
  8
0
100
AcDbLine
 62
2
  6
CONTINUOUS
 10
5.9
 20
0.0
 11
5.9
 21
0.625
  0
LINE
  5
238
100
AcDbEntity
  8
0
100
AcDbLine
 62
2
  6
CONTINUOUS
 10
5.2
 20
0.0
 11
5.2
 21
0.625
  0
LINE
  5
239
100
AcDbEntity
  8
0
100
AcDbLine
 62
2
  6
CONTINUOUS
 10
4.1
 20
0.0
 11
4.1
 21
1.25
  0
LINE
  5
23A
100
AcDbEntity
  8
0
100
AcDbLine
 62
2
  6
CONTINUOUS
 10
-0.0
 20
0.0
 11
-0.0
 21
1.25
  0
MTEXT
  5
23B
100
AcDbEntity
  8
0
100
AcDbMText
 62
2
  6
CONTINUOUS
  7
STANDARD
 71
2
 72
1
 10
6.6
 20
0.325
 30
0.0
 11
1.0
 21
0.0
 31
0.0
 44
0.9
  1
2
 40
0.125
 41
0.2
  0
MTEXT
  5
23C
100
AcDbEntity
  8
0
100
AcDbMText
 62
2
  6
CONTINUOUS
  7
STANDARD
 71
2
 72
1
 10
6.15
 20
0.325
 30
0.0
 11
1.0
 21
0.0
 31
0.0
 44
0.9
  1
C
 40
0.125
 41
0.2
  0
MTEXT
  5
23D
100
AcDbEntity
  8
0
100
AcDbMText
 62
2
  6
CONTINUOUS
  7
STANDARD
 71
2
 72
1
 10
5.55
 20
0.325
 30
0.0
 11
1.0
 21
0.0
 31
0.0
 44
0.9
  1
1.000
 40
0.125
 41
1.0
  0
MTEXT
  5
23E
100
AcDbEntity
  8
0
100
AcDbMText
 62
2
  6
CONTINUOUS
  7
STANDARD
 71
2
 72
1
 10
4.65
 20
0.325
 30
0.0
 11
1.0
 21
0.0
 31
0.0
 44
0.9
  1
Aug-23-19
 40
0.125
 41
1.8
  0
MTEXT
  5
23F
100
AcDbEntity
  8
0
100
AcDbMText
 62
2
  6
CONTINUOUS
  7
STANDARD
 71
2
 72
1
 10
2.05
 20
0.4625
 30
0.0
 11
1.0
 21
0.0
 31
0.0
 44
0.9
  1
T-3A Subplate ISO 05\PP to T
 40
0.125
 41
4.0
  0
MTEXT
  5
240
100
AcDbEntity
  8
0
100
AcDbMText
 62
2
  6
CONTINUOUS
  7
STANDARD
 71
1
 72
1
 10
6.45
 20
0.5625
 30
0.0
 11
1.0
 21
0.0
 31
0.0
 44
0.9
  1
SHEET
 40
0.06
 41
0.48
  0
MTEXT
  5
241
100
AcDbEntity
  8
0
100
AcDbMText
 62
2
  6
CONTINUOUS
  7
STANDARD
 71
1
 72
1
 10
5.95
 20
0.5625
 30
0.0
 11
1.0
 21
0.0
 31
0.0
 44
0.9
  1
DWG SIZE
 40
0.06
 41
0.768
  0
MTEXT
  5
242
100
AcDbEntity
  8
0
100
AcDbMText
 62
2
  6
CONTINUOUS
  7
STANDARD
 71
1
 72
1
 10
5.25
 20
0.5625
 30
0.0
 11
1.0
 21
0.0
 31
0.0
 44
0.9
  1
SCALE
 40
0.06
 41
0.48
  0
MTEXT
  5
243
100
AcDbEntity
  8
0
100
AcDbMText
 62
2
  6
CONTINUOUS
  7
STANDARD
 71
1
 72
1
 10
4.15
 20
0.5625
 30
0.0
 11
1.0
 21
0.0
 31
0.0
 44
0.9
  1
DATE
 40
0.06
 41
0.384
  0
MTEXT
  5
244
100
AcDbEntity
  8
0
100
AcDbMText
 62
2
  6
CONTINUOUS
  7
STANDARD
 71
1
 72
1
 10
0.05
 20
0.5625
 30
0.0
 11
1.0
 21
0.0
 31
0.0
 44
0.9
  1
DESCRIPTION
 40
0.06
 41
1.056
  0
MTEXT
  5
245
100
AcDbEntity
  8
0
100
AcDbMText
 62
2
  6
CONTINUOUS
  7
STANDARD
 71
2
 72
1
 10
5.45
 20
1.0375
 30
0.0
 11
1.0
 21
0.0
 31
0.0
 44
0.9
  1
ALL DIMENSIONS IN INCH\PVIEWS ARE THIRD ANGLE
 40
0.12
 41
4.224
  0
MTEXT
  5
246
100
AcDbEntity
  8
0
100
AcDbMText
 62
2
  6
CONTINUOUS
  7
STANDARD
 71
2
 72
1
 10
2.05
 20
0.95
 30
0.0
 11
1.0
 21
0.0
 31
0.0
 44
0.9
  1
X8A
 40
0.125
 41
0.6
  0
MTEXT
  5
247
100
AcDbEntity
  8
0
100
AcDbMText
 62
2
  6
CONTINUOUS
  7
STANDARD
 71
1
 72
1
 10
0.05
 20
1.1875
 30
0.0
 11
1.0
 21
0.0
 31
0.0
 44
0.9
  1
MODEL
 40
0.06
 41
0.48
  0
ENDBLK
  5
248
100
AcDbEntity
  8
0
  6
BYBLOCK
 62
0
100
AcDbBlockEnd
  0
BLOCK
  5
249
100
AcDbEntity
  8
0
100
AcDbBlockBegin
  2
*T2
 70
1
 10
0.0
 20
0.0
  3
*T2
  1

  0
LINE
  5
24A
100
AcDbEntity
  8
0
100
AcDbLine
 62
2
  6
CONTINUOUS
 10
0.0
 20
0.0
 11
9.055
 21
0.0
  0
LINE
  5
24B
100
AcDbEntity
  8
0
100
AcDbLine
 62
2
  6
CONTINUOUS
 10
0.0
 20
0.0
 11
0.0
 21
-2.594
  0
LINE
  5
24C
100
AcDbEntity
  8
0
100
AcDbLine
 62
2
  6
CONTINUOUS
 10
0.0
 20
-0.344
 11
9.055
 21
-0.344
  0
LINE
  5
24D
100
AcDbEntity
  8
0
100
AcDbLine
 62
2
  6
CONTINUOUS
 10
0.0
 20
-0.594
 11
9.055
 21
-0.594
  0
LINE
  5
24E
100
AcDbEntity
  8
0
100
AcDbLine
 62
2
  6
CONTINUOUS
 10
0.0
 20
-0.844
 11
9.055
 21
-0.844
  0
LINE
  5
24F
100
AcDbEntity
  8
0
100
AcDbLine
 62
2
  6
CONTINUOUS
 10
0.0
 20
-1.094
 11
9.055
 21
-1.094
  0
LINE
  5
250
100
AcDbEntity
  8
0
100
AcDbLine
 62
2
  6
CONTINUOUS
 10
0.0
 20
-1.344
 11
9.055
 21
-1.344
  0
LINE
  5
251
100
AcDbEntity
  8
0
100
AcDbLine
 62
2
  6
CONTINUOUS
 10
0.0
 20
-1.594
 11
9.055
 21
-1.594
  0
LINE
  5
252
100
AcDbEntity
  8
0
100
AcDbLine
 62
2
  6
CONTINUOUS
 10
0.0
 20
-1.844
 11
9.055
 21
-1.844
  0
LINE
  5
253
100
AcDbEntity
  8
0
100
AcDbLine
 62
2
  6
CONTINUOUS
 10
0.0
 20
-2.094
 11
9.055
 21
-2.094
  0
LINE
  5
254
100
AcDbEntity
  8
0
100
AcDbLine
 62
2
  6
CONTINUOUS
 10
0.0
 20
-2.344
 11
9.055
 21
-2.344
  0
LINE
  5
255
100
AcDbEntity
  8
0
100
AcDbLine
 62
2
  6
CONTINUOUS
 10
0.0
 20
-2.594
 11
9.055
 21
-2.594
  0
LINE
  5
256
100
AcDbEntity
  8
0
100
AcDbLine
 62
2
  6
CONTINUOUS
 10
3.055
 20
0.0
 11
3.055
 21
-2.594
  0
LINE
  5
257
100
AcDbEntity
  8
0
100
AcDbLine
 62
2
  6
CONTINUOUS
 10
9.055
 20
0.0
 11
9.055
 21
-2.594
  0
MTEXT
  5
258
100
AcDbEntity
  8
0
100
AcDbMText
 62
2
  6
CONTINUOUS
  7
STANDARD
 71
2
 72
1
 10
1.5275
 20
-0.0995
 30
0.0
 11
1.0
 21
0.0
 31
0.0
 44
0.9
  1
Technical Data
 40
0.145
 41
3.248
  0
MTEXT
  5
259
100
AcDbEntity
  8
0
100
AcDbMText
 62
2
  6
CONTINUOUS
  7
STANDARD
 71
2
 72
1
 10
4.555
 20
-0.0995
 30
0.0
 11
1.0
 21
0.0
 31
0.0
 44
0.9
  1
U.S. Units
 40
0.145
 41
2.32
  0
MTEXT
  5
25A
100
AcDbEntity
  8
0
100
AcDbMText
 62
2
  6
CONTINUOUS
  7
STANDARD
 71
2
 72
1
 10
7.555
 20
-0.0995
 30
0.0
 11
1.0
 21
0.0
 31
0.0
 44
0.9
  1
Metric Units
 40
0.145
 41
2.784
  0
MTEXT
  5
25B
100
AcDbEntity
  8
0
100
AcDbMText
 62
2
  6
CONTINUOUS
  7
STANDARD
 71
2
 72
1
 10
1.5275
 20
-0.4065
 30
0.0
 11
1.0
 21
0.0
 31
0.0
 44
0.9
  1
Cavity
 40
0.125
 41
1.2
  0
MTEXT
  5
25C
100
AcDbEntity
  8
0
100
AcDbMText
 62
2
  6
CONTINUOUS
  7
STANDARD
 71
2
 72
1
 10
6.055
 20
-0.4065
 30
0.0
 11
1.0
 21
0.0
 31
0.0
 44
0.9
  1
T-3A
 40
0.125
 41
0.8
  0
MTEXT
  5
25D
100
AcDbEntity
  8
0
100
AcDbMText
 62
2
  6
CONTINUOUS
  7
STANDARD
 71
2
 72
1
 10
1.5275
 20
-0.6565
 30
0.0
 11
1.0
 21
0.0
 31
0.0
 44
0.9
  1
Body Features
 40
0.125
 41
2.6
  0
MTEXT
  5
25E
100
AcDbEntity
  8
0
100
AcDbMText
 62
2
  6
CONTINUOUS
  7
STANDARD
 71
2
 72
1
 10
6.055
 20
-0.6565
 30
0.0
 11
1.0
 21
0.0
 31
0.0
 44
0.9
  1
P to T
 40
0.125
 41
1.2
  0
MTEXT
  5
25F
100
AcDbEntity
  8
0
100
AcDbMText
 62
2
  6
CONTINUOUS
  7
STANDARD
 71
2
 72
1
 10
1.5275
 20
-0.9065
 30
0.0
 11
1.0
 21
0.0
 31
0.0
 44
0.9
  1
Body Type
 40
0.125
 41
1.8
  0
MTEXT
  5
260
100
AcDbEntity
  8
0
100
AcDbMText
 62
2
  6
CONTINUOUS
  7
STANDARD
 71
2
 72
1
 10
6.055
 20
-0.9065
 30
0.0
 11
1.0
 21
0.0
 31
0.0
 44
0.9
  1
Subplate
 40
0.125
 41
1.6
  0
MTEXT
  5
261
100
AcDbEntity
  8
0
100
AcDbMText
 62
2
  6
CONTINUOUS
  7
STANDARD
 71
2
 72
1
 10
1.5275
 20
-1.1565
 30
0.0
 11
1.0
 21
0.0
 31
0.0
 44
0.9
  1
Interface
 40
0.125
 41
1.8
  0
MTEXT
  5
262
100
AcDbEntity
  8
0
100
AcDbMText
 62
2
  6
CONTINUOUS
  7
STANDARD
 71
2
 72
1
 10
6.055
 20
-1.1565
 30
0.0
 11
1.0
 21
0.0
 31
0.0
 44
0.9
  1
ISO 05
 40
0.125
 41
1.2
  0
MTEXT
  5
263
100
AcDbEntity
  8
0
100
AcDbMText
 62
2
  6
CONTINUOUS
  7
STANDARD
 71
2
 72
1
 10
1.5275
 20
-1.4065
 30
0.0
 11
1.0
 21
0.0
 31
0.0
 44
0.9
  1
Open Cavity Quantity
 40
0.125
 41
4.0
  0
MTEXT
  5
264
100
AcDbEntity
  8
0
100
AcDbMText
 62
2
  6
CONTINUOUS
  7
STANDARD
 71
2
 72
1
 10
6.055
 20
-1.4065
 30
0.0
 11
1.0
 21
0.0
 31
0.0
 44
0.9
  1
1
 40
0.125
 41
0.2
  0
MTEXT
  5
265
100
AcDbEntity
  8
0
100
AcDbMText
 62
2
  6
CONTINUOUS
  7
STANDARD
 71
2
 72
1
 10
1.5275
 20
-1.6565
 30
0.0
 11
1.0
 21
0.0
 31
0.0
 44
0.9
  1
Weight
 40
0.125
 41
1.2
  0
MTEXT
  5
266
100
AcDbEntity
  8
0
100
AcDbMText
 62
2
  6
CONTINUOUS
  7
STANDARD
 71
2
 72
1
 10
4.555
 20
-1.6565
 30
0.0
 11
1.0
 21
0.0
 31
0.0
 44
0.9
  1
3.146 lb.
 40
0.125
 41
1.8
  0
MTEXT
  5
267
100
AcDbEntity
  8
0
100
AcDbMText
 62
2
  6
CONTINUOUS
  7
STANDARD
 71
2
 72
1
 10
7.555
 20
-1.6565
 30
0.0
 11
1.0
 21
0.0
 31
0.0
 44
0.9
  1
1,427 kg.
 40
0.125
 41
1.8
  0
MTEXT
  5
268
100
AcDbEntity
  8
0
100
AcDbMText
 62
2
  6
CONTINUOUS
  7
STANDARD
 71
2
 72
1
 10
1.5275
 20
-1.9065
 30
0.0
 11
1.0
 21
0.0
 31
0.0
 44
0.9
  1
Mounting Hole Diameter
 40
0.125
 41
4.4
  0
MTEXT
  5
269
100
AcDbEntity
  8
0
100
AcDbMText
 62
2
  6
CONTINUOUS
  7
STANDARD
 71
2
 72
1
 10
4.555
 20
-1.9065
 30
0.0
 11
1.0
 21
0.0
 31
0.0
 44
0.9
  1
.41 in.
 40
0.125
 41
1.4
  0
MTEXT
  5
26A
100
AcDbEntity
  8
0
100
AcDbMText
 62
2
  6
CONTINUOUS
  7
STANDARD
 71
2
 72
1
 10
7.555
 20
-1.9065
 30
0.0
 11
1.0
 21
0.0
 31
0.0
 44
0.9
  1
10,4 mm
 40
0.125
 41
1.4
  0
MTEXT
  5
26B
100
AcDbEntity
  8
0
100
AcDbMText
 62
2
  6
CONTINUOUS
  7
STANDARD
 71
2
 72
1
 10
1.5275
 20
-2.1565
 30
0.0
 11
1.0
 21
0.0
 31
0.0
 44
0.9
  1
Mounting Hole Depth
 40
0.125
 41
3.8
  0
MTEXT
  5
26C
100
AcDbEntity
  8
0
100
AcDbMText
 62
2
  6
CONTINUOUS
  7
STANDARD
 71
2
 72
1
 10
6.055
 20
-2.1565
 30
0.0
 11
1.0
 21
0.0
 31
0.0
 44
0.9
  1
Through
 40
0.125
 41
1.4
  0
MTEXT
  5
26D
100
AcDbEntity
  8
0
100
AcDbMText
 62
2
  6
CONTINUOUS
  7
STANDARD
 71
2
 72
1
 10
1.5275
 20
-2.4065
 30
0.0
 11
1.0
 21
0.0
 31
0.0
 44
0.9
  1
Mounting Hole Quantity
 40
0.125
 41
4.4
  0
MTEXT
  5
26E
100
AcDbEntity
  8
0
100
AcDbMText
 62
2
  6
CONTINUOUS
  7
STANDARD
 71
2
 72
1
 10
6.055
 20
-2.4065
 30
0.0
 11
1.0
 21
0.0
 31
0.0
 44
0.9
  1
3
 40
0.125
 41
0.2
  0
ENDBLK
  5
26F
100
AcDbEntity
  8
0
  6
BYBLOCK
 62
0
100
AcDbBlockEnd
  0
BLOCK
  5
270
100
AcDbEntity
  8
0
100
AcDbBlockBegin
  2
*T3
 70
1
 10
0.0
 20
0.0
  3
*T3
  1

  0
LINE
  5
271
100
AcDbEntity
  8
0
100
AcDbLine
 62
2
  6
CONTINUOUS
 10
0.0
 20
0.0
 11
4.6
 21
0.0
  0
LINE
  5
272
100
AcDbEntity
  8
0
100
AcDbLine
 62
2
  6
CONTINUOUS
 10
0.0
 20
0.0
 11
0.0
 21
-0.93775
  0
LINE
  5
273
100
AcDbEntity
  8
0
100
AcDbLine
 62
2
  6
CONTINUOUS
 10
0.0
 20
-0.34375
 11
4.6
 21
-0.34375
  0
LINE
  5
274
100
AcDbEntity
  8
0
100
AcDbLine
 62
2
  6
CONTINUOUS
 10
0.0
 20
-0.68775
 11
4.6
 21
-0.68775
  0
LINE
  5
275
100
AcDbEntity
  8
0
100
AcDbLine
 62
2
  6
CONTINUOUS
 10
0.0
 20
-0.93775
 11
4.6
 21
-0.93775
  0
LINE
  5
276
100
AcDbEntity
  8
0
100
AcDbLine
 62
2
  6
CONTINUOUS
 10
1.3
 20
-0.34375
 11
1.3
 21
-0.93775
  0
LINE
  5
277
100
AcDbEntity
  8
0
100
AcDbLine
 62
2
  6
CONTINUOUS
 10
3.3
 20
-0.34375
 11
3.3
 21
-0.93775
  0
LINE
  5
278
100
AcDbEntity
  8
0
100
AcDbLine
 62
2
  6
CONTINUOUS
 10
4.6
 20
0.0
 11
4.6
 21
-0.93775
  0
MTEXT
  5
279
100
AcDbEntity
  8
0
100
AcDbMText
 62
2
  6
CONTINUOUS
  7
STANDARD
 71
2
 72
1
 10
2.3
 20
-0.099375
 30
0.0
 11
1.0
 21
0.0
 31
0.0
 44
0.9
  1
Port Headings
 40
0.145
 41
3.016
  0
MTEXT
  5
27A
100
AcDbEntity
  8
0
100
AcDbMText
 62
2
  6
CONTINUOUS
  7
STANDARD
 71
2
 72
1
 10
0.65
 20
-0.44325
 30
0.0
 11
1.0
 21
0.0
 31
0.0
 44
0.9
  1
Product
 40
0.145
 41
1.624
  0
MTEXT
  5
27B
100
AcDbEntity
  8
0
100
AcDbMText
 62
2
  6
CONTINUOUS
  7
STANDARD
 71
2
 72
1
 10
2.3
 20
-0.44325
 30
0.0
 11
1.0
 21
0.0
 31
0.0
 44
0.9
  1
Port
 40
0.145
 41
0.928
  0
MTEXT
  5
27C
100
AcDbEntity
  8
0
100
AcDbMText
 62
2
  6
CONTINUOUS
  7
STANDARD
 71
2
 72
1
 10
3.95
 20
-0.44325
 30
0.0
 11
1.0
 21
0.0
 31
0.0
 44
0.9
  1
Size
 40
0.145
 41
0.928
  0
MTEXT
  5
27D
100
AcDbEntity
  8
0
100
AcDbMText
 62
2
  6
CONTINUOUS
  7
STANDARD
 71
2
 72
1
 10
0.65
 20
-0.75025
 30
0.0
 11
1.0
 21
0.0
 31
0.0
 44
0.9
  1
X8A
 40
0.125
 41
0.6
  0
MTEXT
  5
27E
100
AcDbEntity
  8
0
100
AcDbMText
 62
2
  6
CONTINUOUS
  7
STANDARD
 71
2
 72
1
 10
2.3
 20
-0.75025
 30
0.0
 11
1.0
 21
0.0
 31
0.0
 44
0.9
  1
All Ports
 40
0.125
 41
1.8
  0
MTEXT
  5
27F
100
AcDbEntity
  8
0
100
AcDbMText
 62
2
  6
CONTINUOUS
  7
STANDARD
 71
2
 72
1
 10
3.95
 20
-0.75025
 30
0.0
 11
1.0
 21
0.0
 31
0.0
 44
0.9
  1
3/4" BSPP
 40
0.125
 41
1.8
  0
ENDBLK
  5
280
100
AcDbEntity
  8
0
  6
BYBLOCK
 62
0
100
AcDbBlockEnd
  0
ENDSEC
  0
SECTION
  2
ENTITIES
  0
IMAGE
  5
281
100
AcDbEntity
  8
0
100
AcDbRasterImage
 62
7
  6
CONTINUOUS
 10
19.2297077316
 20
0.3094318264
 30
0.0
 11
0.0066666667
 21
0.0
 31
0.0
 12
0.0
 22
0.0066666667
 32
0.0
 13
369.0
 23
92.0
340
       3C2
 70
9
280
0
281
50
282
50
283
0
360
       3BC
 71
1
 91
2
 14
-0.5
 24
-0.5
 14
368.5
 24
91.5
  0
INSERT
  5
282
100
AcDbEntity
  8
0
100
AcDbBlockReference
 62
2
  6
CONTINUOUS
  2
SUN_FIRST_THIRD_ANGLE_BL0
 10
20.4816717061
 20
1.2289683772
  0
ACAD_TABLE
  5
283
100
AcDbEntity
  8
0
 62
2
  6
CONTINUOUS
100
AcDbBlockReference
  2
*T1
 10
12.42375
 20
0.30125
 30
0.0
100
AcDbTable
342
       3C4
343
209
 11
1.0
 21
0.0
 31
0.0
 90
6
 91
4
 92
6
 93
20
 94
0
 95
0
 96
0
 70
1
 41
0.0
141
0.525
141
0.1
141
0.525
141
0.1
142
4.1
142
1.1
142
0.7
142
0.5
142
0.4
142
2.475
171
1
172
0
173
0
174
0
175
1
176
1
 91
33
178
0
145
0.0
301
CELL_VALUE
 90
4
  1
T-3A Subplate ISO 05\PP to T
304
ACVALUE_END
170
2
140
0.125
171
1
172
0
173
0
174
0
175
1
176
1
 91
33
178
0
145
0.0
301
CELL_VALUE
 90
4
  1
Aug-23-19
304
ACVALUE_END
170
5
140
0.125
171
1
172
0
173
0
174
0
175
1
176
1
 91
33
178
0
145
0.0
301
CELL_VALUE
 90
4
  1
1.000
304
ACVALUE_END
170
5
140
0.125
171
1
172
0
173
0
174
0
175
1
176
1
 91
33
178
0
145
0.0
301
CELL_VALUE
 90
4
  1
C
304
ACVALUE_END
170
5
140
0.125
171
1
172
0
173
0
174
0
175
1
176
1
 91
33
178
0
145
0.0
301
CELL_VALUE
 90
4
  1
2
304
ACVALUE_END
170
5
140
0.125
171
1
172
0
173
0
174
0
175
1
176
1
 91
33
178
0
145
0.0
301
CELL_VALUE
 90
4
  1
 
304
ACVALUE_END
170
1
140
0.125
171
1
172
0
173
0
174
0
175
1
176
1
 91
33
178
0
145
0.0
301
CELL_VALUE
 90
4
  1
DESCRIPTION
304
ACVALUE_END
170
1
140
0.06
171
1
172
0
173
0
174
0
175
1
176
1
 91
33
178
0
145
0.0
301
CELL_VALUE
 90
4
  1
DATE
304
ACVALUE_END
170
1
140
0.06
171
1
172
0
173
0
174
0
175
1
176
1
 91
33
178
0
145
0.0
301
CELL_VALUE
 90
4
  1
SCALE
304
ACVALUE_END
170
1
140
0.06
171
1
172
0
173
0
174
0
175
1
176
1
 91
33
178
0
145
0.0
301
CELL_VALUE
 90
4
  1
DWG SIZE
304
ACVALUE_END
170
1
140
0.06
171
1
172
0
173
0
174
0
175
1
176
1
 91
33
178
0
145
0.0
301
CELL_VALUE
 90
4
  1
SHEET
304
ACVALUE_END
170
1
140
0.06
171
1
172
0
173
0
174
0
175
1
176
1
 91
33
178
0
145
0.0
301
CELL_VALUE
 90
4
  1
 
304
ACVALUE_END
170
1
140
0.125
171
1
172
0
173
0
174
0
175
1
176
1
 91
33
178
0
145
0.0
301
CELL_VALUE
 90
4
  1
X8A
304
ACVALUE_END
170
5
140
0.125
171
1
172
0
173
0
174
0
175
4
176
1
 91
33
178
0
145
0.0
301
CELL_VALUE
 90
4
  1
ALL DIMENSIONS IN INCH\PVIEWS ARE THIRD ANGLE
304
ACVALUE_END
170
5
140
0.12
171
1
172
0
173
1
174
0
175
1
176
1
 91
1
178
0
145
0.0
170
1
171
1
172
0
173
1
174
0
175
1
176
1
 91
1
178
0
145
0.0
170
1
171
1
172
0
173
1
174
0
175
1
176
1
 91
1
178
0
145
0.0
170
5
171
1
172
0
173
0
174
0
175
1
176
1
 91
33
178
0
145
0.0
301
CELL_VALUE
 90
4
  1
 
304
ACVALUE_END
170
1
140
0.125
171
1
172
0
173
0
174
0
175
1
176
1
 91
33
178
0
145
0.0
301
CELL_VALUE
 90
4
  1
MODEL
304
ACVALUE_END
170
1
140
0.06
171
1
172
0
173
0
174
0
175
1
176
1
 91
33
178
0
145
0.0
301
CELL_VALUE
 90
4
  1
 
304
ACVALUE_END
170
1
140
0.125
171
1
172
0
173
0
174
0
175
1
176
1
 91
33
178
0
145
0.0
301
CELL_VALUE
 90
4
  1
 
304
ACVALUE_END
170
1
140
0.125
171
1
172
0
173
0
174
0
175
1
176
1
 91
33
178
0
145
0.0
301
CELL_VALUE
 90
4
  1
 
304
ACVALUE_END
170
1
140
0.125
171
1
172
0
173
0
174
0
175
1
176
1
 91
33
178
0
145
0.0
301
CELL_VALUE
 90
4
  1
 
304
ACVALUE_END
170
1
140
0.125
171
1
172
0
173
0
174
0
175
1
176
1
 91
33
178
0
145
0.0
301
CELL_VALUE
 90
4
  1
 
304
ACVALUE_END
170
1
140
0.125
  0
ACAD_TABLE
  5
284
100
AcDbEntity
  8
0
 62
2
  6
CONTINUOUS
100
AcDbBlockReference
  2
*T2
 10
12.4237499994
 20
16.47875
 30
0.0
100
AcDbTable
342
       3C3
343
20A
 11
1.0
 21
0.0
 31
0.0
 90
22
 91
10
 92
3
 93
16
 94
0
 95
0
 96
0
 41
0.028
141
0.344
141
0.25
141
0.25
141
0.25
141
0.25
141
0.25
141
0.25
141
0.25
141
0.25
141
0.25
142
3.055
142
3.0
142
3.0
171
1
172
0
173
0
174
0
175
1
176
1
 91
33
178
0
145
0.0
301
CELL_VALUE
 90
4
  1
Technical Data
304
ACVALUE_END
170
5
140
0.145
171
1
172
0
173
0
174
0
175
1
176
1
 91
33
178
0
145
0.0
301
CELL_VALUE
 90
4
  1
U.S. Units
304
ACVALUE_END
170
5
140
0.145
171
1
172
0
173
0
174
0
175
1
176
1
 91
33
178
0
145
0.0
301
CELL_VALUE
 90
4
  1
Metric Units
304
ACVALUE_END
170
5
140
0.145
171
1
172
0
173
0
174
0
175
1
176
1
 91
33
178
0
145
0.0
301
CELL_VALUE
 90
4
  1
Cavity
304
ACVALUE_END
170
5
140
0.125
171
1
172
0
173
0
174
0
175
2
176
1
 91
33
178
0
145
0.0
301
CELL_VALUE
 90
4
  1
T-3A
304
ACVALUE_END
170
5
140
0.125
171
1
172
0
173
1
174
0
175
1
176
1
 91
1
178
0
145
0.0
170
1
171
1
172
0
173
0
174
0
175
1
176
1
 91
33
178
0
145
0.0
301
CELL_VALUE
 90
4
  1
Body Features
304
ACVALUE_END
170
5
140
0.125
171
1
172
0
173
0
174
0
175
2
176
1
 91
33
178
0
145
0.0
301
CELL_VALUE
 90
4
  1
P to T
304
ACVALUE_END
170
5
140
0.125
171
1
172
0
173
1
174
0
175
1
176
1
 91
1
178
0
145
0.0
170
1
171
1
172
0
173
0
174
0
175
1
176
1
 91
33
178
0
145
0.0
301
CELL_VALUE
 90
4
  1
Body Type
304
ACVALUE_END
170
5
140
0.125
171
1
172
0
173
0
174
0
175
2
176
1
 91
33
178
0
145
0.0
301
CELL_VALUE
 90
4
  1
Subplate
304
ACVALUE_END
170
5
140
0.125
171
1
172
0
173
1
174
0
175
1
176
1
 91
1
178
0
145
0.0
170
1
171
1
172
0
173
0
174
0
175
1
176
1
 91
33
178
0
145
0.0
301
CELL_VALUE
 90
4
  1
Interface
304
ACVALUE_END
170
5
140
0.125
171
1
172
0
173
0
174
0
175
2
176
1
 91
33
178
0
145
0.0
301
CELL_VALUE
 90
4
  1
ISO 05
304
ACVALUE_END
170
5
140
0.125
171
1
172
0
173
1
174
0
175
1
176
1
 91
1
178
0
145
0.0
170
1
171
1
172
0
173
0
174
0
175
1
176
1
 91
33
178
0
145
0.0
301
CELL_VALUE
 90
4
  1
Open Cavity Quantity
304
ACVALUE_END
170
5
140
0.125
171
1
172
0
173
0
174
0
175
2
176
1
 91
33
178
0
145
0.0
301
CELL_VALUE
 90
4
  1
1
304
ACVALUE_END
170
5
140
0.125
171
1
172
0
173
1
174
0
175
1
176
1
 91
1
178
0
145
0.0
170
1
171
1
172
0
173
0
174
0
175
1
176
1
 91
33
178
0
145
0.0
301
CELL_VALUE
 90
4
  1
Weight
304
ACVALUE_END
170
5
140
0.125
171
1
172
0
173
0
174
0
175
1
176
1
 91
33
178
0
145
0.0
301
CELL_VALUE
 90
4
  1
3.146 lb.
304
ACVALUE_END
170
5
140
0.125
171
1
172
0
173
0
174
0
175
1
176
1
 91
33
178
0
145
0.0
301
CELL_VALUE
 90
4
  1
1,427 kg.
304
ACVALUE_END
170
5
140
0.125
171
1
172
0
173
0
174
0
175
1
176
1
 91
33
178
0
145
0.0
301
CELL_VALUE
 90
4
  1
Mounting Hole Diameter
304
ACVALUE_END
170
5
140
0.125
171
1
172
0
173
0
174
0
175
1
176
1
 91
33
178
0
145
0.0
301
CELL_VALUE
 90
4
  1
.41 in.
304
ACVALUE_END
170
5
140
0.125
171
1
172
0
173
0
174
0
175
1
176
1
 91
33
178
0
145
0.0
301
CELL_VALUE
 90
4
  1
10,4 mm
304
ACVALUE_END
170
5
140
0.125
171
1
172
0
173
0
174
0
175
1
176
1
 91
33
178
0
145
0.0
301
CELL_VALUE
 90
4
  1
Mounting Hole Depth
304
ACVALUE_END
170
5
140
0.125
171
1
172
0
173
0
174
0
175
2
176
1
 91
33
178
0
145
0.0
301
CELL_VALUE
 90
4
  1
Through
304
ACVALUE_END
170
5
140
0.125
171
1
172
0
173
1
174
0
175
1
176
1
 91
1
178
0
145
0.0
170
1
171
1
172
0
173
0
174
0
175
1
176
1
 91
33
178
0
145
0.0
301
CELL_VALUE
 90
4
  1
Mounting Hole Quantity
304
ACVALUE_END
170
5
140
0.125
171
1
172
0
173
0
174
0
175
2
176
1
 91
33
178
0
145
0.0
301
CELL_VALUE
 90
4
  1
3
304
ACVALUE_END
170
5
140
0.125
171
1
172
0
173
1
174
0
175
1
176
1
 91
1
178
0
145
0.0
170
1
  0
ACAD_TABLE
  5
285
100
AcDbEntity
  8
0
 62
2
  6
CONTINUOUS
100
AcDbBlockReference
  2
*T3
 10
0.52125
 20
1.459
 30
0.0
100
AcDbTable
342
       3C3
343
20B
 11
1.0
 21
0.0
 31
0.0
 90
22
 91
3
 92
3
 93
16
 94
0
 95
0
 96
0
 41
0.05
141
0.34375
141
0.344
141
0.25
142
1.3
142
2.0
142
1.3
171
1
172
0
173
0
174
0
175
3
176
1
 91
33
178
0
145
0.0
301
CELL_VALUE
 90
4
  1
Port Headings
304
ACVALUE_END
170
5
140
0.145
171
1
172
0
173
1
174
0
175
1
176
1
 91
1
178
0
145
0.0
170
1
171
1
172
0
173
1
174
0
175
1
176
1
 91
1
178
0
145
0.0
170
1
171
1
172
0
173
0
174
0
175
1
176
1
 91
33
178
0
145
0.0
301
CELL_VALUE
 90
4
  1
Product
304
ACVALUE_END
170
5
140
0.145
171
1
172
0
173
0
174
0
175
1
176
1
 91
33
178
0
145
0.0
301
CELL_VALUE
 90
4
  1
Port
304
ACVALUE_END
170
5
140
0.145
171
1
172
0
173
0
174
0
175
1
176
1
 91
33
178
0
145
0.0
301
CELL_VALUE
 90
4
  1
Size
304
ACVALUE_END
170
5
140
0.145
171
1
172
0
173
0
174
0
175
1
176
1
 91
33
178
0
145
0.0
301
CELL_VALUE
 90
4
  1
X8A
304
ACVALUE_END
170
5
140
0.125
171
1
172
0
173
0
174
0
175
1
176
1
 91
33
178
0
145
0.0
301
CELL_VALUE
 90
4
  1
All Ports
304
ACVALUE_END
170
5
140
0.125
171
1
172
0
173
0
174
0
175
1
176
1
 91
33
178
0
145
0.0
301
CELL_VALUE
 90
4
  1
3/4" BSPP
304
ACVALUE_END
170
5
140
0.125
  0
MTEXT
  5
286
100
AcDbEntity
  8
0
100
AcDbMText
 62
2
  6
CONTINUOUS
  7
STANDARD
 71
1
 72
1
 10
0.52125
 20
5.75995
 30
0.0
 11
1.0
 21
0.0
 31
0.0
 44
0.6
  3
Notes\P \P1. Important: Carefully consider\P   the maximum system pressure. The\P   pressure rating of the manifold is\P   dependent on the manifold material,\P   with the port type/size a secondary\P   consideration. Manifolds\P   constructed of alu
  1
minum are not\P   rated for pressures higher than\P   3000 psi (210 bar), regardless of\P   the port type/size specified.
 40
0.1
 41
3.04
  0
LINE
  5
287
100
AcDbEntity
  8
0
100
AcDbLine
 62
7
  6
CONTINUOUS
 10
0.30125
 20
0.30125
 11
0.30125
 21
16.69875
  0
LINE
  5
288
100
AcDbEntity
  8
0
100
AcDbLine
 62
7
  6
CONTINUOUS
 10
0.30125
 20
0.30125
 11
21.69875
 21
0.30125
  0
LINE
  5
289
100
AcDbEntity
  8
0
100
AcDbLine
 62
7
  6
CONTINUOUS
 10
0.30125
 20
16.69875
 11
21.69875
 21
16.69875
  0
LINE
  5
28A
100
AcDbEntity
  8
0
100
AcDbLine
 62
7
  6
CONTINUOUS
 10
21.69875
 20
0.30125
 11
21.69875
 21
16.69875
  0
LINE
  5
28B
100
AcDbEntity
  8
0
100
AcDbLine
 62
7
  6
CONTINUOUS
 10
8.785000436
 20
10.533807827
 11
9.3512960299
 21
11.080807399
  0
LINE
  5
28C
100
AcDbEntity
  8
0
100
AcDbLine
 62
4
  6
CONTINUOUS
 10
9.4046197256
 20
10.6323141331
 11
9.4356779846
 21
10.6623141094
  0
LINE
  5
28D
100
AcDbEntity
  8
0
100
AcDbLine
 62
7
  6
CONTINUOUS
 10
9.6763861761
 20
10.9428377988
 11
9.6609712463
 21
10.9284925885
  0
LINE
  5
28E
100
AcDbEntity
  8
0
100
AcDbLine
 62
7
  6
CONTINUOUS
 10
12.6487039701
 20
5.919192601
 11
8.785000436
 21
6.1871413512
  0
LINE
  5
28F
100
AcDbEntity
  8
0
100
AcDbLine
 62
7
  6
CONTINUOUS
 10
8.785000436
 20
10.533807827
 11
8.785000436
 21
6.1871413512
  0
LINE
  5
290
100
AcDbEntity
  8
0
100
AcDbLine
 62
7
  6
CONTINUOUS
 10
10.5039752175
 20
10.7567296558
 11
10.4885602878
 21
10.7423844454
  0
LINE
  5
291
100
AcDbEntity
  8
0
100
AcDbLine
 62
7
  6
CONTINUOUS
 10
9.6449732319
 20
10.8981518604
 11
9.6449732319
 21
10.7870703838
  0
LINE
  5
292
100
AcDbEntity
  8
0
100
AcDbLine
 62
7
  6
CONTINUOUS
 10
10.0357018395
 20
10.9522262691
 11
10.0357018395
 21
10.8666515205
  0
LINE
  5
293
100
AcDbEntity
  8
0
100
AcDbLine
 62
7
  6
CONTINUOUS
 10
10.2102549186
 20
10.9401209719
 11
10.2102549186
 21
10.8782492017
  0
LINE
  5
294
100
AcDbEntity
  8
0
100
AcDbLine
 62
4
  6
CONTINUOUS
 10
11.765351179
 20
10.4426058069
 11
11.7705275543
 21
10.4476058018
  0
LINE
  5
295
100
AcDbEntity
  8
0
100
AcDbLine
 62
4
  6
CONTINUOUS
 10
11.8491886126
 20
10.4635865554
 11
11.8181303536
 21
10.4335865791
  0
LINE
  5
296
100
AcDbEntity
  8
0
100
AcDbLine
 62
7
  6
CONTINUOUS
 10
12.0970505736
 20
10.6151168284
 11
12.0983605858
 21
10.616358492
  0
LINE
  5
297
100
AcDbEntity
  8
0
100
AcDbLine
 62
7
  6
CONTINUOUS
 10
10.5199732319
 20
10.8981518604
 11
10.5199732319
 21
10.7870703838
  0
LINE
  5
298
100
AcDbEntity
  8
0
100
AcDbLine
 62
7
  6
CONTINUOUS
 10
13.214999564
 20
10.8128586488
 11
12.6487039701
 21
10.2658590769
  0
LINE
  5
299
100
AcDbEntity
  8
0
100
AcDbLine
 62
4
  6
CONTINUOUS
 10
12.9694914149
 20
10.3935699013
 11
12.9628360734
 21
10.3871413346
  0
LINE
  5
29A
100
AcDbEntity
  8
0
100
AcDbLine
 62
4
  6
CONTINUOUS
 10
12.9583991795
 20
10.3331795157
 11
12.9517438386
 21
10.3267509498
  0
LINE
  5
29B
100
AcDbEntity
  8
0
100
AcDbLine
 62
4
  6
CONTINUOUS
 10
12.9694914149
 20
10.2693794649
 11
12.9517438386
 21
10.2522366216
  0
LINE
  5
29C
100
AcDbEntity
  8
0
100
AcDbLine
 62
4
  6
CONTINUOUS
 10
12.9717098621
 20
10.2273657122
 11
12.9495253908
 21
10.2059371572
  0
LINE
  5
29D
100
AcDbEntity
  8
0
100
AcDbLine
 62
4
  6
CONTINUOUS
 10
12.9428700508
 20
10.1995085921
 11
12.940651603
 21
10.1973657359
  0
LINE
  5
29E
100
AcDbEntity
  8
0
100
AcDbLine
 62
4
  6
CONTINUOUS
 10
13.1301069834
 20
10.3610470838
 11
13.0990487243
 21
10.3310471074
  0
LINE
  5
29F
100
AcDbEntity
  8
0
100
AcDbLine
 62
4
  6
CONTINUOUS
 10
13.1034856182
 20
10.288416377
 11
13.125670089
 21
10.3098449316
  0
LINE
  5
2A0
100
AcDbEntity
  8
0
100
AcDbLine
 62
4
  6
CONTINUOUS
 10
12.9694914149
 20
10.1507085838
 11
12.940651603
 21
10.122851463
  0
LINE
  5
2A1
100
AcDbEntity
  8
0
100
AcDbLine
 62
4
  6
CONTINUOUS
 10
12.9717098621
 20
10.119733997
 11
12.9495253908
 21
10.098305442
  0
LINE
  5
2A2
100
AcDbEntity
  8
0
100
AcDbLine
 62
4
  6
CONTINUOUS
 10
13.1301069834
 20
10.2561750909
 11
13.0990487243
 21
10.2261751146
  0
LINE
  5
2A3
100
AcDbEntity
  8
0
100
AcDbLine
 62
4
  6
CONTINUOUS
 10
12.9495253908
 20
10.0486292232
 11
12.9694914149
 21
10.0679149227
  0
LINE
  5
2A4
100
AcDbEntity
  8
0
100
AcDbLine
 62
4
  6
CONTINUOUS
 10
13.1034856182
 20
10.1973433829
 11
13.125670089
 21
10.2187719375
  0
LINE
  5
2A5
100
AcDbEntity
  8
0
100
AcDbLine
 62
4
  6
CONTINUOUS
 10
12.9717098621
 20
10.0369403359
 11
12.9539622846
 21
10.0197974915
  0
LINE
  5
2A6
100
AcDbEntity
  8
0
100
AcDbLine
 62
4
  6
CONTINUOUS
 10
13.125670089
 20
10.1608163858
 11
13.1034856182
 21
10.1393878312
  0
LINE
  5
2A7
100
AcDbEntity
  8
0
100
AcDbLine
 62
4
  6
CONTINUOUS
 10
12.9694914149
 20
9.9851213169
 11
12.9628360734
 21
9.9786927502
  0
LINE
  5
2A8
100
AcDbEntity
  8
0
100
AcDbLine
 62
4
  6
CONTINUOUS
 10
12.9517438386
 20
9.9321011983
 11
12.9561807325
 21
9.936386909
  0
LINE
  5
2A9
100
AcDbEntity
  8
0
100
AcDbLine
 62
4
  6
CONTINUOUS
 10
13.125670089
 20
10.0642238365
 11
13.1034856182
 21
10.0427952819
  0
LINE
  5
2AA
100
AcDbEntity
  8
0
100
AcDbLine
 62
4
  6
CONTINUOUS
 10
12.9717098621
 20
9.9127498995
 11
12.9495253908
 21
9.8913213445
  0
LINE
  5
2AB
100
AcDbEntity
  8
0
100
AcDbLine
 62
4
  6
CONTINUOUS
 10
13.0484681308
 20
9.9565349805
 11
13.0573419191
 21
9.9651064022
  0
LINE
  5
2AC
100
AcDbEntity
  8
0
100
AcDbLine
 62
4
  6
CONTINUOUS
 10
12.940651603
 20
9.8496324256
 11
12.9717098621
 21
9.8796324019
  0
LINE
  5
2AD
100
AcDbEntity
  8
0
100
AcDbLine
 62
4
  6
CONTINUOUS
 10
13.0351574482
 20
9.9381582785
 11
13.04181279
 21
9.9445868454
  0
LINE
  5
2AE
100
AcDbEntity
  8
0
100
AcDbLine
 62
4
  6
CONTINUOUS
 10
13.04181279
 20
9.8976704457
 11
13.0351574482
 21
9.8912418789
  0
LINE
  5
2AF
100
AcDbEntity
  8
0
100
AcDbLine
 62
4
  6
CONTINUOUS
 10
12.9694914149
 20
9.8278133829
 11
12.9517438386
 21
9.8106705396
  0
LINE
  5
2B0
100
AcDbEntity
  8
0
100
AcDbLine
 62
4
  6
CONTINUOUS
 10
13.0573419191
 20
9.9071508574
 11
13.0484681308
 21
9.8985794357
  0
LINE
  5
2B1
100
AcDbEntity
  8
0
100
AcDbLine
 62
4
  6
CONTINUOUS
 10
13.1301069834
 20
9.8946428648
 11
13.0990487243
 21
9.8646428884
  0
LINE
  5
2B2
100
AcDbEntity
  8
0
100
AcDbLine
 62
4
  6
CONTINUOUS
 10
12.9517438386
 20
9.7057985744
 11
12.9717098621
 21
9.7250842732
  0
LINE
  5
2B3
100
AcDbEntity
  8
0
100
AcDbLine
 62
4
  6
CONTINUOUS
 10
12.9717098621
 20
9.6754080821
 11
12.940651603
 21
9.6454081058
  0
LINE
  5
2B4
100
AcDbEntity
  8
0
100
AcDbLine
 62
4
  6
CONTINUOUS
 10
13.1301069834
 20
9.8284079525
 11
13.0990487243
 21
9.7984079761
  0
LINE
  5
2B5
100
AcDbEntity
  8
0
100
AcDbLine
 62
4
  6
CONTINUOUS
 10
12.9717098621
 20
9.5512176181
 11
12.940651603
 21
9.5212176417
  0
LINE
  5
2B6
100
AcDbEntity
  8
0
100
AcDbLine
 62
4
  6
CONTINUOUS
 10
13.1034856182
 20
9.6233074487
 11
13.125670089
 21
9.6447360033
  0
LINE
  5
2B7
100
AcDbEntity
  8
0
100
AcDbLine
 62
4
  6
CONTINUOUS
 10
12.9717098621
 20
9.4932620664
 11
12.940651603
 21
9.46326209
  0
LINE
  5
2B8
100
AcDbEntity
  8
0
100
AcDbLine
 62
4
  6
CONTINUOUS
 10
12.9672729677
 20
9.4558588991
 11
12.940651603
 21
9.4301446339
  0
LINE
  5
2B9
100
AcDbEntity
  8
0
100
AcDbLine
 62
4
  6
CONTINUOUS
 10
13.1301069834
 20
9.5910661696
 11
13.0990487243
 21
9.5610661932
  0
LINE
  5
2BA
100
AcDbEntity
  8
0
100
AcDbLine
 62
4
  6
CONTINUOUS
 10
12.940651603
 20
9.3721890822
 11
12.9672729677
 21
9.3979033474
  0
LINE
  5
2BB
100
AcDbEntity
  8
0
100
AcDbLine
 62
4
  6
CONTINUOUS
 10
12.9672729677
 20
9.3647858913
 11
12.9628360734
 21
9.3605001802
  0
LINE
  5
2BC
100
AcDbEntity
  8
0
100
AcDbLine
 62
4
  6
CONTINUOUS
 10
12.9495253908
 20
9.2896874956
 11
12.9450884969
 21
9.2854017849
  0
LINE
  5
2BD
100
AcDbEntity
  8
0
100
AcDbLine
 62
7
  6
CONTINUOUS
 10
9.6609712463
 20
10.7567296558
 11
9.6763861761
 21
10.7423844454
  0
LINE
  5
2BE
100
AcDbEntity
  8
0
100
AcDbLine
 62
4
  6
CONTINUOUS
 10
13.0307205543
 20
10.0056270631
 11
13.0617788134
 21
10.0687444818
  0
LINE
  5
2BF
100
AcDbEntity
  8
0
100
AcDbLine
 62
7
  6
CONTINUOUS
 10
12.9493412535
 20
8.8012895267
 11
12.9506250503
 21
8.8025067933
  0
LINE
  5
2C0
100
AcDbEntity
  8
0
100
AcDbLine
 62
4
  6
CONTINUOUS
 10
12.787948482
 20
7.5363887456
 11
12.7853602925
 21
7.5411331904
  0
LINE
  5
2C1
100
AcDbEntity
  8
0
100
AcDbLine
 62
4
  6
CONTINUOUS
 10
12.8060657991
 20
7.5538887312
 11
12.8008894225
 21
7.563377623
  0
LINE
  5
2C2
100
AcDbEntity
  8
0
100
AcDbLine
 62
4
  6
CONTINUOUS
 10
12.9539622846
 20
10.0197974915
 11
12.9495253908
 21
10.0072324479
  0
LINE
  5
2C3
100
AcDbEntity
  8
0
100
AcDbLine
 62
4
  6
CONTINUOUS
 10
12.9495253908
 20
9.7367731882
 11
12.9717098621
 21
9.7830398526
  0
LINE
  5
2C4
100
AcDbEntity
  8
0
100
AcDbLine
 62
4
  6
CONTINUOUS
 10
13.0990487243
 20
9.6990555939
 11
13.1301069834
 21
9.7621730402
  0
LINE
  5
2C5
100
AcDbEntity
  8
0
100
AcDbLine
 62
4
  6
CONTINUOUS
 10
12.9495253908
 20
10.3660048688
 11
12.9517438386
 21
10.376427058
  0
LINE
  5
2C6
100
AcDbEntity
  8
0
100
AcDbLine
 62
4
  6
CONTINUOUS
 10
12.9694914149
 20
10.343893793
 11
12.9717098621
 21
10.3543159815
  0
LINE
  5
2C7
100
AcDbEntity
  8
0
100
AcDbLine
 62
4
  6
CONTINUOUS
 10
12.9717098621
 20
10.2798016534
 11
12.9694914149
 21
10.2693794649
  0
LINE
  5
2C8
100
AcDbEntity
  8
0
100
AcDbLine
 62
4
  6
CONTINUOUS
 10
12.9717098621
 20
10.1611308276
 11
12.9694914149
 21
10.1507085838
  0
LINE
  5
2C9
100
AcDbEntity
  8
0
100
AcDbLine
 62
4
  6
CONTINUOUS
 10
12.9694914149
 20
10.0679149227
 11
12.9717098621
 21
10.0783371665
  0
LINE
  5
2CA
100
AcDbEntity
  8
0
100
AcDbLine
 62
4
  6
CONTINUOUS
 10
12.9495253908
 20
9.9244387868
 11
12.9517438386
 21
9.9321011983
  0
LINE
  5
2CB
100
AcDbEntity
  8
0
100
AcDbLine
 62
4
  6
CONTINUOUS
 10
13.0307205543
 20
9.9228334158
 11
13.0351574482
 21
9.9381582785
  0
LINE
  5
2CC
100
AcDbEntity
  8
0
100
AcDbLine
 62
4
  6
CONTINUOUS
 10
13.0307205543
 20
9.7820842168
 11
13.0617788134
 21
9.8783191124
  0
LINE
  5
2CD
100
AcDbEntity
  8
0
100
AcDbLine
 62
4
  6
CONTINUOUS
 10
12.940651603
 20
9.46326209
 11
12.9717098621
 21
9.5512176181
  0
LINE
  5
2CE
100
AcDbEntity
  8
0
100
AcDbLine
 62
4
  6
CONTINUOUS
 10
13.1301069834
 20
9.6959381141
 11
13.0990487243
 21
9.6990555939
  0
LINE
  5
2CF
100
AcDbEntity
  8
0
100
AcDbLine
 62
4
  6
CONTINUOUS
 10
12.9791046857
 20
9.7819033159
 11
12.9495253908
 21
9.7864493517
  0
LINE
  5
2D0
100
AcDbEntity
  8
0
100
AcDbLine
 62
7
  6
CONTINUOUS
 10
10.4885602878
 20
10.9428377988
 11
10.5039752175
 21
10.9284925885
  0
LINE
  5
2D1
100
AcDbEntity
  8
0
100
AcDbLine
 62
7
  6
CONTINUOUS
 10
12.6487039701
 20
10.2658590769
 11
12.6487039701
 21
5.919192601
  0
LINE
  5
2D2
100
AcDbEntity
  8
0
100
AcDbLine
 62
4
  6
CONTINUOUS
 10
12.77500754
 20
7.5238887549
 11
12.77500754
 21
7.4731776471
  0
LINE
  5
2D3
100
AcDbEntity
  8
0
100
AcDbLine
 62
4
  6
CONTINUOUS
 10
12.787948482
 20
7.4856776379
 11
12.787948482
 21
7.5363887456
  0
LINE
  5
2D4
100
AcDbEntity
  8
0
100
AcDbLine
 62
4
  6
CONTINUOUS
 10
12.8060657991
 20
7.5031776235
 11
12.8060657991
 21
7.5538887312
  0
LINE
  5
2D5
100
AcDbEntity
  8
0
100
AcDbLine
 62
4
  6
CONTINUOUS
 10
12.9717098621
 20
10.0038228936
 11
12.9694914149
 21
9.9851213169
  0
LINE
  5
2D6
100
AcDbEntity
  8
0
100
AcDbLine
 62
4
  6
CONTINUOUS
 10
12.9717098621
 20
9.8465149596
 11
12.9694914149
 21
9.8278133829
  0
LINE
  5
2D7
100
AcDbEntity
  8
0
100
AcDbLine
 62
4
  6
CONTINUOUS
 10
12.9628360734
 20
10.3871413346
 11
12.9613571087
 21
10.3774334314
  0
LINE
  5
2D8
100
AcDbEntity
  8
0
100
AcDbLine
 62
4
  6
CONTINUOUS
 10
12.9598781441
 20
10.3428874189
 11
12.9583991795
 21
10.3331795157
  0
LINE
  5
2D9
100
AcDbEntity
  8
0
100
AcDbLine
 62
4
  6
CONTINUOUS
 10
13.044031236
 20
9.9108524522
 11
13.04181279
 21
9.8976704457
  0
LINE
  5
2DA
100
AcDbEntity
  8
0
100
AcDbLine
 62
4
  6
CONTINUOUS
 10
12.9628360734
 20
9.3605001802
 11
12.9495253908
 21
9.2896874956
  0
LINE
  5
2DB
100
AcDbEntity
  8
0
100
AcDbLine
 62
4
  6
CONTINUOUS
 10
12.9495253908
 20
9.6953763576
 11
12.9517438386
 21
9.7057985744
  0
LINE
  5
2DC
100
AcDbEntity
  8
0
100
AcDbLine
 62
4
  6
CONTINUOUS
 10
13.0990487243
 20
10.2675719451
 11
13.1034856182
 21
10.288416377
  0
LINE
  5
2DD
100
AcDbEntity
  8
0
100
AcDbLine
 62
4
  6
CONTINUOUS
 10
13.044031236
 20
9.9356905478
 11
13.0484681308
 21
9.9565349805
  0
LINE
  5
2DE
100
AcDbEntity
  8
0
100
AcDbLine
 62
4
  6
CONTINUOUS
 10
13.0990487243
 20
10.1764989511
 11
13.1034856182
 21
10.1973433829
  0
LINE
  5
2DF
100
AcDbEntity
  8
0
100
AcDbLine
 62
4
  6
CONTINUOUS
 10
13.0617788134
 20
9.9279952966
 11
13.0573419191
 21
9.9071508574
  0
LINE
  5
2E0
100
AcDbEntity
  8
0
100
AcDbLine
 62
4
  6
CONTINUOUS
 10
12.940651603
 20
9.330792262
 11
12.9428700508
 21
9.3412144822
  0
LINE
  5
2E1
100
AcDbEntity
  8
0
100
AcDbLine
 62
4
  6
CONTINUOUS
 10
13.1301069834
 20
10.1816608181
 11
13.125670089
 21
10.1608163858
  0
LINE
  5
2E2
100
AcDbEntity
  8
0
100
AcDbLine
 62
4
  6
CONTINUOUS
 10
12.9672729677
 20
9.3979033474
 11
12.9717098621
 21
9.4187477866
  0
LINE
  5
2E3
100
AcDbEntity
  8
0
100
AcDbLine
 62
4
  6
CONTINUOUS
 10
13.1301069834
 20
10.0850682687
 11
13.125670089
 21
10.0642238365
  0
LINE
  5
2E4
100
AcDbEntity
  8
0
100
AcDbLine
 62
4
  6
CONTINUOUS
 10
12.9694914149
 20
9.3089731951
 11
12.9717098621
 21
9.3193954155
  0
LINE
  5
2E5
100
AcDbEntity
  8
0
100
AcDbLine
 62
4
  6
CONTINUOUS
 10
13.0990487243
 20
9.60246301
 11
13.1034856182
 21
9.6233074487
  0
LINE
  5
2E6
100
AcDbEntity
  8
0
100
AcDbLine
 62
4
  6
CONTINUOUS
 10
11.7705275543
 20
10.4476058018
 11
11.7803601877
 21
10.4496033971
  0
LINE
  5
2E7
100
AcDbEntity
  8
0
100
AcDbLine
 62
4
  6
CONTINUOUS
 10
13.0617788134
 20
10.0025095833
 11
13.0307205543
 21
10.0056270631
  0
LINE
  5
2E8
100
AcDbEntity
  8
0
100
AcDbLine
 62
4
  6
CONTINUOUS
 10
12.940651603
 20
9.2976748041
 11
12.940651603
 21
9.330792262
  0
LINE
  5
2E9
100
AcDbEntity
  8
0
100
AcDbLine
 62
4
  6
CONTINUOUS
 10
12.940651603
 20
10.1973657359
 11
12.940651603
 21
10.2001255135
  0
LINE
  5
2EA
100
AcDbEntity
  8
0
100
AcDbLine
 62
4
  6
CONTINUOUS
 10
12.9495253908
 20
10.0072324479
 11
12.9495253908
 21
9.9658356174
  0
LINE
  5
2EB
100
AcDbEntity
  8
0
100
AcDbLine
 62
4
  6
CONTINUOUS
 10
12.9495253908
 20
9.6539795271
 11
12.9495253908
 21
9.6953763576
  0
LINE
  5
2EC
100
AcDbEntity
  8
0
100
AcDbLine
 62
4
  6
CONTINUOUS
 10
12.9495253908
 20
9.8250864046
 11
12.9495253908
 21
9.8582038469
  0
LINE
  5
2ED
100
AcDbEntity
  8
0
100
AcDbLine
 62
4
  6
CONTINUOUS
 10
12.9495253908
 20
9.8913213445
 11
12.9495253908
 21
9.9244387868
  0
LINE
  5
2EE
100
AcDbEntity
  8
0
100
AcDbLine
 62
4
  6
CONTINUOUS
 10
12.9495253908
 20
10.2583730983
 11
12.9495253908
 21
10.2914906512
  0
LINE
  5
2EF
100
AcDbEntity
  8
0
100
AcDbLine
 62
4
  6
CONTINUOUS
 10
12.9495253908
 20
10.3328874265
 11
12.9495253908
 21
10.3660048688
  0
LINE
  5
2F0
100
AcDbEntity
  8
0
100
AcDbLine
 62
4
  6
CONTINUOUS
 10
12.9606176264
 20
9.9931086161
 11
12.9606176264
 21
10.0262260584
  0
LINE
  5
2F1
100
AcDbEntity
  8
0
100
AcDbLine
 62
4
  6
CONTINUOUS
 10
12.9717098621
 20
10.3129192062
 11
12.9717098621
 21
10.2798016534
  0
LINE
  5
2F2
100
AcDbEntity
  8
0
100
AcDbLine
 62
4
  6
CONTINUOUS
 10
12.9717098621
 20
10.1776895487
 11
12.9717098621
 21
10.1611308276
  0
LINE
  5
2F3
100
AcDbEntity
  8
0
100
AcDbLine
 62
4
  6
CONTINUOUS
 10
12.9717098621
 20
10.0369403359
 11
12.9717098621
 21
10.0038228936
  0
LINE
  5
2F4
100
AcDbEntity
  8
0
100
AcDbLine
 62
4
  6
CONTINUOUS
 10
12.9717098621
 20
9.8796324019
 11
12.9717098621
 21
9.8465149596
  0
LINE
  5
2F5
100
AcDbEntity
  8
0
100
AcDbLine
 62
4
  6
CONTINUOUS
 10
12.9717098621
 20
9.3193954155
 11
12.9717098621
 21
9.3525128743
  0
LINE
  5
2F6
100
AcDbEntity
  8
0
100
AcDbLine
 62
4
  6
CONTINUOUS
 10
12.9717098621
 20
9.4187477866
 11
12.9717098621
 21
9.4435858891
  0
LINE
  5
2F7
100
AcDbEntity
  8
0
100
AcDbLine
 62
4
  6
CONTINUOUS
 10
12.9717098621
 20
10.0783371665
 11
12.9717098621
 21
10.119733997
  0
LINE
  5
2F8
100
AcDbEntity
  8
0
100
AcDbLine
 62
4
  6
CONTINUOUS
 10
12.9717098621
 20
10.3543159815
 11
12.9717098621
 21
10.3874334239
  0
LINE
  5
2F9
100
AcDbEntity
  8
0
100
AcDbLine
 62
4
  6
CONTINUOUS
 10
12.9791046857
 20
9.7653445947
 11
12.9791046857
 21
9.7819033159
  0
LINE
  5
2FA
100
AcDbEntity
  8
0
100
AcDbLine
 62
4
  6
CONTINUOUS
 10
13.0307205543
 20
9.8979953203
 11
13.0307205543
 21
9.9228334158
  0
LINE
  5
2FB
100
AcDbEntity
  8
0
100
AcDbLine
 62
4
  6
CONTINUOUS
 10
13.044031236
 20
9.9108524522
 11
13.044031236
 21
9.9356905478
  0
LINE
  5
2FC
100
AcDbEntity
  8
0
100
AcDbLine
 62
4
  6
CONTINUOUS
 10
13.0529050247
 20
10.0049773132
 11
13.0529050247
 21
10.0491339214
  0
LINE
  5
2FD
100
AcDbEntity
  8
0
100
AcDbLine
 62
4
  6
CONTINUOUS
 10
13.0617788134
 20
9.9528333922
 11
13.0617788134
 21
9.9279952966
  0
LINE
  5
2FE
100
AcDbEntity
  8
0
100
AcDbLine
 62
4
  6
CONTINUOUS
 10
12.9613571087
 20
10.3774334314
 11
12.9598781441
 21
10.3428874189
  0
LINE
  5
2FF
100
AcDbEntity
  8
0
100
AcDbLine
 62
4
  6
CONTINUOUS
 10
13.1108804414
 20
10.425269275
 11
13.1167963008
 21
10.475140165
  0
LINE
  5
300
100
AcDbEntity
  8
0
100
AcDbLine
 62
4
  6
CONTINUOUS
 10
13.1167963008
 20
9.5119741175
 11
13.1227121598
 21
9.5618450105
  0
LINE
  5
301
100
AcDbEntity
  8
0
100
AcDbLine
 62
4
  6
CONTINUOUS
 10
12.7775957277
 20
7.5336331963
 11
12.77500754
 21
7.5238887549
  0
LINE
  5
302
100
AcDbEntity
  8
0
100
AcDbLine
 62
4
  6
CONTINUOUS
 10
12.7931248582
 20
7.5558776293
 11
12.787948482
 21
7.5363887456
  0
LINE
  5
303
100
AcDbEntity
  8
0
100
AcDbLine
 62
4
  6
CONTINUOUS
 10
12.8008894225
 20
7.563377623
 11
12.7931248582
 21
7.5558776293
  0
LINE
  5
304
100
AcDbEntity
  8
0
100
AcDbLine
 62
4
  6
CONTINUOUS
 10
12.7853602925
 20
7.5411331904
 11
12.7775957277
 21
7.5336331963
  0
LINE
  5
305
100
AcDbEntity
  8
0
100
AcDbLine
 62
4
  6
CONTINUOUS
 10
12.77500754
 20
7.4731776471
 11
12.8060657991
 21
7.5031776235
  0
LINE
  5
306
100
AcDbEntity
  8
0
100
AcDbLine
 62
4
  6
CONTINUOUS
 10
11.7803601877
 20
10.4496033971
 11
11.7974372633
 21
10.4510985867
  0
LINE
  5
307
100
AcDbEntity
  8
0
100
AcDbLine
 62
7
  6
CONTINUOUS
 10
12.6487039701
 20
10.2658590769
 11
8.785000436
 21
10.533807827
  0
LINE
  5
308
100
AcDbEntity
  8
0
100
AcDbLine
 62
4
  6
CONTINUOUS
 10
11.8181303536
 20
10.4335865791
 11
11.7819081337
 21
10.4360985986
  0
LINE
  5
309
100
AcDbEntity
  8
0
100
AcDbLine
 62
4
  6
CONTINUOUS
 10
11.7974372633
 20
10.4510985867
 11
11.8336594831
 21
10.4485865672
  0
LINE
  5
30A
100
AcDbEntity
  8
0
100
AcDbLine
 62
4
  6
CONTINUOUS
 10
9.4408419454
 20
10.6298021136
 11
9.3683975057
 21
10.6348261525
  0
LINE
  5
30B
100
AcDbEntity
  8
0
100
AcDbLine
 62
4
  6
CONTINUOUS
 10
11.7700074334
 20
10.4396034038
 11
11.765351179
 21
10.4426058069
  0
LINE
  5
30C
100
AcDbEntity
  8
0
100
AcDbLine
 62
4
  6
CONTINUOUS
 10
13.0990487243
 20
9.5610661932
 11
13.0990487243
 21
9.60246301
  0
LINE
  5
30D
100
AcDbEntity
  8
0
100
AcDbLine
 62
4
  6
CONTINUOUS
 10
13.0990487243
 20
9.7652905062
 11
13.0990487243
 21
9.8315254185
  0
LINE
  5
30E
100
AcDbEntity
  8
0
100
AcDbLine
 62
4
  6
CONTINUOUS
 10
13.0990487243
 20
9.8646428884
 11
13.0990487243
 21
9.9143190796
  0
LINE
  5
30F
100
AcDbEntity
  8
0
100
AcDbLine
 62
4
  6
CONTINUOUS
 10
13.0990487243
 20
10.0550682924
 11
13.0990487243
 21
10.0881857347
  0
LINE
  5
310
100
AcDbEntity
  8
0
100
AcDbLine
 62
4
  6
CONTINUOUS
 10
13.0990487243
 20
10.1516608417
 11
13.0990487243
 21
10.1764989511
  0
LINE
  5
311
100
AcDbEntity
  8
0
100
AcDbLine
 62
4
  6
CONTINUOUS
 10
13.0990487243
 20
10.2261751146
 11
13.0990487243
 21
10.2675719451
  0
LINE
  5
312
100
AcDbEntity
  8
0
100
AcDbLine
 62
4
  6
CONTINUOUS
 10
13.0990487243
 20
10.3310471074
 11
13.0990487243
 21
10.3807232709
  0
LINE
  5
313
100
AcDbEntity
  8
0
100
AcDbLine
 62
4
  6
CONTINUOUS
 10
13.112359406
 20
10.3770216817
 11
13.112359406
 21
10.3439042394
  0
LINE
  5
314
100
AcDbEntity
  8
0
100
AcDbLine
 62
4
  6
CONTINUOUS
 10
13.112359406
 20
9.9106174903
 11
13.112359406
 21
9.8775000204
  0
LINE
  5
315
100
AcDbEntity
  8
0
100
AcDbLine
 62
4
  6
CONTINUOUS
 10
13.1212331947
 20
9.6984058439
 11
13.1212331947
 21
9.7425624521
  0
LINE
  5
316
100
AcDbEntity
  8
0
100
AcDbLine
 62
4
  6
CONTINUOUS
 10
13.1301069834
 20
10.2975719215
 11
13.1301069834
 21
10.2561750909
  0
LINE
  5
317
100
AcDbEntity
  8
0
100
AcDbLine
 62
4
  6
CONTINUOUS
 10
13.1301069834
 20
10.2064989275
 11
13.1301069834
 21
10.1816608181
  0
LINE
  5
318
100
AcDbEntity
  8
0
100
AcDbLine
 62
4
  6
CONTINUOUS
 10
13.1301069834
 20
10.1181857111
 11
13.1301069834
 21
10.0850682687
  0
LINE
  5
319
100
AcDbEntity
  8
0
100
AcDbLine
 62
4
  6
CONTINUOUS
 10
13.1301069834
 20
9.6324629863
 11
13.1301069834
 21
9.5910661696
  0
LINE
  5
31A
100
AcDbEntity
  8
0
100
AcDbLine
 62
4
  6
CONTINUOUS
 10
13.1301069834
 20
9.8946428648
 11
13.1301069834
 21
9.9443190559
  0
LINE
  5
31B
100
AcDbEntity
  8
0
100
AcDbLine
 62
4
  6
CONTINUOUS
 10
13.1301069834
 20
10.3610470838
 11
13.1301069834
 21
10.4107232473
  0
LINE
  5
31C
100
AcDbEntity
  8
0
100
AcDbLine
 62
7
  6
CONTINUOUS
 10
13.214999564
 20
10.8128586488
 11
13.214999564
 21
6.466192173
  0
LINE
  5
31D
100
AcDbEntity
  8
0
100
AcDbLine
 62
4
  6
CONTINUOUS
 10
12.940651603
 20
10.2001255135
 11
12.9428700508
 21
10.1995085921
  0
LINE
  5
31E
100
AcDbEntity
  8
0
100
AcDbLine
 62
4
  6
CONTINUOUS
 10
11.7819081337
 20
10.4360985986
 11
11.7700074334
 21
10.4396034038
  0
LINE
  5
31F
100
AcDbEntity
  8
0
100
AcDbLine
 62
4
  6
CONTINUOUS
 10
12.9450884969
 20
9.2854017849
 11
12.940651603
 21
9.2976748041
  0
LINE
  5
320
100
AcDbEntity
  8
0
100
AcDbLine
 62
4
  6
CONTINUOUS
 10
12.9717098621
 20
9.3525128743
 11
12.9672729677
 21
9.3647858913
  0
LINE
  5
321
100
AcDbEntity
  8
0
100
AcDbLine
 62
4
  6
CONTINUOUS
 10
12.9717098621
 20
9.4435858891
 11
12.9672729677
 21
9.4558588991
  0
LINE
  5
322
100
AcDbEntity
  8
0
100
AcDbLine
 62
4
  6
CONTINUOUS
 10
12.9517438386
 20
9.8106705396
 11
12.9495253908
 21
9.8250864046
  0
LINE
  5
323
100
AcDbEntity
  8
0
100
AcDbLine
 62
4
  6
CONTINUOUS
 10
12.9628360734
 20
9.9786927502
 11
12.9606176264
 21
9.9931086161
  0
LINE
  5
324
100
AcDbEntity
  8
0
100
AcDbLine
 62
4
  6
CONTINUOUS
 10
13.1108804414
 20
9.5504164474
 11
13.1167963008
 21
9.5119741175
  0
LINE
  5
325
100
AcDbEntity
  8
0
100
AcDbLine
 62
7
  6
CONTINUOUS
 10
9.3512960299
 20
11.080807399
 11
13.214999564
 21
10.8128586488
  0
LINE
  5
326
100
AcDbEntity
  8
0
100
AcDbLine
 62
4
  6
CONTINUOUS
 10
13.0617788134
 20
9.8120841932
 11
13.0307205543
 21
9.848319136
  0
LINE
  5
327
100
AcDbEntity
  8
0
100
AcDbLine
 62
4
  6
CONTINUOUS
 10
13.0351574482
 20
9.8912418789
 11
13.0307205543
 21
9.8979953203
  0
LINE
  5
328
100
AcDbEntity
  8
0
100
AcDbLine
 62
4
  6
CONTINUOUS
 10
13.125670089
 20
9.6447360033
 11
13.1301069834
 21
9.6324629863
  0
LINE
  5
329
100
AcDbEntity
  8
0
100
AcDbLine
 62
4
  6
CONTINUOUS
 10
13.0484681308
 20
9.8985794357
 11
13.044031236
 21
9.9108524522
  0
LINE
  5
32A
100
AcDbEntity
  8
0
100
AcDbLine
 62
4
  6
CONTINUOUS
 10
12.9517438386
 20
10.2522366216
 11
12.9495253908
 21
10.2583730983
  0
LINE
  5
32B
100
AcDbEntity
  8
0
100
AcDbLine
 62
4
  6
CONTINUOUS
 10
13.0573419191
 20
9.9651064022
 11
13.0617788134
 21
9.9528333922
  0
LINE
  5
32C
100
AcDbEntity
  8
0
100
AcDbLine
 62
4
  6
CONTINUOUS
 10
12.9517438386
 20
10.3267509498
 11
12.9495253908
 21
10.3328874265
  0
LINE
  5
32D
100
AcDbEntity
  8
0
100
AcDbLine
 62
4
  6
CONTINUOUS
 10
12.9717098621
 20
10.3874334239
 11
12.9694914149
 21
10.3935699013
  0
LINE
  5
32E
100
AcDbEntity
  8
0
100
AcDbLine
 62
4
  6
CONTINUOUS
 10
13.1034856182
 20
10.0427952819
 11
13.0990487243
 21
10.0550682924
  0
LINE
  5
32F
100
AcDbEntity
  8
0
100
AcDbLine
 62
4
  6
CONTINUOUS
 10
13.04181279
 20
9.9445868454
 11
13.044031236
 21
9.9356905478
  0
LINE
  5
330
100
AcDbEntity
  8
0
100
AcDbLine
 62
4
  6
CONTINUOUS
 10
13.1167963008
 20
10.475140165
 11
13.1227121598
 21
10.4366978381
  0
LINE
  5
331
100
AcDbEntity
  8
0
100
AcDbLine
 62
4
  6
CONTINUOUS
 10
13.1034856182
 20
10.1393878312
 11
13.0990487243
 21
10.1516608417
  0
LINE
  5
332
100
AcDbEntity
  8
0
100
AcDbLine
 62
4
  6
CONTINUOUS
 10
13.125670089
 20
10.2187719375
 11
13.1301069834
 21
10.2064989275
  0
LINE
  5
333
100
AcDbEntity
  8
0
100
AcDbLine
 62
4
  6
CONTINUOUS
 10
13.125670089
 20
10.3098449316
 11
13.1301069834
 21
10.2975719215
  0
LINE
  5
334
100
AcDbEntity
  8
0
100
AcDbLine
 62
7
  6
CONTINUOUS
 10
13.214999564
 20
6.466192173
 11
12.6487039701
 21
5.919192601
  0
ARC
  5
335
100
AcDbEntity
  8
0
100
AcDbCircle
 62
7
  6
CONTINUOUS
 10
10.0719740799
 20
7.9212684143
 40
0.1942316631
100
AcDbArc
 50
334.2859508983
 51
342.5847517232
  0
ARC
  5
336
100
AcDbEntity
  8
0
100
AcDbCircle
 62
7
  6
CONTINUOUS
 10
10.0326161903
 20
7.9612814153
 40
0.1942314616
100
AcDbArc
 50
154.2859530115
 51
162.5847538389
  0
ARC
  5
337
100
AcDbEntity
  8
0
100
AcDbCircle
 62
7
  6
CONTINUOUS
 10
10.0931409325
 20
9.3420797992
 40
0.1157315115
100
AcDbArc
 50
219.9769104756
 51
228.2559135507
  0
ARC
  5
338
100
AcDbEntity
  8
0
100
AcDbCircle
 62
7
  6
CONTINUOUS
 10
12.1447675791
 20
9.199799008
 40
0.1157315115
100
AcDbArc
 50
219.9769104756
 51
228.2559135506
  0
ARC
  5
339
100
AcDbEntity
  8
0
100
AcDbCircle
 62
7
  6
CONTINUOUS
 10
12.1447675791
 20
7.4485754162
 40
0.1157315115
100
AcDbArc
 50
219.9769104756
 51
228.2559135507
  0
ARC
  5
33A
100
AcDbEntity
  8
0
100
AcDbCircle
 62
7
  6
CONTINUOUS
 10
10.0931409325
 20
7.5908562074
 40
0.1157315115
100
AcDbArc
 50
219.9769104756
 51
228.2559135507
  0
ARC
  5
33B
100
AcDbEntity
  8
0
100
AcDbCircle
 62
7
  6
CONTINUOUS
 10
10.4214193308
 20
10.7297203553
 40
0.0700833602
100
AcDbArc
 50
10.7705179584
 51
11.2979364932
  0
ARC
  5
33C
100
AcDbEntity
  8
0
100
AcDbCircle
 62
7
  6
CONTINUOUS
 10
9.7418799531
 20
10.7301402522
 40
0.0683905435
100
AcDbArc
 50
168.5477180082
 51
169.5517357339
  0
SPLINE
  5
33D
100
AcDbEntity
  8
0
100
AcDbSpline
 62
7
  6
CONTINUOUS
 70
0
 71
3
 72
28
 73
24
 74
0
 42
0.0000001
 43
0.0000001
 44
0.0000000001
 40
0.0
 40
0.0
 40
0.0
 40
0.0
 40
0.0760831817
 40
0.1533751155
 40
0.2311100999
 40
0.3086182073
 40
0.3852280831
 40
0.4602541833
 40
0.5330373694
 40
0.6029453116
 40
0.6693845349
 40
0.7317985802
 40
0.7896935384
 40
0.8168094458
 40
0.8426418223
 40
0.8671494865
 40
0.8902967233
 40
0.9120601912
 40
0.9324245672
 40
0.9513825519
 40
0.9689423384
 40
0.9851323547
 40
1.0
 40
1.0
 40
1.0
 40
1.0
 10
10.033944701
 20
10.8667317105
 30
0.0
 10
10.0398967212
 20
10.8663189365
 30
0.0
 10
10.0519071843
 20
10.8656501679
 30
0.0
 10
10.0700241969
 20
10.8651082194
 30
0.0
 10
10.0882609777
 20
10.8650246165
 30
0.0
 10
10.106440573
 20
10.8653991392
 30
0.0
 10
10.1243925624
 20
10.8662279479
 30
0.0
 10
10.1419469902
 20
10.8675035074
 30
0.0
 10
10.1589365864
 20
10.8692128476
 30
0.0
 10
10.1752002951
 20
10.871340269
 30
0.0
 10
10.1905843681
 20
10.87386363
 30
0.0
 10
10.2049430799
 20
10.8767600376
 30
0.0
 10
10.2161751895
 20
10.8795161168
 30
0.0
 10
10.2245335272
 20
10.881905037
 30
0.0
 10
10.2303270181
 20
10.8837322328
 30
0.0
 10
10.235769408
 20
10.8856297872
 30
0.0
 10
10.2408476676
 20
10.8875937856
 30
0.0
 10
10.2455501883
 20
10.889619112
 30
0.0
 10
10.2498663212
 20
10.8917008112
 30
0.0
 10
10.2537858686
 20
10.8938344327
 30
0.0
 10
10.2572999259
 20
10.8960155707
 30
0.0
 10
10.2604008516
 20
10.8982386773
 30
0.0
 10
10.2622654919
 20
10.8998110999
 30
0.0
 10
10.2631189559
 20
10.9006053999
 30
0.0
  0
SPLINE
  5
33E
100
AcDbEntity
  8
0
100
AcDbSpline
 62
7
  6
CONTINUOUS
 70
0
 71
3
 72
24
 73
20
 74
0
 42
0.0000001
 43
0.0000001
 44
0.0000000001
 40
0.0
 40
0.0
 40
0.0
 40
0.0
 40
0.065112821
 40
0.097787088
 40
0.1305148613
 40
0.1960165582
 40
0.2614017666
 40
0.326419143
 40
0.390855874
 40
0.4546669045
 40
0.5177976664
 40
0.5801342004
 40
0.6415931322
 40
0.7023293502
 40
0.7625104095
 40
0.8222542352
 40
0.881639645
 40
0.9408179498
 40
1.0
 40
1.0
 40
1.0
 40
1.0
 10
10.4902680703
 20
10.7428172425
 30
0.0
 10
10.4906067915
 20
10.7410366003
 30
0.0
 10
10.4910119065
 20
10.7383409894
 30
0.0
 10
10.4913334687
 20
10.7347212895
 30
0.0
 10
10.4915060063
 20
10.7310804316
 30
0.0
 10
10.4914456704
 20
10.7265209623
 30
0.0
 10
10.4909432246
 20
10.721085234
 30
0.0
 10
10.4900215648
 20
10.7157344621
 30
0.0
 10
10.4886879914
 20
10.7105166972
 30
0.0
 10
10.4869805501
 20
10.7054651667
 30
0.0
 10
10.4849379658
 20
10.7006034975
 30
0.0
 10
10.4825970005
 20
10.6959518748
 30
0.0
 10
10.479988396
 20
10.6915225061
 30
0.0
 10
10.4771416996
 20
10.6873150622
 30
0.0
 10
10.4740829331
 20
10.6833196772
 30
0.0
 10
10.4708365527
 20
10.6795251194
 30
0.0
 10
10.4674256343
 20
10.6759165151
 30
0.0
 10
10.4638622653
 20
10.67248126
 30
0.0
 10
10.4613909843
 20
10.6703003329
 30
0.0
 10
10.4601337183
 20
10.6692356937
 30
0.0
  0
SPLINE
  5
33F
100
AcDbEntity
  8
0
100
AcDbSpline
 62
7
  6
CONTINUOUS
 70
0
 71
3
 72
27
 73
23
 74
0
 42
0.0000001
 43
0.0000001
 44
0.0000000001
 40
0.0
 40
0.0
 40
0.0
 40
0.0
 40
0.0844727401
 40
0.1672976196
 40
0.2480934737
 40
0.3265423038
 40
0.4023654559
 40
0.4752906401
 40
0.5450530373
 40
0.61140255
 40
0.6741228228
 40
0.7330160091
 40
0.7879210958
 40
0.8387079153
 40
0.8625307061
 40
0.8852979512
 40
0.9070079818
 40
0.9276626526
 40
0.9472699484
 40
0.9658458177
 40
0.9834125539
 40
1.0
 40
1.0
 40
1.0
 40
1.0
 10
10.1915653694
 20
11.0189815938
 30
0.0
 10
10.2002876759
 20
11.0183766998
 30
0.0
 10
10.2175519245
 20
11.0170251011
 30
0.0
 10
10.2431122683
 20
11.0145479455
 30
0.0
 10
10.2680006578
 20
11.0116476303
 30
0.0
 10
10.2921066651
 20
11.0083373912
 30
0.0
 10
10.3153306175
 20
11.004631431
 30
0.0
 10
10.3375773487
 20
11.0005449525
 30
0.0
 10
10.3587538444
 20
10.9960964219
 30
0.0
 10
10.3787707684
 20
10.9913029717
 30
0.0
 10
10.3975445662
 20
10.9861870757
 30
0.0
 10
10.4149974841
 20
10.9807686982
 30
0.0
 10
10.4310571448
 20
10.9750721246
 30
0.0
 10
10.443476992
 20
10.9700104835
 30
0.0
 10
10.4526446212
 20
10.9658195782
 30
0.0
 10
10.4589843354
 20
10.9626890996
 30
0.0
 10
10.4649291398
 20
10.9595073264
 30
0.0
 10
10.4704726244
 20
10.9562772393
 30
0.0
 10
10.4756089342
 20
10.9530019525
 30
0.0
 10
10.4803333037
 20
10.9496850198
 30
0.0
 10
10.4846409263
 20
10.9463298954
 30
0.0
 10
10.4873067186
 20
10.9440044111
 30
0.0
 10
10.4885635186
 20
10.9428347619
 30
0.0
  0
SPLINE
  5
340
100
AcDbEntity
  8
0
100
AcDbSpline
 62
7
  6
CONTINUOUS
 70
0
 71
3
 72
27
 73
23
 74
0
 42
0.0000001
 43
0.0000001
 44
0.0000000001
 40
0.0
 40
0.0
 40
0.0
 40
0.0
 40
0.0844727401
 40
0.1672976196
 40
0.2480934737
 40
0.3265423038
 40
0.4023654559
 40
0.4752906401
 40
0.5450530373
 40
0.61140255
 40
0.6741228228
 40
0.7330160091
 40
0.7879210958
 40
0.8387079153
 40
0.8625307061
 40
0.8852979512
 40
0.9070079818
 40
0.9276626526
 40
0.9472699484
 40
0.9658458177
 40
0.9834125539
 40
1.0
 40
1.0
 40
1.0
 40
1.0
 10
9.9733810944
 20
10.6662406504
 30
0.0
 10
9.964658788
 20
10.6668455444
 30
0.0
 10
9.9473945393
 20
10.6681971431
 30
0.0
 10
9.9218341956
 20
10.6706742987
 30
0.0
 10
9.8969458061
 20
10.6735746139
 30
0.0
 10
9.8728397987
 20
10.6768848531
 30
0.0
 10
9.8496158463
 20
10.6805908132
 30
0.0
 10
9.8273691151
 20
10.6846772917
 30
0.0
 10
9.8061926194
 20
10.6891258223
 30
0.0
 10
9.7861756954
 20
10.6939192726
 30
0.0
 10
9.7674018976
 20
10.6990351686
 30
0.0
 10
9.7499489798
 20
10.7044535461
 30
0.0
 10
9.733889319
 20
10.7101501196
 30
0.0
 10
9.7214694718
 20
10.7152117608
 30
0.0
 10
9.7123018426
 20
10.7194026661
 30
0.0
 10
9.7059621284
 20
10.7225331447
 30
0.0
 10
9.700017324
 20
10.7257149178
 30
0.0
 10
9.6944738395
 20
10.7289450049
 30
0.0
 10
9.6893375296
 20
10.7322202917
 30
0.0
 10
9.6846131602
 20
10.7355372244
 30
0.0
 10
9.6803055375
 20
10.7388923488
 30
0.0
 10
9.6776397452
 20
10.7412178332
 30
0.0
 10
9.6763829453
 20
10.7423874823
 30
0.0
  0
SPLINE
  5
341
100
AcDbEntity
  8
0
100
AcDbSpline
 62
7
  6
CONTINUOUS
 70
0
 71
3
 72
21
 73
17
 74
0
 42
0.0000001
 43
0.0000001
 44
0.0000000001
 40
0.0
 40
0.0
 40
0.0
 40
0.0
 40
0.1183496173
 40
0.1776961041
 40
0.2373723895
 40
0.2975883447
 40
0.3584971017
 40
0.4823065232
 40
0.5453536299
 40
0.6092199159
 40
0.6737385872
 40
0.7387149867
 40
0.8039982397
 40
0.8694502608
 40
0.9348635148
 40
1.0
 40
1.0
 40
1.0
 40
1.0
 10
9.7039557852
 20
10.6699759078
 30
0.0
 10
9.7015040764
 20
10.6720918084
 30
0.0
 10
9.6979444195
 20
10.6754161138
 30
0.0
 10
9.6935218194
 20
10.6801761901
 30
0.0
 10
9.6903690176
 20
10.6839362691
 30
0.0
 10
9.6873983772
 20
10.6878960117
 30
0.0
 10
9.6836860654
 20
10.693479384
 30
0.0
 10
9.6804551141
 20
10.6994657919
 30
0.0
 10
9.6778321261
 20
10.7058104721
 30
0.0
 10
9.676185579
 20
10.7107884455
 30
0.0
 10
9.6748954468
 20
10.7159247827
 30
0.0
 10
9.6739883916
 20
10.7211822668
 30
0.0
 10
9.6734947416
 20
10.7265206777
 30
0.0
 10
9.6734330646
 20
10.7318934477
 30
0.0
 10
9.6737888183
 20
10.7372500564
 30
0.0
 10
9.6743001435
 20
10.7407898834
 30
0.0
 10
9.6746233893
 20
10.742542714
 30
0.0
  0
SPLINE
  5
342
100
AcDbEntity
  8
0
100
AcDbSpline
 62
7
  6
CONTINUOUS
 70
0
 71
3
 72
21
 73
17
 74
0
 42
0.0000001
 43
0.0000001
 44
0.0000000001
 40
0.0
 40
0.0
 40
0.0
 40
0.0
 40
0.0341429687
 40
0.0723180841
 40
0.1146763036
 40
0.1612655187
 40
0.2120522808
 40
0.2669599432
 40
0.3258572853
 40
0.3885793367
 40
0.4549372658
 40
0.5247002389
 40
0.5976226907
 40
0.6734481982
 40
0.8327181803
 40
1.0
 40
1.0
 40
1.0
 40
1.0
 10
9.9018275073
 20
10.9006053998
 30
0.0
 10
9.9029782204
 20
10.8995344547
 30
0.0
 10
9.9055654165
 20
10.8974254075
 30
0.0
 10
9.9099700313
 20
10.894503355
 30
0.0
 10
9.9150927741
 20
10.8916619167
 30
0.0
 10
9.9209131353
 20
10.8889124253
 30
0.0
 10
9.9274082791
 20
10.886264532
 30
0.0
 10
9.9345524237
 20
10.8837306213
 30
0.0
 10
9.9423161942
 20
10.881320445
 30
0.0
 10
9.9506676814
 20
10.8790441655
 30
0.0
 10
9.9595722275
 20
10.8769124131
 30
0.0
 10
9.9689921366
 20
10.8749331504
 30
0.0
 10
9.9788879392
 20
10.8731153012
 30
0.0
 10
9.9928932109
 20
10.8708807152
 30
0.0
 10
10.0112795122
 20
10.8685674031
 30
0.0
 10
10.0262614043
 20
10.8672645489
 30
0.0
 10
10.033944701
 20
10.8667317105
 30
0.0
  0
SPLINE
  5
343
100
AcDbEntity
  8
0
100
AcDbSpline
 62
7
  6
CONTINUOUS
 70
0
 71
3
 72
11
 73
7
 74
0
 42
0.0000001
 43
0.0000001
 44
0.0000000001
 40
0.0
 40
0.0
 40
0.0
 40
0.0
 40
0.2274146923
 40
0.4715284191
 40
0.729805281
 40
1.0
 40
1.0
 40
1.0
 40
1.0
 10
9.9200870775
 20
10.8897070538
 30
0.0
 10
9.9189895288
 20
10.8918602701
 30
0.0
 10
9.9168371806
 20
10.8963880186
 30
0.0
 10
9.9137889035
 20
10.9035212058
 30
0.0
 10
9.9107959351
 20
10.9111678799
 30
0.0
 10
9.9088762425
 20
10.9164463512
 30
0.0
 10
9.9079201529
 20
10.9191539476
 30
0.0
  0
SPLINE
  5
344
100
AcDbEntity
  8
0
100
AcDbSpline
 62
7
  6
CONTINUOUS
 70
0
 71
3
 72
15
 73
11
 74
0
 42
0.0000001
 43
0.0000001
 44
0.0000000001
 40
0.0
 40
0.0
 40
0.0
 40
0.0
 40
0.1492582953
 40
0.2896921235
 40
0.4220199565
 40
0.5471281248
 40
0.6660945356
 40
0.7802102316
 40
0.8909663823
 40
1.0
 40
1.0
 40
1.0
 40
1.0
 10
9.6609712777
 20
10.756729658
 30
0.0
 10
9.6596861883
 20
10.7579255009
 30
0.0
 10
9.6572645346
 20
10.7603266252
 30
0.0
 10
9.6540042479
 20
10.7640754992
 30
0.0
 10
9.6512342896
 20
10.7678544691
 30
0.0
 10
9.6489588138
 20
10.7716601454
 30
0.0
 10
9.6471825171
 20
10.7754892966
 30
0.0
 10
9.6459101717
 20
10.7793380806
 30
0.0
 10
9.6451447248
 20
10.7832000265
 30
0.0
 10
9.6449736851
 20
10.7857880453
 30
0.0
 10
9.6449735547
 20
10.7870703838
 30
0.0
  0
SPLINE
  5
345
100
AcDbEntity
  8
0
100
AcDbSpline
 62
7
  6
CONTINUOUS
 70
0
 71
3
 72
9
 73
5
 74
0
 42
0.0000001
 43
0.0000001
 44
0.0000000001
 40
0.0
 40
0.0
 40
0.0
 40
0.0
 40
0.4757858795
 40
1.0
 40
1.0
 40
1.0
 40
1.0
 10
10.4885578061
 20
10.7423826531
 30
0.0
 10
10.4863510424
 20
10.7403290965
 30
0.0
 10
10.4814695586
 20
10.7362716985
 30
0.0
 10
10.4762553454
 20
10.7326604193
 30
0.0
 10
10.4734613259
 20
10.7308647764
 30
0.0
  0
SPLINE
  5
346
100
AcDbEntity
  8
0
100
AcDbSpline
 62
7
  6
CONTINUOUS
 70
0
 71
3
 72
30
 73
26
 74
0
 42
0.0000001
 43
0.0000001
 44
0.0000000001
 40
0.0
 40
0.0
 40
0.0
 40
0.0
 40
0.0172508987
 40
0.0357532296
 40
0.0555136293
 40
0.0765260298
 40
0.0987754352
 40
0.1222421039
 40
0.1468992668
 40
0.1727128822
 40
0.1996462817
 40
0.2276592749
 40
0.2567053041
 40
0.2867356526
 40
0.3177000202
 40
0.3495432852
 40
0.4156334796
 40
0.4845277365
 40
0.5557126183
 40
0.6286531162
 40
0.7027965132
 40
0.7775707085
 40
0.8524093311
 40
0.9267598358
 40
1.0
 40
1.0
 40
1.0
 40
1.0
 10
10.4734613259
 20
10.7308647764
 30
0.0
 10
10.4709949985
 20
10.7292797327
 30
0.0
 10
10.4657820435
 20
10.726150836
 30
0.0
 10
10.4574524545
 20
10.7217137418
 30
0.0
 10
10.4483558322
 20
10.7173788741
 30
0.0
 10
10.4385109752
 20
10.7131545967
 30
0.0
 10
10.4279377113
 20
10.7090489728
 30
0.0
 10
10.4166570156
 20
10.7050710683
 30
0.0
 10
10.4046916943
 20
10.7012291248
 30
0.0
 10
10.3920663817
 20
10.6975303636
 30
0.0
 10
10.378806633
 20
10.6939827423
 30
0.0
 10
10.3649393191
 20
10.6905941106
 30
0.0
 10
10.3504930184
 20
10.6873707354
 30
0.0
 10
10.335497298
 20
10.6843193126
 30
0.0
 10
10.3199826139
 20
10.6814467565
 30
0.0
 10
10.2983786314
 20
10.6778175548
 30
0.0
 10
10.2703095489
 20
10.6737890706
 30
0.0
 10
10.2354943195
 20
10.6698070769
 30
0.0
 10
10.1994257922
 20
10.6666524814
 30
0.0
 10
10.1623992803
 20
10.6643512169
 30
0.0
 10
10.1247185144
 20
10.6629237368
 30
0.0
 10
10.086692141
 20
10.6623802183
 30
0.0
 10
10.0486281828
 20
10.662726364
 30
0.0
 10
10.0108436843
 20
10.6639600354
 30
0.0
 10
9.9857982482
 20
10.6653795179
 30
0.0
 10
9.9733810944
 20
10.6662406504
 30
0.0
  0
SPLINE
  5
347
100
AcDbEntity
  8
0
100
AcDbSpline
 62
7
  6
CONTINUOUS
 70
0
 71
3
 72
31
 73
27
 74
0
 42
0.0000001
 43
0.0000001
 44
0.0000000001
 40
0.0
 40
0.0
 40
0.0
 40
0.0
 40
0.0148671859
 40
0.0310582622
 40
0.0486205571
 40
0.0675787103
 40
0.0879430739
 40
0.1097082394
 40
0.1328564996
 40
0.1573637938
 40
0.1831966261
 40
0.2103132594
 40
0.2386687581
 40
0.2682119105
 40
0.2988851523
 40
0.3306290929
 40
0.3633800485
 40
0.397069223
 40
0.4669773298
 40
0.5397584626
 40
0.6147818119
 40
0.691389773
 40
0.7689013484
 40
0.8466289366
 40
0.9239071349
 40
1.0
 40
1.0
 40
1.0
 40
1.0
 10
9.6763886577
 20
10.9428395912
 30
0.0
 10
9.6783072695
 20
10.944625001
 30
0.0
 10
9.6824987507
 20
10.9481601679
 30
0.0
 10
9.6894706063
 20
10.9531572569
 30
0.0
 10
9.6973715401
 20
10.9580593711
 30
0.0
 10
9.7061829385
 20
10.962856051
 30
0.0
 10
9.7158859006
 20
10.9675356911
 30
0.0
 10
9.7264579265
 20
10.9720878403
 30
0.0
 10
9.7378743196
 20
10.9765025427
 30
0.0
 10
9.7501088683
 20
10.9807683907
 30
0.0
 10
9.7631328057
 20
10.984875394
 30
0.0
 10
9.7769152337
 20
10.9888144457
 30
0.0
 10
9.7914238622
 20
10.99257534
 30
0.0
 10
9.8066243635
 20
10.9961490623
 30
0.0
 10
9.8224805319
 20
10.9995277679
 30
0.0
 10
9.8389548993
 20
11.0027027182
 30
0.0
 10
9.8560084388
 20
11.0056662122
 30
0.0
 10
9.8797578224
 20
11.0093726333
 30
0.0
 10
9.9105934649
 20
11.0134045421
 30
0.0
 10
9.9487846455
 20
11.0172477143
 30
0.0
 10
9.9882456154
 20
11.0201144947
 30
0.0
 10
10.0286011326
 20
11.0219774845
 30
0.0
 10
10.0694675169
 20
11.0228192284
 30
0.0
 10
10.1104603431
 20
11.022630888
 30
0.0
 10
10.1511850697
 20
11.021413515
 30
0.0
 10
10.1781836332
 20
11.0199096204
 30
0.0
 10
10.1915653694
 20
11.0189815938
 30
0.0
  0
SPLINE
  5
348
100
AcDbEntity
  8
0
100
AcDbSpline
 62
7
  6
CONTINUOUS
 70
0
 71
3
 72
15
 73
11
 74
0
 42
0.0000001
 43
0.0000001
 44
0.0000000001
 40
0.0
 40
0.0
 40
0.0
 40
0.0
 40
0.1492582953
 40
0.2896921235
 40
0.4220199565
 40
0.5471281248
 40
0.6660945356
 40
0.7802102316
 40
0.8909663823
 40
1.0
 40
1.0
 40
1.0
 40
1.0
 10
10.5039751861
 20
10.9284925862
 30
0.0
 10
10.5052602755
 20
10.9272967433
 30
0.0
 10
10.5076819293
 20
10.9248956191
 30
0.0
 10
10.5109422159
 20
10.921146745
 30
0.0
 10
10.5137121742
 20
10.9173677751
 30
0.0
 10
10.51598765
 20
10.9135620988
 30
0.0
 10
10.5177639467
 20
10.9097329476
 30
0.0
 10
10.5190362921
 20
10.9058841636
 30
0.0
 10
10.519801739
 20
10.9020222177
 30
0.0
 10
10.5199727788
 20
10.8994341989
 30
0.0
 10
10.5199729092
 20
10.8981518604
 30
0.0
  0
SPLINE
  5
349
100
AcDbEntity
  8
0
100
AcDbSpline
 62
7
  6
CONTINUOUS
 70
0
 71
3
 72
15
 73
11
 74
0
 42
0.0000001
 43
0.0000001
 44
0.0000000001
 40
0.0
 40
0.0
 40
0.0
 40
0.0
 40
0.1090312127
 40
0.2197878998
 40
0.3339080497
 40
0.4528713587
 40
0.57796851
 40
0.7102941733
 40
0.8507385035
 40
1.0
 40
1.0
 40
1.0
 40
1.0
 10
10.5199729092
 20
10.7870703838
 30
0.0
 10
10.5199730395
 20
10.7857880596
 30
0.0
 10
10.5198025358
 20
10.7831999703
 30
0.0
 10
10.5190364757
 20
10.7793380209
 30
0.0
 10
10.5177632821
 20
10.775489477
 30
0.0
 10
10.5159873271
 20
10.7716602903
 30
0.0
 10
10.5137126645
 20
10.7678542818
 30
0.0
 10
10.5109426379
 20
10.7640752965
 30
0.0
 10
10.5076816413
 20
10.7603267858
 30
0.0
 10
10.5052597592
 20
10.7579256339
 30
0.0
 10
10.5039746822
 20
10.7567296943
 30
0.0
  0
SPLINE
  5
34A
100
AcDbEntity
  8
0
100
AcDbSpline
 62
7
  6
CONTINUOUS
 70
0
 71
3
 72
15
 73
11
 74
0
 42
0.0000001
 43
0.0000001
 44
0.0000000001
 40
0.0
 40
0.0
 40
0.0
 40
0.0
 40
0.1090312127
 40
0.2197878998
 40
0.3339080497
 40
0.4528713587
 40
0.57796851
 40
0.7102941733
 40
0.8507385035
 40
1.0
 40
1.0
 40
1.0
 40
1.0
 10
9.6449735547
 20
10.8981518604
 30
0.0
 10
9.6449734243
 20
10.8994341846
 30
0.0
 10
9.645143928
 20
10.902022274
 30
0.0
 10
9.6459099882
 20
10.9058842234
 30
0.0
 10
9.6471831818
 20
10.9097327672
 30
0.0
 10
9.6489591368
 20
10.913561954
 30
0.0
 10
9.6512337993
 20
10.9173679625
 30
0.0
 10
9.6540038259
 20
10.9211469477
 30
0.0
 10
9.6572648225
 20
10.9248954585
 30
0.0
 10
9.6596867046
 20
10.9272966104
 30
0.0
 10
9.6609717817
 20
10.9284925499
 30
0.0
  0
SPLINE
  5
34B
100
AcDbEntity
  8
0
100
AcDbSpline
 62
7
  6
CONTINUOUS
 70
0
 71
3
 72
39
 73
35
 74
0
 42
0.0000001
 43
0.0000001
 44
0.0000000001
 40
0.0
 40
0.0
 40
0.0
 40
0.0
 40
0.0911292516
 40
0.1837667519
 40
0.2763639314
 40
0.3674675361
 40
0.4556066029
 40
0.5393865197
 40
0.5792352345
 40
0.6175154807
 40
0.6540876753
 40
0.6888218315
 40
0.7215973523
 40
0.7523145176
 40
0.7808850724
 40
0.8072430943
 40
0.8313516336
 40
0.8531994502
 40
0.8728249643
 40
0.8903235161
 40
0.9058705204
 40
0.913006899
 40
0.9197785647
 40
0.9262454776
 40
0.9324780545
 40
0.9385566283
 40
0.9445680429
 40
0.9506020274
 40
0.9567473277
 40
0.9630879948
 40
0.9696996603
 40
0.9766474426
 40
0.9839862318
 40
1.0
 40
1.0
 40
1.0
 40
1.0
 10
10.1310017628
 20
10.9604816386
 30
0.0
 10
10.1229567447
 20
10.9610395626
 30
0.0
 10
10.1067116758
 20
10.961867348
 30
0.0
 10
10.0822542258
 20
10.9622738795
 30
0.0
 10
10.0577989708
 20
10.961852659
 30
0.0
 10
10.033769905
 20
10.9606129438
 30
0.0
 10
10.0105782754
 20
10.9585755506
 30
0.0
 10
9.9919824984
 20
10.9562062729
 30
0.0
 10
9.9778374189
 20
10.9539178152
 30
0.0
 10
9.9678580978
 20
10.9520567261
 30
0.0
 10
9.9583731353
 20
10.950030927
 30
0.0
 10
9.9494231579
 20
10.947849582
 30
0.0
 10
9.9410466461
 20
10.9455212054
 30
0.0
 10
9.9332791165
 20
10.94305713
 30
0.0
 10
9.926153493
 20
10.9404675252
 30
0.0
 10
9.9196998069
 20
10.93776313
 30
0.0
 10
9.9139441056
 20
10.9349566102
 30
0.0
 10
9.9089099901
 20
10.9320579274
 30
0.0
 10
9.9046162382
 20
10.9290781214
 30
0.0
 10
9.9010789779
 20
10.9260276396
 30
0.0
 10
9.8987090367
 20
10.92335596
 30
0.0
 10
9.8972457609
 20
10.9211948672
 30
0.0
 10
9.8963795149
 20
10.9196100807
 30
0.0
 10
9.895714797
 20
10.9180166361
 30
0.0
 10
9.8952537025
 20
10.9164160894
 30
0.0
 10
9.8949972698
 20
10.9148108135
 30
0.0
 10
9.8949460845
 20
10.9132034288
 30
0.0
 10
9.8951002954
 20
10.9115967587
 30
0.0
 10
9.8954594813
 20
10.9099935387
 30
0.0
 10
9.8960229546
 20
10.9083962953
 30
0.0
 10
9.8967890212
 20
10.9068070562
 30
0.0
 10
9.8977557365
 20
10.9052271337
 30
0.0
 10
9.8993564858
 20
10.9030726117
 30
0.0
 10
9.9007901468
 20
10.9015708498
 30
0.0
 10
9.9018275073
 20
10.9006053998
 30
0.0
  0
SPLINE
  5
34C
100
AcDbEntity
  8
0
100
AcDbSpline
 62
7
  6
CONTINUOUS
 70
0
 71
3
 72
33
 73
29
 74
0
 42
0.0000001
 43
0.0000001
 44
0.0000000001
 40
0.0
 40
0.0
 40
0.0
 40
0.0
 40
0.0192515833
 40
0.0368821699
 40
0.0531237905
 40
0.0682840035
 40
0.0827532029
 40
0.0969869317
 40
0.1114633783
 40
0.1266373917
 40
0.1428981332
 40
0.1605519194
 40
0.179829714
 40
0.2008964686
 40
0.2238583309
 40
0.2487829695
 40
0.2757103772
 40
0.3046506675
 40
0.3355921753
 40
0.3685117893
 40
0.403374067
 40
0.4401263274
 40
0.519051069
 40
0.6047234833
 40
0.6964479347
 40
0.793475343
 40
0.894997834
 40
1.0
 40
1.0
 40
1.0
 40
1.0
 10
10.2631189559
 20
10.9006053999
 30
0.0
 10
10.263909769
 20
10.9013413921
 30
0.0
 10
10.2653623295
 20
10.9028217247
 30
0.0
 10
10.2672005708
 20
10.905177849
 30
0.0
 10
10.2685911943
 20
10.907563416
 30
0.0
 10
10.2695254262
 20
10.9099751462
 30
0.0
 10
10.2699933312
 20
10.9124062511
 30
0.0
 10
10.2699897206
 20
10.9148443346
 30
0.0
 10
10.2695146421
 20
10.9172752257
 30
0.0
 10
10.268573343
 20
10.9196865992
 30
0.0
 10
10.2671758596
 20
10.9220717006
 30
0.0
 10
10.2653306661
 20
10.9244275197
 30
0.0
 10
10.2630434912
 20
10.9267510573
 30
0.0
 10
10.2603199146
 20
10.9290387171
 30
0.0
 10
10.2571669145
 20
10.9312873815
 30
0.0
 10
10.2535913769
 20
10.9334925631
 30
0.0
 10
10.2496009008
 20
10.9356488698
 30
0.0
 10
10.2452049374
 20
10.9377517038
 30
0.0
 10
10.2404140619
 20
10.9397964457
 30
0.0
 10
10.2352393877
 20
10.9417778843
 30
0.0
 10
10.2296930631
 20
10.9436909022
 30
0.0
 10
10.2216271254
 20
10.9462048214
 30
0.0
 10
10.2107051084
 20
10.9491186551
 30
0.0
 10
10.1966511274
 20
10.9521983865
 30
0.0
 10
10.1814886208
 20
10.9549089901
 30
0.0
 10
10.1653620869
 20
10.9572233106
 30
0.0
 10
10.1484312579
 20
10.959116695
 30
0.0
 10
10.1368798821
 20
10.9600739897
 30
0.0
 10
10.1310017628
 20
10.9604816386
 30
0.0
  0
SPLINE
  5
34D
100
AcDbEntity
  8
0
100
AcDbSpline
 62
7
  6
CONTINUOUS
 70
0
 71
3
 72
22
 73
18
 74
0
 42
0.0000001
 43
0.0000001
 44
0.0000000001
 40
0.0
 40
0.0
 40
0.0
 40
0.0
 40
0.1784308603
 40
0.2636345662
 40
0.3457312473
 40
0.4243502207
 40
0.4991127154
 40
0.5696638493
 40
0.6356702919
 40
0.6968446731
 40
0.7530224112
 40
0.8042157606
 40
0.8505799576
 40
0.8925650319
 40
0.9308484728
 40
0.9663072103
 40
1.0
 40
1.0
 40
1.0
 40
1.0
 10
10.2102549186
 20
10.9401209719
 30
0.0
 10
10.2115132219
 20
10.9365575222
 30
0.0
 10
10.2134368675
 20
10.9313144625
 30
0.0
 10
10.2161400085
 20
10.9245088363
 30
0.0
 10
10.2181616459
 20
10.9197082464
 30
0.0
 10
10.2202086228
 20
10.9151597243
 30
0.0
 10
10.2222804105
 20
10.9108924732
 30
0.0
 10
10.2243761231
 20
10.9069365352
 30
0.0
 10
10.2264923381
 20
10.9033209335
 30
0.0
 10
10.2286266735
 20
10.9000739876
 30
0.0
 10
10.2307768358
 20
10.8972208113
 30
0.0
 10
10.23293573
 20
10.8947779295
 30
0.0
 10
10.2351034517
 20
10.8927606353
 30
0.0
 10
10.237274558
 20
10.891173537
 30
0.0
 10
10.2394449778
 20
10.8900139766
 30
0.0
 10
10.2416101599
 20
10.8892804154
 30
0.0
 10
10.2430672672
 20
10.8890599785
 30
0.0
 10
10.2437795831
 20
10.8890172131
 30
0.0
  0
SPLINE
  5
34E
100
AcDbEntity
  8
0
100
AcDbSpline
 62
7
  6
CONTINUOUS
 70
0
 71
3
 72
15
 73
11
 74
0
 42
0.0000001
 43
0.0000001
 44
0.0000000001
 40
0.0
 40
0.0
 40
0.0
 40
0.0
 40
0.2474885924
 40
0.3716993578
 40
0.4962918283
 40
0.6213432045
 40
0.7469328389
 40
0.8099644208
 40
0.8731636985
 40
1.0
 40
1.0
 40
1.0
 40
1.0
 10
10.2102549186
 20
10.9401209719
 30
0.0
 10
10.2034479756
 20
10.9371895635
 30
0.0
 10
10.1930528265
 20
10.9331599385
 30
0.0
 10
10.1788393525
 20
10.9287990986
 30
0.0
 10
10.1679664292
 20
10.9261038705
 30
0.0
 10
10.1569079935
 20
10.9240683351
 30
0.0
 10
10.1475683588
 20
10.9229909739
 30
0.0
 10
10.1400398915
 20
10.9225295565
 30
0.0
 10
10.1324625401
 20
10.9223454856
 30
0.0
 10
10.1267675304
 20
10.9225251637
 30
0.0
 10
10.1229783791
 20
10.9227879422
 30
0.0
  0
SPLINE
  5
34F
100
AcDbEntity
  8
0
100
AcDbSpline
 62
7
  6
CONTINUOUS
 70
0
 71
3
 72
14
 73
10
 74
0
 42
0.0000001
 43
0.0000001
 44
0.0000000001
 40
0.0
 40
0.0
 40
0.0
 40
0.0
 40
0.1233247094
 40
0.1852447094
 40
0.2473036507
 40
0.3718067825
 40
0.4967959143
 40
0.7478456713
 40
1.0
 40
1.0
 40
1.0
 40
1.0
 10
10.1229783791
 20
10.9227879422
 30
0.0
 10
10.1191694969
 20
10.9230520891
 30
0.0
 10
10.1134604752
 20
10.9236660454
 30
0.0
 10
10.1059028753
 20
10.9248985363
 30
0.0
 10
10.0983581158
 20
10.9264080915
 30
0.0
 10
10.0890028473
 20
10.9287878154
 30
0.0
 10
10.0742486601
 20
10.933553589
 30
0.0
 10
10.0562828868
 20
10.9410958213
 30
0.0
 10
10.0424858349
 20
10.9483637997
 30
0.0
 10
10.0357018395
 20
10.9522262691
 30
0.0
  0
SPLINE
  5
350
100
AcDbEntity
  8
0
100
AcDbSpline
 62
7
  6
CONTINUOUS
 70
0
 71
3
 72
23
 73
19
 74
0
 42
0.0000001
 43
0.0000001
 44
0.0000000001
 40
0.0
 40
0.0
 40
0.0
 40
0.0
 40
0.1140672158
 40
0.1709935244
 40
0.2280155353
 40
0.28536926
 40
0.3433320328
 40
0.4022329195
 40
0.462381858
 40
0.5240495701
 40
0.5873932775
 40
0.6197200513
 40
0.6524767622
 40
0.7192199457
 40
0.7875078249
 40
0.8571883712
 40
0.9280759282
 40
1.0
 40
1.0
 40
1.0
 40
1.0
 10
9.9079201529
 20
10.9191539476
 30
0.0
 10
9.912875817
 20
10.9170517849
 30
0.0
 10
9.9204769261
 20
10.9142684121
 30
0.0
 10
9.9309113429
 20
10.9116074427
 30
0.0
 10
9.9388839735
 20
10.9102143764
 30
0.0
 10
9.9469973171
 20
10.9095093427
 30
0.0
 10
9.9552317426
 20
10.9095632255
 30
0.0
 10
9.9635524228
 20
10.9104471268
 30
0.0
 10
9.9719159248
 20
10.9121865569
 30
0.0
 10
9.980269072
 20
10.9147947628
 30
0.0
 10
9.9871392503
 20
10.9176368689
 30
0.0
 10
9.9925891202
 20
10.9202914537
 30
0.0
 10
9.9980757719
 20
10.9232268637
 30
0.0
 10
10.0048530887
 20
10.927334118
 30
0.0
 10
10.0127961118
 20
10.932841798
 30
0.0
 10
10.0205958319
 20
10.9388740556
 30
0.0
 10
10.0282521923
 20
10.9453543279
 30
0.0
 10
10.0332309464
 20
10.9498991032
 30
0.0
 10
10.0357018395
 20
10.9522262691
 30
0.0
  0
SPLINE
  5
351
100
AcDbEntity
  8
0
100
AcDbSpline
 62
7
  6
CONTINUOUS
 70
0
 71
3
 72
9
 73
5
 74
0
 42
0.0000001
 43
0.0000001
 44
0.0000000001
 40
0.0
 40
0.0
 40
0.0
 40
0.0
 40
0.4755570889
 40
1.0
 40
1.0
 40
1.0
 40
1.0
 10
10.5039746822
 20
10.7567296943
 30
0.0
 10
10.5016603755
 20
10.7545759161
 30
0.0
 10
10.4965358874
 20
10.750321247
 30
0.0
 10
10.4910600111
 20
10.7465387489
 30
0.0
 10
10.4881243559
 20
10.7446580079
 30
0.0
  0
SPLINE
  5
352
100
AcDbEntity
  8
0
100
AcDbSpline
 62
7
  6
CONTINUOUS
 70
0
 71
3
 72
30
 73
26
 74
0
 42
0.0000001
 43
0.0000001
 44
0.0000000001
 40
0.0
 40
0.0
 40
0.0
 40
0.0
 40
0.0172743581
 40
0.0357990346
 40
0.055580407
 40
0.0766121347
 40
0.0988791294
 40
0.1223615888
 40
0.1470326087
 40
0.1728581328
 40
0.199801522
 40
0.2278225536
 40
0.2568746827
 40
0.2869092642
 40
0.3178760462
 40
0.3497199368
 40
0.4158064024
 40
0.4846908195
 40
0.5558605781
 40
0.6287815488
 40
0.7029019768
 40
0.7776507699
 40
0.8524626674
 40
0.9267861377
 40
1.0
 40
1.0
 40
1.0
 40
1.0
 10
10.4881243559
 20
10.7446580079
 30
0.0
 10
10.4855596021
 20
10.7430148867
 30
0.0
 10
10.4801398287
 20
10.7397713956
 30
0.0
 10
10.471482117
 20
10.7351716471
 30
0.0
 10
10.4620298465
 20
10.730678067
 30
0.0
 10
10.4518025451
 20
10.7262992716
 30
0.0
 10
10.4408207676
 20
10.7220436404
 30
0.0
 10
10.4291062643
 20
10.717920572
 30
0.0
 10
10.4166827012
 20
10.7139385585
 30
0.0
 10
10.403575614
 20
10.7101050895
 30
0.0
 10
10.3898114861
 20
10.7064284173
 30
0.0
 10
10.3754181775
 20
10.7029166442
 30
0.0
 10
10.3604253087
 20
10.6995762532
 30
0.0
 10
10.3448635133
 20
10.6964141872
 30
0.0
 10
10.3287643506
 20
10.6934376001
 30
0.0
 10
10.3063485615
 20
10.6896772063
 30
0.0
 10
10.2772271512
 20
10.6855033588
 30
0.0
 10
10.2411092447
 20
10.6813780285
 30
0.0
 10
10.2036940007
 20
10.6781104005
 30
0.0
 10
10.1652873005
 20
10.6757272686
 30
0.0
 10
10.1262037291
 20
10.6742497985
 30
0.0
 10
10.0867629353
 20
10.6736884976
 30
0.0
 10
10.0472839136
 20
10.6740492522
 30
0.0
 10
10.0080950136
 20
10.6753298375
 30
0.0
 10
9.9821187002
 20
10.6768023262
 30
0.0
 10
9.9692399931
 20
10.6776954676
 30
0.0
  0
SPLINE
  5
353
100
AcDbEntity
  8
0
100
AcDbSpline
 62
7
  6
CONTINUOUS
 70
0
 71
3
 72
11
 73
7
 74
0
 42
0.0000001
 43
0.0000001
 44
0.0000000001
 40
0.0
 40
0.0
 40
0.0
 40
0.0
 40
0.2764411458
 40
0.5338688358
 40
0.7742297575
 40
1.0
 40
1.0
 40
1.0
 40
1.0
 10
10.4885635186
 20
10.9428347619
 30
0.0
 10
10.4900074234
 20
10.9414909824
 30
0.0
 10
10.4927017292
 20
10.9387911906
 30
0.0
 10
10.4962489846
 20
10.9345455957
 30
0.0
 10
10.499145498
 20
10.9302604754
 30
0.0
 10
10.5006799169
 20
10.9272981652
 30
0.0
 10
10.501322918
 20
10.9258211425
 30
0.0
  0
SPLINE
  5
354
100
AcDbEntity
  8
0
100
AcDbSpline
 62
7
  6
CONTINUOUS
 70
0
 71
3
 72
46
 73
42
 74
0
 42
0.0000001
 43
0.0000001
 44
0.0000000001
 40
0.0
 40
0.0
 40
0.0
 40
0.0
 40
0.0061253631
 40
0.0120610909
 40
0.0178742219
 40
0.0236363209
 40
0.0294211066
 40
0.0353015875
 40
0.0413467495
 40
0.0476194042
 40
0.0541751623
 40
0.0610621596
 40
0.0683209181
 40
0.0759840751
 40
0.0840780132
 40
0.0926239827
 40
0.1016389672
 40
0.1111357614
 40
0.1211227759
 40
0.1316057089
 40
0.1425881821
 40
0.1540721104
 40
0.1785385207
 40
0.2049815998
 40
0.2333585246
 40
0.2636062575
 40
0.2956479719
 40
0.3293964795
 40
0.3647505199
 40
0.4016033128
 40
0.439837269
 40
0.4793286163
 40
0.5199481744
 40
0.5615591031
 40
0.6040222629
 40
0.6471933184
 40
0.7350659072
 40
0.8239672861
 40
0.912694195
 40
0.9566122464
 40
1.0
 40
1.0
 40
1.0
 40
1.0
 10
10.501322918
 20
10.9258211425
 30
0.0
 10
10.5017918865
 20
10.9247438859
 30
0.0
 10
10.5026117021
 20
10.9225753402
 30
0.0
 10
10.5034737556
 20
10.919250043
 30
0.0
 10
10.5039436103
 20
10.9159166377
 30
0.0
 10
10.5040198041
 20
10.9125799733
 30
0.0
 10
10.5037017232
 20
10.909244697
 30
0.0
 10
10.5029896558
 20
10.9059156899
 30
0.0
 10
10.501886235
 20
10.9025970597
 30
0.0
 10
10.5003941089
 20
10.8992922266
 30
0.0
 10
10.4985158181
 20
10.8960040923
 30
0.0
 10
10.4962535802
 20
10.8927353407
 30
0.0
 10
10.4936097694
 20
10.8894886429
 30
0.0
 10
10.4905877228
 20
10.8862660629
 30
0.0
 10
10.4871905149
 20
10.8830700118
 30
0.0
 10
10.4834211805
 20
10.8799029997
 30
0.0
 10
10.4792827412
 20
10.8767677835
 30
0.0
 10
10.4747787449
 20
10.8736671859
 30
0.0
 10
10.4699136057
 20
10.8706035449
 30
0.0
 10
10.4646918568
 20
10.867579578
 30
0.0
 10
10.4591181151
 20
10.864597918
 30
0.0
 10
10.4510520144
 20
10.8605979979
 30
0.0
 10
10.4401054771
 20
10.855745676
 30
0.0
 10
10.4259204953
 20
10.8502493063
 30
0.0
 10
10.4104718892
 20
10.8449847485
 30
0.0
 10
10.393816264
 20
10.8399704368
 30
0.0
 10
10.3760139769
 20
10.8352250146
 30
0.0
 10
10.3571300669
 20
10.8307672107
 30
0.0
 10
10.3372338631
 20
10.8266120993
 30
0.0
 10
10.3163983517
 20
10.822776762
 30
0.0
 10
10.2947002381
 20
10.8192744614
 30
0.0
 10
10.272219371
 20
10.8161184958
 30
0.0
 10
10.2490386057
 20
10.8133212485
 30
0.0
 10
10.2252434472
 20
10.8108919498
 30
0.0
 10
10.2009215367
 20
10.8088409377
 30
0.0
 10
10.167714868
 20
10.8066066123
 30
0.0
 10
10.1255568907
 20
10.8048184868
 30
0.0
 10
10.0746261565
 20
10.8042668248
 30
0.0
 10
10.0321322507
 20
10.8051366351
 30
0.0
 10
9.9983995956
 20
10.806638756
 30
0.0
 10
9.9816833873
 20
10.8076559893
 30
0.0
 10
9.9733810944
 20
10.8082317553
 30
0.0
  0
SPLINE
  5
355
100
AcDbEntity
  8
0
100
AcDbSpline
 62
7
  6
CONTINUOUS
 70
0
 71
3
 72
42
 73
38
 74
0
 42
0.0000001
 43
0.0000001
 44
0.0000000001
 40
0.0
 40
0.0
 40
0.0
 40
0.0
 40
0.1050109445
 40
0.2065076564
 40
0.2556278283
 40
0.303524602
 40
0.3500983951
 40
0.3952520198
 40
0.4388900488
 40
0.4809206484
 40
0.5212634179
 40
0.5598435332
 40
0.5965910039
 40
0.6314484839
 40
0.6643667264
 40
0.6953047746
 40
0.72423992
 40
0.7511642444
 40
0.7760863701
 40
0.7990445475
 40
0.8201077224
 40
0.8393829218
 40
0.857034535
 40
0.8732927285
 40
0.8809981564
 40
0.8884775627
 40
0.895782405
 40
0.9029680631
 40
0.9100928595
 40
0.9172167829
 40
0.9244000159
 40
0.9317011887
 40
0.9391756334
 40
0.9468744656
 40
0.96311483
 40
0.980746701
 40
1.0
 40
1.0
 40
1.0
 40
1.0
 10
9.9733810944
 20
10.8082317553
 30
0.0
 10
9.9601644268
 20
10.8091483343
 30
0.0
 10
9.9341961357
 20
10.811299937
 30
0.0
 10
9.9021402874
 20
10.8148852346
 30
0.0
 10
9.8773224733
 20
10.8182574676
 30
0.0
 10
9.8594132008
 20
10.8209904393
 30
0.0
 10
9.8420471635
 20
10.8239488029
 30
0.0
 10
9.8252660323
 20
10.827124726
 30
0.0
 10
9.8091110074
 20
10.8305102232
 30
0.0
 10
9.793621937
 20
10.8340978832
 30
0.0
 10
9.7788363722
 20
10.8378781726
 30
0.0
 10
9.7647899681
 20
10.8418415412
 30
0.0
 10
9.7515168803
 20
10.8459792455
 30
0.0
 10
9.7390488757
 20
10.8502804491
 30
0.0
 10
9.7274157708
 20
10.8547342819
 30
0.0
 10
9.7166458294
 20
10.859331069
 30
0.0
 10
9.7067642885
 20
10.8640590213
 30
0.0
 10
9.6977939407
 20
10.8689064864
 30
0.0
 10
9.6897561671
 20
10.8738636765
 30
0.0
 10
9.6826687644
 20
10.8789191269
 30
0.0
 10
9.6765469462
 20
10.8840621245
 30
0.0
 10
9.6714057691
 20
10.8892858759
 30
0.0
 10
9.6672583647
 20
10.8945809869
 30
0.0
 10
9.664594536
 20
10.8991296914
 30
0.0
 10
9.6630138179
 20
10.9027724472
 30
0.0
 10
9.6621060429
 20
10.9054644737
 30
0.0
 10
9.6614558237
 20
10.9081627914
 30
0.0
 10
9.66106379
 20
10.9108655431
 30
0.0
 10
9.6609305094
 20
10.9135705748
 30
0.0
 10
9.6610563164
 20
10.9162756701
 30
0.0
 10
9.6614414449
 20
10.9189785519
 30
0.0
 10
9.6620853329
 20
10.9216769686
 30
0.0
 10
9.6629867834
 20
10.9243690956
 30
0.0
 10
9.6645580873
 20
10.9280118487
 30
0.0
 10
9.6672092179
 20
10.9325617298
 30
0.0
 10
9.671343597
 20
10.9378570277
 30
0.0
 10
9.6746104505
 20
10.9411848381
 30
0.0
 10
9.6763886577
 20
10.9428395912
 30
0.0
  0
SPLINE
  5
356
100
AcDbEntity
  8
0
100
AcDbSpline
 62
7
  6
CONTINUOUS
 70
0
 71
3
 72
44
 73
40
 74
0
 42
0.0000001
 43
0.0000001
 44
0.0000000001
 40
0.0
 40
0.0
 40
0.0
 40
0.0
 40
0.0055576217
 40
0.0111781774
 40
0.0169223665
 40
0.022846463
 40
0.0290012499
 40
0.0354315253
 40
0.0492585994
 40
0.056723031
 40
0.0645821925
 40
0.0728536856
 40
0.0815517477
 40
0.0906872227
 40
0.1002673629
 40
0.1102972101
 40
0.1207800936
 40
0.1431090173
 40
0.1672508427
 40
0.1931779556
 40
0.2208504331
 40
0.2502109815
 40
0.2811930939
 40
0.3137213962
 40
0.3477090239
 40
0.3830650296
 40
0.4196898018
 40
0.4574778045
 40
0.4963202723
 40
0.5361012072
 40
0.5767023428
 40
0.6180021312
 40
0.6598754475
 40
0.7021960136
 40
0.7448334622
 40
0.8305302896
 40
0.9159449693
 40
0.9582178809
 40
1.0
 40
1.0
 40
1.0
 40
1.0
 10
10.5199729092
 20
10.8981518604
 30
0.0
 10
10.5199730192
 20
10.8970695776
 30
0.0
 10
10.5198521191
 20
10.8948908492
 30
0.0
 10
10.519308119
 20
10.8916343985
 30
0.0
 10
10.5184026859
 20
10.8883852855
 30
0.0
 10
10.5171381111
 20
10.8851472112
 30
0.0
 10
10.515516469
 20
10.881922593
 30
0.0
 10
10.5128157642
 20
10.8775391019
 30
0.0
 10
10.5094382056
 20
10.8732993546
 30
0.0
 10
10.5055004455
 20
10.8692081065
 30
0.0
 10
10.5021258077
 20
10.866085656
 30
0.0
 10
10.4984087664
 20
10.8629905171
 30
0.0
 10
10.4943514551
 20
10.8599246557
 30
0.0
 10
10.4899571219
 20
10.8568906728
 30
0.0
 10
10.4852295777
 20
10.8538905964
 30
0.0
 10
10.4801727812
 20
10.8509267323
 30
0.0
 10
10.4728414553
 20
10.8469422364
 30
0.0
 10
10.462861403
 20
10.8420895868
 30
0.0
 10
10.4498852097
 20
10.836564749
 30
0.0
 10
10.4357093256
 20
10.831238664
 30
0.0
 10
10.4203790857
 20
10.8261305442
 30
0.0
 10
10.4039440786
 20
10.8212556599
 30
0.0
 10
10.3864574161
 20
10.8166306368
 30
0.0
 10
10.3679758552
 20
10.8122714384
 30
0.0
 10
10.3485597515
 20
10.8081911434
 30
0.0
 10
10.3282723438
 20
10.8044045908
 30
0.0
 10
10.3071799826
 20
10.8009236735
 30
0.0
 10
10.2853516259
 20
10.7977595796
 30
0.0
 10
10.2628586614
 20
10.7949238846
 30
0.0
 10
10.2397748087
 20
10.7924247061
 30
0.0
 10
10.2161756606
 20
10.7902710234
 30
0.0
 10
10.1921384028
 20
10.7884700654
 30
0.0
 10
10.1677416279
 20
10.78702697
 30
0.0
 10
10.1430652882
 20
10.7859476721
 30
0.0
 10
10.1098448152
 20
10.784995722
 30
0.0
 10
10.0682140441
 20
10.7847328026
 30
0.0
 10
10.0266644594
 20
10.7856972339
 30
0.0
 10
9.9936959363
 20
10.7872117268
 30
0.0
 10
9.9773570834
 20
10.7882140221
 30
0.0
 10
9.9692399931
 20
10.7887769442
 30
0.0
  0
SPLINE
  5
357
100
AcDbEntity
  8
0
100
AcDbSpline
 62
7
  6
CONTINUOUS
 70
0
 71
3
 72
33
 73
29
 74
0
 42
0.0000001
 43
0.0000001
 44
0.0000000001
 40
0.0
 40
0.0
 40
0.0
 40
0.0
 40
0.0958094992
 40
0.1891107041
 40
0.2792550537
 40
0.3657197578
 40
0.4480113782
 40
0.5256543354
 40
0.5625987301
 40
0.598227193
 40
0.6324944196
 40
0.6653603174
 40
0.696791591
 40
0.7267580849
 40
0.7552337749
 40
0.782202556
 40
0.8076567484
 40
0.831595509
 40
0.8540286541
 40
0.8749831512
 40
0.8945012288
 40
0.9126435363
 40
0.9294977538
 40
0.945184689
 40
0.9598602956
 40
0.9737214244
 40
0.9870091822
 40
1.0
 40
1.0
 40
1.0
 40
1.0
 10
9.9692399931
 20
10.7887769442
 30
0.0
 10
9.957847869
 20
10.7895669907
 30
0.0
 10
9.9353783552
 20
10.7913776469
 30
0.0
 10
9.9022706432
 20
10.7948317341
 30
0.0
 10
9.8703641475
 20
10.7989728522
 30
0.0
 10
9.8398769565
 20
10.8037705672
 30
0.0
 10
9.8110090797
 20
10.8091929058
 30
0.0
 10
9.7880960165
 20
10.8142815165
 30
0.0
 10
9.7707344208
 20
10.8186598048
 30
0.0
 10
9.7584508764
 20
10.8220211717
 30
0.0
 10
9.7467089158
 20
10.825509385
 30
0.0
 10
9.7355280802
 20
10.8291188541
 30
0.0
 10
9.7249265937
 20
10.8328429708
 30
0.0
 10
9.714922018
 20
10.8366754505
 30
0.0
 10
9.7055312831
 20
10.8406105502
 30
0.0
 10
9.6967696741
 20
10.844641469
 30
0.0
 10
9.6886510982
 20
10.8487611657
 30
0.0
 10
9.6811888742
 20
10.8529630987
 30
0.0
 10
9.6743955008
 20
10.8572413174
 30
0.0
 10
9.6682812368
 20
10.8615885528
 30
0.0
 10
9.6628553577
 20
10.8659982545
 30
0.0
 10
9.6581270603
 20
10.8704650098
 30
0.0
 10
9.6541046091
 20
10.874983586
 30
0.0
 10
9.6507946125
 20
10.8795483244
 30
0.0
 10
9.648204735
 20
10.8841543614
 30
0.0
 10
9.6463452205
 20
10.8887970622
 30
0.0
 10
9.6452246827
 20
10.8934660077
 30
0.0
 10
9.6449737121
 20
10.8966034914
 30
0.0
 10
9.6449735547
 20
10.8981518604
 30
0.0
  0
SPLINE
  5
358
100
AcDbEntity
  8
0
100
AcDbSpline
 62
7
  6
CONTINUOUS
 70
0
 71
3
 72
23
 73
19
 74
0
 42
0.0000001
 43
0.0000001
 44
0.0000000001
 40
0.0
 40
0.0
 40
0.0
 40
0.0
 40
0.0802502555
 40
0.1591470885
 40
0.2364010696
 40
0.3117567304
 40
0.3850019057
 40
0.4559297297
 40
0.5243385344
 40
0.5900311564
 40
0.652823465
 40
0.7125550383
 40
0.7690759681
 40
0.8222605158
 40
0.8720056886
 40
0.9182305786
 40
0.9608965393
 40
1.0
 40
1.0
 40
1.0
 40
1.0
 10
9.9692399931
 20
10.6776954676
 30
0.0
 10
9.9611863959
 20
10.6782539865
 30
0.0
 10
9.945223471
 20
10.679487979
 30
0.0
 10
9.9215450822
 20
10.6817088015
 30
0.0
 10
9.8983972051
 20
10.6842784434
 30
0.0
 10
9.8758627369
 20
10.6871885537
 30
0.0
 10
9.8540163087
 20
10.6904281441
 30
0.0
 10
9.8329279749
 20
10.6939876318
 30
0.0
 10
9.8126666044
 20
10.6978542938
 30
0.0
 10
9.7932996862
 20
10.7020151581
 30
0.0
 10
9.7748918846
 20
10.7064573209
 30
0.0
 10
9.757503806
 20
10.7111643016
 30
0.0
 10
9.7411926157
 20
10.7161215542
 30
0.0
 10
9.726011635
 20
10.7213121884
 30
0.0
 10
9.7120101355
 20
10.7267179754
 30
0.0
 10
9.6992335652
 20
10.7323230661
 30
0.0
 10
9.6877229757
 20
10.7381069599
 30
0.0
 10
9.6806081348
 20
10.7422504475
 30
0.0
 10
9.6772882029
 20
10.7443604233
 30
0.0
  0
SPLINE
  5
359
100
AcDbEntity
  8
0
100
AcDbSpline
 62
7
  6
CONTINUOUS
 70
0
 71
3
 72
11
 73
7
 74
0
 42
0.0000001
 43
0.0000001
 44
0.0000000001
 40
0.0
 40
0.0
 40
0.0
 40
0.0
 40
0.2688693399
 40
0.5249673394
 40
0.7685621485
 40
1.0
 40
1.0
 40
1.0
 40
1.0
 10
9.6772882029
 20
10.7443604233
 30
0.0
 10
9.6757374499
 20
10.7453460012
 30
0.0
 10
9.6727442911
 20
10.7473257868
 30
0.0
 10
9.668484844
 20
10.7504016375
 30
0.0
 10
9.6645692792
 20
10.7535082839
 30
0.0
 10
9.6621291474
 20
10.7556521996
 30
0.0
 10
9.6609712777
 20
10.756729658
 30
0.0
  0
SPLINE
  5
35A
100
AcDbEntity
  8
0
100
AcDbSpline
 62
7
  6
CONTINUOUS
 70
0
 71
3
 72
83
 73
79
 74
0
 42
0.0000001
 43
0.0000001
 44
0.0000000001
 40
0.0
 40
0.0
 40
0.0
 40
0.0
 40
0.0039801597
 40
0.0081241011
 40
0.0124359827
 40
0.0169193525
 40
0.0215772196
 40
0.0264119586
 40
0.031425229
 40
0.0366182129
 40
0.0419916121
 40
0.0475457279
 40
0.0532805095
 40
0.0591955088
 40
0.0715625207
 40
0.0846382028
 40
0.0984095218
 40
0.1128600995
 40
0.1279706368
 40
0.1437192468
 40
0.1600817256
 40
0.1770317945
 40
0.1945412999
 40
0.2125803859
 40
0.2311176466
 40
0.2501202605
 40
0.2695541245
 40
0.2893839808
 40
0.3095735319
 40
0.330085551
 40
0.3508819872
 40
0.3719240699
 40
0.4145863693
 40
0.4577526899
 40
0.5010975086
 40
0.544293566
 40
0.5870150496
 40
0.6080975911
 40
0.6289416064
 40
0.6495082092
 40
0.6697592088
 40
0.689657215
 40
0.7091657527
 40
0.7282493694
 40
0.746873748
 40
0.7650058256
 40
0.7826139217
 40
0.7996678828
 40
0.8161392372
 40
0.8320013567
 40
0.8472296488
 40
0.8618017808
 40
0.8756979498
 40
0.88890122
 40
0.9013979191
 40
0.913178149
 40
0.9187980119
 40
0.9242371416
 40
0.9294956774
 40
0.934574209
 40
0.9394737161
 40
0.9441957227
 40
0.9487422872
 40
0.9531160827
 40
0.9573205216
 40
0.9613597549
 40
0.9652388727
 40
0.9689639318
 40
0.9725421085
 40
0.975981836
 40
0.9792928628
 40
0.9824864354
 40
0.9855753015
 40
0.9885737802
 40
0.9914977137
 40
0.9943643206
 40
0.9971920041
 40
1.0
 40
1.0
 40
1.0
 40
1.0
 10
10.6523695032
 20
10.7475479432
 30
0.0
 10
10.651200979
 20
10.7464192354
 30
0.0
 10
10.6487627786
 20
10.7441697953
 30
0.0
 10
10.6448916567
 20
10.7408843061
 30
0.0
 10
10.6407362571
 20
10.7376223634
 30
0.0
 10
10.6362988614
 20
10.7343857384
 30
0.0
 10
10.6315816574
 20
10.7311759194
 30
0.0
 10
10.626586932
 20
10.7279944914
 30
0.0
 10
10.6213171894
 20
10.7248429497
 30
0.0
 10
10.6157750435
 20
10.7217229292
 30
0.0
 10
10.609963284
 20
10.7186359628
 30
0.0
 10
10.6038848237
 20
10.7155835896
 30
0.0
 10
10.5975426853
 20
10.7125673479
 30
0.0
 10
10.5886061314
 20
10.7085359264
 30
0.0
 10
10.5767892175
 20
10.7036094632
 30
0.0
 10
10.5618139241
 20
10.6979498953
 30
0.0
 10
10.5458702256
 20
10.6924694946
 30
0.0
 10
10.5289902145
 20
10.6871793823
 30
0.0
 10
10.5112076843
 20
10.6820903106
 30
0.0
 10
10.492558401
 20
10.6772126412
 30
0.0
 10
10.4730799173
 20
10.672556303
 30
0.0
 10
10.4528115095
 20
10.6681307801
 30
0.0
 10
10.4317940772
 20
10.6639450878
 30
0.0
 10
10.4100700574
 20
10.6600077527
 30
0.0
 10
10.3876833364
 20
10.6563267975
 30
0.0
 10
10.3646791606
 20
10.6529097153
 30
0.0
 10
10.3411040398
 20
10.6497634584
 30
0.0
 10
10.317005648
 20
10.6468944299
 30
0.0
 10
10.2924327194
 20
10.6443084657
 30
0.0
 10
10.2674349684
 20
10.6420108377
 30
0.0
 10
10.2420629234
 20
10.6400061892
 30
0.0
 10
10.2076463224
 20
10.637719137
 30
0.0
 10
10.1640691104
 20
10.6356274929
 30
0.0
 10
10.111353685
 20
10.634344855
 30
0.0
 10
10.0584046457
 20
10.6342889957
 30
0.0
 10
10.0056503339
 20
10.635460352
 30
0.0
 10
9.9620159426
 20
10.6374596502
 30
0.0
 10
9.9275343377
 20
10.6396734158
 30
0.0
 10
9.9020997211
 20
10.6416243202
 30
0.0
 10
9.8770301132
 20
10.6438689855
 30
0.0
 10
9.8523761902
 20
10.6464028791
 30
0.0
 10
9.8281878354
 20
10.6492208424
 30
0.0
 10
9.8045139676
 20
10.6523171411
 30
0.0
 10
9.7814024582
 20
10.655685471
 30
0.0
 10
9.7589000316
 20
10.6593189758
 30
0.0
 10
9.7370521712
 20
10.6632102583
 30
0.0
 10
9.7159030231
 20
10.6673513977
 30
0.0
 10
9.6954952985
 20
10.6717339601
 30
0.0
 10
9.6758701814
 20
10.6763490138
 30
0.0
 10
9.6570672417
 20
10.6811871566
 30
0.0
 10
9.6391243546
 20
10.6862385345
 30
0.0
 10
9.6220776027
 20
10.6914928671
 30
0.0
 10
9.6059612209
 20
10.6969394743
 30
0.0
 10
9.5908073823
 20
10.7025673084
 30
0.0
 10
9.5766465306
 20
10.7083649704
 30
0.0
 10
9.5655283475
 20
10.7134042208
 30
0.0
 10
9.5571635369
 20
10.7175215562
 30
0.0
 10
9.5512544089
 20
10.7205961262
 30
0.0
 10
9.5456138766
 20
10.7237043156
 30
0.0
 10
9.5402447264
 20
10.7268445448
 30
0.0
 10
9.5351496668
 20
10.7300153052
 30
0.0
 10
9.5303312195
 20
10.733214993
 30
0.0
 10
9.5257917817
 20
10.736442041
 30
0.0
 10
9.5215336327
 20
10.7396949132
 30
0.0
 10
9.51755885
 20
10.7429719814
 30
0.0
 10
9.5138694627
 20
10.7462717563
 30
0.0
 10
9.510467281
 20
10.7495926337
 30
0.0
 10
9.5073540439
 20
10.7529331008
 30
0.0
 10
9.5045313847
 20
10.7562916512
 30
0.0
 10
9.5020007553
 20
10.7596667217
 30
0.0
 10
9.4997636565
 20
10.7630568626
 30
0.0
 10
9.4978213535
 20
10.7664604804
 30
0.0
 10
9.4961751656
 20
10.7698760296
 30
0.0
 10
9.4948262954
 20
10.7733018513
 30
0.0
 10
9.4937757789
 20
10.7767361237
 30
0.0
 10
9.4930246808
 20
10.7801770504
 30
0.0
 10
9.4925736391
 20
10.7836221831
 30
0.0
 10
9.4924732459
 20
10.785923809
 30
0.0
 10
9.4924732404
 20
10.7870699843
 30
0.0
  0
SPLINE
  5
35B
100
AcDbEntity
  8
0
100
AcDbSpline
 62
7
  6
CONTINUOUS
 70
0
 71
3
 72
90
 73
86
 74
0
 42
0.0000001
 43
0.0000001
 44
0.0000000001
 40
0.0
 40
0.0
 40
0.0
 40
0.0
 40
0.0039801734
 40
0.0081241052
 40
0.0124359616
 40
0.0169193135
 40
0.0215771815
 40
0.0264119171
 40
0.0314251791
 40
0.0366181551
 40
0.0419915397
 40
0.047545654
 40
0.0532804223
 40
0.0591954139
 40
0.0652899192
 40
0.0715628971
 40
0.08463856
 40
0.0984098622
 40
0.1128604225
 40
0.1279709368
 40
0.1437195167
 40
0.1600819662
 40
0.1770320115
 40
0.1945414958
 40
0.2125805581
 40
0.2311177886
 40
0.2501203685
 40
0.2695542002
 40
0.2893840278
 40
0.3095735514
 40
0.3300855399
 40
0.3508819414
 40
0.3719239887
 40
0.3931723021
 40
0.4145869913
 40
0.4361277558
 40
0.4577539862
 40
0.4794248651
 40
0.5010994671
 40
0.5227368581
 40
0.5442961936
 40
0.5657368187
 40
0.5870183693
 40
0.6081008732
 40
0.6289448503
 40
0.6495114141
 40
0.6697623751
 40
0.6896603446
 40
0.7091688452
 40
0.7282524229
 40
0.7468767607
 40
0.7650087978
 40
0.7826168578
 40
0.7996707871
 40
0.8161421063
 40
0.8320041856
 40
0.8472324355
 40
0.8618045284
 40
0.8757006673
 40
0.8889039105
 40
0.8952415029
 40
0.9014010575
 40
0.9073814349
 40
0.9131818212
 40
0.9188016688
 40
0.9242407739
 40
0.9294993077
 40
0.9345778094
 40
0.9394773131
 40
0.9441992992
 40
0.948745847
 40
0.9531196365
 40
0.9573240498
 40
0.9613632821
 40
0.9652423783
 40
0.968967428
 40
0.9725455945
 40
0.9759853044
 40
0.9824864771
 40
0.9855753379
 40
0.9885738066
 40
0.9914977312
 40
0.994364333
 40
0.997192009
 40
1.0
 40
1.0
 40
1.0
 40
1.0
 10
12.262567986
 20
10.6358802991
 30
0.0
 10
12.2611914966
 20
10.6345507124
 30
0.0
 10
12.2583193737
 20
10.6319009398
 30
0.0
 10
12.2537593223
 20
10.6280307426
 30
0.0
 10
12.2488644071
 20
10.6241882995
 30
0.0
 10
12.2436373142
 20
10.620375665
 30
0.0
 10
12.2380806008
 20
10.6165946104
 30
0.0
 10
12.2321969799
 20
10.6128469854
 30
0.0
 10
12.2259893981
 20
10.609134572
 30
0.0
 10
12.2194609324
 20
10.6054593028
 30
0.0
 10
12.2126148794
 20
10.601822949
 30
0.0
 10
12.2054546484
 20
10.598227365
 30
0.0
 10
12.1979838305
 20
10.5946743423
 30
0.0
 10
12.1902061841
 20
10.5911656538
 30
0.0
 10
12.1821255957
 20
10.5877030867
 30
0.0
 10
12.1707959044
 20
10.5830861967
 30
0.0
 10
12.1558964071
 20
10.5774554579
 30
0.0
 10
12.1371154231
 20
10.5709997336
 30
0.0
 10
12.1172312779
 20
10.5647681618
 30
0.0
 10
12.0962840636
 20
10.5587734076
 30
0.0
 10
12.0743158309
 20
10.5530276726
 30
0.0
 10
12.0513708313
 20
10.5475426598
 30
0.0
 10
12.027495319
 20
10.5423295448
 30
0.0
 10
12.002737477
 20
10.5373989446
 30
0.0
 10
11.9771473004
 20
10.5327609012
 30
0.0
 10
11.95077649
 20
10.5284248596
 30
0.0
 10
11.9236783421
 20
10.5243996484
 30
0.0
 10
11.8959076382
 20
10.5206934621
 30
0.0
 10
11.867520533
 20
10.517313846
 30
0.0
 10
11.8385744402
 20
10.5142676758
 30
0.0
 10
11.809127913
 20
10.511561146
 30
0.0
 10
11.7792405226
 20
10.5091997611
 30
0.0
 10
11.7489727359
 20
10.5071883231
 30
0.0
 10
11.7183857926
 20
10.5055309227
 30
0.0
 10
11.6875415818
 20
10.5042309317
 30
0.0
 10
11.6565025167
 20
10.5032909944
 30
0.0
 10
11.6253314067
 20
10.5027130191
 30
0.0
 10
11.5940913293
 20
10.5024981796
 30
0.0
 10
11.5628455011
 20
10.502646912
 30
0.0
 10
11.5316571507
 20
10.5031589146
 30
0.0
 10
11.5005893903
 20
10.5040331475
 30
0.0
 10
11.4697050879
 20
10.5052678361
 30
0.0
 10
11.4390667379
 20
10.5068604691
 30
0.0
 10
11.4087363342
 20
10.5088078065
 30
0.0
 10
11.3787752438
 20
10.5111058879
 30
0.0
 10
11.3492440834
 20
10.5137500399
 30
0.0
 10
11.3202025963
 20
10.5167348854
 30
0.0
 10
11.29170953
 20
10.5200543542
 30
0.0
 10
11.2638225141
 20
10.5237016939
 30
0.0
 10
11.2365979408
 20
10.5276694792
 30
0.0
 10
11.2100908498
 20
10.5319496328
 30
0.0
 10
11.1843548157
 20
10.53653344
 30
0.0
 10
11.1594418379
 20
10.5414115668
 30
0.0
 10
11.13540223
 20
10.5465740781
 30
0.0
 10
11.1122845126
 20
10.5520104603
 30
0.0
 10
11.0901352973
 20
10.557709637
 30
0.0
 10
11.0689992103
 20
10.563659999
 30
0.0
 10
11.0489186984
 20
10.5698494328
 30
0.0
 10
11.0299342592
 20
10.5762653565
 30
0.0
 10
11.0148598842
 20
10.5818635601
 30
0.0
 10
11.0033867355
 20
10.5864554908
 30
0.0
 10
10.9951969698
 20
10.5899008495
 30
0.0
 10
10.9873086854
 20
10.5933929689
 30
0.0
 10
10.9797258247
 20
10.5969300663
 30
0.0
 10
10.9724522055
 20
10.6005103817
 30
0.0
 10
10.9654914783
 20
10.6041321217
 30
0.0
 10
10.9588471158
 20
10.6077934369
 30
0.0
 10
10.9525224659
 20
10.6114925601
 30
0.0
 10
10.9465206548
 20
10.6152275809
 30
0.0
 10
10.9408447044
 20
10.6189967208
 30
0.0
 10
10.9354974173
 20
10.622798084
 30
0.0
 10
10.9304814572
 20
10.6266298336
 30
0.0
 10
10.9257993341
 20
10.6304901501
 30
0.0
 10
10.9214533485
 20
10.6343771308
 30
0.0
 10
10.9174457132
 20
10.6382890653
 30
0.0
 10
10.9137784833
 20
10.6422239322
 30
0.0
 10
10.9104533056
 20
10.6461804727
 30
0.0
 10
10.906552514
 20
10.6513828278
 30
0.0
 10
10.9032401343
 20
10.6567254371
 30
0.0
 10
10.9006102122
 20
10.6621821048
 30
0.0
 10
10.8990212479
 20
10.6662177308
 30
0.0
 10
10.8977838228
 20
10.6702631621
 30
0.0
 10
10.8968990322
 20
10.67431646
 30
0.0
 10
10.8963677776
 20
10.6783747146
 30
0.0
 10
10.8962495024
 20
10.6810859503
 30
0.0
 10
10.8962494985
 20
10.6824361063
 30
0.0
  0
SPLINE
  5
35C
100
AcDbEntity
  8
0
100
AcDbSpline
 62
7
  6
CONTINUOUS
 70
0
 71
3
 72
19
 73
15
 74
0
 42
0.0000001
 43
0.0000001
 44
0.0000000001
 40
0.0
 40
0.0
 40
0.0
 40
0.0
 40
0.1504611406
 40
0.2916985742
 40
0.4244193292
 40
0.4878835935
 40
0.5495802133
 40
0.6682271463
 40
0.7255606136
 40
0.7817999183
 40
0.8371467056
 40
0.8918136429
 40
0.9460222308
 40
1.0
 40
1.0
 40
1.0
 40
1.0
 10
12.9802508825
 20
8.9633533369
 30
0.0
 10
12.9822157071
 20
8.9652512118
 30
0.0
 10
12.9861426433
 20
8.968812162
 30
0.0
 10
12.9922231308
 20
8.9735575305
 30
0.0
 10
12.9973590493
 20
8.9769137289
 30
0.0
 10
13.0014546251
 20
8.9791864503
 30
0.0
 10
13.00542937
 20
8.9811376439
 30
0.0
 10
13.0094506581
 20
8.9827325602
 30
0.0
 10
13.0134945653
 20
8.9839327564
 30
0.0
 10
13.0164845198
 20
8.9846245654
 30
0.0
 10
13.0194645244
 20
8.9851176469
 30
0.0
 10
13.0224337863
 20
8.9854117857
 30
0.0
 10
13.0253911083
 20
8.9855068601
 30
0.0
 10
13.0273558694
 20
8.9854373824
 30
0.0
 10
13.0283335343
 20
8.9853695844
 30
0.0
  0
SPLINE
  5
35D
100
AcDbEntity
  8
0
100
AcDbSpline
 62
7
  6
CONTINUOUS
 70
0
 71
3
 72
21
 73
17
 74
0
 42
0.0000001
 43
0.0000001
 44
0.0000000001
 40
0.0
 40
0.0
 40
0.0
 40
0.0
 40
0.1273176984
 40
0.2537999461
 40
0.3167619614
 40
0.3795355204
 40
0.4421314992
 40
0.5045621453
 40
0.5668413456
 40
0.6289845231
 40
0.6910084433
 40
0.7529310869
 40
0.8147714401
 40
0.8765493236
 40
0.9382852134
 40
1.0
 40
1.0
 40
1.0
 40
1.0
 10
12.4294388295
 20
9.8579896353
 30
0.0
 10
12.4294388295
 20
9.8514912128
 30
0.0
 10
12.4288185117
 20
9.8385286452
 30
0.0
 10
12.4264757457
 20
9.8225041133
 30
0.0
 10
12.4236756436
 20
9.8099342714
 30
0.0
 10
12.4211220966
 20
9.8006627498
 30
0.0
 10
12.4181180013
 20
9.7915559785
 30
0.0
 10
12.4146702837
 20
9.7826346918
 30
0.0
 10
12.4107868926
 20
9.7739195233
 30
0.0
 10
12.4064767042
 20
9.7654305871
 30
0.0
 10
12.4017496894
 20
9.7571874515
 30
0.0
 10
12.3966167496
 20
9.7492091138
 30
0.0
 10
12.3910896726
 20
9.7415140358
 30
0.0
 10
12.3851811704
 20
9.73411989
 30
0.0
 10
12.378905131
 20
9.7270439344
 30
0.0
 10
12.3744848325
 20
9.7225488708
 30
0.0
 10
12.3722191851
 20
9.7203604368
 30
0.0
  0
SPLINE
  5
35E
100
AcDbEntity
  8
0
100
AcDbSpline
 62
7
  6
CONTINUOUS
 70
0
 71
3
 72
21
 73
17
 74
0
 42
0.0000001
 43
0.0000001
 44
0.0000000001
 40
0.0
 40
0.0
 40
0.0
 40
0.0
 40
0.1273176984
 40
0.2537999461
 40
0.3167619614
 40
0.3795355204
 40
0.4421314992
 40
0.5045621453
 40
0.5668413456
 40
0.6289845231
 40
0.6910084433
 40
0.7529310869
 40
0.8147714401
 40
0.8765493236
 40
0.9382852134
 40
1.0
 40
1.0
 40
1.0
 40
1.0
 10
9.4118863282
 20
6.5667423992
 30
0.0
 10
9.4118863282
 20
6.5602439768
 30
0.0
 10
9.4112660103
 20
6.5472814091
 30
0.0
 10
9.4089232443
 20
6.5312568772
 30
0.0
 10
9.4061231422
 20
6.5186870353
 30
0.0
 10
9.4035695953
 20
6.5094155137
 30
0.0
 10
9.4005654999
 20
6.5003087424
 30
0.0
 10
9.3971177823
 20
6.4913874557
 30
0.0
 10
9.3932343913
 20
6.4826722872
 30
0.0
 10
9.3889242028
 20
6.474183351
 30
0.0
 10
9.384197188
 20
6.4659402155
 30
0.0
 10
9.3790642482
 20
6.4579618778
 30
0.0
 10
9.3735371712
 20
6.4502667997
 30
0.0
 10
9.367628669
 20
6.442872654
 30
0.0
 10
9.3613526297
 20
6.4357966984
 30
0.0
 10
9.3569323312
 20
6.4313016347
 30
0.0
 10
9.3546666838
 20
6.4291132008
 30
0.0
  0
SPLINE
  5
35F
100
AcDbEntity
  8
0
100
AcDbSpline
 62
7
  6
CONTINUOUS
 70
0
 71
3
 72
21
 73
17
 74
0
 42
0.0000001
 43
0.0000001
 44
0.0000000001
 40
0.0
 40
0.0
 40
0.0
 40
0.0
 40
0.1273176984
 40
0.2537999461
 40
0.3167619614
 40
0.3795355204
 40
0.4421314992
 40
0.5045621453
 40
0.5668413456
 40
0.6289845231
 40
0.6910084433
 40
0.7529310869
 40
0.8147714401
 40
0.8765493236
 40
0.9382852134
 40
1.0
 40
1.0
 40
1.0
 40
1.0
 10
12.4294388295
 20
6.3574744224
 30
0.0
 10
12.4294388295
 20
6.350976
 30
0.0
 10
12.4288185117
 20
6.3380134324
 30
0.0
 10
12.4264757457
 20
6.3219889005
 30
0.0
 10
12.4236756436
 20
6.3094190585
 30
0.0
 10
12.4211220966
 20
6.300147537
 30
0.0
 10
12.4181180013
 20
6.2910407657
 30
0.0
 10
12.4146702837
 20
6.282119479
 30
0.0
 10
12.4107868926
 20
6.2734043105
 30
0.0
 10
12.4064767042
 20
6.2649153743
 30
0.0
 10
12.4017496894
 20
6.2566722387
 30
0.0
 10
12.3966167496
 20
6.248693901
 30
0.0
 10
12.3910896726
 20
6.240998823
 30
0.0
 10
12.3851811704
 20
6.2336046772
 30
0.0
 10
12.378905131
 20
6.2265287216
 30
0.0
 10
12.3744848325
 20
6.222033658
 30
0.0
 10
12.3722191851
 20
6.219845224
 30
0.0
  0
SPLINE
  5
360
100
AcDbEntity
  8
0
100
AcDbSpline
 62
7
  6
CONTINUOUS
 70
0
 71
3
 72
25
 73
21
 74
0
 42
0.0000001
 43
0.0000001
 44
0.0000000001
 40
0.0
 40
0.0
 40
0.0
 40
0.0
 40
0.0647706696
 40
0.0970576983
 40
0.1292685987
 40
0.1934337042
 40
0.2572525376
 40
0.289033671
 40
0.3207231181
 40
0.383812059
 40
0.4465380865
 40
0.5089164209
 40
0.5709720895
 40
0.632739097
 40
0.6942593324
 40
0.7555812652
 40
0.8167584588
 40
0.8778479804
 40
0.9389087679
 40
1.0
 40
1.0
 40
1.0
 40
1.0
 10
11.1536403342
 20
8.9518388185
 30
0.0
 10
11.1561162741
 20
8.9463574411
 30
0.0
 10
11.1594985105
 20
8.9379893747
 30
0.0
 10
11.163311806
 20
8.9266047228
 30
0.0
 10
11.1666431315
 20
8.9151277152
 30
0.0
 10
11.169911497
 20
8.9005973391
 30
0.0
 10
11.1719658343
 20
8.8858861337
 30
0.0
 10
11.172866671
 20
8.874097324
 30
0.0
 10
11.1732722932
 20
8.8623490355
 30
0.0
 10
11.1728575839
 20
8.8477102026
 30
0.0
 10
11.1708864038
 20
8.8303253572
 30
0.0
 10
11.1674619567
 20
8.8132645888
 30
0.0
 10
11.1626139258
 20
8.7966452768
 30
0.0
 10
11.1563817272
 20
8.7805792531
 30
0.0
 10
11.1488138064
 20
8.765173344
 30
0.0
 10
11.1399669498
 20
8.7505284485
 30
0.0
 10
11.1299057178
 20
8.7367393044
 30
0.0
 10
11.1187011887
 20
8.7238937074
 30
0.0
 10
11.1064324533
 20
8.7120738437
 30
0.0
 10
11.0976011566
 20
8.7049287839
 30
0.0
 10
11.0930415039
 20
8.7015535804
 30
0.0
  0
SPLINE
  5
361
100
AcDbEntity
  8
0
100
AcDbSpline
 62
7
  6
CONTINUOUS
 70
0
 71
3
 72
15
 73
11
 74
0
 42
0.0000001
 43
0.0000001
 44
0.0000000001
 40
0.0
 40
0.0
 40
0.0
 40
0.0
 40
0.1241308009
 40
0.2482795847
 40
0.3725744135
 40
0.4971330517
 40
0.6220659435
 40
0.7474699962
 40
0.873426661
 40
1.0
 40
1.0
 40
1.0
 40
1.0
 10
11.518263228
 20
8.1209488065
 30
0.0
 10
11.5146385936
 20
8.1168805047
 30
0.0
 10
11.5070233046
 20
8.1090606338
 30
0.0
 10
11.4946038341
 20
8.0983888397
 30
0.0
 10
11.4812740009
 20
8.0888443127
 30
0.0
 10
11.4671287387
 20
8.0804894894
 30
0.0
 10
11.4522672719
 20
8.0733748816
 30
0.0
 10
11.4367926406
 20
8.0675408558
 30
0.0
 10
11.4208123251
 20
8.0630174647
 30
0.0
 10
11.4099176659
 20
8.0608935499
 30
0.0
 10
11.4044255235
 20
8.0600537215
 30
0.0
  0
SPLINE
  5
362
100
AcDbEntity
  8
0
100
AcDbSpline
 62
7
  6
CONTINUOUS
 70
0
 71
3
 72
41
 73
37
 74
0
 42
0.0000001
 43
0.0000001
 44
0.0000000001
 40
0.0
 40
0.0
 40
0.0
 40
0.0
 40
0.0302897333
 40
0.0604818916
 40
0.0906152924
 40
0.1207300201
 40
0.150866953
 40
0.1810656793
 40
0.2113628934
 40
0.2417909844
 40
0.2723768945
 40
0.3031413158
 40
0.3340981765
 40
0.3652544331
 40
0.396610133
 40
0.428158678
 40
0.45988727
 40
0.4917774929
 40
0.5238059887
 40
0.5559452199
 40
0.5881642875
 40
0.6204298005
 40
0.6527068075
 40
0.6849597552
 40
0.717153497
 40
0.7492543543
 40
0.7812311784
 40
0.8130564268
 40
0.844707227
 40
0.8761663462
 40
0.9074230528
 40
0.9384737989
 40
0.9539274866
 40
0.9693318511
 40
0.9846886827
 40
1.0
 40
1.0
 40
1.0
 40
1.0
 10
9.8576193391
 20
8.045554559
 30
0.0
 10
9.8604339742
 20
8.0513953678
 30
0.0
 10
9.8666497848
 20
8.0627820924
 30
0.0
 10
9.8776511488
 20
8.07879616
 30
0.0
 10
9.890212201
 20
8.0935720976
 30
0.0
 10
9.9042130704
 20
8.1069736416
 30
0.0
 10
9.9195215091
 20
8.1188822081
 30
0.0
 10
9.9359934566
 20
8.129194106
 30
0.0
 10
9.9534753192
 20
8.1378224449
 30
0.0
 10
9.9718059369
 20
8.1446972624
 30
0.0
 10
9.9908186485
 20
8.1497654897
 30
0.0
 10
10.0103430243
 20
8.1529909753
 30
0.0
 10
10.0302065979
 20
8.1543540106
 30
0.0
 10
10.0502363378
 20
8.1538507039
 30
0.0
 10
10.0702599381
 20
8.1514925937
 30
0.0
 10
10.090106982
 20
8.1473059199
 30
0.0
 10
10.1096099087
 20
8.1413309411
 30
0.0
 10
10.1286049435
 20
8.1336215238
 30
0.0
 10
10.1469329214
 20
8.1242445325
 30
0.0
 10
10.1644400214
 20
8.113279277
 30
0.0
 10
10.1809786113
 20
8.100817207
 30
0.0
 10
10.1964080539
 20
8.0869614565
 30
0.0
 10
10.2105954841
 20
8.0718263565
 30
0.0
 10
10.2234168168
 20
8.0555371111
 30
0.0
 10
10.2347577627
 20
8.0382292859
 30
0.0
 10
10.244514783
 20
8.0200481401
 30
0.0
 10
10.2525963604
 20
8.0011480148
 30
0.0
 10
10.2589241984
 20
7.9816913833
 30
0.0
 10
10.2634342842
 20
7.9618478686
 30
0.0
 10
10.2660781672
 20
7.9417924672
 30
0.0
 10
10.2668243642
 20
7.9217060261
 30
0.0
 10
10.265850596
 20
7.9050612633
 30
0.0
 10
10.2641140837
 20
7.8919193937
 30
0.0
 10
10.2623394285
 20
7.8821831589
 30
0.0
 10
10.2600942271
 20
7.8725762938
 30
0.0
 10
10.2582840963
 20
7.8662628249
 30
0.0
 10
10.2573023015
 20
7.8631359
 30
0.0
  0
SPLINE
  5
363
100
AcDbEntity
  8
0
100
AcDbSpline
 62
7
  6
CONTINUOUS
 70
0
 71
3
 72
15
 73
11
 74
0
 42
0.0000001
 43
0.0000001
 44
0.0000000001
 40
0.0
 40
0.0
 40
0.0
 40
0.0
 40
0.1273482936
 40
0.2538605366
 40
0.3795879111
 40
0.5046050899
 40
0.6290174366
 40
0.7529533732
 40
0.8765605776
 40
1.0
 40
1.0
 40
1.0
 40
1.0
 10
10.0422755415
 20
9.1849476362
 30
0.0
 10
10.0422755415
 20
9.1816214519
 30
0.0
 10
10.0419579592
 20
9.1749863213
 30
0.0
 10
10.0405217158
 20
9.1651612383
 30
0.0
 10
10.038140185
 20
9.1555830239
 30
0.0
 10
10.0348348736
 20
9.1463412534
 30
0.0
 10
10.0306361234
 20
9.1375211524
 30
0.0
 10
10.0255821954
 20
9.1292041662
 30
0.0
 10
10.0197205985
 20
9.1214682361
 30
0.0
 10
10.0153071247
 20
9.1167426797
 30
0.0
 10
10.0129881739
 20
9.1145027647
 30
0.0
  0
SPLINE
  5
364
100
AcDbEntity
  8
0
100
AcDbSpline
 62
7
  6
CONTINUOUS
 70
0
 71
3
 72
23
 73
19
 74
0
 42
0.0000001
 43
0.0000001
 44
0.0000000001
 40
0.0
 40
0.0
 40
0.0
 40
0.0
 40
0.0614488807
 40
0.1232974294
 40
0.1855193177
 40
0.2480712672
 40
0.3108995318
 40
0.3739401513
 40
0.4371217414
 40
0.5003679843
 40
0.5636003151
 40
0.6267406524
 40
0.6897141172
 40
0.7524516838
 40
0.8148926113
 40
0.8769871451
 40
0.9386966623
 40
1.0
 40
1.0
 40
1.0
 40
1.0
 10
9.9379555461
 20
9.2965022479
 30
0.0
 10
9.9413795715
 20
9.2962647909
 30
0.0
 10
9.9482310386
 20
9.2954509045
 30
0.0
 10
9.9583701668
 20
9.2932403771
 30
0.0
 10
9.9683127651
 20
9.2900574856
 30
0.0
 10
9.9779621161
 20
9.2859330666
 30
0.0
 10
9.9872259402
 20
9.2809069932
 30
0.0
 10
9.9960152685
 20
9.2750276656
 30
0.0
 10
10.0042458121
 20
9.2683516504
 30
0.0
 10
10.0118386052
 20
9.2609431018
 30
0.0
 10
10.0187207794
 20
9.2528731509
 30
0.0
 10
10.0248262392
 20
9.2442192359
 30
0.0
 10
10.0300962865
 20
9.2350643828
 30
0.0
 10
10.0344801778
 20
9.2254963941
 30
0.0
 10
10.0379356595
 20
9.2156071701
 30
0.0
 10
10.0404292351
 20
9.2054913162
 30
0.0
 10
10.0419367541
 20
9.195247251
 30
0.0
 10
10.0422755415
 20
9.1883717562
 30
0.0
 10
10.0422755415
 20
9.1849476362
 30
0.0
  0
SPLINE
  5
365
100
AcDbEntity
  8
0
100
AcDbSpline
 62
7
  6
CONTINUOUS
 70
0
 71
3
 72
15
 73
11
 74
0
 42
0.0000001
 43
0.0000001
 44
0.0000000001
 40
0.0
 40
0.0
 40
0.0
 40
0.0
 40
0.1273482936
 40
0.2538605366
 40
0.3795879111
 40
0.5046050899
 40
0.6290174366
 40
0.7529533732
 40
0.8765605776
 40
1.0
 40
1.0
 40
1.0
 40
1.0
 10
12.0939021881
 20
9.042666845
 30
0.0
 10
12.0939021881
 20
9.0393406607
 30
0.0
 10
12.0935846058
 20
9.0327055301
 30
0.0
 10
12.0921483624
 20
9.0228804471
 30
0.0
 10
12.0897668316
 20
9.0133022327
 30
0.0
 10
12.0864615202
 20
9.0040604622
 30
0.0
 10
12.08226277
 20
8.9952403612
 30
0.0
 10
12.077208842
 20
8.986923375
 30
0.0
 10
12.0713472451
 20
8.9791874449
 30
0.0
 10
12.0669337713
 20
8.9744618885
 30
0.0
 10
12.0646148205
 20
8.9722219735
 30
0.0
  0
SPLINE
  5
366
100
AcDbEntity
  8
0
100
AcDbSpline
 62
7
  6
CONTINUOUS
 70
0
 71
3
 72
23
 73
19
 74
0
 42
0.0000001
 43
0.0000001
 44
0.0000000001
 40
0.0
 40
0.0
 40
0.0
 40
0.0
 40
0.0614488807
 40
0.1232974294
 40
0.1855193177
 40
0.2480712672
 40
0.3108995318
 40
0.3739401513
 40
0.4371217414
 40
0.5003679843
 40
0.5636003151
 40
0.6267406524
 40
0.6897141172
 40
0.7524516838
 40
0.8148926113
 40
0.8769871451
 40
0.9386966623
 40
1.0
 40
1.0
 40
1.0
 40
1.0
 10
11.9895821927
 20
9.1542214567
 30
0.0
 10
11.9930062181
 20
9.1539839997
 30
0.0
 10
11.9998576852
 20
9.1531701133
 30
0.0
 10
12.0099968134
 20
9.1509595859
 30
0.0
 10
12.0199394117
 20
9.1477766944
 30
0.0
 10
12.0295887627
 20
9.1436522754
 30
0.0
 10
12.0388525868
 20
9.138626202
 30
0.0
 10
12.0476419152
 20
9.1327468744
 30
0.0
 10
12.0558724587
 20
9.1260708592
 30
0.0
 10
12.0634652518
 20
9.1186623106
 30
0.0
 10
12.070347426
 20
9.1105923598
 30
0.0
 10
12.0764528858
 20
9.1019384447
 30
0.0
 10
12.0817229331
 20
9.0927835917
 30
0.0
 10
12.0861068244
 20
9.0832156029
 30
0.0
 10
12.0895623061
 20
9.0733263789
 30
0.0
 10
12.0920558817
 20
9.063210525
 30
0.0
 10
12.0935634007
 20
9.0529664598
 30
0.0
 10
12.0939021881
 20
9.046090965
 30
0.0
 10
12.0939021881
 20
9.042666845
 30
0.0
  0
SPLINE
  5
367
100
AcDbEntity
  8
0
100
AcDbSpline
 62
7
  6
CONTINUOUS
 70
0
 71
3
 72
15
 73
11
 74
0
 42
0.0000001
 43
0.0000001
 44
0.0000000001
 40
0.0
 40
0.0
 40
0.0
 40
0.0
 40
0.1273482936
 40
0.2538605366
 40
0.3795879111
 40
0.5046050899
 40
0.6290174366
 40
0.7529533732
 40
0.8765605776
 40
1.0
 40
1.0
 40
1.0
 40
1.0
 10
12.0939021881
 20
7.2914432532
 30
0.0
 10
12.0939021881
 20
7.2881170689
 30
0.0
 10
12.0935846058
 20
7.2814819382
 30
0.0
 10
12.0921483624
 20
7.2716568553
 30
0.0
 10
12.0897668316
 20
7.2620786409
 30
0.0
 10
12.0864615202
 20
7.2528368704
 30
0.0
 10
12.08226277
 20
7.2440167694
 30
0.0
 10
12.077208842
 20
7.2356997832
 30
0.0
 10
12.0713472451
 20
7.2279638531
 30
0.0
 10
12.0669337713
 20
7.2232382967
 30
0.0
 10
12.0646148205
 20
7.2209983817
 30
0.0
  0
SPLINE
  5
368
100
AcDbEntity
  8
0
100
AcDbSpline
 62
7
  6
CONTINUOUS
 70
0
 71
3
 72
23
 73
19
 74
0
 42
0.0000001
 43
0.0000001
 44
0.0000000001
 40
0.0
 40
0.0
 40
0.0
 40
0.0
 40
0.0614488807
 40
0.1232974294
 40
0.1855193177
 40
0.2480712672
 40
0.3108995318
 40
0.3739401513
 40
0.4371217414
 40
0.5003679843
 40
0.5636003151
 40
0.6267406524
 40
0.6897141172
 40
0.7524516838
 40
0.8148926113
 40
0.8769871451
 40
0.9386966623
 40
1.0
 40
1.0
 40
1.0
 40
1.0
 10
11.9895821927
 20
7.4029978649
 30
0.0
 10
11.9930062181
 20
7.4027604079
 30
0.0
 10
11.9998576852
 20
7.4019465215
 30
0.0
 10
12.0099968134
 20
7.3997359941
 30
0.0
 10
12.0199394117
 20
7.3965531026
 30
0.0
 10
12.0295887627
 20
7.3924286836
 30
0.0
 10
12.0388525868
 20
7.3874026102
 30
0.0
 10
12.0476419152
 20
7.3815232825
 30
0.0
 10
12.0558724587
 20
7.3748472674
 30
0.0
 10
12.0634652518
 20
7.3674387187
 30
0.0
 10
12.070347426
 20
7.3593687679
 30
0.0
 10
12.0764528858
 20
7.3507148529
 30
0.0
 10
12.0817229331
 20
7.3415599998
 30
0.0
 10
12.0861068244
 20
7.331992011
 30
0.0
 10
12.0895623061
 20
7.3221027871
 30
0.0
 10
12.0920558817
 20
7.3119869332
 30
0.0
 10
12.0935634007
 20
7.301742868
 30
0.0
 10
12.0939021881
 20
7.2948673732
 30
0.0
 10
12.0939021881
 20
7.2914432532
 30
0.0
  0
SPLINE
  5
369
100
AcDbEntity
  8
0
100
AcDbSpline
 62
7
  6
CONTINUOUS
 70
0
 71
3
 72
15
 73
11
 74
0
 42
0.0000001
 43
0.0000001
 44
0.0000000001
 40
0.0
 40
0.0
 40
0.0
 40
0.0
 40
0.1273482936
 40
0.2538605366
 40
0.3795879111
 40
0.5046050899
 40
0.6290174366
 40
0.7529533732
 40
0.8765605776
 40
1.0
 40
1.0
 40
1.0
 40
1.0
 10
10.0422755415
 20
7.4337240444
 30
0.0
 10
10.0422755415
 20
7.4303978601
 30
0.0
 10
10.0419579592
 20
7.4237627294
 30
0.0
 10
10.0405217158
 20
7.4139376464
 30
0.0
 10
10.038140185
 20
7.404359432
 30
0.0
 10
10.0348348736
 20
7.3951176616
 30
0.0
 10
10.0306361234
 20
7.3862975606
 30
0.0
 10
10.0255821954
 20
7.3779805744
 30
0.0
 10
10.0197205985
 20
7.3702446443
 30
0.0
 10
10.0153071247
 20
7.3655190878
 30
0.0
 10
10.0129881739
 20
7.3632791729
 30
0.0
  0
SPLINE
  5
36A
100
AcDbEntity
  8
0
100
AcDbSpline
 62
7
  6
CONTINUOUS
 70
0
 71
3
 72
23
 73
19
 74
0
 42
0.0000001
 43
0.0000001
 44
0.0000000001
 40
0.0
 40
0.0
 40
0.0
 40
0.0
 40
0.0614488807
 40
0.1232974294
 40
0.1855193177
 40
0.2480712672
 40
0.3108995318
 40
0.3739401513
 40
0.4371217414
 40
0.5003679843
 40
0.5636003151
 40
0.6267406524
 40
0.6897141172
 40
0.7524516838
 40
0.8148926113
 40
0.8769871451
 40
0.9386966623
 40
1.0
 40
1.0
 40
1.0
 40
1.0
 10
9.9379555461
 20
7.5452786561
 30
0.0
 10
9.9413795715
 20
7.5450411991
 30
0.0
 10
9.9482310386
 20
7.5442273127
 30
0.0
 10
9.9583701668
 20
7.5420167853
 30
0.0
 10
9.9683127651
 20
7.5388338938
 30
0.0
 10
9.9779621161
 20
7.5347094748
 30
0.0
 10
9.9872259402
 20
7.5296834014
 30
0.0
 10
9.9960152685
 20
7.5238040737
 30
0.0
 10
10.0042458121
 20
7.5171280586
 30
0.0
 10
10.0118386052
 20
7.5097195099
 30
0.0
 10
10.0187207794
 20
7.5016495591
 30
0.0
 10
10.0248262392
 20
7.4929956441
 30
0.0
 10
10.0300962865
 20
7.483840791
 30
0.0
 10
10.0344801778
 20
7.4742728022
 30
0.0
 10
10.0379356595
 20
7.4643835783
 30
0.0
 10
10.0404292351
 20
7.4542677244
 30
0.0
 10
10.0419367541
 20
7.4440236591
 30
0.0
 10
10.0422755415
 20
7.4371481644
 30
0.0
 10
10.0422755415
 20
7.4337240444
 30
0.0
  0
SPLINE
  5
36B
100
AcDbEntity
  8
0
100
AcDbSpline
 62
7
  6
CONTINUOUS
 70
0
 71
3
 72
61
 73
57
 74
0
 42
0.0000001
 43
0.0000001
 44
0.0000000001
 40
0.0
 40
0.0
 40
0.0
 40
0.0
 40
0.0076531415
 40
0.0158948247
 40
0.0247434839
 40
0.0342112972
 40
0.0443040709
 40
0.0550228279
 40
0.0663646781
 40
0.078323332
 40
0.0908896
 40
0.1040518293
 40
0.1177961882
 40
0.1321068581
 40
0.1469662878
 40
0.1623553704
 40
0.178253534
 40
0.1946388863
 40
0.211488356
 40
0.2287777591
 40
0.2464818721
 40
0.26457456
 40
0.2830288413
 40
0.3018169304
 40
0.3402793324
 40
0.3797273693
 40
0.4199178606
 40
0.4606016459
 40
0.5015256441
 40
0.5424348648
 40
0.5830744349
 40
0.6231916205
 40
0.662537856
 40
0.7008707767
 40
0.7195840799
 40
0.7379570715
 40
0.7559621508
 40
0.7735725281
 40
0.7907622662
 40
0.8075063738
 40
0.8237809253
 40
0.8395631079
 40
0.8548313173
 40
0.8695653224
 40
0.8837463599
 40
0.8973572541
 40
0.9103826363
 40
0.9228091596
 40
0.934625702
 40
0.9458237089
 40
0.9563976424
 40
0.9663454373
 40
0.9756691686
 40
0.9843759936
 40
0.992479264
 40
1.0
 40
1.0
 40
1.0
 40
1.0
 10
12.9493412535
 20
8.8012895267
 30
0.0
 10
12.9474231971
 20
8.7994368264
 30
0.0
 10
12.9435951621
 20
8.7954259664
 30
0.0
 10
12.9380724211
 20
8.7887984459
 30
0.0
 10
12.9325693501
 20
8.7813525069
 30
0.0
 10
12.9270947985
 20
8.7731005218
 30
0.0
 10
12.9216571435
 20
8.7640552972
 30
0.0
 10
12.9162651607
 20
8.7542313978
 30
0.0
 10
12.910927628
 20
8.7436446801
 30
0.0
 10
12.9056533417
 20
8.7323123658
 30
0.0
 10
12.9004510082
 20
8.7202530102
 30
0.0
 10
12.8953292745
 20
8.7074864172
 30
0.0
 10
12.8902966858
 20
8.6940336078
 30
0.0
 10
12.885361612
 20
8.6799168002
 30
0.0
 10
12.8805322821
 20
8.665159339
 30
0.0
 10
12.8758167718
 20
8.6497856465
 30
0.0
 10
12.871222944
 20
8.6338211997
 30
0.0
 10
12.8667584533
 20
8.6172924757
 30
0.0
 10
12.8624307597
 20
8.6002268908
 30
0.0
 10
12.8582470911
 20
8.5826527669
 30
0.0
 10
12.8542144074
 20
8.5645992855
 30
0.0
 10
12.8503394447
 20
8.5460964322
 30
0.0
 10
12.8466286496
 20
8.5271749118
 30
0.0
 10
12.8418710915
 20
8.5012276783
 30
0.0
 10
12.8363900913
 20
8.4679786181
 30
0.0
 10
12.8306079443
 20
8.4272315175
 30
0.0
 10
12.825609469
 20
8.3856012112
 30
0.0
 10
12.8214280169
 20
8.3433642286
 30
0.0
 10
12.8180915206
 20
8.3008009429
 30
0.0
 10
12.8156221354
 20
8.2581939882
 30
0.0
 10
12.8140362394
 20
8.2158262896
 30
0.0
 10
12.8133441987
 20
8.1739791052
 30
0.0
 10
12.8135504212
 20
8.1329304246
 30
0.0
 10
12.8144764807
 20
8.0993520113
 30
0.0
 10
12.8156763958
 20
8.0730991239
 30
0.0
 10
12.8167910202
 20
8.0539344559
 30
0.0
 10
12.8181255584
 20
8.0351691005
 30
0.0
 10
12.8196777822
 20
8.0168341986
 30
0.0
 10
12.821445085
 20
7.9989602101
 30
0.0
 10
12.8234245138
 20
7.9815768127
 30
0.0
 10
12.8256127276
 20
7.9647128572
 30
0.0
 10
12.8280060519
 20
7.9483963241
 30
0.0
 10
12.8306004881
 20
7.9326542767
 30
0.0
 10
12.8333916684
 20
7.9175127994
 30
0.0
 10
12.8363748989
 20
7.9029969578
 30
0.0
 10
12.8395451916
 20
7.8891307625
 30
0.0
 10
12.8428972348
 20
7.8759371069
 30
0.0
 10
12.8464254012
 20
7.8634377167
 30
0.0
 10
12.8501238103
 20
7.8516531237
 30
0.0
 10
12.8539863394
 20
7.8406026079
 30
0.0
 10
12.8580065933
 20
7.830304134
 30
0.0
 10
12.8621780351
 20
7.8207743009
 30
0.0
 10
12.8664939849
 20
7.8120284028
 30
0.0
 10
12.8709479033
 20
7.8040800382
 30
0.0
 10
12.8755326872
 20
7.7969421993
 30
0.0
 10
12.8787906856
 20
7.7925727277
 30
0.0
 10
12.8804442017
 20
7.7905396551
 30
0.0
  0
SPLINE
  5
36C
100
AcDbEntity
  8
0
100
AcDbSpline
 62
7
  6
CONTINUOUS
 70
0
 71
3
 72
18
 73
14
 74
0
 42
0.0000001
 43
0.0000001
 44
0.0000000001
 40
0.0
 40
0.0
 40
0.0
 40
0.0
 40
0.0548627134
 40
0.1099293262
 40
0.1654013673
 40
0.2214755976
 40
0.336133279
 40
0.4553633673
 40
0.5171049701
 40
0.5804366861
 40
0.7123309727
 40
0.8519568969
 40
1.0
 40
1.0
 40
1.0
 40
1.0
 10
10.6724732235
 20
10.7870707834
 30
0.0
 10
10.6724732275
 20
10.7862375307
 30
0.0
 10
10.6724203512
 20
10.7845674471
 30
0.0
 10
10.6721826009
 20
10.7820650511
 30
0.0
 10
10.6717863801
 20
10.7795640439
 30
0.0
 10
10.6710418039
 20
10.7762082576
 30
0.0
 10
10.6697004512
 20
10.7720022885
 30
0.0
 10
10.6678632891
 20
10.7678956197
 30
0.0
 10
10.6660955118
 20
10.7646319334
 30
0.0
 10
10.6640713395
 20
10.7612934497
 30
0.0
 10
10.6611321837
 20
10.7571341811
 30
0.0
 10
10.6570344662
 20
10.7522463688
 30
0.0
 10
10.6539867275
 20
10.749110062
 30
0.0
 10
10.6523695032
 20
10.7475479432
 30
0.0
  0
SPLINE
  5
36D
100
AcDbEntity
  8
0
100
AcDbSpline
 62
7
  6
CONTINUOUS
 70
0
 71
3
 72
9
 73
5
 74
0
 42
0.0000001
 43
0.0000001
 44
0.0000000001
 40
0.0
 40
0.0
 40
0.0
 40
0.0
 40
0.4875721818
 40
1.0
 40
1.0
 40
1.0
 40
1.0
 10
10.4788873488
 20
10.7346915166
 30
0.0
 10
10.4781005782
 20
10.7337184031
 30
0.0
 10
10.476417465
 20
10.731778069
 30
0.0
 10
10.4746191609
 20
10.7299446578
 30
0.0
 10
10.4736732147
 20
10.7290309439
 30
0.0
  0
SPLINE
  5
36E
100
AcDbEntity
  8
0
100
AcDbSpline
 62
7
  6
CONTINUOUS
 70
0
 71
3
 72
61
 73
57
 74
0
 42
0.0000001
 43
0.0000001
 44
0.0000000001
 40
0.0
 40
0.0
 40
0.0
 40
0.0
 40
0.0068770787
 40
0.0105154021
 40
0.0142938369
 40
0.0222877674
 40
0.0308895023
 40
0.0401184777
 40
0.0499864102
 40
0.060498779
 40
0.0716560194
 40
0.0834543114
 40
0.0958862306
 40
0.1089413413
 40
0.1226065413
 40
0.1368663484
 40
0.1517032443
 40
0.1670978501
 40
0.1830290544
 40
0.199474249
 40
0.2164094421
 40
0.2338093184
 40
0.2516474182
 40
0.26989623
 40
0.2885272263
 40
0.3268165971
 40
0.3662719951
 40
0.406638644
 40
0.4476538215
 40
0.489049261
 40
0.5305534554
 40
0.5718939791
 40
0.6127997867
 40
0.6530035439
 40
0.6922439498
 40
0.7302680983
 40
0.7487483972
 40
0.7668348818
 40
0.7844994375
 40
0.8017149647
 40
0.8184554393
 40
0.8346960794
 40
0.8504134392
 40
0.8655854815
 40
0.8801917839
 40
0.8942137032
 40
0.9076344976
 40
0.9204396152
 40
0.9326170032
 40
0.9441573677
 40
0.9550546628
 40
0.9653067445
 40
0.9749159046
 40
0.9838899254
 40
0.9922438877
 40
1.0
 40
1.0
 40
1.0
 40
1.0
 10
9.6851347722
 20
10.7358684062
 30
0.0
 10
9.6862723351
 20
10.7343763212
 30
0.0
 10
9.6881384316
 20
10.7321892176
 30
0.0
 10
9.6908640439
 20
10.7293992185
 30
0.0
 10
9.6939282166
 20
10.7265184331
 30
0.0
 10
9.6982035462
 20
10.7229574033
 30
0.0
 10
9.7039130588
 20
10.7188215201
 30
0.0
 10
9.7102852772
 20
10.7147520775
 30
0.0
 10
9.7173092902
 20
10.7107557397
 30
0.0
 10
9.7249733735
 20
10.7068390652
 30
0.0
 10
9.7332644957
 20
10.7030087555
 30
0.0
 10
9.7421684574
 20
10.6992714241
 30
0.0
 10
9.7516698858
 20
10.6956335667
 30
0.0
 10
9.7617523183
 20
10.6921015844
 30
0.0
 10
9.7723982146
 20
10.6886817075
 30
0.0
 10
9.7835889914
 20
10.6853799482
 30
0.0
 10
9.7953050893
 20
10.6822021533
 30
0.0
 10
9.8075260001
 20
10.6791539583
 30
0.0
 10
9.8202302964
 20
10.676240733
 30
0.0
 10
9.8333956937
 20
10.6734676371
 30
0.0
 10
9.8469990863
 20
10.6708395963
 30
0.0
 10
9.8610165807
 20
10.6683612373
 30
0.0
 10
9.8754235439
 20
10.6660369513
 30
0.0
 10
9.8901946839
 20
10.6638708404
 30
0.0
 10
9.9105254743
 20
10.6611742704
 30
0.0
 10
9.9366581953
 20
10.6582374669
 30
0.0
 10
9.968762638
 20
10.655427851
 30
0.0
 10
10.0016660705
 20
10.65332177
 30
0.0
 10
10.0351372152
 20
10.6519341929
 30
0.0
 10
10.068940976
 20
10.651275063
 30
0.0
 10
10.1028398206
 20
10.6513490766
 30
0.0
 10
10.1365955596
 20
10.6521556897
 30
0.0
 10
10.1699710013
 20
10.6536891739
 30
0.0
 10
10.2027317356
 20
10.6559385482
 30
0.0
 10
10.2346474987
 20
10.6588877874
 30
0.0
 10
10.2605938414
 20
10.6619392388
 30
0.0
 10
10.2807533054
 20
10.6647254505
 30
0.0
 10
10.2953806151
 20
10.6669558687
 30
0.0
 10
10.3096334559
 20
10.6693428216
 30
0.0
 10
10.323486807
 20
10.6718821084
 30
0.0
 10
10.336916323
 20
10.6745692493
 30
0.0
 10
10.3498984264
 20
10.6773994851
 30
0.0
 10
10.3624103382
 20
10.6803677928
 30
0.0
 10
10.3744301108
 20
10.6834689395
 30
0.0
 10
10.3859366852
 20
10.6866974383
 30
0.0
 10
10.3969099335
 20
10.6900475608
 30
0.0
 10
10.40733068
 20
10.6935134048
 30
0.0
 10
10.4171807591
 20
10.6970888643
 30
0.0
 10
10.4264430643
 20
10.7007676259
 30
0.0
 10
10.4351015625
 20
10.7045432603
 30
0.0
 10
10.4431413495
 20
10.7084092148
 30
0.0
 10
10.4505487105
 20
10.7123588414
 30
0.0
 10
10.4573110543
 20
10.7163854242
 30
0.0
 10
10.463417298
 20
10.7204825619
 30
0.0
 10
10.4688566748
 20
10.7246433576
 30
0.0
 10
10.4721512076
 20
10.7275607977
 30
0.0
 10
10.4736732147
 20
10.7290309439
 30
0.0
  0
SPLINE
  5
36F
100
AcDbEntity
  8
0
100
AcDbSpline
 62
7
  6
CONTINUOUS
 70
0
 71
3
 72
18
 73
14
 74
0
 42
0.0000001
 43
0.0000001
 44
0.0000000001
 40
0.0
 40
0.0
 40
0.0
 40
0.0
 40
0.0548620934
 40
0.1099281175
 40
0.1653995415
 40
0.2214731583
 40
0.2783387419
 40
0.3361775034
 40
0.4554063124
 40
0.5804415574
 40
0.7123342032
 40
0.8519579354
 40
1.0
 40
1.0
 40
1.0
 40
1.0
 10
12.2862494955
 20
10.6824366826
 30
0.0
 10
12.2862494983
 20
10.6814551428
 30
0.0
 10
12.2861872009
 20
10.6794878509
 30
0.0
 10
12.2859071049
 20
10.676540112
 30
0.0
 10
12.2854404116
 20
10.6735940724
 30
0.0
 10
12.2847872785
 20
10.6706508088
 30
0.0
 10
12.2839479764
 20
10.6677110594
 30
0.0
 10
12.2825674964
 20
10.6637578865
 30
0.0
 10
12.2803559805
 20
10.6588135289
 30
0.0
 10
12.2769899119
 20
10.6529742194
 30
0.0
 10
12.2728902095
 20
10.6471727029
 30
0.0
 10
12.2680631122
 20
10.6414148127
 30
0.0
 10
12.2644730225
 20
10.6377204232
 30
0.0
 10
12.262567986
 20
10.6358802991
 30
0.0
  0
SPLINE
  5
370
100
AcDbEntity
  8
0
100
AcDbSpline
 62
7
  6
CONTINUOUS
 70
0
 71
3
 72
11
 73
7
 74
0
 42
0.0000001
 43
0.0000001
 44
0.0000000001
 40
0.0
 40
0.0
 40
0.0
 40
0.0
 40
0.2441361393
 40
0.4906615559
 40
0.7418906755
 40
1.0
 40
1.0
 40
1.0
 40
1.0
 10
12.0712494815
 20
10.6080601007
 30
0.0
 10
12.0712494844
 20
10.6069567207
 30
0.0
 10
12.0711348818
 20
10.6047375091
 30
0.0
 10
12.0706201451
 20
10.6014187247
 30
0.0
 10
12.0697634932
 20
10.598106327
 30
0.0
 10
12.0689775997
 20
10.5959386424
 30
0.0
 10
12.0685324335
 20
10.5948603918
 30
0.0
  0
SPLINE
  5
371
100
AcDbEntity
  8
0
100
AcDbSpline
 62
7
  6
CONTINUOUS
 70
0
 71
3
 72
61
 73
57
 74
0
 42
0.0000001
 43
0.0000001
 44
0.0000000001
 40
0.0
 40
0.0
 40
0.0
 40
0.0
 40
0.0077402381
 40
0.0160535516
 40
0.0249595984
 40
0.0344708538
 40
0.0445939349
 40
0.0553306027
 40
0.0666786361
 40
0.0786324542
 40
0.0911835403
 40
0.1043208717
 40
0.1180312479
 40
0.1322994835
 40
0.14710862
 40
0.1624401399
 40
0.1782740797
 40
0.1945891276
 40
0.2113627871
 40
0.2285714662
 40
0.2461905252
 40
0.2641944019
 40
0.2825566977
 40
0.3012502158
 40
0.3395179851
 40
0.3787680063
 40
0.4187617194
 40
0.4592545584
 40
0.4999979678
 40
0.5407413961
 40
0.5812342915
 40
0.6212280981
 40
0.6604782492
 40
0.6987461836
 40
0.7174397972
 40
0.7358021967
 40
0.7538061851
 40
0.7714253637
 40
0.7886341698
 40
0.8054079637
 40
0.8217231529
 40
0.8375572406
 40
0.8528889146
 40
0.8676982109
 40
0.8819666118
 40
0.895677158
 40
0.9088146639
 40
0.9213659277
 40
0.9333199269
 40
0.9446681446
 40
0.9554049923
 40
0.9655282623
 40
0.9750397156
 40
0.9839458697
 40
0.9922594814
 40
1.0
 40
1.0
 40
1.0
 40
1.0
 10
11.0854466945
 20
10.615118287
 30
0.0
 10
11.0874213329
 20
10.6132806679
 30
0.0
 10
11.0916721299
 20
10.6096342543
 30
0.0
 10
11.0986455371
 20
10.604426364
 30
0.0
 10
11.1064272399
 20
10.599296925
 30
0.0
 10
11.1150045517
 20
10.5942541204
 30
0.0
 10
11.124364144
 20
10.5893056121
 30
0.0
 10
11.1344910632
 20
10.5844592736
 30
0.0
 10
11.1453690826
 20
10.5797229133
 30
0.0
 10
11.1569806437
 20
10.5751042816
 30
0.0
 10
11.1693068916
 20
10.5706109388
 30
0.0
 10
11.1823277387
 20
10.5662502833
 30
0.0
 10
11.1960219199
 20
10.5620295393
 30
0.0
 10
11.2103670115
 20
10.5579556888
 30
0.0
 10
11.2253394813
 20
10.5540354631
 30
0.0
 10
11.2409147514
 20
10.5502753695
 30
0.0
 10
11.2570672294
 20
10.546681651
 30
0.0
 10
11.2737703464
 20
10.5432602444
 30
0.0
 10
11.2909966207
 20
10.5400168229
 30
0.0
 10
11.3087177022
 20
10.5369567793
 30
0.0
 10
11.3269044102
 20
10.5340851664
 30
0.0
 10
11.3455267829
 20
10.531406744
 30
0.0
 10
11.3645541751
 20
10.5289259352
 30
0.0
 10
11.3906251963
 20
10.5258634406
 30
0.0
 10
11.4239954613
 20
10.5225697836
 30
0.0
 10
11.4648348444
 20
10.5194914919
 30
0.0
 10
11.5065067066
 20
10.5172778994
 30
0.0
 10
11.5487365253
 20
10.5159437593
 30
0.0
 10
11.591246299
 20
10.5154980206
 30
0.0
 10
11.6337560938
 20
10.5159436254
 30
0.0
 10
11.6759859754
 20
10.5172776325
 30
0.0
 10
11.7176579423
 20
10.5194910938
 30
0.0
 10
11.7584974708
 20
10.5225692569
 30
0.0
 10
11.7918678829
 20
10.5258628081
 30
0.0
 10
11.8179390417
 20
10.5289252196
 30
0.0
 10
11.8369665509
 20
10.5314059684
 30
0.0
 10
11.85558905
 20
10.534084332
 30
0.0
 10
11.8737758935
 20
10.5369558875
 30
0.0
 10
11.8914971194
 20
10.5400158752
 30
0.0
 10
11.9087235468
 20
10.5432592425
 30
0.0
 10
11.9254268251
 20
10.5466805963
 30
0.0
 10
11.9415794728
 20
10.5502742639
 30
0.0
 10
11.9571549202
 20
10.5540343085
 30
0.0
 10
11.9721275749
 20
10.557954487
 30
0.0
 10
11.9864728587
 20
10.5620282923
 30
0.0
 10
12.0001672391
 20
10.5662489931
 30
0.0
 10
12.0131882917
 20
10.5706096078
 30
0.0
 10
12.0255147515
 20
10.5751029117
 30
0.0
 10
12.0371265308
 20
10.5797215068
 30
0.0
 10
12.0480047718
 20
10.5844578337
 30
0.0
 10
12.0581319207
 20
10.5893041384
 30
0.0
 10
12.0674917514
 20
10.5942526188
 30
0.0
 10
12.0760692766
 20
10.5992953984
 30
0.0
 10
12.0838512568
 20
10.6044247986
 30
0.0
 10
12.0908249367
 20
10.6096327242
 30
0.0
 10
12.0950759604
 20
10.6132791816
 30
0.0
 10
12.0970507161
 20
10.6151168182
 30
0.0
  0
SPLINE
  5
372
100
AcDbEntity
  8
0
100
AcDbSpline
 62
7
  6
CONTINUOUS
 70
0
 71
3
 72
11
 73
7
 74
0
 42
0.0000001
 43
0.0000001
 44
0.0000000001
 40
0.0
 40
0.0
 40
0.0
 40
0.0
 40
0.2441792165
 40
0.4907300404
 40
0.7419500881
 40
1.0
 40
1.0
 40
1.0
 40
1.0
 10
11.1112495125
 20
10.6080601007
 30
0.0
 10
11.1112495155
 20
10.6069609565
 30
0.0
 10
11.111363232
 20
10.6047503592
 30
0.0
 10
11.111873984
 20
10.6014443696
 30
0.0
 10
11.1127240689
 20
10.5981447012
 30
0.0
 10
11.1135039741
 20
10.5959850466
 30
0.0
 10
11.113945789
 20
10.5949107695
 30
0.0
  0
SPLINE
  5
373
100
AcDbEntity
  8
0
100
AcDbSpline
 62
7
  6
CONTINUOUS
 70
0
 71
3
 72
42
 73
38
 74
0
 42
0.0000001
 43
0.0000001
 44
0.0000000001
 40
0.0
 40
0.0
 40
0.0
 40
0.0
 40
0.0299419634
 40
0.0449235299
 40
0.0599142017
 40
0.0899287029
 40
0.1200139772
 40
0.1350926626
 40
0.1501967046
 40
0.1804840506
 40
0.2108978877
 40
0.2414513551
 40
0.2721543675
 40
0.3030134354
 40
0.3340315696
 40
0.3652082675
 40
0.3965395775
 40
0.4280182343
 40
0.4596338596
 40
0.4913732188
 40
0.5232205284
 40
0.5551578047
 40
0.5871652463
 40
0.6192216448
 40
0.6513048151
 40
0.6833920402
 40
0.7154605222
 40
0.747487836
 40
0.7794523759
 40
0.8113337934
 40
0.8431134117
 40
0.8747746318
 40
0.9063032512
 40
0.9376879208
 40
0.9533258
 40
0.9689252634
 40
1.0
 40
1.0
 40
1.0
 40
1.0
 10
12.079037751
 20
10.0238874268
 30
0.0
 10
12.0825381728
 20
10.027268554
 30
0.0
 10
12.087995141
 20
10.0321353636
 30
0.0
 10
12.095637502
 20
10.0381740143
 30
0.0
 10
12.1035232339
 20
10.0439121726
 30
0.0
 10
12.1138128172
 20
10.0505014373
 30
0.0
 10
12.1246026864
 20
10.056265137
 30
0.0
 10
12.1335015322
 20
10.0603654386
 30
0.0
 10
12.142584202
 20
10.0641272541
 30
0.0
 10
12.1542368555
 20
10.0681722689
 30
0.0
 10
12.1685969847
 20
10.0719421212
 30
0.0
 10
12.1832704541
 20
10.0746127714
 30
0.0
 10
12.1981759456
 20
10.0761694857
 30
0.0
 10
12.21323158
 20
10.0766039566
 30
0.0
 10
12.228354517
 20
10.0759139728
 30
0.0
 10
12.2434616375
 20
10.0741035201
 30
0.0
 10
12.2584699345
 20
10.0711827241
 30
0.0
 10
12.2732969807
 20
10.0671677948
 30
0.0
 10
12.2878613704
 20
10.0620809304
 30
0.0
 10
12.3020831613
 20
10.0559501926
 30
0.0
 10
12.3158843071
 20
10.0488093497
 30
0.0
 10
12.3291890794
 20
10.0406976909
 30
0.0
 10
12.3419244782
 20
10.0316598104
 30
0.0
 10
12.354020627
 20
10.0217453645
 30
0.0
 10
12.3654111518
 20
10.0110087998
 30
0.0
 10
12.3760335412
 20
9.999509058
 30
0.0
 10
12.3858294858
 20
9.9873092549
 30
0.0
 10
12.3947451951
 20
9.9744763366
 30
0.0
 10
12.4027316904
 20
9.9610807208
 30
0.0
 10
12.4097450716
 20
9.9471958986
 30
0.0
 10
12.4157467549
 20
9.9328980942
 30
0.0
 10
12.4207036971
 20
9.9182656399
 30
0.0
 10
12.4245885144
 20
9.9033793361
 30
0.0
 10
12.4269175487
 20
9.8908136818
 30
0.0
 10
12.4282240678
 20
9.8807173309
 30
0.0
 10
12.4291564985
 20
9.8706306414
 30
0.0
 10
12.4294388295
 20
9.8630404755
 30
0.0
 10
12.4294388295
 20
9.8579896353
 30
0.0
  0
SPLINE
  5
374
100
AcDbEntity
  8
0
100
AcDbSpline
 62
7
  6
CONTINUOUS
 70
0
 71
3
 72
42
 73
38
 74
0
 42
0.0000001
 43
0.0000001
 44
0.0000000001
 40
0.0
 40
0.0
 40
0.0
 40
0.0
 40
0.0299419634
 40
0.0449235299
 40
0.0599142017
 40
0.0899287029
 40
0.1200139772
 40
0.1350926626
 40
0.1501967046
 40
0.1804840506
 40
0.2108978877
 40
0.2414513551
 40
0.2721543675
 40
0.3030134354
 40
0.3340315696
 40
0.3652082675
 40
0.3965395775
 40
0.4280182343
 40
0.4596338596
 40
0.4913732188
 40
0.5232205284
 40
0.5551578047
 40
0.5871652463
 40
0.6192216448
 40
0.6513048151
 40
0.6833920402
 40
0.7154605222
 40
0.747487836
 40
0.7794523759
 40
0.8113337934
 40
0.8431134117
 40
0.8747746318
 40
0.9063032512
 40
0.9376879208
 40
0.9533258
 40
0.9689252634
 40
1.0
 40
1.0
 40
1.0
 40
1.0
 10
9.0614852497
 20
6.7326401907
 30
0.0
 10
9.0649856714
 20
6.7360213179
 30
0.0
 10
9.0704426396
 20
6.7408881275
 30
0.0
 10
9.0780850007
 20
6.7469267782
 30
0.0
 10
9.0859707325
 20
6.7526649365
 30
0.0
 10
9.0962603159
 20
6.7592542012
 30
0.0
 10
9.1070501851
 20
6.7650179009
 30
0.0
 10
9.1159490309
 20
6.7691182026
 30
0.0
 10
9.1250317007
 20
6.772880018
 30
0.0
 10
9.1366843542
 20
6.7769250328
 30
0.0
 10
9.1510444834
 20
6.7806948851
 30
0.0
 10
9.1657179528
 20
6.7833655353
 30
0.0
 10
9.1806234442
 20
6.7849222497
 30
0.0
 10
9.1956790786
 20
6.7853567205
 30
0.0
 10
9.2108020156
 20
6.7846667368
 30
0.0
 10
9.2259091361
 20
6.7828562841
 30
0.0
 10
9.2409174332
 20
6.779935488
 30
0.0
 10
9.2557444794
 20
6.7759205587
 30
0.0
 10
9.2703088691
 20
6.7708336944
 30
0.0
 10
9.28453066
 20
6.7647029565
 30
0.0
 10
9.2983318057
 20
6.7575621136
 30
0.0
 10
9.3116365781
 20
6.7494504548
 30
0.0
 10
9.3243719769
 20
6.7404125744
 30
0.0
 10
9.3364681257
 20
6.7304981284
 30
0.0
 10
9.3478586505
 20
6.7197615638
 30
0.0
 10
9.3584810399
 20
6.708261822
 30
0.0
 10
9.3682769845
 20
6.6960620188
 30
0.0
 10
9.3771926938
 20
6.6832291006
 30
0.0
 10
9.3851791891
 20
6.6698334847
 30
0.0
 10
9.3921925702
 20
6.6559486625
 30
0.0
 10
9.3981942536
 20
6.6416508581
 30
0.0
 10
9.4031511958
 20
6.6270184038
 30
0.0
 10
9.4070360131
 20
6.6121321
 30
0.0
 10
9.4093650474
 20
6.5995664457
 30
0.0
 10
9.4106715665
 20
6.5894700948
 30
0.0
 10
9.4116039972
 20
6.5793834053
 30
0.0
 10
9.4118863282
 20
6.5717932394
 30
0.0
 10
9.4118863282
 20
6.5667423992
 30
0.0
  0
SPLINE
  5
375
100
AcDbEntity
  8
0
100
AcDbSpline
 62
7
  6
CONTINUOUS
 70
0
 71
3
 72
42
 73
38
 74
0
 42
0.0000001
 43
0.0000001
 44
0.0000000001
 40
0.0
 40
0.0
 40
0.0
 40
0.0
 40
0.0299419634
 40
0.0449235299
 40
0.0599142017
 40
0.0899287029
 40
0.1200139772
 40
0.1350926626
 40
0.1501967046
 40
0.1804840506
 40
0.2108978877
 40
0.2414513551
 40
0.2721543675
 40
0.3030134354
 40
0.3340315696
 40
0.3652082675
 40
0.3965395775
 40
0.4280182343
 40
0.4596338596
 40
0.4913732188
 40
0.5232205284
 40
0.5551578047
 40
0.5871652463
 40
0.6192216448
 40
0.6513048151
 40
0.6833920402
 40
0.7154605222
 40
0.747487836
 40
0.7794523759
 40
0.8113337934
 40
0.8431134117
 40
0.8747746318
 40
0.9063032512
 40
0.9376879208
 40
0.9533258
 40
0.9689252634
 40
1.0
 40
1.0
 40
1.0
 40
1.0
 10
12.079037751
 20
6.523372214
 30
0.0
 10
12.0825381728
 20
6.5267533412
 30
0.0
 10
12.087995141
 20
6.5316201507
 30
0.0
 10
12.095637502
 20
6.5376588015
 30
0.0
 10
12.1035232339
 20
6.5433969598
 30
0.0
 10
12.1138128172
 20
6.5499862245
 30
0.0
 10
12.1246026864
 20
6.5557499242
 30
0.0
 10
12.1335015322
 20
6.5598502258
 30
0.0
 10
12.142584202
 20
6.5636120413
 30
0.0
 10
12.1542368555
 20
6.5676570561
 30
0.0
 10
12.1685969847
 20
6.5714269084
 30
0.0
 10
12.1832704541
 20
6.5740975586
 30
0.0
 10
12.1981759456
 20
6.5756542729
 30
0.0
 10
12.21323158
 20
6.5760887438
 30
0.0
 10
12.228354517
 20
6.57539876
 30
0.0
 10
12.2434616375
 20
6.5735883073
 30
0.0
 10
12.2584699345
 20
6.5706675113
 30
0.0
 10
12.2732969807
 20
6.566652582
 30
0.0
 10
12.2878613704
 20
6.5615657176
 30
0.0
 10
12.3020831613
 20
6.5554349798
 30
0.0
 10
12.3158843071
 20
6.5482941369
 30
0.0
 10
12.3291890794
 20
6.540182478
 30
0.0
 10
12.3419244782
 20
6.5311445976
 30
0.0
 10
12.354020627
 20
6.5212301517
 30
0.0
 10
12.3654111518
 20
6.510493587
 30
0.0
 10
12.3760335412
 20
6.4989938452
 30
0.0
 10
12.3858294858
 20
6.4867940421
 30
0.0
 10
12.3947451951
 20
6.4739611238
 30
0.0
 10
12.4027316904
 20
6.460565508
 30
0.0
 10
12.4097450716
 20
6.4466806858
 30
0.0
 10
12.4157467549
 20
6.4323828814
 30
0.0
 10
12.4207036971
 20
6.4177504271
 30
0.0
 10
12.4245885144
 20
6.4028641233
 30
0.0
 10
12.4269175487
 20
6.390298469
 30
0.0
 10
12.4282240678
 20
6.3802021181
 30
0.0
 10
12.4291564985
 20
6.3701154286
 30
0.0
 10
12.4294388295
 20
6.3625252627
 30
0.0
 10
12.4294388295
 20
6.3574744224
 30
0.0
  0
SPLINE
  5
376
100
AcDbEntity
  8
0
100
AcDbSpline
 62
7
  6
CONTINUOUS
 70
0
 71
3
 72
15
 73
11
 74
0
 42
0.0000001
 43
0.0000001
 44
0.0000000001
 40
0.0
 40
0.0
 40
0.0
 40
0.0
 40
0.1233171261
 40
0.2468171865
 40
0.3706749939
 40
0.4950495802
 40
0.6200773232
 40
0.7458671315
 40
0.872492731
 40
1.0
 40
1.0
 40
1.0
 40
1.0
 10
9.8629229182
 20
9.2698617403
 30
0.0
 10
9.8653464705
 20
9.2722026917
 30
0.0
 10
9.8704536423
 20
9.2766306205
 30
0.0
 10
9.8787890499
 20
9.2824167231
 30
0.0
 10
9.8877207219
 20
9.2872943306
 30
0.0
 10
9.8971572345
 20
9.2912133103
 30
0.0
 10
9.9070033994
 20
9.294134754
 30
0.0
 10
9.9171600307
 20
9.2960294514
 30
0.0
 10
9.9275234524
 20
9.2968789738
 30
0.0
 10
9.9344798833
 20
9.2967432859
 30
0.0
 10
9.9379555461
 20
9.2965022479
 30
0.0
  0
SPLINE
  5
377
100
AcDbEntity
  8
0
100
AcDbSpline
 62
7
  6
CONTINUOUS
 70
0
 71
3
 72
15
 73
11
 74
0
 42
0.0000001
 43
0.0000001
 44
0.0000000001
 40
0.0
 40
0.0
 40
0.0
 40
0.0
 40
0.1233171261
 40
0.2468171865
 40
0.3706749939
 40
0.4950495802
 40
0.6200773232
 40
0.7458671315
 40
0.872492731
 40
1.0
 40
1.0
 40
1.0
 40
1.0
 10
11.9145495648
 20
9.1275809491
 30
0.0
 10
11.9169731171
 20
9.1299219005
 30
0.0
 10
11.9220802889
 20
9.1343498293
 30
0.0
 10
11.9304156966
 20
9.1401359319
 30
0.0
 10
11.9393473685
 20
9.1450135394
 30
0.0
 10
11.9487838811
 20
9.1489325192
 30
0.0
 10
11.958630046
 20
9.1518539629
 30
0.0
 10
11.9687866774
 20
9.1537486602
 30
0.0
 10
11.979150099
 20
9.1545981826
 30
0.0
 10
11.9861065299
 20
9.1544624947
 30
0.0
 10
11.9895821927
 20
9.1542214567
 30
0.0
  0
SPLINE
  5
378
100
AcDbEntity
  8
0
100
AcDbSpline
 62
7
  6
CONTINUOUS
 70
0
 71
3
 72
15
 73
11
 74
0
 42
0.0000001
 43
0.0000001
 44
0.0000000001
 40
0.0
 40
0.0
 40
0.0
 40
0.0
 40
0.1233171261
 40
0.2468171865
 40
0.3706749939
 40
0.4950495802
 40
0.6200773232
 40
0.7458671315
 40
0.872492731
 40
1.0
 40
1.0
 40
1.0
 40
1.0
 10
11.9145495648
 20
7.3763573572
 30
0.0
 10
11.9169731171
 20
7.3786983087
 30
0.0
 10
11.9220802889
 20
7.3831262374
 30
0.0
 10
11.9304156966
 20
7.38891234
 30
0.0
 10
11.9393473685
 20
7.3937899476
 30
0.0
 10
11.9487838811
 20
7.3977089273
 30
0.0
 10
11.958630046
 20
7.400630371
 30
0.0
 10
11.9687866774
 20
7.4025250684
 30
0.0
 10
11.979150099
 20
7.4033745908
 30
0.0
 10
11.9861065299
 20
7.4032389029
 30
0.0
 10
11.9895821927
 20
7.4029978649
 30
0.0
  0
SPLINE
  5
379
100
AcDbEntity
  8
0
100
AcDbSpline
 62
7
  6
CONTINUOUS
 70
0
 71
3
 72
15
 73
11
 74
0
 42
0.0000001
 43
0.0000001
 44
0.0000000001
 40
0.0
 40
0.0
 40
0.0
 40
0.0
 40
0.1233171261
 40
0.2468171865
 40
0.3706749939
 40
0.4950495802
 40
0.6200773232
 40
0.7458671315
 40
0.872492731
 40
1.0
 40
1.0
 40
1.0
 40
1.0
 10
9.8629229182
 20
7.5186381484
 30
0.0
 10
9.8653464705
 20
7.5209790999
 30
0.0
 10
9.8704536423
 20
7.5254070286
 30
0.0
 10
9.8787890499
 20
7.5311931312
 30
0.0
 10
9.8877207219
 20
7.5360707388
 30
0.0
 10
9.8971572345
 20
7.5399897185
 30
0.0
 10
9.9070033994
 20
7.5429111622
 30
0.0
 10
9.9171600307
 20
7.5448058595
 30
0.0
 10
9.9275234524
 20
7.545655382
 30
0.0
 10
9.9344798833
 20
7.5455196941
 30
0.0
 10
9.9379555461
 20
7.5452786561
 30
0.0
  0
SPLINE
  5
37A
100
AcDbEntity
  8
0
100
AcDbSpline
 62
7
  6
CONTINUOUS
 70
0
 71
3
 72
39
 73
35
 74
0
 42
0.0000001
 43
0.0000001
 44
0.0000000001
 40
0.0
 40
0.0
 40
0.0
 40
0.0
 40
0.029961613
 40
0.0599660482
 40
0.0900256666
 40
0.1201520738
 40
0.1503559892
 40
0.1806471263
 40
0.211034084
 40
0.2415242574
 40
0.2721237606
 40
0.3028373622
 40
0.3336684311
 40
0.3646188936
 40
0.3956892204
 40
0.4268784211
 40
0.4581840496
 40
0.4896022208
 40
0.5211276385
 40
0.5527536592
 40
0.5844723611
 40
0.616274625
 40
0.6481502287
 40
0.6800879521
 40
0.712075712
 40
0.7441007112
 40
0.7761495879
 40
0.8082085867
 40
0.8402637264
 40
0.8723009442
 40
0.9043065464
 40
0.9362664263
 40
0.9681690303
 40
1.0
 40
1.0
 40
1.0
 40
1.0
 10
10.823625844
 20
9.0470671996
 30
0.0
 10
10.8267761779
 20
9.0493991795
 30
0.0
 10
10.8332217341
 20
9.0538801433
 30
0.0
 10
10.8432779457
 20
9.0600221495
 30
0.0
 10
10.853697845
 20
9.0655714571
 30
0.0
 10
10.8644487404
 20
9.0705111187
 30
0.0
 10
10.8754976508
 20
9.0748262811
 30
0.0
 10
10.8868106514
 20
9.0785036883
 30
0.0
 10
10.8983531143
 20
9.0815318738
 30
0.0
 10
10.9100897287
 20
9.0839011117
 30
0.0
 10
10.9219845687
 20
9.0856034583
 30
0.0
 10
10.9340011467
 20
9.0866327787
 30
0.0
 10
10.9461024722
 20
9.0869847883
 30
0.0
 10
10.9582511171
 20
9.0866571214
 30
0.0
 10
10.9704092903
 20
9.0856493343
 30
0.0
 10
10.9825389142
 20
9.0839629511
 30
0.0
 10
10.9946017068
 20
9.0816015047
 30
0.0
 10
11.0065592705
 20
9.0785705801
 30
0.0
 10
11.0183732037
 20
9.0748778862
 30
0.0
 10
11.0300052068
 20
9.0705332581
 30
0.0
 10
11.0414172037
 20
9.0655486875
 30
0.0
 10
11.0525714721
 20
9.0599383463
 30
0.0
 10
11.0634307789
 20
9.0537185962
 30
0.0
 10
11.0739585421
 20
9.0469080154
 30
0.0
 10
11.0841189871
 20
9.0395273771
 30
0.0
 10
11.0938773017
 20
9.0315996097
 30
0.0
 10
11.1031998065
 20
9.0231497593
 30
0.0
 10
11.1120541228
 20
9.0142049293
 30
0.0
 10
11.1204093306
 20
9.0047942095
 30
0.0
 10
11.128236207
 20
8.994948581
 30
0.0
 10
11.1355072071
 20
8.9847008588
 30
0.0
 10
11.1421970565
 20
8.9740852738
 30
0.0
 10
11.1482819174
 20
8.9631382406
 30
0.0
 10
11.1519261791
 20
8.955633713
 30
0.0
 10
11.1536403342
 20
8.9518388185
 30
0.0
  0
SPLINE
  5
37B
100
AcDbEntity
  8
0
100
AcDbSpline
 62
7
  6
CONTINUOUS
 70
0
 71
3
 72
11
 73
7
 74
0
 42
0.0000001
 43
0.0000001
 44
0.0000000001
 40
0.0
 40
0.0
 40
0.0
 40
0.0
 40
0.2562036083
 40
0.507131192
 40
0.754472893
 40
1.0
 40
1.0
 40
1.0
 40
1.0
 10
12.8621515772
 20
7.8209786436
 30
0.0
 10
12.8630037122
 20
7.8206059806
 30
0.0
 10
12.8647203774
 20
7.8199343758
 30
0.0
 10
12.8673485418
 20
7.8191522138
 30
0.0
 10
12.8699966958
 20
7.8186082887
 30
0.0
 10
12.8717770708
 20
7.8184046611
 30
0.0
 10
12.872666238
 20
7.8183429993
 30
0.0
  0
SPLINE
  5
37C
100
AcDbEntity
  8
0
100
AcDbSpline
 62
7
  6
CONTINUOUS
 70
0
 71
3
 72
40
 73
36
 74
0
 42
0.0000001
 43
0.0000001
 44
0.0000000001
 40
0.0
 40
0.0
 40
0.0
 40
0.0
 40
0.0306632393
 40
0.0614924036
 40
0.0924896311
 40
0.1236529051
 40
0.1549763608
 40
0.1864506499
 40
0.2180633378
 40
0.2339195224
 40
0.249804432
 40
0.281646317
 40
0.3135748595
 40
0.3455693205
 40
0.3776078428
 40
0.4096678103
 40
0.4417262006
 40
0.4737599393
 40
0.5057462604
 40
0.5376630817
 40
0.5694893992
 40
0.6012057033
 40
0.6327944186
 40
0.6642403636
 40
0.6955312215
 40
0.7266580062
 40
0.757615503
 40
0.7884026552
 40
0.8190228657
 40
0.8494841748
 40
0.8797992861
 40
0.9099853737
 40
0.9400638884
 40
0.9700592989
 40
1.0
 40
1.0
 40
1.0
 40
1.0
 10
11.2965734465
 20
8.4866537914
 30
0.0
 10
11.3020869314
 20
8.4874968834
 30
0.0
 10
11.3132180799
 20
8.4887352142
 30
0.0
 10
11.330050635
 20
8.4892503118
 30
0.0
 10
11.3469630598
 20
8.4884367877
 30
0.0
 10
11.3638507182
 20
8.4863103193
 30
0.0
 10
11.3806136224
 20
8.482894038
 30
0.0
 10
11.3971536255
 20
8.478217841
 30
0.0
 10
11.410661231
 20
8.4733048788
 30
0.0
 10
11.4212638969
 20
8.4687846051
 30
0.0
 10
11.4317352465
 20
8.4638689394
 30
0.0
 10
11.4445141187
 20
8.457011843
 30
0.0
 10
11.459255249
 20
8.4477046276
 30
0.0
 10
11.4733370844
 20
8.4373660858
 30
0.0
 10
11.4866820752
 20
8.4260557702
 30
0.0
 10
11.4992168
 20
8.4138369419
 30
0.0
 10
11.5108711777
 20
8.4007768852
 30
0.0
 10
11.5215787669
 20
8.3869467761
 30
0.0
 10
11.5312768424
 20
8.3724217192
 30
0.0
 10
11.5399066156
 20
8.3572807678
 30
0.0
 10
11.5474135111
 20
8.341606954
 30
0.0
 10
11.5537475335
 20
8.3254872968
 30
0.0
 10
11.5588637187
 20
8.3090127706
 30
0.0
 10
11.5627226637
 20
8.2922782047
 30
0.0
 10
11.5652911338
 20
8.2753820967
 30
0.0
 10
11.5665427307
 20
8.2584263132
 30
0.0
 10
11.566458602
 20
8.2415156574
 30
0.0
 10
11.5650281636
 20
8.2247572865
 30
0.0
 10
11.5622497973
 20
8.2082599643
 30
0.0
 10
11.5581315047
 20
8.1921331598
 30
0.0
 10
11.5526914128
 20
8.1764859418
 30
0.0
 10
11.5459582895
 20
8.1614258788
 30
0.0
 10
11.5379711832
 20
8.14705732
 30
0.0
 10
11.5287812773
 20
8.1334817574
 30
0.0
 10
11.5218861186
 20
8.1250151511
 30
0.0
 10
11.518263228
 20
8.1209488065
 30
0.0
  0
SPLINE
  5
37D
100
AcDbEntity
  8
0
100
AcDbSpline
 62
7
  6
CONTINUOUS
 70
0
 71
3
 72
87
 73
83
 74
0
 42
0.0000001
 43
0.0000001
 44
0.0000000001
 40
0.0
 40
0.0
 40
0.0
 40
0.0
 40
0.0027164299
 40
0.0054532321
 40
0.0082302981
 40
0.0110665844
 40
0.013979784
 40
0.0169860845
 40
0.023331123
 40
0.0266974588
 40
0.0302054004
 40
0.0338632989
 40
0.0376782464
 40
0.0416562097
 40
0.0458021134
 40
0.050120033
 40
0.0546132036
 40
0.059284201
 40
0.0641349608
 40
0.0691668649
 40
0.074380833
 40
0.0797773
 40
0.085356359
 40
0.0911176998
 40
0.0970607189
 40
0.1031845124
 40
0.1094878868
 40
0.1226271061
 40
0.1364647465
 40
0.1509835351
 40
0.1661634084
 40
0.181981828
 40
0.1984140399
 40
0.2154332916
 40
0.2330110148
 40
0.2511169902
 40
0.2697194985
 40
0.2887854553
 40
0.3082805352
 40
0.3281692889
 40
0.3484152538
 40
0.3689810612
 40
0.3898285444
 40
0.410918843
 40
0.4322125027
 40
0.453669576
 40
0.4969116041
 40
0.540319917
 40
0.5835672042
 40
0.6050288662
 40
0.6263284062
 40
0.6474258619
 40
0.668281762
 40
0.6888572259
 40
0.7091140641
 40
0.729014881
 40
0.7485231807
 40
0.7676034792
 40
0.7862214134
 40
0.8043438582
 40
0.8219390497
 40
0.8389767194
 40
0.8554282406
 40
0.8712667974
 40
0.8864675692
 40
0.901007944
 40
0.9148677755
 40
0.9280296968
 40
0.9343445773
 40
0.9404799644
 40
0.9464346373
 40
0.9522076918
 40
0.957798481
 40
0.9632066961
 40
0.9684323988
 40
0.973476
 40
0.9783383753
 40
0.9830208398
 40
0.9875253696
 40
0.9918545696
 40
0.9960115552
 40
1.0
 40
1.0
 40
1.0
 40
1.0
 10
12.9321682307
 20
7.5987001113
 30
0.0
 10
12.9308710981
 20
7.5987900634
 30
0.0
 10
12.9282737484
 20
7.5990880585
 30
0.0
 10
12.9244107793
 20
7.5998854163
 30
0.0
 10
12.9205770132
 20
7.6010331449
 30
0.0
 10
12.916775193
 20
7.6025299905
 30
0.0
 10
12.9130071336
 20
7.6043747995
 30
0.0
 10
12.9079406853
 20
7.6073493318
 30
0.0
 10
12.9030363289
 20
7.6109909279
 30
0.0
 10
12.898310677
 20
7.6152017901
 30
0.0
 10
12.8947381024
 20
7.6187626347
 30
0.0
 10
12.8912097477
 20
7.6226611356
 30
0.0
 10
12.8877267327
 20
7.6268956813
 30
0.0
 10
12.8842907984
 20
7.6314640789
 30
0.0
 10
12.8809034289
 20
7.6363640624
 30
0.0
 10
12.8775663057
 20
7.641593255
 30
0.0
 10
12.8742809412
 20
7.6471490465
 30
0.0
 10
12.8710489728
 20
7.6530287246
 30
0.0
 10
12.8678719568
 20
7.6592293771
 30
0.0
 10
12.8647514345
 20
7.6657479325
 30
0.0
 10
12.8616889968
 20
7.6725811739
 30
0.0
 10
12.858686097
 20
7.6797256875
 30
0.0
 10
12.8557443
 20
7.6871779359
 30
0.0
 10
12.8528650213
 20
7.6949341911
 30
0.0
 10
12.8500497367
 20
7.7029905854
 30
0.0
 10
12.8472998352
 20
7.7113431034
 30
0.0
 10
12.8436720876
 20
7.7230311741
 30
0.0
 10
12.8393236143
 20
7.7383589897
 30
0.0
 10
12.8344569064
 20
7.7576183321
 30
0.0
 10
12.8298819867
 20
7.7779513144
 30
0.0
 10
12.8256081311
 20
7.799317171
 30
0.0
 10
12.8216440385
 20
7.8216732328
 30
0.0
 10
12.8179977754
 20
7.8449747165
 30
0.0
 10
12.8146767667
 20
7.8691749143
 30
0.0
 10
12.8116877727
 20
7.8942252694
 30
0.0
 10
12.8090368751
 20
7.9200754886
 30
0.0
 10
12.8067294698
 20
7.94667365
 30
0.0
 10
12.8047702549
 20
7.9739663133
 30
0.0
 10
12.8031632223
 20
8.0018986304
 30
0.0
 10
12.8019116501
 20
8.0304144563
 30
0.0
 10
12.8010180961
 20
8.0594564634
 30
0.0
 10
12.8004843881
 20
8.0889662561
 30
0.0
 10
12.8003116247
 20
8.1188844974
 30
0.0
 10
12.8005001837
 20
8.1491510088
 30
0.0
 10
12.8010496777
 20
8.1797049733
 30
0.0
 10
12.8022653582
 20
8.2208491034
 30
0.0
 10
12.8046791862
 20
8.2725443819
 30
0.0
 10
12.80897003
 20
8.33457793
 30
0.0
 10
12.8136969222
 20
8.3861179394
 30
0.0
 10
12.8181579972
 20
8.4270451418
 30
0.0
 10
12.8218209802
 20
8.4573922164
 30
0.0
 10
12.825802013
 20
8.4874067186
 30
0.0
 10
12.8300931041
 20
8.5170283373
 30
0.0
 10
12.8346855916
 20
8.5461974954
 30
0.0
 10
12.8395702159
 20
8.5748555453
 30
0.0
 10
12.844737123
 20
8.6029448675
 30
0.0
 10
12.850175889
 20
8.6304089949
 30
0.0
 10
12.8558755333
 20
8.657192729
 30
0.0
 10
12.8618245471
 20
8.683242252
 30
0.0
 10
12.868010916
 20
8.7085052356
 30
0.0
 10
12.8744221434
 20
8.7329309484
 30
0.0
 10
12.881045276
 20
8.756470362
 30
0.0
 10
12.8878669319
 20
8.779076255
 30
0.0
 10
12.8948733234
 20
8.800703326
 30
0.0
 10
12.9020502897
 20
8.8213082678
 30
0.0
 10
12.9093833348
 20
8.840849953
 30
0.0
 10
12.9168576547
 20
8.8592892168
 30
0.0
 10
12.9232768827
 20
8.873901033
 30
0.0
 10
12.928480777
 20
8.8850018459
 30
0.0
 10
12.932355696
 20
8.8929141347
 30
0.0
 10
12.9362546418
 20
8.9005243513
 30
0.0
 10
12.9401756385
 20
8.9078287157
 30
0.0
 10
12.944116742
 20
8.9148235726
 30
0.0
 10
12.9480759912
 20
8.9215054357
 30
0.0
 10
12.952051384
 20
8.9278709963
 30
0.0
 10
12.9560410005
 20
8.9339170577
 30
0.0
 10
12.9600427805
 20
8.9396406434
 30
0.0
 10
12.9640548196
 20
8.9450389021
 30
0.0
 10
12.9680751597
 20
8.9501092184
 30
0.0
 10
12.972101929
 20
8.9548491248
 30
0.0
 10
12.9761329821
 20
8.9592560481
 30
0.0
 10
12.9788777456
 20
8.9620269884
 30
0.0
 10
12.9802508825
 20
8.9633533369
 30
0.0
  0
SPLINE
  5
37E
100
AcDbEntity
  8
0
100
AcDbSpline
 62
7
  6
CONTINUOUS
 70
0
 71
3
 72
41
 73
37
 74
0
 42
0.0000001
 43
0.0000001
 44
0.0000000001
 40
0.0
 40
0.0
 40
0.0
 40
0.0
 40
0.0309323932
 40
0.0620487892
 40
0.0933463765
 40
0.124817253
 40
0.156448984
 40
0.1723232917
 40
0.1882313865
 40
0.2201325964
 40
0.2521366294
 40
0.2681726203
 40
0.2842251352
 40
0.3163612407
 40
0.348524467
 40
0.380688342
 40
0.4128266137
 40
0.4449137073
 40
0.4769251717
 40
0.5088381217
 40
0.5406316854
 40
0.5722874603
 40
0.603789978
 40
0.6351271724
 40
0.6662908499
 40
0.6972771341
 40
0.7280868585
 40
0.7587258704
 40
0.7892051978
 40
0.8195410558
 40
0.8497546425
 40
0.8798716787
 40
0.909921678
 40
0.9399370715
 40
0.9699514677
 40
1.0
 40
1.0
 40
1.0
 40
1.0
 10
10.5294498184
 20
8.5446465915
 30
0.0
 10
10.5354067642
 20
8.5450823757
 30
0.0
 10
10.5474007067
 20
8.5454323243
 30
0.0
 10
10.5654169546
 20
8.5444111539
 30
0.0
 10
10.5833876306
 20
8.5418663302
 30
0.0
 10
10.6011833445
 20
8.5378294323
 30
0.0
 10
10.6157514356
 20
8.5332607947
 30
0.0
 10
10.6271994203
 20
8.5289079681
 30
0.0
 10
10.6385153699
 20
8.524087928
 30
0.0
 10
10.652330943
 20
8.5172212709
 30
0.0
 10
10.6655988387
 20
8.5093010575
 30
0.0
 10
10.6758494762
 20
8.5023619622
 30
0.0
 10
10.6858512884
 20
8.4950256522
 30
0.0
 10
10.6978369862
 20
8.4851482376
 30
0.0
 10
10.7113000576
 20
8.4722518209
 30
0.0
 10
10.7237692904
 20
8.4583910383
 30
0.0
 10
10.7351677686
 20
8.4436559062
 30
0.0
 10
10.7454249372
 20
8.4281398403
 30
0.0
 10
10.7544757221
 20
8.4119401472
 30
0.0
 10
10.7622608462
 20
8.3951577916
 30
0.0
 10
10.7687269398
 20
8.3778974062
 30
0.0
 10
10.7738268322
 20
8.3602672525
 30
0.0
 10
10.77751994
 20
8.3423791745
 30
0.0
 10
10.7797727869
 20
8.3243484928
 30
0.0
 10
10.7805596002
 20
8.3062938008
 30
0.0
 10
10.7798630204
 20
8.2883366426
 30
0.0
 10
10.7776748854
 20
8.2706010327
 30
0.0
 10
10.7739970476
 20
8.2532127932
 30
0.0
 10
10.7688422436
 20
8.2362986685
 30
0.0
 10
10.762234848
 20
8.2199852096
 30
0.0
 10
10.7542115179
 20
8.2043974563
 30
0.0
 10
10.7448215962
 20
8.1896573769
 30
0.0
 10
10.7341275205
 20
8.1758822768
 30
0.0
 10
10.7222040347
 20
8.1631826085
 30
0.0
 10
10.7091403311
 20
8.151661675
 30
0.0
 10
10.6997415427
 20
8.1448321127
 30
0.0
 10
10.6948927256
 20
8.1416455074
 30
0.0
  0
SPLINE
  5
37F
100
AcDbEntity
  8
0
100
AcDbSpline
 62
7
  6
CONTINUOUS
 70
0
 71
3
 72
11
 73
7
 74
0
 42
0.0000001
 43
0.0000001
 44
0.0000000001
 40
0.0
 40
0.0
 40
0.0
 40
0.0
 40
0.2560627239
 40
0.5069683163
 40
0.754370186
 40
1.0
 40
1.0
 40
1.0
 40
1.0
 10
12.9284354555
 20
8.7749200534
 30
0.0
 10
12.9293202155
 20
8.7751648823
 30
0.0
 10
12.9310917319
 20
8.7755815107
 30
0.0
 10
12.9337696535
 20
8.7759813475
 30
0.0
 10
12.9364347469
 20
8.7761481335
 30
0.0
 10
12.9382044429
 20
8.7761036451
 30
0.0
 10
12.9390829394
 20
8.7760427233
 30
0.0
  0
SPLINE
  5
380
100
AcDbEntity
  8
0
100
AcDbSpline
 62
7
  6
CONTINUOUS
 70
0
 71
3
 72
25
 73
21
 74
0
 42
0.0000001
 43
0.0000001
 44
0.0000000001
 40
0.0
 40
0.0
 40
0.0
 40
0.0
 40
0.0631424364
 40
0.0947239959
 40
0.1263071873
 40
0.1894627637
 40
0.2526156886
 40
0.2841961177
 40
0.3157731938
 40
0.3788944007
 40
0.4419712158
 40
0.5049698455
 40
0.5678448545
 40
0.6305417206
 40
0.6930010432
 40
0.755164592
 40
0.8169807788
 40
0.878408473
 40
0.9394197108
 40
1.0
 40
1.0
 40
1.0
 40
1.0
 10
9.9772785942
 20
8.1458876999
 30
0.0
 10
9.9804281084
 20
8.1412151421
 30
0.0
 10
9.985414674
 20
8.1343764199
 30
0.0
 10
9.9925635439
 20
8.1256590355
 30
0.0
 10
10.0000430986
 20
8.11722142
 30
0.0
 10
10.0100013213
 20
8.1072308503
 30
0.0
 10
10.0207315302
 20
8.0980727211
 30
0.0
 10
10.029746724
 20
8.0913012246
 30
0.0
 10
10.0390368687
 20
8.084917339
 30
0.0
 10
10.0511452823
 20
8.0776942107
 30
0.0
 10
10.0663683508
 20
8.070341054
 30
0.0
 10
10.0821694933
 20
8.0643881775
 30
0.0
 10
10.0984130598
 20
8.0599024067
 30
0.0
 10
10.1149502168
 20
8.0569231595
 30
0.0
 10
10.1316253283
 20
8.0554589186
 30
0.0
 10
10.1482849727
 20
8.0554859968
 30
0.0
 10
10.1647861846
 20
8.0569515221
 30
0.0
 10
10.1810034831
 20
8.0597792129
 30
0.0
 10
10.1968309931
 20
8.0638758575
 30
0.0
 10
10.2071069055
 20
8.0673985389
 30
0.0
 10
10.2121532142
 20
8.0693382421
 30
0.0
  0
SPLINE
  5
381
100
AcDbEntity
  8
0
100
AcDbSpline
 62
7
  6
CONTINUOUS
 70
0
 71
3
 72
23
 73
19
 74
0
 42
0.0000001
 43
0.0000001
 44
0.0000000001
 40
0.0
 40
0.0
 40
0.0
 40
0.0
 40
0.0436660341
 40
0.0896989531
 40
0.1381714501
 40
0.189142346
 40
0.2426547454
 40
0.2987360865
 40
0.3574020911
 40
0.4186582096
 40
0.482500658
 40
0.5489176345
 40
0.6178899417
 40
0.6893923176
 40
0.7633932785
 40
0.8398565703
 40
0.9187406284
 40
1.0
 40
1.0
 40
1.0
 40
1.0
 10
9.5125769606
 20
10.8265928245
 30
0.0
 10
9.514122989
 20
10.8280861733
 30
0.0
 10
9.5173923128
 20
10.8310581239
 30
0.0
 10
9.5226626155
 20
10.8353617861
 30
0.0
 10
9.5284213545
 20
10.8396226639
 30
0.0
 10
9.5346632384
 20
10.8438370863
 30
0.0
 10
9.5413831122
 20
10.8480016603
 30
0.0
 10
9.5485752424
 20
10.8521129119
 30
0.0
 10
9.5562334821
 20
10.8561673071
 30
0.0
 10
9.5643512456
 20
10.8601613805
 30
0.0
 10
9.5729215446
 20
10.864091699
 30
0.0
 10
9.5819369852
 20
10.8679548252
 30
0.0
 10
9.5913897523
 20
10.8717474367
 30
0.0
 10
9.6012716582
 20
10.8754661736
 30
0.0
 10
9.6115741057
 20
10.8791078452
 30
0.0
 10
9.6222881536
 20
10.882669202
 30
0.0
 10
9.6334044279
 20
10.8861471821
 30
0.0
 10
9.6409664809
 20
10.8883756093
 30
0.0
 10
9.6448120328
 20
10.8894765474
 30
0.0
  0
SPLINE
  5
382
100
AcDbEntity
  8
0
100
AcDbSpline
 62
7
  6
CONTINUOUS
 70
0
 71
3
 72
35
 73
31
 74
0
 42
0.0000001
 43
0.0000001
 44
0.0000000001
 40
0.0
 40
0.0
 40
0.0
 40
0.0
 40
0.0956765929
 40
0.1869275096
 40
0.2736322438
 40
0.3556918624
 40
0.3949572834
 40
0.4330360744
 40
0.4699234886
 40
0.5056172849
 40
0.5401172505
 40
0.5734261466
 40
0.6055494984
 40
0.6364961149
 40
0.6662786696
 40
0.6949136571
 40
0.722422595
 40
0.7488319532
 40
0.774174306
 40
0.7984889037
 40
0.8218223333
 40
0.8442297822
 40
0.8657753252
 40
0.8865332019
 40
0.9065880127
 40
0.9260351109
 40
0.9449804482
 40
0.9635395383
 40
0.9818361753
 40
1.0
 40
1.0
 40
1.0
 40
1.0
 10
10.5200283866
 20
10.889506903
 30
0.0
 10
10.5259569425
 20
10.8878105438
 30
0.0
 10
10.5375009739
 20
10.8843581279
 30
0.0
 10
10.5542588372
 20
10.8788554461
 30
0.0
 10
10.5700224674
 20
10.873160261
 30
0.0
 10
10.582479659
 20
10.8681936406
 30
0.0
 10
10.5919134582
 20
10.8641236178
 30
0.0
 10
10.5986157402
 20
10.8610754355
 30
0.0
 10
10.6050457385
 20
10.8579882399
 30
0.0
 10
10.6112001175
 20
10.8548636825
 30
0.0
 10
10.6170756374
 20
10.8517033436
 30
0.0
 10
10.6226692488
 20
10.848508912
 30
0.0
 10
10.627978035
 20
10.845282033
 30
0.0
 10
10.6329992236
 20
10.84202435
 30
0.0
 10
10.6377302366
 20
10.8387375857
 30
0.0
 10
10.6421685817
 20
10.8354233399
 30
0.0
 10
10.6463120003
 20
10.8320833496
 30
0.0
 10
10.6501583121
 20
10.8287192252
 30
0.0
 10
10.6537055178
 20
10.8253326302
 30
0.0
 10
10.6569517704
 20
10.8219252198
 30
0.0
 10
10.6598952718
 20
10.818498558
 30
0.0
 10
10.6625344639
 20
10.8150543212
 30
0.0
 10
10.6648677349
 20
10.8115940456
 30
0.0
 10
10.6668936889
 20
10.8081193999
 30
0.0
 10
10.6686109301
 20
10.8046320356
 30
0.0
 10
10.6700181201
 20
10.8011336868
 30
0.0
 10
10.6711141429
 20
10.7976262936
 30
0.0
 10
10.6718978271
 20
10.7941117614
 30
0.0
 10
10.6723684558
 20
10.7905927058
 30
0.0
 10
10.6724732178
 20
10.7882414643
 30
0.0
 10
10.6724732235
 20
10.7870707834
 30
0.0
  0
SPLINE
  5
383
100
AcDbEntity
  8
0
100
AcDbSpline
 62
7
  6
CONTINUOUS
 70
0
 71
3
 72
39
 73
35
 74
0
 42
0.0000001
 43
0.0000001
 44
0.0000000001
 40
0.0
 40
0.0
 40
0.0
 40
0.0
 40
0.0314026163
 40
0.0630094802
 40
0.0948071156
 40
0.1267734443
 40
0.1588809719
 40
0.1910970226
 40
0.2233851133
 40
0.2557062446
 40
0.2880202668
 40
0.3202872758
 40
0.3524690062
 40
0.3845301827
 40
0.4164397934
 40
0.4481722512
 40
0.4797084083
 40
0.5110363787
 40
0.5421521198
 40
0.5730597435
 40
0.6037715204
 40
0.6343075558
 40
0.6646951112
 40
0.69496759
 40
0.7251632189
 40
0.7553234785
 40
0.7854913552
 40
0.8157095102
 40
0.8460184684
 40
0.8764549241
 40
0.9070502294
 40
0.9378293436
 40
0.9688091107
 40
1.0
 40
1.0
 40
1.0
 40
1.0
 10
11.9841469972
 20
9.1692559043
 30
0.0
 10
11.9882368057
 20
9.1689722751
 30
0.0
 10
11.9964205034
 20
9.1680001314
 30
0.0
 10
12.0085311286
 20
9.1653597814
 30
0.0
 10
12.02040701
 20
9.1615579954
 30
0.0
 10
12.0319326256
 20
9.1566316128
 30
0.0
 10
12.0429977453
 20
9.150628238
 30
0.0
 10
12.0534961046
 20
9.1436057011
 30
0.0
 10
12.0633270354
 20
9.1356315769
 30
0.0
 10
12.0723962127
 20
9.1267824851
 30
0.0
 10
12.080616593
 20
9.1171433807
 30
0.0
 10
12.0879092116
 20
9.106806751
 30
0.0
 10
12.0942039778
 20
9.0958717768
 30
0.0
 10
12.0994403072
 20
9.0844433686
 30
0.0
 10
12.103567689
 20
9.0726311818
 30
0.0
 10
12.1065461666
 20
9.0605485921
 30
0.0
 10
12.1083467478
 20
9.0483116439
 30
0.0
 10
12.1089517296
 20
9.03603796
 30
0.0
 10
12.1083548409
 20
9.0238456256
 30
0.0
 10
12.1065613466
 20
9.0118520794
 30
0.0
 10
12.1035880289
 20
9.0001729995
 30
0.0
 10
12.0994631276
 20
8.9889211743
 30
0.0
 10
12.094226085
 20
8.9782053922
 30
0.0
 10
12.0879271852
 20
8.9681293671
 30
0.0
 10
12.0806271007
 20
8.958790691
 30
0.0
 10
12.072396323
 20
8.9502798331
 30
0.0
 10
12.0633144971
 20
8.9426791711
 30
0.0
 10
12.0534695638
 20
8.9360621867
 30
0.0
 10
12.04295688
 20
8.9304927238
 30
0.0
 10
12.0318781939
 20
8.9260243874
 30
0.0
 10
12.0203407862
 20
8.9226999566
 30
0.0
 10
12.0084558046
 20
8.920551161
 30
0.0
 10
11.9963393922
 20
8.9195980311
 30
0.0
 10
11.9882092308
 20
8.9197653095
 30
0.0
 10
11.9841469972
 20
8.9200470263
 30
0.0
  0
SPLINE
  5
384
100
AcDbEntity
  8
0
100
AcDbSpline
 62
7
  6
CONTINUOUS
 70
0
 71
3
 72
11
 73
7
 74
0
 42
0.0000001
 43
0.0000001
 44
0.0000000001
 40
0.0
 40
0.0
 40
0.0
 40
0.0
 40
0.2761818873
 40
0.5334151922
 40
0.7737846084
 40
1.0
 40
1.0
 40
1.0
 40
1.0
 10
9.5125769606
 20
10.7956831955
 30
0.0
 10
9.5106181312
 20
10.7937911113
 30
0.0
 10
9.5069723013
 20
10.789989442
 30
0.0
 10
9.5022100727
 20
10.7840121452
 30
0.0
 10
9.4983680018
 20
10.7779800847
 30
0.0
 10
9.4963748726
 20
10.7738166047
 30
0.0
 10
9.4955529676
 20
10.7717428425
 30
0.0
  0
SPLINE
  5
385
100
AcDbEntity
  8
0
100
AcDbSpline
 62
7
  6
CONTINUOUS
 70
0
 71
3
 72
39
 73
35
 74
0
 42
0.0000001
 43
0.0000001
 44
0.0000000001
 40
0.0
 40
0.0
 40
0.0
 40
0.0
 40
0.0314026163
 40
0.0630094802
 40
0.0948071156
 40
0.1267734443
 40
0.1588809719
 40
0.1910970226
 40
0.2233851133
 40
0.2557062446
 40
0.2880202668
 40
0.3202872758
 40
0.3524690062
 40
0.3845301827
 40
0.4164397934
 40
0.4481722512
 40
0.4797084083
 40
0.5110363787
 40
0.5421521198
 40
0.5730597435
 40
0.6037715204
 40
0.6343075558
 40
0.6646951112
 40
0.69496759
 40
0.7251632189
 40
0.7553234785
 40
0.7854913552
 40
0.8157095102
 40
0.8460184684
 40
0.8764549241
 40
0.9070502294
 40
0.9378293436
 40
0.9688091107
 40
1.0
 40
1.0
 40
1.0
 40
1.0
 10
11.9841469972
 20
8.9200470263
 30
0.0
 10
11.9800571887
 20
8.9203306555
 30
0.0
 10
11.971873491
 20
8.9213027992
 30
0.0
 10
11.9597628658
 20
8.9239431492
 30
0.0
 10
11.9478869845
 20
8.9277449352
 30
0.0
 10
11.9363613688
 20
8.9326713178
 30
0.0
 10
11.9252962492
 20
8.9386746926
 30
0.0
 10
11.9147978898
 20
8.9456972295
 30
0.0
 10
11.904966959
 20
8.9536713536
 30
0.0
 10
11.8958977817
 20
8.9625204455
 30
0.0
 10
11.8876774014
 20
8.9721595499
 30
0.0
 10
11.8803847828
 20
8.9824961796
 30
0.0
 10
11.8740900166
 20
8.9934311538
 30
0.0
 10
11.8688536872
 20
9.0048595619
 30
0.0
 10
11.8647263054
 20
9.0166717488
 30
0.0
 10
11.8617478278
 20
9.0287543385
 30
0.0
 10
11.8599472467
 20
9.0409912867
 30
0.0
 10
11.8593422648
 20
9.0532649706
 30
0.0
 10
11.8599391535
 20
9.065457305
 30
0.0
 10
11.8617326478
 20
9.0774508512
 30
0.0
 10
11.8647059656
 20
9.0891299311
 30
0.0
 10
11.8688308668
 20
9.1003817563
 30
0.0
 10
11.8740679094
 20
9.1110975384
 30
0.0
 10
11.8803668092
 20
9.1211735635
 30
0.0
 10
11.8876668937
 20
9.1305122396
 30
0.0
 10
11.8958976715
 20
9.1390230974
 30
0.0
 10
11.9049794974
 20
9.1466237595
 30
0.0
 10
11.9148244306
 20
9.1532407439
 30
0.0
 10
11.9253371145
 20
9.1588102068
 30
0.0
 10
11.9364158005
 20
9.1632785432
 30
0.0
 10
11.9479532082
 20
9.166602974
 30
0.0
 10
11.9598381899
 20
9.1687517696
 30
0.0
 10
11.9719546023
 20
9.1697048994
 30
0.0
 10
11.9800847636
 20
9.1695376211
 30
0.0
 10
11.9841469972
 20
9.1692559043
 30
0.0
  0
SPLINE
  5
386
100
AcDbEntity
  8
0
100
AcDbSpline
 62
7
  6
CONTINUOUS
 70
0
 71
3
 72
23
 73
19
 74
0
 42
0.0000001
 43
0.0000001
 44
0.0000000001
 40
0.0
 40
0.0
 40
0.0
 40
0.0
 40
0.0436664858
 40
0.0896999477
 40
0.1381729288
 40
0.1891441025
 40
0.2426567319
 40
0.2987382224
 40
0.3574043443
 40
0.4186604317
 40
0.4825028441
 40
0.5489196487
 40
0.6178917886
 40
0.689393866
 40
0.7633945345
 40
0.839857433
 40
0.9187410851
 40
1.0
 40
1.0
 40
1.0
 40
1.0
 10
9.5125769606
 20
10.7956831955
 30
0.0
 10
9.5141229169
 20
10.7971764746
 30
0.0
 10
9.5173920883
 20
10.8001482911
 30
0.0
 10
9.5226621299
 20
10.8044517749
 30
0.0
 10
9.5284205719
 20
10.8087124755
 30
0.0
 10
9.534662112
 20
10.8129267274
 30
0.0
 10
9.5413816038
 20
10.8170911239
 30
0.0
 10
9.5485733078
 20
10.8212022189
 30
0.0
 10
9.5562310896
 20
10.8252564485
 30
0.0
 10
9.564348352
 20
10.8292503783
 30
0.0
 10
9.5729181181
 20
10.8331805417
 30
0.0
 10
9.5819329856
 20
10.8370435393
 30
0.0
 10
9.5913851497
 20
10.8408360109
 30
0.0
 10
9.601266416
 20
10.8445546332
 30
0.0
 10
9.6115681947
 20
10.8481961833
 30
0.0
 10
9.6222815414
 20
10.8517574396
 30
0.0
 10
9.633397087
 20
10.8552353191
 30
0.0
 10
9.6409586431
 20
10.8574636929
 30
0.0
 10
9.644803943
 20
10.8585646017
 30
0.0
  0
SPLINE
  5
387
100
AcDbEntity
  8
0
100
AcDbSpline
 62
7
  6
CONTINUOUS
 70
0
 71
3
 72
24
 73
20
 74
0
 42
0.0000001
 43
0.0000001
 44
0.0000000001
 40
0.0
 40
0.0
 40
0.0
 40
0.0
 40
0.0901957294
 40
0.1768134812
 40
0.25976607
 40
0.3389787773
 40
0.4143909507
 40
0.4859583425
 40
0.553655436
 40
0.6174784713
 40
0.6774497895
 40
0.7336232208
 40
0.7860905844
 40
0.8349904411
 40
0.8805191976
 40
0.9229436675
 40
0.962614923
 40
0.9815632139
 40
1.0
 40
1.0
 40
1.0
 40
1.0
 10
10.5200948403
 20
10.8585782538
 30
0.0
 10
10.5252289745
 20
10.8571087024
 30
0.0
 10
10.5352642339
 20
10.8541238502
 30
0.0
 10
10.5499038615
 20
10.8494041588
 30
0.0
 10
10.5638086975
 20
10.8445383936
 30
0.0
 10
10.5769569832
 20
10.8395342408
 30
0.0
 10
10.5893282974
 20
10.8343995361
 30
0.0
 10
10.6009034945
 20
10.8291423203
 30
0.0
 10
10.6116647682
 20
10.8237707613
 30
0.0
 10
10.6215956583
 20
10.8182930802
 30
0.0
 10
10.6306811093
 20
10.8127175115
 30
0.0
 10
10.6389074975
 20
10.8070522446
 30
0.0
 10
10.646262582
 20
10.8013052005
 30
0.0
 10
10.6527353312
 20
10.7954840117
 30
0.0
 10
10.6583159616
 20
10.789595484
 30
0.0
 10
10.6629947695
 20
10.7836470013
 30
0.0
 10
10.666182674
 20
10.7785674526
 30
0.0
 10
10.6682444053
 20
10.7744947477
 30
0.0
 10
10.6691166734
 20
10.7724582553
 30
0.0
 10
10.6695120378
 20
10.7714407634
 30
0.0
  0
SPLINE
  5
388
100
AcDbEntity
  8
0
100
AcDbSpline
 62
7
  6
CONTINUOUS
 70
0
 71
3
 72
39
 73
35
 74
0
 42
0.0000001
 43
0.0000001
 44
0.0000000001
 40
0.0
 40
0.0
 40
0.0
 40
0.0
 40
0.0314026163
 40
0.0630094802
 40
0.0948071156
 40
0.1267734443
 40
0.1588809719
 40
0.1910970226
 40
0.2233851133
 40
0.2557062446
 40
0.2880202668
 40
0.3202872758
 40
0.3524690062
 40
0.3845301827
 40
0.4164397934
 40
0.4481722512
 40
0.4797084083
 40
0.5110363787
 40
0.5421521198
 40
0.5730597435
 40
0.6037715204
 40
0.6343075558
 40
0.6646951112
 40
0.69496759
 40
0.7251632189
 40
0.7553234785
 40
0.7854913552
 40
0.8157095102
 40
0.8460184684
 40
0.8764549241
 40
0.9070502294
 40
0.9378293436
 40
0.9688091107
 40
1.0
 40
1.0
 40
1.0
 40
1.0
 10
11.9841469972
 20
7.4180323124
 30
0.0
 10
11.9882368057
 20
7.4177486833
 30
0.0
 10
11.9964205034
 20
7.4167765396
 30
0.0
 10
12.0085311286
 20
7.4141361896
 30
0.0
 10
12.02040701
 20
7.4103344036
 30
0.0
 10
12.0319326256
 20
7.4054080209
 30
0.0
 10
12.0429977453
 20
7.3994046462
 30
0.0
 10
12.0534961046
 20
7.3923821093
 30
0.0
 10
12.0633270354
 20
7.3844079851
 30
0.0
 10
12.0723962127
 20
7.3755588933
 30
0.0
 10
12.080616593
 20
7.3659197889
 30
0.0
 10
12.0879092116
 20
7.3555831591
 30
0.0
 10
12.0942039778
 20
7.344648185
 30
0.0
 10
12.0994403072
 20
7.3332197768
 30
0.0
 10
12.103567689
 20
7.32140759
 30
0.0
 10
12.1065461666
 20
7.3093250003
 30
0.0
 10
12.1083467478
 20
7.2970880521
 30
0.0
 10
12.1089517296
 20
7.2848143682
 30
0.0
 10
12.1083548409
 20
7.2726220338
 30
0.0
 10
12.1065613466
 20
7.2606284876
 30
0.0
 10
12.1035880289
 20
7.2489494077
 30
0.0
 10
12.0994631276
 20
7.2376975825
 30
0.0
 10
12.094226085
 20
7.2269818004
 30
0.0
 10
12.0879271852
 20
7.2169057753
 30
0.0
 10
12.0806271007
 20
7.2075670992
 30
0.0
 10
12.072396323
 20
7.1990562413
 30
0.0
 10
12.0633144971
 20
7.1914555793
 30
0.0
 10
12.0534695638
 20
7.1848385949
 30
0.0
 10
12.04295688
 20
7.1792691319
 30
0.0
 10
12.0318781939
 20
7.1748007956
 30
0.0
 10
12.0203407862
 20
7.1714763647
 30
0.0
 10
12.0084558046
 20
7.1693275692
 30
0.0
 10
11.9963393922
 20
7.1683744393
 30
0.0
 10
11.9882092308
 20
7.1685417176
 30
0.0
 10
11.9841469972
 20
7.1688234345
 30
0.0
  0
SPLINE
  5
389
100
AcDbEntity
  8
0
100
AcDbSpline
 62
7
  6
CONTINUOUS
 70
0
 71
3
 72
18
 73
14
 74
0
 42
0.0000001
 43
0.0000001
 44
0.0000000001
 40
0.0
 40
0.0
 40
0.0
 40
0.0
 40
0.0548627134
 40
0.1099293262
 40
0.1654013673
 40
0.2214755976
 40
0.336133279
 40
0.4553633673
 40
0.5171049701
 40
0.5804366861
 40
0.7123309727
 40
0.8519568969
 40
1.0
 40
1.0
 40
1.0
 40
1.0
 10
9.4924732404
 20
10.7870699843
 30
0.0
 10
9.4924732363
 20
10.787903237
 30
0.0
 10
9.4925261126
 20
10.7895733205
 30
0.0
 10
9.4927638629
 20
10.7920757166
 30
0.0
 10
9.4931600837
 20
10.7945767237
 30
0.0
 10
9.4939046599
 20
10.79793251
 30
0.0
 10
9.4952460127
 20
10.8021384792
 30
0.0
 10
9.4970831748
 20
10.8062451479
 30
0.0
 10
9.4988509521
 20
10.8095088342
 30
0.0
 10
9.5008751244
 20
10.8128473179
 30
0.0
 10
9.5038142802
 20
10.8170065865
 30
0.0
 10
9.5079119977
 20
10.8218943988
 30
0.0
 10
9.5109597363
 20
10.8250307056
 30
0.0
 10
9.5125769606
 20
10.8265928245
 30
0.0
  0
SPLINE
  5
38A
100
AcDbEntity
  8
0
100
AcDbSpline
 62
7
  6
CONTINUOUS
 70
0
 71
3
 72
14
 73
10
 74
0
 42
0.0000001
 43
0.0000001
 44
0.0000000001
 40
0.0
 40
0.0
 40
0.0
 40
0.0
 40
0.2705805773
 40
0.4009718013
 40
0.5279576584
 40
0.6514410713
 40
0.7713314439
 40
0.8875437307
 40
1.0
 40
1.0
 40
1.0
 40
1.0
 10
10.0732945682
 20
8.0679404755
 30
0.0
 10
10.0723134566
 20
8.0756700603
 30
0.0
 10
10.0707233541
 20
8.0871080767
 30
0.0
 10
10.0683244067
 20
8.1021209756
 30
0.0
 10
10.0664411435
 20
8.112925692
 30
0.0
 10
10.0644534732
 20
8.1234040703
 30
0.0
 10
10.0623633569
 20
8.1335459953
 30
0.0
 10
10.0601728132
 20
8.1433415775
 30
0.0
 10
10.0586211185
 20
8.1497413071
 30
0.0
 10
10.0578274994
 20
8.152880829
 30
0.0
  0
SPLINE
  5
38B
100
AcDbEntity
  8
0
100
AcDbSpline
 62
7
  6
CONTINUOUS
 70
0
 71
3
 72
39
 73
35
 74
0
 42
0.0000001
 43
0.0000001
 44
0.0000000001
 40
0.0
 40
0.0
 40
0.0
 40
0.0
 40
0.0314026163
 40
0.0630094802
 40
0.0948071156
 40
0.1267734443
 40
0.1588809719
 40
0.1910970226
 40
0.2233851133
 40
0.2557062446
 40
0.2880202668
 40
0.3202872758
 40
0.3524690062
 40
0.3845301827
 40
0.4164397934
 40
0.4481722512
 40
0.4797084083
 40
0.5110363787
 40
0.5421521198
 40
0.5730597435
 40
0.6037715204
 40
0.6343075558
 40
0.6646951112
 40
0.69496759
 40
0.7251632189
 40
0.7553234785
 40
0.7854913552
 40
0.8157095102
 40
0.8460184684
 40
0.8764549241
 40
0.9070502294
 40
0.9378293436
 40
0.9688091107
 40
1.0
 40
1.0
 40
1.0
 40
1.0
 10
11.9841469972
 20
7.1688234345
 30
0.0
 10
11.9800571887
 20
7.1691070637
 30
0.0
 10
11.971873491
 20
7.1700792073
 30
0.0
 10
11.9597628658
 20
7.1727195573
 30
0.0
 10
11.9478869845
 20
7.1765213434
 30
0.0
 10
11.9363613688
 20
7.181447726
 30
0.0
 10
11.9252962492
 20
7.1874511008
 30
0.0
 10
11.9147978898
 20
7.1944736376
 30
0.0
 10
11.904966959
 20
7.2024477618
 30
0.0
 10
11.8958977817
 20
7.2112968537
 30
0.0
 10
11.8876774014
 20
7.2209359581
 30
0.0
 10
11.8803847828
 20
7.2312725878
 30
0.0
 10
11.8740900166
 20
7.242207562
 30
0.0
 10
11.8688536872
 20
7.2536359701
 30
0.0
 10
11.8647263054
 20
7.265448157
 30
0.0
 10
11.8617478278
 20
7.2775307467
 30
0.0
 10
11.8599472467
 20
7.2897676949
 30
0.0
 10
11.8593422648
 20
7.3020413788
 30
0.0
 10
11.8599391535
 20
7.3142337132
 30
0.0
 10
11.8617326478
 20
7.3262272594
 30
0.0
 10
11.8647059656
 20
7.3379063393
 30
0.0
 10
11.8688308668
 20
7.3491581644
 30
0.0
 10
11.8740679094
 20
7.3598739466
 30
0.0
 10
11.8803668092
 20
7.3699499717
 30
0.0
 10
11.8876668937
 20
7.3792886477
 30
0.0
 10
11.8958976715
 20
7.3877995056
 30
0.0
 10
11.9049794974
 20
7.3954001677
 30
0.0
 10
11.9148244306
 20
7.4020171521
 30
0.0
 10
11.9253371145
 20
7.407586615
 30
0.0
 10
11.9364158005
 20
7.4120549514
 30
0.0
 10
11.9479532082
 20
7.4153793822
 30
0.0
 10
11.9598381899
 20
7.4175281778
 30
0.0
 10
11.9719546023
 20
7.4184813076
 30
0.0
 10
11.9800847636
 20
7.4183140293
 30
0.0
 10
11.9841469972
 20
7.4180323124
 30
0.0
  0
SPLINE
  5
38C
100
AcDbEntity
  8
0
100
AcDbSpline
 62
7
  6
CONTINUOUS
 70
0
 71
3
 72
39
 73
35
 74
0
 42
0.0000001
 43
0.0000001
 44
0.0000000001
 40
0.0
 40
0.0
 40
0.0
 40
0.0
 40
0.0314026163
 40
0.0630094802
 40
0.0948071156
 40
0.1267734443
 40
0.1588809719
 40
0.1910970226
 40
0.2233851133
 40
0.2557062446
 40
0.2880202668
 40
0.3202872758
 40
0.3524690062
 40
0.3845301827
 40
0.4164397934
 40
0.4481722512
 40
0.4797084083
 40
0.5110363787
 40
0.5421521198
 40
0.5730597435
 40
0.6037715204
 40
0.6343075558
 40
0.6646951112
 40
0.69496759
 40
0.7251632189
 40
0.7553234785
 40
0.7854913552
 40
0.8157095102
 40
0.8460184684
 40
0.8764549241
 40
0.9070502294
 40
0.9378293436
 40
0.9688091107
 40
1.0
 40
1.0
 40
1.0
 40
1.0
 10
9.9325203506
 20
9.3115366955
 30
0.0
 10
9.9366101591
 20
9.3112530663
 30
0.0
 10
9.9447938568
 20
9.3102809226
 30
0.0
 10
9.956904482
 20
9.3076405726
 30
0.0
 10
9.9687803634
 20
9.3038387866
 30
0.0
 10
9.980305979
 20
9.298912404
 30
0.0
 10
9.9913710986
 20
9.2929090292
 30
0.0
 10
10.001869458
 20
9.2858864923
 30
0.0
 10
10.0117003888
 20
9.2779123681
 30
0.0
 10
10.0207695661
 20
9.2690632763
 30
0.0
 10
10.0289899464
 20
9.2594241719
 30
0.0
 10
10.036282565
 20
9.2490875421
 30
0.0
 10
10.0425773312
 20
9.238152568
 30
0.0
 10
10.0478136606
 20
9.2267241598
 30
0.0
 10
10.0519410424
 20
9.214911973
 30
0.0
 10
10.05491952
 20
9.2028293833
 30
0.0
 10
10.0567201011
 20
9.1905924351
 30
0.0
 10
10.057325083
 20
9.1783187512
 30
0.0
 10
10.0567281943
 20
9.1661264168
 30
0.0
 10
10.0549347
 20
9.1541328706
 30
0.0
 10
10.0519613823
 20
9.1424537907
 30
0.0
 10
10.047836481
 20
9.1312019655
 30
0.0
 10
10.0425994384
 20
9.1204861834
 30
0.0
 10
10.0363005386
 20
9.1104101583
 30
0.0
 10
10.0290004541
 20
9.1010714822
 30
0.0
 10
10.0207696763
 20
9.0925606243
 30
0.0
 10
10.0116878505
 20
9.0849599623
 30
0.0
 10
10.0018429172
 20
9.0783429779
 30
0.0
 10
9.9913302333
 20
9.072773515
 30
0.0
 10
9.9802515473
 20
9.0683051786
 30
0.0
 10
9.9687141396
 20
9.0649807478
 30
0.0
 10
9.956829158
 20
9.0628319522
 30
0.0
 10
9.9447127456
 20
9.0618788223
 30
0.0
 10
9.9365825842
 20
9.0620461007
 30
0.0
 10
9.9325203506
 20
9.0623278175
 30
0.0
  0
SPLINE
  5
38D
100
AcDbEntity
  8
0
100
AcDbSpline
 62
7
  6
CONTINUOUS
 70
0
 71
3
 72
18
 73
14
 74
0
 42
0.0000001
 43
0.0000001
 44
0.0000000001
 40
0.0
 40
0.0
 40
0.0
 40
0.0
 40
0.0548620934
 40
0.1099281175
 40
0.1653995415
 40
0.2214731583
 40
0.2783387419
 40
0.3361775034
 40
0.4554063124
 40
0.5804415574
 40
0.7123342032
 40
0.8519579354
 40
1.0
 40
1.0
 40
1.0
 40
1.0
 10
10.8962494985
 20
10.6824361063
 30
0.0
 10
10.8962494957
 20
10.6834176461
 30
0.0
 10
10.8963117931
 20
10.685384938
 30
0.0
 10
10.8965918891
 20
10.6883326769
 30
0.0
 10
10.8970585824
 20
10.6912787165
 30
0.0
 10
10.8977117154
 20
10.6942219801
 30
0.0
 10
10.8985510176
 20
10.6971617295
 30
0.0
 10
10.8999314975
 20
10.7011149024
 30
0.0
 10
10.9021430135
 20
10.70605926
 30
0.0
 10
10.9055090821
 20
10.7118985695
 30
0.0
 10
10.9096087845
 20
10.717700086
 30
0.0
 10
10.9144358818
 20
10.7234579762
 30
0.0
 10
10.9180259714
 20
10.7271523657
 30
0.0
 10
10.9199310079
 20
10.7289924898
 30
0.0
  0
SPLINE
  5
38E
100
AcDbEntity
  8
0
100
AcDbSpline
 62
7
  6
CONTINUOUS
 70
0
 71
3
 72
39
 73
35
 74
0
 42
0.0000001
 43
0.0000001
 44
0.0000000001
 40
0.0
 40
0.0
 40
0.0
 40
0.0
 40
0.0314026163
 40
0.0630094802
 40
0.0948071156
 40
0.1267734443
 40
0.1588809719
 40
0.1910970226
 40
0.2233851133
 40
0.2557062446
 40
0.2880202668
 40
0.3202872758
 40
0.3524690062
 40
0.3845301827
 40
0.4164397934
 40
0.4481722512
 40
0.4797084083
 40
0.5110363787
 40
0.5421521198
 40
0.5730597435
 40
0.6037715204
 40
0.6343075558
 40
0.6646951112
 40
0.69496759
 40
0.7251632189
 40
0.7553234785
 40
0.7854913552
 40
0.8157095102
 40
0.8460184684
 40
0.8764549241
 40
0.9070502294
 40
0.9378293436
 40
0.9688091107
 40
1.0
 40
1.0
 40
1.0
 40
1.0
 10
9.9325203506
 20
7.5603131036
 30
0.0
 10
9.9366101591
 20
7.5600294745
 30
0.0
 10
9.9447938568
 20
7.5590573308
 30
0.0
 10
9.956904482
 20
7.5564169808
 30
0.0
 10
9.9687803634
 20
7.5526151948
 30
0.0
 10
9.980305979
 20
7.5476888121
 30
0.0
 10
9.9913710986
 20
7.5416854374
 30
0.0
 10
10.001869458
 20
7.5346629005
 30
0.0
 10
10.0117003888
 20
7.5266887763
 30
0.0
 10
10.0207695661
 20
7.5178396844
 30
0.0
 10
10.0289899464
 20
7.5082005801
 30
0.0
 10
10.036282565
 20
7.4978639503
 30
0.0
 10
10.0425773312
 20
7.4869289762
 30
0.0
 10
10.0478136606
 20
7.475500568
 30
0.0
 10
10.0519410424
 20
7.4636883811
 30
0.0
 10
10.05491952
 20
7.4516057915
 30
0.0
 10
10.0567201011
 20
7.4393688433
 30
0.0
 10
10.057325083
 20
7.4270951593
 30
0.0
 10
10.0567281943
 20
7.414902825
 30
0.0
 10
10.0549347
 20
7.4029092788
 30
0.0
 10
10.0519613823
 20
7.3912301989
 30
0.0
 10
10.047836481
 20
7.3799783737
 30
0.0
 10
10.0425994384
 20
7.3692625916
 30
0.0
 10
10.0363005386
 20
7.3591865664
 30
0.0
 10
10.0290004541
 20
7.3498478904
 30
0.0
 10
10.0207696763
 20
7.3413370325
 30
0.0
 10
10.0116878505
 20
7.3337363705
 30
0.0
 10
10.0018429172
 20
7.3271193861
 30
0.0
 10
9.9913302333
 20
7.3215499231
 30
0.0
 10
9.9802515473
 20
7.3170815868
 30
0.0
 10
9.9687141396
 20
7.3137571559
 30
0.0
 10
9.956829158
 20
7.3116083604
 30
0.0
 10
9.9447127456
 20
7.3106552305
 30
0.0
 10
9.9365825842
 20
7.3108225088
 30
0.0
 10
9.9325203506
 20
7.3111042257
 30
0.0
  0
SPLINE
  5
38F
100
AcDbEntity
  8
0
100
AcDbSpline
 62
7
  6
CONTINUOUS
 70
0
 71
3
 72
39
 73
35
 74
0
 42
0.0000001
 43
0.0000001
 44
0.0000000001
 40
0.0
 40
0.0
 40
0.0
 40
0.0
 40
0.0314026163
 40
0.0630094802
 40
0.0948071156
 40
0.1267734443
 40
0.1588809719
 40
0.1910970226
 40
0.2233851133
 40
0.2557062446
 40
0.2880202668
 40
0.3202872758
 40
0.3524690062
 40
0.3845301827
 40
0.4164397934
 40
0.4481722512
 40
0.4797084083
 40
0.5110363787
 40
0.5421521198
 40
0.5730597435
 40
0.6037715204
 40
0.6343075558
 40
0.6646951112
 40
0.69496759
 40
0.7251632189
 40
0.7553234785
 40
0.7854913552
 40
0.8157095102
 40
0.8460184684
 40
0.8764549241
 40
0.9070502294
 40
0.9378293436
 40
0.9688091107
 40
1.0
 40
1.0
 40
1.0
 40
1.0
 10
9.9325203506
 20
7.3111042257
 30
0.0
 10
9.9284305421
 20
7.3113878549
 30
0.0
 10
9.9202468444
 20
7.3123599985
 30
0.0
 10
9.9081362192
 20
7.3150003485
 30
0.0
 10
9.8962603378
 20
7.3188021346
 30
0.0
 10
9.8847347222
 20
7.3237285172
 30
0.0
 10
9.8736696026
 20
7.329731892
 30
0.0
 10
9.8631712432
 20
7.3367544288
 30
0.0
 10
9.8533403124
 20
7.344728553
 30
0.0
 10
9.8442711351
 20
7.3535776449
 30
0.0
 10
9.8360507548
 20
7.3632167493
 30
0.0
 10
9.8287581362
 20
7.373553379
 30
0.0
 10
9.82246337
 20
7.3844883532
 30
0.0
 10
9.8172270406
 20
7.3959167613
 30
0.0
 10
9.8130996588
 20
7.4077289482
 30
0.0
 10
9.8101211812
 20
7.4198115379
 30
0.0
 10
9.8083206001
 20
7.4320484861
 30
0.0
 10
9.8077156182
 20
7.44432217
 30
0.0
 10
9.8083125069
 20
7.4565145044
 30
0.0
 10
9.8101060012
 20
7.4685080506
 30
0.0
 10
9.8130793189
 20
7.4801871304
 30
0.0
 10
9.8172042202
 20
7.4914389556
 30
0.0
 10
9.8224412628
 20
7.5021547378
 30
0.0
 10
9.8287401626
 20
7.5122307629
 30
0.0
 10
9.8360402471
 20
7.5215694389
 30
0.0
 10
9.8442710248
 20
7.5300802968
 30
0.0
 10
9.8533528507
 20
7.5376809589
 30
0.0
 10
9.863197784
 20
7.5442979433
 30
0.0
 10
9.8737104679
 20
7.5498674062
 30
0.0
 10
9.8847891539
 20
7.5543357426
 30
0.0
 10
9.8963265616
 20
7.5576601734
 30
0.0
 10
9.9082115432
 20
7.559808969
 30
0.0
 10
9.9203279556
 20
7.5607620988
 30
0.0
 10
9.928458117
 20
7.5605948205
 30
0.0
 10
9.9325203506
 20
7.5603131036
 30
0.0
  0
SPLINE
  5
390
100
AcDbEntity
  8
0
100
AcDbSpline
 62
7
  6
CONTINUOUS
 70
0
 71
3
 72
15
 73
11
 74
0
 42
0.0000001
 43
0.0000001
 44
0.0000000001
 40
0.0
 40
0.0
 40
0.0
 40
0.0
 40
0.1273482936
 40
0.2538605366
 40
0.3795879111
 40
0.5046050899
 40
0.6290174366
 40
0.7529533732
 40
0.8765605776
 40
1.0
 40
1.0
 40
1.0
 40
1.0
 10
9.8336355506
 20
9.1994168687
 30
0.0
 10
9.8336355506
 20
9.202743053
 30
0.0
 10
9.833953133
 20
9.2093781837
 30
0.0
 10
9.8353893764
 20
9.2192032667
 30
0.0
 10
9.8377709072
 20
9.2287814811
 30
0.0
 10
9.8410762185
 20
9.2380232515
 30
0.0
 10
9.8452749687
 20
9.2468433525
 30
0.0
 10
9.8503288967
 20
9.2551603388
 30
0.0
 10
9.8561904937
 20
9.2628962688
 30
0.0
 10
9.8606039674
 20
9.2676218253
 30
0.0
 10
9.8629229182
 20
9.2698617403
 30
0.0
  0
SPLINE
  5
391
100
AcDbEntity
  8
0
100
AcDbSpline
 62
7
  6
CONTINUOUS
 70
0
 71
3
 72
23
 73
19
 74
0
 42
0.0000001
 43
0.0000001
 44
0.0000000001
 40
0.0
 40
0.0
 40
0.0
 40
0.0
 40
0.0614488807
 40
0.1232974294
 40
0.1855193177
 40
0.2480712672
 40
0.3108995318
 40
0.3739401513
 40
0.4371217414
 40
0.5003679843
 40
0.5636003151
 40
0.6267406524
 40
0.6897141172
 40
0.7524516838
 40
0.8148926113
 40
0.8769871451
 40
0.9386966623
 40
1.0
 40
1.0
 40
1.0
 40
1.0
 10
9.9379555461
 20
9.087862257
 30
0.0
 10
9.9345315207
 20
9.088099714
 30
0.0
 10
9.9276800536
 20
9.0889136005
 30
0.0
 10
9.9175409253
 20
9.0911241278
 30
0.0
 10
9.907598327
 20
9.0943070193
 30
0.0
 10
9.8979489761
 20
9.0984314383
 30
0.0
 10
9.8886851519
 20
9.1034575117
 30
0.0
 10
9.8798958236
 20
9.1093368394
 30
0.0
 10
9.87166528
 20
9.1160128545
 30
0.0
 10
9.8640724869
 20
9.1234214032
 30
0.0
 10
9.8571903127
 20
9.131491354
 30
0.0
 10
9.8510848529
 20
9.140145269
 30
0.0
 10
9.8458148056
 20
9.1493001221
 30
0.0
 10
9.8414309143
 20
9.1588681109
 30
0.0
 10
9.8379754327
 20
9.1687573348
 30
0.0
 10
9.8354818571
 20
9.1788731888
 30
0.0
 10
9.833974338
 20
9.189117254
 30
0.0
 10
9.8336355506
 20
9.1959927487
 30
0.0
 10
9.8336355506
 20
9.1994168687
 30
0.0
  0
SPLINE
  5
392
100
AcDbEntity
  8
0
100
AcDbSpline
 62
7
  6
CONTINUOUS
 70
0
 71
3
 72
19
 73
15
 74
0
 42
0.0000001
 43
0.0000001
 44
0.0000000001
 40
0.0
 40
0.0
 40
0.0
 40
0.0
 40
0.1504611406
 40
0.2916985742
 40
0.4244193292
 40
0.4878835935
 40
0.5495802133
 40
0.6682271463
 40
0.7255606136
 40
0.7817999183
 40
0.8371467056
 40
0.8918136429
 40
0.9460222308
 40
1.0
 40
1.0
 40
1.0
 40
1.0
 10
12.9802508825
 20
7.6207163588
 30
0.0
 10
12.9782860579
 20
7.6188184838
 30
0.0
 10
12.9743591217
 20
7.6152575337
 30
0.0
 10
12.9682786342
 20
7.6105121651
 30
0.0
 10
12.9631427157
 20
7.6071559667
 30
0.0
 10
12.9590471399
 20
7.6048832453
 30
0.0
 10
12.955072395
 20
7.6029320518
 30
0.0
 10
12.9510511069
 20
7.6013371354
 30
0.0
 10
12.9470071997
 20
7.6001369392
 30
0.0
 10
12.9440172451
 20
7.5994451302
 30
0.0
 10
12.9410372406
 20
7.5989520487
 30
0.0
 10
12.9380679787
 20
7.5986579099
 30
0.0
 10
12.9351106567
 20
7.5985628355
 30
0.0
 10
12.9331458955
 20
7.5986323132
 30
0.0
 10
12.9321682307
 20
7.5987001113
 30
0.0
  0
SPLINE
  5
393
100
AcDbEntity
  8
0
100
AcDbSpline
 62
7
  6
CONTINUOUS
 70
0
 71
3
 72
25
 73
21
 74
0
 42
0.0000001
 43
0.0000001
 44
0.0000000001
 40
0.0
 40
0.0
 40
0.0
 40
0.0
 40
0.0647706693
 40
0.0970576979
 40
0.1292685982
 40
0.1934337036
 40
0.2572525368
 40
0.2890336701
 40
0.3207231171
 40
0.3838120579
 40
0.4465380854
 40
0.5089164197
 40
0.5709720882
 40
0.6327390959
 40
0.6942593313
 40
0.7555812643
 40
0.8167584581
 40
0.8778479799
 40
0.9389087676
 40
1.0
 40
1.0
 40
1.0
 40
1.0
 10
10.7630270016
 20
8.796781986
 30
0.0
 10
10.7605510619
 20
8.8022633628
 30
0.0
 10
10.7571688289
 20
8.8106314296
 30
0.0
 10
10.7533555345
 20
8.8220160806
 30
0.0
 10
10.7500242105
 20
8.8334930874
 30
0.0
 10
10.746755847
 20
8.8480234624
 30
0.0
 10
10.7447015112
 20
8.8627346665
 30
0.0
 10
10.7438006758
 20
8.8745234751
 30
0.0
 10
10.7433950546
 20
8.8862717625
 30
0.0
 10
10.7438097651
 20
8.9009105939
 30
0.0
 10
10.7457809464
 20
8.9182954374
 30
0.0
 10
10.7492053942
 20
8.9353562039
 30
0.0
 10
10.7540534257
 20
8.951975514
 30
0.0
 10
10.7602856246
 20
8.9680415358
 30
0.0
 10
10.7678535453
 20
8.9834474431
 30
0.0
 10
10.7767004016
 20
8.9980923369
 30
0.0
 10
10.786761633
 20
9.0118814794
 30
0.0
 10
10.7979661613
 20
9.0247270749
 30
0.0
 10
10.8102348957
 20
9.0365469374
 30
0.0
 10
10.8190661917
 20
9.0436919964
 30
0.0
 10
10.823625844
 20
9.0470671996
 30
0.0
  0
SPLINE
  5
394
100
AcDbEntity
  8
0
100
AcDbSpline
 62
7
  6
CONTINUOUS
 70
0
 71
3
 72
15
 73
11
 74
0
 42
0.0000001
 43
0.0000001
 44
0.0000000001
 40
0.0
 40
0.0
 40
0.0
 40
0.0
 40
0.1273482936
 40
0.2538605366
 40
0.3795879111
 40
0.5046050899
 40
0.6290174366
 40
0.7529533732
 40
0.8765605776
 40
1.0
 40
1.0
 40
1.0
 40
1.0
 10
11.8852621973
 20
9.0571360775
 30
0.0
 10
11.8852621973
 20
9.0604622619
 30
0.0
 10
11.8855797796
 20
9.0670973925
 30
0.0
 10
11.887016023
 20
9.0769224755
 30
0.0
 10
11.8893975538
 20
9.0865006899
 30
0.0
 10
11.8927028651
 20
9.0957424603
 30
0.0
 10
11.8969016153
 20
9.1045625613
 30
0.0
 10
11.9019555433
 20
9.1128795476
 30
0.0
 10
11.9078171403
 20
9.1206154776
 30
0.0
 10
11.912230614
 20
9.1253410341
 30
0.0
 10
11.9145495648
 20
9.1275809491
 30
0.0
  0
SPLINE
  5
395
100
AcDbEntity
  8
0
100
AcDbSpline
 62
7
  6
CONTINUOUS
 70
0
 71
3
 72
23
 73
19
 74
0
 42
0.0000001
 43
0.0000001
 44
0.0000000001
 40
0.0
 40
0.0
 40
0.0
 40
0.0
 40
0.0614488807
 40
0.1232974294
 40
0.1855193177
 40
0.2480712672
 40
0.3108995318
 40
0.3739401513
 40
0.4371217414
 40
0.5003679843
 40
0.5636003151
 40
0.6267406524
 40
0.6897141172
 40
0.7524516838
 40
0.8148926113
 40
0.8769871451
 40
0.9386966623
 40
1.0
 40
1.0
 40
1.0
 40
1.0
 10
11.9895821927
 20
8.9455814659
 30
0.0
 10
11.9861581673
 20
8.9458189228
 30
0.0
 10
11.9793067002
 20
8.9466328093
 30
0.0
 10
11.9691675719
 20
8.9488433366
 30
0.0
 10
11.9592249736
 20
8.9520262281
 30
0.0
 10
11.9495756227
 20
8.9561506471
 30
0.0
 10
11.9403117985
 20
8.9611767205
 30
0.0
 10
11.9315224702
 20
8.9670560482
 30
0.0
 10
11.9232919267
 20
8.9737320633
 30
0.0
 10
11.9156991335
 20
8.981140612
 30
0.0
 10
11.9088169593
 20
8.9892105628
 30
0.0
 10
11.9027114995
 20
8.9978644778
 30
0.0
 10
11.8974414522
 20
9.0070193309
 30
0.0
 10
11.893057561
 20
9.0165873197
 30
0.0
 10
11.8896020793
 20
9.0264765436
 30
0.0
 10
11.8871085037
 20
9.0365923976
 30
0.0
 10
11.8856009846
 20
9.0468364628
 30
0.0
 10
11.8852621973
 20
9.0537119575
 30
0.0
 10
11.8852621973
 20
9.0571360775
 30
0.0
  0
SPLINE
  5
396
100
AcDbEntity
  8
0
100
AcDbSpline
 62
7
  6
CONTINUOUS
 70
0
 71
3
 72
21
 73
17
 74
0
 42
0.0000001
 43
0.0000001
 44
0.0000000001
 40
0.0
 40
0.0
 40
0.0
 40
0.0
 40
0.1273176984
 40
0.2537999461
 40
0.3167619614
 40
0.3795355204
 40
0.4421314992
 40
0.5045621453
 40
0.5668413456
 40
0.6289845231
 40
0.6910084433
 40
0.7529310869
 40
0.8147714401
 40
0.8765493236
 40
0.9382852134
 40
1.0
 40
1.0
 40
1.0
 40
1.0
 10
12.0218181067
 20
9.8862582284
 30
0.0
 10
12.0218181067
 20
9.8927566508
 30
0.0
 10
12.0224384245
 20
9.9057192185
 30
0.0
 10
12.0247811905
 20
9.9217437503
 30
0.0
 10
12.0275812926
 20
9.9343135923
 30
0.0
 10
12.0301348396
 20
9.9435851139
 30
0.0
 10
12.0331389349
 20
9.9526918852
 30
0.0
 10
12.0365866525
 20
9.9616131719
 30
0.0
 10
12.0404700436
 20
9.9703283404
 30
0.0
 10
12.044780232
 20
9.9788172766
 30
0.0
 10
12.0495072468
 20
9.9870604121
 30
0.0
 10
12.0546401866
 20
9.9950387498
 30
0.0
 10
12.0601672636
 20
10.0027338279
 30
0.0
 10
12.0660757658
 20
10.0101279736
 30
0.0
 10
12.0723518052
 20
10.0172039292
 30
0.0
 10
12.0767721037
 20
10.0216989929
 30
0.0
 10
12.079037751
 20
10.0238874268
 30
0.0
  0
SPLINE
  5
397
100
AcDbEntity
  8
0
100
AcDbSpline
 62
7
  6
CONTINUOUS
 70
0
 71
3
 72
90
 73
86
 74
0
 42
0.0000001
 43
0.0000001
 44
0.0000000001
 40
0.0
 40
0.0
 40
0.0
 40
0.0
 40
0.0039801734
 40
0.0081241052
 40
0.0124359616
 40
0.0169193135
 40
0.0215771815
 40
0.0264119171
 40
0.0314251791
 40
0.0366181551
 40
0.0419915397
 40
0.047545654
 40
0.0532804223
 40
0.0591954139
 40
0.0652899192
 40
0.0715628971
 40
0.08463856
 40
0.0984098622
 40
0.1128604225
 40
0.1279709368
 40
0.1437195167
 40
0.1600819662
 40
0.1770320115
 40
0.1945414958
 40
0.2125805581
 40
0.2311177886
 40
0.2501203685
 40
0.2695542002
 40
0.2893840278
 40
0.3095735514
 40
0.3300855399
 40
0.3508819414
 40
0.3719239887
 40
0.3931723021
 40
0.4145869913
 40
0.4361277558
 40
0.4577539862
 40
0.4794248651
 40
0.5010994671
 40
0.5227368581
 40
0.5442961936
 40
0.5657368187
 40
0.5870183693
 40
0.6081008732
 40
0.6289448503
 40
0.6495114141
 40
0.6697623751
 40
0.6896603446
 40
0.7091688452
 40
0.7282524229
 40
0.7468767607
 40
0.7650087978
 40
0.7826168578
 40
0.7996707871
 40
0.8161421063
 40
0.8320041856
 40
0.8472324355
 40
0.8618045284
 40
0.8757006673
 40
0.8889039105
 40
0.8952415029
 40
0.9014010575
 40
0.9073814349
 40
0.9131818212
 40
0.9188016688
 40
0.9242407739
 40
0.9294993077
 40
0.9345778094
 40
0.9394773131
 40
0.9441992992
 40
0.948745847
 40
0.9531196365
 40
0.9573240498
 40
0.9613632821
 40
0.9652423783
 40
0.968967428
 40
0.9725455945
 40
0.9759853044
 40
0.9824864771
 40
0.9855753379
 40
0.9885738066
 40
0.9914977312
 40
0.994364333
 40
0.997192009
 40
1.0
 40
1.0
 40
1.0
 40
1.0
 10
10.9199310079
 20
10.7289924898
 30
0.0
 10
10.9213074973
 20
10.7303220765
 30
0.0
 10
10.9241796203
 20
10.7329718491
 30
0.0
 10
10.9287396716
 20
10.7368420463
 30
0.0
 10
10.9336345869
 20
10.7406844894
 30
0.0
 10
10.9388616798
 20
10.7444971239
 30
0.0
 10
10.9444183932
 20
10.7482781785
 30
0.0
 10
10.9503020141
 20
10.7520258035
 30
0.0
 10
10.9565095959
 20
10.7557382169
 30
0.0
 10
10.9630380616
 20
10.759413486
 30
0.0
 10
10.9698841145
 20
10.7630498399
 30
0.0
 10
10.9770443455
 20
10.7666454239
 30
0.0
 10
10.9845151635
 20
10.7701984466
 30
0.0
 10
10.9922928099
 20
10.7737071351
 30
0.0
 10
11.0003733983
 20
10.7771697022
 30
0.0
 10
11.0117030896
 20
10.7817865922
 30
0.0
 10
11.0266025868
 20
10.787417331
 30
0.0
 10
11.0453835709
 20
10.7938730553
 30
0.0
 10
11.065267716
 20
10.8001046271
 30
0.0
 10
11.0862149304
 20
10.8060993813
 30
0.0
 10
11.1081831631
 20
10.8118451163
 30
0.0
 10
11.1311281627
 20
10.8173301291
 30
0.0
 10
11.1550036749
 20
10.8225432441
 30
0.0
 10
11.179761517
 20
10.8274738443
 30
0.0
 10
11.2053516936
 20
10.8321118877
 30
0.0
 10
11.2317225039
 20
10.8364479293
 30
0.0
 10
11.2588206518
 20
10.8404731405
 30
0.0
 10
11.2865913558
 20
10.8441793268
 30
0.0
 10
11.314978461
 20
10.8475589429
 30
0.0
 10
11.3439245538
 20
10.8506051131
 30
0.0
 10
11.373371081
 20
10.8533116429
 30
0.0
 10
11.4032584714
 20
10.8556730278
 30
0.0
 10
11.4335262581
 20
10.8576844658
 30
0.0
 10
11.4641132014
 20
10.8593418662
 30
0.0
 10
11.4949574121
 20
10.8606418572
 30
0.0
 10
11.5259964773
 20
10.8615817945
 30
0.0
 10
11.5571675873
 20
10.8621597698
 30
0.0
 10
11.5884076647
 20
10.8623746093
 30
0.0
 10
11.6196534929
 20
10.8622258769
 30
0.0
 10
11.6508418433
 20
10.8617138743
 30
0.0
 10
11.6819096036
 20
10.8608396414
 30
0.0
 10
11.7127939061
 20
10.8596049528
 30
0.0
 10
11.743432256
 20
10.8580123197
 30
0.0
 10
11.7737626598
 20
10.8560649824
 30
0.0
 10
11.8037237502
 20
10.853766901
 30
0.0
 10
11.8332549105
 20
10.8511227489
 30
0.0
 10
11.8622963977
 20
10.8481379035
 30
0.0
 10
11.890789464
 20
10.8448184347
 30
0.0
 10
11.9186764799
 20
10.841171095
 30
0.0
 10
11.9459010532
 20
10.8372033097
 30
0.0
 10
11.9724081442
 20
10.8329231561
 30
0.0
 10
11.9981441782
 20
10.8283393489
 30
0.0
 10
12.023057156
 20
10.8234612221
 30
0.0
 10
12.047096764
 20
10.8182987108
 30
0.0
 10
12.0702144813
 20
10.8128623285
 30
0.0
 10
12.0923636967
 20
10.8071631519
 30
0.0
 10
12.1134997837
 20
10.8012127899
 30
0.0
 10
12.1335802955
 20
10.7950233561
 30
0.0
 10
12.1525647348
 20
10.7886074324
 30
0.0
 10
12.1676391098
 20
10.7830092288
 30
0.0
 10
12.1791122584
 20
10.7784172981
 30
0.0
 10
12.1873020242
 20
10.7749719394
 30
0.0
 10
12.1951903086
 20
10.77147982
 30
0.0
 10
12.2027731693
 20
10.7679427226
 30
0.0
 10
12.2100467885
 20
10.7643624072
 30
0.0
 10
12.2170075157
 20
10.7607406672
 30
0.0
 10
12.2236518782
 20
10.757079352
 30
0.0
 10
12.2299765281
 20
10.7533802288
 30
0.0
 10
12.2359783391
 20
10.749645208
 30
0.0
 10
12.2416542896
 20
10.7458760681
 30
0.0
 10
12.2470015766
 20
10.7420747049
 30
0.0
 10
12.2520175368
 20
10.7382429553
 30
0.0
 10
12.2566996598
 20
10.7343826388
 30
0.0
 10
12.2610456455
 20
10.7304956581
 30
0.0
 10
12.2650532808
 20
10.7265837236
 30
0.0
 10
12.2687205107
 20
10.7226488567
 30
0.0
 10
12.2720456884
 20
10.7186923162
 30
0.0
 10
12.27594648
 20
10.7134899611
 30
0.0
 10
12.2792588597
 20
10.7081473518
 30
0.0
 10
12.2818887818
 20
10.7026906841
 30
0.0
 10
12.2834777461
 20
10.6986550581
 30
0.0
 10
12.2847151712
 20
10.6946096268
 30
0.0
 10
12.2855999617
 20
10.6905563289
 30
0.0
 10
12.2861312164
 20
10.6864980743
 30
0.0
 10
12.2862494916
 20
10.6837868386
 30
0.0
 10
12.2862494955
 20
10.6824366826
 30
0.0
  0
SPLINE
  5
398
100
AcDbEntity
  8
0
100
AcDbSpline
 62
7
  6
CONTINUOUS
 70
0
 71
3
 72
15
 73
11
 74
0
 42
0.0000001
 43
0.0000001
 44
0.0000000001
 40
0.0
 40
0.0
 40
0.0
 40
0.0
 40
0.1241308013
 40
0.2482795855
 40
0.372574414
 40
0.497133052
 40
0.6220659436
 40
0.7474699961
 40
0.8734266609
 40
1.0
 40
1.0
 40
1.0
 40
1.0
 10
11.1827357156
 20
8.4257586745
 30
0.0
 10
11.1863603512
 20
8.4298269776
 30
0.0
 10
11.1939756375
 20
8.4376468558
 30
0.0
 10
11.2063951118
 20
8.4483186538
 30
0.0
 10
11.2197249472
 20
8.4578631864
 30
0.0
 10
11.2338702129
 20
8.4662180138
 30
0.0
 10
11.2487316836
 20
8.4733326254
 30
0.0
 10
11.2642063194
 20
8.479166654
 30
0.0
 10
11.2801866398
 20
8.4836900471
 30
0.0
 10
11.2910813023
 20
8.4858139628
 30
0.0
 10
11.2965734465
 20
8.4866537914
 30
0.0
  0
SPLINE
  5
399
100
AcDbEntity
  8
0
100
AcDbSpline
 62
7
  6
CONTINUOUS
 70
0
 71
3
 72
39
 73
35
 74
0
 42
0.0000001
 43
0.0000001
 44
0.0000000001
 40
0.0
 40
0.0
 40
0.0
 40
0.0
 40
0.0314026163
 40
0.0630094802
 40
0.0948071156
 40
0.1267734443
 40
0.1588809719
 40
0.1910970226
 40
0.2233851133
 40
0.2557062446
 40
0.2880202668
 40
0.3202872758
 40
0.3524690062
 40
0.3845301827
 40
0.4164397934
 40
0.4481722512
 40
0.4797084083
 40
0.5110363787
 40
0.5421521198
 40
0.5730597435
 40
0.6037715204
 40
0.6343075558
 40
0.6646951112
 40
0.69496759
 40
0.7251632189
 40
0.7553234785
 40
0.7854913552
 40
0.8157095102
 40
0.8460184684
 40
0.8764549241
 40
0.9070502294
 40
0.9378293436
 40
0.9688091107
 40
1.0
 40
1.0
 40
1.0
 40
1.0
 10
9.9325203506
 20
9.0623278175
 30
0.0
 10
9.9284305421
 20
9.0626114467
 30
0.0
 10
9.9202468444
 20
9.0635835903
 30
0.0
 10
9.9081362192
 20
9.0662239403
 30
0.0
 10
9.8962603378
 20
9.0700257264
 30
0.0
 10
9.8847347222
 20
9.074952109
 30
0.0
 10
9.8736696026
 20
9.0809554838
 30
0.0
 10
9.8631712432
 20
9.0879780207
 30
0.0
 10
9.8533403124
 20
9.0959521448
 30
0.0
 10
9.8442711351
 20
9.1048012367
 30
0.0
 10
9.8360507548
 20
9.1144403411
 30
0.0
 10
9.8287581362
 20
9.1247769708
 30
0.0
 10
9.82246337
 20
9.135711945
 30
0.0
 10
9.8172270406
 20
9.1471403531
 30
0.0
 10
9.8130996588
 20
9.15895254
 30
0.0
 10
9.8101211812
 20
9.1710351297
 30
0.0
 10
9.8083206001
 20
9.1832720779
 30
0.0
 10
9.8077156182
 20
9.1955457618
 30
0.0
 10
9.8083125069
 20
9.2077380962
 30
0.0
 10
9.8101060012
 20
9.2197316424
 30
0.0
 10
9.8130793189
 20
9.2314107223
 30
0.0
 10
9.8172042202
 20
9.2426625475
 30
0.0
 10
9.8224412628
 20
9.2533783296
 30
0.0
 10
9.8287401626
 20
9.2634543547
 30
0.0
 10
9.8360402471
 20
9.2727930308
 30
0.0
 10
9.8442710248
 20
9.2813038886
 30
0.0
 10
9.8533528507
 20
9.2889045507
 30
0.0
 10
9.863197784
 20
9.2955215351
 30
0.0
 10
9.8737104679
 20
9.301090998
 30
0.0
 10
9.8847891539
 20
9.3055593344
 30
0.0
 10
9.8963265616
 20
9.3088837652
 30
0.0
 10
9.9082115432
 20
9.3110325608
 30
0.0
 10
9.9203279556
 20
9.3119856906
 30
0.0
 10
9.928458117
 20
9.3118184123
 30
0.0
 10
9.9325203506
 20
9.3115366955
 30
0.0
  0
SPLINE
  5
39A
100
AcDbEntity
  8
0
100
AcDbSpline
 62
7
  6
CONTINUOUS
 70
0
 71
3
 72
15
 73
11
 74
0
 42
0.0000001
 43
0.0000001
 44
0.0000000001
 40
0.0
 40
0.0
 40
0.0
 40
0.0
 40
0.1273482936
 40
0.2538605366
 40
0.3795879111
 40
0.5046050899
 40
0.6290174366
 40
0.7529533732
 40
0.8765605776
 40
1.0
 40
1.0
 40
1.0
 40
1.0
 10
11.8852621973
 20
7.3059124857
 30
0.0
 10
11.8852621973
 20
7.30923867
 30
0.0
 10
11.8855797796
 20
7.3158738007
 30
0.0
 10
11.887016023
 20
7.3256988837
 30
0.0
 10
11.8893975538
 20
7.3352770981
 30
0.0
 10
11.8927028651
 20
7.3445188685
 30
0.0
 10
11.8969016153
 20
7.3533389695
 30
0.0
 10
11.9019555433
 20
7.3616559557
 30
0.0
 10
11.9078171403
 20
7.3693918858
 30
0.0
 10
11.912230614
 20
7.3741174422
 30
0.0
 10
11.9145495648
 20
7.3763573572
 30
0.0
  0
SPLINE
  5
39B
100
AcDbEntity
  8
0
100
AcDbSpline
 62
7
  6
CONTINUOUS
 70
0
 71
3
 72
23
 73
19
 74
0
 42
0.0000001
 43
0.0000001
 44
0.0000000001
 40
0.0
 40
0.0
 40
0.0
 40
0.0
 40
0.0614488807
 40
0.1232974294
 40
0.1855193177
 40
0.2480712672
 40
0.3108995318
 40
0.3739401513
 40
0.4371217414
 40
0.5003679843
 40
0.5636003151
 40
0.6267406524
 40
0.6897141172
 40
0.7524516838
 40
0.8148926113
 40
0.8769871451
 40
0.9386966623
 40
1.0
 40
1.0
 40
1.0
 40
1.0
 10
11.9895821927
 20
7.194357874
 30
0.0
 10
11.9861581673
 20
7.194595331
 30
0.0
 10
11.9793067002
 20
7.1954092174
 30
0.0
 10
11.9691675719
 20
7.1976197448
 30
0.0
 10
11.9592249736
 20
7.2008026363
 30
0.0
 10
11.9495756227
 20
7.2049270553
 30
0.0
 10
11.9403117985
 20
7.2099531287
 30
0.0
 10
11.9315224702
 20
7.2158324564
 30
0.0
 10
11.9232919267
 20
7.2225084715
 30
0.0
 10
11.9156991335
 20
7.2299170202
 30
0.0
 10
11.9088169593
 20
7.237986971
 30
0.0
 10
11.9027114995
 20
7.246640886
 30
0.0
 10
11.8974414522
 20
7.2557957391
 30
0.0
 10
11.893057561
 20
7.2653637279
 30
0.0
 10
11.8896020793
 20
7.2752529518
 30
0.0
 10
11.8871085037
 20
7.2853688057
 30
0.0
 10
11.8856009846
 20
7.2956128709
 30
0.0
 10
11.8852621973
 20
7.3024883657
 30
0.0
 10
11.8852621973
 20
7.3059124857
 30
0.0
  0
SPLINE
  5
39C
100
AcDbEntity
  8
0
100
AcDbSpline
 62
7
  6
CONTINUOUS
 70
0
 71
3
 72
15
 73
11
 74
0
 42
0.0000001
 43
0.0000001
 44
0.0000000001
 40
0.0
 40
0.0
 40
0.0
 40
0.0
 40
0.1237573851
 40
0.2477721907
 40
0.3720962122
 40
0.4967862158
 40
0.6218863159
 40
0.7474359637
 40
0.873466124
 40
1.0
 40
1.0
 40
1.0
 40
1.0
 10
10.4374427747
 20
8.5138491905
 30
0.0
 10
10.4408234569
 20
8.5160709488
 30
0.0
 10
10.4477396606
 20
8.5202986785
 30
0.0
 10
10.4585158214
 20
8.5259567844
 30
0.0
 10
10.4696640455
 20
8.5309177052
 30
0.0
 10
10.4811411575
 20
8.5351639413
 30
0.0
 10
10.4929037975
 20
8.5386816147
 30
0.0
 10
10.5049075595
 20
8.5414601393
 30
0.0
 10
10.517106865
 20
8.5434921622
 30
0.0
 10
10.5253246885
 20
8.544344815
 30
0.0
 10
10.5294498184
 20
8.5446465915
 30
0.0
  0
SPLINE
  5
39D
100
AcDbEntity
  8
0
100
AcDbSpline
 62
7
  6
CONTINUOUS
 70
0
 71
3
 72
15
 73
11
 74
0
 42
0.0000001
 43
0.0000001
 44
0.0000000001
 40
0.0
 40
0.0
 40
0.0
 40
0.0
 40
0.1273482936
 40
0.2538605366
 40
0.3795879111
 40
0.5046050899
 40
0.6290174366
 40
0.7529533732
 40
0.8765605776
 40
1.0
 40
1.0
 40
1.0
 40
1.0
 10
9.8336355506
 20
7.4481932769
 30
0.0
 10
9.8336355506
 20
7.4515194612
 30
0.0
 10
9.833953133
 20
7.4581545919
 30
0.0
 10
9.8353893764
 20
7.4679796748
 30
0.0
 10
9.8377709072
 20
7.4775578892
 30
0.0
 10
9.8410762185
 20
7.4867996597
 30
0.0
 10
9.8452749687
 20
7.4956197607
 30
0.0
 10
9.8503288967
 20
7.5039367469
 30
0.0
 10
9.8561904937
 20
7.511672677
 30
0.0
 10
9.8606039674
 20
7.5163982334
 30
0.0
 10
9.8629229182
 20
7.5186381484
 30
0.0
  0
SPLINE
  5
39E
100
AcDbEntity
  8
0
100
AcDbSpline
 62
7
  6
CONTINUOUS
 70
0
 71
3
 72
23
 73
19
 74
0
 42
0.0000001
 43
0.0000001
 44
0.0000000001
 40
0.0
 40
0.0
 40
0.0
 40
0.0
 40
0.0614488807
 40
0.1232974294
 40
0.1855193177
 40
0.2480712672
 40
0.3108995318
 40
0.3739401513
 40
0.4371217414
 40
0.5003679843
 40
0.5636003151
 40
0.6267406524
 40
0.6897141172
 40
0.7524516838
 40
0.8148926113
 40
0.8769871451
 40
0.9386966623
 40
1.0
 40
1.0
 40
1.0
 40
1.0
 10
9.9379555461
 20
7.3366386652
 30
0.0
 10
9.9345315207
 20
7.3368761222
 30
0.0
 10
9.9276800536
 20
7.3376900086
 30
0.0
 10
9.9175409253
 20
7.339900536
 30
0.0
 10
9.907598327
 20
7.3430834275
 30
0.0
 10
9.8979489761
 20
7.3472078465
 30
0.0
 10
9.8886851519
 20
7.3522339199
 30
0.0
 10
9.8798958236
 20
7.3581132476
 30
0.0
 10
9.87166528
 20
7.3647892627
 30
0.0
 10
9.8640724869
 20
7.3721978114
 30
0.0
 10
9.8571903127
 20
7.3802677622
 30
0.0
 10
9.8510848529
 20
7.3889216772
 30
0.0
 10
9.8458148056
 20
7.3980765303
 30
0.0
 10
9.8414309143
 20
7.4076445191
 30
0.0
 10
9.8379754327
 20
7.417533743
 30
0.0
 10
9.8354818571
 20
7.4276495969
 30
0.0
 10
9.833974338
 20
7.4378936621
 30
0.0
 10
9.8336355506
 20
7.4447691569
 30
0.0
 10
9.8336355506
 20
7.4481932769
 30
0.0
  0
SPLINE
  5
39F
100
AcDbEntity
  8
0
100
AcDbSpline
 62
7
  6
CONTINUOUS
 70
0
 71
3
 72
15
 73
11
 74
0
 42
0.0000001
 43
0.0000001
 44
0.0000000001
 40
0.0
 40
0.0
 40
0.0
 40
0.0
 40
0.1403640101
 40
0.2765956851
 40
0.4085537015
 40
0.5361060544
 40
0.6591315683
 40
0.7775192441
 40
0.891169683
 40
1.0
 40
1.0
 40
1.0
 40
1.0
 10
10.0798823649
 20
8.065526579
 30
0.0
 10
10.0792866896
 20
8.0696520662
 30
0.0
 10
10.0780524897
 20
8.0777730278
 30
0.0
 10
10.0760383582
 20
8.0897376758
 30
0.0
 10
10.0738910072
 20
8.1012924556
 30
0.0
 10
10.0716132615
 20
8.1124222787
 30
0.0
 10
10.0692081497
 20
8.1231126584
 30
0.0
 10
10.0666787889
 20
8.1333496794
 30
0.0
 10
10.0640285879
 20
8.143119978
 30
0.0
 10
10.0621421841
 20
8.1494526823
 30
0.0
 10
10.0611769583
 20
8.1525370191
 30
0.0
  0
SPLINE
  5
3A0
100
AcDbEntity
  8
0
100
AcDbSpline
 62
7
  6
CONTINUOUS
 70
0
 71
3
 72
41
 73
37
 74
0
 42
0.0000001
 43
0.0000001
 44
0.0000000001
 40
0.0
 40
0.0
 40
0.0
 40
0.0
 40
0.0302897331
 40
0.0604818912
 40
0.0906152919
 40
0.1207300196
 40
0.1508669524
 40
0.1810656789
 40
0.2113628931
 40
0.2417909841
 40
0.2723768945
 40
0.3031413158
 40
0.3340981768
 40
0.3652544335
 40
0.3966101335
 40
0.4281586786
 40
0.4598872707
 40
0.4917774938
 40
0.5238059895
 40
0.5559452208
 40
0.5881642883
 40
0.6204298014
 40
0.6527068083
 40
0.6849597559
 40
0.7171534976
 40
0.7492543549
 40
0.7812311789
 40
0.8130564272
 40
0.8447072273
 40
0.8761663465
 40
0.9074230529
 40
0.938473799
 40
0.9539274867
 40
0.9693318511
 40
0.9846886827
 40
1.0
 40
1.0
 40
1.0
 40
1.0
 10
10.2469711095
 20
7.8369951768
 30
0.0
 10
10.2441564746
 20
7.8311543683
 30
0.0
 10
10.2379406595
 20
7.8197676468
 30
0.0
 10
10.2269392953
 20
7.8037535808
 30
0.0
 10
10.2143782412
 20
7.7889776458
 30
0.0
 10
10.2003773708
 20
7.7755761044
 30
0.0
 10
10.1850689312
 20
7.7636675404
 30
0.0
 10
10.1685969831
 20
7.753355645
 30
0.0
 10
10.1511151203
 20
7.7447273086
 30
0.0
 10
10.1327845026
 20
7.7378524934
 30
0.0
 10
10.1137717911
 20
7.7327842683
 30
0.0
 10
10.0942474158
 20
7.7295587848
 30
0.0
 10
10.0743838429
 20
7.7281957514
 30
0.0
 10
10.0543541038
 20
7.7286990599
 30
0.0
 10
10.0343305045
 20
7.7310571717
 30
0.0
 10
10.0144834618
 20
7.7352438469
 30
0.0
 10
9.9949805364
 20
7.7412188269
 30
0.0
 10
9.9759855029
 20
7.7489282451
 30
0.0
 10
9.9576575264
 20
7.7583052371
 30
0.0
 10
9.9401504278
 20
7.7692704931
 30
0.0
 10
9.9236118394
 20
7.7817325635
 30
0.0
 10
9.9081823981
 20
7.7955883141
 30
0.0
 10
9.8939949694
 20
7.810723414
 30
0.0
 10
9.8811736379
 20
7.8270126592
 30
0.0
 10
9.8698326932
 20
7.844320484
 30
0.0
 10
9.8600756741
 20
7.8625016293
 30
0.0
 10
9.8519940976
 20
7.8814017539
 30
0.0
 10
9.8456662604
 20
7.9008583846
 30
0.0
 10
9.8411561753
 20
7.9207018985
 30
0.0
 10
9.8385122929
 20
7.9407572991
 30
0.0
 10
9.8377660962
 20
7.9608437392
 30
0.0
 10
9.8387398645
 20
7.9774885012
 30
0.0
 10
9.8404763769
 20
7.9906303702
 30
0.0
 10
9.842251032
 20
8.0003666044
 30
0.0
 10
9.8444962334
 20
8.0099734691
 30
0.0
 10
9.8463063641
 20
8.0162869378
 30
0.0
 10
9.8472881588
 20
8.0194138625
 30
0.0
  0
SPLINE
  5
3A1
100
AcDbEntity
  8
0
100
AcDbSpline
 62
7
  6
CONTINUOUS
 70
0
 71
3
 72
42
 73
38
 74
0
 42
0.0000001
 43
0.0000001
 44
0.0000000001
 40
0.0
 40
0.0
 40
0.0
 40
0.0
 40
0.0299419634
 40
0.0449235299
 40
0.0599142017
 40
0.0899287029
 40
0.1200139772
 40
0.1350926626
 40
0.1501967046
 40
0.1804840506
 40
0.2108978877
 40
0.2414513551
 40
0.2721543675
 40
0.3030134354
 40
0.3340315696
 40
0.3652082675
 40
0.3965395775
 40
0.4280182343
 40
0.4596338596
 40
0.4913732188
 40
0.5232205284
 40
0.5551578047
 40
0.5871652463
 40
0.6192216448
 40
0.6513048151
 40
0.6833920402
 40
0.7154605222
 40
0.747487836
 40
0.7794523759
 40
0.8113337934
 40
0.8431134117
 40
0.8747746318
 40
0.9063032512
 40
0.9376879208
 40
0.9533258
 40
0.9689252634
 40
1.0
 40
1.0
 40
1.0
 40
1.0
 10
12.3722191851
 20
9.7203604368
 30
0.0
 10
12.3687187634
 20
9.7169793097
 30
0.0
 10
12.3632617952
 20
9.7121125001
 30
0.0
 10
12.3556194342
 20
9.7060738493
 30
0.0
 10
12.3477337023
 20
9.700335691
 30
0.0
 10
12.3374441189
 20
9.6937464263
 30
0.0
 10
12.3266542498
 20
9.6879827267
 30
0.0
 10
12.317755404
 20
9.683882425
 30
0.0
 10
12.3086727342
 20
9.6801206095
 30
0.0
 10
12.2970200806
 20
9.6760755948
 30
0.0
 10
12.2826599515
 20
9.6723057424
 30
0.0
 10
12.267986482
 20
9.6696350923
 30
0.0
 10
12.2530809906
 20
9.6680783779
 30
0.0
 10
12.2380253562
 20
9.667643907
 30
0.0
 10
12.2229024192
 20
9.6683338908
 30
0.0
 10
12.2077952987
 20
9.6701443435
 30
0.0
 10
12.1927870017
 20
9.6730651396
 30
0.0
 10
12.1779599554
 20
9.6770800689
 30
0.0
 10
12.1633955658
 20
9.6821669332
 30
0.0
 10
12.1491737748
 20
9.6882976711
 30
0.0
 10
12.1353726291
 20
9.695438514
 30
0.0
 10
12.1220678568
 20
9.7035501728
 30
0.0
 10
12.109332458
 20
9.7125880532
 30
0.0
 10
12.0972363091
 20
9.7225024992
 30
0.0
 10
12.0858457843
 20
9.7332390638
 30
0.0
 10
12.075223395
 20
9.7447388056
 30
0.0
 10
12.0654274504
 20
9.7569386088
 30
0.0
 10
12.056511741
 20
9.769771527
 30
0.0
 10
12.0485252457
 20
9.7831671429
 30
0.0
 10
12.0415118646
 20
9.7970519651
 30
0.0
 10
12.0355101812
 20
9.8113497694
 30
0.0
 10
12.0305532391
 20
9.8259822238
 30
0.0
 10
12.0266684218
 20
9.8408685276
 30
0.0
 10
12.0243393875
 20
9.8534341819
 30
0.0
 10
12.0230328683
 20
9.8635305328
 30
0.0
 10
12.0221004377
 20
9.8736172223
 30
0.0
 10
12.0218181067
 20
9.8812073882
 30
0.0
 10
12.0218181067
 20
9.8862582284
 30
0.0
  0
SPLINE
  5
3A2
100
AcDbEntity
  8
0
100
AcDbSpline
 62
7
  6
CONTINUOUS
 70
0
 71
3
 72
21
 73
17
 74
0
 42
0.0000001
 43
0.0000001
 44
0.0000000001
 40
0.0
 40
0.0
 40
0.0
 40
0.0
 40
0.1273176984
 40
0.2537999461
 40
0.3167619614
 40
0.3795355204
 40
0.4421314992
 40
0.5045621453
 40
0.5668413456
 40
0.6289845231
 40
0.6910084433
 40
0.7529310869
 40
0.8147714401
 40
0.8765493236
 40
0.9382852134
 40
1.0
 40
1.0
 40
1.0
 40
1.0
 10
9.0042656053
 20
6.5950109923
 30
0.0
 10
9.0042656053
 20
6.6015094147
 30
0.0
 10
9.0048859232
 20
6.6144719824
 30
0.0
 10
9.0072286892
 20
6.6304965143
 30
0.0
 10
9.0100287912
 20
6.6430663562
 30
0.0
 10
9.0125823382
 20
6.6523378778
 30
0.0
 10
9.0155864336
 20
6.6614446491
 30
0.0
 10
9.0190341511
 20
6.6703659358
 30
0.0
 10
9.0229175422
 20
6.6790811043
 30
0.0
 10
9.0272277307
 20
6.6875700405
 30
0.0
 10
9.0319547455
 20
6.695813176
 30
0.0
 10
9.0370876853
 20
6.7037915137
 30
0.0
 10
9.0426147623
 20
6.7114865918
 30
0.0
 10
9.0485232645
 20
6.7188807376
 30
0.0
 10
9.0547993038
 20
6.7259566931
 30
0.0
 10
9.0592196023
 20
6.7304517568
 30
0.0
 10
9.0614852497
 20
6.7326401907
 30
0.0
  0
SPLINE
  5
3A3
100
AcDbEntity
  8
0
100
AcDbSpline
 62
7
  6
CONTINUOUS
 70
0
 71
3
 72
15
 73
11
 74
0
 42
0.0000001
 43
0.0000001
 44
0.0000000001
 40
0.0
 40
0.0
 40
0.0
 40
0.0
 40
0.1419145015
 40
0.2783582476
 40
0.4095845662
 40
0.5358990609
 40
0.6576624137
 40
0.7752843723
 40
0.8892259669
 40
1.0
 40
1.0
 40
1.0
 40
1.0
 10
10.9199310079
 20
10.6980828608
 30
0.0
 10
10.9186434459
 20
10.6968391713
 30
0.0
 10
10.9161698285
 20
10.694345156
 30
0.0
 10
10.9127077417
 20
10.6905074363
 30
0.0
 10
10.909570495
 20
10.6866499785
 30
0.0
 10
10.9067599287
 20
10.6827746269
 30
0.0
 10
10.9042774628
 20
10.6788830823
 30
0.0
 10
10.9021245275
 20
10.6749768471
 30
0.0
 10
10.9003024693
 20
10.671058029
 30
0.0
 10
10.8992965062
 20
10.668404566
 30
0.0
 10
10.8988522646
 20
10.6670797414
 30
0.0
  0
SPLINE
  5
3A4
100
AcDbEntity
  8
0
100
AcDbSpline
 62
7
  6
CONTINUOUS
 70
0
 71
3
 72
42
 73
38
 74
0
 42
0.0000001
 43
0.0000001
 44
0.0000000001
 40
0.0
 40
0.0
 40
0.0
 40
0.0
 40
0.0299419634
 40
0.0449235299
 40
0.0599142017
 40
0.0899287029
 40
0.1200139772
 40
0.1350926626
 40
0.1501967046
 40
0.1804840506
 40
0.2108978877
 40
0.2414513551
 40
0.2721543675
 40
0.3030134354
 40
0.3340315696
 40
0.3652082675
 40
0.3965395775
 40
0.4280182343
 40
0.4596338596
 40
0.4913732188
 40
0.5232205284
 40
0.5551578047
 40
0.5871652463
 40
0.6192216448
 40
0.6513048151
 40
0.6833920402
 40
0.7154605222
 40
0.747487836
 40
0.7794523759
 40
0.8113337934
 40
0.8431134117
 40
0.8747746318
 40
0.9063032512
 40
0.9376879208
 40
0.9533258
 40
0.9689252634
 40
1.0
 40
1.0
 40
1.0
 40
1.0
 10
9.3546666838
 20
6.4291132008
 30
0.0
 10
9.3511662621
 20
6.4257320736
 30
0.0
 10
9.3457092939
 20
6.420865264
 30
0.0
 10
9.3380669328
 20
6.4148266133
 30
0.0
 10
9.330181201
 20
6.409088455
 30
0.0
 10
9.3198916176
 20
6.4024991903
 30
0.0
 10
9.3091017484
 20
6.3967354906
 30
0.0
 10
9.3002029026
 20
6.3926351889
 30
0.0
 10
9.2911202328
 20
6.3888733735
 30
0.0
 10
9.2794675793
 20
6.3848283587
 30
0.0
 10
9.2651074501
 20
6.3810585064
 30
0.0
 10
9.2504339807
 20
6.3783878562
 30
0.0
 10
9.2355284893
 20
6.3768311418
 30
0.0
 10
9.2204728548
 20
6.376396671
 30
0.0
 10
9.2053499179
 20
6.3770866548
 30
0.0
 10
9.1902427974
 20
6.3788971075
 30
0.0
 10
9.1752345003
 20
6.3818179035
 30
0.0
 10
9.1604074541
 20
6.3858328328
 30
0.0
 10
9.1458430644
 20
6.3909196972
 30
0.0
 10
9.1316212735
 20
6.397050435
 30
0.0
 10
9.1178201277
 20
6.4041912779
 30
0.0
 10
9.1045153554
 20
6.4123029367
 30
0.0
 10
9.0917799566
 20
6.4213408171
 30
0.0
 10
9.0796838078
 20
6.4312552631
 30
0.0
 10
9.068293283
 20
6.4419918277
 30
0.0
 10
9.0576708936
 20
6.4534915695
 30
0.0
 10
9.047874949
 20
6.4656913727
 30
0.0
 10
9.0389592397
 20
6.4785242909
 30
0.0
 10
9.0309727444
 20
6.4919199068
 30
0.0
 10
9.0239593633
 20
6.505804729
 30
0.0
 10
9.0179576799
 20
6.5201025334
 30
0.0
 10
9.0130007377
 20
6.5347349877
 30
0.0
 10
9.0091159204
 20
6.5496212915
 30
0.0
 10
9.0067868861
 20
6.5621869458
 30
0.0
 10
9.005480367
 20
6.5722832967
 30
0.0
 10
9.0045479363
 20
6.5823699862
 30
0.0
 10
9.0042656053
 20
6.5899601521
 30
0.0
 10
9.0042656053
 20
6.5950109923
 30
0.0
  0
SPLINE
  5
3A5
100
AcDbEntity
  8
0
100
AcDbSpline
 62
7
  6
CONTINUOUS
 70
0
 71
3
 72
83
 73
79
 74
0
 42
0.0000001
 43
0.0000001
 44
0.0000000001
 40
0.0
 40
0.0
 40
0.0
 40
0.0
 40
0.0039017846
 40
0.0079593033
 40
0.0121764286
 40
0.0165564822
 40
0.021102305
 40
0.0258161719
 40
0.0306997022
 40
0.0357540707
 40
0.0409800218
 40
0.0463779197
 40
0.0519478185
 40
0.057689399
 40
0.0696846035
 40
0.0823564042
 40
0.0956935187
 40
0.1096815646
 40
0.1243034498
 40
0.1395396733
 40
0.1553685873
 40
0.1717666179
 40
0.1887084461
 40
0.2061671653
 40
0.2241144138
 40
0.2425205046
 40
0.2613545498
 40
0.2805845695
 40
0.3001775934
 40
0.3200997554
 40
0.3403163894
 40
0.3607921285
 40
0.3814909955
 40
0.4023764906
 40
0.4445585807
 40
0.4870399918
 40
0.5295188492
 40
0.5716932955
 40
0.5925730839
 40
0.6132650044
 40
0.6337325694
 40
0.6539398203
 40
0.6738514154
 40
0.6934327185
 40
0.712649891
 40
0.731469987
 40
0.749861061
 40
0.7677922687
 40
0.7852339722
 40
0.802157856
 40
0.8185370547
 40
0.8343463032
 40
0.8495620959
 40
0.8641628615
 40
0.8781291768
 40
0.8914440237
 40
0.9040931137
 40
0.9160652829
 40
0.921795283
 40
0.9273535476
 40
0.9327398268
 40
0.9379541617
 40
0.9429969375
 40
0.947868959
 40
0.9525714092
 40
0.9571059971
 40
0.9614749346
 40
0.9656810303
 40
0.9697277891
 40
0.9736194212
 40
0.9773610235
 40
0.9809586008
 40
0.9844192053
 40
0.9877510551
 40
0.9909635796
 40
0.9940675749
 40
0.997075196
 40
1.0
 40
1.0
 40
1.0
 40
1.0
 10
10.9199310079
 20
10.6980828608
 30
0.0
 10
10.9212657319
 20
10.6993721052
 30
0.0
 10
10.9240471927
 20
10.7019418034
 30
0.0
 10
10.9284566824
 20
10.705698078
 30
0.0
 10
10.9331815749
 20
10.7094283687
 30
0.0
 10
10.938219425
 20
10.7131307537
 30
0.0
 10
10.9435678851
 20
10.7168036316
 30
0.0
 10
10.9492245177
 20
10.7204452911
 30
0.0
 10
10.9551866521
 20
10.7240541213
 30
0.0
 10
10.9614514999
 20
10.7276283693
 30
0.0
 10
10.968016097
 20
10.7311663643
 30
0.0
 10
10.9748773374
 20
10.7346664631
 30
0.0
 10
10.9820320155
 20
10.7381269931
 30
0.0
 10
10.9921056825
 20
10.7427537185
 30
0.0
 10
11.0054182282
 20
10.7484137978
 30
0.0
 10
11.022281907
 20
10.7549270959
 30
0.0
 10
11.0402277241
 20
10.7612446463
 30
0.0
 10
11.0592216749
 20
10.7673543862
 30
0.0
 10
11.079227972
 20
10.7732446317
 30
0.0
 10
11.1002087375
 20
10.7789041061
 30
0.0
 10
11.1221242054
 20
10.7843219688
 30
0.0
 10
11.1449327839
 20
10.7894878346
 30
0.0
 10
11.1685911541
 20
10.7943917995
 30
0.0
 10
11.193054352
 20
10.7990244579
 30
0.0
 10
11.2182758546
 20
10.8033769315
 30
0.0
 10
11.2442076749
 20
10.8074408844
 30
0.0
 10
11.2708004612
 20
10.8112085312
 30
0.0
 10
11.2980035959
 20
10.8146726544
 30
0.0
 10
11.325765291
 20
10.817826616
 30
0.0
 10
11.3540326831
 20
10.8206643751
 30
0.0
 10
11.3827519411
 20
10.8231805063
 30
0.0
 10
11.4118683545
 20
10.8253701864
 30
0.0
 10
11.4413265129
 20
10.8272292547
 30
0.0
 10
11.481114686
 20
10.82926896
 30
0.0
 10
11.5312904199
 20
10.8309636308
 30
0.0
 10
11.5917611596
 20
10.8316334507
 30
0.0
 10
11.6522280053
 20
10.8309406216
 30
0.0
 10
11.7023955229
 20
10.829226795
 30
0.0
 10
11.7421732465
 20
10.827171851
 30
0.0
 10
11.7716207692
 20
10.8253015496
 30
0.0
 10
11.8007246586
 20
10.8231007613
 30
0.0
 10
11.8294295278
 20
10.8205736714
 30
0.0
 10
11.8576806973
 20
10.8177251281
 30
0.0
 10
11.8854243707
 20
10.8145605827
 30
0.0
 10
11.9126077174
 20
10.8110860936
 30
0.0
 10
11.9391789812
 20
10.8073083093
 30
0.0
 10
11.9650875843
 20
10.803234469
 30
0.0
 10
11.9902842252
 20
10.7988723811
 30
0.0
 10
12.0147209704
 20
10.7942304049
 30
0.0
 10
12.0383513465
 20
10.7893174368
 30
0.0
 10
12.061130435
 20
10.7841428891
 30
0.0
 10
12.0830149705
 20
10.7787166828
 30
0.0
 10
12.103963428
 20
10.7730492238
 30
0.0
 10
12.1239361134
 20
10.7671513719
 30
0.0
 10
12.1428952145
 20
10.7610344216
 30
0.0
 10
12.1608050013
 20
10.7547100559
 30
0.0
 10
12.1776315373
 20
10.7481903571
 30
0.0
 10
12.1909122312
 20
10.7425250217
 30
0.0
 10
12.200959867
 20
10.7378943348
 30
0.0
 10
12.2080948043
 20
10.7344310483
 30
0.0
 10
12.2149360964
 20
10.7309283504
 30
0.0
 10
12.2214805233
 20
10.7273878532
 30
0.0
 10
12.2277249839
 20
10.7238112027
 30
0.0
 10
12.2336665666
 20
10.7202001336
 30
0.0
 10
12.2393024469
 20
10.7165562627
 30
0.0
 10
12.2446300067
 20
10.7128813357
 30
0.0
 10
12.2496467424
 20
10.7091770279
 30
0.0
 10
12.2543502849
 20
10.7054450065
 30
0.0
 10
12.2587384703
 20
10.7016870196
 30
0.0
 10
12.2628091787
 20
10.6979046716
 30
0.0
 10
12.2665605272
 20
10.6940996939
 30
0.0
 10
12.2699906955
 20
10.6902737145
 30
0.0
 10
12.2730979728
 20
10.686428364
 30
0.0
 10
12.2758808442
 20
10.6825653277
 30
0.0
 10
12.2783377232
 20
10.6786862079
 30
0.0
 10
12.2804673124
 20
10.6747926467
 30
0.0
 10
12.2822681407
 20
10.6708866621
 30
0.0
 10
12.2832611177
 20
10.6682423435
 30
0.0
 10
12.2836993069
 20
10.6669221139
 30
0.0
  0
SPLINE
  5
3A6
100
AcDbEntity
  8
0
100
AcDbSpline
 62
7
  6
CONTINUOUS
 70
0
 71
3
 72
95
 73
91
 74
0
 42
0.0000001
 43
0.0000001
 44
0.0000000001
 40
0.0
 40
0.0
 40
0.0
 40
0.0
 40
0.0041938879
 40
0.0085762033
 40
0.0131520167
 40
0.0179255793
 40
0.0229004023
 40
0.0280791264
 40
0.0334634929
 40
0.0390546415
 40
0.044853078
 40
0.0508588368
 40
0.0570714531
 40
0.0634900126
 40
0.0701132584
 40
0.076939514
 40
0.0911924949
 40
0.106230288
 40
0.1220295269
 40
0.138563238
 40
0.1558012639
 40
0.1737106117
 40
0.1922557432
 40
0.2113988261
 40
0.2310999663
 40
0.2513174121
 40
0.2720077427
 40
0.293126044
 40
0.3146260761
 40
0.3364604333
 40
0.3585807055
 40
0.3809376349
 40
0.4034812677
 40
0.426161104
 40
0.4489262468
 40
0.4717255504
 40
0.4945077703
 40
0.517221713
 40
0.539816383
 40
0.5622411311
 40
0.5844458029
 40
0.6063808895
 40
0.6279976829
 40
0.6492484288
 40
0.670086482
 40
0.6904664667
 40
0.7103444417
 40
0.7296780748
 40
0.7484268321
 40
0.7665521768
 40
0.7840177824
 40
0.8007897751
 40
0.8168370124
 40
0.8321314115
 40
0.846648349
 40
0.8603671582
 40
0.8669223476
 40
0.8732723816
 40
0.8794161357
 40
0.8853528166
 40
0.8910821382
 40
0.8966042662
 40
0.9019199237
 40
0.9070304746
 40
0.9119379228
 40
0.9166451254
 40
0.9211557629
 40
0.9254745768
 40
0.9296074391
 40
0.9335615193
 40
0.9373455021
 40
0.9409696766
 40
0.9444462211
 40
0.947789258
 40
0.9510150301
 40
0.9541419011
 40
0.9571902577
 40
0.9601823088
 40
0.9631416503
 40
0.966092753
 40
0.9690603058
 40
0.97206856
 40
0.9751407056
 40
0.9782983884
 40
0.9815613017
 40
0.9849470968
 40
0.9884713591
 40
0.9921476691
 40
0.9959874511
 40
1.0
 40
1.0
 40
1.0
 40
1.0
 10
11.0841384081
 20
10.6866950389
 30
0.0
 10
11.0852748014
 20
10.6877927106
 30
0.0
 10
11.0876551561
 20
10.6899794497
 30
0.0
 10
11.0914515583
 20
10.6931654983
 30
0.0
 10
11.0955485134
 20
10.696326244
 30
0.0
 10
11.0999433555
 20
10.6994596874
 30
0.0
 10
11.104633533
 20
10.7025641081
 30
0.0
 10
11.1096163283
 20
10.7056376997
 30
0.0
 10
11.1148887775
 20
10.7086787314
 30
0.0
 10
11.1204477755
 20
10.7116853128
 30
0.0
 10
11.1262899859
 20
10.7146557238
 30
0.0
 10
11.132411948
 20
10.7175881591
 30
0.0
 10
11.1388100098
 20
10.7204808766
 30
0.0
 10
11.145480342
 20
10.7233321621
 30
0.0
 10
11.1524189762
 20
10.7261402779
 30
0.0
 10
11.1621633328
 20
10.7298785425
 30
0.0
 10
11.1749922939
 20
10.7344197839
 30
0.0
 10
11.1911736743
 20
10.7395956172
 30
0.0
 10
11.2083171729
 20
10.7445607692
 30
0.0
 10
11.2263816545
 20
10.7493032147
 30
0.0
 10
11.2453239327
 20
10.7538114437
 30
0.0
 10
11.2650985802
 20
10.7580745133
 30
0.0
 10
11.2856581374
 20
10.7620820744
 30
0.0
 10
11.3069532114
 20
10.7658244051
 30
0.0
 10
11.3289326127
 20
10.7692924274
 30
0.0
 10
11.3515434846
 20
10.7724777304
 30
0.0
 10
11.3747314355
 20
10.7753725905
 30
0.0
 10
11.3984406715
 20
10.7779699897
 30
0.0
 10
11.422614132
 20
10.7802636305
 30
0.0
 10
11.4471936282
 20
10.7822479578
 30
0.0
 10
11.4721199868
 20
10.7839181669
 30
0.0
 10
11.4973331952
 20
10.7852702136
 30
0.0
 10
11.5227725474
 20
10.7863008236
 30
0.0
 10
11.5483767903
 20
10.7870075007
 30
0.0
 10
11.5740842706
 20
10.7873885315
 30
0.0
 10
11.5998330847
 20
10.7874429928
 30
0.0
 10
11.625561229
 20
10.7871707557
 30
0.0
 10
11.651206751
 20
10.7865724802
 30
0.0
 10
11.676707898
 20
10.785649615
 30
0.0
 10
11.7020032667
 20
10.7844043941
 30
0.0
 10
11.7270319503
 20
10.7828398311
 30
0.0
 10
11.7517336877
 20
10.7809597125
 30
0.0
 10
11.7760490112
 20
10.7787685948
 30
0.0
 10
11.7999193908
 20
10.7762717878
 30
0.0
 10
11.8232873753
 20
10.7734753421
 30
0.0
 10
11.846096732
 20
10.7703860353
 30
0.0
 10
11.8682925829
 20
10.7670113562
 30
0.0
 10
11.8898215424
 20
10.7633594861
 30
0.0
 10
11.9106318521
 20
10.7594392841
 30
0.0
 10
11.9306735122
 20
10.7552602654
 30
0.0
 10
11.949898404
 20
10.7508325729
 30
0.0
 10
11.9682604213
 20
10.7461669534
 30
0.0
 10
11.9857155641
 20
10.7412747286
 30
0.0
 10
12.0022221625
 20
10.736167759
 30
0.0
 10
12.0177406539
 20
10.7308584123
 30
0.0
 10
12.0299979391
 20
10.7262081697
 30
0.0
 10
12.039271981
 20
10.7223865187
 30
0.0
 10
12.0458520002
 20
10.7195211998
 30
0.0
 10
12.052158453
 20
10.7166150677
 30
0.0
 10
12.0581875638
 20
10.7136697643
 30
0.0
 10
12.0639357525
 20
10.7106871077
 30
0.0
 10
12.069399594
 20
10.7076688486
 30
0.0
 10
12.0745758363
 20
10.7046167612
 30
0.0
 10
12.0794614362
 20
10.7015326909
 30
0.0
 10
12.0840534686
 20
10.6984183665
 30
0.0
 10
12.0883492669
 20
10.6952756719
 30
0.0
 10
12.0923462604
 20
10.6921063352
 30
0.0
 10
12.0960421116
 20
10.6889121832
 30
0.0
 10
12.0994346312
 20
10.6856949839
 30
0.0
 10
12.1025217454
 20
10.6824564483
 30
0.0
 10
12.1053016233
 20
10.6791983712
 30
0.0
 10
12.1077724034
 20
10.6759223802
 30
0.0
 10
12.1099324959
 20
10.6726302591
 30
0.0
 10
12.1117802428
 20
10.6693236904
 30
0.0
 10
12.113314136
 20
10.666004501
 30
0.0
 10
12.1145327696
 20
10.6626746361
 30
0.0
 10
12.115434731
 20
10.6593361888
 30
0.0
 10
12.1160190425
 20
10.6559915423
 30
0.0
 10
12.1162847618
 20
10.6526432367
 30
0.0
 10
12.1162316221
 20
10.6492940138
 30
0.0
 10
12.1158596407
 20
10.6459466308
 30
0.0
 10
12.1151693436
 20
10.6426037786
 30
0.0
 10
12.114161706
 20
10.6392679303
 30
0.0
 10
12.1128378067
 20
10.6359414076
 30
0.0
 10
12.1111991659
 20
10.6326262193
 30
0.0
 10
12.1092471487
 20
10.6293242918
 30
0.0
 10
12.1069833226
 20
10.6260373321
 30
0.0
 10
12.1044092227
 20
10.6227670445
 30
0.0
 10
12.1015267656
 20
10.619515353
 30
0.0
 10
12.0994478427
 20
10.6174087016
 30
0.0
 10
12.0983605858
 20
10.616358492
 30
0.0
  0
SPLINE
  5
3A7
100
AcDbEntity
  8
0
100
AcDbSpline
 62
7
  6
CONTINUOUS
 70
0
 71
3
 72
80
 73
76
 74
0
 42
0.0000001
 43
0.0000001
 44
0.0000000001
 40
0.0
 40
0.0
 40
0.0
 40
0.0
 40
0.0039801219
 40
0.0081240777
 40
0.0124360125
 40
0.0169194264
 40
0.0215772989
 40
0.0264120313
 40
0.0314253195
 40
0.0366183128
 40
0.0419917422
 40
0.0475458754
 40
0.0591951028
 40
0.071562147
 40
0.0846378605
 40
0.0984092279
 40
0.1128598627
 40
0.127970449
 40
0.1437190996
 40
0.1600816287
 40
0.1770317581
 40
0.1945413223
 40
0.2125804635
 40
0.2311177818
 40
0.2501204581
 40
0.2695543829
 40
0.289384299
 40
0.309573914
 40
0.3300860003
 40
0.3719238249
 40
0.4145862536
 40
0.4577526984
 40
0.5010976394
 40
0.5442938121
 40
0.5870154073
 40
0.6289412535
 40
0.6495079059
 40
0.6697589486
 40
0.6896569946
 40
0.7091655746
 40
0.7282492346
 40
0.7468736466
 40
0.7650057466
 40
0.7826138689
 40
0.7996678638
 40
0.816139245
 40
0.8320013757
 40
0.8472296764
 40
0.8618018225
 40
0.8756980067
 40
0.8889012792
 40
0.9013979774
 40
0.9131782083
 40
0.9187980664
 40
0.9242371984
 40
0.9294957287
 40
0.934574253
 40
0.9394737651
 40
0.9441957574
 40
0.9487423226
 40
0.9531161139
 40
0.9573205376
 40
0.9613597797
 40
0.9652388802
 40
0.968963937
 40
0.9725421137
 40
0.9759818247
 40
0.9792928598
 40
0.9824864217
 40
0.9855752858
 40
0.9885737688
 40
0.9914976964
 40
0.9943643102
 40
0.9971919974
 40
1.0
 40
1.0
 40
1.0
 40
1.0
 10
11.1276050729
 20
10.6402139507
 30
0.0
 10
11.1285557258
 20
10.641132211
 30
0.0
 10
11.1305393396
 20
10.6429622524
 30
0.0
 10
11.1336887309
 20
10.645635191
 30
0.0
 10
11.1370694085
 20
10.6482890046
 30
0.0
 10
11.1406795181
 20
10.6509222006
 30
0.0
 10
11.144517246
 20
10.6535335842
 30
0.0
 10
11.1485807488
 20
10.6561218621
 30
0.0
 10
11.152868004
 20
10.6586858126
 30
0.0
 10
11.1573768643
 20
10.6612241542
 30
0.0
 10
11.1621050946
 20
10.6637355926
 30
0.0
 10
11.1688056045
 20
10.6671002554
 30
0.0
 10
11.1777227933
 20
10.6712196674
 30
0.0
 10
11.1890940864
 20
10.6759605341
 30
0.0
 10
11.2012775272
 20
10.6805649447
 30
0.0
 10
11.2142486516
 20
10.6850235735
 30
0.0
 10
11.2279815799
 20
10.6893273909
 30
0.0
 10
11.2424487401
 20
10.6934676539
 30
0.0
 10
11.2576210544
 20
10.6974359358
 30
0.0
 10
11.2734679756
 20
10.7012241454
 30
0.0
 10
11.2899575534
 20
10.7048245675
 30
0.0
 10
11.3070565067
 20
10.7082298757
 30
0.0
 10
11.3247303084
 20
10.7114331333
 30
0.0
 10
11.3429432573
 20
10.7144278097
 30
0.0
 10
11.3616585435
 20
10.7172078052
 30
0.0
 10
11.3808383285
 20
10.7197674719
 30
0.0
 10
11.4004438186
 20
10.7221015926
 30
0.0
 10
11.4204353987
 20
10.7242054443
 30
0.0
 10
11.4477307516
 20
10.7267141511
 30
0.0
 10
11.4825160449
 20
10.7292349915
 30
0.0
 10
11.5248667906
 20
10.7312679244
 30
0.0
 10
11.5677541231
 20
10.7323113764
 30
0.0
 10
11.6108312643
 20
10.7323568146
 30
0.0
 10
11.653750222
 20
10.7314038609
 30
0.0
 10
11.6961639608
 20
10.7294603125
 30
0.0
 10
11.7310216639
 20
10.7270133234
 30
0.0
 10
11.7583903247
 20
10.7245628847
 30
0.0
 10
11.7784477774
 20
10.7225013807
 30
0.0
 10
11.7981264363
 20
10.7202087926
 30
0.0
 10
11.8173865372
 20
10.7176897604
 30
0.0
 10
11.8361891234
 20
10.7149494188
 30
0.0
 10
11.8544961784
 20
10.7119933356
 30
0.0
 10
11.8722706986
 20
10.7088275293
 30
0.0
 10
11.8894767768
 20
10.7054584549
 30
0.0
 10
11.9060796667
 20
10.7018929754
 30
0.0
 10
11.9220458544
 20
10.6981383475
 30
0.0
 10
11.9373431421
 20
10.6942022153
 30
0.0
 10
11.9519407231
 20
10.6900926057
 30
0.0
 10
11.9658092483
 20
10.685817885
 30
0.0
 10
11.9789208625
 20
10.6813867413
 30
0.0
 10
11.9912493835
 20
10.6768081508
 30
0.0
 10
12.002770046
 20
10.6720913953
 30
0.0
 10
12.011815324
 20
10.6679916634
 30
0.0
 10
12.0186205701
 20
10.6646419529
 30
0.0
 10
12.0234279822
 20
10.6621406088
 30
0.0
 10
12.0280168712
 20
10.6596119061
 30
0.0
 10
12.0323849716
 20
10.6570571307
 30
0.0
 10
12.0365300944
 20
10.6544775399
 30
0.0
 10
12.040450159
 20
10.651874383
 30
0.0
 10
12.0441432458
 20
10.6492489922
 30
0.0
 10
12.0476074857
 20
10.6466025885
 30
0.0
 10
12.0508411711
 20
10.6439364742
 30
0.0
 10
12.0538427076
 20
10.6412519358
 30
0.0
 10
12.0566105432
 20
10.6385501779
 30
0.0
 10
12.059143327
 20
10.6358325118
 30
0.0
 10
12.0614397209
 20
10.6331001414
 30
0.0
 10
12.0634984793
 20
10.6303542898
 30
0.0
 10
12.0653185078
 20
10.6275962349
 30
0.0
 10
12.0668986353
 20
10.6248271676
 30
0.0
 10
12.0682378779
 20
10.6220484136
 30
0.0
 10
12.0693352734
 20
10.6192613137
 30
0.0
 10
12.07018985
 20
10.6164673092
 30
0.0
 10
12.0708009339
 20
10.6136679207
 30
0.0
 10
12.0711678336
 20
10.6108650919
 30
0.0
 10
12.0712494789
 20
10.6089925827
 30
0.0
 10
12.0712494815
 20
10.6080601007
 30
0.0
  0
SPLINE
  5
3A8
100
AcDbEntity
  8
0
100
AcDbSpline
 62
7
  6
CONTINUOUS
 70
0
 71
3
 72
42
 73
38
 74
0
 42
0.0000001
 43
0.0000001
 44
0.0000000001
 40
0.0
 40
0.0
 40
0.0
 40
0.0
 40
0.0299419634
 40
0.0449235299
 40
0.0599142017
 40
0.0899287029
 40
0.1200139772
 40
0.1350926626
 40
0.1501967046
 40
0.1804840506
 40
0.2108978877
 40
0.2414513551
 40
0.2721543675
 40
0.3030134354
 40
0.3340315696
 40
0.3652082675
 40
0.3965395775
 40
0.4280182343
 40
0.4596338596
 40
0.4913732188
 40
0.5232205284
 40
0.5551578047
 40
0.5871652463
 40
0.6192216448
 40
0.6513048151
 40
0.6833920402
 40
0.7154605222
 40
0.747487836
 40
0.7794523759
 40
0.8113337934
 40
0.8431134117
 40
0.8747746318
 40
0.9063032512
 40
0.9376879208
 40
0.9533258
 40
0.9689252634
 40
1.0
 40
1.0
 40
1.0
 40
1.0
 10
12.3722191851
 20
6.219845224
 30
0.0
 10
12.3687187634
 20
6.2164640968
 30
0.0
 10
12.3632617952
 20
6.2115972873
 30
0.0
 10
12.3556194342
 20
6.2055586365
 30
0.0
 10
12.3477337023
 20
6.1998204782
 30
0.0
 10
12.3374441189
 20
6.1932312135
 30
0.0
 10
12.3266542498
 20
6.1874675138
 30
0.0
 10
12.317755404
 20
6.1833672122
 30
0.0
 10
12.3086727342
 20
6.1796053967
 30
0.0
 10
12.2970200806
 20
6.175560382
 30
0.0
 10
12.2826599515
 20
6.1717905296
 30
0.0
 10
12.267986482
 20
6.1691198795
 30
0.0
 10
12.2530809906
 20
6.1675631651
 30
0.0
 10
12.2380253562
 20
6.1671286942
 30
0.0
 10
12.2229024192
 20
6.167818678
 30
0.0
 10
12.2077952987
 20
6.1696291307
 30
0.0
 10
12.1927870017
 20
6.1725499268
 30
0.0
 10
12.1779599554
 20
6.1765648561
 30
0.0
 10
12.1633955658
 20
6.1816517204
 30
0.0
 10
12.1491737748
 20
6.1877824582
 30
0.0
 10
12.1353726291
 20
6.1949233011
 30
0.0
 10
12.1220678568
 20
6.20303496
 30
0.0
 10
12.109332458
 20
6.2120728404
 30
0.0
 10
12.0972363091
 20
6.2219872864
 30
0.0
 10
12.0858457843
 20
6.232723851
 30
0.0
 10
12.075223395
 20
6.2442235928
 30
0.0
 10
12.0654274504
 20
6.2564233959
 30
0.0
 10
12.056511741
 20
6.2692563142
 30
0.0
 10
12.0485252457
 20
6.28265193
 30
0.0
 10
12.0415118646
 20
6.2965367523
 30
0.0
 10
12.0355101812
 20
6.3108345566
 30
0.0
 10
12.0305532391
 20
6.325467011
 30
0.0
 10
12.0266684218
 20
6.3403533148
 30
0.0
 10
12.0243393875
 20
6.3529189691
 30
0.0
 10
12.0230328683
 20
6.36301532
 30
0.0
 10
12.0221004377
 20
6.3731020095
 30
0.0
 10
12.0218181067
 20
6.3806921754
 30
0.0
 10
12.0218181067
 20
6.3857430156
 30
0.0
  0
SPLINE
  5
3A9
100
AcDbEntity
  8
0
100
AcDbSpline
 62
7
  6
CONTINUOUS
 70
0
 71
3
 72
15
 73
11
 74
0
 42
0.0000001
 43
0.0000001
 44
0.0000000001
 40
0.0
 40
0.0
 40
0.0
 40
0.0
 40
0.1233171261
 40
0.2468171865
 40
0.3706749939
 40
0.4950495802
 40
0.6200773232
 40
0.7458671315
 40
0.872492731
 40
1.0
 40
1.0
 40
1.0
 40
1.0
 10
10.0129881739
 20
9.1145027647
 30
0.0
 10
10.0105646216
 20
9.1121618132
 30
0.0
 10
10.0054574498
 20
9.1077338845
 30
0.0
 10
9.9971220422
 20
9.1019477819
 30
0.0
 10
9.9881903703
 20
9.0970701743
 30
0.0
 10
9.9787538576
 20
9.0931511946
 30
0.0
 10
9.9689076927
 20
9.0902297509
 30
0.0
 10
9.9587510614
 20
9.0883350536
 30
0.0
 10
9.9483876397
 20
9.0874855312
 30
0.0
 10
9.9414312088
 20
9.087621219
 30
0.0
 10
9.9379555461
 20
9.087862257
 30
0.0
  0
SPLINE
  5
3AA
100
AcDbEntity
  8
0
100
AcDbSpline
 62
7
  6
CONTINUOUS
 70
0
 71
3
 72
15
 73
11
 74
0
 42
0.0000001
 43
0.0000001
 44
0.0000000001
 40
0.0
 40
0.0
 40
0.0
 40
0.0
 40
0.1233171261
 40
0.2468171865
 40
0.3706749939
 40
0.4950495802
 40
0.6200773232
 40
0.7458671315
 40
0.872492731
 40
1.0
 40
1.0
 40
1.0
 40
1.0
 10
12.0646148205
 20
8.9722219735
 30
0.0
 10
12.0621912682
 20
8.969881022
 30
0.0
 10
12.0570840964
 20
8.9654530933
 30
0.0
 10
12.0487486888
 20
8.9596669907
 30
0.0
 10
12.0398170169
 20
8.9547893831
 30
0.0
 10
12.0303805042
 20
8.9508704034
 30
0.0
 10
12.0205343393
 20
8.9479489597
 30
0.0
 10
12.010377708
 20
8.9460542624
 30
0.0
 10
12.0000142863
 20
8.94520474
 30
0.0
 10
11.9930578554
 20
8.9453404278
 30
0.0
 10
11.9895821927
 20
8.9455814659
 30
0.0
  0
SPLINE
  5
3AB
100
AcDbEntity
  8
0
100
AcDbSpline
 62
7
  6
CONTINUOUS
 70
0
 71
3
 72
23
 73
19
 74
0
 42
0.0000001
 43
0.0000001
 44
0.0000000001
 40
0.0
 40
0.0
 40
0.0
 40
0.0
 40
0.073691996
 40
0.1431228672
 40
0.208647755
 40
0.2707216919
 40
0.3298940038
 40
0.3868092557
 40
0.4422024918
 40
0.4968771699
 40
0.5516714933
 40
0.6074177353
 40
0.6649027506
 40
0.724837674
 40
0.7878407767
 40
0.8544319814
 40
0.9250379936
 40
1.0
 40
1.0
 40
1.0
 40
1.0
 10
11.0841384081
 20
10.6866950389
 30
0.0
 10
11.0826741553
 20
10.6852806792
 30
0.0
 10
11.0799175716
 20
10.6824408704
 30
0.0
 10
11.0762196907
 20
10.6780117412
 30
0.0
 10
11.0730914515
 20
10.6735485051
 30
0.0
 10
11.0705377191
 20
10.6690553246
 30
0.0
 10
11.0685630066
 20
10.6645362012
 30
0.0
 10
11.0671721297
 20
10.6599960221
 30
0.0
 10
11.0663692166
 20
10.6554410464
 30
0.0
 10
11.06615735
 20
10.6508788405
 30
0.0
 10
11.0665372425
 20
10.6463178487
 30
0.0
 10
11.0675075003
 20
10.6417663608
 30
0.0
 10
11.0690646517
 20
10.6372315983
 30
0.0
 10
11.0712042608
 20
10.6327193578
 30
0.0
 10
11.073921645
 20
10.6282343335
 30
0.0
 10
11.0772121076
 20
10.6237803723
 30
0.0
 10
11.081070927
 20
10.6193614968
 30
0.0
 10
11.0839307114
 20
10.6165290766
 30
0.0
 10
11.0854466945
 20
10.615118287
 30
0.0
  0
SPLINE
  5
3AC
100
AcDbEntity
  8
0
100
AcDbSpline
 62
7
  6
CONTINUOUS
 70
0
 71
3
 72
15
 73
11
 74
0
 42
0.0000001
 43
0.0000001
 44
0.0000000001
 40
0.0
 40
0.0
 40
0.0
 40
0.0
 40
0.1233171261
 40
0.2468171865
 40
0.3706749939
 40
0.4950495802
 40
0.6200773232
 40
0.7458671315
 40
0.872492731
 40
1.0
 40
1.0
 40
1.0
 40
1.0
 10
12.0646148205
 20
7.2209983817
 30
0.0
 10
12.0621912682
 20
7.2186574302
 30
0.0
 10
12.0570840964
 20
7.2142295015
 30
0.0
 10
12.0487486888
 20
7.2084433989
 30
0.0
 10
12.0398170169
 20
7.2035657913
 30
0.0
 10
12.0303805042
 20
7.1996468116
 30
0.0
 10
12.0205343393
 20
7.1967253679
 30
0.0
 10
12.010377708
 20
7.1948306705
 30
0.0
 10
12.0000142863
 20
7.1939811481
 30
0.0
 10
11.9930578554
 20
7.194116836
 30
0.0
 10
11.9895821927
 20
7.194357874
 30
0.0
  0
SPLINE
  5
3AD
100
AcDbEntity
  8
0
100
AcDbSpline
 62
7
  6
CONTINUOUS
 70
0
 71
3
 72
15
 73
11
 74
0
 42
0.0000001
 43
0.0000001
 44
0.0000000001
 40
0.0
 40
0.0
 40
0.0
 40
0.0
 40
0.1233171261
 40
0.2468171865
 40
0.3706749939
 40
0.4950495802
 40
0.6200773232
 40
0.7458671315
 40
0.872492731
 40
1.0
 40
1.0
 40
1.0
 40
1.0
 10
10.0129881739
 20
7.3632791729
 30
0.0
 10
10.0105646216
 20
7.3609382214
 30
0.0
 10
10.0054574498
 20
7.3565102927
 30
0.0
 10
9.9971220422
 20
7.3507241901
 30
0.0
 10
9.9881903703
 20
7.3458465825
 30
0.0
 10
9.9787538576
 20
7.3419276028
 30
0.0
 10
9.9689076927
 20
7.3390061591
 30
0.0
 10
9.9587510614
 20
7.3371114617
 30
0.0
 10
9.9483876397
 20
7.3362619393
 30
0.0
 10
9.9414312088
 20
7.3363976272
 30
0.0
 10
9.9379555461
 20
7.3366386652
 30
0.0
  0
SPLINE
  5
3AE
100
AcDbEntity
  8
0
100
AcDbSpline
 62
7
  6
CONTINUOUS
 70
0
 71
3
 72
18
 73
14
 74
0
 42
0.0000001
 43
0.0000001
 44
0.0000000001
 40
0.0
 40
0.0
 40
0.0
 40
0.0
 40
0.148041375
 40
0.2876686651
 40
0.4195636749
 40
0.4828952688
 40
0.5446365851
 40
0.6638664642
 40
0.7785245007
 40
0.8345987252
 40
0.8900707962
 40
0.9451373676
 40
1.0
 40
1.0
 40
1.0
 40
1.0
 10
11.1276050729
 20
10.6402139507
 30
0.0
 10
11.1262893919
 20
10.6389431004
 30
0.0
 10
11.1238099096
 20
10.6363915464
 30
0.0
 10
11.1204761778
 20
10.6324150712
 30
0.0
 10
11.118085009
 20
10.6290312681
 30
0.0
 10
11.1164382217
 20
10.6263152439
 30
0.0
 10
11.1150000365
 20
10.6236600761
 30
0.0
 10
11.1135054213
 20
10.6203190856
 30
0.0
 10
11.1124141025
 20
10.6168973265
 30
0.0
 10
11.1118083584
 20
10.6141672127
 30
0.0
 10
11.1114859768
 20
10.6121325196
 30
0.0
 10
11.1112925241
 20
10.6100966931
 30
0.0
 10
11.1112495107
 20
10.6087379942
 30
0.0
 10
11.1112495125
 20
10.6080601007
 30
0.0
  0
SPLINE
  5
3AF
100
AcDbEntity
  8
0
100
AcDbSpline
 62
7
  6
CONTINUOUS
 70
0
 71
3
 72
18
 73
14
 74
0
 42
0.0000001
 43
0.0000001
 44
0.0000000001
 40
0.0
 40
0.0
 40
0.0
 40
0.0
 40
0.0539806541
 40
0.1081920581
 40
0.1628619178
 40
0.2182116439
 40
0.3317375839
 40
0.450390705
 40
0.5120900723
 40
0.5755573741
 40
0.7082858592
 40
0.849532992
 40
1.0
 40
1.0
 40
1.0
 40
1.0
 10
12.872666238
 20
7.8183429993
 30
0.0
 10
12.8733414634
 20
7.8182961739
 30
0.0
 10
12.874698428
 20
7.8182481704
 30
0.0
 10
12.8767408966
 20
7.8183137889
 30
0.0
 10
12.8787916581
 20
7.8185169797
 30
0.0
 10
12.8815587089
 20
7.8189747295
 30
0.0
 10
12.8850523191
 20
7.819903991
 30
0.0
 10
12.8884848729
 20
7.8212656881
 30
0.0
 10
12.8912302173
 20
7.8226132808
 30
0.0
 10
12.8940587741
 20
7.8241829424
 30
0.0
 10
12.8976059673
 20
7.8265009035
 30
0.0
 10
12.9018054419
 20
7.8297783268
 30
0.0
 10
12.9045175998
 20
7.8322376865
 30
0.0
 10
12.9058745887
 20
7.8335484372
 30
0.0
  0
SPLINE
  5
3B0
100
AcDbEntity
  8
0
100
AcDbSpline
 62
7
  6
CONTINUOUS
 70
0
 71
3
 72
39
 73
35
 74
0
 42
0.0000001
 43
0.0000001
 44
0.0000000001
 40
0.0
 40
0.0
 40
0.0
 40
0.0
 40
0.029961613
 40
0.0599660481
 40
0.0900256665
 40
0.1201520737
 40
0.1503559891
 40
0.1806471262
 40
0.2110340839
 40
0.2415242573
 40
0.2721237605
 40
0.3028373621
 40
0.3336684311
 40
0.3646188936
 40
0.3956892205
 40
0.4268784213
 40
0.4581840498
 40
0.4896022211
 40
0.5211276389
 40
0.5527536597
 40
0.5844723617
 40
0.6162746256
 40
0.6481502294
 40
0.6800879528
 40
0.7120757127
 40
0.7441007119
 40
0.7761495886
 40
0.8082085874
 40
0.840263727
 40
0.8723009447
 40
0.9043065468
 40
0.9362664266
 40
0.9681690304
 40
1.0
 40
1.0
 40
1.0
 40
1.0
 10
11.0930415039
 20
8.7015535804
 30
0.0
 10
11.0898911697
 20
8.6992216004
 30
0.0
 10
11.0834456131
 20
8.6947406363
 30
0.0
 10
11.0733894008
 20
8.6885986297
 30
0.0
 10
11.0629695006
 20
8.6830493219
 30
0.0
 10
11.0522186044
 20
8.67810966
 30
0.0
 10
11.0411696932
 20
8.6737944975
 30
0.0
 10
11.0298566918
 20
8.6701170904
 30
0.0
 10
11.0183142279
 20
8.6670889049
 30
0.0
 10
11.0065776126
 20
8.6647196672
 30
0.0
 10
10.9946827718
 20
8.6630173209
 30
0.0
 10
10.9826661929
 20
8.6619880009
 30
0.0
 10
10.9705648665
 20
8.6616359917
 30
0.0
 10
10.9584162208
 20
8.6619636591
 30
0.0
 10
10.9462580467
 20
8.6629714469
 30
0.0
 10
10.934128422
 20
8.6646578309
 30
0.0
 10
10.9220656288
 20
8.6670192781
 30
0.0
 10
10.9101080643
 20
8.6700502035
 30
0.0
 10
10.8982941305
 20
8.6737428985
 30
0.0
 10
10.8866621269
 20
8.6780875276
 30
0.0
 10
10.8752501295
 20
8.6830720993
 30
0.0
 10
10.8640958607
 20
8.6886824418
 30
0.0
 10
10.8532365536
 20
8.6949021931
 30
0.0
 10
10.8427087901
 20
8.7017127753
 30
0.0
 10
10.8325483451
 20
8.7090934149
 30
0.0
 10
10.8227900304
 20
8.7170211837
 30
0.0
 10
10.8134675258
 20
8.7254710356
 30
0.0
 10
10.8046132097
 20
8.734415867
 30
0.0
 10
10.7962580023
 20
8.7438265883
 30
0.0
 10
10.7884311263
 20
8.7536722183
 30
0.0
 10
10.7811601268
 20
8.7639199419
 30
0.0
 10
10.7744702782
 20
8.7745355283
 30
0.0
 10
10.7683854183
 20
8.785482563
 30
0.0
 10
10.7647411568
 20
8.7929870912
 30
0.0
 10
10.7630270016
 20
8.796781986
 30
0.0
  0
SPLINE
  5
3B1
100
AcDbEntity
  8
0
100
AcDbSpline
 62
7
  6
CONTINUOUS
 70
0
 71
3
 72
23
 73
19
 74
0
 42
0.0000001
 43
0.0000001
 44
0.0000000001
 40
0.0
 40
0.0
 40
0.0
 40
0.0
 40
0.0742733752
 40
0.1440764224
 40
0.2097804501
 40
0.2718510305
 40
0.3308565126
 40
0.3874725399
 40
0.4424738592
 40
0.4967117774
 40
0.5510768828
 40
0.6064531312
 40
0.6636733863
 40
0.7234858568
 40
0.7865348961
 40
0.8533604808
 40
0.9244029519
 40
1.0
 40
1.0
 40
1.0
 40
1.0
 10
12.8804442017
 20
7.7905396551
 30
0.0
 10
12.8817018123
 20
7.7889933661
 30
0.0
 10
12.884238775
 20
7.7860708579
 30
0.0
 10
12.8882416067
 20
7.7821043236
 30
0.0
 10
12.8923164275
 20
7.7787008016
 30
0.0
 10
12.8964598529
 20
7.7758652205
 30
0.0
 10
12.9006686017
 20
7.7736025776
 30
0.0
 10
12.9049383857
 20
7.7719180151
 30
0.0
 10
12.9092635435
 20
7.7708164278
 30
0.0
 10
12.9136367448
 20
7.7703016114
 30
0.0
 10
12.9180494994
 20
7.7703749709
 30
0.0
 10
12.9224933232
 20
7.7710355821
 30
0.0
 10
12.9269608442
 20
7.7722801345
 30
0.0
 10
12.9314461505
 20
7.7741044389
 30
0.0
 10
12.9359446721
 20
7.7765038359
 30
0.0
 10
12.9404526051
 20
7.7794740817
 30
0.0
 10
12.9449658512
 20
7.7830106628
 30
0.0
 10
12.9478821322
 20
7.785657946
 30
0.0
 10
12.9493412535
 20
7.787067349
 30
0.0
  0
SPLINE
  5
3B2
100
AcDbEntity
  8
0
100
AcDbSpline
 62
7
  6
CONTINUOUS
 70
0
 71
3
 72
15
 73
11
 74
0
 42
0.0000001
 43
0.0000001
 44
0.0000000001
 40
0.0
 40
0.0
 40
0.0
 40
0.0
 40
0.109275723
 40
0.2220772047
 40
0.3389650252
 40
0.4604364507
 40
0.5869275492
 40
0.7188169943
 40
0.8564220418
 40
1.0
 40
1.0
 40
1.0
 40
1.0
 10
12.9168268792
 20
7.6025115642
 30
0.0
 10
12.9181857157
 20
7.6028920795
 30
0.0
 10
12.9209163898
 20
7.60377968
 30
0.0
 10
12.9249666614
 20
7.6054493646
 30
0.0
 10
12.929027904
 20
7.6074748313
 30
0.0
 10
12.9330977875
 20
7.6098546511
 30
0.0
 10
12.9371746336
 20
7.6125873249
 30
0.0
 10
12.9412565772
 20
7.6156713374
 30
0.0
 10
12.9453415353
 20
7.6191047828
 30
0.0
 10
12.9480077097
 20
7.6215718444
 30
0.0
 10
12.9493412535
 20
7.6228599488
 30
0.0
  0
SPLINE
  5
3B3
100
AcDbEntity
  8
0
100
AcDbSpline
 62
7
  6
CONTINUOUS
 70
0
 71
3
 72
21
 73
17
 74
0
 42
0.0000001
 43
0.0000001
 44
0.0000000001
 40
0.0
 40
0.0
 40
0.0
 40
0.0
 40
0.1273176984
 40
0.2537999461
 40
0.3167619614
 40
0.3795355204
 40
0.4421314992
 40
0.5045621453
 40
0.5668413456
 40
0.6289845231
 40
0.6910084433
 40
0.7529310869
 40
0.8147714401
 40
0.8765493236
 40
0.9382852134
 40
1.0
 40
1.0
 40
1.0
 40
1.0
 10
12.0218181067
 20
6.3857430156
 30
0.0
 10
12.0218181067
 20
6.392241438
 30
0.0
 10
12.0224384245
 20
6.4052040057
 30
0.0
 10
12.0247811905
 20
6.4212285375
 30
0.0
 10
12.0275812926
 20
6.4337983795
 30
0.0
 10
12.0301348396
 20
6.4430699011
 30
0.0
 10
12.0331389349
 20
6.4521766724
 30
0.0
 10
12.0365866525
 20
6.4610979591
 30
0.0
 10
12.0404700436
 20
6.4698131276
 30
0.0
 10
12.044780232
 20
6.4783020637
 30
0.0
 10
12.0495072468
 20
6.4865451993
 30
0.0
 10
12.0546401866
 20
6.494523537
 30
0.0
 10
12.0601672636
 20
6.5022186151
 30
0.0
 10
12.0660757658
 20
6.5096127608
 30
0.0
 10
12.0723518052
 20
6.5166887164
 30
0.0
 10
12.0767721037
 20
6.52118378
 30
0.0
 10
12.079037751
 20
6.523372214
 30
0.0
  0
SPLINE
  5
3B4
100
AcDbEntity
  8
0
100
AcDbSpline
 62
7
  6
CONTINUOUS
 70
0
 71
3
 72
40
 73
36
 74
0
 42
0.0000001
 43
0.0000001
 44
0.0000000001
 40
0.0
 40
0.0
 40
0.0
 40
0.0
 40
0.0306632392
 40
0.0614924034
 40
0.0924896307
 40
0.1236529046
 40
0.1549763602
 40
0.1864506491
 40
0.2180633368
 40
0.2339195213
 40
0.2498044308
 40
0.2816463156
 40
0.313574858
 40
0.3455693188
 40
0.377607841
 40
0.4096678083
 40
0.4417261986
 40
0.4737599372
 40
0.5057462583
 40
0.5376630796
 40
0.5694893971
 40
0.6012057013
 40
0.6327944167
 40
0.6642403618
 40
0.6955312199
 40
0.7266580049
 40
0.7576155018
 40
0.7884026542
 40
0.819022865
 40
0.8494841743
 40
0.8797992858
 40
0.9099853736
 40
0.9400638884
 40
0.9700592989
 40
1.0
 40
1.0
 40
1.0
 40
1.0
 10
11.4044255235
 20
8.0600537215
 30
0.0
 10
11.398912039
 20
8.0592106296
 30
0.0
 10
11.3877808914
 20
8.0579722989
 30
0.0
 10
11.3709483376
 20
8.0574572012
 30
0.0
 10
11.3540359141
 20
8.0582707249
 30
0.0
 10
11.3371482571
 20
8.0603971928
 30
0.0
 10
11.3203853542
 20
8.0638134734
 30
0.0
 10
11.3038453523
 20
8.0684896695
 30
0.0
 10
11.2903377476
 20
8.0734026308
 30
0.0
 10
11.2797350824
 20
8.0779229036
 30
0.0
 10
11.2692637335
 20
8.0828385685
 30
0.0
 10
11.256484862
 20
8.0896956637
 30
0.0
 10
11.2417437324
 20
8.0990028776
 30
0.0
 10
11.2276618975
 20
8.1093414177
 30
0.0
 10
11.2143169071
 20
8.1206517316
 30
0.0
 10
11.2017821825
 20
8.132870558
 30
0.0
 10
11.1901278047
 20
8.1459306128
 30
0.0
 10
11.1794202152
 20
8.15976072
 30
0.0
 10
11.1697221392
 20
8.174285775
 30
0.0
 10
11.1610923653
 20
8.1894267244
 30
0.0
 10
11.1535854687
 20
8.2051005363
 30
0.0
 10
11.1472514451
 20
8.2212201916
 30
0.0
 10
11.1421352584
 20
8.237694716
 30
0.0
 10
11.1382763116
 20
8.2544292803
 30
0.0
 10
11.1357078395
 20
8.2713253868
 30
0.0
 10
11.1344562403
 20
8.2882811689
 30
0.0
 10
11.1345403666
 20
8.3051918235
 30
0.0
 10
11.1359708022
 20
8.3219501935
 30
0.0
 10
11.1387491656
 20
8.3384475151
 30
0.0
 10
11.1428674551
 20
8.3545743192
 30
0.0
 10
11.1483075437
 20
8.3702215371
 30
0.0
 10
11.1550406635
 20
8.3852816003
 30
0.0
 10
11.1630277664
 20
8.3996501597
 30
0.0
 10
11.1722176685
 20
8.4132257234
 30
0.0
 10
11.1791128253
 20
8.4216923302
 30
0.0
 10
11.1827357156
 20
8.4257586745
 30
0.0
  0
SPLINE
  5
3B5
100
AcDbEntity
  8
0
100
AcDbSpline
 62
7
  6
CONTINUOUS
 70
0
 71
3
 72
80
 73
76
 74
0
 42
0.0000001
 43
0.0000001
 44
0.0000000001
 40
0.0
 40
0.0
 40
0.0
 40
0.0
 40
0.0027164333
 40
0.0054532436
 40
0.0082303148
 40
0.0110666069
 40
0.0139798211
 40
0.0169861253
 40
0.0201000899
 40
0.0233346103
 40
0.0267009554
 40
0.0302089153
 40
0.0338668262
 40
0.0376817864
 40
0.0416597687
 40
0.0458056864
 40
0.0501236187
 40
0.0546168137
 40
0.059287816
 40
0.0641386005
 40
0.0691705232
 40
0.0743844972
 40
0.0797809975
 40
0.0853600583
 40
0.0970639194
 40
0.1094906704
 40
0.1226299158
 40
0.1364675859
 40
0.1509864146
 40
0.1661663245
 40
0.181984775
 40
0.198417021
 40
0.2154363126
 40
0.2330140687
 40
0.2511200702
 40
0.2697226079
 40
0.288788603
 40
0.3082837184
 40
0.3281725004
 40
0.3484184919
 40
0.3689843307
 40
0.4109214132
 40
0.4536714882
 40
0.4969135677
 40
0.5403219318
 40
0.5835692647
 40
0.6263297992
 40
0.6682824402
 40
0.688857927
 40
0.7091147833
 40
0.7290156137
 40
0.7485239323
 40
0.7676042552
 40
0.7862222091
 40
0.8043446644
 40
0.8219398682
 40
0.8389775564
 40
0.8554290953
 40
0.8712676627
 40
0.8864684482
 40
0.9010088426
 40
0.9148686884
 40
0.9280306111
 40
0.9404804349
 40
0.9522076372
 40
0.957798426
 40
0.9632066664
 40
0.9684323672
 40
0.9734759769
 40
0.978338331
 40
0.9830207844
 40
0.9875253614
 40
0.9918546248
 40
0.9960116201
 40
1.0
 40
1.0
 40
1.0
 40
1.0
 10
12.9390829394
 20
8.7760427233
 30
0.0
 10
12.9399788003
 20
8.7759805973
 30
0.0
 10
12.9417726577
 20
8.7757748122
 30
0.0
 10
12.9444405973
 20
8.7752240539
 30
0.0
 10
12.9470883743
 20
8.7744313865
 30
0.0
 10
12.9497141145
 20
8.7733975751
 30
0.0
 10
12.9523164208
 20
8.7721234656
 30
0.0
 10
12.9548940155
 20
8.7706101601
 30
0.0
 10
12.9574456652
 20
8.7688586536
 30
0.0
 10
12.959970245
 20
8.7668700829
 30
0.0
 10
12.9624666998
 20
8.7646456407
 30
0.0
 10
12.9649338888
 20
8.7621864786
 30
0.0
 10
12.9673707927
 20
8.7594939365
 30
0.0
 10
12.9697763123
 20
8.756569359
 30
0.0
 10
12.9721493269
 20
8.7534141859
 30
0.0
 10
12.974488802
 20
8.7500300148
 30
0.0
 10
12.9767935818
 20
8.7464184765
 30
0.0
 10
12.9790625908
 20
8.7425813645
 30
0.0
 10
12.9812947579
 20
8.7385205773
 30
0.0
 10
12.983488939
 20
8.7342380948
 30
0.0
 10
12.9856441154
 20
8.7297360598
 30
0.0
 10
12.9877591897
 20
8.7250166948
 30
0.0
 10
12.9898331225
 20
8.7200823322
 30
0.0
 10
12.9925861795
 20
8.7131080649
 30
0.0
 10
12.9959065062
 20
8.7038618616
 30
0.0
 10
12.9996498863
 20
8.6921210558
 30
0.0
 10
13.0032057535
 20
8.6795873919
 30
0.0
 10
13.006566921
 20
8.6662858973
 30
0.0
 10
13.0097265682
 20
8.6522429805
 30
0.0
 10
13.0126782871
 20
8.6374866882
 30
0.0
 10
13.0154160735
 20
8.6220465244
 30
0.0
 10
13.0179343498
 20
8.6059534051
 30
0.0
 10
13.0202279842
 20
8.5892395915
 30
0.0
 10
13.0222923189
 20
8.5719386231
 30
0.0
 10
13.0241231523
 20
8.5540852356
 30
0.0
 10
13.0257167531
 20
8.5357152826
 30
0.0
 10
13.0270698682
 20
8.5168656712
 30
0.0
 10
13.0281797533
 20
8.4975742842
 30
0.0
 10
13.0290441398
 20
8.4778799099
 30
0.0
 10
13.0296612873
 20
8.4578221063
 30
0.0
 10
13.0301558665
 20
8.4304704134
 30
0.0
 10
13.0301393857
 20
8.3956716581
 30
0.0
 10
13.0291280973
 20
8.3533886206
 30
0.0
 10
13.0271327356
 20
8.3106536347
 30
0.0
 10
13.0241692616
 20
8.2678101676
 30
0.0
 10
13.0202614568
 20
8.2252022586
 30
0.0
 10
13.0154408306
 20
8.1831723418
 30
0.0
 10
13.0106652717
 20
8.1486909249
 30
0.0
 10
13.0064088703
 20
8.1216558501
 30
0.0
 10
13.0030352948
 20
8.1018632392
 30
0.0
 10
12.9994667839
 20
8.0824634425
 30
0.0
 10
12.9957105136
 20
8.0634954252
 30
0.0
 10
12.9917740745
 20
8.0449973178
 30
0.0
 10
12.9876654048
 20
8.0270062936
 30
0.0
 10
12.9833928014
 20
8.0095584957
 30
0.0
 10
12.978964903
 20
7.9926889555
 30
0.0
 10
12.974390657
 20
7.9764315312
 30
0.0
 10
12.9696793014
 20
7.9608188395
 30
0.0
 10
12.9648403533
 20
7.9458821731
 30
0.0
 10
12.9598836013
 20
7.9316514276
 30
0.0
 10
12.954819058
 20
7.9181550392
 30
0.0
 10
12.9496569414
 20
7.90541995
 30
0.0
 10
12.9444076363
 20
7.893471433
 30
0.0
 10
12.9390817141
 20
7.8823333397
 30
0.0
 10
12.9345186558
 20
7.8736113531
 30
0.0
 10
12.9308305352
 20
7.867065382
 30
0.0
 10
12.9280960911
 20
7.8624505577
 30
0.0
 10
12.925350474
 20
7.8580542145
 30
0.0
 10
12.922595077
 20
7.8538785187
 30
0.0
 10
12.9198312698
 20
7.8499255497
 30
0.0
 10
12.917060361
 20
7.846197263
 30
0.0
 10
12.9142837147
 20
7.8426954361
 30
0.0
 10
12.9115025999
 20
7.8394218203
 30
0.0
 10
12.9087185695
 20
7.8363781904
 30
0.0
 10
12.9068229252
 20
7.83446446
 30
0.0
 10
12.9058745887
 20
7.8335484372
 30
0.0
  0
SPLINE
  5
3B6
100
AcDbEntity
  8
0
100
AcDbSpline
 62
7
  6
CONTINUOUS
 70
0
 71
3
 72
92
 73
88
 74
0
 42
0.0000001
 43
0.0000001
 44
0.0000000001
 40
0.0
 40
0.0
 40
0.0
 40
0.0
 40
0.0039487885
 40
0.0077209242
 40
0.0113256782
 40
0.0147745945
 40
0.0212567434
 40
0.0243282925
 40
0.027311381
 40
0.0302282564
 40
0.0331028442
 40
0.0359602443
 40
0.0388260402
 40
0.0417255782
 40
0.0446832525
 40
0.0477219393
 40
0.0508625333
 40
0.0541237717
 40
0.0575220968
 40
0.0610717524
 40
0.0647849108
 40
0.0686718104
 40
0.072741042
 40
0.0769996254
 40
0.0814533131
 40
0.0861066668
 40
0.0909632375
 40
0.096025723
 40
0.1012959851
 40
0.1067752717
 40
0.1124641581
 40
0.1183627244
 40
0.1244705559
 40
0.1307867803
 40
0.1373101847
 40
0.1509712089
 40
0.1654375988
 40
0.1806882501
 40
0.1966981921
 40
0.2134390585
 40
0.2308794811
 40
0.2489854088
 40
0.2677203777
 40
0.2870457466
 40
0.3069209067
 40
0.3273034692
 40
0.34814945
 40
0.3694134422
 40
0.3910487783
 40
0.4130076866
 40
0.4352414446
 40
0.4577005272
 40
0.4803347584
 40
0.5030934612
 40
0.548779089
 40
0.5943483662
 40
0.6169619477
 40
0.6393935891
 40
0.6615931959
 40
0.6835113437
 40
0.7050994263
 40
0.7263098074
 40
0.74709598
 40
0.7674127224
 40
0.78721626
 40
0.8064644351
 40
0.8251168879
 40
0.8431352505
 40
0.8604833685
 40
0.8771275402
 40
0.8930367882
 40
0.9081831839
 40
0.922542242
 40
0.9294201627
 40
0.9360939259
 40
0.9425616486
 40
0.9488218508
 40
0.9548733679
 40
0.9607154652
 40
0.9663478742
 40
0.9717707679
 40
0.9769849177
 40
0.9819916552
 40
0.9867931717
 40
0.9913924756
 40
0.9957932634
 40
1.0
 40
1.0
 40
1.0
 40
1.0
 10
12.9506250507
 20
8.8025069363
 30
0.0
 10
12.9517081801
 20
8.8035149528
 30
0.0
 10
12.9538735392
 20
8.8054357823
 30
0.0
 10
12.9571959267
 20
8.808079335
 30
0.0
 10
12.9605153336
 20
8.8104160295
 30
0.0
 10
12.9648431161
 20
8.8130647037
 30
0.0
 10
12.9692585897
 20
8.815176999
 30
0.0
 10
12.9737207863
 20
8.8166609047
 30
0.0
 10
12.9769956876
 20
8.8174400289
 30
0.0
 10
12.9802555167
 20
8.8179038719
 30
0.0
 10
12.9834979894
 20
8.8180515945
 30
0.0
 10
12.9867203564
 20
8.8178829065
 30
0.0
 10
12.9899198834
 20
8.8173978448
 30
0.0
 10
12.9930938852
 20
8.8165970085
 30
0.0
 10
12.9962399296
 20
8.8154814818
 30
0.0
 10
12.9993557813
 20
8.8140524739
 30
0.0
 10
13.0024395801
 20
8.8123116082
 30
0.0
 10
13.0054895504
 20
8.8102603643
 30
0.0
 10
13.0085041601
 20
8.8079004551
 30
0.0
 10
13.0114818937
 20
8.805233546
 30
0.0
 10
13.0144212404
 20
8.8022613718
 30
0.0
 10
13.0173207801
 20
8.7989858322
 30
0.0
 10
13.0201789251
 20
8.7954088316
 30
0.0
 10
13.0229942417
 20
8.7915325393
 30
0.0
 10
13.0257651321
 20
8.7873591807
 30
0.0
 10
13.0284900823
 20
8.782891209
 30
0.0
 10
13.031167563
 20
8.7781312341
 30
0.0
 10
13.0337959866
 20
8.7730820212
 30
0.0
 10
13.0363739007
 20
8.7677465582
 30
0.0
 10
13.0388997185
 20
8.7621279568
 30
0.0
 10
13.0413720149
 20
8.7562295515
 30
0.0
 10
13.0437892935
 20
8.7500548177
 30
0.0
 10
13.0461501094
 20
8.7436074175
 30
0.0
 10
13.0484531177
 20
8.7368911716
 30
0.0
 10
13.0514915802
 20
8.7274370896
 30
0.0
 10
13.0551223462
 20
8.7149684126
 30
0.0
 10
13.0591633767
 20
8.6992224787
 30
0.0
 10
13.0629430951
 20
8.6825083842
 30
0.0
 10
13.0664523579
 20
8.6648659556
 30
0.0
 10
13.0696826512
 20
8.6463370791
 30
0.0
 10
13.0726261366
 20
8.6269659062
 30
0.0
 10
13.0752756678
 20
8.6067986325
 30
0.0
 10
13.0776248116
 20
8.5858834019
 30
0.0
 10
13.0796678626
 20
8.5642701757
 30
0.0
 10
13.0813998561
 20
8.5420106112
 30
0.0
 10
13.0828165862
 20
8.5191579329
 30
0.0
 10
13.0839146101
 20
8.4957668007
 30
0.0
 10
13.0846912538
 20
8.4718931726
 30
0.0
 10
13.0851446191
 20
8.4475941682
 30
0.0
 10
13.0852735863
 20
8.4229279326
 30
0.0
 10
13.0850778184
 20
8.3979534917
 30
0.0
 10
13.084557755
 20
8.37273063
 30
0.0
 10
13.0837146532
 20
8.3473196727
 30
0.0
 10
13.0821604343
 20
8.3132270787
 30
0.0
 10
13.0794290386
 20
8.2705888766
 30
0.0
 10
13.0756634668
 20
8.2280840701
 30
0.0
 10
13.0720376837
 20
8.1943240763
 30
0.0
 10
13.0690319882
 20
8.1693065435
 30
0.0
 10
13.065740442
 20
8.144587882
 30
0.0
 10
13.0621709108
 20
8.1202272083
 30
0.0
 10
13.0583319725
 20
8.0962828285
 30
0.0
 10
13.054232842
 20
8.0728120332
 30
0.0
 10
13.0498833705
 20
8.0498709728
 30
0.0
 10
13.0452940124
 20
8.0275145173
 30
0.0
 10
13.0404758017
 20
8.0057961255
 30
0.0
 10
13.0354403255
 20
7.9847677152
 30
0.0
 10
13.0301996975
 20
7.9644795349
 30
0.0
 10
13.0247665262
 20
7.9449800385
 30
0.0
 10
13.0191538905
 20
7.9263157519
 30
0.0
 10
13.0133753038
 20
7.9085311747
 30
0.0
 10
13.0074446768
 20
7.8916685833
 30
0.0
 10
13.0013762719
 20
7.8757681998
 30
0.0
 10
12.996144301
 20
7.8631765779
 30
0.0
 10
12.9918922549
 20
7.8536213073
 30
0.0
 10
12.9887236957
 20
7.8468216055
 30
0.0
 10
12.9855316309
 20
7.8402895546
 30
0.0
 10
12.9823179942
 20
7.8340290176
 30
0.0
 10
12.9790846788
 20
7.8280437223
 30
0.0
 10
12.975833603
 20
7.8223372172
 30
0.0
 10
12.9725667254
 20
7.8169128641
 30
0.0
 10
12.9692859206
 20
7.8117739017
 30
0.0
 10
12.9659932105
 20
7.806923336
 30
0.0
 10
12.9626904528
 20
7.8023640377
 30
0.0
 10
12.9593795654
 20
7.798098629
 30
0.0
 10
12.9560623726
 20
7.7941295738
 30
0.0
 10
12.9527409668
 20
7.7904594269
 30
0.0
 10
12.9504749934
 20
7.7881624577
 30
0.0
 10
12.9493412535
 20
7.787067349
 30
0.0
  0
SPLINE
  5
3B7
100
AcDbEntity
  8
0
100
AcDbSpline
 62
7
  6
CONTINUOUS
 70
0
 71
3
 72
83
 73
79
 74
0
 42
0.0000001
 43
0.0000001
 44
0.0000000001
 40
0.0
 40
0.0
 40
0.0
 40
0.0
 40
0.0028512996
 40
0.005790279
 40
0.0088304057
 40
0.0119836974
 40
0.0152607083
 40
0.0186706211
 40
0.0222213763
 40
0.0259197171
 40
0.0297713893
 40
0.0337811821
 40
0.0379530583
 40
0.0422902758
 40
0.0467953931
 40
0.0514704394
 40
0.0563168965
 40
0.0613357896
 40
0.0665277601
 40
0.0718930288
 40
0.0774315326
 40
0.0831428694
 40
0.095080672
 40
0.1076986654
 40
0.1209850812
 40
0.1349251579
 40
0.1495015027
 40
0.1646943946
 40
0.1804820378
 40
0.1968407651
 40
0.2137452103
 40
0.2311684508
 40
0.2490821456
 40
0.2674566657
 40
0.2862612058
 40
0.3054638884
 40
0.3250318572
 40
0.3449313754
 40
0.3651279247
 40
0.3855862939
 40
0.4062706669
 40
0.4271447059
 40
0.4693137094
 40
0.5117961665
 40
0.5542914413
 40
0.5964987851
 40
0.6174014632
 40
0.6381207065
 40
0.6586201
 40
0.6788637327
 40
0.698816283
 40
0.7184431054
 40
0.7377103242
 40
0.7565849312
 40
0.7750348751
 40
0.7930291581
 40
0.8105379399
 40
0.8275326524
 40
0.843986129
 40
0.8598727279
 40
0.8751684776
 40
0.8898512461
 40
0.9039009435
 40
0.9172997697
 40
0.93003249
 40
0.9420867935
 40
0.9478568384
 40
0.9534542572
 40
0.9588785336
 40
0.9641295054
 40
0.969207294
 40
0.9741123794
 40
0.9788456421
 40
0.9834083787
 40
0.9878025087
 40
0.9920304774
 40
0.9960951733
 40
1.0
 40
1.0
 40
1.0
 40
1.0
 10
13.0126981113
 20
8.9836752146
 30
0.0
 10
13.0139342245
 20
8.9831330858
 30
0.0
 10
13.0164019822
 20
8.9819328409
 30
0.0
 10
13.0200196123
 20
8.9798317355
 30
0.0
 10
13.0236025059
 20
8.9774067339
 30
0.0
 10
13.0271487894
 20
8.9746593315
 30
0.0
 10
13.0306571162
 20
8.9715910319
 30
0.0
 10
13.0341260502
 20
8.9682034393
 30
0.0
 10
13.0375541064
 20
8.9644981662
 30
0.0
 10
13.0409399264
 20
8.9604770479
 30
0.0
 10
13.0442820029
 20
8.9561419225
 30
0.0
 10
13.0475789157
 20
8.9514948307
 30
0.0
 10
13.0508292295
 20
8.9465379304
 30
0.0
 10
13.0540314344
 20
8.9412734862
 30
0.0
 10
13.0571841564
 20
8.9357039704
 30
0.0
 10
13.0602858929
 20
8.9298319357
 30
0.0
 10
13.0633352466
 20
8.9236601241
 30
0.0
 10
13.0663308178
 20
8.91719141
 30
0.0
 10
13.0692711647
 20
8.9104287935
 30
0.0
 10
13.0721549715
 20
8.9033754559
 30
0.0
 10
13.0749808595
 20
8.896034669
 30
0.0
 10
13.0787250144
 20
8.8857156159
 30
0.0
 10
13.0832376395
 20
8.8721133698
 30
0.0
 10
13.0883245461
 20
8.8549339501
 30
0.0
 10
13.0931504111
 20
8.8366973293
 30
0.0
 10
13.0977060624
 20
8.8174377627
 30
0.0
 10
13.1019828222
 20
8.7971912474
 30
0.0
 10
13.1059725382
 20
8.7759957962
 30
0.0
 10
13.109667595
 20
8.7538912384
 30
0.0
 10
13.1130609369
 20
8.7309191609
 30
0.0
 10
13.1161460785
 20
8.7071228172
 30
0.0
 10
13.1189171298
 20
8.6825470474
 30
0.0
 10
13.121368804
 20
8.6572381855
 30
0.0
 10
13.1234964194
 20
8.6312439627
 30
0.0
 10
13.1252959109
 20
8.6046134123
 30
0.0
 10
13.1267638341
 20
8.5773967784
 30
0.0
 10
13.1278973812
 20
8.549645423
 30
0.0
 10
13.1286943847
 20
8.5214117272
 30
0.0
 10
13.129153315
 20
8.4927489825
 30
0.0
 10
13.1292732746
 20
8.4637113066
 30
0.0
 10
13.129054039
 20
8.4343534729
 30
0.0
 10
13.128307362
 20
8.3947242787
 30
0.0
 10
13.1265266754
 20
8.3447971093
 30
0.0
 10
13.1230685383
 20
8.2847021926
 30
0.0
 10
13.1183076425
 20
8.2246782258
 30
0.0
 10
13.1132687853
 20
8.1749361166
 30
0.0
 10
13.1086077798
 20
8.1355263501
 30
0.0
 10
13.104822875
 20
8.1063627968
 30
0.0
 10
13.100744944
 20
8.0775538466
 30
0.0
 10
13.0963816736
 20
8.0491538424
 30
0.0
 10
13.0917413314
 20
8.0212164043
 30
0.0
 10
13.0868326978
 20
7.9937942638
 30
0.0
 10
13.0816650666
 20
7.966939176
 30
0.0
 10
13.0762482316
 20
7.9407018136
 30
0.0
 10
13.0705924575
 20
7.9151316745
 30
0.0
 10
13.0647084626
 20
7.8902769898
 30
0.0
 10
13.0586073981
 20
7.8661846314
 30
0.0
 10
13.052300828
 20
7.8429000146
 30
0.0
 10
13.0458007176
 20
7.820467004
 30
0.0
 10
13.0391193965
 20
7.7989278311
 30
0.0
 10
13.0322695369
 20
7.7783230154
 30
0.0
 10
13.025264126
 20
7.7586912727
 30
0.0
 10
13.0181164379
 20
7.7400694534
 30
0.0
 10
13.0108400061
 20
7.7224923508
 30
0.0
 10
13.0034486006
 20
7.7059929785
 30
0.0
 10
12.9971159755
 20
7.6929840235
 30
0.0
 10
12.9919936728
 20
7.6831499645
 30
0.0
 10
12.9881879811
 20
7.6761705916
 30
0.0
 10
12.9843639853
 20
7.6694828323
 30
0.0
 10
12.9805234987
 20
7.6630897836
 30
0.0
 10
12.9766682908
 20
7.6569944472
 30
0.0
 10
12.9728001598
 20
7.6511996801
 30
0.0
 10
12.9689209622
 20
7.6457081682
 30
0.0
 10
12.9650324142
 20
7.6405224827
 30
0.0
 10
12.9611363144
 20
7.6356449612
 30
0.0
 10
12.9572343497
 20
7.6310778603
 30
0.0
 10
12.9533285156
 20
7.6268235107
 30
0.0
 10
12.9506707933
 20
7.6241441857
 30
0.0
 10
12.9493412535
 20
7.6228599488
 30
0.0
  0
SPLINE
  5
3B8
100
AcDbEntity
  8
0
100
AcDbSpline
 62
7
  6
CONTINUOUS
 70
0
 71
3
 72
87
 73
83
 74
0
 42
0.0000001
 43
0.0000001
 44
0.0000000001
 40
0.0
 40
0.0
 40
0.0
 40
0.0
 40
0.0027164299
 40
0.0054532321
 40
0.0082302981
 40
0.0110665844
 40
0.013979784
 40
0.0169860845
 40
0.023331123
 40
0.0266974588
 40
0.0302054004
 40
0.0338632989
 40
0.0376782464
 40
0.0416562097
 40
0.0458021134
 40
0.050120033
 40
0.0546132036
 40
0.059284201
 40
0.0641349608
 40
0.0691668649
 40
0.074380833
 40
0.0797773
 40
0.085356359
 40
0.0911176998
 40
0.0970607189
 40
0.1031845124
 40
0.1094878868
 40
0.1226271061
 40
0.1364647465
 40
0.1509835351
 40
0.1661634084
 40
0.181981828
 40
0.1984140399
 40
0.2154332916
 40
0.2330110148
 40
0.2511169902
 40
0.2697194985
 40
0.2887854553
 40
0.3082805352
 40
0.3281692889
 40
0.3484152538
 40
0.3689810612
 40
0.3898285444
 40
0.410918843
 40
0.4322125027
 40
0.453669576
 40
0.4969116041
 40
0.540319917
 40
0.5835672042
 40
0.6050288662
 40
0.6263284062
 40
0.6474258619
 40
0.668281762
 40
0.6888572259
 40
0.7091140641
 40
0.729014881
 40
0.7485231807
 40
0.7676034792
 40
0.7862214134
 40
0.8043438582
 40
0.8219390497
 40
0.8389767194
 40
0.8554282406
 40
0.8712667974
 40
0.8864675692
 40
0.901007944
 40
0.9148677755
 40
0.9280296968
 40
0.9343445773
 40
0.9404799644
 40
0.9464346373
 40
0.9522076918
 40
0.957798481
 40
0.9632066961
 40
0.9684323988
 40
0.973476
 40
0.9783383753
 40
0.9830208398
 40
0.9875253696
 40
0.9918545696
 40
0.9960115552
 40
1.0
 40
1.0
 40
1.0
 40
1.0
 10
13.0283335343
 20
8.9853695844
 30
0.0
 10
13.0296306668
 20
8.9852796322
 30
0.0
 10
13.0322280166
 20
8.9849816371
 30
0.0
 10
13.0360909856
 20
8.9841842794
 30
0.0
 10
13.0399247517
 20
8.9830365508
 30
0.0
 10
13.0437265719
 20
8.9815397051
 30
0.0
 10
13.0474946314
 20
8.9796948961
 30
0.0
 10
13.0525610796
 20
8.9767203638
 30
0.0
 10
13.0574654361
 20
8.9730787677
 30
0.0
 10
13.062191088
 20
8.9688679055
 30
0.0
 10
13.0657636625
 20
8.9653070609
 30
0.0
 10
13.0692920173
 20
8.96140856
 30
0.0
 10
13.0727750322
 20
8.9571740143
 30
0.0
 10
13.0762109666
 20
8.9526056167
 30
0.0
 10
13.0795983361
 20
8.9477056333
 30
0.0
 10
13.0829354593
 20
8.9424764407
 30
0.0
 10
13.0862208238
 20
8.9369206492
 30
0.0
 10
13.0894527922
 20
8.9310409711
 30
0.0
 10
13.0926298082
 20
8.9248403185
 30
0.0
 10
13.0957503305
 20
8.9183217631
 30
0.0
 10
13.0988127682
 20
8.9114885218
 30
0.0
 10
13.101815668
 20
8.9043440081
 30
0.0
 10
13.1047574649
 20
8.8968917598
 30
0.0
 10
13.1076367437
 20
8.8891355045
 30
0.0
 10
13.1104520283
 20
8.8810791102
 30
0.0
 10
13.1132019298
 20
8.8727265922
 30
0.0
 10
13.1168296774
 20
8.8610385215
 30
0.0
 10
13.1211781507
 20
8.845710706
 30
0.0
 10
13.1260448586
 20
8.8264513636
 30
0.0
 10
13.1306197783
 20
8.8061183813
 30
0.0
 10
13.1348936339
 20
8.7847525247
 30
0.0
 10
13.1388577264
 20
8.7623964628
 30
0.0
 10
13.1425039896
 20
8.7390949792
 30
0.0
 10
13.1458249983
 20
8.7148947814
 30
0.0
 10
13.1488139923
 20
8.6898444263
 30
0.0
 10
13.1514648899
 20
8.663994207
 30
0.0
 10
13.1537722952
 20
8.6373960456
 30
0.0
 10
13.1557315101
 20
8.6101033823
 30
0.0
 10
13.1573385427
 20
8.5821710653
 30
0.0
 10
13.1585901149
 20
8.5536552393
 30
0.0
 10
13.1594836689
 20
8.5246132323
 30
0.0
 10
13.1600173768
 20
8.4951034395
 30
0.0
 10
13.1601901403
 20
8.4651851982
 30
0.0
 10
13.1600015813
 20
8.4349186869
 30
0.0
 10
13.1594520873
 20
8.4043647223
 30
0.0
 10
13.1582364068
 20
8.3632205923
 30
0.0
 10
13.1558225788
 20
8.3115253138
 30
0.0
 10
13.151531735
 20
8.2494917656
 30
0.0
 10
13.1468048428
 20
8.1979517562
 30
0.0
 10
13.1423437678
 20
8.1570245538
 30
0.0
 10
13.1386807847
 20
8.1266774793
 30
0.0
 10
13.134699752
 20
8.096662977
 30
0.0
 10
13.1304086609
 20
8.0670413584
 30
0.0
 10
13.1258161733
 20
8.0378722003
 30
0.0
 10
13.1209315491
 20
8.0092141504
 30
0.0
 10
13.1157646419
 20
7.9811248282
 30
0.0
 10
13.110325876
 20
7.9536607008
 30
0.0
 10
13.1046262317
 20
7.9268769667
 30
0.0
 10
13.0986772179
 20
7.9008274437
 30
0.0
 10
13.092490849
 20
7.87556446
 30
0.0
 10
13.0860796216
 20
7.8511387472
 30
0.0
 10
13.079456489
 20
7.8275993337
 30
0.0
 10
13.0726348331
 20
7.8049934407
 30
0.0
 10
13.0656284415
 20
7.7833663697
 30
0.0
 10
13.0584514752
 20
7.7627614278
 30
0.0
 10
13.0511184302
 20
7.7432197426
 30
0.0
 10
13.0436441102
 20
7.7247804788
 30
0.0
 10
13.0372248823
 20
7.7101686627
 30
0.0
 10
13.032020988
 20
7.6990678497
 30
0.0
 10
13.028146069
 20
7.6911555609
 30
0.0
 10
13.0242471232
 20
7.6835453443
 30
0.0
 10
13.0203261265
 20
7.6762409799
 30
0.0
 10
13.016385023
 20
7.669246123
 30
0.0
 10
13.0124257738
 20
7.66256426
 30
0.0
 10
13.0084503809
 20
7.6561986993
 30
0.0
 10
13.0044607644
 20
7.6501526379
 30
0.0
 10
13.0004589845
 20
7.6444290523
 30
0.0
 10
12.9964469454
 20
7.6390307935
 30
0.0
 10
12.9924266053
 20
7.6339604772
 30
0.0
 10
12.988399836
 20
7.6292205708
 30
0.0
 10
12.9843687828
 20
7.6248136475
 30
0.0
 10
12.9816240194
 20
7.6220427073
 30
0.0
 10
12.9802508825
 20
7.6207163588
 30
0.0
  0
SPLINE
  5
3B9
100
AcDbEntity
  8
0
100
AcDbSpline
 62
4
  6
CONTINUOUS
 70
0
 71
3
 72
288
 73
284
 74
0
 42
0.0000001
 43
0.0000001
 44
0.0000000001
 40
0.0
 40
0.0
 40
0.0
 40
0.0
 40
0.015625
 40
0.0234375
 40
0.03125
 40
0.0390625
 40
0.046875
 40
0.05078125
 40
0.0546875
 40
0.05859375
 40
0.060546875
 40
0.0615234375
 40
0.0625
 40
0.0634765625
 40
0.064453125
 40
0.06640625
 40
0.0703125
 40
0.07421875
 40
0.078125
 40
0.0859375
 40
0.09375
 40
0.1015625
 40
0.109375
 40
0.11328125
 40
0.1171875
 40
0.119140625
 40
0.12109375
 40
0.123046875
 40
0.1240234375
 40
0.1245117188
 40
0.125
 40
0.1254882812
 40
0.1259765625
 40
0.126953125
 40
0.12890625
 40
0.130859375
 40
0.1328125
 40
0.13671875
 40
0.140625
 40
0.1484375
 40
0.15625
 40
0.1640625
 40
0.171875
 40
0.17578125
 40
0.1796875
 40
0.181640625
 40
0.18359375
 40
0.185546875
 40
0.1865234375
 40
0.1870117188
 40
0.1875
 40
0.1879882812
 40
0.1884765625
 40
0.189453125
 40
0.19140625
 40
0.193359375
 40
0.1953125
 40
0.19921875
 40
0.203125
 40
0.2109375
 40
0.21875
 40
0.2265625
 40
0.234375
 40
0.23828125
 40
0.2421875
 40
0.244140625
 40
0.24609375
 40
0.248046875
 40
0.2490234375
 40
0.2495117188
 40
0.25
 40
0.2504882812
 40
0.2509765625
 40
0.251953125
 40
0.25390625
 40
0.255859375
 40
0.2578125
 40
0.26171875
 40
0.265625
 40
0.2734375
 40
0.28125
 40
0.2890625
 40
0.296875
 40
0.30078125
 40
0.3046875
 40
0.306640625
 40
0.30859375
 40
0.310546875
 40
0.3115234375
 40
0.3120117188
 40
0.3125
 40
0.3129882812
 40
0.3134765625
 40
0.314453125
 40
0.31640625
 40
0.318359375
 40
0.3203125
 40
0.32421875
 40
0.328125
 40
0.3359375
 40
0.34375
 40
0.3515625
 40
0.359375
 40
0.36328125
 40
0.3671875
 40
0.369140625
 40
0.37109375
 40
0.373046875
 40
0.3740234375
 40
0.3745117188
 40
0.375
 40
0.3754882812
 40
0.3759765625
 40
0.376953125
 40
0.37890625
 40
0.380859375
 40
0.3828125
 40
0.38671875
 40
0.390625
 40
0.3984375
 40
0.40625
 40
0.4140625
 40
0.41796875
 40
0.421875
 40
0.42578125
 40
0.4296875
 40
0.431640625
 40
0.43359375
 40
0.435546875
 40
0.4365234375
 40
0.4370117188
 40
0.4375
 40
0.4379882812
 40
0.4384765625
 40
0.439453125
 40
0.44140625
 40
0.443359375
 40
0.4453125
 40
0.44921875
 40
0.453125
 40
0.45703125
 40
0.4609375
 40
0.46875
 40
0.4765625
 40
0.484375
 40
0.48828125
 40
0.4921875
 40
0.494140625
 40
0.49609375
 40
0.498046875
 40
0.4990234375
 40
0.4995117188
 40
0.5
 40
0.5004882812
 40
0.5009765625
 40
0.501953125
 40
0.50390625
 40
0.505859375
 40
0.5078125
 40
0.51171875
 40
0.515625
 40
0.5234375
 40
0.53125
 40
0.5390625
 40
0.546875
 40
0.55078125
 40
0.5546875
 40
0.556640625
 40
0.55859375
 40
0.560546875
 40
0.5615234375
 40
0.5620117188
 40
0.5625
 40
0.5629882812
 40
0.5634765625
 40
0.564453125
 40
0.56640625
 40
0.568359375
 40
0.5703125
 40
0.57421875
 40
0.578125
 40
0.5859375
 40
0.59375
 40
0.6015625
 40
0.609375
 40
0.61328125
 40
0.6171875
 40
0.619140625
 40
0.62109375
 40
0.623046875
 40
0.6240234375
 40
0.6245117188
 40
0.625
 40
0.6254882812
 40
0.6259765625
 40
0.626953125
 40
0.62890625
 40
0.630859375
 40
0.6328125
 40
0.63671875
 40
0.640625
 40
0.6484375
 40
0.65625
 40
0.6640625
 40
0.671875
 40
0.67578125
 40
0.6796875
 40
0.681640625
 40
0.68359375
 40
0.685546875
 40
0.6865234375
 40
0.6870117188
 40
0.6875
 40
0.6879882812
 40
0.6884765625
 40
0.689453125
 40
0.69140625
 40
0.693359375
 40
0.6953125
 40
0.69921875
 40
0.703125
 40
0.7109375
 40
0.71875
 40
0.7265625
 40
0.734375
 40
0.73828125
 40
0.7421875
 40
0.74609375
 40
0.748046875
 40
0.7490234375
 40
0.75
 40
0.7509765625
 40
0.751953125
 40
0.75390625
 40
0.7578125
 40
0.76171875
 40
0.765625
 40
0.7734375
 40
0.78125
 40
0.7890625
 40
0.796875
 40
0.80078125
 40
0.8046875
 40
0.80859375
 40
0.810546875
 40
0.8115234375
 40
0.8125
 40
0.8134765625
 40
0.814453125
 40
0.81640625
 40
0.8203125
 40
0.82421875
 40
0.828125
 40
0.8359375
 40
0.84375
 40
0.8515625
 40
0.859375
 40
0.86328125
 40
0.8671875
 40
0.87109375
 40
0.873046875
 40
0.875
 40
0.876953125
 40
0.87890625
 40
0.8828125
 40
0.88671875
 40
0.890625
 40
0.8984375
 40
0.90625
 40
0.9140625
 40
0.921875
 40
0.9296875
 40
0.93359375
 40
0.935546875
 40
0.9375
 40
0.939453125
 40
0.94140625
 40
0.9453125
 40
0.953125
 40
0.9609375
 40
0.96875
 40
0.984375
 40
1.0
 40
1.0
 40
1.0
 40
1.0
 10
13.0080480252
 20
9.4631206386
 30
0.0
 10
13.0079657081
 20
9.4661743133
 30
0.0
 10
13.0078422333
 20
9.4707548266
 30
0.0
 10
13.0076775973
 20
9.476862173
 30
0.0
 10
13.0075541273
 20
9.4814426945
 30
0.0
 10
13.0074306311
 20
9.4860231715
 30
0.0
 10
13.007327799
 20
9.4898403744
 30
0.0
 10
13.007245351
 20
9.492893826
 30
0.0
 10
13.007184013
 20
9.4951847635
 30
0.0
 10
13.0071313142
 20
9.497091178
 30
0.0
 10
13.0070975331
 20
9.4984309671
 30
0.0
 10
13.0070733766
 20
9.4991882871
 30
0.0
 10
13.0070689301
 20
9.4997795844
 30
0.0
 10
13.0070122267
 20
9.5002817892
 30
0.0
 10
13.00695485
 20
9.5009824722
 30
0.0
 10
13.006845948
 20
9.5021941882
 30
0.0
 10
13.0066948139
 20
9.503932781
 30
0.0
 10
13.0065115523
 20
9.5060158522
 30
0.0
 10
13.0062678676
 20
9.5087944123
 30
0.0
 10
13.0059630336
 20
9.5122672237
 30
0.0
 10
13.0055973312
 20
9.5164347655
 30
0.0
 10
13.0052316002
 20
9.5206022567
 30
0.0
 10
13.0049268377
 20
9.5240751946
 30
0.0
 10
13.0046830101
 20
9.5268535017
 30
0.0
 10
13.0045306553
 20
9.5285900375
 30
0.0
 10
13.0044086858
 20
9.5299790515
 30
0.0
 10
13.0043174433
 20
9.5310213996
 30
0.0
 10
13.0042406615
 20
9.531888154
 30
0.0
 10
13.0041883789
 20
9.5324985499
 30
0.0
 10
13.0041562162
 20
9.5328416206
 30
0.0
 10
13.0041385366
 20
9.5331150564
 30
0.0
 10
13.0040962309
 20
9.5333268247
 30
0.0
 10
13.0040484132
 20
9.5336306927
 30
0.0
 10
13.0039607301
 20
9.5341524396
 30
0.0
 10
13.0038375609
 20
9.5349030321
 30
0.0
 10
13.0036888622
 20
9.5358015003
 30
0.0
 10
13.0034909101
 20
9.5370002412
 30
0.0
 10
13.0032433629
 20
9.5384983991
 30
0.0
 10
13.0028473472
 20
9.5408956018
 30
0.0
 10
13.0023523069
 20
9.5438920533
 30
0.0
 10
13.001758268
 20
9.547487819
 30
0.0
 10
13.0011642245
 20
9.5510835719
 30
0.0
 10
13.0006691959
 20
9.5540800554
 30
0.0
 10
13.0002731569
 20
9.5564771941
 30
0.0
 10
13.0000256689
 20
9.5579755147
 30
0.0
 10
12.9998275953
 20
9.5591739218
 30
0.0
 10
12.9996792678
 20
9.5600734098
 30
0.0
 10
12.999554937
 20
9.5608208116
 30
0.0
 10
12.9994693275
 20
9.5613482544
 30
0.0
 10
12.9994181874
 20
9.5616429962
 30
0.0
 10
12.999386087
 20
9.5618827972
 30
0.0
 10
12.9993300782
 20
9.5620509467
 30
0.0
 10
12.9992637392
 20
9.562300139
 30
0.0
 10
12.9991437605
 20
9.5627245808
 30
0.0
 10
12.9989743937
 20
9.5633370143
 30
0.0
 10
12.9987702841
 20
9.5640693285
 30
0.0
 10
12.9984984417
 20
9.5650466577
 30
0.0
 10
12.9981585346
 20
9.5662680076
 30
0.0
 10
12.9976147415
 20
9.5682223416
 30
0.0
 10
12.99693498
 20
9.5706651987
 30
0.0
 10
12.9961192752
 20
9.5735966555
 30
0.0
 10
12.9953035665
 20
9.5765280963
 30
0.0
 10
12.994623815
 20
9.5789709934
 30
0.0
 10
12.994080002
 20
9.5809252475
 30
0.0
 10
12.9937401454
 20
9.5821468003
 30
0.0
 10
12.9934681993
 20
9.5831237129
 30
0.0
 10
12.9932644063
 20
9.5838573
 30
0.0
 10
12.993094049
 20
9.584465751
 30
0.0
 10
12.9929758386
 20
9.5848973022
 30
0.0
 10
12.9929066664
 20
9.5851351034
 30
0.0
 10
12.9928593602
 20
9.5853382427
 30
0.0
 10
12.9927945741
 20
9.5854466281
 30
0.0
 10
12.9927142897
 20
9.5856241931
 30
0.0
 10
12.9925709513
 20
9.5859195327
 30
0.0
 10
12.9923676674
 20
9.5863494973
 30
0.0
 10
12.992123091
 20
9.5868620089
 30
0.0
 10
12.9917972111
 20
9.5875465612
 30
0.0
 10
12.9913897853
 20
9.5884018394
 30
0.0
 10
12.9907379464
 20
9.589770515
 30
0.0
 10
12.9899231332
 20
9.59148128
 30
0.0
 10
12.988945364
 20
9.5935342343
 30
0.0
 10
12.9879675916
 20
9.5955871703
 30
0.0
 10
12.9871527862
 20
9.5972979812
 30
0.0
 10
12.9865009318
 20
9.5986665649
 30
0.0
 10
12.9860935454
 20
9.5995220769
 30
0.0
 10
12.9857675846
 20
9.6002061493
 30
0.0
 10
12.9855232553
 20
9.600720127
 30
0.0
 10
12.9853191984
 20
9.6011455044
 30
0.0
 10
12.9851772398
 20
9.6014490329
 30
0.0
 10
12.9850947446
 20
9.6016134773
 30
0.0
 10
12.9850367496
 20
9.601762165
 30
0.0
 10
12.9849639372
 20
9.6018139354
 30
0.0
 10
12.9848720224
 20
9.6019167684
 30
0.0
 10
12.9847087635
 20
9.6020809755
 30
0.0
 10
12.9844767955
 20
9.6023237916
 30
0.0
 10
12.984197895
 20
9.6026116463
 30
0.0
 10
12.9838262158
 20
9.6029966836
 30
0.0
 10
12.9833615525
 20
9.6034775588
 30
0.0
 10
12.9826181271
 20
9.6042471946
 30
0.0
 10
12.981688833
 20
9.6052091581
 30
0.0
 10
12.9805736857
 20
9.6063635515
 30
0.0
 10
12.9794585359
 20
9.6075179259
 30
0.0
 10
12.9785292478
 20
9.608479937
 30
0.0
 10
12.9777858104
 20
9.6092494776
 30
0.0
 10
12.9773211776
 20
9.6097305949
 30
0.0
 10
12.9769494358
 20
9.6101151351
 30
0.0
 10
12.9766707269
 20
9.6104045087
 30
0.0
 10
12.9764381593
 20
9.6106425724
 30
0.0
 10
12.9762759707
 20
9.6108152634
 30
0.0
 10
12.976182341
 20
9.610904503
 30
0.0
 10
12.9761147965
 20
9.6109980279
 30
0.0
 10
12.976037016
 20
9.6109898928
 30
0.0
 10
12.9759368791
 20
9.6110145062
 30
0.0
 10
12.9757599761
 20
9.6110410582
 30
0.0
 10
12.9755081271
 20
9.6110876271
 30
0.0
 10
12.9752055361
 20
9.6111398127
 30
0.0
 10
12.9748022114
 20
9.6112106848
 30
0.0
 10
12.9742980111
 20
9.6112988328
 30
0.0
 10
12.9734913154
 20
9.6114401167
 30
0.0
 10
12.9724829373
 20
9.6116166369
 30
0.0
 10
12.9712728872
 20
9.6118284968
 30
0.0
 10
12.9702645114
 20
9.6120050406
 30
0.0
 10
12.9694578106
 20
9.6121462725
 30
0.0
 10
12.968852786
 20
9.6122522098
 30
0.0
 10
12.9682477575
 20
9.6123580948
 30
0.0
 10
12.9677435791
 20
9.6124464956
 30
0.0
 10
12.9673402095
 20
9.6125168505
 30
0.0
 10
12.9670377558
 20
9.6125706159
 30
0.0
 10
12.9667854774
 20
9.612612242
 30
0.0
 10
12.9666093409
 20
9.6126476177
 30
0.0
 10
12.9665079758
 20
9.6126580932
 30
0.0
 10
12.9664339679
 20
9.6126933853
 30
0.0
 10
12.9663522543
 20
9.6126238052
 30
0.0
 10
12.9662459906
 20
9.6125676124
 30
0.0
 10
12.9660587769
 20
9.6124522314
 30
0.0
 10
12.9657919834
 20
9.6122963119
 30
0.0
 10
12.965471551
 20
9.6121053945
 30
0.0
 10
12.9650444057
 20
9.6118521703
 30
0.0
 10
12.9645104404
 20
9.6115351828
 30
0.0
 10
12.9638696965
 20
9.6111549939
 30
0.0
 10
12.9632289487
 20
9.6107747525
 30
0.0
 10
12.9623746198
 20
9.6102677821
 30
0.0
 10
12.961306708
 20
9.6096340649
 30
0.0
 10
12.9600252143
 20
9.6088735972
 30
0.0
 10
12.9589573022
 20
9.608239903
 30
0.0
 10
12.9581029741
 20
9.6077328818
 30
0.0
 10
12.9575690154
 20
9.6074161438
 30
0.0
 10
12.9571418567
 20
9.6071624093
 30
0.0
 10
12.956821465
 20
9.6069730505
 30
0.0
 10
12.9565545443
 20
9.6068122548
 30
0.0
 10
12.9563675576
 20
9.6067055787
 30
0.0
 10
12.9562609303
 20
9.6066354383
 30
0.0
 10
12.9561803336
 20
9.6066087006
 30
0.0
 10
12.9561021306
 20
9.606483084
 30
0.0
 10
12.9559970249
 20
9.6063500852
 30
0.0
 10
12.9558134791
 20
9.6061012677
 30
0.0
 10
12.9555510674
 20
9.6057542156
 30
0.0
 10
12.9552362604
 20
9.6053341569
 30
0.0
 10
12.9548164873
 20
9.6047753348
 30
0.0
 10
12.9542917814
 20
9.604076377
 30
0.0
 10
12.9534522461
 20
9.602958285
 30
0.0
 10
12.952402829
 20
9.601560587
 30
0.0
 10
12.9511435274
 20
9.5998833872
 30
0.0
 10
12.9498842266
 20
9.5982061691
 30
0.0
 10
12.9488348077
 20
9.596808517
 30
0.0
 10
12.947995276
 20
9.5956903331
 30
0.0
 10
12.9474705608
 20
9.5949916088
 30
0.0
 10
12.9470508067
 20
9.5944323075
 30
0.0
 10
12.9467359418
 20
9.5940137129
 30
0.0
 10
12.9464737112
 20
9.5936620802
 30
0.0
 10
12.9462898421
 20
9.5934214398
 30
0.0
 10
12.9461852545
 20
9.5932753393
 30
0.0
 10
12.9461054603
 20
9.5931899668
 30
0.0
 10
12.9460308397
 20
9.5930120787
 30
0.0
 10
12.945929541
 20
9.5928071651
 30
0.0
 10
12.945753109
 20
9.5924335309
 30
0.0
 10
12.9455006238
 20
9.5919076284
 30
0.0
 10
12.9451978297
 20
9.5912731808
 30
0.0
 10
12.9447940384
 20
9.5904284258
 30
0.0
 10
12.9442893219
 20
9.5893720797
 30
0.0
 10
12.9434817628
 20
9.587682151
 30
0.0
 10
12.9424723184
 20
9.5855696623
 30
0.0
 10
12.9412609829
 20
9.5830347112
 30
0.0
 10
12.940049649
 20
9.5804997433
 30
0.0
 10
12.9390402008
 20
9.5783872966
 30
0.0
 10
12.9382326491
 20
9.576697284
 30
0.0
 10
12.9377279139
 20
9.5756411509
 30
0.0
 10
12.937324161
 20
9.5747959588
 30
0.0
 10
12.9370212497
 20
9.5741628469
 30
0.0
 10
12.9367691312
 20
9.5736327654
 30
0.0
 10
12.9365920445
 20
9.5732665914
 30
0.0
 10
12.9364917948
 20
9.5730497246
 30
0.0
 10
12.9364139521
 20
9.5729085529
 30
0.0
 10
12.9363462595
 20
9.5726852799
 30
0.0
 10
12.9362524623
 20
9.5724162205
 30
0.0
 10
12.9360899667
 20
9.5719320237
 30
0.0
 10
12.9358569677
 20
9.5712472897
 30
0.0
 10
12.9355777381
 20
9.570422623
 30
0.0
 10
12.935205303
 20
9.5693241104
 30
0.0
 10
12.9347398032
 20
9.5679506125
 30
0.0
 10
12.933994979
 20
9.5657532156
 30
0.0
 10
12.9330639572
 20
9.5630064004
 30
0.0
 10
12.9319467271
 20
9.5597102536
 30
0.0
 10
12.9308294992
 20
9.5564140916
 30
0.0
 10
12.9298984718
 20
9.5536673146
 30
0.0
 10
12.9291536587
 20
9.5514698414
 30
0.0
 10
12.9286881307
 20
9.5500965372
 30
0.0
 10
12.9283157535
 20
9.548997627
 30
0.0
 10
12.9280363467
 20
9.5481741748
 30
0.0
 10
12.9278039021
 20
9.5474856413
 30
0.0
 10
12.927640417
 20
9.5470082272
 30
0.0
 10
12.9275482052
 20
9.5467283
 30
0.0
 10
12.9274756426
 20
9.5465384095
 30
0.0
 10
12.9274160909
 20
9.5462718589
 30
0.0
 10
12.9273321503
 20
9.545943198
 30
0.0
 10
12.9271873688
 20
9.5453555827
 30
0.0
 10
12.9269794326
 20
9.5445226459
 30
0.0
 10
12.9267303824
 20
9.5435203337
 30
0.0
 10
12.9263981501
 20
9.5421848912
 30
0.0
 10
12.9259829164
 20
9.5405152546
 30
0.0
 10
12.9253185106
 20
9.5378440228
 30
0.0
 10
12.9244880155
 20
9.5345049164
 30
0.0
 10
12.9234914109
 20
9.5304980286
 30
0.0
 10
12.9224948285
 20
9.5264910881
 30
0.0
 10
12.921664278
 20
9.5231521132
 30
0.0
 10
12.9209999831
 20
9.5204806185
 30
0.0
 10
12.9205013643
 20
9.5184778566
 30
0.0
 10
12.9200871134
 20
9.5168061557
 30
0.0
 10
12.9197946558
 20
9.5156413277
 30
0.0
 10
12.9196314125
 20
9.5149673384
 30
0.0
 10
12.9194980631
 20
9.5144854341
 30
0.0
 10
12.9194064439
 20
9.5139133659
 30
0.0
 10
12.919269729
 20
9.5131820584
 30
0.0
 10
12.9190372597
 20
9.5118876171
 30
0.0
 10
12.9187016152
 20
9.5100460761
 30
0.0
 10
12.9183003594
 20
9.5078329478
 30
0.0
 10
12.9177648213
 20
9.5048832558
 30
0.0
 10
12.917095582
 20
9.5011957457
 30
0.0
 10
12.9162924108
 20
9.4967709113
 30
0.0
 10
12.9154892827
 20
9.4923459978
 30
0.0
 10
12.9148199356
 20
9.4886586858
 30
0.0
 10
12.9142846132
 20
9.4857085975
 30
0.0
 10
12.9138826995
 20
9.4834966779
 30
0.0
 10
12.9135491131
 20
9.4816513555
 30
0.0
 10
12.9133129698
 20
9.4803636646
 30
0.0
 10
12.9131821417
 20
9.4796215413
 30
0.0
 10
12.9130724399
 20
9.479082696
 30
0.0
 10
12.9130070058
 20
9.4784760118
 30
0.0
 10
12.9129043192
 20
9.4776907625
 30
0.0
 10
12.9127318121
 20
9.4763055513
 30
0.0
 10
12.9124816121
 20
9.4743324421
 30
0.0
 10
12.9121829818
 20
9.471962244
 30
0.0
 10
12.9117842464
 20
9.4688028413
 30
0.0
 10
12.911286016
 20
9.4648532946
 30
0.0
 10
12.9106880758
 20
9.4601139542
 30
0.0
 10
12.9100900882
 20
9.4553746206
 30
0.0
 10
12.9095919763
 20
9.4514250567
 30
0.0
 10
12.9091930039
 20
9.4482656884
 30
0.0
 10
12.9088950966
 20
9.4458953854
 30
0.0
 10
12.9086426348
 20
9.4439226042
 30
0.0
 10
12.9084500982
 20
9.4423388367
 30
0.0
 10
12.9082799208
 20
9.4411661557
 30
0.0
 10
12.9082081264
 20
9.4399356672
 30
0.0
 10
12.908078034
 20
9.4383152088
 30
0.0
 10
12.9079272094
 20
9.4362827077
 30
0.0
 10
12.9077411734
 20
9.4338466717
 30
0.0
 10
12.907494886
 20
9.4305975882
 30
0.0
 10
12.9071864382
 20
9.4265365871
 30
0.0
 10
12.9068164853
 20
9.4216632436
 30
0.0
 10
12.9064467364
 20
9.4167899037
 30
0.0
 10
12.9060759867
 20
9.4119166913
 30
0.0
 10
12.9057701948
 20
9.4078552532
 30
0.0
 10
12.9055499294
 20
9.4050130889
 30
0.0
 10
12.9054337611
 20
9.4033876793
 30
0.0
 10
12.9053193166
 20
9.4021723286
 30
0.0
 10
12.9053092961
 20
9.4009428099
 30
0.0
 10
12.9052595112
 20
9.3993083937
 30
0.0
 10
12.9051893583
 20
9.3964458627
 30
0.0
 10
12.9050802674
 20
9.3923577365
 30
0.0
 10
12.9049531562
 20
9.3874514698
 30
0.0
 10
12.9047823475
 20
9.3809099609
 30
0.0
 10
12.904569295
 20
9.3727330126
 30
0.0
 10
12.9043987132
 20
9.3661914729
 30
0.0
 10
12.9043134398
 20
9.3629207006
 30
0.0
  0
SPLINE
  5
3BA
100
AcDbEntity
  8
0
100
AcDbSpline
 62
4
  6
CONTINUOUS
 70
0
 71
3
 72
288
 73
284
 74
0
 42
0.0000001
 43
0.0000001
 44
0.0000000001
 40
0.0
 40
0.0
 40
0.0
 40
0.0
 40
0.015625
 40
0.0234375
 40
0.03125
 40
0.0390625
 40
0.046875
 40
0.05078125
 40
0.0546875
 40
0.05859375
 40
0.060546875
 40
0.0615234375
 40
0.0625
 40
0.0634765625
 40
0.064453125
 40
0.06640625
 40
0.0703125
 40
0.07421875
 40
0.078125
 40
0.0859375
 40
0.09375
 40
0.1015625
 40
0.109375
 40
0.11328125
 40
0.1171875
 40
0.119140625
 40
0.12109375
 40
0.123046875
 40
0.1240234375
 40
0.1245117188
 40
0.125
 40
0.1254882812
 40
0.1259765625
 40
0.126953125
 40
0.12890625
 40
0.130859375
 40
0.1328125
 40
0.13671875
 40
0.140625
 40
0.1484375
 40
0.15625
 40
0.1640625
 40
0.171875
 40
0.17578125
 40
0.1796875
 40
0.181640625
 40
0.18359375
 40
0.185546875
 40
0.1865234375
 40
0.1870117188
 40
0.1875
 40
0.1879882812
 40
0.1884765625
 40
0.189453125
 40
0.19140625
 40
0.193359375
 40
0.1953125
 40
0.19921875
 40
0.203125
 40
0.2109375
 40
0.21875
 40
0.2265625
 40
0.234375
 40
0.23828125
 40
0.2421875
 40
0.244140625
 40
0.24609375
 40
0.248046875
 40
0.2490234375
 40
0.2495117188
 40
0.25
 40
0.2504882812
 40
0.2509765625
 40
0.251953125
 40
0.25390625
 40
0.255859375
 40
0.2578125
 40
0.26171875
 40
0.265625
 40
0.2734375
 40
0.28125
 40
0.2890625
 40
0.296875
 40
0.30078125
 40
0.3046875
 40
0.306640625
 40
0.30859375
 40
0.310546875
 40
0.3115234375
 40
0.3120117188
 40
0.3125
 40
0.3129882812
 40
0.3134765625
 40
0.314453125
 40
0.31640625
 40
0.318359375
 40
0.3203125
 40
0.32421875
 40
0.328125
 40
0.3359375
 40
0.34375
 40
0.3515625
 40
0.359375
 40
0.36328125
 40
0.3671875
 40
0.369140625
 40
0.37109375
 40
0.373046875
 40
0.3740234375
 40
0.3745117188
 40
0.375
 40
0.3754882812
 40
0.3759765625
 40
0.376953125
 40
0.37890625
 40
0.380859375
 40
0.3828125
 40
0.38671875
 40
0.390625
 40
0.3984375
 40
0.40625
 40
0.4140625
 40
0.41796875
 40
0.421875
 40
0.42578125
 40
0.4296875
 40
0.431640625
 40
0.43359375
 40
0.435546875
 40
0.4365234375
 40
0.4370117188
 40
0.4375
 40
0.4379882812
 40
0.4384765625
 40
0.439453125
 40
0.44140625
 40
0.443359375
 40
0.4453125
 40
0.44921875
 40
0.453125
 40
0.45703125
 40
0.4609375
 40
0.46875
 40
0.4765625
 40
0.484375
 40
0.48828125
 40
0.4921875
 40
0.494140625
 40
0.49609375
 40
0.498046875
 40
0.4990234375
 40
0.4995117188
 40
0.5
 40
0.5004882812
 40
0.5009765625
 40
0.501953125
 40
0.50390625
 40
0.505859375
 40
0.5078125
 40
0.51171875
 40
0.515625
 40
0.5234375
 40
0.53125
 40
0.5390625
 40
0.546875
 40
0.55078125
 40
0.5546875
 40
0.556640625
 40
0.55859375
 40
0.560546875
 40
0.5615234375
 40
0.5620117188
 40
0.5625
 40
0.5629882812
 40
0.5634765625
 40
0.564453125
 40
0.56640625
 40
0.568359375
 40
0.5703125
 40
0.57421875
 40
0.578125
 40
0.5859375
 40
0.59375
 40
0.6015625
 40
0.609375
 40
0.61328125
 40
0.6171875
 40
0.619140625
 40
0.62109375
 40
0.623046875
 40
0.6240234375
 40
0.6245117188
 40
0.625
 40
0.6254882812
 40
0.6259765625
 40
0.626953125
 40
0.62890625
 40
0.630859375
 40
0.6328125
 40
0.63671875
 40
0.640625
 40
0.6484375
 40
0.65625
 40
0.6640625
 40
0.671875
 40
0.67578125
 40
0.6796875
 40
0.681640625
 40
0.68359375
 40
0.685546875
 40
0.6865234375
 40
0.6870117188
 40
0.6875
 40
0.6879882812
 40
0.6884765625
 40
0.689453125
 40
0.69140625
 40
0.693359375
 40
0.6953125
 40
0.69921875
 40
0.703125
 40
0.7109375
 40
0.71875
 40
0.7265625
 40
0.734375
 40
0.73828125
 40
0.7421875
 40
0.74609375
 40
0.748046875
 40
0.7490234375
 40
0.75
 40
0.7509765625
 40
0.751953125
 40
0.75390625
 40
0.7578125
 40
0.76171875
 40
0.765625
 40
0.7734375
 40
0.78125
 40
0.7890625
 40
0.796875
 40
0.80078125
 40
0.8046875
 40
0.80859375
 40
0.810546875
 40
0.8115234375
 40
0.8125
 40
0.8134765625
 40
0.814453125
 40
0.81640625
 40
0.8203125
 40
0.82421875
 40
0.828125
 40
0.8359375
 40
0.84375
 40
0.8515625
 40
0.859375
 40
0.86328125
 40
0.8671875
 40
0.87109375
 40
0.873046875
 40
0.875
 40
0.876953125
 40
0.87890625
 40
0.8828125
 40
0.88671875
 40
0.890625
 40
0.8984375
 40
0.90625
 40
0.9140625
 40
0.921875
 40
0.9296875
 40
0.93359375
 40
0.935546875
 40
0.9375
 40
0.939453125
 40
0.94140625
 40
0.9453125
 40
0.953125
 40
0.9609375
 40
0.96875
 40
0.984375
 40
1.0
 40
1.0
 40
1.0
 40
1.0
 10
12.9043134398
 20
9.3629207176
 30
0.0
 10
12.9043957569
 20
9.3598670428
 30
0.0
 10
12.9045192318
 20
9.3552865295
 30
0.0
 10
12.9046838677
 20
9.3491791831
 30
0.0
 10
12.9048073378
 20
9.3445986616
 30
0.0
 10
12.904930834
 20
9.3400181847
 30
0.0
 10
12.9050336661
 20
9.3362009818
 30
0.0
 10
12.905116114
 20
9.3331475302
 30
0.0
 10
12.9051774521
 20
9.3308565926
 30
0.0
 10
12.9052301508
 20
9.3289501781
 30
0.0
 10
12.905263932
 20
9.3276103891
 30
0.0
 10
12.9052880884
 20
9.3268530691
 30
0.0
 10
12.9052925349
 20
9.3262617718
 30
0.0
 10
12.9053492383
 20
9.3257595669
 30
0.0
 10
12.905406615
 20
9.325058884
 30
0.0
 10
12.905515517
 20
9.3238471679
 30
0.0
 10
12.9056666512
 20
9.3221085751
 30
0.0
 10
12.9058499127
 20
9.320025504
 30
0.0
 10
12.9060935975
 20
9.3172469439
 30
0.0
 10
12.9063984314
 20
9.3137741325
 30
0.0
 10
12.9067641338
 20
9.3096065907
 30
0.0
 10
12.9071298648
 20
9.3054390995
 30
0.0
 10
12.9074346273
 20
9.3019661615
 30
0.0
 10
12.907678455
 20
9.2991878545
 30
0.0
 10
12.9078308097
 20
9.2974513187
 30
0.0
 10
12.9079527792
 20
9.2960623046
 30
0.0
 10
12.9080440218
 20
9.2950199566
 30
0.0
 10
12.9081208035
 20
9.2941532021
 30
0.0
 10
12.9081730861
 20
9.2935428063
 30
0.0
 10
12.9082052488
 20
9.2931997355
 30
0.0
 10
12.9082229285
 20
9.2929262997
 30
0.0
 10
12.9082652341
 20
9.2927145315
 30
0.0
 10
12.9083130518
 20
9.2924106635
 30
0.0
 10
12.9084007349
 20
9.2918889165
 30
0.0
 10
12.9085239042
 20
9.2911383241
 30
0.0
 10
12.9086726028
 20
9.2902398559
 30
0.0
 10
12.9088705549
 20
9.289041115
 30
0.0
 10
12.9091181022
 20
9.287542957
 30
0.0
 10
12.9095141178
 20
9.2851457543
 30
0.0
 10
12.9100091581
 20
9.2821493029
 30
0.0
 10
12.910603197
 20
9.2785535371
 30
0.0
 10
12.9111972406
 20
9.2749577842
 30
0.0
 10
12.9116922692
 20
9.2719613007
 30
0.0
 10
12.9120883082
 20
9.2695641621
 30
0.0
 10
12.9123357962
 20
9.2680658415
 30
0.0
 10
12.9125338698
 20
9.2668674344
 30
0.0
 10
12.9126821972
 20
9.2659679464
 30
0.0
 10
12.912806528
 20
9.2652205446
 30
0.0
 10
12.9128921376
 20
9.2646931018
 30
0.0
 10
12.9129432776
 20
9.26439836
 30
0.0
 10
12.912975378
 20
9.264158559
 30
0.0
 10
12.9130313869
 20
9.2639904094
 30
0.0
 10
12.9130977258
 20
9.2637412171
 30
0.0
 10
12.9132177045
 20
9.2633167753
 30
0.0
 10
12.9133870713
 20
9.2627043419
 30
0.0
 10
12.9135911809
 20
9.2619720276
 30
0.0
 10
12.9138630234
 20
9.2609946984
 30
0.0
 10
12.9142029304
 20
9.2597733486
 30
0.0
 10
12.9147467235
 20
9.2578190146
 30
0.0
 10
12.915426485
 20
9.2553761574
 30
0.0
 10
12.9162421898
 20
9.2524447007
 30
0.0
 10
12.9170578985
 20
9.2495132599
 30
0.0
 10
12.9177376501
 20
9.2470703628
 30
0.0
 10
12.9182814631
 20
9.2451161086
 30
0.0
 10
12.9186213196
 20
9.2438945558
 30
0.0
 10
12.9188932657
 20
9.2429176433
 30
0.0
 10
12.9190970587
 20
9.2421840561
 30
0.0
 10
12.919267416
 20
9.2415756052
 30
0.0
 10
12.9193856265
 20
9.2411440539
 30
0.0
 10
12.9194547986
 20
9.2409062527
 30
0.0
 10
12.9195021048
 20
9.2407031134
 30
0.0
 10
12.919566891
 20
9.2405947281
 30
0.0
 10
12.9196471753
 20
9.240417163
 30
0.0
 10
12.9197905137
 20
9.2401218234
 30
0.0
 10
12.9199937976
 20
9.2396918588
 30
0.0
 10
12.920238374
 20
9.2391793473
 30
0.0
 10
12.9205642539
 20
9.238494795
 30
0.0
 10
12.9209716797
 20
9.2376395167
 30
0.0
 10
12.9216235186
 20
9.2362708411
 30
0.0
 10
12.9224383318
 20
9.2345600762
 30
0.0
 10
12.9234161011
 20
9.2325071218
 30
0.0
 10
12.9243938734
 20
9.2304541859
 30
0.0
 10
12.9252086789
 20
9.2287433749
 30
0.0
 10
12.9258605332
 20
9.2273747913
 30
0.0
 10
12.9262679197
 20
9.2265192792
 30
0.0
 10
12.9265938804
 20
9.2258352068
 30
0.0
 10
12.9268382098
 20
9.2253212292
 30
0.0
 10
12.9270422666
 20
9.2248958517
 30
0.0
 10
12.9271842252
 20
9.2245923232
 30
0.0
 10
12.9272667204
 20
9.2244278788
 30
0.0
 10
12.9273247155
 20
9.2242791911
 30
0.0
 10
12.9273975279
 20
9.2242274207
 30
0.0
 10
12.9274894426
 20
9.2241245877
 30
0.0
 10
12.9276527015
 20
9.2239603807
 30
0.0
 10
12.9278846695
 20
9.2237175645
 30
0.0
 10
12.9281635701
 20
9.2234297099
 30
0.0
 10
12.9285352492
 20
9.2230446725
 30
0.0
 10
12.9289999126
 20
9.2225637974
 30
0.0
 10
12.9297433379
 20
9.2217941615
 30
0.0
 10
12.930672632
 20
9.2208321981
 30
0.0
 10
12.9317877794
 20
9.2196778046
 30
0.0
 10
12.9329029291
 20
9.2185234302
 30
0.0
 10
12.9338322172
 20
9.2175614192
 30
0.0
 10
12.9345756546
 20
9.2167918786
 30
0.0
 10
12.9350402874
 20
9.2163107612
 30
0.0
 10
12.9354120293
 20
9.2159262211
 30
0.0
 10
12.9356907382
 20
9.2156368474
 30
0.0
 10
12.9359233058
 20
9.2153987837
 30
0.0
 10
12.9360854943
 20
9.2152260928
 30
0.0
 10
12.9361791241
 20
9.2151368531
 30
0.0
 10
12.9362466685
 20
9.2150433283
 30
0.0
 10
12.936324449
 20
9.2150514633
 30
0.0
 10
12.9364245859
 20
9.2150268499
 30
0.0
 10
12.936601489
 20
9.215000298
 30
0.0
 10
12.9368533379
 20
9.214953729
 30
0.0
 10
12.9371559289
 20
9.2149015434
 30
0.0
 10
12.9375592536
 20
9.2148306713
 30
0.0
 10
12.9380634539
 20
9.2147425234
 30
0.0
 10
12.9388701496
 20
9.2146012395
 30
0.0
 10
12.9398785277
 20
9.2144247193
 30
0.0
 10
12.9410885778
 20
9.2142128594
 30
0.0
 10
12.9420969536
 20
9.2140363155
 30
0.0
 10
12.9429036544
 20
9.2138950837
 30
0.0
 10
12.943508679
 20
9.2137891463
 30
0.0
 10
12.9441137075
 20
9.2136832614
 30
0.0
 10
12.9446178859
 20
9.2135948606
 30
0.0
 10
12.9450212555
 20
9.2135245057
 30
0.0
 10
12.9453237093
 20
9.2134707403
 30
0.0
 10
12.9455759876
 20
9.2134291141
 30
0.0
 10
12.9457521241
 20
9.2133937384
 30
0.0
 10
12.9458534892
 20
9.2133832629
 30
0.0
 10
12.9459274971
 20
9.2133479709
 30
0.0
 10
12.9460092107
 20
9.2134175509
 30
0.0
 10
12.9461154744
 20
9.2134737438
 30
0.0
 10
12.9463026882
 20
9.2135891248
 30
0.0
 10
12.9465694816
 20
9.2137450443
 30
0.0
 10
12.946889914
 20
9.2139359616
 30
0.0
 10
12.9473170594
 20
9.2141891859
 30
0.0
 10
12.9478510246
 20
9.2145061733
 30
0.0
 10
12.9484917685
 20
9.2148863623
 30
0.0
 10
12.9491325163
 20
9.2152666036
 30
0.0
 10
12.9499868453
 20
9.2157735741
 30
0.0
 10
12.951054757
 20
9.2164072913
 30
0.0
 10
12.9523362507
 20
9.217167759
 30
0.0
 10
12.9534041628
 20
9.2178014531
 30
0.0
 10
12.954258491
 20
9.2183084743
 30
0.0
 10
12.9547924497
 20
9.2186252123
 30
0.0
 10
12.9552196083
 20
9.2188789468
 30
0.0
 10
12.9555400001
 20
9.2190683056
 30
0.0
 10
12.9558069207
 20
9.2192291014
 30
0.0
 10
12.9559939075
 20
9.2193357774
 30
0.0
 10
12.9561005348
 20
9.2194059178
 30
0.0
 10
12.9561811315
 20
9.2194326555
 30
0.0
 10
12.9562593345
 20
9.2195582722
 30
0.0
 10
12.9563644401
 20
9.219691271
 30
0.0
 10
12.9565479859
 20
9.2199400884
 30
0.0
 10
12.9568103976
 20
9.2202871406
 30
0.0
 10
12.9571252046
 20
9.2207071992
 30
0.0
 10
12.9575449777
 20
9.2212660214
 30
0.0
 10
12.9580696837
 20
9.2219649791
 30
0.0
 10
12.958909219
 20
9.2230830711
 30
0.0
 10
12.9599586361
 20
9.2244807691
 30
0.0
 10
12.9612179376
 20
9.2261579689
 30
0.0
 10
12.9624772384
 20
9.2278351871
 30
0.0
 10
12.9635266573
 20
9.2292328392
 30
0.0
 10
12.964366189
 20
9.230351023
 30
0.0
 10
12.9648909042
 20
9.2310497473
 30
0.0
 10
12.9653106583
 20
9.2316090487
 30
0.0
 10
12.9656255232
 20
9.2320276433
 30
0.0
 10
12.9658877538
 20
9.232379276
 30
0.0
 10
12.9660716229
 20
9.2326199164
 30
0.0
 10
12.9661762106
 20
9.2327660169
 30
0.0
 10
12.9662560047
 20
9.2328513894
 30
0.0
 10
12.9663306253
 20
9.2330292774
 30
0.0
 10
12.966431924
 20
9.233234191
 30
0.0
 10
12.966608356
 20
9.2336078253
 30
0.0
 10
12.9668608412
 20
9.2341337277
 30
0.0
 10
12.9671636354
 20
9.2347681754
 30
0.0
 10
12.9675674266
 20
9.2356129303
 30
0.0
 10
12.9680721432
 20
9.2366692764
 30
0.0
 10
12.9688797022
 20
9.2383592052
 30
0.0
 10
12.9698891467
 20
9.2404716938
 30
0.0
 10
12.9711004821
 20
9.2430066449
 30
0.0
 10
12.9723118161
 20
9.2455416128
 30
0.0
 10
12.9733212642
 20
9.2476540595
 30
0.0
 10
12.9741288159
 20
9.2493440721
 30
0.0
 10
12.9746335511
 20
9.2504002052
 30
0.0
 10
12.975037304
 20
9.2512453974
 30
0.0
 10
12.9753402154
 20
9.2518785093
 30
0.0
 10
12.9755923339
 20
9.2524085908
 30
0.0
 10
12.9757694205
 20
9.2527747648
 30
0.0
 10
12.9758696703
 20
9.2529916316
 30
0.0
 10
12.9759475129
 20
9.2531328033
 30
0.0
 10
12.9760152055
 20
9.2533560762
 30
0.0
 10
12.9761090028
 20
9.2536251356
 30
0.0
 10
12.9762714983
 20
9.2541093325
 30
0.0
 10
12.9765044973
 20
9.2547940665
 30
0.0
 10
12.976783727
 20
9.2556187331
 30
0.0
 10
12.9771561621
 20
9.2567172457
 30
0.0
 10
12.9776216618
 20
9.2580907436
 30
0.0
 10
12.9783664861
 20
9.2602881406
 30
0.0
 10
12.9792975079
 20
9.2630349557
 30
0.0
 10
12.980414738
 20
9.2663311025
 30
0.0
 10
12.9815319659
 20
9.2696272645
 30
0.0
 10
12.9824629932
 20
9.2723740416
 30
0.0
 10
12.9832078064
 20
9.2745715148
 30
0.0
 10
12.9836733344
 20
9.275944819
 30
0.0
 10
12.9840457115
 20
9.2770437291
 30
0.0
 10
12.9843251183
 20
9.2778671814
 30
0.0
 10
12.984557563
 20
9.2785557149
 30
0.0
 10
12.9847210481
 20
9.2790331289
 30
0.0
 10
12.9848132599
 20
9.2793130561
 30
0.0
 10
12.9848858225
 20
9.2795029466
 30
0.0
 10
12.9849453741
 20
9.2797694972
 30
0.0
 10
12.9850293147
 20
9.2800981582
 30
0.0
 10
12.9851740962
 20
9.2806857734
 30
0.0
 10
12.9853820324
 20
9.2815187103
 30
0.0
 10
12.9856310826
 20
9.2825210225
 30
0.0
 10
12.9859633149
 20
9.2838564649
 30
0.0
 10
12.9863785487
 20
9.2855261015
 30
0.0
 10
12.9870429544
 20
9.2881973333
 30
0.0
 10
12.9878734496
 20
9.2915364397
 30
0.0
 10
12.9888700541
 20
9.2955433276
 30
0.0
 10
12.9898666365
 20
9.299550268
 30
0.0
 10
12.9906971871
 20
9.3028892429
 30
0.0
 10
12.9913614819
 20
9.3055607377
 30
0.0
 10
12.9918601007
 20
9.3075634996
 30
0.0
 10
12.9922743516
 20
9.3092352005
 30
0.0
 10
12.9925668092
 20
9.3104000285
 30
0.0
 10
12.9927300525
 20
9.3110740177
 30
0.0
 10
12.9928634019
 20
9.3115559221
 30
0.0
 10
12.9929550211
 20
9.3121279903
 30
0.0
 10
12.9930917361
 20
9.3128592978
 30
0.0
 10
12.9933242053
 20
9.314153739
 30
0.0
 10
12.9936598499
 20
9.31599528
 30
0.0
 10
12.9940611057
 20
9.3182084083
 30
0.0
 10
12.9945966437
 20
9.3211581004
 30
0.0
 10
12.995265883
 20
9.3248456105
 30
0.0
 10
12.9960690542
 20
9.3292704448
 30
0.0
 10
12.9968721823
 20
9.3336953584
 30
0.0
 10
12.9975415295
 20
9.3373826704
 30
0.0
 10
12.9980768518
 20
9.3403327587
 30
0.0
 10
12.9984787655
 20
9.3425446783
 30
0.0
 10
12.9988123519
 20
9.3443900007
 30
0.0
 10
12.9990484953
 20
9.3456776915
 30
0.0
 10
12.9991793233
 20
9.3464198149
 30
0.0
 10
12.9992890252
 20
9.3469586602
 30
0.0
 10
12.9993544592
 20
9.3475653443
 30
0.0
 10
12.9994571458
 20
9.3483505936
 30
0.0
 10
12.9996296529
 20
9.3497358048
 30
0.0
 10
12.999879853
 20
9.351708914
 30
0.0
 10
13.0001784832
 20
9.3540791122
 30
0.0
 10
13.0005772186
 20
9.3572385149
 30
0.0
 10
13.001075449
 20
9.3611880616
 30
0.0
 10
13.0016733892
 20
9.365927402
 30
0.0
 10
13.0022713768
 20
9.3706667355
 30
0.0
 10
13.0027694887
 20
9.3746162994
 30
0.0
 10
13.0031684612
 20
9.3777756677
 30
0.0
 10
13.0034663684
 20
9.3801459707
 30
0.0
 10
13.0037188302
 20
9.382118752
 30
0.0
 10
13.0039113669
 20
9.3837025195
 30
0.0
 10
13.0040815442
 20
9.3848752004
 30
0.0
 10
13.0041533387
 20
9.3861056889
 30
0.0
 10
13.004283431
 20
9.3877261474
 30
0.0
 10
13.0044342556
 20
9.3897586485
 30
0.0
 10
13.0046202916
 20
9.3921946844
 30
0.0
 10
13.004866579
 20
9.3954437679
 30
0.0
 10
13.0051750268
 20
9.399504769
 30
0.0
 10
13.0055449798
 20
9.4043781126
 30
0.0
 10
13.0059147286
 20
9.4092514524
 30
0.0
 10
13.0062854783
 20
9.4141246649
 30
0.0
 10
13.0065912703
 20
9.4181861029
 30
0.0
 10
13.0068115356
 20
9.4210282672
 30
0.0
 10
13.006927704
 20
9.4226536768
 30
0.0
 10
13.0070421484
 20
9.4238690276
 30
0.0
 10
13.0070521689
 20
9.4250985462
 30
0.0
 10
13.0071019538
 20
9.4267329625
 30
0.0
 10
13.0071721067
 20
9.4295954935
 30
0.0
 10
13.0072811976
 20
9.4336836197
 30
0.0
 10
13.0074083088
 20
9.4385898864
 30
0.0
 10
13.0075791175
 20
9.4451313953
 30
0.0
 10
13.0077921701
 20
9.4533083436
 30
0.0
 10
13.0079627518
 20
9.4598498833
 30
0.0
 10
13.0080480252
 20
9.4631206555
 30
0.0
  0
ELLIPSE
  5
3BB
100
AcDbEntity
  8
0
100
AcDbEllipse
 62
7
  6
CONTINUOUS
 10
10.5661677477
 20
8.3277473472
 30
0.0
 11
-0.147733076
 21
0.1717773413
 31
0.0
 40
0.9024839809
 41
-0.116423827
 42
3.0251688558
  0
ENDSEC
  0
SECTION
  2
OBJECTS
  0
DICTIONARY
  5
C
100
AcDbDictionary
280
0
281
1
  3
ACAD_GROUP
350
D
  3
ACAD_MLINESTYLE
350
17
  3
ACAD_LAYOUT
350
1A
  3
ACAD_PLOTSETTINGS
350
19
  3
ACAD_PLOTSTYLENAME
350
E
  3
ACAD_IMAGE_DICT
350
       3BD
  3
ACAD_IMAGE_VARS
350
       3BE
  3
ACAD_TABLESTYLE
350
       3BF
  0
IMAGEDEF_REACTOR
  5
3BC
100
AcDbRasterImageDefReactor
 90
2
330
281
  0
DICTIONARY
  5
D
102
{ACAD_REACTORS
330
C
102
}
100
AcDbDictionary
280
0
281
1
  0
ACDBDICTIONARYWDFLT
  5
E
102
{ACAD_REACTORS
330
C
102
}
100
AcDbDictionary
281
1
  3
Normal
350
F
100
AcDbDictionaryWithDefault
340
F
  0
DICTIONARY
  5
3BD
330
C
100
AcDbDictionary
281
1
  3
X8A_assy_2_img_1
350
       3C2
  0
RASTERVARIABLES
  5
3BE
330
C
100
AcDbRasterVariables
 90
0
 70
0
 71
1
 72
5
  0
DICTIONARY
  5
17
102
{ACAD_REACTORS
330
C
102
}
100
AcDbDictionary
280
0
281
1
  3
Standard
350
18
  0
DICTIONARY
  5
3BF
330
C
100
AcDbDictionary
281
1
  3
Standard
350
       3C3
  3
Standard1
350
       3C4
  0
DICTIONARY
  5
19
102
{ACAD_REACTORS
330
C
102
}
100
AcDbDictionary
281
1
  0
DICTIONARY
  5
1A
102
{ACAD_REACTORS
330
C
102
}
100
AcDbDictionary
281
1
  3
Model
350
3C0
  3
Layout1
350
3C1
  0
ACDBPLACEHOLDER
  5
F
102
{ACAD_REACTORS
330
E
102
}
  0
MLINESTYLE
  5
18
102
{ACAD_REACTORS
330
17
102
}
100
AcDbMlineStyle
  2
STANDARD
 70
0
  3

 62
256
 51
90.0
 52
90.0
 71
2
 49
0.5
 62
256
  6
BYLAYER
 49
-0.5
 62
256
  6
BYLAYER
  0
LAYOUT
  5
3C0
102
{ACAD_REACTORS
330
1A
102
}
100
AcDbPlotSettings
  1

  2
none_device
  4
ANSI_C_(22.00_x_17.00_Inches)
  6

 40
0.0
 41
0.0
 42
0.0
 43
0.0
 44
558.8
 45
431.8
 46
0.0
 47
0.0
 48
0.0
 49
0.0
140
0.0
141
0.0
142
1.0
143
1.0
 70
1024
 72
0
 73
0
 74
0
  7

 75
0
147
1.0
148
0.0
149
0.0
100
AcDbLayout
  1
Model
 70
0
 71
0
 10
0.0
 20
0.0
 11
22.0
 21
17.0
 12
0.0
 22
0.0
 32
0.0
 14
0.0
 24
0.0
 34
0.0
 15
0.0
 25
0.0
 35
0.0
146
0.0
 13
0.0
 23
0.0
 33
0.0
 16
1.0
 26
0.0
 36
0.0
 17
0.0
 27
1.0
 37
0.0
 76
0
330
206
345
0
346
0
  0
LAYOUT
  5
3C1
102
{ACAD_REACTORS
330
1A
102
}
100
AcDbPlotSettings
  1

  2
none_device
  4
ANSI_C_(22.00_x_17.00_Inches)
  6

 40
0.0
 41
0.0
 42
0.0
 43
0.0
 44
558.8
 45
431.8
 46
0.0
 47
0.0
 48
0.0
 49
0.0
140
0.0
141
0.0
142
1.0
143
1.0
 70
0
 72
0
 73
0
 74
0
  7

 75
0
147
1.0
148
0.0
149
0.0
100
AcDbLayout
  1
Layout1
 70
0
 71
1
 10
0.0
 20
0.0
 11
22.0
 21
17.0
 12
0.0
 22
0.0
 32
0.0
 14
0.0
 24
0.0
 34
0.0
 15
0.0
 25
0.0
 35
0.0
146
0.0
 13
0.0
 23
0.0
 33
0.0
 16
1.0
 26
0.0
 36
0.0
 17
0.0
 27
1.0
 37
0.0
 76
0
330
207
345
0
346
0
  0
IMAGEDEF
  5
3C2
102
{ACAD_REACTORS
330
3BD
330
3BC
102
}
100
AcDbRasterImageDef
 90
0
  1
X8A_assy_2_img_1.png
 10
369.0
 20
92.0
 11
0.0066666667
 21
0.0066666667
280
1
281
0
  0
TABLESTYLE
  5
3C3
102
{ACAD_REACTORS
330
3BF
330
284
330
285
102
}
330
3BF
100
AcDbTableStyle
  3
Standard
 70
0
 71
0
 40
0.06
 41
0.06
280
1
281
1
  7
Standard
140
0.18
170
1
 62
0
 63
7
283
0
  7
Standard
140
0.18
170
1
 62
0
 63
7
283
0
  7
Standard
140
0.18
170
1
 62
0
 63
7
283
0
  0
TABLESTYLE
  5
3C4
102
{ACAD_REACTORS
330
3BF
330
283
102
}
330
3BF
100
AcDbTableStyle
  3
Standard1
 70
1
 71
0
 40
0.06
 41
0.06
280
1
281
1
  7
Standard
140
0.18
170
1
 62
0
 63
7
283
0
  7
Standard
140
0.18
170
1
 62
0
 63
7
283
0
  7
Standard
140
0.18
170
1
 62
0
 63
7
283
0
  0
ENDSEC
  0
EOF
