999
DXF file: X7Z_assy_2.dxf
999
Pro/ENGINEER 2014200 by Parametric Technology Corporation
  0
SECTION
  2
HEADER
  9
$ACADVER
  1
AC1021
  9
$DWGCODEPAGE
  3
ANSI_1252
  9
$EXTMAX
 10
22.0
 20
17.0
 30
0.0
  9
$EXTMIN
 10
0.0
 20
0.0
 30
0.0
  9
$LIMMIN
 10
0.0
 20
0.0
  9
$LIMMAX
 10
22.0
 20
17.0
  9
$VIEWCTR
 10
11.0
 20
8.5
  9
$VIEWSIZE
 40
17.0
  9
$CLAYER
  8
0
  9
$LTSCALE
 40
1.21
  9
$CELTYPE
  6
BYLAYER
  9
$DIMSCALE
 40
1.0
  9
$DIMASZ
 40
0.1875
  9
$DIMEXO
 40
0.0625
  9
$DIMDLI
 40
0.836
  9
$DIMEXE
 40
0.125
  9
$DIMCEN
 40
0.198
  9
$DIMLFAC
 40
1.0
  9
$DIMBLK
  1
_FILLED
  9
$DIMTXT
 40
0.1
  9
$DIMTOL
 70
0
  9
$DIMLIM
 70
0
  9
$DIMTFAC
 40
1.0
  9
$DIMGAP
 40
0.09
  9
$DIMDSEP
 70
46
  9
$AUNITS
 70
0
  9
$PDMODE
 70
3
  9
$PDSIZE
 40
0.3125
  9
$HANDSEED
  5
3B4
  9
$TILEMODE
 70
1
  9
$MEASUREMENT
 70
0
  9
$INSUNITS
 70
1
  0
ENDSEC
  0
SECTION
  2
CLASSES
  0
CLASS
  1
ACDBDICTIONARYWDFLT
  2
AcDbDictionaryWithDefault
  3
AutoCAD 2000
 90
0
 91
1
280
0
281
0
  0
CLASS
  1
ACDBPLACEHOLDER
  2
AcDbPlaceHolder
  3
AutoCAD 2000
 90
0
 91
1
280
0
281
0
  0
CLASS
  1
LAYOUT
  2
AcDbLayout
  3
AutoCAD 2000
 90
0
 91
0
280
0
281
0
  0
CLASS
  1
RASTERVARIABLES
  2
AcDbRasterVariables
  3
ISM
 90
0
 91
1
280
0
281
0
  0
CLASS
  1
IMAGEDEF
  2
AcDbRasterImageDef
  3
ISM
 90
0
 91
1
280
0
281
0
  0
CLASS
  1
IMAGEDEF_REACTOR
  2
AcDbRasterImageDefReactor
  3
ISM
 90
0
 91
1
280
0
281
0
  0
CLASS
  1
IMAGE
  2
AcDbRasterImage
  3
ISM
 90
127
 91
1
280
0
281
1
  0
CLASS
  1
TABLESTYLE
  2
AcDbTableStyle
  3
ObjectDBX Classes
 90
2047
 91
1
280
0
281
0
  0
CLASS
  1
ACAD_TABLE
  2
AcDbTable
  3
ObjectDBX Classes
 90
1025
 91
3
280
0
281
1
  0
ENDSEC
  0
SECTION
  2
TABLES
  0
TABLE
  2
VPORT
  5
8
100
AcDbSymbolTable
 70
2
  0
VPORT
  5
1F4
100
AcDbSymbolTableRecord
100
AcDbViewportTableRecord
  2
*ACTIVE
 70
0
 10
0.0
 20
0.0
 11
1.0
 21
1.0
 12
11.0
 22
8.5
 13
0.0
 23
0.0
 14
1.0
 24
1.0
 15
0.0
 25
0.0
 16
0.0
 26
0.0
 36
1.0
 17
0.0
 27
0.0
 37
0.0
 40
17.0
 41
1.2941176471
 42
50.0
 43
0.0
 44
0.0
 50
0.0
 51
0.0
 71
0
 72
100
 73
1
 74
1
 75
0
 76
0
 77
0
 78
0
  0
ENDTAB
  0
TABLE
  2
LTYPE
  5
5
100
AcDbSymbolTable
 70
6
  0
LTYPE
  5
14
100
AcDbSymbolTableRecord
100
AcDbLinetypeTableRecord
  2
BYBLOCK
 70
0
  3

 72
65
 73
0
 40
0.0
  0
LTYPE
  5
15
100
AcDbSymbolTableRecord
100
AcDbLinetypeTableRecord
  2
BYLAYER
 70
0
  3

 72
65
 73
0
 40
0.0
  0
LTYPE
  5
16
100
AcDbSymbolTableRecord
100
AcDbLinetypeTableRecord
  2
CONTINUOUS
 70
64
  3
Solid line
 72
65
 73
0
 40
0.0
  0
LTYPE
  5
1F5
100
AcDbSymbolTableRecord
100
AcDbLinetypeTableRecord
  2
CENTER
 70
64
  3
____ _ ____ _ ____ _ ____ _ ____ _ ____ _ ____
 72
65
 73
4
 40
0.6
 49
0.375
 74
0
 49
-0.075
 74
0
 49
0.075
 74
0
 49
-0.075
 74
0
  0
LTYPE
  5
1F6
100
AcDbSymbolTableRecord
100
AcDbLinetypeTableRecord
  2
HIDDEN
 70
64
  3
- - - - - - - - - - - - - - - - - - - -
 72
65
 73
2
 40
0.2
 49
0.1
 74
0
 49
-0.1
 74
0
  0
LTYPE
  5
1F7
100
AcDbSymbolTableRecord
100
AcDbLinetypeTableRecord
  2
PHANTOM
 70
64
  3
_____ _ _ _____ _ _ _____ _ _ _____
 72
65
 73
6
 40
0.8
 49
0.45
 74
0
 49
-0.05
 74
0
 49
0.1
 74
0
 49
-0.05
 74
0
 49
0.1
 74
0
 49
-0.05
 74
0
  0
LTYPE
  5
1F8
100
AcDbSymbolTableRecord
100
AcDbLinetypeTableRecord
  2
DOT
 70
64
  3
. . . . . . . . . . . . . . . . . . . .
 72
65
 73
2
 40
0.2
 49
0.1
 74
0
 49
-0.1
 74
0
  0
LTYPE
  5
1F9
100
AcDbSymbolTableRecord
100
AcDbLinetypeTableRecord
  2
DASHED
 70
64
  3
- - - - - - - - - - - - - - - - - - - -
 72
65
 73
2
 40
0.2
 49
0.1
 74
0
 49
-0.1
 74
0
  0
ENDTAB
  0
TABLE
  2
LAYER
  5
2
100
AcDbSymbolTable
 70
36
  0
LAYER
  5
10
100
AcDbSymbolTableRecord
100
AcDbLayerTableRecord
  2
0
 70
0
 62
7
  6
CONTINUOUS
370
-3
390
F
  0
LAYER
  5
1FA
100
AcDbSymbolTableRecord
100
AcDbLayerTableRecord
  2
DEFAULT_1
 70
0
 62
7
  6
CENTER
370
-3
390
F
  0
LAYER
  5
1FB
100
AcDbSymbolTableRecord
100
AcDbLayerTableRecord
  2
DEFAULT_2
 70
0
 62
8
  6
HIDDEN
370
-3
390
F
  0
LAYER
  5
1FC
100
AcDbSymbolTableRecord
100
AcDbLayerTableRecord
  2
DEFAULT_3
 70
0
 62
7
  6
PHANTOM
370
-3
390
F
  0
LAYER
  5
1FD
100
AcDbSymbolTableRecord
100
AcDbLayerTableRecord
  2
DATUM_PLANES
 70
0
 62
7
  6
CONTINUOUS
370
-3
390
F
  0
LAYER
  5
1FE
100
AcDbSymbolTableRecord
100
AcDbLayerTableRecord
  2
DIMENSIONS
 70
0
 62
7
  6
CONTINUOUS
370
-3
390
F
  0
LAYER
  5
1FF
100
AcDbSymbolTableRecord
100
AcDbLayerTableRecord
  2
PARAMETERDIMENSIONS
 70
0
 62
7
  6
CONTINUOUS
370
-3
390
F
  0
LAYER
  5
200
100
AcDbSymbolTableRecord
100
AcDbLayerTableRecord
  2
PORT_AREAS
 70
0
 62
7
  6
CONTINUOUS
370
-3
390
F
  0
LAYER
  5
201
100
AcDbSymbolTableRecord
100
AcDbLayerTableRecord
  2
SUNNBOMCOSMETIC
 70
0
 62
7
  6
CONTINUOUS
370
-3
390
F
  0
LAYER
  5
202
100
AcDbSymbolTableRecord
100
AcDbLayerTableRecord
  2
SUNNBOMSTAMPING
 70
0
 62
7
  6
CONTINUOUS
370
-3
390
F
  0
LAYER
  5
203
100
AcDbSymbolTableRecord
100
AcDbLayerTableRecord
  2
THREADS
 70
0
 62
7
  6
CONTINUOUS
370
-3
390
F
  0
ENDTAB
  0
TABLE
  2
STYLE
  5
3
100
AcDbSymbolTable
 70
1
  0
STYLE
  5
11
100
AcDbSymbolTableRecord
100
AcDbTextStyleTableRecord
  2
STANDARD
 70
0
 40
0.0
 41
0.8
 50
0.0
 71
0
 42
0.2
  3
txt
  4

  0
STYLE
  5
204
100
AcDbSymbolTableRecord
100
AcDbTextStyleTableRecord
  2
TEXTSTYLE_1
 70
0
 40
0.0
 41
0.8
 50
0.0
 71
0
 42
0.2
  3
gdt
  4

  0
ENDTAB
  0
TABLE
  2
VIEW
  5
6
100
AcDbSymbolTable
 70
0
  0
ENDTAB
  0
TABLE
  2
UCS
  5
7
100
AcDbSymbolTable
 70
0
  0
ENDTAB
  0
TABLE
  2
APPID
  5
9
100
AcDbSymbolTable
 70
1
  0
APPID
  5
205
100
AcDbSymbolTableRecord
100
AcDbRegAppTableRecord
  2
ACAD
 70
0
  0
ENDTAB
  0
TABLE
  2
BLOCK_RECORD
  5
1
100
AcDbSymbolTable
 70
0
  0
BLOCK_RECORD
  5
206
100
AcDbSymbolTableRecord
100
AcDbBlockTableRecord
  2
*Model_Space
  0
BLOCK_RECORD
  5
207
100
AcDbSymbolTableRecord
100
AcDbBlockTableRecord
  2
*Paper_Space
  0
BLOCK_RECORD
  5
208
100
AcDbSymbolTableRecord
100
AcDbBlockTableRecord
  2
SUN_FIRST_THIRD_ANGLE_BL0
  0
BLOCK_RECORD
  5
209
100
AcDbSymbolTableRecord
100
AcDbBlockTableRecord
  2
*T1
  0
BLOCK_RECORD
  5
20A
100
AcDbSymbolTableRecord
100
AcDbBlockTableRecord
  2
*T2
  0
BLOCK_RECORD
  5
20B
100
AcDbSymbolTableRecord
100
AcDbBlockTableRecord
  2
*T3
  0
ENDTAB
  0
TABLE
  2
DIMSTYLE
  5
A
100
AcDbSymbolTable
 70
1
100
AcDbDimStyleTable
 71
0
  0
DIMSTYLE
105
20C
100
AcDbSymbolTableRecord
100
AcDbDimStyleTableRecord
  2
STANDARD
 70
0
  3

  4

 40
1.0
 41
0.1875
 42
0.0625
 43
0.38
 44
0.125
 45
0.0
 46
0.0
 47
0.001
 48
0.001
140
0.1
141
0.09
142
0.0
143
25.4
144
1.0
145
0.0
146
1.0
147
0.09
 71
0.0
 72
0.0
 73
1
 74
1
 75
0
 76
0
 77
0
 78
4
170
0
171
2
172
0
173
0
174
0
175
0
176
0
177
0
178
0
270
2
271
3
272
3
273
2
274
2
275
0
280
0
281
0
282
0
283
1
284
4
285
0
286
0
287
3
288
0
340
11
278
46
  0
ENDTAB
  0
ENDSEC
  0
SECTION
  2
BLOCKS
  0
BLOCK
  5
20
100
AcDbEntity
  8
0
100
AcDbBlockBegin
  2
*Model_Space
 70
0
 10
0.0
 20
0.0
 30
0.0
  3
*Model_Space
  1

  0
ENDBLK
  5
21
100
AcDbEntity
  8
0
100
AcDbBlockEnd
  0
BLOCK
  5
1C
100
AcDbEntity
  8
0
100
AcDbBlockBegin
  2
*Paper_Space
 70
0
 10
0.0
 20
0.0
 30
0.0
  3
*Paper_Space
  1

  0
ENDBLK
  5
1D
100
AcDbEntity
  8
0
100
AcDbBlockEnd
  0
BLOCK
  5
20D
100
AcDbEntity
  8
0
100
AcDbBlockBegin
 62
2
  6
CONTINUOUS
  2
SUN_FIRST_THIRD_ANGLE_BL0
 70
64
 10
20.4816717061
 20
1.2289683772
  3
SUN_FIRST_THIRD_ANGLE_BL0
  1

  0
TEXT
  5
20E
100
AcDbEntity
  8
0
100
AcDbText
 62
2
  6
CONTINUOUS
 10
19.4750896608
 20
1.4136269581
  7
STANDARD
 40
0.08
  1
FIRST ANGLE
 41
0.8
 72
0
100
AcDbText
  0
TEXT
  5
20F
100
AcDbEntity
  8
0
100
AcDbText
 62
2
  6
CONTINUOUS
 10
20.7842537513
 20
1.4047600029
  7
STANDARD
 40
0.08
  1
THIRD ANGLE
 41
0.8
 72
0
100
AcDbText
  0
LINE
  5
210
100
AcDbEntity
  8
0
100
AcDbLine
 62
7
  6
CONTINUOUS
 10
19.4767170086
 20
1.1727031207
 11
19.6334271527
 21
1.1717972817
  0
LINE
  5
211
100
AcDbEntity
  8
0
100
AcDbLine
 62
7
  6
CONTINUOUS
 10
19.6596964832
 20
1.1717972817
 11
19.6950230232
 21
1.171593082
  0
LINE
  5
212
100
AcDbEntity
  8
0
100
AcDbLine
 62
7
  6
CONTINUOUS
 10
19.7194818561
 20
1.1708914427
 11
19.8852396156
 21
1.1699333054
  0
LINE
  5
213
100
AcDbEntity
  8
0
100
AcDbLine
 62
7
  6
CONTINUOUS
 10
19.4758111696
 20
1.2723454088
 11
19.88525039
 21
1.3511534004
  0
LINE
  5
214
100
AcDbEntity
  8
0
100
AcDbLine
 62
7
  6
CONTINUOUS
 10
19.88525039
 20
1.3511534004
 11
19.8831348489
 21
0.9851647912
  0
LINE
  5
215
100
AcDbEntity
  8
0
100
AcDbLine
 62
7
  6
CONTINUOUS
 10
19.8831348489
 20
0.9851647912
 11
19.4767170086
 21
1.0658141206
  0
LINE
  5
216
100
AcDbEntity
  8
0
100
AcDbLine
 62
7
  6
CONTINUOUS
 10
19.4767170086
 20
1.0658141206
 11
19.4779056764
 21
1.2714536432
  0
CIRCLE
  5
217
100
AcDbEntity
  8
0
100
AcDbCircle
 62
7
  6
CONTINUOUS
 10
20.2068232291
 20
1.1717972817
 40
0.175742101
  0
CIRCLE
  5
218
100
AcDbEntity
  8
0
100
AcDbCircle
 62
7
  6
CONTINUOUS
 10
20.2068232291
 20
1.1717972817
 40
0.1005522074
  0
LINE
  5
219
100
AcDbEntity
  8
0
100
AcDbLine
 62
7
  6
CONTINUOUS
 10
20.2077290681
 20
1.3756110529
 11
20.2071171714
 21
1.2379342989
  0
LINE
  5
21A
100
AcDbEntity
  8
0
100
AcDbLine
 62
7
  6
CONTINUOUS
 10
20.2077290681
 20
1.2016899681
 11
20.2074674401
 21
1.1428236749
  0
LINE
  5
21B
100
AcDbEntity
  8
0
100
AcDbLine
 62
7
  6
CONTINUOUS
 10
20.208634907
 20
1.101141841
 11
20.2080230104
 21
0.963465087
  0
LINE
  5
21C
100
AcDbEntity
  8
0
100
AcDbLine
 62
7
  6
CONTINUOUS
 10
20.0066328138
 20
1.1745147986
 11
20.1443095678
 21
1.1739029019
  0
LINE
  5
21D
100
AcDbEntity
  8
0
100
AcDbLine
 62
7
  6
CONTINUOUS
 10
20.1832714155
 20
1.1727031207
 11
20.238153505
 21
1.172335442
  0
LINE
  5
21E
100
AcDbEntity
  8
0
100
AcDbLine
 62
7
  6
CONTINUOUS
 10
20.2756669918
 20
1.1717972817
 11
20.407916871
 21
1.1712095044
  0
CIRCLE
  5
21F
100
AcDbEntity
  8
0
100
AcDbCircle
 62
7
  6
CONTINUOUS
 10
20.7509457401
 20
1.1693297793
 40
0.1722024983
  0
CIRCLE
  5
220
100
AcDbEntity
  8
0
100
AcDbCircle
 62
7
  6
CONTINUOUS
 10
20.7509457401
 20
1.1693297793
 40
0.0985164967
  0
LINE
  5
221
100
AcDbEntity
  8
0
100
AcDbLine
 62
7
  6
CONTINUOUS
 10
20.7169767782
 20
1.170462078
 11
20.7825395137
 21
1.1682766535
  0
LINE
  5
222
100
AcDbEntity
  8
0
100
AcDbLine
 62
7
  6
CONTINUOUS
 10
20.8177513651
 20
1.1693297793
 11
20.947965719
 21
1.1693297793
  0
LINE
  5
223
100
AcDbEntity
  8
0
100
AcDbLine
 62
7
  6
CONTINUOUS
 10
20.6875370113
 20
1.170462078
 11
20.5573226574
 21
1.170462078
  0
LINE
  5
224
100
AcDbEntity
  8
0
100
AcDbLine
 62
7
  6
CONTINUOUS
 10
20.7486811426
 20
1.1987695462
 11
20.7486811426
 21
1.1432869085
  0
LINE
  5
225
100
AcDbEntity
  8
0
100
AcDbLine
 62
7
  6
CONTINUOUS
 10
20.7498134414
 20
1.1059210505
 11
20.7498134414
 21
0.9757066966
  0
LINE
  5
226
100
AcDbEntity
  8
0
100
AcDbLine
 62
7
  6
CONTINUOUS
 10
20.7486811426
 20
1.2338708068
 11
20.7486811426
 21
1.3640851607
  0
LINE
  5
227
100
AcDbEntity
  8
0
100
AcDbLine
 62
7
  6
CONTINUOUS
 10
21.0702539817
 20
1.2701043662
 11
21.4790138229
 21
1.3448360823
  0
LINE
  5
228
100
AcDbEntity
  8
0
100
AcDbLine
 62
7
  6
CONTINUOUS
 10
21.4790138229
 20
1.3448360823
 11
21.4790138229
 21
0.9779712941
  0
LINE
  5
229
100
AcDbEntity
  8
0
100
AcDbLine
 62
7
  6
CONTINUOUS
 10
21.4790138229
 20
0.9779712941
 11
21.069121683
 21
1.0617614
  0
LINE
  5
22A
100
AcDbEntity
  8
0
100
AcDbLine
 62
7
  6
CONTINUOUS
 10
21.0702539817
 20
1.2701043662
 11
21.069121683
 21
1.0617614
  0
LINE
  5
22B
100
AcDbEntity
  8
0
100
AcDbLine
 62
7
  6
CONTINUOUS
 10
21.4790138229
 20
1.1693297793
 11
21.3159628059
 21
1.1693297793
  0
LINE
  5
22C
100
AcDbEntity
  8
0
100
AcDbLine
 62
7
  6
CONTINUOUS
 10
21.2876553377
 20
1.1693297793
 11
21.2502894796
 21
1.1693297793
  0
LINE
  5
22D
100
AcDbEntity
  8
0
100
AcDbLine
 62
7
  6
CONTINUOUS
 10
21.2208497126
 20
1.1659328831
 11
21.0713862804
 21
1.1659328831
  0
LINE
  5
22E
100
AcDbEntity
  8
0
100
AcDbLine
 62
7
  6
CONTINUOUS
 10
20.4796138713
 20
1.5284908897
 11
20.4766766948
 21
0.9294458646
  0
ENDBLK
  5
22F
100
AcDbEntity
  8
0
  6
BYBLOCK
 62
0
100
AcDbBlockEnd
  0
BLOCK
  5
230
100
AcDbEntity
  8
0
100
AcDbBlockBegin
  2
*T1
 70
1
 10
0.0
 20
0.0
  3
*T1
  1

  0
LINE
  5
231
100
AcDbEntity
  8
0
100
AcDbLine
 62
2
  6
CONTINUOUS
 10
9.275
 20
0.0
 11
-0.0
 21
0.0
  0
LINE
  5
232
100
AcDbEntity
  8
0
100
AcDbLine
 62
2
  6
CONTINUOUS
 10
9.275
 20
0.0
 11
9.275
 21
1.25
  0
LINE
  5
233
100
AcDbEntity
  8
0
100
AcDbLine
 62
2
  6
CONTINUOUS
 10
9.275
 20
0.625
 11
-0.0
 21
0.625
  0
LINE
  5
234
100
AcDbEntity
  8
0
100
AcDbLine
 62
2
  6
CONTINUOUS
 10
9.275
 20
1.25
 11
-0.0
 21
1.25
  0
LINE
  5
235
100
AcDbEntity
  8
0
100
AcDbLine
 62
2
  6
CONTINUOUS
 10
6.8
 20
0.0
 11
6.8
 21
1.25
  0
LINE
  5
236
100
AcDbEntity
  8
0
100
AcDbLine
 62
2
  6
CONTINUOUS
 10
6.4
 20
0.0
 11
6.4
 21
0.625
  0
LINE
  5
237
100
AcDbEntity
  8
0
100
AcDbLine
 62
2
  6
CONTINUOUS
 10
5.9
 20
0.0
 11
5.9
 21
0.625
  0
LINE
  5
238
100
AcDbEntity
  8
0
100
AcDbLine
 62
2
  6
CONTINUOUS
 10
5.2
 20
0.0
 11
5.2
 21
0.625
  0
LINE
  5
239
100
AcDbEntity
  8
0
100
AcDbLine
 62
2
  6
CONTINUOUS
 10
4.1
 20
0.0
 11
4.1
 21
1.25
  0
LINE
  5
23A
100
AcDbEntity
  8
0
100
AcDbLine
 62
2
  6
CONTINUOUS
 10
-0.0
 20
0.0
 11
-0.0
 21
1.25
  0
MTEXT
  5
23B
100
AcDbEntity
  8
0
100
AcDbMText
 62
2
  6
CONTINUOUS
  7
STANDARD
 71
2
 72
1
 10
6.6
 20
0.325
 30
0.0
 11
1.0
 21
0.0
 31
0.0
 44
0.9
  1
2
 40
0.125
 41
0.2
  0
MTEXT
  5
23C
100
AcDbEntity
  8
0
100
AcDbMText
 62
2
  6
CONTINUOUS
  7
STANDARD
 71
2
 72
1
 10
6.15
 20
0.325
 30
0.0
 11
1.0
 21
0.0
 31
0.0
 44
0.9
  1
C
 40
0.125
 41
0.2
  0
MTEXT
  5
23D
100
AcDbEntity
  8
0
100
AcDbMText
 62
2
  6
CONTINUOUS
  7
STANDARD
 71
2
 72
1
 10
5.55
 20
0.325
 30
0.0
 11
1.0
 21
0.0
 31
0.0
 44
0.9
  1
1.000
 40
0.125
 41
1.0
  0
MTEXT
  5
23E
100
AcDbEntity
  8
0
100
AcDbMText
 62
2
  6
CONTINUOUS
  7
STANDARD
 71
2
 72
1
 10
4.65
 20
0.325
 30
0.0
 11
1.0
 21
0.0
 31
0.0
 44
0.9
  1
Jul-29-19
 40
0.125
 41
1.8
  0
MTEXT
  5
23F
100
AcDbEntity
  8
0
100
AcDbMText
 62
2
  6
CONTINUOUS
  7
STANDARD
 71
2
 72
1
 10
2.05
 20
0.4625
 30
0.0
 11
1.0
 21
0.0
 31
0.0
 44
0.9
  1
T-3A Subplate ISO 05\PP to T
 40
0.125
 41
4.0
  0
MTEXT
  5
240
100
AcDbEntity
  8
0
100
AcDbMText
 62
2
  6
CONTINUOUS
  7
STANDARD
 71
1
 72
1
 10
6.45
 20
0.5625
 30
0.0
 11
1.0
 21
0.0
 31
0.0
 44
0.9
  1
SHEET
 40
0.06
 41
0.48
  0
MTEXT
  5
241
100
AcDbEntity
  8
0
100
AcDbMText
 62
2
  6
CONTINUOUS
  7
STANDARD
 71
1
 72
1
 10
5.95
 20
0.5625
 30
0.0
 11
1.0
 21
0.0
 31
0.0
 44
0.9
  1
DWG SIZE
 40
0.06
 41
0.768
  0
MTEXT
  5
242
100
AcDbEntity
  8
0
100
AcDbMText
 62
2
  6
CONTINUOUS
  7
STANDARD
 71
1
 72
1
 10
5.25
 20
0.5625
 30
0.0
 11
1.0
 21
0.0
 31
0.0
 44
0.9
  1
SCALE
 40
0.06
 41
0.48
  0
MTEXT
  5
243
100
AcDbEntity
  8
0
100
AcDbMText
 62
2
  6
CONTINUOUS
  7
STANDARD
 71
1
 72
1
 10
4.15
 20
0.5625
 30
0.0
 11
1.0
 21
0.0
 31
0.0
 44
0.9
  1
DATE
 40
0.06
 41
0.384
  0
MTEXT
  5
244
100
AcDbEntity
  8
0
100
AcDbMText
 62
2
  6
CONTINUOUS
  7
STANDARD
 71
1
 72
1
 10
0.05
 20
0.5625
 30
0.0
 11
1.0
 21
0.0
 31
0.0
 44
0.9
  1
DESCRIPTION
 40
0.06
 41
1.056
  0
MTEXT
  5
245
100
AcDbEntity
  8
0
100
AcDbMText
 62
2
  6
CONTINUOUS
  7
STANDARD
 71
2
 72
1
 10
5.45
 20
1.0375
 30
0.0
 11
1.0
 21
0.0
 31
0.0
 44
0.9
  1
ALL DIMENSIONS IN INCH\PVIEWS ARE THIRD ANGLE
 40
0.12
 41
4.224
  0
MTEXT
  5
246
100
AcDbEntity
  8
0
100
AcDbMText
 62
2
  6
CONTINUOUS
  7
STANDARD
 71
2
 72
1
 10
2.05
 20
0.95
 30
0.0
 11
1.0
 21
0.0
 31
0.0
 44
0.9
  1
X7Z
 40
0.125
 41
0.6
  0
MTEXT
  5
247
100
AcDbEntity
  8
0
100
AcDbMText
 62
2
  6
CONTINUOUS
  7
STANDARD
 71
1
 72
1
 10
0.05
 20
1.1875
 30
0.0
 11
1.0
 21
0.0
 31
0.0
 44
0.9
  1
MODEL
 40
0.06
 41
0.48
  0
ENDBLK
  5
248
100
AcDbEntity
  8
0
  6
BYBLOCK
 62
0
100
AcDbBlockEnd
  0
BLOCK
  5
249
100
AcDbEntity
  8
0
100
AcDbBlockBegin
  2
*T2
 70
1
 10
0.0
 20
0.0
  3
*T2
  1

  0
LINE
  5
24A
100
AcDbEntity
  8
0
100
AcDbLine
 62
2
  6
CONTINUOUS
 10
0.0
 20
0.0
 11
9.055
 21
0.0
  0
LINE
  5
24B
100
AcDbEntity
  8
0
100
AcDbLine
 62
2
  6
CONTINUOUS
 10
0.0
 20
0.0
 11
0.0
 21
-2.594
  0
LINE
  5
24C
100
AcDbEntity
  8
0
100
AcDbLine
 62
2
  6
CONTINUOUS
 10
0.0
 20
-0.344
 11
9.055
 21
-0.344
  0
LINE
  5
24D
100
AcDbEntity
  8
0
100
AcDbLine
 62
2
  6
CONTINUOUS
 10
0.0
 20
-0.594
 11
9.055
 21
-0.594
  0
LINE
  5
24E
100
AcDbEntity
  8
0
100
AcDbLine
 62
2
  6
CONTINUOUS
 10
0.0
 20
-0.844
 11
9.055
 21
-0.844
  0
LINE
  5
24F
100
AcDbEntity
  8
0
100
AcDbLine
 62
2
  6
CONTINUOUS
 10
0.0
 20
-1.094
 11
9.055
 21
-1.094
  0
LINE
  5
250
100
AcDbEntity
  8
0
100
AcDbLine
 62
2
  6
CONTINUOUS
 10
0.0
 20
-1.344
 11
9.055
 21
-1.344
  0
LINE
  5
251
100
AcDbEntity
  8
0
100
AcDbLine
 62
2
  6
CONTINUOUS
 10
0.0
 20
-1.594
 11
9.055
 21
-1.594
  0
LINE
  5
252
100
AcDbEntity
  8
0
100
AcDbLine
 62
2
  6
CONTINUOUS
 10
0.0
 20
-1.844
 11
9.055
 21
-1.844
  0
LINE
  5
253
100
AcDbEntity
  8
0
100
AcDbLine
 62
2
  6
CONTINUOUS
 10
0.0
 20
-2.094
 11
9.055
 21
-2.094
  0
LINE
  5
254
100
AcDbEntity
  8
0
100
AcDbLine
 62
2
  6
CONTINUOUS
 10
0.0
 20
-2.344
 11
9.055
 21
-2.344
  0
LINE
  5
255
100
AcDbEntity
  8
0
100
AcDbLine
 62
2
  6
CONTINUOUS
 10
0.0
 20
-2.594
 11
9.055
 21
-2.594
  0
LINE
  5
256
100
AcDbEntity
  8
0
100
AcDbLine
 62
2
  6
CONTINUOUS
 10
3.055
 20
0.0
 11
3.055
 21
-2.594
  0
LINE
  5
257
100
AcDbEntity
  8
0
100
AcDbLine
 62
2
  6
CONTINUOUS
 10
9.055
 20
0.0
 11
9.055
 21
-2.594
  0
MTEXT
  5
258
100
AcDbEntity
  8
0
100
AcDbMText
 62
2
  6
CONTINUOUS
  7
STANDARD
 71
2
 72
1
 10
1.5275
 20
-0.0995
 30
0.0
 11
1.0
 21
0.0
 31
0.0
 44
0.9
  1
Technical Data
 40
0.145
 41
3.248
  0
MTEXT
  5
259
100
AcDbEntity
  8
0
100
AcDbMText
 62
2
  6
CONTINUOUS
  7
STANDARD
 71
2
 72
1
 10
4.555
 20
-0.0995
 30
0.0
 11
1.0
 21
0.0
 31
0.0
 44
0.9
  1
U.S. Units
 40
0.145
 41
2.32
  0
MTEXT
  5
25A
100
AcDbEntity
  8
0
100
AcDbMText
 62
2
  6
CONTINUOUS
  7
STANDARD
 71
2
 72
1
 10
7.555
 20
-0.0995
 30
0.0
 11
1.0
 21
0.0
 31
0.0
 44
0.9
  1
Metric Units
 40
0.145
 41
2.784
  0
MTEXT
  5
25B
100
AcDbEntity
  8
0
100
AcDbMText
 62
2
  6
CONTINUOUS
  7
STANDARD
 71
2
 72
1
 10
1.5275
 20
-0.4065
 30
0.0
 11
1.0
 21
0.0
 31
0.0
 44
0.9
  1
Cavity
 40
0.125
 41
1.2
  0
MTEXT
  5
25C
100
AcDbEntity
  8
0
100
AcDbMText
 62
2
  6
CONTINUOUS
  7
STANDARD
 71
2
 72
1
 10
6.055
 20
-0.4065
 30
0.0
 11
1.0
 21
0.0
 31
0.0
 44
0.9
  1
T-3A
 40
0.125
 41
0.8
  0
MTEXT
  5
25D
100
AcDbEntity
  8
0
100
AcDbMText
 62
2
  6
CONTINUOUS
  7
STANDARD
 71
2
 72
1
 10
1.5275
 20
-0.6565
 30
0.0
 11
1.0
 21
0.0
 31
0.0
 44
0.9
  1
Body Features
 40
0.125
 41
2.6
  0
MTEXT
  5
25E
100
AcDbEntity
  8
0
100
AcDbMText
 62
2
  6
CONTINUOUS
  7
STANDARD
 71
2
 72
1
 10
6.055
 20
-0.6565
 30
0.0
 11
1.0
 21
0.0
 31
0.0
 44
0.9
  1
P to T
 40
0.125
 41
1.2
  0
MTEXT
  5
25F
100
AcDbEntity
  8
0
100
AcDbMText
 62
2
  6
CONTINUOUS
  7
STANDARD
 71
2
 72
1
 10
1.5275
 20
-0.9065
 30
0.0
 11
1.0
 21
0.0
 31
0.0
 44
0.9
  1
Body Type
 40
0.125
 41
1.8
  0
MTEXT
  5
260
100
AcDbEntity
  8
0
100
AcDbMText
 62
2
  6
CONTINUOUS
  7
STANDARD
 71
2
 72
1
 10
6.055
 20
-0.9065
 30
0.0
 11
1.0
 21
0.0
 31
0.0
 44
0.9
  1
Subplate
 40
0.125
 41
1.6
  0
MTEXT
  5
261
100
AcDbEntity
  8
0
100
AcDbMText
 62
2
  6
CONTINUOUS
  7
STANDARD
 71
2
 72
1
 10
1.5275
 20
-1.1565
 30
0.0
 11
1.0
 21
0.0
 31
0.0
 44
0.9
  1
Interface
 40
0.125
 41
1.8
  0
MTEXT
  5
262
100
AcDbEntity
  8
0
100
AcDbMText
 62
2
  6
CONTINUOUS
  7
STANDARD
 71
2
 72
1
 10
6.055
 20
-1.1565
 30
0.0
 11
1.0
 21
0.0
 31
0.0
 44
0.9
  1
ISO 05
 40
0.125
 41
1.2
  0
MTEXT
  5
263
100
AcDbEntity
  8
0
100
AcDbMText
 62
2
  6
CONTINUOUS
  7
STANDARD
 71
2
 72
1
 10
1.5275
 20
-1.4065
 30
0.0
 11
1.0
 21
0.0
 31
0.0
 44
0.9
  1
Open Cavity Quantity
 40
0.125
 41
4.0
  0
MTEXT
  5
264
100
AcDbEntity
  8
0
100
AcDbMText
 62
2
  6
CONTINUOUS
  7
STANDARD
 71
2
 72
1
 10
6.055
 20
-1.4065
 30
0.0
 11
1.0
 21
0.0
 31
0.0
 44
0.9
  1
1
 40
0.125
 41
0.2
  0
MTEXT
  5
265
100
AcDbEntity
  8
0
100
AcDbMText
 62
2
  6
CONTINUOUS
  7
STANDARD
 71
2
 72
1
 10
1.5275
 20
-1.6565
 30
0.0
 11
1.0
 21
0.0
 31
0.0
 44
0.9
  1
Weight
 40
0.125
 41
1.2
  0
MTEXT
  5
266
100
AcDbEntity
  8
0
100
AcDbMText
 62
2
  6
CONTINUOUS
  7
STANDARD
 71
2
 72
1
 10
4.555
 20
-1.6565
 30
0.0
 11
1.0
 21
0.0
 31
0.0
 44
0.9
  1
3.121 lb.
 40
0.125
 41
1.8
  0
MTEXT
  5
267
100
AcDbEntity
  8
0
100
AcDbMText
 62
2
  6
CONTINUOUS
  7
STANDARD
 71
2
 72
1
 10
7.555
 20
-1.6565
 30
0.0
 11
1.0
 21
0.0
 31
0.0
 44
0.9
  1
1,416 kg.
 40
0.125
 41
1.8
  0
MTEXT
  5
268
100
AcDbEntity
  8
0
100
AcDbMText
 62
2
  6
CONTINUOUS
  7
STANDARD
 71
2
 72
1
 10
1.5275
 20
-1.9065
 30
0.0
 11
1.0
 21
0.0
 31
0.0
 44
0.9
  1
Mounting Hole Diameter
 40
0.125
 41
4.4
  0
MTEXT
  5
269
100
AcDbEntity
  8
0
100
AcDbMText
 62
2
  6
CONTINUOUS
  7
STANDARD
 71
2
 72
1
 10
4.555
 20
-1.9065
 30
0.0
 11
1.0
 21
0.0
 31
0.0
 44
0.9
  1
.41 in.
 40
0.125
 41
1.4
  0
MTEXT
  5
26A
100
AcDbEntity
  8
0
100
AcDbMText
 62
2
  6
CONTINUOUS
  7
STANDARD
 71
2
 72
1
 10
7.555
 20
-1.9065
 30
0.0
 11
1.0
 21
0.0
 31
0.0
 44
0.9
  1
10,4 mm
 40
0.125
 41
1.4
  0
MTEXT
  5
26B
100
AcDbEntity
  8
0
100
AcDbMText
 62
2
  6
CONTINUOUS
  7
STANDARD
 71
2
 72
1
 10
1.5275
 20
-2.1565
 30
0.0
 11
1.0
 21
0.0
 31
0.0
 44
0.9
  1
Mounting Hole Depth
 40
0.125
 41
3.8
  0
MTEXT
  5
26C
100
AcDbEntity
  8
0
100
AcDbMText
 62
2
  6
CONTINUOUS
  7
STANDARD
 71
2
 72
1
 10
6.055
 20
-2.1565
 30
0.0
 11
1.0
 21
0.0
 31
0.0
 44
0.9
  1
Through
 40
0.125
 41
1.4
  0
MTEXT
  5
26D
100
AcDbEntity
  8
0
100
AcDbMText
 62
2
  6
CONTINUOUS
  7
STANDARD
 71
2
 72
1
 10
1.5275
 20
-2.4065
 30
0.0
 11
1.0
 21
0.0
 31
0.0
 44
0.9
  1
Mounting Hole Quantity
 40
0.125
 41
4.4
  0
MTEXT
  5
26E
100
AcDbEntity
  8
0
100
AcDbMText
 62
2
  6
CONTINUOUS
  7
STANDARD
 71
2
 72
1
 10
6.055
 20
-2.4065
 30
0.0
 11
1.0
 21
0.0
 31
0.0
 44
0.9
  1
3
 40
0.125
 41
0.2
  0
ENDBLK
  5
26F
100
AcDbEntity
  8
0
  6
BYBLOCK
 62
0
100
AcDbBlockEnd
  0
BLOCK
  5
270
100
AcDbEntity
  8
0
100
AcDbBlockBegin
  2
*T3
 70
1
 10
0.0
 20
0.0
  3
*T3
  1

  0
LINE
  5
271
100
AcDbEntity
  8
0
100
AcDbLine
 62
2
  6
CONTINUOUS
 10
0.0
 20
0.0
 11
4.6
 21
0.0
  0
LINE
  5
272
100
AcDbEntity
  8
0
100
AcDbLine
 62
2
  6
CONTINUOUS
 10
0.0
 20
0.0
 11
0.0
 21
-0.93775
  0
LINE
  5
273
100
AcDbEntity
  8
0
100
AcDbLine
 62
2
  6
CONTINUOUS
 10
0.0
 20
-0.34375
 11
4.6
 21
-0.34375
  0
LINE
  5
274
100
AcDbEntity
  8
0
100
AcDbLine
 62
2
  6
CONTINUOUS
 10
0.0
 20
-0.68775
 11
4.6
 21
-0.68775
  0
LINE
  5
275
100
AcDbEntity
  8
0
100
AcDbLine
 62
2
  6
CONTINUOUS
 10
0.0
 20
-0.93775
 11
4.6
 21
-0.93775
  0
LINE
  5
276
100
AcDbEntity
  8
0
100
AcDbLine
 62
2
  6
CONTINUOUS
 10
1.3
 20
-0.34375
 11
1.3
 21
-0.93775
  0
LINE
  5
277
100
AcDbEntity
  8
0
100
AcDbLine
 62
2
  6
CONTINUOUS
 10
3.3
 20
-0.34375
 11
3.3
 21
-0.93775
  0
LINE
  5
278
100
AcDbEntity
  8
0
100
AcDbLine
 62
2
  6
CONTINUOUS
 10
4.6
 20
0.0
 11
4.6
 21
-0.93775
  0
MTEXT
  5
279
100
AcDbEntity
  8
0
100
AcDbMText
 62
2
  6
CONTINUOUS
  7
STANDARD
 71
2
 72
1
 10
2.3
 20
-0.099375
 30
0.0
 11
1.0
 21
0.0
 31
0.0
 44
0.9
  1
Port Headings
 40
0.145
 41
3.016
  0
MTEXT
  5
27A
100
AcDbEntity
  8
0
100
AcDbMText
 62
2
  6
CONTINUOUS
  7
STANDARD
 71
2
 72
1
 10
0.65
 20
-0.44325
 30
0.0
 11
1.0
 21
0.0
 31
0.0
 44
0.9
  1
Product
 40
0.145
 41
1.624
  0
MTEXT
  5
27B
100
AcDbEntity
  8
0
100
AcDbMText
 62
2
  6
CONTINUOUS
  7
STANDARD
 71
2
 72
1
 10
2.3
 20
-0.44325
 30
0.0
 11
1.0
 21
0.0
 31
0.0
 44
0.9
  1
Port
 40
0.145
 41
0.928
  0
MTEXT
  5
27C
100
AcDbEntity
  8
0
100
AcDbMText
 62
2
  6
CONTINUOUS
  7
STANDARD
 71
2
 72
1
 10
3.95
 20
-0.44325
 30
0.0
 11
1.0
 21
0.0
 31
0.0
 44
0.9
  1
Size
 40
0.145
 41
0.928
  0
MTEXT
  5
27D
100
AcDbEntity
  8
0
100
AcDbMText
 62
2
  6
CONTINUOUS
  7
STANDARD
 71
2
 72
1
 10
0.65
 20
-0.75025
 30
0.0
 11
1.0
 21
0.0
 31
0.0
 44
0.9
  1
X7Z
 40
0.125
 41
0.6
  0
MTEXT
  5
27E
100
AcDbEntity
  8
0
100
AcDbMText
 62
2
  6
CONTINUOUS
  7
STANDARD
 71
2
 72
1
 10
2.3
 20
-0.75025
 30
0.0
 11
1.0
 21
0.0
 31
0.0
 44
0.9
  1
All Ports
 40
0.125
 41
1.8
  0
MTEXT
  5
27F
100
AcDbEntity
  8
0
100
AcDbMText
 62
2
  6
CONTINUOUS
  7
STANDARD
 71
2
 72
1
 10
3.95
 20
-0.75025
 30
0.0
 11
1.0
 21
0.0
 31
0.0
 44
0.9
  1
SAE 12
 40
0.125
 41
1.2
  0
ENDBLK
  5
280
100
AcDbEntity
  8
0
  6
BYBLOCK
 62
0
100
AcDbBlockEnd
  0
ENDSEC
  0
SECTION
  2
ENTITIES
  0
IMAGE
  5
281
100
AcDbEntity
  8
0
100
AcDbRasterImage
 62
7
  6
CONTINUOUS
 10
19.2297077316
 20
0.3094318264
 30
0.0
 11
0.0066666667
 21
0.0
 31
0.0
 12
0.0
 22
0.0066666667
 32
0.0
 13
369.0
 23
92.0
340
       3B1
 70
9
280
0
281
50
282
50
283
0
360
       3AB
 71
1
 91
2
 14
-0.5
 24
-0.5
 14
368.5
 24
91.5
  0
INSERT
  5
282
100
AcDbEntity
  8
0
100
AcDbBlockReference
 62
2
  6
CONTINUOUS
  2
SUN_FIRST_THIRD_ANGLE_BL0
 10
20.4816717061
 20
1.2289683772
  0
ACAD_TABLE
  5
283
100
AcDbEntity
  8
0
 62
2
  6
CONTINUOUS
100
AcDbBlockReference
  2
*T1
 10
12.42375
 20
0.30125
 30
0.0
100
AcDbTable
342
       3B3
343
209
 11
1.0
 21
0.0
 31
0.0
 90
6
 91
4
 92
6
 93
20
 94
0
 95
0
 96
0
 70
1
 41
0.0
141
0.525
141
0.1
141
0.525
141
0.1
142
4.1
142
1.1
142
0.7
142
0.5
142
0.4
142
2.475
171
1
172
0
173
0
174
0
175
1
176
1
 91
33
178
0
145
0.0
301
CELL_VALUE
 90
4
  1
T-3A Subplate ISO 05\PP to T
304
ACVALUE_END
170
2
140
0.125
171
1
172
0
173
0
174
0
175
1
176
1
 91
33
178
0
145
0.0
301
CELL_VALUE
 90
4
  1
Jul-29-19
304
ACVALUE_END
170
5
140
0.125
171
1
172
0
173
0
174
0
175
1
176
1
 91
33
178
0
145
0.0
301
CELL_VALUE
 90
4
  1
1.000
304
ACVALUE_END
170
5
140
0.125
171
1
172
0
173
0
174
0
175
1
176
1
 91
33
178
0
145
0.0
301
CELL_VALUE
 90
4
  1
C
304
ACVALUE_END
170
5
140
0.125
171
1
172
0
173
0
174
0
175
1
176
1
 91
33
178
0
145
0.0
301
CELL_VALUE
 90
4
  1
2
304
ACVALUE_END
170
5
140
0.125
171
1
172
0
173
0
174
0
175
1
176
1
 91
33
178
0
145
0.0
301
CELL_VALUE
 90
4
  1
 
304
ACVALUE_END
170
1
140
0.125
171
1
172
0
173
0
174
0
175
1
176
1
 91
33
178
0
145
0.0
301
CELL_VALUE
 90
4
  1
DESCRIPTION
304
ACVALUE_END
170
1
140
0.06
171
1
172
0
173
0
174
0
175
1
176
1
 91
33
178
0
145
0.0
301
CELL_VALUE
 90
4
  1
DATE
304
ACVALUE_END
170
1
140
0.06
171
1
172
0
173
0
174
0
175
1
176
1
 91
33
178
0
145
0.0
301
CELL_VALUE
 90
4
  1
SCALE
304
ACVALUE_END
170
1
140
0.06
171
1
172
0
173
0
174
0
175
1
176
1
 91
33
178
0
145
0.0
301
CELL_VALUE
 90
4
  1
DWG SIZE
304
ACVALUE_END
170
1
140
0.06
171
1
172
0
173
0
174
0
175
1
176
1
 91
33
178
0
145
0.0
301
CELL_VALUE
 90
4
  1
SHEET
304
ACVALUE_END
170
1
140
0.06
171
1
172
0
173
0
174
0
175
1
176
1
 91
33
178
0
145
0.0
301
CELL_VALUE
 90
4
  1
 
304
ACVALUE_END
170
1
140
0.125
171
1
172
0
173
0
174
0
175
1
176
1
 91
33
178
0
145
0.0
301
CELL_VALUE
 90
4
  1
X7Z
304
ACVALUE_END
170
5
140
0.125
171
1
172
0
173
0
174
0
175
4
176
1
 91
33
178
0
145
0.0
301
CELL_VALUE
 90
4
  1
ALL DIMENSIONS IN INCH\PVIEWS ARE THIRD ANGLE
304
ACVALUE_END
170
5
140
0.12
171
1
172
0
173
1
174
0
175
1
176
1
 91
1
178
0
145
0.0
170
1
171
1
172
0
173
1
174
0
175
1
176
1
 91
1
178
0
145
0.0
170
1
171
1
172
0
173
1
174
0
175
1
176
1
 91
1
178
0
145
0.0
170
5
171
1
172
0
173
0
174
0
175
1
176
1
 91
33
178
0
145
0.0
301
CELL_VALUE
 90
4
  1
 
304
ACVALUE_END
170
1
140
0.125
171
1
172
0
173
0
174
0
175
1
176
1
 91
33
178
0
145
0.0
301
CELL_VALUE
 90
4
  1
MODEL
304
ACVALUE_END
170
1
140
0.06
171
1
172
0
173
0
174
0
175
1
176
1
 91
33
178
0
145
0.0
301
CELL_VALUE
 90
4
  1
 
304
ACVALUE_END
170
1
140
0.125
171
1
172
0
173
0
174
0
175
1
176
1
 91
33
178
0
145
0.0
301
CELL_VALUE
 90
4
  1
 
304
ACVALUE_END
170
1
140
0.125
171
1
172
0
173
0
174
0
175
1
176
1
 91
33
178
0
145
0.0
301
CELL_VALUE
 90
4
  1
 
304
ACVALUE_END
170
1
140
0.125
171
1
172
0
173
0
174
0
175
1
176
1
 91
33
178
0
145
0.0
301
CELL_VALUE
 90
4
  1
 
304
ACVALUE_END
170
1
140
0.125
171
1
172
0
173
0
174
0
175
1
176
1
 91
33
178
0
145
0.0
301
CELL_VALUE
 90
4
  1
 
304
ACVALUE_END
170
1
140
0.125
  0
ACAD_TABLE
  5
284
100
AcDbEntity
  8
0
 62
2
  6
CONTINUOUS
100
AcDbBlockReference
  2
*T2
 10
12.4237499994
 20
16.47875
 30
0.0
100
AcDbTable
342
       3B2
343
20A
 11
1.0
 21
0.0
 31
0.0
 90
22
 91
10
 92
3
 93
16
 94
0
 95
0
 96
0
 41
0.028
141
0.344
141
0.25
141
0.25
141
0.25
141
0.25
141
0.25
141
0.25
141
0.25
141
0.25
141
0.25
142
3.055
142
3.0
142
3.0
171
1
172
0
173
0
174
0
175
1
176
1
 91
33
178
0
145
0.0
301
CELL_VALUE
 90
4
  1
Technical Data
304
ACVALUE_END
170
5
140
0.145
171
1
172
0
173
0
174
0
175
1
176
1
 91
33
178
0
145
0.0
301
CELL_VALUE
 90
4
  1
U.S. Units
304
ACVALUE_END
170
5
140
0.145
171
1
172
0
173
0
174
0
175
1
176
1
 91
33
178
0
145
0.0
301
CELL_VALUE
 90
4
  1
Metric Units
304
ACVALUE_END
170
5
140
0.145
171
1
172
0
173
0
174
0
175
1
176
1
 91
33
178
0
145
0.0
301
CELL_VALUE
 90
4
  1
Cavity
304
ACVALUE_END
170
5
140
0.125
171
1
172
0
173
0
174
0
175
2
176
1
 91
33
178
0
145
0.0
301
CELL_VALUE
 90
4
  1
T-3A
304
ACVALUE_END
170
5
140
0.125
171
1
172
0
173
1
174
0
175
1
176
1
 91
1
178
0
145
0.0
170
1
171
1
172
0
173
0
174
0
175
1
176
1
 91
33
178
0
145
0.0
301
CELL_VALUE
 90
4
  1
Body Features
304
ACVALUE_END
170
5
140
0.125
171
1
172
0
173
0
174
0
175
2
176
1
 91
33
178
0
145
0.0
301
CELL_VALUE
 90
4
  1
P to T
304
ACVALUE_END
170
5
140
0.125
171
1
172
0
173
1
174
0
175
1
176
1
 91
1
178
0
145
0.0
170
1
171
1
172
0
173
0
174
0
175
1
176
1
 91
33
178
0
145
0.0
301
CELL_VALUE
 90
4
  1
Body Type
304
ACVALUE_END
170
5
140
0.125
171
1
172
0
173
0
174
0
175
2
176
1
 91
33
178
0
145
0.0
301
CELL_VALUE
 90
4
  1
Subplate
304
ACVALUE_END
170
5
140
0.125
171
1
172
0
173
1
174
0
175
1
176
1
 91
1
178
0
145
0.0
170
1
171
1
172
0
173
0
174
0
175
1
176
1
 91
33
178
0
145
0.0
301
CELL_VALUE
 90
4
  1
Interface
304
ACVALUE_END
170
5
140
0.125
171
1
172
0
173
0
174
0
175
2
176
1
 91
33
178
0
145
0.0
301
CELL_VALUE
 90
4
  1
ISO 05
304
ACVALUE_END
170
5
140
0.125
171
1
172
0
173
1
174
0
175
1
176
1
 91
1
178
0
145
0.0
170
1
171
1
172
0
173
0
174
0
175
1
176
1
 91
33
178
0
145
0.0
301
CELL_VALUE
 90
4
  1
Open Cavity Quantity
304
ACVALUE_END
170
5
140
0.125
171
1
172
0
173
0
174
0
175
2
176
1
 91
33
178
0
145
0.0
301
CELL_VALUE
 90
4
  1
1
304
ACVALUE_END
170
5
140
0.125
171
1
172
0
173
1
174
0
175
1
176
1
 91
1
178
0
145
0.0
170
1
171
1
172
0
173
0
174
0
175
1
176
1
 91
33
178
0
145
0.0
301
CELL_VALUE
 90
4
  1
Weight
304
ACVALUE_END
170
5
140
0.125
171
1
172
0
173
0
174
0
175
1
176
1
 91
33
178
0
145
0.0
301
CELL_VALUE
 90
4
  1
3.121 lb.
304
ACVALUE_END
170
5
140
0.125
171
1
172
0
173
0
174
0
175
1
176
1
 91
33
178
0
145
0.0
301
CELL_VALUE
 90
4
  1
1,416 kg.
304
ACVALUE_END
170
5
140
0.125
171
1
172
0
173
0
174
0
175
1
176
1
 91
33
178
0
145
0.0
301
CELL_VALUE
 90
4
  1
Mounting Hole Diameter
304
ACVALUE_END
170
5
140
0.125
171
1
172
0
173
0
174
0
175
1
176
1
 91
33
178
0
145
0.0
301
CELL_VALUE
 90
4
  1
.41 in.
304
ACVALUE_END
170
5
140
0.125
171
1
172
0
173
0
174
0
175
1
176
1
 91
33
178
0
145
0.0
301
CELL_VALUE
 90
4
  1
10,4 mm
304
ACVALUE_END
170
5
140
0.125
171
1
172
0
173
0
174
0
175
1
176
1
 91
33
178
0
145
0.0
301
CELL_VALUE
 90
4
  1
Mounting Hole Depth
304
ACVALUE_END
170
5
140
0.125
171
1
172
0
173
0
174
0
175
2
176
1
 91
33
178
0
145
0.0
301
CELL_VALUE
 90
4
  1
Through
304
ACVALUE_END
170
5
140
0.125
171
1
172
0
173
1
174
0
175
1
176
1
 91
1
178
0
145
0.0
170
1
171
1
172
0
173
0
174
0
175
1
176
1
 91
33
178
0
145
0.0
301
CELL_VALUE
 90
4
  1
Mounting Hole Quantity
304
ACVALUE_END
170
5
140
0.125
171
1
172
0
173
0
174
0
175
2
176
1
 91
33
178
0
145
0.0
301
CELL_VALUE
 90
4
  1
3
304
ACVALUE_END
170
5
140
0.125
171
1
172
0
173
1
174
0
175
1
176
1
 91
1
178
0
145
0.0
170
1
  0
ACAD_TABLE
  5
285
100
AcDbEntity
  8
0
 62
2
  6
CONTINUOUS
100
AcDbBlockReference
  2
*T3
 10
0.52125
 20
1.459
 30
0.0
100
AcDbTable
342
       3B2
343
20B
 11
1.0
 21
0.0
 31
0.0
 90
22
 91
3
 92
3
 93
16
 94
0
 95
0
 96
0
 41
0.05
141
0.34375
141
0.344
141
0.25
142
1.3
142
2.0
142
1.3
171
1
172
0
173
0
174
0
175
3
176
1
 91
33
178
0
145
0.0
301
CELL_VALUE
 90
4
  1
Port Headings
304
ACVALUE_END
170
5
140
0.145
171
1
172
0
173
1
174
0
175
1
176
1
 91
1
178
0
145
0.0
170
1
171
1
172
0
173
1
174
0
175
1
176
1
 91
1
178
0
145
0.0
170
1
171
1
172
0
173
0
174
0
175
1
176
1
 91
33
178
0
145
0.0
301
CELL_VALUE
 90
4
  1
Product
304
ACVALUE_END
170
5
140
0.145
171
1
172
0
173
0
174
0
175
1
176
1
 91
33
178
0
145
0.0
301
CELL_VALUE
 90
4
  1
Port
304
ACVALUE_END
170
5
140
0.145
171
1
172
0
173
0
174
0
175
1
176
1
 91
33
178
0
145
0.0
301
CELL_VALUE
 90
4
  1
Size
304
ACVALUE_END
170
5
140
0.145
171
1
172
0
173
0
174
0
175
1
176
1
 91
33
178
0
145
0.0
301
CELL_VALUE
 90
4
  1
X7Z
304
ACVALUE_END
170
5
140
0.125
171
1
172
0
173
0
174
0
175
1
176
1
 91
33
178
0
145
0.0
301
CELL_VALUE
 90
4
  1
All Ports
304
ACVALUE_END
170
5
140
0.125
171
1
172
0
173
0
174
0
175
1
176
1
 91
33
178
0
145
0.0
301
CELL_VALUE
 90
4
  1
SAE 12
304
ACVALUE_END
170
5
140
0.125
  0
MTEXT
  5
286
100
AcDbEntity
  8
0
100
AcDbMText
 62
2
  6
CONTINUOUS
  7
STANDARD
 71
1
 72
1
 10
0.52125
 20
5.75995
 30
0.0
 11
1.0
 21
0.0
 31
0.0
 44
0.6
  3
Notes\P \P1. Important: Carefully consider\P   the maximum system pressure. The\P   pressure rating of the manifold is\P   dependent on the manifold material,\P   with the port type/size a secondary\P   consideration. Manifolds\P   constructed of alu
  1
minum are not\P   rated for pressures higher than\P   3000 psi (210 bar), regardless of\P   the port type/size specified.
 40
0.1
 41
3.04
  0
LINE
  5
287
100
AcDbEntity
  8
0
100
AcDbLine
 62
7
  6
CONTINUOUS
 10
0.30125
 20
0.30125
 11
0.30125
 21
16.69875
  0
LINE
  5
288
100
AcDbEntity
  8
0
100
AcDbLine
 62
7
  6
CONTINUOUS
 10
0.30125
 20
0.30125
 11
21.69875
 21
0.30125
  0
LINE
  5
289
100
AcDbEntity
  8
0
100
AcDbLine
 62
7
  6
CONTINUOUS
 10
0.30125
 20
16.69875
 11
21.69875
 21
16.69875
  0
LINE
  5
28A
100
AcDbEntity
  8
0
100
AcDbLine
 62
7
  6
CONTINUOUS
 10
21.69875
 20
0.30125
 11
21.69875
 21
16.69875
  0
LINE
  5
28B
100
AcDbEntity
  8
0
100
AcDbLine
 62
7
  6
CONTINUOUS
 10
8.785000436
 20
10.533807827
 11
9.3512960299
 21
11.080807399
  0
LINE
  5
28C
100
AcDbEntity
  8
0
100
AcDbLine
 62
4
  6
CONTINUOUS
 10
9.3311350243
 20
10.6213333605
 11
9.3621932834
 21
10.6513333368
  0
LINE
  5
28D
100
AcDbEntity
  8
0
100
AcDbLine
 62
7
  6
CONTINUOUS
 10
9.6763861761
 20
10.9428377988
 11
9.6609712463
 21
10.9284925885
  0
LINE
  5
28E
100
AcDbEntity
  8
0
100
AcDbLine
 62
7
  6
CONTINUOUS
 10
12.6487039701
 20
5.919192601
 11
8.785000436
 21
6.1871413512
  0
LINE
  5
28F
100
AcDbEntity
  8
0
100
AcDbLine
 62
7
  6
CONTINUOUS
 10
8.785000436
 20
10.533807827
 11
8.785000436
 21
6.1871413512
  0
LINE
  5
290
100
AcDbEntity
  8
0
100
AcDbLine
 62
7
  6
CONTINUOUS
 10
10.5039752175
 20
10.7567296558
 11
10.4885602878
 21
10.7423844454
  0
LINE
  5
291
100
AcDbEntity
  8
0
100
AcDbLine
 62
7
  6
CONTINUOUS
 10
9.6449732319
 20
10.8981518604
 11
9.6449732319
 21
10.7870703838
  0
LINE
  5
292
100
AcDbEntity
  8
0
100
AcDbLine
 62
7
  6
CONTINUOUS
 10
10.0357018395
 20
10.9522262691
 11
10.0357018395
 21
10.8666515205
  0
LINE
  5
293
100
AcDbEntity
  8
0
100
AcDbLine
 62
7
  6
CONTINUOUS
 10
10.2102549186
 20
10.9401209719
 11
10.2102549186
 21
10.8782492017
  0
LINE
  5
294
100
AcDbEntity
  8
0
100
AcDbLine
 62
4
  6
CONTINUOUS
 10
11.900580904
 20
10.4332275936
 11
11.9057572793
 21
10.4382275885
  0
LINE
  5
295
100
AcDbEntity
  8
0
100
AcDbLine
 62
4
  6
CONTINUOUS
 10
11.9844183377
 20
10.4542083421
 11
11.9533600786
 21
10.4242083658
  0
LINE
  5
296
100
AcDbEntity
  8
0
100
AcDbLine
 62
7
  6
CONTINUOUS
 10
10.5199732319
 20
10.8981518604
 11
10.5199732319
 21
10.7870703838
  0
LINE
  5
297
100
AcDbEntity
  8
0
100
AcDbLine
 62
7
  6
CONTINUOUS
 10
13.214999564
 20
10.8128586488
 11
12.6487039701
 21
10.2658590769
  0
LINE
  5
298
100
AcDbEntity
  8
0
100
AcDbLine
 62
4
  6
CONTINUOUS
 10
12.9694914149
 20
10.3935699013
 11
12.9628360734
 21
10.3871413346
  0
LINE
  5
299
100
AcDbEntity
  8
0
100
AcDbLine
 62
4
  6
CONTINUOUS
 10
12.9583991795
 20
10.3331795157
 11
12.9517438386
 21
10.3267509498
  0
LINE
  5
29A
100
AcDbEntity
  8
0
100
AcDbLine
 62
4
  6
CONTINUOUS
 10
12.9694914149
 20
10.2693794649
 11
12.9517438386
 21
10.2522366216
  0
LINE
  5
29B
100
AcDbEntity
  8
0
100
AcDbLine
 62
4
  6
CONTINUOUS
 10
12.9717098621
 20
10.2273657122
 11
12.9495253908
 21
10.2059371572
  0
LINE
  5
29C
100
AcDbEntity
  8
0
100
AcDbLine
 62
4
  6
CONTINUOUS
 10
12.9428700508
 20
10.1995085921
 11
12.940651603
 21
10.1973657359
  0
LINE
  5
29D
100
AcDbEntity
  8
0
100
AcDbLine
 62
4
  6
CONTINUOUS
 10
13.1301069834
 20
10.3610470838
 11
13.0990487243
 21
10.3310471074
  0
LINE
  5
29E
100
AcDbEntity
  8
0
100
AcDbLine
 62
4
  6
CONTINUOUS
 10
13.1034856182
 20
10.288416377
 11
13.125670089
 21
10.3098449316
  0
LINE
  5
29F
100
AcDbEntity
  8
0
100
AcDbLine
 62
4
  6
CONTINUOUS
 10
12.9694914149
 20
10.1507085838
 11
12.940651603
 21
10.122851463
  0
LINE
  5
2A0
100
AcDbEntity
  8
0
100
AcDbLine
 62
4
  6
CONTINUOUS
 10
12.9717098621
 20
10.119733997
 11
12.9495253908
 21
10.098305442
  0
LINE
  5
2A1
100
AcDbEntity
  8
0
100
AcDbLine
 62
4
  6
CONTINUOUS
 10
13.1301069834
 20
10.2561750909
 11
13.0990487243
 21
10.2261751146
  0
LINE
  5
2A2
100
AcDbEntity
  8
0
100
AcDbLine
 62
4
  6
CONTINUOUS
 10
12.9495253908
 20
10.0486292232
 11
12.9694914149
 21
10.0679149227
  0
LINE
  5
2A3
100
AcDbEntity
  8
0
100
AcDbLine
 62
4
  6
CONTINUOUS
 10
13.1034856182
 20
10.1973433829
 11
13.125670089
 21
10.2187719375
  0
LINE
  5
2A4
100
AcDbEntity
  8
0
100
AcDbLine
 62
4
  6
CONTINUOUS
 10
12.9717098621
 20
10.0369403359
 11
12.9539622846
 21
10.0197974915
  0
LINE
  5
2A5
100
AcDbEntity
  8
0
100
AcDbLine
 62
4
  6
CONTINUOUS
 10
13.125670089
 20
10.1608163858
 11
13.1034856182
 21
10.1393878312
  0
LINE
  5
2A6
100
AcDbEntity
  8
0
100
AcDbLine
 62
4
  6
CONTINUOUS
 10
12.9694914149
 20
9.9851213169
 11
12.9628360734
 21
9.9786927502
  0
LINE
  5
2A7
100
AcDbEntity
  8
0
100
AcDbLine
 62
4
  6
CONTINUOUS
 10
12.9517438386
 20
9.9321011983
 11
12.9561807325
 21
9.936386909
  0
LINE
  5
2A8
100
AcDbEntity
  8
0
100
AcDbLine
 62
4
  6
CONTINUOUS
 10
13.125670089
 20
10.0642238365
 11
13.1034856182
 21
10.0427952819
  0
LINE
  5
2A9
100
AcDbEntity
  8
0
100
AcDbLine
 62
4
  6
CONTINUOUS
 10
12.9717098621
 20
9.9127498995
 11
12.9495253908
 21
9.8913213445
  0
LINE
  5
2AA
100
AcDbEntity
  8
0
100
AcDbLine
 62
4
  6
CONTINUOUS
 10
12.940651603
 20
9.8496324256
 11
12.9717098621
 21
9.8796324019
  0
LINE
  5
2AB
100
AcDbEntity
  8
0
100
AcDbLine
 62
4
  6
CONTINUOUS
 10
12.9694914149
 20
9.8278133829
 11
12.9517438386
 21
9.8106705396
  0
LINE
  5
2AC
100
AcDbEntity
  8
0
100
AcDbLine
 62
4
  6
CONTINUOUS
 10
13.0373758961
 20
9.8920048498
 11
13.0307205543
 21
9.8855762829
  0
LINE
  5
2AD
100
AcDbEntity
  8
0
100
AcDbLine
 62
4
  6
CONTINUOUS
 10
13.1301069834
 20
9.8946428648
 11
13.0990487243
 21
9.8646428884
  0
LINE
  5
2AE
100
AcDbEntity
  8
0
100
AcDbLine
 62
4
  6
CONTINUOUS
 10
12.9517438386
 20
9.7057985744
 11
12.9717098621
 21
9.7250842732
  0
LINE
  5
2AF
100
AcDbEntity
  8
0
100
AcDbLine
 62
4
  6
CONTINUOUS
 10
12.9717098621
 20
9.6754080821
 11
12.940651603
 21
9.6454081058
  0
LINE
  5
2B0
100
AcDbEntity
  8
0
100
AcDbLine
 62
4
  6
CONTINUOUS
 10
13.1301069834
 20
9.8284079525
 11
13.0990487243
 21
9.7984079761
  0
LINE
  5
2B1
100
AcDbEntity
  8
0
100
AcDbLine
 62
4
  6
CONTINUOUS
 10
12.9717098621
 20
9.5512176181
 11
12.940651603
 21
9.5212176417
  0
LINE
  5
2B2
100
AcDbEntity
  8
0
100
AcDbLine
 62
4
  6
CONTINUOUS
 10
13.1034856182
 20
9.6233074487
 11
13.125670089
 21
9.6447360033
  0
LINE
  5
2B3
100
AcDbEntity
  8
0
100
AcDbLine
 62
4
  6
CONTINUOUS
 10
12.9717098621
 20
9.4932620664
 11
12.940651603
 21
9.46326209
  0
LINE
  5
2B4
100
AcDbEntity
  8
0
100
AcDbLine
 62
4
  6
CONTINUOUS
 10
12.9672729677
 20
9.4558588991
 11
12.940651603
 21
9.4301446339
  0
LINE
  5
2B5
100
AcDbEntity
  8
0
100
AcDbLine
 62
4
  6
CONTINUOUS
 10
13.1301069834
 20
9.5910661696
 11
13.0990487243
 21
9.5610661932
  0
LINE
  5
2B6
100
AcDbEntity
  8
0
100
AcDbLine
 62
4
  6
CONTINUOUS
 10
12.940651603
 20
9.3721890822
 11
12.9672729677
 21
9.3979033474
  0
LINE
  5
2B7
100
AcDbEntity
  8
0
100
AcDbLine
 62
4
  6
CONTINUOUS
 10
12.9672729677
 20
9.3647858913
 11
12.9628360734
 21
9.3605001802
  0
LINE
  5
2B8
100
AcDbEntity
  8
0
100
AcDbLine
 62
4
  6
CONTINUOUS
 10
12.9495253908
 20
9.2896874956
 11
12.9450884969
 21
9.2854017849
  0
LINE
  5
2B9
100
AcDbEntity
  8
0
100
AcDbLine
 62
7
  6
CONTINUOUS
 10
9.6609712463
 20
10.7567296558
 11
9.6763861761
 21
10.7423844454
  0
LINE
  5
2BA
100
AcDbEntity
  8
0
100
AcDbLine
 62
4
  6
CONTINUOUS
 10
12.7680194571
 20
7.4350350478
 11
12.7654312676
 21
7.4397794925
  0
LINE
  5
2BB
100
AcDbEntity
  8
0
100
AcDbLine
 62
4
  6
CONTINUOUS
 10
12.7861367743
 20
7.4525350334
 11
12.7809603976
 21
7.4620239251
  0
LINE
  5
2BC
100
AcDbEntity
  8
0
100
AcDbLine
 62
4
  6
CONTINUOUS
 10
12.9539622846
 20
10.0197974915
 11
12.9495253908
 21
10.0072324479
  0
LINE
  5
2BD
100
AcDbEntity
  8
0
100
AcDbLine
 62
4
  6
CONTINUOUS
 10
12.9495253908
 20
9.7367731882
 11
12.9717098621
 21
9.7830398526
  0
LINE
  5
2BE
100
AcDbEntity
  8
0
100
AcDbLine
 62
4
  6
CONTINUOUS
 10
13.0990487243
 20
9.6990555939
 11
13.1301069834
 21
9.7621730402
  0
LINE
  5
2BF
100
AcDbEntity
  8
0
100
AcDbLine
 62
4
  6
CONTINUOUS
 10
12.9495253908
 20
10.3660048688
 11
12.9517438386
 21
10.376427058
  0
LINE
  5
2C0
100
AcDbEntity
  8
0
100
AcDbLine
 62
4
  6
CONTINUOUS
 10
12.9694914149
 20
10.343893793
 11
12.9717098621
 21
10.3543159815
  0
LINE
  5
2C1
100
AcDbEntity
  8
0
100
AcDbLine
 62
4
  6
CONTINUOUS
 10
12.9717098621
 20
10.2798016534
 11
12.9694914149
 21
10.2693794649
  0
LINE
  5
2C2
100
AcDbEntity
  8
0
100
AcDbLine
 62
4
  6
CONTINUOUS
 10
12.9717098621
 20
10.1611308276
 11
12.9694914149
 21
10.1507085838
  0
LINE
  5
2C3
100
AcDbEntity
  8
0
100
AcDbLine
 62
4
  6
CONTINUOUS
 10
12.9694914149
 20
10.0679149227
 11
12.9717098621
 21
10.0783371665
  0
LINE
  5
2C4
100
AcDbEntity
  8
0
100
AcDbLine
 62
4
  6
CONTINUOUS
 10
12.9495253908
 20
9.9244387868
 11
12.9517438386
 21
9.9321011983
  0
LINE
  5
2C5
100
AcDbEntity
  8
0
100
AcDbLine
 62
4
  6
CONTINUOUS
 10
13.0307205543
 20
9.7862239076
 11
13.0617788134
 21
9.8824588031
  0
LINE
  5
2C6
100
AcDbEntity
  8
0
100
AcDbLine
 62
4
  6
CONTINUOUS
 10
12.940651603
 20
9.46326209
 11
12.9717098621
 21
9.5512176181
  0
LINE
  5
2C7
100
AcDbEntity
  8
0
100
AcDbLine
 62
4
  6
CONTINUOUS
 10
13.1301069834
 20
9.6959381141
 11
13.0990487243
 21
9.6990555939
  0
LINE
  5
2C8
100
AcDbEntity
  8
0
100
AcDbLine
 62
4
  6
CONTINUOUS
 10
12.9791046857
 20
9.7819033159
 11
12.9495253908
 21
9.7864493517
  0
LINE
  5
2C9
100
AcDbEntity
  8
0
100
AcDbLine
 62
7
  6
CONTINUOUS
 10
10.4885602878
 20
10.9428377988
 11
10.5039752175
 21
10.9284925885
  0
LINE
  5
2CA
100
AcDbEntity
  8
0
100
AcDbLine
 62
7
  6
CONTINUOUS
 10
12.6487039701
 20
10.2658590769
 11
12.6487039701
 21
5.919192601
  0
LINE
  5
2CB
100
AcDbEntity
  8
0
100
AcDbLine
 62
4
  6
CONTINUOUS
 10
12.7550785152
 20
7.422535057
 11
12.7550785152
 21
7.3718239493
  0
LINE
  5
2CC
100
AcDbEntity
  8
0
100
AcDbLine
 62
4
  6
CONTINUOUS
 10
12.7680194571
 20
7.38432394
 11
12.7680194571
 21
7.4350350478
  0
LINE
  5
2CD
100
AcDbEntity
  8
0
100
AcDbLine
 62
4
  6
CONTINUOUS
 10
12.7861367743
 20
7.4018239256
 11
12.7861367743
 21
7.4525350334
  0
LINE
  5
2CE
100
AcDbEntity
  8
0
100
AcDbLine
 62
4
  6
CONTINUOUS
 10
12.9717098621
 20
10.0038228936
 11
12.9694914149
 21
9.9851213169
  0
LINE
  5
2CF
100
AcDbEntity
  8
0
100
AcDbLine
 62
4
  6
CONTINUOUS
 10
12.9717098621
 20
9.8465149596
 11
12.9694914149
 21
9.8278133829
  0
LINE
  5
2D0
100
AcDbEntity
  8
0
100
AcDbLine
 62
4
  6
CONTINUOUS
 10
12.9628360734
 20
10.3871413346
 11
12.9613571087
 21
10.3774334314
  0
LINE
  5
2D1
100
AcDbEntity
  8
0
100
AcDbLine
 62
4
  6
CONTINUOUS
 10
12.9598781441
 20
10.3428874189
 11
12.9583991795
 21
10.3331795157
  0
LINE
  5
2D2
100
AcDbEntity
  8
0
100
AcDbLine
 62
4
  6
CONTINUOUS
 10
12.9628360734
 20
9.3605001802
 11
12.9495253908
 21
9.2896874956
  0
LINE
  5
2D3
100
AcDbEntity
  8
0
100
AcDbLine
 62
4
  6
CONTINUOUS
 10
12.9495253908
 20
9.6953763576
 11
12.9517438386
 21
9.7057985744
  0
LINE
  5
2D4
100
AcDbEntity
  8
0
100
AcDbLine
 62
4
  6
CONTINUOUS
 10
13.0990487243
 20
10.2675719451
 11
13.1034856182
 21
10.288416377
  0
LINE
  5
2D5
100
AcDbEntity
  8
0
100
AcDbLine
 62
4
  6
CONTINUOUS
 10
13.0990487243
 20
10.1764989511
 11
13.1034856182
 21
10.1973433829
  0
LINE
  5
2D6
100
AcDbEntity
  8
0
100
AcDbLine
 62
4
  6
CONTINUOUS
 10
12.940651603
 20
9.330792262
 11
12.9428700508
 21
9.3412144822
  0
LINE
  5
2D7
100
AcDbEntity
  8
0
100
AcDbLine
 62
4
  6
CONTINUOUS
 10
13.1301069834
 20
10.1816608181
 11
13.125670089
 21
10.1608163858
  0
LINE
  5
2D8
100
AcDbEntity
  8
0
100
AcDbLine
 62
4
  6
CONTINUOUS
 10
12.9672729677
 20
9.3979033474
 11
12.9717098621
 21
9.4187477866
  0
LINE
  5
2D9
100
AcDbEntity
  8
0
100
AcDbLine
 62
4
  6
CONTINUOUS
 10
13.1301069834
 20
10.0850682687
 11
13.125670089
 21
10.0642238365
  0
LINE
  5
2DA
100
AcDbEntity
  8
0
100
AcDbLine
 62
4
  6
CONTINUOUS
 10
12.9694914149
 20
9.3089731951
 11
12.9717098621
 21
9.3193954155
  0
LINE
  5
2DB
100
AcDbEntity
  8
0
100
AcDbLine
 62
4
  6
CONTINUOUS
 10
13.0990487243
 20
9.60246301
 11
13.1034856182
 21
9.6233074487
  0
LINE
  5
2DC
100
AcDbEntity
  8
0
100
AcDbLine
 62
4
  6
CONTINUOUS
 10
11.9057572793
 20
10.4382275885
 11
11.9155899127
 21
10.4402251838
  0
LINE
  5
2DD
100
AcDbEntity
  8
0
100
AcDbLine
 62
4
  6
CONTINUOUS
 10
13.0307205543
 20
9.9435318277
 11
13.0617788134
 21
9.9404143479
  0
LINE
  5
2DE
100
AcDbEntity
  8
0
100
AcDbLine
 62
4
  6
CONTINUOUS
 10
12.940651603
 20
9.2976748041
 11
12.940651603
 21
9.330792262
  0
LINE
  5
2DF
100
AcDbEntity
  8
0
100
AcDbLine
 62
4
  6
CONTINUOUS
 10
12.940651603
 20
10.1973657359
 11
12.940651603
 21
10.2001255135
  0
LINE
  5
2E0
100
AcDbEntity
  8
0
100
AcDbLine
 62
4
  6
CONTINUOUS
 10
12.9495253908
 20
10.0072324479
 11
12.9495253908
 21
9.9658356174
  0
LINE
  5
2E1
100
AcDbEntity
  8
0
100
AcDbLine
 62
4
  6
CONTINUOUS
 10
12.9495253908
 20
9.6539795271
 11
12.9495253908
 21
9.6953763576
  0
LINE
  5
2E2
100
AcDbEntity
  8
0
100
AcDbLine
 62
4
  6
CONTINUOUS
 10
12.9495253908
 20
9.8250864046
 11
12.9495253908
 21
9.8582038469
  0
LINE
  5
2E3
100
AcDbEntity
  8
0
100
AcDbLine
 62
4
  6
CONTINUOUS
 10
12.9495253908
 20
9.8913213445
 11
12.9495253908
 21
9.9244387868
  0
LINE
  5
2E4
100
AcDbEntity
  8
0
100
AcDbLine
 62
4
  6
CONTINUOUS
 10
12.9495253908
 20
10.2583730983
 11
12.9495253908
 21
10.2914906512
  0
LINE
  5
2E5
100
AcDbEntity
  8
0
100
AcDbLine
 62
4
  6
CONTINUOUS
 10
12.9495253908
 20
10.3328874265
 11
12.9495253908
 21
10.3660048688
  0
LINE
  5
2E6
100
AcDbEntity
  8
0
100
AcDbLine
 62
4
  6
CONTINUOUS
 10
12.9606176264
 20
9.9931086161
 11
12.9606176264
 21
10.0262260584
  0
LINE
  5
2E7
100
AcDbEntity
  8
0
100
AcDbLine
 62
4
  6
CONTINUOUS
 10
12.9717098621
 20
10.3129192062
 11
12.9717098621
 21
10.2798016534
  0
LINE
  5
2E8
100
AcDbEntity
  8
0
100
AcDbLine
 62
4
  6
CONTINUOUS
 10
12.9717098621
 20
10.1776895487
 11
12.9717098621
 21
10.1611308276
  0
LINE
  5
2E9
100
AcDbEntity
  8
0
100
AcDbLine
 62
4
  6
CONTINUOUS
 10
12.9717098621
 20
10.0369403359
 11
12.9717098621
 21
10.0038228936
  0
LINE
  5
2EA
100
AcDbEntity
  8
0
100
AcDbLine
 62
4
  6
CONTINUOUS
 10
12.9717098621
 20
9.8796324019
 11
12.9717098621
 21
9.8465149596
  0
LINE
  5
2EB
100
AcDbEntity
  8
0
100
AcDbLine
 62
4
  6
CONTINUOUS
 10
12.9717098621
 20
9.3193954155
 11
12.9717098621
 21
9.3525128743
  0
LINE
  5
2EC
100
AcDbEntity
  8
0
100
AcDbLine
 62
4
  6
CONTINUOUS
 10
12.9717098621
 20
9.4187477866
 11
12.9717098621
 21
9.4435858891
  0
LINE
  5
2ED
100
AcDbEntity
  8
0
100
AcDbLine
 62
4
  6
CONTINUOUS
 10
12.9717098621
 20
10.0783371665
 11
12.9717098621
 21
10.119733997
  0
LINE
  5
2EE
100
AcDbEntity
  8
0
100
AcDbLine
 62
4
  6
CONTINUOUS
 10
12.9717098621
 20
10.3543159815
 11
12.9717098621
 21
10.3874334239
  0
LINE
  5
2EF
100
AcDbEntity
  8
0
100
AcDbLine
 62
4
  6
CONTINUOUS
 10
12.9791046857
 20
9.7653445947
 11
12.9791046857
 21
9.7819033159
  0
LINE
  5
2F0
100
AcDbEntity
  8
0
100
AcDbLine
 62
4
  6
CONTINUOUS
 10
13.0307205543
 20
9.8855762829
 11
13.0307205543
 21
9.9435318277
  0
LINE
  5
2F1
100
AcDbEntity
  8
0
100
AcDbLine
 62
4
  6
CONTINUOUS
 10
13.0307205543
 20
9.9766492977
 11
13.0307205543
 21
10.0346048356
  0
LINE
  5
2F2
100
AcDbEntity
  8
0
100
AcDbLine
 62
4
  6
CONTINUOUS
 10
13.0617788134
 20
10.006649274
 11
13.0617788134
 21
10.0646048119
  0
LINE
  5
2F3
100
AcDbEntity
  8
0
100
AcDbLine
 62
4
  6
CONTINUOUS
 10
12.9613571087
 20
10.3774334314
 11
12.9598781441
 21
10.3428874189
  0
LINE
  5
2F4
100
AcDbEntity
  8
0
100
AcDbLine
 62
4
  6
CONTINUOUS
 10
13.1108804414
 20
10.425269275
 11
13.1167963008
 21
10.475140165
  0
LINE
  5
2F5
100
AcDbEntity
  8
0
100
AcDbLine
 62
4
  6
CONTINUOUS
 10
13.1167963008
 20
9.5119741175
 11
13.1227121598
 21
9.5618450105
  0
LINE
  5
2F6
100
AcDbEntity
  8
0
100
AcDbLine
 62
4
  6
CONTINUOUS
 10
12.7576667028
 20
7.4322794984
 11
12.7550785152
 21
7.422535057
  0
LINE
  5
2F7
100
AcDbEntity
  8
0
100
AcDbLine
 62
4
  6
CONTINUOUS
 10
12.7731958333
 20
7.4545239314
 11
12.7680194571
 21
7.4350350478
  0
LINE
  5
2F8
100
AcDbEntity
  8
0
100
AcDbLine
 62
4
  6
CONTINUOUS
 10
12.7809603976
 20
7.4620239251
 11
12.7731958333
 21
7.4545239314
  0
LINE
  5
2F9
100
AcDbEntity
  8
0
100
AcDbLine
 62
4
  6
CONTINUOUS
 10
12.7654312676
 20
7.4397794925
 11
12.7576667028
 21
7.4322794984
  0
LINE
  5
2FA
100
AcDbEntity
  8
0
100
AcDbLine
 62
4
  6
CONTINUOUS
 10
12.7550785152
 20
7.3718239493
 11
12.7861367743
 21
7.4018239256
  0
LINE
  5
2FB
100
AcDbEntity
  8
0
100
AcDbLine
 62
4
  6
CONTINUOUS
 10
11.9155899127
 20
10.4402251838
 11
11.9326669883
 21
10.4417203734
  0
LINE
  5
2FC
100
AcDbEntity
  8
0
100
AcDbLine
 62
7
  6
CONTINUOUS
 10
12.6487039701
 20
10.2658590769
 11
8.785000436
 21
10.533807827
  0
LINE
  5
2FD
100
AcDbEntity
  8
0
100
AcDbLine
 62
4
  6
CONTINUOUS
 10
11.9533600786
 20
10.4242083658
 11
11.9171378588
 21
10.4267203853
  0
LINE
  5
2FE
100
AcDbEntity
  8
0
100
AcDbLine
 62
4
  6
CONTINUOUS
 10
9.3673572441
 20
10.618821341
 11
9.2949128045
 21
10.6238453799
  0
LINE
  5
2FF
100
AcDbEntity
  8
0
100
AcDbLine
 62
4
  6
CONTINUOUS
 10
11.9326669883
 20
10.4417203734
 11
11.9688892081
 21
10.439208354
  0
LINE
  5
300
100
AcDbEntity
  8
0
100
AcDbLine
 62
4
  6
CONTINUOUS
 10
13.0990487243
 20
9.5610661932
 11
13.0990487243
 21
9.60246301
  0
LINE
  5
301
100
AcDbEntity
  8
0
100
AcDbLine
 62
4
  6
CONTINUOUS
 10
13.0990487243
 20
9.7652905062
 11
13.0990487243
 21
9.8315254185
  0
LINE
  5
302
100
AcDbEntity
  8
0
100
AcDbLine
 62
4
  6
CONTINUOUS
 10
13.0990487243
 20
9.8646428884
 11
13.0990487243
 21
9.9143190796
  0
LINE
  5
303
100
AcDbEntity
  8
0
100
AcDbLine
 62
4
  6
CONTINUOUS
 10
13.0990487243
 20
10.0550682924
 11
13.0990487243
 21
10.0881857347
  0
LINE
  5
304
100
AcDbEntity
  8
0
100
AcDbLine
 62
4
  6
CONTINUOUS
 10
13.0990487243
 20
10.1516608417
 11
13.0990487243
 21
10.1764989511
  0
LINE
  5
305
100
AcDbEntity
  8
0
100
AcDbLine
 62
4
  6
CONTINUOUS
 10
13.0990487243
 20
10.2261751146
 11
13.0990487243
 21
10.2675719451
  0
LINE
  5
306
100
AcDbEntity
  8
0
100
AcDbLine
 62
4
  6
CONTINUOUS
 10
13.0990487243
 20
10.3310471074
 11
13.0990487243
 21
10.3807232709
  0
LINE
  5
307
100
AcDbEntity
  8
0
100
AcDbLine
 62
4
  6
CONTINUOUS
 10
13.112359406
 20
10.3770216817
 11
13.112359406
 21
10.3439042394
  0
LINE
  5
308
100
AcDbEntity
  8
0
100
AcDbLine
 62
4
  6
CONTINUOUS
 10
13.112359406
 20
9.9106174903
 11
13.112359406
 21
9.8775000204
  0
LINE
  5
309
100
AcDbEntity
  8
0
100
AcDbLine
 62
4
  6
CONTINUOUS
 10
13.1212331947
 20
9.6984058439
 11
13.1212331947
 21
9.7425624521
  0
LINE
  5
30A
100
AcDbEntity
  8
0
100
AcDbLine
 62
4
  6
CONTINUOUS
 10
13.1301069834
 20
10.2975719215
 11
13.1301069834
 21
10.2561750909
  0
LINE
  5
30B
100
AcDbEntity
  8
0
100
AcDbLine
 62
4
  6
CONTINUOUS
 10
13.1301069834
 20
10.2064989275
 11
13.1301069834
 21
10.1816608181
  0
LINE
  5
30C
100
AcDbEntity
  8
0
100
AcDbLine
 62
4
  6
CONTINUOUS
 10
13.1301069834
 20
10.1181857111
 11
13.1301069834
 21
10.0850682687
  0
LINE
  5
30D
100
AcDbEntity
  8
0
100
AcDbLine
 62
4
  6
CONTINUOUS
 10
13.1301069834
 20
9.6324629863
 11
13.1301069834
 21
9.5910661696
  0
LINE
  5
30E
100
AcDbEntity
  8
0
100
AcDbLine
 62
4
  6
CONTINUOUS
 10
13.1301069834
 20
9.8946428648
 11
13.1301069834
 21
9.9443190559
  0
LINE
  5
30F
100
AcDbEntity
  8
0
100
AcDbLine
 62
4
  6
CONTINUOUS
 10
13.1301069834
 20
10.3610470838
 11
13.1301069834
 21
10.4107232473
  0
LINE
  5
310
100
AcDbEntity
  8
0
100
AcDbLine
 62
7
  6
CONTINUOUS
 10
13.214999564
 20
10.8128586488
 11
13.214999564
 21
6.466192173
  0
LINE
  5
311
100
AcDbEntity
  8
0
100
AcDbLine
 62
4
  6
CONTINUOUS
 10
12.940651603
 20
10.2001255135
 11
12.9428700508
 21
10.1995085921
  0
LINE
  5
312
100
AcDbEntity
  8
0
100
AcDbLine
 62
4
  6
CONTINUOUS
 10
11.9171378588
 20
10.4267203853
 11
11.9052371585
 21
10.4302251905
  0
LINE
  5
313
100
AcDbEntity
  8
0
100
AcDbLine
 62
4
  6
CONTINUOUS
 10
11.9052371585
 20
10.4302251905
 11
11.900580904
 21
10.4332275936
  0
LINE
  5
314
100
AcDbEntity
  8
0
100
AcDbLine
 62
4
  6
CONTINUOUS
 10
12.9450884969
 20
9.2854017849
 11
12.940651603
 21
9.2976748041
  0
LINE
  5
315
100
AcDbEntity
  8
0
100
AcDbLine
 62
4
  6
CONTINUOUS
 10
12.9717098621
 20
9.3525128743
 11
12.9672729677
 21
9.3647858913
  0
LINE
  5
316
100
AcDbEntity
  8
0
100
AcDbLine
 62
4
  6
CONTINUOUS
 10
12.9717098621
 20
9.4435858891
 11
12.9672729677
 21
9.4558588991
  0
LINE
  5
317
100
AcDbEntity
  8
0
100
AcDbLine
 62
4
  6
CONTINUOUS
 10
12.9517438386
 20
9.8106705396
 11
12.9495253908
 21
9.8250864046
  0
LINE
  5
318
100
AcDbEntity
  8
0
100
AcDbLine
 62
4
  6
CONTINUOUS
 10
12.9628360734
 20
9.9786927502
 11
12.9606176264
 21
9.9931086161
  0
LINE
  5
319
100
AcDbEntity
  8
0
100
AcDbLine
 62
4
  6
CONTINUOUS
 10
13.1108804414
 20
9.5504164474
 11
13.1167963008
 21
9.5119741175
  0
LINE
  5
31A
100
AcDbEntity
  8
0
100
AcDbLine
 62
7
  6
CONTINUOUS
 10
9.3512960299
 20
11.080807399
 11
13.214999564
 21
10.8128586488
  0
LINE
  5
31B
100
AcDbEntity
  8
0
100
AcDbLine
 62
4
  6
CONTINUOUS
 10
13.0307205543
 20
10.0346048356
 11
13.0617788134
 21
10.006649274
  0
LINE
  5
31C
100
AcDbEntity
  8
0
100
AcDbLine
 62
4
  6
CONTINUOUS
 10
13.0617788134
 20
9.8162238839
 11
13.0307205543
 21
9.8524588268
  0
LINE
  5
31D
100
AcDbEntity
  8
0
100
AcDbLine
 62
4
  6
CONTINUOUS
 10
13.125670089
 20
9.6447360033
 11
13.1301069834
 21
9.6324629863
  0
LINE
  5
31E
100
AcDbEntity
  8
0
100
AcDbLine
 62
4
  6
CONTINUOUS
 10
12.9517438386
 20
10.2522366216
 11
12.9495253908
 21
10.2583730983
  0
LINE
  5
31F
100
AcDbEntity
  8
0
100
AcDbLine
 62
4
  6
CONTINUOUS
 10
12.9517438386
 20
10.3267509498
 11
12.9495253908
 21
10.3328874265
  0
LINE
  5
320
100
AcDbEntity
  8
0
100
AcDbLine
 62
4
  6
CONTINUOUS
 10
12.9717098621
 20
10.3874334239
 11
12.9694914149
 21
10.3935699013
  0
LINE
  5
321
100
AcDbEntity
  8
0
100
AcDbLine
 62
4
  6
CONTINUOUS
 10
13.1034856182
 20
10.0427952819
 11
13.0990487243
 21
10.0550682924
  0
LINE
  5
322
100
AcDbEntity
  8
0
100
AcDbLine
 62
4
  6
CONTINUOUS
 10
13.1167963008
 20
10.475140165
 11
13.1227121598
 21
10.4366978381
  0
LINE
  5
323
100
AcDbEntity
  8
0
100
AcDbLine
 62
4
  6
CONTINUOUS
 10
13.1034856182
 20
10.1393878312
 11
13.0990487243
 21
10.1516608417
  0
LINE
  5
324
100
AcDbEntity
  8
0
100
AcDbLine
 62
4
  6
CONTINUOUS
 10
13.125670089
 20
10.2187719375
 11
13.1301069834
 21
10.2064989275
  0
LINE
  5
325
100
AcDbEntity
  8
0
100
AcDbLine
 62
4
  6
CONTINUOUS
 10
13.125670089
 20
10.3098449316
 11
13.1301069834
 21
10.2975719215
  0
LINE
  5
326
100
AcDbEntity
  8
0
100
AcDbLine
 62
7
  6
CONTINUOUS
 10
13.214999564
 20
6.466192173
 11
12.6487039701
 21
5.919192601
  0
ARC
  5
327
100
AcDbEntity
  8
0
100
AcDbCircle
 62
7
  6
CONTINUOUS
 10
10.0719740799
 20
7.9212684143
 40
0.1942316631
100
AcDbArc
 50
334.2859508983
 51
342.5847517232
  0
ARC
  5
328
100
AcDbEntity
  8
0
100
AcDbCircle
 62
7
  6
CONTINUOUS
 10
10.0326161903
 20
7.9612814153
 40
0.1942314616
100
AcDbArc
 50
154.2859530115
 51
162.5847538389
  0
ARC
  5
329
100
AcDbEntity
  8
0
100
AcDbCircle
 62
7
  6
CONTINUOUS
 10
10.0989780287
 20
9.3477181255
 40
0.1204890005
100
AcDbArc
 50
216.0335857956
 51
232.0498253939
  0
ARC
  5
32A
100
AcDbEntity
  8
0
100
AcDbCircle
 62
7
  6
CONTINUOUS
 10
12.1506046753
 20
9.2054373343
 40
0.1204890005
100
AcDbArc
 50
216.0335857956
 51
232.0498253939
  0
ARC
  5
32B
100
AcDbEntity
  8
0
100
AcDbCircle
 62
7
  6
CONTINUOUS
 10
10.0989780287
 20
7.5964945336
 40
0.1204890005
100
AcDbArc
 50
216.0335857956
 51
232.0498253939
  0
ARC
  5
32C
100
AcDbEntity
  8
0
100
AcDbCircle
 62
7
  6
CONTINUOUS
 10
12.1506046753
 20
7.4542137424
 40
0.1204890005
100
AcDbArc
 50
216.0335857956
 51
232.0498253939
  0
ARC
  5
32D
100
AcDbEntity
  8
0
100
AcDbCircle
 62
7
  6
CONTINUOUS
 10
10.4214193308
 20
10.7297203553
 40
0.0700833602
100
AcDbArc
 50
10.7705179584
 51
11.2979364932
  0
ARC
  5
32E
100
AcDbEntity
  8
0
100
AcDbCircle
 62
7
  6
CONTINUOUS
 10
9.7418799531
 20
10.7301402522
 40
0.0683905435
100
AcDbArc
 50
168.5477180082
 51
169.5517357339
  0
SPLINE
  5
32F
100
AcDbEntity
  8
0
100
AcDbSpline
 62
7
  6
CONTINUOUS
 70
0
 71
3
 72
28
 73
24
 74
0
 42
0.0000001
 43
0.0000001
 44
0.0000000001
 40
0.0
 40
0.0
 40
0.0
 40
0.0
 40
0.0760831817
 40
0.1533751155
 40
0.2311100999
 40
0.3086182073
 40
0.3852280831
 40
0.4602541833
 40
0.5330373694
 40
0.6029453116
 40
0.6693845349
 40
0.7317985802
 40
0.7896935384
 40
0.8168094458
 40
0.8426418223
 40
0.8671494865
 40
0.8902967233
 40
0.9120601912
 40
0.9324245672
 40
0.9513825519
 40
0.9689423384
 40
0.9851323547
 40
1.0
 40
1.0
 40
1.0
 40
1.0
 10
10.033944701
 20
10.8667317105
 30
0.0
 10
10.0398967212
 20
10.8663189365
 30
0.0
 10
10.0519071843
 20
10.8656501679
 30
0.0
 10
10.0700241969
 20
10.8651082194
 30
0.0
 10
10.0882609777
 20
10.8650246165
 30
0.0
 10
10.106440573
 20
10.8653991392
 30
0.0
 10
10.1243925624
 20
10.8662279479
 30
0.0
 10
10.1419469902
 20
10.8675035074
 30
0.0
 10
10.1589365864
 20
10.8692128476
 30
0.0
 10
10.1752002951
 20
10.871340269
 30
0.0
 10
10.1905843681
 20
10.87386363
 30
0.0
 10
10.2049430799
 20
10.8767600376
 30
0.0
 10
10.2161751895
 20
10.8795161168
 30
0.0
 10
10.2245335272
 20
10.881905037
 30
0.0
 10
10.2303270181
 20
10.8837322328
 30
0.0
 10
10.235769408
 20
10.8856297872
 30
0.0
 10
10.2408476676
 20
10.8875937856
 30
0.0
 10
10.2455501883
 20
10.889619112
 30
0.0
 10
10.2498663212
 20
10.8917008112
 30
0.0
 10
10.2537858686
 20
10.8938344327
 30
0.0
 10
10.2572999259
 20
10.8960155707
 30
0.0
 10
10.2604008516
 20
10.8982386773
 30
0.0
 10
10.2622654919
 20
10.8998110999
 30
0.0
 10
10.2631189559
 20
10.9006053999
 30
0.0
  0
SPLINE
  5
330
100
AcDbEntity
  8
0
100
AcDbSpline
 62
7
  6
CONTINUOUS
 70
0
 71
3
 72
24
 73
20
 74
0
 42
0.0000001
 43
0.0000001
 44
0.0000000001
 40
0.0
 40
0.0
 40
0.0
 40
0.0
 40
0.065112821
 40
0.097787088
 40
0.1305148613
 40
0.1960165582
 40
0.2614017666
 40
0.326419143
 40
0.390855874
 40
0.4546669045
 40
0.5177976664
 40
0.5801342004
 40
0.6415931322
 40
0.7023293502
 40
0.7625104095
 40
0.8222542352
 40
0.881639645
 40
0.9408179498
 40
1.0
 40
1.0
 40
1.0
 40
1.0
 10
10.4902680703
 20
10.7428172425
 30
0.0
 10
10.4906067915
 20
10.7410366003
 30
0.0
 10
10.4910119065
 20
10.7383409894
 30
0.0
 10
10.4913334687
 20
10.7347212895
 30
0.0
 10
10.4915060063
 20
10.7310804316
 30
0.0
 10
10.4914456704
 20
10.7265209623
 30
0.0
 10
10.4909432246
 20
10.721085234
 30
0.0
 10
10.4900215648
 20
10.7157344621
 30
0.0
 10
10.4886879914
 20
10.7105166972
 30
0.0
 10
10.4869805501
 20
10.7054651667
 30
0.0
 10
10.4849379658
 20
10.7006034975
 30
0.0
 10
10.4825970005
 20
10.6959518748
 30
0.0
 10
10.479988396
 20
10.6915225061
 30
0.0
 10
10.4771416996
 20
10.6873150622
 30
0.0
 10
10.4740829331
 20
10.6833196772
 30
0.0
 10
10.4708365527
 20
10.6795251194
 30
0.0
 10
10.4674256343
 20
10.6759165151
 30
0.0
 10
10.4638622653
 20
10.67248126
 30
0.0
 10
10.4613909843
 20
10.6703003329
 30
0.0
 10
10.4601337183
 20
10.6692356937
 30
0.0
  0
SPLINE
  5
331
100
AcDbEntity
  8
0
100
AcDbSpline
 62
7
  6
CONTINUOUS
 70
0
 71
3
 72
27
 73
23
 74
0
 42
0.0000001
 43
0.0000001
 44
0.0000000001
 40
0.0
 40
0.0
 40
0.0
 40
0.0
 40
0.0844727401
 40
0.1672976196
 40
0.2480934737
 40
0.3265423038
 40
0.4023654559
 40
0.4752906401
 40
0.5450530373
 40
0.61140255
 40
0.6741228228
 40
0.7330160091
 40
0.7879210958
 40
0.8387079153
 40
0.8625307061
 40
0.8852979512
 40
0.9070079818
 40
0.9276626526
 40
0.9472699484
 40
0.9658458177
 40
0.9834125539
 40
1.0
 40
1.0
 40
1.0
 40
1.0
 10
10.1915653694
 20
11.0189815938
 30
0.0
 10
10.2002876759
 20
11.0183766998
 30
0.0
 10
10.2175519245
 20
11.0170251011
 30
0.0
 10
10.2431122683
 20
11.0145479455
 30
0.0
 10
10.2680006578
 20
11.0116476303
 30
0.0
 10
10.2921066651
 20
11.0083373912
 30
0.0
 10
10.3153306175
 20
11.004631431
 30
0.0
 10
10.3375773487
 20
11.0005449525
 30
0.0
 10
10.3587538444
 20
10.9960964219
 30
0.0
 10
10.3787707684
 20
10.9913029717
 30
0.0
 10
10.3975445662
 20
10.9861870757
 30
0.0
 10
10.4149974841
 20
10.9807686982
 30
0.0
 10
10.4310571448
 20
10.9750721246
 30
0.0
 10
10.443476992
 20
10.9700104835
 30
0.0
 10
10.4526446212
 20
10.9658195782
 30
0.0
 10
10.4589843354
 20
10.9626890996
 30
0.0
 10
10.4649291398
 20
10.9595073264
 30
0.0
 10
10.4704726244
 20
10.9562772393
 30
0.0
 10
10.4756089342
 20
10.9530019525
 30
0.0
 10
10.4803333037
 20
10.9496850198
 30
0.0
 10
10.4846409263
 20
10.9463298954
 30
0.0
 10
10.4873067186
 20
10.9440044111
 30
0.0
 10
10.4885635186
 20
10.9428347619
 30
0.0
  0
SPLINE
  5
332
100
AcDbEntity
  8
0
100
AcDbSpline
 62
7
  6
CONTINUOUS
 70
0
 71
3
 72
27
 73
23
 74
0
 42
0.0000001
 43
0.0000001
 44
0.0000000001
 40
0.0
 40
0.0
 40
0.0
 40
0.0
 40
0.0844727401
 40
0.1672976196
 40
0.2480934737
 40
0.3265423038
 40
0.4023654559
 40
0.4752906401
 40
0.5450530373
 40
0.61140255
 40
0.6741228228
 40
0.7330160091
 40
0.7879210958
 40
0.8387079153
 40
0.8625307061
 40
0.8852979512
 40
0.9070079818
 40
0.9276626526
 40
0.9472699484
 40
0.9658458177
 40
0.9834125539
 40
1.0
 40
1.0
 40
1.0
 40
1.0
 10
9.9733810944
 20
10.6662406504
 30
0.0
 10
9.964658788
 20
10.6668455444
 30
0.0
 10
9.9473945393
 20
10.6681971431
 30
0.0
 10
9.9218341956
 20
10.6706742987
 30
0.0
 10
9.8969458061
 20
10.6735746139
 30
0.0
 10
9.8728397987
 20
10.6768848531
 30
0.0
 10
9.8496158463
 20
10.6805908132
 30
0.0
 10
9.8273691151
 20
10.6846772917
 30
0.0
 10
9.8061926194
 20
10.6891258223
 30
0.0
 10
9.7861756954
 20
10.6939192726
 30
0.0
 10
9.7674018976
 20
10.6990351686
 30
0.0
 10
9.7499489798
 20
10.7044535461
 30
0.0
 10
9.733889319
 20
10.7101501196
 30
0.0
 10
9.7214694718
 20
10.7152117608
 30
0.0
 10
9.7123018426
 20
10.7194026661
 30
0.0
 10
9.7059621284
 20
10.7225331447
 30
0.0
 10
9.700017324
 20
10.7257149178
 30
0.0
 10
9.6944738395
 20
10.7289450049
 30
0.0
 10
9.6893375296
 20
10.7322202917
 30
0.0
 10
9.6846131602
 20
10.7355372244
 30
0.0
 10
9.6803055375
 20
10.7388923488
 30
0.0
 10
9.6776397452
 20
10.7412178332
 30
0.0
 10
9.6763829453
 20
10.7423874823
 30
0.0
  0
SPLINE
  5
333
100
AcDbEntity
  8
0
100
AcDbSpline
 62
7
  6
CONTINUOUS
 70
0
 71
3
 72
21
 73
17
 74
0
 42
0.0000001
 43
0.0000001
 44
0.0000000001
 40
0.0
 40
0.0
 40
0.0
 40
0.0
 40
0.1183496173
 40
0.1776961041
 40
0.2373723895
 40
0.2975883447
 40
0.3584971017
 40
0.4823065232
 40
0.5453536299
 40
0.6092199159
 40
0.6737385872
 40
0.7387149867
 40
0.8039982397
 40
0.8694502608
 40
0.9348635148
 40
1.0
 40
1.0
 40
1.0
 40
1.0
 10
9.7039557852
 20
10.6699759078
 30
0.0
 10
9.7015040764
 20
10.6720918084
 30
0.0
 10
9.6979444195
 20
10.6754161138
 30
0.0
 10
9.6935218194
 20
10.6801761901
 30
0.0
 10
9.6903690176
 20
10.6839362691
 30
0.0
 10
9.6873983772
 20
10.6878960117
 30
0.0
 10
9.6836860654
 20
10.693479384
 30
0.0
 10
9.6804551141
 20
10.6994657919
 30
0.0
 10
9.6778321261
 20
10.7058104721
 30
0.0
 10
9.676185579
 20
10.7107884455
 30
0.0
 10
9.6748954468
 20
10.7159247827
 30
0.0
 10
9.6739883916
 20
10.7211822668
 30
0.0
 10
9.6734947416
 20
10.7265206777
 30
0.0
 10
9.6734330646
 20
10.7318934477
 30
0.0
 10
9.6737888183
 20
10.7372500564
 30
0.0
 10
9.6743001435
 20
10.7407898834
 30
0.0
 10
9.6746233893
 20
10.742542714
 30
0.0
  0
SPLINE
  5
334
100
AcDbEntity
  8
0
100
AcDbSpline
 62
7
  6
CONTINUOUS
 70
0
 71
3
 72
21
 73
17
 74
0
 42
0.0000001
 43
0.0000001
 44
0.0000000001
 40
0.0
 40
0.0
 40
0.0
 40
0.0
 40
0.0341429687
 40
0.0723180841
 40
0.1146763036
 40
0.1612655187
 40
0.2120522808
 40
0.2669599432
 40
0.3258572853
 40
0.3885793367
 40
0.4549372658
 40
0.5247002389
 40
0.5976226907
 40
0.6734481982
 40
0.8327181803
 40
1.0
 40
1.0
 40
1.0
 40
1.0
 10
9.9018275073
 20
10.9006053998
 30
0.0
 10
9.9029782204
 20
10.8995344547
 30
0.0
 10
9.9055654165
 20
10.8974254075
 30
0.0
 10
9.9099700313
 20
10.894503355
 30
0.0
 10
9.9150927741
 20
10.8916619167
 30
0.0
 10
9.9209131353
 20
10.8889124253
 30
0.0
 10
9.9274082791
 20
10.886264532
 30
0.0
 10
9.9345524237
 20
10.8837306213
 30
0.0
 10
9.9423161942
 20
10.881320445
 30
0.0
 10
9.9506676814
 20
10.8790441655
 30
0.0
 10
9.9595722275
 20
10.8769124131
 30
0.0
 10
9.9689921366
 20
10.8749331504
 30
0.0
 10
9.9788879392
 20
10.8731153012
 30
0.0
 10
9.9928932109
 20
10.8708807152
 30
0.0
 10
10.0112795122
 20
10.8685674031
 30
0.0
 10
10.0262614043
 20
10.8672645489
 30
0.0
 10
10.033944701
 20
10.8667317105
 30
0.0
  0
SPLINE
  5
335
100
AcDbEntity
  8
0
100
AcDbSpline
 62
7
  6
CONTINUOUS
 70
0
 71
3
 72
11
 73
7
 74
0
 42
0.0000001
 43
0.0000001
 44
0.0000000001
 40
0.0
 40
0.0
 40
0.0
 40
0.0
 40
0.2274146923
 40
0.4715284191
 40
0.729805281
 40
1.0
 40
1.0
 40
1.0
 40
1.0
 10
9.9200870775
 20
10.8897070538
 30
0.0
 10
9.9189895288
 20
10.8918602701
 30
0.0
 10
9.9168371806
 20
10.8963880186
 30
0.0
 10
9.9137889035
 20
10.9035212058
 30
0.0
 10
9.9107959351
 20
10.9111678799
 30
0.0
 10
9.9088762425
 20
10.9164463512
 30
0.0
 10
9.9079201529
 20
10.9191539476
 30
0.0
  0
SPLINE
  5
336
100
AcDbEntity
  8
0
100
AcDbSpline
 62
7
  6
CONTINUOUS
 70
0
 71
3
 72
15
 73
11
 74
0
 42
0.0000001
 43
0.0000001
 44
0.0000000001
 40
0.0
 40
0.0
 40
0.0
 40
0.0
 40
0.1492582953
 40
0.2896921235
 40
0.4220199565
 40
0.5471281248
 40
0.6660945356
 40
0.7802102316
 40
0.8909663823
 40
1.0
 40
1.0
 40
1.0
 40
1.0
 10
9.6609712777
 20
10.756729658
 30
0.0
 10
9.6596861883
 20
10.7579255009
 30
0.0
 10
9.6572645346
 20
10.7603266252
 30
0.0
 10
9.6540042479
 20
10.7640754992
 30
0.0
 10
9.6512342896
 20
10.7678544691
 30
0.0
 10
9.6489588138
 20
10.7716601454
 30
0.0
 10
9.6471825171
 20
10.7754892966
 30
0.0
 10
9.6459101717
 20
10.7793380806
 30
0.0
 10
9.6451447248
 20
10.7832000265
 30
0.0
 10
9.6449736851
 20
10.7857880453
 30
0.0
 10
9.6449735547
 20
10.7870703838
 30
0.0
  0
SPLINE
  5
337
100
AcDbEntity
  8
0
100
AcDbSpline
 62
7
  6
CONTINUOUS
 70
0
 71
3
 72
9
 73
5
 74
0
 42
0.0000001
 43
0.0000001
 44
0.0000000001
 40
0.0
 40
0.0
 40
0.0
 40
0.0
 40
0.4757858795
 40
1.0
 40
1.0
 40
1.0
 40
1.0
 10
10.4885578061
 20
10.7423826531
 30
0.0
 10
10.4863510424
 20
10.7403290965
 30
0.0
 10
10.4814695586
 20
10.7362716985
 30
0.0
 10
10.4762553454
 20
10.7326604193
 30
0.0
 10
10.4734613259
 20
10.7308647764
 30
0.0
  0
SPLINE
  5
338
100
AcDbEntity
  8
0
100
AcDbSpline
 62
7
  6
CONTINUOUS
 70
0
 71
3
 72
30
 73
26
 74
0
 42
0.0000001
 43
0.0000001
 44
0.0000000001
 40
0.0
 40
0.0
 40
0.0
 40
0.0
 40
0.0172508987
 40
0.0357532296
 40
0.0555136293
 40
0.0765260298
 40
0.0987754352
 40
0.1222421039
 40
0.1468992668
 40
0.1727128822
 40
0.1996462817
 40
0.2276592749
 40
0.2567053041
 40
0.2867356526
 40
0.3177000202
 40
0.3495432852
 40
0.4156334796
 40
0.4845277365
 40
0.5557126183
 40
0.6286531162
 40
0.7027965132
 40
0.7775707085
 40
0.8524093311
 40
0.9267598358
 40
1.0
 40
1.0
 40
1.0
 40
1.0
 10
10.4734613259
 20
10.7308647764
 30
0.0
 10
10.4709949985
 20
10.7292797327
 30
0.0
 10
10.4657820435
 20
10.726150836
 30
0.0
 10
10.4574524545
 20
10.7217137418
 30
0.0
 10
10.4483558322
 20
10.7173788741
 30
0.0
 10
10.4385109752
 20
10.7131545967
 30
0.0
 10
10.4279377113
 20
10.7090489728
 30
0.0
 10
10.4166570156
 20
10.7050710683
 30
0.0
 10
10.4046916943
 20
10.7012291248
 30
0.0
 10
10.3920663817
 20
10.6975303636
 30
0.0
 10
10.378806633
 20
10.6939827423
 30
0.0
 10
10.3649393191
 20
10.6905941106
 30
0.0
 10
10.3504930184
 20
10.6873707354
 30
0.0
 10
10.335497298
 20
10.6843193126
 30
0.0
 10
10.3199826139
 20
10.6814467565
 30
0.0
 10
10.2983786314
 20
10.6778175548
 30
0.0
 10
10.2703095489
 20
10.6737890706
 30
0.0
 10
10.2354943195
 20
10.6698070769
 30
0.0
 10
10.1994257922
 20
10.6666524814
 30
0.0
 10
10.1623992803
 20
10.6643512169
 30
0.0
 10
10.1247185144
 20
10.6629237368
 30
0.0
 10
10.086692141
 20
10.6623802183
 30
0.0
 10
10.0486281828
 20
10.662726364
 30
0.0
 10
10.0108436843
 20
10.6639600354
 30
0.0
 10
9.9857982482
 20
10.6653795179
 30
0.0
 10
9.9733810944
 20
10.6662406504
 30
0.0
  0
SPLINE
  5
339
100
AcDbEntity
  8
0
100
AcDbSpline
 62
7
  6
CONTINUOUS
 70
0
 71
3
 72
31
 73
27
 74
0
 42
0.0000001
 43
0.0000001
 44
0.0000000001
 40
0.0
 40
0.0
 40
0.0
 40
0.0
 40
0.0148671859
 40
0.0310582622
 40
0.0486205571
 40
0.0675787103
 40
0.0879430739
 40
0.1097082394
 40
0.1328564996
 40
0.1573637938
 40
0.1831966261
 40
0.2103132594
 40
0.2386687581
 40
0.2682119105
 40
0.2988851523
 40
0.3306290929
 40
0.3633800485
 40
0.397069223
 40
0.4669773298
 40
0.5397584626
 40
0.6147818119
 40
0.691389773
 40
0.7689013484
 40
0.8466289366
 40
0.9239071349
 40
1.0
 40
1.0
 40
1.0
 40
1.0
 10
9.6763886577
 20
10.9428395912
 30
0.0
 10
9.6783072695
 20
10.944625001
 30
0.0
 10
9.6824987507
 20
10.9481601679
 30
0.0
 10
9.6894706063
 20
10.9531572569
 30
0.0
 10
9.6973715401
 20
10.9580593711
 30
0.0
 10
9.7061829385
 20
10.962856051
 30
0.0
 10
9.7158859006
 20
10.9675356911
 30
0.0
 10
9.7264579265
 20
10.9720878403
 30
0.0
 10
9.7378743196
 20
10.9765025427
 30
0.0
 10
9.7501088683
 20
10.9807683907
 30
0.0
 10
9.7631328057
 20
10.984875394
 30
0.0
 10
9.7769152337
 20
10.9888144457
 30
0.0
 10
9.7914238622
 20
10.99257534
 30
0.0
 10
9.8066243635
 20
10.9961490623
 30
0.0
 10
9.8224805319
 20
10.9995277679
 30
0.0
 10
9.8389548993
 20
11.0027027182
 30
0.0
 10
9.8560084388
 20
11.0056662122
 30
0.0
 10
9.8797578224
 20
11.0093726333
 30
0.0
 10
9.9105934649
 20
11.0134045421
 30
0.0
 10
9.9487846455
 20
11.0172477143
 30
0.0
 10
9.9882456154
 20
11.0201144947
 30
0.0
 10
10.0286011326
 20
11.0219774845
 30
0.0
 10
10.0694675169
 20
11.0228192284
 30
0.0
 10
10.1104603431
 20
11.022630888
 30
0.0
 10
10.1511850697
 20
11.021413515
 30
0.0
 10
10.1781836332
 20
11.0199096204
 30
0.0
 10
10.1915653694
 20
11.0189815938
 30
0.0
  0
SPLINE
  5
33A
100
AcDbEntity
  8
0
100
AcDbSpline
 62
7
  6
CONTINUOUS
 70
0
 71
3
 72
15
 73
11
 74
0
 42
0.0000001
 43
0.0000001
 44
0.0000000001
 40
0.0
 40
0.0
 40
0.0
 40
0.0
 40
0.1492582953
 40
0.2896921235
 40
0.4220199565
 40
0.5471281248
 40
0.6660945356
 40
0.7802102316
 40
0.8909663823
 40
1.0
 40
1.0
 40
1.0
 40
1.0
 10
10.5039751861
 20
10.9284925862
 30
0.0
 10
10.5052602755
 20
10.9272967433
 30
0.0
 10
10.5076819293
 20
10.9248956191
 30
0.0
 10
10.5109422159
 20
10.921146745
 30
0.0
 10
10.5137121742
 20
10.9173677751
 30
0.0
 10
10.51598765
 20
10.9135620988
 30
0.0
 10
10.5177639467
 20
10.9097329476
 30
0.0
 10
10.5190362921
 20
10.9058841636
 30
0.0
 10
10.519801739
 20
10.9020222177
 30
0.0
 10
10.5199727788
 20
10.8994341989
 30
0.0
 10
10.5199729092
 20
10.8981518604
 30
0.0
  0
SPLINE
  5
33B
100
AcDbEntity
  8
0
100
AcDbSpline
 62
7
  6
CONTINUOUS
 70
0
 71
3
 72
15
 73
11
 74
0
 42
0.0000001
 43
0.0000001
 44
0.0000000001
 40
0.0
 40
0.0
 40
0.0
 40
0.0
 40
0.1090312127
 40
0.2197878998
 40
0.3339080497
 40
0.4528713587
 40
0.57796851
 40
0.7102941733
 40
0.8507385035
 40
1.0
 40
1.0
 40
1.0
 40
1.0
 10
10.5199729092
 20
10.7870703838
 30
0.0
 10
10.5199730395
 20
10.7857880596
 30
0.0
 10
10.5198025358
 20
10.7831999703
 30
0.0
 10
10.5190364757
 20
10.7793380209
 30
0.0
 10
10.5177632821
 20
10.775489477
 30
0.0
 10
10.5159873271
 20
10.7716602903
 30
0.0
 10
10.5137126645
 20
10.7678542818
 30
0.0
 10
10.5109426379
 20
10.7640752965
 30
0.0
 10
10.5076816413
 20
10.7603267858
 30
0.0
 10
10.5052597592
 20
10.7579256339
 30
0.0
 10
10.5039746822
 20
10.7567296943
 30
0.0
  0
SPLINE
  5
33C
100
AcDbEntity
  8
0
100
AcDbSpline
 62
7
  6
CONTINUOUS
 70
0
 71
3
 72
15
 73
11
 74
0
 42
0.0000001
 43
0.0000001
 44
0.0000000001
 40
0.0
 40
0.0
 40
0.0
 40
0.0
 40
0.1090312127
 40
0.2197878998
 40
0.3339080497
 40
0.4528713587
 40
0.57796851
 40
0.7102941733
 40
0.8507385035
 40
1.0
 40
1.0
 40
1.0
 40
1.0
 10
9.6449735547
 20
10.8981518604
 30
0.0
 10
9.6449734243
 20
10.8994341846
 30
0.0
 10
9.645143928
 20
10.902022274
 30
0.0
 10
9.6459099882
 20
10.9058842234
 30
0.0
 10
9.6471831818
 20
10.9097327672
 30
0.0
 10
9.6489591368
 20
10.913561954
 30
0.0
 10
9.6512337993
 20
10.9173679625
 30
0.0
 10
9.6540038259
 20
10.9211469477
 30
0.0
 10
9.6572648225
 20
10.9248954585
 30
0.0
 10
9.6596867046
 20
10.9272966104
 30
0.0
 10
9.6609717817
 20
10.9284925499
 30
0.0
  0
SPLINE
  5
33D
100
AcDbEntity
  8
0
100
AcDbSpline
 62
7
  6
CONTINUOUS
 70
0
 71
3
 72
39
 73
35
 74
0
 42
0.0000001
 43
0.0000001
 44
0.0000000001
 40
0.0
 40
0.0
 40
0.0
 40
0.0
 40
0.0911292516
 40
0.1837667519
 40
0.2763639314
 40
0.3674675361
 40
0.4556066029
 40
0.5393865197
 40
0.5792352345
 40
0.6175154807
 40
0.6540876753
 40
0.6888218315
 40
0.7215973523
 40
0.7523145176
 40
0.7808850724
 40
0.8072430943
 40
0.8313516336
 40
0.8531994502
 40
0.8728249643
 40
0.8903235161
 40
0.9058705204
 40
0.913006899
 40
0.9197785647
 40
0.9262454776
 40
0.9324780545
 40
0.9385566283
 40
0.9445680429
 40
0.9506020274
 40
0.9567473277
 40
0.9630879948
 40
0.9696996603
 40
0.9766474426
 40
0.9839862318
 40
1.0
 40
1.0
 40
1.0
 40
1.0
 10
10.1310017628
 20
10.9604816386
 30
0.0
 10
10.1229567447
 20
10.9610395626
 30
0.0
 10
10.1067116758
 20
10.961867348
 30
0.0
 10
10.0822542258
 20
10.9622738795
 30
0.0
 10
10.0577989708
 20
10.961852659
 30
0.0
 10
10.033769905
 20
10.9606129438
 30
0.0
 10
10.0105782754
 20
10.9585755506
 30
0.0
 10
9.9919824984
 20
10.9562062729
 30
0.0
 10
9.9778374189
 20
10.9539178152
 30
0.0
 10
9.9678580978
 20
10.9520567261
 30
0.0
 10
9.9583731353
 20
10.950030927
 30
0.0
 10
9.9494231579
 20
10.947849582
 30
0.0
 10
9.9410466461
 20
10.9455212054
 30
0.0
 10
9.9332791165
 20
10.94305713
 30
0.0
 10
9.926153493
 20
10.9404675252
 30
0.0
 10
9.9196998069
 20
10.93776313
 30
0.0
 10
9.9139441056
 20
10.9349566102
 30
0.0
 10
9.9089099901
 20
10.9320579274
 30
0.0
 10
9.9046162382
 20
10.9290781214
 30
0.0
 10
9.9010789779
 20
10.9260276396
 30
0.0
 10
9.8987090367
 20
10.92335596
 30
0.0
 10
9.8972457609
 20
10.9211948672
 30
0.0
 10
9.8963795149
 20
10.9196100807
 30
0.0
 10
9.895714797
 20
10.9180166361
 30
0.0
 10
9.8952537025
 20
10.9164160894
 30
0.0
 10
9.8949972698
 20
10.9148108135
 30
0.0
 10
9.8949460845
 20
10.9132034288
 30
0.0
 10
9.8951002954
 20
10.9115967587
 30
0.0
 10
9.8954594813
 20
10.9099935387
 30
0.0
 10
9.8960229546
 20
10.9083962953
 30
0.0
 10
9.8967890212
 20
10.9068070562
 30
0.0
 10
9.8977557365
 20
10.9052271337
 30
0.0
 10
9.8993564858
 20
10.9030726117
 30
0.0
 10
9.9007901468
 20
10.9015708498
 30
0.0
 10
9.9018275073
 20
10.9006053998
 30
0.0
  0
SPLINE
  5
33E
100
AcDbEntity
  8
0
100
AcDbSpline
 62
7
  6
CONTINUOUS
 70
0
 71
3
 72
33
 73
29
 74
0
 42
0.0000001
 43
0.0000001
 44
0.0000000001
 40
0.0
 40
0.0
 40
0.0
 40
0.0
 40
0.0192515833
 40
0.0368821699
 40
0.0531237905
 40
0.0682840035
 40
0.0827532029
 40
0.0969869317
 40
0.1114633783
 40
0.1266373917
 40
0.1428981332
 40
0.1605519194
 40
0.179829714
 40
0.2008964686
 40
0.2238583309
 40
0.2487829695
 40
0.2757103772
 40
0.3046506675
 40
0.3355921753
 40
0.3685117893
 40
0.403374067
 40
0.4401263274
 40
0.519051069
 40
0.6047234833
 40
0.6964479347
 40
0.793475343
 40
0.894997834
 40
1.0
 40
1.0
 40
1.0
 40
1.0
 10
10.2631189559
 20
10.9006053999
 30
0.0
 10
10.263909769
 20
10.9013413921
 30
0.0
 10
10.2653623295
 20
10.9028217247
 30
0.0
 10
10.2672005708
 20
10.905177849
 30
0.0
 10
10.2685911943
 20
10.907563416
 30
0.0
 10
10.2695254262
 20
10.9099751462
 30
0.0
 10
10.2699933312
 20
10.9124062511
 30
0.0
 10
10.2699897206
 20
10.9148443346
 30
0.0
 10
10.2695146421
 20
10.9172752257
 30
0.0
 10
10.268573343
 20
10.9196865992
 30
0.0
 10
10.2671758596
 20
10.9220717006
 30
0.0
 10
10.2653306661
 20
10.9244275197
 30
0.0
 10
10.2630434912
 20
10.9267510573
 30
0.0
 10
10.2603199146
 20
10.9290387171
 30
0.0
 10
10.2571669145
 20
10.9312873815
 30
0.0
 10
10.2535913769
 20
10.9334925631
 30
0.0
 10
10.2496009008
 20
10.9356488698
 30
0.0
 10
10.2452049374
 20
10.9377517038
 30
0.0
 10
10.2404140619
 20
10.9397964457
 30
0.0
 10
10.2352393877
 20
10.9417778843
 30
0.0
 10
10.2296930631
 20
10.9436909022
 30
0.0
 10
10.2216271254
 20
10.9462048214
 30
0.0
 10
10.2107051084
 20
10.9491186551
 30
0.0
 10
10.1966511274
 20
10.9521983865
 30
0.0
 10
10.1814886208
 20
10.9549089901
 30
0.0
 10
10.1653620869
 20
10.9572233106
 30
0.0
 10
10.1484312579
 20
10.959116695
 30
0.0
 10
10.1368798821
 20
10.9600739897
 30
0.0
 10
10.1310017628
 20
10.9604816386
 30
0.0
  0
SPLINE
  5
33F
100
AcDbEntity
  8
0
100
AcDbSpline
 62
7
  6
CONTINUOUS
 70
0
 71
3
 72
22
 73
18
 74
0
 42
0.0000001
 43
0.0000001
 44
0.0000000001
 40
0.0
 40
0.0
 40
0.0
 40
0.0
 40
0.1784308603
 40
0.2636345662
 40
0.3457312473
 40
0.4243502207
 40
0.4991127154
 40
0.5696638493
 40
0.6356702919
 40
0.6968446731
 40
0.7530224112
 40
0.8042157606
 40
0.8505799576
 40
0.8925650319
 40
0.9308484728
 40
0.9663072103
 40
1.0
 40
1.0
 40
1.0
 40
1.0
 10
10.2102549186
 20
10.9401209719
 30
0.0
 10
10.2115132219
 20
10.9365575222
 30
0.0
 10
10.2134368675
 20
10.9313144625
 30
0.0
 10
10.2161400085
 20
10.9245088363
 30
0.0
 10
10.2181616459
 20
10.9197082464
 30
0.0
 10
10.2202086228
 20
10.9151597243
 30
0.0
 10
10.2222804105
 20
10.9108924732
 30
0.0
 10
10.2243761231
 20
10.9069365352
 30
0.0
 10
10.2264923381
 20
10.9033209335
 30
0.0
 10
10.2286266735
 20
10.9000739876
 30
0.0
 10
10.2307768358
 20
10.8972208113
 30
0.0
 10
10.23293573
 20
10.8947779295
 30
0.0
 10
10.2351034517
 20
10.8927606353
 30
0.0
 10
10.237274558
 20
10.891173537
 30
0.0
 10
10.2394449778
 20
10.8900139766
 30
0.0
 10
10.2416101599
 20
10.8892804154
 30
0.0
 10
10.2430672672
 20
10.8890599785
 30
0.0
 10
10.2437795831
 20
10.8890172131
 30
0.0
  0
SPLINE
  5
340
100
AcDbEntity
  8
0
100
AcDbSpline
 62
7
  6
CONTINUOUS
 70
0
 71
3
 72
15
 73
11
 74
0
 42
0.0000001
 43
0.0000001
 44
0.0000000001
 40
0.0
 40
0.0
 40
0.0
 40
0.0
 40
0.2474885924
 40
0.3716993578
 40
0.4962918283
 40
0.6213432045
 40
0.7469328389
 40
0.8099644208
 40
0.8731636985
 40
1.0
 40
1.0
 40
1.0
 40
1.0
 10
10.2102549186
 20
10.9401209719
 30
0.0
 10
10.2034479756
 20
10.9371895635
 30
0.0
 10
10.1930528265
 20
10.9331599385
 30
0.0
 10
10.1788393525
 20
10.9287990986
 30
0.0
 10
10.1679664292
 20
10.9261038705
 30
0.0
 10
10.1569079935
 20
10.9240683351
 30
0.0
 10
10.1475683588
 20
10.9229909739
 30
0.0
 10
10.1400398915
 20
10.9225295565
 30
0.0
 10
10.1324625401
 20
10.9223454856
 30
0.0
 10
10.1267675304
 20
10.9225251637
 30
0.0
 10
10.1229783791
 20
10.9227879422
 30
0.0
  0
SPLINE
  5
341
100
AcDbEntity
  8
0
100
AcDbSpline
 62
7
  6
CONTINUOUS
 70
0
 71
3
 72
14
 73
10
 74
0
 42
0.0000001
 43
0.0000001
 44
0.0000000001
 40
0.0
 40
0.0
 40
0.0
 40
0.0
 40
0.1233247094
 40
0.1852447094
 40
0.2473036507
 40
0.3718067825
 40
0.4967959143
 40
0.7478456713
 40
1.0
 40
1.0
 40
1.0
 40
1.0
 10
10.1229783791
 20
10.9227879422
 30
0.0
 10
10.1191694969
 20
10.9230520891
 30
0.0
 10
10.1134604752
 20
10.9236660454
 30
0.0
 10
10.1059028753
 20
10.9248985363
 30
0.0
 10
10.0983581158
 20
10.9264080915
 30
0.0
 10
10.0890028473
 20
10.9287878154
 30
0.0
 10
10.0742486601
 20
10.933553589
 30
0.0
 10
10.0562828868
 20
10.9410958213
 30
0.0
 10
10.0424858349
 20
10.9483637997
 30
0.0
 10
10.0357018395
 20
10.9522262691
 30
0.0
  0
SPLINE
  5
342
100
AcDbEntity
  8
0
100
AcDbSpline
 62
7
  6
CONTINUOUS
 70
0
 71
3
 72
23
 73
19
 74
0
 42
0.0000001
 43
0.0000001
 44
0.0000000001
 40
0.0
 40
0.0
 40
0.0
 40
0.0
 40
0.1140672158
 40
0.1709935244
 40
0.2280155353
 40
0.28536926
 40
0.3433320328
 40
0.4022329195
 40
0.462381858
 40
0.5240495701
 40
0.5873932775
 40
0.6197200513
 40
0.6524767622
 40
0.7192199457
 40
0.7875078249
 40
0.8571883712
 40
0.9280759282
 40
1.0
 40
1.0
 40
1.0
 40
1.0
 10
9.9079201529
 20
10.9191539476
 30
0.0
 10
9.912875817
 20
10.9170517849
 30
0.0
 10
9.9204769261
 20
10.9142684121
 30
0.0
 10
9.9309113429
 20
10.9116074427
 30
0.0
 10
9.9388839735
 20
10.9102143764
 30
0.0
 10
9.9469973171
 20
10.9095093427
 30
0.0
 10
9.9552317426
 20
10.9095632255
 30
0.0
 10
9.9635524228
 20
10.9104471268
 30
0.0
 10
9.9719159248
 20
10.9121865569
 30
0.0
 10
9.980269072
 20
10.9147947628
 30
0.0
 10
9.9871392503
 20
10.9176368689
 30
0.0
 10
9.9925891202
 20
10.9202914537
 30
0.0
 10
9.9980757719
 20
10.9232268637
 30
0.0
 10
10.0048530887
 20
10.927334118
 30
0.0
 10
10.0127961118
 20
10.932841798
 30
0.0
 10
10.0205958319
 20
10.9388740556
 30
0.0
 10
10.0282521923
 20
10.9453543279
 30
0.0
 10
10.0332309464
 20
10.9498991032
 30
0.0
 10
10.0357018395
 20
10.9522262691
 30
0.0
  0
SPLINE
  5
343
100
AcDbEntity
  8
0
100
AcDbSpline
 62
7
  6
CONTINUOUS
 70
0
 71
3
 72
9
 73
5
 74
0
 42
0.0000001
 43
0.0000001
 44
0.0000000001
 40
0.0
 40
0.0
 40
0.0
 40
0.0
 40
0.4755570889
 40
1.0
 40
1.0
 40
1.0
 40
1.0
 10
10.5039746822
 20
10.7567296943
 30
0.0
 10
10.5016603755
 20
10.7545759161
 30
0.0
 10
10.4965358874
 20
10.750321247
 30
0.0
 10
10.4910600111
 20
10.7465387489
 30
0.0
 10
10.4881243559
 20
10.7446580079
 30
0.0
  0
SPLINE
  5
344
100
AcDbEntity
  8
0
100
AcDbSpline
 62
7
  6
CONTINUOUS
 70
0
 71
3
 72
30
 73
26
 74
0
 42
0.0000001
 43
0.0000001
 44
0.0000000001
 40
0.0
 40
0.0
 40
0.0
 40
0.0
 40
0.0172743581
 40
0.0357990346
 40
0.055580407
 40
0.0766121347
 40
0.0988791294
 40
0.1223615888
 40
0.1470326087
 40
0.1728581328
 40
0.199801522
 40
0.2278225536
 40
0.2568746827
 40
0.2869092642
 40
0.3178760462
 40
0.3497199368
 40
0.4158064024
 40
0.4846908195
 40
0.5558605781
 40
0.6287815488
 40
0.7029019768
 40
0.7776507699
 40
0.8524626674
 40
0.9267861377
 40
1.0
 40
1.0
 40
1.0
 40
1.0
 10
10.4881243559
 20
10.7446580079
 30
0.0
 10
10.4855596021
 20
10.7430148867
 30
0.0
 10
10.4801398287
 20
10.7397713956
 30
0.0
 10
10.471482117
 20
10.7351716471
 30
0.0
 10
10.4620298465
 20
10.730678067
 30
0.0
 10
10.4518025451
 20
10.7262992716
 30
0.0
 10
10.4408207676
 20
10.7220436404
 30
0.0
 10
10.4291062643
 20
10.717920572
 30
0.0
 10
10.4166827012
 20
10.7139385585
 30
0.0
 10
10.403575614
 20
10.7101050895
 30
0.0
 10
10.3898114861
 20
10.7064284173
 30
0.0
 10
10.3754181775
 20
10.7029166442
 30
0.0
 10
10.3604253087
 20
10.6995762532
 30
0.0
 10
10.3448635133
 20
10.6964141872
 30
0.0
 10
10.3287643506
 20
10.6934376001
 30
0.0
 10
10.3063485615
 20
10.6896772063
 30
0.0
 10
10.2772271512
 20
10.6855033588
 30
0.0
 10
10.2411092447
 20
10.6813780285
 30
0.0
 10
10.2036940007
 20
10.6781104005
 30
0.0
 10
10.1652873005
 20
10.6757272686
 30
0.0
 10
10.1262037291
 20
10.6742497985
 30
0.0
 10
10.0867629353
 20
10.6736884976
 30
0.0
 10
10.0472839136
 20
10.6740492522
 30
0.0
 10
10.0080950136
 20
10.6753298375
 30
0.0
 10
9.9821187002
 20
10.6768023262
 30
0.0
 10
9.9692399931
 20
10.6776954676
 30
0.0
  0
SPLINE
  5
345
100
AcDbEntity
  8
0
100
AcDbSpline
 62
7
  6
CONTINUOUS
 70
0
 71
3
 72
11
 73
7
 74
0
 42
0.0000001
 43
0.0000001
 44
0.0000000001
 40
0.0
 40
0.0
 40
0.0
 40
0.0
 40
0.2764411458
 40
0.5338688358
 40
0.7742297575
 40
1.0
 40
1.0
 40
1.0
 40
1.0
 10
10.4885635186
 20
10.9428347619
 30
0.0
 10
10.4900074234
 20
10.9414909824
 30
0.0
 10
10.4927017292
 20
10.9387911906
 30
0.0
 10
10.4962489846
 20
10.9345455957
 30
0.0
 10
10.499145498
 20
10.9302604754
 30
0.0
 10
10.5006799169
 20
10.9272981652
 30
0.0
 10
10.501322918
 20
10.9258211425
 30
0.0
  0
SPLINE
  5
346
100
AcDbEntity
  8
0
100
AcDbSpline
 62
7
  6
CONTINUOUS
 70
0
 71
3
 72
46
 73
42
 74
0
 42
0.0000001
 43
0.0000001
 44
0.0000000001
 40
0.0
 40
0.0
 40
0.0
 40
0.0
 40
0.0061253631
 40
0.0120610909
 40
0.0178742219
 40
0.0236363209
 40
0.0294211066
 40
0.0353015875
 40
0.0413467495
 40
0.0476194042
 40
0.0541751623
 40
0.0610621596
 40
0.0683209181
 40
0.0759840751
 40
0.0840780132
 40
0.0926239827
 40
0.1016389672
 40
0.1111357614
 40
0.1211227759
 40
0.1316057089
 40
0.1425881821
 40
0.1540721104
 40
0.1785385207
 40
0.2049815998
 40
0.2333585246
 40
0.2636062575
 40
0.2956479719
 40
0.3293964795
 40
0.3647505199
 40
0.4016033128
 40
0.439837269
 40
0.4793286163
 40
0.5199481744
 40
0.5615591031
 40
0.6040222629
 40
0.6471933184
 40
0.7350659072
 40
0.8239672861
 40
0.912694195
 40
0.9566122464
 40
1.0
 40
1.0
 40
1.0
 40
1.0
 10
10.501322918
 20
10.9258211425
 30
0.0
 10
10.5017918865
 20
10.9247438859
 30
0.0
 10
10.5026117021
 20
10.9225753402
 30
0.0
 10
10.5034737556
 20
10.919250043
 30
0.0
 10
10.5039436103
 20
10.9159166377
 30
0.0
 10
10.5040198041
 20
10.9125799733
 30
0.0
 10
10.5037017232
 20
10.909244697
 30
0.0
 10
10.5029896558
 20
10.9059156899
 30
0.0
 10
10.501886235
 20
10.9025970597
 30
0.0
 10
10.5003941089
 20
10.8992922266
 30
0.0
 10
10.4985158181
 20
10.8960040923
 30
0.0
 10
10.4962535802
 20
10.8927353407
 30
0.0
 10
10.4936097694
 20
10.8894886429
 30
0.0
 10
10.4905877228
 20
10.8862660629
 30
0.0
 10
10.4871905149
 20
10.8830700118
 30
0.0
 10
10.4834211805
 20
10.8799029997
 30
0.0
 10
10.4792827412
 20
10.8767677835
 30
0.0
 10
10.4747787449
 20
10.8736671859
 30
0.0
 10
10.4699136057
 20
10.8706035449
 30
0.0
 10
10.4646918568
 20
10.867579578
 30
0.0
 10
10.4591181151
 20
10.864597918
 30
0.0
 10
10.4510520144
 20
10.8605979979
 30
0.0
 10
10.4401054771
 20
10.855745676
 30
0.0
 10
10.4259204953
 20
10.8502493063
 30
0.0
 10
10.4104718892
 20
10.8449847485
 30
0.0
 10
10.393816264
 20
10.8399704368
 30
0.0
 10
10.3760139769
 20
10.8352250146
 30
0.0
 10
10.3571300669
 20
10.8307672107
 30
0.0
 10
10.3372338631
 20
10.8266120993
 30
0.0
 10
10.3163983517
 20
10.822776762
 30
0.0
 10
10.2947002381
 20
10.8192744614
 30
0.0
 10
10.272219371
 20
10.8161184958
 30
0.0
 10
10.2490386057
 20
10.8133212485
 30
0.0
 10
10.2252434472
 20
10.8108919498
 30
0.0
 10
10.2009215367
 20
10.8088409377
 30
0.0
 10
10.167714868
 20
10.8066066123
 30
0.0
 10
10.1255568907
 20
10.8048184868
 30
0.0
 10
10.0746261565
 20
10.8042668248
 30
0.0
 10
10.0321322507
 20
10.8051366351
 30
0.0
 10
9.9983995956
 20
10.806638756
 30
0.0
 10
9.9816833873
 20
10.8076559893
 30
0.0
 10
9.9733810944
 20
10.8082317553
 30
0.0
  0
SPLINE
  5
347
100
AcDbEntity
  8
0
100
AcDbSpline
 62
7
  6
CONTINUOUS
 70
0
 71
3
 72
42
 73
38
 74
0
 42
0.0000001
 43
0.0000001
 44
0.0000000001
 40
0.0
 40
0.0
 40
0.0
 40
0.0
 40
0.1050109445
 40
0.2065076564
 40
0.2556278283
 40
0.303524602
 40
0.3500983951
 40
0.3952520198
 40
0.4388900488
 40
0.4809206484
 40
0.5212634179
 40
0.5598435332
 40
0.5965910039
 40
0.6314484839
 40
0.6643667264
 40
0.6953047746
 40
0.72423992
 40
0.7511642444
 40
0.7760863701
 40
0.7990445475
 40
0.8201077224
 40
0.8393829218
 40
0.857034535
 40
0.8732927285
 40
0.8809981564
 40
0.8884775627
 40
0.895782405
 40
0.9029680631
 40
0.9100928595
 40
0.9172167829
 40
0.9244000159
 40
0.9317011887
 40
0.9391756334
 40
0.9468744656
 40
0.96311483
 40
0.980746701
 40
1.0
 40
1.0
 40
1.0
 40
1.0
 10
9.9733810944
 20
10.8082317553
 30
0.0
 10
9.9601644268
 20
10.8091483343
 30
0.0
 10
9.9341961357
 20
10.811299937
 30
0.0
 10
9.9021402874
 20
10.8148852346
 30
0.0
 10
9.8773224733
 20
10.8182574676
 30
0.0
 10
9.8594132008
 20
10.8209904393
 30
0.0
 10
9.8420471635
 20
10.8239488029
 30
0.0
 10
9.8252660323
 20
10.827124726
 30
0.0
 10
9.8091110074
 20
10.8305102232
 30
0.0
 10
9.793621937
 20
10.8340978832
 30
0.0
 10
9.7788363722
 20
10.8378781726
 30
0.0
 10
9.7647899681
 20
10.8418415412
 30
0.0
 10
9.7515168803
 20
10.8459792455
 30
0.0
 10
9.7390488757
 20
10.8502804491
 30
0.0
 10
9.7274157708
 20
10.8547342819
 30
0.0
 10
9.7166458294
 20
10.859331069
 30
0.0
 10
9.7067642885
 20
10.8640590213
 30
0.0
 10
9.6977939407
 20
10.8689064864
 30
0.0
 10
9.6897561671
 20
10.8738636765
 30
0.0
 10
9.6826687644
 20
10.8789191269
 30
0.0
 10
9.6765469462
 20
10.8840621245
 30
0.0
 10
9.6714057691
 20
10.8892858759
 30
0.0
 10
9.6672583647
 20
10.8945809869
 30
0.0
 10
9.664594536
 20
10.8991296914
 30
0.0
 10
9.6630138179
 20
10.9027724472
 30
0.0
 10
9.6621060429
 20
10.9054644737
 30
0.0
 10
9.6614558237
 20
10.9081627914
 30
0.0
 10
9.66106379
 20
10.9108655431
 30
0.0
 10
9.6609305094
 20
10.9135705748
 30
0.0
 10
9.6610563164
 20
10.9162756701
 30
0.0
 10
9.6614414449
 20
10.9189785519
 30
0.0
 10
9.6620853329
 20
10.9216769686
 30
0.0
 10
9.6629867834
 20
10.9243690956
 30
0.0
 10
9.6645580873
 20
10.9280118487
 30
0.0
 10
9.6672092179
 20
10.9325617298
 30
0.0
 10
9.671343597
 20
10.9378570277
 30
0.0
 10
9.6746104505
 20
10.9411848381
 30
0.0
 10
9.6763886577
 20
10.9428395912
 30
0.0
  0
SPLINE
  5
348
100
AcDbEntity
  8
0
100
AcDbSpline
 62
7
  6
CONTINUOUS
 70
0
 71
3
 72
44
 73
40
 74
0
 42
0.0000001
 43
0.0000001
 44
0.0000000001
 40
0.0
 40
0.0
 40
0.0
 40
0.0
 40
0.0055576217
 40
0.0111781774
 40
0.0169223665
 40
0.022846463
 40
0.0290012499
 40
0.0354315253
 40
0.0492585994
 40
0.056723031
 40
0.0645821925
 40
0.0728536856
 40
0.0815517477
 40
0.0906872227
 40
0.1002673629
 40
0.1102972101
 40
0.1207800936
 40
0.1431090173
 40
0.1672508427
 40
0.1931779556
 40
0.2208504331
 40
0.2502109815
 40
0.2811930939
 40
0.3137213962
 40
0.3477090239
 40
0.3830650296
 40
0.4196898018
 40
0.4574778045
 40
0.4963202723
 40
0.5361012072
 40
0.5767023428
 40
0.6180021312
 40
0.6598754475
 40
0.7021960136
 40
0.7448334622
 40
0.8305302896
 40
0.9159449693
 40
0.9582178809
 40
1.0
 40
1.0
 40
1.0
 40
1.0
 10
10.5199729092
 20
10.8981518604
 30
0.0
 10
10.5199730192
 20
10.8970695776
 30
0.0
 10
10.5198521191
 20
10.8948908492
 30
0.0
 10
10.519308119
 20
10.8916343985
 30
0.0
 10
10.5184026859
 20
10.8883852855
 30
0.0
 10
10.5171381111
 20
10.8851472112
 30
0.0
 10
10.515516469
 20
10.881922593
 30
0.0
 10
10.5128157642
 20
10.8775391019
 30
0.0
 10
10.5094382056
 20
10.8732993546
 30
0.0
 10
10.5055004455
 20
10.8692081065
 30
0.0
 10
10.5021258077
 20
10.866085656
 30
0.0
 10
10.4984087664
 20
10.8629905171
 30
0.0
 10
10.4943514551
 20
10.8599246557
 30
0.0
 10
10.4899571219
 20
10.8568906728
 30
0.0
 10
10.4852295777
 20
10.8538905964
 30
0.0
 10
10.4801727812
 20
10.8509267323
 30
0.0
 10
10.4728414553
 20
10.8469422364
 30
0.0
 10
10.462861403
 20
10.8420895868
 30
0.0
 10
10.4498852097
 20
10.836564749
 30
0.0
 10
10.4357093256
 20
10.831238664
 30
0.0
 10
10.4203790857
 20
10.8261305442
 30
0.0
 10
10.4039440786
 20
10.8212556599
 30
0.0
 10
10.3864574161
 20
10.8166306368
 30
0.0
 10
10.3679758552
 20
10.8122714384
 30
0.0
 10
10.3485597515
 20
10.8081911434
 30
0.0
 10
10.3282723438
 20
10.8044045908
 30
0.0
 10
10.3071799826
 20
10.8009236735
 30
0.0
 10
10.2853516259
 20
10.7977595796
 30
0.0
 10
10.2628586614
 20
10.7949238846
 30
0.0
 10
10.2397748087
 20
10.7924247061
 30
0.0
 10
10.2161756606
 20
10.7902710234
 30
0.0
 10
10.1921384028
 20
10.7884700654
 30
0.0
 10
10.1677416279
 20
10.78702697
 30
0.0
 10
10.1430652882
 20
10.7859476721
 30
0.0
 10
10.1098448152
 20
10.784995722
 30
0.0
 10
10.0682140441
 20
10.7847328026
 30
0.0
 10
10.0266644594
 20
10.7856972339
 30
0.0
 10
9.9936959363
 20
10.7872117268
 30
0.0
 10
9.9773570834
 20
10.7882140221
 30
0.0
 10
9.9692399931
 20
10.7887769442
 30
0.0
  0
SPLINE
  5
349
100
AcDbEntity
  8
0
100
AcDbSpline
 62
7
  6
CONTINUOUS
 70
0
 71
3
 72
33
 73
29
 74
0
 42
0.0000001
 43
0.0000001
 44
0.0000000001
 40
0.0
 40
0.0
 40
0.0
 40
0.0
 40
0.0958094992
 40
0.1891107041
 40
0.2792550537
 40
0.3657197578
 40
0.4480113782
 40
0.5256543354
 40
0.5625987301
 40
0.598227193
 40
0.6324944196
 40
0.6653603174
 40
0.696791591
 40
0.7267580849
 40
0.7552337749
 40
0.782202556
 40
0.8076567484
 40
0.831595509
 40
0.8540286541
 40
0.8749831512
 40
0.8945012288
 40
0.9126435363
 40
0.9294977538
 40
0.945184689
 40
0.9598602956
 40
0.9737214244
 40
0.9870091822
 40
1.0
 40
1.0
 40
1.0
 40
1.0
 10
9.9692399931
 20
10.7887769442
 30
0.0
 10
9.957847869
 20
10.7895669907
 30
0.0
 10
9.9353783552
 20
10.7913776469
 30
0.0
 10
9.9022706432
 20
10.7948317341
 30
0.0
 10
9.8703641475
 20
10.7989728522
 30
0.0
 10
9.8398769565
 20
10.8037705672
 30
0.0
 10
9.8110090797
 20
10.8091929058
 30
0.0
 10
9.7880960165
 20
10.8142815165
 30
0.0
 10
9.7707344208
 20
10.8186598048
 30
0.0
 10
9.7584508764
 20
10.8220211717
 30
0.0
 10
9.7467089158
 20
10.825509385
 30
0.0
 10
9.7355280802
 20
10.8291188541
 30
0.0
 10
9.7249265937
 20
10.8328429708
 30
0.0
 10
9.714922018
 20
10.8366754505
 30
0.0
 10
9.7055312831
 20
10.8406105502
 30
0.0
 10
9.6967696741
 20
10.844641469
 30
0.0
 10
9.6886510982
 20
10.8487611657
 30
0.0
 10
9.6811888742
 20
10.8529630987
 30
0.0
 10
9.6743955008
 20
10.8572413174
 30
0.0
 10
9.6682812368
 20
10.8615885528
 30
0.0
 10
9.6628553577
 20
10.8659982545
 30
0.0
 10
9.6581270603
 20
10.8704650098
 30
0.0
 10
9.6541046091
 20
10.874983586
 30
0.0
 10
9.6507946125
 20
10.8795483244
 30
0.0
 10
9.648204735
 20
10.8841543614
 30
0.0
 10
9.6463452205
 20
10.8887970622
 30
0.0
 10
9.6452246827
 20
10.8934660077
 30
0.0
 10
9.6449737121
 20
10.8966034914
 30
0.0
 10
9.6449735547
 20
10.8981518604
 30
0.0
  0
SPLINE
  5
34A
100
AcDbEntity
  8
0
100
AcDbSpline
 62
7
  6
CONTINUOUS
 70
0
 71
3
 72
23
 73
19
 74
0
 42
0.0000001
 43
0.0000001
 44
0.0000000001
 40
0.0
 40
0.0
 40
0.0
 40
0.0
 40
0.0802502555
 40
0.1591470885
 40
0.2364010696
 40
0.3117567304
 40
0.3850019057
 40
0.4559297297
 40
0.5243385344
 40
0.5900311564
 40
0.652823465
 40
0.7125550383
 40
0.7690759681
 40
0.8222605158
 40
0.8720056886
 40
0.9182305786
 40
0.9608965393
 40
1.0
 40
1.0
 40
1.0
 40
1.0
 10
9.9692399931
 20
10.6776954676
 30
0.0
 10
9.9611863959
 20
10.6782539865
 30
0.0
 10
9.945223471
 20
10.679487979
 30
0.0
 10
9.9215450822
 20
10.6817088015
 30
0.0
 10
9.8983972051
 20
10.6842784434
 30
0.0
 10
9.8758627369
 20
10.6871885537
 30
0.0
 10
9.8540163087
 20
10.6904281441
 30
0.0
 10
9.8329279749
 20
10.6939876318
 30
0.0
 10
9.8126666044
 20
10.6978542938
 30
0.0
 10
9.7932996862
 20
10.7020151581
 30
0.0
 10
9.7748918846
 20
10.7064573209
 30
0.0
 10
9.757503806
 20
10.7111643016
 30
0.0
 10
9.7411926157
 20
10.7161215542
 30
0.0
 10
9.726011635
 20
10.7213121884
 30
0.0
 10
9.7120101355
 20
10.7267179754
 30
0.0
 10
9.6992335652
 20
10.7323230661
 30
0.0
 10
9.6877229757
 20
10.7381069599
 30
0.0
 10
9.6806081348
 20
10.7422504475
 30
0.0
 10
9.6772882029
 20
10.7443604233
 30
0.0
  0
SPLINE
  5
34B
100
AcDbEntity
  8
0
100
AcDbSpline
 62
7
  6
CONTINUOUS
 70
0
 71
3
 72
11
 73
7
 74
0
 42
0.0000001
 43
0.0000001
 44
0.0000000001
 40
0.0
 40
0.0
 40
0.0
 40
0.0
 40
0.2688693399
 40
0.5249673394
 40
0.7685621485
 40
1.0
 40
1.0
 40
1.0
 40
1.0
 10
9.6772882029
 20
10.7443604233
 30
0.0
 10
9.6757374499
 20
10.7453460012
 30
0.0
 10
9.6727442911
 20
10.7473257868
 30
0.0
 10
9.668484844
 20
10.7504016375
 30
0.0
 10
9.6645692792
 20
10.7535082839
 30
0.0
 10
9.6621291474
 20
10.7556521996
 30
0.0
 10
9.6609712777
 20
10.756729658
 30
0.0
  0
SPLINE
  5
34C
100
AcDbEntity
  8
0
100
AcDbSpline
 62
7
  6
CONTINUOUS
 70
0
 71
3
 72
83
 73
79
 74
0
 42
0.0000001
 43
0.0000001
 44
0.0000000001
 40
0.0
 40
0.0
 40
0.0
 40
0.0
 40
0.0039801597
 40
0.0081241011
 40
0.0124359827
 40
0.0169193525
 40
0.0215772196
 40
0.0264119586
 40
0.031425229
 40
0.0366182129
 40
0.0419916121
 40
0.0475457279
 40
0.0532805095
 40
0.0591955088
 40
0.0715625207
 40
0.0846382028
 40
0.0984095218
 40
0.1128600995
 40
0.1279706368
 40
0.1437192468
 40
0.1600817256
 40
0.1770317945
 40
0.1945412999
 40
0.2125803859
 40
0.2311176466
 40
0.2501202605
 40
0.2695541245
 40
0.2893839808
 40
0.3095735319
 40
0.330085551
 40
0.3508819872
 40
0.3719240699
 40
0.4145863693
 40
0.4577526899
 40
0.5010975086
 40
0.544293566
 40
0.5870150496
 40
0.6080975911
 40
0.6289416064
 40
0.6495082092
 40
0.6697592088
 40
0.689657215
 40
0.7091657527
 40
0.7282493694
 40
0.746873748
 40
0.7650058256
 40
0.7826139217
 40
0.7996678828
 40
0.8161392372
 40
0.8320013567
 40
0.8472296488
 40
0.8618017808
 40
0.8756979498
 40
0.88890122
 40
0.9013979191
 40
0.913178149
 40
0.9187980119
 40
0.9242371416
 40
0.9294956774
 40
0.934574209
 40
0.9394737161
 40
0.9441957227
 40
0.9487422872
 40
0.9531160827
 40
0.9573205216
 40
0.9613597549
 40
0.9652388727
 40
0.9689639318
 40
0.9725421085
 40
0.975981836
 40
0.9792928628
 40
0.9824864354
 40
0.9855753015
 40
0.9885737802
 40
0.9914977137
 40
0.9943643206
 40
0.9971920041
 40
1.0
 40
1.0
 40
1.0
 40
1.0
 10
10.6523695032
 20
10.7475479432
 30
0.0
 10
10.651200979
 20
10.7464192354
 30
0.0
 10
10.6487627786
 20
10.7441697953
 30
0.0
 10
10.6448916567
 20
10.7408843061
 30
0.0
 10
10.6407362571
 20
10.7376223634
 30
0.0
 10
10.6362988614
 20
10.7343857384
 30
0.0
 10
10.6315816574
 20
10.7311759194
 30
0.0
 10
10.626586932
 20
10.7279944914
 30
0.0
 10
10.6213171894
 20
10.7248429497
 30
0.0
 10
10.6157750435
 20
10.7217229292
 30
0.0
 10
10.609963284
 20
10.7186359628
 30
0.0
 10
10.6038848237
 20
10.7155835896
 30
0.0
 10
10.5975426853
 20
10.7125673479
 30
0.0
 10
10.5886061314
 20
10.7085359264
 30
0.0
 10
10.5767892175
 20
10.7036094632
 30
0.0
 10
10.5618139241
 20
10.6979498953
 30
0.0
 10
10.5458702256
 20
10.6924694946
 30
0.0
 10
10.5289902145
 20
10.6871793823
 30
0.0
 10
10.5112076843
 20
10.6820903106
 30
0.0
 10
10.492558401
 20
10.6772126412
 30
0.0
 10
10.4730799173
 20
10.672556303
 30
0.0
 10
10.4528115095
 20
10.6681307801
 30
0.0
 10
10.4317940772
 20
10.6639450878
 30
0.0
 10
10.4100700574
 20
10.6600077527
 30
0.0
 10
10.3876833364
 20
10.6563267975
 30
0.0
 10
10.3646791606
 20
10.6529097153
 30
0.0
 10
10.3411040398
 20
10.6497634584
 30
0.0
 10
10.317005648
 20
10.6468944299
 30
0.0
 10
10.2924327194
 20
10.6443084657
 30
0.0
 10
10.2674349684
 20
10.6420108377
 30
0.0
 10
10.2420629234
 20
10.6400061892
 30
0.0
 10
10.2076463224
 20
10.637719137
 30
0.0
 10
10.1640691104
 20
10.6356274929
 30
0.0
 10
10.111353685
 20
10.634344855
 30
0.0
 10
10.0584046457
 20
10.6342889957
 30
0.0
 10
10.0056503339
 20
10.635460352
 30
0.0
 10
9.9620159426
 20
10.6374596502
 30
0.0
 10
9.9275343377
 20
10.6396734158
 30
0.0
 10
9.9020997211
 20
10.6416243202
 30
0.0
 10
9.8770301132
 20
10.6438689855
 30
0.0
 10
9.8523761902
 20
10.6464028791
 30
0.0
 10
9.8281878354
 20
10.6492208424
 30
0.0
 10
9.8045139676
 20
10.6523171411
 30
0.0
 10
9.7814024582
 20
10.655685471
 30
0.0
 10
9.7589000316
 20
10.6593189758
 30
0.0
 10
9.7370521712
 20
10.6632102583
 30
0.0
 10
9.7159030231
 20
10.6673513977
 30
0.0
 10
9.6954952985
 20
10.6717339601
 30
0.0
 10
9.6758701814
 20
10.6763490138
 30
0.0
 10
9.6570672417
 20
10.6811871566
 30
0.0
 10
9.6391243546
 20
10.6862385345
 30
0.0
 10
9.6220776027
 20
10.6914928671
 30
0.0
 10
9.6059612209
 20
10.6969394743
 30
0.0
 10
9.5908073823
 20
10.7025673084
 30
0.0
 10
9.5766465306
 20
10.7083649704
 30
0.0
 10
9.5655283475
 20
10.7134042208
 30
0.0
 10
9.5571635369
 20
10.7175215562
 30
0.0
 10
9.5512544089
 20
10.7205961262
 30
0.0
 10
9.5456138766
 20
10.7237043156
 30
0.0
 10
9.5402447264
 20
10.7268445448
 30
0.0
 10
9.5351496668
 20
10.7300153052
 30
0.0
 10
9.5303312195
 20
10.733214993
 30
0.0
 10
9.5257917817
 20
10.736442041
 30
0.0
 10
9.5215336327
 20
10.7396949132
 30
0.0
 10
9.51755885
 20
10.7429719814
 30
0.0
 10
9.5138694627
 20
10.7462717563
 30
0.0
 10
9.510467281
 20
10.7495926337
 30
0.0
 10
9.5073540439
 20
10.7529331008
 30
0.0
 10
9.5045313847
 20
10.7562916512
 30
0.0
 10
9.5020007553
 20
10.7596667217
 30
0.0
 10
9.4997636565
 20
10.7630568626
 30
0.0
 10
9.4978213535
 20
10.7664604804
 30
0.0
 10
9.4961751656
 20
10.7698760296
 30
0.0
 10
9.4948262954
 20
10.7733018513
 30
0.0
 10
9.4937757789
 20
10.7767361237
 30
0.0
 10
9.4930246808
 20
10.7801770504
 30
0.0
 10
9.4925736391
 20
10.7836221831
 30
0.0
 10
9.4924732459
 20
10.785923809
 30
0.0
 10
9.4924732404
 20
10.7870699843
 30
0.0
  0
SPLINE
  5
34D
100
AcDbEntity
  8
0
100
AcDbSpline
 62
7
  6
CONTINUOUS
 70
0
 71
3
 72
91
 73
87
 74
0
 42
0.0000001
 43
0.0000001
 44
0.0000000001
 40
0.0
 40
0.0
 40
0.0
 40
0.0
 40
0.0039801924
 40
0.0081241222
 40
0.0124359637
 40
0.0169193096
 40
0.0215771886
 40
0.0264119285
 40
0.0314251939
 40
0.0366181702
 40
0.0419915548
 40
0.047545678
 40
0.0532804444
 40
0.0591954462
 40
0.0652899498
 40
0.0715629346
 40
0.0780131383
 40
0.0846390212
 40
0.0984103321
 40
0.112860905
 40
0.1279714342
 40
0.1437200292
 40
0.1600824911
 40
0.1770325451
 40
0.1945420381
 40
0.2125811122
 40
0.2311183582
 40
0.250120955
 40
0.2695548022
 40
0.2893846422
 40
0.309574176
 40
0.3300861748
 40
0.3508825876
 40
0.371924647
 40
0.3931729723
 40
0.4145876715
 40
0.4361284441
 40
0.4577546814
 40
0.4794255667
 40
0.5011001742
 40
0.5227375691
 40
0.5442969066
 40
0.5657375322
 40
0.5870190822
 40
0.6081015838
 40
0.6289455566
 40
0.6495121139
 40
0.6697630662
 40
0.6896610263
 40
0.7091695166
 40
0.7282530813
 40
0.7468774025
 40
0.7650094193
 40
0.7826174564
 40
0.799671362
 40
0.8161426596
 40
0.8320047173
 40
0.8472329411
 40
0.8618050018
 40
0.8757011035
 40
0.8889043078
 40
0.8952418952
 40
0.9014014185
 40
0.9073817887
 40
0.9131821496
 40
0.9188019795
 40
0.9242410699
 40
0.9294995748
 40
0.9345780695
 40
0.9394775409
 40
0.9441995182
 40
0.9487460398
 40
0.953119811
 40
0.9573242085
 40
0.9613634143
 40
0.9652425019
 40
0.9689675247
 40
0.9725456818
 40
0.9759853712
 40
0.9824865179
 40
0.9855753633
 40
0.9885738259
 40
0.9914977396
 40
0.9943643376
 40
0.9971920097
 40
1.0
 40
1.0
 40
1.0
 40
1.0
 10
12.370751685
 20
10.6283777341
 30
0.0
 10
12.3691533639
 20
10.6268338744
 30
0.0
 10
12.3658183873
 20
10.6237570774
 30
0.0
 10
12.3605234737
 20
10.6192631891
 30
0.0
 10
12.3548397377
 20
10.6148015435
 30
0.0
 10
12.3487702956
 20
10.6103744946
 30
0.0
 10
12.3423180975
 20
10.6059841199
 30
0.0
 10
12.3354863159
 20
10.6016325435
 30
0.0
 10
12.3282783617
 20
10.5973218717
 30
0.0
 10
12.3206978175
 20
10.5930543273
 30
0.0
 10
12.3127485074
 20
10.5888319603
 30
0.0
 10
12.3044343803
 20
10.5846569525
 30
0.0
 10
12.2957596236
 20
10.5805313363
 30
0.0
 10
12.2867285797
 20
10.5764572282
 30
0.0
 10
12.2773457925
 20
10.5724366678
 30
0.0
 10
12.2676159881
 20
10.5684716765
 30
0.0
 10
12.257544046
 20
10.5645642653
 30
0.0
 10
12.2434841659
 20
10.5593668646
 30
0.0
 10
12.2250819735
 20
10.553041525
 30
0.0
 10
12.2019935984
 20
10.5458057205
 30
0.0
 10
12.1776706262
 20
10.5388449046
 30
0.0
 10
12.1521621563
 20
10.5321732369
 30
0.0
 10
12.1255194987
 20
10.5258043067
 30
0.0
 10
12.0977963838
 20
10.5197510876
 30
0.0
 10
12.0690487488
 20
10.5140259114
 30
0.0
 10
12.039334643
 20
10.5086404407
 30
0.0
 10
12.0087140975
 20
10.5036056439
 30
0.0
 10
11.9772490002
 20
10.4989317709
 30
0.0
 10
11.945002965
 20
10.4946283348
 30
0.0
 10
11.9120411986
 20
10.4907040935
 30
0.0
 10
11.8784303658
 20
10.4871670313
 30
0.0
 10
11.8442384534
 20
10.4840243441
 30
0.0
 10
11.8095346306
 20
10.4812824244
 30
0.0
 10
11.7743891087
 20
10.4789468497
 30
0.0
 10
11.7388729983
 20
10.4770223698
 30
0.0
 10
11.7030581638
 20
10.4755128961
 30
0.0
 10
11.6670170767
 20
10.4744214966
 30
0.0
 10
11.6308226676
 20
10.4737503896
 30
0.0
 10
11.5945481783
 20
10.4735009392
 30
0.0
 10
11.5582670135
 20
10.4736736528
 30
0.0
 10
11.5220525916
 20
10.47426818
 30
0.0
 10
11.4859781961
 20
10.4752833133
 30
0.0
 10
11.4501168258
 20
10.4767169897
 30
0.0
 10
11.4145410464
 20
10.4785662931
 30
0.0
 10
11.3793228421
 20
10.4808274629
 30
0.0
 10
11.3445334704
 20
10.4834959007
 30
0.0
 10
11.3102433167
 20
10.4865661801
 30
0.0
 10
11.2765217513
 20
10.4900320568
 30
0.0
 10
11.2434369879
 20
10.4938864807
 30
0.0
 10
11.2110559437
 20
10.498121611
 30
0.0
 10
11.1794441006
 20
10.5027288293
 30
0.0
 10
11.1486653696
 20
10.5076987559
 30
0.0
 10
11.1187819593
 20
10.5130212716
 30
0.0
 10
11.0898542469
 20
10.5186855373
 30
0.0
 10
11.0619406507
 20
10.5246800159
 30
0.0
 10
11.0350975085
 20
10.5309924962
 30
0.0
 10
11.0093789458
 20
10.5376101195
 30
0.0
 10
10.9848367862
 20
10.5445194084
 30
0.0
 10
10.9615203213
 20
10.5517063011
 30
0.0
 10
10.9394765687
 20
10.5591561751
 30
0.0
 10
10.9219729907
 20
10.5656565777
 30
0.0
 10
10.9086509553
 20
10.5709884804
 30
0.0
 10
10.8991414365
 20
10.5749891077
 30
0.0
 10
10.8899819681
 20
10.5790439659
 30
0.0
 10
10.8811771564
 20
10.5831510984
 30
0.0
 10
10.8727314177
 20
10.5873083938
 30
0.0
 10
10.8646489887
 20
10.5915137753
 30
0.0
 10
10.856933927
 20
10.5957651558
 30
0.0
 10
10.8495900708
 20
10.600060366
 30
0.0
 10
10.842621117
 20
10.6043973404
 30
0.0
 10
10.8360305016
 20
10.6087738556
 30
0.0
 10
10.8298215434
 20
10.6131878427
 30
0.0
 10
10.8239972959
 20
10.6176370884
 30
0.0
 10
10.8185606741
 20
10.6221194931
 30
0.0
 10
10.8135143943
 20
10.6266329031
 30
0.0
 10
10.8088609353
 20
10.6311752201
 30
0.0
 10
10.8046028068
 20
10.6357442415
 30
0.0
 10
10.8007417866
 20
10.6403383589
 30
0.0
 10
10.7962124693
 20
10.6463791158
 30
0.0
 10
10.7923663243
 20
10.6525826782
 30
0.0
 10
10.7893126991
 20
10.6589187235
 30
0.0
 10
10.7874676781
 20
10.663604683
 30
0.0
 10
10.7860309386
 20
10.668302062
 30
0.0
 10
10.7850035774
 20
10.6730085488
 30
0.0
 10
10.7843867865
 20
10.6777208064
 30
0.0
 10
10.7842494937
 20
10.6808689612
 30
0.0
 10
10.7842494983
 20
10.6824366971
 30
0.0
  0
SPLINE
  5
34E
100
AcDbEntity
  8
0
100
AcDbSpline
 62
7
  6
CONTINUOUS
 70
0
 71
3
 72
18
 73
14
 74
0
 42
0.0000001
 43
0.0000001
 44
0.0000000001
 40
0.0
 40
0.0
 40
0.0
 40
0.0
 40
0.150467608
 40
0.291710008
 40
0.4244359371
 40
0.549562455
 40
0.6682139939
 40
0.7255497488
 40
0.7817912909
 40
0.8371402503
 40
0.8918093826
 40
0.9460201179
 40
1.0
 40
1.0
 40
1.0
 40
1.0
 10
12.9802508825
 20
9.0715370358
 30
0.0
 10
12.9825323446
 20
9.0737407591
 30
0.0
 10
12.9870920295
 20
9.0778755113
 30
0.0
 10
12.9941526646
 20
9.0833857744
 30
0.0
 10
13.0012050066
 20
9.0879942807
 30
0.0
 10
13.008241754
 20
9.0916934656
 30
0.0
 10
13.0141560627
 20
9.0940391664
 30
0.0
 10
13.0188517625
 20
9.0954328415
 30
0.0
 10
13.0223235193
 20
9.096236136
 30
0.0
 10
13.0257837582
 20
9.0968086646
 30
0.0
 10
13.0292315097
 20
9.0971502246
 30
0.0
 10
13.0326654025
 20
9.0972606384
 30
0.0
 10
13.034946782
 20
9.0971799486
 30
0.0
 10
13.0360819962
 20
9.0971012261
 30
0.0
  0
SPLINE
  5
34F
100
AcDbEntity
  8
0
100
AcDbSpline
 62
7
  6
CONTINUOUS
 70
0
 71
3
 72
21
 73
17
 74
0
 42
0.0000001
 43
0.0000001
 44
0.0000000001
 40
0.0
 40
0.0
 40
0.0
 40
0.0
 40
0.1273176984
 40
0.2537999461
 40
0.3167619614
 40
0.3795355204
 40
0.4421314992
 40
0.5045621453
 40
0.5668413456
 40
0.6289845231
 40
0.6910084433
 40
0.7529310869
 40
0.8147714401
 40
0.8765493236
 40
0.9382852134
 40
1.0
 40
1.0
 40
1.0
 40
1.0
 10
12.4217114224
 20
9.8585255328
 30
0.0
 10
12.4217114224
 20
9.852273496
 30
0.0
 10
12.4211146237
 20
9.8398024001
 30
0.0
 10
12.418860683
 20
9.8243854334
 30
0.0
 10
12.4161667459
 20
9.8122921732
 30
0.0
 10
12.4137100159
 20
9.8033721785
 30
0.0
 10
12.4108198199
 20
9.7946106876
 30
0.0
 10
12.4075028215
 20
9.7860276487
 30
0.0
 10
12.403766668
 20
9.7776429132
 30
0.0
 10
12.399619899
 20
9.7694758324
 30
0.0
 10
12.3950721075
 20
9.7615452328
 30
0.0
 10
12.3901337815
 20
9.7538693913
 30
0.0
 10
12.384816262
 20
9.7464660698
 30
0.0
 10
12.3791317788
 20
9.7393522708
 30
0.0
 10
12.3730936936
 20
9.7325445979
 30
0.0
 10
12.3688409893
 20
9.7282199632
 30
0.0
 10
12.3666612433
 20
9.726114503
 30
0.0
  0
SPLINE
  5
350
100
AcDbEntity
  8
0
100
AcDbSpline
 62
7
  6
CONTINUOUS
 70
0
 71
3
 72
21
 73
17
 74
0
 42
0.0000001
 43
0.0000001
 44
0.0000000001
 40
0.0
 40
0.0
 40
0.0
 40
0.0
 40
0.1273176984
 40
0.2537999461
 40
0.3167619614
 40
0.3795355204
 40
0.4421314992
 40
0.5045621453
 40
0.5668413456
 40
0.6289845231
 40
0.6910084433
 40
0.7529310869
 40
0.8147714401
 40
0.8765493236
 40
0.9382852134
 40
1.0
 40
1.0
 40
1.0
 40
1.0
 10
9.4041589211
 20
6.5672782967
 30
0.0
 10
9.4041589211
 20
6.56102626
 30
0.0
 10
9.4035621224
 20
6.5485551641
 30
0.0
 10
9.4013081817
 20
6.5331381974
 30
0.0
 10
9.3986142446
 20
6.5210449371
 30
0.0
 10
9.3961575146
 20
6.5121249424
 30
0.0
 10
9.3932673186
 20
6.5033634515
 30
0.0
 10
9.3899503201
 20
6.4947804127
 30
0.0
 10
9.3862141666
 20
6.4863956771
 30
0.0
 10
9.3820673977
 20
6.4782285963
 30
0.0
 10
9.3775196062
 20
6.4702979967
 30
0.0
 10
9.3725812802
 20
6.4626221552
 30
0.0
 10
9.3672637606
 20
6.4552188337
 30
0.0
 10
9.3615792775
 20
6.4481050347
 30
0.0
 10
9.3555411922
 20
6.4412973618
 30
0.0
 10
9.351288488
 20
6.4369727271
 30
0.0
 10
9.3491087419
 20
6.4348672669
 30
0.0
  0
SPLINE
  5
351
100
AcDbEntity
  8
0
100
AcDbSpline
 62
7
  6
CONTINUOUS
 70
0
 71
3
 72
21
 73
17
 74
0
 42
0.0000001
 43
0.0000001
 44
0.0000000001
 40
0.0
 40
0.0
 40
0.0
 40
0.0
 40
0.1273176984
 40
0.2537999461
 40
0.3167619614
 40
0.3795355204
 40
0.4421314992
 40
0.5045621453
 40
0.5668413456
 40
0.6289845231
 40
0.6910084433
 40
0.7529310869
 40
0.8147714401
 40
0.8765493236
 40
0.9382852134
 40
1.0
 40
1.0
 40
1.0
 40
1.0
 10
12.4217114224
 20
6.3580103199
 30
0.0
 10
12.4217114224
 20
6.3517582832
 30
0.0
 10
12.4211146237
 20
6.3392871873
 30
0.0
 10
12.418860683
 20
6.3238702206
 30
0.0
 10
12.4161667459
 20
6.3117769604
 30
0.0
 10
12.4137100159
 20
6.3028569657
 30
0.0
 10
12.4108198199
 20
6.2940954748
 30
0.0
 10
12.4075028215
 20
6.2855124359
 30
0.0
 10
12.403766668
 20
6.2771277004
 30
0.0
 10
12.399619899
 20
6.2689606196
 30
0.0
 10
12.3950721075
 20
6.26103002
 30
0.0
 10
12.3901337815
 20
6.2533541785
 30
0.0
 10
12.384816262
 20
6.2459508569
 30
0.0
 10
12.3791317788
 20
6.2388370579
 30
0.0
 10
12.3730936936
 20
6.232029385
 30
0.0
 10
12.3688409893
 20
6.2277047504
 30
0.0
 10
12.3666612433
 20
6.2255992902
 30
0.0
  0
SPLINE
  5
352
100
AcDbEntity
  8
0
100
AcDbSpline
 62
7
  6
CONTINUOUS
 70
0
 71
3
 72
25
 73
21
 74
0
 42
0.0000001
 43
0.0000001
 44
0.0000000001
 40
0.0
 40
0.0
 40
0.0
 40
0.0
 40
0.0647706696
 40
0.0970576983
 40
0.1292685987
 40
0.1934337042
 40
0.2572525376
 40
0.289033671
 40
0.3207231181
 40
0.383812059
 40
0.4465380865
 40
0.5089164209
 40
0.5709720895
 40
0.632739097
 40
0.6942593324
 40
0.7555812652
 40
0.8167584588
 40
0.8778479804
 40
0.9389087679
 40
1.0
 40
1.0
 40
1.0
 40
1.0
 10
11.1536403342
 20
8.9518388185
 30
0.0
 10
11.1561162741
 20
8.9463574411
 30
0.0
 10
11.1594985105
 20
8.9379893747
 30
0.0
 10
11.163311806
 20
8.9266047228
 30
0.0
 10
11.1666431315
 20
8.9151277152
 30
0.0
 10
11.169911497
 20
8.9005973391
 30
0.0
 10
11.1719658343
 20
8.8858861337
 30
0.0
 10
11.172866671
 20
8.874097324
 30
0.0
 10
11.1732722932
 20
8.8623490355
 30
0.0
 10
11.1728575839
 20
8.8477102026
 30
0.0
 10
11.1708864038
 20
8.8303253572
 30
0.0
 10
11.1674619567
 20
8.8132645888
 30
0.0
 10
11.1626139258
 20
8.7966452768
 30
0.0
 10
11.1563817272
 20
8.7805792531
 30
0.0
 10
11.1488138064
 20
8.765173344
 30
0.0
 10
11.1399669498
 20
8.7505284485
 30
0.0
 10
11.1299057178
 20
8.7367393044
 30
0.0
 10
11.1187011887
 20
8.7238937074
 30
0.0
 10
11.1064324533
 20
8.7120738437
 30
0.0
 10
11.0976011566
 20
8.7049287839
 30
0.0
 10
11.0930415039
 20
8.7015535804
 30
0.0
  0
SPLINE
  5
353
100
AcDbEntity
  8
0
100
AcDbSpline
 62
7
  6
CONTINUOUS
 70
0
 71
3
 72
15
 73
11
 74
0
 42
0.0000001
 43
0.0000001
 44
0.0000000001
 40
0.0
 40
0.0
 40
0.0
 40
0.0
 40
0.1241308009
 40
0.2482795847
 40
0.3725744135
 40
0.4971330517
 40
0.6220659435
 40
0.7474699962
 40
0.873426661
 40
1.0
 40
1.0
 40
1.0
 40
1.0
 10
11.518263228
 20
8.1209488065
 30
0.0
 10
11.5146385936
 20
8.1168805047
 30
0.0
 10
11.5070233046
 20
8.1090606338
 30
0.0
 10
11.4946038341
 20
8.0983888397
 30
0.0
 10
11.4812740009
 20
8.0888443127
 30
0.0
 10
11.4671287387
 20
8.0804894894
 30
0.0
 10
11.4522672719
 20
8.0733748816
 30
0.0
 10
11.4367926406
 20
8.0675408558
 30
0.0
 10
11.4208123251
 20
8.0630174647
 30
0.0
 10
11.4099176659
 20
8.0608935499
 30
0.0
 10
11.4044255235
 20
8.0600537215
 30
0.0
  0
SPLINE
  5
354
100
AcDbEntity
  8
0
100
AcDbSpline
 62
7
  6
CONTINUOUS
 70
0
 71
3
 72
41
 73
37
 74
0
 42
0.0000001
 43
0.0000001
 44
0.0000000001
 40
0.0
 40
0.0
 40
0.0
 40
0.0
 40
0.0302897333
 40
0.0604818916
 40
0.0906152924
 40
0.1207300201
 40
0.150866953
 40
0.1810656793
 40
0.2113628934
 40
0.2417909844
 40
0.2723768945
 40
0.3031413158
 40
0.3340981765
 40
0.3652544331
 40
0.396610133
 40
0.428158678
 40
0.45988727
 40
0.4917774929
 40
0.5238059887
 40
0.5559452199
 40
0.5881642875
 40
0.6204298005
 40
0.6527068075
 40
0.6849597552
 40
0.717153497
 40
0.7492543543
 40
0.7812311784
 40
0.8130564268
 40
0.844707227
 40
0.8761663462
 40
0.9074230528
 40
0.9384737989
 40
0.9539274866
 40
0.9693318511
 40
0.9846886827
 40
1.0
 40
1.0
 40
1.0
 40
1.0
 10
9.8576193391
 20
8.045554559
 30
0.0
 10
9.8604339742
 20
8.0513953678
 30
0.0
 10
9.8666497848
 20
8.0627820924
 30
0.0
 10
9.8776511488
 20
8.07879616
 30
0.0
 10
9.890212201
 20
8.0935720976
 30
0.0
 10
9.9042130704
 20
8.1069736416
 30
0.0
 10
9.9195215091
 20
8.1188822081
 30
0.0
 10
9.9359934566
 20
8.129194106
 30
0.0
 10
9.9534753192
 20
8.1378224449
 30
0.0
 10
9.9718059369
 20
8.1446972624
 30
0.0
 10
9.9908186485
 20
8.1497654897
 30
0.0
 10
10.0103430243
 20
8.1529909753
 30
0.0
 10
10.0302065979
 20
8.1543540106
 30
0.0
 10
10.0502363378
 20
8.1538507039
 30
0.0
 10
10.0702599381
 20
8.1514925937
 30
0.0
 10
10.090106982
 20
8.1473059199
 30
0.0
 10
10.1096099087
 20
8.1413309411
 30
0.0
 10
10.1286049435
 20
8.1336215238
 30
0.0
 10
10.1469329214
 20
8.1242445325
 30
0.0
 10
10.1644400214
 20
8.113279277
 30
0.0
 10
10.1809786113
 20
8.100817207
 30
0.0
 10
10.1964080539
 20
8.0869614565
 30
0.0
 10
10.2105954841
 20
8.0718263565
 30
0.0
 10
10.2234168168
 20
8.0555371111
 30
0.0
 10
10.2347577627
 20
8.0382292859
 30
0.0
 10
10.244514783
 20
8.0200481401
 30
0.0
 10
10.2525963604
 20
8.0011480148
 30
0.0
 10
10.2589241984
 20
7.9816913833
 30
0.0
 10
10.2634342842
 20
7.9618478686
 30
0.0
 10
10.2660781672
 20
7.9417924672
 30
0.0
 10
10.2668243642
 20
7.9217060261
 30
0.0
 10
10.265850596
 20
7.9050612633
 30
0.0
 10
10.2641140837
 20
7.8919193937
 30
0.0
 10
10.2623394285
 20
7.8821831589
 30
0.0
 10
10.2600942271
 20
7.8725762938
 30
0.0
 10
10.2582840963
 20
7.8662628249
 30
0.0
 10
10.2573023015
 20
7.8631359
 30
0.0
  0
SPLINE
  5
355
100
AcDbEntity
  8
0
100
AcDbSpline
 62
7
  6
CONTINUOUS
 70
0
 71
3
 72
15
 73
11
 74
0
 42
0.0000001
 43
0.0000001
 44
0.0000000001
 40
0.0
 40
0.0
 40
0.0
 40
0.0
 40
0.1273482936
 40
0.2538605366
 40
0.3795879111
 40
0.5046050899
 40
0.6290174366
 40
0.7529533732
 40
0.8765605776
 40
1.0
 40
1.0
 40
1.0
 40
1.0
 10
10.047269255
 20
9.1852711934
 30
0.0
 10
10.047269255
 20
9.1818064181
 30
0.0
 10
10.0469384401
 20
9.1748948236
 30
0.0
 10
10.0454423533
 20
9.1646603622
 30
0.0
 10
10.042961592
 20
9.1546830555
 30
0.0
 10
10.0395185593
 20
9.1450562113
 30
0.0
 10
10.0351448612
 20
9.1358686061
 30
0.0
 10
10.0298803529
 20
9.1272050788
 30
0.0
 10
10.0237745227
 20
9.1191468183
 30
0.0
 10
10.0191771542
 20
9.1142243637
 30
0.0
 10
10.0167615805
 20
9.1118911189
 30
0.0
  0
SPLINE
  5
356
100
AcDbEntity
  8
0
100
AcDbSpline
 62
7
  6
CONTINUOUS
 70
0
 71
3
 72
23
 73
19
 74
0
 42
0.0000001
 43
0.0000001
 44
0.0000000001
 40
0.0
 40
0.0
 40
0.0
 40
0.0
 40
0.0614488807
 40
0.1232974294
 40
0.1855193177
 40
0.2480712672
 40
0.3108995318
 40
0.3739401513
 40
0.4371217414
 40
0.5003679843
 40
0.5636003151
 40
0.6267406524
 40
0.6897141172
 40
0.7524516838
 40
0.8148926113
 40
0.8769871451
 40
0.9386966623
 40
1.0
 40
1.0
 40
1.0
 40
1.0
 10
9.9386025931
 20
9.3014739139
 30
0.0
 10
9.9421692863
 20
9.3012265629
 30
0.0
 10
9.9493062312
 20
9.3003787645
 30
0.0
 10
9.9598678231
 20
9.2980761318
 30
0.0
 10
9.9702246963
 20
9.2947606198
 30
0.0
 10
9.9802761035
 20
9.2904643501
 30
0.0
 10
9.9899259204
 20
9.2852288569
 30
0.0
 10
9.9990814707
 20
9.2791045573
 30
0.0
 10
10.0076549536
 20
9.2721503748
 30
0.0
 10
10.0155641131
 20
9.2644331367
 30
0.0
 10
10.0227330446
 20
9.2560269379
 30
0.0
 10
10.0290928985
 20
9.2470124431
 30
0.0
 10
10.0345825311
 20
9.2374761378
 30
0.0
 10
10.0391490845
 20
9.2275094828
 30
0.0
 10
10.0427485446
 20
9.2172082079
 30
0.0
 10
10.0453460192
 20
9.20667086
 30
0.0
 10
10.0469163515
 20
9.1959999588
 30
0.0
 10
10.047269255
 20
9.1888379851
 30
0.0
 10
10.047269255
 20
9.1852711934
 30
0.0
  0
SPLINE
  5
357
100
AcDbEntity
  8
0
100
AcDbSpline
 62
7
  6
CONTINUOUS
 70
0
 71
3
 72
15
 73
11
 74
0
 42
0.0000001
 43
0.0000001
 44
0.0000000001
 40
0.0
 40
0.0
 40
0.0
 40
0.0
 40
0.1273482936
 40
0.2538605366
 40
0.3795879111
 40
0.5046050899
 40
0.6290174366
 40
0.7529533732
 40
0.8765605776
 40
1.0
 40
1.0
 40
1.0
 40
1.0
 10
12.0988959016
 20
9.0429904022
 30
0.0
 10
12.0988959016
 20
9.0395256269
 30
0.0
 10
12.0985650867
 20
9.0326140325
 30
0.0
 10
12.0970689999
 20
9.022379571
 30
0.0
 10
12.0945882386
 20
9.0124022643
 30
0.0
 10
12.0911452059
 20
9.0027754201
 30
0.0
 10
12.0867715078
 20
8.9935878149
 30
0.0
 10
12.0815069995
 20
8.9849242876
 30
0.0
 10
12.0754011693
 20
8.9768660271
 30
0.0
 10
12.0708038008
 20
8.9719435725
 30
0.0
 10
12.0683882271
 20
8.9696103277
 30
0.0
  0
SPLINE
  5
358
100
AcDbEntity
  8
0
100
AcDbSpline
 62
7
  6
CONTINUOUS
 70
0
 71
3
 72
23
 73
19
 74
0
 42
0.0000001
 43
0.0000001
 44
0.0000000001
 40
0.0
 40
0.0
 40
0.0
 40
0.0
 40
0.0614488807
 40
0.1232974294
 40
0.1855193177
 40
0.2480712672
 40
0.3108995318
 40
0.3739401513
 40
0.4371217414
 40
0.5003679843
 40
0.5636003151
 40
0.6267406524
 40
0.6897141172
 40
0.7524516838
 40
0.8148926113
 40
0.8769871451
 40
0.9386966623
 40
1.0
 40
1.0
 40
1.0
 40
1.0
 10
11.9902292397
 20
9.1591931227
 30
0.0
 10
11.9937959329
 20
9.1589457717
 30
0.0
 10
12.0009328778
 20
9.1580979733
 30
0.0
 10
12.0114944697
 20
9.1557953406
 30
0.0
 10
12.0218513429
 20
9.1524798286
 30
0.0
 10
12.0319027502
 20
9.1481835589
 30
0.0
 10
12.041552567
 20
9.1429480657
 30
0.0
 10
12.0507081173
 20
9.1368237661
 30
0.0
 10
12.0592816002
 20
9.1298695836
 30
0.0
 10
12.0671907597
 20
9.1221523455
 30
0.0
 10
12.0743596912
 20
9.1137461467
 30
0.0
 10
12.0807195451
 20
9.1047316519
 30
0.0
 10
12.0862091777
 20
9.0951953466
 30
0.0
 10
12.0907757311
 20
9.0852286916
 30
0.0
 10
12.0943751912
 20
9.0749274167
 30
0.0
 10
12.0969726658
 20
9.0643900688
 30
0.0
 10
12.0985429981
 20
9.0537191676
 30
0.0
 10
12.0988959016
 20
9.0465571939
 30
0.0
 10
12.0988959016
 20
9.0429904022
 30
0.0
  0
SPLINE
  5
359
100
AcDbEntity
  8
0
100
AcDbSpline
 62
7
  6
CONTINUOUS
 70
0
 71
3
 72
15
 73
11
 74
0
 42
0.0000001
 43
0.0000001
 44
0.0000000001
 40
0.0
 40
0.0
 40
0.0
 40
0.0
 40
0.1273482936
 40
0.2538605366
 40
0.3795879111
 40
0.5046050899
 40
0.6290174366
 40
0.7529533732
 40
0.8765605776
 40
1.0
 40
1.0
 40
1.0
 40
1.0
 10
12.0988959016
 20
7.2917668104
 30
0.0
 10
12.0988959016
 20
7.288302035
 30
0.0
 10
12.0985650867
 20
7.2813904406
 30
0.0
 10
12.0970689999
 20
7.2711559792
 30
0.0
 10
12.0945882386
 20
7.2611786725
 30
0.0
 10
12.0911452059
 20
7.2515518283
 30
0.0
 10
12.0867715078
 20
7.2423642231
 30
0.0
 10
12.0815069995
 20
7.2337006958
 30
0.0
 10
12.0754011693
 20
7.2256424353
 30
0.0
 10
12.0708038008
 20
7.2207199806
 30
0.0
 10
12.0683882271
 20
7.2183867359
 30
0.0
  0
SPLINE
  5
35A
100
AcDbEntity
  8
0
100
AcDbSpline
 62
7
  6
CONTINUOUS
 70
0
 71
3
 72
23
 73
19
 74
0
 42
0.0000001
 43
0.0000001
 44
0.0000000001
 40
0.0
 40
0.0
 40
0.0
 40
0.0
 40
0.0614488807
 40
0.1232974294
 40
0.1855193177
 40
0.2480712672
 40
0.3108995318
 40
0.3739401513
 40
0.4371217414
 40
0.5003679843
 40
0.5636003151
 40
0.6267406524
 40
0.6897141172
 40
0.7524516838
 40
0.8148926113
 40
0.8769871451
 40
0.9386966623
 40
1.0
 40
1.0
 40
1.0
 40
1.0
 10
11.9902292397
 20
7.4079695309
 30
0.0
 10
11.9937959329
 20
7.4077221799
 30
0.0
 10
12.0009328778
 20
7.4068743815
 30
0.0
 10
12.0114944697
 20
7.4045717488
 30
0.0
 10
12.0218513429
 20
7.4012562368
 30
0.0
 10
12.0319027502
 20
7.3969599671
 30
0.0
 10
12.041552567
 20
7.3917244739
 30
0.0
 10
12.0507081173
 20
7.3856001743
 30
0.0
 10
12.0592816002
 20
7.3786459918
 30
0.0
 10
12.0671907597
 20
7.3709287536
 30
0.0
 10
12.0743596912
 20
7.3625225549
 30
0.0
 10
12.0807195451
 20
7.3535080601
 30
0.0
 10
12.0862091777
 20
7.3439717548
 30
0.0
 10
12.0907757311
 20
7.3340050998
 30
0.0
 10
12.0943751912
 20
7.3237038248
 30
0.0
 10
12.0969726658
 20
7.313166477
 30
0.0
 10
12.0985429981
 20
7.3024955757
 30
0.0
 10
12.0988959016
 20
7.2953336021
 30
0.0
 10
12.0988959016
 20
7.2917668104
 30
0.0
  0
SPLINE
  5
35B
100
AcDbEntity
  8
0
100
AcDbSpline
 62
7
  6
CONTINUOUS
 70
0
 71
3
 72
15
 73
11
 74
0
 42
0.0000001
 43
0.0000001
 44
0.0000000001
 40
0.0
 40
0.0
 40
0.0
 40
0.0
 40
0.1273482936
 40
0.2538605366
 40
0.3795879111
 40
0.5046050899
 40
0.6290174366
 40
0.7529533732
 40
0.8765605776
 40
1.0
 40
1.0
 40
1.0
 40
1.0
 10
10.047269255
 20
7.4340476016
 30
0.0
 10
10.047269255
 20
7.4305828262
 30
0.0
 10
10.0469384401
 20
7.4236712318
 30
0.0
 10
10.0454423533
 20
7.4134367704
 30
0.0
 10
10.042961592
 20
7.4034594637
 30
0.0
 10
10.0395185593
 20
7.3938326195
 30
0.0
 10
10.0351448612
 20
7.3846450143
 30
0.0
 10
10.0298803529
 20
7.3759814869
 30
0.0
 10
10.0237745227
 20
7.3679232265
 30
0.0
 10
10.0191771542
 20
7.3630007718
 30
0.0
 10
10.0167615805
 20
7.3606675271
 30
0.0
  0
SPLINE
  5
35C
100
AcDbEntity
  8
0
100
AcDbSpline
 62
7
  6
CONTINUOUS
 70
0
 71
3
 72
23
 73
19
 74
0
 42
0.0000001
 43
0.0000001
 44
0.0000000001
 40
0.0
 40
0.0
 40
0.0
 40
0.0
 40
0.0614488807
 40
0.1232974294
 40
0.1855193177
 40
0.2480712672
 40
0.3108995318
 40
0.3739401513
 40
0.4371217414
 40
0.5003679843
 40
0.5636003151
 40
0.6267406524
 40
0.6897141172
 40
0.7524516838
 40
0.8148926113
 40
0.8769871451
 40
0.9386966623
 40
1.0
 40
1.0
 40
1.0
 40
1.0
 10
9.9386025931
 20
7.5502503221
 30
0.0
 10
9.9421692863
 20
7.5500029711
 30
0.0
 10
9.9493062312
 20
7.5491551727
 30
0.0
 10
9.9598678231
 20
7.54685254
 30
0.0
 10
9.9702246963
 20
7.543537028
 30
0.0
 10
9.9802761035
 20
7.5392407582
 30
0.0
 10
9.9899259204
 20
7.5340052651
 30
0.0
 10
9.9990814707
 20
7.5278809655
 30
0.0
 10
10.0076549536
 20
7.520926783
 30
0.0
 10
10.0155641131
 20
7.5132095448
 30
0.0
 10
10.0227330446
 20
7.5048033461
 30
0.0
 10
10.0290928985
 20
7.4957888513
 30
0.0
 10
10.0345825311
 20
7.486252546
 30
0.0
 10
10.0391490845
 20
7.476285891
 30
0.0
 10
10.0427485446
 20
7.465984616
 30
0.0
 10
10.0453460192
 20
7.4554472682
 30
0.0
 10
10.0469163515
 20
7.4447763669
 30
0.0
 10
10.047269255
 20
7.4376143933
 30
0.0
 10
10.047269255
 20
7.4340476016
 30
0.0
  0
SPLINE
  5
35D
100
AcDbEntity
  8
0
100
AcDbSpline
 62
7
  6
CONTINUOUS
 70
0
 71
3
 72
15
 73
11
 74
0
 42
0.0000001
 43
0.0000001
 44
0.0000000001
 40
0.0
 40
0.0
 40
0.0
 40
0.0
 40
0.1453423238
 40
0.2840016693
 40
0.4163085622
 40
0.5426779515
 40
0.6636083286
 40
0.7796799426
 40
0.8915590311
 40
1.0
 40
1.0
 40
1.0
 40
1.0
 10
12.9493412535
 20
8.8495858209
 30
0.0
 10
12.9505607248
 20
8.8507637398
 30
0.0
 10
12.9529986681
 20
8.8530094614
 30
0.0
 10
12.9567425907
 20
8.8561063965
 30
0.0
 10
12.9604833088
 20
8.8588482677
 30
0.0
 10
12.9642185406
 20
8.8612329875
 30
0.0
 10
12.9679462894
 20
8.8632587952
 30
0.0
 10
12.9716646628
 20
8.8649239992
 30
0.0
 10
12.9753710102
 20
8.8662268892
 30
0.0
 10
12.9778660069
 20
8.8668612852
 30
0.0
 10
12.9791054481
 20
8.8671142838
 30
0.0
  0
SPLINE
  5
35E
100
AcDbEntity
  8
0
100
AcDbSpline
 62
7
  6
CONTINUOUS
 70
0
 71
3
 72
80
 73
76
 74
0
 42
0.0000001
 43
0.0000001
 44
0.0000000001
 40
0.0
 40
0.0
 40
0.0
 40
0.0
 40
0.0039235033
 40
0.0080088412
 40
0.012259467
 40
0.0166782841
 40
0.0212677523
 40
0.0260298254
 40
0.0309658289
 40
0.0360766202
 40
0.0413626858
 40
0.0468241087
 40
0.0582714179
 40
0.0704139423
 40
0.0832424031
 40
0.096744093
 40
0.1109033108
 40
0.1257017287
 40
0.1411187091
 40
0.1571315447
 40
0.1737156485
 40
0.1908447135
 40
0.2084908884
 40
0.2266249142
 40
0.2452162415
 40
0.2642331282
 40
0.2836427635
 40
0.3034113751
 40
0.3235043226
 40
0.3438861814
 40
0.3645208426
 40
0.4064006129
 40
0.4488452892
 40
0.4915506033
 40
0.5342099135
 40
0.5765169991
 40
0.6181688498
 40
0.6386563114
 40
0.6588692473
 40
0.6787719462
 40
0.698329438
 40
0.7175075934
 40
0.7362732085
 40
0.7545941015
 40
0.772439224
 40
0.7897787879
 40
0.8065843675
 40
0.8228290238
 40
0.8384874517
 40
0.8535361685
 40
0.8679536865
 40
0.8817207266
 40
0.8948204887
 40
0.9072390112
 40
0.9189655867
 40
0.9245673414
 40
0.9299938655
 40
0.9352449963
 40
0.9403209414
 40
0.945222224
 40
0.9499498356
 40
0.9545052093
 40
0.9588902733
 40
0.9631075915
 40
0.9671603288
 40
0.9710524192
 40
0.9747886393
 40
0.9783746628
 40
0.9818172684
 40
0.9851243704
 40
0.9883051739
 40
0.9913703056
 40
0.9943318313
 40
0.9972033641
 40
1.0
 40
1.0
 40
1.0
 40
1.0
 10
12.9493412535
 20
8.8495858209
 30
0.0
 10
12.9482331727
 20
8.848515497
 30
0.0
 10
12.9460181533
 20
8.8462817675
 30
0.0
 10
12.9427633991
 20
8.8427336504
 30
0.0
 10
12.9395118951
 20
8.8389230533
 30
0.0
 10
12.9362653623
 20
8.8348519469
 30
0.0
 10
12.9330252173
 20
8.8305222647
 30
0.0
 10
12.9297929817
 20
8.8259359756
 30
0.0
 10
12.9265701092
 20
8.821095246
 30
0.0
 10
12.9233581385
 20
8.8160023682
 30
0.0
 10
12.920158609
 20
8.8106597375
 30
0.0
 10
12.9158433464
 20
8.8030874786
 30
0.0
 10
12.9105018076
 20
8.7930046728
 30
0.0
 10
12.9042620873
 20
8.7801350157
 30
0.0
 10
12.8981077606
 20
8.7663362996
 30
0.0
 10
12.8920506217
 20
8.7516347595
 30
0.0
 10
12.8861022775
 20
8.7360581698
 30
0.0
 10
12.8802741487
 20
8.7196361404
 30
0.0
 10
12.8745774427
 20
8.7023999231
 30
0.0
 10
12.8690231241
 20
8.6843823691
 30
0.0
 10
12.8636218875
 20
8.6656178611
 30
0.0
 10
12.8583841167
 20
8.6461422478
 30
0.0
 10
12.8533198884
 20
8.6259927579
 30
0.0
 10
12.8484389457
 20
8.6052079193
 30
0.0
 10
12.843750684
 20
8.5838274901
 30
0.0
 10
12.8392641103
 20
8.5618923872
 30
0.0
 10
12.834987846
 20
8.5394445997
 30
0.0
 10
12.8309301076
 20
8.5165270973
 30
0.0
 10
12.8270987069
 20
8.4931837639
 30
0.0
 10
12.8235009707
 20
8.4694592668
 30
0.0
 10
12.8190028396
 20
8.4372210195
 30
0.0
 10
12.8140205852
 20
8.3963062796
 30
0.0
 10
12.809099425
 20
8.3466663855
 30
0.0
 10
12.80524478
 20
8.2966252311
 30
0.0
 10
12.8024861769
 20
8.2465657984
 30
0.0
 10
12.8008446616
 20
8.1968712191
 30
0.0
 10
12.8004153931
 20
8.1558577425
 30
0.0
 10
12.8006492409
 20
8.1235216528
 30
0.0
 10
12.8011081001
 20
8.0997291548
 30
0.0
 10
12.8018503958
 20
8.076309155
 30
0.0
 10
12.8028747099
 20
8.0533064638
 30
0.0
 10
12.804179037
 20
8.0307651307
 30
0.0
 10
12.8057608473
 20
8.0087283046
 30
0.0
 10
12.807617078
 20
7.9872381696
 30
0.0
 10
12.809744138
 20
7.9663358508
 30
0.0
 10
12.8121378964
 20
7.9460613306
 30
0.0
 10
12.8147937131
 20
7.9264533742
 30
0.0
 10
12.8177064442
 20
7.9075494598
 30
0.0
 10
12.8208704568
 20
7.8893856945
 30
0.0
 10
12.8242796137
 20
7.8719967323
 30
0.0
 10
12.8279273093
 20
7.8554156961
 30
0.0
 10
12.8318064864
 20
7.8396741419
 30
0.0
 10
12.835909663
 20
7.824801885
 30
0.0
 10
12.8402289366
 20
7.8108272446
 30
0.0
 10
12.8440576486
 20
7.7997891969
 30
0.0
 10
12.8472318431
 20
7.7914365944
 30
0.0
 10
12.8496249677
 20
7.785508693
 30
0.0
 10
12.852065803
 20
7.7798242676
 30
0.0
 10
12.854553168
 20
7.7743859855
 30
0.0
 10
12.8570859402
 20
7.7691964427
 30
0.0
 10
12.8596628925
 20
7.7642580758
 30
0.0
 10
12.8622828145
 20
7.7595732073
 30
0.0
 10
12.8649445401
 20
7.7551440648
 30
0.0
 10
12.8676467801
 20
7.7509726948
 30
0.0
 10
12.8703883584
 20
7.747061079
 30
0.0
 10
12.8731680392
 20
7.7434110529
 30
0.0
 10
12.8759845586
 20
7.7400243073
 30
0.0
 10
12.8788367676
 20
7.7369025058
 30
0.0
 10
12.8817233916
 20
7.7340471091
 30
0.0
 10
12.8846432469
 20
7.7314595529
 30
0.0
 10
12.8875951555
 20
7.7291412131
 30
0.0
 10
12.8905778113
 20
7.7270933069
 30
0.0
 10
12.8935900906
 20
7.7253171145
 30
0.0
 10
12.8966303329
 20
7.7238138658
 30
0.0
 10
12.8986988465
 20
7.7229848008
 30
0.0
 10
12.8997341651
 20
7.7226187575
 30
0.0
  0
SPLINE
  5
35F
100
AcDbEntity
  8
0
100
AcDbSpline
 62
7
  6
CONTINUOUS
 70
0
 71
3
 72
18
 73
14
 74
0
 42
0.0000001
 43
0.0000001
 44
0.0000000001
 40
0.0
 40
0.0
 40
0.0
 40
0.0
 40
0.0548627134
 40
0.1099293262
 40
0.1654013673
 40
0.2214755976
 40
0.336133279
 40
0.4553633673
 40
0.5171049701
 40
0.5804366861
 40
0.7123309727
 40
0.8519568969
 40
1.0
 40
1.0
 40
1.0
 40
1.0
 10
10.6724732235
 20
10.7870707834
 30
0.0
 10
10.6724732275
 20
10.7862375307
 30
0.0
 10
10.6724203512
 20
10.7845674471
 30
0.0
 10
10.6721826009
 20
10.7820650511
 30
0.0
 10
10.6717863801
 20
10.7795640439
 30
0.0
 10
10.6710418039
 20
10.7762082576
 30
0.0
 10
10.6697004512
 20
10.7720022885
 30
0.0
 10
10.6678632891
 20
10.7678956197
 30
0.0
 10
10.6660955118
 20
10.7646319334
 30
0.0
 10
10.6640713395
 20
10.7612934497
 30
0.0
 10
10.6611321837
 20
10.7571341811
 30
0.0
 10
10.6570344662
 20
10.7522463688
 30
0.0
 10
10.6539867275
 20
10.749110062
 30
0.0
 10
10.6523695032
 20
10.7475479432
 30
0.0
  0
SPLINE
  5
360
100
AcDbEntity
  8
0
100
AcDbSpline
 62
7
  6
CONTINUOUS
 70
0
 71
3
 72
9
 73
5
 74
0
 42
0.0000001
 43
0.0000001
 44
0.0000000001
 40
0.0
 40
0.0
 40
0.0
 40
0.0
 40
0.4875721818
 40
1.0
 40
1.0
 40
1.0
 40
1.0
 10
10.4788873488
 20
10.7346915166
 30
0.0
 10
10.4781005782
 20
10.7337184031
 30
0.0
 10
10.476417465
 20
10.731778069
 30
0.0
 10
10.4746191609
 20
10.7299446578
 30
0.0
 10
10.4736732147
 20
10.7290309439
 30
0.0
  0
SPLINE
  5
361
100
AcDbEntity
  8
0
100
AcDbSpline
 62
7
  6
CONTINUOUS
 70
0
 71
3
 72
61
 73
57
 74
0
 42
0.0000001
 43
0.0000001
 44
0.0000000001
 40
0.0
 40
0.0
 40
0.0
 40
0.0
 40
0.0068770787
 40
0.0105154021
 40
0.0142938369
 40
0.0222877674
 40
0.0308895023
 40
0.0401184777
 40
0.0499864102
 40
0.060498779
 40
0.0716560194
 40
0.0834543114
 40
0.0958862306
 40
0.1089413413
 40
0.1226065413
 40
0.1368663484
 40
0.1517032443
 40
0.1670978501
 40
0.1830290544
 40
0.199474249
 40
0.2164094421
 40
0.2338093184
 40
0.2516474182
 40
0.26989623
 40
0.2885272263
 40
0.3268165971
 40
0.3662719951
 40
0.406638644
 40
0.4476538215
 40
0.489049261
 40
0.5305534554
 40
0.5718939791
 40
0.6127997867
 40
0.6530035439
 40
0.6922439498
 40
0.7302680983
 40
0.7487483972
 40
0.7668348818
 40
0.7844994375
 40
0.8017149647
 40
0.8184554393
 40
0.8346960794
 40
0.8504134392
 40
0.8655854815
 40
0.8801917839
 40
0.8942137032
 40
0.9076344976
 40
0.9204396152
 40
0.9326170032
 40
0.9441573677
 40
0.9550546628
 40
0.9653067445
 40
0.9749159046
 40
0.9838899254
 40
0.9922438877
 40
1.0
 40
1.0
 40
1.0
 40
1.0
 10
9.6851347722
 20
10.7358684062
 30
0.0
 10
9.6862723351
 20
10.7343763212
 30
0.0
 10
9.6881384316
 20
10.7321892176
 30
0.0
 10
9.6908640439
 20
10.7293992185
 30
0.0
 10
9.6939282166
 20
10.7265184331
 30
0.0
 10
9.6982035462
 20
10.7229574033
 30
0.0
 10
9.7039130588
 20
10.7188215201
 30
0.0
 10
9.7102852772
 20
10.7147520775
 30
0.0
 10
9.7173092902
 20
10.7107557397
 30
0.0
 10
9.7249733735
 20
10.7068390652
 30
0.0
 10
9.7332644957
 20
10.7030087555
 30
0.0
 10
9.7421684574
 20
10.6992714241
 30
0.0
 10
9.7516698858
 20
10.6956335667
 30
0.0
 10
9.7617523183
 20
10.6921015844
 30
0.0
 10
9.7723982146
 20
10.6886817075
 30
0.0
 10
9.7835889914
 20
10.6853799482
 30
0.0
 10
9.7953050893
 20
10.6822021533
 30
0.0
 10
9.8075260001
 20
10.6791539583
 30
0.0
 10
9.8202302964
 20
10.676240733
 30
0.0
 10
9.8333956937
 20
10.6734676371
 30
0.0
 10
9.8469990863
 20
10.6708395963
 30
0.0
 10
9.8610165807
 20
10.6683612373
 30
0.0
 10
9.8754235439
 20
10.6660369513
 30
0.0
 10
9.8901946839
 20
10.6638708404
 30
0.0
 10
9.9105254743
 20
10.6611742704
 30
0.0
 10
9.9366581953
 20
10.6582374669
 30
0.0
 10
9.968762638
 20
10.655427851
 30
0.0
 10
10.0016660705
 20
10.65332177
 30
0.0
 10
10.0351372152
 20
10.6519341929
 30
0.0
 10
10.068940976
 20
10.651275063
 30
0.0
 10
10.1028398206
 20
10.6513490766
 30
0.0
 10
10.1365955596
 20
10.6521556897
 30
0.0
 10
10.1699710013
 20
10.6536891739
 30
0.0
 10
10.2027317356
 20
10.6559385482
 30
0.0
 10
10.2346474987
 20
10.6588877874
 30
0.0
 10
10.2605938414
 20
10.6619392388
 30
0.0
 10
10.2807533054
 20
10.6647254505
 30
0.0
 10
10.2953806151
 20
10.6669558687
 30
0.0
 10
10.3096334559
 20
10.6693428216
 30
0.0
 10
10.323486807
 20
10.6718821084
 30
0.0
 10
10.336916323
 20
10.6745692493
 30
0.0
 10
10.3498984264
 20
10.6773994851
 30
0.0
 10
10.3624103382
 20
10.6803677928
 30
0.0
 10
10.3744301108
 20
10.6834689395
 30
0.0
 10
10.3859366852
 20
10.6866974383
 30
0.0
 10
10.3969099335
 20
10.6900475608
 30
0.0
 10
10.40733068
 20
10.6935134048
 30
0.0
 10
10.4171807591
 20
10.6970888643
 30
0.0
 10
10.4264430643
 20
10.7007676259
 30
0.0
 10
10.4351015625
 20
10.7045432603
 30
0.0
 10
10.4431413495
 20
10.7084092148
 30
0.0
 10
10.4505487105
 20
10.7123588414
 30
0.0
 10
10.4573110543
 20
10.7163854242
 30
0.0
 10
10.463417298
 20
10.7204825619
 30
0.0
 10
10.4688566748
 20
10.7246433576
 30
0.0
 10
10.4721512076
 20
10.7275607977
 30
0.0
 10
10.4736732147
 20
10.7290309439
 30
0.0
  0
SPLINE
  5
362
100
AcDbEntity
  8
0
100
AcDbSpline
 62
7
  6
CONTINUOUS
 70
0
 71
3
 72
18
 73
14
 74
0
 42
0.0000001
 43
0.0000001
 44
0.0000000001
 40
0.0
 40
0.0
 40
0.0
 40
0.0
 40
0.0548620254
 40
0.1099280402
 40
0.1653994792
 40
0.2214730947
 40
0.2783387289
 40
0.3361775183
 40
0.4554063603
 40
0.5804419221
 40
0.7123344607
 40
0.8519575423
 40
1.0
 40
1.0
 40
1.0
 40
1.0
 10
12.3982494957
 20
10.6824360918
 30
0.0
 10
12.3982494924
 20
10.6812963888
 30
0.0
 10
12.3981771351
 20
10.6790120908
 30
0.0
 10
12.3978518515
 20
10.6755893619
 30
0.0
 10
12.3973099206
 20
10.6721686058
 30
0.0
 10
12.3965515291
 20
10.6687510684
 30
0.0
 10
12.3955769422
 20
10.6653376196
 30
0.0
 10
12.3939739785
 20
10.6607474455
 30
0.0
 10
12.3914060755
 20
10.6550063607
 30
0.0
 10
12.3874975647
 20
10.6482261245
 30
0.0
 10
12.382737227
 20
10.6414897771
 30
0.0
 10
12.3771323005
 20
10.6348040703
 30
0.0
 10
12.3729637035
 20
10.63051438
 30
0.0
 10
12.370751685
 20
10.6283777341
 30
0.0
  0
SPLINE
  5
363
100
AcDbEntity
  8
0
100
AcDbSpline
 62
7
  6
CONTINUOUS
 70
0
 71
3
 72
15
 73
11
 74
0
 42
0.0000001
 43
0.0000001
 44
0.0000000001
 40
0.0
 40
0.0
 40
0.0
 40
0.0
 40
0.1101926757
 40
0.2234968041
 40
0.34055497
 40
0.4619432029
 40
0.5881710546
 40
0.7196838599
 40
0.8568577323
 40
1.0
 40
1.0
 40
1.0
 40
1.0
 10
12.1647655102
 20
10.6408416838
 30
0.0
 10
12.164434912
 20
10.6396530047
 30
0.0
 10
12.1636594709
 20
10.6372700948
 30
0.0
 10
12.1621865676
 20
10.6337488874
 30
0.0
 10
12.1603913302
 20
10.630239274
 30
0.0
 10
12.1582752015
 20
10.6267435103
 30
0.0
 10
12.1558396902
 20
10.6232631922
 30
0.0
 10
12.1530863225
 20
10.6198000484
 30
0.0
 10
12.1500169916
 20
10.6163559945
 30
0.0
 10
12.1478096463
 20
10.6141226194
 30
0.0
 10
12.14665688
 20
10.6130091326
 30
0.0
  0
SPLINE
  5
364
100
AcDbEntity
  8
0
100
AcDbSpline
 62
7
  6
CONTINUOUS
 70
0
 71
3
 72
80
 73
76
 74
0
 42
0.0000001
 43
0.0000001
 44
0.0000000001
 40
0.0
 40
0.0
 40
0.0
 40
0.0
 40
0.0028891417
 40
0.0058524719
 40
0.0089045904
 40
0.0120587089
 40
0.0153265901
 40
0.018718642
 40
0.0222439169
 40
0.0259102472
 40
0.0297243616
 40
0.0336919259
 40
0.0378177413
 40
0.0421057613
 40
0.04655921
 40
0.0511806998
 40
0.0559722087
 40
0.060935247
 40
0.066070842
 40
0.0713795878
 40
0.0768617513
 40
0.0825172007
 40
0.0943455638
 40
0.1068586955
 40
0.1200461809
 40
0.1338943188
 40
0.1483865321
 40
0.1635037083
 40
0.1792244924
 40
0.195525515
 40
0.2123815813
 40
0.2297658245
 40
0.2476498683
 40
0.2660039657
 40
0.2847971191
 40
0.3039971849
 40
0.3235709784
 40
0.343484388
 40
0.3637024734
 40
0.3841895574
 40
0.4258241238
 40
0.4680921902
 40
0.5106911493
 40
0.5533153149
 40
0.5956587699
 40
0.6374182025
 40
0.6579859231
 40
0.6782965366
 40
0.6983141424
 40
0.7180035476
 40
0.7373303575
 40
0.7562610707
 40
0.7747631875
 40
0.7928053226
 40
0.8103573047
 40
0.8273902925
 40
0.8438769044
 40
0.8597913783
 40
0.8751097251
 40
0.8898099036
 40
0.903872035
 40
0.9172786705
 40
0.930015122
 40
0.9420698415
 40
0.9534349103
 40
0.9588578172
 40
0.9641073841
 40
0.9691839494
 40
0.9740882636
 40
0.9788214908
 40
0.9833852693
 40
0.9877819034
 40
0.9920142491
 40
0.9960856438
 40
1.0
 40
1.0
 40
1.0
 40
1.0
 10
11.0177334619
 20
10.6408417259
 30
0.0
 10
11.0180386313
 20
10.6397444747
 30
0.0
 10
11.0187460754
 20
10.6375456956
 30
0.0
 10
11.0200717389
 20
10.6342922335
 30
0.0
 10
11.0216727446
 20
10.6310482077
 30
0.0
 10
11.0235479769
 20
10.6278154209
 30
0.0
 10
11.0256962365
 20
10.6245951696
 30
0.0
 10
11.0281163878
 20
10.6213889247
 30
0.0
 10
11.0308071005
 20
10.6181980211
 30
0.0
 10
11.0337670155
 20
10.6150238324
 30
0.0
 10
11.0369947161
 20
10.6118677859
 30
0.0
 10
11.0404885906
 20
10.6087312104
 30
0.0
 10
11.0442470186
 20
10.6056155665
 30
0.0
 10
11.048268196
 20
10.6025222431
 30
0.0
 10
11.0525502112
 20
10.5994526388
 30
0.0
 10
11.0570910692
 20
10.5964082294
 30
0.0
 10
11.061888585
 20
10.5933903729
 30
0.0
 10
11.0669405075
 20
10.5904005309
 30
0.0
 10
11.0722444334
 20
10.5874401083
 30
0.0
 10
11.0777978262
 20
10.5845104844
 30
0.0
 10
11.0835980717
 20
10.5816130815
 30
0.0
 10
11.091779915
 20
10.5777365759
 30
0.0
 10
11.1026144839
 20
10.5729922719
 30
0.0
 10
11.116366244
 20
10.567531165
 30
0.0
 10
11.1310300516
 20
10.5622306196
 30
0.0
 10
11.1465778668
 20
10.557100856
 30
0.0
 10
11.1629801305
 20
10.5521517699
 30
0.0
 10
11.1802054939
 20
10.5473929229
 30
0.0
 10
11.1982210031
 20
10.5428335235
 30
0.0
 10
11.2169921463
 20
10.5384824001
 30
0.0
 10
11.236482929
 20
10.5343479845
 30
0.0
 10
11.2566559404
 20
10.5304382752
 30
0.0
 10
11.2774724378
 20
10.5267608378
 30
0.0
 10
11.2988924306
 20
10.52332279
 30
0.0
 10
11.3208747586
 20
10.5201307896
 30
0.0
 10
11.3433771654
 20
10.5171910153
 30
0.0
 10
11.3663563855
 20
10.5145091444
 30
0.0
 10
11.3897682191
 20
10.5120903706
 30
0.0
 10
11.41356768
 20
10.509939341
 30
0.0
 10
11.4459287724
 20
10.5074205495
 30
0.0
 10
11.4870108976
 20
10.5049784737
 30
0.0
 10
11.5368496882
 20
10.5031824131
 30
0.0
 10
11.5871066183
 20
10.5025196168
 30
0.0
 10
11.6373953801
 20
10.5029951543
 30
0.0
 10
11.687329422
 20
10.5046054144
 30
0.0
 10
11.7285312629
 20
10.5068935909
 30
0.0
 10
11.7610194035
 20
10.5092905283
 30
0.0
 10
11.7849364825
 20
10.51135247
 30
0.0
 10
11.8084809242
 20
10.5136835851
 30
0.0
 10
11.8316074866
 20
10.5162793935
 30
0.0
 10
11.8542716859
 20
10.5191348677
 30
0.0
 10
11.876429943
 20
10.5222444919
 30
0.0
 10
11.8980396584
 20
10.5256022523
 30
0.0
 10
11.919059303
 20
10.5292016453
 30
0.0
 10
11.9394484928
 20
10.5330357038
 30
0.0
 10
11.9591680654
 20
10.537097007
 30
0.0
 10
11.9781801619
 20
10.5413776998
 30
0.0
 10
11.9964483129
 20
10.5458694898
 30
0.0
 10
12.0139375124
 20
10.5505636765
 30
0.0
 10
12.0306142815
 20
10.5554511743
 30
0.0
 10
12.0464467501
 20
10.560522535
 30
0.0
 10
12.0614047049
 20
10.5657679693
 30
0.0
 10
12.0754597891
 20
10.5711773707
 30
0.0
 10
12.0885851651
 20
10.5767403393
 30
0.0
 10
12.0988829315
 20
10.5815678407
 30
0.0
 10
12.1066260471
 20
10.5855076597
 30
0.0
 10
12.1120945325
 20
10.5884479654
 30
0.0
 10
12.1173126512
 20
10.5914186099
 30
0.0
 10
12.1222779306
 20
10.5944181864
 30
0.0
 10
12.1269880155
 20
10.5974452392
 30
0.0
 10
12.1314406659
 20
10.6004984178
 30
0.0
 10
12.1356338417
 20
10.6035762815
 30
0.0
 10
12.1395655545
 20
10.6066774946
 30
0.0
 10
12.1432337502
 20
10.6098004209
 30
0.0
 10
12.1455470436
 20
10.6119371129
 30
0.0
 10
12.14665688
 20
10.6130091326
 30
0.0
  0
SPLINE
  5
365
100
AcDbEntity
  8
0
100
AcDbSpline
 62
7
  6
CONTINUOUS
 70
0
 71
3
 72
11
 73
7
 74
0
 42
0.0000001
 43
0.0000001
 44
0.0000000001
 40
0.0
 40
0.0
 40
0.0
 40
0.0
 40
0.2679182142
 40
0.5243261771
 40
0.7685550744
 40
1.0
 40
1.0
 40
1.0
 40
1.0
 10
10.1395581663
 20
8.0556551538
 30
0.0
 10
10.1386999661
 20
8.0627377107
 30
0.0
 10
10.1368728845
 20
8.0765812623
 30
0.0
 10
10.1337169626
 20
8.0968042971
 30
0.0
 10
10.1302137352
 20
8.115983738
 30
0.0
 10
10.1275815727
 20
8.1283762778
 30
0.0
 10
10.1262018572
 20
8.134382976
 30
0.0
  0
SPLINE
  5
366
100
AcDbEntity
  8
0
100
AcDbSpline
 62
7
  6
CONTINUOUS
 70
0
 71
3
 72
92
 73
88
 74
0
 42
0.0000001
 43
0.0000001
 44
0.0000000001
 40
0.0
 40
0.0
 40
0.0
 40
0.0
 40
0.0027164136
 40
0.0054531999
 40
0.0082302488
 40
0.0110665156
 40
0.0139797
 40
0.0169859759
 40
0.0200999097
 40
0.0233343921
 40
0.0267007085
 40
0.030208627
 40
0.0338664962
 40
0.0376814269
 40
0.0416593531
 40
0.0458052407
 40
0.0501231229
 40
0.0546162682
 40
0.0592872359
 40
0.0641379574
 40
0.0691698402
 40
0.0743837612
 40
0.0797802065
 40
0.0853592201
 40
0.0911205286
 40
0.0970635116
 40
0.1031872593
 40
0.1094906055
 40
0.1226297411
 40
0.1364672907
 40
0.1509859854
 40
0.1661657644
 40
0.1819840906
 40
0.1984162077
 40
0.2154353587
 40
0.2330129748
 40
0.2511188396
 40
0.2697212359
 40
0.2887870798
 40
0.3082820459
 40
0.3281706839
 40
0.3484165301
 40
0.3689822167
 40
0.3898295783
 40
0.4109197545
 40
0.4322132911
 40
0.4536702402
 40
0.4752502592
 40
0.4969127091
 40
0.5186167533
 40
0.5403214559
 40
0.56198588
 40
0.5835691848
 40
0.6050307242
 40
0.626330144
 40
0.6474274812
 40
0.6682832628
 40
0.6888586082
 40
0.7091153287
 40
0.729016031
 40
0.7485242218
 40
0.7676044158
 40
0.7862222477
 40
0.8043445896
 40
0.8219396778
 40
0.8389772466
 40
0.8554286739
 40
0.871267144
 40
0.8864678337
 40
0.9010081287
 40
0.9148678812
 40
0.9215371855
 40
0.928030107
 40
0.9343449535
 40
0.9404803007
 40
0.946434946
 40
0.9522079623
 40
0.9577987256
 40
0.9632069066
 40
0.9684325773
 40
0.9734761504
 40
0.9783385002
 40
0.9830209469
 40
0.987525443
 40
0.9918546017
 40
0.9960115601
 40
1.0
 40
1.0
 40
1.0
 40
1.0
 10
12.9244197687
 20
7.4869684695
 30
0.0
 10
12.9229136018
 20
7.4870729161
 30
0.0
 10
12.9198976833
 20
7.4874189028
 30
0.0
 10
12.9154121917
 20
7.488344768
 30
0.0
 10
12.9109606184
 20
7.4896774376
 30
0.0
 10
12.906546086
 20
7.4914154929
 30
0.0
 10
12.9021709444
 20
7.4935575414
 30
0.0
 10
12.8978373611
 20
7.4961017617
 30
0.0
 10
12.8935473992
 20
7.4990464541
 30
0.0
 10
12.8893029224
 20
7.5023896845
 30
0.0
 10
12.8851057754
 20
7.5061295224
 30
0.0
 10
12.8809577925
 20
7.5102639412
 30
0.0
 10
12.8768607279
 20
7.5147907399
 30
0.0
 10
12.8728164795
 20
7.5197076819
 30
0.0
 10
12.868826789
 20
7.5250122549
 30
0.0
 10
12.8648935837
 20
7.5307018913
 30
0.0
 10
12.8610186438
 20
7.53677375
 30
0.0
 10
12.8572038544
 20
7.5432248647
 30
0.0
 10
12.8534510506
 20
7.5500520521
 30
0.0
 10
12.8497620327
 20
7.5572519337
 30
0.0
 10
12.8461386671
 20
7.5648209659
 30
0.0
 10
12.8425826713
 20
7.5727553739
 30
0.0
 10
12.8390958881
 20
7.5810512385
 30
0.0
 10
12.8356799858
 20
7.5897044119
 30
0.0
 10
12.8323367206
 20
7.5987105942
 30
0.0
 10
12.8290677497
 20
7.6080652799
 30
0.0
 10
12.8258746806
 20
7.6177638087
 30
0.0
 10
12.8216623403
 20
7.6313354282
 30
0.0
 10
12.8166130877
 20
7.6491333292
 30
0.0
 10
12.8109621012
 20
7.671496322
 30
0.0
 10
12.8056499199
 20
7.6951059726
 30
0.0
 10
12.8006873228
 20
7.7199149526
 30
0.0
 10
12.7960844102
 20
7.7458737168
 30
0.0
 10
12.7918505481
 20
7.7729302616
 30
0.0
 10
12.7879943529
 20
7.8010303471
 30
0.0
 10
12.7845236738
 20
7.8301175901
 30
0.0
 10
12.7814455753
 20
7.8601335952
 30
0.0
 10
12.778766324
 20
7.891018076
 30
0.0
 10
12.7764913757
 20
7.9227089813
 30
0.0
 10
12.7746253658
 20
7.9551426236
 30
0.0
 10
12.7731721002
 20
7.9882538087
 30
0.0
 10
12.7721345455
 20
8.021975969
 30
0.0
 10
12.7715148258
 20
8.0562412999
 30
0.0
 10
12.7713142195
 20
8.0909808988
 30
0.0
 10
12.7715331573
 20
8.1261249053
 30
0.0
 10
12.7721712215
 20
8.1616026422
 30
0.0
 10
12.7732271473
 20
8.1973427581
 30
0.0
 10
12.7746988256
 20
8.2332733714
 30
0.0
 10
12.7765833073
 20
8.2693222154
 30
0.0
 10
12.7788768066
 20
8.3054167843
 30
0.0
 10
12.7815747115
 20
8.3414844805
 30
0.0
 10
12.7846715932
 20
8.3774527613
 30
0.0
 10
12.7881612175
 20
8.4132492848
 30
0.0
 10
12.7920365566
 20
8.4488020556
 30
0.0
 10
12.7962898035
 20
8.4840395703
 30
0.0
 10
12.8009123876
 20
8.5188909615
 30
0.0
 10
12.8058949912
 20
8.5532861421
 30
0.0
 10
12.8112275656
 20
8.5871559482
 30
0.0
 10
12.8168993549
 20
8.6204322785
 30
0.0
 10
12.8228989163
 20
8.6530482322
 30
0.0
 10
12.829214143
 20
8.6849382445
 30
0.0
 10
12.8358322882
 20
8.7160382203
 30
0.0
 10
12.8427399903
 20
8.7462856647
 30
0.0
 10
12.8499233003
 20
8.7756198129
 30
0.0
 10
12.8573677075
 20
8.8039817584
 30
0.0
 10
12.8650581691
 20
8.8313145745
 30
0.0
 10
12.8729791431
 20
8.8575634411
 30
0.0
 10
12.8811146211
 20
8.8826757373
 30
0.0
 10
12.8894481629
 20
8.9066012434
 30
0.0
 10
12.8979629353
 20
8.9292919543
 30
0.0
 10
12.905286004
 20
8.9473585081
 30
0.0
 10
12.9112319262
 20
8.9611507455
 30
0.0
 10
12.9156687491
 20
8.971025613
 30
0.0
 10
12.9201379691
 20
8.9805591008
 30
0.0
 10
12.9246373285
 20
8.9897464564
 30
0.0
 10
12.9291645826
 20
8.9985830774
 30
0.0
 10
12.9337174686
 20
9.0070645451
 30
0.0
 10
12.9382936738
 20
9.0151866382
 30
0.0
 10
12.9428909681
 20
9.0229452889
 30
0.0
 10
12.9475069973
 20
9.0303366672
 30
0.0
 10
12.9521395414
 20
9.037357063
 30
0.0
 10
12.9567862259
 20
9.0440030116
 30
0.0
 10
12.9614448055
 20
9.0502712127
 30
0.0
 10
12.9661130277
 20
9.0561586071
 30
0.0
 10
12.9707886999
 20
9.061662349
 30
0.0
 10
12.9754693624
 20
9.0667794527
 30
0.0
 10
12.9786564556
 20
9.0699969376
 30
0.0
 10
12.9802508825
 20
9.0715370358
 30
0.0
  0
SPLINE
  5
367
100
AcDbEntity
  8
0
100
AcDbSpline
 62
7
  6
CONTINUOUS
 70
0
 71
3
 72
42
 73
38
 74
0
 42
0.0000001
 43
0.0000001
 44
0.0000000001
 40
0.0
 40
0.0
 40
0.0
 40
0.0
 40
0.0299419634
 40
0.0449235299
 40
0.0599142017
 40
0.0899287029
 40
0.1200139772
 40
0.1350926626
 40
0.1501967046
 40
0.1804840506
 40
0.2108978877
 40
0.2414513551
 40
0.2721543675
 40
0.3030134354
 40
0.3340315696
 40
0.3652082675
 40
0.3965395775
 40
0.4280182343
 40
0.4596338596
 40
0.4913732188
 40
0.5232205284
 40
0.5551578047
 40
0.5871652463
 40
0.6192216448
 40
0.6513048151
 40
0.6833920402
 40
0.7154605222
 40
0.747487836
 40
0.7794523759
 40
0.8113337934
 40
0.8431134117
 40
0.8747746318
 40
0.9063032512
 40
0.9376879208
 40
0.9533258
 40
0.9689252634
 40
1.0
 40
1.0
 40
1.0
 40
1.0
 10
12.0845956929
 20
10.0181333607
 30
0.0
 10
12.0879633972
 20
10.0213862934
 30
0.0
 10
12.0932134662
 20
10.0260685794
 30
0.0
 10
12.1005660694
 20
10.0318782766
 30
0.0
 10
12.1081528162
 20
10.0373988744
 30
0.0
 10
12.1180522732
 20
10.0437383092
 30
0.0
 10
12.1284330478
 20
10.0492834799
 30
0.0
 10
12.1369944966
 20
10.0532283199
 30
0.0
 10
12.1457327998
 20
10.0568475073
 30
0.0
 10
12.1569436465
 20
10.0607391566
 30
0.0
 10
12.1707593158
 20
10.0643660761
 30
0.0
 10
12.1848764452
 20
10.0669354694
 30
0.0
 10
12.1992167995
 20
10.0684331614
 30
0.0
 10
12.2137016042
 20
10.0688511595
 30
0.0
 10
12.2282511597
 20
10.0681873362
 30
0.0
 10
12.2427854983
 20
10.0664455263
 30
0.0
 10
12.2572247604
 20
10.0636354713
 30
0.0
 10
12.2714896438
 20
10.0597727668
 30
0.0
 10
12.2855018291
 20
10.0548787693
 30
0.0
 10
12.2991844052
 20
10.0489804766
 30
0.0
 10
12.3124622848
 20
10.0421103765
 30
0.0
 10
12.3252626107
 20
10.0343062687
 30
0.0
 10
12.3375151508
 20
10.0256110568
 30
0.0
 10
12.3491526779
 20
10.0160725139
 30
0.0
 10
12.3601113345
 20
10.0057430229
 30
0.0
 10
12.3703309792
 20
9.9946792902
 30
0.0
 10
12.3797555136
 20
9.9829420389
 30
0.0
 10
12.3883331865
 20
9.9705956767
 30
0.0
 10
12.3960168763
 20
9.9577079516
 30
0.0
 10
12.4027643473
 20
9.9443495681
 30
0.0
 10
12.4085384787
 20
9.9305938606
 30
0.0
 10
12.4133074799
 20
9.9165161912
 30
0.0
 10
12.4170450056
 20
9.9021942971
 30
0.0
 10
12.4192857352
 20
9.8901050657
 30
0.0
 10
12.4205427181
 20
9.8803915148
 30
0.0
 10
12.4214397959
 20
9.870687259
 30
0.0
 10
12.4217114224
 20
9.8633848719
 30
0.0
 10
12.4217114224
 20
9.8585255328
 30
0.0
  0
SPLINE
  5
368
100
AcDbEntity
  8
0
100
AcDbSpline
 62
7
  6
CONTINUOUS
 70
0
 71
3
 72
25
 73
21
 74
0
 42
0.0000001
 43
0.0000001
 44
0.0000000001
 40
0.0
 40
0.0
 40
0.0
 40
0.0
 40
0.0631424364
 40
0.0947239959
 40
0.1263071873
 40
0.1894627637
 40
0.2526156886
 40
0.2841961177
 40
0.3157731938
 40
0.3788944007
 40
0.4419712158
 40
0.5049698455
 40
0.5678448545
 40
0.6305417206
 40
0.6930010432
 40
0.755164592
 40
0.8169807788
 40
0.878408473
 40
0.9394197108
 40
1.0
 40
1.0
 40
1.0
 40
1.0
 10
9.9772785942
 20
8.1458876999
 30
0.0
 10
9.9804281084
 20
8.1412151421
 30
0.0
 10
9.985414674
 20
8.1343764199
 30
0.0
 10
9.9925635439
 20
8.1256590355
 30
0.0
 10
10.0000430986
 20
8.11722142
 30
0.0
 10
10.0100013213
 20
8.1072308503
 30
0.0
 10
10.0207315302
 20
8.0980727211
 30
0.0
 10
10.029746724
 20
8.0913012246
 30
0.0
 10
10.0390368687
 20
8.084917339
 30
0.0
 10
10.0511452823
 20
8.0776942107
 30
0.0
 10
10.0663683508
 20
8.070341054
 30
0.0
 10
10.0821694933
 20
8.0643881775
 30
0.0
 10
10.0984130598
 20
8.0599024067
 30
0.0
 10
10.1149502168
 20
8.0569231595
 30
0.0
 10
10.1316253283
 20
8.0554589186
 30
0.0
 10
10.1482849727
 20
8.0554859968
 30
0.0
 10
10.1647861846
 20
8.0569515221
 30
0.0
 10
10.1810034831
 20
8.0597792129
 30
0.0
 10
10.1968309931
 20
8.0638758575
 30
0.0
 10
10.2071069055
 20
8.0673985389
 30
0.0
 10
10.2121532142
 20
8.0693382421
 30
0.0
  0
SPLINE
  5
369
100
AcDbEntity
  8
0
100
AcDbSpline
 62
7
  6
CONTINUOUS
 70
0
 71
3
 72
42
 73
38
 74
0
 42
0.0000001
 43
0.0000001
 44
0.0000000001
 40
0.0
 40
0.0
 40
0.0
 40
0.0
 40
0.0299419634
 40
0.0449235299
 40
0.0599142017
 40
0.0899287029
 40
0.1200139772
 40
0.1350926626
 40
0.1501967046
 40
0.1804840506
 40
0.2108978877
 40
0.2414513551
 40
0.2721543675
 40
0.3030134354
 40
0.3340315696
 40
0.3652082675
 40
0.3965395775
 40
0.4280182343
 40
0.4596338596
 40
0.4913732188
 40
0.5232205284
 40
0.5551578047
 40
0.5871652463
 40
0.6192216448
 40
0.6513048151
 40
0.6833920402
 40
0.7154605222
 40
0.747487836
 40
0.7794523759
 40
0.8113337934
 40
0.8431134117
 40
0.8747746318
 40
0.9063032512
 40
0.9376879208
 40
0.9533258
 40
0.9689252634
 40
1.0
 40
1.0
 40
1.0
 40
1.0
 10
9.0670431916
 20
6.7268861246
 30
0.0
 10
9.0704108959
 20
6.7301390574
 30
0.0
 10
9.0756609648
 20
6.7348213433
 30
0.0
 10
9.0830135681
 20
6.7406310405
 30
0.0
 10
9.0906003149
 20
6.7461516383
 30
0.0
 10
9.1004997719
 20
6.7524910731
 30
0.0
 10
9.1108805465
 20
6.7580362439
 30
0.0
 10
9.1194419953
 20
6.7619810838
 30
0.0
 10
9.1281802984
 20
6.7656002712
 30
0.0
 10
9.1393911452
 20
6.7694919205
 30
0.0
 10
9.1532068145
 20
6.77311884
 30
0.0
 10
9.1673239438
 20
6.7756882333
 30
0.0
 10
9.1816642982
 20
6.7771859254
 30
0.0
 10
9.1961491028
 20
6.7776039234
 30
0.0
 10
9.2106986583
 20
6.7769401001
 30
0.0
 10
9.225232997
 20
6.7751982902
 30
0.0
 10
9.2396722591
 20
6.7723882352
 30
0.0
 10
9.2539371424
 20
6.7685255307
 30
0.0
 10
9.2679493277
 20
6.7636315333
 30
0.0
 10
9.2816319039
 20
6.7577332405
 30
0.0
 10
9.2949097834
 20
6.7508631404
 30
0.0
 10
9.3077101094
 20
6.7430590326
 30
0.0
 10
9.3199626495
 20
6.7343638207
 30
0.0
 10
9.3316001765
 20
6.7248252779
 30
0.0
 10
9.3425588331
 20
6.7144957868
 30
0.0
 10
9.3527784779
 20
6.7034320542
 30
0.0
 10
9.3622030122
 20
6.6916948028
 30
0.0
 10
9.3707806852
 20
6.6793484407
 30
0.0
 10
9.378464375
 20
6.6664607155
 30
0.0
 10
9.3852118459
 20
6.653102332
 30
0.0
 10
9.3909859773
 20
6.6393466245
 30
0.0
 10
9.3957549786
 20
6.6252689552
 30
0.0
 10
9.3994925042
 20
6.610947061
 30
0.0
 10
9.4017332339
 20
6.5988578296
 30
0.0
 10
9.4029902167
 20
6.5891442787
 30
0.0
 10
9.4038872946
 20
6.579440023
 30
0.0
 10
9.4041589211
 20
6.5721376359
 30
0.0
 10
9.4041589211
 20
6.5672782967
 30
0.0
  0
SPLINE
  5
36A
100
AcDbEntity
  8
0
100
AcDbSpline
 62
7
  6
CONTINUOUS
 70
0
 71
3
 72
42
 73
38
 74
0
 42
0.0000001
 43
0.0000001
 44
0.0000000001
 40
0.0
 40
0.0
 40
0.0
 40
0.0
 40
0.0299419634
 40
0.0449235299
 40
0.0599142017
 40
0.0899287029
 40
0.1200139772
 40
0.1350926626
 40
0.1501967046
 40
0.1804840506
 40
0.2108978877
 40
0.2414513551
 40
0.2721543675
 40
0.3030134354
 40
0.3340315696
 40
0.3652082675
 40
0.3965395775
 40
0.4280182343
 40
0.4596338596
 40
0.4913732188
 40
0.5232205284
 40
0.5551578047
 40
0.5871652463
 40
0.6192216448
 40
0.6513048151
 40
0.6833920402
 40
0.7154605222
 40
0.747487836
 40
0.7794523759
 40
0.8113337934
 40
0.8431134117
 40
0.8747746318
 40
0.9063032512
 40
0.9376879208
 40
0.9533258
 40
0.9689252634
 40
1.0
 40
1.0
 40
1.0
 40
1.0
 10
12.0845956929
 20
6.5176181478
 30
0.0
 10
12.0879633972
 20
6.5208710806
 30
0.0
 10
12.0932134662
 20
6.5255533666
 30
0.0
 10
12.1005660694
 20
6.5313630638
 30
0.0
 10
12.1081528162
 20
6.5368836616
 30
0.0
 10
12.1180522732
 20
6.5432230963
 30
0.0
 10
12.1284330478
 20
6.5487682671
 30
0.0
 10
12.1369944966
 20
6.5527131071
 30
0.0
 10
12.1457327998
 20
6.5563322945
 30
0.0
 10
12.1569436465
 20
6.5602239438
 30
0.0
 10
12.1707593158
 20
6.5638508633
 30
0.0
 10
12.1848764452
 20
6.5664202566
 30
0.0
 10
12.1992167995
 20
6.5679179486
 30
0.0
 10
12.2137016042
 20
6.5683359467
 30
0.0
 10
12.2282511597
 20
6.5676721234
 30
0.0
 10
12.2427854983
 20
6.5659303134
 30
0.0
 10
12.2572247604
 20
6.5631202585
 30
0.0
 10
12.2714896438
 20
6.559257554
 30
0.0
 10
12.2855018291
 20
6.5543635565
 30
0.0
 10
12.2991844052
 20
6.5484652637
 30
0.0
 10
12.3124622848
 20
6.5415951637
 30
0.0
 10
12.3252626107
 20
6.5337910559
 30
0.0
 10
12.3375151508
 20
6.5250958439
 30
0.0
 10
12.3491526779
 20
6.5155573011
 30
0.0
 10
12.3601113345
 20
6.50522781
 30
0.0
 10
12.3703309792
 20
6.4941640774
 30
0.0
 10
12.3797555136
 20
6.4824268261
 30
0.0
 10
12.3883331865
 20
6.4700804639
 30
0.0
 10
12.3960168763
 20
6.4571927387
 30
0.0
 10
12.4027643473
 20
6.4438343553
 30
0.0
 10
12.4085384787
 20
6.4300786478
 30
0.0
 10
12.4133074799
 20
6.4160009784
 30
0.0
 10
12.4170450056
 20
6.4016790842
 30
0.0
 10
12.4192857352
 20
6.3895898529
 30
0.0
 10
12.4205427181
 20
6.379876302
 30
0.0
 10
12.4214397959
 20
6.3701720462
 30
0.0
 10
12.4217114224
 20
6.3628696591
 30
0.0
 10
12.4217114224
 20
6.3580103199
 30
0.0
  0
SPLINE
  5
36B
100
AcDbEntity
  8
0
100
AcDbSpline
 62
7
  6
CONTINUOUS
 70
0
 71
3
 72
41
 73
37
 74
0
 42
0.0000001
 43
0.0000001
 44
0.0000000001
 40
0.0
 40
0.0
 40
0.0
 40
0.0
 40
0.0309323932
 40
0.0620487892
 40
0.0933463765
 40
0.124817253
 40
0.156448984
 40
0.1723232917
 40
0.1882313865
 40
0.2201325964
 40
0.2521366294
 40
0.2681726203
 40
0.2842251352
 40
0.3163612407
 40
0.348524467
 40
0.380688342
 40
0.4128266137
 40
0.4449137073
 40
0.4769251717
 40
0.5088381217
 40
0.5406316854
 40
0.5722874603
 40
0.603789978
 40
0.6351271724
 40
0.6662908499
 40
0.6972771341
 40
0.7280868585
 40
0.7587258704
 40
0.7892051978
 40
0.8195410558
 40
0.8497546425
 40
0.8798716787
 40
0.909921678
 40
0.9399370715
 40
0.9699514677
 40
1.0
 40
1.0
 40
1.0
 40
1.0
 10
10.5294498184
 20
8.5446465915
 30
0.0
 10
10.5354067642
 20
8.5450823757
 30
0.0
 10
10.5474007067
 20
8.5454323243
 30
0.0
 10
10.5654169546
 20
8.5444111539
 30
0.0
 10
10.5833876306
 20
8.5418663302
 30
0.0
 10
10.6011833445
 20
8.5378294323
 30
0.0
 10
10.6157514356
 20
8.5332607947
 30
0.0
 10
10.6271994203
 20
8.5289079681
 30
0.0
 10
10.6385153699
 20
8.524087928
 30
0.0
 10
10.652330943
 20
8.5172212709
 30
0.0
 10
10.6655988387
 20
8.5093010575
 30
0.0
 10
10.6758494762
 20
8.5023619622
 30
0.0
 10
10.6858512884
 20
8.4950256522
 30
0.0
 10
10.6978369862
 20
8.4851482376
 30
0.0
 10
10.7113000576
 20
8.4722518209
 30
0.0
 10
10.7237692904
 20
8.4583910383
 30
0.0
 10
10.7351677686
 20
8.4436559062
 30
0.0
 10
10.7454249372
 20
8.4281398403
 30
0.0
 10
10.7544757221
 20
8.4119401472
 30
0.0
 10
10.7622608462
 20
8.3951577916
 30
0.0
 10
10.7687269398
 20
8.3778974062
 30
0.0
 10
10.7738268322
 20
8.3602672525
 30
0.0
 10
10.77751994
 20
8.3423791745
 30
0.0
 10
10.7797727869
 20
8.3243484928
 30
0.0
 10
10.7805596002
 20
8.3062938008
 30
0.0
 10
10.7798630204
 20
8.2883366426
 30
0.0
 10
10.7776748854
 20
8.2706010327
 30
0.0
 10
10.7739970476
 20
8.2532127932
 30
0.0
 10
10.7688422436
 20
8.2362986685
 30
0.0
 10
10.762234848
 20
8.2199852096
 30
0.0
 10
10.7542115179
 20
8.2043974563
 30
0.0
 10
10.7448215962
 20
8.1896573769
 30
0.0
 10
10.7341275205
 20
8.1758822768
 30
0.0
 10
10.7222040347
 20
8.1631826085
 30
0.0
 10
10.7091403311
 20
8.151661675
 30
0.0
 10
10.6997415427
 20
8.1448321127
 30
0.0
 10
10.6948927256
 20
8.1416455074
 30
0.0
  0
SPLINE
  5
36C
100
AcDbEntity
  8
0
100
AcDbSpline
 62
7
  6
CONTINUOUS
 70
0
 71
3
 72
40
 73
36
 74
0
 42
0.0000001
 43
0.0000001
 44
0.0000000001
 40
0.0
 40
0.0
 40
0.0
 40
0.0
 40
0.0306632393
 40
0.0614924036
 40
0.0924896311
 40
0.1236529051
 40
0.1549763608
 40
0.1864506499
 40
0.2180633378
 40
0.2339195224
 40
0.249804432
 40
0.281646317
 40
0.3135748595
 40
0.3455693205
 40
0.3776078428
 40
0.4096678103
 40
0.4417262006
 40
0.4737599393
 40
0.5057462604
 40
0.5376630817
 40
0.5694893992
 40
0.6012057033
 40
0.6327944186
 40
0.6642403636
 40
0.6955312215
 40
0.7266580062
 40
0.757615503
 40
0.7884026552
 40
0.8190228657
 40
0.8494841748
 40
0.8797992861
 40
0.9099853737
 40
0.9400638884
 40
0.9700592989
 40
1.0
 40
1.0
 40
1.0
 40
1.0
 10
11.2965734465
 20
8.4866537914
 30
0.0
 10
11.3020869314
 20
8.4874968834
 30
0.0
 10
11.3132180799
 20
8.4887352142
 30
0.0
 10
11.330050635
 20
8.4892503118
 30
0.0
 10
11.3469630598
 20
8.4884367877
 30
0.0
 10
11.3638507182
 20
8.4863103193
 30
0.0
 10
11.3806136224
 20
8.482894038
 30
0.0
 10
11.3971536255
 20
8.478217841
 30
0.0
 10
11.410661231
 20
8.4733048788
 30
0.0
 10
11.4212638969
 20
8.4687846051
 30
0.0
 10
11.4317352465
 20
8.4638689394
 30
0.0
 10
11.4445141187
 20
8.457011843
 30
0.0
 10
11.459255249
 20
8.4477046276
 30
0.0
 10
11.4733370844
 20
8.4373660858
 30
0.0
 10
11.4866820752
 20
8.4260557702
 30
0.0
 10
11.4992168
 20
8.4138369419
 30
0.0
 10
11.5108711777
 20
8.4007768852
 30
0.0
 10
11.5215787669
 20
8.3869467761
 30
0.0
 10
11.5312768424
 20
8.3724217192
 30
0.0
 10
11.5399066156
 20
8.3572807678
 30
0.0
 10
11.5474135111
 20
8.341606954
 30
0.0
 10
11.5537475335
 20
8.3254872968
 30
0.0
 10
11.5588637187
 20
8.3090127706
 30
0.0
 10
11.5627226637
 20
8.2922782047
 30
0.0
 10
11.5652911338
 20
8.2753820967
 30
0.0
 10
11.5665427307
 20
8.2584263132
 30
0.0
 10
11.566458602
 20
8.2415156574
 30
0.0
 10
11.5650281636
 20
8.2247572865
 30
0.0
 10
11.5622497973
 20
8.2082599643
 30
0.0
 10
11.5581315047
 20
8.1921331598
 30
0.0
 10
11.5526914128
 20
8.1764859418
 30
0.0
 10
11.5459582895
 20
8.1614258788
 30
0.0
 10
11.5379711832
 20
8.14705732
 30
0.0
 10
11.5287812773
 20
8.1334817574
 30
0.0
 10
11.5218861186
 20
8.1250151511
 30
0.0
 10
11.518263228
 20
8.1209488065
 30
0.0
  0
SPLINE
  5
36D
100
AcDbEntity
  8
0
100
AcDbSpline
 62
7
  6
CONTINUOUS
 70
0
 71
3
 72
15
 73
11
 74
0
 42
0.0000001
 43
0.0000001
 44
0.0000000001
 40
0.0
 40
0.0
 40
0.0
 40
0.0
 40
0.1233171261
 40
0.2468171865
 40
0.3706749939
 40
0.4950495802
 40
0.6200773232
 40
0.7458671315
 40
0.872492731
 40
1.0
 40
1.0
 40
1.0
 40
1.0
 10
9.8604436058
 20
9.2737233851
 30
0.0
 10
9.8629681394
 20
9.2761618762
 30
0.0
 10
9.8682881101
 20
9.280774302
 30
0.0
 10
9.8769708264
 20
9.2868014922
 30
0.0
 10
9.8862746513
 20
9.2918823334
 30
0.0
 10
9.8961043519
 20
9.2959646039
 30
0.0
 10
9.9063607737
 20
9.2990077745
 30
0.0
 10
9.916940598
 20
9.3009814175
 30
0.0
 10
9.9277358289
 20
9.3018663367
 30
0.0
 10
9.9349821111
 20
9.3017249952
 30
0.0
 10
9.9386025931
 20
9.3014739139
 30
0.0
  0
SPLINE
  5
36E
100
AcDbEntity
  8
0
100
AcDbSpline
 62
7
  6
CONTINUOUS
 70
0
 71
3
 72
15
 73
11
 74
0
 42
0.0000001
 43
0.0000001
 44
0.0000000001
 40
0.0
 40
0.0
 40
0.0
 40
0.0
 40
0.1233171261
 40
0.2468171865
 40
0.3706749939
 40
0.4950495802
 40
0.6200773232
 40
0.7458671315
 40
0.872492731
 40
1.0
 40
1.0
 40
1.0
 40
1.0
 10
11.9120702524
 20
9.1314425939
 30
0.0
 10
11.914594786
 20
9.133881085
 30
0.0
 10
11.9199147567
 20
9.1384935108
 30
0.0
 10
11.928597473
 20
9.144520701
 30
0.0
 10
11.9379012979
 20
9.1496015422
 30
0.0
 10
11.9477309985
 20
9.1536838128
 30
0.0
 10
11.9579874203
 20
9.1567269833
 30
0.0
 10
11.9685672446
 20
9.1587006263
 30
0.0
 10
11.9793624755
 20
9.1595855455
 30
0.0
 10
11.9866087577
 20
9.159444204
 30
0.0
 10
11.9902292397
 20
9.1591931227
 30
0.0
  0
SPLINE
  5
36F
100
AcDbEntity
  8
0
100
AcDbSpline
 62
7
  6
CONTINUOUS
 70
0
 71
3
 72
39
 73
35
 74
0
 42
0.0000001
 43
0.0000001
 44
0.0000000001
 40
0.0
 40
0.0
 40
0.0
 40
0.0
 40
0.029961613
 40
0.0599660482
 40
0.0900256666
 40
0.1201520738
 40
0.1503559892
 40
0.1806471263
 40
0.211034084
 40
0.2415242574
 40
0.2721237606
 40
0.3028373622
 40
0.3336684311
 40
0.3646188936
 40
0.3956892204
 40
0.4268784211
 40
0.4581840496
 40
0.4896022208
 40
0.5211276385
 40
0.5527536592
 40
0.5844723611
 40
0.616274625
 40
0.6481502287
 40
0.6800879521
 40
0.712075712
 40
0.7441007112
 40
0.7761495879
 40
0.8082085867
 40
0.8402637264
 40
0.8723009442
 40
0.9043065464
 40
0.9362664263
 40
0.9681690303
 40
1.0
 40
1.0
 40
1.0
 40
1.0
 10
10.823625844
 20
9.0470671996
 30
0.0
 10
10.8267761779
 20
9.0493991795
 30
0.0
 10
10.8332217341
 20
9.0538801433
 30
0.0
 10
10.8432779457
 20
9.0600221495
 30
0.0
 10
10.853697845
 20
9.0655714571
 30
0.0
 10
10.8644487404
 20
9.0705111187
 30
0.0
 10
10.8754976508
 20
9.0748262811
 30
0.0
 10
10.8868106514
 20
9.0785036883
 30
0.0
 10
10.8983531143
 20
9.0815318738
 30
0.0
 10
10.9100897287
 20
9.0839011117
 30
0.0
 10
10.9219845687
 20
9.0856034583
 30
0.0
 10
10.9340011467
 20
9.0866327787
 30
0.0
 10
10.9461024722
 20
9.0869847883
 30
0.0
 10
10.9582511171
 20
9.0866571214
 30
0.0
 10
10.9704092903
 20
9.0856493343
 30
0.0
 10
10.9825389142
 20
9.0839629511
 30
0.0
 10
10.9946017068
 20
9.0816015047
 30
0.0
 10
11.0065592705
 20
9.0785705801
 30
0.0
 10
11.0183732037
 20
9.0748778862
 30
0.0
 10
11.0300052068
 20
9.0705332581
 30
0.0
 10
11.0414172037
 20
9.0655486875
 30
0.0
 10
11.0525714721
 20
9.0599383463
 30
0.0
 10
11.0634307789
 20
9.0537185962
 30
0.0
 10
11.0739585421
 20
9.0469080154
 30
0.0
 10
11.0841189871
 20
9.0395273771
 30
0.0
 10
11.0938773017
 20
9.0315996097
 30
0.0
 10
11.1031998065
 20
9.0231497593
 30
0.0
 10
11.1120541228
 20
9.0142049293
 30
0.0
 10
11.1204093306
 20
9.0047942095
 30
0.0
 10
11.128236207
 20
8.994948581
 30
0.0
 10
11.1355072071
 20
8.9847008588
 30
0.0
 10
11.1421970565
 20
8.9740852738
 30
0.0
 10
11.1482819174
 20
8.9631382406
 30
0.0
 10
11.1519261791
 20
8.955633713
 30
0.0
 10
11.1536403342
 20
8.9518388185
 30
0.0
  0
SPLINE
  5
370
100
AcDbEntity
  8
0
100
AcDbSpline
 62
7
  6
CONTINUOUS
 70
0
 71
3
 72
15
 73
11
 74
0
 42
0.0000001
 43
0.0000001
 44
0.0000000001
 40
0.0
 40
0.0
 40
0.0
 40
0.0
 40
0.1233171261
 40
0.2468171865
 40
0.3706749939
 40
0.4950495802
 40
0.6200773232
 40
0.7458671315
 40
0.872492731
 40
1.0
 40
1.0
 40
1.0
 40
1.0
 10
11.9120702524
 20
7.3802190021
 30
0.0
 10
11.914594786
 20
7.3826574932
 30
0.0
 10
11.9199147567
 20
7.387269919
 30
0.0
 10
11.928597473
 20
7.3932971092
 30
0.0
 10
11.9379012979
 20
7.3983779504
 30
0.0
 10
11.9477309985
 20
7.4024602209
 30
0.0
 10
11.9579874203
 20
7.4055033914
 30
0.0
 10
11.9685672446
 20
7.4074770345
 30
0.0
 10
11.9793624755
 20
7.4083619537
 30
0.0
 10
11.9866087577
 20
7.4082206121
 30
0.0
 10
11.9902292397
 20
7.4079695309
 30
0.0
  0
SPLINE
  5
371
100
AcDbEntity
  8
0
100
AcDbSpline
 62
7
  6
CONTINUOUS
 70
0
 71
3
 72
15
 73
11
 74
0
 42
0.0000001
 43
0.0000001
 44
0.0000000001
 40
0.0
 40
0.0
 40
0.0
 40
0.0
 40
0.1233171261
 40
0.2468171865
 40
0.3706749939
 40
0.4950495802
 40
0.6200773232
 40
0.7458671315
 40
0.872492731
 40
1.0
 40
1.0
 40
1.0
 40
1.0
 10
9.8604436058
 20
7.5224997933
 30
0.0
 10
9.8629681394
 20
7.5249382844
 30
0.0
 10
9.8682881101
 20
7.5295507102
 30
0.0
 10
9.8769708264
 20
7.5355779004
 30
0.0
 10
9.8862746513
 20
7.5406587416
 30
0.0
 10
9.8961043519
 20
7.5447410121
 30
0.0
 10
9.9063607737
 20
7.5477841826
 30
0.0
 10
9.916940598
 20
7.5497578257
 30
0.0
 10
9.9277358289
 20
7.5506427449
 30
0.0
 10
9.9349821111
 20
7.5505014033
 30
0.0
 10
9.9386025931
 20
7.5502503221
 30
0.0
  0
SPLINE
  5
372
100
AcDbEntity
  8
0
100
AcDbSpline
 62
7
  6
CONTINUOUS
 70
0
 71
3
 72
23
 73
19
 74
0
 42
0.0000001
 43
0.0000001
 44
0.0000000001
 40
0.0
 40
0.0
 40
0.0
 40
0.0
 40
0.0436660341
 40
0.0896989531
 40
0.1381714501
 40
0.189142346
 40
0.2426547454
 40
0.2987360865
 40
0.3574020911
 40
0.4186582096
 40
0.482500658
 40
0.5489176345
 40
0.6178899417
 40
0.6893923176
 40
0.7633932785
 40
0.8398565703
 40
0.9187406284
 40
1.0
 40
1.0
 40
1.0
 40
1.0
 10
9.5125769606
 20
10.8265928245
 30
0.0
 10
9.514122989
 20
10.8280861733
 30
0.0
 10
9.5173923128
 20
10.8310581239
 30
0.0
 10
9.5226626155
 20
10.8353617861
 30
0.0
 10
9.5284213545
 20
10.8396226639
 30
0.0
 10
9.5346632384
 20
10.8438370863
 30
0.0
 10
9.5413831122
 20
10.8480016603
 30
0.0
 10
9.5485752424
 20
10.8521129119
 30
0.0
 10
9.5562334821
 20
10.8561673071
 30
0.0
 10
9.5643512456
 20
10.8601613805
 30
0.0
 10
9.5729215446
 20
10.864091699
 30
0.0
 10
9.5819369852
 20
10.8679548252
 30
0.0
 10
9.5913897523
 20
10.8717474367
 30
0.0
 10
9.6012716582
 20
10.8754661736
 30
0.0
 10
9.6115741057
 20
10.8791078452
 30
0.0
 10
9.6222881536
 20
10.882669202
 30
0.0
 10
9.6334044279
 20
10.8861471821
 30
0.0
 10
9.6409664809
 20
10.8883756093
 30
0.0
 10
9.6448120328
 20
10.8894765474
 30
0.0
  0
SPLINE
  5
373
100
AcDbEntity
  8
0
100
AcDbSpline
 62
7
  6
CONTINUOUS
 70
0
 71
3
 72
35
 73
31
 74
0
 42
0.0000001
 43
0.0000001
 44
0.0000000001
 40
0.0
 40
0.0
 40
0.0
 40
0.0
 40
0.0956765929
 40
0.1869275096
 40
0.2736322438
 40
0.3556918624
 40
0.3949572834
 40
0.4330360744
 40
0.4699234886
 40
0.5056172849
 40
0.5401172505
 40
0.5734261466
 40
0.6055494984
 40
0.6364961149
 40
0.6662786696
 40
0.6949136571
 40
0.722422595
 40
0.7488319532
 40
0.774174306
 40
0.7984889037
 40
0.8218223333
 40
0.8442297822
 40
0.8657753252
 40
0.8865332019
 40
0.9065880127
 40
0.9260351109
 40
0.9449804482
 40
0.9635395383
 40
0.9818361753
 40
1.0
 40
1.0
 40
1.0
 40
1.0
 10
10.5200283866
 20
10.889506903
 30
0.0
 10
10.5259569425
 20
10.8878105438
 30
0.0
 10
10.5375009739
 20
10.8843581279
 30
0.0
 10
10.5542588372
 20
10.8788554461
 30
0.0
 10
10.5700224674
 20
10.873160261
 30
0.0
 10
10.582479659
 20
10.8681936406
 30
0.0
 10
10.5919134582
 20
10.8641236178
 30
0.0
 10
10.5986157402
 20
10.8610754355
 30
0.0
 10
10.6050457385
 20
10.8579882399
 30
0.0
 10
10.6112001175
 20
10.8548636825
 30
0.0
 10
10.6170756374
 20
10.8517033436
 30
0.0
 10
10.6226692488
 20
10.848508912
 30
0.0
 10
10.627978035
 20
10.845282033
 30
0.0
 10
10.6329992236
 20
10.84202435
 30
0.0
 10
10.6377302366
 20
10.8387375857
 30
0.0
 10
10.6421685817
 20
10.8354233399
 30
0.0
 10
10.6463120003
 20
10.8320833496
 30
0.0
 10
10.6501583121
 20
10.8287192252
 30
0.0
 10
10.6537055178
 20
10.8253326302
 30
0.0
 10
10.6569517704
 20
10.8219252198
 30
0.0
 10
10.6598952718
 20
10.818498558
 30
0.0
 10
10.6625344639
 20
10.8150543212
 30
0.0
 10
10.6648677349
 20
10.8115940456
 30
0.0
 10
10.6668936889
 20
10.8081193999
 30
0.0
 10
10.6686109301
 20
10.8046320356
 30
0.0
 10
10.6700181201
 20
10.8011336868
 30
0.0
 10
10.6711141429
 20
10.7976262936
 30
0.0
 10
10.6718978271
 20
10.7941117614
 30
0.0
 10
10.6723684558
 20
10.7905927058
 30
0.0
 10
10.6724732178
 20
10.7882414643
 30
0.0
 10
10.6724732235
 20
10.7870707834
 30
0.0
  0
SPLINE
  5
374
100
AcDbEntity
  8
0
100
AcDbSpline
 62
7
  6
CONTINUOUS
 70
0
 71
3
 72
11
 73
7
 74
0
 42
0.0000001
 43
0.0000001
 44
0.0000000001
 40
0.0
 40
0.0
 40
0.0
 40
0.0
 40
0.2761818873
 40
0.5334151922
 40
0.7737846084
 40
1.0
 40
1.0
 40
1.0
 40
1.0
 10
9.5125769606
 20
10.7956831955
 30
0.0
 10
9.5106181312
 20
10.7937911113
 30
0.0
 10
9.5069723013
 20
10.789989442
 30
0.0
 10
9.5022100727
 20
10.7840121452
 30
0.0
 10
9.4983680018
 20
10.7779800847
 30
0.0
 10
9.4963748726
 20
10.7738166047
 30
0.0
 10
9.4955529676
 20
10.7717428425
 30
0.0
  0
SPLINE
  5
375
100
AcDbEntity
  8
0
100
AcDbSpline
 62
7
  6
CONTINUOUS
 70
0
 71
3
 72
23
 73
19
 74
0
 42
0.0000001
 43
0.0000001
 44
0.0000000001
 40
0.0
 40
0.0
 40
0.0
 40
0.0
 40
0.0436664858
 40
0.0896999477
 40
0.1381729288
 40
0.1891441025
 40
0.2426567319
 40
0.2987382224
 40
0.3574043443
 40
0.4186604317
 40
0.4825028441
 40
0.5489196487
 40
0.6178917886
 40
0.689393866
 40
0.7633945345
 40
0.839857433
 40
0.9187410851
 40
1.0
 40
1.0
 40
1.0
 40
1.0
 10
9.5125769606
 20
10.7956831955
 30
0.0
 10
9.5141229169
 20
10.7971764746
 30
0.0
 10
9.5173920883
 20
10.8001482911
 30
0.0
 10
9.5226621299
 20
10.8044517749
 30
0.0
 10
9.5284205719
 20
10.8087124755
 30
0.0
 10
9.534662112
 20
10.8129267274
 30
0.0
 10
9.5413816038
 20
10.8170911239
 30
0.0
 10
9.5485733078
 20
10.8212022189
 30
0.0
 10
9.5562310896
 20
10.8252564485
 30
0.0
 10
9.564348352
 20
10.8292503783
 30
0.0
 10
9.5729181181
 20
10.8331805417
 30
0.0
 10
9.5819329856
 20
10.8370435393
 30
0.0
 10
9.5913851497
 20
10.8408360109
 30
0.0
 10
9.601266416
 20
10.8445546332
 30
0.0
 10
9.6115681947
 20
10.8481961833
 30
0.0
 10
9.6222815414
 20
10.8517574396
 30
0.0
 10
9.633397087
 20
10.8552353191
 30
0.0
 10
9.6409586431
 20
10.8574636929
 30
0.0
 10
9.644803943
 20
10.8585646017
 30
0.0
  0
SPLINE
  5
376
100
AcDbEntity
  8
0
100
AcDbSpline
 62
7
  6
CONTINUOUS
 70
0
 71
3
 72
24
 73
20
 74
0
 42
0.0000001
 43
0.0000001
 44
0.0000000001
 40
0.0
 40
0.0
 40
0.0
 40
0.0
 40
0.0901957294
 40
0.1768134812
 40
0.25976607
 40
0.3389787773
 40
0.4143909507
 40
0.4859583425
 40
0.553655436
 40
0.6174784713
 40
0.6774497895
 40
0.7336232208
 40
0.7860905844
 40
0.8349904411
 40
0.8805191976
 40
0.9229436675
 40
0.962614923
 40
0.9815632139
 40
1.0
 40
1.0
 40
1.0
 40
1.0
 10
10.5200948403
 20
10.8585782538
 30
0.0
 10
10.5252289745
 20
10.8571087024
 30
0.0
 10
10.5352642339
 20
10.8541238502
 30
0.0
 10
10.5499038615
 20
10.8494041588
 30
0.0
 10
10.5638086975
 20
10.8445383936
 30
0.0
 10
10.5769569832
 20
10.8395342408
 30
0.0
 10
10.5893282974
 20
10.8343995361
 30
0.0
 10
10.6009034945
 20
10.8291423203
 30
0.0
 10
10.6116647682
 20
10.8237707613
 30
0.0
 10
10.6215956583
 20
10.8182930802
 30
0.0
 10
10.6306811093
 20
10.8127175115
 30
0.0
 10
10.6389074975
 20
10.8070522446
 30
0.0
 10
10.646262582
 20
10.8013052005
 30
0.0
 10
10.6527353312
 20
10.7954840117
 30
0.0
 10
10.6583159616
 20
10.789595484
 30
0.0
 10
10.6629947695
 20
10.7836470013
 30
0.0
 10
10.666182674
 20
10.7785674526
 30
0.0
 10
10.6682444053
 20
10.7744947477
 30
0.0
 10
10.6691166734
 20
10.7724582553
 30
0.0
 10
10.6695120378
 20
10.7714407634
 30
0.0
  0
SPLINE
  5
377
100
AcDbEntity
  8
0
100
AcDbSpline
 62
7
  6
CONTINUOUS
 70
0
 71
3
 72
39
 73
35
 74
0
 42
0.0000001
 43
0.0000001
 44
0.0000000001
 40
0.0
 40
0.0
 40
0.0
 40
0.0
 40
0.0314026134
 40
0.06300949
 40
0.0948071102
 40
0.1267734453
 40
0.1588809722
 40
0.1910970226
 40
0.2233851132
 40
0.2557062446
 40
0.2880202663
 40
0.3202872751
 40
0.3524690067
 40
0.384530184
 40
0.4164397927
 40
0.448172249
 40
0.4797084083
 40
0.5110363809
 40
0.5421521201
 40
0.5730597413
 40
0.6037715194
 40
0.6343075569
 40
0.6646951118
 40
0.6949675896
 40
0.7251632184
 40
0.755323478
 40
0.7854913548
 40
0.8157095105
 40
0.8460184691
 40
0.8764549222
 40
0.9070502335
 40
0.9378293335
 40
0.9688091139
 40
1.0
 40
1.0
 40
1.0
 40
1.0
 10
11.9841469972
 20
7.1620619533
 30
0.0
 10
11.9798352615
 20
7.1623609732
 30
0.0
 10
11.9712074861
 20
7.1633858707
 30
0.0
 10
11.958439695
 20
7.1661694917
 30
0.0
 10
11.9459193851
 20
7.170177575
 30
0.0
 10
11.9337683483
 20
7.1753712785
 30
0.0
 10
11.9221028021
 20
7.181700431
 30
0.0
 10
11.9110347617
 20
7.1891040306
 30
0.0
 10
11.9006703626
 20
7.1975108507
 30
0.0
 10
11.8911090556
 20
7.206840123
 30
0.0
 10
11.8824426259
 20
7.2170022948
 30
0.0
 10
11.8747542836
 20
7.2278998259
 30
0.0
 10
11.8681179261
 20
7.2394281624
 30
0.0
 10
11.8625974442
 20
7.2514767129
 30
0.0
 10
11.8582461177
 20
7.263929879
 30
0.0
 10
11.8551060296
 20
7.276668115
 30
0.0
 10
11.853207723
 20
7.2895690806
 30
0.0
 10
11.8525698946
 20
7.3025087787
 30
0.0
 10
11.8531991904
 20
7.3153627125
 30
0.0
 10
11.8550900262
 20
7.3280070672
 30
0.0
 10
11.8582246744
 20
7.3403198978
 30
0.0
 10
11.862573385
 20
7.3521822965
 30
0.0
 10
11.8680946192
 20
7.3634795511
 30
0.0
 10
11.874735335
 20
7.3741023273
 30
0.0
 10
11.882431548
 20
7.3839477518
 30
0.0
 10
11.8911089392
 20
7.3929204568
 30
0.0
 10
11.9006835815
 20
7.4009335547
 30
0.0
 10
11.9110627427
 20
7.4079095906
 30
0.0
 10
11.9221458843
 20
7.4137812668
 30
0.0
 10
11.9338257341
 20
7.4184920855
 30
0.0
 10
11.9459892025
 20
7.4219969093
 30
0.0
 10
11.9585191065
 20
7.4242623049
 30
0.0
 10
11.9712929984
 20
7.4252671511
 30
0.0
 10
11.9798643327
 20
7.4250907974
 30
0.0
 10
11.9841469972
 20
7.4247937936
 30
0.0
  0
SPLINE
  5
378
100
AcDbEntity
  8
0
100
AcDbSpline
 62
7
  6
CONTINUOUS
 70
0
 71
3
 72
39
 73
35
 74
0
 42
0.0000001
 43
0.0000001
 44
0.0000000001
 40
0.0
 40
0.0
 40
0.0
 40
0.0
 40
0.0314026134
 40
0.06300949
 40
0.0948071102
 40
0.1267734453
 40
0.1588809722
 40
0.1910970226
 40
0.2233851132
 40
0.2557062446
 40
0.2880202663
 40
0.3202872751
 40
0.3524690067
 40
0.384530184
 40
0.4164397927
 40
0.448172249
 40
0.4797084083
 40
0.5110363809
 40
0.5421521201
 40
0.5730597413
 40
0.6037715194
 40
0.6343075569
 40
0.6646951118
 40
0.6949675896
 40
0.7251632184
 40
0.755323478
 40
0.7854913548
 40
0.8157095105
 40
0.8460184691
 40
0.8764549222
 40
0.9070502335
 40
0.9378293335
 40
0.9688091139
 40
1.0
 40
1.0
 40
1.0
 40
1.0
 10
9.9325203506
 20
7.5670745848
 30
0.0
 10
9.9368320863
 20
7.5667755649
 30
0.0
 10
9.9454598617
 20
7.5657506674
 30
0.0
 10
9.9582276528
 20
7.5629670465
 30
0.0
 10
9.9707479628
 20
7.5589589631
 30
0.0
 10
9.9828989995
 20
7.5537652597
 30
0.0
 10
9.9945645457
 20
7.5474361072
 30
0.0
 10
10.0056325861
 20
7.5400325075
 30
0.0
 10
10.0159969852
 20
7.5316256874
 30
0.0
 10
10.0255582922
 20
7.5222964151
 30
0.0
 10
10.0342247219
 20
7.5121342433
 30
0.0
 10
10.0419130642
 20
7.5012367122
 30
0.0
 10
10.0485494217
 20
7.4897083758
 30
0.0
 10
10.0540699036
 20
7.4776598253
 30
0.0
 10
10.0584212301
 20
7.4652066591
 30
0.0
 10
10.0615613182
 20
7.4524684231
 30
0.0
 10
10.0634596248
 20
7.4395674576
 30
0.0
 10
10.0640974532
 20
7.4266277594
 30
0.0
 10
10.0634681574
 20
7.4137738257
 30
0.0
 10
10.0615773216
 20
7.401129471
 30
0.0
 10
10.0584426734
 20
7.3888166404
 30
0.0
 10
10.0540939628
 20
7.3769542416
 30
0.0
 10
10.0485727286
 20
7.365656987
 30
0.0
 10
10.0419320128
 20
7.3550342108
 30
0.0
 10
10.0342357998
 20
7.3451887864
 30
0.0
 10
10.0255584086
 20
7.3362160814
 30
0.0
 10
10.0159837663
 20
7.3282029835
 30
0.0
 10
10.0056046051
 20
7.3212269476
 30
0.0
 10
9.9945214635
 20
7.3153552714
 30
0.0
 10
9.9828416137
 20
7.3106444526
 30
0.0
 10
9.9706781453
 20
7.3071396288
 30
0.0
 10
9.9581482413
 20
7.3048742332
 30
0.0
 10
9.9453743494
 20
7.3038693871
 30
0.0
 10
9.9368030151
 20
7.3040457407
 30
0.0
 10
9.9325203506
 20
7.3043427445
 30
0.0
  0
SPLINE
  5
379
100
AcDbEntity
  8
0
100
AcDbSpline
 62
7
  6
CONTINUOUS
 70
0
 71
3
 72
39
 73
35
 74
0
 42
0.0000001
 43
0.0000001
 44
0.0000000001
 40
0.0
 40
0.0
 40
0.0
 40
0.0
 40
0.0314026134
 40
0.06300949
 40
0.0948071102
 40
0.1267734453
 40
0.1588809722
 40
0.1910970226
 40
0.2233851132
 40
0.2557062446
 40
0.2880202663
 40
0.3202872751
 40
0.3524690067
 40
0.384530184
 40
0.4164397927
 40
0.448172249
 40
0.4797084083
 40
0.5110363809
 40
0.5421521201
 40
0.5730597413
 40
0.6037715194
 40
0.6343075569
 40
0.6646951118
 40
0.6949675896
 40
0.7251632184
 40
0.755323478
 40
0.7854913548
 40
0.8157095105
 40
0.8460184691
 40
0.8764549222
 40
0.9070502335
 40
0.9378293335
 40
0.9688091139
 40
1.0
 40
1.0
 40
1.0
 40
1.0
 10
9.9325203506
 20
7.3043427445
 30
0.0
 10
9.9282086149
 20
7.3046417644
 30
0.0
 10
9.9195808395
 20
7.3056666619
 30
0.0
 10
9.9068130484
 20
7.3084502829
 30
0.0
 10
9.8942927384
 20
7.3124583662
 30
0.0
 10
9.8821417017
 20
7.3176520697
 30
0.0
 10
9.8704761555
 20
7.3239812221
 30
0.0
 10
9.8594081151
 20
7.3313848218
 30
0.0
 10
9.849043716
 20
7.3397916419
 30
0.0
 10
9.839482409
 20
7.3491209142
 30
0.0
 10
9.8308159793
 20
7.359283086
 30
0.0
 10
9.823127637
 20
7.3701806171
 30
0.0
 10
9.8164912795
 20
7.3817089536
 30
0.0
 10
9.8109707976
 20
7.3937575041
 30
0.0
 10
9.8066194711
 20
7.4062106702
 30
0.0
 10
9.803479383
 20
7.4189489062
 30
0.0
 10
9.8015810764
 20
7.4318498718
 30
0.0
 10
9.800943248
 20
7.4447895699
 30
0.0
 10
9.8015725438
 20
7.4576435037
 30
0.0
 10
9.8034633796
 20
7.4702878584
 30
0.0
 10
9.8065980278
 20
7.482600689
 30
0.0
 10
9.8109467384
 20
7.4944630877
 30
0.0
 10
9.8164679726
 20
7.5057603423
 30
0.0
 10
9.8231086884
 20
7.5163831185
 30
0.0
 10
9.8308049014
 20
7.526228543
 30
0.0
 10
9.8394822926
 20
7.535201248
 30
0.0
 10
9.8490569349
 20
7.5432143459
 30
0.0
 10
9.8594360961
 20
7.5501903818
 30
0.0
 10
9.8705192377
 20
7.556062058
 30
0.0
 10
9.8821990875
 20
7.5607728767
 30
0.0
 10
9.8943625559
 20
7.5642777005
 30
0.0
 10
9.9068924599
 20
7.5665430961
 30
0.0
 10
9.9196663518
 20
7.5675479423
 30
0.0
 10
9.9282376861
 20
7.5673715886
 30
0.0
 10
9.9325203506
 20
7.5670745848
 30
0.0
  0
SPLINE
  5
37A
100
AcDbEntity
  8
0
100
AcDbSpline
 62
7
  6
CONTINUOUS
 70
0
 71
3
 72
25
 73
21
 74
0
 42
0.0000001
 43
0.0000001
 44
0.0000000001
 40
0.0
 40
0.0
 40
0.0
 40
0.0
 40
0.0647706693
 40
0.0970576979
 40
0.1292685982
 40
0.1934337036
 40
0.2572525368
 40
0.2890336701
 40
0.3207231171
 40
0.3838120579
 40
0.4465380854
 40
0.5089164197
 40
0.5709720882
 40
0.6327390959
 40
0.6942593313
 40
0.7555812643
 40
0.8167584581
 40
0.8778479799
 40
0.9389087676
 40
1.0
 40
1.0
 40
1.0
 40
1.0
 10
10.7630270016
 20
8.796781986
 30
0.0
 10
10.7605510619
 20
8.8022633628
 30
0.0
 10
10.7571688289
 20
8.8106314296
 30
0.0
 10
10.7533555345
 20
8.8220160806
 30
0.0
 10
10.7500242105
 20
8.8334930874
 30
0.0
 10
10.746755847
 20
8.8480234624
 30
0.0
 10
10.7447015112
 20
8.8627346665
 30
0.0
 10
10.7438006758
 20
8.8745234751
 30
0.0
 10
10.7433950546
 20
8.8862717625
 30
0.0
 10
10.7438097651
 20
8.9009105939
 30
0.0
 10
10.7457809464
 20
8.9182954374
 30
0.0
 10
10.7492053942
 20
8.9353562039
 30
0.0
 10
10.7540534257
 20
8.951975514
 30
0.0
 10
10.7602856246
 20
8.9680415358
 30
0.0
 10
10.7678535453
 20
8.9834474431
 30
0.0
 10
10.7767004016
 20
8.9980923369
 30
0.0
 10
10.786761633
 20
9.0118814794
 30
0.0
 10
10.7979661613
 20
9.0247270749
 30
0.0
 10
10.8102348957
 20
9.0365469374
 30
0.0
 10
10.8190661917
 20
9.0436919964
 30
0.0
 10
10.823625844
 20
9.0470671996
 30
0.0
  0
SPLINE
  5
37B
100
AcDbEntity
  8
0
100
AcDbSpline
 62
7
  6
CONTINUOUS
 70
0
 71
3
 72
18
 73
14
 74
0
 42
0.0000001
 43
0.0000001
 44
0.0000000001
 40
0.0
 40
0.0
 40
0.0
 40
0.0
 40
0.0548627134
 40
0.1099293262
 40
0.1654013673
 40
0.2214755976
 40
0.336133279
 40
0.4553633673
 40
0.5171049701
 40
0.5804366861
 40
0.7123309727
 40
0.8519568969
 40
1.0
 40
1.0
 40
1.0
 40
1.0
 10
9.4924732404
 20
10.7870699843
 30
0.0
 10
9.4924732363
 20
10.787903237
 30
0.0
 10
9.4925261126
 20
10.7895733205
 30
0.0
 10
9.4927638629
 20
10.7920757166
 30
0.0
 10
9.4931600837
 20
10.7945767237
 30
0.0
 10
9.4939046599
 20
10.79793251
 30
0.0
 10
9.4952460127
 20
10.8021384792
 30
0.0
 10
9.4970831748
 20
10.8062451479
 30
0.0
 10
9.4988509521
 20
10.8095088342
 30
0.0
 10
9.5008751244
 20
10.8128473179
 30
0.0
 10
9.5038142802
 20
10.8170065865
 30
0.0
 10
9.5079119977
 20
10.8218943988
 30
0.0
 10
9.5109597363
 20
10.8250307056
 30
0.0
 10
9.5125769606
 20
10.8265928245
 30
0.0
  0
SPLINE
  5
37C
100
AcDbEntity
  8
0
100
AcDbSpline
 62
7
  6
CONTINUOUS
 70
0
 71
3
 72
39
 73
35
 74
0
 42
0.0000001
 43
0.0000001
 44
0.0000000001
 40
0.0
 40
0.0
 40
0.0
 40
0.0
 40
0.0314026134
 40
0.06300949
 40
0.0948071102
 40
0.1267734453
 40
0.1588809722
 40
0.1910970226
 40
0.2233851132
 40
0.2557062446
 40
0.2880202663
 40
0.3202872751
 40
0.3524690067
 40
0.384530184
 40
0.4164397927
 40
0.448172249
 40
0.4797084083
 40
0.5110363809
 40
0.5421521201
 40
0.5730597413
 40
0.6037715194
 40
0.6343075569
 40
0.6646951118
 40
0.6949675896
 40
0.7251632184
 40
0.755323478
 40
0.7854913548
 40
0.8157095105
 40
0.8460184691
 40
0.8764549222
 40
0.9070502335
 40
0.9378293335
 40
0.9688091139
 40
1.0
 40
1.0
 40
1.0
 40
1.0
 10
11.9841469972
 20
9.1760173855
 30
0.0
 10
11.9884587329
 20
9.1757183656
 30
0.0
 10
11.9970865083
 20
9.174693468
 30
0.0
 10
12.0098542994
 20
9.1719098471
 30
0.0
 10
12.0223746094
 20
9.1679017637
 30
0.0
 10
12.0345256461
 20
9.1627080603
 30
0.0
 10
12.0461911923
 20
9.1563789078
 30
0.0
 10
12.0572592327
 20
9.1489753082
 30
0.0
 10
12.0676236318
 20
9.1405684881
 30
0.0
 10
12.0771849388
 20
9.1312392158
 30
0.0
 10
12.0858513685
 20
9.1210770439
 30
0.0
 10
12.0935397108
 20
9.1101795129
 30
0.0
 10
12.1001760683
 20
9.0986511764
 30
0.0
 10
12.1056965502
 20
9.0866026259
 30
0.0
 10
12.1100478767
 20
9.0741494597
 30
0.0
 10
12.1131879648
 20
9.0614112237
 30
0.0
 10
12.1150862715
 20
9.0485102582
 30
0.0
 10
12.1157240999
 20
9.03557056
 30
0.0
 10
12.1150948041
 20
9.0227166263
 30
0.0
 10
12.1132039683
 20
9.0100722716
 30
0.0
 10
12.11006932
 20
8.997759441
 30
0.0
 10
12.1057206094
 20
8.9858970422
 30
0.0
 10
12.1001993752
 20
8.9745997876
 30
0.0
 10
12.0935586594
 20
8.9639770114
 30
0.0
 10
12.0858624464
 20
8.954131587
 30
0.0
 10
12.0771850552
 20
8.945158882
 30
0.0
 10
12.0676104129
 20
8.9371457841
 30
0.0
 10
12.0572312517
 20
8.9301697482
 30
0.0
 10
12.0461481101
 20
8.924298072
 30
0.0
 10
12.0344682603
 20
8.9195872532
 30
0.0
 10
12.0223047919
 20
8.9160824295
 30
0.0
 10
12.0097748879
 20
8.9138170339
 30
0.0
 10
11.997000996
 20
8.9128121877
 30
0.0
 10
11.9884296617
 20
8.9129885413
 30
0.0
 10
11.9841469972
 20
8.9132855451
 30
0.0
  0
SPLINE
  5
37D
100
AcDbEntity
  8
0
100
AcDbSpline
 62
7
  6
CONTINUOUS
 70
0
 71
3
 72
18
 73
14
 74
0
 42
0.0000001
 43
0.0000001
 44
0.0000000001
 40
0.0
 40
0.0
 40
0.0
 40
0.0
 40
0.0548620254
 40
0.1099280402
 40
0.1653994792
 40
0.2214730947
 40
0.2783387289
 40
0.3361775183
 40
0.4554063603
 40
0.5804419221
 40
0.7123344607
 40
0.8519575423
 40
1.0
 40
1.0
 40
1.0
 40
1.0
 10
10.7842494983
 20
10.6824366971
 30
0.0
 10
10.7842495016
 20
10.6835764001
 30
0.0
 10
10.7843218589
 20
10.6858606981
 30
0.0
 10
10.7846471424
 20
10.689283427
 30
0.0
 10
10.7851890733
 20
10.6927041831
 30
0.0
 10
10.7859474649
 20
10.6961217205
 30
0.0
 10
10.7869220518
 20
10.6995351693
 30
0.0
 10
10.7885250155
 20
10.7041253434
 30
0.0
 10
10.7910929184
 20
10.7098664282
 30
0.0
 10
10.7950014292
 20
10.7166466644
 30
0.0
 10
10.7997617669
 20
10.7233830118
 30
0.0
 10
10.8053666935
 20
10.7300687186
 30
0.0
 10
10.8095352905
 20
10.7343584089
 30
0.0
 10
10.811747309
 20
10.7364950548
 30
0.0
  0
SPLINE
  5
37E
100
AcDbEntity
  8
0
100
AcDbSpline
 62
7
  6
CONTINUOUS
 70
0
 71
3
 72
18
 73
14
 74
0
 42
0.0000001
 43
0.0000001
 44
0.0000000001
 40
0.0
 40
0.0
 40
0.0
 40
0.0
 40
0.150467608
 40
0.291710008
 40
0.4244359371
 40
0.549562455
 40
0.6682139939
 40
0.7255497488
 40
0.7817912909
 40
0.8371402503
 40
0.8918093826
 40
0.9460201179
 40
1.0
 40
1.0
 40
1.0
 40
1.0
 10
12.9802508825
 20
7.5125326598
 30
0.0
 10
12.9779694204
 20
7.5103289365
 30
0.0
 10
12.9734097355
 20
7.5061941844
 30
0.0
 10
12.9663491004
 20
7.5006839212
 30
0.0
 10
12.9592967583
 20
7.496075415
 30
0.0
 10
12.952260011
 20
7.4923762301
 30
0.0
 10
12.9463457023
 20
7.4900305292
 30
0.0
 10
12.9416500024
 20
7.4886368542
 30
0.0
 10
12.9381782457
 20
7.4878335597
 30
0.0
 10
12.9347180068
 20
7.4872610311
 30
0.0
 10
12.9312702553
 20
7.486919471
 30
0.0
 10
12.9278363625
 20
7.4868090572
 30
0.0
 10
12.9255549829
 20
7.4868897471
 30
0.0
 10
12.9244197687
 20
7.4869684695
 30
0.0
  0
SPLINE
  5
37F
100
AcDbEntity
  8
0
100
AcDbSpline
 62
7
  6
CONTINUOUS
 70
0
 71
3
 72
15
 73
11
 74
0
 42
0.0000001
 43
0.0000001
 44
0.0000000001
 40
0.0
 40
0.0
 40
0.0
 40
0.0
 40
0.1241308013
 40
0.2482795855
 40
0.372574414
 40
0.497133052
 40
0.6220659436
 40
0.7474699961
 40
0.8734266609
 40
1.0
 40
1.0
 40
1.0
 40
1.0
 10
11.1827357156
 20
8.4257586745
 30
0.0
 10
11.1863603512
 20
8.4298269776
 30
0.0
 10
11.1939756375
 20
8.4376468558
 30
0.0
 10
11.2063951118
 20
8.4483186538
 30
0.0
 10
11.2197249472
 20
8.4578631864
 30
0.0
 10
11.2338702129
 20
8.4662180138
 30
0.0
 10
11.2487316836
 20
8.4733326254
 30
0.0
 10
11.2642063194
 20
8.479166654
 30
0.0
 10
11.2801866398
 20
8.4836900471
 30
0.0
 10
11.2910813023
 20
8.4858139628
 30
0.0
 10
11.2965734465
 20
8.4866537914
 30
0.0
  0
SPLINE
  5
380
100
AcDbEntity
  8
0
100
AcDbSpline
 62
7
  6
CONTINUOUS
 70
0
 71
3
 72
21
 73
17
 74
0
 42
0.0000001
 43
0.0000001
 44
0.0000000001
 40
0.0
 40
0.0
 40
0.0
 40
0.0
 40
0.1273176984
 40
0.2537999461
 40
0.3167619614
 40
0.3795355204
 40
0.4421314992
 40
0.5045621453
 40
0.5668413456
 40
0.6289845231
 40
0.6910084433
 40
0.7529310869
 40
0.8147714401
 40
0.8765493236
 40
0.9382852134
 40
1.0
 40
1.0
 40
1.0
 40
1.0
 10
12.0295455137
 20
9.8857223309
 30
0.0
 10
12.0295455137
 20
9.8919743676
 30
0.0
 10
12.0301423124
 20
9.9044454635
 30
0.0
 10
12.0323962532
 20
9.9198624302
 30
0.0
 10
12.0350901902
 20
9.9319556905
 30
0.0
 10
12.0375469203
 20
9.9408756852
 30
0.0
 10
12.0404371163
 20
9.9496371761
 30
0.0
 10
12.0437541147
 20
9.9582202149
 30
0.0
 10
12.0474902682
 20
9.9666049505
 30
0.0
 10
12.0516370372
 20
9.9747720313
 30
0.0
 10
12.0561848286
 20
9.9827026309
 30
0.0
 10
12.0611231546
 20
9.9903784724
 30
0.0
 10
12.0664406742
 20
9.9977817939
 30
0.0
 10
12.0721251574
 20
10.0048955929
 30
0.0
 10
12.0781632426
 20
10.0117032658
 30
0.0
 10
12.0824159469
 20
10.0160279005
 30
0.0
 10
12.0845956929
 20
10.0181333607
 30
0.0
  0
SPLINE
  5
381
100
AcDbEntity
  8
0
100
AcDbSpline
 62
7
  6
CONTINUOUS
 70
0
 71
3
 72
15
 73
11
 74
0
 42
0.0000001
 43
0.0000001
 44
0.0000000001
 40
0.0
 40
0.0
 40
0.0
 40
0.0
 40
0.1273482936
 40
0.2538605366
 40
0.3795879111
 40
0.5046050899
 40
0.6290174366
 40
0.7529533732
 40
0.8765605776
 40
1.0
 40
1.0
 40
1.0
 40
1.0
 10
9.8299359312
 20
9.2003433106
 30
0.0
 10
9.8299359312
 20
9.2038080859
 30
0.0
 10
9.8302667462
 20
9.2107196803
 30
0.0
 10
9.831762833
 20
9.2209541418
 30
0.0
 10
9.8342435943
 20
9.2309314484
 30
0.0
 10
9.837686627
 20
9.2405582927
 30
0.0
 10
9.8420603251
 20
9.2497458979
 30
0.0
 10
9.8473248334
 20
9.2584094252
 30
0.0
 10
9.8534306636
 20
9.2664676857
 30
0.0
 10
9.858028032
 20
9.2713901403
 30
0.0
 10
9.8604436058
 20
9.2737233851
 30
0.0
  0
SPLINE
  5
382
100
AcDbEntity
  8
0
100
AcDbSpline
 62
7
  6
CONTINUOUS
 70
0
 71
3
 72
23
 73
19
 74
0
 42
0.0000001
 43
0.0000001
 44
0.0000000001
 40
0.0
 40
0.0
 40
0.0
 40
0.0
 40
0.0614488807
 40
0.1232974294
 40
0.1855193177
 40
0.2480712672
 40
0.3108995318
 40
0.3739401513
 40
0.4371217414
 40
0.5003679843
 40
0.5636003151
 40
0.6267406524
 40
0.6897141172
 40
0.7524516838
 40
0.8148926113
 40
0.8769871451
 40
0.9386966623
 40
1.0
 40
1.0
 40
1.0
 40
1.0
 10
9.9386025931
 20
9.0841405901
 30
0.0
 10
9.9350359
 20
9.0843879411
 30
0.0
 10
9.9278989551
 20
9.0852357395
 30
0.0
 10
9.9173373632
 20
9.0875383722
 30
0.0
 10
9.90698049
 20
9.0908538841
 30
0.0
 10
9.8969290827
 20
9.0951501539
 30
0.0
 10
9.8872792659
 20
9.1003856471
 30
0.0
 10
9.8781237155
 20
9.1065099467
 30
0.0
 10
9.8695502327
 20
9.1134641291
 30
0.0
 10
9.8616410732
 20
9.1211813673
 30
0.0
 10
9.8544721417
 20
9.1295875661
 30
0.0
 10
9.8481122878
 20
9.1386020609
 30
0.0
 10
9.8426226552
 20
9.1481383662
 30
0.0
 10
9.8380561018
 20
9.1581050212
 30
0.0
 10
9.8344566417
 20
9.1684062961
 30
0.0
 10
9.8318591671
 20
9.178943644
 30
0.0
 10
9.8302888348
 20
9.1896145452
 30
0.0
 10
9.8299359312
 20
9.1967765189
 30
0.0
 10
9.8299359312
 20
9.2003433106
 30
0.0
  0
SPLINE
  5
383
100
AcDbEntity
  8
0
100
AcDbSpline
 62
7
  6
CONTINUOUS
 70
0
 71
3
 72
91
 73
87
 74
0
 42
0.0000001
 43
0.0000001
 44
0.0000000001
 40
0.0
 40
0.0
 40
0.0
 40
0.0
 40
0.0039801924
 40
0.0081241222
 40
0.0124359637
 40
0.0169193096
 40
0.0215771886
 40
0.0264119285
 40
0.0314251939
 40
0.0366181702
 40
0.0419915548
 40
0.047545678
 40
0.0532804444
 40
0.0591954462
 40
0.0652899498
 40
0.0715629346
 40
0.0780131383
 40
0.0846390212
 40
0.0984103321
 40
0.112860905
 40
0.1279714342
 40
0.1437200292
 40
0.1600824911
 40
0.1770325451
 40
0.1945420381
 40
0.2125811122
 40
0.2311183582
 40
0.250120955
 40
0.2695548022
 40
0.2893846422
 40
0.309574176
 40
0.3300861748
 40
0.3508825876
 40
0.371924647
 40
0.3931729723
 40
0.4145876715
 40
0.4361284441
 40
0.4577546814
 40
0.4794255667
 40
0.5011001742
 40
0.5227375691
 40
0.5442969066
 40
0.5657375322
 40
0.5870190822
 40
0.6081015838
 40
0.6289455566
 40
0.6495121139
 40
0.6697630662
 40
0.6896610263
 40
0.7091695166
 40
0.7282530813
 40
0.7468774025
 40
0.7650094193
 40
0.7826174564
 40
0.799671362
 40
0.8161426596
 40
0.8320047173
 40
0.8472329411
 40
0.8618050018
 40
0.8757011035
 40
0.8889043078
 40
0.8952418952
 40
0.9014014185
 40
0.9073817887
 40
0.9131821496
 40
0.9188019795
 40
0.9242410699
 40
0.9294995748
 40
0.9345780695
 40
0.9394775409
 40
0.9441995182
 40
0.9487460398
 40
0.953119811
 40
0.9573242085
 40
0.9613634143
 40
0.9652425019
 40
0.9689675247
 40
0.9725456818
 40
0.9759853712
 40
0.9824865179
 40
0.9855753633
 40
0.9885738259
 40
0.9914977396
 40
0.9943643376
 40
0.9971920097
 40
1.0
 40
1.0
 40
1.0
 40
1.0
 10
10.811747309
 20
10.7364950548
 30
0.0
 10
10.8133456301
 20
10.7380389145
 30
0.0
 10
10.8166806066
 20
10.7411157115
 30
0.0
 10
10.8219755203
 20
10.7456095998
 30
0.0
 10
10.8276592563
 20
10.7500712454
 30
0.0
 10
10.8337286984
 20
10.7544982943
 30
0.0
 10
10.8401808965
 20
10.758888669
 30
0.0
 10
10.8470126781
 20
10.7632402454
 30
0.0
 10
10.8542206322
 20
10.7675509172
 30
0.0
 10
10.8618011764
 20
10.7718184616
 30
0.0
 10
10.8697504865
 20
10.7760408286
 30
0.0
 10
10.8780646137
 20
10.7802158364
 30
0.0
 10
10.8867393704
 20
10.7843414526
 30
0.0
 10
10.8957704143
 20
10.7884155607
 30
0.0
 10
10.9051532015
 20
10.7924361211
 30
0.0
 10
10.9148830058
 20
10.7964011124
 30
0.0
 10
10.924954948
 20
10.8003085236
 30
0.0
 10
10.9390148281
 20
10.8055059243
 30
0.0
 10
10.9574170205
 20
10.8118312639
 30
0.0
 10
10.9805053956
 20
10.8190670683
 30
0.0
 10
11.0048283678
 20
10.8260278843
 30
0.0
 10
11.0303368377
 20
10.832699552
 30
0.0
 10
11.0569794953
 20
10.8390684822
 30
0.0
 10
11.0847026102
 20
10.8451217013
 30
0.0
 10
11.1134502452
 20
10.8508468775
 30
0.0
 10
11.1431643509
 20
10.8562323482
 30
0.0
 10
11.1737848965
 20
10.861267145
 30
0.0
 10
11.2052499938
 20
10.865941018
 30
0.0
 10
11.237496029
 20
10.8702444541
 30
0.0
 10
11.2704577954
 20
10.8741686954
 30
0.0
 10
11.3040686281
 20
10.8777057576
 30
0.0
 10
11.3382605406
 20
10.8808484448
 30
0.0
 10
11.3729643634
 20
10.8835903645
 30
0.0
 10
11.4081098852
 20
10.8859259392
 30
0.0
 10
11.4436259957
 20
10.8878504191
 30
0.0
 10
11.4794408302
 20
10.8893598928
 30
0.0
 10
11.5154819173
 20
10.8904512923
 30
0.0
 10
11.5516763264
 20
10.8911223993
 30
0.0
 10
11.5879508157
 20
10.8913718497
 30
0.0
 10
11.6242319805
 20
10.8911991361
 30
0.0
 10
11.6604464023
 20
10.8906046089
 30
0.0
 10
11.6965207979
 20
10.8895894756
 30
0.0
 10
11.7323821681
 20
10.8881557991
 30
0.0
 10
11.7679579476
 20
10.8863064958
 30
0.0
 10
11.8031761519
 20
10.884045326
 30
0.0
 10
11.8379655236
 20
10.8813768882
 30
0.0
 10
11.8722556773
 20
10.8783066088
 30
0.0
 10
11.9059772427
 20
10.8748407321
 30
0.0
 10
11.9390620061
 20
10.8709863082
 30
0.0
 10
11.9714430503
 20
10.8667511779
 30
0.0
 10
12.0030548934
 20
10.8621439596
 30
0.0
 10
12.0338336244
 20
10.857174033
 30
0.0
 10
12.0637170347
 20
10.8518515173
 30
0.0
 10
12.0926447471
 20
10.8461872516
 30
0.0
 10
12.1205583433
 20
10.840192773
 30
0.0
 10
12.1474014855
 20
10.8338802927
 30
0.0
 10
12.1731200481
 20
10.8272626694
 30
0.0
 10
12.1976622078
 20
10.8203533805
 30
0.0
 10
12.2209786727
 20
10.8131664878
 30
0.0
 10
12.2430224253
 20
10.8057166137
 30
0.0
 10
12.2605260033
 20
10.7992162112
 30
0.0
 10
12.2738480386
 20
10.7938843085
 30
0.0
 10
12.2833575575
 20
10.7898836812
 30
0.0
 10
12.2925170259
 20
10.785828823
 30
0.0
 10
12.3013218376
 20
10.7817216905
 30
0.0
 10
12.3097675763
 20
10.7775643951
 30
0.0
 10
12.3178500053
 20
10.7733590136
 30
0.0
 10
12.325565067
 20
10.7691076331
 30
0.0
 10
12.3329089232
 20
10.7648124229
 30
0.0
 10
12.3398778769
 20
10.7604754485
 30
0.0
 10
12.3464684923
 20
10.7560989333
 30
0.0
 10
12.3526774506
 20
10.7516849462
 30
0.0
 10
12.3585016981
 20
10.7472357005
 30
0.0
 10
12.3639383199
 20
10.7427532958
 30
0.0
 10
12.3689845997
 20
10.7382398858
 30
0.0
 10
12.3736380587
 20
10.7336975688
 30
0.0
 10
12.3778961871
 20
10.7291285474
 30
0.0
 10
12.3817572074
 20
10.72453443
 30
0.0
 10
12.3862865247
 20
10.7184936731
 30
0.0
 10
12.3901326696
 20
10.7122901107
 30
0.0
 10
12.3931862949
 20
10.7059540654
 30
0.0
 10
12.3950313159
 20
10.7012681059
 30
0.0
 10
12.3964680554
 20
10.6965707268
 30
0.0
 10
12.3974954166
 20
10.6918642401
 30
0.0
 10
12.3981122075
 20
10.6871519825
 30
0.0
 10
12.3982495003
 20
10.6840038277
 30
0.0
 10
12.3982494957
 20
10.6824360918
 30
0.0
  0
SPLINE
  5
384
100
AcDbEntity
  8
0
100
AcDbSpline
 62
7
  6
CONTINUOUS
 70
0
 71
3
 72
21
 73
17
 74
0
 42
0.0000001
 43
0.0000001
 44
0.0000000001
 40
0.0
 40
0.0
 40
0.0
 40
0.0
 40
0.1273176984
 40
0.2537999461
 40
0.3167619614
 40
0.3795355204
 40
0.4421314992
 40
0.5045621453
 40
0.5668413456
 40
0.6289845231
 40
0.6910084433
 40
0.7529310869
 40
0.8147714401
 40
0.8765493236
 40
0.9382852134
 40
1.0
 40
1.0
 40
1.0
 40
1.0
 10
9.0119930124
 20
6.5944750948
 30
0.0
 10
9.0119930124
 20
6.6007271316
 30
0.0
 10
9.0125898111
 20
6.6131982275
 30
0.0
 10
9.0148437518
 20
6.6286151941
 30
0.0
 10
9.0175376889
 20
6.6407084544
 30
0.0
 10
9.0199944189
 20
6.6496284491
 30
0.0
 10
9.0228846149
 20
6.65838994
 30
0.0
 10
9.0262016134
 20
6.6669729789
 30
0.0
 10
9.0299377669
 20
6.6753577144
 30
0.0
 10
9.0340845358
 20
6.6835247952
 30
0.0
 10
9.0386323273
 20
6.6914553948
 30
0.0
 10
9.0435706533
 20
6.6991312363
 30
0.0
 10
9.0488881729
 20
6.7065345578
 30
0.0
 10
9.054572656
 20
6.7136483568
 30
0.0
 10
9.0606107413
 20
6.7204560297
 30
0.0
 10
9.0648634455
 20
6.7247806644
 30
0.0
 10
9.0670431916
 20
6.7268861246
 30
0.0
  0
SPLINE
  5
385
100
AcDbEntity
  8
0
100
AcDbSpline
 62
7
  6
CONTINUOUS
 70
0
 71
3
 72
39
 73
35
 74
0
 42
0.0000001
 43
0.0000001
 44
0.0000000001
 40
0.0
 40
0.0
 40
0.0
 40
0.0
 40
0.0314026134
 40
0.06300949
 40
0.0948071102
 40
0.1267734453
 40
0.1588809722
 40
0.1910970226
 40
0.2233851132
 40
0.2557062446
 40
0.2880202663
 40
0.3202872751
 40
0.3524690067
 40
0.384530184
 40
0.4164397927
 40
0.448172249
 40
0.4797084083
 40
0.5110363809
 40
0.5421521201
 40
0.5730597413
 40
0.6037715194
 40
0.6343075569
 40
0.6646951118
 40
0.6949675896
 40
0.7251632184
 40
0.755323478
 40
0.7854913548
 40
0.8157095105
 40
0.8460184691
 40
0.8764549222
 40
0.9070502335
 40
0.9378293335
 40
0.9688091139
 40
1.0
 40
1.0
 40
1.0
 40
1.0
 10
11.9841469972
 20
8.9132855451
 30
0.0
 10
11.9798352615
 20
8.913584565
 30
0.0
 10
11.9712074861
 20
8.9146094626
 30
0.0
 10
11.958439695
 20
8.9173930835
 30
0.0
 10
11.9459193851
 20
8.9214011669
 30
0.0
 10
11.9337683483
 20
8.9265948703
 30
0.0
 10
11.9221028021
 20
8.9329240228
 30
0.0
 10
11.9110347617
 20
8.9403276224
 30
0.0
 10
11.9006703626
 20
8.9487344425
 30
0.0
 10
11.8911090556
 20
8.9580637148
 30
0.0
 10
11.8824426259
 20
8.9682258866
 30
0.0
 10
11.8747542836
 20
8.9791234177
 30
0.0
 10
11.8681179261
 20
8.9906517542
 30
0.0
 10
11.8625974442
 20
9.0027003047
 30
0.0
 10
11.8582461177
 20
9.0151534708
 30
0.0
 10
11.8551060296
 20
9.0278917068
 30
0.0
 10
11.853207723
 20
9.0407926724
 30
0.0
 10
11.8525698946
 20
9.0537323706
 30
0.0
 10
11.8531991904
 20
9.0665863043
 30
0.0
 10
11.8550900262
 20
9.079230659
 30
0.0
 10
11.8582246744
 20
9.0915434896
 30
0.0
 10
11.862573385
 20
9.1034058883
 30
0.0
 10
11.8680946192
 20
9.114703143
 30
0.0
 10
11.874735335
 20
9.1253259192
 30
0.0
 10
11.882431548
 20
9.1351713436
 30
0.0
 10
11.8911089392
 20
9.1441440486
 30
0.0
 10
11.9006835815
 20
9.1521571465
 30
0.0
 10
11.9110627427
 20
9.1591331824
 30
0.0
 10
11.9221458843
 20
9.1650048586
 30
0.0
 10
11.9338257341
 20
9.1697156773
 30
0.0
 10
11.9459892025
 20
9.1732205011
 30
0.0
 10
11.9585191065
 20
9.1754858967
 30
0.0
 10
11.9712929984
 20
9.1764907429
 30
0.0
 10
11.9798643327
 20
9.1763143892
 30
0.0
 10
11.9841469972
 20
9.1760173855
 30
0.0
  0
SPLINE
  5
386
100
AcDbEntity
  8
0
100
AcDbSpline
 62
7
  6
CONTINUOUS
 70
0
 71
3
 72
15
 73
11
 74
0
 42
0.0000001
 43
0.0000001
 44
0.0000000001
 40
0.0
 40
0.0
 40
0.0
 40
0.0
 40
0.1237573851
 40
0.2477721907
 40
0.3720962122
 40
0.4967862158
 40
0.6218863159
 40
0.7474359637
 40
0.873466124
 40
1.0
 40
1.0
 40
1.0
 40
1.0
 10
10.4374427747
 20
8.5138491905
 30
0.0
 10
10.4408234569
 20
8.5160709488
 30
0.0
 10
10.4477396606
 20
8.5202986785
 30
0.0
 10
10.4585158214
 20
8.5259567844
 30
0.0
 10
10.4696640455
 20
8.5309177052
 30
0.0
 10
10.4811411575
 20
8.5351639413
 30
0.0
 10
10.4929037975
 20
8.5386816147
 30
0.0
 10
10.5049075595
 20
8.5414601393
 30
0.0
 10
10.517106865
 20
8.5434921622
 30
0.0
 10
10.5253246885
 20
8.544344815
 30
0.0
 10
10.5294498184
 20
8.5446465915
 30
0.0
  0
SPLINE
  5
387
100
AcDbEntity
  8
0
100
AcDbSpline
 62
7
  6
CONTINUOUS
 70
0
 71
3
 72
39
 73
35
 74
0
 42
0.0000001
 43
0.0000001
 44
0.0000000001
 40
0.0
 40
0.0
 40
0.0
 40
0.0
 40
0.0314026134
 40
0.06300949
 40
0.0948071102
 40
0.1267734453
 40
0.1588809722
 40
0.1910970226
 40
0.2233851132
 40
0.2557062446
 40
0.2880202663
 40
0.3202872751
 40
0.3524690067
 40
0.384530184
 40
0.4164397927
 40
0.448172249
 40
0.4797084083
 40
0.5110363809
 40
0.5421521201
 40
0.5730597413
 40
0.6037715194
 40
0.6343075569
 40
0.6646951118
 40
0.6949675896
 40
0.7251632184
 40
0.755323478
 40
0.7854913548
 40
0.8157095105
 40
0.8460184691
 40
0.8764549222
 40
0.9070502335
 40
0.9378293335
 40
0.9688091139
 40
1.0
 40
1.0
 40
1.0
 40
1.0
 10
9.9325203506
 20
9.0555663363
 30
0.0
 10
9.9282086149
 20
9.0558653562
 30
0.0
 10
9.9195808395
 20
9.0568902538
 30
0.0
 10
9.9068130484
 20
9.0596738747
 30
0.0
 10
9.8942927384
 20
9.0636819581
 30
0.0
 10
9.8821417017
 20
9.0688756615
 30
0.0
 10
9.8704761555
 20
9.075204814
 30
0.0
 10
9.8594081151
 20
9.0826084136
 30
0.0
 10
9.849043716
 20
9.0910152337
 30
0.0
 10
9.839482409
 20
9.100344506
 30
0.0
 10
9.8308159793
 20
9.1105066778
 30
0.0
 10
9.823127637
 20
9.1214042089
 30
0.0
 10
9.8164912795
 20
9.1329325454
 30
0.0
 10
9.8109707976
 20
9.1449810959
 30
0.0
 10
9.8066194711
 20
9.157434262
 30
0.0
 10
9.803479383
 20
9.170172498
 30
0.0
 10
9.8015810764
 20
9.1830734636
 30
0.0
 10
9.800943248
 20
9.1960131618
 30
0.0
 10
9.8015725438
 20
9.2088670955
 30
0.0
 10
9.8034633796
 20
9.2215114502
 30
0.0
 10
9.8065980278
 20
9.2338242808
 30
0.0
 10
9.8109467384
 20
9.2456866795
 30
0.0
 10
9.8164679726
 20
9.2569839342
 30
0.0
 10
9.8231086884
 20
9.2676067103
 30
0.0
 10
9.8308049014
 20
9.2774521348
 30
0.0
 10
9.8394822926
 20
9.2864248398
 30
0.0
 10
9.8490569349
 20
9.2944379377
 30
0.0
 10
9.8594360961
 20
9.3014139736
 30
0.0
 10
9.8705192377
 20
9.3072856498
 30
0.0
 10
9.8821990875
 20
9.3119964685
 30
0.0
 10
9.8943625559
 20
9.3155012923
 30
0.0
 10
9.9068924599
 20
9.3177666879
 30
0.0
 10
9.9196663518
 20
9.3187715341
 30
0.0
 10
9.9282376861
 20
9.3185951804
 30
0.0
 10
9.9325203506
 20
9.3182981766
 30
0.0
  0
SPLINE
  5
388
100
AcDbEntity
  8
0
100
AcDbSpline
 62
7
  6
CONTINUOUS
 70
0
 71
3
 72
15
 73
11
 74
0
 42
0.0000001
 43
0.0000001
 44
0.0000000001
 40
0.0
 40
0.0
 40
0.0
 40
0.0
 40
0.1273482936
 40
0.2538605366
 40
0.3795879111
 40
0.5046050899
 40
0.6290174366
 40
0.7529533732
 40
0.8765605776
 40
1.0
 40
1.0
 40
1.0
 40
1.0
 10
11.8815625779
 20
9.0580625194
 30
0.0
 10
11.8815625779
 20
9.0615272947
 30
0.0
 10
11.8818933928
 20
9.0684388891
 30
0.0
 10
11.8833894796
 20
9.0786733506
 30
0.0
 10
11.8858702409
 20
9.0886506573
 30
0.0
 10
11.8893132736
 20
9.0982775015
 30
0.0
 10
11.8936869717
 20
9.1074651067
 30
0.0
 10
11.89895148
 20
9.116128634
 30
0.0
 10
11.9050573102
 20
9.1241868945
 30
0.0
 10
11.9096546787
 20
9.1291093491
 30
0.0
 10
11.9120702524
 20
9.1314425939
 30
0.0
  0
SPLINE
  5
389
100
AcDbEntity
  8
0
100
AcDbSpline
 62
7
  6
CONTINUOUS
 70
0
 71
3
 72
23
 73
19
 74
0
 42
0.0000001
 43
0.0000001
 44
0.0000000001
 40
0.0
 40
0.0
 40
0.0
 40
0.0
 40
0.0614488807
 40
0.1232974294
 40
0.1855193177
 40
0.2480712672
 40
0.3108995318
 40
0.3739401513
 40
0.4371217414
 40
0.5003679843
 40
0.5636003151
 40
0.6267406524
 40
0.6897141172
 40
0.7524516838
 40
0.8148926113
 40
0.8769871451
 40
0.9386966623
 40
1.0
 40
1.0
 40
1.0
 40
1.0
 10
11.9902292397
 20
8.9418597989
 30
0.0
 10
11.9866625466
 20
8.9421071499
 30
0.0
 10
11.9795256017
 20
8.9429549483
 30
0.0
 10
11.9689640098
 20
8.945257581
 30
0.0
 10
11.9586071366
 20
8.9485730929
 30
0.0
 10
11.9485557293
 20
8.9528693627
 30
0.0
 10
11.9389059125
 20
8.9581048559
 30
0.0
 10
11.9297503622
 20
8.9642291555
 30
0.0
 10
11.9211768793
 20
8.9711833379
 30
0.0
 10
11.9132677198
 20
8.9789005761
 30
0.0
 10
11.9060987883
 20
8.9873067749
 30
0.0
 10
11.8997389344
 20
8.9963212697
 30
0.0
 10
11.8942493018
 20
9.005857575
 30
0.0
 10
11.8896827484
 20
9.01582423
 30
0.0
 10
11.8860832883
 20
9.0261255049
 30
0.0
 10
11.8834858137
 20
9.0366628528
 30
0.0
 10
11.8819154814
 20
9.047333754
 30
0.0
 10
11.8815625779
 20
9.0544957277
 30
0.0
 10
11.8815625779
 20
9.0580625194
 30
0.0
  0
SPLINE
  5
38A
100
AcDbEntity
  8
0
100
AcDbSpline
 62
7
  6
CONTINUOUS
 70
0
 71
3
 72
41
 73
37
 74
0
 42
0.0000001
 43
0.0000001
 44
0.0000000001
 40
0.0
 40
0.0
 40
0.0
 40
0.0
 40
0.0302897331
 40
0.0604818912
 40
0.0906152919
 40
0.1207300196
 40
0.1508669524
 40
0.1810656789
 40
0.2113628931
 40
0.2417909841
 40
0.2723768945
 40
0.3031413158
 40
0.3340981768
 40
0.3652544335
 40
0.3966101335
 40
0.4281586786
 40
0.4598872707
 40
0.4917774938
 40
0.5238059895
 40
0.5559452208
 40
0.5881642883
 40
0.6204298014
 40
0.6527068083
 40
0.6849597559
 40
0.7171534976
 40
0.7492543549
 40
0.7812311789
 40
0.8130564272
 40
0.8447072273
 40
0.8761663465
 40
0.9074230529
 40
0.938473799
 40
0.9539274867
 40
0.9693318511
 40
0.9846886827
 40
1.0
 40
1.0
 40
1.0
 40
1.0
 10
10.2469711095
 20
7.8369951768
 30
0.0
 10
10.2441564746
 20
7.8311543683
 30
0.0
 10
10.2379406595
 20
7.8197676468
 30
0.0
 10
10.2269392953
 20
7.8037535808
 30
0.0
 10
10.2143782412
 20
7.7889776458
 30
0.0
 10
10.2003773708
 20
7.7755761044
 30
0.0
 10
10.1850689312
 20
7.7636675404
 30
0.0
 10
10.1685969831
 20
7.753355645
 30
0.0
 10
10.1511151203
 20
7.7447273086
 30
0.0
 10
10.1327845026
 20
7.7378524934
 30
0.0
 10
10.1137717911
 20
7.7327842683
 30
0.0
 10
10.0942474158
 20
7.7295587848
 30
0.0
 10
10.0743838429
 20
7.7281957514
 30
0.0
 10
10.0543541038
 20
7.7286990599
 30
0.0
 10
10.0343305045
 20
7.7310571717
 30
0.0
 10
10.0144834618
 20
7.7352438469
 30
0.0
 10
9.9949805364
 20
7.7412188269
 30
0.0
 10
9.9759855029
 20
7.7489282451
 30
0.0
 10
9.9576575264
 20
7.7583052371
 30
0.0
 10
9.9401504278
 20
7.7692704931
 30
0.0
 10
9.9236118394
 20
7.7817325635
 30
0.0
 10
9.9081823981
 20
7.7955883141
 30
0.0
 10
9.8939949694
 20
7.810723414
 30
0.0
 10
9.8811736379
 20
7.8270126592
 30
0.0
 10
9.8698326932
 20
7.844320484
 30
0.0
 10
9.8600756741
 20
7.8625016293
 30
0.0
 10
9.8519940976
 20
7.8814017539
 30
0.0
 10
9.8456662604
 20
7.9008583846
 30
0.0
 10
9.8411561753
 20
7.9207018985
 30
0.0
 10
9.8385122929
 20
7.9407572991
 30
0.0
 10
9.8377660962
 20
7.9608437392
 30
0.0
 10
9.8387398645
 20
7.9774885012
 30
0.0
 10
9.8404763769
 20
7.9906303702
 30
0.0
 10
9.842251032
 20
8.0003666044
 30
0.0
 10
9.8444962334
 20
8.0099734691
 30
0.0
 10
9.8463063641
 20
8.0162869378
 30
0.0
 10
9.8472881588
 20
8.0194138625
 30
0.0
  0
SPLINE
  5
38B
100
AcDbEntity
  8
0
100
AcDbSpline
 62
7
  6
CONTINUOUS
 70
0
 71
3
 72
15
 73
11
 74
0
 42
0.0000001
 43
0.0000001
 44
0.0000000001
 40
0.0
 40
0.0
 40
0.0
 40
0.0
 40
0.1273482936
 40
0.2538605366
 40
0.3795879111
 40
0.5046050899
 40
0.6290174366
 40
0.7529533732
 40
0.8765605776
 40
1.0
 40
1.0
 40
1.0
 40
1.0
 10
11.8815625779
 20
7.3068389276
 30
0.0
 10
11.8815625779
 20
7.3103037029
 30
0.0
 10
11.8818933928
 20
7.3172152973
 30
0.0
 10
11.8833894796
 20
7.3274497588
 30
0.0
 10
11.8858702409
 20
7.3374270654
 30
0.0
 10
11.8893132736
 20
7.3470539097
 30
0.0
 10
11.8936869717
 20
7.3562415148
 30
0.0
 10
11.89895148
 20
7.3649050422
 30
0.0
 10
11.9050573102
 20
7.3729633027
 30
0.0
 10
11.9096546787
 20
7.3778857573
 30
0.0
 10
11.9120702524
 20
7.3802190021
 30
0.0
  0
SPLINE
  5
38C
100
AcDbEntity
  8
0
100
AcDbSpline
 62
7
  6
CONTINUOUS
 70
0
 71
3
 72
23
 73
19
 74
0
 42
0.0000001
 43
0.0000001
 44
0.0000000001
 40
0.0
 40
0.0
 40
0.0
 40
0.0
 40
0.0614488807
 40
0.1232974294
 40
0.1855193177
 40
0.2480712672
 40
0.3108995318
 40
0.3739401513
 40
0.4371217414
 40
0.5003679843
 40
0.5636003151
 40
0.6267406524
 40
0.6897141172
 40
0.7524516838
 40
0.8148926113
 40
0.8769871451
 40
0.9386966623
 40
1.0
 40
1.0
 40
1.0
 40
1.0
 10
11.9902292397
 20
7.1906362071
 30
0.0
 10
11.9866625466
 20
7.1908835581
 30
0.0
 10
11.9795256017
 20
7.1917313565
 30
0.0
 10
11.9689640098
 20
7.1940339891
 30
0.0
 10
11.9586071366
 20
7.1973495011
 30
0.0
 10
11.9485557293
 20
7.2016457709
 30
0.0
 10
11.9389059125
 20
7.206881264
 30
0.0
 10
11.9297503622
 20
7.2130055637
 30
0.0
 10
11.9211768793
 20
7.2199597461
 30
0.0
 10
11.9132677198
 20
7.2276769843
 30
0.0
 10
11.9060987883
 20
7.2360831831
 30
0.0
 10
11.8997389344
 20
7.2450976779
 30
0.0
 10
11.8942493018
 20
7.2546339832
 30
0.0
 10
11.8896827484
 20
7.2646006382
 30
0.0
 10
11.8860832883
 20
7.2749019131
 30
0.0
 10
11.8834858137
 20
7.2854392609
 30
0.0
 10
11.8819154814
 20
7.2961101622
 30
0.0
 10
11.8815625779
 20
7.3032721359
 30
0.0
 10
11.8815625779
 20
7.3068389276
 30
0.0
  0
SPLINE
  5
38D
100
AcDbEntity
  8
0
100
AcDbSpline
 62
7
  6
CONTINUOUS
 70
0
 71
3
 72
39
 73
35
 74
0
 42
0.0000001
 43
0.0000001
 44
0.0000000001
 40
0.0
 40
0.0
 40
0.0
 40
0.0
 40
0.0314026134
 40
0.06300949
 40
0.0948071102
 40
0.1267734453
 40
0.1588809722
 40
0.1910970226
 40
0.2233851132
 40
0.2557062446
 40
0.2880202663
 40
0.3202872751
 40
0.3524690067
 40
0.384530184
 40
0.4164397927
 40
0.448172249
 40
0.4797084083
 40
0.5110363809
 40
0.5421521201
 40
0.5730597413
 40
0.6037715194
 40
0.6343075569
 40
0.6646951118
 40
0.6949675896
 40
0.7251632184
 40
0.755323478
 40
0.7854913548
 40
0.8157095105
 40
0.8460184691
 40
0.8764549222
 40
0.9070502335
 40
0.9378293335
 40
0.9688091139
 40
1.0
 40
1.0
 40
1.0
 40
1.0
 10
11.9841469972
 20
7.4247937936
 30
0.0
 10
11.9884587329
 20
7.4244947737
 30
0.0
 10
11.9970865083
 20
7.4234698762
 30
0.0
 10
12.0098542994
 20
7.4206862553
 30
0.0
 10
12.0223746094
 20
7.4166781719
 30
0.0
 10
12.0345256461
 20
7.4114844685
 30
0.0
 10
12.0461911923
 20
7.405155316
 30
0.0
 10
12.0572592327
 20
7.3977517163
 30
0.0
 10
12.0676236318
 20
7.3893448962
 30
0.0
 10
12.0771849388
 20
7.380015624
 30
0.0
 10
12.0858513685
 20
7.3698534521
 30
0.0
 10
12.0935397108
 20
7.358955921
 30
0.0
 10
12.1001760683
 20
7.3474275846
 30
0.0
 10
12.1056965502
 20
7.3353790341
 30
0.0
 10
12.1100478767
 20
7.3229258679
 30
0.0
 10
12.1131879648
 20
7.3101876319
 30
0.0
 10
12.1150862715
 20
7.2972866664
 30
0.0
 10
12.1157240999
 20
7.2843469682
 30
0.0
 10
12.1150948041
 20
7.2714930345
 30
0.0
 10
12.1132039683
 20
7.2588486798
 30
0.0
 10
12.11006932
 20
7.2465358492
 30
0.0
 10
12.1057206094
 20
7.2346734504
 30
0.0
 10
12.1001993752
 20
7.2233761958
 30
0.0
 10
12.0935586594
 20
7.2127534196
 30
0.0
 10
12.0858624464
 20
7.2029079952
 30
0.0
 10
12.0771850552
 20
7.1939352902
 30
0.0
 10
12.0676104129
 20
7.1859221923
 30
0.0
 10
12.0572312517
 20
7.1789461564
 30
0.0
 10
12.0461481101
 20
7.1730744802
 30
0.0
 10
12.0344682603
 20
7.1683636614
 30
0.0
 10
12.0223047919
 20
7.1648588376
 30
0.0
 10
12.0097748879
 20
7.162593442
 30
0.0
 10
11.997000996
 20
7.1615885959
 30
0.0
 10
11.9884296617
 20
7.1617649495
 30
0.0
 10
11.9841469972
 20
7.1620619533
 30
0.0
  0
SPLINE
  5
38E
100
AcDbEntity
  8
0
100
AcDbSpline
 62
7
  6
CONTINUOUS
 70
0
 71
3
 72
15
 73
11
 74
0
 42
0.0000001
 43
0.0000001
 44
0.0000000001
 40
0.0
 40
0.0
 40
0.0
 40
0.0
 40
0.1273482936
 40
0.2538605366
 40
0.3795879111
 40
0.5046050899
 40
0.6290174366
 40
0.7529533732
 40
0.8765605776
 40
1.0
 40
1.0
 40
1.0
 40
1.0
 10
9.8299359312
 20
7.4491197188
 30
0.0
 10
9.8299359312
 20
7.4525844941
 30
0.0
 10
9.8302667462
 20
7.4594960885
 30
0.0
 10
9.831762833
 20
7.46973055
 30
0.0
 10
9.8342435943
 20
7.4797078566
 30
0.0
 10
9.837686627
 20
7.4893347008
 30
0.0
 10
9.8420603251
 20
7.498522306
 30
0.0
 10
9.8473248334
 20
7.5071858334
 30
0.0
 10
9.8534306636
 20
7.5152440939
 30
0.0
 10
9.858028032
 20
7.5201665485
 30
0.0
 10
9.8604436058
 20
7.5224997933
 30
0.0
  0
SPLINE
  5
38F
100
AcDbEntity
  8
0
100
AcDbSpline
 62
7
  6
CONTINUOUS
 70
0
 71
3
 72
23
 73
19
 74
0
 42
0.0000001
 43
0.0000001
 44
0.0000000001
 40
0.0
 40
0.0
 40
0.0
 40
0.0
 40
0.0614488807
 40
0.1232974294
 40
0.1855193177
 40
0.2480712672
 40
0.3108995318
 40
0.3739401513
 40
0.4371217414
 40
0.5003679843
 40
0.5636003151
 40
0.6267406524
 40
0.6897141172
 40
0.7524516838
 40
0.8148926113
 40
0.8769871451
 40
0.9386966623
 40
1.0
 40
1.0
 40
1.0
 40
1.0
 10
9.9386025931
 20
7.3329169983
 30
0.0
 10
9.9350359
 20
7.3331643493
 30
0.0
 10
9.9278989551
 20
7.3340121477
 30
0.0
 10
9.9173373632
 20
7.3363147803
 30
0.0
 10
9.90698049
 20
7.3396302923
 30
0.0
 10
9.8969290827
 20
7.3439265621
 30
0.0
 10
9.8872792659
 20
7.3491620552
 30
0.0
 10
9.8781237155
 20
7.3552863549
 30
0.0
 10
9.8695502327
 20
7.3622405373
 30
0.0
 10
9.8616410732
 20
7.3699577755
 30
0.0
 10
9.8544721417
 20
7.3783639743
 30
0.0
 10
9.8481122878
 20
7.3873784691
 30
0.0
 10
9.8426226552
 20
7.3969147744
 30
0.0
 10
9.8380561018
 20
7.4068814293
 30
0.0
 10
9.8344566417
 20
7.4171827043
 30
0.0
 10
9.8318591671
 20
7.4277200521
 30
0.0
 10
9.8302888348
 20
7.4383909534
 30
0.0
 10
9.8299359312
 20
7.4455529271
 30
0.0
 10
9.8299359312
 20
7.4491197188
 30
0.0
  0
SPLINE
  5
390
100
AcDbEntity
  8
0
100
AcDbSpline
 62
7
  6
CONTINUOUS
 70
0
 71
3
 72
15
 73
11
 74
0
 42
0.0000001
 43
0.0000001
 44
0.0000000001
 40
0.0
 40
0.0
 40
0.0
 40
0.0
 40
0.1429629062
 40
0.2800307123
 40
0.4115028745
 40
0.537746423
 40
0.659192771
 40
0.7763349682
 40
0.8897298821
 40
1.0
 40
1.0
 40
1.0
 40
1.0
 10
10.811747309
 20
10.7055854258
 30
0.0
 10
10.810147865
 20
10.7040404815
 30
0.0
 10
10.8070837044
 20
10.7009418296
 30
0.0
 10
10.8028187734
 20
10.696165011
 30
0.0
 10
10.7989870139
 20
10.6913620095
 30
0.0
 10
10.7955909219
 20
10.6865354368
 30
0.0
 10
10.7926326166
 20
10.681687586
 30
0.0
 10
10.7901140655
 20
10.6768206892
 30
0.0
 10
10.7880373335
 20
10.6719377443
 30
0.0
 10
10.7869352148
 20
10.668632942
 30
0.0
 10
10.7864624658
 20
10.666984154
 30
0.0
  0
SPLINE
  5
391
100
AcDbEntity
  8
0
100
AcDbSpline
 62
7
  6
CONTINUOUS
 70
0
 71
3
 72
87
 73
83
 74
0
 42
0.0000001
 43
0.0000001
 44
0.0000000001
 40
0.0
 40
0.0
 40
0.0
 40
0.0
 40
0.0039125162
 40
0.0079818362
 40
0.0122118785
 40
0.016606018
 40
0.0211671303
 40
0.0258974831
 40
0.0307986977
 40
0.0358719583
 40
0.0411179947
 40
0.0465371835
 40
0.0521295428
 40
0.0578947481
 40
0.0638322234
 40
0.069941079
 40
0.0826679117
 40
0.0960642043
 40
0.1101153055
 40
0.1248038249
 40
0.1401099484
 40
0.1560116962
 40
0.1724851335
 40
0.189504558
 40
0.2070426641
 40
0.2250706847
 40
0.2435585201
 40
0.2624748562
 40
0.2817872718
 40
0.3014623461
 40
0.3214657618
 40
0.3417624022
 40
0.3623164456
 40
0.3830914572
 40
0.404050479
 40
0.4251561212
 40
0.4463706534
 40
0.4889736062
 40
0.5315547231
 40
0.5527420077
 40
0.5738095912
 40
0.5947198325
 40
0.6154354572
 40
0.6359196466
 40
0.656136129
 40
0.6760492748
 40
0.6956241869
 40
0.7148267964
 40
0.7336239591
 40
0.7519835577
 40
0.7698746087
 40
0.787267381
 40
0.8041335133
 40
0.8204461457
 40
0.8361800661
 40
0.8513118764
 40
0.8658201858
 40
0.8796858436
 40
0.8928922098
 40
0.9054254875
 40
0.9114365267
 40
0.9172756441
 40
0.9229421258
 40
0.9284355472
 40
0.9337557584
 40
0.9389029923
 40
0.9438778049
 40
0.9486812021
 40
0.9533146286
 40
0.9577800342
 40
0.9620799674
 40
0.9662175748
 40
0.9701967681
 40
0.9740222277
 40
0.9776995564
 40
0.9812353638
 40
0.9846373519
 40
0.9879144727
 40
0.9910769557
 40
0.9941364424
 40
0.9971059762
 40
1.0
 40
1.0
 40
1.0
 40
1.0
 10
10.811747309
 20
10.7055854258
 30
0.0
 10
10.8133038002
 20
10.7070888809
 30
0.0
 10
10.8165479606
 20
10.7100854822
 30
0.0
 10
10.8216920306
 20
10.714465289
 30
0.0
 10
10.8272053946
 20
10.718814629
 30
0.0
 10
10.8330851765
 20
10.7231312814
 30
0.0
 10
10.8393286382
 20
10.7274133441
 30
0.0
 10
10.8459328894
 20
10.7316588225
 30
0.0
 10
10.8528947866
 20
10.735865805
 30
0.0
 10
10.8602110526
 20
10.7400322132
 30
0.0
 10
10.8678781805
 20
10.7441561321
 30
0.0
 10
10.87589254
 20
10.7482355788
 30
0.0
 10
10.8842503207
 20
10.7522686077
 30
0.0
 10
10.8929475251
 20
10.756253325
 30
0.0
 10
10.9019800322
 20
10.7601877935
 30
0.0
 10
10.9146379189
 20
10.7654360168
 30
0.0
 10
10.9312779419
 20
10.7718434768
 30
0.0
 10
10.9522479994
 20
10.7792014559
 30
0.0
 10
10.9744440468
 20
10.7863155827
 30
0.0
 10
10.9978235982
 20
10.7931721358
 30
0.0
 10
11.0223421083
 20
10.7997578743
 30
0.0
 10
11.047952696
 20
10.8060600668
 30
0.0
 10
11.0746063524
 20
10.8120665319
 30
0.0
 10
11.1022520171
 20
10.8177656595
 30
0.0
 10
11.1308366969
 20
10.8231464325
 30
0.0
 10
11.1603055724
 20
10.8281984503
 30
0.0
 10
11.1906021081
 20
10.8329119489
 30
0.0
 10
11.221668162
 20
10.8372778181
 30
0.0
 10
11.2534440983
 20
10.8412876247
 30
0.0
 10
11.2858689056
 20
10.8449336274
 30
0.0
 10
11.3188803184
 20
10.8482087868
 30
0.0
 10
11.3524149397
 20
10.8511067798
 30
0.0
 10
11.386408362
 20
10.8536220109
 30
0.0
 10
11.4207952957
 20
10.8557496249
 30
0.0
 10
11.455509673
 20
10.857485507
 30
0.0
 10
11.4904848585
 20
10.8588263412
 30
0.0
 10
11.5374402809
 20
10.860085502
 30
0.0
 10
11.5962925388
 20
10.8606559673
 30
0.0
 10
11.6551275865
 20
10.8598952312
 30
0.0
 10
11.7020304597
 20
10.8584837037
 30
0.0
 10
11.73693797
 20
10.8570296835
 30
0.0
 10
11.7715655618
 20
10.8551814964
 30
0.0
 10
11.8058467676
 20
10.8529426774
 30
0.0
 10
11.839715723
 20
10.8503175536
 30
0.0
 10
11.8731073763
 20
10.8473111872
 30
0.0
 10
11.9059575951
 20
10.8439293855
 30
0.0
 10
11.9382032954
 20
10.8401786792
 30
0.0
 10
11.9697825607
 20
10.8360663115
 30
0.0
 10
12.0006347619
 20
10.8316002247
 30
0.0
 10
12.0307006755
 20
10.826789045
 30
0.0
 10
12.0599226026
 20
10.8216420655
 30
0.0
 10
12.0882444857
 20
10.8161692364
 30
0.0
 10
12.1156120188
 20
10.8103811383
 30
0.0
 10
12.1419727552
 20
10.8042889618
 30
0.0
 10
12.1672762104
 20
10.7979044846
 30
0.0
 10
12.1914739766
 20
10.7912400474
 30
0.0
 10
12.2145197983
 20
10.7843085246
 30
0.0
 10
12.2363697922
 20
10.7771232963
 30
0.0
 10
12.2569821575
 20
10.7696982246
 30
0.0
 10
12.2733151636
 20
10.7632358908
 30
0.0
 10
12.2857215687
 20
10.7579456374
 30
0.0
 10
12.2945629848
 20
10.7539822086
 30
0.0
 10
12.3030667128
 20
10.7499696441
 30
0.0
 10
12.3112287223
 20
10.7459098627
 30
0.0
 10
12.3190451001
 20
10.7418047468
 30
0.0
 10
12.3265121567
 20
10.7376563202
 30
0.0
 10
12.3336263198
 20
10.7334664826
 30
0.0
 10
12.3403842326
 20
10.7292372539
 30
0.0
 10
12.3467826957
 20
10.7249706135
 30
0.0
 10
12.3528186634
 20
10.7206685181
 30
0.0
 10
12.3584893233
 20
10.7163330241
 30
0.0
 10
12.3637919439
 20
10.7119660362
 30
0.0
 10
12.3687240658
 20
10.7075696113
 30
0.0
 10
12.3732833062
 20
10.7031456647
 30
0.0
 10
12.3774674782
 20
10.6986961639
 30
0.0
 10
12.3812745643
 20
10.694223074
 30
0.0
 10
12.3847025768
 20
10.6897282648
 30
0.0
 10
12.3877498069
 20
10.6852137325
 30
0.0
 10
12.3904144494
 20
10.6806813815
 30
0.0
 10
12.392694995
 20
10.6761331465
 30
0.0
 10
12.3945897995
 20
10.6715714822
 30
0.0
 10
12.3956064099
 20
10.6684877498
 30
0.0
 10
12.3960466562
 20
10.6669487813
 30
0.0
  0
SPLINE
  5
392
100
AcDbEntity
  8
0
100
AcDbSpline
 62
7
  6
CONTINUOUS
 70
0
 71
3
 72
88
 73
84
 74
0
 42
0.0000001
 43
0.0000001
 44
0.0000000001
 40
0.0
 40
0.0
 40
0.0
 40
0.0
 40
0.0040448591
 40
0.0082603589
 40
0.0126509045
 40
0.0172202356
 40
0.0219715017
 40
0.0269071599
 40
0.0320289002
 40
0.0373379024
 40
0.0428348263
 40
0.0485199094
 40
0.0543930035
 40
0.060453542
 40
0.0731327245
 40
0.0865475921
 40
0.1006835308
 40
0.1155223687
 40
0.1310428283
 40
0.1472208856
 40
0.1640300574
 40
0.1814416559
 40
0.1994250064
 40
0.2179476328
 40
0.2369754242
 40
0.2564727835
 40
0.2764027658
 40
0.2967272194
 40
0.3174069142
 40
0.3384016633
 40
0.3596704418
 40
0.3811715005
 40
0.4028624835
 40
0.4247005451
 40
0.4686439553
 40
0.5126542037
 40
0.5563822657
 40
0.5780325135
 40
0.5994828488
 40
0.6206910478
 40
0.6416155226
 40
0.6622154344
 40
0.6824508093
 40
0.7022826579
 40
0.7216730986
 40
0.7405854932
 40
0.7589845819
 40
0.7768366221
 40
0.7941095436
 40
0.8107731184
 40
0.8267991554
 40
0.8421617297
 40
0.8568374329
 40
0.8708056792
 40
0.8840490852
 40
0.8903947781
 40
0.8965544824
 40
0.9025271337
 40
0.9083120399
 40
0.9139088226
 40
0.9193174869
 40
0.9245384922
 40
0.9295727136
 40
0.9344216122
 40
0.9390871891
 40
0.9435721277
 40
0.9478798675
 40
0.9520146497
 40
0.9559817204
 40
0.9597873428
 40
0.9634390139
 40
0.9669455569
 40
0.9703172437
 40
0.9735659668
 40
0.9767052503
 40
0.9797503549
 40
0.9827181855
 40
0.9856271657
 40
0.9884969901
 40
0.9913482383
 40
0.9942019371
 40
0.997079052
 40
1.0
 40
1.0
 40
1.0
 40
1.0
 10
11.035842114
 20
10.6900443983
 30
0.0
 10
11.0370099342
 20
10.6911724261
 30
0.0
 10
11.039449257
 20
10.693420275
 30
0.0
 10
11.0433270091
 20
10.6967012233
 30
0.0
 10
11.0474956825
 20
10.6999579677
 30
0.0
 10
11.0519528756
 20
10.7031886592
 30
0.0
 10
11.0566962852
 20
10.7063917373
 30
0.0
 10
11.0617234941
 20
10.7095655434
 30
0.0
 10
11.0670318559
 20
10.7127085098
 30
0.0
 10
11.0726186068
 20
10.7158189192
 30
0.0
 10
11.0784807911
 20
10.7188951754
 30
0.0
 10
11.084615327
 20
10.7219356571
 30
0.0
 10
11.0910190056
 20
10.7249387624
 30
0.0
 10
11.1000479158
 20
10.7289514706
 30
0.0
 10
11.1119926345
 20
10.7338505002
 30
0.0
 10
11.1271347629
 20
10.7394704763
 30
0.0
 10
11.1432618793
 20
10.7449047627
 30
0.0
 10
11.1603398819
 20
10.7501417698
 30
0.0
 10
11.1783328447
 20
10.755170309
 30
0.0
 10
11.1972027464
 20
10.7599796186
 30
0.0
 10
11.2169096665
 20
10.7645594082
 30
0.0
 10
11.2374118556
 20
10.7688998759
 30
0.0
 10
11.2586658462
 20
10.772991731
 30
0.0
 10
11.2806265505
 20
10.7768262151
 30
0.0
 10
11.3032473599
 20
10.7803951207
 30
0.0
 10
11.3264802446
 20
10.7836908098
 30
0.0
 10
11.3502758575
 20
10.7867062378
 30
0.0
 10
11.3745836456
 20
10.7894349581
 30
0.0
 10
11.3993519616
 20
10.7918711375
 30
0.0
 10
11.4245281735
 20
10.7940095675
 30
0.0
 10
11.4500587806
 20
10.7958456766
 30
0.0
 10
11.4758895067
 20
10.797375534
 30
0.0
 10
11.5019654939
 20
10.7985959038
 30
0.0
 10
11.5370576923
 20
10.7998092591
 30
0.0
 10
11.5811280374
 20
10.8005346158
 30
0.0
 10
11.6339899123
 20
10.8001465109
 30
0.0
 10
11.6778830255
 20
10.7987741369
 30
0.0
 10
11.7126948323
 20
10.7970442475
 30
0.0
 10
11.7384600764
 20
10.7954421848
 30
0.0
 10
11.7639123594
 20
10.7935347624
 30
0.0
 10
11.7889976329
 20
10.7913260287
 30
0.0
 10
11.8136625755
 20
10.7888207136
 30
0.0
 10
11.8378547794
 20
10.78602417
 30
0.0
 10
11.8615228415
 20
10.7829423764
 30
0.0
 10
11.8846164823
 20
10.7795819187
 30
0.0
 10
11.9070866556
 20
10.775949986
 30
0.0
 10
11.9288856574
 20
10.7720543517
 30
0.0
 10
11.9499672262
 20
10.767903353
 30
0.0
 10
11.9702866438
 20
10.7635058743
 30
0.0
 10
11.9898008343
 20
10.7588713278
 30
0.0
 10
12.0084684737
 20
10.7540096304
 30
0.0
 10
12.0262500663
 20
10.7489311908
 30
0.0
 10
12.0431081281
 20
10.7436468723
 30
0.0
 10
12.0590069653
 20
10.7381679587
 30
0.0
 10
12.071602117
 20
10.7333841544
 30
0.0
 10
12.0811644373
 20
10.7294595663
 30
0.0
 10
12.0879734785
 20
10.7265167477
 30
0.0
 10
12.0945186043
 20
10.7235341217
 30
0.0
 10
12.1007963822
 20
10.7205132829
 30
0.0
 10
12.1068034986
 20
10.7174558188
 30
0.0
 10
12.1125367835
 20
10.7143633165
 30
0.0
 10
12.117993246
 20
10.7112374511
 30
0.0
 10
12.1231699948
 20
10.7080797871
 30
0.0
 10
12.128064349
 20
10.7048920291
 30
0.0
 10
12.1326737342
 20
10.7016757827
 30
0.0
 10
12.136995742
 20
10.6984326946
 30
0.0
 10
12.1410281431
 20
10.6951644433
 30
0.0
 10
12.144768782
 20
10.6918725956
 30
0.0
 10
12.1482157484
 20
10.6885588477
 30
0.0
 10
12.1513671638
 20
10.6852247452
 30
0.0
 10
12.1542213394
 20
10.681871908
 30
0.0
 10
12.1567766953
 20
10.6785019269
 30
0.0
 10
12.1590316641
 20
10.6751163349
 30
0.0
 10
12.1609849099
 20
10.6717167944
 30
0.0
 10
12.1626349838
 20
10.6683048909
 30
0.0
 10
12.1639806769
 20
10.6648824039
 30
0.0
 10
12.1650207998
 20
10.6614511851
 30
0.0
 10
12.1657542817
 20
10.6580132613
 30
0.0
 10
12.1661804275
 20
10.6545708492
 30
0.0
 10
12.1662986103
 20
10.6511263033
 30
0.0
 10
12.1661087875
 20
10.6476819817
 30
0.0
 10
12.1656112007
 20
10.6442405953
 30
0.0
 10
12.1650796846
 20
10.6419713106
 30
0.0
 10
12.1647655102
 20
10.6408416838
 30
0.0
  0
SPLINE
  5
393
100
AcDbEntity
  8
0
100
AcDbSpline
 62
7
  6
CONTINUOUS
 70
0
 71
3
 72
56
 73
52
 74
0
 42
0.0000001
 43
0.0000001
 44
0.0000000001
 40
0.0
 40
0.0
 40
0.0
 40
0.0
 40
0.0092961617
 40
0.0191074885
 40
0.0294340655
 40
0.0402733977
 40
0.0516208819
 40
0.0634700317
 40
0.0758126618
 40
0.0886391625
 40
0.1019385532
 40
0.1156986484
 40
0.1299062043
 40
0.1445469157
 40
0.159605583
 40
0.1750661595
 40
0.1909117668
 40
0.2071248361
 40
0.2405789972
 40
0.275275941
 40
0.3110536051
 40
0.3477426819
 40
0.3851678976
 40
0.4231492325
 40
0.4615031306
 40
0.5000436949
 40
0.5385838573
 40
0.5769365508
 40
0.6149158868
 40
0.6523383255
 40
0.68902386
 40
0.7247972371
 40
0.7594891831
 40
0.7763789747
 40
0.7929383194
 40
0.8091483031
 40
0.8249906831
 40
0.8404478763
 40
0.8555030178
 40
0.8701400793
 40
0.8843438441
 40
0.8981000397
 40
0.9113954244
 40
0.9242178047
 40
0.9365562418
 40
0.9484011161
 40
0.9597442544
 40
0.9705792067
 40
0.9809013604
 40
0.9907082625
 40
1.0
 40
1.0
 40
1.0
 40
1.0
 10
11.0992259665
 20
10.574566898
 30
0.0
 10
11.1019177453
 20
10.5761416727
 30
0.0
 10
11.1075214417
 20
10.5792582647
 30
0.0
 10
11.1163283091
 20
10.5837280488
 30
0.0
 10
11.1257518791
 20
10.5881129835
 30
0.0
 10
11.1357798949
 20
10.5924073749
 30
0.0
 10
11.146399583
 20
10.596605684
 30
0.0
 10
11.1575972736
 20
10.6007024465
 30
0.0
 10
11.1693585303
 20
10.6046923724
 30
0.0
 10
11.1816681702
 20
10.6085702239
 30
0.0
 10
11.1945102656
 20
10.6123309576
 30
0.0
 10
11.2078681815
 20
10.6159696783
 30
0.0
 10
11.2217246075
 20
10.6194815977
 30
0.0
 10
11.2360615615
 20
10.6228621591
 30
0.0
 10
11.2508604356
 20
10.6261069393
 30
0.0
 10
11.2661020086
 20
10.6292116709
 30
0.0
 10
11.2817664967
 20
10.6321723619
 30
0.0
 10
11.3034154595
 20
10.6359621624
 30
0.0
 10
11.3313864157
 20
10.6402972716
 30
0.0
 10
11.3659603425
 20
10.6448161179
 30
0.0
 10
11.4017051422
 20
10.6486805128
 30
0.0
 10
11.4384350042
 20
10.6518701399
 30
0.0
 10
11.475959172
 20
10.6543681804
 30
0.0
 10
11.5140826321
 20
10.6561614905
 30
0.0
 10
11.5526072359
 20
10.6572406434
 30
0.0
 10
11.5913327215
 20
10.6575999625
 30
0.0
 10
11.6300577746
 20
10.6572375481
 30
0.0
 10
11.6685810813
 20
10.6561553102
 30
0.0
 10
11.7067023924
 20
10.6543589487
 30
0.0
 10
11.744223554
 20
10.6518579093
 30
0.0
 10
11.780949628
 20
10.6486653564
 30
0.0
 10
11.8166896558
 20
10.6447980677
 30
0.0
 10
11.8457500657
 20
10.6409970799
 30
0.0
 10
11.8683596365
 20
10.6376239526
 30
0.0
 10
11.884805144
 20
10.6349615408
 30
0.0
 10
11.9008687911
 20
10.6321475372
 30
0.0
 10
11.9165297215
 20
10.6291856194
 30
0.0
 10
11.9317675785
 20
10.6260796595
 30
0.0
 10
11.946562565
 20
10.622833692
 30
0.0
 10
11.9608954713
 20
10.6194519922
 30
0.0
 10
11.9747476896
 20
10.615938955
 30
0.0
 10
11.9881012487
 20
10.6122991684
 30
0.0
 10
12.0009388422
 20
10.6085374143
 30
0.0
 10
12.013243836
 20
10.6046585669
 30
0.0
 10
12.0250003179
 20
10.6006677094
 30
0.0
 10
12.036193105
 20
10.5965700524
 30
0.0
 10
12.0468077651
 20
10.5923708853
 30
0.0
 10
12.0568306465
 20
10.5880757058
 30
0.0
 10
12.0662489695
 20
10.5836900083
 30
0.0
 10
12.0750504872
 20
10.5792195173
 30
0.0
 10
12.080650526
 20
10.5761024509
 30
0.0
 10
12.0833404497
 20
10.5745274451
 30
0.0
  0
SPLINE
  5
394
100
AcDbEntity
  8
0
100
AcDbSpline
 62
7
  6
CONTINUOUS
 70
0
 71
3
 72
45
 73
41
 74
0
 42
0.0000001
 43
0.0000001
 44
0.0000000001
 40
0.0
 40
0.0
 40
0.0
 40
0.0
 40
0.0112386595
 40
0.0228602947
 40
0.0348585833
 40
0.0472264088
 40
0.0599560801
 40
0.0730392158
 40
0.100229182
 40
0.1287196922
 40
0.1584260137
 40
0.1892569326
 40
0.2211155262
 40
0.253899853
 40
0.2875035892
 40
0.3218166259
 40
0.3567256414
 40
0.3921146548
 40
0.4278655687
 40
0.4638587037
 40
0.4999733275
 40
0.5360881818
 40
0.5720820071
 40
0.6078340684
 40
0.6432246811
 40
0.6781357408
 40
0.7124512577
 40
0.7460578989
 40
0.7788455422
 40
0.8107078482
 40
0.8415428579
 40
0.871253628
 40
0.8997489216
 40
0.9269439799
 40
0.9400297788
 40
0.9527621574
 40
0.9651327737
 40
0.9771338863
 40
0.9887584204
 40
1.0
 40
1.0
 40
1.0
 40
1.0
 10
11.1893890588
 20
10.5451166444
 30
0.0
 10
11.1922508638
 20
10.5461749922
 30
0.0
 10
11.1980948629
 20
10.5482663507
 30
0.0
 10
11.2070659474
 20
10.5512821588
 30
0.0
 10
11.2163825776
 20
10.5542270878
 30
0.0
 10
11.2260363389
 20
10.5570985185
 30
0.0
 10
11.2360186053
 20
10.559893835
 30
0.0
 10
11.2499333394
 20
10.5635632194
 30
0.0
 10
11.2680873688
 20
10.5679287277
 30
0.0
 10
11.2907625313
 20
10.572760939
 30
0.0
 10
11.3145177363
 20
10.5772340422
 30
0.0
 10
11.3392676421
 20
10.5813317985
 30
0.0
 10
11.3649234772
 20
10.5850392976
 30
0.0
 10
11.3913930922
 20
10.5883430681
 30
0.0
 10
11.4185813866
 20
10.5912311085
 30
0.0
 10
11.4463906384
 20
10.5936929331
 30
0.0
 10
11.4747208696
 20
10.5957196072
 30
0.0
 10
11.5034702106
 20
10.5973037776
 30
0.0
 10
11.5325352711
 20
10.5984396983
 30
0.0
 10
11.5618115164
 20
10.5991232498
 30
0.0
 10
11.5911936463
 20
10.5993519536
 30
0.0
 10
11.6205759771
 20
10.5991249804
 30
0.0
 10
11.6498528242
 20
10.5984431532
 30
0.0
 10
11.6789188853
 20
10.5973089443
 30
0.0
 10
11.707669622
 20
10.5957264669
 30
0.0
 10
11.7360016392
 20
10.593701461
 30
0.0
 10
11.7638130604
 20
10.5912412736
 30
0.0
 10
11.7910039001
 20
10.5883548336
 30
0.0
 10
11.8174764269
 20
10.5850526207
 30
0.0
 10
11.8431355297
 20
10.5813466309
 30
0.0
 10
11.8678890473
 20
10.5772503302
 30
0.0
 10
11.8916481946
 20
10.5727786224
 30
0.0
 10
11.9143276166
 20
10.5679477454
 30
0.0
 10
11.9324854048
 20
10.5635833161
 30
0.0
 10
11.9464033011
 20
10.5599147845
 30
0.0
 10
11.9563880289
 20
10.557120042
 30
0.0
 10
11.9660443207
 20
10.5542491953
 30
0.0
 10
11.9753635428
 20
10.5513047989
 30
0.0
 10
11.9843372856
 20
10.5482895357
 30
0.0
 10
11.9901830864
 20
10.5461985242
 30
0.0
 10
11.9930458018
 20
10.5451403528
 30
0.0
  0
SPLINE
  5
395
100
AcDbEntity
  8
0
100
AcDbSpline
 62
7
  6
CONTINUOUS
 70
0
 71
3
 72
23
 73
19
 74
0
 42
0.0000001
 43
0.0000001
 44
0.0000000001
 40
0.0
 40
0.0
 40
0.0
 40
0.0
 40
0.0567843262
 40
0.1127381067
 40
0.1682228919
 40
0.2236103895
 40
0.2792743496
 40
0.3355826419
 40
0.3928895336
 40
0.4515294899
 40
0.5118127254
 40
0.5740211067
 40
0.6384082516
 40
0.7052000514
 40
0.7745955472
 40
0.8467685079
 40
0.9218633744
 40
1.0
 40
1.0
 40
1.0
 40
1.0
 10
12.8997341651
 20
7.7226187575
 30
0.0
 10
12.900718074
 20
7.7222708905
 30
0.0
 10
12.9026996714
 20
7.721656753
 30
0.0
 10
12.9057213328
 20
7.7209866934
 30
0.0
 10
12.9087635234
 20
7.7205767613
 30
0.0
 10
12.9118242055
 20
7.7204273801
 30
0.0
 10
12.9149016176
 20
7.720538501
 30
0.0
 10
12.9179939413
 20
7.7209100404
 30
0.0
 10
12.9210994624
 20
7.7215415061
 30
0.0
 10
12.9242165814
 20
7.7224322783
 30
0.0
 10
12.9273437591
 20
7.723581698
 30
0.0
 10
12.9304796147
 20
7.7249888167
 30
0.0
 10
12.9336227931
 20
7.7266527729
 30
0.0
 10
12.9367720065
 20
7.7285726499
 30
0.0
 10
12.9399260598
 20
7.7307474202
 30
0.0
 10
12.9430836289
 20
7.7331760909
 30
0.0
 10
12.94624329
 20
7.7358572791
 30
0.0
 10
12.9483083962
 20
7.7377733913
 30
0.0
 10
12.9493412535
 20
7.7387710549
 30
0.0
  0
SPLINE
  5
396
100
AcDbEntity
  8
0
100
AcDbSpline
 62
7
  6
CONTINUOUS
 70
0
 71
3
 72
15
 73
11
 74
0
 42
0.0000001
 43
0.0000001
 44
0.0000000001
 40
0.0
 40
0.0
 40
0.0
 40
0.0
 40
0.1087222912
 40
0.2209327146
 40
0.3373090431
 40
0.4584489553
 40
0.5848742685
 40
0.7170350236
 40
0.8553094544
 40
1.0
 40
1.0
 40
1.0
 40
1.0
 10
12.9090830502
 20
7.4904064836
 30
0.0
 10
12.9107619792
 20
7.4907974142
 30
0.0
 10
12.9141393559
 20
7.4917466352
 30
0.0
 10
12.9191531057
 20
7.4936241595
 30
0.0
 10
12.9241820545
 20
7.4959730578
 30
0.0
 10
12.9292229583
 20
7.4987910863
 30
0.0
 10
12.9342733716
 20
7.5020762149
 30
0.0
 10
12.939330799
 20
7.5058262046
 30
0.0
 10
12.9443923471
 20
7.5100384898
 30
0.0
 10
12.9476911868
 20
7.5130824078
 30
0.0
 10
12.9493412535
 20
7.5146762499
 30
0.0
  0
SPLINE
  5
397
100
AcDbEntity
  8
0
100
AcDbSpline
 62
7
  6
CONTINUOUS
 70
0
 71
3
 72
39
 73
35
 74
0
 42
0.0000001
 43
0.0000001
 44
0.0000000001
 40
0.0
 40
0.0
 40
0.0
 40
0.0
 40
0.0234867841
 40
0.0483804227
 40
0.0746204217
 40
0.1021386032
 40
0.1308600524
 40
0.1607039038
 40
0.191584016
 40
0.2234095717
 40
0.2560856243
 40
0.289513609
 40
0.3235918285
 40
0.3582159213
 40
0.3932793189
 40
0.428673694
 40
0.4642894042
 40
0.5000159323
 40
0.5357423241
 40
0.5713576264
 40
0.6067513232
 40
0.641813775
 40
0.6764366582
 40
0.7105134088
 40
0.7439396716
 40
0.7766137561
 40
0.808437106
 40
0.839314784
 40
0.8691559836
 40
0.8978745756
 40
0.9253897082
 40
0.9516264823
 40
0.9765167375
 40
1.0
 40
1.0
 40
1.0
 40
1.0
 10
12.8711703537
 20
8.6910841535
 30
0.0
 10
12.8726921524
 20
8.6850897777
 30
0.0
 10
12.8756022427
 20
8.6726841918
 30
0.0
 10
12.8794906148
 20
8.653421068
 30
0.0
 10
12.8830193607
 20
8.633010805
 30
0.0
 10
12.8861765073
 20
8.6115208821
 30
0.0
 10
12.8889514115
 20
8.589022025
 30
0.0
 10
12.8913346974
 20
8.5655885199
 30
0.0
 10
12.8933183169
 20
8.5412977762
 30
0.0
 10
12.8948955661
 20
8.5162301005
 30
0.0
 10
12.8960611083
 20
8.4904684055
 30
0.0
 10
12.8968109885
 20
8.46409793
 30
0.0
 10
12.8971426451
 20
8.4372059488
 30
0.0
 10
12.8970549162
 20
8.4098814787
 30
0.0
 10
12.896548042
 20
8.3822149805
 30
0.0
 10
12.8956236632
 20
8.3542980553
 30
0.0
 10
12.8942848144
 20
8.3262231392
 30
0.0
 10
12.8925359136
 20
8.2980831948
 30
0.0
 10
12.8903827466
 20
8.2699714011
 30
0.0
 10
12.8878324483
 20
8.2419808435
 30
0.0
 10
12.8848934786
 20
8.214204203
 30
0.0
 10
12.8815755945
 20
8.1867334476
 30
0.0
 10
12.8778898185
 20
8.1596595254
 30
0.0
 10
12.8738484023
 20
8.1330720604
 30
0.0
 10
12.8694647874
 20
8.107059053
 30
0.0
 10
12.8647535607
 20
8.0817065836
 30
0.0
 10
12.8597304081
 20
8.0570985235
 30
0.0
 10
12.8544120627
 20
8.0333162484
 30
0.0
 10
12.8488162518
 20
8.0104383638
 30
0.0
 10
12.8429616339
 20
7.9885404192
 30
0.0
 10
12.8368677518
 20
7.967694687
 30
0.0
 10
12.8305549102
 20
7.947969738
 30
0.0
 10
12.8240442881
 20
7.9294307415
 30
0.0
 10
12.8194493139
 20
7.9175476823
 30
0.0
 10
12.8171144953
 20
7.9118218142
 30
0.0
  0
SPLINE
  5
398
100
AcDbEntity
  8
0
100
AcDbSpline
 62
7
  6
CONTINUOUS
 70
0
 71
3
 72
22
 73
18
 74
0
 42
0.0000001
 43
0.0000001
 44
0.0000000001
 40
0.0
 40
0.0
 40
0.0
 40
0.0
 40
0.0766716332
 40
0.1505265547
 40
0.2216871549
 40
0.2902987797
 40
0.4205289566
 40
0.4826204715
 40
0.5429928837
 40
0.6019134162
 40
0.6596729545
 40
0.7165820498
 40
0.772966776
 40
0.8291632865
 40
0.8855113454
 40
0.9423478014
 40
1.0
 40
1.0
 40
1.0
 40
1.0
 10
11.035842114
 20
10.6900443983
 30
0.0
 10
11.0348269659
 20
10.6890638405
 30
0.0
 10
11.0328729901
 20
10.6870977016
 30
0.0
 10
11.0301281725
 20
10.6840760268
 30
0.0
 10
11.0276266985
 20
10.681039256
 30
0.0
 10
11.0246697977
 20
10.6770424816
 30
0.0
 10
11.022133621
 20
10.6729469697
 30
0.0
 10
11.0200801253
 20
10.6687698953
 30
0.0
 10
11.0188128626
 20
10.6656777283
 30
0.0
 10
11.0177952638
 20
10.6625783805
 30
0.0
 10
11.0170279086
 20
10.6594732074
 30
0.0
 10
11.0165114238
 20
10.6563637682
 30
0.0
 10
11.0162462983
 20
10.653251674
 30
0.0
 10
11.0162326618
 20
10.6501386434
 30
0.0
 10
11.0164706243
 20
10.6470263298
 30
0.0
 10
11.0169599025
 20
10.6439166621
 30
0.0
 10
11.0174490916
 20
10.6418641926
 30
0.0
 10
11.0177334619
 20
10.6408417259
 30
0.0
  0
SPLINE
  5
399
100
AcDbEntity
  8
0
100
AcDbSpline
 62
7
  6
CONTINUOUS
 70
0
 71
3
 72
55
 73
51
 74
0
 42
0.0000001
 43
0.0000001
 44
0.0000000001
 40
0.0
 40
0.0
 40
0.0
 40
0.0
 40
0.0094771115
 40
0.0194618953
 40
0.0299524324
 40
0.0409447741
 40
0.0524330734
 40
0.0644099317
 40
0.0768665142
 40
0.0897926677
 40
0.1031771436
 40
0.117007571
 40
0.1312706463
 40
0.1459521803
 40
0.1610371159
 40
0.1765096902
 40
0.1923533816
 40
0.2085510292
 40
0.2419359913
 40
0.2765164329
 40
0.3121357724
 40
0.3486308524
 40
0.3858330913
 40
0.4235695932
 40
0.4616642368
 40
0.4999387627
 40
0.5382138428
 40
0.5763101437
 40
0.6140493946
 40
0.6512554636
 40
0.6877554319
 40
0.7233806828
 40
0.7579680151
 40
0.791360811
 40
0.8075627284
 40
0.8234108848
 40
0.838888139
 40
0.8539779635
 40
0.8686645544
 40
0.8829328946
 40
0.896768736
 40
0.9101587867
 40
0.9230906789
 40
0.9355531035
 40
0.9475359502
 40
0.9590303211
 40
0.9700288131
 40
0.9805255864
 40
0.9905166045
 40
1.0
 40
1.0
 40
1.0
 40
1.0
 10
12.9067793363
 20
8.7852837525
 30
0.0
 10
12.9080585065
 20
8.7824185302
 30
0.0
 10
12.9105707482
 20
8.7764829365
 30
0.0
 10
12.9141228886
 20
8.7672221883
 30
0.0
 10
12.9175529844
 20
8.7573826967
 30
0.0
 10
12.9208566323
 20
8.746976734
 30
0.0
 10
12.924029784
 20
8.7360171013
 30
0.0
 10
12.9270684323
 20
8.724517375
 30
0.0
 10
12.9299687543
 20
8.7124918154
 30
0.0
 10
12.932727142
 20
8.6999553688
 30
0.0
 10
12.9353400767
 20
8.6869236278
 30
0.0
 10
12.9378043071
 20
8.673412824
 30
0.0
 10
12.9401167206
 20
8.6594397946
 30
0.0
 10
12.9422743855
 20
8.6450219637
 30
0.0
 10
12.9442746254
 20
8.6301773173
 30
0.0
 10
12.946114874
 20
8.6149243871
 30
0.0
 10
12.9477928661
 20
8.5992821946
 30
0.0
 10
12.9498314369
 20
8.5777157122
 30
0.0
 10
12.951946217
 20
8.5499275537
 30
0.0
 10
12.9537841179
 20
8.5156781589
 30
0.0
 10
12.9549373524
 20
8.4803686765
 30
0.0
 10
12.9553999643
 20
8.4441754716
 30
0.0
 10
12.9551694281
 20
8.4072791705
 30
0.0
 10
12.9542467481
 20
8.3698640131
 30
0.0
 10
12.9526364373
 20
8.3321168435
 30
0.0
 10
12.9503464828
 20
8.2942261848
 30
0.0
 10
12.9473883022
 20
8.2563812812
 30
0.0
 10
12.9437766838
 20
8.2187711467
 30
0.0
 10
12.9395297205
 20
8.1815836119
 30
0.0
 10
12.9346687267
 20
8.1450043683
 30
0.0
 10
12.9292181161
 20
8.1092160525
 30
0.0
 10
12.9232053004
 20
8.0743972453
 30
0.0
 10
12.9166605042
 20
8.0407218358
 30
0.0
 10
12.9107327263
 20
8.0134846198
 30
0.0
 10
12.9057386694
 20
7.9923998856
 30
0.0
 10
12.9019188856
 20
7.9771341445
 30
0.0
 10
12.8979920808
 20
7.9622761037
 30
0.0
 10
12.8939631251
 20
7.9478442957
 30
0.0
 10
12.8898370744
 20
7.9338567327
 30
0.0
 10
12.8856191272
 20
7.9203308571
 30
0.0
 10
12.8813145279
 20
7.9072835391
 30
0.0
 10
12.876928712
 20
7.8947310277
 30
0.0
 10
12.8724671586
 20
7.8826889529
 30
0.0
 10
12.8679354422
 20
7.8711722945
 30
0.0
 10
12.8633392766
 20
7.8601953483
 30
0.0
 10
12.8586843551
 20
7.849771734
 30
0.0
 10
12.853976532
 20
7.8399143522
 30
0.0
 10
12.8492216319
 20
7.8306353139
 30
0.0
 10
12.8444256154
 20
7.8219462095
 30
0.0
 10
12.8411184468
 20
7.8164091822
 30
0.0
 10
12.8394561561
 20
7.8137454206
 30
0.0
  0
SPLINE
  5
39A
100
AcDbEntity
  8
0
100
AcDbSpline
 62
7
  6
CONTINUOUS
 70
0
 71
3
 72
86
 73
82
 74
0
 42
0.0000001
 43
0.0000001
 44
0.0000000001
 40
0.0
 40
0.0
 40
0.0
 40
0.0
 40
0.002823999
 40
0.005604853
 40
0.0083637074
 40
0.011122251
 40
0.0139021855
 40
0.0167246682
 40
0.019609848
 40
0.0225764513
 40
0.0288164663
 40
0.0321226597
 40
0.0355678962
 40
0.0391622591
 40
0.04291436
 40
0.0468314608
 40
0.0509195859
 40
0.0551837484
 40
0.0596279621
 40
0.06425545
 40
0.0690687007
 40
0.0740695235
 40
0.0792592131
 40
0.0846384902
 40
0.0902076631
 40
0.0959666224
 40
0.1019148585
 40
0.1080515831
 40
0.1143756369
 40
0.1275794642
 40
0.1415125565
 40
0.1561570663
 40
0.1714920431
 40
0.1874937922
 40
0.2041361599
 40
0.2213907943
 40
0.2392273602
 40
0.2576137212
 40
0.2765161021
 40
0.2958992285
 40
0.3157264768
 40
0.3359600087
 40
0.3565608945
 40
0.3774892312
 40
0.398704254
 40
0.420164457
 40
0.4418277097
 40
0.4855916302
 40
0.5296513814
 40
0.5736585801
 40
0.617265368
 40
0.638811298
 40
0.6601287132
 40
0.6811758476
 40
0.7019116279
 40
0.7222957924
 40
0.7422890112
 40
0.761852999
 40
0.7809506362
 40
0.7995460958
 40
0.8176049858
 40
0.8350945011
 40
0.851983572
 40
0.8682430372
 40
0.8838458425
 40
0.8987672786
 40
0.9129852671
 40
0.9264806805
 40
0.9392377589
 40
0.9453358046
 40
0.9512451986
 40
0.9569651512
 40
0.9624952865
 40
0.9678355594
 40
0.9729863427
 40
0.9779484824
 40
0.9827233111
 40
0.9873128993
 40
0.9917199455
 40
0.9959476888
 40
1.0
 40
1.0
 40
1.0
 40
1.0
 10
12.9791054481
 20
8.8671142838
 30
0.0
 10
12.9802104787
 20
8.8673398462
 30
0.0
 10
12.9824240146
 20
8.8676945378
 30
0.0
 10
12.9857604893
 20
8.867927068
 30
0.0
 10
12.9890784852
 20
8.8678546296
 30
0.0
 10
12.9923752962
 20
8.8674770998
 30
0.0
 10
12.9956486224
 20
8.8667947894
 30
0.0
 10
12.9988961774
 20
8.8658085592
 30
0.0
 10
13.0021160351
 20
8.864519173
 30
0.0
 10
13.0064414353
 20
8.8623619977
 30
0.0
 10
13.0106388126
 20
8.8596123426
 30
0.0
 10
13.0146821986
 20
8.8563579819
 30
0.0
 10
13.0177384414
 20
8.8535734931
 30
0.0
 10
13.0207572981
 20
8.8504947525
 30
0.0
 10
13.0237378376
 20
8.8471231113
 30
0.0
 10
13.0266785187
 20
8.8434604278
 30
0.0
 10
13.029578044
 20
8.8395086241
 30
0.0
 10
13.0324349177
 20
8.8352697014
 30
0.0
 10
13.035247802
 20
8.8307458844
 30
0.0
 10
13.0380152549
 20
8.8259394871
 30
0.0
 10
13.0407358607
 20
8.8208529892
 30
0.0
 10
13.0434082789
 20
8.8154890425
 30
0.0
 10
13.0460310598
 20
8.8098504044
 30
0.0
 10
13.0486029064
 20
8.8039400301
 30
0.0
 10
13.0511224443
 20
8.7977609886
 30
0.0
 10
13.0535883498
 20
8.7913165054
 30
0.0
 10
13.055999365
 20
8.7846099619
 30
0.0
 10
13.0583541857
 20
8.7776448469
 30
0.0
 10
13.0614621479
 20
8.7678772918
 30
0.0
 10
13.0651861358
 20
8.7550407495
 30
0.0
 10
13.0693501456
 20
8.7388802186
 30
0.0
 10
13.0732623354
 20
8.7217827955
 30
0.0
 10
13.0769143828
 20
8.7037844068
 30
0.0
 10
13.0802984821
 20
8.6849227257
 30
0.0
 10
13.0834074144
 20
8.6652373724
 30
0.0
 10
13.0862345408
 20
8.6447697281
 30
0.0
 10
13.0887738222
 20
8.6235628568
 30
0.0
 10
13.0910198323
 20
8.6016614013
 30
0.0
 10
13.0929677671
 20
8.5791114911
 30
0.0
 10
13.0946134688
 20
8.5559606433
 30
0.0
 10
13.0959534219
 20
8.5322576559
 30
0.0
 10
13.0969847594
 20
8.5080524975
 30
0.0
 10
13.0977052684
 20
8.483396202
 30
0.0
 10
13.0981133952
 20
8.4583407586
 30
0.0
 10
13.0982082495
 20
8.4329390202
 30
0.0
 10
13.0979896399
 20
8.4072445201
 30
0.0
 10
13.0972782829
 20
8.3725510306
 30
0.0
 10
13.0956072178
 20
8.3288529972
 30
0.0
 10
13.0923845119
 20
8.276298071
 30
0.0
 10
13.0879644885
 20
8.223893241
 30
0.0
 10
13.0832963125
 20
8.18054444
 30
0.0
 10
13.078984678
 20
8.1462804918
 30
0.0
 10
13.0754907313
 20
8.1209962455
 30
0.0
 10
13.0717312565
 20
8.0960772863
 30
0.0
 10
13.0677141684
 20
8.0715761295
 30
0.0
 10
13.0634479745
 20
8.0475444504
 30
0.0
 10
13.0589417068
 20
8.0240329117
 30
0.0
 10
13.0542049066
 20
8.0010910748
 30
0.0
 10
13.0492476041
 20
7.9787672925
 30
0.0
 10
13.0440802968
 20
7.9571086053
 30
0.0
 10
13.0387139309
 20
7.9361606338
 30
0.0
 10
13.0331598852
 20
7.9159674753
 30
0.0
 10
13.0274299341
 20
7.8965716111
 30
0.0
 10
13.0215362256
 20
7.8780138176
 30
0.0
 10
13.0154912513
 20
7.8603330639
 30
0.0
 10
13.0093078191
 20
7.8435664396
 30
0.0
 10
13.0029990248
 20
7.8277489605
 30
0.0
 10
12.9965782163
 20
7.8129138161
 30
0.0
 10
12.9910657411
 20
7.8012259293
 30
0.0
 10
12.9866011653
 20
7.792400212
 30
0.0
 10
12.9832836061
 20
7.7861453173
 30
0.0
 10
12.9799481853
 20
7.780158241
 30
0.0
 10
12.9765966723
 20
7.7744420819
 30
0.0
 10
12.973230794
 20
7.7689998356
 30
0.0
 10
12.9698523011
 20
7.7638343515
 30
0.0
 10
12.9664630092
 20
7.758948301
 30
0.0
 10
12.9630645893
 20
7.7543442376
 30
0.0
 10
12.9596587977
 20
7.7500244776
 30
0.0
 10
12.9562472757
 20
7.7459912489
 30
0.0
 10
12.9528319649
 20
7.7422468455
 30
0.0
 10
12.9505052708
 20
7.7398954093
 30
0.0
 10
12.9493412535
 20
7.7387710549
 30
0.0
  0
SPLINE
  5
39B
100
AcDbEntity
  8
0
100
AcDbSpline
 62
7
  6
CONTINUOUS
 70
0
 71
3
 72
87
 73
83
 74
0
 42
0.0000001
 43
0.0000001
 44
0.0000000001
 40
0.0
 40
0.0
 40
0.0
 40
0.0
 40
0.0028146525
 40
0.0057089398
 40
0.0086973695
 40
0.0117929792
 40
0.0150072905
 40
0.0183503911
 40
0.0218310281
 40
0.0254566801
 40
0.029233742
 40
0.0331675596
 40
0.0372626129
 40
0.0415225727
 40
0.0459503921
 40
0.0505484301
 40
0.0553184421
 40
0.0602617337
 40
0.0653791319
 40
0.070671079
 40
0.0761376696
 40
0.0817786396
 40
0.0875934764
 40
0.0935813489
 40
0.1060713897
 40
0.1192381207
 40
0.1330672806
 40
0.1475418597
 40
0.1626424213
 40
0.1783473594
 40
0.1946331118
 40
0.2114743507
 40
0.228844143
 40
0.2467140908
 40
0.2650544583
 40
0.2838342864
 40
0.3030214997
 40
0.3225830145
 40
0.3424848382
 40
0.3626921638
 40
0.3831694621
 40
0.4038805711
 40
0.424788785
 40
0.445856945
 40
0.4670475277
 40
0.5096439211
 40
0.5522743934
 40
0.5735075004
 40
0.5946350593
 40
0.615619411
 40
0.6364232221
 40
0.6570095732
 40
0.6773420493
 40
0.6973848277
 40
0.7171027665
 40
0.7364614968
 40
0.7554275155
 40
0.7739682837
 40
0.7920523324
 40
0.8096493652
 40
0.8267303702
 40
0.8432677416
 40
0.8592354141
 40
0.8746090147
 40
0.8893660415
 40
0.9034860587
 40
0.9169509347
 40
0.9297451333
 40
0.9358868726
 40
0.9418565119
 40
0.9476529954
 40
0.9532755657
 40
0.9587236953
 40
0.9639971841
 40
0.9690961632
 40
0.9740210945
 40
0.978772866
 40
0.9833527728
 40
0.9877627256
 40
0.9920052031
 40
0.9960831452
 40
1.0
 40
1.0
 40
1.0
 40
1.0
 10
13.0203737788
 20
9.0958302232
 30
0.0
 10
13.0218206261
 20
9.0952750171
 30
0.0
 10
13.0247105634
 20
9.0940289786
 30
0.0
 10
13.028953939
 20
9.0918007875
 30
0.0
 10
13.0331576784
 20
9.0891920477
 30
0.0
 10
13.0373195028
 20
9.0862044638
 30
0.0
 10
13.0414378193
 20
9.0828397871
 30
0.0
 10
13.0455108979
 20
9.0790998274
 30
0.0
 10
13.0495370247
 20
9.0749864524
 30
0.0
 10
13.0535145872
 20
9.0705017363
 30
0.0
 10
13.0574418073
 20
9.0656477568
 30
0.0
 10
13.0613170624
 20
9.0604268596
 30
0.0
 10
13.0651385973
 20
9.0548414564
 30
0.0
 10
13.0689047078
 20
9.0488941628
 30
0.0
 10
13.0726137224
 20
9.0425877698
 30
0.0
 10
13.0762638728
 20
9.0359251956
 30
0.0
 10
13.079853551
 20
9.0289095923
 30
0.0
 10
13.083381014
 20
9.0215442242
 30
0.0
 10
13.0868446528
 20
9.0138325703
 30
0.0
 10
13.0902428306
 20
9.0057782587
 30
0.0
 10
13.0935739136
 20
8.9973850817
 30
0.0
 10
13.096836374
 20
8.9886570209
 30
0.0
 10
13.1000286261
 20
8.9795981772
 30
0.0
 10
13.1042487678
 20
8.9669054491
 30
0.0
 10
13.1093229978
 20
8.9502340949
 30
0.0
 10
13.1150263725
 20
8.9292521016
 30
0.0
 10
13.1204155677
 20
8.9070613689
 30
0.0
 10
13.1254802409
 20
8.8837040229
 30
0.0
 10
13.1302106354
 20
8.8592242071
 30
0.0
 10
13.1345976371
 20
8.8336683554
 30
0.0
 10
13.1386327951
 20
8.8070849837
 30
0.0
 10
13.142308333
 20
8.7795246118
 30
0.0
 10
13.1456171664
 20
8.7510396478
 30
0.0
 10
13.1485529167
 20
8.7216842838
 30
0.0
 10
13.151109922
 20
8.691514389
 30
0.0
 10
13.1532832498
 20
8.6605874025
 30
0.0
 10
13.1550687111
 20
8.6289622211
 30
0.0
 10
13.1564628605
 20
8.5966990822
 30
0.0
 10
13.1574630028
 20
8.5638594447
 30
0.0
 10
13.158067198
 20
8.5305058707
 30
0.0
 10
13.1582742634
 20
8.4967019081
 30
0.0
 10
13.1580837799
 20
8.4625119642
 30
0.0
 10
13.1574960868
 20
8.4280012029
 30
0.0
 10
13.1565123162
 20
8.3932353399
 30
0.0
 10
13.1546717632
 20
8.3465505112
 30
0.0
 10
13.1513966699
 20
8.2880448646
 30
0.0
 10
13.1468472819
 20
8.2296010269
 30
0.0
 10
13.1424483072
 20
8.1830122737
 30
0.0
 10
13.1387857821
 20
8.1483272962
 30
0.0
 10
13.134762834
 20
8.1139202613
 30
0.0
 10
13.1303871088
 20
8.07985669
 30
0.0
 10
13.1256669689
 20
8.046201503
 30
0.0
 10
13.1206114311
 20
8.0130188225
 30
0.0
 10
13.1152301564
 20
7.9803718687
 30
0.0
 10
13.1095334288
 20
7.948322835
 30
0.0
 10
13.1035321368
 20
7.9169327711
 30
0.0
 10
13.0972377531
 20
7.8862614649
 30
0.0
 10
13.090662312
 20
7.8563673244
 30
0.0
 10
13.0838183946
 20
7.8273072609
 30
0.0
 10
13.0767190968
 20
7.79913658
 30
0.0
 10
13.0693780051
 20
7.7719088758
 30
0.0
 10
13.061809171
 20
7.7456759249
 30
0.0
 10
13.0540270827
 20
7.7204875842
 30
0.0
 10
13.0460466353
 20
7.6963916768
 30
0.0
 10
13.0378831082
 20
7.6734339153
 30
0.0
 10
13.0295521178
 20
7.6516577067
 30
0.0
 10
13.0210695954
 20
7.6311044012
 30
0.0
 10
13.0137923721
 20
7.6148133123
 30
0.0
 10
13.007896996
 20
7.6024319314
 30
0.0
 10
13.0035079744
 20
7.5936022311
 30
0.0
 10
12.9990932005
 20
7.5851062328
 30
0.0
 10
12.9946548028
 20
7.5769479298
 30
0.0
 10
12.9901948502
 20
7.569131197
 30
0.0
 10
12.985715462
 20
7.5616597191
 30
0.0
 10
12.9812187694
 20
7.5545370079
 30
0.0
 10
12.9767068405
 20
7.5477664514
 30
0.0
 10
12.9721818809
 20
7.5413512092
 30
0.0
 10
12.9676459261
 20
7.5352943126
 30
0.0
 10
12.9631010792
 20
7.5295985379
 30
0.0
 10
12.9585493433
 20
7.5242665196
 30
0.0
 10
12.9539930291
 20
7.5193010036
 30
0.0
 10
12.9508923812
 20
7.5161745242
 30
0.0
 10
12.9493412535
 20
7.5146762499
 30
0.0
  0
SPLINE
  5
39C
100
AcDbEntity
  8
0
100
AcDbSpline
 62
7
  6
CONTINUOUS
 70
0
 71
3
 72
92
 73
88
 74
0
 42
0.0000001
 43
0.0000001
 44
0.0000000001
 40
0.0
 40
0.0
 40
0.0
 40
0.0
 40
0.0027164136
 40
0.0054531999
 40
0.0082302488
 40
0.0110665156
 40
0.0139797
 40
0.0169859759
 40
0.0200999097
 40
0.0233343921
 40
0.0267007085
 40
0.030208627
 40
0.0338664962
 40
0.0376814269
 40
0.0416593531
 40
0.0458052407
 40
0.0501231229
 40
0.0546162682
 40
0.0592872359
 40
0.0641379574
 40
0.0691698402
 40
0.0743837612
 40
0.0797802065
 40
0.0853592201
 40
0.0911205286
 40
0.0970635116
 40
0.1031872593
 40
0.1094906055
 40
0.1226297411
 40
0.1364672907
 40
0.1509859854
 40
0.1661657644
 40
0.1819840906
 40
0.1984162077
 40
0.2154353587
 40
0.2330129748
 40
0.2511188396
 40
0.2697212359
 40
0.2887870798
 40
0.3082820459
 40
0.3281706839
 40
0.3484165301
 40
0.3689822167
 40
0.3898295783
 40
0.4109197545
 40
0.4322132911
 40
0.4536702402
 40
0.4752502592
 40
0.4969127091
 40
0.5186167533
 40
0.5403214559
 40
0.56198588
 40
0.5835691848
 40
0.6050307242
 40
0.626330144
 40
0.6474274812
 40
0.6682832628
 40
0.6888586082
 40
0.7091153287
 40
0.729016031
 40
0.7485242218
 40
0.7676044158
 40
0.7862222477
 40
0.8043445896
 40
0.8219396778
 40
0.8389772466
 40
0.8554286739
 40
0.871267144
 40
0.8864678337
 40
0.9010081287
 40
0.9148678812
 40
0.9215371855
 40
0.928030107
 40
0.9343449535
 40
0.9404803007
 40
0.946434946
 40
0.9522079623
 40
0.9577987256
 40
0.9632069066
 40
0.9684325773
 40
0.9734761504
 40
0.9783385002
 40
0.9830209469
 40
0.987525443
 40
0.9918546017
 40
0.9960115601
 40
1.0
 40
1.0
 40
1.0
 40
1.0
 10
13.0360819962
 20
9.0971012261
 30
0.0
 10
13.0375881632
 20
9.0969967796
 30
0.0
 10
13.0406040817
 20
9.0966507928
 30
0.0
 10
13.0450895733
 20
9.0957249277
 30
0.0
 10
13.0495411466
 20
9.0943922581
 30
0.0
 10
13.053955679
 20
9.0926542028
 30
0.0
 10
13.0583308206
 20
9.0905121542
 30
0.0
 10
13.0626644039
 20
9.087967934
 30
0.0
 10
13.0669543658
 20
9.0850232415
 30
0.0
 10
13.0711988426
 20
9.0816800112
 30
0.0
 10
13.0753959896
 20
9.0779401732
 30
0.0
 10
13.0795439724
 20
9.0738057545
 30
0.0
 10
13.083641037
 20
9.0692789558
 30
0.0
 10
13.0876852855
 20
9.0643620137
 30
0.0
 10
13.0916749759
 20
9.0590574407
 30
0.0
 10
13.0956081812
 20
9.0533678044
 30
0.0
 10
13.0994831211
 20
9.0472959457
 30
0.0
 10
13.1032979106
 20
9.0408448309
 30
0.0
 10
13.1070507144
 20
9.0340176435
 30
0.0
 10
13.1107397323
 20
9.026817762
 30
0.0
 10
13.1143630979
 20
9.0192487297
 30
0.0
 10
13.1179190937
 20
9.0113143218
 30
0.0
 10
13.1214058769
 20
9.0030184572
 30
0.0
 10
13.1248217792
 20
8.9943652838
 30
0.0
 10
13.1281650444
 20
8.9853591014
 30
0.0
 10
13.1314340153
 20
8.9760044158
 30
0.0
 10
13.1346270843
 20
8.9663058869
 30
0.0
 10
13.1388394247
 20
8.9527342674
 30
0.0
 10
13.1438886773
 20
8.9349363665
 30
0.0
 10
13.1495396638
 20
8.9125733736
 30
0.0
 10
13.1548518451
 20
8.888963723
 30
0.0
 10
13.1598144422
 20
8.8641547431
 30
0.0
 10
13.1644173547
 20
8.8381959788
 30
0.0
 10
13.1686512169
 20
8.811139434
 30
0.0
 10
13.1725074121
 20
8.7830393486
 30
0.0
 10
13.1759780912
 20
8.7539521055
 30
0.0
 10
13.1790561897
 20
8.7239361004
 30
0.0
 10
13.181735441
 20
8.6930516197
 30
0.0
 10
13.1840103892
 20
8.6613607143
 30
0.0
 10
13.1858763992
 20
8.628927072
 30
0.0
 10
13.1873296648
 20
8.5958158869
 30
0.0
 10
13.1883672195
 20
8.5620937266
 30
0.0
 10
13.1889869392
 20
8.5278283957
 30
0.0
 10
13.1891875455
 20
8.4930887968
 30
0.0
 10
13.1889686077
 20
8.4579447903
 30
0.0
 10
13.1883305435
 20
8.4224670534
 30
0.0
 10
13.1872746177
 20
8.3867269375
 30
0.0
 10
13.1858029394
 20
8.3507963242
 30
0.0
 10
13.1839184576
 20
8.3147474803
 30
0.0
 10
13.1816249584
 20
8.2786529114
 30
0.0
 10
13.1789270535
 20
8.2425852151
 30
0.0
 10
13.1758301717
 20
8.2066169343
 30
0.0
 10
13.1723405475
 20
8.1708204109
 30
0.0
 10
13.1684652084
 20
8.13526764
 30
0.0
 10
13.1642119615
 20
8.1000301253
 30
0.0
 10
13.1595893774
 20
8.0651787341
 30
0.0
 10
13.1546067738
 20
8.0307835535
 30
0.0
 10
13.1492741994
 20
7.9969137474
 30
0.0
 10
13.14360241
 20
7.9636374171
 30
0.0
 10
13.1376028487
 20
7.9310214635
 30
0.0
 10
13.131287622
 20
7.8991314511
 30
0.0
 10
13.1246694768
 20
7.8680314754
 30
0.0
 10
13.1177617747
 20
7.837784031
 30
0.0
 10
13.1105784647
 20
7.8084498827
 30
0.0
 10
13.1031340574
 20
7.7800879372
 30
0.0
 10
13.0954435959
 20
7.7527551211
 30
0.0
 10
13.0875226218
 20
7.7265062545
 30
0.0
 10
13.0793871439
 20
7.7013939584
 30
0.0
 10
13.0710536021
 20
7.6774684522
 30
0.0
 10
13.0625388297
 20
7.6547777414
 30
0.0
 10
13.055215761
 20
7.6367111876
 30
0.0
 10
13.0492698388
 20
7.6229189501
 30
0.0
 10
13.0448330159
 20
7.6130440826
 30
0.0
 10
13.0403637959
 20
7.6035105949
 30
0.0
 10
13.0358644365
 20
7.5943232393
 30
0.0
 10
13.0313371824
 20
7.5854866182
 30
0.0
 10
13.0267842964
 20
7.5770051505
 30
0.0
 10
13.0222080912
 20
7.5688830574
 30
0.0
 10
13.0176107969
 20
7.5611244068
 30
0.0
 10
13.0129947677
 20
7.5537330285
 30
0.0
 10
13.0083622236
 20
7.5467126326
 30
0.0
 10
13.003715539
 20
7.5400666841
 30
0.0
 10
12.9990569595
 20
7.5337984829
 30
0.0
 10
12.9943887373
 20
7.5279110886
 30
0.0
 10
12.9897130651
 20
7.5224073467
 30
0.0
 10
12.9850324026
 20
7.5172902429
 30
0.0
 10
12.9818453094
 20
7.5140727581
 30
0.0
 10
12.9802508825
 20
7.5125326598
 30
0.0
  0
SPLINE
  5
39D
100
AcDbEntity
  8
0
100
AcDbSpline
 62
7
  6
CONTINUOUS
 70
0
 71
3
 72
42
 73
38
 74
0
 42
0.0000001
 43
0.0000001
 44
0.0000000001
 40
0.0
 40
0.0
 40
0.0
 40
0.0
 40
0.0299419634
 40
0.0449235299
 40
0.0599142017
 40
0.0899287029
 40
0.1200139772
 40
0.1350926626
 40
0.1501967046
 40
0.1804840506
 40
0.2108978877
 40
0.2414513551
 40
0.2721543675
 40
0.3030134354
 40
0.3340315696
 40
0.3652082675
 40
0.3965395775
 40
0.4280182343
 40
0.4596338596
 40
0.4913732188
 40
0.5232205284
 40
0.5551578047
 40
0.5871652463
 40
0.6192216448
 40
0.6513048151
 40
0.6833920402
 40
0.7154605222
 40
0.747487836
 40
0.7794523759
 40
0.8113337934
 40
0.8431134117
 40
0.8747746318
 40
0.9063032512
 40
0.9376879208
 40
0.9533258
 40
0.9689252634
 40
1.0
 40
1.0
 40
1.0
 40
1.0
 10
12.3666612433
 20
9.726114503
 30
0.0
 10
12.3632935389
 20
9.7228615702
 30
0.0
 10
12.35804347
 20
9.7181792842
 30
0.0
 10
12.3506908667
 20
9.7123695871
 30
0.0
 10
12.34310412
 20
9.7068489893
 30
0.0
 10
12.333204663
 20
9.7005095545
 30
0.0
 10
12.3228238884
 20
9.6949643837
 30
0.0
 10
12.3142624396
 20
9.6910195438
 30
0.0
 10
12.3055241364
 20
9.6874003564
 30
0.0
 10
12.2943132896
 20
9.6835087071
 30
0.0
 10
12.2804976203
 20
9.6798817875
 30
0.0
 10
12.266380491
 20
9.6773123942
 30
0.0
 10
12.2520401367
 20
9.6758147022
 30
0.0
 10
12.237555332
 20
9.6753967042
 30
0.0
 10
12.2230057765
 20
9.6760605275
 30
0.0
 10
12.2084714378
 20
9.6778023374
 30
0.0
 10
12.1940321757
 20
9.6806123924
 30
0.0
 10
12.1797672924
 20
9.6844750969
 30
0.0
 10
12.1657551071
 20
9.6893690943
 30
0.0
 10
12.152072531
 20
9.6952673871
 30
0.0
 10
12.1387946514
 20
9.7021374871
 30
0.0
 10
12.1259943254
 20
9.709941595
 30
0.0
 10
12.1137417854
 20
9.7186368069
 30
0.0
 10
12.1021042583
 20
9.7281753497
 30
0.0
 10
12.0911456017
 20
9.7385048408
 30
0.0
 10
12.080925957
 20
9.7495685734
 30
0.0
 10
12.0715014226
 20
9.7613058248
 30
0.0
 10
12.0629237497
 20
9.7736521869
 30
0.0
 10
12.0552400599
 20
9.7865399121
 30
0.0
 10
12.0484925889
 20
9.7998982956
 30
0.0
 10
12.0427184575
 20
9.8136540031
 30
0.0
 10
12.0379494563
 20
9.8277316724
 30
0.0
 10
12.0342119306
 20
9.8420535666
 30
0.0
 10
12.0319712009
 20
9.854142798
 30
0.0
 10
12.0307142181
 20
9.8638563489
 30
0.0
 10
12.0298171402
 20
9.8735606046
 30
0.0
 10
12.0295455137
 20
9.8808629917
 30
0.0
 10
12.0295455137
 20
9.8857223309
 30
0.0
  0
SPLINE
  5
39E
100
AcDbEntity
  8
0
100
AcDbSpline
 62
7
  6
CONTINUOUS
 70
0
 71
3
 72
42
 73
38
 74
0
 42
0.0000001
 43
0.0000001
 44
0.0000000001
 40
0.0
 40
0.0
 40
0.0
 40
0.0
 40
0.0299419634
 40
0.0449235299
 40
0.0599142017
 40
0.0899287029
 40
0.1200139772
 40
0.1350926626
 40
0.1501967046
 40
0.1804840506
 40
0.2108978877
 40
0.2414513551
 40
0.2721543675
 40
0.3030134354
 40
0.3340315696
 40
0.3652082675
 40
0.3965395775
 40
0.4280182343
 40
0.4596338596
 40
0.4913732188
 40
0.5232205284
 40
0.5551578047
 40
0.5871652463
 40
0.6192216448
 40
0.6513048151
 40
0.6833920402
 40
0.7154605222
 40
0.747487836
 40
0.7794523759
 40
0.8113337934
 40
0.8431134117
 40
0.8747746318
 40
0.9063032512
 40
0.9376879208
 40
0.9533258
 40
0.9689252634
 40
1.0
 40
1.0
 40
1.0
 40
1.0
 10
9.3491087419
 20
6.4348672669
 30
0.0
 10
9.3457410376
 20
6.4316143341
 30
0.0
 10
9.3404909687
 20
6.4269320482
 30
0.0
 10
9.3331383654
 20
6.421122351
 30
0.0
 10
9.3255516186
 20
6.4156017532
 30
0.0
 10
9.3156521616
 20
6.4092623184
 30
0.0
 10
9.305271387
 20
6.4037171477
 30
0.0
 10
9.2967099382
 20
6.3997723077
 30
0.0
 10
9.287971635
 20
6.3961531203
 30
0.0
 10
9.2767607883
 20
6.392261471
 30
0.0
 10
9.262945119
 20
6.3886345515
 30
0.0
 10
9.2488279896
 20
6.3860651582
 30
0.0
 10
9.2344876353
 20
6.3845674662
 30
0.0
 10
9.2200028306
 20
6.3841494681
 30
0.0
 10
9.2054532752
 20
6.3848132914
 30
0.0
 10
9.1909189365
 20
6.3865551013
 30
0.0
 10
9.1764796744
 20
6.3893651563
 30
0.0
 10
9.1622147911
 20
6.3932278608
 30
0.0
 10
9.1482026057
 20
6.3981218582
 30
0.0
 10
9.1345200296
 20
6.404020151
 30
0.0
 10
9.1212421501
 20
6.4108902511
 30
0.0
 10
9.1084418241
 20
6.4186943589
 30
0.0
 10
9.096189284
 20
6.4273895708
 30
0.0
 10
9.084551757
 20
6.4369281136
 30
0.0
 10
9.0735931004
 20
6.4472576047
 30
0.0
 10
9.0633734556
 20
6.4583213374
 30
0.0
 10
9.0539489213
 20
6.4700585887
 30
0.0
 10
9.0453712483
 20
6.4824049508
 30
0.0
 10
9.0376875585
 20
6.495292676
 30
0.0
 10
9.0309400876
 20
6.5086510595
 30
0.0
 10
9.0251659562
 20
6.522406767
 30
0.0
 10
9.0203969549
 20
6.5364844363
 30
0.0
 10
9.0166594293
 20
6.5508063305
 30
0.0
 10
9.0144186996
 20
6.5628955619
 30
0.0
 10
9.0131617167
 20
6.5726091128
 30
0.0
 10
9.0122646389
 20
6.5823133685
 30
0.0
 10
9.0119930124
 20
6.5896157557
 30
0.0
 10
9.0119930124
 20
6.5944750948
 30
0.0
  0
SPLINE
  5
39F
100
AcDbEntity
  8
0
100
AcDbSpline
 62
7
  6
CONTINUOUS
 70
0
 71
3
 72
21
 73
17
 74
0
 42
0.0000001
 43
0.0000001
 44
0.0000000001
 40
0.0
 40
0.0
 40
0.0
 40
0.0
 40
0.1273176984
 40
0.2537999461
 40
0.3167619614
 40
0.3795355204
 40
0.4421314992
 40
0.5045621453
 40
0.5668413456
 40
0.6289845231
 40
0.6910084433
 40
0.7529310869
 40
0.8147714401
 40
0.8765493236
 40
0.9382852134
 40
1.0
 40
1.0
 40
1.0
 40
1.0
 10
12.0295455137
 20
6.3852071181
 30
0.0
 10
12.0295455137
 20
6.3914591548
 30
0.0
 10
12.0301423124
 20
6.4039302507
 30
0.0
 10
12.0323962532
 20
6.4193472174
 30
0.0
 10
12.0350901902
 20
6.4314404777
 30
0.0
 10
12.0375469203
 20
6.4403604724
 30
0.0
 10
12.0404371163
 20
6.4491219633
 30
0.0
 10
12.0437541147
 20
6.4577050021
 30
0.0
 10
12.0474902682
 20
6.4660897377
 30
0.0
 10
12.0516370372
 20
6.4742568184
 30
0.0
 10
12.0561848286
 20
6.4821874181
 30
0.0
 10
12.0611231546
 20
6.4898632595
 30
0.0
 10
12.0664406742
 20
6.4972665811
 30
0.0
 10
12.0721251574
 20
6.5043803801
 30
0.0
 10
12.0781632426
 20
6.511188053
 30
0.0
 10
12.0824159469
 20
6.5155126877
 30
0.0
 10
12.0845956929
 20
6.5176181478
 30
0.0
  0
SPLINE
  5
3A0
100
AcDbEntity
  8
0
100
AcDbSpline
 62
7
  6
CONTINUOUS
 70
0
 71
3
 72
42
 73
38
 74
0
 42
0.0000001
 43
0.0000001
 44
0.0000000001
 40
0.0
 40
0.0
 40
0.0
 40
0.0
 40
0.0299419634
 40
0.0449235299
 40
0.0599142017
 40
0.0899287029
 40
0.1200139772
 40
0.1350926626
 40
0.1501967046
 40
0.1804840506
 40
0.2108978877
 40
0.2414513551
 40
0.2721543675
 40
0.3030134354
 40
0.3340315696
 40
0.3652082675
 40
0.3965395775
 40
0.4280182343
 40
0.4596338596
 40
0.4913732188
 40
0.5232205284
 40
0.5551578047
 40
0.5871652463
 40
0.6192216448
 40
0.6513048151
 40
0.6833920402
 40
0.7154605222
 40
0.747487836
 40
0.7794523759
 40
0.8113337934
 40
0.8431134117
 40
0.8747746318
 40
0.9063032512
 40
0.9376879208
 40
0.9533258
 40
0.9689252634
 40
1.0
 40
1.0
 40
1.0
 40
1.0
 10
12.3666612433
 20
6.2255992902
 30
0.0
 10
12.3632935389
 20
6.2223463574
 30
0.0
 10
12.35804347
 20
6.2176640714
 30
0.0
 10
12.3506908667
 20
6.2118543743
 30
0.0
 10
12.34310412
 20
6.2063337765
 30
0.0
 10
12.333204663
 20
6.1999943417
 30
0.0
 10
12.3228238884
 20
6.1944491709
 30
0.0
 10
12.3142624396
 20
6.1905043309
 30
0.0
 10
12.3055241364
 20
6.1868851435
 30
0.0
 10
12.2943132896
 20
6.1829934943
 30
0.0
 10
12.2804976203
 20
6.1793665747
 30
0.0
 10
12.266380491
 20
6.1767971814
 30
0.0
 10
12.2520401367
 20
6.1752994894
 30
0.0
 10
12.237555332
 20
6.1748814914
 30
0.0
 10
12.2230057765
 20
6.1755453146
 30
0.0
 10
12.2084714378
 20
6.1772871246
 30
0.0
 10
12.1940321757
 20
6.1800971795
 30
0.0
 10
12.1797672924
 20
6.1839598841
 30
0.0
 10
12.1657551071
 20
6.1888538815
 30
0.0
 10
12.152072531
 20
6.1947521743
 30
0.0
 10
12.1387946514
 20
6.2016222743
 30
0.0
 10
12.1259943254
 20
6.2094263821
 30
0.0
 10
12.1137417854
 20
6.2181215941
 30
0.0
 10
12.1021042583
 20
6.2276601369
 30
0.0
 10
12.0911456017
 20
6.237989628
 30
0.0
 10
12.080925957
 20
6.2490533606
 30
0.0
 10
12.0715014226
 20
6.260790612
 30
0.0
 10
12.0629237497
 20
6.2731369741
 30
0.0
 10
12.0552400599
 20
6.2860246993
 30
0.0
 10
12.0484925889
 20
6.2993830828
 30
0.0
 10
12.0427184575
 20
6.3131387903
 30
0.0
 10
12.0379494563
 20
6.3272164596
 30
0.0
 10
12.0342119306
 20
6.3415383538
 30
0.0
 10
12.0319712009
 20
6.3536275852
 30
0.0
 10
12.0307142181
 20
6.363341136
 30
0.0
 10
12.0298171402
 20
6.3730453918
 30
0.0
 10
12.0295455137
 20
6.3803477789
 30
0.0
 10
12.0295455137
 20
6.3852071181
 30
0.0
  0
SPLINE
  5
3A1
100
AcDbEntity
  8
0
100
AcDbSpline
 62
7
  6
CONTINUOUS
 70
0
 71
3
 72
40
 73
36
 74
0
 42
0.0000001
 43
0.0000001
 44
0.0000000001
 40
0.0
 40
0.0
 40
0.0
 40
0.0
 40
0.0306632392
 40
0.0614924034
 40
0.0924896307
 40
0.1236529046
 40
0.1549763602
 40
0.1864506491
 40
0.2180633368
 40
0.2339195213
 40
0.2498044308
 40
0.2816463156
 40
0.313574858
 40
0.3455693188
 40
0.377607841
 40
0.4096678083
 40
0.4417261986
 40
0.4737599372
 40
0.5057462583
 40
0.5376630796
 40
0.5694893971
 40
0.6012057013
 40
0.6327944167
 40
0.6642403618
 40
0.6955312199
 40
0.7266580049
 40
0.7576155018
 40
0.7884026542
 40
0.819022865
 40
0.8494841743
 40
0.8797992858
 40
0.9099853736
 40
0.9400638884
 40
0.9700592989
 40
1.0
 40
1.0
 40
1.0
 40
1.0
 10
11.4044255235
 20
8.0600537215
 30
0.0
 10
11.398912039
 20
8.0592106296
 30
0.0
 10
11.3877808914
 20
8.0579722989
 30
0.0
 10
11.3709483376
 20
8.0574572012
 30
0.0
 10
11.3540359141
 20
8.0582707249
 30
0.0
 10
11.3371482571
 20
8.0603971928
 30
0.0
 10
11.3203853542
 20
8.0638134734
 30
0.0
 10
11.3038453523
 20
8.0684896695
 30
0.0
 10
11.2903377476
 20
8.0734026308
 30
0.0
 10
11.2797350824
 20
8.0779229036
 30
0.0
 10
11.2692637335
 20
8.0828385685
 30
0.0
 10
11.256484862
 20
8.0896956637
 30
0.0
 10
11.2417437324
 20
8.0990028776
 30
0.0
 10
11.2276618975
 20
8.1093414177
 30
0.0
 10
11.2143169071
 20
8.1206517316
 30
0.0
 10
11.2017821825
 20
8.132870558
 30
0.0
 10
11.1901278047
 20
8.1459306128
 30
0.0
 10
11.1794202152
 20
8.15976072
 30
0.0
 10
11.1697221392
 20
8.174285775
 30
0.0
 10
11.1610923653
 20
8.1894267244
 30
0.0
 10
11.1535854687
 20
8.2051005363
 30
0.0
 10
11.1472514451
 20
8.2212201916
 30
0.0
 10
11.1421352584
 20
8.237694716
 30
0.0
 10
11.1382763116
 20
8.2544292803
 30
0.0
 10
11.1357078395
 20
8.2713253868
 30
0.0
 10
11.1344562403
 20
8.2882811689
 30
0.0
 10
11.1345403666
 20
8.3051918235
 30
0.0
 10
11.1359708022
 20
8.3219501935
 30
0.0
 10
11.1387491656
 20
8.3384475151
 30
0.0
 10
11.1428674551
 20
8.3545743192
 30
0.0
 10
11.1483075437
 20
8.3702215371
 30
0.0
 10
11.1550406635
 20
8.3852816003
 30
0.0
 10
11.1630277664
 20
8.3996501597
 30
0.0
 10
11.1722176685
 20
8.4132257234
 30
0.0
 10
11.1791128253
 20
8.4216923302
 30
0.0
 10
11.1827357156
 20
8.4257586745
 30
0.0
  0
SPLINE
  5
3A2
100
AcDbEntity
  8
0
100
AcDbSpline
 62
7
  6
CONTINUOUS
 70
0
 71
3
 72
15
 73
11
 74
0
 42
0.0000001
 43
0.0000001
 44
0.0000000001
 40
0.0
 40
0.0
 40
0.0
 40
0.0
 40
0.1233171261
 40
0.2468171865
 40
0.3706749939
 40
0.4950495802
 40
0.6200773232
 40
0.7458671315
 40
0.872492731
 40
1.0
 40
1.0
 40
1.0
 40
1.0
 10
10.0167615805
 20
9.1118911189
 30
0.0
 10
10.0142370468
 20
9.1094526278
 30
0.0
 10
10.0089170762
 20
9.104840202
 30
0.0
 10
10.0002343599
 20
9.0988130118
 30
0.0
 10
9.990930535
 20
9.0937321706
 30
0.0
 10
9.9811008344
 20
9.0896499
 30
0.0
 10
9.9708444125
 20
9.0866067295
 30
0.0
 10
9.9602645883
 20
9.0846330865
 30
0.0
 10
9.9494693574
 20
9.0837481673
 30
0.0
 10
9.9422230751
 20
9.0838895088
 30
0.0
 10
9.9386025931
 20
9.0841405901
 30
0.0
  0
SPLINE
  5
3A3
100
AcDbEntity
  8
0
100
AcDbSpline
 62
7
  6
CONTINUOUS
 70
0
 71
3
 72
39
 73
35
 74
0
 42
0.0000001
 43
0.0000001
 44
0.0000000001
 40
0.0
 40
0.0
 40
0.0
 40
0.0
 40
0.029961613
 40
0.0599660481
 40
0.0900256665
 40
0.1201520737
 40
0.1503559891
 40
0.1806471262
 40
0.2110340839
 40
0.2415242573
 40
0.2721237605
 40
0.3028373621
 40
0.3336684311
 40
0.3646188936
 40
0.3956892205
 40
0.4268784213
 40
0.4581840498
 40
0.4896022211
 40
0.5211276389
 40
0.5527536597
 40
0.5844723617
 40
0.6162746256
 40
0.6481502294
 40
0.6800879528
 40
0.7120757127
 40
0.7441007119
 40
0.7761495886
 40
0.8082085874
 40
0.840263727
 40
0.8723009447
 40
0.9043065468
 40
0.9362664266
 40
0.9681690304
 40
1.0
 40
1.0
 40
1.0
 40
1.0
 10
11.0930415039
 20
8.7015535804
 30
0.0
 10
11.0898911697
 20
8.6992216004
 30
0.0
 10
11.0834456131
 20
8.6947406363
 30
0.0
 10
11.0733894008
 20
8.6885986297
 30
0.0
 10
11.0629695006
 20
8.6830493219
 30
0.0
 10
11.0522186044
 20
8.67810966
 30
0.0
 10
11.0411696932
 20
8.6737944975
 30
0.0
 10
11.0298566918
 20
8.6701170904
 30
0.0
 10
11.0183142279
 20
8.6670889049
 30
0.0
 10
11.0065776126
 20
8.6647196672
 30
0.0
 10
10.9946827718
 20
8.6630173209
 30
0.0
 10
10.9826661929
 20
8.6619880009
 30
0.0
 10
10.9705648665
 20
8.6616359917
 30
0.0
 10
10.9584162208
 20
8.6619636591
 30
0.0
 10
10.9462580467
 20
8.6629714469
 30
0.0
 10
10.934128422
 20
8.6646578309
 30
0.0
 10
10.9220656288
 20
8.6670192781
 30
0.0
 10
10.9101080643
 20
8.6700502035
 30
0.0
 10
10.8982941305
 20
8.6737428985
 30
0.0
 10
10.8866621269
 20
8.6780875276
 30
0.0
 10
10.8752501295
 20
8.6830720993
 30
0.0
 10
10.8640958607
 20
8.6886824418
 30
0.0
 10
10.8532365536
 20
8.6949021931
 30
0.0
 10
10.8427087901
 20
8.7017127753
 30
0.0
 10
10.8325483451
 20
8.7090934149
 30
0.0
 10
10.8227900304
 20
8.7170211837
 30
0.0
 10
10.8134675258
 20
8.7254710356
 30
0.0
 10
10.8046132097
 20
8.734415867
 30
0.0
 10
10.7962580023
 20
8.7438265883
 30
0.0
 10
10.7884311263
 20
8.7536722183
 30
0.0
 10
10.7811601268
 20
8.7639199419
 30
0.0
 10
10.7744702782
 20
8.7745355283
 30
0.0
 10
10.7683854183
 20
8.785482563
 30
0.0
 10
10.7647411568
 20
8.7929870912
 30
0.0
 10
10.7630270016
 20
8.796781986
 30
0.0
  0
SPLINE
  5
3A4
100
AcDbEntity
  8
0
100
AcDbSpline
 62
7
  6
CONTINUOUS
 70
0
 71
3
 72
15
 73
11
 74
0
 42
0.0000001
 43
0.0000001
 44
0.0000000001
 40
0.0
 40
0.0
 40
0.0
 40
0.0
 40
0.1233171261
 40
0.2468171865
 40
0.3706749939
 40
0.4950495802
 40
0.6200773232
 40
0.7458671315
 40
0.872492731
 40
1.0
 40
1.0
 40
1.0
 40
1.0
 10
12.0683882271
 20
8.9696103277
 30
0.0
 10
12.0658636935
 20
8.9671718366
 30
0.0
 10
12.0605437228
 20
8.9625594108
 30
0.0
 10
12.0518610065
 20
8.9565322206
 30
0.0
 10
12.0425571816
 20
8.9514513794
 30
0.0
 10
12.032727481
 20
8.9473691088
 30
0.0
 10
12.0224710591
 20
8.9443259383
 30
0.0
 10
12.0118912349
 20
8.9423522953
 30
0.0
 10
12.001096004
 20
8.9414673761
 30
0.0
 10
11.9938497218
 20
8.9416087176
 30
0.0
 10
11.9902292397
 20
8.9418597989
 30
0.0
  0
SPLINE
  5
3A5
100
AcDbEntity
  8
0
100
AcDbSpline
 62
7
  6
CONTINUOUS
 70
0
 71
3
 72
39
 73
35
 74
0
 42
0.0000001
 43
0.0000001
 44
0.0000000001
 40
0.0
 40
0.0
 40
0.0
 40
0.0
 40
0.0314026134
 40
0.06300949
 40
0.0948071102
 40
0.1267734453
 40
0.1588809722
 40
0.1910970226
 40
0.2233851132
 40
0.2557062446
 40
0.2880202663
 40
0.3202872751
 40
0.3524690067
 40
0.384530184
 40
0.4164397927
 40
0.448172249
 40
0.4797084083
 40
0.5110363809
 40
0.5421521201
 40
0.5730597413
 40
0.6037715194
 40
0.6343075569
 40
0.6646951118
 40
0.6949675896
 40
0.7251632184
 40
0.755323478
 40
0.7854913548
 40
0.8157095105
 40
0.8460184691
 40
0.8764549222
 40
0.9070502335
 40
0.9378293335
 40
0.9688091139
 40
1.0
 40
1.0
 40
1.0
 40
1.0
 10
9.9325203506
 20
9.3182981766
 30
0.0
 10
9.9368320863
 20
9.3179991568
 30
0.0
 10
9.9454598617
 20
9.3169742592
 30
0.0
 10
9.9582276528
 20
9.3141906383
 30
0.0
 10
9.9707479628
 20
9.3101825549
 30
0.0
 10
9.9828989995
 20
9.3049888515
 30
0.0
 10
9.9945645457
 20
9.298659699
 30
0.0
 10
10.0056325861
 20
9.2912560994
 30
0.0
 10
10.0159969852
 20
9.2828492793
 30
0.0
 10
10.0255582922
 20
9.273520007
 30
0.0
 10
10.0342247219
 20
9.2633578351
 30
0.0
 10
10.0419130642
 20
9.252460304
 30
0.0
 10
10.0485494217
 20
9.2409319676
 30
0.0
 10
10.0540699036
 20
9.2288834171
 30
0.0
 10
10.0584212301
 20
9.2164302509
 30
0.0
 10
10.0615613182
 20
9.2036920149
 30
0.0
 10
10.0634596248
 20
9.1907910494
 30
0.0
 10
10.0640974532
 20
9.1778513512
 30
0.0
 10
10.0634681574
 20
9.1649974175
 30
0.0
 10
10.0615773216
 20
9.1523530628
 30
0.0
 10
10.0584426734
 20
9.1400402322
 30
0.0
 10
10.0540939628
 20
9.1281778334
 30
0.0
 10
10.0485727286
 20
9.1168805788
 30
0.0
 10
10.0419320128
 20
9.1062578026
 30
0.0
 10
10.0342357998
 20
9.0964123782
 30
0.0
 10
10.0255584086
 20
9.0874396732
 30
0.0
 10
10.0159837663
 20
9.0794265753
 30
0.0
 10
10.0056046051
 20
9.0724505394
 30
0.0
 10
9.9945214635
 20
9.0665788632
 30
0.0
 10
9.9828416137
 20
9.0618680444
 30
0.0
 10
9.9706781453
 20
9.0583632206
 30
0.0
 10
9.9581482413
 20
9.0560978251
 30
0.0
 10
9.9453743494
 20
9.0550929789
 30
0.0
 10
9.9368030151
 20
9.0552693325
 30
0.0
 10
9.9325203506
 20
9.0555663363
 30
0.0
  0
SPLINE
  5
3A6
100
AcDbEntity
  8
0
100
AcDbSpline
 62
7
  6
CONTINUOUS
 70
0
 71
3
 72
15
 73
11
 74
0
 42
0.0000001
 43
0.0000001
 44
0.0000000001
 40
0.0
 40
0.0
 40
0.0
 40
0.0
 40
0.1233171261
 40
0.2468171865
 40
0.3706749939
 40
0.4950495802
 40
0.6200773232
 40
0.7458671315
 40
0.872492731
 40
1.0
 40
1.0
 40
1.0
 40
1.0
 10
12.0683882271
 20
7.2183867359
 30
0.0
 10
12.0658636935
 20
7.2159482448
 30
0.0
 10
12.0605437228
 20
7.211335819
 30
0.0
 10
12.0518610065
 20
7.2053086288
 30
0.0
 10
12.0425571816
 20
7.2002277876
 30
0.0
 10
12.032727481
 20
7.196145517
 30
0.0
 10
12.0224710591
 20
7.1931023465
 30
0.0
 10
12.0118912349
 20
7.1911287034
 30
0.0
 10
12.001096004
 20
7.1902437843
 30
0.0
 10
11.9938497218
 20
7.1903851258
 30
0.0
 10
11.9902292397
 20
7.1906362071
 30
0.0
  0
SPLINE
  5
3A7
100
AcDbEntity
  8
0
100
AcDbSpline
 62
7
  6
CONTINUOUS
 70
0
 71
3
 72
15
 73
11
 74
0
 42
0.0000001
 43
0.0000001
 44
0.0000000001
 40
0.0
 40
0.0
 40
0.0
 40
0.0
 40
0.1233171261
 40
0.2468171865
 40
0.3706749939
 40
0.4950495802
 40
0.6200773232
 40
0.7458671315
 40
0.872492731
 40
1.0
 40
1.0
 40
1.0
 40
1.0
 10
10.0167615805
 20
7.3606675271
 30
0.0
 10
10.0142370468
 20
7.3582290359
 30
0.0
 10
10.0089170762
 20
7.3536166102
 30
0.0
 10
10.0002343599
 20
7.34758942
 30
0.0
 10
9.990930535
 20
7.3425085787
 30
0.0
 10
9.9811008344
 20
7.3384263082
 30
0.0
 10
9.9708444125
 20
7.3353831377
 30
0.0
 10
9.9602645883
 20
7.3334094946
 30
0.0
 10
9.9494693574
 20
7.3325245755
 30
0.0
 10
9.9422230751
 20
7.332665917
 30
0.0
 10
9.9386025931
 20
7.3329169983
 30
0.0
  0
SPLINE
  5
3A8
100
AcDbEntity
  8
0
100
AcDbSpline
 62
4
  6
CONTINUOUS
 70
0
 71
3
 72
288
 73
284
 74
0
 42
0.0000001
 43
0.0000001
 44
0.0000000001
 40
0.0
 40
0.0
 40
0.0
 40
0.0
 40
0.015625
 40
0.0234375
 40
0.03125
 40
0.0390625
 40
0.046875
 40
0.05078125
 40
0.0546875
 40
0.05859375
 40
0.060546875
 40
0.0615234375
 40
0.0625
 40
0.0634765625
 40
0.064453125
 40
0.06640625
 40
0.0703125
 40
0.07421875
 40
0.078125
 40
0.0859375
 40
0.09375
 40
0.1015625
 40
0.109375
 40
0.11328125
 40
0.1171875
 40
0.119140625
 40
0.12109375
 40
0.123046875
 40
0.1240234375
 40
0.1245117188
 40
0.125
 40
0.1254882812
 40
0.1259765625
 40
0.126953125
 40
0.12890625
 40
0.130859375
 40
0.1328125
 40
0.13671875
 40
0.140625
 40
0.1484375
 40
0.15625
 40
0.1640625
 40
0.171875
 40
0.17578125
 40
0.1796875
 40
0.181640625
 40
0.18359375
 40
0.185546875
 40
0.1865234375
 40
0.1870117188
 40
0.1875
 40
0.1879882812
 40
0.1884765625
 40
0.189453125
 40
0.19140625
 40
0.193359375
 40
0.1953125
 40
0.19921875
 40
0.203125
 40
0.2109375
 40
0.21875
 40
0.2265625
 40
0.234375
 40
0.23828125
 40
0.2421875
 40
0.244140625
 40
0.24609375
 40
0.248046875
 40
0.2490234375
 40
0.2495117188
 40
0.25
 40
0.2504882812
 40
0.2509765625
 40
0.251953125
 40
0.25390625
 40
0.255859375
 40
0.2578125
 40
0.26171875
 40
0.265625
 40
0.2734375
 40
0.28125
 40
0.2890625
 40
0.296875
 40
0.30078125
 40
0.3046875
 40
0.306640625
 40
0.30859375
 40
0.310546875
 40
0.3115234375
 40
0.3120117188
 40
0.3125
 40
0.3129882812
 40
0.3134765625
 40
0.314453125
 40
0.31640625
 40
0.318359375
 40
0.3203125
 40
0.32421875
 40
0.328125
 40
0.3359375
 40
0.34375
 40
0.3515625
 40
0.359375
 40
0.36328125
 40
0.3671875
 40
0.369140625
 40
0.37109375
 40
0.373046875
 40
0.3740234375
 40
0.3745117188
 40
0.375
 40
0.3754882812
 40
0.3759765625
 40
0.376953125
 40
0.37890625
 40
0.380859375
 40
0.3828125
 40
0.38671875
 40
0.390625
 40
0.3984375
 40
0.40625
 40
0.4140625
 40
0.41796875
 40
0.421875
 40
0.42578125
 40
0.4296875
 40
0.431640625
 40
0.43359375
 40
0.435546875
 40
0.4365234375
 40
0.4370117188
 40
0.4375
 40
0.4379882812
 40
0.4384765625
 40
0.439453125
 40
0.44140625
 40
0.443359375
 40
0.4453125
 40
0.44921875
 40
0.453125
 40
0.45703125
 40
0.4609375
 40
0.46875
 40
0.4765625
 40
0.484375
 40
0.48828125
 40
0.4921875
 40
0.494140625
 40
0.49609375
 40
0.498046875
 40
0.4990234375
 40
0.4995117188
 40
0.5
 40
0.5004882812
 40
0.5009765625
 40
0.501953125
 40
0.50390625
 40
0.505859375
 40
0.5078125
 40
0.51171875
 40
0.515625
 40
0.5234375
 40
0.53125
 40
0.5390625
 40
0.546875
 40
0.55078125
 40
0.5546875
 40
0.556640625
 40
0.55859375
 40
0.560546875
 40
0.5615234375
 40
0.5620117188
 40
0.5625
 40
0.5629882812
 40
0.5634765625
 40
0.564453125
 40
0.56640625
 40
0.568359375
 40
0.5703125
 40
0.57421875
 40
0.578125
 40
0.5859375
 40
0.59375
 40
0.6015625
 40
0.609375
 40
0.61328125
 40
0.6171875
 40
0.619140625
 40
0.62109375
 40
0.623046875
 40
0.6240234375
 40
0.6245117188
 40
0.625
 40
0.6254882812
 40
0.6259765625
 40
0.626953125
 40
0.62890625
 40
0.630859375
 40
0.6328125
 40
0.63671875
 40
0.640625
 40
0.6484375
 40
0.65625
 40
0.6640625
 40
0.671875
 40
0.67578125
 40
0.6796875
 40
0.681640625
 40
0.68359375
 40
0.685546875
 40
0.6865234375
 40
0.6870117188
 40
0.6875
 40
0.6879882812
 40
0.6884765625
 40
0.689453125
 40
0.69140625
 40
0.693359375
 40
0.6953125
 40
0.69921875
 40
0.703125
 40
0.7109375
 40
0.71875
 40
0.7265625
 40
0.734375
 40
0.73828125
 40
0.7421875
 40
0.74609375
 40
0.748046875
 40
0.7490234375
 40
0.75
 40
0.7509765625
 40
0.751953125
 40
0.75390625
 40
0.7578125
 40
0.76171875
 40
0.765625
 40
0.7734375
 40
0.78125
 40
0.7890625
 40
0.796875
 40
0.80078125
 40
0.8046875
 40
0.80859375
 40
0.810546875
 40
0.8115234375
 40
0.8125
 40
0.8134765625
 40
0.814453125
 40
0.81640625
 40
0.8203125
 40
0.82421875
 40
0.828125
 40
0.8359375
 40
0.84375
 40
0.8515625
 40
0.859375
 40
0.86328125
 40
0.8671875
 40
0.87109375
 40
0.873046875
 40
0.875
 40
0.876953125
 40
0.87890625
 40
0.8828125
 40
0.88671875
 40
0.890625
 40
0.8984375
 40
0.90625
 40
0.9140625
 40
0.921875
 40
0.9296875
 40
0.93359375
 40
0.935546875
 40
0.9375
 40
0.939453125
 40
0.94140625
 40
0.9453125
 40
0.953125
 40
0.9609375
 40
0.96875
 40
0.984375
 40
1.0
 40
1.0
 40
1.0
 40
1.0
 10
13.0080480252
 20
9.4631206386
 30
0.0
 10
13.0079657081
 20
9.4661743133
 30
0.0
 10
13.0078422333
 20
9.4707548266
 30
0.0
 10
13.0076775973
 20
9.476862173
 30
0.0
 10
13.0075541273
 20
9.4814426945
 30
0.0
 10
13.0074306311
 20
9.4860231715
 30
0.0
 10
13.007327799
 20
9.4898403744
 30
0.0
 10
13.007245351
 20
9.492893826
 30
0.0
 10
13.007184013
 20
9.4951847635
 30
0.0
 10
13.0071313142
 20
9.497091178
 30
0.0
 10
13.0070975331
 20
9.4984309671
 30
0.0
 10
13.0070733766
 20
9.4991882871
 30
0.0
 10
13.0070689301
 20
9.4997795844
 30
0.0
 10
13.0070122267
 20
9.5002817892
 30
0.0
 10
13.00695485
 20
9.5009824722
 30
0.0
 10
13.006845948
 20
9.5021941882
 30
0.0
 10
13.0066948139
 20
9.503932781
 30
0.0
 10
13.0065115523
 20
9.5060158522
 30
0.0
 10
13.0062678676
 20
9.5087944123
 30
0.0
 10
13.0059630336
 20
9.5122672237
 30
0.0
 10
13.0055973312
 20
9.5164347655
 30
0.0
 10
13.0052316002
 20
9.5206022567
 30
0.0
 10
13.0049268377
 20
9.5240751946
 30
0.0
 10
13.0046830101
 20
9.5268535017
 30
0.0
 10
13.0045306553
 20
9.5285900375
 30
0.0
 10
13.0044086858
 20
9.5299790515
 30
0.0
 10
13.0043174433
 20
9.5310213996
 30
0.0
 10
13.0042406615
 20
9.531888154
 30
0.0
 10
13.0041883789
 20
9.5324985499
 30
0.0
 10
13.0041562162
 20
9.5328416206
 30
0.0
 10
13.0041385366
 20
9.5331150564
 30
0.0
 10
13.0040962309
 20
9.5333268247
 30
0.0
 10
13.0040484132
 20
9.5336306927
 30
0.0
 10
13.0039607301
 20
9.5341524396
 30
0.0
 10
13.0038375609
 20
9.5349030321
 30
0.0
 10
13.0036888622
 20
9.5358015003
 30
0.0
 10
13.0034909101
 20
9.5370002412
 30
0.0
 10
13.0032433629
 20
9.5384983991
 30
0.0
 10
13.0028473472
 20
9.5408956018
 30
0.0
 10
13.0023523069
 20
9.5438920533
 30
0.0
 10
13.001758268
 20
9.547487819
 30
0.0
 10
13.0011642245
 20
9.5510835719
 30
0.0
 10
13.0006691959
 20
9.5540800554
 30
0.0
 10
13.0002731569
 20
9.5564771941
 30
0.0
 10
13.0000256689
 20
9.5579755147
 30
0.0
 10
12.9998275953
 20
9.5591739218
 30
0.0
 10
12.9996792678
 20
9.5600734098
 30
0.0
 10
12.999554937
 20
9.5608208116
 30
0.0
 10
12.9994693275
 20
9.5613482544
 30
0.0
 10
12.9994181874
 20
9.5616429962
 30
0.0
 10
12.999386087
 20
9.5618827972
 30
0.0
 10
12.9993300782
 20
9.5620509467
 30
0.0
 10
12.9992637392
 20
9.562300139
 30
0.0
 10
12.9991437605
 20
9.5627245808
 30
0.0
 10
12.9989743937
 20
9.5633370143
 30
0.0
 10
12.9987702841
 20
9.5640693285
 30
0.0
 10
12.9984984417
 20
9.5650466577
 30
0.0
 10
12.9981585346
 20
9.5662680076
 30
0.0
 10
12.9976147415
 20
9.5682223416
 30
0.0
 10
12.99693498
 20
9.5706651987
 30
0.0
 10
12.9961192752
 20
9.5735966555
 30
0.0
 10
12.9953035665
 20
9.5765280963
 30
0.0
 10
12.994623815
 20
9.5789709934
 30
0.0
 10
12.994080002
 20
9.5809252475
 30
0.0
 10
12.9937401454
 20
9.5821468003
 30
0.0
 10
12.9934681993
 20
9.5831237129
 30
0.0
 10
12.9932644063
 20
9.5838573
 30
0.0
 10
12.993094049
 20
9.584465751
 30
0.0
 10
12.9929758386
 20
9.5848973022
 30
0.0
 10
12.9929066664
 20
9.5851351034
 30
0.0
 10
12.9928593602
 20
9.5853382427
 30
0.0
 10
12.9927945741
 20
9.5854466281
 30
0.0
 10
12.9927142897
 20
9.5856241931
 30
0.0
 10
12.9925709513
 20
9.5859195327
 30
0.0
 10
12.9923676674
 20
9.5863494973
 30
0.0
 10
12.992123091
 20
9.5868620089
 30
0.0
 10
12.9917972111
 20
9.5875465612
 30
0.0
 10
12.9913897853
 20
9.5884018394
 30
0.0
 10
12.9907379464
 20
9.589770515
 30
0.0
 10
12.9899231332
 20
9.59148128
 30
0.0
 10
12.988945364
 20
9.5935342343
 30
0.0
 10
12.9879675916
 20
9.5955871703
 30
0.0
 10
12.9871527862
 20
9.5972979812
 30
0.0
 10
12.9865009318
 20
9.5986665649
 30
0.0
 10
12.9860935454
 20
9.5995220769
 30
0.0
 10
12.9857675846
 20
9.6002061493
 30
0.0
 10
12.9855232553
 20
9.600720127
 30
0.0
 10
12.9853191984
 20
9.6011455044
 30
0.0
 10
12.9851772398
 20
9.6014490329
 30
0.0
 10
12.9850947446
 20
9.6016134773
 30
0.0
 10
12.9850367496
 20
9.601762165
 30
0.0
 10
12.9849639372
 20
9.6018139354
 30
0.0
 10
12.9848720224
 20
9.6019167684
 30
0.0
 10
12.9847087635
 20
9.6020809755
 30
0.0
 10
12.9844767955
 20
9.6023237916
 30
0.0
 10
12.984197895
 20
9.6026116463
 30
0.0
 10
12.9838262158
 20
9.6029966836
 30
0.0
 10
12.9833615525
 20
9.6034775588
 30
0.0
 10
12.9826181271
 20
9.6042471946
 30
0.0
 10
12.981688833
 20
9.6052091581
 30
0.0
 10
12.9805736857
 20
9.6063635515
 30
0.0
 10
12.9794585359
 20
9.6075179259
 30
0.0
 10
12.9785292478
 20
9.608479937
 30
0.0
 10
12.9777858104
 20
9.6092494776
 30
0.0
 10
12.9773211776
 20
9.6097305949
 30
0.0
 10
12.9769494358
 20
9.6101151351
 30
0.0
 10
12.9766707269
 20
9.6104045087
 30
0.0
 10
12.9764381593
 20
9.6106425724
 30
0.0
 10
12.9762759707
 20
9.6108152634
 30
0.0
 10
12.976182341
 20
9.610904503
 30
0.0
 10
12.9761147965
 20
9.6109980279
 30
0.0
 10
12.976037016
 20
9.6109898928
 30
0.0
 10
12.9759368791
 20
9.6110145062
 30
0.0
 10
12.9757599761
 20
9.6110410582
 30
0.0
 10
12.9755081271
 20
9.6110876271
 30
0.0
 10
12.9752055361
 20
9.6111398127
 30
0.0
 10
12.9748022114
 20
9.6112106848
 30
0.0
 10
12.9742980111
 20
9.6112988328
 30
0.0
 10
12.9734913154
 20
9.6114401167
 30
0.0
 10
12.9724829373
 20
9.6116166369
 30
0.0
 10
12.9712728872
 20
9.6118284968
 30
0.0
 10
12.9702645114
 20
9.6120050406
 30
0.0
 10
12.9694578106
 20
9.6121462725
 30
0.0
 10
12.968852786
 20
9.6122522098
 30
0.0
 10
12.9682477575
 20
9.6123580948
 30
0.0
 10
12.9677435791
 20
9.6124464956
 30
0.0
 10
12.9673402095
 20
9.6125168505
 30
0.0
 10
12.9670377558
 20
9.6125706159
 30
0.0
 10
12.9667854774
 20
9.612612242
 30
0.0
 10
12.9666093409
 20
9.6126476177
 30
0.0
 10
12.9665079758
 20
9.6126580932
 30
0.0
 10
12.9664339679
 20
9.6126933853
 30
0.0
 10
12.9663522543
 20
9.6126238052
 30
0.0
 10
12.9662459906
 20
9.6125676124
 30
0.0
 10
12.9660587769
 20
9.6124522314
 30
0.0
 10
12.9657919834
 20
9.6122963119
 30
0.0
 10
12.965471551
 20
9.6121053945
 30
0.0
 10
12.9650444057
 20
9.6118521703
 30
0.0
 10
12.9645104404
 20
9.6115351828
 30
0.0
 10
12.9638696965
 20
9.6111549939
 30
0.0
 10
12.9632289487
 20
9.6107747525
 30
0.0
 10
12.9623746198
 20
9.6102677821
 30
0.0
 10
12.961306708
 20
9.6096340649
 30
0.0
 10
12.9600252143
 20
9.6088735972
 30
0.0
 10
12.9589573022
 20
9.608239903
 30
0.0
 10
12.9581029741
 20
9.6077328818
 30
0.0
 10
12.9575690154
 20
9.6074161438
 30
0.0
 10
12.9571418567
 20
9.6071624093
 30
0.0
 10
12.956821465
 20
9.6069730505
 30
0.0
 10
12.9565545443
 20
9.6068122548
 30
0.0
 10
12.9563675576
 20
9.6067055787
 30
0.0
 10
12.9562609303
 20
9.6066354383
 30
0.0
 10
12.9561803336
 20
9.6066087006
 30
0.0
 10
12.9561021306
 20
9.606483084
 30
0.0
 10
12.9559970249
 20
9.6063500852
 30
0.0
 10
12.9558134791
 20
9.6061012677
 30
0.0
 10
12.9555510674
 20
9.6057542156
 30
0.0
 10
12.9552362604
 20
9.6053341569
 30
0.0
 10
12.9548164873
 20
9.6047753348
 30
0.0
 10
12.9542917814
 20
9.604076377
 30
0.0
 10
12.9534522461
 20
9.602958285
 30
0.0
 10
12.952402829
 20
9.601560587
 30
0.0
 10
12.9511435274
 20
9.5998833872
 30
0.0
 10
12.9498842266
 20
9.5982061691
 30
0.0
 10
12.9488348077
 20
9.596808517
 30
0.0
 10
12.947995276
 20
9.5956903331
 30
0.0
 10
12.9474705608
 20
9.5949916088
 30
0.0
 10
12.9470508067
 20
9.5944323075
 30
0.0
 10
12.9467359418
 20
9.5940137129
 30
0.0
 10
12.9464737112
 20
9.5936620802
 30
0.0
 10
12.9462898421
 20
9.5934214398
 30
0.0
 10
12.9461852545
 20
9.5932753393
 30
0.0
 10
12.9461054603
 20
9.5931899668
 30
0.0
 10
12.9460308397
 20
9.5930120787
 30
0.0
 10
12.945929541
 20
9.5928071651
 30
0.0
 10
12.945753109
 20
9.5924335309
 30
0.0
 10
12.9455006238
 20
9.5919076284
 30
0.0
 10
12.9451978297
 20
9.5912731808
 30
0.0
 10
12.9447940384
 20
9.5904284258
 30
0.0
 10
12.9442893219
 20
9.5893720797
 30
0.0
 10
12.9434817628
 20
9.587682151
 30
0.0
 10
12.9424723184
 20
9.5855696623
 30
0.0
 10
12.9412609829
 20
9.5830347112
 30
0.0
 10
12.940049649
 20
9.5804997433
 30
0.0
 10
12.9390402008
 20
9.5783872966
 30
0.0
 10
12.9382326491
 20
9.576697284
 30
0.0
 10
12.9377279139
 20
9.5756411509
 30
0.0
 10
12.937324161
 20
9.5747959588
 30
0.0
 10
12.9370212497
 20
9.5741628469
 30
0.0
 10
12.9367691312
 20
9.5736327654
 30
0.0
 10
12.9365920445
 20
9.5732665914
 30
0.0
 10
12.9364917948
 20
9.5730497246
 30
0.0
 10
12.9364139521
 20
9.5729085529
 30
0.0
 10
12.9363462595
 20
9.5726852799
 30
0.0
 10
12.9362524623
 20
9.5724162205
 30
0.0
 10
12.9360899667
 20
9.5719320237
 30
0.0
 10
12.9358569677
 20
9.5712472897
 30
0.0
 10
12.9355777381
 20
9.570422623
 30
0.0
 10
12.935205303
 20
9.5693241104
 30
0.0
 10
12.9347398032
 20
9.5679506125
 30
0.0
 10
12.933994979
 20
9.5657532156
 30
0.0
 10
12.9330639572
 20
9.5630064004
 30
0.0
 10
12.9319467271
 20
9.5597102536
 30
0.0
 10
12.9308294992
 20
9.5564140916
 30
0.0
 10
12.9298984718
 20
9.5536673146
 30
0.0
 10
12.9291536587
 20
9.5514698414
 30
0.0
 10
12.9286881307
 20
9.5500965372
 30
0.0
 10
12.9283157535
 20
9.548997627
 30
0.0
 10
12.9280363467
 20
9.5481741748
 30
0.0
 10
12.9278039021
 20
9.5474856413
 30
0.0
 10
12.927640417
 20
9.5470082272
 30
0.0
 10
12.9275482052
 20
9.5467283
 30
0.0
 10
12.9274756426
 20
9.5465384095
 30
0.0
 10
12.9274160909
 20
9.5462718589
 30
0.0
 10
12.9273321503
 20
9.545943198
 30
0.0
 10
12.9271873688
 20
9.5453555827
 30
0.0
 10
12.9269794326
 20
9.5445226459
 30
0.0
 10
12.9267303824
 20
9.5435203337
 30
0.0
 10
12.9263981501
 20
9.5421848912
 30
0.0
 10
12.9259829164
 20
9.5405152546
 30
0.0
 10
12.9253185106
 20
9.5378440228
 30
0.0
 10
12.9244880155
 20
9.5345049164
 30
0.0
 10
12.9234914109
 20
9.5304980286
 30
0.0
 10
12.9224948285
 20
9.5264910881
 30
0.0
 10
12.921664278
 20
9.5231521132
 30
0.0
 10
12.9209999831
 20
9.5204806185
 30
0.0
 10
12.9205013643
 20
9.5184778566
 30
0.0
 10
12.9200871134
 20
9.5168061557
 30
0.0
 10
12.9197946558
 20
9.5156413277
 30
0.0
 10
12.9196314125
 20
9.5149673384
 30
0.0
 10
12.9194980631
 20
9.5144854341
 30
0.0
 10
12.9194064439
 20
9.5139133659
 30
0.0
 10
12.919269729
 20
9.5131820584
 30
0.0
 10
12.9190372597
 20
9.5118876171
 30
0.0
 10
12.9187016152
 20
9.5100460761
 30
0.0
 10
12.9183003594
 20
9.5078329478
 30
0.0
 10
12.9177648213
 20
9.5048832558
 30
0.0
 10
12.917095582
 20
9.5011957457
 30
0.0
 10
12.9162924108
 20
9.4967709113
 30
0.0
 10
12.9154892827
 20
9.4923459978
 30
0.0
 10
12.9148199356
 20
9.4886586858
 30
0.0
 10
12.9142846132
 20
9.4857085975
 30
0.0
 10
12.9138826995
 20
9.4834966779
 30
0.0
 10
12.9135491131
 20
9.4816513555
 30
0.0
 10
12.9133129698
 20
9.4803636646
 30
0.0
 10
12.9131821417
 20
9.4796215413
 30
0.0
 10
12.9130724399
 20
9.479082696
 30
0.0
 10
12.9130070058
 20
9.4784760118
 30
0.0
 10
12.9129043192
 20
9.4776907625
 30
0.0
 10
12.9127318121
 20
9.4763055513
 30
0.0
 10
12.9124816121
 20
9.4743324421
 30
0.0
 10
12.9121829818
 20
9.471962244
 30
0.0
 10
12.9117842464
 20
9.4688028413
 30
0.0
 10
12.911286016
 20
9.4648532946
 30
0.0
 10
12.9106880758
 20
9.4601139542
 30
0.0
 10
12.9100900882
 20
9.4553746206
 30
0.0
 10
12.9095919763
 20
9.4514250567
 30
0.0
 10
12.9091930039
 20
9.4482656884
 30
0.0
 10
12.9088950966
 20
9.4458953854
 30
0.0
 10
12.9086426348
 20
9.4439226042
 30
0.0
 10
12.9084500982
 20
9.4423388367
 30
0.0
 10
12.9082799208
 20
9.4411661557
 30
0.0
 10
12.9082081264
 20
9.4399356672
 30
0.0
 10
12.908078034
 20
9.4383152088
 30
0.0
 10
12.9079272094
 20
9.4362827077
 30
0.0
 10
12.9077411734
 20
9.4338466717
 30
0.0
 10
12.907494886
 20
9.4305975882
 30
0.0
 10
12.9071864382
 20
9.4265365871
 30
0.0
 10
12.9068164853
 20
9.4216632436
 30
0.0
 10
12.9064467364
 20
9.4167899037
 30
0.0
 10
12.9060759867
 20
9.4119166913
 30
0.0
 10
12.9057701948
 20
9.4078552532
 30
0.0
 10
12.9055499294
 20
9.4050130889
 30
0.0
 10
12.9054337611
 20
9.4033876793
 30
0.0
 10
12.9053193166
 20
9.4021723286
 30
0.0
 10
12.9053092961
 20
9.4009428099
 30
0.0
 10
12.9052595112
 20
9.3993083937
 30
0.0
 10
12.9051893583
 20
9.3964458627
 30
0.0
 10
12.9050802674
 20
9.3923577365
 30
0.0
 10
12.9049531562
 20
9.3874514698
 30
0.0
 10
12.9047823475
 20
9.3809099609
 30
0.0
 10
12.904569295
 20
9.3727330126
 30
0.0
 10
12.9043987132
 20
9.3661914729
 30
0.0
 10
12.9043134398
 20
9.3629207006
 30
0.0
  0
SPLINE
  5
3A9
100
AcDbEntity
  8
0
100
AcDbSpline
 62
4
  6
CONTINUOUS
 70
0
 71
3
 72
288
 73
284
 74
0
 42
0.0000001
 43
0.0000001
 44
0.0000000001
 40
0.0
 40
0.0
 40
0.0
 40
0.0
 40
0.015625
 40
0.0234375
 40
0.03125
 40
0.0390625
 40
0.046875
 40
0.05078125
 40
0.0546875
 40
0.05859375
 40
0.060546875
 40
0.0615234375
 40
0.0625
 40
0.0634765625
 40
0.064453125
 40
0.06640625
 40
0.0703125
 40
0.07421875
 40
0.078125
 40
0.0859375
 40
0.09375
 40
0.1015625
 40
0.109375
 40
0.11328125
 40
0.1171875
 40
0.119140625
 40
0.12109375
 40
0.123046875
 40
0.1240234375
 40
0.1245117188
 40
0.125
 40
0.1254882812
 40
0.1259765625
 40
0.126953125
 40
0.12890625
 40
0.130859375
 40
0.1328125
 40
0.13671875
 40
0.140625
 40
0.1484375
 40
0.15625
 40
0.1640625
 40
0.171875
 40
0.17578125
 40
0.1796875
 40
0.181640625
 40
0.18359375
 40
0.185546875
 40
0.1865234375
 40
0.1870117188
 40
0.1875
 40
0.1879882812
 40
0.1884765625
 40
0.189453125
 40
0.19140625
 40
0.193359375
 40
0.1953125
 40
0.19921875
 40
0.203125
 40
0.2109375
 40
0.21875
 40
0.2265625
 40
0.234375
 40
0.23828125
 40
0.2421875
 40
0.244140625
 40
0.24609375
 40
0.248046875
 40
0.2490234375
 40
0.2495117188
 40
0.25
 40
0.2504882812
 40
0.2509765625
 40
0.251953125
 40
0.25390625
 40
0.255859375
 40
0.2578125
 40
0.26171875
 40
0.265625
 40
0.2734375
 40
0.28125
 40
0.2890625
 40
0.296875
 40
0.30078125
 40
0.3046875
 40
0.306640625
 40
0.30859375
 40
0.310546875
 40
0.3115234375
 40
0.3120117188
 40
0.3125
 40
0.3129882812
 40
0.3134765625
 40
0.314453125
 40
0.31640625
 40
0.318359375
 40
0.3203125
 40
0.32421875
 40
0.328125
 40
0.3359375
 40
0.34375
 40
0.3515625
 40
0.359375
 40
0.36328125
 40
0.3671875
 40
0.369140625
 40
0.37109375
 40
0.373046875
 40
0.3740234375
 40
0.3745117188
 40
0.375
 40
0.3754882812
 40
0.3759765625
 40
0.376953125
 40
0.37890625
 40
0.380859375
 40
0.3828125
 40
0.38671875
 40
0.390625
 40
0.3984375
 40
0.40625
 40
0.4140625
 40
0.41796875
 40
0.421875
 40
0.42578125
 40
0.4296875
 40
0.431640625
 40
0.43359375
 40
0.435546875
 40
0.4365234375
 40
0.4370117188
 40
0.4375
 40
0.4379882812
 40
0.4384765625
 40
0.439453125
 40
0.44140625
 40
0.443359375
 40
0.4453125
 40
0.44921875
 40
0.453125
 40
0.45703125
 40
0.4609375
 40
0.46875
 40
0.4765625
 40
0.484375
 40
0.48828125
 40
0.4921875
 40
0.494140625
 40
0.49609375
 40
0.498046875
 40
0.4990234375
 40
0.4995117188
 40
0.5
 40
0.5004882812
 40
0.5009765625
 40
0.501953125
 40
0.50390625
 40
0.505859375
 40
0.5078125
 40
0.51171875
 40
0.515625
 40
0.5234375
 40
0.53125
 40
0.5390625
 40
0.546875
 40
0.55078125
 40
0.5546875
 40
0.556640625
 40
0.55859375
 40
0.560546875
 40
0.5615234375
 40
0.5620117188
 40
0.5625
 40
0.5629882812
 40
0.5634765625
 40
0.564453125
 40
0.56640625
 40
0.568359375
 40
0.5703125
 40
0.57421875
 40
0.578125
 40
0.5859375
 40
0.59375
 40
0.6015625
 40
0.609375
 40
0.61328125
 40
0.6171875
 40
0.619140625
 40
0.62109375
 40
0.623046875
 40
0.6240234375
 40
0.6245117188
 40
0.625
 40
0.6254882812
 40
0.6259765625
 40
0.626953125
 40
0.62890625
 40
0.630859375
 40
0.6328125
 40
0.63671875
 40
0.640625
 40
0.6484375
 40
0.65625
 40
0.6640625
 40
0.671875
 40
0.67578125
 40
0.6796875
 40
0.681640625
 40
0.68359375
 40
0.685546875
 40
0.6865234375
 40
0.6870117188
 40
0.6875
 40
0.6879882812
 40
0.6884765625
 40
0.689453125
 40
0.69140625
 40
0.693359375
 40
0.6953125
 40
0.69921875
 40
0.703125
 40
0.7109375
 40
0.71875
 40
0.7265625
 40
0.734375
 40
0.73828125
 40
0.7421875
 40
0.74609375
 40
0.748046875
 40
0.7490234375
 40
0.75
 40
0.7509765625
 40
0.751953125
 40
0.75390625
 40
0.7578125
 40
0.76171875
 40
0.765625
 40
0.7734375
 40
0.78125
 40
0.7890625
 40
0.796875
 40
0.80078125
 40
0.8046875
 40
0.80859375
 40
0.810546875
 40
0.8115234375
 40
0.8125
 40
0.8134765625
 40
0.814453125
 40
0.81640625
 40
0.8203125
 40
0.82421875
 40
0.828125
 40
0.8359375
 40
0.84375
 40
0.8515625
 40
0.859375
 40
0.86328125
 40
0.8671875
 40
0.87109375
 40
0.873046875
 40
0.875
 40
0.876953125
 40
0.87890625
 40
0.8828125
 40
0.88671875
 40
0.890625
 40
0.8984375
 40
0.90625
 40
0.9140625
 40
0.921875
 40
0.9296875
 40
0.93359375
 40
0.935546875
 40
0.9375
 40
0.939453125
 40
0.94140625
 40
0.9453125
 40
0.953125
 40
0.9609375
 40
0.96875
 40
0.984375
 40
1.0
 40
1.0
 40
1.0
 40
1.0
 10
12.9043134398
 20
9.3629207176
 30
0.0
 10
12.9043957569
 20
9.3598670428
 30
0.0
 10
12.9045192318
 20
9.3552865295
 30
0.0
 10
12.9046838677
 20
9.3491791831
 30
0.0
 10
12.9048073378
 20
9.3445986616
 30
0.0
 10
12.904930834
 20
9.3400181847
 30
0.0
 10
12.9050336661
 20
9.3362009818
 30
0.0
 10
12.905116114
 20
9.3331475302
 30
0.0
 10
12.9051774521
 20
9.3308565926
 30
0.0
 10
12.9052301508
 20
9.3289501781
 30
0.0
 10
12.905263932
 20
9.3276103891
 30
0.0
 10
12.9052880884
 20
9.3268530691
 30
0.0
 10
12.9052925349
 20
9.3262617718
 30
0.0
 10
12.9053492383
 20
9.3257595669
 30
0.0
 10
12.905406615
 20
9.325058884
 30
0.0
 10
12.905515517
 20
9.3238471679
 30
0.0
 10
12.9056666512
 20
9.3221085751
 30
0.0
 10
12.9058499127
 20
9.320025504
 30
0.0
 10
12.9060935975
 20
9.3172469439
 30
0.0
 10
12.9063984314
 20
9.3137741325
 30
0.0
 10
12.9067641338
 20
9.3096065907
 30
0.0
 10
12.9071298648
 20
9.3054390995
 30
0.0
 10
12.9074346273
 20
9.3019661615
 30
0.0
 10
12.907678455
 20
9.2991878545
 30
0.0
 10
12.9078308097
 20
9.2974513187
 30
0.0
 10
12.9079527792
 20
9.2960623046
 30
0.0
 10
12.9080440218
 20
9.2950199566
 30
0.0
 10
12.9081208035
 20
9.2941532021
 30
0.0
 10
12.9081730861
 20
9.2935428063
 30
0.0
 10
12.9082052488
 20
9.2931997355
 30
0.0
 10
12.9082229285
 20
9.2929262997
 30
0.0
 10
12.9082652341
 20
9.2927145315
 30
0.0
 10
12.9083130518
 20
9.2924106635
 30
0.0
 10
12.9084007349
 20
9.2918889165
 30
0.0
 10
12.9085239042
 20
9.2911383241
 30
0.0
 10
12.9086726028
 20
9.2902398559
 30
0.0
 10
12.9088705549
 20
9.289041115
 30
0.0
 10
12.9091181022
 20
9.287542957
 30
0.0
 10
12.9095141178
 20
9.2851457543
 30
0.0
 10
12.9100091581
 20
9.2821493029
 30
0.0
 10
12.910603197
 20
9.2785535371
 30
0.0
 10
12.9111972406
 20
9.2749577842
 30
0.0
 10
12.9116922692
 20
9.2719613007
 30
0.0
 10
12.9120883082
 20
9.2695641621
 30
0.0
 10
12.9123357962
 20
9.2680658415
 30
0.0
 10
12.9125338698
 20
9.2668674344
 30
0.0
 10
12.9126821972
 20
9.2659679464
 30
0.0
 10
12.912806528
 20
9.2652205446
 30
0.0
 10
12.9128921376
 20
9.2646931018
 30
0.0
 10
12.9129432776
 20
9.26439836
 30
0.0
 10
12.912975378
 20
9.264158559
 30
0.0
 10
12.9130313869
 20
9.2639904094
 30
0.0
 10
12.9130977258
 20
9.2637412171
 30
0.0
 10
12.9132177045
 20
9.2633167753
 30
0.0
 10
12.9133870713
 20
9.2627043419
 30
0.0
 10
12.9135911809
 20
9.2619720276
 30
0.0
 10
12.9138630234
 20
9.2609946984
 30
0.0
 10
12.9142029304
 20
9.2597733486
 30
0.0
 10
12.9147467235
 20
9.2578190146
 30
0.0
 10
12.915426485
 20
9.2553761574
 30
0.0
 10
12.9162421898
 20
9.2524447007
 30
0.0
 10
12.9170578985
 20
9.2495132599
 30
0.0
 10
12.9177376501
 20
9.2470703628
 30
0.0
 10
12.9182814631
 20
9.2451161086
 30
0.0
 10
12.9186213196
 20
9.2438945558
 30
0.0
 10
12.9188932657
 20
9.2429176433
 30
0.0
 10
12.9190970587
 20
9.2421840561
 30
0.0
 10
12.919267416
 20
9.2415756052
 30
0.0
 10
12.9193856265
 20
9.2411440539
 30
0.0
 10
12.9194547986
 20
9.2409062527
 30
0.0
 10
12.9195021048
 20
9.2407031134
 30
0.0
 10
12.919566891
 20
9.2405947281
 30
0.0
 10
12.9196471753
 20
9.240417163
 30
0.0
 10
12.9197905137
 20
9.2401218234
 30
0.0
 10
12.9199937976
 20
9.2396918588
 30
0.0
 10
12.920238374
 20
9.2391793473
 30
0.0
 10
12.9205642539
 20
9.238494795
 30
0.0
 10
12.9209716797
 20
9.2376395167
 30
0.0
 10
12.9216235186
 20
9.2362708411
 30
0.0
 10
12.9224383318
 20
9.2345600762
 30
0.0
 10
12.9234161011
 20
9.2325071218
 30
0.0
 10
12.9243938734
 20
9.2304541859
 30
0.0
 10
12.9252086789
 20
9.2287433749
 30
0.0
 10
12.9258605332
 20
9.2273747913
 30
0.0
 10
12.9262679197
 20
9.2265192792
 30
0.0
 10
12.9265938804
 20
9.2258352068
 30
0.0
 10
12.9268382098
 20
9.2253212292
 30
0.0
 10
12.9270422666
 20
9.2248958517
 30
0.0
 10
12.9271842252
 20
9.2245923232
 30
0.0
 10
12.9272667204
 20
9.2244278788
 30
0.0
 10
12.9273247155
 20
9.2242791911
 30
0.0
 10
12.9273975279
 20
9.2242274207
 30
0.0
 10
12.9274894426
 20
9.2241245877
 30
0.0
 10
12.9276527015
 20
9.2239603807
 30
0.0
 10
12.9278846695
 20
9.2237175645
 30
0.0
 10
12.9281635701
 20
9.2234297099
 30
0.0
 10
12.9285352492
 20
9.2230446725
 30
0.0
 10
12.9289999126
 20
9.2225637974
 30
0.0
 10
12.9297433379
 20
9.2217941615
 30
0.0
 10
12.930672632
 20
9.2208321981
 30
0.0
 10
12.9317877794
 20
9.2196778046
 30
0.0
 10
12.9329029291
 20
9.2185234302
 30
0.0
 10
12.9338322172
 20
9.2175614192
 30
0.0
 10
12.9345756546
 20
9.2167918786
 30
0.0
 10
12.9350402874
 20
9.2163107612
 30
0.0
 10
12.9354120293
 20
9.2159262211
 30
0.0
 10
12.9356907382
 20
9.2156368474
 30
0.0
 10
12.9359233058
 20
9.2153987837
 30
0.0
 10
12.9360854943
 20
9.2152260928
 30
0.0
 10
12.9361791241
 20
9.2151368531
 30
0.0
 10
12.9362466685
 20
9.2150433283
 30
0.0
 10
12.936324449
 20
9.2150514633
 30
0.0
 10
12.9364245859
 20
9.2150268499
 30
0.0
 10
12.936601489
 20
9.215000298
 30
0.0
 10
12.9368533379
 20
9.214953729
 30
0.0
 10
12.9371559289
 20
9.2149015434
 30
0.0
 10
12.9375592536
 20
9.2148306713
 30
0.0
 10
12.9380634539
 20
9.2147425234
 30
0.0
 10
12.9388701496
 20
9.2146012395
 30
0.0
 10
12.9398785277
 20
9.2144247193
 30
0.0
 10
12.9410885778
 20
9.2142128594
 30
0.0
 10
12.9420969536
 20
9.2140363155
 30
0.0
 10
12.9429036544
 20
9.2138950837
 30
0.0
 10
12.943508679
 20
9.2137891463
 30
0.0
 10
12.9441137075
 20
9.2136832614
 30
0.0
 10
12.9446178859
 20
9.2135948606
 30
0.0
 10
12.9450212555
 20
9.2135245057
 30
0.0
 10
12.9453237093
 20
9.2134707403
 30
0.0
 10
12.9455759876
 20
9.2134291141
 30
0.0
 10
12.9457521241
 20
9.2133937384
 30
0.0
 10
12.9458534892
 20
9.2133832629
 30
0.0
 10
12.9459274971
 20
9.2133479709
 30
0.0
 10
12.9460092107
 20
9.2134175509
 30
0.0
 10
12.9461154744
 20
9.2134737438
 30
0.0
 10
12.9463026882
 20
9.2135891248
 30
0.0
 10
12.9465694816
 20
9.2137450443
 30
0.0
 10
12.946889914
 20
9.2139359616
 30
0.0
 10
12.9473170594
 20
9.2141891859
 30
0.0
 10
12.9478510246
 20
9.2145061733
 30
0.0
 10
12.9484917685
 20
9.2148863623
 30
0.0
 10
12.9491325163
 20
9.2152666036
 30
0.0
 10
12.9499868453
 20
9.2157735741
 30
0.0
 10
12.951054757
 20
9.2164072913
 30
0.0
 10
12.9523362507
 20
9.217167759
 30
0.0
 10
12.9534041628
 20
9.2178014531
 30
0.0
 10
12.954258491
 20
9.2183084743
 30
0.0
 10
12.9547924497
 20
9.2186252123
 30
0.0
 10
12.9552196083
 20
9.2188789468
 30
0.0
 10
12.9555400001
 20
9.2190683056
 30
0.0
 10
12.9558069207
 20
9.2192291014
 30
0.0
 10
12.9559939075
 20
9.2193357774
 30
0.0
 10
12.9561005348
 20
9.2194059178
 30
0.0
 10
12.9561811315
 20
9.2194326555
 30
0.0
 10
12.9562593345
 20
9.2195582722
 30
0.0
 10
12.9563644401
 20
9.219691271
 30
0.0
 10
12.9565479859
 20
9.2199400884
 30
0.0
 10
12.9568103976
 20
9.2202871406
 30
0.0
 10
12.9571252046
 20
9.2207071992
 30
0.0
 10
12.9575449777
 20
9.2212660214
 30
0.0
 10
12.9580696837
 20
9.2219649791
 30
0.0
 10
12.958909219
 20
9.2230830711
 30
0.0
 10
12.9599586361
 20
9.2244807691
 30
0.0
 10
12.9612179376
 20
9.2261579689
 30
0.0
 10
12.9624772384
 20
9.2278351871
 30
0.0
 10
12.9635266573
 20
9.2292328392
 30
0.0
 10
12.964366189
 20
9.230351023
 30
0.0
 10
12.9648909042
 20
9.2310497473
 30
0.0
 10
12.9653106583
 20
9.2316090487
 30
0.0
 10
12.9656255232
 20
9.2320276433
 30
0.0
 10
12.9658877538
 20
9.232379276
 30
0.0
 10
12.9660716229
 20
9.2326199164
 30
0.0
 10
12.9661762106
 20
9.2327660169
 30
0.0
 10
12.9662560047
 20
9.2328513894
 30
0.0
 10
12.9663306253
 20
9.2330292774
 30
0.0
 10
12.966431924
 20
9.233234191
 30
0.0
 10
12.966608356
 20
9.2336078253
 30
0.0
 10
12.9668608412
 20
9.2341337277
 30
0.0
 10
12.9671636354
 20
9.2347681754
 30
0.0
 10
12.9675674266
 20
9.2356129303
 30
0.0
 10
12.9680721432
 20
9.2366692764
 30
0.0
 10
12.9688797022
 20
9.2383592052
 30
0.0
 10
12.9698891467
 20
9.2404716938
 30
0.0
 10
12.9711004821
 20
9.2430066449
 30
0.0
 10
12.9723118161
 20
9.2455416128
 30
0.0
 10
12.9733212642
 20
9.2476540595
 30
0.0
 10
12.9741288159
 20
9.2493440721
 30
0.0
 10
12.9746335511
 20
9.2504002052
 30
0.0
 10
12.975037304
 20
9.2512453974
 30
0.0
 10
12.9753402154
 20
9.2518785093
 30
0.0
 10
12.9755923339
 20
9.2524085908
 30
0.0
 10
12.9757694205
 20
9.2527747648
 30
0.0
 10
12.9758696703
 20
9.2529916316
 30
0.0
 10
12.9759475129
 20
9.2531328033
 30
0.0
 10
12.9760152055
 20
9.2533560762
 30
0.0
 10
12.9761090028
 20
9.2536251356
 30
0.0
 10
12.9762714983
 20
9.2541093325
 30
0.0
 10
12.9765044973
 20
9.2547940665
 30
0.0
 10
12.976783727
 20
9.2556187331
 30
0.0
 10
12.9771561621
 20
9.2567172457
 30
0.0
 10
12.9776216618
 20
9.2580907436
 30
0.0
 10
12.9783664861
 20
9.2602881406
 30
0.0
 10
12.9792975079
 20
9.2630349557
 30
0.0
 10
12.980414738
 20
9.2663311025
 30
0.0
 10
12.9815319659
 20
9.2696272645
 30
0.0
 10
12.9824629932
 20
9.2723740416
 30
0.0
 10
12.9832078064
 20
9.2745715148
 30
0.0
 10
12.9836733344
 20
9.275944819
 30
0.0
 10
12.9840457115
 20
9.2770437291
 30
0.0
 10
12.9843251183
 20
9.2778671814
 30
0.0
 10
12.984557563
 20
9.2785557149
 30
0.0
 10
12.9847210481
 20
9.2790331289
 30
0.0
 10
12.9848132599
 20
9.2793130561
 30
0.0
 10
12.9848858225
 20
9.2795029466
 30
0.0
 10
12.9849453741
 20
9.2797694972
 30
0.0
 10
12.9850293147
 20
9.2800981582
 30
0.0
 10
12.9851740962
 20
9.2806857734
 30
0.0
 10
12.9853820324
 20
9.2815187103
 30
0.0
 10
12.9856310826
 20
9.2825210225
 30
0.0
 10
12.9859633149
 20
9.2838564649
 30
0.0
 10
12.9863785487
 20
9.2855261015
 30
0.0
 10
12.9870429544
 20
9.2881973333
 30
0.0
 10
12.9878734496
 20
9.2915364397
 30
0.0
 10
12.9888700541
 20
9.2955433276
 30
0.0
 10
12.9898666365
 20
9.299550268
 30
0.0
 10
12.9906971871
 20
9.3028892429
 30
0.0
 10
12.9913614819
 20
9.3055607377
 30
0.0
 10
12.9918601007
 20
9.3075634996
 30
0.0
 10
12.9922743516
 20
9.3092352005
 30
0.0
 10
12.9925668092
 20
9.3104000285
 30
0.0
 10
12.9927300525
 20
9.3110740177
 30
0.0
 10
12.9928634019
 20
9.3115559221
 30
0.0
 10
12.9929550211
 20
9.3121279903
 30
0.0
 10
12.9930917361
 20
9.3128592978
 30
0.0
 10
12.9933242053
 20
9.314153739
 30
0.0
 10
12.9936598499
 20
9.31599528
 30
0.0
 10
12.9940611057
 20
9.3182084083
 30
0.0
 10
12.9945966437
 20
9.3211581004
 30
0.0
 10
12.995265883
 20
9.3248456105
 30
0.0
 10
12.9960690542
 20
9.3292704448
 30
0.0
 10
12.9968721823
 20
9.3336953584
 30
0.0
 10
12.9975415295
 20
9.3373826704
 30
0.0
 10
12.9980768518
 20
9.3403327587
 30
0.0
 10
12.9984787655
 20
9.3425446783
 30
0.0
 10
12.9988123519
 20
9.3443900007
 30
0.0
 10
12.9990484953
 20
9.3456776915
 30
0.0
 10
12.9991793233
 20
9.3464198149
 30
0.0
 10
12.9992890252
 20
9.3469586602
 30
0.0
 10
12.9993544592
 20
9.3475653443
 30
0.0
 10
12.9994571458
 20
9.3483505936
 30
0.0
 10
12.9996296529
 20
9.3497358048
 30
0.0
 10
12.999879853
 20
9.351708914
 30
0.0
 10
13.0001784832
 20
9.3540791122
 30
0.0
 10
13.0005772186
 20
9.3572385149
 30
0.0
 10
13.001075449
 20
9.3611880616
 30
0.0
 10
13.0016733892
 20
9.365927402
 30
0.0
 10
13.0022713768
 20
9.3706667355
 30
0.0
 10
13.0027694887
 20
9.3746162994
 30
0.0
 10
13.0031684612
 20
9.3777756677
 30
0.0
 10
13.0034663684
 20
9.3801459707
 30
0.0
 10
13.0037188302
 20
9.382118752
 30
0.0
 10
13.0039113669
 20
9.3837025195
 30
0.0
 10
13.0040815442
 20
9.3848752004
 30
0.0
 10
13.0041533387
 20
9.3861056889
 30
0.0
 10
13.004283431
 20
9.3877261474
 30
0.0
 10
13.0044342556
 20
9.3897586485
 30
0.0
 10
13.0046202916
 20
9.3921946844
 30
0.0
 10
13.004866579
 20
9.3954437679
 30
0.0
 10
13.0051750268
 20
9.399504769
 30
0.0
 10
13.0055449798
 20
9.4043781126
 30
0.0
 10
13.0059147286
 20
9.4092514524
 30
0.0
 10
13.0062854783
 20
9.4141246649
 30
0.0
 10
13.0065912703
 20
9.4181861029
 30
0.0
 10
13.0068115356
 20
9.4210282672
 30
0.0
 10
13.006927704
 20
9.4226536768
 30
0.0
 10
13.0070421484
 20
9.4238690276
 30
0.0
 10
13.0070521689
 20
9.4250985462
 30
0.0
 10
13.0071019538
 20
9.4267329625
 30
0.0
 10
13.0071721067
 20
9.4295954935
 30
0.0
 10
13.0072811976
 20
9.4336836197
 30
0.0
 10
13.0074083088
 20
9.4385898864
 30
0.0
 10
13.0075791175
 20
9.4451313953
 30
0.0
 10
13.0077921701
 20
9.4533083436
 30
0.0
 10
13.0079627518
 20
9.4598498833
 30
0.0
 10
13.0080480252
 20
9.4631206555
 30
0.0
  0
ELLIPSE
  5
3AA
100
AcDbEntity
  8
0
100
AcDbEllipse
 62
7
  6
CONTINUOUS
 10
10.5661677477
 20
8.3277473472
 30
0.0
 11
-0.147733076
 21
0.1717773413
 31
0.0
 40
0.9024839809
 41
-0.116423827
 42
3.0251688558
  0
ENDSEC
  0
SECTION
  2
OBJECTS
  0
DICTIONARY
  5
C
100
AcDbDictionary
280
0
281
1
  3
ACAD_GROUP
350
D
  3
ACAD_MLINESTYLE
350
17
  3
ACAD_LAYOUT
350
1A
  3
ACAD_PLOTSETTINGS
350
19
  3
ACAD_PLOTSTYLENAME
350
E
  3
ACAD_IMAGE_DICT
350
       3AC
  3
ACAD_IMAGE_VARS
350
       3AD
  3
ACAD_TABLESTYLE
350
       3AE
  0
IMAGEDEF_REACTOR
  5
3AB
100
AcDbRasterImageDefReactor
 90
2
330
281
  0
DICTIONARY
  5
D
102
{ACAD_REACTORS
330
C
102
}
100
AcDbDictionary
280
0
281
1
  0
ACDBDICTIONARYWDFLT
  5
E
102
{ACAD_REACTORS
330
C
102
}
100
AcDbDictionary
281
1
  3
Normal
350
F
100
AcDbDictionaryWithDefault
340
F
  0
DICTIONARY
  5
3AC
330
C
100
AcDbDictionary
281
1
  3
X7Z_assy_2_img_1
350
       3B1
  0
RASTERVARIABLES
  5
3AD
330
C
100
AcDbRasterVariables
 90
0
 70
0
 71
1
 72
5
  0
DICTIONARY
  5
17
102
{ACAD_REACTORS
330
C
102
}
100
AcDbDictionary
280
0
281
1
  3
Standard
350
18
  0
DICTIONARY
  5
3AE
330
C
100
AcDbDictionary
281
1
  3
Standard
350
       3B2
  3
Standard1
350
       3B3
  0
DICTIONARY
  5
19
102
{ACAD_REACTORS
330
C
102
}
100
AcDbDictionary
281
1
  0
DICTIONARY
  5
1A
102
{ACAD_REACTORS
330
C
102
}
100
AcDbDictionary
281
1
  3
Model
350
3AF
  3
Layout1
350
3B0
  0
ACDBPLACEHOLDER
  5
F
102
{ACAD_REACTORS
330
E
102
}
  0
MLINESTYLE
  5
18
102
{ACAD_REACTORS
330
17
102
}
100
AcDbMlineStyle
  2
STANDARD
 70
0
  3

 62
256
 51
90.0
 52
90.0
 71
2
 49
0.5
 62
256
  6
BYLAYER
 49
-0.5
 62
256
  6
BYLAYER
  0
LAYOUT
  5
3AF
102
{ACAD_REACTORS
330
1A
102
}
100
AcDbPlotSettings
  1

  2
none_device
  4
ANSI_C_(22.00_x_17.00_Inches)
  6

 40
0.0
 41
0.0
 42
0.0
 43
0.0
 44
558.8
 45
431.8
 46
0.0
 47
0.0
 48
0.0
 49
0.0
140
0.0
141
0.0
142
1.0
143
1.0
 70
1024
 72
0
 73
0
 74
0
  7

 75
0
147
1.0
148
0.0
149
0.0
100
AcDbLayout
  1
Model
 70
0
 71
0
 10
0.0
 20
0.0
 11
22.0
 21
17.0
 12
0.0
 22
0.0
 32
0.0
 14
0.0
 24
0.0
 34
0.0
 15
0.0
 25
0.0
 35
0.0
146
0.0
 13
0.0
 23
0.0
 33
0.0
 16
1.0
 26
0.0
 36
0.0
 17
0.0
 27
1.0
 37
0.0
 76
0
330
206
345
0
346
0
  0
LAYOUT
  5
3B0
102
{ACAD_REACTORS
330
1A
102
}
100
AcDbPlotSettings
  1

  2
none_device
  4
ANSI_C_(22.00_x_17.00_Inches)
  6

 40
0.0
 41
0.0
 42
0.0
 43
0.0
 44
558.8
 45
431.8
 46
0.0
 47
0.0
 48
0.0
 49
0.0
140
0.0
141
0.0
142
1.0
143
1.0
 70
0
 72
0
 73
0
 74
0
  7

 75
0
147
1.0
148
0.0
149
0.0
100
AcDbLayout
  1
Layout1
 70
0
 71
1
 10
0.0
 20
0.0
 11
22.0
 21
17.0
 12
0.0
 22
0.0
 32
0.0
 14
0.0
 24
0.0
 34
0.0
 15
0.0
 25
0.0
 35
0.0
146
0.0
 13
0.0
 23
0.0
 33
0.0
 16
1.0
 26
0.0
 36
0.0
 17
0.0
 27
1.0
 37
0.0
 76
0
330
207
345
0
346
0
  0
IMAGEDEF
  5
3B1
102
{ACAD_REACTORS
330
3AC
330
3AB
102
}
100
AcDbRasterImageDef
 90
0
  1
X7Z_assy_2_img_1.png
 10
369.0
 20
92.0
 11
0.0066666667
 21
0.0066666667
280
1
281
0
  0
TABLESTYLE
  5
3B2
102
{ACAD_REACTORS
330
3AE
330
284
330
285
102
}
330
3AE
100
AcDbTableStyle
  3
Standard
 70
0
 71
0
 40
0.06
 41
0.06
280
1
281
1
  7
Standard
140
0.18
170
1
 62
0
 63
7
283
0
  7
Standard
140
0.18
170
1
 62
0
 63
7
283
0
  7
Standard
140
0.18
170
1
 62
0
 63
7
283
0
  0
TABLESTYLE
  5
3B3
102
{ACAD_REACTORS
330
3AE
330
283
102
}
330
3AE
100
AcDbTableStyle
  3
Standard1
 70
1
 71
0
 40
0.06
 41
0.06
280
1
281
1
  7
Standard
140
0.18
170
1
 62
0
 63
7
283
0
  7
Standard
140
0.18
170
1
 62
0
 63
7
283
0
  7
Standard
140
0.18
170
1
 62
0
 63
7
283
0
  0
ENDSEC
  0
EOF
