999
DXF file: X7K_assy_2.dxf
999
Pro/ENGINEER 2014200 by Parametric Technology Corporation
  0
SECTION
  2
HEADER
  9
$ACADVER
  1
AC1021
  9
$DWGCODEPAGE
  3
ANSI_1252
  9
$EXTMAX
 10
22.0
 20
17.0
 30
0.0
  9
$EXTMIN
 10
0.0
 20
0.0
 30
0.0
  9
$LIMMIN
 10
0.0
 20
0.0
  9
$LIMMAX
 10
22.0
 20
17.0
  9
$VIEWCTR
 10
11.0
 20
8.5
  9
$VIEWSIZE
 40
17.0
  9
$CLAYER
  8
0
  9
$LTSCALE
 40
1.21
  9
$CELTYPE
  6
BYLAYER
  9
$DIMSCALE
 40
1.0
  9
$DIMASZ
 40
0.1875
  9
$DIMEXO
 40
0.0625
  9
$DIMDLI
 40
0.836
  9
$DIMEXE
 40
0.125
  9
$DIMCEN
 40
0.198
  9
$DIMLFAC
 40
1.0
  9
$DIMBLK
  1
_FILLED
  9
$DIMTXT
 40
0.1
  9
$DIMTOL
 70
0
  9
$DIMLIM
 70
0
  9
$DIMTFAC
 40
1.0
  9
$DIMGAP
 40
0.09
  9
$DIMDSEP
 70
46
  9
$AUNITS
 70
0
  9
$PDMODE
 70
3
  9
$PDSIZE
 40
0.3125
  9
$HANDSEED
  5
358
  9
$TILEMODE
 70
1
  9
$MEASUREMENT
 70
0
  9
$INSUNITS
 70
1
  0
ENDSEC
  0
SECTION
  2
CLASSES
  0
CLASS
  1
ACDBDICTIONARYWDFLT
  2
AcDbDictionaryWithDefault
  3
AutoCAD 2000
 90
0
 91
1
280
0
281
0
  0
CLASS
  1
ACDBPLACEHOLDER
  2
AcDbPlaceHolder
  3
AutoCAD 2000
 90
0
 91
1
280
0
281
0
  0
CLASS
  1
LAYOUT
  2
AcDbLayout
  3
AutoCAD 2000
 90
0
 91
0
280
0
281
0
  0
CLASS
  1
RASTERVARIABLES
  2
AcDbRasterVariables
  3
ISM
 90
0
 91
1
280
0
281
0
  0
CLASS
  1
IMAGEDEF
  2
AcDbRasterImageDef
  3
ISM
 90
0
 91
1
280
0
281
0
  0
CLASS
  1
IMAGEDEF_REACTOR
  2
AcDbRasterImageDefReactor
  3
ISM
 90
0
 91
1
280
0
281
0
  0
CLASS
  1
IMAGE
  2
AcDbRasterImage
  3
ISM
 90
127
 91
1
280
0
281
1
  0
CLASS
  1
TABLESTYLE
  2
AcDbTableStyle
  3
ObjectDBX Classes
 90
2047
 91
1
280
0
281
0
  0
CLASS
  1
ACAD_TABLE
  2
AcDbTable
  3
ObjectDBX Classes
 90
1025
 91
2
280
0
281
1
  0
ENDSEC
  0
SECTION
  2
TABLES
  0
TABLE
  2
VPORT
  5
8
100
AcDbSymbolTable
 70
2
  0
VPORT
  5
1F4
100
AcDbSymbolTableRecord
100
AcDbViewportTableRecord
  2
*ACTIVE
 70
0
 10
0.0
 20
0.0
 11
1.0
 21
1.0
 12
11.0
 22
8.5
 13
0.0
 23
0.0
 14
1.0
 24
1.0
 15
0.0
 25
0.0
 16
0.0
 26
0.0
 36
1.0
 17
0.0
 27
0.0
 37
0.0
 40
17.0
 41
1.2941176471
 42
50.0
 43
0.0
 44
0.0
 50
0.0
 51
0.0
 71
0
 72
100
 73
1
 74
1
 75
0
 76
0
 77
0
 78
0
  0
ENDTAB
  0
TABLE
  2
LTYPE
  5
5
100
AcDbSymbolTable
 70
6
  0
LTYPE
  5
14
100
AcDbSymbolTableRecord
100
AcDbLinetypeTableRecord
  2
BYBLOCK
 70
0
  3

 72
65
 73
0
 40
0.0
  0
LTYPE
  5
15
100
AcDbSymbolTableRecord
100
AcDbLinetypeTableRecord
  2
BYLAYER
 70
0
  3

 72
65
 73
0
 40
0.0
  0
LTYPE
  5
16
100
AcDbSymbolTableRecord
100
AcDbLinetypeTableRecord
  2
CONTINUOUS
 70
64
  3
Solid line
 72
65
 73
0
 40
0.0
  0
LTYPE
  5
1F5
100
AcDbSymbolTableRecord
100
AcDbLinetypeTableRecord
  2
CENTER
 70
64
  3
____ _ ____ _ ____ _ ____ _ ____ _ ____ _ ____
 72
65
 73
4
 40
0.6
 49
0.375
 74
0
 49
-0.075
 74
0
 49
0.075
 74
0
 49
-0.075
 74
0
  0
LTYPE
  5
1F6
100
AcDbSymbolTableRecord
100
AcDbLinetypeTableRecord
  2
HIDDEN
 70
64
  3
- - - - - - - - - - - - - - - - - - - -
 72
65
 73
2
 40
0.2
 49
0.1
 74
0
 49
-0.1
 74
0
  0
LTYPE
  5
1F7
100
AcDbSymbolTableRecord
100
AcDbLinetypeTableRecord
  2
PHANTOM
 70
64
  3
_____ _ _ _____ _ _ _____ _ _ _____
 72
65
 73
6
 40
0.8
 49
0.45
 74
0
 49
-0.05
 74
0
 49
0.1
 74
0
 49
-0.05
 74
0
 49
0.1
 74
0
 49
-0.05
 74
0
  0
LTYPE
  5
1F8
100
AcDbSymbolTableRecord
100
AcDbLinetypeTableRecord
  2
DOT
 70
64
  3
. . . . . . . . . . . . . . . . . . . .
 72
65
 73
2
 40
0.2
 49
0.1
 74
0
 49
-0.1
 74
0
  0
LTYPE
  5
1F9
100
AcDbSymbolTableRecord
100
AcDbLinetypeTableRecord
  2
DASHED
 70
64
  3
- - - - - - - - - - - - - - - - - - - -
 72
65
 73
2
 40
0.2
 49
0.1
 74
0
 49
-0.1
 74
0
  0
ENDTAB
  0
TABLE
  2
LAYER
  5
2
100
AcDbSymbolTable
 70
36
  0
LAYER
  5
10
100
AcDbSymbolTableRecord
100
AcDbLayerTableRecord
  2
0
 70
0
 62
7
  6
CONTINUOUS
370
-3
390
F
  0
LAYER
  5
1FA
100
AcDbSymbolTableRecord
100
AcDbLayerTableRecord
  2
DEFAULT_1
 70
0
 62
7
  6
CENTER
370
-3
390
F
  0
LAYER
  5
1FB
100
AcDbSymbolTableRecord
100
AcDbLayerTableRecord
  2
DEFAULT_2
 70
0
 62
8
  6
HIDDEN
370
-3
390
F
  0
LAYER
  5
1FC
100
AcDbSymbolTableRecord
100
AcDbLayerTableRecord
  2
DEFAULT_3
 70
0
 62
7
  6
PHANTOM
370
-3
390
F
  0
LAYER
  5
1FD
100
AcDbSymbolTableRecord
100
AcDbLayerTableRecord
  2
DATUM_PLANES
 70
0
 62
7
  6
CONTINUOUS
370
-3
390
F
  0
LAYER
  5
1FE
100
AcDbSymbolTableRecord
100
AcDbLayerTableRecord
  2
DIMENSIONS
 70
0
 62
7
  6
CONTINUOUS
370
-3
390
F
  0
LAYER
  5
1FF
100
AcDbSymbolTableRecord
100
AcDbLayerTableRecord
  2
DTM_500001
 70
0
 62
7
  6
CONTINUOUS
370
-3
390
F
  0
LAYER
  5
200
100
AcDbSymbolTableRecord
100
AcDbLayerTableRecord
  2
PARAMETERDIMENSIONS
 70
0
 62
7
  6
CONTINUOUS
370
-3
390
F
  0
LAYER
  5
201
100
AcDbSymbolTableRecord
100
AcDbLayerTableRecord
  2
PLANE
 70
0
 62
7
  6
CONTINUOUS
370
-3
390
F
  0
LAYER
  5
202
100
AcDbSymbolTableRecord
100
AcDbLayerTableRecord
  2
PORT_AREAS
 70
0
 62
7
  6
CONTINUOUS
370
-3
390
F
  0
LAYER
  5
203
100
AcDbSymbolTableRecord
100
AcDbLayerTableRecord
  2
SUNNBOMCOSMETIC
 70
0
 62
7
  6
CONTINUOUS
370
-3
390
F
  0
LAYER
  5
204
100
AcDbSymbolTableRecord
100
AcDbLayerTableRecord
  2
SUNNBOMSTAMPING
 70
0
 62
7
  6
CONTINUOUS
370
-3
390
F
  0
LAYER
  5
205
100
AcDbSymbolTableRecord
100
AcDbLayerTableRecord
  2
THREADS
 70
0
 62
7
  6
CONTINUOUS
370
-3
390
F
  0
ENDTAB
  0
TABLE
  2
STYLE
  5
3
100
AcDbSymbolTable
 70
1
  0
STYLE
  5
11
100
AcDbSymbolTableRecord
100
AcDbTextStyleTableRecord
  2
STANDARD
 70
0
 40
0.0
 41
0.8
 50
0.0
 71
0
 42
0.2
  3
txt
  4

  0
STYLE
  5
206
100
AcDbSymbolTableRecord
100
AcDbTextStyleTableRecord
  2
TEXTSTYLE_1
 70
0
 40
0.0
 41
0.8
 50
0.0
 71
0
 42
0.2
  3
gdt
  4

  0
ENDTAB
  0
TABLE
  2
VIEW
  5
6
100
AcDbSymbolTable
 70
0
  0
ENDTAB
  0
TABLE
  2
UCS
  5
7
100
AcDbSymbolTable
 70
0
  0
ENDTAB
  0
TABLE
  2
APPID
  5
9
100
AcDbSymbolTable
 70
1
  0
APPID
  5
207
100
AcDbSymbolTableRecord
100
AcDbRegAppTableRecord
  2
ACAD
 70
0
  0
ENDTAB
  0
TABLE
  2
BLOCK_RECORD
  5
1
100
AcDbSymbolTable
 70
0
  0
BLOCK_RECORD
  5
208
100
AcDbSymbolTableRecord
100
AcDbBlockTableRecord
  2
*Model_Space
  0
BLOCK_RECORD
  5
209
100
AcDbSymbolTableRecord
100
AcDbBlockTableRecord
  2
*Paper_Space
  0
BLOCK_RECORD
  5
20A
100
AcDbSymbolTableRecord
100
AcDbBlockTableRecord
  2
SUN_FIRST_THIRD_ANGLE_BL0
  0
BLOCK_RECORD
  5
20B
100
AcDbSymbolTableRecord
100
AcDbBlockTableRecord
  2
*T1
  0
BLOCK_RECORD
  5
20C
100
AcDbSymbolTableRecord
100
AcDbBlockTableRecord
  2
*T2
  0
ENDTAB
  0
TABLE
  2
DIMSTYLE
  5
A
100
AcDbSymbolTable
 70
1
100
AcDbDimStyleTable
 71
0
  0
DIMSTYLE
105
20D
100
AcDbSymbolTableRecord
100
AcDbDimStyleTableRecord
  2
STANDARD
 70
0
  3

  4

 40
1.0
 41
0.1875
 42
0.0625
 43
0.38
 44
0.125
 45
0.0
 46
0.0
 47
0.001
 48
0.001
140
0.1
141
0.09
142
0.0
143
25.4
144
1.0
145
0.0
146
1.0
147
0.09
 71
0.0
 72
0.0
 73
1
 74
1
 75
0
 76
0
 77
0
 78
4
170
0
171
2
172
0
173
0
174
0
175
0
176
0
177
0
178
0
270
2
271
3
272
3
273
2
274
2
275
0
280
0
281
0
282
0
283
1
284
4
285
0
286
0
287
3
288
0
340
11
278
46
  0
ENDTAB
  0
ENDSEC
  0
SECTION
  2
BLOCKS
  0
BLOCK
  5
20
100
AcDbEntity
  8
0
100
AcDbBlockBegin
  2
*Model_Space
 70
0
 10
0.0
 20
0.0
 30
0.0
  3
*Model_Space
  1

  0
ENDBLK
  5
21
100
AcDbEntity
  8
0
100
AcDbBlockEnd
  0
BLOCK
  5
1C
100
AcDbEntity
  8
0
100
AcDbBlockBegin
  2
*Paper_Space
 70
0
 10
0.0
 20
0.0
 30
0.0
  3
*Paper_Space
  1

  0
ENDBLK
  5
1D
100
AcDbEntity
  8
0
100
AcDbBlockEnd
  0
BLOCK
  5
20E
100
AcDbEntity
  8
0
100
AcDbBlockBegin
 62
2
  6
CONTINUOUS
  2
SUN_FIRST_THIRD_ANGLE_BL0
 70
64
 10
20.4816717061
 20
1.2289683772
  3
SUN_FIRST_THIRD_ANGLE_BL0
  1

  0
TEXT
  5
20F
100
AcDbEntity
  8
0
100
AcDbText
 62
2
  6
CONTINUOUS
 10
19.4750896608
 20
1.4136269581
  7
STANDARD
 40
0.08
  1
FIRST ANGLE
 41
0.8
 72
0
100
AcDbText
  0
TEXT
  5
210
100
AcDbEntity
  8
0
100
AcDbText
 62
2
  6
CONTINUOUS
 10
20.7842537513
 20
1.4047600029
  7
STANDARD
 40
0.08
  1
THIRD ANGLE
 41
0.8
 72
0
100
AcDbText
  0
LINE
  5
211
100
AcDbEntity
  8
0
100
AcDbLine
 62
7
  6
CONTINUOUS
 10
19.4767170086
 20
1.1727031207
 11
19.6334271527
 21
1.1717972817
  0
LINE
  5
212
100
AcDbEntity
  8
0
100
AcDbLine
 62
7
  6
CONTINUOUS
 10
19.6596964832
 20
1.1717972817
 11
19.6950230232
 21
1.171593082
  0
LINE
  5
213
100
AcDbEntity
  8
0
100
AcDbLine
 62
7
  6
CONTINUOUS
 10
19.7194818561
 20
1.1708914427
 11
19.8852396156
 21
1.1699333054
  0
LINE
  5
214
100
AcDbEntity
  8
0
100
AcDbLine
 62
7
  6
CONTINUOUS
 10
19.4758111696
 20
1.2723454088
 11
19.88525039
 21
1.3511534004
  0
LINE
  5
215
100
AcDbEntity
  8
0
100
AcDbLine
 62
7
  6
CONTINUOUS
 10
19.88525039
 20
1.3511534004
 11
19.8831348489
 21
0.9851647912
  0
LINE
  5
216
100
AcDbEntity
  8
0
100
AcDbLine
 62
7
  6
CONTINUOUS
 10
19.8831348489
 20
0.9851647912
 11
19.4767170086
 21
1.0658141206
  0
LINE
  5
217
100
AcDbEntity
  8
0
100
AcDbLine
 62
7
  6
CONTINUOUS
 10
19.4767170086
 20
1.0658141206
 11
19.4779056764
 21
1.2714536432
  0
CIRCLE
  5
218
100
AcDbEntity
  8
0
100
AcDbCircle
 62
7
  6
CONTINUOUS
 10
20.2068232291
 20
1.1717972817
 40
0.175742101
  0
CIRCLE
  5
219
100
AcDbEntity
  8
0
100
AcDbCircle
 62
7
  6
CONTINUOUS
 10
20.2068232291
 20
1.1717972817
 40
0.1005522074
  0
LINE
  5
21A
100
AcDbEntity
  8
0
100
AcDbLine
 62
7
  6
CONTINUOUS
 10
20.2077290681
 20
1.3756110529
 11
20.2071171714
 21
1.2379342989
  0
LINE
  5
21B
100
AcDbEntity
  8
0
100
AcDbLine
 62
7
  6
CONTINUOUS
 10
20.2077290681
 20
1.2016899681
 11
20.2074674401
 21
1.1428236749
  0
LINE
  5
21C
100
AcDbEntity
  8
0
100
AcDbLine
 62
7
  6
CONTINUOUS
 10
20.208634907
 20
1.101141841
 11
20.2080230104
 21
0.963465087
  0
LINE
  5
21D
100
AcDbEntity
  8
0
100
AcDbLine
 62
7
  6
CONTINUOUS
 10
20.0066328138
 20
1.1745147986
 11
20.1443095678
 21
1.1739029019
  0
LINE
  5
21E
100
AcDbEntity
  8
0
100
AcDbLine
 62
7
  6
CONTINUOUS
 10
20.1832714155
 20
1.1727031207
 11
20.238153505
 21
1.172335442
  0
LINE
  5
21F
100
AcDbEntity
  8
0
100
AcDbLine
 62
7
  6
CONTINUOUS
 10
20.2756669918
 20
1.1717972817
 11
20.407916871
 21
1.1712095044
  0
CIRCLE
  5
220
100
AcDbEntity
  8
0
100
AcDbCircle
 62
7
  6
CONTINUOUS
 10
20.7509457401
 20
1.1693297793
 40
0.1722024983
  0
CIRCLE
  5
221
100
AcDbEntity
  8
0
100
AcDbCircle
 62
7
  6
CONTINUOUS
 10
20.7509457401
 20
1.1693297793
 40
0.0985164967
  0
LINE
  5
222
100
AcDbEntity
  8
0
100
AcDbLine
 62
7
  6
CONTINUOUS
 10
20.7169767782
 20
1.170462078
 11
20.7825395137
 21
1.1682766535
  0
LINE
  5
223
100
AcDbEntity
  8
0
100
AcDbLine
 62
7
  6
CONTINUOUS
 10
20.8177513651
 20
1.1693297793
 11
20.947965719
 21
1.1693297793
  0
LINE
  5
224
100
AcDbEntity
  8
0
100
AcDbLine
 62
7
  6
CONTINUOUS
 10
20.6875370113
 20
1.170462078
 11
20.5573226574
 21
1.170462078
  0
LINE
  5
225
100
AcDbEntity
  8
0
100
AcDbLine
 62
7
  6
CONTINUOUS
 10
20.7486811426
 20
1.1987695462
 11
20.7486811426
 21
1.1432869085
  0
LINE
  5
226
100
AcDbEntity
  8
0
100
AcDbLine
 62
7
  6
CONTINUOUS
 10
20.7498134414
 20
1.1059210505
 11
20.7498134414
 21
0.9757066966
  0
LINE
  5
227
100
AcDbEntity
  8
0
100
AcDbLine
 62
7
  6
CONTINUOUS
 10
20.7486811426
 20
1.2338708068
 11
20.7486811426
 21
1.3640851607
  0
LINE
  5
228
100
AcDbEntity
  8
0
100
AcDbLine
 62
7
  6
CONTINUOUS
 10
21.0702539817
 20
1.2701043662
 11
21.4790138229
 21
1.3448360823
  0
LINE
  5
229
100
AcDbEntity
  8
0
100
AcDbLine
 62
7
  6
CONTINUOUS
 10
21.4790138229
 20
1.3448360823
 11
21.4790138229
 21
0.9779712941
  0
LINE
  5
22A
100
AcDbEntity
  8
0
100
AcDbLine
 62
7
  6
CONTINUOUS
 10
21.4790138229
 20
0.9779712941
 11
21.069121683
 21
1.0617614
  0
LINE
  5
22B
100
AcDbEntity
  8
0
100
AcDbLine
 62
7
  6
CONTINUOUS
 10
21.0702539817
 20
1.2701043662
 11
21.069121683
 21
1.0617614
  0
LINE
  5
22C
100
AcDbEntity
  8
0
100
AcDbLine
 62
7
  6
CONTINUOUS
 10
21.4790138229
 20
1.1693297793
 11
21.3159628059
 21
1.1693297793
  0
LINE
  5
22D
100
AcDbEntity
  8
0
100
AcDbLine
 62
7
  6
CONTINUOUS
 10
21.2876553377
 20
1.1693297793
 11
21.2502894796
 21
1.1693297793
  0
LINE
  5
22E
100
AcDbEntity
  8
0
100
AcDbLine
 62
7
  6
CONTINUOUS
 10
21.2208497126
 20
1.1659328831
 11
21.0713862804
 21
1.1659328831
  0
LINE
  5
22F
100
AcDbEntity
  8
0
100
AcDbLine
 62
7
  6
CONTINUOUS
 10
20.4796138713
 20
1.5284908897
 11
20.4766766948
 21
0.9294458646
  0
ENDBLK
  5
230
100
AcDbEntity
  8
0
  6
BYBLOCK
 62
0
100
AcDbBlockEnd
  0
BLOCK
  5
231
100
AcDbEntity
  8
0
100
AcDbBlockBegin
  2
*T1
 70
1
 10
0.0
 20
0.0
  3
*T1
  1

  0
LINE
  5
232
100
AcDbEntity
  8
0
100
AcDbLine
 62
2
  6
CONTINUOUS
 10
9.275
 20
0.0
 11
-0.0
 21
0.0
  0
LINE
  5
233
100
AcDbEntity
  8
0
100
AcDbLine
 62
2
  6
CONTINUOUS
 10
9.275
 20
0.0
 11
9.275
 21
1.25
  0
LINE
  5
234
100
AcDbEntity
  8
0
100
AcDbLine
 62
2
  6
CONTINUOUS
 10
9.275
 20
0.625
 11
-0.0
 21
0.625
  0
LINE
  5
235
100
AcDbEntity
  8
0
100
AcDbLine
 62
2
  6
CONTINUOUS
 10
9.275
 20
1.25
 11
-0.0
 21
1.25
  0
LINE
  5
236
100
AcDbEntity
  8
0
100
AcDbLine
 62
2
  6
CONTINUOUS
 10
6.8
 20
0.0
 11
6.8
 21
1.25
  0
LINE
  5
237
100
AcDbEntity
  8
0
100
AcDbLine
 62
2
  6
CONTINUOUS
 10
6.4
 20
0.0
 11
6.4
 21
0.625
  0
LINE
  5
238
100
AcDbEntity
  8
0
100
AcDbLine
 62
2
  6
CONTINUOUS
 10
5.9
 20
0.0
 11
5.9
 21
0.625
  0
LINE
  5
239
100
AcDbEntity
  8
0
100
AcDbLine
 62
2
  6
CONTINUOUS
 10
5.2
 20
0.0
 11
5.2
 21
0.625
  0
LINE
  5
23A
100
AcDbEntity
  8
0
100
AcDbLine
 62
2
  6
CONTINUOUS
 10
4.1
 20
0.0
 11
4.1
 21
1.25
  0
LINE
  5
23B
100
AcDbEntity
  8
0
100
AcDbLine
 62
2
  6
CONTINUOUS
 10
-0.0
 20
0.0
 11
-0.0
 21
1.25
  0
MTEXT
  5
23C
100
AcDbEntity
  8
0
100
AcDbMText
 62
2
  6
CONTINUOUS
  7
STANDARD
 71
2
 72
1
 10
6.6
 20
0.325
 30
0.0
 11
1.0
 21
0.0
 31
0.0
 44
0.9
  1
2
 40
0.125
 41
0.2
  0
MTEXT
  5
23D
100
AcDbEntity
  8
0
100
AcDbMText
 62
2
  6
CONTINUOUS
  7
STANDARD
 71
2
 72
1
 10
6.15
 20
0.325
 30
0.0
 11
1.0
 21
0.0
 31
0.0
 44
0.9
  1
C
 40
0.125
 41
0.2
  0
MTEXT
  5
23E
100
AcDbEntity
  8
0
100
AcDbMText
 62
2
  6
CONTINUOUS
  7
STANDARD
 71
2
 72
1
 10
5.55
 20
0.325
 30
0.0
 11
1.0
 21
0.0
 31
0.0
 44
0.9
  1
2.000
 40
0.125
 41
1.0
  0
MTEXT
  5
23F
100
AcDbEntity
  8
0
100
AcDbMText
 62
2
  6
CONTINUOUS
  7
STANDARD
 71
2
 72
1
 10
4.65
 20
0.325
 30
0.0
 11
1.0
 21
0.0
 31
0.0
 44
0.9
  1
Dec-08-23
 40
0.125
 41
1.8
  0
MTEXT
  5
240
100
AcDbEntity
  8
0
100
AcDbMText
 62
2
  6
CONTINUOUS
  7
STANDARD
 71
2
 72
1
 10
2.05
 20
0.4625
 30
0.0
 11
1.0
 21
0.0
 31
0.0
 44
0.9
  1
T-162A Sandwich ISO 03 - 30mm\POut of A, check on P
 40
0.125
 41
5.8
  0
MTEXT
  5
241
100
AcDbEntity
  8
0
100
AcDbMText
 62
2
  6
CONTINUOUS
  7
STANDARD
 71
1
 72
1
 10
6.45
 20
0.5625
 30
0.0
 11
1.0
 21
0.0
 31
0.0
 44
0.9
  1
SHEET
 40
0.06
 41
0.48
  0
MTEXT
  5
242
100
AcDbEntity
  8
0
100
AcDbMText
 62
2
  6
CONTINUOUS
  7
STANDARD
 71
1
 72
1
 10
5.95
 20
0.5625
 30
0.0
 11
1.0
 21
0.0
 31
0.0
 44
0.9
  1
DWG SIZE
 40
0.06
 41
0.768
  0
MTEXT
  5
243
100
AcDbEntity
  8
0
100
AcDbMText
 62
2
  6
CONTINUOUS
  7
STANDARD
 71
1
 72
1
 10
5.25
 20
0.5625
 30
0.0
 11
1.0
 21
0.0
 31
0.0
 44
0.9
  1
SCALE
 40
0.06
 41
0.48
  0
MTEXT
  5
244
100
AcDbEntity
  8
0
100
AcDbMText
 62
2
  6
CONTINUOUS
  7
STANDARD
 71
1
 72
1
 10
4.15
 20
0.5625
 30
0.0
 11
1.0
 21
0.0
 31
0.0
 44
0.9
  1
DATE
 40
0.06
 41
0.384
  0
MTEXT
  5
245
100
AcDbEntity
  8
0
100
AcDbMText
 62
2
  6
CONTINUOUS
  7
STANDARD
 71
1
 72
1
 10
0.05
 20
0.5625
 30
0.0
 11
1.0
 21
0.0
 31
0.0
 44
0.9
  1
DESCRIPTION
 40
0.06
 41
1.056
  0
MTEXT
  5
246
100
AcDbEntity
  8
0
100
AcDbMText
 62
2
  6
CONTINUOUS
  7
STANDARD
 71
2
 72
1
 10
5.45
 20
1.0375
 30
0.0
 11
1.0
 21
0.0
 31
0.0
 44
0.9
  1
ALL DIMENSIONS IN INCH\PVIEWS ARE THIRD ANGLE
 40
0.12
 41
4.224
  0
MTEXT
  5
247
100
AcDbEntity
  8
0
100
AcDbMText
 62
2
  6
CONTINUOUS
  7
STANDARD
 71
2
 72
1
 10
2.05
 20
0.95
 30
0.0
 11
1.0
 21
0.0
 31
0.0
 44
0.9
  1
X7K
 40
0.125
 41
0.6
  0
MTEXT
  5
248
100
AcDbEntity
  8
0
100
AcDbMText
 62
2
  6
CONTINUOUS
  7
STANDARD
 71
1
 72
1
 10
0.05
 20
1.1875
 30
0.0
 11
1.0
 21
0.0
 31
0.0
 44
0.9
  1
MODEL
 40
0.06
 41
0.48
  0
ENDBLK
  5
249
100
AcDbEntity
  8
0
  6
BYBLOCK
 62
0
100
AcDbBlockEnd
  0
BLOCK
  5
24A
100
AcDbEntity
  8
0
100
AcDbBlockBegin
  2
*T2
 70
1
 10
0.0
 20
0.0
  3
*T2
  1

  0
LINE
  5
24B
100
AcDbEntity
  8
0
100
AcDbLine
 62
2
  6
CONTINUOUS
 10
0.0
 20
0.0
 11
9.055
 21
0.0
  0
LINE
  5
24C
100
AcDbEntity
  8
0
100
AcDbLine
 62
2
  6
CONTINUOUS
 10
0.0
 20
0.0
 11
0.0
 21
-2.344
  0
LINE
  5
24D
100
AcDbEntity
  8
0
100
AcDbLine
 62
2
  6
CONTINUOUS
 10
0.0
 20
-0.344
 11
9.055
 21
-0.344
  0
LINE
  5
24E
100
AcDbEntity
  8
0
100
AcDbLine
 62
2
  6
CONTINUOUS
 10
0.0
 20
-0.594
 11
9.055
 21
-0.594
  0
LINE
  5
24F
100
AcDbEntity
  8
0
100
AcDbLine
 62
2
  6
CONTINUOUS
 10
0.0
 20
-0.844
 11
9.055
 21
-0.844
  0
LINE
  5
250
100
AcDbEntity
  8
0
100
AcDbLine
 62
2
  6
CONTINUOUS
 10
0.0
 20
-1.094
 11
9.055
 21
-1.094
  0
LINE
  5
251
100
AcDbEntity
  8
0
100
AcDbLine
 62
2
  6
CONTINUOUS
 10
0.0
 20
-1.344
 11
9.055
 21
-1.344
  0
LINE
  5
252
100
AcDbEntity
  8
0
100
AcDbLine
 62
2
  6
CONTINUOUS
 10
0.0
 20
-1.594
 11
9.055
 21
-1.594
  0
LINE
  5
253
100
AcDbEntity
  8
0
100
AcDbLine
 62
2
  6
CONTINUOUS
 10
0.0
 20
-1.844
 11
9.055
 21
-1.844
  0
LINE
  5
254
100
AcDbEntity
  8
0
100
AcDbLine
 62
2
  6
CONTINUOUS
 10
0.0
 20
-2.094
 11
9.055
 21
-2.094
  0
LINE
  5
255
100
AcDbEntity
  8
0
100
AcDbLine
 62
2
  6
CONTINUOUS
 10
0.0
 20
-2.344
 11
9.055
 21
-2.344
  0
LINE
  5
256
100
AcDbEntity
  8
0
100
AcDbLine
 62
2
  6
CONTINUOUS
 10
3.055
 20
0.0
 11
3.055
 21
-2.344
  0
LINE
  5
257
100
AcDbEntity
  8
0
100
AcDbLine
 62
2
  6
CONTINUOUS
 10
9.055
 20
0.0
 11
9.055
 21
-2.344
  0
MTEXT
  5
258
100
AcDbEntity
  8
0
100
AcDbMText
 62
2
  6
CONTINUOUS
  7
STANDARD
 71
2
 72
1
 10
1.5275
 20
-0.0995
 30
0.0
 11
1.0
 21
0.0
 31
0.0
 44
0.9
  1
Technical Data
 40
0.145
 41
3.248
  0
MTEXT
  5
259
100
AcDbEntity
  8
0
100
AcDbMText
 62
2
  6
CONTINUOUS
  7
STANDARD
 71
2
 72
1
 10
4.555
 20
-0.0995
 30
0.0
 11
1.0
 21
0.0
 31
0.0
 44
0.9
  1
U.S. Units
 40
0.145
 41
2.32
  0
MTEXT
  5
25A
100
AcDbEntity
  8
0
100
AcDbMText
 62
2
  6
CONTINUOUS
  7
STANDARD
 71
2
 72
1
 10
7.555
 20
-0.0995
 30
0.0
 11
1.0
 21
0.0
 31
0.0
 44
0.9
  1
Metric Units
 40
0.145
 41
2.784
  0
MTEXT
  5
25B
100
AcDbEntity
  8
0
100
AcDbMText
 62
2
  6
CONTINUOUS
  7
STANDARD
 71
2
 72
1
 10
1.5275
 20
-0.4065
 30
0.0
 11
1.0
 21
0.0
 31
0.0
 44
0.9
  1
Cavity
 40
0.125
 41
1.2
  0
MTEXT
  5
25C
100
AcDbEntity
  8
0
100
AcDbMText
 62
2
  6
CONTINUOUS
  7
STANDARD
 71
2
 72
1
 10
6.055
 20
-0.4065
 30
0.0
 11
1.0
 21
0.0
 31
0.0
 44
0.9
  1
T-162A
 40
0.125
 41
1.2
  0
MTEXT
  5
25D
100
AcDbEntity
  8
0
100
AcDbMText
 62
2
  6
CONTINUOUS
  7
STANDARD
 71
2
 72
1
 10
1.5275
 20
-0.6565
 30
0.0
 11
1.0
 21
0.0
 31
0.0
 44
0.9
  1
Body Features
 40
0.125
 41
2.6
  0
MTEXT
  5
25E
100
AcDbEntity
  8
0
100
AcDbMText
 62
2
  6
CONTINUOUS
  7
STANDARD
 71
2
 72
1
 10
6.055
 20
-0.6565
 30
0.0
 11
1.0
 21
0.0
 31
0.0
 44
0.9
  1
Out of A, check on P
 40
0.125
 41
4.0
  0
MTEXT
  5
25F
100
AcDbEntity
  8
0
100
AcDbMText
 62
2
  6
CONTINUOUS
  7
STANDARD
 71
2
 72
1
 10
1.5275
 20
-0.9065
 30
0.0
 11
1.0
 21
0.0
 31
0.0
 44
0.9
  1
Body Type
 40
0.125
 41
1.8
  0
MTEXT
  5
260
100
AcDbEntity
  8
0
100
AcDbMText
 62
2
  6
CONTINUOUS
  7
STANDARD
 71
2
 72
1
 10
6.055
 20
-0.9065
 30
0.0
 11
1.0
 21
0.0
 31
0.0
 44
0.9
  1
Sandwich
 40
0.125
 41
1.6
  0
MTEXT
  5
261
100
AcDbEntity
  8
0
100
AcDbMText
 62
2
  6
CONTINUOUS
  7
STANDARD
 71
2
 72
1
 10
1.5275
 20
-1.1565
 30
0.0
 11
1.0
 21
0.0
 31
0.0
 44
0.9
  1
Interface
 40
0.125
 41
1.8
  0
MTEXT
  5
262
100
AcDbEntity
  8
0
100
AcDbMText
 62
2
  6
CONTINUOUS
  7
STANDARD
 71
2
 72
1
 10
6.055
 20
-1.1565
 30
0.0
 11
1.0
 21
0.0
 31
0.0
 44
0.9
  1
ISO 03 - 30mm
 40
0.125
 41
2.6
  0
MTEXT
  5
263
100
AcDbEntity
  8
0
100
AcDbMText
 62
2
  6
CONTINUOUS
  7
STANDARD
 71
2
 72
1
 10
1.5275
 20
-1.4065
 30
0.0
 11
1.0
 21
0.0
 31
0.0
 44
0.9
  1
Open Cavity Quantity
 40
0.125
 41
4.0
  0
MTEXT
  5
264
100
AcDbEntity
  8
0
100
AcDbMText
 62
2
  6
CONTINUOUS
  7
STANDARD
 71
2
 72
1
 10
6.055
 20
-1.4065
 30
0.0
 11
1.0
 21
0.0
 31
0.0
 44
0.9
  1
1
 40
0.125
 41
0.2
  0
MTEXT
  5
265
100
AcDbEntity
  8
0
100
AcDbMText
 62
2
  6
CONTINUOUS
  7
STANDARD
 71
2
 72
1
 10
1.5275
 20
-1.6565
 30
0.0
 11
1.0
 21
0.0
 31
0.0
 44
0.9
  1
Weight
 40
0.125
 41
1.2
  0
MTEXT
  5
266
100
AcDbEntity
  8
0
100
AcDbMText
 62
2
  6
CONTINUOUS
  7
STANDARD
 71
2
 72
1
 10
4.555
 20
-1.6565
 30
0.0
 11
1.0
 21
0.0
 31
0.0
 44
0.9
  1
0.665 lb.
 40
0.125
 41
1.8
  0
MTEXT
  5
267
100
AcDbEntity
  8
0
100
AcDbMText
 62
2
  6
CONTINUOUS
  7
STANDARD
 71
2
 72
1
 10
7.555
 20
-1.6565
 30
0.0
 11
1.0
 21
0.0
 31
0.0
 44
0.9
  1
0,302 kg.
 40
0.125
 41
1.8
  0
MTEXT
  5
268
100
AcDbEntity
  8
0
100
AcDbMText
 62
2
  6
CONTINUOUS
  7
STANDARD
 71
2
 72
1
 10
1.5275
 20
-1.9065
 30
0.0
 11
1.0
 21
0.0
 31
0.0
 44
0.9
  1
Seal Plate Included (see notes)
 40
0.125
 41
6.2
  0
MTEXT
  5
269
100
AcDbEntity
  8
0
100
AcDbMText
 62
2
  6
CONTINUOUS
  7
STANDARD
 71
2
 72
1
 10
6.055
 20
-1.9065
 30
0.0
 11
1.0
 21
0.0
 31
0.0
 44
0.9
  1
Yes
 40
0.125
 41
0.6
  0
MTEXT
  5
26A
100
AcDbEntity
  8
0
100
AcDbMText
 62
2
  6
CONTINUOUS
  7
STANDARD
 71
2
 72
1
 10
1.5275
 20
-2.1565
 30
0.0
 11
1.0
 21
0.0
 31
0.0
 44
0.9
  1
Includes integral cartridge(s)
 40
0.125
 41
6.0
  0
MTEXT
  5
26B
100
AcDbEntity
  8
0
100
AcDbMText
 62
2
  6
CONTINUOUS
  7
STANDARD
 71
2
 72
1
 10
6.055
 20
-2.1565
 30
0.0
 11
1.0
 21
0.0
 31
0.0
 44
0.9
  1
Yes (see Included Components)
 40
0.125
 41
5.8
  0
ENDBLK
  5
26C
100
AcDbEntity
  8
0
  6
BYBLOCK
 62
0
100
AcDbBlockEnd
  0
ENDSEC
  0
SECTION
  2
ENTITIES
  0
IMAGE
  5
26D
100
AcDbEntity
  8
0
100
AcDbRasterImage
 62
7
  6
CONTINUOUS
 10
19.2297077316
 20
0.3094318264
 30
0.0
 11
0.0066666667
 21
0.0
 31
0.0
 12
0.0
 22
0.0066666667
 32
0.0
 13
369.0
 23
92.0
340
       355
 70
9
280
0
281
50
282
50
283
0
360
       34F
 71
1
 91
2
 14
-0.5
 24
-0.5
 14
368.5
 24
91.5
  0
INSERT
  5
26E
100
AcDbEntity
  8
0
100
AcDbBlockReference
 62
2
  6
CONTINUOUS
  2
SUN_FIRST_THIRD_ANGLE_BL0
 10
20.4816717061
 20
1.2289683772
  0
ACAD_TABLE
  5
26F
100
AcDbEntity
  8
0
 62
2
  6
CONTINUOUS
100
AcDbBlockReference
  2
*T1
 10
12.42375
 20
0.30125
 30
0.0
100
AcDbTable
342
       357
343
20B
 11
1.0
 21
0.0
 31
0.0
 90
6
 91
4
 92
6
 93
20
 94
0
 95
0
 96
0
 70
1
 41
0.0
141
0.525
141
0.1
141
0.525
141
0.1
142
4.1
142
1.1
142
0.7
142
0.5
142
0.4
142
2.475
171
1
172
0
173
0
174
0
175
1
176
1
 91
33
178
0
145
0.0
301
CELL_VALUE
 90
4
  1
T-162A Sandwich ISO 03 - 30mm\POut of A, check on P
304
ACVALUE_END
170
2
140
0.125
171
1
172
0
173
0
174
0
175
1
176
1
 91
33
178
0
145
0.0
301
CELL_VALUE
 90
4
  1
Dec-08-23
304
ACVALUE_END
170
5
140
0.125
171
1
172
0
173
0
174
0
175
1
176
1
 91
33
178
0
145
0.0
301
CELL_VALUE
 90
4
  1
2.000
304
ACVALUE_END
170
5
140
0.125
171
1
172
0
173
0
174
0
175
1
176
1
 91
33
178
0
145
0.0
301
CELL_VALUE
 90
4
  1
C
304
ACVALUE_END
170
5
140
0.125
171
1
172
0
173
0
174
0
175
1
176
1
 91
33
178
0
145
0.0
301
CELL_VALUE
 90
4
  1
2
304
ACVALUE_END
170
5
140
0.125
171
1
172
0
173
0
174
0
175
1
176
1
 91
33
178
0
145
0.0
301
CELL_VALUE
 90
4
  1
 
304
ACVALUE_END
170
1
140
0.125
171
1
172
0
173
0
174
0
175
1
176
1
 91
33
178
0
145
0.0
301
CELL_VALUE
 90
4
  1
DESCRIPTION
304
ACVALUE_END
170
1
140
0.06
171
1
172
0
173
0
174
0
175
1
176
1
 91
33
178
0
145
0.0
301
CELL_VALUE
 90
4
  1
DATE
304
ACVALUE_END
170
1
140
0.06
171
1
172
0
173
0
174
0
175
1
176
1
 91
33
178
0
145
0.0
301
CELL_VALUE
 90
4
  1
SCALE
304
ACVALUE_END
170
1
140
0.06
171
1
172
0
173
0
174
0
175
1
176
1
 91
33
178
0
145
0.0
301
CELL_VALUE
 90
4
  1
DWG SIZE
304
ACVALUE_END
170
1
140
0.06
171
1
172
0
173
0
174
0
175
1
176
1
 91
33
178
0
145
0.0
301
CELL_VALUE
 90
4
  1
SHEET
304
ACVALUE_END
170
1
140
0.06
171
1
172
0
173
0
174
0
175
1
176
1
 91
33
178
0
145
0.0
301
CELL_VALUE
 90
4
  1
 
304
ACVALUE_END
170
1
140
0.125
171
1
172
0
173
0
174
0
175
1
176
1
 91
33
178
0
145
0.0
301
CELL_VALUE
 90
4
  1
X7K
304
ACVALUE_END
170
5
140
0.125
171
1
172
0
173
0
174
0
175
4
176
1
 91
33
178
0
145
0.0
301
CELL_VALUE
 90
4
  1
ALL DIMENSIONS IN INCH\PVIEWS ARE THIRD ANGLE
304
ACVALUE_END
170
5
140
0.12
171
1
172
0
173
1
174
0
175
1
176
1
 91
1
178
0
145
0.0
170
1
171
1
172
0
173
1
174
0
175
1
176
1
 91
1
178
0
145
0.0
170
1
171
1
172
0
173
1
174
0
175
1
176
1
 91
1
178
0
145
0.0
170
5
171
1
172
0
173
0
174
0
175
1
176
1
 91
33
178
0
145
0.0
301
CELL_VALUE
 90
4
  1
 
304
ACVALUE_END
170
1
140
0.125
171
1
172
0
173
0
174
0
175
1
176
1
 91
33
178
0
145
0.0
301
CELL_VALUE
 90
4
  1
MODEL
304
ACVALUE_END
170
1
140
0.06
171
1
172
0
173
0
174
0
175
1
176
1
 91
33
178
0
145
0.0
301
CELL_VALUE
 90
4
  1
 
304
ACVALUE_END
170
1
140
0.125
171
1
172
0
173
0
174
0
175
1
176
1
 91
33
178
0
145
0.0
301
CELL_VALUE
 90
4
  1
 
304
ACVALUE_END
170
1
140
0.125
171
1
172
0
173
0
174
0
175
1
176
1
 91
33
178
0
145
0.0
301
CELL_VALUE
 90
4
  1
 
304
ACVALUE_END
170
1
140
0.125
171
1
172
0
173
0
174
0
175
1
176
1
 91
33
178
0
145
0.0
301
CELL_VALUE
 90
4
  1
 
304
ACVALUE_END
170
1
140
0.125
171
1
172
0
173
0
174
0
175
1
176
1
 91
33
178
0
145
0.0
301
CELL_VALUE
 90
4
  1
 
304
ACVALUE_END
170
1
140
0.125
  0
ACAD_TABLE
  5
270
100
AcDbEntity
  8
0
 62
2
  6
CONTINUOUS
100
AcDbBlockReference
  2
*T2
 10
12.4237499994
 20
16.47875
 30
0.0
100
AcDbTable
342
       356
343
20C
 11
1.0
 21
0.0
 31
0.0
 90
22
 91
9
 92
3
 93
16
 94
0
 95
0
 96
0
 41
0.028
141
0.344
141
0.25
141
0.25
141
0.25
141
0.25
141
0.25
141
0.25
141
0.25
141
0.25
142
3.055
142
3.0
142
3.0
171
1
172
0
173
0
174
0
175
1
176
1
 91
33
178
0
145
0.0
301
CELL_VALUE
 90
4
  1
Technical Data
304
ACVALUE_END
170
5
140
0.145
171
1
172
0
173
0
174
0
175
1
176
1
 91
33
178
0
145
0.0
301
CELL_VALUE
 90
4
  1
U.S. Units
304
ACVALUE_END
170
5
140
0.145
171
1
172
0
173
0
174
0
175
1
176
1
 91
33
178
0
145
0.0
301
CELL_VALUE
 90
4
  1
Metric Units
304
ACVALUE_END
170
5
140
0.145
171
1
172
0
173
0
174
0
175
1
176
1
 91
33
178
0
145
0.0
301
CELL_VALUE
 90
4
  1
Cavity
304
ACVALUE_END
170
5
140
0.125
171
1
172
0
173
0
174
0
175
2
176
1
 91
33
178
0
145
0.0
301
CELL_VALUE
 90
4
  1
T-162A
304
ACVALUE_END
170
5
140
0.125
171
1
172
0
173
1
174
0
175
1
176
1
 91
1
178
0
145
0.0
170
1
171
1
172
0
173
0
174
0
175
1
176
1
 91
33
178
0
145
0.0
301
CELL_VALUE
 90
4
  1
Body Features
304
ACVALUE_END
170
5
140
0.125
171
1
172
0
173
0
174
0
175
2
176
1
 91
33
178
0
145
0.0
301
CELL_VALUE
 90
4
  1
Out of A, check on P
304
ACVALUE_END
170
5
140
0.125
171
1
172
0
173
1
174
0
175
1
176
1
 91
1
178
0
145
0.0
170
1
171
1
172
0
173
0
174
0
175
1
176
1
 91
33
178
0
145
0.0
301
CELL_VALUE
 90
4
  1
Body Type
304
ACVALUE_END
170
5
140
0.125
171
1
172
0
173
0
174
0
175
2
176
1
 91
33
178
0
145
0.0
301
CELL_VALUE
 90
4
  1
Sandwich
304
ACVALUE_END
170
5
140
0.125
171
1
172
0
173
1
174
0
175
1
176
1
 91
1
178
0
145
0.0
170
1
171
1
172
0
173
0
174
0
175
1
176
1
 91
33
178
0
145
0.0
301
CELL_VALUE
 90
4
  1
Interface
304
ACVALUE_END
170
5
140
0.125
171
1
172
0
173
0
174
0
175
2
176
1
 91
33
178
0
145
0.0
301
CELL_VALUE
 90
4
  1
ISO 03 - 30mm
304
ACVALUE_END
170
5
140
0.125
171
1
172
0
173
1
174
0
175
1
176
1
 91
1
178
0
145
0.0
170
1
171
1
172
0
173
0
174
0
175
1
176
1
 91
33
178
0
145
0.0
301
CELL_VALUE
 90
4
  1
Open Cavity Quantity
304
ACVALUE_END
170
5
140
0.125
171
1
172
0
173
0
174
0
175
2
176
1
 91
33
178
0
145
0.0
301
CELL_VALUE
 90
4
  1
1
304
ACVALUE_END
170
5
140
0.125
171
1
172
0
173
1
174
0
175
1
176
1
 91
1
178
0
145
0.0
170
1
171
1
172
0
173
0
174
0
175
1
176
1
 91
33
178
0
145
0.0
301
CELL_VALUE
 90
4
  1
Weight
304
ACVALUE_END
170
5
140
0.125
171
1
172
0
173
0
174
0
175
1
176
1
 91
33
178
0
145
0.0
301
CELL_VALUE
 90
4
  1
0.665 lb.
304
ACVALUE_END
170
5
140
0.125
171
1
172
0
173
0
174
0
175
1
176
1
 91
33
178
0
145
0.0
301
CELL_VALUE
 90
4
  1
0,302 kg.
304
ACVALUE_END
170
5
140
0.125
171
1
172
0
173
0
174
0
175
1
176
1
 91
33
178
0
145
0.0
301
CELL_VALUE
 90
4
  1
Seal Plate Included (see notes)
304
ACVALUE_END
170
5
140
0.125
171
1
172
0
173
0
174
0
175
2
176
1
 91
33
178
0
145
0.0
301
CELL_VALUE
 90
4
  1
Yes
304
ACVALUE_END
170
5
140
0.125
171
1
172
0
173
1
174
0
175
1
176
1
 91
1
178
0
145
0.0
170
1
171
1
172
0
173
0
174
0
175
1
176
1
 91
33
178
0
145
0.0
301
CELL_VALUE
 90
4
  1
Includes integral cartridge(s)
304
ACVALUE_END
170
5
140
0.125
171
1
172
0
173
0
174
0
175
2
176
1
 91
33
178
0
145
0.0
301
CELL_VALUE
 90
4
  1
Yes (see Included Components)
304
ACVALUE_END
170
5
140
0.125
171
1
172
0
173
1
174
0
175
1
176
1
 91
1
178
0
145
0.0
170
1
  0
MTEXT
  5
271
100
AcDbEntity
  8
0
100
AcDbMText
 62
2
  6
CONTINUOUS
  7
STANDARD
 71
1
 72
1
 10
0.52125
 20
5.75995
 30
0.0
 11
1.0
 21
0.0
 31
0.0
 44
0.6
  3
Notes\P \P1. Important: Carefully consider\P   the maximum system pressure. The\P   pressure rating of the manifold is\P   dependent on the manifold material,\P   with the port type/size a secondary\P   consideration. Manifolds\P   constructed of alu
  3
minum are not\P   rated for pressures higher than\P   3000 psi (210 bar), regardless of\P   the port type/size specified.\P2. This drawing is for reference\P   only. It is generated by an\P   automated process and does not fall\P   under Sun's docume
  1
nt control\P   process.
 40
0.1
 41
3.04
  0
LINE
  5
272
100
AcDbEntity
  8
0
100
AcDbLine
 62
7
  6
CONTINUOUS
 10
0.30125
 20
0.30125
 11
0.30125
 21
16.69875
  0
LINE
  5
273
100
AcDbEntity
  8
0
100
AcDbLine
 62
7
  6
CONTINUOUS
 10
0.30125
 20
0.30125
 11
21.69875
 21
0.30125
  0
LINE
  5
274
100
AcDbEntity
  8
0
100
AcDbLine
 62
7
  6
CONTINUOUS
 10
0.30125
 20
16.69875
 11
21.69875
 21
16.69875
  0
LINE
  5
275
100
AcDbEntity
  8
0
100
AcDbLine
 62
7
  6
CONTINUOUS
 10
21.69875
 20
0.30125
 11
21.69875
 21
16.69875
  0
LINE
  5
276
100
AcDbEntity
  8
0
100
AcDbLine
 62
7
  6
CONTINUOUS
 10
6.9567534637
 20
9.3064245815
 11
6.9567534637
 21
7.6160542853
  0
LINE
  5
277
100
AcDbEntity
  8
0
100
AcDbLine
 62
7
  6
CONTINUOUS
 10
7.0005941009
 20
9.2867713877
 11
7.0005941009
 21
7.5964010915
  0
LINE
  5
278
100
AcDbEntity
  8
0
100
AcDbLine
 62
7
  6
CONTINUOUS
 10
7.0962833879
 20
7.0644175531
 11
7.0445324363
 21
7.1280480527
  0
LINE
  5
279
100
AcDbEntity
  8
0
100
AcDbLine
 62
7
  6
CONTINUOUS
 10
7.341875885
 20
10.3429813044
 11
7.1348208198
 21
10.1429814576
  0
LINE
  5
27A
100
AcDbEntity
  8
0
100
AcDbLine
 62
7
  6
CONTINUOUS
 10
7.4017632898
 20
10.3987155035
 11
7.1947082246
 21
10.1987156567
  0
LINE
  5
27B
100
AcDbEntity
  8
0
100
AcDbLine
 62
7
  6
CONTINUOUS
 10
7.4035956959
 20
10.4004531935
 11
7.4017632898
 21
10.3987155035
  0
LINE
  5
27C
100
AcDbEntity
  8
0
100
AcDbLine
 62
7
  6
CONTINUOUS
 10
7.3435582702
 20
10.3445765032
 11
7.341875885
 21
10.3429813044
  0
LINE
  5
27D
100
AcDbEntity
  8
0
100
AcDbLine
 62
7
  6
CONTINUOUS
 10
7.4017471913
 20
10.3987328008
 11
7.3435568122
 21
10.3445753453
  0
LINE
  5
27E
100
AcDbEntity
  8
0
100
AcDbLine
 62
7
  6
CONTINUOUS
 10
7.341875885
 20
10.3429813044
 11
7.4017632898
 21
10.3987155035
  0
LINE
  5
27F
100
AcDbEntity
  8
0
100
AcDbLine
 62
7
  6
CONTINUOUS
 10
7.1348208198
 20
10.1429814576
 11
7.1947082246
 21
10.1987156567
  0
LINE
  5
280
100
AcDbEntity
  8
0
100
AcDbLine
 62
7
  6
CONTINUOUS
 10
8.1403494992
 20
10.0458417017
 11
8.7516795762
 21
10.6363412465
  0
LINE
  5
281
100
AcDbEntity
  8
0
100
AcDbLine
 62
7
  6
CONTINUOUS
 10
8.1403494992
 20
10.0458417017
 11
8.1403494992
 21
6.6651011094
  0
LINE
  5
282
100
AcDbEntity
  8
0
100
AcDbLine
 62
7
  6
CONTINUOUS
 10
6.9567534637
 20
7.6160542853
 11
7.0005941009
 21
7.5964010915
  0
LINE
  5
283
100
AcDbEntity
  8
0
100
AcDbLine
 62
7
  6
CONTINUOUS
 10
12.4870161478
 20
6.3636587535
 11
8.1403494992
 21
6.6651011094
  0
LINE
  5
284
100
AcDbEntity
  8
0
100
AcDbLine
 62
7
  6
CONTINUOUS
 10
13.0614052134
 20
7.1946271003
 11
12.985471041
 21
7.1832803178
  0
LINE
  5
285
100
AcDbEntity
  8
0
100
AcDbLine
 62
7
  6
CONTINUOUS
 10
8.1403494992
 20
6.9665191204
 11
7.1428201749
 21
7.035698014
  0
LINE
  5
286
100
AcDbEntity
  8
0
100
AcDbLine
 62
7
  6
CONTINUOUS
 10
12.6370067731
 20
6.6566067311
 11
13.127697115
 21
6.6225772403
  0
LINE
  5
287
100
AcDbEntity
  8
0
100
AcDbLine
 62
4
  6
CONTINUOUS
 10
9.5216236311
 20
8.2307019091
 11
9.5216236311
 21
8.2693389413
  0
LINE
  5
288
100
AcDbEntity
  8
0
100
AcDbLine
 62
4
  6
CONTINUOUS
 10
9.6375347345
 20
8.3192560376
 11
9.6375347345
 21
8.1647078951
  0
LINE
  5
289
100
AcDbEntity
  8
0
100
AcDbLine
 62
4
  6
CONTINUOUS
 10
9.8114013897
 20
8.3844724084
 11
9.8114013897
 21
8.1526502016
  0
LINE
  5
28A
100
AcDbEntity
  8
0
100
AcDbLine
 62
4
  6
CONTINUOUS
 10
10.2943643458
 20
7.3270973317
 11
10.26538657
 21
7.3291069472
  0
LINE
  5
28B
100
AcDbEntity
  8
0
100
AcDbLine
 62
4
  6
CONTINUOUS
 10
10.2943643458
 20
7.4816454742
 11
10.3233421217
 21
7.4603173321
  0
LINE
  5
28C
100
AcDbEntity
  8
0
100
AcDbLine
 62
4
  6
CONTINUOUS
 10
9.5506014069
 20
8.1900552596
 11
9.5216236311
 21
8.2307019091
  0
LINE
  5
28D
100
AcDbEntity
  8
0
100
AcDbLine
 62
4
  6
CONTINUOUS
 10
9.6085569587
 20
8.3019471267
 11
9.6375347345
 21
8.261300479
  0
LINE
  5
28E
100
AcDbEntity
  8
0
100
AcDbLine
 62
4
  6
CONTINUOUS
 10
9.5216236311
 20
8.2693389413
 11
9.5506014069
 21
8.3059663579
  0
LINE
  5
28F
100
AcDbEntity
  8
0
100
AcDbLine
 62
4
  6
CONTINUOUS
 10
9.6375347345
 20
8.2226634468
 11
9.6085569587
 21
8.1860360285
  0
LINE
  5
290
100
AcDbEntity
  8
0
100
AcDbLine
 62
7
  6
CONTINUOUS
 10
7.0005941009
 20
7.5964010915
 11
8.1403494992
 21
7.5173587862
  0
LINE
  5
291
100
AcDbEntity
  8
0
100
AcDbLine
 62
7
  6
CONTINUOUS
 10
12.985471041
 20
7.1832803178
 11
12.4947806991
 21
7.2173098086
  0
LINE
  5
292
100
AcDbEntity
  8
0
100
AcDbLine
 62
7
  6
CONTINUOUS
 10
13.856822408
 20
7.1338306279
 11
14.7840440103
 21
7.0695275914
  0
LINE
  5
293
100
AcDbEntity
  8
0
100
AcDbLine
 62
7
  6
CONTINUOUS
 10
13.2613694067
 20
7.3005954772
 11
13.6942248929
 21
7.2705768473
  0
LINE
  5
294
100
AcDbEntity
  8
0
100
AcDbLine
 62
7
  6
CONTINUOUS
 10
13.6794019574
 20
7.3447439009
 11
14.6066235597
 21
7.2804408644
  0
LINE
  5
295
100
AcDbEntity
  8
0
100
AcDbLine
 62
7
  6
CONTINUOUS
 10
13.671057968
 20
7.3906206691
 11
14.5982795702
 21
7.3263176326
  0
LINE
  5
296
100
AcDbEntity
  8
0
100
AcDbLine
 62
7
  6
CONTINUOUS
 10
6.9567534637
 20
9.3064245815
 11
7.0005941009
 21
9.2867713877
  0
LINE
  5
297
100
AcDbEntity
  8
0
100
AcDbLine
 62
4
  6
CONTINUOUS
 10
9.5795791828
 20
8.1687271262
 11
9.5506014069
 21
8.1900552596
  0
LINE
  5
298
100
AcDbEntity
  8
0
100
AcDbLine
 62
4
  6
CONTINUOUS
 10
9.5795791828
 20
8.3232752688
 11
9.6085569587
 21
8.3019471267
  0
LINE
  5
299
100
AcDbEntity
  8
0
100
AcDbLine
 62
4
  6
CONTINUOUS
 10
10.3233421217
 20
7.4603173321
 11
10.3523198975
 21
7.4196706844
  0
LINE
  5
29A
100
AcDbEntity
  8
0
100
AcDbLine
 62
4
  6
CONTINUOUS
 10
10.26538657
 20
7.3291069472
 11
10.2364087941
 21
7.3890721145
  0
LINE
  5
29B
100
AcDbEntity
  8
0
100
AcDbLine
 62
4
  6
CONTINUOUS
 10
10.2364087941
 20
7.4856647053
 11
10.2364087941
 21
7.2538424916
  0
LINE
  5
29C
100
AcDbEntity
  8
0
100
AcDbLine
 62
4
  6
CONTINUOUS
 10
10.2943643458
 20
8.8918973827
 11
10.2943643458
 21
9.1237195896
  0
LINE
  5
29D
100
AcDbEntity
  8
0
100
AcDbLine
 62
4
  6
CONTINUOUS
 10
10.3523198975
 20
7.4196706844
 11
10.3523198975
 21
7.3810336522
  0
LINE
  5
29E
100
AcDbEntity
  8
0
100
AcDbLine
 62
4
  6
CONTINUOUS
 10
9.5506014069
 20
8.3059663579
 11
9.5795791828
 21
8.3232752688
  0
LINE
  5
29F
100
AcDbEntity
  8
0
100
AcDbLine
 62
4
  6
CONTINUOUS
 10
10.5261865527
 20
9.1076426649
 11
10.5261865527
 21
8.8758204581
  0
LINE
  5
2A0
100
AcDbEntity
  8
0
100
AcDbLine
 62
4
  6
CONTINUOUS
 10
10.5261865527
 20
7.5428426139
 11
10.5261865527
 21
7.311020407
  0
LINE
  5
2A1
100
AcDbEntity
  8
0
100
AcDbLine
 62
4
  6
CONTINUOUS
 10
9.6085569587
 20
8.1860360285
 11
9.5795791828
 21
8.1687271262
  0
LINE
  5
2A2
100
AcDbEntity
  8
0
100
AcDbLine
 62
4
  6
CONTINUOUS
 10
10.9898310096
 20
8.0709258299
 11
10.9608532337
 21
8.0922539633
  0
LINE
  5
2A3
100
AcDbEntity
  8
0
100
AcDbLine
 62
4
  6
CONTINUOUS
 10
10.9608532337
 20
8.0922539633
 11
10.9318754579
 21
8.1329006127
  0
LINE
  5
2A4
100
AcDbEntity
  8
0
100
AcDbLine
 62
4
  6
CONTINUOUS
 10
10.9318754579
 20
8.3067672679
 11
10.9318754579
 21
8.074945061
  0
LINE
  5
2A5
100
AcDbEntity
  8
0
100
AcDbLine
 62
4
  6
CONTINUOUS
 10
13.1649327611
 20
8.5397054887
 11
13.1519918194
 21
8.5392795719
  0
LINE
  5
2A6
100
AcDbEntity
  8
0
100
AcDbLine
 62
7
  6
CONTINUOUS
 10
13.671057968
 20
8.1551972261
 11
14.5982795702
 21
8.0908941896
  0
LINE
  5
2A7
100
AcDbEntity
  8
0
100
AcDbLine
 62
7
  6
CONTINUOUS
 10
13.6794019574
 20
8.2171933451
 11
14.6066235597
 21
8.1528903086
  0
LINE
  5
2A8
100
AcDbEntity
  8
0
100
AcDbLine
 62
4
  6
CONTINUOUS
 10
10.9898310096
 20
8.2254739724
 11
11.0188087854
 21
8.2041458304
  0
LINE
  5
2A9
100
AcDbEntity
  8
0
100
AcDbLine
 62
4
  6
CONTINUOUS
 10
11.0188087854
 20
8.2041458304
 11
11.0477865613
 21
8.1634991826
  0
LINE
  5
2AA
100
AcDbEntity
  8
0
100
AcDbLine
 62
4
  6
CONTINUOUS
 10
11.0477865613
 20
8.1634991826
 11
11.0477865613
 21
8.1248621504
  0
LINE
  5
2AB
100
AcDbEntity
  8
0
100
AcDbLine
 62
4
  6
CONTINUOUS
 10
11.2216532165
 20
8.2866711121
 11
11.2216532165
 21
8.0548489052
  0
LINE
  5
2AC
100
AcDbEntity
  8
0
100
AcDbLine
 62
4
  6
CONTINUOUS
 10
10.2364087941
 20
7.4277091467
 11
10.26538657
 21
7.4643365633
  0
LINE
  5
2AD
100
AcDbEntity
  8
0
100
AcDbLine
 62
4
  6
CONTINUOUS
 10
10.9318754579
 20
8.1715376449
 11
10.9608532337
 21
8.2081650615
  0
LINE
  5
2AE
100
AcDbEntity
  8
0
100
AcDbLine
 62
4
  6
CONTINUOUS
 10
10.3523198975
 20
7.3810336522
 11
10.3233421217
 21
7.3444062339
  0
LINE
  5
2AF
100
AcDbEntity
  8
0
100
AcDbLine
 62
4
  6
CONTINUOUS
 10
11.0477865613
 20
8.1248621504
 11
11.0188087854
 21
8.0882347321
  0
LINE
  5
2B0
100
AcDbEntity
  8
0
100
AcDbLine
 62
7
  6
CONTINUOUS
 10
12.4870161478
 20
9.7443993458
 11
13.0983462248
 21
10.3348988906
  0
LINE
  5
2B1
100
AcDbEntity
  8
0
100
AcDbLine
 62
7
  6
CONTINUOUS
 10
12.6888948228
 20
9.8196243738
 11
12.895949888
 21
10.0196242206
  0
LINE
  5
2B2
100
AcDbEntity
  8
0
100
AcDbLine
 62
4
  6
CONTINUOUS
 10
10.9608532337
 20
8.2081650615
 11
10.9898310096
 21
8.2254739724
  0
LINE
  5
2B3
100
AcDbEntity
  8
0
100
AcDbLine
 62
7
  6
CONTINUOUS
 10
13.0614052134
 20
8.8849973965
 11
12.985471041
 21
8.873650614
  0
LINE
  5
2B4
100
AcDbEntity
  8
0
100
AcDbLine
 62
7
  6
CONTINUOUS
 10
13.1795851647
 20
9.785594883
 11
13.3866402299
 21
9.9855947298
  0
LINE
  5
2B5
100
AcDbEntity
  8
0
100
AcDbLine
 62
4
  6
CONTINUOUS
 10
11.0188087854
 20
8.0882347321
 11
10.9898310096
 21
8.0709258299
  0
LINE
  5
2B6
100
AcDbEntity
  8
0
100
AcDbLine
 62
4
  6
CONTINUOUS
 10
10.26538657
 20
7.4643365633
 11
10.2943643458
 21
7.4816454742
  0
LINE
  5
2B7
100
AcDbEntity
  8
0
100
AcDbLine
 62
4
  6
CONTINUOUS
 10
10.3233421217
 20
7.3444062339
 11
10.2943643458
 21
7.3270973317
  0
LINE
  5
2B8
100
AcDbEntity
  8
0
100
AcDbLine
 62
7
  6
CONTINUOUS
 10
13.3584827151
 20
8.6972232268
 11
13.7898461238
 21
8.6673080728
  0
LINE
  5
2B9
100
AcDbEntity
  8
0
100
AcDbLine
 62
7
  6
CONTINUOUS
 10
13.856822408
 20
8.7708566291
 11
14.7840440103
 21
8.7065535926
  0
LINE
  5
2BA
100
AcDbEntity
  8
0
100
AcDbLine
 62
4
  6
CONTINUOUS
 10
10.250897682
 20
9.0301414222
 11
10.3378310096
 21
9.0241125754
  0
LINE
  5
2BB
100
AcDbEntity
  8
0
100
AcDbLine
 62
7
  6
CONTINUOUS
 10
13.873510387
 20
8.7869759799
 11
14.8007319892
 21
8.7226729434
  0
LINE
  5
2BC
100
AcDbEntity
  8
0
100
AcDbLine
 62
7
  6
CONTINUOUS
 10
7.0005941009
 20
9.2867713877
 11
8.1403494992
 21
9.2077290824
  0
LINE
  5
2BD
100
AcDbEntity
  8
0
100
AcDbLine
 62
7
  6
CONTINUOUS
 10
12.985471041
 20
8.873650614
 11
12.4947806991
 21
8.9076801047
  0
LINE
  5
2BE
100
AcDbEntity
  8
0
100
AcDbLine
 62
7
  6
CONTINUOUS
 10
13.2394725695
 20
9.7215542726
 11
13.4465276347
 21
9.9215541194
  0
LINE
  5
2BF
100
AcDbEntity
  8
0
100
AcDbLine
 62
4
  6
CONTINUOUS
 10
13.1821873499
 20
9.063483239
 11
13.1692464089
 21
9.0509832492
  0
LINE
  5
2C0
100
AcDbEntity
  8
0
100
AcDbLine
 62
4
  6
CONTINUOUS
 10
13.1563054656
 20
9.0264091834
 11
13.1433645238
 21
9.0139091927
  0
LINE
  5
2C1
100
AcDbEntity
  8
0
100
AcDbLine
 62
4
  6
CONTINUOUS
 10
13.1390508776
 20
8.9131499404
 11
13.1908146447
 21
8.9631499029
  0
LINE
  5
2C2
100
AcDbEntity
  8
0
100
AcDbLine
 62
4
  6
CONTINUOUS
 10
13.1908146447
 20
9.1563350824
 11
13.1390508776
 21
9.1667054886
  0
LINE
  5
2C3
100
AcDbEntity
  8
0
100
AcDbLine
 62
7
  6
CONTINUOUS
 10
12.4870161478
 20
9.7443993458
 11
12.4870161478
 21
6.3636587535
  0
LINE
  5
2C4
100
AcDbEntity
  8
0
100
AcDbLine
 62
7
  6
CONTINUOUS
 10
12.4947806991
 20
7.2173098086
 11
12.4947806991
 21
8.9076801047
  0
LINE
  5
2C5
100
AcDbEntity
  8
0
100
AcDbLine
 62
7
  6
CONTINUOUS
 10
12.4870161478
 20
9.7443993458
 11
8.1403494992
 21
10.0458417017
  0
LINE
  5
2C6
100
AcDbEntity
  8
0
100
AcDbLine
 62
7
  6
CONTINUOUS
 10
7.1947082246
 20
10.1987156567
 11
8.2246685598
 21
10.1272876649
  0
LINE
  5
2C7
100
AcDbEntity
  8
0
100
AcDbLine
 62
7
  6
CONTINUOUS
 10
13.1795851647
 20
9.785594883
 11
12.6888948228
 21
9.8196243738
  0
LINE
  5
2C8
100
AcDbEntity
  8
0
100
AcDbLine
 62
4
  6
CONTINUOUS
 10
13.1390508776
 20
9.1667054886
 11
13.1908146447
 21
9.2770758197
  0
LINE
  5
2C9
100
AcDbEntity
  8
0
100
AcDbLine
 62
7
  6
CONTINUOUS
 10
7.4017632898
 20
10.3987155035
 11
8.431723625
 21
10.3272875117
  0
LINE
  5
2CA
100
AcDbEntity
  8
0
100
AcDbLine
 62
7
  6
CONTINUOUS
 10
13.3866402299
 20
9.9855947298
 11
12.895949888
 21
10.0196242206
  0
LINE
  5
2CB
100
AcDbEntity
  8
0
100
AcDbLine
 62
7
  6
CONTINUOUS
 10
8.4581484302
 20
10.3528119149
 11
7.4536513395
 21
10.4224740248
  0
LINE
  5
2CC
100
AcDbEntity
  8
0
100
AcDbLine
 62
7
  6
CONTINUOUS
 10
12.9478379377
 20
10.0433827418
 11
13.4385282796
 21
10.009353251
  0
LINE
  5
2CD
100
AcDbEntity
  8
0
100
AcDbLine
 62
4
  6
CONTINUOUS
 10
13.1908146447
 20
8.782038797
 11
13.1390508776
 21
8.8286314243
  0
LINE
  5
2CE
100
AcDbEntity
  8
0
100
AcDbLine
 62
7
  6
CONTINUOUS
 10
12.985471041
 20
7.1832803178
 11
12.985471041
 21
8.873650614
  0
LINE
  5
2CF
100
AcDbEntity
  8
0
100
AcDbLine
 62
7
  6
CONTINUOUS
 10
13.0614052134
 20
7.1946271003
 11
13.0614052134
 21
8.8849973965
  0
LINE
  5
2D0
100
AcDbEntity
  8
0
100
AcDbLine
 62
7
  6
CONTINUOUS
 10
13.0983462248
 20
10.3348988906
 11
13.0983462248
 21
10.0329449567
  0
LINE
  5
2D1
100
AcDbEntity
  8
0
100
AcDbLine
 62
4
  6
CONTINUOUS
 10
13.1390508776
 20
8.9976684565
 11
13.1390508776
 21
8.9131499404
  0
LINE
  5
2D2
100
AcDbEntity
  8
0
100
AcDbLine
 62
4
  6
CONTINUOUS
 10
13.1390508776
 20
8.5750758761
 11
13.1390508776
 21
8.5992240236
  0
LINE
  5
2D3
100
AcDbEntity
  8
0
100
AcDbLine
 62
4
  6
CONTINUOUS
 10
13.1606191149
 20
8.9339832591
 11
13.1606191149
 21
9.0185017752
  0
LINE
  5
2D4
100
AcDbEntity
  8
0
100
AcDbLine
 62
4
  6
CONTINUOUS
 10
13.1735600551
 20
9.1638165752
 11
13.1735600551
 21
9.2362610176
  0
LINE
  5
2D5
100
AcDbEntity
  8
0
100
AcDbLine
 62
4
  6
CONTINUOUS
 10
13.1390508776
 20
8.5992240236
 11
13.1433645238
 21
8.6275388336
  0
LINE
  5
2D6
100
AcDbEntity
  8
0
100
AcDbLine
 62
4
  6
CONTINUOUS
 10
13.1908146447
 20
8.6250758386
 11
13.1865009973
 21
8.5967610275
  0
LINE
  5
2D7
100
AcDbEntity
  8
0
100
AcDbLine
 62
4
  6
CONTINUOUS
 10
13.1433645238
 20
9.0139091927
 11
13.1390508776
 21
8.9976684565
  0
LINE
  5
2D8
100
AcDbEntity
  8
0
100
AcDbLine
 62
4
  6
CONTINUOUS
 10
13.1692464089
 20
9.0509832492
 11
13.1606191149
 21
9.0185017752
  0
LINE
  5
2D9
100
AcDbEntity
  8
0
100
AcDbLine
 62
4
  6
CONTINUOUS
 10
13.1433645238
 20
8.6275388336
 11
13.1476781732
 21
8.6437795728
  0
LINE
  5
2DA
100
AcDbEntity
  8
0
100
AcDbLine
 62
4
  6
CONTINUOUS
 10
13.1865009973
 20
8.5967610275
 11
13.1778737029
 21
8.5642795531
  0
LINE
  5
2DB
100
AcDbEntity
  8
0
100
AcDbLine
 62
4
  6
CONTINUOUS
 10
13.1390508776
 20
8.7320388345
 11
13.1908146447
 21
8.8786313868
  0
LINE
  5
2DC
100
AcDbEntity
  8
0
100
AcDbLine
 62
4
  6
CONTINUOUS
 10
13.1778737029
 20
8.5642795531
 11
13.1649327611
 21
8.5397054887
  0
LINE
  5
2DD
100
AcDbEntity
  8
0
100
AcDbLine
 62
7
  6
CONTINUOUS
 10
8.7516795762
 20
10.6363412465
 11
13.0983462248
 21
10.3348988906
  0
LINE
  5
2DE
100
AcDbEntity
  8
0
100
AcDbLine
 62
4
  6
CONTINUOUS
 10
13.1519918194
 20
8.5392795719
 11
13.1433645238
 21
8.5550943912
  0
LINE
  5
2DF
100
AcDbEntity
  8
0
100
AcDbLine
 62
4
  6
CONTINUOUS
 10
13.1821873499
 20
8.6771128799
 11
13.1865009973
 21
8.6692054698
  0
LINE
  5
2E0
100
AcDbEntity
  8
0
100
AcDbLine
 62
4
  6
CONTINUOUS
 10
13.1606191149
 20
9.0185017752
 11
13.1563054656
 21
9.0264091834
  0
LINE
  5
2E1
100
AcDbEntity
  8
0
100
AcDbLine
 62
7
  6
CONTINUOUS
 10
13.6612392994
 20
7.3469427426
 11
13.6870463892
 21
7.2849388865
  0
LINE
  5
2E2
100
AcDbEntity
  8
0
100
AcDbLine
 62
4
  6
CONTINUOUS
 10
13.1433645238
 20
8.5550943912
 11
13.1390508776
 21
8.5750758761
  0
LINE
  5
2E3
100
AcDbEntity
  8
0
100
AcDbLine
 62
4
  6
CONTINUOUS
 10
13.1865009973
 20
8.6692054698
 11
13.1908146447
 21
8.649223986
  0
LINE
  5
2E4
100
AcDbEntity
  8
0
100
AcDbLine
 62
4
  6
CONTINUOUS
 10
13.1908146447
 20
8.649223986
 11
13.1908146447
 21
8.6250758386
  0
LINE
  5
2E5
100
AcDbEntity
  8
0
100
AcDbLine
 62
4
  6
CONTINUOUS
 10
13.1908146447
 20
8.9631499029
 11
13.1908146447
 21
9.0476684189
  0
LINE
  5
2E6
100
AcDbEntity
  8
0
100
AcDbLine
 62
7
  6
CONTINUOUS
 10
13.7478714711
 20
8.5961406883
 11
13.7953375158
 21
8.6766186444
  0
LINE
  5
2E7
100
AcDbEntity
  8
0
100
AcDbLine
 62
7
  6
CONTINUOUS
 10
13.2394725695
 20
9.7215542726
 11
13.1795851647
 21
9.785594883
  0
LINE
  5
2E8
100
AcDbEntity
  8
0
100
AcDbLine
 62
4
  6
CONTINUOUS
 10
13.1908146447
 20
9.0476684189
 11
13.1821873499
 21
9.063483239
  0
LINE
  5
2E9
100
AcDbEntity
  8
0
100
AcDbLine
 62
7
  6
CONTINUOUS
 10
13.6245949907
 20
9.4289969797
 11
13.6245949907
 21
8.6787682778
  0
LINE
  5
2EA
100
AcDbEntity
  8
0
100
AcDbLine
 62
7
  6
CONTINUOUS
 10
12.4870161478
 20
6.3636587535
 11
12.780029632
 21
6.6466880621
  0
LINE
  5
2EB
100
AcDbEntity
  8
0
100
AcDbLine
 62
7
  6
CONTINUOUS
 10
13.4465276347
 20
9.9215541194
 11
13.3866402299
 21
9.9855947298
  0
LINE
  5
2EC
100
AcDbEntity
  8
0
100
AcDbLine
 62
7
  6
CONTINUOUS
 10
13.4465276347
 20
6.9020698075
 11
13.2394725695
 21
6.7020699607
  0
LINE
  5
2ED
100
AcDbEntity
  8
0
100
AcDbLine
 62
7
  6
CONTINUOUS
 10
13.2394725695
 20
6.7020699607
 11
13.2377901842
 21
6.7004747619
  0
LINE
  5
2EE
100
AcDbEntity
  8
0
100
AcDbLine
 62
7
  6
CONTINUOUS
 10
13.1777527585
 20
6.6445980716
 11
13.2377916422
 21
6.7004759197
  0
LINE
  5
2EF
100
AcDbEntity
  8
0
100
AcDbLine
 62
7
  6
CONTINUOUS
 10
13.4850650665
 20
9.9806337119
 11
13.5368160181
 21
9.9170032123
  0
LINE
  5
2F0
100
AcDbEntity
  8
0
100
AcDbLine
 62
7
  6
CONTINUOUS
 10
14.970508008
 20
8.5715646848
 11
14.979791827
 21
8.5492594743
  0
LINE
  5
2F1
100
AcDbEntity
  8
0
100
AcDbLine
 62
7
  6
CONTINUOUS
 10
14.8622168815
 20
7.1798849269
 11
14.8878379646
 21
7.2233250834
  0
ARC
  5
2F2
100
AcDbEntity
  8
0
100
AcDbCircle
 62
7
  6
CONTINUOUS
 10
17.6567692218
 20
7.7108149944
 40
3.0820154353
100
AcDbArc
 50
171.7532152172
 51
172.9161571282
  0
ARC
  5
2F3
100
AcDbEntity
  8
0
100
AcDbCircle
 62
7
  6
CONTINUOUS
 10
16.7295476196
 20
7.7751180309
 40
3.0820154353
100
AcDbArc
 50
171.7532152172
 51
172.9161571282
  0
ARC
  5
2F4
100
AcDbEntity
  8
0
100
AcDbCircle
 62
7
  6
CONTINUOUS
 10
15.8637712468
 20
7.532785952
 40
1.282223986
100
AcDbArc
 50
189.2663144827
 51
191.3500490877
  0
ARC
  5
2F5
100
AcDbEntity
  8
0
100
AcDbCircle
 62
7
  6
CONTINUOUS
 10
14.9365496445
 20
7.5970889886
 40
1.282223986
100
AcDbArc
 50
189.2663144827
 51
191.3500490877
  0
ARC
  5
2F6
100
AcDbEntity
  8
0
100
AcDbCircle
 62
7
  6
CONTINUOUS
 10
10.6783345913
 20
7.2625176126
 40
0.2450348771
100
AcDbArc
 50
127.3674097501
 51
132.9650114887
  0
SPLINE
  5
2F7
100
AcDbEntity
  8
0
100
AcDbSpline
 62
7
  6
CONTINUOUS
 70
0
 71
3
 72
9
 73
5
 74
0
 42
0.0000001
 43
0.0000001
 44
0.0000000001
 40
0.0
 40
0.0
 40
0.0
 40
0.0
 40
0.2434630846
 40
1.0
 40
1.0
 40
1.0
 40
1.0
 10
13.8651663975
 20
8.7795084531
 30
0.0
 10
13.8644647141
 20
8.778830679
 30
0.0
 10
13.8616084359
 20
8.776020124
 30
0.0
 10
13.8588535947
 20
8.773107004
 30
0.0
 10
13.856822408
 20
8.7708566291
 30
0.0
  0
SPLINE
  5
2F8
100
AcDbEntity
  8
0
100
AcDbSpline
 62
7
  6
CONTINUOUS
 70
0
 71
3
 72
9
 73
5
 74
0
 42
0.0000001
 43
0.0000001
 44
0.0000000001
 40
0.0
 40
0.0
 40
0.0
 40
0.0
 40
0.2567400971
 40
1.0
 40
1.0
 40
1.0
 40
1.0
 10
13.8651663975
 20
8.7795084531
 30
0.0
 10
13.865855751
 20
8.7801743175
 30
0.0
 10
13.8685642746
 20
8.7827433261
 30
0.0
 10
13.8713689919
 20
8.7852115981
 30
0.0
 10
13.873510387
 20
8.7869759799
 30
0.0
  0
SPLINE
  5
2F9
100
AcDbEntity
  8
0
100
AcDbSpline
 62
7
  6
CONTINUOUS
 70
0
 71
3
 72
9
 73
5
 74
0
 42
0.0000001
 43
0.0000001
 44
0.0000000001
 40
0.0
 40
0.0
 40
0.0
 40
0.0
 40
0.2433827277
 40
1.0
 40
1.0
 40
1.0
 40
1.0
 10
14.7840440103
 20
7.0695275914
 30
0.0
 10
14.7847452203
 20
7.0701053466
 30
0.0
 10
14.7876009294
 20
7.0725099384
 30
0.0
 10
14.7903564533
 20
7.0750327948
 30
0.0
 10
14.7923879998
 20
7.0769951182
 30
0.0
  0
SPLINE
  5
2FA
100
AcDbEntity
  8
0
100
AcDbSpline
 62
7
  6
CONTINUOUS
 70
0
 71
3
 72
9
 73
5
 74
0
 42
0.0000001
 43
0.0000001
 44
0.0000000001
 40
0.0
 40
0.0
 40
0.0
 40
0.0
 40
0.2434630846
 40
1.0
 40
1.0
 40
1.0
 40
1.0
 10
14.7923879998
 20
7.0769951182
 30
0.0
 10
14.7930896831
 20
7.0776728923
 30
0.0
 10
14.7959459613
 20
7.0804834472
 30
0.0
 10
14.7987008025
 20
7.0833965673
 30
0.0
 10
14.8007319892
 20
7.0856469422
 30
0.0
  0
SPLINE
  5
2FB
100
AcDbEntity
  8
0
100
AcDbSpline
 62
7
  6
CONTINUOUS
 70
0
 71
3
 72
10
 73
6
 74
0
 42
0.0000001
 43
0.0000001
 44
0.0000000001
 40
0.0
 40
0.0
 40
0.0
 40
0.0
 40
0.2527114851
 40
0.5036909126
 40
1.0
 40
1.0
 40
1.0
 40
1.0
 10
13.856822408
 20
8.7708566291
 30
0.0
 10
13.8513118832
 20
8.7631051397
 30
0.0
 10
13.8404667642
 20
8.7475561389
 30
0.0
 10
13.8195442217
 20
8.7162724306
 30
0.0
 10
13.8046497263
 20
8.6924014871
 30
0.0
 10
13.7951582598
 20
8.6763146201
 30
0.0
  0
SPLINE
  5
2FC
100
AcDbEntity
  8
0
100
AcDbSpline
 62
7
  6
CONTINUOUS
 70
0
 71
3
 72
10
 73
6
 74
0
 42
0.0000001
 43
0.0000001
 44
0.0000000001
 40
0.0
 40
0.0
 40
0.0
 40
0.0
 40
0.2527114851
 40
0.5036909126
 40
1.0
 40
1.0
 40
1.0
 40
1.0
 10
14.8007319892
 20
7.0856469422
 30
0.0
 10
14.806242514
 20
7.0933984316
 30
0.0
 10
14.8170876331
 20
7.1089474324
 30
0.0
 10
14.8380101755
 20
7.1402311406
 30
0.0
 10
14.8529046709
 20
7.1641020842
 30
0.0
 10
14.8623961375
 20
7.1801889511
 30
0.0
  0
SPLINE
  5
2FD
100
AcDbEntity
  8
0
100
AcDbSpline
 62
7
  6
CONTINUOUS
 70
0
 71
3
 72
55
 73
51
 74
0
 42
0.0000001
 43
0.0000001
 44
0.0000000001
 40
0.0
 40
0.0
 40
0.0
 40
0.0
 40
0.0097388838
 40
0.0199691747
 40
0.0306878458
 40
0.0418897894
 40
0.0535686661
 40
0.065716631
 40
0.078324438
 40
0.0913820356
 40
0.1048779967
 40
0.1188002134
 40
0.1331356612
 40
0.147870355
 40
0.1629898627
 40
0.1784787655
 40
0.1943211952
 40
0.2105006818
 40
0.2438012997
 40
0.2782387002
 40
0.3136633315
 40
0.3499196558
 40
0.3868471446
 40
0.4242814249
 40
0.4620552054
 40
0.4999992101
 40
0.5379432312
 40
0.5757170245
 40
0.6131513468
 40
0.6500789038
 40
0.6863352735
 40
0.7217599674
 40
0.7561974749
 40
0.7894982221
 40
0.805677721
 40
0.8215202588
 40
0.8370091999
 40
0.8521287724
 40
0.8668635681
 40
0.8811990282
 40
0.8951213718
 40
0.9086173834
 40
0.9216750478
 40
0.9342829782
 40
0.9464309588
 40
0.9581099831
 40
0.9693119957
 40
0.9800307144
 40
0.9902610994
 40
1.0
 40
1.0
 40
1.0
 40
1.0
 10
14.887835608
 20
7.2233211771
 30
0.0
 10
14.8900685599
 20
7.2271070679
 30
0.0
 10
14.8945100825
 20
7.234951329
 30
0.0
 10
14.9009562217
 20
7.2472119334
 30
0.0
 10
14.9073427861
 20
7.2602431851
 30
0.0
 10
14.9136624456
 20
7.2740293414
 30
0.0
 10
14.9199074713
 20
7.2885542332
 30
0.0
 10
14.9260704071
 20
7.3038006022
 30
0.0
 10
14.9321440732
 20
7.3197502864
 30
0.0
 10
14.9381208439
 20
7.3363843672
 30
0.0
 10
14.9439938714
 20
7.3536829521
 30
0.0
 10
14.9497559363
 20
7.3716254488
 30
0.0
 10
14.9554000973
 20
7.3901904436
 30
0.0
 10
14.9609197865
 20
7.40935574
 30
0.0
 10
14.96630808
 20
7.4290984834
 30
0.0
 10
14.9715587705
 20
7.4493950387
 30
0.0
 10
14.9766654623
 20
7.470221186
 30
0.0
 10
14.9833380993
 20
7.498938054
 30
0.0
 10
14.9912589084
 20
7.535977696
 30
0.0
 10
15.0000084942
 20
7.5817107882
 30
0.0
 10
15.0080492649
 20
7.6289274279
 30
0.0
 10
15.0153424998
 20
7.6774018152
 30
0.0
 10
15.0218531374
 20
7.7269023099
 30
0.0
 10
15.0275498806
 20
7.7771922444
 30
0.0
 10
15.0324053688
 20
7.828031171
 30
0.0
 10
15.0363962734
 20
7.879175988
 30
0.0
 10
15.0395034839
 20
7.9303820954
 30
0.0
 10
15.0417122038
 20
7.9814046105
 30
0.0
 10
15.0430119433
 20
8.031999538
 30
0.0
 10
15.0433966048
 20
8.0819249469
 30
0.0
 10
15.0428644736
 20
8.1309421085
 30
0.0
 10
15.0414183697
 20
8.1788167691
 30
0.0
 10
15.0390654599
 20
8.2253199655
 30
0.0
 10
15.0363334397
 20
8.2630985168
 30
0.0
 10
15.0336886125
 20
8.2924616589
 30
0.0
 10
15.0315056982
 20
8.3137934348
 30
0.0
 10
15.0291069287
 20
8.3346205764
 30
0.0
 10
15.026495456
 20
8.3549182017
 30
0.0
 10
15.0236742292
 20
8.3746620482
 30
0.0
 10
15.0206466841
 20
8.3938285235
 30
0.0
 10
15.0174166273
 20
8.4123947436
 30
0.0
 10
15.0139876484
 20
8.430338535
 30
0.0
 10
15.0103642045
 20
8.4476385029
 30
0.0
 10
15.0065504529
 20
8.4642740175
 30
0.0
 10
15.0025509855
 20
8.4802252574
 30
0.0
 10
14.9983708332
 20
8.4954732883
 30
0.0
 10
14.9940146495
 20
8.5099999372
 30
0.0
 10
14.989488001
 20
8.5237881163
 30
0.0
 10
14.9847961676
 20
8.5368212982
 30
0.0
 10
14.9814799145
 20
8.5452035976
 30
0.0
 10
14.9797909326
 20
8.5492614849
 30
0.0
  0
SPLINE
  5
2FE
100
AcDbEntity
  8
0
100
AcDbSpline
 62
7
  6
CONTINUOUS
 70
0
 71
3
 72
23
 73
19
 74
0
 42
0.0000001
 43
0.0000001
 44
0.0000000001
 40
0.0
 40
0.0
 40
0.0
 40
0.0
 40
0.0431564952
 40
0.0883615305
 40
0.135868811
 40
0.1858947259
 40
0.2386072827
 40
0.294126757
 40
0.3525235726
 40
0.4138190087
 40
0.4779935037
 40
0.5449887634
 40
0.6147169638
 40
0.6870671637
 40
0.7619109932
 40
0.8391106358
 40
0.9185226417
 40
1.0
 40
1.0
 40
1.0
 40
1.0
 10
14.9706045499
 20
8.5713326703
 30
0.0
 10
14.969328278
 20
8.5744003494
 30
0.0
 10
14.9664647462
 20
8.580579735
 30
0.0
 10
14.9613759335
 20
8.5897284067
 30
0.0
 10
14.9553846644
 20
8.5989504755
 30
0.0
 10
14.9484801071
 20
8.6082396788
 30
0.0
 10
14.9406604235
 20
8.6175912501
 30
0.0
 10
14.9319312724
 20
8.6269989816
 30
0.0
 10
14.9223064819
 20
8.6364563501
 30
0.0
 10
14.9118079939
 20
8.6459572041
 30
0.0
 10
14.9004637602
 20
8.655494449
 30
0.0
 10
14.8883079054
 20
8.6650618316
 30
0.0
 10
14.8753787667
 20
8.674653132
 30
0.0
 10
14.8617176888
 20
8.684262425
 30
0.0
 10
14.8473681052
 20
8.6938847105
 30
0.0
 10
14.8323739138
 20
8.7035152349
 30
0.0
 10
14.8167791349
 20
8.7131500793
 30
0.0
 10
14.8061409612
 20
8.7194961742
 30
0.0
 10
14.8007319892
 20
8.7226729434
 30
0.0
  0
SPLINE
  5
2FF
100
AcDbEntity
  8
0
100
AcDbSpline
 62
7
  6
CONTINUOUS
 70
0
 71
3
 72
23
 73
19
 74
0
 42
0.0000001
 43
0.0000001
 44
0.0000000001
 40
0.0
 40
0.0
 40
0.0
 40
0.0
 40
0.0431564952
 40
0.0883615305
 40
0.135868811
 40
0.1858947259
 40
0.2386072827
 40
0.294126757
 40
0.3525235726
 40
0.4138190087
 40
0.4779935037
 40
0.5449887634
 40
0.6147169638
 40
0.6870671637
 40
0.7619109932
 40
0.8391106358
 40
0.9185226417
 40
1.0
 40
1.0
 40
1.0
 40
1.0
 10
13.6869498473
 20
7.285170901
 30
0.0
 10
13.6882261193
 20
7.2821032219
 30
0.0
 10
13.6910896511
 20
7.2759238363
 30
0.0
 10
13.6961784638
 20
7.2667751646
 30
0.0
 10
13.7021697329
 20
7.2575530958
 30
0.0
 10
13.7090742901
 20
7.2482638925
 30
0.0
 10
13.7168939737
 20
7.2389123211
 30
0.0
 10
13.7256231249
 20
7.2295045896
 30
0.0
 10
13.7352479153
 20
7.2200472212
 30
0.0
 10
13.7457464034
 20
7.2105463672
 30
0.0
 10
13.757090637
 20
7.2010091223
 30
0.0
 10
13.7692464919
 20
7.1914417397
 30
0.0
 10
13.7821756305
 20
7.1818504393
 30
0.0
 10
13.7958367085
 20
7.1722411463
 30
0.0
 10
13.8101862921
 20
7.1626188608
 30
0.0
 10
13.8251804835
 20
7.1529883363
 30
0.0
 10
13.8407752623
 20
7.143353492
 30
0.0
 10
13.8514134361
 20
7.1370073971
 30
0.0
 10
13.856822408
 20
7.1338306279
 30
0.0
  0
SPLINE
  5
300
100
AcDbEntity
  8
0
100
AcDbSpline
 62
7
  6
CONTINUOUS
 70
0
 71
3
 72
9
 73
5
 74
0
 42
0.0000001
 43
0.0000001
 44
0.0000000001
 40
0.0
 40
0.0
 40
0.0
 40
0.0
 40
0.2433827277
 40
1.0
 40
1.0
 40
1.0
 40
1.0
 10
14.8007319892
 20
8.7226729434
 30
0.0
 10
14.8000307792
 20
8.7220951882
 30
0.0
 10
14.7971750701
 20
8.7196905964
 30
0.0
 10
14.7944195462
 20
8.7171677399
 30
0.0
 10
14.7923879998
 20
8.7152054166
 30
0.0
  0
SPLINE
  5
301
100
AcDbEntity
  8
0
100
AcDbSpline
 62
7
  6
CONTINUOUS
 70
0
 71
3
 72
26
 73
22
 74
0
 42
0.0000001
 43
0.0000001
 44
0.0000000001
 40
0.0
 40
0.0
 40
0.0
 40
0.0
 40
0.0586203691
 40
0.1174332062
 40
0.1765040138
 40
0.2061617977
 40
0.2359140009
 40
0.2657713131
 40
0.2957452319
 40
0.3258470287
 40
0.356088105
 40
0.4170273201
 40
0.4786495626
 40
0.5410226161
 40
0.6041945561
 40
0.6681907936
 40
0.7330138949
 40
0.7986460517
 40
0.8650527918
 40
0.9321886991
 40
1.0
 40
1.0
 40
1.0
 40
1.0
 10
14.7840440103
 20
8.7065535926
 30
0.0
 10
14.7846276302
 20
8.6949640799
 30
0.0
 10
14.7853959886
 20
8.6717243198
 30
0.0
 10
14.7852304485
 20
8.6367764422
 30
0.0
 10
14.7838930425
 20
8.6075906666
 30
0.0
 10
14.7820468511
 20
8.5842079125
 30
0.0
 10
14.7802558452
 20
8.5666263653
 30
0.0
 10
14.7780475916
 20
8.5490292479
 30
0.0
 10
14.7754091165
 20
8.5314214279
 30
0.0
 10
14.7723300101
 20
8.5138079947
 30
0.0
 10
14.7676125386
 20
8.4902655717
 30
0.0
 10
14.7605575488
 20
8.4608375542
 30
0.0
 10
14.7502422882
 20
8.4256966237
 30
0.0
 10
14.7380563189
 20
8.3906915773
 30
0.0
 10
14.72403592
 20
8.3558742139
 30
0.0
 10
14.7082501727
 20
8.3212885483
 30
0.0
 10
14.6907947939
 20
8.2869692935
 30
0.0
 10
14.6717844109
 20
8.2529406135
 30
0.0
 10
14.651344508
 20
8.2192161286
 30
0.0
 10
14.6296046934
 20
8.1858007418
 30
0.0
 10
14.6144013067
 20
8.1638310312
 30
0.0
 10
14.6066235597
 20
8.1528903086
 30
0.0
  0
SPLINE
  5
302
100
AcDbEntity
  8
0
100
AcDbSpline
 62
7
  6
CONTINUOUS
 70
0
 71
3
 72
22
 73
18
 74
0
 42
0.0000001
 43
0.0000001
 44
0.0000000001
 40
0.0
 40
0.0
 40
0.0
 40
0.0
 40
0.0635429418
 40
0.1269840831
 40
0.1903101448
 40
0.2535088917
 40
0.3165679054
 40
0.379476323
 40
0.4422254189
 40
0.5048095434
 40
0.5672267033
 40
0.6294788238
 40
0.691571562
 40
0.7535136719
 40
0.8153162412
 40
0.8769914434
 40
1.0
 40
1.0
 40
1.0
 40
1.0
 10
14.5982795702
 20
8.0908941896
 30
0.0
 10
14.6024751001
 20
8.0750329596
 30
0.0
 10
14.6104924272
 20
8.0432371885
 30
0.0
 10
14.621282579
 20
7.9952927538
 30
0.0
 10
14.6307022625
 20
7.9471494376
 30
0.0
 10
14.6386260924
 20
7.8988362501
 30
0.0
 10
14.6449356905
 20
7.8503933656
 30
0.0
 10
14.6495269731
 20
7.8018730556
 30
0.0
 10
14.6523180034
 20
7.7533379406
 30
0.0
 10
14.6532561174
 20
7.7048580463
 30
0.0
 10
14.6523229672
 20
7.6565062973
 30
0.0
 10
14.6495364675
 20
7.6083533185
 30
0.0
 10
14.6449489253
 20
7.5604623326
 30
0.0
 10
14.6386421349
 20
7.512885536
 30
0.0
 10
14.630719951
 20
7.4656608376
 30
0.0
 10
14.6181739078
 20
7.403258955
 30
0.0
 10
14.6066894264
 20
7.3569447017
 30
0.0
 10
14.5982795702
 20
7.3263176326
 30
0.0
  0
SPLINE
  5
303
100
AcDbEntity
  8
0
100
AcDbSpline
 62
7
  6
CONTINUOUS
 70
0
 71
3
 72
22
 73
18
 74
0
 42
0.0000001
 43
0.0000001
 44
0.0000000001
 40
0.0
 40
0.0
 40
0.0
 40
0.0
 40
0.1230085566
 40
0.1846837589
 40
0.2464863281
 40
0.3084284381
 40
0.3705211762
 40
0.4327732967
 40
0.4951904566
 40
0.5577745812
 40
0.6205236771
 40
0.6834320946
 40
0.7464911083
 40
0.8096898553
 40
0.8730159169
 40
0.9364570582
 40
1.0
 40
1.0
 40
1.0
 40
1.0
 10
13.671057968
 20
8.1551972261
 30
0.0
 10
13.6626481118
 20
8.124570157
 30
0.0
 10
13.6511636304
 20
8.0782559037
 30
0.0
 10
13.6386175872
 20
8.015854021
 30
0.0
 10
13.6306954032
 20
7.9686293227
 30
0.0
 10
13.6243886128
 20
7.921052526
 30
0.0
 10
13.6198010707
 20
7.8731615402
 30
0.0
 10
13.617014571
 20
7.8250085614
 30
0.0
 10
13.6160814208
 20
7.7766568124
 30
0.0
 10
13.6170195348
 20
7.7281769181
 30
0.0
 10
13.6198105651
 20
7.679641803
 30
0.0
 10
13.6244018477
 20
7.631121493
 30
0.0
 10
13.6307114458
 20
7.5826786086
 30
0.0
 10
13.6386352757
 20
7.5343654211
 30
0.0
 10
13.6480549592
 20
7.4862221049
 30
0.0
 10
13.658845111
 20
7.4382776702
 30
0.0
 10
13.6668624381
 20
7.4064818991
 30
0.0
 10
13.671057968
 20
7.3906206691
 30
0.0
  0
SPLINE
  5
304
100
AcDbEntity
  8
0
100
AcDbSpline
 62
7
  6
CONTINUOUS
 70
0
 71
3
 72
38
 73
34
 74
0
 42
0.0000001
 43
0.0000001
 44
0.0000000001
 40
0.0
 40
0.0
 40
0.0
 40
0.0
 40
0.0915737232
 40
0.1360951065
 40
0.1797160485
 40
0.2223952071
 40
0.2640924871
 40
0.3047689296
 40
0.3443879734
 40
0.3829170615
 40
0.4203271445
 40
0.4565955716
 40
0.4917052023
 40
0.5256467723
 40
0.5584196024
 40
0.590031134
 40
0.6205004098
 40
0.6498542841
 40
0.6781325687
 40
0.7053827617
 40
0.7316639625
 40
0.757042786
 40
0.7815939123
 40
0.8053982818
 40
0.8285404892
 40
0.8511085056
 40
0.8731897626
 40
0.8948710364
 40
0.9162352714
 40
0.9373611546
 40
0.9583213981
 40
0.9791816143
 40
1.0
 40
1.0
 40
1.0
 40
1.0
 10
14.6066235597
 20
7.2804408644
 30
0.0
 10
14.6143033401
 20
7.2759304159
 30
0.0
 10
14.6256527235
 20
7.2691163438
 30
0.0
 10
14.6404772969
 20
7.2598557475
 30
0.0
 10
14.6511820147
 20
7.2529776914
 30
0.0
 10
14.6615613035
 20
7.2461034148
 30
0.0
 10
14.6715990619
 20
7.2392344889
 30
0.0
 10
14.6812793126
 20
7.2323728551
 30
0.0
 10
14.6905861012
 20
7.2255202821
 30
0.0
 10
14.6995043009
 20
7.2186792306
 30
0.0
 10
14.708019094
 20
7.2118516487
 30
0.0
 10
14.7161170178
 20
7.2050402384
 30
0.0
 10
14.7237855192
 20
7.1982473315
 30
0.0
 10
14.7310135521
 20
7.191475458
 30
0.0
 10
14.7377919959
 20
7.1847274594
 30
0.0
 10
14.7441129346
 20
7.1780053885
 30
0.0
 10
14.7499715297
 20
7.1713124353
 30
0.0
 10
14.7553636786
 20
7.1646501918
 30
0.0
 10
14.7602890528
 20
7.1580217121
 30
0.0
 10
14.7647479835
 20
7.1514284149
 30
0.0
 10
14.7687442454
 20
7.1448726907
 30
0.0
 10
14.7722828648
 20
7.1383560046
 30
0.0
 10
14.7753710613
 20
7.1318798897
 30
0.0
 10
14.7780181829
 20
7.1254457753
 30
0.0
 10
14.780234339
 20
7.1190544967
 30
0.0
 10
14.782032175
 20
7.1127071432
 30
0.0
 10
14.7834243053
 20
7.1064041003
 30
0.0
 10
14.7844253229
 20
7.100145865
 30
0.0
 10
14.7850498614
 20
7.0939324304
 30
0.0
 10
14.7853132992
 20
7.0877636297
 30
0.0
 10
14.785231327
 20
7.0816389489
 30
0.0
 10
14.7848195887
 20
7.0755579409
 30
0.0
 10
14.7843354611
 20
7.0715312779
 30
0.0
 10
14.7840440103
 20
7.0695275914
 30
0.0
  0
SPLINE
  5
305
100
AcDbEntity
  8
0
100
AcDbSpline
 62
7
  6
CONTINUOUS
 70
0
 71
3
 72
15
 73
11
 74
0
 42
0.0000001
 43
0.0000001
 44
0.0000000001
 40
0.0
 40
0.0
 40
0.0
 40
0.0
 40
0.1196840791
 40
0.2397325473
 40
0.3606438408
 40
0.4829882744
 40
0.607400808
 40
0.7345620617
 40
0.8651874527
 40
1.0
 40
1.0
 40
1.0
 40
1.0
 10
13.6794019574
 20
7.3447439009
 30
0.0
 10
13.6790528205
 20
7.3423436299
 30
0.0
 10
13.6784961692
 20
7.3375136016
 30
0.0
 10
13.6781173733
 20
7.3302097153
 30
0.0
 10
13.6782212163
 20
7.3228420925
 30
0.0
 10
13.6788348421
 20
7.3154102416
 30
0.0
 10
13.6799850364
 20
7.3079138764
 30
0.0
 10
13.6816972306
 20
7.3003531579
 30
0.0
 10
13.683995821
 20
7.2927295546
 30
0.0
 10
13.6859003806
 20
7.2876934254
 30
0.0
 10
13.6869498473
 20
7.285170901
 30
0.0
  0
SPLINE
  5
306
100
AcDbEntity
  8
0
100
AcDbSpline
 62
7
  6
CONTINUOUS
 70
0
 71
3
 72
9
 73
5
 74
0
 42
0.0000001
 43
0.0000001
 44
0.0000000001
 40
0.0
 40
0.0
 40
0.0
 40
0.0
 40
0.5136270418
 40
1.0
 40
1.0
 40
1.0
 40
1.0
 10
14.9797909326
 20
8.5492614849
 30
0.0
 10
14.9781897676
 20
8.5531083866
 30
0.0
 10
14.974946572
 20
8.5605465432
 30
0.0
 10
14.9714206041
 20
8.5678556293
 30
0.0
 10
14.9696284276
 20
8.571370854
 30
0.0
  0
SPLINE
  5
307
100
AcDbEntity
  8
0
100
AcDbSpline
 62
7
  6
CONTINUOUS
 70
0
 71
3
 72
37
 73
33
 74
0
 42
0.0000001
 43
0.0000001
 44
0.0000000001
 40
0.0
 40
0.0
 40
0.0
 40
0.0
 40
0.0443039358
 40
0.0870703492
 40
0.1283154519
 40
0.1680606694
 40
0.2063335051
 40
0.2431667998
 40
0.2785994217
 40
0.3126778183
 40
0.345457674
 40
0.3770034304
 40
0.4073890925
 40
0.436699548
 40
0.4924644697
 40
0.5191810963
 40
0.5452830354
 40
0.5709142326
 40
0.5962274002
 40
0.6213814038
 40
0.6465384859
 40
0.6718608206
 40
0.6975068735
 40
0.7236286611
 40
0.7503695566
 40
0.8061969481
 40
0.8355455706
 40
0.865974285
 40
0.8975680854
 40
0.9303978891
 40
0.9645244644
 40
1.0
 40
1.0
 40
1.0
 40
1.0
 10
14.9696284276
 20
8.571370854
 30
0.0
 10
14.968598078
 20
8.5733918104
 30
0.0
 10
14.9665226439
 20
8.577338141
 30
0.0
 10
14.9633043843
 20
8.5830669554
 30
0.0
 10
14.9600374661
 20
8.5884976673
 30
0.0
 10
14.956723238
 20
8.5936278896
 30
0.0
 10
14.9533631612
 20
8.5984555646
 30
0.0
 10
14.9499586115
 20
8.6029786696
 30
0.0
 10
14.9465109072
 20
8.6071952073
 30
0.0
 10
14.9430213388
 20
8.6111032714
 30
0.0
 10
14.9394913443
 20
8.6147013159
 30
0.0
 10
14.9359224195
 20
8.617987729
 30
0.0
 10
14.9323154255
 20
8.6209612039
 30
0.0
 10
14.927538292
 20
8.6244475918
 30
0.0
 10
14.9226019778
 20
8.6273864324
 30
0.0
 10
14.9175394574
 20
8.6296948622
 30
0.0
 10
14.9137654745
 20
8.6310822727
 30
0.0
 10
14.9099631343
 20
8.6321489156
 30
0.0
 10
14.9061342119
 20
8.6328942294
 30
0.0
 10
14.9022808057
 20
8.633317577
 30
0.0
 10
14.8984050547
 20
8.6334184313
 30
0.0
 10
14.8945091777
 20
8.6331968584
 30
0.0
 10
14.8905953764
 20
8.6326534039
 30
0.0
 10
14.8866654881
 20
8.6317885318
 30
0.0
 10
14.881331796
 20
8.6301852969
 30
0.0
 10
14.8760368172
 20
8.6279402947
 30
0.0
 10
14.8708239799
 20
8.6251315383
 30
0.0
 10
14.8668405208
 20
8.6226727043
 30
0.0
 10
14.8628516239
 20
8.6198984562
 30
0.0
 10
14.8588584098
 20
8.616810317
 30
0.0
 10
14.8548629605
 20
8.6134101213
 30
0.0
 10
14.8522506141
 20
8.6109842693
 30
0.0
 10
14.8509441445
 20
8.6097223164
 30
0.0
  0
SPLINE
  5
308
100
AcDbEntity
  8
0
100
AcDbSpline
 62
7
  6
CONTINUOUS
 70
0
 71
3
 72
24
 73
20
 74
0
 42
0.0000001
 43
0.0000001
 44
0.0000000001
 40
0.0
 40
0.0
 40
0.0
 40
0.0
 40
0.1331443368
 40
0.1987042304
 40
0.2635707527
 40
0.3277489159
 40
0.3912566481
 40
0.4227699384
 40
0.4541282019
 40
0.4853372921
 40
0.5164032421
 40
0.5781306937
 40
0.6393725849
 40
0.700191258
 40
0.7606492941
 40
0.8208065155
 40
0.8807182926
 40
0.9404354431
 40
1.0
 40
1.0
 40
1.0
 40
1.0
 10
13.7951582598
 20
8.6763146201
 30
0.0
 10
13.7843112458
 20
8.6579302671
 30
0.0
 10
13.7688947076
 20
8.6300213822
 30
0.0
 10
13.7503483501
 20
8.5920459005
 30
0.0
 10
13.7376610509
 20
8.5635348575
 30
0.0
 10
13.7261768802
 20
8.5348725206
 30
0.0
 10
13.7176190724
 20
8.510819182
 30
0.0
 10
13.7114104141
 20
8.4915314635
 30
0.0
 10
13.7070828374
 20
8.4770814234
 30
0.0
 10
13.7030719179
 20
8.4626147002
 30
0.0
 10
13.6981570708
 20
8.4433504653
 30
0.0
 10
13.692792434
 20
8.4192373764
 30
0.0
 10
13.6875748209
 20
8.3902300128
 30
0.0
 10
13.683549665
 20
8.3612390034
 30
0.0
 10
13.6806654543
 20
8.3322877871
 30
0.0
 10
13.6788620742
 20
8.3033955766
 30
0.0
 10
13.6780735783
 20
8.2745773678
 30
0.0
 10
13.6782311788
 20
8.2458447687
 30
0.0
 10
13.6789216801
 20
8.2267306836
 30
0.0
 10
13.6794019574
 20
8.2171933451
 30
0.0
  0
SPLINE
  5
309
100
AcDbEntity
  8
0
100
AcDbSpline
 62
7
  6
CONTINUOUS
 70
0
 71
3
 72
53
 73
49
 74
0
 42
0.0000001
 43
0.0000001
 44
0.0000000001
 40
0.0
 40
0.0
 40
0.0
 40
0.0
 40
0.0097390256
 40
0.0199694478
 40
0.0306882454
 40
0.0418903475
 40
0.0535692972
 40
0.0657173983
 40
0.0783253217
 40
0.0913829848
 40
0.1048790849
 40
0.1188013423
 40
0.1331368882
 40
0.1478716847
 40
0.1629912085
 40
0.1784802203
 40
0.210501615
 40
0.2438022992
 40
0.2782397802
 40
0.3136644717
 40
0.349920786
 40
0.3868482547
 40
0.4242825221
 40
0.4620562789
 40
0.5000002331
 40
0.5379441895
 40
0.575717944
 40
0.6131521918
 40
0.6500796571
 40
0.6863359574
 40
0.7217606206
 40
0.7561980886
 40
0.7894987339
 40
0.8215201033
 40
0.8370091015
 40
0.8521286191
 40
0.8668633841
 40
0.8811989085
 40
0.8951211533
 40
0.9086172304
 40
0.9216748847
 40
0.9342827765
 40
0.9464308536
 40
0.9581098038
 40
0.9693118818
 40
0.9800306409
 40
0.9902609883
 40
1.0
 40
1.0
 40
1.0
 40
1.0
 10
13.7478717688
 20
8.5961411294
 30
0.0
 10
13.7457680672
 20
8.5925742826
 30
0.0
 10
13.7415836572
 20
8.5851838741
 30
0.0
 10
13.7355106208
 20
8.5736326938
 30
0.0
 10
13.7294936909
 20
8.5613554734
 30
0.0
 10
13.7235398821
 20
8.5483670308
 30
0.0
 10
13.7176562705
 20
8.5346826591
 30
0.0
 10
13.7118501106
 20
8.5203185413
 30
0.0
 10
13.7061280164
 20
8.505291837
 30
0.0
 10
13.7004971453
 20
8.4896203699
 30
0.0
 10
13.6949641511
 20
8.4733228471
 30
0.0
 10
13.6895355451
 20
8.4564187186
 30
0.0
 10
13.6842181227
 20
8.4389281029
 30
0.0
 10
13.6790179789
 20
8.4208719465
 30
0.0
 10
13.6739414825
 20
8.402271777
 30
0.0
 10
13.6672719917
 20
8.3764897244
 30
0.0
 10
13.6593061004
 20
8.3430613184
 30
0.0
 10
13.6504349693
 20
8.3015783358
 30
0.0
 10
13.6421919153
 20
8.2584919213
 30
0.0
 10
13.6346166279
 20
8.2140080661
 30
0.0
 10
13.6277455614
 20
8.1683392557
 30
0.0
 10
13.6216117809
 20
8.1217037768
 30
0.0
 10
13.6162448101
 20
8.0743245488
 30
0.0
 10
13.6116704568
 20
8.0264281138
 30
0.0
 10
13.607910602
 20
7.9782435202
 30
0.0
 10
13.6049832423
 20
7.930001194
 30
0.0
 10
13.6029023658
 20
7.8819318447
 30
0.0
 10
13.6016779164
 20
7.8342653437
 30
0.0
 10
13.6013155942
 20
7.7872296297
 30
0.0
 10
13.6018169316
 20
7.7410495619
 30
0.0
 10
13.6031793207
 20
7.695945902
 30
0.0
 10
13.605395989
 20
7.6521341405
 30
0.0
 10
13.6084560474
 20
7.6098237629
 30
0.0
 10
13.6117313445
 20
7.5756158117
 30
0.0
 10
13.6147781493
 20
7.5491599561
 30
0.0
 10
13.6172385373
 20
7.5300371223
 30
0.0
 10
13.6198965103
 20
7.5114360332
 30
0.0
 10
13.622748691
 20
7.4933788834
 30
0.0
 10
13.6257919429
 20
7.4758872544
 30
0.0
 10
13.6290223406
 20
7.458982014
 30
0.0
 10
13.6324360612
 20
7.4426833269
 30
0.0
 10
13.6360291563
 20
7.4270106438
 30
0.0
 10
13.6397969762
 20
7.4119825974
 30
0.0
 10
13.6437353219
 20
7.397617092
 30
0.0
 10
13.6478392868
 20
7.3839311796
 30
0.0
 10
13.652103883
 20
7.3709409835
 30
0.0
 10
13.656524269
 20
7.3586621268
 30
0.0
 10
13.659648483
 20
7.3507649072
 30
0.0
 10
13.6612397025
 20
7.3469418288
 30
0.0
  0
SPLINE
  5
30A
100
AcDbEntity
  8
0
100
AcDbSpline
 62
7
  6
CONTINUOUS
 70
0
 71
3
 72
96
 73
92
 74
0
 42
0.0000001
 43
0.0000001
 44
0.0000000001
 40
0.0
 40
0.0
 40
0.0
 40
0.0
 40
0.0042125846
 40
0.0086205253
 40
0.0132282288
 40
0.0180391708
 40
0.023056093
 40
0.0282811115
 40
0.033715752
 40
0.0393609674
 40
0.0452168818
 40
0.0512831042
 40
0.0575589183
 40
0.0640431811
 40
0.0707342696
 40
0.0776303255
 40
0.0920281512
 40
0.1072161906
 40
0.123169846
 40
0.1398607437
 40
0.1572576877
 40
0.1753265768
 40
0.1940308818
 40
0.2133319395
 40
0.2331889038
 40
0.2535593392
 40
0.2743989446
 40
0.2956621811
 40
0.3173020673
 40
0.3392705823
 40
0.3615186871
 40
0.3839965262
 40
0.4066536302
 40
0.4294389291
 40
0.4523010432
 40
0.4751883472
 40
0.4980491719
 40
0.5208318767
 40
0.543485093
 40
0.5659577763
 40
0.588199481
 40
0.6101603162
 40
0.6317913446
 40
0.6530444824
 40
0.6738728809
 40
0.6942309353
 40
0.7140744557
 40
0.7333610167
 40
0.7520498121
 40
0.7701022959
 40
0.7874818577
 40
0.8041546508
 40
0.8200893678
 40
0.8352578724
 40
0.8425471442
 40
0.8496359757
 40
0.8565218228
 40
0.8632025324
 40
0.8696763303
 40
0.8759416625
 40
0.8819972994
 40
0.8878425933
 40
0.8934772941
 40
0.8989015366
 40
0.9041160977
 40
0.9091224903
 40
0.9139228304
 40
0.9185199844
 40
0.9229179148
 40
0.9271216202
 40
0.931137207
 40
0.9349722213
 40
0.9386359031
 40
0.9421391854
 40
0.9487137003
 40
0.951821977
 40
0.9548347963
 40
0.9577739211
 40
0.9606630146
 40
0.9635270623
 40
0.9663917717
 40
0.9692828261
 40
0.9722251135
 40
0.9752421528
 40
0.9783556536
 40
0.9815851795
 40
0.984948061
 40
0.9884594368
 40
0.992131944
 40
0.995975918
 40
1.0
 40
1.0
 40
1.0
 40
1.0
 10
14.8509441445
 20
8.6097223164
 30
0.0
 10
14.8493348695
 20
8.608167876
 30
0.0
 10
14.8461183474
 20
8.6049067869
 30
0.0
 10
14.8414037835
 20
8.5996950744
 30
0.0
 10
14.8366947671
 20
8.5940576093
 30
0.0
 10
14.8319947057
 20
8.587998098
 30
0.0
 10
14.8273065148
 20
8.5815202423
 30
0.0
 10
14.8226327705
 20
8.5746280198
 30
0.0
 10
14.8179761225
 20
8.5673253382
 30
0.0
 10
14.8133393622
 20
8.5596163441
 30
0.0
 10
14.8087251062
 20
8.5515056797
 30
0.0
 10
14.8041360984
 20
8.5429982446
 30
0.0
 10
14.7995752063
 20
8.5340990581
 30
0.0
 10
14.7950452407
 20
8.5248134266
 30
0.0
 10
14.7905487509
 20
8.5151469941
 30
0.0
 10
14.784514876
 20
8.5015625396
 30
0.0
 10
14.7770912925
 20
8.4836607064
 30
0.0
 10
14.7684819034
 20
8.4610543511
 30
0.0
 10
14.76006945
 20
8.4370794941
 30
0.0
 10
14.7518739136
 20
8.4117937327
 30
0.0
 10
14.7439153801
 20
8.38525751
 30
0.0
 10
14.7362130326
 20
8.3575344928
 30
0.0
 10
14.7287854705
 20
8.3286912373
 30
0.0
 10
14.7216508613
 20
8.2987970217
 30
0.0
 10
14.7148261888
 20
8.2679237264
 30
0.0
 10
14.7083283007
 20
8.2361455833
 30
0.0
 10
14.7021725833
 20
8.2035390603
 30
0.0
 10
14.6963741939
 20
8.1701826105
 30
0.0
 10
14.6909469657
 20
8.1361565131
 30
0.0
 10
14.6859040785
 20
8.1015426833
 30
0.0
 10
14.6812577659
 20
8.0664244436
 30
0.0
 10
14.6770190868
 20
8.0308863574
 30
0.0
 10
14.6731985161
 20
7.9950139715
 30
0.0
 10
14.6698049816
 20
7.9588936846
 30
0.0
 10
14.6668469569
 20
7.9226124633
 30
0.0
 10
14.6643313278
 20
7.8862576795
 30
0.0
 10
14.6622643109
 20
7.8499168728
 30
0.0
 10
14.6606508222
 20
7.8136775518
 30
0.0
 10
14.659494679
 20
7.7776269999
 30
0.0
 10
14.6587988097
 20
7.741851999
 30
0.0
 10
14.6585646171
 20
7.7064387176
 30
0.0
 10
14.6587929305
 20
7.6714723952
 30
0.0
 10
14.6594828601
 20
7.6370372461
 30
0.0
 10
14.6606329493
 20
7.6032161447
 30
0.0
 10
14.6622402042
 20
7.5700905054
 30
0.0
 10
14.6643007393
 20
7.5377400533
 30
0.0
 10
14.6668095871
 20
7.5062426166
 30
0.0
 10
14.6697604199
 20
7.4756739784
 30
0.0
 10
14.6731463278
 20
7.4461076116
 30
0.0
 10
14.6769586758
 20
7.4176145892
 30
0.0
 10
14.6811885235
 20
7.3902633367
 30
0.0
 10
14.6858252096
 20
7.3641194162
 30
0.0
 10
14.6908576691
 20
7.3392456536
 30
0.0
 10
14.6954293185
 20
7.3193703849
 30
0.0
 10
14.6992875946
 20
7.3041585077
 30
0.0
 10
14.7022340108
 20
7.2932552345
 30
0.0
 10
14.7052698787
 20
7.2827124604
 30
0.0
 10
14.7083933822
 20
7.2725364871
 30
0.0
 10
14.711602525
 20
7.2627333474
 30
0.0
 10
14.7148954041
 20
7.2533089333
 30
0.0
 10
14.7182701867
 20
7.24426895
 30
0.0
 10
14.7217247153
 20
7.2356187237
 30
0.0
 10
14.7252568784
 20
7.2273633623
 30
0.0
 10
14.7288646919
 20
7.2195078554
 30
0.0
 10
14.7325460532
 20
7.2120568825
 30
0.0
 10
14.7362986563
 20
7.2050147431
 30
0.0
 10
14.7401203284
 20
7.1983855967
 30
0.0
 10
14.7440090519
 20
7.1921734764
 30
0.0
 10
14.7479624918
 20
7.1863819336
 30
0.0
 10
14.7519783591
 20
7.1810142895
 30
0.0
 10
14.7560546384
 20
7.1760737743
 30
0.0
 10
14.7601890448
 20
7.1715635703
 30
0.0
 10
14.7643799805
 20
7.1674857416
 30
0.0
 10
14.7699207082
 20
7.1627308269
 30
0.0
 10
14.7756914418
 20
7.158707887
 30
0.0
 10
14.7816593942
 20
7.1555545785
 30
0.0
 10
14.7860975878
 20
7.1536779826
 30
0.0
 10
14.7905775896
 20
7.1522486604
 30
0.0
 10
14.7950962665
 20
7.1512678922
 30
0.0
 10
14.7996499755
 20
7.1507369552
 30
0.0
 10
14.8042348772
 20
7.1506568266
 30
0.0
 10
14.8088469656
 20
7.1510272298
 30
0.0
 10
14.8134824827
 20
7.151847099
 30
0.0
 10
14.8181379658
 20
7.1531152474
 30
0.0
 10
14.8228102459
 20
7.1548302601
 30
0.0
 10
14.8274966777
 20
7.1569900543
 30
0.0
 10
14.8321948312
 20
7.159592751
 30
0.0
 10
14.8369020882
 20
7.162636568
 30
0.0
 10
14.8416158786
 20
7.1661190552
 30
0.0
 10
14.8463333511
 20
7.1700371945
 30
0.0
 10
14.8494068805
 20
7.1728715705
 30
0.0
 10
14.8509441445
 20
7.1743564535
 30
0.0
  0
SPLINE
  5
30B
100
AcDbEntity
  8
0
100
AcDbSpline
 62
7
  6
CONTINUOUS
 70
0
 71
3
 72
15
 73
11
 74
0
 42
0.0000001
 43
0.0000001
 44
0.0000000001
 40
0.0
 40
0.0
 40
0.0
 40
0.0
 40
0.1072884122
 40
0.2194681781
 40
0.3366484426
 40
0.4589156571
 40
0.5863382725
 40
0.7189695649
 40
0.8568483605
 40
1.0
 40
1.0
 40
1.0
 40
1.0
 10
14.8509441445
 20
7.1743564535
 30
0.0
 10
14.852525668
 20
7.175884088
 30
0.0
 10
14.8556868016
 20
7.1790863576
 30
0.0
 10
14.8603220198
 20
7.1841992933
 30
0.0
 10
14.86495199
 20
7.1897238877
 30
0.0
 10
14.869573476
 20
7.1956566115
 30
0.0
 10
14.8741836636
 20
7.2019939665
 30
0.0
 10
14.8787801098
 20
7.20873218
 30
0.0
 10
14.8833602739
 20
7.2158674907
 30
0.0
 10
14.8863451385
 20
7.2207941389
 30
0.0
 10
14.887835608
 20
7.2233211771
 30
0.0
  0
SPLINE
  5
30C
100
AcDbEntity
  8
0
100
AcDbSpline
 62
7
  6
CONTINUOUS
 70
0
 71
3
 72
9
 73
5
 74
0
 42
0.0000001
 43
0.0000001
 44
0.0000000001
 40
0.0
 40
0.0
 40
0.0
 40
0.0
 40
0.2434630846
 40
1.0
 40
1.0
 40
1.0
 40
1.0
 10
14.7923879998
 20
8.7152054166
 30
0.0
 10
14.7916863164
 20
8.7145276425
 30
0.0
 10
14.7888300382
 20
8.7117170875
 30
0.0
 10
14.786075197
 20
8.7088039675
 30
0.0
 10
14.7840440103
 20
8.7065535926
 30
0.0
  0
SPLINE
  5
30D
100
AcDbEntity
  8
0
100
AcDbSpline
 62
7
  6
CONTINUOUS
 70
0
 71
3
 72
22
 73
18
 74
0
 42
0.0000001
 43
0.0000001
 44
0.0000000001
 40
0.0
 40
0.0
 40
0.0
 40
0.0
 40
0.0764234912
 40
0.1504698875
 40
0.2222095369
 40
0.291722846
 40
0.3591050492
 40
0.4244648984
 40
0.5495745482
 40
0.6096453126
 40
0.6682571342
 40
0.7255853859
 40
0.7818195466
 40
0.8371613374
 40
0.8918233206
 40
0.9460270232
 40
1.0
 40
1.0
 40
1.0
 40
1.0
 10
13.3305768038
 20
8.678454966
 30
0.0
 10
13.3315892562
 20
8.67943292
 30
0.0
 10
13.3336137838
 20
8.6813265687
 30
0.0
 10
13.3366988465
 20
8.6840174462
 30
0.0
 10
13.3397825565
 20
8.6865123307
 30
0.0
 10
13.3428639172
 20
8.6888102646
 30
0.0
 10
13.3459422559
 20
8.690910659
 30
0.0
 10
13.3499818974
 20
8.693410153
 30
0.0
 10
13.3540749765
 20
8.6955615677
 30
0.0
 10
13.3582070829
 20
8.6973240168
 30
0.0
 10
13.3612573013
 20
8.6984277714
 30
0.0
 10
13.3642992951
 20
8.6993306364
 30
0.0
 10
13.367332241
 20
8.7000323302
 30
0.0
 10
13.3703551755
 20
8.7005325073
 30
0.0
 10
13.3733671931
 20
8.7008308436
 30
0.0
 10
13.3763671038
 20
8.7009272328
 30
0.0
 10
13.378360157
 20
8.7008567323
 30
0.0
 10
13.3793519008
 20
8.7007879511
 30
0.0
  0
SPLINE
  5
30E
100
AcDbEntity
  8
0
100
AcDbSpline
 62
7
  6
CONTINUOUS
 70
0
 71
3
 72
39
 73
35
 74
0
 42
0.0000001
 43
0.0000001
 44
0.0000000001
 40
0.0
 40
0.0
 40
0.0
 40
0.0
 40
0.0311449443
 40
0.0624431435
 40
0.0938883559
 40
0.1254710082
 40
0.1571789104
 40
0.1889972915
 40
0.2209092118
 40
0.2528958851
 40
0.2849370693
 40
0.3170114641
 40
0.3490971276
 40
0.381171901
 40
0.4132138351
 40
0.4452016153
 40
0.4771149773
 40
0.5089351086
 40
0.5406450291
 40
0.5722299455
 40
0.6036775713
 40
0.6349784071
 40
0.6661259735
 40
0.6971169887
 40
0.7279514858
 40
0.7586328627
 40
0.7891678581
 40
0.8195664525
 40
0.8498416892
 40
0.8800094177
 40
0.9100879614
 40
0.9400977171
 40
0.9700606929
 40
1.0
 40
1.0
 40
1.0
 40
1.0
 10
9.6452621105
 20
8.4925868324
 30
0.0
 10
9.6511588611
 20
8.4921778913
 30
0.0
 10
9.6629558329
 20
8.4909263736
 30
0.0
 10
9.6805082654
 20
8.4877737818
 30
0.0
 10
9.6978727065
 20
8.4833579214
 30
0.0
 10
9.7149553453
 20
8.4777025634
 30
0.0
 10
9.7316654468
 20
8.4708380116
 30
0.0
 10
9.7479138707
 20
8.4628009847
 30
0.0
 10
9.7636140589
 20
8.4536344353
 30
0.0
 10
9.7786823511
 20
8.4433873052
 30
0.0
 10
9.7930384632
 20
8.4321142738
 30
0.0
 10
9.8066058994
 20
8.4198754648
 30
0.0
 10
9.8193123583
 20
8.4067361297
 30
0.0
 10
9.8310901133
 20
8.3927663027
 30
0.0
 10
9.8418763704
 20
8.378040431
 30
0.0
 10
9.8516135997
 20
8.362636982
 30
0.0
 10
9.8602498399
 20
8.3466380303
 30
0.0
 10
9.8677389734
 20
8.3301288252
 30
0.0
 10
9.8740409717
 20
8.3131973416
 30
0.0
 10
9.8791221085
 20
8.2959338182
 30
0.0
 10
9.8829551416
 20
8.2784302821
 30
0.0
 10
9.8855194604
 20
8.2607800654
 30
0.0
 10
9.8868012003
 20
8.2430773137
 30
0.0
 10
9.8867933231
 20
8.2254164907
 30
0.0
 10
9.8854956625
 20
8.207891879
 30
0.0
 10
9.8829149339
 20
8.1905970808
 30
0.0
 10
9.8790647107
 20
8.1736245203
 30
0.0
 10
9.8739653611
 20
8.1570649476
 30
0.0
 10
9.8676439597
 20
8.1410069574
 30
0.0
 10
9.8601341226
 20
8.1255364798
 30
0.0
 10
9.8514759536
 20
8.1107364203
 30
0.0
 10
9.841715404
 20
8.0966857964
 30
0.0
 10
9.8309056384
 20
8.0834608185
 30
0.0
 10
9.8230346821
 20
8.0752384005
 30
0.0
 10
9.8189477942
 20
8.071290794
 30
0.0
  0
SPLINE
  5
30F
100
AcDbEntity
  8
0
100
AcDbSpline
 62
7
  6
CONTINUOUS
 70
0
 71
3
 72
38
 73
34
 74
0
 42
0.0000001
 43
0.0000001
 44
0.0000000001
 40
0.0
 40
0.0
 40
0.0
 40
0.0
 40
0.0308954102
 40
0.0619683819
 40
0.0775716185
 40
0.093214357
 40
0.1088943063
 40
0.1246089162
 40
0.1403556048
 40
0.1561313721
 40
0.171933445
 40
0.1877587074
 40
0.2194624784
 40
0.2512247584
 40
0.2830237385
 40
0.3148395002
 40
0.3466542821
 40
0.3784525347
 40
0.41022083
 40
0.4419476997
 40
0.5052213705
 40
0.536772401
 40
0.568252034
 40
0.6309645059
 40
0.6622060277
 40
0.6933624944
 40
0.7553996256
 40
0.7862916728
 40
0.8170938381
 40
0.8784138388
 40
0.9089461022
 40
0.9393895173
 40
1.0
 40
1.0
 40
1.0
 40
1.0
 10
10.9763079982
 20
8.4652414008
 30
0.0
 10
10.9818077211
 20
8.4648599937
 30
0.0
 10
10.9928110122
 20
8.4636179056
 30
0.0
 10
11.0064009505
 20
8.4609028614
 30
0.0
 10
11.017152301
 20
8.45805269
 30
0.0
 10
11.0251542164
 20
8.4555782142
 30
0.0
 10
11.0330690025
 20
8.4527782425
 30
0.0
 10
11.0408843913
 20
8.4496614394
 30
0.0
 10
11.0485889252
 20
8.446237755
 30
0.0
 10
11.0561718533
 20
8.4425172242
 30
0.0
 10
11.0636236689
 20
8.4385108606
 30
0.0
 10
11.0733774623
 20
8.4327998205
 30
0.0
 10
11.0851984636
 20
8.425002149
 30
0.0
 10
11.0987285854
 20
8.4146912906
 30
0.0
 10
11.1115753138
 20
8.4035110144
 30
0.0
 10
11.1237097482
 20
8.3915496847
 30
0.0
 10
11.135112938
 20
8.37889058
 30
0.0
 10
11.1457730827
 20
8.3656117725
 30
0.0
 10
11.1556846471
 20
8.3517847329
 30
0.0
 10
11.1678862282
 20
8.332727871
 30
0.0
 10
11.178609211
 20
8.3128054972
 30
0.0
 10
11.1878535741
 20
8.2922443
 30
0.0
 10
11.1961017219
 20
8.2713707621
 30
0.0
 10
11.2029126932
 20
8.2500136086
 30
0.0
 10
11.2082940267
 20
8.2283417392
 30
0.0
 10
11.2127164322
 20
8.206576896
 30
0.0
 10
11.2157404607
 20
8.1846111402
 30
0.0
 10
11.2173645927
 20
8.1625872051
 30
0.0
 10
11.2180565209
 20
8.1406424248
 30
0.0
 10
11.2173614377
 20
8.11873589
 30
0.0
 10
11.2152645151
 20
8.0970087304
 30
0.0
 10
11.2122422769
 20
8.0755197837
 30
0.0
 10
11.208913369
 20
8.0595873029
 30
0.0
 10
11.2062144036
 20
8.0491142351
 30
0.0
  0
SPLINE
  5
310
100
AcDbEntity
  8
0
100
AcDbSpline
 62
7
  6
CONTINUOUS
 70
0
 71
3
 72
39
 73
35
 74
0
 42
0.0000001
 43
0.0000001
 44
0.0000000001
 40
0.0
 40
0.0
 40
0.0
 40
0.0
 40
0.0311449443
 40
0.0624431435
 40
0.0938883559
 40
0.1254710082
 40
0.1571789104
 40
0.1889972915
 40
0.2209092118
 40
0.2528958851
 40
0.2849370693
 40
0.3170114641
 40
0.3490971276
 40
0.381171901
 40
0.4132138351
 40
0.4452016153
 40
0.4771149773
 40
0.5089351086
 40
0.5406450291
 40
0.5722299455
 40
0.6036775713
 40
0.6349784071
 40
0.6661259735
 40
0.6971169887
 40
0.7279514858
 40
0.7586328627
 40
0.7891678581
 40
0.8195664525
 40
0.8498416892
 40
0.8800094177
 40
0.9100879614
 40
0.9400977171
 40
0.9700606929
 40
1.0
 40
1.0
 40
1.0
 40
1.0
 10
10.3136829674
 20
9.2363590792
 30
0.0
 10
10.3195797181
 20
9.2359501381
 30
0.0
 10
10.3313766898
 20
9.2346986204
 30
0.0
 10
10.3489291223
 20
9.2315460286
 30
0.0
 10
10.3662935635
 20
9.2271301682
 30
0.0
 10
10.3833762022
 20
9.2214748102
 30
0.0
 10
10.4000863038
 20
9.2146102584
 30
0.0
 10
10.4163347276
 20
9.2065732315
 30
0.0
 10
10.4320349159
 20
9.1974066821
 30
0.0
 10
10.447103208
 20
9.187159552
 30
0.0
 10
10.4614593202
 20
9.1758865206
 30
0.0
 10
10.4750267563
 20
9.1636477116
 30
0.0
 10
10.4877332152
 20
9.1505083765
 30
0.0
 10
10.4995109702
 20
9.1365385495
 30
0.0
 10
10.5102972273
 20
9.1218126778
 30
0.0
 10
10.5200344567
 20
9.1064092288
 30
0.0
 10
10.5286706968
 20
9.0904102771
 30
0.0
 10
10.5361598303
 20
9.073901072
 30
0.0
 10
10.5424618286
 20
9.0569695885
 30
0.0
 10
10.5475429655
 20
9.039706065
 30
0.0
 10
10.5513759986
 20
9.0222025289
 30
0.0
 10
10.5539403173
 20
9.0045523122
 30
0.0
 10
10.5552220572
 20
8.9868495605
 30
0.0
 10
10.5552141801
 20
8.9691887375
 30
0.0
 10
10.5539165194
 20
8.9516641258
 30
0.0
 10
10.5513357909
 20
8.9343693276
 30
0.0
 10
10.5474855677
 20
8.9173967671
 30
0.0
 10
10.5423862181
 20
8.9008371944
 30
0.0
 10
10.5360648166
 20
8.8847792043
 30
0.0
 10
10.5285549795
 20
8.8693087267
 30
0.0
 10
10.5198968105
 20
8.8545086671
 30
0.0
 10
10.5101362609
 20
8.8404580432
 30
0.0
 10
10.4993264954
 20
8.8272330653
 30
0.0
 10
10.4914555391
 20
8.8190106473
 30
0.0
 10
10.4873686511
 20
8.8150630408
 30
0.0
  0
SPLINE
  5
311
100
AcDbEntity
  8
0
100
AcDbSpline
 62
7
  6
CONTINUOUS
 70
0
 71
3
 72
39
 73
35
 74
0
 42
0.0000001
 43
0.0000001
 44
0.0000000001
 40
0.0
 40
0.0
 40
0.0
 40
0.0
 40
0.0311448514
 40
0.062443175
 40
0.0938883155
 40
0.1254709835
 40
0.1571788681
 40
0.1889972425
 40
0.2209091526
 40
0.2528958171
 40
0.2849369926
 40
0.3170113795
 40
0.3490970362
 40
0.381171804
 40
0.413213734
 40
0.4452015117
 40
0.477114873
 40
0.5089350054
 40
0.5406449289
 40
0.5722298501
 40
0.6036774824
 40
0.6349783264
 40
0.6661259021
 40
0.6971169277
 40
0.7279514359
 40
0.758632824
 40
0.7891678305
 40
0.8195664351
 40
0.8498416808
 40
0.8800094165
 40
0.9100879651
 40
0.9400977229
 40
0.9700606977
 40
1.0
 40
1.0
 40
1.0
 40
1.0
 10
8.6793362269
 20
7.3454051567
 30
0.0
 10
8.6843602186
 20
7.3450567417
 30
0.0
 10
8.6944111929
 20
7.3439904489
 30
0.0
 10
8.7093657893
 20
7.3413044794
 30
0.0
 10
8.7241602303
 20
7.3375421819
 30
0.0
 10
8.7387145637
 20
7.3327238717
 30
0.0
 10
8.7529515061
 20
7.3268753217
 30
0.0
 10
8.7667951037
 20
7.3200278404
 30
0.0
 10
8.7801716117
 20
7.3122180112
 30
0.0
 10
8.7930097524
 20
7.3034875365
 30
0.0
 10
8.8052411246
 20
7.2938830004
 30
0.0
 10
8.8168005548
 20
7.283455628
 30
0.0
 10
8.827626443
 20
7.2722610124
 30
0.0
 10
8.8376610868
 20
7.2603588214
 30
0.0
 10
8.8468509863
 20
7.247812483
 30
0.0
 10
8.8551471264
 20
7.2346888502
 30
0.0
 10
8.8625052365
 20
7.2210578493
 30
0.0
 10
8.8688860247
 20
7.2069921112
 30
0.0
 10
8.8742553867
 20
7.1925665894
 30
0.0
 10
8.8785845878
 20
7.1778581658
 30
0.0
 10
8.8818504175
 20
7.1629452461
 30
0.0
 10
8.8840353151
 20
7.1479073481
 30
0.0
 10
8.8851274678
 20
7.1328246824
 30
0.0
 10
8.8851208786
 20
7.1177777309
 30
0.0
 10
8.8840154049
 20
7.1028468212
 30
0.0
 10
8.8818167676
 20
7.0881117011
 30
0.0
 10
8.8785365304
 20
7.0736511151
 30
0.0
 10
8.8741920459
 20
7.0595423811
 30
0.0
 10
8.8688063805
 20
7.045860981
 30
0.0
 10
8.8624081744
 20
7.0326801261
 30
0.0
 10
8.8550315932
 20
7.0200704527
 30
0.0
 10
8.8467157915
 20
7.0080992774
 30
0.0
 10
8.8375060435
 20
6.9968315523
 30
0.0
 10
8.8308001441
 20
6.989825969
 30
0.0
 10
8.8273181552
 20
6.9864626029
 30
0.0
  0
SPLINE
  5
312
100
AcDbEntity
  8
0
100
AcDbSpline
 62
7
  6
CONTINUOUS
 70
0
 71
3
 72
39
 73
35
 74
0
 42
0.0000001
 43
0.0000001
 44
0.0000000001
 40
0.0
 40
0.0
 40
0.0
 40
0.0
 40
0.0311448514
 40
0.062443175
 40
0.0938883155
 40
0.1254709835
 40
0.1571788681
 40
0.1889972425
 40
0.2209091526
 40
0.2528958171
 40
0.2849369926
 40
0.3170113795
 40
0.3490970362
 40
0.381171804
 40
0.413213734
 40
0.4452015117
 40
0.477114873
 40
0.5089350054
 40
0.5406449289
 40
0.5722298501
 40
0.6036774824
 40
0.6349783264
 40
0.6661259021
 40
0.6971169277
 40
0.7279514359
 40
0.758632824
 40
0.7891678305
 40
0.8195664351
 40
0.8498416808
 40
0.8800094165
 40
0.9100879651
 40
0.9400977229
 40
0.9700606977
 40
1.0
 40
1.0
 40
1.0
 40
1.0
 10
8.6793362269
 20
9.7022643678
 30
0.0
 10
8.6843602186
 20
9.7019159527
 30
0.0
 10
8.6944111929
 20
9.7008496599
 30
0.0
 10
8.7093657893
 20
9.6981636905
 30
0.0
 10
8.7241602303
 20
9.694401393
 30
0.0
 10
8.7387145637
 20
9.6895830828
 30
0.0
 10
8.7529515061
 20
9.6837345327
 30
0.0
 10
8.7667951037
 20
9.6768870515
 30
0.0
 10
8.7801716117
 20
9.6690772222
 30
0.0
 10
8.7930097524
 20
9.6603467475
 30
0.0
 10
8.8052411246
 20
9.6507422114
 30
0.0
 10
8.8168005548
 20
9.6403148391
 30
0.0
 10
8.827626443
 20
9.6291202234
 30
0.0
 10
8.8376610868
 20
9.6172180325
 30
0.0
 10
8.8468509863
 20
9.6046716941
 30
0.0
 10
8.8551471264
 20
9.5915480613
 30
0.0
 10
8.8625052365
 20
9.5779170604
 30
0.0
 10
8.8688860247
 20
9.5638513222
 30
0.0
 10
8.8742553867
 20
9.5494258005
 30
0.0
 10
8.8785845878
 20
9.5347173768
 30
0.0
 10
8.8818504175
 20
9.5198044572
 30
0.0
 10
8.8840353151
 20
9.5047665591
 30
0.0
 10
8.8851274678
 20
9.4896838935
 30
0.0
 10
8.8851208786
 20
9.474636942
 30
0.0
 10
8.8840154049
 20
9.4597060323
 30
0.0
 10
8.8818167676
 20
9.4449709122
 30
0.0
 10
8.8785365304
 20
9.4305103262
 30
0.0
 10
8.8741920459
 20
9.4164015921
 30
0.0
 10
8.8688063805
 20
9.4027201921
 30
0.0
 10
8.8624081744
 20
9.3895393372
 30
0.0
 10
8.8550315932
 20
9.3769296638
 30
0.0
 10
8.8467157915
 20
9.3649584884
 30
0.0
 10
8.8375060435
 20
9.3536907634
 30
0.0
 10
8.8308001441
 20
9.3466851801
 30
0.0
 10
8.8273181552
 20
9.343321814
 30
0.0
  0
SPLINE
  5
313
100
AcDbEntity
  8
0
100
AcDbSpline
 62
7
  6
CONTINUOUS
 70
0
 71
3
 72
39
 73
35
 74
0
 42
0.0000001
 43
0.0000001
 44
0.0000000001
 40
0.0
 40
0.0
 40
0.0
 40
0.0
 40
0.0311448514
 40
0.062443175
 40
0.0938883155
 40
0.1254709835
 40
0.1571788681
 40
0.1889972425
 40
0.2209091526
 40
0.2528958171
 40
0.2849369926
 40
0.3170113795
 40
0.3490970362
 40
0.381171804
 40
0.413213734
 40
0.4452015117
 40
0.477114873
 40
0.5089350054
 40
0.5406449289
 40
0.5722298501
 40
0.6036774824
 40
0.6349783264
 40
0.6661259021
 40
0.6971169277
 40
0.7279514359
 40
0.758632824
 40
0.7891678305
 40
0.8195664351
 40
0.8498416808
 40
0.8800094165
 40
0.9100879651
 40
0.9400977229
 40
0.9700606977
 40
1.0
 40
1.0
 40
1.0
 40
1.0
 10
11.7587080238
 20
9.5466647348
 30
0.0
 10
11.7637320154
 20
9.5463163198
 30
0.0
 10
11.7737829897
 20
9.545250027
 30
0.0
 10
11.7887375861
 20
9.5425640575
 30
0.0
 10
11.8035320272
 20
9.5388017601
 30
0.0
 10
11.8180863605
 20
9.5339834499
 30
0.0
 10
11.8323233029
 20
9.5281348998
 30
0.0
 10
11.8461669005
 20
9.5212874186
 30
0.0
 10
11.8595434085
 20
9.5134775893
 30
0.0
 10
11.8723815492
 20
9.5047471146
 30
0.0
 10
11.8846129214
 20
9.4951425785
 30
0.0
 10
11.8961723517
 20
9.4847152061
 30
0.0
 10
11.9069982398
 20
9.4735205905
 30
0.0
 10
11.9170328836
 20
9.4616183996
 30
0.0
 10
11.9262227831
 20
9.4490720612
 30
0.0
 10
11.9345189232
 20
9.4359484284
 30
0.0
 10
11.9418770333
 20
9.4223174274
 30
0.0
 10
11.9482578215
 20
9.4082516893
 30
0.0
 10
11.9536271835
 20
9.3938261675
 30
0.0
 10
11.9579563846
 20
9.3791177439
 30
0.0
 10
11.9612222143
 20
9.3642048243
 30
0.0
 10
11.9634071119
 20
9.3491669262
 30
0.0
 10
11.9644992647
 20
9.3340842606
 30
0.0
 10
11.9644926754
 20
9.3190373091
 30
0.0
 10
11.9633872017
 20
9.3041063994
 30
0.0
 10
11.9611885644
 20
9.2893712793
 30
0.0
 10
11.9579083272
 20
9.2749106933
 30
0.0
 10
11.9535638427
 20
9.2608019592
 30
0.0
 10
11.9481781773
 20
9.2471205592
 30
0.0
 10
11.9417799712
 20
9.2339397043
 30
0.0
 10
11.93440339
 20
9.2213300309
 30
0.0
 10
11.9260875883
 20
9.2093588555
 30
0.0
 10
11.9168778403
 20
9.1980911305
 30
0.0
 10
11.9101719409
 20
9.1910855472
 30
0.0
 10
11.906689952
 20
9.1877221811
 30
0.0
  0
SPLINE
  5
314
100
AcDbEntity
  8
0
100
AcDbSpline
 62
7
  6
CONTINUOUS
 70
0
 71
3
 72
39
 73
35
 74
0
 42
0.0000001
 43
0.0000001
 44
0.0000000001
 40
0.0
 40
0.0
 40
0.0
 40
0.0
 40
0.0311448514
 40
0.062443175
 40
0.0938883155
 40
0.1254709835
 40
0.1571788681
 40
0.1889972425
 40
0.2209091526
 40
0.2528958171
 40
0.2849369926
 40
0.3170113795
 40
0.3490970362
 40
0.381171804
 40
0.413213734
 40
0.4452015117
 40
0.477114873
 40
0.5089350054
 40
0.5406449289
 40
0.5722298501
 40
0.6036774824
 40
0.6349783264
 40
0.6661259021
 40
0.6971169277
 40
0.7279514359
 40
0.758632824
 40
0.7891678305
 40
0.8195664351
 40
0.8498416808
 40
0.8800094165
 40
0.9100879651
 40
0.9400977229
 40
0.9700606977
 40
1.0
 40
1.0
 40
1.0
 40
1.0
 10
11.7587080238
 20
7.0738944995
 30
0.0
 10
11.7637320154
 20
7.0735460845
 30
0.0
 10
11.7737829897
 20
7.0724797917
 30
0.0
 10
11.7887375861
 20
7.0697938222
 30
0.0
 10
11.8035320272
 20
7.0660315247
 30
0.0
 10
11.8180863605
 20
7.0612132145
 30
0.0
 10
11.8323233029
 20
7.0553646645
 30
0.0
 10
11.8461669005
 20
7.0485171832
 30
0.0
 10
11.8595434085
 20
7.040707354
 30
0.0
 10
11.8723815492
 20
7.0319768793
 30
0.0
 10
11.8846129214
 20
7.0223723432
 30
0.0
 10
11.8961723517
 20
7.0119449708
 30
0.0
 10
11.9069982398
 20
7.0007503552
 30
0.0
 10
11.9170328836
 20
6.9888481642
 30
0.0
 10
11.9262227831
 20
6.9763018258
 30
0.0
 10
11.9345189232
 20
6.963178193
 30
0.0
 10
11.9418770333
 20
6.9495471921
 30
0.0
 10
11.9482578215
 20
6.935481454
 30
0.0
 10
11.9536271835
 20
6.9210559322
 30
0.0
 10
11.9579563846
 20
6.9063475086
 30
0.0
 10
11.9612222143
 20
6.891434589
 30
0.0
 10
11.9634071119
 20
6.8763966909
 30
0.0
 10
11.9644992647
 20
6.8613140252
 30
0.0
 10
11.9644926754
 20
6.8462670738
 30
0.0
 10
11.9633872017
 20
6.831336164
 30
0.0
 10
11.9611885644
 20
6.8166010439
 30
0.0
 10
11.9579083272
 20
6.8021404579
 30
0.0
 10
11.9535638427
 20
6.7880317239
 30
0.0
 10
11.9481781773
 20
6.7743503239
 30
0.0
 10
11.9417799712
 20
6.761169469
 30
0.0
 10
11.93440339
 20
6.7485597955
 30
0.0
 10
11.9260875883
 20
6.7365886202
 30
0.0
 10
11.9168778403
 20
6.7253208951
 30
0.0
 10
11.9101719409
 20
6.7183153119
 30
0.0
 10
11.906689952
 20
6.7149519457
 30
0.0
  0
SPLINE
  5
315
100
AcDbEntity
  8
0
100
AcDbSpline
 62
7
  6
CONTINUOUS
 70
0
 71
3
 72
40
 73
36
 74
0
 42
0.0000001
 43
0.0000001
 44
0.0000000001
 40
0.0
 40
0.0
 40
0.0
 40
0.0
 40
0.0311444947
 40
0.0624430116
 40
0.0938878326
 40
0.1254704216
 40
0.1571781344
 40
0.1889963661
 40
0.2209081245
 40
0.2528946404
 40
0.2689119976
 40
0.2849403504
 40
0.3170145907
 40
0.3491001014
 40
0.3811747228
 40
0.4132165051
 40
0.4452041336
 40
0.4771173445
 40
0.5089373259
 40
0.5406470987
 40
0.5722318701
 40
0.6036793542
 40
0.6349800517
 40
0.6661274822
 40
0.697118363
 40
0.7279527258
 40
0.7586339677
 40
0.7891688275
 40
0.8195672855
 40
0.8498423851
 40
0.8800099759
 40
0.9100883815
 40
0.9400979984
 40
0.9700608344
 40
1.0
 40
1.0
 40
1.0
 40
1.0
 10
11.1888117202
 20
7.058359167
 30
0.0
 10
11.1924912439
 20
7.0581039912
 30
0.0
 10
11.1998525449
 20
7.0573230278
 30
0.0
 10
11.2108052233
 20
7.0553558612
 30
0.0
 10
11.2216406222
 20
7.0526003307
 30
0.0
 10
11.2323001415
 20
7.0490714349
 30
0.0
 10
11.2427272015
 20
7.0447879747
 30
0.0
 10
11.2528662301
 20
7.0397728773
 30
0.0
 10
11.2626629574
 20
7.0340531125
 30
0.0
 10
11.2704956515
 20
7.028726507
 30
0.0
 10
11.2765401776
 20
7.0241452997
 30
0.0
 10
11.2824326877
 20
7.0193536544
 30
0.0
 10
11.2894900773
 20
7.0129874598
 30
0.0
 10
11.2974187408
 20
7.0047886966
 30
0.0
 10
11.3047681001
 20
6.9960715399
 30
0.0
 10
11.3114987144
 20
6.9868826563
 30
0.0
 10
11.3175747558
 20
6.9772709539
 30
0.0
 10
11.3229637833
 20
6.9672876622
 30
0.0
 10
11.3276370254
 20
6.9569859718
 30
0.0
 10
11.3315695037
 20
6.9464207795
 30
0.0
 10
11.3347401734
 20
6.9356483925
 30
0.0
 10
11.3371320345
 20
6.9247262345
 30
0.0
 10
11.3387322248
 20
6.9137125437
 30
0.0
 10
11.3395320912
 20
6.9026660663
 30
0.0
 10
11.3395272389
 20
6.8916457474
 30
0.0
 10
11.3387175633
 20
6.8807104197
 30
0.0
 10
11.3371072572
 20
6.8699184907
 30
0.0
 10
11.3347047916
 20
6.8593276325
 30
0.0
 10
11.3315228769
 20
6.848994472
 30
0.0
 10
11.3275784076
 20
6.8389742912
 30
0.0
 10
11.3228923599
 20
6.8293207093
 30
0.0
 10
11.3174897567
 20
6.8200854595
 30
0.0
 10
11.3113992729
 20
6.8113178453
 30
0.0
 10
11.3046540705
 20
6.8030654338
 30
0.0
 10
11.2997426748
 20
6.7979346006
 30
0.0
 10
11.2971924768
 20
6.7954712912
 30
0.0
  0
SPLINE
  5
316
100
AcDbEntity
  8
0
100
AcDbSpline
 62
7
  6
CONTINUOUS
 70
0
 71
3
 72
28
 73
24
 74
0
 42
0.0000001
 43
0.0000001
 44
0.0000000001
 40
0.0
 40
0.0
 40
0.0
 40
0.0
 40
0.0735321189
 40
0.1460773679
 40
0.21754765
 40
0.2878676602
 40
0.3569738661
 40
0.424806018
 40
0.4912986843
 40
0.5563703964
 40
0.6199115656
 40
0.6817703702
 40
0.7417363794
 40
0.7709295981
 40
0.7995358926
 40
0.8275039935
 40
0.8547780185
 40
0.8812939162
 40
0.9069833957
 40
0.9317726693
 40
0.9555864815
 40
0.9783511165
 40
1.0
 40
1.0
 40
1.0
 40
1.0
 10
9.4355378397
 20
8.2985272599
 30
0.0
 10
9.4355378397
 20
8.2937744844
 30
0.0
 10
9.4358947126
 20
8.2843284896
 30
0.0
 10
9.4375151262
 20
8.2703470895
 30
0.0
 10
9.440191277
 20
8.2567393944
 30
0.0
 10
9.4438810893
 20
8.2436018826
 30
0.0
 10
9.4485279234
 20
8.2310221112
 30
0.0
 10
9.4540628488
 20
8.2190794622
 30
0.0
 10
9.4604064656
 20
8.2078449035
 30
0.0
 10
9.4674703516
 20
8.1973821798
 30
0.0
 10
9.4751578941
 20
8.1877493384
 30
0.0
 10
9.4833631944
 20
8.1790017073
 30
0.0
 10
9.4906015248
 20
8.1724353017
 30
0.0
 10
9.4965485302
 20
8.1676812389
 30
0.0
 10
9.5010216535
 20
8.1644037208
 30
0.0
 10
9.5055283105
 20
8.1613903778
 30
0.0
 10
9.5100485254
 20
8.1586495505
 30
0.0
 10
9.514560632
 20
8.1561896945
 30
0.0
 10
9.5190414392
 20
8.154019693
 30
0.0
 10
9.5234661345
 20
8.15214843
 30
0.0
 10
9.5278084727
 20
8.1505844893
 30
0.0
 10
9.5320407291
 20
8.149336291
 30
0.0
 10
9.5348433401
 20
8.1487026939
 30
0.0
 10
9.5362186007
 20
8.1484445222
 30
0.0
  0
SPLINE
  5
317
100
AcDbEntity
  8
0
100
AcDbSpline
 62
7
  6
CONTINUOUS
 70
0
 71
3
 72
49
 73
45
 74
0
 42
0.0000001
 43
0.0000001
 44
0.0000000001
 40
0.0
 40
0.0
 40
0.0
 40
0.0
 40
0.007162651
 40
0.0146567047
 40
0.022489802
 40
0.0306682658
 40
0.039197236
 40
0.0480804432
 40
0.0573201505
 40
0.0669176598
 40
0.0768732462
 40
0.0871864326
 40
0.0978559349
 40
0.1088797421
 40
0.1202552948
 40
0.1319793485
 40
0.1440482505
 40
0.156457763
 40
0.1692032492
 40
0.1822796554
 40
0.19568148
 40
0.2094029484
 40
0.2377791912
 40
0.2673557091
 40
0.2980746237
 40
0.3298738609
 40
0.362687558
 40
0.3964464427
 40
0.4310781691
 40
0.466507628
 40
0.5026572389
 40
0.5394472298
 40
0.5767959041
 40
0.6146199124
 40
0.6528345158
 40
0.6913538428
 40
0.7300911403
 40
0.7689590294
 40
0.8078697587
 40
0.8467354142
 40
0.885468393
 40
0.9239808777
 40
0.9621872155
 40
1.0
 40
1.0
 40
1.0
 40
1.0
 10
7.1348208198
 20
10.1429814576
 30
0.0
 10
7.1333304964
 20
10.1415419156
 30
0.0
 10
7.1303518435
 20
10.1385220707
 30
0.0
 10
7.1259861197
 20
10.1336960956
 30
0.0
 10
7.1216259694
 20
10.1284760642
 30
0.0
 10
7.1172741554
 20
10.1228653565
 30
0.0
 10
7.1129330918
 20
10.1168672305
 30
0.0
 10
7.1086053123
 20
10.1104851587
 30
0.0
 10
7.104293276
 20
10.1037229399
 30
0.0
 10
7.0999996563
 20
10.0965845537
 30
0.0
 10
7.095726929
 20
10.0890742884
 30
0.0
 10
7.0914776881
 20
10.081196593
 30
0.0
 10
7.0872544659
 20
10.0729561691
 30
0.0
 10
7.0830597631
 20
10.0643579487
 30
0.0
 10
7.0788961672
 20
10.0554070575
 30
0.0
 10
7.0747661007
 20
10.0461088793
 30
0.0
 10
7.0706721259
 20
10.036468967
 30
0.0
 10
7.0666166539
 20
10.0264931179
 30
0.0
 10
7.0626021484
 20
10.0161873135
 30
0.0
 10
7.0586310503
 20
10.0055577437
 30
0.0
 10
7.0547056869
 20
9.9946107929
 30
0.0
 10
7.0494776048
 20
9.9794303681
 30
0.0
 10
7.0430842006
 20
9.9597043506
 30
0.0
 10
7.0357147661
 20
9.9351325381
 30
0.0
 10
7.0285825648
 20
9.9094616749
 30
0.0
 10
7.0217048689
 20
9.8827535137
 30
0.0
 10
7.0150983268
 20
9.8550721894
 30
0.0
 10
7.0087789272
 20
9.826484259
 30
0.0
 10
7.0027619594
 20
9.7970584731
 30
0.0
 10
6.9970619766
 20
9.7668656216
 30
0.0
 10
6.9916927619
 20
9.7359783557
 30
0.0
 10
6.9866672964
 20
9.7044710138
 30
0.0
 10
6.9819977206
 20
9.6724194405
 30
0.0
 10
6.9776953112
 20
9.6399007998
 30
0.0
 10
6.9737704557
 20
9.6069933852
 30
0.0
 10
6.9702326278
 20
9.5737764301
 30
0.0
 10
6.9670903641
 20
9.5403299165
 30
0.0
 10
6.9643512447
 20
9.5067343816
 30
0.0
 10
6.9620218751
 20
9.4730707342
 30
0.0
 10
6.9601078504
 20
9.4394200054
 30
0.0
 10
6.9586137993
 20
9.4058633316
 30
0.0
 10
6.9575432561
 20
9.3724812745
 30
0.0
 10
6.9568988567
 20
9.3393545593
 30
0.0
 10
6.9567534637
 20
9.3173632068
 30
0.0
 10
6.9567534637
 20
9.3064245815
 30
0.0
  0
SPLINE
  5
318
100
AcDbEntity
  8
0
100
AcDbSpline
 62
7
  6
CONTINUOUS
 70
0
 71
3
 72
36
 73
32
 74
0
 42
0.0000001
 43
0.0000001
 44
0.0000000001
 40
0.0
 40
0.0
 40
0.0
 40
0.0
 40
0.0851785676
 40
0.1685799412
 40
0.2498822288
 40
0.2896484595
 40
0.3287737794
 40
0.3672213323
 40
0.4049550248
 40
0.4419399621
 40
0.4781422097
 40
0.5135290828
 40
0.5480690991
 40
0.5817320933
 40
0.6144894081
 40
0.6463137811
 40
0.6771797808
 40
0.7070635563
 40
0.7359433837
 40
0.7637994846
 40
0.7906144915
 40
0.8163735534
 40
0.8410646067
 40
0.8646788865
 40
0.8872110453
 40
0.9086600689
 40
0.9290294673
 40
0.9483284919
 40
0.9665727628
 40
0.9837857144
 40
1.0
 40
1.0
 40
1.0
 40
1.0
 10
6.9567534637
 20
7.6160542853
 30
0.0
 10
6.9567534637
 20
7.6017991411
 30
0.0
 10
6.9569963677
 20
7.5735855709
 30
0.0
 10
6.9581105132
 20
7.53177894
 30
0.0
 10
6.9596679985
 20
7.4975927349
 30
0.0
 10
6.9612922362
 20
7.4708321908
 30
0.0
 10
6.9626842173
 20
7.4512438101
 30
0.0
 10
6.96425737
 20
7.432010418
 30
0.0
 10
6.966010108
 20
7.4131522537
 30
0.0
 10
6.9679405055
 20
7.3946891954
 30
0.0
 10
6.9700465653
 20
7.3766406826
 30
0.0
 10
6.9723260222
 20
7.3590257226
 30
0.0
 10
6.9747764665
 20
7.3418628612
 30
0.0
 10
6.9773953162
 20
7.3251701623
 30
0.0
 10
6.9801797519
 20
7.308965192
 30
0.0
 10
6.9831268826
 20
7.2932649939
 30
0.0
 10
6.9862335074
 20
7.2780860739
 30
0.0
 10
6.989496412
 20
7.2634443806
 30
0.0
 10
6.9929120662
 20
7.2493552827
 30
0.0
 10
6.9964769067
 20
7.2358335585
 30
0.0
 10
7.0001871338
 20
7.2228933695
 30
0.0
 10
7.0040388247
 20
7.2105482456
 30
0.0
 10
7.0080279574
 20
7.1988110749
 30
0.0
 10
7.0121502742
 20
7.1876940597
 30
0.0
 10
7.0164015614
 20
7.1772087481
 30
0.0
 10
7.0207773014
 20
7.1673659439
 30
0.0
 10
7.0252731188
 20
7.1581757757
 30
0.0
 10
7.0298843538
 20
7.1496476281
 30
0.0
 10
7.0346066092
 20
7.1417900504
 30
0.0
 10
7.0394350057
 20
7.1346113539
 30
0.0
 10
7.0428206987
 20
7.1301527167
 30
0.0
 10
7.0445328739
 20
7.12804752
 30
0.0
  0
SPLINE
  5
319
100
AcDbEntity
  8
0
100
AcDbSpline
 62
7
  6
CONTINUOUS
 70
0
 71
3
 72
34
 73
30
 74
0
 42
0.0000001
 43
0.0000001
 44
0.0000000001
 40
0.0
 40
0.0
 40
0.0
 40
0.0
 40
0.0853224046
 40
0.1684553897
 40
0.2491711184
 40
0.3272515166
 40
0.4024895029
 40
0.4389818362
 40
0.4746915625
 40
0.5095966411
 40
0.543675757
 40
0.5769088838
 40
0.6092768464
 40
0.6407618911
 40
0.6713473022
 40
0.7010179256
 40
0.7297599029
 40
0.7575611115
 40
0.7844110717
 40
0.810301265
 40
0.8352252663
 40
0.8591789903
 40
0.8821610901
 40
0.904172994
 40
0.9252195464
 40
0.945309472
 40
0.9644566722
 40
0.9826793497
 40
1.0
 40
1.0
 40
1.0
 40
1.0
 10
13.5842009434
 20
7.2781339843
 30
0.0
 10
13.5821460661
 20
7.2668002143
 30
0.0
 10
13.5779088327
 20
7.2444556654
 30
0.0
 10
13.5710774902
 20
7.2115167937
 30
0.0
 10
13.5638681737
 20
7.1796599441
 30
0.0
 10
13.5563030105
 20
7.148982312
 30
0.0
 10
13.5496557707
 20
7.1242327547
 30
0.0
 10
13.5441686283
 20
7.1050991999
 30
0.0
 10
13.540020765
 20
7.0912470437
 30
0.0
 10
13.5358018075
 20
7.0777573356
 30
0.0
 10
13.5315148771
 20
7.0646403435
 30
0.0
 10
13.5271633364
 20
7.0519060466
 30
0.0
 10
13.5227504287
 20
7.0395641445
 30
0.0
 10
13.5182796
 20
7.0276240148
 30
0.0
 10
13.5137541961
 20
7.0160947455
 30
0.0
 10
13.5091777313
 20
7.0049850863
 30
0.0
 10
13.5045536484
 20
6.9943034804
 30
0.0
 10
13.4998855093
 20
6.9840580219
 30
0.0
 10
13.4951768455
 20
6.9742564772
 30
0.0
 10
13.4904312473
 20
6.9649062618
 30
0.0
 10
13.4856523263
 20
6.9560144319
 30
0.0
 10
13.4808436706
 20
6.9475876938
 30
0.0
 10
13.476008939
 20
6.9396323653
 30
0.0
 10
13.4711517129
 20
6.9321544514
 30
0.0
 10
13.4662757053
 20
6.9251594991
 30
0.0
 10
13.4613843972
 20
6.9186527301
 30
0.0
 10
13.4564813023
 20
6.912638823
 30
0.0
 10
13.4515701707
 20
6.9071226571
 30
0.0
 10
13.4482094617
 20
6.9036943278
 30
0.0
 10
13.4465276347
 20
6.9020698075
 30
0.0
  0
SPLINE
  5
31A
100
AcDbEntity
  8
0
100
AcDbSpline
 62
7
  6
CONTINUOUS
 70
0
 71
3
 72
22
 73
18
 74
0
 42
0.0000001
 43
0.0000001
 44
0.0000000001
 40
0.0
 40
0.0
 40
0.0
 40
0.0
 40
0.054424585
 40
0.1090659345
 40
0.1641380458
 40
0.2198496093
 40
0.2764013978
 40
0.3339846181
 40
0.3927796025
 40
0.4529540497
 40
0.5146627563
 40
0.5780480633
 40
0.6432400063
 40
0.7103565416
 40
0.7795043376
 40
0.8507788591
 40
1.0
 40
1.0
 40
1.0
 40
1.0
 10
7.453651339
 20
10.4224740178
 30
0.0
 10
7.4526331447
 20
10.4225446239
 30
0.0
 10
7.4505874484
 20
10.4226194033
 30
0.0
 10
7.4475085328
 20
10.4225313396
 30
0.0
 10
7.4444175385
 20
10.422243205
 30
0.0
 10
7.4413155941
 20
10.4217550976
 30
0.0
 10
7.4382035675
 20
10.421067319
 30
0.0
 10
7.4350823571
 20
10.4201801651
 30
0.0
 10
7.4319528441
 20
10.4190939281
 30
0.0
 10
7.4288158678
 20
10.4178090539
 30
0.0
 10
7.4256722421
 20
10.416326028
 30
0.0
 10
7.4225227881
 20
10.4146453041
 30
0.0
 10
7.4193682969
 20
10.4127673671
 30
0.0
 10
7.4162095275
 20
10.4106928003
 30
0.0
 10
7.4130471597
 20
10.4084221111
 30
0.0
 10
7.4087617491
 20
10.4050829024
 30
0.0
 10
7.405644176
 20
10.4023596683
 30
0.0
 10
7.4035956959
 20
10.4004531814
 30
0.0
  0
SPLINE
  5
31B
100
AcDbEntity
  8
0
100
AcDbSpline
 62
7
  6
CONTINUOUS
 70
0
 71
3
 72
22
 73
18
 74
0
 42
0.0000001
 43
0.0000001
 44
0.0000000001
 40
0.0
 40
0.0
 40
0.0
 40
0.0
 40
0.1492207712
 40
0.2204920371
 40
0.2896391336
 40
0.3567565018
 40
0.4219494148
 40
0.485335564
 40
0.5470447746
 40
0.6072191781
 40
0.6660140492
 40
0.7235975452
 40
0.7801496181
 40
0.835861325
 40
0.8909336716
 40
0.9455752459
 40
1.0
 40
1.0
 40
1.0
 40
1.0
 10
7.0962833905
 20
7.0644175716
 30
0.0
 10
7.0980490784
 20
7.0622465646
 30
0.0
 10
7.1007608272
 20
7.0591190826
 30
0.0
 10
7.1045442785
 20
7.055220406
 30
0.0
 10
7.1073628789
 20
7.0525349582
 30
0.0
 10
7.1102050369
 20
7.0500441847
 30
0.0
 10
7.1130701571
 20
7.0477487726
 30
0.0
 10
7.1159574863
 20
7.0456493608
 30
0.0
 10
7.1188663043
 20
7.0437465471
 30
0.0
 10
7.1217959051
 20
7.0420409634
 30
0.0
 10
7.1247455377
 20
7.0405331699
 30
0.0
 10
7.1277144022
 20
7.039223632
 30
0.0
 10
7.1307017043
 20
7.0381128348
 30
0.0
 10
7.1337066027
 20
7.0372012572
 30
0.0
 10
7.1367282408
 20
7.0364891945
 30
0.0
 10
7.1397655324
 20
7.0359769302
 30
0.0
 10
7.1418019778
 20
7.0357686273
 30
0.0
 10
7.1428201753
 20
7.035698021
 30
0.0
  0
SPLINE
  5
31C
100
AcDbEntity
  8
0
100
AcDbSpline
 62
7
  6
CONTINUOUS
 70
0
 71
3
 72
23
 73
19
 74
0
 42
0.0000001
 43
0.0000001
 44
0.0000000001
 40
0.0
 40
0.0
 40
0.0
 40
0.0
 40
0.0616482008
 40
0.1233194316
 40
0.1850364675
 40
0.2468215573
 40
0.3086962009
 40
0.3706809199
 40
0.43279501
 40
0.4950563329
 40
0.5574811898
 40
0.6200840976
 40
0.6828775607
 40
0.7458724522
 40
0.8090769387
 40
0.8724963729
 40
0.9361396553
 40
1.0
 40
1.0
 40
1.0
 40
1.0
 10
9.4715764267
 20
8.430919929
 30
0.0
 10
9.47438193
 20
8.4336298205
 30
0.0
 10
9.4801410127
 20
8.4389007399
 30
0.0
 10
9.4891937707
 20
8.446332993
 30
0.0
 10
9.498639652
 20
8.4532739615
 30
0.0
 10
9.5084545202
 20
8.45970586
 30
0.0
 10
9.5186136977
 20
8.4656126224
 30
0.0
 10
9.5290915726
 20
8.4709793458
 30
0.0
 10
9.5398617672
 20
8.4757924881
 30
0.0
 10
9.5508971143
 20
8.480040004
 30
0.0
 10
9.5621698145
 20
8.4837112282
 30
0.0
 10
9.5736514858
 20
8.4867968805
 30
0.0
 10
9.5853132053
 20
8.4892892682
 30
0.0
 10
9.5971256084
 20
8.4911821533
 30
0.0
 10
9.60905887
 20
8.4924707679
 30
0.0
 10
9.6210832804
 20
8.4931519687
 30
0.0
 10
9.6331678885
 20
8.4932239248
 30
0.0
 10
9.6412312678
 20
8.4928663723
 30
0.0
 10
9.6452621105
 20
8.4925868324
 30
0.0
  0
SPLINE
  5
31D
100
AcDbEntity
  8
0
100
AcDbSpline
 62
7
  6
CONTINUOUS
 70
0
 71
3
 72
23
 73
19
 74
0
 42
0.0000001
 43
0.0000001
 44
0.0000000001
 40
0.0
 40
0.0
 40
0.0
 40
0.0
 40
0.0602484896
 40
0.1213577107
 40
0.1831611051
 40
0.2455149725
 40
0.3082937957
 40
0.3713854133
 40
0.4346878645
 40
0.4981071604
 40
0.5615551465
 40
0.6249484707
 40
0.6882079432
 40
0.7512582748
 40
0.8140280616
 40
0.876448254
 40
0.9384604757
 40
1.0
 40
1.0
 40
1.0
 40
1.0
 10
9.4962624402
 20
8.4513118762
 30
0.0
 10
9.4941208188
 20
8.4487122317
 30
0.0
 10
9.4898830868
 20
8.443412498
 30
0.0
 10
9.483738652
 20
8.4352192048
 30
0.0
 10
9.4778005429
 20
8.4267307103
 30
0.0
 10
9.472111748
 20
8.4179614171
 30
0.0
 10
9.4667122369
 20
8.4089268002
 30
0.0
 10
9.4616394335
 20
8.3996440171
 30
0.0
 10
9.456928606
 20
8.3901321447
 30
0.0
 10
9.4526129607
 20
8.380412496
 30
0.0
 10
9.4487234351
 20
8.3705088893
 30
0.0
 10
9.4452885544
 20
8.3604477404
 30
0.0
 10
9.4423342128
 20
8.3502580407
 30
0.0
 10
9.4398833326
 20
8.3399712517
 30
0.0
 10
9.4379554413
 20
8.3296212697
 30
0.0
 10
9.4365660068
 20
8.3192436077
 30
0.0
 10
9.4357267582
 20
8.3088761704
 30
0.0
 10
9.4355378397
 20
8.3019676236
 30
0.0
 10
9.4355378397
 20
8.2985272599
 30
0.0
  0
SPLINE
  5
31E
100
AcDbEntity
  8
0
100
AcDbSpline
 62
7
  6
CONTINUOUS
 70
0
 71
3
 72
34
 73
30
 74
0
 42
0.0000001
 43
0.0000001
 44
0.0000000001
 40
0.0
 40
0.0
 40
0.0
 40
0.0
 40
0.0629011043
 40
0.1255892373
 40
0.18807811
 40
0.2192576952
 40
0.2503946476
 40
0.3125440394
 40
0.3745647339
 40
0.4055440302
 40
0.4365059201
 40
0.4674565386
 40
0.498402493
 40
0.5293508771
 40
0.5603098047
 40
0.5912873811
 40
0.6222929121
 40
0.6533357313
 40
0.684425662
 40
0.7155730669
 40
0.7467879348
 40
0.7780803894
 40
0.8094602737
 40
0.8409364347
 40
0.8725171423
 40
0.9042093333
 40
0.9360177445
 40
0.96794879
 40
1.0
 40
1.0
 40
1.0
 40
1.0
 10
10.7464015927
 20
8.268479796
 30
0.0
 10
10.7481222628
 20
8.2751566857
 30
0.0
 10
10.751952239
 20
8.2883901687
 30
0.0
 10
10.7588870376
 20
8.3078185356
 30
0.0
 10
10.7656670874
 20
8.3235743317
 30
0.0
 10
10.7716943363
 20
8.3358584192
 30
0.0
 10
10.7781174804
 20
8.3478980787
 30
0.0
 10
10.7869099914
 20
8.3624937036
 30
0.0
 10
10.7967371897
 20
8.3763953063
 30
0.0
 10
10.8052118927
 20
8.387020904
 30
0.0
 10
10.8118737932
 20
8.3947255183
 30
0.0
 10
10.8188420432
 20
8.4021492446
 30
0.0
 10
10.8261148519
 20
8.4092730386
 30
0.0
 10
10.8336892244
 20
8.41607694
 30
0.0
 10
10.8415610871
 20
8.4225401005
 30
0.0
 10
10.8497248975
 20
8.4286411224
 30
0.0
 10
10.8581735962
 20
8.43435789
 30
0.0
 10
10.866898316
 20
8.4396679547
 30
0.0
 10
10.8758881628
 20
8.4445487663
 30
0.0
 10
10.8851301732
 20
8.4489776799
 30
0.0
 10
10.8946089562
 20
8.4529327007
 30
0.0
 10
10.9043067167
 20
8.4563925976
 30
0.0
 10
10.9142032163
 20
8.4593372248
 30
0.0
 10
10.9242756654
 20
8.4617483834
 30
0.0
 10
10.9344989399
 20
8.4636099575
 30
0.0
 10
10.9448456577
 20
8.464908318
 30
0.0
 10
10.9552869324
 20
8.4656331349
 30
0.0
 10
10.9657913855
 20
8.4657772008
 30
0.0
 10
10.9728030547
 20
8.4654844695
 30
0.0
 10
10.9763079982
 20
8.4652414008
 30
0.0
  0
SPLINE
  5
31F
100
AcDbEntity
  8
0
100
AcDbSpline
 62
7
  6
CONTINUOUS
 70
0
 71
3
 72
23
 73
19
 74
0
 42
0.0000001
 43
0.0000001
 44
0.0000000001
 40
0.0
 40
0.0
 40
0.0
 40
0.0
 40
0.0616482008
 40
0.1233194316
 40
0.1850364675
 40
0.2468215573
 40
0.3086962009
 40
0.3706809199
 40
0.43279501
 40
0.4950563329
 40
0.5574811898
 40
0.6200840976
 40
0.6828775607
 40
0.7458724522
 40
0.8090769387
 40
0.8724963729
 40
0.9361396553
 40
1.0
 40
1.0
 40
1.0
 40
1.0
 10
10.1399972837
 20
9.1746921758
 30
0.0
 10
10.1428027869
 20
9.1774020674
 30
0.0
 10
10.1485618696
 20
9.1826729867
 30
0.0
 10
10.1576146276
 20
9.1901052398
 30
0.0
 10
10.1670605089
 20
9.1970462083
 30
0.0
 10
10.1768753771
 20
9.2034781068
 30
0.0
 10
10.1870345547
 20
9.2093848692
 30
0.0
 10
10.1975124295
 20
9.2147515926
 30
0.0
 10
10.2082826241
 20
9.2195647349
 30
0.0
 10
10.2193179712
 20
9.2238122508
 30
0.0
 10
10.2305906714
 20
9.227483475
 30
0.0
 10
10.2420723428
 20
9.2305691274
 30
0.0
 10
10.2537340623
 20
9.233061515
 30
0.0
 10
10.2655464653
 20
9.2349544001
 30
0.0
 10
10.2774797269
 20
9.2362430148
 30
0.0
 10
10.2895041373
 20
9.2369242156
 30
0.0
 10
10.3015887454
 20
9.2369961716
 30
0.0
 10
10.3096521247
 20
9.2366386191
 30
0.0
 10
10.3136829674
 20
9.2363590792
 30
0.0
  0
SPLINE
  5
320
100
AcDbEntity
  8
0
100
AcDbSpline
 62
7
  6
CONTINUOUS
 70
0
 71
3
 72
23
 73
19
 74
0
 42
0.0000001
 43
0.0000001
 44
0.0000000001
 40
0.0
 40
0.0
 40
0.0
 40
0.0
 40
0.0616482177
 40
0.1233194574
 40
0.1850364846
 40
0.2468215737
 40
0.3086962208
 40
0.3706809273
 40
0.4327950046
 40
0.4950563287
 40
0.5574811866
 40
0.6200840624
 40
0.6828775263
 40
0.7458725145
 40
0.8090768102
 40
0.8724962308
 40
0.936140182
 40
1.0
 40
1.0
 40
1.0
 40
1.0
 10
8.5313542987
 20
7.2928632841
 30
0.0
 10
8.5337446087
 20
7.295172162
 30
0.0
 10
8.5386513208
 20
7.299663162
 30
0.0
 10
8.5463643538
 20
7.3059955782
 30
0.0
 10
8.5544122913
 20
7.3119094669
 30
0.0
 10
8.5627746075
 20
7.3173896426
 30
0.0
 10
8.5714303275
 20
7.3224223274
 30
0.0
 10
8.5803575731
 20
7.326994909
 30
0.0
 10
8.589533866
 20
7.3310958751
 30
0.0
 10
8.5989361065
 20
7.334714852
 30
0.0
 10
8.608540574
 20
7.3378428216
 30
0.0
 10
8.6183230791
 20
7.3404719201
 30
0.0
 10
8.6282590098
 20
7.3425954963
 30
0.0
 10
8.6383233186
 20
7.3442082725
 30
0.0
 10
8.6484905964
 20
7.3453062443
 30
0.0
 10
8.6587355713
 20
7.3458866502
 30
0.0
 10
8.6690318169
 20
7.3459479507
 30
0.0
 10
8.6759019263
 20
7.3456433262
 30
0.0
 10
8.6793362269
 20
7.3454051567
 30
0.0
  0
SPLINE
  5
321
100
AcDbEntity
  8
0
100
AcDbSpline
 62
7
  6
CONTINUOUS
 70
0
 71
3
 72
23
 73
19
 74
0
 42
0.0000001
 43
0.0000001
 44
0.0000000001
 40
0.0
 40
0.0
 40
0.0
 40
0.0
 40
0.0616482177
 40
0.1233194574
 40
0.1850364846
 40
0.2468215737
 40
0.3086962208
 40
0.3706809273
 40
0.4327950046
 40
0.4950563287
 40
0.5574811866
 40
0.6200840624
 40
0.6828775263
 40
0.7458725145
 40
0.8090768102
 40
0.8724962308
 40
0.936140182
 40
1.0
 40
1.0
 40
1.0
 40
1.0
 10
8.5313542987
 20
9.6497224951
 30
0.0
 10
8.5337446087
 20
9.6520313731
 30
0.0
 10
8.5386513208
 20
9.6565223731
 30
0.0
 10
8.5463643538
 20
9.6628547893
 30
0.0
 10
8.5544122913
 20
9.668768678
 30
0.0
 10
8.5627746075
 20
9.6742488537
 30
0.0
 10
8.5714303275
 20
9.6792815384
 30
0.0
 10
8.5803575731
 20
9.6838541201
 30
0.0
 10
8.589533866
 20
9.6879550861
 30
0.0
 10
8.5989361065
 20
9.6915740631
 30
0.0
 10
8.608540574
 20
9.6947020327
 30
0.0
 10
8.6183230791
 20
9.6973311311
 30
0.0
 10
8.6282590098
 20
9.6994547073
 30
0.0
 10
8.6383233186
 20
9.7010674836
 30
0.0
 10
8.6484905964
 20
9.7021654554
 30
0.0
 10
8.6587355713
 20
9.7027458612
 30
0.0
 10
8.6690318169
 20
9.7028071617
 30
0.0
 10
8.6759019263
 20
9.7025025373
 30
0.0
 10
8.6793362269
 20
9.7022643678
 30
0.0
  0
SPLINE
  5
322
100
AcDbEntity
  8
0
100
AcDbSpline
 62
7
  6
CONTINUOUS
 70
0
 71
3
 72
23
 73
19
 74
0
 42
0.0000001
 43
0.0000001
 44
0.0000000001
 40
0.0
 40
0.0
 40
0.0
 40
0.0
 40
0.0616482177
 40
0.1233194574
 40
0.1850364846
 40
0.2468215737
 40
0.3086962208
 40
0.3706809273
 40
0.4327950046
 40
0.4950563287
 40
0.5574811866
 40
0.6200840624
 40
0.6828775263
 40
0.7458725145
 40
0.8090768102
 40
0.8724962308
 40
0.936140182
 40
1.0
 40
1.0
 40
1.0
 40
1.0
 10
11.6107260955
 20
9.4941228622
 30
0.0
 10
11.6131164055
 20
9.4964317402
 30
0.0
 10
11.6180231176
 20
9.5009227402
 30
0.0
 10
11.6257361506
 20
9.5072551564
 30
0.0
 10
11.6337840881
 20
9.513169045
 30
0.0
 10
11.6421464043
 20
9.5186492208
 30
0.0
 10
11.6508021243
 20
9.5236819055
 30
0.0
 10
11.65972937
 20
9.5282544872
 30
0.0
 10
11.6689056628
 20
9.5323554532
 30
0.0
 10
11.6783079033
 20
9.5359744302
 30
0.0
 10
11.6879123708
 20
9.5391023998
 30
0.0
 10
11.6976948759
 20
9.5417314982
 30
0.0
 10
11.7076308066
 20
9.5438550744
 30
0.0
 10
11.7176951154
 20
9.5454678507
 30
0.0
 10
11.7278623932
 20
9.5465658225
 30
0.0
 10
11.7381073681
 20
9.5471462283
 30
0.0
 10
11.7484036137
 20
9.5472075288
 30
0.0
 10
11.7552737232
 20
9.5469029044
 30
0.0
 10
11.7587080238
 20
9.5466647348
 30
0.0
  0
SPLINE
  5
323
100
AcDbEntity
  8
0
100
AcDbSpline
 62
7
  6
CONTINUOUS
 70
0
 71
3
 72
23
 73
19
 74
0
 42
0.0000001
 43
0.0000001
 44
0.0000000001
 40
0.0
 40
0.0
 40
0.0
 40
0.0
 40
0.0616482177
 40
0.1233194574
 40
0.1850364846
 40
0.2468215737
 40
0.3086962208
 40
0.3706809273
 40
0.4327950046
 40
0.4950563287
 40
0.5574811866
 40
0.6200840624
 40
0.6828775263
 40
0.7458725145
 40
0.8090768102
 40
0.8724962308
 40
0.936140182
 40
1.0
 40
1.0
 40
1.0
 40
1.0
 10
11.6107260955
 20
7.0213526269
 30
0.0
 10
11.6131164055
 20
7.0236615048
 30
0.0
 10
11.6180231176
 20
7.0281525048
 30
0.0
 10
11.6257361506
 20
7.0344849211
 30
0.0
 10
11.6337840881
 20
7.0403988097
 30
0.0
 10
11.6421464043
 20
7.0458789855
 30
0.0
 10
11.6508021243
 20
7.0509116702
 30
0.0
 10
11.65972937
 20
7.0554842518
 30
0.0
 10
11.6689056628
 20
7.0595852179
 30
0.0
 10
11.6783079033
 20
7.0632041948
 30
0.0
 10
11.6879123708
 20
7.0663321644
 30
0.0
 10
11.6976948759
 20
7.0689612629
 30
0.0
 10
11.7076308066
 20
7.0710848391
 30
0.0
 10
11.7176951154
 20
7.0726976153
 30
0.0
 10
11.7278623932
 20
7.0737955872
 30
0.0
 10
11.7381073681
 20
7.074375993
 30
0.0
 10
11.7484036137
 20
7.0744372935
 30
0.0
 10
11.7552737232
 20
7.0741326691
 30
0.0
 10
11.7587080238
 20
7.0738944995
 30
0.0
  0
SPLINE
  5
324
100
AcDbEntity
  8
0
100
AcDbSpline
 62
7
  6
CONTINUOUS
 70
0
 71
3
 72
23
 73
19
 74
0
 42
0.0000001
 43
0.0000001
 44
0.0000000001
 40
0.0
 40
0.0
 40
0.0
 40
0.0
 40
0.0616482156
 40
0.1233194448
 40
0.1850364824
 40
0.2468215709
 40
0.3086962096
 40
0.3706809325
 40
0.432795002
 40
0.4950563289
 40
0.5574812109
 40
0.6200840208
 40
0.6828775523
 40
0.7458726718
 40
0.8090764916
 40
0.8724961142
 40
0.9361412363
 40
1.0
 40
1.0
 40
1.0
 40
1.0
 10
11.0804309636
 20
7.0198781672
 30
0.0
 10
11.0821816086
 20
7.0215691654
 30
0.0
 10
11.0857752807
 20
7.0248582896
 30
0.0
 10
11.0914242318
 20
7.0294960992
 30
0.0
 10
11.0973184772
 20
7.0338273708
 30
0.0
 10
11.1034430021
 20
7.0378409419
 30
0.0
 10
11.1097823585
 20
7.0415268618
 30
0.0
 10
11.1163206102
 20
7.0448757513
 30
0.0
 10
11.1230412648
 20
7.0478792165
 30
0.0
 10
11.1299273681
 20
7.0505297615
 30
0.0
 10
11.1369616098
 20
7.0528206099
 30
0.0
 10
11.1441262326
 20
7.0547461247
 30
0.0
 10
11.1514032206
 20
7.0563014385
 30
0.0
 10
11.1587742281
 20
7.057482569
 30
0.0
 10
11.1662206426
 20
7.0582867384
 30
0.0
 10
11.1737240076
 20
7.0587118207
 30
0.0
 10
11.1812648985
 20
7.0587566832
 30
0.0
 10
11.1862965106
 20
7.0585335974
 30
0.0
 10
11.1888117202
 20
7.058359167
 30
0.0
  0
SPLINE
  5
325
100
AcDbEntity
  8
0
100
AcDbSpline
 62
7
  6
CONTINUOUS
 70
0
 71
3
 72
96
 73
92
 74
0
 42
0.0000001
 43
0.0000001
 44
0.0000000001
 40
0.0
 40
0.0
 40
0.0
 40
0.0
 40
0.0027164098
 40
0.005453196
 40
0.0082302447
 40
0.011066522
 40
0.0139797077
 40
0.0169860006
 40
0.0200999433
 40
0.0233344386
 40
0.0267007761
 40
0.030208701
 40
0.0338665986
 40
0.0376815378
 40
0.0416594868
 40
0.0458053919
 40
0.0501232867
 40
0.0546164575
 40
0.0592874351
 40
0.0641381797
 40
0.0691700761
 40
0.0743840124
 40
0.0797804753
 40
0.085359501
 40
0.0911208246
 40
0.0970638216
 40
0.1031875788
 40
0.1094909395
 40
0.1159724488
 40
0.1226304778
 40
0.1294631407
 40
0.1364683707
 40
0.1436439297
 40
0.1509873654
 40
0.1661671594
 40
0.1819854932
 40
0.1984176087
 40
0.2154367517
 40
0.2330143585
 40
0.251120216
 40
0.2697226026
 40
0.2887884308
 40
0.3082833745
 40
0.3281719854
 40
0.3484178035
 40
0.3689834605
 40
0.3898307889
 40
0.4109209281
 40
0.4322144251
 40
0.4536713332
 40
0.4752513091
 40
0.4969137129
 40
0.5186177088
 40
0.5403223621
 40
0.5619867363
 40
0.5835699892
 40
0.6050314742
 40
0.6263308386
 40
0.6474281213
 40
0.6682838504
 40
0.6888591421
 40
0.7091158066
 40
0.7290164528
 40
0.7485245891
 40
0.7676047308
 40
0.7862225103
 40
0.8043447981
 40
0.8219398341
 40
0.8389773554
 40
0.8554287397
 40
0.8712671681
 40
0.8864678116
 40
0.9010080585
 40
0.9080242996
 40
0.9148680958
 40
0.9215373949
 40
0.9280302874
 40
0.9343451215
 40
0.9404804543
 40
0.9464350763
 40
0.9522080867
 40
0.9577988219
 40
0.9632069984
 40
0.968432657
 40
0.9734762172
 40
0.9783385478
 40
0.9830209658
 40
0.9875254698
 40
0.9918546527
 40
0.9960116074
 40
1.0
 40
1.0
 40
1.0
 40
1.0
 10
13.2818017068
 20
7.2941664852
 30
0.0
 10
13.2804859119
 20
7.2942577406
 30
0.0
 10
13.2778511933
 20
7.2945600622
 30
0.0
 10
13.273932657
 20
7.2953689735
 30
0.0
 10
13.2700437314
 20
7.2965332215
 30
0.0
 10
13.2661872074
 20
7.2980517158
 30
0.0
 10
13.2623650368
 20
7.2999230178
 30
0.0
 10
13.2585792332
 20
7.3021457691
 30
0.0
 10
13.2548314929
 20
7.3047183005
 30
0.0
 10
13.2511235017
 20
7.3076390205
 30
0.0
 10
13.2474568834
 20
7.3109062376
 30
0.0
 10
13.243833157
 20
7.3145181115
 30
0.0
 10
13.24025399
 20
7.3184728324
 30
0.0
 10
13.2367208894
 20
7.3227683275
 30
0.0
 10
13.2332355044
 20
7.327402495
 30
0.0
 10
13.2297994429
 20
7.3323730387
 30
0.0
 10
13.2264142723
 20
7.3376774894
 30
0.0
 10
13.2230816842
 20
7.3433132754
 30
0.0
 10
13.2198032033
 20
7.3492775807
 30
0.0
 10
13.2165804862
 20
7.3555674882
 30
0.0
 10
13.2134150964
 20
7.3621798762
 30
0.0
 10
13.2103085715
 20
7.3691114604
 30
0.0
 10
13.2072625147
 20
7.3763588152
 30
0.0
 10
13.2042783701
 20
7.3839183131
 30
0.0
 10
13.201357691
 20
7.391786202
 30
0.0
 10
13.1985019096
 20
7.3999585459
 30
0.0
 10
13.1957124504
 20
7.4084312606
 30
0.0
 10
13.1929907588
 20
7.4172001148
 30
0.0
 10
13.1903381416
 20
7.4262607087
 30
0.0
 10
13.1877559945
 20
7.4356085113
 30
0.0
 10
13.1852455784
 20
7.4452388312
 30
0.0
 10
13.1828081686
 20
7.4551468371
 30
0.0
 10
13.180445004
 20
7.4653275695
 30
0.0
 10
13.1773606124
 20
7.4794144427
 30
0.0
 10
13.17370875
 20
7.4976713885
 30
0.0
 10
13.1696876327
 20
7.520349083
 30
0.0
 10
13.1659889333
 20
7.5439858848
 30
0.0
 10
13.1626201585
 20
7.5685342955
 30
0.0
 10
13.1595881744
 20
7.5939450979
 30
0.0
 10
13.1568991562
 20
7.6201672703
 30
0.0
 10
13.1545585735
 20
7.6471481458
 30
0.0
 10
13.1525711899
 20
7.6748335111
 30
0.0
 10
13.1509410537
 20
7.7031677274
 30
0.0
 10
13.1496714897
 20
7.7320938431
 30
0.0
 10
13.1487650954
 20
7.7615537071
 30
0.0
 10
13.1482237258
 20
7.7914880854
 30
0.0
 10
13.1480484942
 20
7.8218367829
 30
0.0
 10
13.1482397761
 20
7.8525387684
 30
0.0
 10
13.1487972073
 20
7.8835322991
 30
0.0
 10
13.1497196857
 20
7.9147550427
 30
0.0
 10
13.1510053704
 20
7.9461442027
 30
0.0
 10
13.1526516791
 20
7.9776366461
 30
0.0
 10
13.154655304
 20
8.0091690322
 30
0.0
 10
13.157012217
 20
8.0406779406
 30
0.0
 10
13.1597176779
 20
8.0720999971
 30
0.0
 10
13.1627662451
 20
8.1033720023
 30
0.0
 10
13.1661517754
 20
8.1344310606
 30
0.0
 10
13.1698674451
 20
8.165214708
 30
0.0
 10
13.1739057658
 20
8.1956610367
 30
0.0
 10
13.1782585976
 20
8.2257088181
 30
0.0
 10
13.1829171676
 20
8.2552976277
 30
0.0
 10
13.18787208
 20
8.2843679708
 30
0.0
 10
13.1931133343
 20
8.3128614041
 30
0.0
 10
13.1986303532
 20
8.3407206524
 30
0.0
 10
13.2044120011
 20
8.3678897218
 30
0.0
 10
13.2104466072
 20
8.3943140142
 30
0.0
 10
13.2167219884
 20
8.4199404446
 30
0.0
 10
13.2232254632
 20
8.4447175542
 30
0.0
 10
13.22994389
 20
8.4685956189
 30
0.0
 10
13.2368636913
 20
8.4915267328
 30
0.0
 10
13.2439708842
 20
8.5134649714
 30
0.0
 10
13.2512511072
 20
8.5343662807
 30
0.0
 10
13.2575221254
 20
8.5510779529
 30
0.0
 10
13.2626221292
 20
8.5638903761
 30
0.0
 10
13.2664357533
 20
8.5731004181
 30
0.0
 10
13.2702815128
 20
8.5820210349
 30
0.0
 10
13.2741575496
 20
8.5906477497
 30
0.0
 10
13.278061876
 20
8.5989762477
 30
0.0
 10
13.2819925326
 20
8.6070023621
 30
0.0
 10
13.2859475814
 20
8.6147220647
 30
0.0
 10
13.2899249782
 20
8.6221315188
 30
0.0
 10
13.2939227978
 20
8.629227003
 30
0.0
 10
13.297938998
 20
8.6360050027
 30
0.0
 10
13.301971597
 20
8.6424621403
 30
0.0
 10
13.3060186097
 20
8.648595185
 30
0.0
 10
13.3100779555
 20
8.6544011143
 30
0.0
 10
13.3141477211
 20
8.6598770329
 30
0.0
 10
13.3182259051
 20
8.665020307
 30
0.0
 10
13.3223106249
 20
8.6698284128
 30
0.0
 10
13.326399673
 20
8.67429874
 30
0.0
 10
13.3291839183
 20
8.6771095419
 30
0.0
 10
13.3305768038
 20
8.678454966
 30
0.0
  0
SPLINE
  5
326
100
AcDbEntity
  8
0
100
AcDbSpline
 62
7
  6
CONTINUOUS
 70
0
 71
3
 72
22
 73
18
 74
0
 42
0.0000001
 43
0.0000001
 44
0.0000000001
 40
0.0
 40
0.0
 40
0.0
 40
0.0
 40
0.0544247541
 40
0.1090663284
 40
0.164138675
 40
0.2198503819
 40
0.2764024548
 40
0.3339859508
 40
0.3927808219
 40
0.4529552254
 40
0.514664436
 40
0.5780505852
 40
0.6432434982
 40
0.7103608664
 40
0.7795079629
 40
0.8507792288
 40
1.0
 40
1.0
 40
1.0
 40
1.0
 10
13.4385282791
 20
10.0093532441
 30
0.0
 10
13.4395464767
 20
10.0092826377
 30
0.0
 10
13.4415829221
 20
10.0090743349
 30
0.0
 10
13.4446202137
 20
10.0085620705
 30
0.0
 10
13.4476418517
 20
10.0078500079
 30
0.0
 10
13.4506467502
 20
10.0069384302
 30
0.0
 10
13.4536340523
 20
10.005827633
 30
0.0
 10
13.4566029167
 20
10.0045180951
 30
0.0
 10
13.4595525494
 20
10.0030103017
 30
0.0
 10
13.4624821501
 20
10.0013047179
 30
0.0
 10
13.4653909681
 20
9.9994019042
 30
0.0
 10
13.4682782974
 20
9.9973024925
 30
0.0
 10
13.4711434175
 20
9.9950070803
 30
0.0
 10
13.4739855756
 20
9.9925163068
 30
0.0
 10
13.4768041759
 20
9.989830859
 30
0.0
 10
13.4805876273
 20
9.9859321824
 30
0.0
 10
13.483299376
 20
9.9828047004
 30
0.0
 10
13.485065064
 20
9.9806336934
 30
0.0
  0
SPLINE
  5
327
100
AcDbEntity
  8
0
100
AcDbSpline
 62
7
  6
CONTINUOUS
 70
0
 71
3
 72
22
 73
18
 74
0
 42
0.0000001
 43
0.0000001
 44
0.0000000001
 40
0.0
 40
0.0
 40
0.0
 40
0.0
 40
0.1492211409
 40
0.2204956624
 40
0.2896434584
 40
0.3567599937
 40
0.4219519367
 40
0.4853372437
 40
0.5470459503
 40
0.6072203975
 40
0.6660153819
 40
0.7235986022
 40
0.7801503907
 40
0.8358619542
 40
0.8909340655
 40
0.945575415
 40
1.0
 40
1.0
 40
1.0
 40
1.0
 10
13.1777527586
 20
6.6445980836
 30
0.0
 10
13.1757042785
 20
6.6426915967
 30
0.0
 10
13.1725867054
 20
6.6399683627
 30
0.0
 10
13.1683012947
 20
6.6366291539
 30
0.0
 10
13.165138927
 20
6.6343584647
 30
0.0
 10
13.1619801576
 20
6.6322838979
 30
0.0
 10
13.1588256664
 20
6.6304059609
 30
0.0
 10
13.1556762123
 20
6.628725237
 30
0.0
 10
13.1525325867
 20
6.6272422112
 30
0.0
 10
13.1493956103
 20
6.6259573369
 30
0.0
 10
13.1462660974
 20
6.6248711
 30
0.0
 10
13.143144887
 20
6.623983946
 30
0.0
 10
13.1400328603
 20
6.6232961674
 30
0.0
 10
13.136930916
 20
6.62280806
 30
0.0
 10
13.1338399217
 20
6.6225199255
 30
0.0
 10
13.130761006
 20
6.6224318617
 30
0.0
 10
13.1287153098
 20
6.6225066411
 30
0.0
 10
13.1276971155
 20
6.6225772472
 30
0.0
  0
SPLINE
  5
328
100
AcDbEntity
  8
0
100
AcDbSpline
 62
7
  6
CONTINUOUS
 70
0
 71
3
 72
36
 73
32
 74
0
 42
0.0000001
 43
0.0000001
 44
0.0000000001
 40
0.0
 40
0.0
 40
0.0
 40
0.0
 40
0.0162142856
 40
0.0334272372
 40
0.0516715081
 40
0.0709705327
 40
0.0913399311
 40
0.1127889547
 40
0.1353211135
 40
0.1589353933
 40
0.1836264466
 40
0.2093855085
 40
0.2362005154
 40
0.2640566163
 40
0.2929364437
 40
0.3228202192
 40
0.3536862189
 40
0.3855105919
 40
0.4182679067
 40
0.4519309009
 40
0.4864709172
 40
0.5218577903
 40
0.5580600379
 40
0.5950449752
 40
0.6327786677
 40
0.6712262206
 40
0.7103515405
 40
0.7501177712
 40
0.8314200588
 40
0.9148214324
 40
1.0
 40
1.0
 40
1.0
 40
1.0
 10
13.5368155806
 20
9.917003745
 30
0.0
 10
13.5385277558
 20
9.9148985483
 30
0.0
 10
13.5419134487
 20
9.9104399111
 30
0.0
 10
13.5467418453
 20
9.9032612146
 30
0.0
 10
13.5514641006
 20
9.8954036369
 30
0.0
 10
13.5560753357
 20
9.8868754894
 30
0.0
 10
13.560571153
 20
9.8776853211
 30
0.0
 10
13.5649468931
 20
9.8678425169
 30
0.0
 10
13.5691981802
 20
9.8573572054
 30
0.0
 10
13.573320497
 20
9.8462401901
 30
0.0
 10
13.5773096297
 20
9.8345030194
 30
0.0
 10
13.5811613207
 20
9.8221578955
 30
0.0
 10
13.5848715478
 20
9.8092177065
 30
0.0
 10
13.5884363883
 20
9.7956959823
 30
0.0
 10
13.5918520425
 20
9.7816068844
 30
0.0
 10
13.595114947
 20
9.7669651912
 30
0.0
 10
13.5982215718
 20
9.7517862711
 30
0.0
 10
13.6011687026
 20
9.736086073
 30
0.0
 10
13.6039531382
 20
9.7198811028
 30
0.0
 10
13.6065719879
 20
9.7031884039
 30
0.0
 10
13.6090224323
 20
9.6860255424
 30
0.0
 10
13.6113018891
 20
9.6684105824
 30
0.0
 10
13.613407949
 20
9.6503620696
 30
0.0
 10
13.6153383464
 20
9.6318990113
 30
0.0
 10
13.6170910844
 20
9.613040847
 30
0.0
 10
13.6186642371
 20
9.5938074549
 30
0.0
 10
13.6200562182
 20
9.5742190743
 30
0.0
 10
13.6216804559
 20
9.5474585301
 30
0.0
 10
13.6232379413
 20
9.513272325
 30
0.0
 10
13.6243520867
 20
9.4714656941
 30
0.0
 10
13.6245949907
 20
9.4432521239
 30
0.0
 10
13.6245949907
 20
9.4289969797
 30
0.0
  0
SPLINE
  5
329
100
AcDbEntity
  8
0
100
AcDbSpline
 62
7
  6
CONTINUOUS
 70
0
 71
3
 72
39
 73
35
 74
0
 42
0.0000001
 43
0.0000001
 44
0.0000000001
 40
0.0
 40
0.0
 40
0.0
 40
0.0
 40
0.0311448514
 40
0.062443175
 40
0.0938883155
 40
0.1254709835
 40
0.1571788681
 40
0.1889972425
 40
0.2209091526
 40
0.2528958171
 40
0.2849369926
 40
0.3170113795
 40
0.3490970362
 40
0.381171804
 40
0.413213734
 40
0.4452015117
 40
0.477114873
 40
0.5089350054
 40
0.5406449289
 40
0.5722298501
 40
0.6036774824
 40
0.6349783264
 40
0.6661259021
 40
0.6971169277
 40
0.7279514359
 40
0.758632824
 40
0.7891678305
 40
0.8195664351
 40
0.8498416808
 40
0.8800094165
 40
0.9100879651
 40
0.9400977229
 40
0.9700606977
 40
1.0
 40
1.0
 40
1.0
 40
1.0
 10
11.7587080238
 20
9.1351803085
 30
0.0
 10
11.7536840321
 20
9.1355287235
 30
0.0
 10
11.7436330578
 20
9.1365950163
 30
0.0
 10
11.7286784614
 20
9.1392809858
 30
0.0
 10
11.7138840204
 20
9.1430432832
 30
0.0
 10
11.699329687
 20
9.1478615934
 30
0.0
 10
11.6850927446
 20
9.1537101435
 30
0.0
 10
11.671249147
 20
9.1605576247
 30
0.0
 10
11.657872639
 20
9.168367454
 30
0.0
 10
11.6450344983
 20
9.1770979287
 30
0.0
 10
11.6328031261
 20
9.1867024648
 30
0.0
 10
11.6212436958
 20
9.1971298372
 30
0.0
 10
11.6104178077
 20
9.2083244528
 30
0.0
 10
11.6003831639
 20
9.2202266437
 30
0.0
 10
11.5911932644
 20
9.2327729821
 30
0.0
 10
11.5828971243
 20
9.2458966149
 30
0.0
 10
11.5755390142
 20
9.2595276159
 30
0.0
 10
11.569158226
 20
9.273593354
 30
0.0
 10
11.563788864
 20
9.2880188758
 30
0.0
 10
11.5594596629
 20
9.3027272994
 30
0.0
 10
11.5561938332
 20
9.317640219
 30
0.0
 10
11.5540089356
 20
9.3326781171
 30
0.0
 10
11.5529167828
 20
9.3477607827
 30
0.0
 10
11.5529233721
 20
9.3628077342
 30
0.0
 10
11.5540288458
 20
9.3777386439
 30
0.0
 10
11.5562274831
 20
9.392473764
 30
0.0
 10
11.5595077203
 20
9.40693435
 30
0.0
 10
11.5638522048
 20
9.4210430841
 30
0.0
 10
11.5692378702
 20
9.4347244841
 30
0.0
 10
11.5756360763
 20
9.447905339
 30
0.0
 10
11.5830126575
 20
9.4605150124
 30
0.0
 10
11.5913284592
 20
9.4724861878
 30
0.0
 10
11.6005382072
 20
9.4837539128
 30
0.0
 10
11.6072441066
 20
9.4907594961
 30
0.0
 10
11.6107260955
 20
9.4941228622
 30
0.0
  0
SPLINE
  5
32A
100
AcDbEntity
  8
0
100
AcDbSpline
 62
7
  6
CONTINUOUS
 70
0
 71
3
 72
38
 73
34
 74
0
 42
0.0000001
 43
0.0000001
 44
0.0000000001
 40
0.0
 40
0.0
 40
0.0
 40
0.0
 40
0.0308954107
 40
0.0619683822
 40
0.0775716188
 40
0.0932143573
 40
0.1088943065
 40
0.1246089163
 40
0.1403556049
 40
0.1561313722
 40
0.171933445
 40
0.1877587074
 40
0.2194624784
 40
0.2512247583
 40
0.2830237384
 40
0.3148395001
 40
0.3466542819
 40
0.3784525346
 40
0.4102208299
 40
0.4419476996
 40
0.5052213705
 40
0.536772401
 40
0.5682520339
 40
0.6309645059
 40
0.6622060277
 40
0.6933624944
 40
0.7553996256
 40
0.7862916729
 40
0.8170938381
 40
0.8784138389
 40
0.9089461022
 40
0.9393895173
 40
1.0
 40
1.0
 40
1.0
 40
1.0
 10
10.9763080089
 20
7.8523526259
 30
0.0
 10
10.9708082859
 20
7.852734033
 30
0.0
 10
10.959804995
 20
7.8539761263
 30
0.0
 10
10.9462150559
 20
7.8566911671
 30
0.0
 10
10.9354637052
 20
7.8595413385
 30
0.0
 10
10.9274617896
 20
7.862015814
 30
0.0
 10
10.9195470032
 20
7.8648157853
 30
0.0
 10
10.911731614
 20
7.8679325882
 30
0.0
 10
10.9040270799
 20
7.8713562723
 30
0.0
 10
10.8964441515
 20
7.8750768028
 30
0.0
 10
10.8889923356
 20
7.8790831662
 30
0.0
 10
10.8792385418
 20
7.884794206
 30
0.0
 10
10.86741754
 20
7.8925918772
 30
0.0
 10
10.8538874176
 20
7.9029027354
 30
0.0
 10
10.8410406886
 20
7.9140830114
 30
0.0
 10
10.8289062536
 20
7.926044341
 30
0.0
 10
10.8175030632
 20
7.9387034457
 30
0.0
 10
10.806842918
 20
7.9519822531
 30
0.0
 10
10.7969313531
 20
7.9658092928
 30
0.0
 10
10.7847297714
 20
7.9848661549
 30
0.0
 10
10.774006788
 20
8.0047885289
 30
0.0
 10
10.7647624245
 20
8.0253497264
 30
0.0
 10
10.7565142761
 20
8.0462232646
 30
0.0
 10
10.7497033045
 20
8.0675804184
 30
0.0
 10
10.7443219706
 20
8.0892522882
 30
0.0
 10
10.7398995648
 20
8.1110171319
 30
0.0
 10
10.736875536
 20
8.1329828881
 30
0.0
 10
10.7352514039
 20
8.1550068237
 30
0.0
 10
10.7345594756
 20
8.1769516043
 30
0.0
 10
10.7352545586
 20
8.1988581396
 30
0.0
 10
10.7373514812
 20
8.2205852996
 30
0.0
 10
10.7403737194
 20
8.2420742468
 30
0.0
 10
10.7437026273
 20
8.2580067279
 30
0.0
 10
10.7464015927
 20
8.268479796
 30
0.0
  0
SPLINE
  5
32B
100
AcDbEntity
  8
0
100
AcDbSpline
 62
7
  6
CONTINUOUS
 70
0
 71
3
 72
49
 73
45
 74
0
 42
0.0000001
 43
0.0000001
 44
0.0000000001
 40
0.0
 40
0.0
 40
0.0
 40
0.0
 40
0.0378127845
 40
0.0760191223
 40
0.114531607
 40
0.1532645858
 40
0.1921302413
 40
0.2310409706
 40
0.2699088597
 40
0.3086461572
 40
0.3471654842
 40
0.3853800876
 40
0.4232040959
 40
0.4605527702
 40
0.4973427611
 40
0.533492372
 40
0.5689218309
 40
0.6035535573
 40
0.637312442
 40
0.6701261391
 40
0.7019253763
 40
0.7326442909
 40
0.7622208088
 40
0.7905970516
 40
0.80431852
 40
0.8177203446
 40
0.8307967508
 40
0.843542237
 40
0.8559517495
 40
0.8680206515
 40
0.8797447052
 40
0.8911202579
 40
0.9021440651
 40
0.9128135674
 40
0.9231267538
 40
0.9330823402
 40
0.9426798495
 40
0.9519195568
 40
0.960802764
 40
0.9693317342
 40
0.977510198
 40
0.9853432953
 40
0.992837349
 40
1.0
 40
1.0
 40
1.0
 40
1.0
 10
13.0614052134
 20
8.8849973965
 30
0.0
 10
13.0614052134
 20
8.8959360218
 30
0.0
 10
13.0615506063
 20
8.9179273743
 30
0.0
 10
13.0621950058
 20
8.9510540895
 30
0.0
 10
13.063265549
 20
8.9844361466
 30
0.0
 10
13.0647596
 20
9.0179928204
 30
0.0
 10
13.0666736248
 20
9.0516435492
 30
0.0
 10
13.0690029944
 20
9.0853071966
 30
0.0
 10
13.0717421138
 20
9.1189027315
 30
0.0
 10
13.0748843774
 20
9.1523492451
 30
0.0
 10
13.0784222054
 20
9.1855662002
 30
0.0
 10
13.0823470608
 20
9.2184736148
 30
0.0
 10
13.0866494703
 20
9.2509922555
 30
0.0
 10
13.0913190461
 20
9.2830438288
 30
0.0
 10
13.0963445116
 20
9.3145511707
 30
0.0
 10
13.1017137263
 20
9.3454384366
 30
0.0
 10
13.107413709
 20
9.3756312881
 30
0.0
 10
13.1134306769
 20
9.405057074
 30
0.0
 10
13.1197500765
 20
9.4336450044
 30
0.0
 10
13.1263566186
 20
9.4613263288
 30
0.0
 10
13.1332343144
 20
9.4880344899
 30
0.0
 10
13.1403665157
 20
9.5137053531
 30
0.0
 10
13.1477359503
 20
9.5382771656
 30
0.0
 10
13.1541293545
 20
9.5580031831
 30
0.0
 10
13.1593574366
 20
9.5731836079
 30
0.0
 10
13.1632828
 20
9.5841305587
 30
0.0
 10
13.1672538981
 20
9.5947601285
 30
0.0
 10
13.1712684036
 20
9.6050659329
 30
0.0
 10
13.1753238755
 20
9.615041782
 30
0.0
 10
13.1794178504
 20
9.6246816943
 30
0.0
 10
13.1835479169
 20
9.6339798725
 30
0.0
 10
13.1877115127
 20
9.6429307638
 30
0.0
 10
13.1919062156
 20
9.6515289841
 30
0.0
 10
13.1961294378
 20
9.659769408
 30
0.0
 10
13.2003786787
 20
9.6676471034
 30
0.0
 10
13.2046514059
 20
9.6751573687
 30
0.0
 10
13.2089450257
 20
9.6822957549
 30
0.0
 10
13.213257062
 20
9.6890579737
 30
0.0
 10
13.2175848414
 20
9.6954400455
 30
0.0
 10
13.2219259051
 20
9.7014381715
 30
0.0
 10
13.2262777191
 20
9.7070488792
 30
0.0
 10
13.2306378693
 20
9.7122689106
 30
0.0
 10
13.2350035931
 20
9.7170948857
 30
0.0
 10
13.2379822461
 20
9.7201147306
 30
0.0
 10
13.2394725695
 20
9.7215542726
 30
0.0
  0
SPLINE
  5
32C
100
AcDbEntity
  8
0
100
AcDbSpline
 62
7
  6
CONTINUOUS
 70
0
 71
3
 72
50
 73
46
 74
0
 42
0.0000001
 43
0.0000001
 44
0.0000000001
 40
0.0
 40
0.0
 40
0.0
 40
0.0
 40
0.0378128611
 40
0.0760190334
 40
0.1145315696
 40
0.1532645103
 40
0.1921301506
 40
0.2310408617
 40
0.269908731
 40
0.3086460126
 40
0.347165323
 40
0.3853799084
 40
0.4232038959
 40
0.4605525481
 40
0.4973425198
 40
0.5334921181
 40
0.5689215678
 40
0.6035532829
 40
0.637312149
 40
0.6701258217
 40
0.7019250349
 40
0.7326439348
 40
0.7622204463
 40
0.7765622752
 40
0.7905971572
 40
0.8043186022
 40
0.8177204426
 40
0.8307968217
 40
0.84354232
 40
0.8559518158
 40
0.868020713
 40
0.8797447678
 40
0.8911203013
 40
0.9021441194
 40
0.912813603
 40
0.9231267987
 40
0.9330823728
 40
0.9426798717
 40
0.951919577
 40
0.960802784
 40
0.9693317719
 40
0.9775102131
 40
0.9853432686
 40
0.9928373107
 40
1.0
 40
1.0
 40
1.0
 40
1.0
 10
12.985471041
 20
8.873650614
 30
0.0
 10
12.985471041
 20
8.8855750173
 30
0.0
 10
12.985629533
 20
8.909548132
 30
0.0
 10
12.9863320087
 20
8.9456601087
 30
0.0
 10
12.9874990192
 20
8.982050402
 30
0.0
 10
12.9891277134
 20
9.018631095
 30
0.0
 10
12.9912142237
 20
9.0553142969
 30
0.0
 10
12.9937535088
 20
9.0920115875
 30
0.0
 10
12.9967394651
 20
9.1286346276
 30
0.0
 10
13.0001648936
 20
9.1650952177
 30
0.0
 10
13.0040215365
 20
9.2013055627
 30
0.0
 10
13.008300087
 20
9.2371784705
 30
0.0
 10
13.012990217
 20
9.2726275673
 30
0.0
 10
13.018080601
 20
9.3075675058
 30
0.0
 10
13.0235589435
 20
9.3419141713
 30
0.0
 10
13.0294120079
 20
9.3755848865
 30
0.0
 10
13.0356256477
 20
9.4084986119
 30
0.0
 10
13.0421848403
 20
9.4405761432
 30
0.0
 10
13.0490737227
 20
9.4717403112
 30
0.0
 10
13.0562756261
 20
9.5019161582
 30
0.0
 10
13.0637731168
 20
9.5310311799
 30
0.0
 10
13.071548049
 20
9.5590153088
 30
0.0
 10
13.0783100743
 20
9.5815621877
 30
0.0
 10
13.0838522336
 20
9.5989776709
 30
0.0
 10
13.0880237949
 20
9.6115813586
 30
0.0
 10
13.0922503787
 20
9.6238536092
 30
0.0
 10
13.0965294381
 20
9.6357870579
 30
0.0
 10
13.10085843
 20
9.647374522
 30
0.0
 10
13.1052346824
 20
9.6586090516
 30
0.0
 10
13.1096556329
 20
9.6694838844
 30
0.0
 10
13.1141185405
 20
9.6799925087
 30
0.0
 10
13.1186207825
 20
9.6901286069
 30
0.0
 10
13.1231596057
 20
9.699886113
 30
0.0
 10
13.1277322951
 20
9.709259181
 30
0.0
 10
13.1323361219
 20
9.7182421951
 30
0.0
 10
13.1369682717
 20
9.7268298056
 30
0.0
 10
13.1416260502
 20
9.7350168633
 30
0.0
 10
13.1463065917
 20
9.742798532
 30
0.0
 10
13.1510072055
 20
9.7501701418
 30
0.0
 10
13.1557250061
 20
9.7571273408
 30
0.0
 10
13.1604572631
 20
9.7636660033
 30
0.0
 10
13.1652012459
 20
9.7697823135
 30
0.0
 10
13.169954295
 20
9.775472746
 30
0.0
 10
13.1747134413
 20
9.7807336187
 30
0.0
 10
13.1779605295
 20
9.7840256058
 30
0.0
 10
13.1795851647
 20
9.785594883
 30
0.0
  0
SPLINE
  5
32D
100
AcDbEntity
  8
0
100
AcDbSpline
 62
7
  6
CONTINUOUS
 70
0
 71
3
 72
32
 73
28
 74
0
 42
0.0000001
 43
0.0000001
 44
0.0000000001
 40
0.0
 40
0.0
 40
0.0
 40
0.0
 40
0.0797987913
 40
0.1179212065
 40
0.1548486873
 40
0.1905907221
 40
0.225164795
 40
0.2586050404
 40
0.2909595758
 40
0.3526333652
 40
0.3821526934
 40
0.410914477
 40
0.4390364652
 40
0.4666440054
 40
0.4938651407
 40
0.5208354495
 40
0.5476884396
 40
0.574550512
 40
0.6015443328
 40
0.6287828391
 40
0.6563652027
 40
0.6843801677
 40
0.7419854564
 40
0.80209436
 40
0.8650275495
 40
0.9309671609
 40
1.0
 40
1.0
 40
1.0
 40
1.0
 10
9.5362186007
 20
8.1484445222
 30
0.0
 10
9.5375471422
 20
8.1481951209
 30
0.0
 10
9.5395248523
 20
8.1478959027
 30
0.0
 10
9.5421384517
 20
8.1476663549
 30
0.0
 10
9.5440140718
 20
8.1475841046
 30
0.0
 10
9.5458314103
 20
8.1475889423
 30
0.0
 10
9.5475873264
 20
8.1476808691
 30
0.0
 10
9.5492790583
 20
8.1478594281
 30
0.0
 10
9.5514110487
 20
8.1482061207
 30
0.0
 10
9.5534455759
 20
8.1487243246
 30
0.0
 10
9.5553554691
 20
8.1494218437
 30
0.0
 10
9.5566933381
 20
8.1500185015
 30
0.0
 10
9.5579564138
 20
8.1506942625
 30
0.0
 10
9.5591444223
 20
8.1514470575
 30
0.0
 10
9.5602571039
 20
8.1522750234
 30
0.0
 10
9.5612948685
 20
8.1531757323
 30
0.0
 10
9.5622585031
 20
8.1541467408
 30
0.0
 10
9.5631488583
 20
8.1551858003
 30
0.0
 10
9.5639673198
 20
8.1562904219
 30
0.0
 10
9.5647155949
 20
8.1574581467
 30
0.0
 10
9.5653954282
 20
8.1586867303
 30
0.0
 10
9.5662207325
 20
8.1604187297
 30
0.0
 10
9.5670893925
 20
8.1627349039
 30
0.0
 10
9.5678808295
 20
8.1656948821
 30
0.0
 10
9.5684508199
 20
8.1688481175
 30
0.0
 10
9.5688183521
 20
8.1721824683
 30
0.0
 10
9.5689373562
 20
8.1744669536
 30
0.0
 10
9.5689708092
 20
8.1756358539
 30
0.0
  0
SPLINE
  5
32E
100
AcDbEntity
  8
0
100
AcDbSpline
 62
7
  6
CONTINUOUS
 70
0
 71
3
 72
30
 73
26
 74
0
 42
0.0000001
 43
0.0000001
 44
0.0000000001
 40
0.0
 40
0.0
 40
0.0
 40
0.0
 40
0.0755826241
 40
0.1466115403
 40
0.2134243746
 40
0.2764613841
 40
0.3362624424
 40
0.3651589666
 40
0.3934971803
 40
0.421373822
 40
0.4488908758
 40
0.4761547572
 40
0.5032752115
 40
0.5303638187
 40
0.5575326004
 40
0.5848925312
 40
0.6125520106
 40
0.6406156966
 40
0.6691834594
 40
0.6983492709
 40
0.7282008388
 40
0.7902595762
 40
0.8559510674
 40
0.9257407962
 40
1.0
 40
1.0
 40
1.0
 40
1.0
 10
13.4465276347
 20
9.9215541194
 30
0.0
 10
13.4484397784
 20
9.9234011085
 30
0.0
 10
13.4522615037
 20
9.9268703119
 30
0.0
 10
13.4581759693
 20
9.9315049096
 30
0.0
 10
13.4640836284
 20
9.9353973713
 30
0.0
 10
13.4699784226
 20
9.9385416374
 30
0.0
 10
13.4749331977
 20
9.9405566535
 30
0.0
 10
13.4788685499
 20
9.9417715914
 30
0.0
 10
13.4817783968
 20
9.9424830646
 30
0.0
 10
13.4846789259
 20
9.9430047436
 30
0.0
 10
13.4875693382
 20
9.9433364032
 30
0.0
 10
13.4904487025
 20
9.9434777902
 30
0.0
 10
13.493316082
 20
9.9434288718
 30
0.0
 10
13.4961705359
 20
9.9431896582
 30
0.0
 10
13.4990111167
 20
9.942760176
 30
0.0
 10
13.5018368904
 20
9.9421406026
 30
0.0
 10
13.5046469683
 20
9.9413312574
 30
0.0
 10
13.5074404904
 20
9.9403324533
 30
0.0
 10
13.5102165907
 20
9.9391445445
 30
0.0
 10
13.5129745592
 20
9.9377680005
 30
0.0
 10
13.5166740829
 20
9.9356547323
 30
0.0
 10
13.5212575782
 20
9.9325181386
 30
0.0
 10
13.5265971886
 20
9.9280580878
 30
0.0
 10
13.5318429072
 20
9.9228599841
 30
0.0
 10
13.5351675119
 20
9.9190301198
 30
0.0
 10
13.5368155806
 20
9.917003745
 30
0.0
  0
SPLINE
  5
32F
100
AcDbEntity
  8
0
100
AcDbSpline
 62
7
  6
CONTINUOUS
 70
0
 71
3
 72
22
 73
18
 74
0
 42
0.0000001
 43
0.0000001
 44
0.0000000001
 40
0.0
 40
0.0
 40
0.0
 40
0.0
 40
0.0764231594
 40
0.1504694273
 40
0.2222091687
 40
0.2917227003
 40
0.3591050047
 40
0.4244648692
 40
0.5495744344
 40
0.6096451912
 40
0.6682571001
 40
0.7255854133
 40
0.7818195891
 40
0.837161402
 40
0.8918233905
 40
0.946027062
 40
1.0
 40
1.0
 40
1.0
 40
1.0
 10
13.3866402299
 20
9.9855947298
 30
0.0
 10
13.3877172958
 20
9.9866350956
 30
0.0
 10
13.3898710292
 20
9.9886495969
 30
0.0
 10
13.3931529855
 20
9.9915122108
 30
0.0
 10
13.3964335089
 20
9.9941663324
 30
0.0
 10
13.399711534
 20
9.9966109397
 30
0.0
 10
13.4029863462
 20
9.9988453954
 30
0.0
 10
13.4072838075
 20
10.0015044226
 30
0.0
 10
13.4116381128
 20
10.0037931603
 30
0.0
 10
13.4160339416
 20
10.0056681005
 30
0.0
 10
13.4192788305
 20
10.0068423214
 30
0.0
 10
13.4225149734
 20
10.0078028271
 30
0.0
 10
13.4257414921
 20
10.0085493142
 30
0.0
 10
13.4289573576
 20
10.0090814348
 30
0.0
 10
13.4321616096
 20
10.0093988407
 30
0.0
 10
13.4353529835
 20
10.0095013926
 30
0.0
 10
13.4374732388
 20
10.0094264052
 30
0.0
 10
13.4385282791
 20
10.0093532441
 30
0.0
  0
SPLINE
  5
330
100
AcDbEntity
  8
0
100
AcDbSpline
 62
7
  6
CONTINUOUS
 70
0
 71
3
 72
23
 73
19
 74
0
 42
0.0000001
 43
0.0000001
 44
0.0000000001
 40
0.0
 40
0.0
 40
0.0
 40
0.0
 40
0.0616482008
 40
0.1233194316
 40
0.1850364675
 40
0.2468215573
 40
0.3086962009
 40
0.3706809199
 40
0.43279501
 40
0.4950563329
 40
0.5574811898
 40
0.6200840976
 40
0.6828775607
 40
0.7458724522
 40
0.8090769387
 40
0.8724963729
 40
0.9361396553
 40
1.0
 40
1.0
 40
1.0
 40
1.0
 10
9.8189477942
 20
8.071290794
 30
0.0
 10
9.8161422909
 20
8.0685809024
 30
0.0
 10
9.8103832082
 20
8.0633099831
 30
0.0
 10
9.8013304502
 20
8.05587773
 30
0.0
 10
9.791884569
 20
8.0489367615
 30
0.0
 10
9.7820697007
 20
8.042504863
 30
0.0
 10
9.7719105232
 20
8.0365981006
 30
0.0
 10
9.7614326484
 20
8.0312313772
 30
0.0
 10
9.7506624537
 20
8.0264182349
 30
0.0
 10
9.7396271067
 20
8.022170719
 30
0.0
 10
9.7283544065
 20
8.0184994948
 30
0.0
 10
9.7168727351
 20
8.0154138424
 30
0.0
 10
9.7052110156
 20
8.0129214547
 30
0.0
 10
9.6933986126
 20
8.0110285697
 30
0.0
 10
9.6814653509
 20
8.009739955
 30
0.0
 10
9.6694409406
 20
8.0090587542
 30
0.0
 10
9.6573563325
 20
8.0089867982
 30
0.0
 10
9.6492929531
 20
8.0093443507
 30
0.0
 10
9.6452621105
 20
8.0096238906
 30
0.0
  0
SPLINE
  5
331
100
AcDbEntity
  8
0
100
AcDbSpline
 62
7
  6
CONTINUOUS
 70
0
 71
3
 72
15
 73
11
 74
0
 42
0.0000001
 43
0.0000001
 44
0.0000000001
 40
0.0
 40
0.0
 40
0.0
 40
0.0
 40
0.1233646494
 40
0.2471046268
 40
0.3712767995
 40
0.4959297045
 40
0.6211036118
 40
0.7468273543
 40
0.8731242769
 40
1.0
 40
1.0
 40
1.0
 40
1.0
 10
9.8578890706
 20
8.1217684366
 30
0.0
 10
9.8532837387
 20
8.1193905416
 30
0.0
 10
9.8438882205
 20
8.1149504856
 30
0.0
 10
9.8293430847
 20
8.1092819681
 30
0.0
 10
9.8143876563
 20
8.1046191818
 30
0.0
 10
9.7990884984
 20
8.1009829001
 30
0.0
 10
9.7835126301
 20
8.0983888975
 30
0.0
 10
9.7677281518
 20
8.0968483616
 30
0.0
 10
9.751805288
 20
8.0963680033
 30
0.0
 10
9.7411664383
 20
8.0967550357
 30
0.0
 10
9.7358486999
 20
8.0971238221
 30
0.0
  0
SPLINE
  5
332
100
AcDbEntity
  8
0
100
AcDbSpline
 62
7
  6
CONTINUOUS
 70
0
 71
3
 72
34
 73
30
 74
0
 42
0.0000001
 43
0.0000001
 44
0.0000000001
 40
0.0
 40
0.0
 40
0.0
 40
0.0
 40
0.0629011044
 40
0.1255892375
 40
0.1880781103
 40
0.2192576956
 40
0.250394648
 40
0.3125440399
 40
0.3745647345
 40
0.4055440309
 40
0.4365059208
 40
0.4674565394
 40
0.4984024939
 40
0.529350878
 40
0.5603098056
 40
0.5912873821
 40
0.6222929131
 40
0.6533357323
 40
0.6844256631
 40
0.715573068
 40
0.7467879358
 40
0.7780803904
 40
0.8094602747
 40
0.8409364357
 40
0.8725171432
 40
0.9042093342
 40
0.9360177452
 40
0.9679487906
 40
1.0
 40
1.0
 40
1.0
 40
1.0
 10
11.2062144036
 20
8.0491142351
 30
0.0
 10
11.2044937336
 20
8.0424373455
 30
0.0
 10
11.2006637575
 20
8.029203863
 30
0.0
 10
11.1937289592
 20
8.0097754967
 30
0.0
 10
11.1869489097
 20
7.994019701
 30
0.0
 10
11.180921661
 20
7.9817356139
 30
0.0
 10
11.1744985172
 20
7.9696959548
 30
0.0
 10
11.1657060067
 20
7.9551003302
 30
0.0
 10
11.1558788089
 20
7.9411987278
 30
0.0
 10
11.1474041062
 20
7.9305731304
 30
0.0
 10
11.1407422062
 20
7.9228685163
 30
0.0
 10
11.1337739565
 20
7.9154447901
 30
0.0
 10
11.1265011482
 20
7.9083209961
 30
0.0
 10
11.118926776
 20
7.9015170948
 30
0.0
 10
11.1110549138
 20
7.8950539343
 30
0.0
 10
11.1028911038
 20
7.8889529124
 30
0.0
 10
11.0944424056
 20
7.8832361447
 30
0.0
 10
11.0857176862
 20
7.87792608
 30
0.0
 10
11.0767278399
 20
7.8730452682
 30
0.0
 10
11.0674858299
 20
7.8686163544
 30
0.0
 10
11.0580070474
 20
7.8646613334
 30
0.0
 10
11.0483092873
 20
7.8612014362
 30
0.0
 10
11.0384127883
 20
7.8582568087
 30
0.0
 10
11.0283403395
 20
7.8558456497
 30
0.0
 10
11.0181170656
 20
7.8539840753
 30
0.0
 10
11.0077703482
 20
7.8526857138
 30
0.0
 10
10.9973290738
 20
7.8519608979
 30
0.0
 10
10.9868246213
 20
7.8518168296
 30
0.0
 10
10.9798129523
 20
7.8521095573
 30
0.0
 10
10.9763080089
 20
7.8523526259
 30
0.0
  0
SPLINE
  5
333
100
AcDbEntity
  8
0
100
AcDbSpline
 62
7
  6
CONTINUOUS
 70
0
 71
3
 72
50
 73
46
 74
0
 42
0.0000001
 43
0.0000001
 44
0.0000000001
 40
0.0
 40
0.0
 40
0.0
 40
0.0
 40
0.0071626893
 40
0.0146567314
 40
0.0224897869
 40
0.0306682281
 40
0.039197216
 40
0.048080423
 40
0.0573201283
 40
0.0669176272
 40
0.0768732013
 40
0.087186397
 40
0.0978558806
 40
0.1088796987
 40
0.1202552322
 40
0.131979287
 40
0.1440481842
 40
0.15645768
 40
0.1692031783
 40
0.1822795574
 40
0.1956813978
 40
0.2094028428
 40
0.2234377248
 40
0.2377795537
 40
0.2673560652
 40
0.2980749651
 40
0.3298741783
 40
0.362687851
 40
0.3964467171
 40
0.4310784322
 40
0.4665078819
 40
0.5026574802
 40
0.5394474519
 40
0.5767961041
 40
0.6146200916
 40
0.652834677
 40
0.6913539874
 40
0.730091269
 40
0.7689591383
 40
0.8078698494
 40
0.8467354897
 40
0.8854684304
 40
0.9239809666
 40
0.9621871389
 40
1.0
 40
1.0
 40
1.0
 40
1.0
 10
7.1947082246
 20
10.1987156567
 30
0.0
 10
7.1930835893
 20
10.1971463795
 30
0.0
 10
7.1898365012
 20
10.1938543925
 30
0.0
 10
7.1850773549
 20
10.1885935198
 30
0.0
 10
7.1803243058
 20
10.1829030873
 30
0.0
 10
7.175580323
 20
10.1767867771
 30
0.0
 10
7.170848066
 20
10.1702481145
 30
0.0
 10
7.1661302654
 20
10.1632909156
 30
0.0
 10
7.1614296516
 20
10.1559193057
 30
0.0
 10
7.1567491101
 20
10.1481376371
 30
0.0
 10
7.1520913316
 20
10.1399505793
 30
0.0
 10
7.1474591817
 20
10.1313629688
 30
0.0
 10
7.142855355
 20
10.1223799547
 30
0.0
 10
7.1382826656
 20
10.1130068867
 30
0.0
 10
7.1337438423
 20
10.1032493807
 30
0.0
 10
7.1292416003
 20
10.0931132825
 30
0.0
 10
7.1247786927
 20
10.0826046581
 30
0.0
 10
7.1203577423
 20
10.0717298253
 30
0.0
 10
7.1159814899
 20
10.0604952957
 30
0.0
 10
7.111652498
 20
10.0489078317
 30
0.0
 10
7.1073734385
 20
10.0369743829
 30
0.0
 10
7.1031468548
 20
10.0247021324
 30
0.0
 10
7.0989752935
 20
10.0120984447
 30
0.0
 10
7.0934331342
 20
9.9946829614
 30
0.0
 10
7.0866711089
 20
9.9721360826
 30
0.0
 10
7.0788961767
 20
9.9441519536
 30
0.0
 10
7.0713986859
 20
9.915036932
 30
0.0
 10
7.0641967826
 20
9.8848610849
 30
0.0
 10
7.0573079002
 20
9.853696917
 30
0.0
 10
7.0507487076
 20
9.8216193857
 30
0.0
 10
7.0445350678
 20
9.7887056602
 30
0.0
 10
7.0386820034
 20
9.7550349451
 30
0.0
 10
7.0332036608
 20
9.7206882795
 30
0.0
 10
7.0281132768
 20
9.6857483411
 30
0.0
 10
7.0234231469
 20
9.6502992442
 30
0.0
 10
7.0191445964
 20
9.6144263364
 30
0.0
 10
7.0152879535
 20
9.5782159915
 30
0.0
 10
7.011862525
 20
9.5417554013
 30
0.0
 10
7.0088765686
 20
9.5051323612
 30
0.0
 10
7.0063372835
 20
9.4684350707
 30
0.0
 10
7.0042507733
 20
9.4317518687
 30
0.0
 10
7.0026220791
 20
9.3951711757
 30
0.0
 10
7.0014550686
 20
9.3587808825
 30
0.0
 10
7.0007525929
 20
9.3226689058
 30
0.0
 10
7.0005941009
 20
9.298695791
 30
0.0
 10
7.0005941009
 20
9.2867713877
 30
0.0
  0
SPLINE
  5
334
100
AcDbEntity
  8
0
100
AcDbSpline
 62
7
  6
CONTINUOUS
 70
0
 71
3
 72
23
 73
19
 74
0
 42
0.0000001
 43
0.0000001
 44
0.0000000001
 40
0.0
 40
0.0
 40
0.0
 40
0.0
 40
0.0616482008
 40
0.1233194316
 40
0.1850364675
 40
0.2468215573
 40
0.3086962009
 40
0.3706809199
 40
0.43279501
 40
0.4950563329
 40
0.5574811898
 40
0.6200840976
 40
0.6828775607
 40
0.7458724522
 40
0.8090769387
 40
0.8724963729
 40
0.9361396553
 40
1.0
 40
1.0
 40
1.0
 40
1.0
 10
10.4873686511
 20
8.8150630408
 30
0.0
 10
10.4845631479
 20
8.8123531492
 30
0.0
 10
10.4788040652
 20
8.8070822299
 30
0.0
 10
10.4697513072
 20
8.7996499768
 30
0.0
 10
10.4603054259
 20
8.7927090083
 30
0.0
 10
10.4504905577
 20
8.7862771098
 30
0.0
 10
10.4403313801
 20
8.7803703474
 30
0.0
 10
10.4298535053
 20
8.775003624
 30
0.0
 10
10.4190833107
 20
8.7701904817
 30
0.0
 10
10.4080479636
 20
8.7659429658
 30
0.0
 10
10.3967752634
 20
8.7622717416
 30
0.0
 10
10.3852935921
 20
8.7591860893
 30
0.0
 10
10.3736318725
 20
8.7566937016
 30
0.0
 10
10.3618194695
 20
8.7548008165
 30
0.0
 10
10.3498862079
 20
8.7535122018
 30
0.0
 10
10.3378617975
 20
8.7528310011
 30
0.0
 10
10.3257771894
 20
8.752759045
 30
0.0
 10
10.3177138101
 20
8.7531165975
 30
0.0
 10
10.3136829674
 20
8.7533961374
 30
0.0
  0
SPLINE
  5
335
100
AcDbEntity
  8
0
100
AcDbSpline
 62
7
  6
CONTINUOUS
 70
0
 71
3
 72
39
 73
35
 74
0
 42
0.0000001
 43
0.0000001
 44
0.0000000001
 40
0.0
 40
0.0
 40
0.0
 40
0.0
 40
0.0311448514
 40
0.062443175
 40
0.0938883155
 40
0.1254709835
 40
0.1571788681
 40
0.1889972425
 40
0.2209091526
 40
0.2528958171
 40
0.2849369926
 40
0.3170113795
 40
0.3490970362
 40
0.381171804
 40
0.413213734
 40
0.4452015117
 40
0.477114873
 40
0.5089350054
 40
0.5406449289
 40
0.5722298501
 40
0.6036774824
 40
0.6349783264
 40
0.6661259021
 40
0.6971169277
 40
0.7279514359
 40
0.758632824
 40
0.7891678305
 40
0.8195664351
 40
0.8498416808
 40
0.8800094165
 40
0.9100879651
 40
0.9400977229
 40
0.9700606977
 40
1.0
 40
1.0
 40
1.0
 40
1.0
 10
11.7587080238
 20
6.6624100731
 30
0.0
 10
11.7536840321
 20
6.6627584881
 30
0.0
 10
11.7436330578
 20
6.663824781
 30
0.0
 10
11.7286784614
 20
6.6665107504
 30
0.0
 10
11.7138840204
 20
6.6702730479
 30
0.0
 10
11.699329687
 20
6.6750913581
 30
0.0
 10
11.6850927446
 20
6.6809399082
 30
0.0
 10
11.671249147
 20
6.6877873894
 30
0.0
 10
11.657872639
 20
6.6955972187
 30
0.0
 10
11.6450344983
 20
6.7043276933
 30
0.0
 10
11.6328031261
 20
6.7139322295
 30
0.0
 10
11.6212436958
 20
6.7243596018
 30
0.0
 10
11.6104178077
 20
6.7355542175
 30
0.0
 10
11.6003831639
 20
6.7474564084
 30
0.0
 10
11.5911932644
 20
6.7600027468
 30
0.0
 10
11.5828971243
 20
6.7731263796
 30
0.0
 10
11.5755390142
 20
6.7867573805
 30
0.0
 10
11.569158226
 20
6.8008231186
 30
0.0
 10
11.563788864
 20
6.8152486404
 30
0.0
 10
11.5594596629
 20
6.829957064
 30
0.0
 10
11.5561938332
 20
6.8448699837
 30
0.0
 10
11.5540089356
 20
6.8599078818
 30
0.0
 10
11.5529167828
 20
6.8749905474
 30
0.0
 10
11.5529233721
 20
6.8900374989
 30
0.0
 10
11.5540288458
 20
6.9049684086
 30
0.0
 10
11.5562274831
 20
6.9197035287
 30
0.0
 10
11.5595077203
 20
6.9341641147
 30
0.0
 10
11.5638522048
 20
6.9482728487
 30
0.0
 10
11.5692378702
 20
6.9619542488
 30
0.0
 10
11.5756360763
 20
6.9751351037
 30
0.0
 10
11.5830126575
 20
6.9877447771
 30
0.0
 10
11.5913284592
 20
6.9997159525
 30
0.0
 10
11.6005382072
 20
7.0109836775
 30
0.0
 10
11.6072441066
 20
7.0179892608
 30
0.0
 10
11.6107260955
 20
7.0213526269
 30
0.0
  0
SPLINE
  5
336
100
AcDbEntity
  8
0
100
AcDbSpline
 62
7
  6
CONTINUOUS
 70
0
 71
3
 72
23
 73
19
 74
0
 42
0.0000001
 43
0.0000001
 44
0.0000000001
 40
0.0
 40
0.0
 40
0.0
 40
0.0
 40
0.0616482177
 40
0.1233194574
 40
0.1850364846
 40
0.2468215737
 40
0.3086962208
 40
0.3706809273
 40
0.4327950046
 40
0.4950563287
 40
0.5574811866
 40
0.6200840624
 40
0.6828775263
 40
0.7458725145
 40
0.8090768102
 40
0.8724962308
 40
0.936140182
 40
1.0
 40
1.0
 40
1.0
 40
1.0
 10
8.8273181552
 20
6.9864626029
 30
0.0
 10
8.8249278452
 20
6.984153725
 30
0.0
 10
8.8200211331
 20
6.979662725
 30
0.0
 10
8.8123081001
 20
6.9733303088
 30
0.0
 10
8.8042601626
 20
6.9674164201
 30
0.0
 10
8.7958978464
 20
6.9619362444
 30
0.0
 10
8.7872421264
 20
6.9569035596
 30
0.0
 10
8.7783148807
 20
6.952330978
 30
0.0
 10
8.7691385879
 20
6.9482300119
 30
0.0
 10
8.7597363474
 20
6.944611035
 30
0.0
 10
8.7501318799
 20
6.9414830654
 30
0.0
 10
8.7403493748
 20
6.9388539669
 30
0.0
 10
8.7304134441
 20
6.9367303907
 30
0.0
 10
8.7203491353
 20
6.9351176145
 30
0.0
 10
8.7101818574
 20
6.9340196427
 30
0.0
 10
8.6999368826
 20
6.9334392368
 30
0.0
 10
8.689640637
 20
6.9333779363
 30
0.0
 10
8.6827705275
 20
6.9336825608
 30
0.0
 10
8.6793362269
 20
6.9339207303
 30
0.0
  0
SPLINE
  5
337
100
AcDbEntity
  8
0
100
AcDbSpline
 62
7
  6
CONTINUOUS
 70
0
 71
3
 72
23
 73
19
 74
0
 42
0.0000001
 43
0.0000001
 44
0.0000000001
 40
0.0
 40
0.0
 40
0.0
 40
0.0
 40
0.0616482177
 40
0.1233194574
 40
0.1850364846
 40
0.2468215737
 40
0.3086962208
 40
0.3706809273
 40
0.4327950046
 40
0.4950563287
 40
0.5574811866
 40
0.6200840624
 40
0.6828775263
 40
0.7458725145
 40
0.8090768102
 40
0.8724962308
 40
0.936140182
 40
1.0
 40
1.0
 40
1.0
 40
1.0
 10
8.8273181552
 20
9.343321814
 30
0.0
 10
8.8249278452
 20
9.341012936
 30
0.0
 10
8.8200211331
 20
9.3365219361
 30
0.0
 10
8.8123081001
 20
9.3301895198
 30
0.0
 10
8.8042601626
 20
9.3242756312
 30
0.0
 10
8.7958978464
 20
9.3187954554
 30
0.0
 10
8.7872421264
 20
9.3137627707
 30
0.0
 10
8.7783148807
 20
9.3091901891
 30
0.0
 10
8.7691385879
 20
9.305089223
 30
0.0
 10
8.7597363474
 20
9.301470246
 30
0.0
 10
8.7501318799
 20
9.2983422764
 30
0.0
 10
8.7403493748
 20
9.295713178
 30
0.0
 10
8.7304134441
 20
9.2935896018
 30
0.0
 10
8.7203491353
 20
9.2919768256
 30
0.0
 10
8.7101818574
 20
9.2908788537
 30
0.0
 10
8.6999368826
 20
9.2902984479
 30
0.0
 10
8.689640637
 20
9.2902371474
 30
0.0
 10
8.6827705275
 20
9.2905417718
 30
0.0
 10
8.6793362269
 20
9.2907799414
 30
0.0
  0
SPLINE
  5
338
100
AcDbEntity
  8
0
100
AcDbSpline
 62
7
  6
CONTINUOUS
 70
0
 71
3
 72
23
 73
19
 74
0
 42
0.0000001
 43
0.0000001
 44
0.0000000001
 40
0.0
 40
0.0
 40
0.0
 40
0.0
 40
0.0616482177
 40
0.1233194574
 40
0.1850364846
 40
0.2468215737
 40
0.3086962208
 40
0.3706809273
 40
0.4327950046
 40
0.4950563287
 40
0.5574811866
 40
0.6200840624
 40
0.6828775263
 40
0.7458725145
 40
0.8090768102
 40
0.8724962308
 40
0.936140182
 40
1.0
 40
1.0
 40
1.0
 40
1.0
 10
11.906689952
 20
9.1877221811
 30
0.0
 10
11.904299642
 20
9.1854133031
 30
0.0
 10
11.8993929299
 20
9.1809223031
 30
0.0
 10
11.8916798969
 20
9.1745898869
 30
0.0
 10
11.8836319594
 20
9.1686759983
 30
0.0
 10
11.8752696432
 20
9.1631958225
 30
0.0
 10
11.8666139232
 20
9.1581631378
 30
0.0
 10
11.8576866775
 20
9.1535905561
 30
0.0
 10
11.8485103847
 20
9.1494895901
 30
0.0
 10
11.8391081442
 20
9.1458706131
 30
0.0
 10
11.8295036767
 20
9.1427426435
 30
0.0
 10
11.8197211716
 20
9.1401135451
 30
0.0
 10
11.8097852409
 20
9.1379899689
 30
0.0
 10
11.7997209321
 20
9.1363771926
 30
0.0
 10
11.7895536543
 20
9.1352792208
 30
0.0
 10
11.7793086794
 20
9.134698815
 30
0.0
 10
11.7690124338
 20
9.1346375145
 30
0.0
 10
11.7621423243
 20
9.1349421389
 30
0.0
 10
11.7587080238
 20
9.1351803085
 30
0.0
  0
SPLINE
  5
339
100
AcDbEntity
  8
0
100
AcDbSpline
 62
7
  6
CONTINUOUS
 70
0
 71
3
 72
23
 73
19
 74
0
 42
0.0000001
 43
0.0000001
 44
0.0000000001
 40
0.0
 40
0.0
 40
0.0
 40
0.0
 40
0.0616482177
 40
0.1233194574
 40
0.1850364846
 40
0.2468215737
 40
0.3086962208
 40
0.3706809273
 40
0.4327950046
 40
0.4950563287
 40
0.5574811866
 40
0.6200840624
 40
0.6828775263
 40
0.7458725145
 40
0.8090768102
 40
0.8724962308
 40
0.936140182
 40
1.0
 40
1.0
 40
1.0
 40
1.0
 10
11.906689952
 20
6.7149519457
 30
0.0
 10
11.904299642
 20
6.7126430678
 30
0.0
 10
11.8993929299
 20
6.7081520678
 30
0.0
 10
11.8916798969
 20
6.7018196516
 30
0.0
 10
11.8836319594
 20
6.6959057629
 30
0.0
 10
11.8752696432
 20
6.6904255872
 30
0.0
 10
11.8666139232
 20
6.6853929025
 30
0.0
 10
11.8576866775
 20
6.6808203208
 30
0.0
 10
11.8485103847
 20
6.6767193547
 30
0.0
 10
11.8391081442
 20
6.6731003778
 30
0.0
 10
11.8295036767
 20
6.6699724082
 30
0.0
 10
11.8197211716
 20
6.6673433097
 30
0.0
 10
11.8097852409
 20
6.6652197335
 30
0.0
 10
11.7997209321
 20
6.6636069573
 30
0.0
 10
11.7895536543
 20
6.6625089855
 30
0.0
 10
11.7793086794
 20
6.6619285797
 30
0.0
 10
11.7690124338
 20
6.6618672792
 30
0.0
 10
11.7621423243
 20
6.6621719036
 30
0.0
 10
11.7587080238
 20
6.6624100731
 30
0.0
  0
SPLINE
  5
33A
100
AcDbEntity
  8
0
100
AcDbSpline
 62
7
  6
CONTINUOUS
 70
0
 71
3
 72
23
 73
19
 74
0
 42
0.0000001
 43
0.0000001
 44
0.0000000001
 40
0.0
 40
0.0
 40
0.0
 40
0.0
 40
0.0616482156
 40
0.1233194448
 40
0.1850364824
 40
0.2468215709
 40
0.3086962096
 40
0.3706809325
 40
0.432795002
 40
0.4950563289
 40
0.5574812109
 40
0.6200840208
 40
0.6828775523
 40
0.7458726718
 40
0.8090764916
 40
0.8724961142
 40
0.9361412363
 40
1.0
 40
1.0
 40
1.0
 40
1.0
 10
11.2971924768
 20
6.7954712912
 30
0.0
 10
11.2954418319
 20
6.793780293
 30
0.0
 10
11.2918481598
 20
6.7904911688
 30
0.0
 10
11.2861992087
 20
6.7858533592
 30
0.0
 10
11.2803049632
 20
6.7815220876
 30
0.0
 10
11.2741804383
 20
6.7775085165
 30
0.0
 10
11.267841082
 20
6.7738225966
 30
0.0
 10
11.2613028303
 20
6.7704737071
 30
0.0
 10
11.2545821757
 20
6.7674702419
 30
0.0
 10
11.2476960724
 20
6.7648196969
 30
0.0
 10
11.2406618306
 20
6.7625288485
 30
0.0
 10
11.2334972078
 20
6.7606033337
 30
0.0
 10
11.2262202199
 20
6.7590480199
 30
0.0
 10
11.2188492124
 20
6.7578668894
 30
0.0
 10
11.2114027979
 20
6.75706272
 30
0.0
 10
11.2038994328
 20
6.7566376377
 30
0.0
 10
11.196358542
 20
6.7565927752
 30
0.0
 10
11.1913269299
 20
6.756815861
 30
0.0
 10
11.1888117202
 20
6.7569902914
 30
0.0
  0
SPLINE
  5
33B
100
AcDbEntity
  8
0
100
AcDbSpline
 62
7
  6
CONTINUOUS
 70
0
 71
3
 72
15
 73
11
 74
0
 42
0.0000001
 43
0.0000001
 44
0.0000000001
 40
0.0
 40
0.0
 40
0.0
 40
0.0
 40
0.1236143427
 40
0.2475831664
 40
0.3719328879
 40
0.4966858083
 40
0.6218564259
 40
0.7474599607
 40
0.8735162165
 40
1.0
 40
1.0
 40
1.0
 40
1.0
 10
11.3291518686
 20
6.843140631
 30
0.0
 10
11.3268044266
 20
6.8422927463
 30
0.0
 10
11.3220565409
 20
6.8407196853
 30
0.0
 10
11.3148096623
 20
6.8387379689
 30
0.0
 10
11.3074458434
 20
6.837135651
 30
0.0
 10
11.2999843887
 20
6.8359170832
 30
0.0
 10
11.2924445609
 20
6.8350851505
 30
0.0
 10
11.2848455442
 20
6.8346421279
 30
0.0
 10
11.2772075326
 20
6.8345892318
 30
0.0
 10
11.2721108896
 20
6.8348135502
 30
0.0
 10
11.2695631973
 20
6.8349902332
 30
0.0
  0
SPLINE
  5
33C
100
AcDbEntity
  8
0
100
AcDbSpline
 62
7
  6
CONTINUOUS
 70
0
 71
3
 72
39
 73
35
 74
0
 42
0.0000001
 43
0.0000001
 44
0.0000000001
 40
0.0
 40
0.0
 40
0.0
 40
0.0
 40
0.0300782682
 40
0.0602610767
 40
0.0905570507
 40
0.120973054
 40
0.1515141254
 40
0.1821834138
 40
0.2129821367
 40
0.2439095994
 40
0.2749632449
 40
0.3061386977
 40
0.3374298318
 40
0.3688289008
 40
0.4003266662
 40
0.4319125203
 40
0.4635746388
 40
0.4953001759
 40
0.5270754353
 40
0.5588860406
 40
0.5907171413
 40
0.6225536279
 40
0.654380315
 40
0.6861821352
 40
0.717944363
 40
0.7496528075
 40
0.7812939936
 40
0.8128553595
 40
0.8443253735
 40
0.875693934
 40
0.9069521963
 40
0.9380920782
 40
0.9691109296
 40
1.0
 40
1.0
 40
1.0
 40
1.0
 10
11.1292295156
 20
7.050290832
 30
0.0
 10
11.1281167181
 20
7.0475226745
 30
0.0
 10
11.1260636165
 20
7.0419039951
 30
0.0
 10
11.123518938
 20
7.0332837507
 30
0.0
 10
11.1215129532
 20
7.0244877907
 30
0.0
 10
11.1200531427
 20
7.0155490437
 30
0.0
 10
11.1191447819
 20
7.0065003729
 30
0.0
 10
11.1187912182
 20
6.9973751866
 30
0.0
 10
11.1189937133
 20
6.9882071335
 30
0.0
 10
11.1197514223
 20
6.9790300184
 30
0.0
 10
11.121061504
 20
6.9698776632
 30
0.0
 10
11.1229191313
 20
6.9607838034
 30
0.0
 10
11.1253174024
 20
6.9517819464
 30
0.0
 10
11.1282474069
 20
6.9429052439
 30
0.0
 10
11.1316983254
 20
6.9341863905
 30
0.0
 10
11.1356574614
 20
6.9256575179
 30
0.0
 10
11.1401101708
 20
6.9173500233
 30
0.0
 10
11.1450400123
 20
6.9092944863
 30
0.0
 10
11.150428829
 20
6.9015205785
 30
0.0
 10
11.1562567934
 20
6.8940569538
 30
0.0
 10
11.1625023918
 20
6.8869310706
 30
0.0
 10
11.1691426108
 20
6.8801691629
 30
0.0
 10
11.1761530161
 20
6.8737961587
 30
0.0
 10
11.1835078012
 20
6.8678355544
 30
0.0
 10
11.1911798504
 20
6.8623092761
 30
0.0
 10
11.1991409133
 20
6.8572376863
 30
0.0
 10
11.2073616981
 20
6.8526395186
 30
0.0
 10
11.2158119258
 20
6.848531738
 30
0.0
 10
11.2244604583
 20
6.8449294496
 30
0.0
 10
11.2332754704
 20
6.8418459709
 30
0.0
 10
11.2422244118
 20
6.8392927874
 30
0.0
 10
11.2512746057
 20
6.8372791399
 30
0.0
 10
11.2603920462
 20
6.8358128101
 30
0.0
 10
11.2665066586
 20
6.8352022049
 30
0.0
 10
11.2695631973
 20
6.8349902332
 30
0.0
  0
SPLINE
  5
33D
100
AcDbEntity
  8
0
100
AcDbSpline
 62
7
  6
CONTINUOUS
 70
0
 71
3
 72
14
 73
10
 74
0
 42
0.0000001
 43
0.0000001
 44
0.0000000001
 40
0.0
 40
0.0
 40
0.0
 40
0.0
 40
0.120968857
 40
0.2423346051
 40
0.3644897361
 40
0.4878186366
 40
0.6126941124
 40
0.7394735219
 40
1.0
 40
1.0
 40
1.0
 40
1.0
 10
13.3793519008
 20
8.7007879511
 30
0.0
 10
13.3802201103
 20
8.7007277375
 30
0.0
 10
13.3819562363
 20
8.7005554671
 30
0.0
 10
13.3845472574
 20
8.7001425733
 30
0.0
 10
13.3871263446
 20
8.6995751693
 30
0.0
 10
13.3896927119
 20
8.6988534479
 30
0.0
 10
13.3922458866
 20
8.6979775101
 30
0.0
 10
13.3956618518
 20
8.6965922867
 30
0.0
 10
13.3981575067
 20
8.6953385479
 30
0.0
 10
13.3997900356
 20
8.6944177104
 30
0.0
  0
SPLINE
  5
33E
100
AcDbEntity
  8
0
100
AcDbSpline
 62
7
  6
CONTINUOUS
 70
0
 71
3
 72
21
 73
17
 74
0
 42
0.0000001
 43
0.0000001
 44
0.0000000001
 40
0.0
 40
0.0
 40
0.0
 40
0.0
 40
0.0632253296
 40
0.126434846
 40
0.1896016817
 40
0.2527123223
 40
0.3157484791
 40
0.3786927266
 40
0.4415291276
 40
0.5042422649
 40
0.6292103241
 40
0.7535290546
 40
0.8154362415
 40
0.8771531453
 40
0.9386784662
 40
1.0
 40
1.0
 40
1.0
 40
1.0
 10
9.5689708092
 20
8.1756358539
 30
0.0
 10
9.5717446408
 20
8.172791462
 30
0.0
 10
9.5774189802
 20
8.1672260165
 30
0.0
 10
9.5862903257
 20
8.1592674037
 30
0.0
 10
9.5955019268
 20
8.1517161789
 30
0.0
 10
9.6050323398
 20
8.1445898195
 30
0.0
 10
9.6148601758
 20
8.1379043239
 30
0.0
 10
9.6249629798
 20
8.1316749562
 30
0.0
 10
9.6353180934
 20
8.1259157949
 30
0.0
 10
9.6494108167
 20
8.1188906962
 30
0.0
 10
9.6675366437
 20
8.1113431222
 30
0.0
 10
9.6862288828
 20
8.1054988902
 30
0.0
 10
9.701390884
 20
8.1018921274
 30
0.0
 10
9.7128269882
 20
8.0997283126
 30
0.0
 10
9.7243149951
 20
8.098107696
 30
0.0
 10
9.7320045678
 20
8.0973904136
 30
0.0
 10
9.7358486999
 20
8.0971238221
 30
0.0
  0
SPLINE
  5
33F
100
AcDbEntity
  8
0
100
AcDbSpline
 62
7
  6
CONTINUOUS
 70
0
 71
3
 72
14
 73
10
 74
0
 42
0.0000001
 43
0.0000001
 44
0.0000000001
 40
0.0
 40
0.0
 40
0.0
 40
0.0
 40
0.2602916859
 40
0.387029635
 40
0.5119065257
 40
0.6352722505
 40
0.7574912523
 40
0.8789393616
 40
1.0
 40
1.0
 40
1.0
 40
1.0
 10
13.3026637732
 20
7.2975526879
 30
0.0
 10
13.3009406229
 20
7.2968837263
 30
0.0
 10
13.2983280455
 20
7.2960102655
 30
0.0
 10
13.2947984494
 20
7.2951347897
 30
0.0
 10
13.2921815343
 20
7.294634359
 30
0.0
 10
13.2895726795
 20
7.2942847317
 30
0.0
 10
13.286972342
 20
7.2940859898
 30
0.0
 10
13.2843813025
 20
7.2940381787
 30
0.0
 10
13.2826593521
 20
7.2941070043
 30
0.0
 10
13.2818017068
 20
7.2941664852
 30
0.0
  0
SPLINE
  5
340
100
AcDbEntity
  8
0
100
AcDbSpline
 62
7
  6
CONTINUOUS
 70
0
 71
3
 72
39
 73
35
 74
0
 42
0.0000001
 43
0.0000001
 44
0.0000000001
 40
0.0
 40
0.0
 40
0.0
 40
0.0
 40
0.0311448514
 40
0.062443175
 40
0.0938883155
 40
0.1254709835
 40
0.1571788681
 40
0.1889972425
 40
0.2209091526
 40
0.2528958171
 40
0.2849369926
 40
0.3170113795
 40
0.3490970362
 40
0.381171804
 40
0.413213734
 40
0.4452015117
 40
0.477114873
 40
0.5089350054
 40
0.5406449289
 40
0.5722298501
 40
0.6036774824
 40
0.6349783264
 40
0.6661259021
 40
0.6971169277
 40
0.7279514359
 40
0.758632824
 40
0.7891678305
 40
0.8195664351
 40
0.8498416808
 40
0.8800094165
 40
0.9100879651
 40
0.9400977229
 40
0.9700606977
 40
1.0
 40
1.0
 40
1.0
 40
1.0
 10
8.6793362269
 20
9.2907799414
 30
0.0
 10
8.6743122353
 20
9.2911283564
 30
0.0
 10
8.664261261
 20
9.2921946492
 30
0.0
 10
8.6493066646
 20
9.2948806187
 30
0.0
 10
8.6345122235
 20
9.2986429162
 30
0.0
 10
8.6199578902
 20
9.3034612264
 30
0.0
 10
8.6057209478
 20
9.3093097764
 30
0.0
 10
8.5918773502
 20
9.3161572577
 30
0.0
 10
8.5785008422
 20
9.3239670869
 30
0.0
 10
8.5656627015
 20
9.3326975616
 30
0.0
 10
8.5534313293
 20
9.3423020977
 30
0.0
 10
8.541871899
 20
9.3527294701
 30
0.0
 10
8.5310460109
 20
9.3639240857
 30
0.0
 10
8.5210113671
 20
9.3758262766
 30
0.0
 10
8.5118214676
 20
9.3883726151
 30
0.0
 10
8.5035253275
 20
9.4014962478
 30
0.0
 10
8.4961672174
 20
9.4151272488
 30
0.0
 10
8.4897864292
 20
9.4291929869
 30
0.0
 10
8.4844170672
 20
9.4436185087
 30
0.0
 10
8.4800878661
 20
9.4583269323
 30
0.0
 10
8.4768220364
 20
9.4732398519
 30
0.0
 10
8.4746371388
 20
9.48827775
 30
0.0
 10
8.473544986
 20
9.5033604156
 30
0.0
 10
8.4735515753
 20
9.5184073671
 30
0.0
 10
8.474657049
 20
9.5333382768
 30
0.0
 10
8.4768556863
 20
9.5480733969
 30
0.0
 10
8.4801359235
 20
9.562533983
 30
0.0
 10
8.484480408
 20
9.576642717
 30
0.0
 10
8.4898660733
 20
9.590324117
 30
0.0
 10
8.4962642795
 20
9.6035049719
 30
0.0
 10
8.5036408607
 20
9.6161146454
 30
0.0
 10
8.5119566624
 20
9.6280858207
 30
0.0
 10
8.5211664104
 20
9.6393535457
 30
0.0
 10
8.5278723098
 20
9.646359129
 30
0.0
 10
8.5313542987
 20
9.6497224951
 30
0.0
  0
SPLINE
  5
341
100
AcDbEntity
  8
0
100
AcDbSpline
 62
7
  6
CONTINUOUS
 70
0
 71
3
 72
39
 73
35
 74
0
 42
0.0000001
 43
0.0000001
 44
0.0000000001
 40
0.0
 40
0.0
 40
0.0
 40
0.0
 40
0.0311449443
 40
0.0624431435
 40
0.0938883559
 40
0.1254710082
 40
0.1571789104
 40
0.1889972915
 40
0.2209092118
 40
0.2528958851
 40
0.2849370693
 40
0.3170114641
 40
0.3490971276
 40
0.381171901
 40
0.4132138351
 40
0.4452016153
 40
0.4771149773
 40
0.5089351086
 40
0.5406450291
 40
0.5722299455
 40
0.6036775713
 40
0.6349784071
 40
0.6661259735
 40
0.6971169887
 40
0.7279514858
 40
0.7586328627
 40
0.7891678581
 40
0.8195664525
 40
0.8498416892
 40
0.8800094177
 40
0.9100879614
 40
0.9400977171
 40
0.9700606929
 40
1.0
 40
1.0
 40
1.0
 40
1.0
 10
9.6452621105
 20
8.0096238906
 30
0.0
 10
9.6393653598
 20
8.0100328317
 30
0.0
 10
9.627568388
 20
8.0112843494
 30
0.0
 10
9.6100159555
 20
8.0144369412
 30
0.0
 10
9.5926515144
 20
8.0188528016
 30
0.0
 10
9.5755688757
 20
8.0245081596
 30
0.0
 10
9.5588587741
 20
8.0313727114
 30
0.0
 10
9.5426103502
 20
8.0394097382
 30
0.0
 10
9.526910162
 20
8.0485762877
 30
0.0
 10
9.5118418698
 20
8.0588234178
 30
0.0
 10
9.4974857577
 20
8.0700964492
 30
0.0
 10
9.4839183215
 20
8.0823352582
 30
0.0
 10
9.4712118626
 20
8.0954745933
 30
0.0
 10
9.4594341076
 20
8.1094444203
 30
0.0
 10
9.4486478505
 20
8.124170292
 30
0.0
 10
9.4389106212
 20
8.139573741
 30
0.0
 10
9.430274381
 20
8.1555726927
 30
0.0
 10
9.4227852475
 20
8.1720818978
 30
0.0
 10
9.4164832493
 20
8.1890133813
 30
0.0
 10
9.4114021124
 20
8.2062769047
 30
0.0
 10
9.4075690793
 20
8.2237804408
 30
0.0
 10
9.4050047606
 20
8.2414306576
 30
0.0
 10
9.4037230206
 20
8.2591334093
 30
0.0
 10
9.4037308978
 20
8.2767942323
 30
0.0
 10
9.4050285584
 20
8.294318844
 30
0.0
 10
9.407609287
 20
8.3116136422
 30
0.0
 10
9.4114595102
 20
8.3285862026
 30
0.0
 10
9.4165588598
 20
8.3451457754
 30
0.0
 10
9.4228802612
 20
8.3612037655
 30
0.0
 10
9.4303900983
 20
8.3766742431
 30
0.0
 10
9.4390482673
 20
8.3914743027
 30
0.0
 10
9.4488088169
 20
8.4055249266
 30
0.0
 10
9.4596185825
 20
8.4187499045
 30
0.0
 10
9.4674895388
 20
8.4269723225
 30
0.0
 10
9.4715764267
 20
8.430919929
 30
0.0
  0
SPLINE
  5
342
100
AcDbEntity
  8
0
100
AcDbSpline
 62
7
  6
CONTINUOUS
 70
0
 71
3
 72
39
 73
35
 74
0
 42
0.0000001
 43
0.0000001
 44
0.0000000001
 40
0.0
 40
0.0
 40
0.0
 40
0.0
 40
0.0311448514
 40
0.062443175
 40
0.0938883155
 40
0.1254709835
 40
0.1571788681
 40
0.1889972425
 40
0.2209091526
 40
0.2528958171
 40
0.2849369926
 40
0.3170113795
 40
0.3490970362
 40
0.381171804
 40
0.413213734
 40
0.4452015117
 40
0.477114873
 40
0.5089350054
 40
0.5406449289
 40
0.5722298501
 40
0.6036774824
 40
0.6349783264
 40
0.6661259021
 40
0.6971169277
 40
0.7279514359
 40
0.758632824
 40
0.7891678305
 40
0.8195664351
 40
0.8498416808
 40
0.8800094165
 40
0.9100879651
 40
0.9400977229
 40
0.9700606977
 40
1.0
 40
1.0
 40
1.0
 40
1.0
 10
8.6793362269
 20
6.9339207303
 30
0.0
 10
8.6743122353
 20
6.9342691453
 30
0.0
 10
8.664261261
 20
6.9353354381
 30
0.0
 10
8.6493066646
 20
6.9380214076
 30
0.0
 10
8.6345122235
 20
6.9417837051
 30
0.0
 10
8.6199578902
 20
6.9466020153
 30
0.0
 10
8.6057209478
 20
6.9524505653
 30
0.0
 10
8.5918773502
 20
6.9592980466
 30
0.0
 10
8.5785008422
 20
6.9671078758
 30
0.0
 10
8.5656627015
 20
6.9758383505
 30
0.0
 10
8.5534313293
 20
6.9854428866
 30
0.0
 10
8.541871899
 20
6.995870259
 30
0.0
 10
8.5310460109
 20
7.0070648746
 30
0.0
 10
8.5210113671
 20
7.0189670656
 30
0.0
 10
8.5118214676
 20
7.031513404
 30
0.0
 10
8.5035253275
 20
7.0446370368
 30
0.0
 10
8.4961672174
 20
7.0582680377
 30
0.0
 10
8.4897864292
 20
7.0723337758
 30
0.0
 10
8.4844170672
 20
7.0867592976
 30
0.0
 10
8.4800878661
 20
7.1014677212
 30
0.0
 10
8.4768220364
 20
7.1163806409
 30
0.0
 10
8.4746371388
 20
7.1314185389
 30
0.0
 10
8.473544986
 20
7.1465012046
 30
0.0
 10
8.4735515753
 20
7.161548156
 30
0.0
 10
8.474657049
 20
7.1764790658
 30
0.0
 10
8.4768556863
 20
7.1912141859
 30
0.0
 10
8.4801359235
 20
7.2056747719
 30
0.0
 10
8.484480408
 20
7.2197835059
 30
0.0
 10
8.4898660733
 20
7.233464906
 30
0.0
 10
8.4962642795
 20
7.2466457609
 30
0.0
 10
8.5036408607
 20
7.2592554343
 30
0.0
 10
8.5119566624
 20
7.2712266096
 30
0.0
 10
8.5211664104
 20
7.2824943347
 30
0.0
 10
8.5278723098
 20
7.289499918
 30
0.0
 10
8.5313542987
 20
7.2928632841
 30
0.0
  0
SPLINE
  5
343
100
AcDbEntity
  8
0
100
AcDbSpline
 62
7
  6
CONTINUOUS
 70
0
 71
3
 72
37
 73
33
 74
0
 42
0.0000001
 43
0.0000001
 44
0.0000000001
 40
0.0
 40
0.0
 40
0.0
 40
0.0
 40
0.0851783525
 40
0.1685794556
 40
0.2498815184
 40
0.2896476413
 40
0.3287728756
 40
0.3672203178
 40
0.4049539363
 40
0.441938765
 40
0.4781409589
 40
0.5135277352
 40
0.5480676936
 40
0.581730626
 40
0.6144878651
 40
0.6463122209
 40
0.6771781341
 40
0.7070619202
 40
0.7359416768
 40
0.7637977803
 40
0.7906127635
 40
0.8163718003
 40
0.8410628858
 40
0.8646771191
 40
0.8872093428
 40
0.908658332
 40
0.9290277872
 40
0.9483268236
 40
0.9665711205
 40
0.9753054839
 40
0.983785714
 40
1.0
 40
1.0
 40
1.0
 40
1.0
 10
7.0005941009
 20
7.5964010915
 30
0.0
 10
7.0005941009
 20
7.5808613631
 30
0.0
 10
7.000858893
 20
7.5501053738
 30
0.0
 10
7.0020734362
 20
7.5045314059
 30
0.0
 10
7.0037712654
 20
7.4672645698
 30
0.0
 10
7.0055418645
 20
7.4380925355
 30
0.0
 10
7.0070592722
 20
7.4167389735
 30
0.0
 10
7.0087741943
 20
7.3957723854
 30
0.0
 10
7.0106848548
 20
7.3752148408
 30
0.0
 10
7.0127892222
 20
7.355088001
 30
0.0
 10
7.0150850378
 20
7.3354130632
 30
0.0
 10
7.0175699158
 20
7.3162107438
 30
0.0
 10
7.0202411611
 20
7.2975012621
 30
0.0
 10
7.0230959953
 20
7.2793043091
 30
0.0
 10
7.0261313532
 20
7.2616390326
 30
0.0
 10
7.0293440245
 20
7.2445240127
 30
0.0
 10
7.032730625
 20
7.2279772428
 30
0.0
 10
7.0362875132
 20
7.2120161061
 30
0.0
 10
7.0400109886
 20
7.1966573624
 30
0.0
 10
7.0438970373
 20
7.1819171144
 30
0.0
 10
7.0479416015
 20
7.167810805
 30
0.0
 10
7.0521403859
 20
7.1543531834
 30
0.0
 10
7.05648895
 20
7.1415582883
 30
0.0
 10
7.0609827801
 20
7.1294394472
 30
0.0
 10
7.0656171017
 20
7.1180092056
 30
0.0
 10
7.0703871932
 20
7.1072794053
 30
0.0
 10
7.0752881031
 20
7.0972609866
 30
0.0
 10
7.0803148566
 20
7.087964386
 30
0.0
 10
7.0846656111
 20
7.080724737
 30
0.0
 10
7.0882108923
 20
7.0753127824
 30
0.0
 10
7.0916901089
 20
7.0703033714
 30
0.0
 10
7.0944169273
 20
7.0667124871
 30
0.0
 10
7.0962833905
 20
7.0644175716
 30
0.0
  0
SPLINE
  5
344
100
AcDbEntity
  8
0
100
AcDbSpline
 62
7
  6
CONTINUOUS
 70
0
 71
3
 72
25
 73
21
 74
0
 42
0.0000001
 43
0.0000001
 44
0.0000000001
 40
0.0
 40
0.0
 40
0.0
 40
0.0
 40
0.0623753792
 40
0.126016912
 40
0.1906841038
 40
0.2561099225
 40
0.3220113631
 40
0.3880947692
 40
0.4540625568
 40
0.5196196492
 40
0.5844799485
 40
0.6483729394
 40
0.7110504048
 40
0.7722933558
 40
0.8023240933
 40
0.8319312715
 40
0.8898014939
 40
0.9180558593
 40
0.9458434295
 40
1.0
 40
1.0
 40
1.0
 40
1.0
 10
10.5113306737
 20
7.4418267938
 30
0.0
 10
10.5066042627
 20
7.4374281606
 30
0.0
 10
10.4973894638
 20
7.4281760999
 30
0.0
 10
10.4844889586
 20
7.4132171762
 30
0.0
 10
10.4724636614
 20
7.3971493483
 30
0.0
 10
10.4614192596
 20
7.3801136837
 30
0.0
 10
10.4514516431
 20
7.3622586134
 30
0.0
 10
10.4426477333
 20
7.343739981
 30
0.0
 10
10.4350842885
 20
7.3247193175
 30
0.0
 10
10.4288273591
 20
7.3053624877
 30
0.0
 10
10.4239316762
 20
7.2858382929
 30
0.0
 10
10.4204401273
 20
7.2663166363
 30
0.0
 10
10.418383537
 20
7.2469683015
 30
0.0
 10
10.4178775921
 20
7.2310238454
 30
0.0
 10
10.4182177988
 20
7.2185129108
 30
0.0
 10
10.4190362245
 20
7.2063746472
 30
0.0
 10
10.4205771235
 20
7.1944772868
 30
0.0
 10
10.4228656577
 20
7.1829066748
 30
0.0
 10
10.4255856907
 20
7.1718263092
 30
0.0
 10
10.4281837487
 20
7.1637334293
 30
0.0
 10
10.4301681563
 20
7.1584906085
 30
0.0
  0
SPLINE
  5
345
100
AcDbEntity
  8
0
100
AcDbSpline
 62
7
  6
CONTINUOUS
 70
0
 71
3
 72
40
 73
36
 74
0
 42
0.0000001
 43
0.0000001
 44
0.0000000001
 40
0.0
 40
0.0
 40
0.0
 40
0.0
 40
0.0311444947
 40
0.0624430116
 40
0.0938878326
 40
0.1254704216
 40
0.1571781344
 40
0.1889963661
 40
0.2209081245
 40
0.2528946404
 40
0.2689119976
 40
0.2849403504
 40
0.3170145907
 40
0.3491001014
 40
0.3811747228
 40
0.4132165051
 40
0.4452041336
 40
0.4771173445
 40
0.5089373259
 40
0.5406470987
 40
0.5722318701
 40
0.6036793542
 40
0.6349800517
 40
0.6661274822
 40
0.697118363
 40
0.7279527258
 40
0.7586339677
 40
0.7891688275
 40
0.8195672855
 40
0.8498423851
 40
0.8800099759
 40
0.9100883815
 40
0.9400979984
 40
0.9700608344
 40
1.0
 40
1.0
 40
1.0
 40
1.0
 10
11.1888117202
 20
6.7569902914
 30
0.0
 10
11.1851321965
 20
6.7572454672
 30
0.0
 10
11.1777708956
 20
6.7580264306
 30
0.0
 10
11.1668182172
 20
6.7599935972
 30
0.0
 10
11.1559828182
 20
6.7627491277
 30
0.0
 10
11.145323299
 20
6.7662780235
 30
0.0
 10
11.134896239
 20
6.7705614837
 30
0.0
 10
11.1247572104
 20
6.7755765811
 30
0.0
 10
11.114960483
 20
6.7812963459
 30
0.0
 10
11.107127789
 20
6.7866229514
 30
0.0
 10
11.1010832629
 20
6.7912041587
 30
0.0
 10
11.0951907528
 20
6.795995804
 30
0.0
 10
11.0881333632
 20
6.8023619986
 30
0.0
 10
11.0802046997
 20
6.8105607618
 30
0.0
 10
11.0728553403
 20
6.8192779185
 30
0.0
 10
11.0661247261
 20
6.8284668021
 30
0.0
 10
11.0600486846
 20
6.8380785045
 30
0.0
 10
11.0546596572
 20
6.8480617962
 30
0.0
 10
11.049986415
 20
6.8583634866
 30
0.0
 10
11.0460539367
 20
6.8689286789
 30
0.0
 10
11.0428832671
 20
6.8797010659
 30
0.0
 10
11.040491406
 20
6.8906232239
 30
0.0
 10
11.0388912156
 20
6.9016369148
 30
0.0
 10
11.0380913493
 20
6.9126833922
 30
0.0
 10
11.0380962015
 20
6.923703711
 30
0.0
 10
11.0389058772
 20
6.9346390387
 30
0.0
 10
11.0405161832
 20
6.9454309677
 30
0.0
 10
11.0429186489
 20
6.9560218259
 30
0.0
 10
11.0461005636
 20
6.9663549865
 30
0.0
 10
11.0500450328
 20
6.9763751672
 30
0.0
 10
11.0547310805
 20
6.9860287491
 30
0.0
 10
11.0601336837
 20
6.9952639989
 30
0.0
 10
11.0662241676
 20
7.0040316131
 30
0.0
 10
11.0729693699
 20
7.0122840246
 30
0.0
 10
11.0778807657
 20
7.0174148578
 30
0.0
 10
11.0804309636
 20
7.0198781672
 30
0.0
  0
SPLINE
  5
346
100
AcDbEntity
  8
0
100
AcDbSpline
 62
7
  6
CONTINUOUS
 70
0
 71
3
 72
39
 73
35
 74
0
 42
0.0000001
 43
0.0000001
 44
0.0000000001
 40
0.0
 40
0.0
 40
0.0
 40
0.0
 40
0.0311449443
 40
0.0624431435
 40
0.0938883559
 40
0.1254710082
 40
0.1571789104
 40
0.1889972915
 40
0.2209092118
 40
0.2528958851
 40
0.2849370693
 40
0.3170114641
 40
0.3490971276
 40
0.381171901
 40
0.4132138351
 40
0.4452016153
 40
0.4771149773
 40
0.5089351086
 40
0.5406450291
 40
0.5722299455
 40
0.6036775713
 40
0.6349784071
 40
0.6661259735
 40
0.6971169887
 40
0.7279514858
 40
0.7586328627
 40
0.7891678581
 40
0.8195664525
 40
0.8498416892
 40
0.8800094177
 40
0.9100879614
 40
0.9400977171
 40
0.9700606929
 40
1.0
 40
1.0
 40
1.0
 40
1.0
 10
10.3136829674
 20
8.7533961374
 30
0.0
 10
10.3077862168
 20
8.7538050785
 30
0.0
 10
10.295989245
 20
8.7550565962
 30
0.0
 10
10.2784368125
 20
8.758209188
 30
0.0
 10
10.2610723713
 20
8.7626250484
 30
0.0
 10
10.2439897326
 20
8.7682804064
 30
0.0
 10
10.227279631
 20
8.7751449582
 30
0.0
 10
10.2110312072
 20
8.7831819851
 30
0.0
 10
10.1953310189
 20
8.7923485345
 30
0.0
 10
10.1802627268
 20
8.8025956646
 30
0.0
 10
10.1659066147
 20
8.813868696
 30
0.0
 10
10.1523391785
 20
8.826107505
 30
0.0
 10
10.1396327196
 20
8.8392468401
 30
0.0
 10
10.1278549646
 20
8.8532166671
 30
0.0
 10
10.1170687075
 20
8.8679425388
 30
0.0
 10
10.1073314782
 20
8.8833459878
 30
0.0
 10
10.098695238
 20
8.8993449395
 30
0.0
 10
10.0912061045
 20
8.9158541446
 30
0.0
 10
10.0849041062
 20
8.9327856281
 30
0.0
 10
10.0798229693
 20
8.9500491516
 30
0.0
 10
10.0759899362
 20
8.9675526877
 30
0.0
 10
10.0734256175
 20
8.9852029044
 30
0.0
 10
10.0721438776
 20
9.0029056561
 30
0.0
 10
10.0721517547
 20
9.0205664791
 30
0.0
 10
10.0734494154
 20
9.0380910908
 30
0.0
 10
10.076030144
 20
9.055385889
 30
0.0
 10
10.0798803671
 20
9.0723584495
 30
0.0
 10
10.0849797167
 20
9.0889180222
 30
0.0
 10
10.0913011182
 20
9.1049760123
 30
0.0
 10
10.0988109553
 20
9.12044649
 30
0.0
 10
10.1074691243
 20
9.1352465495
 30
0.0
 10
10.1172296739
 20
9.1492971734
 30
0.0
 10
10.1280394394
 20
9.1625221513
 30
0.0
 10
10.1359103958
 20
9.1707445693
 30
0.0
 10
10.1399972837
 20
9.1746921758
 30
0.0
  0
SPLINE
  5
347
100
AcDbEntity
  8
0
100
AcDbSpline
 62
7
  6
CONTINUOUS
 70
0
 71
3
 72
53
 73
49
 74
0
 42
0.0000001
 43
0.0000001
 44
0.0000000001
 40
0.0
 40
0.0
 40
0.0
 40
0.0
 40
0.0063158453
 40
0.0126706042
 40
0.0191024045
 40
0.0256479299
 40
0.0323417859
 40
0.0392161006
 40
0.0536138955
 40
0.0611945924
 40
0.0690563441
 40
0.0772174269
 40
0.0856937979
 40
0.0944991832
 40
0.1036452597
 40
0.11314202
 40
0.1229977594
 40
0.1332193388
 40
0.1438124264
 40
0.1547814124
 40
0.1661297233
 40
0.1778599004
 40
0.1899735286
 40
0.2024715483
 40
0.215354187
 40
0.228620972
 40
0.2422709821
 40
0.2563026805
 40
0.2707140376
 40
0.2855026779
 40
0.3006656825
 40
0.3321007985
 40
0.3649898971
 40
0.3992976059
 40
0.4349839202
 40
0.4720046721
 40
0.5103119941
 40
0.5498546252
 40
0.5905781203
 40
0.632425176
 40
0.6753358984
 40
0.7192479643
 40
0.7640967369
 40
0.809815732
 40
0.8563364699
 40
0.9035882635
 40
0.9515016805
 40
1.0
 40
1.0
 40
1.0
 40
1.0
 10
12.6370062559
 20
6.6566067739
 30
0.0
 10
12.6357386179
 20
6.6566946916
 30
0.0
 10
12.6332015244
 20
6.6569748531
 30
0.0
 10
12.6294243253
 20
6.6577050628
 30
0.0
 10
12.6256723558
 20
6.6587451483
 30
0.0
 10
12.6219478519
 20
6.6600944183
 30
0.0
 10
12.6182522431
 20
6.6617519879
 30
0.0
 10
12.6132900135
 20
6.6644120222
 30
0.0
 10
12.6084625787
 20
6.6676683581
 30
0.0
 10
12.6037908109
 20
6.6714418798
 30
0.0
 10
12.600262092
 20
6.6746234458
 30
0.0
 10
12.5967710085
 20
6.6781056197
 30
0.0
 10
12.5933185064
 20
6.6818872357
 30
0.0
 10
12.5899059851
 20
6.6859666425
 30
0.0
 10
12.5865346479
 20
6.6903421487
 30
0.0
 10
12.5832058647
 20
6.6950120157
 30
0.0
 10
12.5799208902
 20
6.6999743227
 30
0.0
 10
12.5766809921
 20
6.7052270484
 30
0.0
 10
12.5734875214
 20
6.7107680981
 30
0.0
 10
12.5703416947
 20
6.7165951898
 30
0.0
 10
12.5672447916
 20
6.7227059634
 30
0.0
 10
12.5641981076
 20
6.7290979473
 30
0.0
 10
12.5612028187
 20
6.7357685088
 30
0.0
 10
12.5582601878
 20
6.7427149396
 30
0.0
 10
12.5553714279
 20
6.7499343996
 30
0.0
 10
12.5525376758
 20
6.7574239183
 30
0.0
 10
12.5497601511
 20
6.7651804414
 30
0.0
 10
12.5470399726
 20
6.773200779
 30
0.0
 10
12.5443782426
 20
6.7814816304
 30
0.0
 10
12.5417760946
 20
6.7900196159
 30
0.0
 10
12.5383461749
 20
6.8018845417
 30
0.0
 10
12.5342251126
 20
6.8173385465
 30
0.0
 10
12.5295914601
 20
6.8366355527
 30
0.0
 10
12.5252196686
 20
6.8568693515
 30
0.0
 10
12.5211170015
 20
6.878006615
 30
0.0
 10
12.5172902804
 20
6.9000126457
 30
0.0
 10
12.5137458849
 20
6.9228512451
 30
0.0
 10
12.5104897401
 20
6.9464848327
 30
0.0
 10
12.5075272573
 20
6.9708744819
 30
0.0
 10
12.5048633669
 20
6.9959800046
 30
0.0
 10
12.5025025189
 20
7.0217600294
 30
0.0
 10
12.5004486591
 20
7.0481720496
 30
0.0
 10
12.498705189
 20
7.0751725217
 30
0.0
 10
12.4972750238
 20
7.1027169183
 30
0.0
 10
12.4961605718
 20
7.1307597074
 30
0.0
 10
12.4953636497
 20
7.1592549651
 30
0.0
 10
12.4948856661
 20
7.1881552197
 30
0.0
 10
12.4947806991
 20
7.207552446
 30
0.0
 10
12.4947806991
 20
7.2173098086
 30
0.0
  0
SPLINE
  5
348
100
AcDbEntity
  8
0
100
AcDbSpline
 62
7
  6
CONTINUOUS
 70
0
 71
3
 72
53
 73
49
 74
0
 42
0.0000001
 43
0.0000001
 44
0.0000000001
 40
0.0
 40
0.0
 40
0.0
 40
0.0
 40
0.0063158507
 40
0.0126706099
 40
0.0191024059
 40
0.0256479227
 40
0.0323417663
 40
0.0392160653
 40
0.0536138211
 40
0.0611944956
 40
0.0690562236
 40
0.0772172816
 40
0.0856936274
 40
0.0944989871
 40
0.1036450381
 40
0.113141773
 40
0.1229974875
 40
0.1332190426
 40
0.1438121066
 40
0.1547810699
 40
0.1661293591
 40
0.1778595157
 40
0.1899731245
 40
0.2024711261
 40
0.215353748
 40
0.2286205176
 40
0.2422705136
 40
0.2563021995
 40
0.2707135455
 40
0.2855021761
 40
0.3006651726
 40
0.3321002769
 40
0.3649893698
 40
0.399297079
 40
0.4349833995
 40
0.4720041635
 40
0.5103115033
 40
0.5498541576
 40
0.590577681
 40
0.63242477
 40
0.6753355304
 40
0.7192476386
 40
0.7640964575
 40
0.8098155027
 40
0.8563362939
 40
0.9035881437
 40
0.9515016196
 40
1.0
 40
1.0
 40
1.0
 40
1.0
 10
13.1276971155
 20
6.6225772472
 30
0.0
 10
13.1264294744
 20
6.6226651511
 30
0.0
 10
13.1238923744
 20
6.622945285
 30
0.0
 10
13.120115164
 20
6.623675455
 30
0.0
 10
13.116363183
 20
6.6247155022
 30
0.0
 10
13.1126386675
 20
6.6260647353
 30
0.0
 10
13.108943047
 20
6.6277222696
 30
0.0
 10
13.1039808023
 20
6.6303822574
 30
0.0
 10
13.0991533514
 20
6.6336385511
 30
0.0
 10
13.0944815677
 20
6.6374120343
 30
0.0
 10
13.0909528371
 20
6.640593572
 30
0.0
 10
13.0874617418
 20
6.6440757192
 30
0.0
 10
13.0840092279
 20
6.64785731
 30
0.0
 10
13.0805966949
 20
6.6519366929
 30
0.0
 10
13.0772253461
 20
6.6563121767
 30
0.0
 10
13.0738965512
 20
6.6609820227
 30
0.0
 10
13.0706115651
 20
6.6659443102
 30
0.0
 10
13.0673716556
 20
6.6711970178
 30
0.0
 10
13.0641781734
 20
6.6767380509
 30
0.0
 10
13.0610323354
 20
6.6825651275
 30
0.0
 10
13.057935421
 20
6.6886758873
 30
0.0
 10
13.0548887258
 20
6.6950678589
 30
0.0
 10
13.0518934258
 20
6.7017384095
 30
0.0
 10
13.048950784
 20
6.7086848309
 30
0.0
 10
13.0460620132
 20
6.7159042829
 30
0.0
 10
13.0432282505
 20
6.7233937949
 30
0.0
 10
13.0404507151
 20
6.7311503127
 30
0.0
 10
13.0377305262
 20
6.7391706465
 30
0.0
 10
13.035068786
 20
6.7474514954
 30
0.0
 10
13.0324666279
 20
6.7559894798
 30
0.0
 10
13.0290366947
 20
6.7678544065
 30
0.0
 10
13.0249156161
 20
6.7833084159
 30
0.0
 10
13.0202819453
 20
6.8026054317
 30
0.0
 10
13.0159101363
 20
6.8228392452
 30
0.0
 10
13.0118074527
 20
6.8439765282
 30
0.0
 10
13.007980716
 20
6.865982583
 30
0.0
 10
13.0044363061
 20
6.8888212111
 30
0.0
 10
13.0011801478
 20
6.9124548316
 30
0.0
 10
12.9982176527
 20
6.9368445178
 30
0.0
 10
12.9955537513
 20
6.9619500813
 30
0.0
 10
12.9931928934
 20
6.9877301505
 30
0.0
 10
12.991139025
 20
7.0141422184
 30
0.0
 10
12.9893955476
 20
7.0411427413
 30
0.0
 10
12.9879653763
 20
7.0686871915
 30
0.0
 10
12.9868509196
 20
7.0967300367
 30
0.0
 10
12.986053994
 20
7.1252253526
 30
0.0
 10
12.9855760085
 20
7.1541256675
 30
0.0
 10
12.985471041
 20
7.1735229345
 30
0.0
 10
12.985471041
 20
7.1832803178
 30
0.0
  0
SPLINE
  5
349
100
AcDbEntity
  8
0
100
AcDbSpline
 62
7
  6
CONTINUOUS
 70
0
 71
3
 72
60
 73
56
 74
0
 42
0.0000001
 43
0.0000001
 44
0.0000000001
 40
0.0
 40
0.0
 40
0.0
 40
0.0
 40
0.0095822002
 40
0.0187369924
 40
0.0274867135
 40
0.0358591658
 40
0.0438870963
 40
0.0516083429
 40
0.0590660196
 40
0.0663086121
 40
0.0733896747
 40
0.0803668217
 40
0.0873005313
 40
0.0942524971
 40
0.1012839011
 40
0.1084536914
 40
0.115817217
 40
0.123425094
 40
0.1313227642
 40
0.1395501611
 40
0.1481419045
 40
0.1571276302
 40
0.1665322814
 40
0.1763768182
 40
0.1866783986
 40
0.1974510881
 40
0.20870609
 40
0.2204521222
 40
0.2326958587
 40
0.2454419251
 40
0.2586934556
 40
0.2724519705
 40
0.2867177534
 40
0.3014899277
 40
0.3167664669
 40
0.3325445437
 40
0.3488202857
 40
0.365589175
 40
0.3828458756
 40
0.400584382
 40
0.4187981383
 40
0.4374798679
 40
0.4566219099
 40
0.4762159462
 40
0.5167240395
 40
0.5589296956
 40
0.6027512093
 40
0.648101029
 40
0.6948863323
 40
0.7430095268
 40
0.7923686515
 40
0.8428581366
 40
0.894368089
 40
0.9467878086
 40
1.0
 40
1.0
 40
1.0
 40
1.0
 10
13.2377901838
 20
6.7004745744
 30
0.0
 10
13.2363749527
 20
6.6991574868
 30
0.0
 10
13.2335456912
 20
6.696647361
 30
0.0
 10
13.229204777
 20
6.6931916893
 30
0.0
 10
13.2248683205
 20
6.6901359839
 30
0.0
 10
13.2205388455
 20
6.6874823489
 30
0.0
 10
13.2162184384
 20
6.6852326895
 30
0.0
 10
13.2119093823
 20
6.6833887848
 30
0.0
 10
13.2076140988
 20
6.6819523821
 30
0.0
 10
13.2033352098
 20
6.6809252693
 30
0.0
 10
13.1990756929
 20
6.6803086888
 30
0.0
 10
13.1948387524
 20
6.6801038627
 30
0.0
 10
13.1906278833
 20
6.680311158
 30
0.0
 10
13.1864466458
 20
6.6809305417
 30
0.0
 10
13.1822985262
 20
6.681961275
 30
0.0
 10
13.1781866889
 20
6.6834019561
 30
0.0
 10
13.1741140508
 20
6.6852510434
 30
0.0
 10
13.1700830424
 20
6.6875064382
 30
0.0
 10
13.1660959747
 20
6.6901662208
 30
0.0
 10
13.1621548574
 20
6.6932281865
 30
0.0
 10
13.158261649
 20
6.6966901621
 30
0.0
 10
13.1544183298
 20
6.7005499174
 30
0.0
 10
13.1506267341
 20
6.704804983
 30
0.0
 10
13.1468889275
 20
6.7094529006
 30
0.0
 10
13.1432067779
 20
6.7144908677
 30
0.0
 10
13.1395823457
 20
6.7199160007
 30
0.0
 10
13.1360176179
 20
6.7257251394
 30
0.0
 10
13.1325145606
 20
6.7319149005
 30
0.0
 10
13.1290752535
 20
6.7384817183
 30
0.0
 10
13.125701577
 20
6.7454217263
 30
0.0
 10
13.12239559
 20
6.7527309015
 30
0.0
 10
13.1191591601
 20
6.7604049365
 30
0.0
 10
13.1159942149
 20
6.7684393315
 30
0.0
 10
13.1129026475
 20
6.7768293597
 30
0.0
 10
13.1098862264
 20
6.7855700615
 30
0.0
 10
13.1069468274
 20
6.7946562899
 30
0.0
 10
13.1040861134
 20
6.804082657
 30
0.0
 10
13.1013058505
 20
6.8138435923
 30
0.0
 10
13.0986076679
 20
6.8239333079
 30
0.0
 10
13.0959931618
 20
6.8343458219
 30
0.0
 10
13.0934639391
 20
6.8450749609
 30
0.0
 10
13.0910214442
 20
6.8561143503
 30
0.0
 10
13.0886671899
 20
6.8674574508
 30
0.0
 10
13.0856138368
 20
6.8831516955
 30
0.0
 10
13.0820383518
 20
6.9034831225
 30
0.0
 10
13.0781667834
 20
6.9287191973
 30
0.0
 10
13.0746775283
 20
6.9549966248
 30
0.0
 10
13.0715789794
 20
6.9822529339
 30
0.0
 10
13.0688786247
 20
7.0104234461
 30
0.0
 10
13.0665829854
 20
7.0394412192
 30
0.0
 10
13.0646975895
 20
7.0692373235
 30
0.0
 10
13.06322702
 20
7.0997408168
 30
0.0
 10
13.0621747797
 20
7.1308794148
 30
0.0
 10
13.0615435035
 20
7.1625787211
 30
0.0
 10
13.0614052134
 20
7.1838911064
 30
0.0
 10
13.0614052134
 20
7.1946271003
 30
0.0
  0
SPLINE
  5
34A
100
AcDbEntity
  8
0
100
AcDbSpline
 62
7
  6
CONTINUOUS
 70
0
 71
3
 72
50
 73
46
 74
0
 42
0.0000001
 43
0.0000001
 44
0.0000000001
 40
0.0
 40
0.0
 40
0.0
 40
0.0
 40
0.0378128611
 40
0.0760190334
 40
0.1145315696
 40
0.1532645103
 40
0.1921301506
 40
0.2310408617
 40
0.269908731
 40
0.3086460126
 40
0.347165323
 40
0.3853799084
 40
0.4232038959
 40
0.4605525481
 40
0.4973425198
 40
0.5334921181
 40
0.5689215678
 40
0.6035532829
 40
0.637312149
 40
0.6701258217
 40
0.7019250349
 40
0.7326439348
 40
0.7622204463
 40
0.7765622752
 40
0.7905971572
 40
0.8043186022
 40
0.8177204426
 40
0.8307968217
 40
0.84354232
 40
0.8559518158
 40
0.868020713
 40
0.8797447678
 40
0.8911203013
 40
0.9021441194
 40
0.912813603
 40
0.9231267987
 40
0.9330823728
 40
0.9426798717
 40
0.951919577
 40
0.960802784
 40
0.9693317719
 40
0.9775102131
 40
0.9853432686
 40
0.9928373107
 40
1.0
 40
1.0
 40
1.0
 40
1.0
 10
12.4947806991
 20
8.9076801047
 30
0.0
 10
12.4947806991
 20
8.9196045081
 30
0.0
 10
12.4949391911
 20
8.9435776228
 30
0.0
 10
12.4956416668
 20
8.9796895995
 30
0.0
 10
12.4968086773
 20
9.0160798928
 30
0.0
 10
12.4984373715
 20
9.0526605858
 30
0.0
 10
12.5005238817
 20
9.0893437877
 30
0.0
 10
12.5030631668
 20
9.1260410783
 30
0.0
 10
12.5060491232
 20
9.1626641184
 30
0.0
 10
12.5094745517
 20
9.1991247085
 30
0.0
 10
12.5133311946
 20
9.2353350535
 30
0.0
 10
12.5176097451
 20
9.2712079613
 30
0.0
 10
12.522299875
 20
9.3066570581
 30
0.0
 10
12.527390259
 20
9.3415969966
 30
0.0
 10
12.5328686016
 20
9.3759436621
 30
0.0
 10
12.538721666
 20
9.4096143773
 30
0.0
 10
12.5449353058
 20
9.4425281027
 30
0.0
 10
12.5514944984
 20
9.474605634
 30
0.0
 10
12.5583833808
 20
9.505769802
 30
0.0
 10
12.5655852841
 20
9.535945649
 30
0.0
 10
12.5730827749
 20
9.5650606707
 30
0.0
 10
12.5808577071
 20
9.5930447996
 30
0.0
 10
12.5876197324
 20
9.6155916785
 30
0.0
 10
12.5931618917
 20
9.6330071617
 30
0.0
 10
12.597333453
 20
9.6456108494
 30
0.0
 10
12.6015600367
 20
9.6578831
 30
0.0
 10
12.6058390962
 20
9.6698165487
 30
0.0
 10
12.6101680881
 20
9.6814040128
 30
0.0
 10
12.6145443404
 20
9.6926385424
 30
0.0
 10
12.6189652909
 20
9.7035133752
 30
0.0
 10
12.6234281985
 20
9.7140219995
 30
0.0
 10
12.6279304405
 20
9.7241580977
 30
0.0
 10
12.6324692638
 20
9.7339156038
 30
0.0
 10
12.6370419532
 20
9.7432886718
 30
0.0
 10
12.6416457799
 20
9.7522716859
 30
0.0
 10
12.6462779298
 20
9.7608592963
 30
0.0
 10
12.6509357083
 20
9.7690463541
 30
0.0
 10
12.6556162498
 20
9.7768280228
 30
0.0
 10
12.6603168635
 20
9.7841996326
 30
0.0
 10
12.6650346641
 20
9.7911568315
 30
0.0
 10
12.6697669212
 20
9.7976954941
 30
0.0
 10
12.674510904
 20
9.8038118043
 30
0.0
 10
12.6792639531
 20
9.8095022368
 30
0.0
 10
12.6840230994
 20
9.8147631095
 30
0.0
 10
12.6872701875
 20
9.8180550965
 30
0.0
 10
12.6888948228
 20
9.8196243738
 30
0.0
  0
SPLINE
  5
34B
100
AcDbEntity
  8
0
100
AcDbSpline
 62
7
  6
CONTINUOUS
 70
0
 71
3
 72
35
 73
31
 74
0
 42
0.0000001
 43
0.0000001
 44
0.0000000001
 40
0.0
 40
0.0
 40
0.0
 40
0.0
 40
0.0706858334
 40
0.1053968354
 40
0.1396421989
 40
0.1734004401
 40
0.2066576964
 40
0.2394102874
 40
0.2716626815
 40
0.3034278467
 40
0.3347260376
 40
0.3655844057
 40
0.3960367129
 40
0.4558822062
 40
0.4853788704
 40
0.5146634633
 40
0.5437974332
 40
0.5728458388
 40
0.6018759321
 40
0.6309553404
 40
0.6601491448
 40
0.6895177235
 40
0.71911532
 40
0.7489862102
 40
0.7791658275
 40
0.8096783386
 40
0.8405388031
 40
0.8717525837
 40
0.9352137373
 40
1.0
 40
1.0
 40
1.0
 40
1.0
 10
9.6979536475
 20
8.3694708809
 30
0.0
 10
9.6979536475
 20
8.3726309479
 30
0.0
 10
9.6979808788
 20
8.3773428441
 30
0.0
 10
9.6980647652
 20
8.3835851075
 30
0.0
 10
9.6981442471
 20
8.3881763681
 30
0.0
 10
9.6982333335
 20
8.3927024401
 30
0.0
 10
9.6983226676
 20
8.3971617578
 30
0.0
 10
9.6984012555
 20
8.4015539554
 30
0.0
 10
9.6984570406
 20
8.4058798117
 30
0.0
 10
9.6984766882
 20
8.4101410081
 30
0.0
 10
9.6984460649
 20
8.4143398582
 30
0.0
 10
9.6983503596
 20
8.4184791829
 30
0.0
 10
9.6981168882
 20
8.4238906874
 30
0.0
 10
9.6976917078
 20
8.4292328861
 30
0.0
 10
9.6970065637
 20
8.4344927667
 30
0.0
 10
9.696352596
 20
8.4383693621
 30
0.0
 10
9.6955418072
 20
8.4421959211
 30
0.0
 10
9.6945611363
 20
8.4459709634
 30
0.0
 10
9.6933992034
 20
8.4496918416
 30
0.0
 10
9.6920466207
 20
8.4533548211
 30
0.0
 10
9.6904964774
 20
8.4569552574
 30
0.0
 10
9.6887446994
 20
8.4604879564
 30
0.0
 10
9.6867895951
 20
8.4639471371
 30
0.0
 10
9.6846327209
 20
8.4673272793
 30
0.0
 10
9.6822777893
 20
8.470622862
 30
0.0
 10
9.6797309122
 20
8.4738290033
 30
0.0
 10
9.6769999534
 20
8.4769415492
 30
0.0
 10
9.673104495
 20
8.4809839815
 30
0.0
 10
9.6678192942
 20
8.4857814701
 30
0.0
 10
9.6632778284
 20
8.4892907493
 30
0.0
 10
9.6609257524
 20
8.4909808437
 30
0.0
  0
SPLINE
  5
34C
100
AcDbEntity
  8
0
100
AcDbSpline
 62
7
  6
CONTINUOUS
 70
0
 71
3
 72
22
 73
18
 74
0
 42
0.0000001
 43
0.0000001
 44
0.0000000001
 40
0.0
 40
0.0
 40
0.0
 40
0.0
 40
0.0764232545
 40
0.1504695904
 40
0.2222093747
 40
0.2917229258
 40
0.3591052293
 40
0.4244650752
 40
0.5495745629
 40
0.6096452701
 40
0.6682571278
 40
0.7255853937
 40
0.7818195315
 40
0.8371613214
 40
0.8918233081
 40
0.9460270045
 40
1.0
 40
1.0
 40
1.0
 40
1.0
 10
12.895949888
 20
10.0196242206
 30
0.0
 10
12.8970269647
 20
10.0206645969
 30
0.0
 10
12.8991807198
 20
10.0226791178
 30
0.0
 10
12.9024627096
 20
10.0255417579
 30
0.0
 10
12.9057432665
 20
10.0281959013
 30
0.0
 10
12.9090213251
 20
10.0306405262
 30
0.0
 10
12.9122961706
 20
10.0328749952
 30
0.0
 10
12.9165936751
 20
10.0355340337
 30
0.0
 10
12.9209480247
 20
10.037822775
 30
0.0
 10
12.925343898
 20
10.0396977096
 30
0.0
 10
12.9285888193
 20
10.0408719219
 30
0.0
 10
12.9318249944
 20
10.0418324144
 30
0.0
 10
12.935051545
 20
10.0425788841
 30
0.0
 10
12.9382674422
 20
10.0431109828
 30
0.0
 10
12.9414717254
 20
10.0434283622
 30
0.0
 10
12.9446631301
 20
10.0435308833
 30
0.0
 10
12.946783405
 20
10.0434558725
 30
0.0
 10
12.9478384549
 20
10.0433826989
 30
0.0
  0
SPLINE
  5
34D
100
AcDbEntity
  8
0
100
AcDbSpline
 62
7
  6
CONTINUOUS
 70
0
 71
3
 72
39
 73
35
 74
0
 42
0.0000001
 43
0.0000001
 44
0.0000000001
 40
0.0
 40
0.0
 40
0.0
 40
0.0
 40
0.0625540836
 40
0.1251298457
 40
0.1564251237
 40
0.1877211933
 40
0.2190158464
 40
0.2503063307
 40
0.2815904819
 40
0.3128645691
 40
0.3441261983
 40
0.3753709367
 40
0.4065952857
 40
0.4377961973
 40
0.4689704705
 40
0.4845494533
 40
0.5001218827
 40
0.5156877879
 40
0.5312477195
 40
0.5623478271
 40
0.5934379437
 40
0.6245338441
 40
0.6556553723
 40
0.686824
 40
0.7180595133
 40
0.7493764091
 40
0.7807803069
 40
0.8122639555
 40
0.8438033407
 40
0.8753540124
 40
0.9068484804
 40
0.9381959698
 40
0.9692868369
 40
1.0
 40
1.0
 40
1.0
 40
1.0
 10
9.5689708092
 20
8.1756358539
 30
0.0
 10
9.5742450198
 20
8.1770119467
 30
0.0
 10
9.5847228971
 20
8.1800517896
 30
0.0
 10
9.5975762735
 20
8.1846159424
 30
0.0
 10
9.6076661732
 20
8.1887618713
 30
0.0
 10
9.6151236553
 20
8.1921297121
 30
0.0
 10
9.6224533069
 20
8.1957668085
 30
0.0
 10
9.6296355332
 20
8.1996854283
 30
0.0
 10
9.6366474214
 20
8.203898437
 30
0.0
 10
9.6434622187
 20
8.2084194952
 30
0.0
 10
9.6500489982
 20
8.2132617654
 30
0.0
 10
9.656371751
 20
8.2184380946
 30
0.0
 10
9.6623898341
 20
8.2239589238
 30
0.0
 10
9.6680576462
 20
8.2298310074
 30
0.0
 10
9.6724496578
 20
8.2350202244
 30
0.0
 10
9.6757382713
 20
8.2393433915
 30
0.0
 10
9.6780861153
 20
8.2426700198
 30
0.0
 10
9.6803104267
 20
8.2460785643
 30
0.0
 10
9.6831034427
 20
8.2507272475
 30
0.0
 10
9.6862628608
 20
8.2567283525
 30
0.0
 10
9.6894964242
 20
8.2641944067
 30
0.0
 10
9.6921675736
 20
8.2718812747
 30
0.0
 10
9.6942923497
 20
8.2797428015
 30
0.0
 10
9.695907263
 20
8.2877359021
 30
0.0
 10
9.6970651857
 20
8.2958238115
 30
0.0
 10
9.6978303314
 20
8.3039777015
 30
0.0
 10
9.6982731438
 20
8.3121761022
 30
0.0
 10
9.6984659781
 20
8.320402833
 30
0.0
 10
9.698479882
 20
8.3286440943
 30
0.0
 10
9.69838202
 20
8.3368854397
 30
0.0
 10
9.6982332849
 20
8.3451091842
 30
0.0
 10
9.6980857248
 20
8.3532928818
 30
0.0
 10
9.6979796751
 20
8.3614091867
 30
0.0
 10
9.6979536475
 20
8.366794629
 30
0.0
 10
9.6979536475
 20
8.3694708809
 30
0.0
  0
ELLIPSE
  5
34E
100
AcDbEntity
  8
0
100
AcDbEllipse
 62
7
  6
CONTINUOUS
 10
10.3136829674
 20
7.4126910576
 30
0.0
 11
-0.2017587872
 21
0.2147900801
 31
0.0
 40
0.693386895
 41
0.0
 42
6.2831853072
  0
ENDSEC
  0
SECTION
  2
OBJECTS
  0
DICTIONARY
  5
C
100
AcDbDictionary
280
0
281
1
  3
ACAD_GROUP
350
D
  3
ACAD_MLINESTYLE
350
17
  3
ACAD_LAYOUT
350
1A
  3
ACAD_PLOTSETTINGS
350
19
  3
ACAD_PLOTSTYLENAME
350
E
  3
ACAD_IMAGE_DICT
350
       350
  3
ACAD_IMAGE_VARS
350
       351
  3
ACAD_TABLESTYLE
350
       352
  0
IMAGEDEF_REACTOR
  5
34F
100
AcDbRasterImageDefReactor
 90
2
330
26D
  0
DICTIONARY
  5
D
102
{ACAD_REACTORS
330
C
102
}
100
AcDbDictionary
280
0
281
1
  0
ACDBDICTIONARYWDFLT
  5
E
102
{ACAD_REACTORS
330
C
102
}
100
AcDbDictionary
281
1
  3
Normal
350
F
100
AcDbDictionaryWithDefault
340
F
  0
DICTIONARY
  5
350
330
C
100
AcDbDictionary
281
1
  3
X7K_assy_2_img_1
350
       355
  0
RASTERVARIABLES
  5
351
330
C
100
AcDbRasterVariables
 90
0
 70
0
 71
1
 72
5
  0
DICTIONARY
  5
17
102
{ACAD_REACTORS
330
C
102
}
100
AcDbDictionary
280
0
281
1
  3
Standard
350
18
  0
DICTIONARY
  5
352
330
C
100
AcDbDictionary
281
1
  3
Standard
350
       356
  3
Standard1
350
       357
  0
DICTIONARY
  5
19
102
{ACAD_REACTORS
330
C
102
}
100
AcDbDictionary
281
1
  0
DICTIONARY
  5
1A
102
{ACAD_REACTORS
330
C
102
}
100
AcDbDictionary
281
1
  3
Model
350
353
  3
Layout1
350
354
  0
ACDBPLACEHOLDER
  5
F
102
{ACAD_REACTORS
330
E
102
}
  0
MLINESTYLE
  5
18
102
{ACAD_REACTORS
330
17
102
}
100
AcDbMlineStyle
  2
STANDARD
 70
0
  3

 62
256
 51
90.0
 52
90.0
 71
2
 49
0.5
 62
256
  6
BYLAYER
 49
-0.5
 62
256
  6
BYLAYER
  0
LAYOUT
  5
353
102
{ACAD_REACTORS
330
1A
102
}
100
AcDbPlotSettings
  1

  2
none_device
  4
ANSI_C_(22.00_x_17.00_Inches)
  6

 40
0.0
 41
0.0
 42
0.0
 43
0.0
 44
558.8
 45
431.8
 46
0.0
 47
0.0
 48
0.0
 49
0.0
140
0.0
141
0.0
142
1.0
143
1.0
 70
1024
 72
0
 73
0
 74
0
  7

 75
0
147
1.0
148
0.0
149
0.0
100
AcDbLayout
  1
Model
 70
0
 71
0
 10
0.0
 20
0.0
 11
22.0
 21
17.0
 12
0.0
 22
0.0
 32
0.0
 14
0.0
 24
0.0
 34
0.0
 15
0.0
 25
0.0
 35
0.0
146
0.0
 13
0.0
 23
0.0
 33
0.0
 16
1.0
 26
0.0
 36
0.0
 17
0.0
 27
1.0
 37
0.0
 76
0
330
208
345
0
346
0
  0
LAYOUT
  5
354
102
{ACAD_REACTORS
330
1A
102
}
100
AcDbPlotSettings
  1

  2
none_device
  4
ANSI_C_(22.00_x_17.00_Inches)
  6

 40
0.0
 41
0.0
 42
0.0
 43
0.0
 44
558.8
 45
431.8
 46
0.0
 47
0.0
 48
0.0
 49
0.0
140
0.0
141
0.0
142
1.0
143
1.0
 70
0
 72
0
 73
0
 74
0
  7

 75
0
147
1.0
148
0.0
149
0.0
100
AcDbLayout
  1
Layout1
 70
0
 71
1
 10
0.0
 20
0.0
 11
22.0
 21
17.0
 12
0.0
 22
0.0
 32
0.0
 14
0.0
 24
0.0
 34
0.0
 15
0.0
 25
0.0
 35
0.0
146
0.0
 13
0.0
 23
0.0
 33
0.0
 16
1.0
 26
0.0
 36
0.0
 17
0.0
 27
1.0
 37
0.0
 76
0
330
209
345
0
346
0
  0
IMAGEDEF
  5
355
102
{ACAD_REACTORS
330
350
330
34F
102
}
100
AcDbRasterImageDef
 90
0
  1
X7K_assy_2_img_1.png
 10
369.0
 20
92.0
 11
0.0066666667
 21
0.0066666667
280
1
281
0
  0
TABLESTYLE
  5
356
102
{ACAD_REACTORS
330
352
330
270
102
}
330
352
100
AcDbTableStyle
  3
Standard
 70
0
 71
0
 40
0.06
 41
0.06
280
1
281
1
  7
Standard
140
0.18
170
1
 62
0
 63
7
283
0
  7
Standard
140
0.18
170
1
 62
0
 63
7
283
0
  7
Standard
140
0.18
170
1
 62
0
 63
7
283
0
  0
TABLESTYLE
  5
357
102
{ACAD_REACTORS
330
352
330
26F
102
}
330
352
100
AcDbTableStyle
  3
Standard1
 70
1
 71
0
 40
0.06
 41
0.06
280
1
281
1
  7
Standard
140
0.18
170
1
 62
0
 63
7
283
0
  7
Standard
140
0.18
170
1
 62
0
 63
7
283
0
  7
Standard
140
0.18
170
1
 62
0
 63
7
283
0
  0
ENDSEC
  0
EOF
