999
DXF file: X6W_assy_2.dxf
999
Pro/ENGINEER 2014200 by Parametric Technology Corporation
  0
SECTION
  2
HEADER
  9
$ACADVER
  1
AC1021
  9
$DWGCODEPAGE
  3
ANSI_1252
  9
$EXTMAX
 10
22.0
 20
17.0
 30
0.0
  9
$EXTMIN
 10
0.0
 20
0.0
 30
0.0
  9
$LIMMIN
 10
0.0
 20
0.0
  9
$LIMMAX
 10
22.0
 20
17.0
  9
$VIEWCTR
 10
11.0
 20
8.5
  9
$VIEWSIZE
 40
17.0
  9
$CLAYER
  8
0
  9
$LTSCALE
 40
1.21
  9
$CELTYPE
  6
BYLAYER
  9
$DIMSCALE
 40
1.0
  9
$DIMASZ
 40
0.1875
  9
$DIMEXO
 40
0.0625
  9
$DIMDLI
 40
0.836
  9
$DIMEXE
 40
0.125
  9
$DIMCEN
 40
0.198
  9
$DIMLFAC
 40
1.0
  9
$DIMBLK
  1
_FILLED
  9
$DIMTXT
 40
0.1
  9
$DIMTOL
 70
0
  9
$DIMLIM
 70
0
  9
$DIMTFAC
 40
1.0
  9
$DIMGAP
 40
0.09
  9
$DIMDSEP
 70
46
  9
$AUNITS
 70
0
  9
$PDMODE
 70
3
  9
$PDSIZE
 40
0.3125
  9
$HANDSEED
  5
30A
  9
$TILEMODE
 70
1
  9
$MEASUREMENT
 70
0
  9
$INSUNITS
 70
1
  0
ENDSEC
  0
SECTION
  2
CLASSES
  0
CLASS
  1
ACDBDICTIONARYWDFLT
  2
AcDbDictionaryWithDefault
  3
AutoCAD 2000
 90
0
 91
1
280
0
281
0
  0
CLASS
  1
ACDBPLACEHOLDER
  2
AcDbPlaceHolder
  3
AutoCAD 2000
 90
0
 91
1
280
0
281
0
  0
CLASS
  1
LAYOUT
  2
AcDbLayout
  3
AutoCAD 2000
 90
0
 91
0
280
0
281
0
  0
CLASS
  1
RASTERVARIABLES
  2
AcDbRasterVariables
  3
ISM
 90
0
 91
1
280
0
281
0
  0
CLASS
  1
IMAGEDEF
  2
AcDbRasterImageDef
  3
ISM
 90
0
 91
1
280
0
281
0
  0
CLASS
  1
IMAGEDEF_REACTOR
  2
AcDbRasterImageDefReactor
  3
ISM
 90
0
 91
1
280
0
281
0
  0
CLASS
  1
IMAGE
  2
AcDbRasterImage
  3
ISM
 90
127
 91
1
280
0
281
1
  0
CLASS
  1
TABLESTYLE
  2
AcDbTableStyle
  3
ObjectDBX Classes
 90
2047
 91
1
280
0
281
0
  0
CLASS
  1
ACAD_TABLE
  2
AcDbTable
  3
ObjectDBX Classes
 90
1025
 91
3
280
0
281
1
  0
ENDSEC
  0
SECTION
  2
TABLES
  0
TABLE
  2
VPORT
  5
8
100
AcDbSymbolTable
 70
2
  0
VPORT
  5
1F4
100
AcDbSymbolTableRecord
100
AcDbViewportTableRecord
  2
*ACTIVE
 70
0
 10
0.0
 20
0.0
 11
1.0
 21
1.0
 12
11.0
 22
8.5
 13
0.0
 23
0.0
 14
1.0
 24
1.0
 15
0.0
 25
0.0
 16
0.0
 26
0.0
 36
1.0
 17
0.0
 27
0.0
 37
0.0
 40
17.0
 41
1.2941176471
 42
50.0
 43
0.0
 44
0.0
 50
0.0
 51
0.0
 71
0
 72
100
 73
1
 74
1
 75
0
 76
0
 77
0
 78
0
  0
ENDTAB
  0
TABLE
  2
LTYPE
  5
5
100
AcDbSymbolTable
 70
6
  0
LTYPE
  5
14
100
AcDbSymbolTableRecord
100
AcDbLinetypeTableRecord
  2
BYBLOCK
 70
0
  3

 72
65
 73
0
 40
0.0
  0
LTYPE
  5
15
100
AcDbSymbolTableRecord
100
AcDbLinetypeTableRecord
  2
BYLAYER
 70
0
  3

 72
65
 73
0
 40
0.0
  0
LTYPE
  5
16
100
AcDbSymbolTableRecord
100
AcDbLinetypeTableRecord
  2
CONTINUOUS
 70
64
  3
Solid line
 72
65
 73
0
 40
0.0
  0
LTYPE
  5
1F5
100
AcDbSymbolTableRecord
100
AcDbLinetypeTableRecord
  2
CENTER
 70
64
  3
____ _ ____ _ ____ _ ____ _ ____ _ ____ _ ____
 72
65
 73
4
 40
0.6
 49
0.375
 74
0
 49
-0.075
 74
0
 49
0.075
 74
0
 49
-0.075
 74
0
  0
LTYPE
  5
1F6
100
AcDbSymbolTableRecord
100
AcDbLinetypeTableRecord
  2
HIDDEN
 70
64
  3
- - - - - - - - - - - - - - - - - - - -
 72
65
 73
2
 40
0.2
 49
0.1
 74
0
 49
-0.1
 74
0
  0
LTYPE
  5
1F7
100
AcDbSymbolTableRecord
100
AcDbLinetypeTableRecord
  2
PHANTOM
 70
64
  3
_____ _ _ _____ _ _ _____ _ _ _____
 72
65
 73
6
 40
0.8
 49
0.45
 74
0
 49
-0.05
 74
0
 49
0.1
 74
0
 49
-0.05
 74
0
 49
0.1
 74
0
 49
-0.05
 74
0
  0
LTYPE
  5
1F8
100
AcDbSymbolTableRecord
100
AcDbLinetypeTableRecord
  2
DOT
 70
64
  3
. . . . . . . . . . . . . . . . . . . .
 72
65
 73
2
 40
0.2
 49
0.1
 74
0
 49
-0.1
 74
0
  0
LTYPE
  5
1F9
100
AcDbSymbolTableRecord
100
AcDbLinetypeTableRecord
  2
DASHED
 70
64
  3
- - - - - - - - - - - - - - - - - - - -
 72
65
 73
2
 40
0.2
 49
0.1
 74
0
 49
-0.1
 74
0
  0
ENDTAB
  0
TABLE
  2
LAYER
  5
2
100
AcDbSymbolTable
 70
36
  0
LAYER
  5
10
100
AcDbSymbolTableRecord
100
AcDbLayerTableRecord
  2
0
 70
0
 62
7
  6
CONTINUOUS
370
-3
390
F
  0
LAYER
  5
1FA
100
AcDbSymbolTableRecord
100
AcDbLayerTableRecord
  2
DEFAULT_1
 70
0
 62
7
  6
CENTER
370
-3
390
F
  0
LAYER
  5
1FB
100
AcDbSymbolTableRecord
100
AcDbLayerTableRecord
  2
DEFAULT_2
 70
0
 62
8
  6
HIDDEN
370
-3
390
F
  0
LAYER
  5
1FC
100
AcDbSymbolTableRecord
100
AcDbLayerTableRecord
  2
DEFAULT_3
 70
0
 62
7
  6
PHANTOM
370
-3
390
F
  0
LAYER
  5
1FD
100
AcDbSymbolTableRecord
100
AcDbLayerTableRecord
  2
DATUM_PLANES
 70
0
 62
7
  6
CONTINUOUS
370
-3
390
F
  0
LAYER
  5
1FE
100
AcDbSymbolTableRecord
100
AcDbLayerTableRecord
  2
DIMENSIONS
 70
0
 62
7
  6
CONTINUOUS
370
-3
390
F
  0
LAYER
  5
1FF
100
AcDbSymbolTableRecord
100
AcDbLayerTableRecord
  2
PARAMETERDIMENSIONS
 70
0
 62
7
  6
CONTINUOUS
370
-3
390
F
  0
LAYER
  5
200
100
AcDbSymbolTableRecord
100
AcDbLayerTableRecord
  2
PLANE
 70
0
 62
7
  6
CONTINUOUS
370
-3
390
F
  0
LAYER
  5
201
100
AcDbSymbolTableRecord
100
AcDbLayerTableRecord
  2
PORT_AREAS
 70
0
 62
7
  6
CONTINUOUS
370
-3
390
F
  0
LAYER
  5
202
100
AcDbSymbolTableRecord
100
AcDbLayerTableRecord
  2
SUNNBOMCOSMETIC
 70
0
 62
7
  6
CONTINUOUS
370
-3
390
F
  0
LAYER
  5
203
100
AcDbSymbolTableRecord
100
AcDbLayerTableRecord
  2
SUNNBOMSTAMPING
 70
0
 62
7
  6
CONTINUOUS
370
-3
390
F
  0
LAYER
  5
204
100
AcDbSymbolTableRecord
100
AcDbLayerTableRecord
  2
THREADS
 70
0
 62
7
  6
CONTINUOUS
370
-3
390
F
  0
ENDTAB
  0
TABLE
  2
STYLE
  5
3
100
AcDbSymbolTable
 70
1
  0
STYLE
  5
11
100
AcDbSymbolTableRecord
100
AcDbTextStyleTableRecord
  2
STANDARD
 70
0
 40
0.0
 41
0.8
 50
0.0
 71
0
 42
0.2
  3
txt
  4

  0
STYLE
  5
205
100
AcDbSymbolTableRecord
100
AcDbTextStyleTableRecord
  2
TEXTSTYLE_1
 70
0
 40
0.0
 41
0.8
 50
0.0
 71
0
 42
0.2
  3
gdt
  4

  0
ENDTAB
  0
TABLE
  2
VIEW
  5
6
100
AcDbSymbolTable
 70
0
  0
ENDTAB
  0
TABLE
  2
UCS
  5
7
100
AcDbSymbolTable
 70
0
  0
ENDTAB
  0
TABLE
  2
APPID
  5
9
100
AcDbSymbolTable
 70
1
  0
APPID
  5
206
100
AcDbSymbolTableRecord
100
AcDbRegAppTableRecord
  2
ACAD
 70
0
  0
ENDTAB
  0
TABLE
  2
BLOCK_RECORD
  5
1
100
AcDbSymbolTable
 70
0
  0
BLOCK_RECORD
  5
207
100
AcDbSymbolTableRecord
100
AcDbBlockTableRecord
  2
*Model_Space
  0
BLOCK_RECORD
  5
208
100
AcDbSymbolTableRecord
100
AcDbBlockTableRecord
  2
*Paper_Space
  0
BLOCK_RECORD
  5
209
100
AcDbSymbolTableRecord
100
AcDbBlockTableRecord
  2
SUN_FIRST_THIRD_ANGLE_BL0
  0
BLOCK_RECORD
  5
20A
100
AcDbSymbolTableRecord
100
AcDbBlockTableRecord
  2
*T1
  0
BLOCK_RECORD
  5
20B
100
AcDbSymbolTableRecord
100
AcDbBlockTableRecord
  2
*T2
  0
BLOCK_RECORD
  5
20C
100
AcDbSymbolTableRecord
100
AcDbBlockTableRecord
  2
*T3
  0
ENDTAB
  0
TABLE
  2
DIMSTYLE
  5
A
100
AcDbSymbolTable
 70
1
100
AcDbDimStyleTable
 71
0
  0
DIMSTYLE
105
20D
100
AcDbSymbolTableRecord
100
AcDbDimStyleTableRecord
  2
STANDARD
 70
0
  3

  4

 40
1.0
 41
0.1875
 42
0.0625
 43
0.38
 44
0.125
 45
0.0
 46
0.0
 47
0.001
 48
0.001
140
0.1
141
0.09
142
0.0
143
25.4
144
1.0
145
0.0
146
1.0
147
0.09
 71
0.0
 72
0.0
 73
1
 74
1
 75
0
 76
0
 77
0
 78
4
170
0
171
2
172
0
173
0
174
0
175
0
176
0
177
0
178
0
270
2
271
3
272
3
273
2
274
2
275
0
280
0
281
0
282
0
283
1
284
4
285
0
286
0
287
3
288
0
340
11
278
46
  0
ENDTAB
  0
ENDSEC
  0
SECTION
  2
BLOCKS
  0
BLOCK
  5
20
100
AcDbEntity
  8
0
100
AcDbBlockBegin
  2
*Model_Space
 70
0
 10
0.0
 20
0.0
 30
0.0
  3
*Model_Space
  1

  0
ENDBLK
  5
21
100
AcDbEntity
  8
0
100
AcDbBlockEnd
  0
BLOCK
  5
1C
100
AcDbEntity
  8
0
100
AcDbBlockBegin
  2
*Paper_Space
 70
0
 10
0.0
 20
0.0
 30
0.0
  3
*Paper_Space
  1

  0
ENDBLK
  5
1D
100
AcDbEntity
  8
0
100
AcDbBlockEnd
  0
BLOCK
  5
20E
100
AcDbEntity
  8
0
100
AcDbBlockBegin
 62
2
  6
CONTINUOUS
  2
SUN_FIRST_THIRD_ANGLE_BL0
 70
64
 10
20.4816717061
 20
1.2289683772
  3
SUN_FIRST_THIRD_ANGLE_BL0
  1

  0
TEXT
  5
20F
100
AcDbEntity
  8
0
100
AcDbText
 62
2
  6
CONTINUOUS
 10
19.4750896608
 20
1.4136269581
  7
STANDARD
 40
0.08
  1
FIRST ANGLE
 41
0.8
 72
0
100
AcDbText
  0
TEXT
  5
210
100
AcDbEntity
  8
0
100
AcDbText
 62
2
  6
CONTINUOUS
 10
20.7842537513
 20
1.4047600029
  7
STANDARD
 40
0.08
  1
THIRD ANGLE
 41
0.8
 72
0
100
AcDbText
  0
LINE
  5
211
100
AcDbEntity
  8
0
100
AcDbLine
 62
7
  6
CONTINUOUS
 10
19.4767170086
 20
1.1727031207
 11
19.6334271527
 21
1.1717972817
  0
LINE
  5
212
100
AcDbEntity
  8
0
100
AcDbLine
 62
7
  6
CONTINUOUS
 10
19.6596964832
 20
1.1717972817
 11
19.6950230232
 21
1.171593082
  0
LINE
  5
213
100
AcDbEntity
  8
0
100
AcDbLine
 62
7
  6
CONTINUOUS
 10
19.7194818561
 20
1.1708914427
 11
19.8852396156
 21
1.1699333054
  0
LINE
  5
214
100
AcDbEntity
  8
0
100
AcDbLine
 62
7
  6
CONTINUOUS
 10
19.4758111696
 20
1.2723454088
 11
19.88525039
 21
1.3511534004
  0
LINE
  5
215
100
AcDbEntity
  8
0
100
AcDbLine
 62
7
  6
CONTINUOUS
 10
19.88525039
 20
1.3511534004
 11
19.8831348489
 21
0.9851647912
  0
LINE
  5
216
100
AcDbEntity
  8
0
100
AcDbLine
 62
7
  6
CONTINUOUS
 10
19.8831348489
 20
0.9851647912
 11
19.4767170086
 21
1.0658141206
  0
LINE
  5
217
100
AcDbEntity
  8
0
100
AcDbLine
 62
7
  6
CONTINUOUS
 10
19.4767170086
 20
1.0658141206
 11
19.4779056764
 21
1.2714536432
  0
CIRCLE
  5
218
100
AcDbEntity
  8
0
100
AcDbCircle
 62
7
  6
CONTINUOUS
 10
20.2068232291
 20
1.1717972817
 40
0.175742101
  0
CIRCLE
  5
219
100
AcDbEntity
  8
0
100
AcDbCircle
 62
7
  6
CONTINUOUS
 10
20.2068232291
 20
1.1717972817
 40
0.1005522074
  0
LINE
  5
21A
100
AcDbEntity
  8
0
100
AcDbLine
 62
7
  6
CONTINUOUS
 10
20.2077290681
 20
1.3756110529
 11
20.2071171714
 21
1.2379342989
  0
LINE
  5
21B
100
AcDbEntity
  8
0
100
AcDbLine
 62
7
  6
CONTINUOUS
 10
20.2077290681
 20
1.2016899681
 11
20.2074674401
 21
1.1428236749
  0
LINE
  5
21C
100
AcDbEntity
  8
0
100
AcDbLine
 62
7
  6
CONTINUOUS
 10
20.208634907
 20
1.101141841
 11
20.2080230104
 21
0.963465087
  0
LINE
  5
21D
100
AcDbEntity
  8
0
100
AcDbLine
 62
7
  6
CONTINUOUS
 10
20.0066328138
 20
1.1745147986
 11
20.1443095678
 21
1.1739029019
  0
LINE
  5
21E
100
AcDbEntity
  8
0
100
AcDbLine
 62
7
  6
CONTINUOUS
 10
20.1832714155
 20
1.1727031207
 11
20.238153505
 21
1.172335442
  0
LINE
  5
21F
100
AcDbEntity
  8
0
100
AcDbLine
 62
7
  6
CONTINUOUS
 10
20.2756669918
 20
1.1717972817
 11
20.407916871
 21
1.1712095044
  0
CIRCLE
  5
220
100
AcDbEntity
  8
0
100
AcDbCircle
 62
7
  6
CONTINUOUS
 10
20.7509457401
 20
1.1693297793
 40
0.1722024983
  0
CIRCLE
  5
221
100
AcDbEntity
  8
0
100
AcDbCircle
 62
7
  6
CONTINUOUS
 10
20.7509457401
 20
1.1693297793
 40
0.0985164967
  0
LINE
  5
222
100
AcDbEntity
  8
0
100
AcDbLine
 62
7
  6
CONTINUOUS
 10
20.7169767782
 20
1.170462078
 11
20.7825395137
 21
1.1682766535
  0
LINE
  5
223
100
AcDbEntity
  8
0
100
AcDbLine
 62
7
  6
CONTINUOUS
 10
20.8177513651
 20
1.1693297793
 11
20.947965719
 21
1.1693297793
  0
LINE
  5
224
100
AcDbEntity
  8
0
100
AcDbLine
 62
7
  6
CONTINUOUS
 10
20.6875370113
 20
1.170462078
 11
20.5573226574
 21
1.170462078
  0
LINE
  5
225
100
AcDbEntity
  8
0
100
AcDbLine
 62
7
  6
CONTINUOUS
 10
20.7486811426
 20
1.1987695462
 11
20.7486811426
 21
1.1432869085
  0
LINE
  5
226
100
AcDbEntity
  8
0
100
AcDbLine
 62
7
  6
CONTINUOUS
 10
20.7498134414
 20
1.1059210505
 11
20.7498134414
 21
0.9757066966
  0
LINE
  5
227
100
AcDbEntity
  8
0
100
AcDbLine
 62
7
  6
CONTINUOUS
 10
20.7486811426
 20
1.2338708068
 11
20.7486811426
 21
1.3640851607
  0
LINE
  5
228
100
AcDbEntity
  8
0
100
AcDbLine
 62
7
  6
CONTINUOUS
 10
21.0702539817
 20
1.2701043662
 11
21.4790138229
 21
1.3448360823
  0
LINE
  5
229
100
AcDbEntity
  8
0
100
AcDbLine
 62
7
  6
CONTINUOUS
 10
21.4790138229
 20
1.3448360823
 11
21.4790138229
 21
0.9779712941
  0
LINE
  5
22A
100
AcDbEntity
  8
0
100
AcDbLine
 62
7
  6
CONTINUOUS
 10
21.4790138229
 20
0.9779712941
 11
21.069121683
 21
1.0617614
  0
LINE
  5
22B
100
AcDbEntity
  8
0
100
AcDbLine
 62
7
  6
CONTINUOUS
 10
21.0702539817
 20
1.2701043662
 11
21.069121683
 21
1.0617614
  0
LINE
  5
22C
100
AcDbEntity
  8
0
100
AcDbLine
 62
7
  6
CONTINUOUS
 10
21.4790138229
 20
1.1693297793
 11
21.3159628059
 21
1.1693297793
  0
LINE
  5
22D
100
AcDbEntity
  8
0
100
AcDbLine
 62
7
  6
CONTINUOUS
 10
21.2876553377
 20
1.1693297793
 11
21.2502894796
 21
1.1693297793
  0
LINE
  5
22E
100
AcDbEntity
  8
0
100
AcDbLine
 62
7
  6
CONTINUOUS
 10
21.2208497126
 20
1.1659328831
 11
21.0713862804
 21
1.1659328831
  0
LINE
  5
22F
100
AcDbEntity
  8
0
100
AcDbLine
 62
7
  6
CONTINUOUS
 10
20.4796138713
 20
1.5284908897
 11
20.4766766948
 21
0.9294458646
  0
ENDBLK
  5
230
100
AcDbEntity
  8
0
  6
BYBLOCK
 62
0
100
AcDbBlockEnd
  0
BLOCK
  5
231
100
AcDbEntity
  8
0
100
AcDbBlockBegin
  2
*T1
 70
1
 10
0.0
 20
0.0
  3
*T1
  1

  0
LINE
  5
232
100
AcDbEntity
  8
0
100
AcDbLine
 62
2
  6
CONTINUOUS
 10
9.275
 20
0.0
 11
-0.0
 21
0.0
  0
LINE
  5
233
100
AcDbEntity
  8
0
100
AcDbLine
 62
2
  6
CONTINUOUS
 10
9.275
 20
0.0
 11
9.275
 21
1.25
  0
LINE
  5
234
100
AcDbEntity
  8
0
100
AcDbLine
 62
2
  6
CONTINUOUS
 10
9.275
 20
0.625
 11
-0.0
 21
0.625
  0
LINE
  5
235
100
AcDbEntity
  8
0
100
AcDbLine
 62
2
  6
CONTINUOUS
 10
9.275
 20
1.25
 11
-0.0
 21
1.25
  0
LINE
  5
236
100
AcDbEntity
  8
0
100
AcDbLine
 62
2
  6
CONTINUOUS
 10
6.8
 20
0.0
 11
6.8
 21
1.25
  0
LINE
  5
237
100
AcDbEntity
  8
0
100
AcDbLine
 62
2
  6
CONTINUOUS
 10
6.4
 20
0.0
 11
6.4
 21
0.625
  0
LINE
  5
238
100
AcDbEntity
  8
0
100
AcDbLine
 62
2
  6
CONTINUOUS
 10
5.9
 20
0.0
 11
5.9
 21
0.625
  0
LINE
  5
239
100
AcDbEntity
  8
0
100
AcDbLine
 62
2
  6
CONTINUOUS
 10
5.2
 20
0.0
 11
5.2
 21
0.625
  0
LINE
  5
23A
100
AcDbEntity
  8
0
100
AcDbLine
 62
2
  6
CONTINUOUS
 10
4.1
 20
0.0
 11
4.1
 21
1.25
  0
LINE
  5
23B
100
AcDbEntity
  8
0
100
AcDbLine
 62
2
  6
CONTINUOUS
 10
-0.0
 20
0.0
 11
-0.0
 21
1.25
  0
MTEXT
  5
23C
100
AcDbEntity
  8
0
100
AcDbMText
 62
2
  6
CONTINUOUS
  7
STANDARD
 71
2
 72
1
 10
6.6
 20
0.325
 30
0.0
 11
1.0
 21
0.0
 31
0.0
 44
0.9
  1
2
 40
0.125
 41
0.2
  0
MTEXT
  5
23D
100
AcDbEntity
  8
0
100
AcDbMText
 62
2
  6
CONTINUOUS
  7
STANDARD
 71
2
 72
1
 10
6.15
 20
0.325
 30
0.0
 11
1.0
 21
0.0
 31
0.0
 44
0.9
  1
C
 40
0.125
 41
0.2
  0
MTEXT
  5
23E
100
AcDbEntity
  8
0
100
AcDbMText
 62
2
  6
CONTINUOUS
  7
STANDARD
 71
2
 72
1
 10
5.55
 20
0.325
 30
0.0
 11
1.0
 21
0.0
 31
0.0
 44
0.9
  1
2.000
 40
0.125
 41
1.0
  0
MTEXT
  5
23F
100
AcDbEntity
  8
0
100
AcDbMText
 62
2
  6
CONTINUOUS
  7
STANDARD
 71
2
 72
1
 10
4.65
 20
0.325
 30
0.0
 11
1.0
 21
0.0
 31
0.0
 44
0.9
  1
Jan-09-20
 40
0.125
 41
1.8
  0
MTEXT
  5
240
100
AcDbEntity
  8
0
100
AcDbMText
 62
2
  6
CONTINUOUS
  7
STANDARD
 71
2
 72
1
 10
2.05
 20
0.4625
 30
0.0
 11
1.0
 21
0.0
 31
0.0
 44
0.9
  1
Sandwich ISO 03\PTap in manifold - A and B
 40
0.125
 41
5.0
  0
MTEXT
  5
241
100
AcDbEntity
  8
0
100
AcDbMText
 62
2
  6
CONTINUOUS
  7
STANDARD
 71
1
 72
1
 10
6.45
 20
0.5625
 30
0.0
 11
1.0
 21
0.0
 31
0.0
 44
0.9
  1
SHEET
 40
0.06
 41
0.48
  0
MTEXT
  5
242
100
AcDbEntity
  8
0
100
AcDbMText
 62
2
  6
CONTINUOUS
  7
STANDARD
 71
1
 72
1
 10
5.95
 20
0.5625
 30
0.0
 11
1.0
 21
0.0
 31
0.0
 44
0.9
  1
DWG SIZE
 40
0.06
 41
0.768
  0
MTEXT
  5
243
100
AcDbEntity
  8
0
100
AcDbMText
 62
2
  6
CONTINUOUS
  7
STANDARD
 71
1
 72
1
 10
5.25
 20
0.5625
 30
0.0
 11
1.0
 21
0.0
 31
0.0
 44
0.9
  1
SCALE
 40
0.06
 41
0.48
  0
MTEXT
  5
244
100
AcDbEntity
  8
0
100
AcDbMText
 62
2
  6
CONTINUOUS
  7
STANDARD
 71
1
 72
1
 10
4.15
 20
0.5625
 30
0.0
 11
1.0
 21
0.0
 31
0.0
 44
0.9
  1
DATE
 40
0.06
 41
0.384
  0
MTEXT
  5
245
100
AcDbEntity
  8
0
100
AcDbMText
 62
2
  6
CONTINUOUS
  7
STANDARD
 71
1
 72
1
 10
0.05
 20
0.5625
 30
0.0
 11
1.0
 21
0.0
 31
0.0
 44
0.9
  1
DESCRIPTION
 40
0.06
 41
1.056
  0
MTEXT
  5
246
100
AcDbEntity
  8
0
100
AcDbMText
 62
2
  6
CONTINUOUS
  7
STANDARD
 71
2
 72
1
 10
5.45
 20
1.0375
 30
0.0
 11
1.0
 21
0.0
 31
0.0
 44
0.9
  1
ALL DIMENSIONS IN INCH\PVIEWS ARE THIRD ANGLE
 40
0.12
 41
4.224
  0
MTEXT
  5
247
100
AcDbEntity
  8
0
100
AcDbMText
 62
2
  6
CONTINUOUS
  7
STANDARD
 71
2
 72
1
 10
2.05
 20
0.95
 30
0.0
 11
1.0
 21
0.0
 31
0.0
 44
0.9
  1
X6W
 40
0.125
 41
0.6
  0
MTEXT
  5
248
100
AcDbEntity
  8
0
100
AcDbMText
 62
2
  6
CONTINUOUS
  7
STANDARD
 71
1
 72
1
 10
0.05
 20
1.1875
 30
0.0
 11
1.0
 21
0.0
 31
0.0
 44
0.9
  1
MODEL
 40
0.06
 41
0.48
  0
ENDBLK
  5
249
100
AcDbEntity
  8
0
  6
BYBLOCK
 62
0
100
AcDbBlockEnd
  0
BLOCK
  5
24A
100
AcDbEntity
  8
0
100
AcDbBlockBegin
  2
*T2
 70
1
 10
0.0
 20
0.0
  3
*T2
  1

  0
LINE
  5
24B
100
AcDbEntity
  8
0
100
AcDbLine
 62
2
  6
CONTINUOUS
 10
0.0
 20
0.0
 11
9.055
 21
0.0
  0
LINE
  5
24C
100
AcDbEntity
  8
0
100
AcDbLine
 62
2
  6
CONTINUOUS
 10
0.0
 20
0.0
 11
0.0
 21
-1.844
  0
LINE
  5
24D
100
AcDbEntity
  8
0
100
AcDbLine
 62
2
  6
CONTINUOUS
 10
0.0
 20
-0.344
 11
9.055
 21
-0.344
  0
LINE
  5
24E
100
AcDbEntity
  8
0
100
AcDbLine
 62
2
  6
CONTINUOUS
 10
0.0
 20
-0.594
 11
9.055
 21
-0.594
  0
LINE
  5
24F
100
AcDbEntity
  8
0
100
AcDbLine
 62
2
  6
CONTINUOUS
 10
0.0
 20
-0.844
 11
9.055
 21
-0.844
  0
LINE
  5
250
100
AcDbEntity
  8
0
100
AcDbLine
 62
2
  6
CONTINUOUS
 10
0.0
 20
-1.094
 11
9.055
 21
-1.094
  0
LINE
  5
251
100
AcDbEntity
  8
0
100
AcDbLine
 62
2
  6
CONTINUOUS
 10
0.0
 20
-1.344
 11
9.055
 21
-1.344
  0
LINE
  5
252
100
AcDbEntity
  8
0
100
AcDbLine
 62
2
  6
CONTINUOUS
 10
0.0
 20
-1.594
 11
9.055
 21
-1.594
  0
LINE
  5
253
100
AcDbEntity
  8
0
100
AcDbLine
 62
2
  6
CONTINUOUS
 10
0.0
 20
-1.844
 11
9.055
 21
-1.844
  0
LINE
  5
254
100
AcDbEntity
  8
0
100
AcDbLine
 62
2
  6
CONTINUOUS
 10
3.055
 20
0.0
 11
3.055
 21
-1.844
  0
LINE
  5
255
100
AcDbEntity
  8
0
100
AcDbLine
 62
2
  6
CONTINUOUS
 10
9.055
 20
0.0
 11
9.055
 21
-1.844
  0
MTEXT
  5
256
100
AcDbEntity
  8
0
100
AcDbMText
 62
2
  6
CONTINUOUS
  7
STANDARD
 71
2
 72
1
 10
1.5275
 20
-0.0995
 30
0.0
 11
1.0
 21
0.0
 31
0.0
 44
0.9
  1
Technical Data
 40
0.145
 41
3.248
  0
MTEXT
  5
257
100
AcDbEntity
  8
0
100
AcDbMText
 62
2
  6
CONTINUOUS
  7
STANDARD
 71
2
 72
1
 10
4.555
 20
-0.0995
 30
0.0
 11
1.0
 21
0.0
 31
0.0
 44
0.9
  1
U.S. Units
 40
0.145
 41
2.32
  0
MTEXT
  5
258
100
AcDbEntity
  8
0
100
AcDbMText
 62
2
  6
CONTINUOUS
  7
STANDARD
 71
2
 72
1
 10
7.555
 20
-0.0995
 30
0.0
 11
1.0
 21
0.0
 31
0.0
 44
0.9
  1
Metric Units
 40
0.145
 41
2.784
  0
MTEXT
  5
259
100
AcDbEntity
  8
0
100
AcDbMText
 62
2
  6
CONTINUOUS
  7
STANDARD
 71
2
 72
1
 10
1.5275
 20
-0.4065
 30
0.0
 11
1.0
 21
0.0
 31
0.0
 44
0.9
  1
Body Features
 40
0.125
 41
2.6
  0
MTEXT
  5
25A
100
AcDbEntity
  8
0
100
AcDbMText
 62
2
  6
CONTINUOUS
  7
STANDARD
 71
2
 72
1
 10
6.055
 20
-0.4065
 30
0.0
 11
1.0
 21
0.0
 31
0.0
 44
0.9
  1
Tap in manifold - A and B
 40
0.125
 41
5.0
  0
MTEXT
  5
25B
100
AcDbEntity
  8
0
100
AcDbMText
 62
2
  6
CONTINUOUS
  7
STANDARD
 71
2
 72
1
 10
1.5275
 20
-0.6565
 30
0.0
 11
1.0
 21
0.0
 31
0.0
 44
0.9
  1
Body Type
 40
0.125
 41
1.8
  0
MTEXT
  5
25C
100
AcDbEntity
  8
0
100
AcDbMText
 62
2
  6
CONTINUOUS
  7
STANDARD
 71
2
 72
1
 10
6.055
 20
-0.6565
 30
0.0
 11
1.0
 21
0.0
 31
0.0
 44
0.9
  1
Sandwich
 40
0.125
 41
1.6
  0
MTEXT
  5
25D
100
AcDbEntity
  8
0
100
AcDbMText
 62
2
  6
CONTINUOUS
  7
STANDARD
 71
2
 72
1
 10
1.5275
 20
-0.9065
 30
0.0
 11
1.0
 21
0.0
 31
0.0
 44
0.9
  1
Interface
 40
0.125
 41
1.8
  0
MTEXT
  5
25E
100
AcDbEntity
  8
0
100
AcDbMText
 62
2
  6
CONTINUOUS
  7
STANDARD
 71
2
 72
1
 10
6.055
 20
-0.9065
 30
0.0
 11
1.0
 21
0.0
 31
0.0
 44
0.9
  1
ISO 03
 40
0.125
 41
1.2
  0
MTEXT
  5
25F
100
AcDbEntity
  8
0
100
AcDbMText
 62
2
  6
CONTINUOUS
  7
STANDARD
 71
2
 72
1
 10
1.5275
 20
-1.1565
 30
0.0
 11
1.0
 21
0.0
 31
0.0
 44
0.9
  1
Stack Height
 40
0.125
 41
2.4
  0
MTEXT
  5
260
100
AcDbEntity
  8
0
100
AcDbMText
 62
2
  6
CONTINUOUS
  7
STANDARD
 71
2
 72
1
 10
4.555
 20
-1.1565
 30
0.0
 11
1.0
 21
0.0
 31
0.0
 44
0.9
  1
1.75 in.
 40
0.125
 41
1.6
  0
MTEXT
  5
261
100
AcDbEntity
  8
0
100
AcDbMText
 62
2
  6
CONTINUOUS
  7
STANDARD
 71
2
 72
1
 10
7.555
 20
-1.1565
 30
0.0
 11
1.0
 21
0.0
 31
0.0
 44
0.9
  1
44,5 mm
 40
0.125
 41
1.4
  0
MTEXT
  5
262
100
AcDbEntity
  8
0
100
AcDbMText
 62
2
  6
CONTINUOUS
  7
STANDARD
 71
2
 72
1
 10
1.5275
 20
-1.4065
 30
0.0
 11
1.0
 21
0.0
 31
0.0
 44
0.9
  1
Weight
 40
0.125
 41
1.2
  0
MTEXT
  5
263
100
AcDbEntity
  8
0
100
AcDbMText
 62
2
  6
CONTINUOUS
  7
STANDARD
 71
2
 72
1
 10
4.555
 20
-1.4065
 30
0.0
 11
1.0
 21
0.0
 31
0.0
 44
0.9
  1
0.775 lb.
 40
0.125
 41
1.8
  0
MTEXT
  5
264
100
AcDbEntity
  8
0
100
AcDbMText
 62
2
  6
CONTINUOUS
  7
STANDARD
 71
2
 72
1
 10
7.555
 20
-1.4065
 30
0.0
 11
1.0
 21
0.0
 31
0.0
 44
0.9
  1
0,352 kg.
 40
0.125
 41
1.8
  0
MTEXT
  5
265
100
AcDbEntity
  8
0
100
AcDbMText
 62
2
  6
CONTINUOUS
  7
STANDARD
 71
2
 72
1
 10
1.5275
 20
-1.6565
 30
0.0
 11
1.0
 21
0.0
 31
0.0
 44
0.9
  1
Model Weight
 40
0.125
 41
2.4
  0
MTEXT
  5
266
100
AcDbEntity
  8
0
100
AcDbMText
 62
2
  6
CONTINUOUS
  7
STANDARD
 71
2
 72
1
 10
4.555
 20
-1.6565
 30
0.0
 11
1.0
 21
0.0
 31
0.0
 44
0.9
  1
.70 lb
 40
0.125
 41
1.2
  0
MTEXT
  5
267
100
AcDbEntity
  8
0
100
AcDbMText
 62
2
  6
CONTINUOUS
  7
STANDARD
 71
2
 72
1
 10
7.555
 20
-1.6565
 30
0.0
 11
1.0
 21
0.0
 31
0.0
 44
0.9
  1
0,30 kg
 40
0.125
 41
1.4
  0
ENDBLK
  5
268
100
AcDbEntity
  8
0
  6
BYBLOCK
 62
0
100
AcDbBlockEnd
  0
BLOCK
  5
269
100
AcDbEntity
  8
0
100
AcDbBlockBegin
  2
*T3
 70
1
 10
0.0
 20
0.0
  3
*T3
  1

  0
LINE
  5
26A
100
AcDbEntity
  8
0
100
AcDbLine
 62
2
  6
CONTINUOUS
 10
0.0
 20
0.0
 11
4.6
 21
0.0
  0
LINE
  5
26B
100
AcDbEntity
  8
0
100
AcDbLine
 62
2
  6
CONTINUOUS
 10
0.0
 20
0.0
 11
0.0
 21
-0.93775
  0
LINE
  5
26C
100
AcDbEntity
  8
0
100
AcDbLine
 62
2
  6
CONTINUOUS
 10
0.0
 20
-0.34375
 11
4.6
 21
-0.34375
  0
LINE
  5
26D
100
AcDbEntity
  8
0
100
AcDbLine
 62
2
  6
CONTINUOUS
 10
0.0
 20
-0.68775
 11
4.6
 21
-0.68775
  0
LINE
  5
26E
100
AcDbEntity
  8
0
100
AcDbLine
 62
2
  6
CONTINUOUS
 10
0.0
 20
-0.93775
 11
4.6
 21
-0.93775
  0
LINE
  5
26F
100
AcDbEntity
  8
0
100
AcDbLine
 62
2
  6
CONTINUOUS
 10
1.3
 20
-0.34375
 11
1.3
 21
-0.93775
  0
LINE
  5
270
100
AcDbEntity
  8
0
100
AcDbLine
 62
2
  6
CONTINUOUS
 10
3.3
 20
-0.34375
 11
3.3
 21
-0.93775
  0
LINE
  5
271
100
AcDbEntity
  8
0
100
AcDbLine
 62
2
  6
CONTINUOUS
 10
4.6
 20
0.0
 11
4.6
 21
-0.93775
  0
MTEXT
  5
272
100
AcDbEntity
  8
0
100
AcDbMText
 62
2
  6
CONTINUOUS
  7
STANDARD
 71
2
 72
1
 10
2.3
 20
-0.099375
 30
0.0
 11
1.0
 21
0.0
 31
0.0
 44
0.9
  1
Port Headings
 40
0.145
 41
3.016
  0
MTEXT
  5
273
100
AcDbEntity
  8
0
100
AcDbMText
 62
2
  6
CONTINUOUS
  7
STANDARD
 71
2
 72
1
 10
0.65
 20
-0.44325
 30
0.0
 11
1.0
 21
0.0
 31
0.0
 44
0.9
  1
Product
 40
0.145
 41
1.624
  0
MTEXT
  5
274
100
AcDbEntity
  8
0
100
AcDbMText
 62
2
  6
CONTINUOUS
  7
STANDARD
 71
2
 72
1
 10
2.3
 20
-0.44325
 30
0.0
 11
1.0
 21
0.0
 31
0.0
 44
0.9
  1
Port
 40
0.145
 41
0.928
  0
MTEXT
  5
275
100
AcDbEntity
  8
0
100
AcDbMText
 62
2
  6
CONTINUOUS
  7
STANDARD
 71
2
 72
1
 10
3.95
 20
-0.44325
 30
0.0
 11
1.0
 21
0.0
 31
0.0
 44
0.9
  1
Size
 40
0.145
 41
0.928
  0
MTEXT
  5
276
100
AcDbEntity
  8
0
100
AcDbMText
 62
2
  6
CONTINUOUS
  7
STANDARD
 71
2
 72
1
 10
0.65
 20
-0.75025
 30
0.0
 11
1.0
 21
0.0
 31
0.0
 44
0.9
  1
X6W
 40
0.125
 41
0.6
  0
MTEXT
  5
277
100
AcDbEntity
  8
0
100
AcDbMText
 62
2
  6
CONTINUOUS
  7
STANDARD
 71
2
 72
1
 10
2.3
 20
-0.75025
 30
0.0
 11
1.0
 21
0.0
 31
0.0
 44
0.9
  1
Ports A & B
 40
0.125
 41
2.2
  0
MTEXT
  5
278
100
AcDbEntity
  8
0
100
AcDbMText
 62
2
  6
CONTINUOUS
  7
STANDARD
 71
2
 72
1
 10
3.95
 20
-0.75025
 30
0.0
 11
1.0
 21
0.0
 31
0.0
 44
0.9
  1
SAE 8
 40
0.125
 41
1.0
  0
ENDBLK
  5
279
100
AcDbEntity
  8
0
  6
BYBLOCK
 62
0
100
AcDbBlockEnd
  0
ENDSEC
  0
SECTION
  2
ENTITIES
  0
IMAGE
  5
27A
100
AcDbEntity
  8
0
100
AcDbRasterImage
 62
7
  6
CONTINUOUS
 10
19.2297077316
 20
0.3094318264
 30
0.0
 11
0.0066666667
 21
0.0
 31
0.0
 12
0.0
 22
0.0066666667
 32
0.0
 13
369.0
 23
92.0
340
       307
 70
9
280
0
281
50
282
50
283
0
360
       301
 71
1
 91
2
 14
-0.5
 24
-0.5
 14
368.5
 24
91.5
  0
INSERT
  5
27B
100
AcDbEntity
  8
0
100
AcDbBlockReference
 62
2
  6
CONTINUOUS
  2
SUN_FIRST_THIRD_ANGLE_BL0
 10
20.4816717061
 20
1.2289683772
  0
ACAD_TABLE
  5
27C
100
AcDbEntity
  8
0
 62
2
  6
CONTINUOUS
100
AcDbBlockReference
  2
*T1
 10
12.42375
 20
0.30125
 30
0.0
100
AcDbTable
342
       309
343
20A
 11
1.0
 21
0.0
 31
0.0
 90
6
 91
4
 92
6
 93
20
 94
0
 95
0
 96
0
 70
1
 41
0.0
141
0.525
141
0.1
141
0.525
141
0.1
142
4.1
142
1.1
142
0.7
142
0.5
142
0.4
142
2.475
171
1
172
0
173
0
174
0
175
1
176
1
 91
33
178
0
145
0.0
301
CELL_VALUE
 90
4
  1
Sandwich ISO 03\PTap in manifold - A and B
304
ACVALUE_END
170
2
140
0.125
171
1
172
0
173
0
174
0
175
1
176
1
 91
33
178
0
145
0.0
301
CELL_VALUE
 90
4
  1
Jan-09-20
304
ACVALUE_END
170
5
140
0.125
171
1
172
0
173
0
174
0
175
1
176
1
 91
33
178
0
145
0.0
301
CELL_VALUE
 90
4
  1
2.000
304
ACVALUE_END
170
5
140
0.125
171
1
172
0
173
0
174
0
175
1
176
1
 91
33
178
0
145
0.0
301
CELL_VALUE
 90
4
  1
C
304
ACVALUE_END
170
5
140
0.125
171
1
172
0
173
0
174
0
175
1
176
1
 91
33
178
0
145
0.0
301
CELL_VALUE
 90
4
  1
2
304
ACVALUE_END
170
5
140
0.125
171
1
172
0
173
0
174
0
175
1
176
1
 91
33
178
0
145
0.0
301
CELL_VALUE
 90
4
  1
 
304
ACVALUE_END
170
1
140
0.125
171
1
172
0
173
0
174
0
175
1
176
1
 91
33
178
0
145
0.0
301
CELL_VALUE
 90
4
  1
DESCRIPTION
304
ACVALUE_END
170
1
140
0.06
171
1
172
0
173
0
174
0
175
1
176
1
 91
33
178
0
145
0.0
301
CELL_VALUE
 90
4
  1
DATE
304
ACVALUE_END
170
1
140
0.06
171
1
172
0
173
0
174
0
175
1
176
1
 91
33
178
0
145
0.0
301
CELL_VALUE
 90
4
  1
SCALE
304
ACVALUE_END
170
1
140
0.06
171
1
172
0
173
0
174
0
175
1
176
1
 91
33
178
0
145
0.0
301
CELL_VALUE
 90
4
  1
DWG SIZE
304
ACVALUE_END
170
1
140
0.06
171
1
172
0
173
0
174
0
175
1
176
1
 91
33
178
0
145
0.0
301
CELL_VALUE
 90
4
  1
SHEET
304
ACVALUE_END
170
1
140
0.06
171
1
172
0
173
0
174
0
175
1
176
1
 91
33
178
0
145
0.0
301
CELL_VALUE
 90
4
  1
 
304
ACVALUE_END
170
1
140
0.125
171
1
172
0
173
0
174
0
175
1
176
1
 91
33
178
0
145
0.0
301
CELL_VALUE
 90
4
  1
X6W
304
ACVALUE_END
170
5
140
0.125
171
1
172
0
173
0
174
0
175
4
176
1
 91
33
178
0
145
0.0
301
CELL_VALUE
 90
4
  1
ALL DIMENSIONS IN INCH\PVIEWS ARE THIRD ANGLE
304
ACVALUE_END
170
5
140
0.12
171
1
172
0
173
1
174
0
175
1
176
1
 91
1
178
0
145
0.0
170
1
171
1
172
0
173
1
174
0
175
1
176
1
 91
1
178
0
145
0.0
170
1
171
1
172
0
173
1
174
0
175
1
176
1
 91
1
178
0
145
0.0
170
5
171
1
172
0
173
0
174
0
175
1
176
1
 91
33
178
0
145
0.0
301
CELL_VALUE
 90
4
  1
 
304
ACVALUE_END
170
1
140
0.125
171
1
172
0
173
0
174
0
175
1
176
1
 91
33
178
0
145
0.0
301
CELL_VALUE
 90
4
  1
MODEL
304
ACVALUE_END
170
1
140
0.06
171
1
172
0
173
0
174
0
175
1
176
1
 91
33
178
0
145
0.0
301
CELL_VALUE
 90
4
  1
 
304
ACVALUE_END
170
1
140
0.125
171
1
172
0
173
0
174
0
175
1
176
1
 91
33
178
0
145
0.0
301
CELL_VALUE
 90
4
  1
 
304
ACVALUE_END
170
1
140
0.125
171
1
172
0
173
0
174
0
175
1
176
1
 91
33
178
0
145
0.0
301
CELL_VALUE
 90
4
  1
 
304
ACVALUE_END
170
1
140
0.125
171
1
172
0
173
0
174
0
175
1
176
1
 91
33
178
0
145
0.0
301
CELL_VALUE
 90
4
  1
 
304
ACVALUE_END
170
1
140
0.125
171
1
172
0
173
0
174
0
175
1
176
1
 91
33
178
0
145
0.0
301
CELL_VALUE
 90
4
  1
 
304
ACVALUE_END
170
1
140
0.125
  0
ACAD_TABLE
  5
27D
100
AcDbEntity
  8
0
 62
2
  6
CONTINUOUS
100
AcDbBlockReference
  2
*T2
 10
12.4237499994
 20
16.47875
 30
0.0
100
AcDbTable
342
       308
343
20B
 11
1.0
 21
0.0
 31
0.0
 90
22
 91
7
 92
3
 93
16
 94
0
 95
0
 96
0
 41
0.028
141
0.344
141
0.25
141
0.25
141
0.25
141
0.25
141
0.25
141
0.25
142
3.055
142
3.0
142
3.0
171
1
172
0
173
0
174
0
175
1
176
1
 91
33
178
0
145
0.0
301
CELL_VALUE
 90
4
  1
Technical Data
304
ACVALUE_END
170
5
140
0.145
171
1
172
0
173
0
174
0
175
1
176
1
 91
33
178
0
145
0.0
301
CELL_VALUE
 90
4
  1
U.S. Units
304
ACVALUE_END
170
5
140
0.145
171
1
172
0
173
0
174
0
175
1
176
1
 91
33
178
0
145
0.0
301
CELL_VALUE
 90
4
  1
Metric Units
304
ACVALUE_END
170
5
140
0.145
171
1
172
0
173
0
174
0
175
1
176
1
 91
33
178
0
145
0.0
301
CELL_VALUE
 90
4
  1
Body Features
304
ACVALUE_END
170
5
140
0.125
171
1
172
0
173
0
174
0
175
2
176
1
 91
33
178
0
145
0.0
301
CELL_VALUE
 90
4
  1
Tap in manifold - A and B
304
ACVALUE_END
170
5
140
0.125
171
1
172
0
173
1
174
0
175
1
176
1
 91
1
178
0
145
0.0
170
1
171
1
172
0
173
0
174
0
175
1
176
1
 91
33
178
0
145
0.0
301
CELL_VALUE
 90
4
  1
Body Type
304
ACVALUE_END
170
5
140
0.125
171
1
172
0
173
0
174
0
175
2
176
1
 91
33
178
0
145
0.0
301
CELL_VALUE
 90
4
  1
Sandwich
304
ACVALUE_END
170
5
140
0.125
171
1
172
0
173
1
174
0
175
1
176
1
 91
1
178
0
145
0.0
170
1
171
1
172
0
173
0
174
0
175
1
176
1
 91
33
178
0
145
0.0
301
CELL_VALUE
 90
4
  1
Interface
304
ACVALUE_END
170
5
140
0.125
171
1
172
0
173
0
174
0
175
2
176
1
 91
33
178
0
145
0.0
301
CELL_VALUE
 90
4
  1
ISO 03
304
ACVALUE_END
170
5
140
0.125
171
1
172
0
173
1
174
0
175
1
176
1
 91
1
178
0
145
0.0
170
1
171
1
172
0
173
0
174
0
175
1
176
1
 91
33
178
0
145
0.0
301
CELL_VALUE
 90
4
  1
Stack Height
304
ACVALUE_END
170
5
140
0.125
171
1
172
0
173
0
174
0
175
1
176
1
 91
33
178
0
145
0.0
301
CELL_VALUE
 90
4
  1
1.75 in.
304
ACVALUE_END
170
5
140
0.125
171
1
172
0
173
0
174
0
175
1
176
1
 91
33
178
0
145
0.0
301
CELL_VALUE
 90
4
  1
44,5 mm
304
ACVALUE_END
170
5
140
0.125
171
1
172
0
173
0
174
0
175
1
176
1
 91
33
178
0
145
0.0
301
CELL_VALUE
 90
4
  1
Weight
304
ACVALUE_END
170
5
140
0.125
171
1
172
0
173
0
174
0
175
1
176
1
 91
33
178
0
145
0.0
301
CELL_VALUE
 90
4
  1
0.775 lb.
304
ACVALUE_END
170
5
140
0.125
171
1
172
0
173
0
174
0
175
1
176
1
 91
33
178
0
145
0.0
301
CELL_VALUE
 90
4
  1
0,352 kg.
304
ACVALUE_END
170
5
140
0.125
171
1
172
0
173
0
174
0
175
1
176
1
 91
33
178
0
145
0.0
301
CELL_VALUE
 90
4
  1
Model Weight
304
ACVALUE_END
170
5
140
0.125
171
1
172
0
173
0
174
0
175
1
176
1
 91
33
178
0
145
0.0
301
CELL_VALUE
 90
4
  1
.70 lb
304
ACVALUE_END
170
5
140
0.125
171
1
172
0
173
0
174
0
175
1
176
1
 91
33
178
0
145
0.0
301
CELL_VALUE
 90
4
  1
0,30 kg
304
ACVALUE_END
170
5
140
0.125
  0
ACAD_TABLE
  5
27E
100
AcDbEntity
  8
0
 62
2
  6
CONTINUOUS
100
AcDbBlockReference
  2
*T3
 10
0.52125
 20
1.459
 30
0.0
100
AcDbTable
342
       308
343
20C
 11
1.0
 21
0.0
 31
0.0
 90
22
 91
3
 92
3
 93
16
 94
0
 95
0
 96
0
 41
0.05
141
0.34375
141
0.344
141
0.25
142
1.3
142
2.0
142
1.3
171
1
172
0
173
0
174
0
175
3
176
1
 91
33
178
0
145
0.0
301
CELL_VALUE
 90
4
  1
Port Headings
304
ACVALUE_END
170
5
140
0.145
171
1
172
0
173
1
174
0
175
1
176
1
 91
1
178
0
145
0.0
170
1
171
1
172
0
173
1
174
0
175
1
176
1
 91
1
178
0
145
0.0
170
1
171
1
172
0
173
0
174
0
175
1
176
1
 91
33
178
0
145
0.0
301
CELL_VALUE
 90
4
  1
Product
304
ACVALUE_END
170
5
140
0.145
171
1
172
0
173
0
174
0
175
1
176
1
 91
33
178
0
145
0.0
301
CELL_VALUE
 90
4
  1
Port
304
ACVALUE_END
170
5
140
0.145
171
1
172
0
173
0
174
0
175
1
176
1
 91
33
178
0
145
0.0
301
CELL_VALUE
 90
4
  1
Size
304
ACVALUE_END
170
5
140
0.145
171
1
172
0
173
0
174
0
175
1
176
1
 91
33
178
0
145
0.0
301
CELL_VALUE
 90
4
  1
X6W
304
ACVALUE_END
170
5
140
0.125
171
1
172
0
173
0
174
0
175
1
176
1
 91
33
178
0
145
0.0
301
CELL_VALUE
 90
4
  1
Ports A & B
304
ACVALUE_END
170
5
140
0.125
171
1
172
0
173
0
174
0
175
1
176
1
 91
33
178
0
145
0.0
301
CELL_VALUE
 90
4
  1
SAE 8
304
ACVALUE_END
170
5
140
0.125
  0
MTEXT
  5
27F
100
AcDbEntity
  8
0
100
AcDbMText
 62
2
  6
CONTINUOUS
  7
STANDARD
 71
1
 72
1
 10
0.52125
 20
5.75995
 30
0.0
 11
1.0
 21
0.0
 31
0.0
 44
0.6
  3
Notes\P \P1. Important: Carefully consider\P   the maximum system pressure. The\P   pressure rating of the manifold is\P   dependent on the manifold material,\P   with the port type/size a secondary\P   consideration. Manifolds\P   constructed of alu
  1
minum are not\P   rated for pressures higher than\P   3000 psi (210 bar), regardless of\P   the port type/size specified.\P2. Items without balloons are\P   shipped loose.
 40
0.1
 41
3.04
  0
LINE
  5
280
100
AcDbEntity
  8
0
100
AcDbLine
 62
7
  6
CONTINUOUS
 10
0.30125
 20
0.30125
 11
0.30125
 21
16.69875
  0
LINE
  5
281
100
AcDbEntity
  8
0
100
AcDbLine
 62
7
  6
CONTINUOUS
 10
0.30125
 20
0.30125
 11
21.69875
 21
0.30125
  0
LINE
  5
282
100
AcDbEntity
  8
0
100
AcDbLine
 62
7
  6
CONTINUOUS
 10
0.30125
 20
16.69875
 11
21.69875
 21
16.69875
  0
LINE
  5
283
100
AcDbEntity
  8
0
100
AcDbLine
 62
7
  6
CONTINUOUS
 10
21.69875
 20
0.30125
 11
21.69875
 21
16.69875
  0
LINE
  5
284
100
AcDbEntity
  8
0
100
AcDbLine
 62
7
  6
CONTINUOUS
 10
7.5903017737
 20
6.9184208609
 11
7.5385508221
 21
6.9820513605
  0
LINE
  5
285
100
AcDbEntity
  8
0
100
AcDbLine
 62
7
  6
CONTINUOUS
 10
7.4507718494
 20
9.1604278893
 11
7.4507718494
 21
7.4700575931
  0
LINE
  5
286
100
AcDbEntity
  8
0
100
AcDbLine
 62
7
  6
CONTINUOUS
 10
7.4946124867
 20
9.1407746955
 11
7.4946124867
 21
7.4504043993
  0
LINE
  5
287
100
AcDbEntity
  8
0
100
AcDbLine
 62
7
  6
CONTINUOUS
 10
8.1040305802
 20
10.4559844138
 11
7.6288392055
 21
9.9969847654
  0
LINE
  5
288
100
AcDbEntity
  8
0
100
AcDbLine
 62
7
  6
CONTINUOUS
 10
8.1639179849
 20
10.5117186129
 11
7.6887266103
 21
10.0527189645
  0
LINE
  5
289
100
AcDbEntity
  8
0
100
AcDbLine
 62
7
  6
CONTINUOUS
 10
8.1657503911
 20
10.5134563029
 11
8.1639179849
 21
10.5117186129
  0
LINE
  5
28A
100
AcDbEntity
  8
0
100
AcDbLine
 62
7
  6
CONTINUOUS
 10
8.1057129654
 20
10.4575796126
 11
8.1040305802
 21
10.4559844138
  0
LINE
  5
28B
100
AcDbEntity
  8
0
100
AcDbLine
 62
7
  6
CONTINUOUS
 10
8.1040305802
 20
10.4559844138
 11
8.1639018865
 21
10.5117359102
  0
LINE
  5
28C
100
AcDbEntity
  8
0
100
AcDbLine
 62
7
  6
CONTINUOUS
 10
7.6288392055
 20
9.9969847654
 11
7.6887266103
 21
10.0527189645
  0
LINE
  5
28D
100
AcDbEntity
  8
0
100
AcDbLine
 62
7
  6
CONTINUOUS
 10
8.3923687505
 20
9.9160917818
 11
9.2723528023
 21
10.7660911545
  0
LINE
  5
28E
100
AcDbEntity
  8
0
100
AcDbLine
 62
7
  6
CONTINUOUS
 10
8.3923687505
 20
9.9160917818
 11
8.3923687505
 21
6.5353511894
  0
LINE
  5
28F
100
AcDbEntity
  8
0
100
AcDbLine
 62
7
  6
CONTINUOUS
 10
7.4507718494
 20
7.4700575931
 11
7.4946124867
 21
7.4504043993
  0
LINE
  5
290
100
AcDbEntity
  8
0
100
AcDbLine
 62
7
  6
CONTINUOUS
 10
12.7390352263
 20
6.2339088455
 11
8.3923687505
 21
6.5353511894
  0
LINE
  5
291
100
AcDbEntity
  8
0
100
AcDbLine
 62
7
  6
CONTINUOUS
 10
13.7401604833
 20
7.0045719789
 11
13.6642263109
 21
6.9932251964
  0
LINE
  5
292
100
AcDbEntity
  8
0
100
AcDbLine
 62
7
  6
CONTINUOUS
 10
12.9004139061
 20
6.4953561008
 11
13.8064523849
 21
6.4325221189
  0
LINE
  5
293
100
AcDbEntity
  8
0
100
AcDbLine
 62
7
  6
CONTINUOUS
 10
8.3923687505
 20
6.8373051252
 11
7.6368385606
 21
6.8897013218
  0
LINE
  5
294
100
AcDbEntity
  8
0
100
AcDbLine
 62
7
  6
CONTINUOUS
 10
13.6642263109
 20
6.9932251964
 11
12.7581878322
 21
7.0560591783
  0
LINE
  5
295
100
AcDbEntity
  8
0
100
AcDbLine
 62
7
  6
CONTINUOUS
 10
7.4946124867
 20
7.4504043993
 11
8.3923687505
 21
7.388144791
  0
LINE
  5
296
100
AcDbEntity
  8
0
100
AcDbLine
 62
7
  6
CONTINUOUS
 10
7.4507718494
 20
9.1604278893
 11
7.4946124867
 21
9.1407746955
  0
LINE
  5
297
100
AcDbEntity
  8
0
100
AcDbLine
 62
7
  6
CONTINUOUS
 10
13.7401604833
 20
8.7780119011
 11
13.6642263109
 21
8.7666651186
  0
LINE
  5
298
100
AcDbEntity
  8
0
100
AcDbLine
 62
7
  6
CONTINUOUS
 10
12.7390352263
 20
9.6146494378
 11
13.6190192781
 21
10.4646488106
  0
LINE
  5
299
100
AcDbEntity
  8
0
100
AcDbLine
 62
7
  6
CONTINUOUS
 10
12.9523019558
 20
9.7414433695
 11
13.405234911
 21
10.1789430344
  0
LINE
  5
29A
100
AcDbEntity
  8
0
100
AcDbLine
 62
7
  6
CONTINUOUS
 10
7.4946124867
 20
9.1407746955
 11
8.3923687505
 21
9.0785150872
  0
LINE
  5
29B
100
AcDbEntity
  8
0
100
AcDbLine
 62
7
  6
CONTINUOUS
 10
13.6642263109
 20
8.7666651186
 11
12.7581878322
 21
8.8294991005
  0
LINE
  5
29C
100
AcDbEntity
  8
0
100
AcDbLine
 62
7
  6
CONTINUOUS
 10
13.8583404346
 20
9.6786093876
 11
14.3112733897
 21
10.1161090525
  0
LINE
  5
29D
100
AcDbEntity
  8
0
100
AcDbLine
 62
7
  6
CONTINUOUS
 10
13.9182278393
 20
9.6145687772
 11
14.3711607945
 21
10.0520684421
  0
LINE
  5
29E
100
AcDbEntity
  8
0
100
AcDbLine
 62
7
  6
CONTINUOUS
 10
12.7390352263
 20
9.6146494378
 11
8.3923687505
 21
9.9160917818
  0
LINE
  5
29F
100
AcDbEntity
  8
0
100
AcDbLine
 62
7
  6
CONTINUOUS
 10
7.6887266103
 20
10.0527189645
 11
8.4772054747
 21
9.9980377696
  0
LINE
  5
2A0
100
AcDbEntity
  8
0
100
AcDbLine
 62
7
  6
CONTINUOUS
 10
13.8583404346
 20
9.6786093876
 11
12.9523019558
 21
9.7414433695
  0
LINE
  5
2A1
100
AcDbEntity
  8
0
100
AcDbLine
 62
7
  6
CONTINUOUS
 10
12.7390352263
 20
9.6146494378
 11
12.7390352263
 21
6.2339088455
  0
LINE
  5
2A2
100
AcDbEntity
  8
0
100
AcDbLine
 62
7
  6
CONTINUOUS
 10
12.7581878322
 20
7.0560591783
 11
12.7581878322
 21
8.8294991005
  0
LINE
  5
2A3
100
AcDbEntity
  8
0
100
AcDbLine
 62
7
  6
CONTINUOUS
 10
8.1639179849
 20
10.5117186129
 11
8.9523968493
 21
10.457037418
  0
LINE
  5
2A4
100
AcDbEntity
  8
0
100
AcDbLine
 62
7
  6
CONTINUOUS
 10
8.9788216545
 20
10.4825618212
 11
8.2158060346
 21
10.5354771342
  0
LINE
  5
2A5
100
AcDbEntity
  8
0
100
AcDbLine
 62
7
  6
CONTINUOUS
 10
14.3112733897
 20
10.1161090525
 11
13.405234911
 21
10.1789430344
  0
LINE
  5
2A6
100
AcDbEntity
  8
0
100
AcDbLine
 62
7
  6
CONTINUOUS
 10
13.4571229607
 20
10.2027015556
 11
14.3631614394
 21
10.1398675737
  0
LINE
  5
2A7
100
AcDbEntity
  8
0
100
AcDbLine
 62
7
  6
CONTINUOUS
 10
9.2723528023
 20
10.7660911545
 11
13.6190192781
 21
10.4646488106
  0
LINE
  5
2A8
100
AcDbEntity
  8
0
100
AcDbLine
 62
7
  6
CONTINUOUS
 10
13.6190192781
 20
10.4646488106
 11
13.6190192781
 21
10.1914740079
  0
LINE
  5
2A9
100
AcDbEntity
  8
0
100
AcDbLine
 62
7
  6
CONTINUOUS
 10
13.6642263109
 20
6.9932251964
 11
13.6642263109
 21
8.7666651186
  0
LINE
  5
2AA
100
AcDbEntity
  8
0
100
AcDbLine
 62
7
  6
CONTINUOUS
 10
13.7401604833
 20
7.0045719789
 11
13.7401604833
 21
8.7780119011
  0
LINE
  5
2AB
100
AcDbEntity
  8
0
100
AcDbLine
 62
7
  6
CONTINUOUS
 10
12.7390352263
 20
6.2339088455
 11
13.0023842013
 21
6.4882844368
  0
LINE
  5
2AC
100
AcDbEntity
  8
0
100
AcDbLine
 62
7
  6
CONTINUOUS
 10
13.9182278393
 20
9.6145687772
 11
13.8583404346
 21
9.6786093876
  0
LINE
  5
2AD
100
AcDbEntity
  8
0
100
AcDbLine
 62
7
  6
CONTINUOUS
 10
14.5492281506
 20
9.5595113024
 11
14.5492281506
 21
7.7860713803
  0
LINE
  5
2AE
100
AcDbEntity
  8
0
100
AcDbLine
 62
7
  6
CONTINUOUS
 10
14.3711607945
 20
6.9495145042
 11
13.9182278393
 21
6.5120148393
  0
LINE
  5
2AF
100
AcDbEntity
  8
0
100
AcDbLine
 62
7
  6
CONTINUOUS
 10
13.9182278393
 20
6.5120148393
 11
13.9165454541
 21
6.5104196405
  0
LINE
  5
2B0
100
AcDbEntity
  8
0
100
AcDbLine
 62
7
  6
CONTINUOUS
 10
13.8565080284
 20
6.4545429502
 11
13.9165469121
 21
6.5104207984
  0
LINE
  5
2B1
100
AcDbEntity
  8
0
100
AcDbLine
 62
7
  6
CONTINUOUS
 10
14.3711607945
 20
10.0520684421
 11
14.3112733897
 21
10.1161090525
  0
LINE
  5
2B2
100
AcDbEntity
  8
0
100
AcDbLine
 62
7
  6
CONTINUOUS
 10
14.4096982263
 20
10.1111480346
 11
14.4614491779
 21
10.047517535
  0
ARC
  5
2B3
100
AcDbEntity
  8
0
100
AcDbCircle
 62
7
  6
CONTINUOUS
 10
11.5604162165
 20
8.3508416338
 40
0.2973429136
100
AcDbArc
 50
250.0965635812
 51
257.3422625976
  0
SPLINE
  5
2B4
100
AcDbEntity
  8
0
100
AcDbSpline
 62
7
  6
CONTINUOUS
 70
0
 71
3
 72
23
 73
19
 74
0
 42
0.0000001
 43
0.0000001
 44
0.0000000001
 40
0.0
 40
0.0
 40
0.0
 40
0.0
 40
0.0764219057
 40
0.1504656864
 40
0.2222015765
 40
0.2917109238
 40
0.3590900758
 40
0.4244474746
 40
0.487903775
 40
0.5495925967
 40
0.6096609602
 40
0.6682702092
 40
0.7255962386
 40
0.7818281892
 40
0.8371677688
 40
0.8918276742
 40
0.9460292214
 40
1.0
 40
1.0
 40
1.0
 40
1.0
 10
14.1449531357
 20
9.422084183
 30
0.0
 10
14.1466477595
 20
9.423721064
 30
0.0
 10
14.1500363455
 20
9.4268905986
 30
0.0
 10
14.1551999822
 20
9.4313944845
 30
0.0
 10
14.1603612894
 20
9.4355702425
 30
0.0
 10
14.1655187225
 20
9.4394163766
 30
0.0
 10
14.1706708344
 20
9.442931795
 30
0.0
 10
14.1758163055
 20
9.4461154621
 30
0.0
 10
14.1809538203
 20
9.4489663681
 30
0.0
 10
14.1860819639
 20
9.4514836473
 30
0.0
 10
14.1911993483
 20
9.4536663784
 30
0.0
 10
14.1963045558
 20
9.4555136948
 30
0.0
 10
14.2013960897
 20
9.4570249471
 30
0.0
 10
14.2064724721
 20
9.4581994314
 30
0.0
 10
14.2115321164
 20
9.4590365672
 30
0.0
 10
14.21657347
 20
9.4595359989
 30
0.0
 10
14.221594571
 20
9.4596973735
 30
0.0
 10
14.2249304398
 20
9.4595793535
 30
0.0
 10
14.2265903691
 20
9.4594642365
 30
0.0
  0
SPLINE
  5
2B5
100
AcDbEntity
  8
0
100
AcDbSpline
 62
7
  6
CONTINUOUS
 70
0
 71
3
 72
44
 73
40
 74
0
 42
0.0000001
 43
0.0000001
 44
0.0000000001
 40
0.0
 40
0.0
 40
0.0
 40
0.0
 40
0.0311440853
 40
0.0624413459
 40
0.0938856781
 40
0.1254674212
 40
0.1571744181
 40
0.1889918883
 40
0.2209028956
 40
0.2528886538
 40
0.2849289214
 40
0.3170023991
 40
0.349087146
 40
0.3811610037
 40
0.4132020241
 40
0.4451888933
 40
0.4771013475
 40
0.5089205749
 40
0.5406295959
 40
0.5722136175
 40
0.6036603535
 40
0.6349603047
 40
0.6661069914
 40
0.6970971317
 40
0.7279307585
 40
0.7586112692
 40
0.7891454023
 40
0.8195431376
 40
0.8498175178
 40
0.8649161013
 40
0.8799900024
 40
0.8950415906
 40
0.9100733538
 40
0.9250879074
 40
0.9400879568
 40
0.9550763027
 40
0.9700558066
 40
0.9850293887
 40
1.0
 40
1.0
 40
1.0
 40
1.0
 10
12.1053878292
 20
9.4615441538
 30
0.0
 10
12.1123695718
 20
9.4610599683
 30
0.0
 10
12.1263371497
 20
9.4595781793
 30
0.0
 10
12.1471191792
 20
9.4558455167
 30
0.0
 10
12.1676786232
 20
9.4506171659
 30
0.0
 10
12.187904423
 20
9.4439212451
 30
0.0
 10
12.2076891392
 20
9.4357936516
 30
0.0
 10
12.2269272334
 20
9.4262778516
 30
0.0
 10
12.2455162213
 20
9.415424704
 30
0.0
 10
12.2633570497
 20
9.4032921541
 30
0.0
 10
12.2803546631
 20
9.3899449421
 30
0.0
 10
12.2964184911
 20
9.3754542539
 30
0.0
 10
12.3114629295
 20
9.3598973464
 30
0.0
 10
12.3254077905
 20
9.3433571391
 30
0.0
 10
12.3381787263
 20
9.3259217766
 30
0.0
 10
12.3497076219
 20
9.3076841635
 30
0.0
 10
12.3599329551
 20
9.2887414751
 30
0.0
 10
12.3688001229
 20
9.2691946454
 30
0.0
 10
12.3762617312
 20
9.2491478361
 30
0.0
 10
12.382277848
 20
9.2287078885
 30
0.0
 10
12.386816218
 20
9.2079837619
 30
0.0
 10
12.3898524379
 20
9.1870859609
 30
0.0
 10
12.3913700911
 20
9.1661259525
 30
0.0
 10
12.3913608454
 20
9.1452155846
 30
0.0
 10
12.3898244962
 20
9.1244664733
 30
0.0
 10
12.3867690215
 20
9.1039894955
 30
0.0
 10
12.3822103928
 20
9.0838938859
 30
0.0
 10
12.3761730928
 20
9.0642878149
 30
0.0
 10
12.3699294669
 20
9.0484275749
 30
0.0
 10
12.3642319426
 20
9.0360939572
 30
0.0
 10
12.3596163793
 20
9.027037114
 30
0.0
 10
12.3546613328
 20
9.0181788127
 30
0.0
 10
12.349373277
 20
9.0095307545
 30
0.0
 10
12.3437593936
 20
9.0011044827
 30
0.0
 10
12.3378270521
 20
8.992911324
 30
0.0
 10
12.3315843237
 20
8.9849621433
 30
0.0
 10
12.3250393627
 20
8.9772676402
 30
0.0
 10
12.3182012122
 20
8.9698381099
 30
0.0
 10
12.3134524522
 20
8.9650679424
 30
0.0
 10
12.3110328037
 20
8.9627307414
 30
0.0
  0
SPLINE
  5
2B6
100
AcDbEntity
  8
0
100
AcDbSpline
 62
7
  6
CONTINUOUS
 70
0
 71
3
 72
44
 73
40
 74
0
 42
0.0000001
 43
0.0000001
 44
0.0000000001
 40
0.0
 40
0.0
 40
0.0
 40
0.0
 40
0.0311440853
 40
0.0624413459
 40
0.0938856781
 40
0.1254674212
 40
0.1571744181
 40
0.1889918883
 40
0.2209028956
 40
0.2528886538
 40
0.2849289214
 40
0.3170023991
 40
0.349087146
 40
0.3811610037
 40
0.4132020241
 40
0.4451888933
 40
0.4771013475
 40
0.5089205749
 40
0.5406295959
 40
0.5722136175
 40
0.6036603535
 40
0.6349603047
 40
0.6661069914
 40
0.6970971317
 40
0.7279307585
 40
0.7586112692
 40
0.7891454023
 40
0.8195431376
 40
0.8498175178
 40
0.8649161013
 40
0.8799900024
 40
0.8950415906
 40
0.9100733538
 40
0.9250879074
 40
0.9400879568
 40
0.9550763027
 40
0.9700558066
 40
0.9850293887
 40
1.0
 40
1.0
 40
1.0
 40
1.0
 10
9.0260162627
 20
9.6750992973
 30
0.0
 10
9.0329980053
 20
9.6746151118
 30
0.0
 10
9.0469655831
 20
9.6731333228
 30
0.0
 10
9.0677476127
 20
9.6694006602
 30
0.0
 10
9.0883070566
 20
9.6641723093
 30
0.0
 10
9.1085328564
 20
9.6574763886
 30
0.0
 10
9.1283175727
 20
9.6493487951
 30
0.0
 10
9.1475556669
 20
9.6398329951
 30
0.0
 10
9.1661446548
 20
9.6289798474
 30
0.0
 10
9.1839854832
 20
9.6168472975
 30
0.0
 10
9.2009830966
 20
9.6035000856
 30
0.0
 10
9.2170469246
 20
9.5890093974
 30
0.0
 10
9.232091363
 20
9.5734524899
 30
0.0
 10
9.2460362239
 20
9.5569122826
 30
0.0
 10
9.2588071598
 20
9.5394769201
 30
0.0
 10
9.2703360553
 20
9.521239307
 30
0.0
 10
9.2805613886
 20
9.5022966186
 30
0.0
 10
9.2894285563
 20
9.4827497889
 30
0.0
 10
9.2968901646
 20
9.4627029795
 30
0.0
 10
9.3029062815
 20
9.442263032
 30
0.0
 10
9.3074446515
 20
9.4215389054
 30
0.0
 10
9.3104808714
 20
9.4006411044
 30
0.0
 10
9.3119985246
 20
9.379681096
 30
0.0
 10
9.3119892789
 20
9.3587707281
 30
0.0
 10
9.3104529297
 20
9.3380216167
 30
0.0
 10
9.307397455
 20
9.3175446389
 30
0.0
 10
9.3028388263
 20
9.2974490294
 30
0.0
 10
9.2968015262
 20
9.2778429584
 30
0.0
 10
9.2905579004
 20
9.2619827184
 30
0.0
 10
9.2848603761
 20
9.2496491007
 30
0.0
 10
9.2802448128
 20
9.2405922575
 30
0.0
 10
9.2752897663
 20
9.2317339562
 30
0.0
 10
9.2700017105
 20
9.2230858979
 30
0.0
 10
9.2643878271
 20
9.2146596262
 30
0.0
 10
9.2584554856
 20
9.2064664674
 30
0.0
 10
9.2522127572
 20
9.1985172868
 30
0.0
 10
9.2456677962
 20
9.1908227836
 30
0.0
 10
9.2388296457
 20
9.1833932534
 30
0.0
 10
9.2340808857
 20
9.1786230859
 30
0.0
 10
9.2316612372
 20
9.1762858849
 30
0.0
  0
SPLINE
  5
2B7
100
AcDbEntity
  8
0
100
AcDbSpline
 62
7
  6
CONTINUOUS
 70
0
 71
3
 72
44
 73
40
 74
0
 42
0.0000001
 43
0.0000001
 44
0.0000000001
 40
0.0
 40
0.0
 40
0.0
 40
0.0
 40
0.0311440853
 40
0.0624413459
 40
0.0938856781
 40
0.1254674212
 40
0.1571744181
 40
0.1889918883
 40
0.2209028956
 40
0.2528886538
 40
0.2849289214
 40
0.3170023991
 40
0.349087146
 40
0.3811610037
 40
0.4132020241
 40
0.4451888933
 40
0.4771013475
 40
0.5089205749
 40
0.5406295959
 40
0.5722136175
 40
0.6036603535
 40
0.6349603047
 40
0.6661069914
 40
0.6970971317
 40
0.7279307585
 40
0.7586112692
 40
0.7891454023
 40
0.8195431376
 40
0.8498175178
 40
0.8649161013
 40
0.8799900024
 40
0.8950415906
 40
0.9100733538
 40
0.9250879074
 40
0.9400879568
 40
0.9550763027
 40
0.9700558066
 40
0.9850293887
 40
1.0
 40
1.0
 40
1.0
 40
1.0
 10
9.0260162627
 20
7.2602845885
 30
0.0
 10
9.0329980053
 20
7.259800403
 30
0.0
 10
9.0469655831
 20
7.258318614
 30
0.0
 10
9.0677476127
 20
7.2545859514
 30
0.0
 10
9.0883070566
 20
7.2493576005
 30
0.0
 10
9.1085328564
 20
7.2426616798
 30
0.0
 10
9.1283175727
 20
7.2345340863
 30
0.0
 10
9.1475556669
 20
7.2250182863
 30
0.0
 10
9.1661446548
 20
7.2141651386
 30
0.0
 10
9.1839854832
 20
7.2020325887
 30
0.0
 10
9.2009830966
 20
7.1886853768
 30
0.0
 10
9.2170469246
 20
7.1741946885
 30
0.0
 10
9.232091363
 20
7.158637781
 30
0.0
 10
9.2460362239
 20
7.1420975738
 30
0.0
 10
9.2588071598
 20
7.1246622113
 30
0.0
 10
9.2703360553
 20
7.1064245982
 30
0.0
 10
9.2805613886
 20
7.0874819098
 30
0.0
 10
9.2894285563
 20
7.0679350801
 30
0.0
 10
9.2968901646
 20
7.0478882707
 30
0.0
 10
9.3029062815
 20
7.0274483231
 30
0.0
 10
9.3074446515
 20
7.0067241966
 30
0.0
 10
9.3104808714
 20
6.9858263956
 30
0.0
 10
9.3119985246
 20
6.9648663872
 30
0.0
 10
9.3119892789
 20
6.9439560193
 30
0.0
 10
9.3104529297
 20
6.9232069079
 30
0.0
 10
9.307397455
 20
6.9027299301
 30
0.0
 10
9.3028388263
 20
6.8826343206
 30
0.0
 10
9.2968015262
 20
6.8630282496
 30
0.0
 10
9.2905579004
 20
6.8471680096
 30
0.0
 10
9.2848603761
 20
6.8348343919
 30
0.0
 10
9.2802448128
 20
6.8257775487
 30
0.0
 10
9.2752897663
 20
6.8169192474
 30
0.0
 10
9.2700017105
 20
6.8082711891
 30
0.0
 10
9.2643878271
 20
6.7998449174
 30
0.0
 10
9.2584554856
 20
6.7916517586
 30
0.0
 10
9.2522127572
 20
6.7837025779
 30
0.0
 10
9.2456677962
 20
6.7760080748
 30
0.0
 10
9.2388296457
 20
6.7685785446
 30
0.0
 10
9.2340808857
 20
6.7638083771
 30
0.0
 10
9.2316612372
 20
6.7614711761
 30
0.0
  0
SPLINE
  5
2B8
100
AcDbEntity
  8
0
100
AcDbSpline
 62
7
  6
CONTINUOUS
 70
0
 71
3
 72
44
 73
40
 74
0
 42
0.0000001
 43
0.0000001
 44
0.0000000001
 40
0.0
 40
0.0
 40
0.0
 40
0.0
 40
0.0311440853
 40
0.0624413459
 40
0.0938856781
 40
0.1254674212
 40
0.1571744181
 40
0.1889918883
 40
0.2209028956
 40
0.2528886538
 40
0.2849289214
 40
0.3170023991
 40
0.349087146
 40
0.3811610037
 40
0.4132020241
 40
0.4451888933
 40
0.4771013475
 40
0.5089205749
 40
0.5406295959
 40
0.5722136175
 40
0.6036603535
 40
0.6349603047
 40
0.6661069914
 40
0.6970971317
 40
0.7279307585
 40
0.7586112692
 40
0.7891454023
 40
0.8195431376
 40
0.8498175178
 40
0.8649161013
 40
0.8799900024
 40
0.8950415906
 40
0.9100733538
 40
0.9250879074
 40
0.9400879568
 40
0.9550763027
 40
0.9700558066
 40
0.9850293887
 40
1.0
 40
1.0
 40
1.0
 40
1.0
 10
12.1053878292
 20
7.046729445
 30
0.0
 10
12.1123695718
 20
7.0462452595
 30
0.0
 10
12.1263371497
 20
7.0447634705
 30
0.0
 10
12.1471191792
 20
7.0410308079
 30
0.0
 10
12.1676786232
 20
7.0358024571
 30
0.0
 10
12.187904423
 20
7.0291065363
 30
0.0
 10
12.2076891392
 20
7.0209789428
 30
0.0
 10
12.2269272334
 20
7.0114631428
 30
0.0
 10
12.2455162213
 20
7.0006099952
 30
0.0
 10
12.2633570497
 20
6.9884774453
 30
0.0
 10
12.2803546631
 20
6.9751302333
 30
0.0
 10
12.2964184911
 20
6.9606395451
 30
0.0
 10
12.3114629295
 20
6.9450826376
 30
0.0
 10
12.3254077905
 20
6.9285424303
 30
0.0
 10
12.3381787263
 20
6.9111070678
 30
0.0
 10
12.3497076219
 20
6.8928694547
 30
0.0
 10
12.3599329551
 20
6.8739267663
 30
0.0
 10
12.3688001229
 20
6.8543799366
 30
0.0
 10
12.3762617312
 20
6.8343331273
 30
0.0
 10
12.382277848
 20
6.8138931797
 30
0.0
 10
12.386816218
 20
6.7931690531
 30
0.0
 10
12.3898524379
 20
6.7722712521
 30
0.0
 10
12.3913700911
 20
6.7513112437
 30
0.0
 10
12.3913608454
 20
6.7304008758
 30
0.0
 10
12.3898244962
 20
6.7096517645
 30
0.0
 10
12.3867690215
 20
6.6891747867
 30
0.0
 10
12.3822103928
 20
6.6690791771
 30
0.0
 10
12.3761730928
 20
6.6494731061
 30
0.0
 10
12.3699294669
 20
6.6336128661
 30
0.0
 10
12.3642319426
 20
6.6212792484
 30
0.0
 10
12.3596163793
 20
6.6122224052
 30
0.0
 10
12.3546613328
 20
6.6033641039
 30
0.0
 10
12.349373277
 20
6.5947160457
 30
0.0
 10
12.3437593936
 20
6.5862897739
 30
0.0
 10
12.3378270521
 20
6.5780966152
 30
0.0
 10
12.3315843237
 20
6.5701474345
 30
0.0
 10
12.3250393627
 20
6.5624529314
 30
0.0
 10
12.3182012122
 20
6.5550234011
 30
0.0
 10
12.3134524522
 20
6.5502532336
 30
0.0
 10
12.3110328037
 20
6.5479160326
 30
0.0
  0
SPLINE
  5
2B9
100
AcDbEntity
  8
0
100
AcDbSpline
 62
7
  6
CONTINUOUS
 70
0
 71
3
 72
42
 73
38
 74
0
 42
0.0000001
 43
0.0000001
 44
0.0000000001
 40
0.0
 40
0.0
 40
0.0
 40
0.0
 40
0.0311438942
 40
0.0624423672
 40
0.0938866334
 40
0.1254688884
 40
0.1571761972
 40
0.1889940414
 40
0.2209054133
 40
0.2528915406
 40
0.2849321764
 40
0.3170060194
 40
0.3490911298
 40
0.3811653513
 40
0.4132067372
 40
0.4451939736
 40
0.4771067941
 40
0.5089263835
 40
0.5406357617
 40
0.5722201374
 40
0.6036672265
 40
0.6349675315
 40
0.6661145727
 40
0.6971050657
 40
0.7279390408
 40
0.7586198955
 40
0.7891543699
 40
0.8195524461
 40
0.8498271685
 40
0.8649259233
 40
0.879999996
 40
0.910078031
 40
0.9400872769
 40
0.9550757892
 40
0.9700554665
 40
0.9850292167
 40
1.0
 40
1.0
 40
1.0
 40
1.0
 10
10.5657019884
 20
8.2005706785
 30
0.0
 10
10.5687682433
 20
8.200358033
 30
0.0
 10
10.5749026843
 20
8.1997072148
 30
0.0
 10
10.5840299353
 20
8.1980679256
 30
0.0
 10
10.5930594696
 20
8.1957716126
 30
0.0
 10
10.6019424098
 20
8.192830876
 30
0.0
 10
10.6106316571
 20
8.1892613039
 30
0.0
 10
10.6190808294
 20
8.1850820761
 30
0.0
 10
10.6272449217
 20
8.1803154862
 30
0.0
 10
10.6350804249
 20
8.1749869904
 30
0.0
 10
10.6425455927
 20
8.1691250233
 30
0.0
 10
10.6496006509
 20
8.1627608551
 30
0.0
 10
10.6562080056
 20
8.1559284179
 30
0.0
 10
10.6623324403
 20
8.1486641289
 30
0.0
 10
10.6679413016
 20
8.1410066984
 30
0.0
 10
10.6730046712
 20
8.1329969267
 30
0.0
 10
10.6774955213
 20
8.124677489
 30
0.0
 10
10.6813898722
 20
8.1160927172
 30
0.0
 10
10.6846669154
 20
8.1072883618
 30
0.0
 10
10.6873091167
 20
8.0983113468
 30
0.0
 10
10.6893023115
 20
8.0892095254
 30
0.0
 10
10.6906357813
 20
8.0800314286
 30
0.0
 10
10.6913023128
 20
8.0708260109
 30
0.0
 10
10.6912982389
 20
8.061642395
 30
0.0
 10
10.6906234689
 20
8.0525296037
 30
0.0
 10
10.689281514
 20
8.0435363324
 30
0.0
 10
10.6872793963
 20
8.0347105576
 30
0.0
 10
10.6846278549
 20
8.0260997741
 30
0.0
 10
10.6818857408
 20
8.0191341461
 30
0.0
 10
10.6793833835
 20
8.0137173109
 30
0.0
 10
10.6766829109
 20
8.0084182278
 30
0.0
 10
10.6729334206
 20
8.0020087507
 30
0.0
 10
10.6687016386
 20
7.995917059
 30
0.0
 10
10.6650448855
 20
7.9912608514
 30
0.0
 10
10.6621703818
 20
7.987881463
 30
0.0
 10
10.6591671401
 20
7.9846185054
 30
0.0
 10
10.6570815191
 20
7.9825235087
 30
0.0
 10
10.6560188333
 20
7.9814970355
 30
0.0
  0
SPLINE
  5
2BA
100
AcDbEntity
  8
0
100
AcDbSpline
 62
7
  6
CONTINUOUS
 70
0
 71
3
 72
40
 73
36
 74
0
 42
0.0000001
 43
0.0000001
 44
0.0000000001
 40
0.0
 40
0.0
 40
0.0
 40
0.0
 40
0.0311444947
 40
0.0624430116
 40
0.0938878326
 40
0.1254704216
 40
0.1571781344
 40
0.1889963661
 40
0.2209081245
 40
0.2528946404
 40
0.2689119976
 40
0.2849403504
 40
0.3170145907
 40
0.3491001014
 40
0.3811747228
 40
0.4132165051
 40
0.4452041336
 40
0.4771173445
 40
0.5089373259
 40
0.5406470987
 40
0.5722318701
 40
0.6036793542
 40
0.6349800517
 40
0.6661274822
 40
0.697118363
 40
0.7279527258
 40
0.7586339677
 40
0.7891688275
 40
0.8195672855
 40
0.8498423851
 40
0.8800099759
 40
0.9100883815
 40
0.9400979984
 40
0.9700608344
 40
1.0
 40
1.0
 40
1.0
 40
1.0
 10
11.4408307412
 20
6.926677321
 30
0.0
 10
11.4445102649
 20
6.9264221452
 30
0.0
 10
11.4518715658
 20
6.9256411818
 30
0.0
 10
11.4628242443
 20
6.9236740152
 30
0.0
 10
11.4736596432
 20
6.9209184846
 30
0.0
 10
11.4843191625
 20
6.9173895889
 30
0.0
 10
11.4947462225
 20
6.9131061287
 30
0.0
 10
11.5048852511
 20
6.9080910313
 30
0.0
 10
11.5146819784
 20
6.9023712665
 30
0.0
 10
11.5225146725
 20
6.897044661
 30
0.0
 10
11.5285591986
 20
6.8924634537
 30
0.0
 10
11.5344517087
 20
6.8876718084
 30
0.0
 10
11.5415090983
 20
6.8813056138
 30
0.0
 10
11.5494377618
 20
6.8731068506
 30
0.0
 10
11.5567871211
 20
6.8643896939
 30
0.0
 10
11.5635177354
 20
6.8552008103
 30
0.0
 10
11.5695937768
 20
6.8455891079
 30
0.0
 10
11.5749828043
 20
6.8356058161
 30
0.0
 10
11.5796560464
 20
6.8253041258
 30
0.0
 10
11.5835885247
 20
6.8147389335
 30
0.0
 10
11.5867591944
 20
6.8039665465
 30
0.0
 10
11.5891510555
 20
6.7930443885
 30
0.0
 10
11.5907512458
 20
6.7820306976
 30
0.0
 10
11.5915511122
 20
6.7709842202
 30
0.0
 10
11.5915462599
 20
6.7599639013
 30
0.0
 10
11.5907365843
 20
6.7490285737
 30
0.0
 10
11.5891262782
 20
6.7382366447
 30
0.0
 10
11.5867238126
 20
6.7276457865
 30
0.0
 10
11.5835418979
 20
6.7173126259
 30
0.0
 10
11.5795974286
 20
6.7072924452
 30
0.0
 10
11.5749113809
 20
6.6976388633
 30
0.0
 10
11.5695087777
 20
6.6884036134
 30
0.0
 10
11.5634182939
 20
6.6796359993
 30
0.0
 10
11.5566730915
 20
6.6713835878
 30
0.0
 10
11.5517616957
 20
6.6662527546
 30
0.0
 10
11.5492114978
 20
6.6637894452
 30
0.0
  0
SPLINE
  5
2BB
100
AcDbEntity
  8
0
100
AcDbSpline
 62
7
  6
CONTINUOUS
 70
0
 71
3
 72
39
 73
35
 74
0
 42
0.0000001
 43
0.0000001
 44
0.0000000001
 40
0.0
 40
0.0
 40
0.0
 40
0.0
 40
0.0311449008
 40
0.0624431523
 40
0.093888332
 40
0.1254709881
 40
0.1571788807
 40
0.1889972566
 40
0.2209091706
 40
0.2528958383
 40
0.2849370172
 40
0.3170114073
 40
0.349097067
 40
0.3811718373
 40
0.4132137693
 40
0.4452015485
 40
0.4771149106
 40
0.5089350431
 40
0.540644966
 40
0.5722298857
 40
0.6036775159
 40
0.634978357
 40
0.6661259293
 40
0.697116951
 40
0.727951455
 40
0.7586328387
 40
0.7891678408
 40
0.8195664415
 40
0.8498416836
 40
0.8800094164
 40
0.9100879631
 40
0.9400977201
 40
0.9700606955
 40
1.0
 40
1.0
 40
1.0
 40
1.0
 10
10.5657019884
 20
7.5012402412
 30
0.0
 10
10.5715987153
 20
7.5008313018
 30
0.0
 10
10.5833956572
 20
7.4995797852
 30
0.0
 10
10.6009480415
 20
7.4964272164
 30
0.0
 10
10.6183124417
 20
7.4920113688
 30
0.0
 10
10.6353950338
 20
7.4863560448
 30
0.0
 10
10.652105095
 20
7.4794915253
 30
0.0
 10
10.6683534818
 20
7.4714545405
 30
0.0
 10
10.6840536376
 20
7.4622880372
 30
0.0
 10
10.6991219027
 20
7.4520409587
 30
0.0
 10
10.7134779936
 20
7.4407679829
 30
0.0
 10
10.727045415
 20
7.4285292334
 30
0.0
 10
10.7397518659
 20
7.4153899608
 30
0.0
 10
10.7515296202
 20
7.4014201985
 30
0.0
 10
10.7623158841
 20
7.3866943929
 30
0.0
 10
10.772053128
 20
7.3712910108
 30
0.0
 10
10.7806893908
 20
7.3552921258
 30
0.0
 10
10.7881785551
 20
7.3387829864
 30
0.0
 10
10.7944805922
 20
7.3218515668
 30
0.0
 10
10.7995617761
 20
7.3045881047
 30
0.0
 10
10.8033948642
 20
7.2870846266
 30
0.0
 10
10.8059592457
 20
7.2694344635
 30
0.0
 10
10.807241056
 20
7.2517317605
 30
0.0
 10
10.8072332564
 20
7.2340709805
 30
0.0
 10
10.80593568
 20
7.2165464052
 30
0.0
 10
10.803355042
 20
7.1992516363
 30
0.0
 10
10.7995049152
 20
7.1822790972
 30
0.0
 10
10.7944056672
 20
7.1657195375
 30
0.0
 10
10.7880843717
 20
7.1496615514
 30
0.0
 10
10.7805746445
 20
7.1341910681
 30
0.0
 10
10.7719165876
 20
7.1193909938
 30
0.0
 10
10.762156155
 20
7.105340342
 30
0.0
 10
10.7513464976
 20
7.0921153361
 30
0.0
 10
10.7434756385
 20
7.083892866
 30
0.0
 10
10.7393887755
 20
7.0799452559
 30
0.0
  0
SPLINE
  5
2BC
100
AcDbEntity
  8
0
100
AcDbSpline
 62
7
  6
CONTINUOUS
 70
0
 71
3
 72
39
 73
35
 74
0
 42
0.0000001
 43
0.0000001
 44
0.0000000001
 40
0.0
 40
0.0
 40
0.0
 40
0.0
 40
0.0311449008
 40
0.0624431523
 40
0.093888332
 40
0.1254709881
 40
0.1571788807
 40
0.1889972566
 40
0.2209091706
 40
0.2528958383
 40
0.2849370172
 40
0.3170114073
 40
0.349097067
 40
0.3811718373
 40
0.4132137693
 40
0.4452015485
 40
0.4771149106
 40
0.5089350431
 40
0.540644966
 40
0.5722298857
 40
0.6036775159
 40
0.634978357
 40
0.6661259293
 40
0.697116951
 40
0.727951455
 40
0.7586328387
 40
0.7891678408
 40
0.8195664415
 40
0.8498416836
 40
0.8800094164
 40
0.9100879631
 40
0.9400977201
 40
0.9700606955
 40
1.0
 40
1.0
 40
1.0
 40
1.0
 10
9.8721672667
 20
8.3645785808
 30
0.0
 10
9.8780639935
 20
8.3641696414
 30
0.0
 10
9.8898609354
 20
8.3629181249
 30
0.0
 10
9.9074133198
 20
8.359765556
 30
0.0
 10
9.92477772
 20
8.3553497085
 30
0.0
 10
9.9418603121
 20
8.3496943844
 30
0.0
 10
9.9585703733
 20
8.3428298649
 30
0.0
 10
9.97481876
 20
8.3347928802
 30
0.0
 10
9.9905189159
 20
8.3256263768
 30
0.0
 10
10.005587181
 20
8.3153792983
 30
0.0
 10
10.0199432719
 20
8.3041063226
 30
0.0
 10
10.0335106933
 20
8.2918675731
 30
0.0
 10
10.0462171442
 20
8.2787283005
 30
0.0
 10
10.0579948984
 20
8.2647585382
 30
0.0
 10
10.0687811623
 20
8.2500327325
 30
0.0
 10
10.0785184063
 20
8.2346293504
 30
0.0
 10
10.0871546691
 20
8.2186304654
 30
0.0
 10
10.0946438334
 20
8.202121326
 30
0.0
 10
10.1009458705
 20
8.1851899064
 30
0.0
 10
10.1060270544
 20
8.1679264444
 30
0.0
 10
10.1098601425
 20
8.1504229662
 30
0.0
 10
10.112424524
 20
8.1327728032
 30
0.0
 10
10.1137063342
 20
8.1150701002
 30
0.0
 10
10.1136985346
 20
8.0974093201
 30
0.0
 10
10.1124009583
 20
8.0798847449
 30
0.0
 10
10.1098203203
 20
8.0625899759
 30
0.0
 10
10.1059701935
 20
8.0456174369
 30
0.0
 10
10.1008709455
 20
8.0290578771
 30
0.0
 10
10.09454965
 20
8.012999891
 30
0.0
 10
10.0870399228
 20
7.9975294077
 30
0.0
 10
10.0783818659
 20
7.9827293334
 30
0.0
 10
10.0686214333
 20
7.9686786816
 30
0.0
 10
10.0578117758
 20
7.9554536758
 30
0.0
 10
10.0499409167
 20
7.9472312056
 30
0.0
 10
10.0458540537
 20
7.9432835955
 30
0.0
  0
SPLINE
  5
2BD
100
AcDbEntity
  8
0
100
AcDbSpline
 62
7
  6
CONTINUOUS
 70
0
 71
3
 72
39
 73
35
 74
0
 42
0.0000001
 43
0.0000001
 44
0.0000000001
 40
0.0
 40
0.0
 40
0.0
 40
0.0
 40
0.0311449008
 40
0.0624431523
 40
0.093888332
 40
0.1254709881
 40
0.1571788807
 40
0.1889972566
 40
0.2209091706
 40
0.2528958383
 40
0.2849370172
 40
0.3170114073
 40
0.349097067
 40
0.3811718373
 40
0.4132137693
 40
0.4452015485
 40
0.4771149106
 40
0.5089350431
 40
0.540644966
 40
0.5722298857
 40
0.6036775159
 40
0.634978357
 40
0.6661259293
 40
0.697116951
 40
0.727951455
 40
0.7586328387
 40
0.7891678408
 40
0.8195664415
 40
0.8498416836
 40
0.8800094164
 40
0.9100879631
 40
0.9400977201
 40
0.9700606955
 40
1.0
 40
1.0
 40
1.0
 40
1.0
 10
11.2592367101
 20
8.2683849882
 30
0.0
 10
11.265133437
 20
8.2679760488
 30
0.0
 10
11.2769303789
 20
8.2667245323
 30
0.0
 10
11.2944827632
 20
8.2635719634
 30
0.0
 10
11.3118471635
 20
8.2591561159
 30
0.0
 10
11.3289297556
 20
8.2535007918
 30
0.0
 10
11.3456398167
 20
8.2466362723
 30
0.0
 10
11.3618882035
 20
8.2385992875
 30
0.0
 10
11.3775883593
 20
8.2294327842
 30
0.0
 10
11.3926566245
 20
8.2191857057
 30
0.0
 10
11.4070127153
 20
8.20791273
 30
0.0
 10
11.4205801367
 20
8.1956739805
 30
0.0
 10
11.4332865876
 20
8.1825347079
 30
0.0
 10
11.4450643419
 20
8.1685649456
 30
0.0
 10
11.4558506058
 20
8.1538391399
 30
0.0
 10
11.4655878497
 20
8.1384357578
 30
0.0
 10
11.4742241126
 20
8.1224368728
 30
0.0
 10
11.4817132768
 20
8.1059277334
 30
0.0
 10
11.488015314
 20
8.0889963138
 30
0.0
 10
11.4930964979
 20
8.0717328518
 30
0.0
 10
11.4969295859
 20
8.0542293736
 30
0.0
 10
11.4994939675
 20
8.0365792105
 30
0.0
 10
11.5007757777
 20
8.0188765076
 30
0.0
 10
11.5007679781
 20
8.0012157275
 30
0.0
 10
11.4994704017
 20
7.9836911522
 30
0.0
 10
11.4968897638
 20
7.9663963833
 30
0.0
 10
11.493039637
 20
7.9494238443
 30
0.0
 10
11.4879403889
 20
7.9328642845
 30
0.0
 10
11.4816190934
 20
7.9168062984
 30
0.0
 10
11.4741093662
 20
7.9013358151
 30
0.0
 10
11.4654513094
 20
7.8865357408
 30
0.0
 10
11.4556908768
 20
7.872485089
 30
0.0
 10
11.4448812193
 20
7.8592600831
 30
0.0
 10
11.4370103602
 20
7.851037613
 30
0.0
 10
11.4329234972
 20
7.8470900029
 30
0.0
  0
SPLINE
  5
2BE
100
AcDbEntity
  8
0
100
AcDbSpline
 62
7
  6
CONTINUOUS
 70
0
 71
3
 72
39
 73
35
 74
0
 42
0.0000001
 43
0.0000001
 44
0.0000000001
 40
0.0
 40
0.0
 40
0.0
 40
0.0
 40
0.0311449008
 40
0.0624431523
 40
0.093888332
 40
0.1254709881
 40
0.1571788807
 40
0.1889972566
 40
0.2209091706
 40
0.2528958383
 40
0.2849370172
 40
0.3170114073
 40
0.349097067
 40
0.3811718373
 40
0.4132137693
 40
0.4452015485
 40
0.4771149106
 40
0.5089350431
 40
0.540644966
 40
0.5722298857
 40
0.6036775159
 40
0.634978357
 40
0.6661259293
 40
0.697116951
 40
0.727951455
 40
0.7586328387
 40
0.7891678408
 40
0.8195664415
 40
0.8498416836
 40
0.8800094164
 40
0.9100879631
 40
0.9400977201
 40
0.9700606955
 40
1.0
 40
1.0
 40
1.0
 40
1.0
 10
10.5657019884
 20
9.1317232127
 30
0.0
 10
10.5715987153
 20
9.1313142733
 30
0.0
 10
10.5833956572
 20
9.1300627568
 30
0.0
 10
10.6009480415
 20
9.1269101879
 30
0.0
 10
10.6183124417
 20
9.1224943404
 30
0.0
 10
10.6353950338
 20
9.1168390163
 30
0.0
 10
10.652105095
 20
9.1099744968
 30
0.0
 10
10.6683534818
 20
9.101937512
 30
0.0
 10
10.6840536376
 20
9.0927710087
 30
0.0
 10
10.6991219027
 20
9.0825239302
 30
0.0
 10
10.7134779936
 20
9.0712509545
 30
0.0
 10
10.727045415
 20
9.059012205
 30
0.0
 10
10.7397518659
 20
9.0458729324
 30
0.0
 10
10.7515296202
 20
9.0319031701
 30
0.0
 10
10.7623158841
 20
9.0171773644
 30
0.0
 10
10.772053128
 20
9.0017739823
 30
0.0
 10
10.7806893908
 20
8.9857750973
 30
0.0
 10
10.7881785551
 20
8.9692659579
 30
0.0
 10
10.7944805922
 20
8.9523345383
 30
0.0
 10
10.7995617761
 20
8.9350710763
 30
0.0
 10
10.8033948642
 20
8.9175675981
 30
0.0
 10
10.8059592457
 20
8.899917435
 30
0.0
 10
10.807241056
 20
8.8822147321
 30
0.0
 10
10.8072332564
 20
8.864553952
 30
0.0
 10
10.80593568
 20
8.8470293768
 30
0.0
 10
10.803355042
 20
8.8297346078
 30
0.0
 10
10.7995049152
 20
8.8127620688
 30
0.0
 10
10.7944056672
 20
8.796202509
 30
0.0
 10
10.7880843717
 20
8.7801445229
 30
0.0
 10
10.7805746445
 20
8.7646740396
 30
0.0
 10
10.7719165876
 20
8.7498739653
 30
0.0
 10
10.762156155
 20
8.7358233135
 30
0.0
 10
10.7513464976
 20
8.7225983076
 30
0.0
 10
10.7434756385
 20
8.7143758375
 30
0.0
 10
10.7393887755
 20
8.7104282274
 30
0.0
  0
SPLINE
  5
2BF
100
AcDbEntity
  8
0
100
AcDbSpline
 62
7
  6
CONTINUOUS
 70
0
 71
3
 72
30
 73
26
 74
0
 42
0.0000001
 43
0.0000001
 44
0.0000000001
 40
0.0
 40
0.0
 40
0.0
 40
0.0
 40
0.0632727638
 40
0.1268203274
 40
0.158650791
 40
0.1904915953
 40
0.2541307521
 40
0.317634326
 40
0.3809185828
 40
0.4439279522
 40
0.5066330258
 40
0.5690278119
 40
0.6311265074
 40
0.6620796739
 40
0.6929716637
 40
0.723808249
 40
0.7545959535
 40
0.7853415346
 40
0.8160523677
 40
0.846735702
 40
0.8773991873
 40
0.9080501205
 40
0.9386959522
 40
0.9693437754
 40
1.0
 40
1.0
 40
1.0
 40
1.0
 10
10.1081787044
 20
8.1569215753
 30
0.0
 10
10.1018169584
 20
8.1583487538
 30
0.0
 10
10.0891576329
 20
8.1616356379
 30
0.0
 10
10.0736272376
 20
8.1667796121
 30
0.0
 10
10.0613986694
 20
8.1715089146
 30
0.0
 10
10.0493234449
 20
8.176640975
 30
0.0
 10
10.034569345
 20
8.1837908266
 30
0.0
 10
10.017506254
 20
8.1935093166
 30
0.0
 10
10.0011911709
 20
8.2043217107
 30
0.0
 10
9.9857244896
 20
8.2161824088
 30
0.0
 10
9.9712013758
 20
8.2290449899
 30
0.0
 10
9.9577144818
 20
8.2428597755
 30
0.0
 10
9.9474007763
 20
8.2551372799
 30
0.0
 10
9.9397620764
 20
8.2653760857
 30
0.0
 10
9.9343525082
 20
8.2732496666
 30
0.0
 10
9.9292674246
 20
8.2813163784
 30
0.0
 10
9.9245170383
 20
8.2895673235
 30
0.0
 10
9.9201111007
 20
8.2979926657
 30
0.0
 10
9.9160593412
 20
8.3065821172
 30
0.0
 10
9.9123706393
 20
8.3153245026
 30
0.0
 10
9.909053794
 20
8.3242080998
 30
0.0
 10
9.9061165859
 20
8.3332203073
 30
0.0
 10
9.903566415
 20
8.342348002
 30
0.0
 10
9.9014097675
 20
8.3515770069
 30
0.0
 10
9.9002382427
 20
8.3577867887
 30
0.0
 10
9.899719832
 20
8.3609028941
 30
0.0
  0
SPLINE
  5
2C0
100
AcDbEntity
  8
0
100
AcDbSpline
 62
7
  6
CONTINUOUS
 70
0
 71
3
 72
22
 73
18
 74
0
 42
0.0000001
 43
0.0000001
 44
0.0000000001
 40
0.0
 40
0.0
 40
0.0
 40
0.0
 40
0.0960681373
 40
0.146559949
 40
0.1987893782
 40
0.2528455221
 40
0.3088223925
 40
0.3668253457
 40
0.4269649639
 40
0.4893630405
 40
0.5541466515
 40
0.6214487739
 40
0.691402417
 40
0.7641363964
 40
0.8397639086
 40
0.9183712066
 40
1.0
 40
1.0
 40
1.0
 40
1.0
 10
11.4591900007
 20
8.0712596932
 30
0.0
 10
11.4563434899
 20
8.0757726366
 30
0.0
 10
11.452107438
 20
8.0827253399
 30
0.0
 10
11.4465609435
 20
8.0922721249
 30
0.0
 10
11.4422911397
 20
8.0998612118
 30
0.0
 10
11.4379792595
 20
8.1077751681
 30
0.0
 10
11.4336237671
 20
8.1160296043
 30
0.0
 10
11.4292250242
 20
8.1246422815
 30
0.0
 10
11.4247825711
 20
8.1336321211
 30
0.0
 10
11.4202986127
 20
8.1430205028
 30
0.0
 10
11.4157753087
 20
8.1528298771
 30
0.0
 10
11.4112182472
 20
8.1630846367
 30
0.0
 10
11.4066350181
 20
8.1738097097
 30
0.0
 10
11.4020374535
 20
8.1850300904
 30
0.0
 10
11.3974426848
 20
8.196769426
 30
0.0
 10
11.3928743109
 20
8.2090476658
 30
0.0
 10
11.3899229879
 20
8.2174443026
 30
0.0
 10
11.3884612543
 20
8.2217358898
 30
0.0
  0
SPLINE
  5
2C1
100
AcDbEntity
  8
0
100
AcDbSpline
 62
7
  6
CONTINUOUS
 70
0
 71
3
 72
49
 73
45
 74
0
 42
0.0000001
 43
0.0000001
 44
0.0000000001
 40
0.0
 40
0.0
 40
0.0
 40
0.0
 40
0.007162651
 40
0.0146567047
 40
0.022489802
 40
0.0306682658
 40
0.039197236
 40
0.0480804432
 40
0.0573201505
 40
0.0669176598
 40
0.0768732462
 40
0.0871864326
 40
0.0978559349
 40
0.1088797421
 40
0.1202552948
 40
0.1319793485
 40
0.1440482505
 40
0.156457763
 40
0.1692032492
 40
0.1822796554
 40
0.19568148
 40
0.2094029484
 40
0.2377791912
 40
0.2673557091
 40
0.2980746237
 40
0.3298738609
 40
0.362687558
 40
0.3964464427
 40
0.4310781691
 40
0.466507628
 40
0.5026572389
 40
0.5394472298
 40
0.5767959041
 40
0.6146199124
 40
0.6528345158
 40
0.6913538428
 40
0.7300911403
 40
0.7689590294
 40
0.8078697587
 40
0.8467354142
 40
0.885468393
 40
0.9239808777
 40
0.9621872155
 40
1.0
 40
1.0
 40
1.0
 40
1.0
 10
7.6288392055
 20
9.9969847654
 30
0.0
 10
7.6273488821
 20
9.9955452234
 30
0.0
 10
7.6243702292
 20
9.9925253785
 30
0.0
 10
7.6200045054
 20
9.9876994034
 30
0.0
 10
7.6156443551
 20
9.982479372
 30
0.0
 10
7.6112925411
 20
9.9768686643
 30
0.0
 10
7.6069514775
 20
9.9708705383
 30
0.0
 10
7.602623698
 20
9.9644884665
 30
0.0
 10
7.5983116618
 20
9.9577262477
 30
0.0
 10
7.594018042
 20
9.9505878615
 30
0.0
 10
7.5897453147
 20
9.9430775962
 30
0.0
 10
7.5854960738
 20
9.9351999008
 30
0.0
 10
7.5812728517
 20
9.9269594769
 30
0.0
 10
7.5770781488
 20
9.9183612566
 30
0.0
 10
7.572914553
 20
9.9094103653
 30
0.0
 10
7.5687844865
 20
9.9001121871
 30
0.0
 10
7.5646905116
 20
9.8904722749
 30
0.0
 10
7.5606350396
 20
9.8804964258
 30
0.0
 10
7.5566205341
 20
9.8701906214
 30
0.0
 10
7.5526494361
 20
9.8595610516
 30
0.0
 10
7.5487240727
 20
9.8486141007
 30
0.0
 10
7.5434959906
 20
9.8334336759
 30
0.0
 10
7.5371025864
 20
9.8137076584
 30
0.0
 10
7.5297331518
 20
9.7891358459
 30
0.0
 10
7.5226009505
 20
9.7634649827
 30
0.0
 10
7.5157232547
 20
9.7367568216
 30
0.0
 10
7.5091167126
 20
9.7090754972
 30
0.0
 10
7.502797313
 20
9.6804875668
 30
0.0
 10
7.4967803451
 20
9.6510617809
 30
0.0
 10
7.4910803624
 20
9.6208689294
 30
0.0
 10
7.4857111477
 20
9.5899816635
 30
0.0
 10
7.4806856822
 20
9.5584743217
 30
0.0
 10
7.4760161064
 20
9.5264227483
 30
0.0
 10
7.4717136969
 20
9.4939041077
 30
0.0
 10
7.4677888414
 20
9.460996693
 30
0.0
 10
7.4642510135
 20
9.4277797379
 30
0.0
 10
7.4611087498
 20
9.3943332244
 30
0.0
 10
7.4583696304
 20
9.3607376894
 30
0.0
 10
7.4560402609
 20
9.327074042
 30
0.0
 10
7.4541262361
 20
9.2934233133
 30
0.0
 10
7.4526321851
 20
9.2598666394
 30
0.0
 10
7.4515616418
 20
9.2264845823
 30
0.0
 10
7.4509172424
 20
9.1933578671
 30
0.0
 10
7.4507718494
 20
9.1713665146
 30
0.0
 10
7.4507718494
 20
9.1604278893
 30
0.0
  0
SPLINE
  5
2C2
100
AcDbEntity
  8
0
100
AcDbSpline
 62
7
  6
CONTINUOUS
 70
0
 71
3
 72
36
 73
32
 74
0
 42
0.0000001
 43
0.0000001
 44
0.0000000001
 40
0.0
 40
0.0
 40
0.0
 40
0.0
 40
0.0851785676
 40
0.1685799412
 40
0.2498822288
 40
0.2896484595
 40
0.3287737794
 40
0.3672213323
 40
0.4049550248
 40
0.4419399621
 40
0.4781422097
 40
0.5135290828
 40
0.5480690991
 40
0.5817320933
 40
0.6144894081
 40
0.6463137811
 40
0.6771797808
 40
0.7070635563
 40
0.7359433837
 40
0.7637994846
 40
0.7906144915
 40
0.8163735534
 40
0.8410646067
 40
0.8646788865
 40
0.8872110453
 40
0.9086600689
 40
0.9290294673
 40
0.9483284919
 40
0.9665727628
 40
0.9837857144
 40
1.0
 40
1.0
 40
1.0
 40
1.0
 10
7.4507718494
 20
7.4700575931
 30
0.0
 10
7.4507718494
 20
7.4558024489
 30
0.0
 10
7.4510147535
 20
7.4275888787
 30
0.0
 10
7.4521288989
 20
7.3857822478
 30
0.0
 10
7.4536863843
 20
7.3515960427
 30
0.0
 10
7.455310622
 20
7.3248354986
 30
0.0
 10
7.456702603
 20
7.305247118
 30
0.0
 10
7.4582757558
 20
7.2860137259
 30
0.0
 10
7.4600284937
 20
7.2671555615
 30
0.0
 10
7.4619588912
 20
7.2486925032
 30
0.0
 10
7.4640649511
 20
7.2306439904
 30
0.0
 10
7.4663444079
 20
7.2130290304
 30
0.0
 10
7.4687948523
 20
7.195866169
 30
0.0
 10
7.471413702
 20
7.1791734701
 30
0.0
 10
7.4741981376
 20
7.1629684998
 30
0.0
 10
7.4771452683
 20
7.1472683018
 30
0.0
 10
7.4802518932
 20
7.1320893817
 30
0.0
 10
7.4835147977
 20
7.1174476884
 30
0.0
 10
7.4869304519
 20
7.1033585905
 30
0.0
 10
7.4904952924
 20
7.0898368664
 30
0.0
 10
7.4942055195
 20
7.0768966773
 30
0.0
 10
7.4980572105
 20
7.0645515534
 30
0.0
 10
7.5020463432
 20
7.0528143827
 30
0.0
 10
7.5061686599
 20
7.0416973675
 30
0.0
 10
7.5104199471
 20
7.0312120559
 30
0.0
 10
7.5147956871
 20
7.0213692517
 30
0.0
 10
7.5192915045
 20
7.0121790835
 30
0.0
 10
7.5239027396
 20
7.0036509359
 30
0.0
 10
7.5286249949
 20
6.9957933583
 30
0.0
 10
7.5334533914
 20
6.9886146617
 30
0.0
 10
7.5368390844
 20
6.9841560245
 30
0.0
 10
7.5385512596
 20
6.9820508279
 30
0.0
  0
SPLINE
  5
2C3
100
AcDbEntity
  8
0
100
AcDbSpline
 62
7
  6
CONTINUOUS
 70
0
 71
3
 72
15
 73
11
 74
0
 42
0.0000001
 43
0.0000001
 44
0.0000000001
 40
0.0
 40
0.0
 40
0.0
 40
0.0
 40
0.1453433456
 40
0.2840025293
 40
0.4163086404
 40
0.5426778907
 40
0.6636084578
 40
0.7796802532
 40
0.8915590885
 40
1.0
 40
1.0
 40
1.0
 40
1.0
 10
14.0831338777
 20
9.0689787862
 30
0.0
 10
14.0848517651
 20
9.0706381381
 30
0.0
 10
14.0882861161
 20
9.0738017093
 30
0.0
 10
14.0935602023
 20
9.0781643754
 30
0.0
 10
14.0988297682
 20
9.0820268357
 30
0.0
 10
14.1040915986
 20
9.0853861954
 30
0.0
 10
14.1093429143
 20
9.0882399355
 30
0.0
 10
14.1145810031
 20
9.0905857284
 30
0.0
 10
14.1198021705
 20
9.0924210617
 30
0.0
 10
14.1233168805
 20
9.0933147311
 30
0.0
 10
14.1250628877
 20
9.0936711259
 30
0.0
  0
SPLINE
  5
2C4
100
AcDbEntity
  8
0
100
AcDbSpline
 62
7
  6
CONTINUOUS
 70
0
 71
3
 72
95
 73
91
 74
0
 42
0.0000001
 43
0.0000001
 44
0.0000000001
 40
0.0
 40
0.0
 40
0.0
 40
0.0
 40
0.0039235008
 40
0.0080088115
 40
0.0122593913
 40
0.0166781656
 40
0.021267608
 40
0.026029662
 40
0.0309656337
 40
0.0360763968
 40
0.0413624238
 40
0.0468238116
 40
0.0524603761
 40
0.0582715717
 40
0.064256614
 40
0.0704144635
 40
0.0767438208
 40
0.0832432227
 40
0.0899109538
 40
0.0967451451
 40
0.1037437548
 40
0.1109045464
 40
0.1257028805
 40
0.1411197781
 40
0.1571325206
 40
0.1737165176
 40
0.190845479
 40
0.2084915568
 40
0.2266254808
 40
0.2452166927
 40
0.2642334602
 40
0.2836429814
 40
0.3034114797
 40
0.3235043051
 40
0.3438860356
 40
0.3645205689
 40
0.3853712111
 40
0.4064007622
 40
0.4275716098
 40
0.4488458202
 40
0.4701852234
 40
0.4915514995
 40
0.5129062665
 40
0.5342111701
 40
0.5554279705
 40
0.5765186274
 40
0.5974453875
 40
0.6181708778
 40
0.6386581926
 40
0.6588709806
 40
0.6787735332
 40
0.698330879
 40
0.7175088858
 40
0.7362743506
 40
0.7545950974
 40
0.7724400797
 40
0.7897794979
 40
0.8065849272
 40
0.8228294364
 40
0.8384877306
 40
0.8535363133
 40
0.8679536867
 40
0.8749197048
 40
0.8817208803
 40
0.8883552212
 40
0.894820859
 40
0.9011161589
 40
0.9072396692
 40
0.9131901396
 40
0.9189666005
 40
0.9245682832
 40
0.9299947425
 40
0.9352458248
 40
0.9403216925
 40
0.9452229293
 40
0.9499504788
 40
0.9545057876
 40
0.9588908107
 40
0.96310806
 40
0.9671607522
 40
0.9710527919
 40
0.9747889525
 40
0.9783749408
 40
0.9818174911
 40
0.9851245514
 40
0.9883053168
 40
0.9913704023
 40
0.9943318987
 40
0.9972033947
 40
1.0
 40
1.0
 40
1.0
 40
1.0
 10
14.0831338777
 20
9.0689787862
 30
0.0
 10
14.0815729179
 20
9.0674710147
 30
0.0
 10
14.0784526147
 20
9.0643243582
 30
0.0
 10
14.0738676468
 20
9.0593261338
 30
0.0
 10
14.069287282
 20
9.0539581608
 30
0.0
 10
14.0647139061
 20
9.0482232171
 30
0.0
 10
14.0601495235
 20
9.0421240012
 30
0.0
 10
14.0555962779
 20
9.0356632973
 30
0.0
 10
14.0510562117
 20
9.0288441719
 30
0.0
 10
14.0465315252
 20
9.0216698347
 30
0.0
 10
14.0420243779
 20
9.0141436911
 30
0.0
 10
14.0375368541
 20
9.0062693309
 30
0.0
 10
14.0330711563
 20
8.9980504584
 30
0.0
 10
14.0286293463
 20
8.9894910057
 30
0.0
 10
14.0242135775
 20
8.980595034
 30
0.0
 10
14.0198259739
 20
8.9713667786
 30
0.0
 10
14.0154685836
 20
8.9618106535
 30
0.0
 10
14.0111435589
 20
8.9519311973
 30
0.0
 10
14.0068529136
 20
8.9417331422
 30
0.0
 10
14.0025987319
 20
8.9312213539
 30
0.0
 10
13.998383049
 20
8.9204008429
 30
0.0
 10
13.9927544577
 20
8.9054042937
 30
0.0
 10
13.985839222
 20
8.8859188157
 30
0.0
 10
13.9778142917
 20
8.861638247
 30
0.0
 10
13.9699899435
 20
8.8362569205
 30
0.0
 10
13.9623812285
 20
8.8098233986
 30
0.0
 10
13.9550027955
 20
8.7823881304
 30
0.0
 10
13.9478688413
 20
8.7540035652
 30
0.0
 10
13.9409930818
 20
8.7247239866
 30
0.0
 10
13.9343887398
 20
8.6946054114
 30
0.0
 10
13.9280685141
 20
8.6637054713
 30
0.0
 10
13.9220445603
 20
8.6320833055
 30
0.0
 10
13.916328454
 20
8.5997994524
 30
0.0
 10
13.9109311715
 20
8.5669157287
 30
0.0
 10
13.9058630797
 20
8.5334951036
 30
0.0
 10
13.9011339126
 20
8.4996015761
 30
0.0
 10
13.8967527571
 20
8.465300056
 30
0.0
 10
13.8927280194
 20
8.4306562417
 30
0.0
 10
13.8890674177
 20
8.3957364908
 30
0.0
 10
13.8857779741
 20
8.3606076891
 30
0.0
 10
13.8828659986
 20
8.3253371235
 30
0.0
 10
13.8803370802
 20
8.2899923543
 30
0.0
 10
13.8781960589
 20
8.2546410858
 30
0.0
 10
13.876447029
 20
8.2193510338
 30
0.0
 10
13.8750933347
 20
8.1841897959
 30
0.0
 10
13.8741375626
 20
8.1492247233
 30
0.0
 10
13.8735815375
 20
8.1145227905
 30
0.0
 10
13.8734263013
 20
8.0801504649
 30
0.0
 10
13.8736721275
 20
8.0461735776
 30
0.0
 10
13.8743185203
 20
8.0126572007
 30
0.0
 10
13.8753642159
 20
7.979665523
 30
0.0
 10
13.8768071828
 20
7.9472617222
 30
0.0
 10
13.8786446098
 20
7.9155078395
 30
0.0
 10
13.8808729287
 20
7.8844646606
 30
0.0
 10
13.8834878193
 20
7.8541916042
 30
0.0
 10
13.8864842184
 20
7.8247466051
 30
0.0
 10
13.8898563248
 20
7.7961859943
 30
0.0
 10
13.8935975962
 20
7.7685643788
 30
0.0
 10
13.8977007829
 20
7.7419345541
 30
0.0
 10
13.9021579315
 20
7.7163473419
 30
0.0
 10
13.9069604279
 20
7.6918517023
 30
0.0
 10
13.9112906009
 20
7.6721682224
 30
0.0
 10
13.9149294709
 20
7.6570084357
 30
0.0
 10
13.9177078759
 20
7.646070535
 30
0.0
 10
13.9205653778
 20
7.6354393683
 30
0.0
 10
13.9235006886
 20
7.6251200086
 30
0.0
 10
13.926512356
 20
7.6151173805
 30
0.0
 10
13.9295989357
 20
7.6054362534
 30
0.0
 10
13.9327589939
 20
7.5960812526
 30
0.0
 10
13.9359909492
 20
7.5870568203
 30
0.0
 10
13.9392933256
 20
7.578367265
 30
0.0
 10
13.9426645104
 20
7.5700167093
 30
0.0
 10
13.94610289
 20
7.562009112
 30
0.0
 10
13.9496068902
 20
7.5543482876
 30
0.0
 10
13.9531747745
 20
7.5470378334
 30
0.0
 10
13.956804939
 20
7.5400812265
 30
0.0
 10
13.9604956512
 20
7.5334817332
 30
0.0
 10
13.9642451809
 20
7.5272424456
 30
0.0
 10
13.9680518748
 20
7.5213663296
 30
0.0
 10
13.9719139135
 20
7.515856093
 30
0.0
 10
13.9758296456
 20
7.5107143653
 30
0.0
 10
13.979797314
 20
7.5059435548
 30
0.0
 10
13.9838151748
 20
7.5015459042
 30
0.0
 10
13.9878815992
 20
7.4975236078
 30
0.0
 10
13.9919947903
 20
7.4938785821
 30
0.0
 10
13.9961531286
 20
7.490612786
 30
0.0
 10
14.0003548281
 20
7.4877280166
 30
0.0
 10
14.0045981939
 20
7.4852259164
 30
0.0
 10
14.0088809998
 20
7.483108387
 30
0.0
 10
14.0117949147
 20
7.4819405466
 30
0.0
 10
14.013253363
 20
7.4814249153
 30
0.0
  0
SPLINE
  5
2C5
100
AcDbEntity
  8
0
100
AcDbSpline
 62
7
  6
CONTINUOUS
 70
0
 71
3
 72
49
 73
45
 74
0
 42
0.0000001
 43
0.0000001
 44
0.0000000001
 40
0.0
 40
0.0
 40
0.0
 40
0.0
 40
0.0378127845
 40
0.0760191223
 40
0.114531607
 40
0.1532645858
 40
0.1921302413
 40
0.2310409706
 40
0.2699088597
 40
0.3086461572
 40
0.3471654842
 40
0.3853800876
 40
0.4232040959
 40
0.4605527702
 40
0.4973427611
 40
0.533492372
 40
0.5689218309
 40
0.6035535573
 40
0.637312442
 40
0.6701261391
 40
0.7019253763
 40
0.7326442909
 40
0.7622208088
 40
0.7905970516
 40
0.80431852
 40
0.8177203446
 40
0.8307967508
 40
0.843542237
 40
0.8559517495
 40
0.8680206515
 40
0.8797447052
 40
0.8911202579
 40
0.9021440651
 40
0.9128135674
 40
0.9231267538
 40
0.9330823402
 40
0.9426798495
 40
0.9519195568
 40
0.960802764
 40
0.9693317342
 40
0.977510198
 40
0.9853432953
 40
0.992837349
 40
1.0
 40
1.0
 40
1.0
 40
1.0
 10
14.5492281506
 20
7.7860713803
 30
0.0
 10
14.5492281506
 20
7.775132755
 30
0.0
 10
14.5490827576
 20
7.7531414024
 30
0.0
 10
14.5484383582
 20
7.7200146872
 30
0.0
 10
14.5473678149
 20
7.6866326301
 30
0.0
 10
14.5458737639
 20
7.6530759563
 30
0.0
 10
14.5439597391
 20
7.6194252276
 30
0.0
 10
14.5416303696
 20
7.5857615801
 30
0.0
 10
14.5388912502
 20
7.5521660452
 30
0.0
 10
14.5357489865
 20
7.5187195317
 30
0.0
 10
14.5322111586
 20
7.4855025765
 30
0.0
 10
14.5282863031
 20
7.4525951619
 30
0.0
 10
14.5239838936
 20
7.4200765212
 30
0.0
 10
14.5193143178
 20
7.3880249479
 30
0.0
 10
14.5142888523
 20
7.356517606
 30
0.0
 10
14.5089196376
 20
7.3256303402
 30
0.0
 10
14.5032196549
 20
7.2954374886
 30
0.0
 10
14.497202687
 20
7.2660117027
 30
0.0
 10
14.4908832874
 20
7.2374237723
 30
0.0
 10
14.4842767453
 20
7.209742448
 30
0.0
 10
14.4773990495
 20
7.1830342869
 30
0.0
 10
14.4702668482
 20
7.1573634236
 30
0.0
 10
14.4628974136
 20
7.1327916111
 30
0.0
 10
14.4565040094
 20
7.1130655937
 30
0.0
 10
14.4512759273
 20
7.0978851689
 30
0.0
 10
14.4473505639
 20
7.086938218
 30
0.0
 10
14.4433794659
 20
7.0763086482
 30
0.0
 10
14.4393649604
 20
7.0660028438
 30
0.0
 10
14.4353094884
 20
7.0560269947
 30
0.0
 10
14.4312155135
 20
7.0463870824
 30
0.0
 10
14.427085447
 20
7.0370889042
 30
0.0
 10
14.4229218512
 20
7.028138013
 30
0.0
 10
14.4187271483
 20
7.0195397927
 30
0.0
 10
14.4145039262
 20
7.0112993687
 30
0.0
 10
14.4102546853
 20
7.0034216733
 30
0.0
 10
14.405981958
 20
6.995911408
 30
0.0
 10
14.4016883382
 20
6.9887730219
 30
0.0
 10
14.397376302
 20
6.982010803
 30
0.0
 10
14.3930485225
 20
6.9756287312
 30
0.0
 10
14.3887074589
 20
6.9696306053
 30
0.0
 10
14.3843556449
 20
6.9640198975
 30
0.0
 10
14.3799954946
 20
6.9587998662
 30
0.0
 10
14.3756297708
 20
6.953973891
 30
0.0
 10
14.3726511179
 20
6.9509540461
 30
0.0
 10
14.3711607945
 20
6.9495145042
 30
0.0
  0
SPLINE
  5
2C6
100
AcDbEntity
  8
0
100
AcDbSpline
 62
7
  6
CONTINUOUS
 70
0
 71
3
 72
24
 73
20
 74
0
 42
0.0000001
 43
0.0000001
 44
0.0000000001
 40
0.0
 40
0.0
 40
0.0
 40
0.0
 40
0.0616478629
 40
0.092481784
 40
0.1233243203
 40
0.1850410113
 40
0.246825752
 40
0.3087000522
 40
0.3706844264
 40
0.4327981632
 40
0.4950591366
 40
0.5574836428
 40
0.6200862031
 40
0.6828793215
 40
0.7458738189
 40
0.8090780183
 40
0.8724971396
 40
0.9361397753
 40
1.0
 40
1.0
 40
1.0
 40
1.0
 10
11.8997428547
 20
9.3885294432
 30
0.0
 10
11.9030645843
 20
9.3917379876
 30
0.0
 10
11.9081785644
 20
9.3964185831
 30
0.0
 10
11.9152402507
 20
9.4023768858
 30
0.0
 10
11.9224635477
 20
9.4081468029
 30
0.0
 10
11.9317858776
 20
9.4149970299
 30
0.0
 10
11.9434066111
 20
9.4226124511
 30
0.0
 10
11.9554351527
 20
9.42960619
 30
0.0
 10
11.9678410243
 20
9.4359604512
 30
0.0
 10
11.9805930004
 20
9.4416593066
 30
0.0
 10
11.9936589202
 20
9.4466884554
 30
0.0
 10
12.0070058816
 20
9.4510352434
 30
0.0
 10
12.0206002691
 20
9.4546887048
 30
0.0
 10
12.0344078304
 20
9.4576397502
 30
0.0
 10
12.0483938111
 20
9.4598809712
 30
0.0
 10
12.062522896
 20
9.4614067046
 30
0.0
 10
12.0767598821
 20
9.4622132685
 30
0.0
 10
12.0910681571
 20
9.4622984832
 30
0.0
 10
12.1006152606
 20
9.4618751326
 30
0.0
 10
12.1053878292
 20
9.4615441538
 30
0.0
  0
SPLINE
  5
2C7
100
AcDbEntity
  8
0
100
AcDbSpline
 62
7
  6
CONTINUOUS
 70
0
 71
3
 72
24
 73
20
 74
0
 42
0.0000001
 43
0.0000001
 44
0.0000000001
 40
0.0
 40
0.0
 40
0.0
 40
0.0
 40
0.0616478629
 40
0.092481784
 40
0.1233243203
 40
0.1850410113
 40
0.246825752
 40
0.3087000522
 40
0.3706844264
 40
0.4327981632
 40
0.4950591366
 40
0.5574836428
 40
0.6200862031
 40
0.6828793215
 40
0.7458738189
 40
0.8090780183
 40
0.8724971396
 40
0.9361397753
 40
1.0
 40
1.0
 40
1.0
 40
1.0
 10
8.8203712882
 20
9.6020845867
 30
0.0
 10
8.8236930178
 20
9.6052931311
 30
0.0
 10
8.8288069979
 20
9.6099737265
 30
0.0
 10
8.8358686842
 20
9.6159320292
 30
0.0
 10
8.8430919812
 20
9.6217019464
 30
0.0
 10
8.8524143111
 20
9.6285521733
 30
0.0
 10
8.8640350446
 20
9.6361675945
 30
0.0
 10
8.8760635861
 20
9.6431613335
 30
0.0
 10
8.8884694578
 20
9.6495155946
 30
0.0
 10
8.9012214339
 20
9.65521445
 30
0.0
 10
8.9142873537
 20
9.6602435989
 30
0.0
 10
8.927634315
 20
9.6645903869
 30
0.0
 10
8.9412287026
 20
9.6682438483
 30
0.0
 10
8.9550362639
 20
9.6711948937
 30
0.0
 10
8.9690222446
 20
9.6734361147
 30
0.0
 10
8.9831513295
 20
9.6749618481
 30
0.0
 10
8.9973883156
 20
9.6757684119
 30
0.0
 10
9.0116965906
 20
9.6758536267
 30
0.0
 10
9.021243694
 20
9.6754302761
 30
0.0
 10
9.0260162627
 20
9.6750992973
 30
0.0
  0
SPLINE
  5
2C8
100
AcDbEntity
  8
0
100
AcDbSpline
 62
7
  6
CONTINUOUS
 70
0
 71
3
 72
24
 73
20
 74
0
 42
0.0000001
 43
0.0000001
 44
0.0000000001
 40
0.0
 40
0.0
 40
0.0
 40
0.0
 40
0.0616478629
 40
0.092481784
 40
0.1233243203
 40
0.1850410113
 40
0.246825752
 40
0.3087000522
 40
0.3706844264
 40
0.4327981632
 40
0.4950591366
 40
0.5574836428
 40
0.6200862031
 40
0.6828793215
 40
0.7458738189
 40
0.8090780183
 40
0.8724971396
 40
0.9361397753
 40
1.0
 40
1.0
 40
1.0
 40
1.0
 10
8.8203712882
 20
7.1872698779
 30
0.0
 10
8.8236930178
 20
7.1904784223
 30
0.0
 10
8.8288069979
 20
7.1951590177
 30
0.0
 10
8.8358686842
 20
7.2011173204
 30
0.0
 10
8.8430919812
 20
7.2068872376
 30
0.0
 10
8.8524143111
 20
7.2137374645
 30
0.0
 10
8.8640350446
 20
7.2213528857
 30
0.0
 10
8.8760635861
 20
7.2283466247
 30
0.0
 10
8.8884694578
 20
7.2347008858
 30
0.0
 10
8.9012214339
 20
7.2403997412
 30
0.0
 10
8.9142873537
 20
7.2454288901
 30
0.0
 10
8.927634315
 20
7.2497756781
 30
0.0
 10
8.9412287026
 20
7.2534291395
 30
0.0
 10
8.9550362639
 20
7.2563801849
 30
0.0
 10
8.9690222446
 20
7.2586214059
 30
0.0
 10
8.9831513295
 20
7.2601471393
 30
0.0
 10
8.9973883156
 20
7.2609537031
 30
0.0
 10
9.0116965906
 20
7.2610389179
 30
0.0
 10
9.021243694
 20
7.2606155673
 30
0.0
 10
9.0260162627
 20
7.2602845885
 30
0.0
  0
SPLINE
  5
2C9
100
AcDbEntity
  8
0
100
AcDbSpline
 62
7
  6
CONTINUOUS
 70
0
 71
3
 72
24
 73
20
 74
0
 42
0.0000001
 43
0.0000001
 44
0.0000000001
 40
0.0
 40
0.0
 40
0.0
 40
0.0
 40
0.0616478629
 40
0.092481784
 40
0.1233243203
 40
0.1850410113
 40
0.246825752
 40
0.3087000522
 40
0.3706844264
 40
0.4327981632
 40
0.4950591366
 40
0.5574836428
 40
0.6200862031
 40
0.6828793215
 40
0.7458738189
 40
0.8090780183
 40
0.8724971396
 40
0.9361397753
 40
1.0
 40
1.0
 40
1.0
 40
1.0
 10
11.8997428547
 20
6.9737147344
 30
0.0
 10
11.9030645843
 20
6.9769232788
 30
0.0
 10
11.9081785644
 20
6.9816038743
 30
0.0
 10
11.9152402507
 20
6.987562177
 30
0.0
 10
11.9224635477
 20
6.9933320941
 30
0.0
 10
11.9317858776
 20
7.0001823211
 30
0.0
 10
11.9434066111
 20
7.0077977423
 30
0.0
 10
11.9554351527
 20
7.0147914812
 30
0.0
 10
11.9678410243
 20
7.0211457424
 30
0.0
 10
11.9805930004
 20
7.0268445978
 30
0.0
 10
11.9936589202
 20
7.0318737466
 30
0.0
 10
12.0070058816
 20
7.0362205346
 30
0.0
 10
12.0206002691
 20
7.039873996
 30
0.0
 10
12.0344078304
 20
7.0428250414
 30
0.0
 10
12.0483938111
 20
7.0450662624
 30
0.0
 10
12.062522896
 20
7.0465919958
 30
0.0
 10
12.0767598821
 20
7.0473985596
 30
0.0
 10
12.0910681571
 20
7.0474837744
 30
0.0
 10
12.1006152606
 20
7.0470604238
 30
0.0
 10
12.1053878292
 20
7.046729445
 30
0.0
  0
SPLINE
  5
2CA
100
AcDbEntity
  8
0
100
AcDbSpline
 62
7
  6
CONTINUOUS
 70
0
 71
3
 72
21
 73
17
 74
0
 42
0.0000001
 43
0.0000001
 44
0.0000000001
 40
0.0
 40
0.0
 40
0.0
 40
0.0
 40
0.0616532201
 40
0.1233294852
 40
0.1850515324
 40
0.2468416558
 40
0.3087213443
 40
0.3707110957
 40
0.4328302417
 40
0.4950966495
 40
0.5575265918
 40
0.6201344754
 40
0.6829332282
 40
0.7459334838
 40
0.8725260222
 40
1.0
 40
1.0
 40
1.0
 40
1.0
 10
10.4753851435
 20
8.1685035918
 30
0.0
 10
10.4768440087
 20
8.1699127439
 30
0.0
 10
10.4798387111
 20
8.1726536702
 30
0.0
 10
10.4845461729
 20
8.17651845
 30
0.0
 10
10.4894580432
 20
8.1801277778
 30
0.0
 10
10.4945617652
 20
8.1834724273
 30
0.0
 10
10.4998445745
 20
8.1865439306
 30
0.0
 10
10.5052930705
 20
8.1893346786
 30
0.0
 10
10.5108935972
 20
8.191837521
 30
0.0
 10
10.5166319932
 20
8.1940462548
 30
0.0
 10
10.5224938222
 20
8.1959553125
 30
0.0
 10
10.5284642922
 20
8.1975598467
 30
0.0
 10
10.5345285168
 20
8.1988559464
 30
0.0
 10
10.542730333
 20
8.200170261
 30
0.0
 10
10.5531453148
 20
8.2010242464
 30
0.0
 10
10.5615183328
 20
8.200860816
 30
0.0
 10
10.5657019884
 20
8.2005706785
 30
0.0
  0
SPLINE
  5
2CB
100
AcDbEntity
  8
0
100
AcDbSpline
 62
7
  6
CONTINUOUS
 70
0
 71
3
 72
23
 73
19
 74
0
 42
0.0000001
 43
0.0000001
 44
0.0000000001
 40
0.0
 40
0.0
 40
0.0
 40
0.0
 40
0.0616482156
 40
0.1233194448
 40
0.1850364824
 40
0.2468215709
 40
0.3086962096
 40
0.3706809325
 40
0.432795002
 40
0.4950563289
 40
0.5574812109
 40
0.6200840208
 40
0.6828775523
 40
0.7458726718
 40
0.8090764916
 40
0.8724961142
 40
0.9361412363
 40
1.0
 40
1.0
 40
1.0
 40
1.0
 10
11.3324499846
 20
6.8881963212
 30
0.0
 10
11.3342006295
 20
6.8898873194
 30
0.0
 10
11.3377943017
 20
6.8931764436
 30
0.0
 10
11.3434432528
 20
6.8978142532
 30
0.0
 10
11.3493374982
 20
6.9021455248
 30
0.0
 10
11.3554620231
 20
6.9061590959
 30
0.0
 10
11.3618013795
 20
6.9098450158
 30
0.0
 10
11.3683396312
 20
6.9131939052
 30
0.0
 10
11.3750602858
 20
6.9161973705
 30
0.0
 10
11.3819463891
 20
6.9188479155
 30
0.0
 10
11.3889806308
 20
6.9211387639
 30
0.0
 10
11.3961452536
 20
6.9230642787
 30
0.0
 10
11.4034222416
 20
6.9246195925
 30
0.0
 10
11.4107932491
 20
6.9258007229
 30
0.0
 10
11.4182396636
 20
6.9266048923
 30
0.0
 10
11.4257430286
 20
6.9270299747
 30
0.0
 10
11.4332839195
 20
6.9270748372
 30
0.0
 10
11.4383155316
 20
6.9268517514
 30
0.0
 10
11.4408307412
 20
6.926677321
 30
0.0
  0
SPLINE
  5
2CC
100
AcDbEntity
  8
0
100
AcDbSpline
 62
7
  6
CONTINUOUS
 70
0
 71
3
 72
23
 73
19
 74
0
 42
0.0000001
 43
0.0000001
 44
0.0000000001
 40
0.0
 40
0.0
 40
0.0
 40
0.0
 40
0.0616482124
 40
0.1233194439
 40
0.1850364753
 40
0.2468215683
 40
0.3086962113
 40
0.3706809222
 40
0.4327950085
 40
0.4950563306
 40
0.5574811863
 40
0.6200840811
 40
0.6828775412
 40
0.7458724798
 40
0.8090768825
 40
0.8724962987
 40
0.9361399042
 40
1.0
 40
1.0
 40
1.0
 40
1.0
 10
10.3920152013
 20
7.4395722847
 30
0.0
 10
10.3948207181
 20
7.4422822083
 30
0.0
 10
10.4005797989
 20
7.4475532238
 30
0.0
 10
10.4096326068
 20
7.4549855657
 30
0.0
 10
10.419078505
 20
7.4619266686
 30
0.0
 10
10.4288934152
 20
7.4683586767
 30
0.0
 10
10.4390526565
 20
7.4742655166
 30
0.0
 10
10.4495305866
 20
7.4796323363
 30
0.0
 10
10.4603008403
 20
7.484445578
 30
0.0
 10
10.4713362672
 20
7.488693151
 30
0.0
 10
10.4826090459
 20
7.4923644366
 30
0.0
 10
10.4940907951
 20
7.4954501638
 30
0.0
 10
10.5057526071
 20
7.4979425891
 30
0.0
 10
10.5175651
 20
7.499835502
 30
0.0
 10
10.5294984504
 20
7.5011241601
 30
0.0
 10
10.5415229714
 20
7.5018053753
 30
0.0
 10
10.5536076799
 20
7.5018773292
 30
0.0
 10
10.5616711291
 20
7.5015197822
 30
0.0
 10
10.5657019884
 20
7.5012402412
 30
0.0
  0
SPLINE
  5
2CD
100
AcDbEntity
  8
0
100
AcDbSpline
 62
7
  6
CONTINUOUS
 70
0
 71
3
 72
23
 73
19
 74
0
 42
0.0000001
 43
0.0000001
 44
0.0000000001
 40
0.0
 40
0.0
 40
0.0
 40
0.0
 40
0.0616482124
 40
0.1233194439
 40
0.1850364753
 40
0.2468215683
 40
0.3086962113
 40
0.3706809222
 40
0.4327950085
 40
0.4950563306
 40
0.5574811863
 40
0.6200840811
 40
0.6828775412
 40
0.7458724798
 40
0.8090768825
 40
0.8724962987
 40
0.9361399042
 40
1.0
 40
1.0
 40
1.0
 40
1.0
 10
9.6984804796
 20
8.3029106244
 30
0.0
 10
9.7012859964
 20
8.305620548
 30
0.0
 10
9.7070450772
 20
8.3108915634
 30
0.0
 10
9.716097885
 20
8.3183239053
 30
0.0
 10
9.7255437833
 20
8.3252650082
 30
0.0
 10
9.7353586934
 20
8.3316970164
 30
0.0
 10
9.7455179347
 20
8.3376038562
 30
0.0
 10
9.7559958649
 20
8.342970676
 30
0.0
 10
9.7667661185
 20
8.3477839176
 30
0.0
 10
9.7778015454
 20
8.3520314907
 30
0.0
 10
9.7890743242
 20
8.3557027762
 30
0.0
 10
9.8005560734
 20
8.3587885035
 30
0.0
 10
9.8122178854
 20
8.3612809287
 30
0.0
 10
9.8240303783
 20
8.3631738416
 30
0.0
 10
9.8359637287
 20
8.3644624997
 30
0.0
 10
9.8479882497
 20
8.365143715
 30
0.0
 10
9.8600729582
 20
8.3652156689
 30
0.0
 10
9.8681364073
 20
8.3648581219
 30
0.0
 10
9.8721672667
 20
8.3645785808
 30
0.0
  0
SPLINE
  5
2CE
100
AcDbEntity
  8
0
100
AcDbSpline
 62
7
  6
CONTINUOUS
 70
0
 71
3
 72
23
 73
19
 74
0
 42
0.0000001
 43
0.0000001
 44
0.0000000001
 40
0.0
 40
0.0
 40
0.0
 40
0.0
 40
0.0616482124
 40
0.1233194439
 40
0.1850364753
 40
0.2468215683
 40
0.3086962113
 40
0.3706809222
 40
0.4327950085
 40
0.4950563306
 40
0.5574811863
 40
0.6200840811
 40
0.6828775412
 40
0.7458724798
 40
0.8090768825
 40
0.8724962987
 40
0.9361399042
 40
1.0
 40
1.0
 40
1.0
 40
1.0
 10
11.085549923
 20
8.2067170318
 30
0.0
 10
11.0883554398
 20
8.2094269554
 30
0.0
 10
11.0941145206
 20
8.2146979708
 30
0.0
 10
11.1031673285
 20
8.2221303127
 30
0.0
 10
11.1126132268
 20
8.2290714156
 30
0.0
 10
11.1224281369
 20
8.2355034237
 30
0.0
 10
11.1325873782
 20
8.2414102636
 30
0.0
 10
11.1430653083
 20
8.2467770834
 30
0.0
 10
11.153835562
 20
8.251590325
 30
0.0
 10
11.1648709889
 20
8.2558378981
 30
0.0
 10
11.1761437677
 20
8.2595091836
 30
0.0
 10
11.1876255168
 20
8.2625949109
 30
0.0
 10
11.1992873288
 20
8.2650873361
 30
0.0
 10
11.2110998218
 20
8.266980249
 30
0.0
 10
11.2230331722
 20
8.2682689071
 30
0.0
 10
11.2350576931
 20
8.2689501224
 30
0.0
 10
11.2471424017
 20
8.2690220763
 30
0.0
 10
11.2552058508
 20
8.2686645293
 30
0.0
 10
11.2592367101
 20
8.2683849882
 30
0.0
  0
SPLINE
  5
2CF
100
AcDbEntity
  8
0
100
AcDbSpline
 62
7
  6
CONTINUOUS
 70
0
 71
3
 72
23
 73
19
 74
0
 42
0.0000001
 43
0.0000001
 44
0.0000000001
 40
0.0
 40
0.0
 40
0.0
 40
0.0
 40
0.0616482124
 40
0.1233194439
 40
0.1850364753
 40
0.2468215683
 40
0.3086962113
 40
0.3706809222
 40
0.4327950085
 40
0.4950563306
 40
0.5574811863
 40
0.6200840811
 40
0.6828775412
 40
0.7458724798
 40
0.8090768825
 40
0.8724962987
 40
0.9361399042
 40
1.0
 40
1.0
 40
1.0
 40
1.0
 10
10.3920152013
 20
9.0700552563
 30
0.0
 10
10.3948207181
 20
9.0727651799
 30
0.0
 10
10.4005797989
 20
9.0780361953
 30
0.0
 10
10.4096326068
 20
9.0854685372
 30
0.0
 10
10.419078505
 20
9.0924096401
 30
0.0
 10
10.4288934152
 20
9.0988416482
 30
0.0
 10
10.4390526565
 20
9.1047484881
 30
0.0
 10
10.4495305866
 20
9.1101153079
 30
0.0
 10
10.4603008403
 20
9.1149285495
 30
0.0
 10
10.4713362672
 20
9.1191761226
 30
0.0
 10
10.4826090459
 20
9.1228474081
 30
0.0
 10
10.4940907951
 20
9.1259331354
 30
0.0
 10
10.5057526071
 20
9.1284255606
 30
0.0
 10
10.5175651
 20
9.1303184735
 30
0.0
 10
10.5294984504
 20
9.1316071316
 30
0.0
 10
10.5415229714
 20
9.1322883469
 30
0.0
 10
10.5536076799
 20
9.1323603008
 30
0.0
 10
10.5616711291
 20
9.1320027538
 30
0.0
 10
10.5657019884
 20
9.1317232127
 30
0.0
  0
SPLINE
  5
2D0
100
AcDbEntity
  8
0
100
AcDbSpline
 62
7
  6
CONTINUOUS
 70
0
 71
3
 72
22
 73
18
 74
0
 42
0.0000001
 43
0.0000001
 44
0.0000000001
 40
0.0
 40
0.0
 40
0.0
 40
0.0
 40
0.0544245595
 40
0.1090658641
 40
0.1641379805
 40
0.2198495251
 40
0.2764012756
 40
0.333984556
 40
0.3927796259
 40
0.4529539641
 40
0.5146624686
 40
0.5780476197
 40
0.6432395097
 40
0.7103561657
 40
0.7795043596
 40
0.8507792947
 40
1.0
 40
1.0
 40
1.0
 40
1.0
 10
8.2158060333
 20
10.5354771147
 30
0.0
 10
8.2147878395
 20
10.5355477219
 30
0.0
 10
8.2127421454
 20
10.5356225122
 30
0.0
 10
8.2096632298
 20
10.5355344647
 30
0.0
 10
8.2065722389
 20
10.5352463031
 30
0.0
 10
8.2034702955
 20
10.5347582012
 30
0.0
 10
8.2003582653
 20
10.5340704372
 30
0.0
 10
8.1972370545
 20
10.5331832758
 30
0.0
 10
8.1941075461
 20
10.5320970247
 30
0.0
 10
8.1909705694
 20
10.5308121634
 30
0.0
 10
8.1878269469
 20
10.5293291507
 30
0.0
 10
8.1846775034
 20
10.5276484233
 30
0.0
 10
8.1815230128
 20
10.5257704891
 30
0.0
 10
8.1783642338
 20
10.5236959208
 30
0.0
 10
8.1752018541
 20
10.5214252182
 30
0.0
 10
8.1709164434
 20
10.5180859983
 30
0.0
 10
8.1677988662
 20
10.5153627699
 30
0.0
 10
8.165750391
 20
10.5134562897
 30
0.0
  0
SPLINE
  5
2D1
100
AcDbEntity
  8
0
100
AcDbSpline
 62
7
  6
CONTINUOUS
 70
0
 71
3
 72
22
 73
18
 74
0
 42
0.0000001
 43
0.0000001
 44
0.0000000001
 40
0.0
 40
0.0
 40
0.0
 40
0.0
 40
0.149220422
 40
0.2204919265
 40
0.28963916
 40
0.3567562663
 40
0.4219492235
 40
0.4853355709
 40
0.5470447143
 40
0.6072190027
 40
0.6660139928
 40
0.7235975559
 40
0.7801495316
 40
0.8358612601
 40
0.8909336626
 40
0.9455752389
 40
1.0
 40
1.0
 40
1.0
 40
1.0
 10
7.5903017744
 20
6.9184208659
 30
0.0
 10
7.5920674524
 20
6.9162498599
 30
0.0
 10
7.5947792349
 20
6.9131224112
 30
0.0
 10
7.5985626621
 20
6.9092237132
 30
0.0
 10
7.6013812506
 20
6.9065382499
 30
0.0
 10
7.6042234332
 20
6.9040475075
 30
0.0
 10
7.6070885484
 20
6.9017520923
 30
0.0
 10
7.6099758626
 20
6.8996526549
 30
0.0
 10
7.6128846876
 20
6.8977498513
 30
0.0
 10
7.6158143001
 20
6.8960442923
 30
0.0
 10
7.6187639215
 20
6.894536477
 30
0.0
 10
7.6217327801
 20
6.8932269205
 30
0.0
 10
7.6247200951
 20
6.8921161598
 30
0.0
 10
7.6277249897
 20
6.8912045764
 30
0.0
 10
7.6307466232
 20
6.8904924891
 30
0.0
 10
7.6337839179
 20
6.8899802337
 30
0.0
 10
7.6358203645
 20
6.8897719486
 30
0.0
 10
7.6368385619
 20
6.8897013413
 30
0.0
  0
SPLINE
  5
2D2
100
AcDbEntity
  8
0
100
AcDbSpline
 62
7
  6
CONTINUOUS
 70
0
 71
3
 72
103
 73
99
 74
0
 42
0.0000001
 43
0.0000001
 44
0.0000000001
 40
0.0
 40
0.0
 40
0.0
 40
0.0
 40
0.0027164048
 40
0.0054531862
 40
0.0082302278
 40
0.0110664952
 40
0.0139796738
 40
0.0169859521
 40
0.0200998844
 40
0.0233343666
 40
0.026700688
 40
0.0302086012
 40
0.033866481
 40
0.0376814028
 40
0.0416593405
 40
0.04580522
 40
0.050123109
 40
0.0546162515
 40
0.059287218
 40
0.0641379428
 40
0.0691698167
 40
0.0743837442
 40
0.0797801764
 40
0.0853591945
 40
0.0911204909
 40
0.097063473
 40
0.1031872122
 40
0.1094905507
 40
0.115972045
 40
0.1226300528
 40
0.129462696
 40
0.1364679111
 40
0.1436434462
 40
0.1509868675
 40
0.1584955951
 40
0.1661668689
 40
0.1739978144
 40
0.1819853836
 40
0.1901264332
 40
0.1984176611
 40
0.2154367725
 40
0.2330143466
 40
0.251120167
 40
0.2697225161
 40
0.2887883097
 40
0.3082832214
 40
0.3281718007
 40
0.3484175849
 40
0.3689832078
 40
0.3898305045
 40
0.4109206147
 40
0.4322140837
 40
0.4536709631
 40
0.4752509101
 40
0.4969132863
 40
0.5186172556
 40
0.5403218829
 40
0.561986231
 40
0.5835694595
 40
0.6050309218
 40
0.6263302644
 40
0.6474275243
 40
0.6682832297
 40
0.6888584996
 40
0.7091151451
 40
0.7290157726
 40
0.748523889
 40
0.7676040092
 40
0.7862217692
 40
0.8043440428
 40
0.8219390666
 40
0.8389765737
 40
0.8472773366
 40
0.8554281366
 40
0.8634256636
 40
0.8712667662
 40
0.8789483877
 40
0.8864676444
 40
0.8938217669
 40
0.9010081646
 40
0.9080243933
 40
0.9148681894
 40
0.9215374772
 40
0.9280303652
 40
0.9343451972
 40
0.940480514
 40
0.946435142
 40
0.9522081344
 40
0.9577988776
 40
0.9632070413
 40
0.9684326863
 40
0.9734762434
 40
0.9783385761
 40
0.9830210188
 40
0.9875254912
 40
0.9918546128
 40
0.9960115506
 40
1.0
 40
1.0
 40
1.0
 40
1.0
 10
14.0633159023
 20
7.1051190445
 30
0.0
 10
14.0611135785
 20
7.1052717767
 30
0.0
 10
14.0567036831
 20
7.1057776896
 30
0.0
 10
14.0501449996
 20
7.1071316253
 30
0.0
 10
14.0436358672
 20
7.1090802382
 30
0.0
 10
14.0371809562
 20
7.1116217676
 30
0.0
 10
14.0307835771
 20
7.1147538723
 30
0.0
 10
14.0244470234
 20
7.1184741426
 30
0.0
 10
14.0181742156
 20
7.1227799204
 30
0.0
 10
14.0119679224
 20
7.1276684582
 30
0.0
 10
14.0058308676
 20
7.1331369432
 30
0.0
 10
13.9997656308
 20
7.1391823262
 30
0.0
 10
13.9937749492
 20
7.1458015281
 30
0.0
 10
13.9878613735
 20
7.1529911112
 30
0.0
 10
13.9820276994
 20
7.1607475713
 30
0.0
 10
13.9762765038
 20
7.169067004
 30
0.0
 10
13.9706105934
 20
7.177945372
 30
0.0
 10
13.9650325809
 20
7.1873782612
 30
0.0
 10
13.9595452206
 20
7.1973610543
 30
0.0
 10
13.9541511493
 20
7.2078888072
 30
0.0
 10
13.9488530232
 20
7.218956317
 30
0.0
 10
13.9436534793
 20
7.2305581008
 30
0.0
 10
13.9385550544
 20
7.2426883844
 30
0.0
 10
13.9335603544
 20
7.255341146
 30
0.0
 10
13.928671795
 20
7.2685100614
 30
0.0
 10
13.9238919148
 20
7.2821885743
 30
0.0
 10
13.9192230211
 20
7.2963698333
 30
0.0
 10
13.9146675464
 20
7.3110467574
 30
0.0
 10
13.9102277072
 20
7.3262119882
 30
0.0
 10
13.9059057977
 20
7.3418579346
 30
0.0
 10
13.9017039554
 20
7.3579767486
 30
0.0
 10
13.8976243167
 20
7.3745603479
 30
0.0
 10
13.8936689407
 20
7.3916004103
 30
0.0
 10
13.8898397997
 20
7.4090883825
 30
0.0
 10
13.886138865
 20
7.4270154838
 30
0.0
 10
13.8825679493
 20
7.4453727105
 30
0.0
 10
13.8791289174
 20
7.4641508413
 30
0.0
 10
13.8758234396
 20
7.4833404387
 30
0.0
 10
13.8726532343
 20
7.5029318729
 30
0.0
 10
13.8685733073
 20
7.5298101832
 30
0.0
 10
13.8638343685
 20
7.5643435534
 30
0.0
 10
13.8587595286
 20
7.6068750261
 30
0.0
 10
13.854258744
 20
7.6507646327
 30
0.0
 10
13.8503411503
 20
7.6959240986
 30
0.0
 10
13.8470147321
 20
7.7422627251
 30
0.0
 10
13.8442862636
 20
7.7896873766
 30
0.0
 10
13.8421613084
 20
7.8381027284
 30
0.0
 10
13.8406442054
 20
7.8874114459
 30
0.0
 10
13.8397380627
 20
7.9375143874
 30
0.0
 10
13.8394447507
 20
7.9883108047
 30
0.0
 10
13.8397649001
 20
8.0396985472
 30
0.0
 10
13.8406978994
 20
8.0915742694
 30
0.0
 10
13.8422418981
 20
8.1438336397
 30
0.0
 10
13.8443938102
 20
8.1963715521
 30
0.0
 10
13.8471493216
 20
8.2490823383
 30
0.0
 10
13.8505028984
 20
8.3018599813
 30
0.0
 10
13.8544477981
 20
8.3545983293
 30
0.0
 10
13.858976084
 20
8.4071913098
 30
0.0
 10
13.8640786402
 20
8.4595331437
 30
0.0
 10
13.8697451906
 20
8.511518559
 30
0.0
 10
13.8759643193
 20
8.5630430033
 30
0.0
 10
13.8827234931
 20
8.614002855
 30
0.0
 10
13.8900090868
 20
8.6642956331
 30
0.0
 10
13.897806409
 20
8.7138202055
 30
0.0
 10
13.9060997327
 20
8.7624769932
 30
0.0
 10
13.9148723266
 20
8.810168173
 30
0.0
 10
13.9241064879
 20
8.856797875
 30
0.0
 10
13.9337835776
 20
8.9022723826
 30
0.0
 10
13.9438840583
 20
8.9465003086
 30
0.0
 10
13.9543875294
 20
8.9893928401
 30
0.0
 10
13.965272783
 20
9.0308637189
 30
0.0
 10
13.9747236133
 20
9.0644533744
 30
0.0
 10
13.982467321
 20
9.0905453327
 30
0.0
 10
13.9883063683
 20
9.1095380648
 30
0.0
 10
13.9942241155
 20
9.1281147403
 30
0.0
 10
14.0002175338
 20
9.1462660453
 30
0.0
 10
14.006283668
 20
9.1639828492
 30
0.0
 10
14.0124194017
 20
9.1812562619
 30
0.0
 10
14.0186216974
 20
9.1980776018
 30
0.0
 10
14.0248873944
 20
9.2144384292
 30
0.0
 10
14.0312133586
 20
9.2303305301
 30
0.0
 10
14.0375964057
 20
9.2457459304
 30
0.0
 10
14.044033304
 20
9.2606769046
 30
0.0
 10
14.0505208564
 20
9.2751159586
 30
0.0
 10
14.0570557427
 20
9.2890558745
 30
0.0
 10
14.0636347543
 20
9.302489654
 30
0.0
 10
14.0702545056
 20
9.3154106031
 30
0.0
 10
14.0769117668
 20
9.3278122368
 30
0.0
 10
14.0836031179
 20
9.3396883933
 30
0.0
 10
14.0903252919
 20
9.3510331276
 30
0.0
 10
14.0970748851
 20
9.3618408209
 30
0.0
 10
14.10384859
 20
9.3721060842
 30
0.0
 10
14.1106430202
 20
9.3818238148
 30
0.0
 10
14.1174548092
 20
9.3909892162
 30
0.0
 10
14.124280704
 20
9.3995977732
 30
0.0
 10
14.131117465
 20
9.4076453545
 30
0.0
 10
14.1379615482
 20
9.4151276042
 30
0.0
 10
14.1426217438
 20
9.4198322313
 30
0.0
 10
14.1449531357
 20
9.422084183
 30
0.0
  0
SPLINE
  5
2D3
100
AcDbEntity
  8
0
100
AcDbSpline
 62
7
  6
CONTINUOUS
 70
0
 71
3
 72
22
 73
18
 74
0
 42
0.0000001
 43
0.0000001
 44
0.0000000001
 40
0.0
 40
0.0
 40
0.0
 40
0.0
 40
0.1492207053
 40
0.2204956404
 40
0.2896438343
 40
0.3567604903
 40
0.4219523803
 40
0.4853375314
 40
0.5470460359
 40
0.6072203741
 40
0.666015444
 40
0.7235987244
 40
0.7801504749
 40
0.8358620195
 40
0.8909341359
 40
0.9455754405
 40
1.0
 40
1.0
 40
1.0
 40
1.0
 10
13.8565080285
 20
6.4545429633
 30
0.0
 10
13.8544595533
 20
6.4526364832
 30
0.0
 10
13.8513419761
 20
6.4499132548
 30
0.0
 10
13.8470565654
 20
6.4465740349
 30
0.0
 10
13.8438941857
 20
6.4443033323
 30
0.0
 10
13.8407354067
 20
6.442228764
 30
0.0
 10
13.8375809161
 20
6.4403508298
 30
0.0
 10
13.8344314726
 20
6.4386701024
 30
0.0
 10
13.8312878501
 20
6.4371870897
 30
0.0
 10
13.8281508734
 20
6.4359022284
 30
0.0
 10
13.825021365
 20
6.4348159773
 30
0.0
 10
13.8219001542
 20
6.4339288159
 30
0.0
 10
13.818788124
 20
6.4332410519
 30
0.0
 10
13.8156861806
 20
6.43275295
 30
0.0
 10
13.8125951898
 20
6.4324647884
 30
0.0
 10
13.8095162741
 20
6.4323767409
 30
0.0
 10
13.80747058
 20
6.4324515312
 30
0.0
 10
13.8064523862
 20
6.4325221383
 30
0.0
  0
SPLINE
  5
2D4
100
AcDbEntity
  8
0
100
AcDbSpline
 62
7
  6
CONTINUOUS
 70
0
 71
3
 72
36
 73
32
 74
0
 42
0.0000001
 43
0.0000001
 44
0.0000000001
 40
0.0
 40
0.0
 40
0.0
 40
0.0
 40
0.0162142856
 40
0.0334272372
 40
0.0516715081
 40
0.0709705327
 40
0.0913399311
 40
0.1127889547
 40
0.1353211135
 40
0.1589353933
 40
0.1836264466
 40
0.2093855085
 40
0.2362005154
 40
0.2640566163
 40
0.2929364437
 40
0.3228202192
 40
0.3536862189
 40
0.3855105919
 40
0.4182679067
 40
0.4519309009
 40
0.4864709172
 40
0.5218577903
 40
0.5580600379
 40
0.5950449752
 40
0.6327786677
 40
0.6712262206
 40
0.7103515405
 40
0.7501177712
 40
0.8314200588
 40
0.9148214324
 40
1.0
 40
1.0
 40
1.0
 40
1.0
 10
14.4614487404
 20
10.0475180677
 30
0.0
 10
14.4631609156
 20
10.045412871
 30
0.0
 10
14.4665466086
 20
10.0409542338
 30
0.0
 10
14.4713750051
 20
10.0337755373
 30
0.0
 10
14.4760972604
 20
10.0259179596
 30
0.0
 10
14.4807084955
 20
10.0173898121
 30
0.0
 10
14.4852043129
 20
10.0081996438
 30
0.0
 10
14.4895800529
 20
9.9983568396
 30
0.0
 10
14.4938313401
 20
9.9878715281
 30
0.0
 10
14.4979536568
 20
9.9767545128
 30
0.0
 10
14.5019427895
 20
9.9650173421
 30
0.0
 10
14.5057944805
 20
9.9526722182
 30
0.0
 10
14.5095047076
 20
9.9397320292
 30
0.0
 10
14.5130695481
 20
9.926210305
 30
0.0
 10
14.5164852023
 20
9.9121212071
 30
0.0
 10
14.5197481068
 20
9.8974795138
 30
0.0
 10
14.5228547317
 20
9.8823005938
 30
0.0
 10
14.5258018624
 20
9.8666003957
 30
0.0
 10
14.528586298
 20
9.8503954255
 30
0.0
 10
14.5312051477
 20
9.8337027266
 30
0.0
 10
14.5336555921
 20
9.8165398651
 30
0.0
 10
14.5359350489
 20
9.7989249051
 30
0.0
 10
14.5380411088
 20
9.7808763923
 30
0.0
 10
14.5399715063
 20
9.762413334
 30
0.0
 10
14.5417242442
 20
9.7435551697
 30
0.0
 10
14.543297397
 20
9.7243217776
 30
0.0
 10
14.544689378
 20
9.704733397
 30
0.0
 10
14.5463136157
 20
9.6779728528
 30
0.0
 10
14.5478711011
 20
9.6437866477
 30
0.0
 10
14.5489852465
 20
9.6019800168
 30
0.0
 10
14.5492281506
 20
9.5737664466
 30
0.0
 10
14.5492281506
 20
9.5595113024
 30
0.0
  0
SPLINE
  5
2D5
100
AcDbEntity
  8
0
100
AcDbSpline
 62
7
  6
CONTINUOUS
 70
0
 71
3
 72
22
 73
18
 74
0
 42
0.0000001
 43
0.0000001
 44
0.0000000001
 40
0.0
 40
0.0
 40
0.0
 40
0.0
 40
0.0544247611
 40
0.1090663374
 40
0.1641387399
 40
0.2198504684
 40
0.2764024441
 40
0.3339860072
 40
0.3927809973
 40
0.4529552857
 40
0.5146644291
 40
0.5780507765
 40
0.6432437337
 40
0.71036084
 40
0.7795080735
 40
0.850779578
 40
1.0
 40
1.0
 40
1.0
 40
1.0
 10
14.3631614381
 20
10.1398675543
 30
0.0
 10
14.3641796355
 20
10.1397969469
 30
0.0
 10
14.3662160821
 20
10.1395886619
 30
0.0
 10
14.3692533768
 20
10.1390764064
 30
0.0
 10
14.3722750103
 20
10.1383643192
 30
0.0
 10
14.3752799049
 20
10.1374527358
 30
0.0
 10
14.3782672199
 20
10.136341975
 30
0.0
 10
14.3812360785
 20
10.1350324185
 30
0.0
 10
14.3841856999
 20
10.1335246033
 30
0.0
 10
14.3871153124
 20
10.1318190443
 30
0.0
 10
14.3900241374
 20
10.1299162407
 30
0.0
 10
14.3929114516
 20
10.1278168033
 30
0.0
 10
14.3957765668
 20
10.125521388
 30
0.0
 10
14.3986187494
 20
10.1230306456
 30
0.0
 10
14.4014373379
 20
10.1203451823
 30
0.0
 10
14.4052207651
 20
10.1164464844
 30
0.0
 10
14.4079325476
 20
10.1133190356
 30
0.0
 10
14.4096982256
 20
10.1111480296
 30
0.0
  0
SPLINE
  5
2D6
100
AcDbEntity
  8
0
100
AcDbSpline
 62
7
  6
CONTINUOUS
 70
0
 71
3
 72
49
 73
45
 74
0
 42
0.0000001
 43
0.0000001
 44
0.0000000001
 40
0.0
 40
0.0
 40
0.0
 40
0.0
 40
0.007162651
 40
0.0146567047
 40
0.022489802
 40
0.0306682658
 40
0.039197236
 40
0.0480804432
 40
0.0573201505
 40
0.0669176598
 40
0.0768732462
 40
0.0871864326
 40
0.0978559349
 40
0.1088797421
 40
0.1202552948
 40
0.1319793485
 40
0.1440482505
 40
0.156457763
 40
0.1692032492
 40
0.1822796554
 40
0.19568148
 40
0.2094029484
 40
0.2377791912
 40
0.2673557091
 40
0.2980746237
 40
0.3298738609
 40
0.362687558
 40
0.3964464427
 40
0.4310781691
 40
0.466507628
 40
0.5026572389
 40
0.5394472298
 40
0.5767959041
 40
0.6146199124
 40
0.6528345158
 40
0.6913538428
 40
0.7300911403
 40
0.7689590294
 40
0.8078697587
 40
0.8467354142
 40
0.885468393
 40
0.9239808777
 40
0.9621872155
 40
1.0
 40
1.0
 40
1.0
 40
1.0
 10
7.6887266103
 20
10.0527189645
 30
0.0
 10
7.6871019845
 20
10.0511496964
 30
0.0
 10
7.6838549065
 20
10.0478577143
 30
0.0
 10
7.6790957599
 20
10.0425968403
 30
0.0
 10
7.6743426891
 20
10.0369063991
 30
0.0
 10
7.6695987058
 20
10.0307900753
 30
0.0
 10
7.6648664417
 20
10.0242514205
 30
0.0
 10
7.6601486588
 20
10.0172942202
 30
0.0
 10
7.6554480379
 20
10.0099226153
 30
0.0
 10
7.6507674931
 20
10.0021409443
 30
0.0
 10
7.6461097236
 20
9.9939538819
 30
0.0
 10
7.6414775568
 20
9.9853662779
 30
0.0
 10
7.6368737537
 20
9.9763832576
 30
0.0
 10
7.6323010398
 20
9.9670101977
 30
0.0
 10
7.6277622361
 20
9.9572526854
 30
0.0
 10
7.6232599834
 20
9.94711659
 30
0.0
 10
7.6187970748
 20
9.9366079647
 30
0.0
 10
7.6143761388
 20
9.9257331292
 30
0.0
 10
7.609999861
 20
9.914498604
 30
0.0
 10
7.6056709023
 20
9.902911137
 30
0.0
 10
7.6013917998
 20
9.8909776876
 30
0.0
 10
7.5956925824
 20
9.8744292594
 30
0.0
 10
7.5887230284
 20
9.8529256066
 30
0.0
 10
7.5806894878
 20
9.8261394739
 30
0.0
 10
7.572914559
 20
9.7981552479
 30
0.0
 10
7.5654170709
 20
9.7690402467
 30
0.0
 10
7.5582151718
 20
9.7388643844
 30
0.0
 10
7.5513262914
 20
9.7077002161
 30
0.0
 10
7.5447670968
 20
9.6756226879
 30
0.0
 10
7.5385534528
 20
9.6427089689
 30
0.0
 10
7.5327003845
 20
9.6090382576
 30
0.0
 10
7.5272220427
 20
9.5746915913
 30
0.0
 10
7.5221316621
 20
9.5397516494
 30
0.0
 10
7.5174415355
 20
9.5043025499
 30
0.0
 10
7.5131629867
 20
9.4684296415
 30
0.0
 10
7.5093063428
 20
9.4322192979
 30
0.0
 10
7.5058809101
 20
9.3957587091
 30
0.0
 10
7.5028949514
 20
9.3591356695
 30
0.0
 10
7.5003556677
 20
9.3224383794
 30
0.0
 10
7.4982691582
 20
9.2857551723
 30
0.0
 10
7.4966404688
 20
9.2491744958
 30
0.0
 10
7.4954734522
 20
9.212784172
 30
0.0
 10
7.4947709819
 20
9.1766722004
 30
0.0
 10
7.4946124867
 20
9.1526990691
 30
0.0
 10
7.4946124867
 20
9.1407746955
 30
0.0
  0
SPLINE
  5
2D7
100
AcDbEntity
  8
0
100
AcDbSpline
 62
7
  6
CONTINUOUS
 70
0
 71
3
 72
39
 73
35
 74
0
 42
0.0000001
 43
0.0000001
 44
0.0000000001
 40
0.0
 40
0.0
 40
0.0
 40
0.0
 40
0.0311449008
 40
0.0624431523
 40
0.093888332
 40
0.1254709881
 40
0.1571788807
 40
0.1889972566
 40
0.2209091706
 40
0.2528958383
 40
0.2849370172
 40
0.3170114073
 40
0.349097067
 40
0.3811718373
 40
0.4132137693
 40
0.4452015485
 40
0.4771149106
 40
0.5089350431
 40
0.540644966
 40
0.5722298857
 40
0.6036775159
 40
0.634978357
 40
0.6661259293
 40
0.697116951
 40
0.727951455
 40
0.7586328387
 40
0.7891678408
 40
0.8195664415
 40
0.8498416836
 40
0.8800094164
 40
0.9100879631
 40
0.9400977201
 40
0.9700606955
 40
1.0
 40
1.0
 40
1.0
 40
1.0
 10
9.8721672667
 20
7.8816156391
 30
0.0
 10
9.8662705398
 20
7.8820245785
 30
0.0
 10
9.8544735979
 20
7.883276095
 30
0.0
 10
9.8369212136
 20
7.8864286639
 30
0.0
 10
9.8195568133
 20
7.8908445114
 30
0.0
 10
9.8024742212
 20
7.8964998355
 30
0.0
 10
9.7857641601
 20
7.903364355
 30
0.0
 10
9.7695157733
 20
7.9114013397
 30
0.0
 10
9.7538156175
 20
7.9205678431
 30
0.0
 10
9.7387473523
 20
7.9308149216
 30
0.0
 10
9.7243912614
 20
7.9420878973
 30
0.0
 10
9.7108238401
 20
7.9543266468
 30
0.0
 10
9.6981173892
 20
7.9674659194
 30
0.0
 10
9.6863396349
 20
7.9814356817
 30
0.0
 10
9.675553371
 20
7.9961614874
 30
0.0
 10
9.665816127
 20
8.0115648695
 30
0.0
 10
9.6571798642
 20
8.0275637545
 30
0.0
 10
9.6496907
 20
8.0440728939
 30
0.0
 10
9.6433886628
 20
8.0610043135
 30
0.0
 10
9.6383074789
 20
8.0782677755
 30
0.0
 10
9.6344743908
 20
8.0957712537
 30
0.0
 10
9.6319100093
 20
8.1134214167
 30
0.0
 10
9.6306281991
 20
8.1311241197
 30
0.0
 10
9.6306359987
 20
8.1487848998
 30
0.0
 10
9.631933575
 20
8.166309475
 30
0.0
 10
9.634514213
 20
8.183604244
 30
0.0
 10
9.6383643398
 20
8.200576783
 30
0.0
 10
9.6434635879
 20
8.2171363428
 30
0.0
 10
9.6497848833
 20
8.2331943289
 30
0.0
 10
9.6572946105
 20
8.2486648122
 30
0.0
 10
9.6659526674
 20
8.2634648865
 30
0.0
 10
9.6757131
 20
8.2775155383
 30
0.0
 10
9.6865227575
 20
8.2907405441
 30
0.0
 10
9.6943936166
 20
8.2989630143
 30
0.0
 10
9.6984804796
 20
8.3029106244
 30
0.0
  0
SPLINE
  5
2D8
100
AcDbEntity
  8
0
100
AcDbSpline
 62
7
  6
CONTINUOUS
 70
0
 71
3
 72
42
 73
38
 74
0
 42
0.0000001
 43
0.0000001
 44
0.0000000001
 40
0.0
 40
0.0
 40
0.0
 40
0.0
 40
0.0311438942
 40
0.0624423672
 40
0.0938866334
 40
0.1254688884
 40
0.1571761972
 40
0.1889940414
 40
0.2209054133
 40
0.2528915406
 40
0.2849321764
 40
0.3170060194
 40
0.3490911298
 40
0.3811653513
 40
0.4132067372
 40
0.4451939736
 40
0.4771067941
 40
0.5089263835
 40
0.5406357617
 40
0.5722201374
 40
0.6036672265
 40
0.6349675315
 40
0.6661145727
 40
0.6971050657
 40
0.7279390408
 40
0.7586198955
 40
0.7891543699
 40
0.8195524461
 40
0.8498271685
 40
0.8649259233
 40
0.879999996
 40
0.910078031
 40
0.9400872769
 40
0.9550757892
 40
0.9700554665
 40
0.9850292167
 40
1.0
 40
1.0
 40
1.0
 40
1.0
 10
10.5657019884
 20
7.9494299488
 30
0.0
 10
10.5626357335
 20
7.9496425943
 30
0.0
 10
10.5565012924
 20
7.9502934125
 30
0.0
 10
10.5473740415
 20
7.9519327017
 30
0.0
 10
10.5383445072
 20
7.9542290147
 30
0.0
 10
10.529461567
 20
7.9571697513
 30
0.0
 10
10.5207723197
 20
7.9607393234
 30
0.0
 10
10.5123231474
 20
7.9649185512
 30
0.0
 10
10.5041590551
 20
7.9696851411
 30
0.0
 10
10.4963235519
 20
7.9750136369
 30
0.0
 10
10.4888583841
 20
7.980875604
 30
0.0
 10
10.4818033259
 20
7.9872397722
 30
0.0
 10
10.4751959712
 20
7.9940722094
 30
0.0
 10
10.4690715364
 20
8.0013364984
 30
0.0
 10
10.4634626752
 20
8.0089939289
 30
0.0
 10
10.4583993056
 20
8.0170037006
 30
0.0
 10
10.4539084555
 20
8.0253231383
 30
0.0
 10
10.4500141046
 20
8.03390791
 30
0.0
 10
10.4467370614
 20
8.0427122655
 30
0.0
 10
10.4440948601
 20
8.0516892804
 30
0.0
 10
10.4421016652
 20
8.0607911019
 30
0.0
 10
10.4407681955
 20
8.0699691986
 30
0.0
 10
10.440101664
 20
8.0791746164
 30
0.0
 10
10.4401057379
 20
8.0883582323
 30
0.0
 10
10.4407805079
 20
8.0974710236
 30
0.0
 10
10.4421224628
 20
8.1064642948
 30
0.0
 10
10.4441245805
 20
8.1152900697
 30
0.0
 10
10.4467761219
 20
8.1239008531
 30
0.0
 10
10.4495182359
 20
8.1308664811
 30
0.0
 10
10.4520205933
 20
8.1362833164
 30
0.0
 10
10.4547210659
 20
8.1415823995
 30
0.0
 10
10.4584705561
 20
8.1479918765
 30
0.0
 10
10.4627023382
 20
8.1540835682
 30
0.0
 10
10.4663590913
 20
8.1587397759
 30
0.0
 10
10.4692335949
 20
8.1621191643
 30
0.0
 10
10.4722368367
 20
8.1653821218
 30
0.0
 10
10.4743224577
 20
8.1674771186
 30
0.0
 10
10.4753851435
 20
8.1685035918
 30
0.0
  0
SPLINE
  5
2D9
100
AcDbEntity
  8
0
100
AcDbSpline
 62
7
  6
CONTINUOUS
 70
0
 71
3
 72
44
 73
40
 74
0
 42
0.0000001
 43
0.0000001
 44
0.0000000001
 40
0.0
 40
0.0
 40
0.0
 40
0.0
 40
0.0311440853
 40
0.0624413459
 40
0.0938856781
 40
0.1254674212
 40
0.1571744181
 40
0.1889918883
 40
0.2209028956
 40
0.2528886538
 40
0.2849289214
 40
0.3170023991
 40
0.349087146
 40
0.3811610037
 40
0.4132020241
 40
0.4451888933
 40
0.4771013475
 40
0.5089205749
 40
0.5406295959
 40
0.5722136175
 40
0.6036603535
 40
0.6349603047
 40
0.6661069914
 40
0.6970971317
 40
0.7279307585
 40
0.7586112692
 40
0.7891454023
 40
0.8195431376
 40
0.8498175178
 40
0.8649161013
 40
0.8799900024
 40
0.8950415906
 40
0.9100733538
 40
0.9250879074
 40
0.9400879568
 40
0.9550763027
 40
0.9700558066
 40
0.9850293887
 40
1.0
 40
1.0
 40
1.0
 40
1.0
 10
9.0260162627
 20
6.6884564655
 30
0.0
 10
9.0190345201
 20
6.6889406509
 30
0.0
 10
9.0050669423
 20
6.69042244
 30
0.0
 10
8.9842849127
 20
6.6941551026
 30
0.0
 10
8.9637254688
 20
6.6993834534
 30
0.0
 10
8.943499669
 20
6.7060793742
 30
0.0
 10
8.9237149528
 20
6.7142069677
 30
0.0
 10
8.9044768585
 20
6.7237227677
 30
0.0
 10
8.8858878707
 20
6.7345759153
 30
0.0
 10
8.8680470423
 20
6.7467084652
 30
0.0
 10
8.8510494288
 20
6.7600556772
 30
0.0
 10
8.8349856008
 20
6.7745463654
 30
0.0
 10
8.8199411625
 20
6.7901032729
 30
0.0
 10
8.8059963015
 20
6.8066434802
 30
0.0
 10
8.7932253656
 20
6.8240788427
 30
0.0
 10
8.7816964701
 20
6.8423164558
 30
0.0
 10
8.7714711368
 20
6.8612591442
 30
0.0
 10
8.7626039691
 20
6.8808059739
 30
0.0
 10
8.7551423608
 20
6.9008527832
 30
0.0
 10
8.7491262439
 20
6.9212927308
 30
0.0
 10
8.7445878739
 20
6.9420168574
 30
0.0
 10
8.741551654
 20
6.9629146583
 30
0.0
 10
8.7400340009
 20
6.9838746668
 30
0.0
 10
8.7400432466
 20
7.0047850347
 30
0.0
 10
8.7415795957
 20
7.025534146
 30
0.0
 10
8.7446350704
 20
7.0460111238
 30
0.0
 10
8.7491936991
 20
7.0661067334
 30
0.0
 10
8.7552309992
 20
7.0857128044
 30
0.0
 10
8.761474625
 20
7.1015730444
 30
0.0
 10
8.7671721493
 20
7.113906662
 30
0.0
 10
8.7717877127
 20
7.1229635053
 30
0.0
 10
8.7767427592
 20
7.1318218066
 30
0.0
 10
8.7820308149
 20
7.1404698648
 30
0.0
 10
8.7876446983
 20
7.1488961366
 30
0.0
 10
8.7935770398
 20
7.1570892953
 30
0.0
 10
8.7998197682
 20
7.165038476
 30
0.0
 10
8.8063647292
 20
7.1727329791
 30
0.0
 10
8.8132028797
 20
7.1801625094
 30
0.0
 10
8.8179516397
 20
7.1849326769
 30
0.0
 10
8.8203712882
 20
7.1872698779
 30
0.0
  0
SPLINE
  5
2DA
100
AcDbEntity
  8
0
100
AcDbSpline
 62
7
  6
CONTINUOUS
 70
0
 71
3
 72
36
 73
32
 74
0
 42
0.0000001
 43
0.0000001
 44
0.0000000001
 40
0.0
 40
0.0
 40
0.0
 40
0.0
 40
0.0851784539
 40
0.1685797221
 40
0.2498819146
 40
0.2896481023
 40
0.3287733825
 40
0.3672208992
 40
0.4049545595
 40
0.4419394685
 40
0.478141692
 40
0.5135285455
 40
0.5480685466
 40
0.5817315304
 40
0.6144888397
 40
0.6463132122
 40
0.6771792164
 40
0.7070630016
 40
0.7359428439
 40
0.7637989648
 40
0.790613997
 40
0.8163730895
 40
0.8410641782
 40
0.8646784984
 40
0.8872107022
 40
0.9086597752
 40
0.9290292269
 40
0.9483283084
 40
0.9665726389
 40
0.983785652
 40
1.0
 40
1.0
 40
1.0
 40
1.0
 10
7.4946124867
 20
7.4504043993
 30
0.0
 10
7.4946124867
 20
7.4348646768
 30
0.0
 10
7.4948772789
 20
7.404108687
 30
0.0
 10
7.4960918204
 20
7.3585347181
 30
0.0
 10
7.4977896512
 20
7.321267875
 30
0.0
 10
7.4995602496
 20
7.2920958425
 30
0.0
 10
7.5010776625
 20
7.2707422807
 30
0.0
 10
7.5027925727
 20
7.249775695
 30
0.0
 10
7.5047032506
 20
7.2292181484
 30
0.0
 10
7.506807597
 20
7.2090913104
 30
0.0
 10
7.5091034349
 20
7.1894163721
 30
0.0
 10
7.5115882947
 20
7.1702140535
 30
0.0
 10
7.5142595498
 20
7.1515045714
 30
0.0
 10
7.5171143854
 20
7.1333076177
 30
0.0
 10
7.5201497282
 20
7.1156423412
 30
0.0
 10
7.5233624267
 20
7.0985273213
 30
0.0
 10
7.5267489915
 20
7.0819805511
 30
0.0
 10
7.5303059186
 20
7.0660194165
 30
0.0
 10
7.5340293598
 20
7.050660671
 30
0.0
 10
7.5379154309
 20
7.0359204246
 30
0.0
 10
7.5419599896
 20
7.0218141147
 30
0.0
 10
7.5461587598
 20
7.0083564906
 30
0.0
 10
7.5505073569
 20
6.9955616017
 30
0.0
 10
7.5550011396
 20
6.9834427499
 30
0.0
 10
7.5596355147
 20
6.9720125239
 30
0.0
 10
7.5644055574
 20
6.9612827009
 30
0.0
 10
7.5693064981
 20
6.9512643224
 30
0.0
 10
7.5743332571
 20
6.9419676187
 30
0.0
 10
7.5794810409
 20
6.9334019095
 30
0.0
 10
7.5847445307
 20
6.9255762549
 30
0.0
 10
7.5884353128
 20
6.9207157913
 30
0.0
 10
7.5903017744
 20
6.9184208659
 30
0.0
  0
SPLINE
  5
2DB
100
AcDbEntity
  8
0
100
AcDbSpline
 62
7
  6
CONTINUOUS
 70
0
 71
3
 72
24
 73
20
 74
0
 42
0.0000001
 43
0.0000001
 44
0.0000000001
 40
0.0
 40
0.0
 40
0.0
 40
0.0
 40
0.0616478629
 40
0.092481784
 40
0.1233243203
 40
0.1850410113
 40
0.246825752
 40
0.3087000522
 40
0.3706844264
 40
0.4327981632
 40
0.4950591366
 40
0.5574836428
 40
0.6200862031
 40
0.6828793215
 40
0.7458738189
 40
0.8090780183
 40
0.8724971396
 40
0.9361397753
 40
1.0
 40
1.0
 40
1.0
 40
1.0
 10
9.2316612372
 20
9.1762858849
 30
0.0
 10
9.2283395076
 20
9.1730773405
 30
0.0
 10
9.2232255275
 20
9.168396745
 30
0.0
 10
9.2161638413
 20
9.1624384423
 30
0.0
 10
9.2089405443
 20
9.1566685252
 30
0.0
 10
9.1996182143
 20
9.1498182982
 30
0.0
 10
9.1879974809
 20
9.142202877
 30
0.0
 10
9.1759689393
 20
9.1352091381
 30
0.0
 10
9.1635630677
 20
9.1288548769
 30
0.0
 10
9.1508110916
 20
9.1231560215
 30
0.0
 10
9.1377451717
 20
9.1181268727
 30
0.0
 10
9.1243982104
 20
9.1137800847
 30
0.0
 10
9.1108038229
 20
9.1101266233
 30
0.0
 10
9.0969962615
 20
9.1071755779
 30
0.0
 10
9.0830102808
 20
9.1049343569
 30
0.0
 10
9.0688811959
 20
9.1034086235
 30
0.0
 10
9.0546442098
 20
9.1026020596
 30
0.0
 10
9.0403359349
 20
9.1025168449
 30
0.0
 10
9.0307888314
 20
9.1029401955
 30
0.0
 10
9.0260162627
 20
9.1032711743
 30
0.0
  0
SPLINE
  5
2DC
100
AcDbEntity
  8
0
100
AcDbSpline
 62
7
  6
CONTINUOUS
 70
0
 71
3
 72
44
 73
40
 74
0
 42
0.0000001
 43
0.0000001
 44
0.0000000001
 40
0.0
 40
0.0
 40
0.0
 40
0.0
 40
0.0311440853
 40
0.0624413459
 40
0.0938856781
 40
0.1254674212
 40
0.1571744181
 40
0.1889918883
 40
0.2209028956
 40
0.2528886538
 40
0.2849289214
 40
0.3170023991
 40
0.349087146
 40
0.3811610037
 40
0.4132020241
 40
0.4451888933
 40
0.4771013475
 40
0.5089205749
 40
0.5406295959
 40
0.5722136175
 40
0.6036603535
 40
0.6349603047
 40
0.6661069914
 40
0.6970971317
 40
0.7279307585
 40
0.7586112692
 40
0.7891454023
 40
0.8195431376
 40
0.8498175178
 40
0.8649161013
 40
0.8799900024
 40
0.8950415906
 40
0.9100733538
 40
0.9250879074
 40
0.9400879568
 40
0.9550763027
 40
0.9700558066
 40
0.9850293887
 40
1.0
 40
1.0
 40
1.0
 40
1.0
 10
9.0260162627
 20
9.1032711743
 30
0.0
 10
9.0190345201
 20
9.1037553598
 30
0.0
 10
9.0050669423
 20
9.1052371488
 30
0.0
 10
8.9842849127
 20
9.1089698114
 30
0.0
 10
8.9637254688
 20
9.1141981622
 30
0.0
 10
8.943499669
 20
9.120894083
 30
0.0
 10
8.9237149528
 20
9.1290216765
 30
0.0
 10
8.9044768585
 20
9.1385374765
 30
0.0
 10
8.8858878707
 20
9.1493906241
 30
0.0
 10
8.8680470423
 20
9.161523174
 30
0.0
 10
8.8510494288
 20
9.174870386
 30
0.0
 10
8.8349856008
 20
9.1893610742
 30
0.0
 10
8.8199411625
 20
9.2049179817
 30
0.0
 10
8.8059963015
 20
9.221458189
 30
0.0
 10
8.7932253656
 20
9.2388935515
 30
0.0
 10
8.7816964701
 20
9.2571311646
 30
0.0
 10
8.7714711368
 20
9.276073853
 30
0.0
 10
8.7626039691
 20
9.2956206827
 30
0.0
 10
8.7551423608
 20
9.315667492
 30
0.0
 10
8.7491262439
 20
9.3361074396
 30
0.0
 10
8.7445878739
 20
9.3568315662
 30
0.0
 10
8.741551654
 20
9.3777293672
 30
0.0
 10
8.7400340009
 20
9.3986893756
 30
0.0
 10
8.7400432466
 20
9.4195997435
 30
0.0
 10
8.7415795957
 20
9.4403488548
 30
0.0
 10
8.7446350704
 20
9.4608258326
 30
0.0
 10
8.7491936991
 20
9.4809214422
 30
0.0
 10
8.7552309992
 20
9.5005275132
 30
0.0
 10
8.761474625
 20
9.5163877532
 30
0.0
 10
8.7671721493
 20
9.5287213709
 30
0.0
 10
8.7717877127
 20
9.5377782141
 30
0.0
 10
8.7767427592
 20
9.5466365154
 30
0.0
 10
8.7820308149
 20
9.5552845736
 30
0.0
 10
8.7876446983
 20
9.5637108454
 30
0.0
 10
8.7935770398
 20
9.5719040041
 30
0.0
 10
8.7998197682
 20
9.5798531848
 30
0.0
 10
8.8063647292
 20
9.5875476879
 30
0.0
 10
8.8132028797
 20
9.5949772182
 30
0.0
 10
8.8179516397
 20
9.5997473857
 30
0.0
 10
8.8203712882
 20
9.6020845867
 30
0.0
  0
SPLINE
  5
2DD
100
AcDbEntity
  8
0
100
AcDbSpline
 62
7
  6
CONTINUOUS
 70
0
 71
3
 72
44
 73
40
 74
0
 42
0.0000001
 43
0.0000001
 44
0.0000000001
 40
0.0
 40
0.0
 40
0.0
 40
0.0
 40
0.0311440853
 40
0.0624413459
 40
0.0938856781
 40
0.1254674212
 40
0.1571744181
 40
0.1889918883
 40
0.2209028956
 40
0.2528886538
 40
0.2849289214
 40
0.3170023991
 40
0.349087146
 40
0.3811610037
 40
0.4132020241
 40
0.4451888933
 40
0.4771013475
 40
0.5089205749
 40
0.5406295959
 40
0.5722136175
 40
0.6036603535
 40
0.6349603047
 40
0.6661069914
 40
0.6970971317
 40
0.7279307585
 40
0.7586112692
 40
0.7891454023
 40
0.8195431376
 40
0.8498175178
 40
0.8649161013
 40
0.8799900024
 40
0.8950415906
 40
0.9100733538
 40
0.9250879074
 40
0.9400879568
 40
0.9550763027
 40
0.9700558066
 40
0.9850293887
 40
1.0
 40
1.0
 40
1.0
 40
1.0
 10
12.1053878292
 20
6.474901322
 30
0.0
 10
12.0984060867
 20
6.4753855075
 30
0.0
 10
12.0844385088
 20
6.4768672965
 30
0.0
 10
12.0636564793
 20
6.4805999591
 30
0.0
 10
12.0430970353
 20
6.48582831
 30
0.0
 10
12.0228712355
 20
6.4925242307
 30
0.0
 10
12.0030865193
 20
6.5006518242
 30
0.0
 10
11.9838484251
 20
6.5101676242
 30
0.0
 10
11.9652594372
 20
6.5210207719
 30
0.0
 10
11.9474186088
 20
6.5331533218
 30
0.0
 10
11.9304209954
 20
6.5465005337
 30
0.0
 10
11.9143571673
 20
6.5609912219
 30
0.0
 10
11.899312729
 20
6.5765481294
 30
0.0
 10
11.885367868
 20
6.5930883367
 30
0.0
 10
11.8725969322
 20
6.6105236992
 30
0.0
 10
11.8610680366
 20
6.6287613123
 30
0.0
 10
11.8508427034
 20
6.6477040007
 30
0.0
 10
11.8419755356
 20
6.6672508304
 30
0.0
 10
11.8345139273
 20
6.6872976397
 30
0.0
 10
11.8284978104
 20
6.7077375873
 30
0.0
 10
11.8239594404
 20
6.7284617139
 30
0.0
 10
11.8209232205
 20
6.7493595149
 30
0.0
 10
11.8194055674
 20
6.7703195233
 30
0.0
 10
11.8194148131
 20
6.7912298912
 30
0.0
 10
11.8209511622
 20
6.8119790025
 30
0.0
 10
11.8240066369
 20
6.8324559804
 30
0.0
 10
11.8285652656
 20
6.8525515899
 30
0.0
 10
11.8346025657
 20
6.8721576609
 30
0.0
 10
11.8408461916
 20
6.8880179009
 30
0.0
 10
11.8465437158
 20
6.9003515186
 30
0.0
 10
11.8511592792
 20
6.9094083618
 30
0.0
 10
11.8561143257
 20
6.9182666631
 30
0.0
 10
11.8614023814
 20
6.9269147214
 30
0.0
 10
11.8670162648
 20
6.9353409931
 30
0.0
 10
11.8729486064
 20
6.9435341519
 30
0.0
 10
11.8791913347
 20
6.9514833325
 30
0.0
 10
11.8857362958
 20
6.9591778357
 30
0.0
 10
11.8925744463
 20
6.9666073659
 30
0.0
 10
11.8973232062
 20
6.9713775334
 30
0.0
 10
11.8997428547
 20
6.9737147344
 30
0.0
  0
SPLINE
  5
2DE
100
AcDbEntity
  8
0
100
AcDbSpline
 62
7
  6
CONTINUOUS
 70
0
 71
3
 72
24
 73
20
 74
0
 42
0.0000001
 43
0.0000001
 44
0.0000000001
 40
0.0
 40
0.0
 40
0.0
 40
0.0
 40
0.0616478629
 40
0.092481784
 40
0.1233243203
 40
0.1850410113
 40
0.246825752
 40
0.3087000522
 40
0.3706844264
 40
0.4327981632
 40
0.4950591366
 40
0.5574836428
 40
0.6200862031
 40
0.6828793215
 40
0.7458738189
 40
0.8090780183
 40
0.8724971396
 40
0.9361397753
 40
1.0
 40
1.0
 40
1.0
 40
1.0
 10
9.2316612372
 20
6.7614711761
 30
0.0
 10
9.2283395076
 20
6.7582626317
 30
0.0
 10
9.2232255275
 20
6.7535820362
 30
0.0
 10
9.2161638413
 20
6.7476237335
 30
0.0
 10
9.2089405443
 20
6.7418538164
 30
0.0
 10
9.1996182143
 20
6.7350035894
 30
0.0
 10
9.1879974809
 20
6.7273881682
 30
0.0
 10
9.1759689393
 20
6.7203944293
 30
0.0
 10
9.1635630677
 20
6.7140401681
 30
0.0
 10
9.1508110916
 20
6.7083413127
 30
0.0
 10
9.1377451717
 20
6.7033121639
 30
0.0
 10
9.1243982104
 20
6.6989653759
 30
0.0
 10
9.1108038229
 20
6.6953119145
 30
0.0
 10
9.0969962615
 20
6.692360869
 30
0.0
 10
9.0830102808
 20
6.6901196481
 30
0.0
 10
9.0688811959
 20
6.6885939147
 30
0.0
 10
9.0546442098
 20
6.6877873508
 30
0.0
 10
9.0403359349
 20
6.6877021361
 30
0.0
 10
9.0307888314
 20
6.6881254867
 30
0.0
 10
9.0260162627
 20
6.6884564655
 30
0.0
  0
SPLINE
  5
2DF
100
AcDbEntity
  8
0
100
AcDbSpline
 62
7
  6
CONTINUOUS
 70
0
 71
3
 72
39
 73
35
 74
0
 42
0.0000001
 43
0.0000001
 44
0.0000000001
 40
0.0
 40
0.0
 40
0.0
 40
0.0
 40
0.0311449008
 40
0.0624431523
 40
0.093888332
 40
0.1254709881
 40
0.1571788807
 40
0.1889972566
 40
0.2209091706
 40
0.2528958383
 40
0.2849370172
 40
0.3170114073
 40
0.349097067
 40
0.3811718373
 40
0.4132137693
 40
0.4452015485
 40
0.4771149106
 40
0.5089350431
 40
0.540644966
 40
0.5722298857
 40
0.6036775159
 40
0.634978357
 40
0.6661259293
 40
0.697116951
 40
0.727951455
 40
0.7586328387
 40
0.7891678408
 40
0.8195664415
 40
0.8498416836
 40
0.8800094164
 40
0.9100879631
 40
0.9400977201
 40
0.9700606955
 40
1.0
 40
1.0
 40
1.0
 40
1.0
 10
11.2592367101
 20
7.7854220464
 30
0.0
 10
11.2533399833
 20
7.7858309858
 30
0.0
 10
11.2415430413
 20
7.7870825024
 30
0.0
 10
11.223990657
 20
7.7902350713
 30
0.0
 10
11.2066262568
 20
7.7946509188
 30
0.0
 10
11.1895436647
 20
7.8003062429
 30
0.0
 10
11.1728336035
 20
7.8071707624
 30
0.0
 10
11.1565852167
 20
7.8152077471
 30
0.0
 10
11.1408850609
 20
7.8243742505
 30
0.0
 10
11.1258167958
 20
7.834621329
 30
0.0
 10
11.1114607049
 20
7.8458943047
 30
0.0
 10
11.0978932835
 20
7.8581330542
 30
0.0
 10
11.0851868326
 20
7.8712723268
 30
0.0
 10
11.0734090784
 20
7.8852420891
 30
0.0
 10
11.0626228144
 20
7.8999678947
 30
0.0
 10
11.0528855705
 20
7.9153712769
 30
0.0
 10
11.0442493077
 20
7.9313701618
 30
0.0
 10
11.0367601434
 20
7.9478793013
 30
0.0
 10
11.0304581063
 20
7.9648107208
 30
0.0
 10
11.0253769224
 20
7.9820741829
 30
0.0
 10
11.0215438343
 20
7.999577661
 30
0.0
 10
11.0189794528
 20
8.0172278241
 30
0.0
 10
11.0176976425
 20
8.0349305271
 30
0.0
 10
11.0177054422
 20
8.0525913072
 30
0.0
 10
11.0190030185
 20
8.0701158824
 30
0.0
 10
11.0215836565
 20
8.0874106514
 30
0.0
 10
11.0254337833
 20
8.1043831904
 30
0.0
 10
11.0305330313
 20
8.1209427502
 30
0.0
 10
11.0368543268
 20
8.1370007363
 30
0.0
 10
11.044364054
 20
8.1524712195
 30
0.0
 10
11.0530221109
 20
8.1672712939
 30
0.0
 10
11.0627825435
 20
8.1813219456
 30
0.0
 10
11.073592201
 20
8.1945469515
 30
0.0
 10
11.0814630601
 20
8.2027694216
 30
0.0
 10
11.085549923
 20
8.2067170318
 30
0.0
  0
SPLINE
  5
2E0
100
AcDbEntity
  8
0
100
AcDbSpline
 62
7
  6
CONTINUOUS
 70
0
 71
3
 72
24
 73
20
 74
0
 42
0.0000001
 43
0.0000001
 44
0.0000000001
 40
0.0
 40
0.0
 40
0.0
 40
0.0
 40
0.0616478629
 40
0.092481784
 40
0.1233243203
 40
0.1850410113
 40
0.246825752
 40
0.3087000522
 40
0.3706844264
 40
0.4327981632
 40
0.4950591366
 40
0.5574836428
 40
0.6200862031
 40
0.6828793215
 40
0.7458738189
 40
0.8090780183
 40
0.8724971396
 40
0.9361397753
 40
1.0
 40
1.0
 40
1.0
 40
1.0
 10
12.3110328037
 20
6.5479160326
 30
0.0
 10
12.3077110742
 20
6.5447074882
 30
0.0
 10
12.302597094
 20
6.5400268928
 30
0.0
 10
12.2955354078
 20
6.5340685901
 30
0.0
 10
12.2883121108
 20
6.5282986729
 30
0.0
 10
12.2789897808
 20
6.521448446
 30
0.0
 10
12.2673690474
 20
6.5138330248
 30
0.0
 10
12.2553405058
 20
6.5068392858
 30
0.0
 10
12.2429346342
 20
6.5004850246
 30
0.0
 10
12.2301826581
 20
6.4947861693
 30
0.0
 10
12.2171167382
 20
6.4897570204
 30
0.0
 10
12.2037697769
 20
6.4854102324
 30
0.0
 10
12.1901753894
 20
6.481756771
 30
0.0
 10
12.176367828
 20
6.4788057256
 30
0.0
 10
12.1623818473
 20
6.4765645046
 30
0.0
 10
12.1482527624
 20
6.4750387712
 30
0.0
 10
12.1340157763
 20
6.4742322074
 30
0.0
 10
12.1197075014
 20
6.4741469926
 30
0.0
 10
12.1101603979
 20
6.4745703432
 30
0.0
 10
12.1053878292
 20
6.474901322
 30
0.0
  0
SPLINE
  5
2E1
100
AcDbEntity
  8
0
100
AcDbSpline
 62
7
  6
CONTINUOUS
 70
0
 71
3
 72
21
 73
17
 74
0
 42
0.0000001
 43
0.0000001
 44
0.0000000001
 40
0.0
 40
0.0
 40
0.0
 40
0.0
 40
0.0616532201
 40
0.1233294852
 40
0.1850515324
 40
0.2468416558
 40
0.3087213443
 40
0.3707110957
 40
0.4328302417
 40
0.4950966495
 40
0.5575265918
 40
0.6201344754
 40
0.6829332282
 40
0.7459334838
 40
0.8725260222
 40
1.0
 40
1.0
 40
1.0
 40
1.0
 10
10.6560188333
 20
7.9814970355
 30
0.0
 10
10.6545599681
 20
7.9800878833
 30
0.0
 10
10.6515652657
 20
7.9773469571
 30
0.0
 10
10.6468578039
 20
7.9734821773
 30
0.0
 10
10.6419459336
 20
7.9698728495
 30
0.0
 10
10.6368422116
 20
7.9665282
 30
0.0
 10
10.6315594023
 20
7.9634566966
 30
0.0
 10
10.6261109063
 20
7.9606659487
 30
0.0
 10
10.6205103796
 20
7.9581631063
 30
0.0
 10
10.6147719836
 20
7.9559543724
 30
0.0
 10
10.6089101546
 20
7.9540453148
 30
0.0
 10
10.6029396846
 20
7.9524407806
 30
0.0
 10
10.59687546
 20
7.9511446808
 30
0.0
 10
10.5886736438
 20
7.9498303663
 30
0.0
 10
10.578258662
 20
7.9489763809
 30
0.0
 10
10.5698856439
 20
7.9491398113
 30
0.0
 10
10.5657019884
 20
7.9494299488
 30
0.0
  0
SPLINE
  5
2E2
100
AcDbEntity
  8
0
100
AcDbSpline
 62
7
  6
CONTINUOUS
 70
0
 71
3
 72
15
 73
11
 74
0
 42
0.0000001
 43
0.0000001
 44
0.0000000001
 40
0.0
 40
0.0
 40
0.0
 40
0.0
 40
0.1232685507
 40
0.2468889796
 40
0.370948403
 40
0.4955223615
 40
0.6206745137
 40
0.7464506782
 40
0.8728896254
 40
1.0
 40
1.0
 40
1.0
 40
1.0
 10
10.6703375456
 20
7.998472794
 30
0.0
 10
10.667704845
 20
7.9967920683
 30
0.0
 10
10.6622909034
 20
7.9936411565
 30
0.0
 10
10.6537994864
 20
7.9895879018
 30
0.0
 10
10.6449759434
 20
7.9862246001
 30
0.0
 10
10.6358733732
 20
7.9835715037
 30
0.0
 10
10.6265457102
 20
7.9816441838
 30
0.0
 10
10.6170480702
 20
7.9804538299
 30
0.0
 10
10.6074375948
 20
7.9800075013
 30
0.0
 10
10.6010086039
 20
7.9802070966
 30
0.0
 10
10.597795523
 20
7.9804299245
 30
0.0
  0
SPLINE
  5
2E3
100
AcDbEntity
  8
0
100
AcDbSpline
 62
7
  6
CONTINUOUS
 70
0
 71
3
 72
40
 73
36
 74
0
 42
0.0000001
 43
0.0000001
 44
0.0000000001
 40
0.0
 40
0.0
 40
0.0
 40
0.0
 40
0.0311444947
 40
0.0624430116
 40
0.0938878326
 40
0.1254704216
 40
0.1571781344
 40
0.1889963661
 40
0.2209081245
 40
0.2528946404
 40
0.2689119976
 40
0.2849403504
 40
0.3170145907
 40
0.3491001014
 40
0.3811747228
 40
0.4132165051
 40
0.4452041336
 40
0.4771173445
 40
0.5089373259
 40
0.5406470987
 40
0.5722318701
 40
0.6036793542
 40
0.6349800517
 40
0.6661274822
 40
0.697118363
 40
0.7279527258
 40
0.7586339677
 40
0.7891688275
 40
0.8195672855
 40
0.8498423851
 40
0.8800099759
 40
0.9100883815
 40
0.9400979984
 40
0.9700608344
 40
1.0
 40
1.0
 40
1.0
 40
1.0
 10
11.4408307412
 20
6.6253084454
 30
0.0
 10
11.4371512175
 20
6.6255636212
 30
0.0
 10
11.4297899166
 20
6.6263445846
 30
0.0
 10
11.4188372382
 20
6.6283117512
 30
0.0
 10
11.4080018392
 20
6.6310672817
 30
0.0
 10
11.3973423199
 20
6.6345961775
 30
0.0
 10
11.3869152599
 20
6.6388796377
 30
0.0
 10
11.3767762313
 20
6.6438947351
 30
0.0
 10
11.366979504
 20
6.6496144999
 30
0.0
 10
11.3591468099
 20
6.6549411054
 30
0.0
 10
11.3531022839
 20
6.6595223127
 30
0.0
 10
11.3472097737
 20
6.664313958
 30
0.0
 10
11.3401523842
 20
6.6706801525
 30
0.0
 10
11.3322237207
 20
6.6788789158
 30
0.0
 10
11.3248743613
 20
6.6875960725
 30
0.0
 10
11.318143747
 20
6.6967849561
 30
0.0
 10
11.3120677056
 20
6.7063966585
 30
0.0
 10
11.3066786782
 20
6.7163799502
 30
0.0
 10
11.302005436
 20
6.7266816405
 30
0.0
 10
11.2980729577
 20
6.7372468329
 30
0.0
 10
11.2949022881
 20
6.7480192199
 30
0.0
 10
11.2925104269
 20
6.7589413779
 30
0.0
 10
11.2909102366
 20
6.7699550687
 30
0.0
 10
11.2901103703
 20
6.7810015461
 30
0.0
 10
11.2901152225
 20
6.792021865
 30
0.0
 10
11.2909248981
 20
6.8029571927
 30
0.0
 10
11.2925352042
 20
6.8137491217
 30
0.0
 10
11.2949376699
 20
6.8243399799
 30
0.0
 10
11.2981195846
 20
6.8346731404
 30
0.0
 10
11.3020640538
 20
6.8446933212
 30
0.0
 10
11.3067501015
 20
6.8543469031
 30
0.0
 10
11.3121527047
 20
6.8635821529
 30
0.0
 10
11.3182431885
 20
6.872349767
 30
0.0
 10
11.3249883909
 20
6.8806021786
 30
0.0
 10
11.3298997867
 20
6.8857330118
 30
0.0
 10
11.3324499846
 20
6.8881963212
 30
0.0
  0
SPLINE
  5
2E4
100
AcDbEntity
  8
0
100
AcDbSpline
 62
7
  6
CONTINUOUS
 70
0
 71
3
 72
39
 73
35
 74
0
 42
0.0000001
 43
0.0000001
 44
0.0000000001
 40
0.0
 40
0.0
 40
0.0
 40
0.0
 40
0.0299348114
 40
0.0599413979
 40
0.0900363211
 40
0.1202344111
 40
0.1505484986
 40
0.1809891813
 40
0.2115646394
 40
0.2422805184
 40
0.2731398751
 40
0.3041431498
 40
0.3352881838
 40
0.3665702877
 40
0.3979823788
 40
0.4295151317
 40
0.4611571521
 40
0.4928951831
 40
0.5247143615
 40
0.5565984851
 40
0.5885302766
 40
0.6204916631
 40
0.6524640874
 40
0.6844288228
 40
0.7163672701
 40
0.7482612484
 40
0.7800933018
 40
0.8118470293
 40
0.8435072757
 40
0.8750605229
 40
0.9064951743
 40
0.9378005257
 40
0.9689720362
 40
1.0
 40
1.0
 40
1.0
 40
1.0
 10
10.4929837033
 20
8.1824238791
 30
0.0
 10
10.4914308072
 20
8.1801779651
 30
0.0
 10
10.4884818051
 20
8.1755673264
 30
0.0
 10
10.4845592146
 20
8.1683444721
 30
0.0
 10
10.4811496467
 20
8.1608389638
 30
0.0
 10
10.4782688183
 20
8.1530853336
 30
0.0
 10
10.4759296422
 20
8.1451186439
 30
0.0
 10
10.474142702
 20
8.1369750579
 30
0.0
 10
10.4729160398
 20
8.1286914926
 30
0.0
 10
10.4722551049
 20
8.1203055031
 30
0.0
 10
10.4721628103
 20
8.1118550797
 30
0.0
 10
10.4726395113
 20
8.1033784893
 30
0.0
 10
10.4736830167
 20
8.0949141107
 30
0.0
 10
10.4752885105
 20
8.0865002516
 30
0.0
 10
10.4774486502
 20
8.0781749752
 30
0.0
 10
10.4801536112
 20
8.0699759368
 30
0.0
 10
10.4833911392
 20
8.0619402263
 30
0.0
 10
10.4871465477
 20
8.0541041842
 30
0.0
 10
10.4914027887
 20
8.0465032276
 30
0.0
 10
10.4961405859
 20
8.0391717182
 30
0.0
 10
10.5013385083
 20
8.032142811
 30
0.0
 10
10.5069730561
 20
8.025448305
 30
0.0
 10
10.5130187122
 20
8.0191184502
 30
0.0
 10
10.5194481303
 20
8.0131818645
 30
0.0
 10
10.5262322439
 20
8.0076654031
 30
0.0
 10
10.5333404011
 20
8.0025940548
 30
0.0
 10
10.5407404508
 20
7.9979907568
 30
0.0
 10
10.5483989278
 20
7.9938763395
 30
0.0
 10
10.5562812041
 20
7.9902694358
 30
0.0
 10
10.5643516748
 20
7.9871864138
 30
0.0
 10
10.5725737515
 20
7.9846413534
 30
0.0
 10
10.5809105204
 20
7.9826455788
 30
0.0
 10
10.5893235913
 20
7.9812085352
 30
0.0
 10
10.5949720954
 20
7.9806257299
 30
0.0
 10
10.597795523
 20
7.9804299245
 30
0.0
  0
SPLINE
  5
2E5
100
AcDbEntity
  8
0
100
AcDbSpline
 62
7
  6
CONTINUOUS
 70
0
 71
3
 72
23
 73
19
 74
0
 42
0.0000001
 43
0.0000001
 44
0.0000000001
 40
0.0
 40
0.0
 40
0.0
 40
0.0
 40
0.0616482156
 40
0.1233194448
 40
0.1850364824
 40
0.2468215709
 40
0.3086962096
 40
0.3706809325
 40
0.432795002
 40
0.4950563289
 40
0.5574812109
 40
0.6200840208
 40
0.6828775523
 40
0.7458726718
 40
0.8090764916
 40
0.8724961142
 40
0.9361412363
 40
1.0
 40
1.0
 40
1.0
 40
1.0
 10
11.5492114978
 20
6.6637894452
 30
0.0
 10
11.5474608529
 20
6.662098447
 30
0.0
 10
11.5438671808
 20
6.6588093228
 30
0.0
 10
11.5382182296
 20
6.6541715132
 30
0.0
 10
11.5323239842
 20
6.6498402416
 30
0.0
 10
11.5261994593
 20
6.6458266705
 30
0.0
 10
11.519860103
 20
6.6421407506
 30
0.0
 10
11.5133218513
 20
6.6387918611
 30
0.0
 10
11.5066011967
 20
6.6357883959
 30
0.0
 10
11.4997150934
 20
6.6331378509
 30
0.0
 10
11.4926808516
 20
6.6308470024
 30
0.0
 10
11.4855162288
 20
6.6289214876
 30
0.0
 10
11.4782392409
 20
6.6273661739
 30
0.0
 10
11.4708682334
 20
6.6261850434
 30
0.0
 10
11.4634218189
 20
6.625380874
 30
0.0
 10
11.4559184538
 20
6.6249557917
 30
0.0
 10
11.448377563
 20
6.6249109292
 30
0.0
 10
11.4433459509
 20
6.625134015
 30
0.0
 10
11.4408307412
 20
6.6253084454
 30
0.0
  0
SPLINE
  5
2E6
100
AcDbEntity
  8
0
100
AcDbSpline
 62
7
  6
CONTINUOUS
 70
0
 71
3
 72
15
 73
11
 74
0
 42
0.0000001
 43
0.0000001
 44
0.0000000001
 40
0.0
 40
0.0
 40
0.0
 40
0.0
 40
0.1236398829
 40
0.2476300303
 40
0.3719950588
 40
0.4967554068
 40
0.6219240682
 40
0.7475162652
 40
0.8735503432
 40
1.0
 40
1.0
 40
1.0
 40
1.0
 10
11.5818417865
 20
6.712961588
 30
0.0
 10
11.5795427932
 20
6.712158589
 30
0.0
 10
11.5748956124
 20
6.7106696835
 30
0.0
 10
11.5678091381
 20
6.708796585
 30
0.0
 10
11.5606141436
 20
6.7072848836
 30
0.0
 10
11.5533285588
 20
6.7061385481
 30
0.0
 10
11.5459702629
 20
6.7053601244
 30
0.0
 10
11.5385570471
 20
6.7049516475
 30
0.0
 10
11.5311076709
 20
6.7049142065
 30
0.0
 10
11.5261373344
 20
6.7051360768
 30
0.0
 10
11.5236527654
 20
6.7053083823
 30
0.0
  0
SPLINE
  5
2E7
100
AcDbEntity
  8
0
100
AcDbSpline
 62
7
  6
CONTINUOUS
 70
0
 71
3
 72
39
 73
35
 74
0
 42
0.0000001
 43
0.0000001
 44
0.0000000001
 40
0.0
 40
0.0
 40
0.0
 40
0.0
 40
0.0300896089
 40
0.0602847709
 40
0.0905937261
 40
0.1210229583
 40
0.151577141
 40
0.1822590924
 40
0.2130697382
 40
0.2440081154
 40
0.2750714379
 40
0.3062551496
 40
0.3375529884
 40
0.3689571025
 40
0.4004581944
 40
0.4320456433
 40
0.4637076465
 40
0.4954314096
 40
0.5272033259
 40
0.5590091391
 40
0.5908341384
 40
0.622663374
 40
0.6544818411
 40
0.6862746622
 40
0.7180273051
 40
0.7497257766
 40
0.7813567994
 40
0.8129079965
 40
0.8443680096
 40
0.8757269068
 40
0.906975961
 40
0.938107224
 40
0.969118163
 40
1.0
 40
1.0
 40
1.0
 40
1.0
 10
11.3827212877
 20
6.9190966821
 30
0.0
 10
11.3816461065
 20
6.9163299755
 30
0.0
 10
11.37966711
 20
6.9107169938
 30
0.0
 10
11.3772291551
 20
6.9021132984
 30
0.0
 10
11.3753251715
 20
6.8933413072
 30
0.0
 10
11.3739621939
 20
6.8844334842
 30
0.0
 10
11.3731450643
 20
6.8754222115
 30
0.0
 10
11.3728767369
 20
6.8663403805
 30
0.0
 10
11.3731581866
 20
6.8572210965
 30
0.0
 10
11.3739882906
 20
6.8480976044
 30
0.0
 10
11.3753639604
 20
6.8390031462
 30
0.0
 10
11.3772801703
 20
6.8299708584
 30
0.0
 10
11.3797299245
 20
6.8210336523
 30
0.0
 10
11.3827042112
 20
6.8122240659
 30
0.0
 10
11.386192162
 20
6.8035741751
 30
0.0
 10
11.3901810879
 20
6.7951154935
 30
0.0
 10
11.3946564296
 20
6.78687882
 30
0.0
 10
11.3996018333
 20
6.7788941233
 30
0.0
 10
11.4049992835
 20
6.7711904745
 30
0.0
 10
11.4108291552
 20
6.7637959532
 30
0.0
 10
11.4170701802
 20
6.7567374627
 30
0.0
 10
11.4236996122
 20
6.7500406875
 30
0.0
 10
11.4306933278
 20
6.7437300291
 30
0.0
 10
11.4380258856
 20
6.7378285043
 30
0.0
 10
11.4456705546
 20
6.7323575739
 30
0.0
 10
11.4535995004
 20
6.7273371633
 30
0.0
 10
11.4617838781
 20
6.7227856039
 30
0.0
 10
11.4701938903
 20
6.718719511
 30
0.0
 10
11.4787988944
 20
6.7151536595
 30
0.0
 10
11.4875675825
 20
6.7121010829
 30
0.0
 10
11.4964679412
 20
6.7095730214
 30
0.0
 10
11.5054678459
 20
6.7075785255
 30
0.0
 10
11.5145338541
 20
6.7061252157
 30
0.0
 10
11.5206136343
 20
6.7055191467
 30
0.0
 10
11.5236527654
 20
6.7053083823
 30
0.0
  0
SPLINE
  5
2E8
100
AcDbEntity
  8
0
100
AcDbSpline
 62
7
  6
CONTINUOUS
 70
0
 71
3
 72
23
 73
19
 74
0
 42
0.0000001
 43
0.0000001
 44
0.0000000001
 40
0.0
 40
0.0
 40
0.0
 40
0.0
 40
0.0616482124
 40
0.1233194439
 40
0.1850364753
 40
0.2468215683
 40
0.3086962113
 40
0.3706809222
 40
0.4327950085
 40
0.4950563306
 40
0.5574811863
 40
0.6200840811
 40
0.6828775412
 40
0.7458724798
 40
0.8090768825
 40
0.8724962987
 40
0.9361399042
 40
1.0
 40
1.0
 40
1.0
 40
1.0
 10
10.7393887755
 20
7.0799452559
 30
0.0
 10
10.7365832587
 20
7.0772353323
 30
0.0
 10
10.7308241779
 20
7.0719643168
 30
0.0
 10
10.72177137
 20
7.0645319749
 30
0.0
 10
10.7123254717
 20
7.057590872
 30
0.0
 10
10.7025105616
 20
7.0511588639
 30
0.0
 10
10.6923513203
 20
7.0452520241
 30
0.0
 10
10.6818733902
 20
7.0398852043
 30
0.0
 10
10.6711031365
 20
7.0350719626
 30
0.0
 10
10.6600677096
 20
7.0308243896
 30
0.0
 10
10.6487949308
 20
7.027153104
 30
0.0
 10
10.6373131817
 20
7.0240673768
 30
0.0
 10
10.6256513697
 20
7.0215749515
 30
0.0
 10
10.6138388768
 20
7.0196820387
 30
0.0
 10
10.6019055264
 20
7.0183933805
 30
0.0
 10
10.5898810054
 20
7.0177121653
 30
0.0
 10
10.5777962968
 20
7.0176402114
 30
0.0
 10
10.5697328477
 20
7.0179977584
 30
0.0
 10
10.5657019884
 20
7.0182772994
 30
0.0
  0
SPLINE
  5
2E9
100
AcDbEntity
  8
0
100
AcDbSpline
 62
7
  6
CONTINUOUS
 70
0
 71
3
 72
44
 73
40
 74
0
 42
0.0000001
 43
0.0000001
 44
0.0000000001
 40
0.0
 40
0.0
 40
0.0
 40
0.0
 40
0.0311440853
 40
0.0624413459
 40
0.0938856781
 40
0.1254674212
 40
0.1571744181
 40
0.1889918883
 40
0.2209028956
 40
0.2528886538
 40
0.2849289214
 40
0.3170023991
 40
0.349087146
 40
0.3811610037
 40
0.4132020241
 40
0.4451888933
 40
0.4771013475
 40
0.5089205749
 40
0.5406295959
 40
0.5722136175
 40
0.6036603535
 40
0.6349603047
 40
0.6661069914
 40
0.6970971317
 40
0.7279307585
 40
0.7586112692
 40
0.7891454023
 40
0.8195431376
 40
0.8498175178
 40
0.8649161013
 40
0.8799900024
 40
0.8950415906
 40
0.9100733538
 40
0.9250879074
 40
0.9400879568
 40
0.9550763027
 40
0.9700558066
 40
0.9850293887
 40
1.0
 40
1.0
 40
1.0
 40
1.0
 10
12.1053878292
 20
8.8897160308
 30
0.0
 10
12.0984060867
 20
8.8902002163
 30
0.0
 10
12.0844385088
 20
8.8916820053
 30
0.0
 10
12.0636564793
 20
8.8954146679
 30
0.0
 10
12.0430970353
 20
8.9006430188
 30
0.0
 10
12.0228712355
 20
8.9073389395
 30
0.0
 10
12.0030865193
 20
8.915466533
 30
0.0
 10
11.9838484251
 20
8.924982333
 30
0.0
 10
11.9652594372
 20
8.9358354807
 30
0.0
 10
11.9474186088
 20
8.9479680306
 30
0.0
 10
11.9304209954
 20
8.9613152425
 30
0.0
 10
11.9143571673
 20
8.9758059307
 30
0.0
 10
11.899312729
 20
8.9913628382
 30
0.0
 10
11.885367868
 20
9.0079030455
 30
0.0
 10
11.8725969322
 20
9.025338408
 30
0.0
 10
11.8610680366
 20
9.0435760211
 30
0.0
 10
11.8508427034
 20
9.0625187095
 30
0.0
 10
11.8419755356
 20
9.0820655392
 30
0.0
 10
11.8345139273
 20
9.1021123486
 30
0.0
 10
11.8284978104
 20
9.1225522961
 30
0.0
 10
11.8239594404
 20
9.1432764227
 30
0.0
 10
11.8209232205
 20
9.1641742237
 30
0.0
 10
11.8194055674
 20
9.1851342321
 30
0.0
 10
11.8194148131
 20
9.2060446
 30
0.0
 10
11.8209511622
 20
9.2267937114
 30
0.0
 10
11.8240066369
 20
9.2472706892
 30
0.0
 10
11.8285652656
 20
9.2673662987
 30
0.0
 10
11.8346025657
 20
9.2869723697
 30
0.0
 10
11.8408461916
 20
9.3028326097
 30
0.0
 10
11.8465437158
 20
9.3151662274
 30
0.0
 10
11.8511592792
 20
9.3242230706
 30
0.0
 10
11.8561143257
 20
9.3330813719
 30
0.0
 10
11.8614023814
 20
9.3417294302
 30
0.0
 10
11.8670162648
 20
9.3501557019
 30
0.0
 10
11.8729486064
 20
9.3583488607
 30
0.0
 10
11.8791913347
 20
9.3662980413
 30
0.0
 10
11.8857362958
 20
9.3739925445
 30
0.0
 10
11.8925744463
 20
9.3814220747
 30
0.0
 10
11.8973232062
 20
9.3861922422
 30
0.0
 10
11.8997428547
 20
9.3885294432
 30
0.0
  0
SPLINE
  5
2EA
100
AcDbEntity
  8
0
100
AcDbSpline
 62
7
  6
CONTINUOUS
 70
0
 71
3
 72
23
 73
19
 74
0
 42
0.0000001
 43
0.0000001
 44
0.0000000001
 40
0.0
 40
0.0
 40
0.0
 40
0.0
 40
0.0616482124
 40
0.1233194439
 40
0.1850364753
 40
0.2468215683
 40
0.3086962113
 40
0.3706809222
 40
0.4327950085
 40
0.4950563306
 40
0.5574811863
 40
0.6200840811
 40
0.6828775412
 40
0.7458724798
 40
0.8090768825
 40
0.8724962987
 40
0.9361399042
 40
1.0
 40
1.0
 40
1.0
 40
1.0
 10
10.0458540537
 20
7.9432835955
 30
0.0
 10
10.0430485369
 20
7.9405736719
 30
0.0
 10
10.0372894561
 20
7.9353026565
 30
0.0
 10
10.0282366483
 20
7.9278703146
 30
0.0
 10
10.01879075
 20
7.9209292117
 30
0.0
 10
10.0089758399
 20
7.9144972035
 30
0.0
 10
9.9988165986
 20
7.9085903637
 30
0.0
 10
9.9883386685
 20
7.9032235439
 30
0.0
 10
9.9775684148
 20
7.8984103023
 30
0.0
 10
9.9665329879
 20
7.8941627292
 30
0.0
 10
9.9552602091
 20
7.8904914437
 30
0.0
 10
9.94377846
 20
7.8874057164
 30
0.0
 10
9.932116648
 20
7.8849132912
 30
0.0
 10
9.920304155
 20
7.8830203783
 30
0.0
 10
9.9083708046
 20
7.8817317202
 30
0.0
 10
9.8963462837
 20
7.8810505049
 30
0.0
 10
9.8842615751
 20
7.880978551
 30
0.0
 10
9.876198126
 20
7.881336098
 30
0.0
 10
9.8721672667
 20
7.8816156391
 30
0.0
  0
SPLINE
  5
2EB
100
AcDbEntity
  8
0
100
AcDbSpline
 62
7
  6
CONTINUOUS
 70
0
 71
3
 72
23
 73
19
 74
0
 42
0.0000001
 43
0.0000001
 44
0.0000000001
 40
0.0
 40
0.0
 40
0.0
 40
0.0
 40
0.0616482124
 40
0.1233194439
 40
0.1850364753
 40
0.2468215683
 40
0.3086962113
 40
0.3706809222
 40
0.4327950085
 40
0.4950563306
 40
0.5574811863
 40
0.6200840811
 40
0.6828775412
 40
0.7458724798
 40
0.8090768825
 40
0.8724962987
 40
0.9361399042
 40
1.0
 40
1.0
 40
1.0
 40
1.0
 10
11.4329234972
 20
7.8470900029
 30
0.0
 10
11.4301179804
 20
7.8443800793
 30
0.0
 10
11.4243588996
 20
7.8391090638
 30
0.0
 10
11.4153060917
 20
7.831676722
 30
0.0
 10
11.4058601935
 20
7.8247356191
 30
0.0
 10
11.3960452833
 20
7.8183036109
 30
0.0
 10
11.385886042
 20
7.8123967711
 30
0.0
 10
11.3754081119
 20
7.8070299513
 30
0.0
 10
11.3646378582
 20
7.8022167097
 30
0.0
 10
11.3536024314
 20
7.7979691366
 30
0.0
 10
11.3423296526
 20
7.794297851
 30
0.0
 10
11.3308479034
 20
7.7912121238
 30
0.0
 10
11.3191860914
 20
7.7887196986
 30
0.0
 10
11.3073735985
 20
7.7868267857
 30
0.0
 10
11.2954402481
 20
7.7855381276
 30
0.0
 10
11.2834157271
 20
7.7848569123
 30
0.0
 10
11.2713310186
 20
7.7847849584
 30
0.0
 10
11.2632675694
 20
7.7851425054
 30
0.0
 10
11.2592367101
 20
7.7854220464
 30
0.0
  0
SPLINE
  5
2EC
100
AcDbEntity
  8
0
100
AcDbSpline
 62
7
  6
CONTINUOUS
 70
0
 71
3
 72
23
 73
19
 74
0
 42
0.0000001
 43
0.0000001
 44
0.0000000001
 40
0.0
 40
0.0
 40
0.0
 40
0.0
 40
0.0616482124
 40
0.1233194439
 40
0.1850364753
 40
0.2468215683
 40
0.3086962113
 40
0.3706809222
 40
0.4327950085
 40
0.4950563306
 40
0.5574811863
 40
0.6200840811
 40
0.6828775412
 40
0.7458724798
 40
0.8090768825
 40
0.8724962987
 40
0.9361399042
 40
1.0
 40
1.0
 40
1.0
 40
1.0
 10
10.7393887755
 20
8.7104282274
 30
0.0
 10
10.7365832587
 20
8.7077183038
 30
0.0
 10
10.7308241779
 20
8.7024472883
 30
0.0
 10
10.72177137
 20
8.6950149465
 30
0.0
 10
10.7123254717
 20
8.6880738436
 30
0.0
 10
10.7025105616
 20
8.6816418354
 30
0.0
 10
10.6923513203
 20
8.6757349956
 30
0.0
 10
10.6818733902
 20
8.6703681758
 30
0.0
 10
10.6711031365
 20
8.6655549342
 30
0.0
 10
10.6600677096
 20
8.6613073611
 30
0.0
 10
10.6487949308
 20
8.6576360755
 30
0.0
 10
10.6373131817
 20
8.6545503483
 30
0.0
 10
10.6256513697
 20
8.6520579231
 30
0.0
 10
10.6138388768
 20
8.6501650102
 30
0.0
 10
10.6019055264
 20
8.6488763521
 30
0.0
 10
10.5898810054
 20
8.6481951368
 30
0.0
 10
10.5777962968
 20
8.6481231829
 30
0.0
 10
10.5697328477
 20
8.6484807299
 30
0.0
 10
10.5657019884
 20
8.6487602709
 30
0.0
  0
SPLINE
  5
2ED
100
AcDbEntity
  8
0
100
AcDbSpline
 62
7
  6
CONTINUOUS
 70
0
 71
3
 72
39
 73
35
 74
0
 42
0.0000001
 43
0.0000001
 44
0.0000000001
 40
0.0
 40
0.0
 40
0.0
 40
0.0
 40
0.0311449008
 40
0.0624431523
 40
0.093888332
 40
0.1254709881
 40
0.1571788807
 40
0.1889972566
 40
0.2209091706
 40
0.2528958383
 40
0.2849370172
 40
0.3170114073
 40
0.349097067
 40
0.3811718373
 40
0.4132137693
 40
0.4452015485
 40
0.4771149106
 40
0.5089350431
 40
0.540644966
 40
0.5722298857
 40
0.6036775159
 40
0.634978357
 40
0.6661259293
 40
0.697116951
 40
0.727951455
 40
0.7586328387
 40
0.7891678408
 40
0.8195664415
 40
0.8498416836
 40
0.8800094164
 40
0.9100879631
 40
0.9400977201
 40
0.9700606955
 40
1.0
 40
1.0
 40
1.0
 40
1.0
 10
10.5657019884
 20
8.6487602709
 30
0.0
 10
10.5598052615
 20
8.6491692103
 30
0.0
 10
10.5480083196
 20
8.6504207269
 30
0.0
 10
10.5304559353
 20
8.6535732958
 30
0.0
 10
10.5130915351
 20
8.6579891433
 30
0.0
 10
10.496008943
 20
8.6636444674
 30
0.0
 10
10.4792988818
 20
8.6705089869
 30
0.0
 10
10.463050495
 20
8.6785459716
 30
0.0
 10
10.4473503392
 20
8.687712475
 30
0.0
 10
10.432282074
 20
8.6979595535
 30
0.0
 10
10.4179259832
 20
8.7092325292
 30
0.0
 10
10.4043585618
 20
8.7214712787
 30
0.0
 10
10.3916521109
 20
8.7346105513
 30
0.0
 10
10.3798743566
 20
8.7485803136
 30
0.0
 10
10.3690880927
 20
8.7633061192
 30
0.0
 10
10.3593508488
 20
8.7787095014
 30
0.0
 10
10.350714586
 20
8.7947083863
 30
0.0
 10
10.3432254217
 20
8.8112175258
 30
0.0
 10
10.3369233845
 20
8.8281489453
 30
0.0
 10
10.3318422007
 20
8.8454124074
 30
0.0
 10
10.3280091126
 20
8.8629158856
 30
0.0
 10
10.3254447311
 20
8.8805660486
 30
0.0
 10
10.3241629208
 20
8.8982687516
 30
0.0
 10
10.3241707204
 20
8.9159295317
 30
0.0
 10
10.3254682968
 20
8.9334541069
 30
0.0
 10
10.3280489347
 20
8.9507488759
 30
0.0
 10
10.3318990615
 20
8.9677214149
 30
0.0
 10
10.3369983096
 20
8.9842809747
 30
0.0
 10
10.3433196051
 20
9.0003389608
 30
0.0
 10
10.3508293323
 20
9.015809444
 30
0.0
 10
10.3594873891
 20
9.0306095184
 30
0.0
 10
10.3692478218
 20
9.0446601701
 30
0.0
 10
10.3800574792
 20
9.057885176
 30
0.0
 10
10.3879283383
 20
9.0661076461
 30
0.0
 10
10.3920152013
 20
9.0700552563
 30
0.0
  0
SPLINE
  5
2EE
100
AcDbEntity
  8
0
100
AcDbSpline
 62
7
  6
CONTINUOUS
 70
0
 71
3
 72
18
 73
14
 74
0
 42
0.0000001
 43
0.0000001
 44
0.0000000001
 40
0.0
 40
0.0
 40
0.0
 40
0.0
 40
0.1504663731
 40
0.2917105206
 40
0.4244367454
 40
0.5495624809
 40
0.6682140449
 40
0.7255497559
 40
0.7817911968
 40
0.8371401738
 40
0.8918092593
 40
0.9460199951
 40
1.0
 40
1.0
 40
1.0
 40
1.0
 10
13.405234911
 20
10.1789430344
 30
0.0
 10
13.4073552445
 20
10.1809911194
 30
0.0
 10
13.4115929577
 20
10.1848338758
 30
0.0
 10
13.4181549919
 20
10.1899550386
 30
0.0
 10
13.424709356
 20
10.1942380899
 30
0.0
 10
13.43124921
 20
10.19767598
 30
0.0
 10
13.4367458589
 20
10.1998560066
 30
0.0
 10
13.4411099761
 20
10.2011512061
 30
0.0
 10
13.4443365788
 20
10.2018977037
 30
0.0
 10
13.4475524623
 20
10.2024297951
 30
0.0
 10
13.4507567491
 20
10.2027471765
 30
0.0
 10
13.4539481529
 20
10.202849697
 30
0.0
 10
13.456068428
 20
10.2027746863
 30
0.0
 10
13.4571234779
 20
10.2027015128
 30
0.0
  0
SPLINE
  5
2EF
100
AcDbEntity
  8
0
100
AcDbSpline
 62
7
  6
CONTINUOUS
 70
0
 71
3
 72
50
 73
46
 74
0
 42
0.0000001
 43
0.0000001
 44
0.0000000001
 40
0.0
 40
0.0
 40
0.0
 40
0.0
 40
0.0378128611
 40
0.0760190334
 40
0.1145315696
 40
0.1532645103
 40
0.1921301506
 40
0.2310408617
 40
0.269908731
 40
0.3086460126
 40
0.347165323
 40
0.3853799084
 40
0.4232038959
 40
0.4605525481
 40
0.4973425198
 40
0.5334921181
 40
0.5689215678
 40
0.6035532829
 40
0.637312149
 40
0.6701258217
 40
0.7019250349
 40
0.7326439348
 40
0.7622204463
 40
0.7765622752
 40
0.7905971572
 40
0.8043186022
 40
0.8177204426
 40
0.8307968217
 40
0.84354232
 40
0.8559518158
 40
0.868020713
 40
0.8797447678
 40
0.8911203013
 40
0.9021441194
 40
0.912813603
 40
0.9231267987
 40
0.9330823728
 40
0.9426798717
 40
0.951919577
 40
0.960802784
 40
0.9693317719
 40
0.9775102131
 40
0.9853432686
 40
0.9928373107
 40
1.0
 40
1.0
 40
1.0
 40
1.0
 10
12.7581878322
 20
8.8294991005
 30
0.0
 10
12.7581878322
 20
8.8414235038
 30
0.0
 10
12.7583463242
 20
8.8653966186
 30
0.0
 10
12.7590487998
 20
8.9015085953
 30
0.0
 10
12.7602158104
 20
8.9378988885
 30
0.0
 10
12.7618445045
 20
8.9744795815
 30
0.0
 10
12.7639310148
 20
9.0111627835
 30
0.0
 10
12.7664702999
 20
9.047860074
 30
0.0
 10
12.7694562563
 20
9.0844831141
 30
0.0
 10
12.7728816847
 20
9.1209437043
 30
0.0
 10
12.7767383277
 20
9.1571540492
 30
0.0
 10
12.7810168782
 20
9.193026957
 30
0.0
 10
12.7857070081
 20
9.2284760539
 30
0.0
 10
12.7907973921
 20
9.2634159923
 30
0.0
 10
12.7962757346
 20
9.2977626579
 30
0.0
 10
12.802128799
 20
9.331433373
 30
0.0
 10
12.8083424389
 20
9.3643470985
 30
0.0
 10
12.8149016315
 20
9.3964246298
 30
0.0
 10
12.8217905138
 20
9.4275887977
 30
0.0
 10
12.8289924172
 20
9.4577646448
 30
0.0
 10
12.8364899079
 20
9.4868796664
 30
0.0
 10
12.8442648401
 20
9.5148637953
 30
0.0
 10
12.8510268654
 20
9.5374106742
 30
0.0
 10
12.8565690247
 20
9.5548261575
 30
0.0
 10
12.8607405861
 20
9.5674298452
 30
0.0
 10
12.8649671698
 20
9.5797020957
 30
0.0
 10
12.8692462292
 20
9.5916355445
 30
0.0
 10
12.8735752212
 20
9.6032230085
 30
0.0
 10
12.8779514735
 20
9.6144575381
 30
0.0
 10
12.882372424
 20
9.6253323709
 30
0.0
 10
12.8868353316
 20
9.6358409953
 30
0.0
 10
12.8913375736
 20
9.6459770935
 30
0.0
 10
12.8958763969
 20
9.6557345995
 30
0.0
 10
12.9004490862
 20
9.6651076675
 30
0.0
 10
12.905052913
 20
9.6740906816
 30
0.0
 10
12.9096850629
 20
9.6826782921
 30
0.0
 10
12.9143428413
 20
9.6908653499
 30
0.0
 10
12.9190233828
 20
9.6986470185
 30
0.0
 10
12.9237239966
 20
9.7060186284
 30
0.0
 10
12.9284417972
 20
9.7129758273
 30
0.0
 10
12.9331740543
 20
9.7195144899
 30
0.0
 10
12.9379180371
 20
9.7256308001
 30
0.0
 10
12.9426710861
 20
9.7313212326
 30
0.0
 10
12.9474302325
 20
9.7365821053
 30
0.0
 10
12.9506773206
 20
9.7398740923
 30
0.0
 10
12.9523019558
 20
9.7414433695
 30
0.0
  0
SPLINE
  5
2F0
100
AcDbEntity
  8
0
100
AcDbSpline
 62
7
  6
CONTINUOUS
 70
0
 71
3
 72
30
 73
26
 74
0
 42
0.0000001
 43
0.0000001
 44
0.0000000001
 40
0.0
 40
0.0
 40
0.0
 40
0.0
 40
0.0755826241
 40
0.1466115403
 40
0.2134243746
 40
0.2764613841
 40
0.3362624424
 40
0.3651589666
 40
0.3934971803
 40
0.421373822
 40
0.4488908758
 40
0.4761547572
 40
0.5032752115
 40
0.5303638187
 40
0.5575326004
 40
0.5848925312
 40
0.6125520106
 40
0.6406156966
 40
0.6691834594
 40
0.6983492709
 40
0.7282008388
 40
0.7902595762
 40
0.8559510674
 40
0.9257407962
 40
1.0
 40
1.0
 40
1.0
 40
1.0
 10
14.3711607945
 20
10.0520684421
 30
0.0
 10
14.3730729382
 20
10.0539154311
 30
0.0
 10
14.3768946635
 20
10.0573846346
 30
0.0
 10
14.3828091292
 20
10.0620192323
 30
0.0
 10
14.3887167882
 20
10.065911694
 30
0.0
 10
14.3946115824
 20
10.0690559601
 30
0.0
 10
14.3995663575
 20
10.0710709762
 30
0.0
 10
14.4035017097
 20
10.0722859141
 30
0.0
 10
14.4064115566
 20
10.0729973873
 30
0.0
 10
14.4093120857
 20
10.0735190663
 30
0.0
 10
14.412202498
 20
10.0738507259
 30
0.0
 10
14.4150818623
 20
10.0739921129
 30
0.0
 10
14.4179492418
 20
10.0739431945
 30
0.0
 10
14.4208036957
 20
10.0737039809
 30
0.0
 10
14.4236442765
 20
10.0732744987
 30
0.0
 10
14.4264700502
 20
10.0726549253
 30
0.0
 10
14.4292801281
 20
10.0718455801
 30
0.0
 10
14.4320736502
 20
10.070846776
 30
0.0
 10
14.4348497506
 20
10.0696588672
 30
0.0
 10
14.437607719
 20
10.0682823232
 30
0.0
 10
14.4413072427
 20
10.066169055
 30
0.0
 10
14.445890738
 20
10.0630324613
 30
0.0
 10
14.4512303484
 20
10.0585724105
 30
0.0
 10
14.456476067
 20
10.0533743068
 30
0.0
 10
14.4598006717
 20
10.0495444425
 30
0.0
 10
14.4614487404
 20
10.0475180677
 30
0.0
  0
SPLINE
  5
2F1
100
AcDbEntity
  8
0
100
AcDbSpline
 62
7
  6
CONTINUOUS
 70
0
 71
3
 72
18
 73
14
 74
0
 42
0.0000001
 43
0.0000001
 44
0.0000000001
 40
0.0
 40
0.0
 40
0.0
 40
0.0
 40
0.1504654274
 40
0.2917102685
 40
0.4244367914
 40
0.5495623274
 40
0.6682139347
 40
0.7255498045
 40
0.781791271
 40
0.8371402644
 40
0.8918093774
 40
0.9460200616
 40
1.0
 40
1.0
 40
1.0
 40
1.0
 10
14.3112733897
 20
10.1161090525
 30
0.0
 10
14.3133936911
 20
10.1181571065
 30
0.0
 10
14.3176313685
 20
10.121999819
 30
0.0
 10
14.3241933285
 20
10.1271209588
 30
0.0
 10
14.3307476425
 20
10.1314039881
 30
0.0
 10
14.3372874257
 20
10.1348418795
 30
0.0
 10
14.3427840207
 20
10.1370218963
 30
0.0
 10
14.3471480881
 20
10.1383171375
 30
0.0
 10
14.3503746648
 20
10.1390636381
 30
0.0
 10
14.3535905174
 20
10.1395957424
 30
0.0
 10
14.35679477
 20
10.1399131792
 30
0.0
 10
14.359986144
 20
10.1400157157
 30
0.0
 10
14.3621063981
 20
10.1399407165
 30
0.0
 10
14.3631614381
 20
10.1398675543
 30
0.0
  0
SPLINE
  5
2F2
100
AcDbEntity
  8
0
100
AcDbSpline
 62
7
  6
CONTINUOUS
 70
0
 71
3
 72
39
 73
35
 74
0
 42
0.0000001
 43
0.0000001
 44
0.0000000001
 40
0.0
 40
0.0
 40
0.0
 40
0.0
 40
0.0311449008
 40
0.0624431523
 40
0.093888332
 40
0.1254709881
 40
0.1571788807
 40
0.1889972566
 40
0.2209091706
 40
0.2528958383
 40
0.2849370172
 40
0.3170114073
 40
0.349097067
 40
0.3811718373
 40
0.4132137693
 40
0.4452015485
 40
0.4771149106
 40
0.5089350431
 40
0.540644966
 40
0.5722298857
 40
0.6036775159
 40
0.634978357
 40
0.6661259293
 40
0.697116951
 40
0.727951455
 40
0.7586328387
 40
0.7891678408
 40
0.8195664415
 40
0.8498416836
 40
0.8800094164
 40
0.9100879631
 40
0.9400977201
 40
0.9700606955
 40
1.0
 40
1.0
 40
1.0
 40
1.0
 10
10.5657019884
 20
7.0182772994
 30
0.0
 10
10.5598052615
 20
7.0186862388
 30
0.0
 10
10.5480083196
 20
7.0199377554
 30
0.0
 10
10.5304559353
 20
7.0230903242
 30
0.0
 10
10.5130915351
 20
7.0275061718
 30
0.0
 10
10.496008943
 20
7.0331614958
 30
0.0
 10
10.4792988818
 20
7.0400260153
 30
0.0
 10
10.463050495
 20
7.0480630001
 30
0.0
 10
10.4473503392
 20
7.0572295034
 30
0.0
 10
10.432282074
 20
7.0674765819
 30
0.0
 10
10.4179259832
 20
7.0787495577
 30
0.0
 10
10.4043585618
 20
7.0909883072
 30
0.0
 10
10.3916521109
 20
7.1041275798
 30
0.0
 10
10.3798743566
 20
7.1180973421
 30
0.0
 10
10.3690880927
 20
7.1328231477
 30
0.0
 10
10.3593508488
 20
7.1482265298
 30
0.0
 10
10.350714586
 20
7.1642254148
 30
0.0
 10
10.3432254217
 20
7.1807345543
 30
0.0
 10
10.3369233845
 20
7.1976659738
 30
0.0
 10
10.3318422007
 20
7.2149294359
 30
0.0
 10
10.3280091126
 20
7.232432914
 30
0.0
 10
10.3254447311
 20
7.2500830771
 30
0.0
 10
10.3241629208
 20
7.2677857801
 30
0.0
 10
10.3241707204
 20
7.2854465601
 30
0.0
 10
10.3254682968
 20
7.3029711354
 30
0.0
 10
10.3280489347
 20
7.3202659044
 30
0.0
 10
10.3318990615
 20
7.3372384434
 30
0.0
 10
10.3369983096
 20
7.3537980031
 30
0.0
 10
10.3433196051
 20
7.3698559893
 30
0.0
 10
10.3508293323
 20
7.3853264725
 30
0.0
 10
10.3594873891
 20
7.4001265468
 30
0.0
 10
10.3692478218
 20
7.4141771986
 30
0.0
 10
10.3800574792
 20
7.4274022045
 30
0.0
 10
10.3879283383
 20
7.4356246746
 30
0.0
 10
10.3920152013
 20
7.4395722847
 30
0.0
  0
SPLINE
  5
2F3
100
AcDbEntity
  8
0
100
AcDbSpline
 62
7
  6
CONTINUOUS
 70
0
 71
3
 72
49
 73
45
 74
0
 42
0.0000001
 43
0.0000001
 44
0.0000000001
 40
0.0
 40
0.0
 40
0.0
 40
0.0
 40
0.0378127845
 40
0.0760191223
 40
0.114531607
 40
0.1532645858
 40
0.1921302413
 40
0.2310409706
 40
0.2699088597
 40
0.3086461572
 40
0.3471654842
 40
0.3853800876
 40
0.4232040959
 40
0.4605527702
 40
0.4973427611
 40
0.533492372
 40
0.5689218309
 40
0.6035535573
 40
0.637312442
 40
0.6701261391
 40
0.7019253763
 40
0.7326442909
 40
0.7622208088
 40
0.7905970516
 40
0.80431852
 40
0.8177203446
 40
0.8307967508
 40
0.843542237
 40
0.8559517495
 40
0.8680206515
 40
0.8797447052
 40
0.8911202579
 40
0.9021440651
 40
0.9128135674
 40
0.9231267538
 40
0.9330823402
 40
0.9426798495
 40
0.9519195568
 40
0.960802764
 40
0.9693317342
 40
0.977510198
 40
0.9853432953
 40
0.992837349
 40
1.0
 40
1.0
 40
1.0
 40
1.0
 10
13.7401604833
 20
8.7780119011
 30
0.0
 10
13.7401604833
 20
8.7889505264
 30
0.0
 10
13.7403058762
 20
8.8109418789
 30
0.0
 10
13.7409502757
 20
8.8440685942
 30
0.0
 10
13.7420208189
 20
8.8774506512
 30
0.0
 10
13.7435148699
 20
8.9110073251
 30
0.0
 10
13.7454288947
 20
8.9446580538
 30
0.0
 10
13.7477582643
 20
8.9783217012
 30
0.0
 10
13.7504973836
 20
9.0119172362
 30
0.0
 10
13.7536396473
 20
9.0453637497
 30
0.0
 10
13.7571774753
 20
9.0785807049
 30
0.0
 10
13.7611023307
 20
9.1114881195
 30
0.0
 10
13.7654047402
 20
9.1440067601
 30
0.0
 10
13.770074316
 20
9.1760583335
 30
0.0
 10
13.7750997815
 20
9.2075656754
 30
0.0
 10
13.7804689962
 20
9.2384529412
 30
0.0
 10
13.7861689789
 20
9.2686457927
 30
0.0
 10
13.7921859468
 20
9.2980715786
 30
0.0
 10
13.7985053464
 20
9.326659509
 30
0.0
 10
13.8051118885
 20
9.3543408334
 30
0.0
 10
13.8119895843
 20
9.3810489945
 30
0.0
 10
13.8191217856
 20
9.4067198577
 30
0.0
 10
13.8264912202
 20
9.4312916702
 30
0.0
 10
13.8328846244
 20
9.4510176877
 30
0.0
 10
13.8381127065
 20
9.4661981125
 30
0.0
 10
13.8420380699
 20
9.4771450634
 30
0.0
 10
13.8460091679
 20
9.4877746332
 30
0.0
 10
13.8500236734
 20
9.4980804376
 30
0.0
 10
13.8540791454
 20
9.5080562867
 30
0.0
 10
13.8581731203
 20
9.517696199
 30
0.0
 10
13.8623031868
 20
9.5269943771
 30
0.0
 10
13.8664667826
 20
9.5359452684
 30
0.0
 10
13.8706614855
 20
9.5445434887
 30
0.0
 10
13.8748847076
 20
9.5527839126
 30
0.0
 10
13.8791339486
 20
9.560661608
 30
0.0
 10
13.8834066758
 20
9.5681718733
 30
0.0
 10
13.8877002956
 20
9.5753102595
 30
0.0
 10
13.8920123319
 20
9.5820724783
 30
0.0
 10
13.8963401113
 20
9.5884545501
 30
0.0
 10
13.9006811749
 20
9.5944526761
 30
0.0
 10
13.9050329889
 20
9.6000633838
 30
0.0
 10
13.9093931392
 20
9.6052834152
 30
0.0
 10
13.913758863
 20
9.6101093904
 30
0.0
 10
13.916737516
 20
9.6131292353
 30
0.0
 10
13.9182278393
 20
9.6145687772
 30
0.0
  0
SPLINE
  5
2F4
100
AcDbEntity
  8
0
100
AcDbSpline
 62
7
  6
CONTINUOUS
 70
0
 71
3
 72
49
 73
45
 74
0
 42
0.0000001
 43
0.0000001
 44
0.0000000001
 40
0.0
 40
0.0
 40
0.0
 40
0.0
 40
0.0378127845
 40
0.0760191223
 40
0.114531607
 40
0.1532645858
 40
0.1921302413
 40
0.2310409706
 40
0.2699088597
 40
0.3086461572
 40
0.3471654842
 40
0.3853800876
 40
0.4232040959
 40
0.4605527702
 40
0.4973427611
 40
0.533492372
 40
0.5689218309
 40
0.6035535573
 40
0.637312442
 40
0.6701261391
 40
0.7019253763
 40
0.7326442909
 40
0.7622208088
 40
0.7905970516
 40
0.80431852
 40
0.8177203446
 40
0.8307967508
 40
0.843542237
 40
0.8559517495
 40
0.8680206515
 40
0.8797447052
 40
0.8911202579
 40
0.9021440651
 40
0.9128135674
 40
0.9231267538
 40
0.9330823402
 40
0.9426798495
 40
0.9519195568
 40
0.960802764
 40
0.9693317342
 40
0.977510198
 40
0.9853432953
 40
0.992837349
 40
1.0
 40
1.0
 40
1.0
 40
1.0
 10
13.6642263109
 20
8.7666651186
 30
0.0
 10
13.6642263109
 20
8.7785894921
 30
0.0
 10
13.6643848062
 20
8.8025626235
 30
0.0
 10
13.6650872765
 20
8.838674595
 30
0.0
 10
13.6662542931
 20
8.8750649189
 30
0.0
 10
13.6678829824
 20
8.9116455953
 30
0.0
 10
13.669969492
 20
8.9483288025
 30
0.0
 10
13.6725087757
 20
8.9850260926
 30
0.0
 10
13.6754947343
 20
9.0216491321
 30
0.0
 10
13.6789201671
 20
9.058109721
 30
0.0
 10
13.6827768109
 20
9.0943200646
 30
0.0
 10
13.6870553598
 20
9.1301929729
 30
0.0
 10
13.6917454863
 20
9.1656420725
 30
0.0
 10
13.696835867
 20
9.2005820144
 30
0.0
 10
13.7023142087
 20
9.2349286807
 30
0.0
 10
13.708167277
 20
9.268599392
 30
0.0
 10
13.714380921
 20
9.3015131109
 30
0.0
 10
13.7209401157
 20
9.3335906392
 30
0.0
 10
13.727828996
 20
9.3647548075
 30
0.0
 10
13.7350308951
 20
9.3949306698
 30
0.0
 10
13.7425283833
 20
9.424045671
 30
0.0
 10
13.750303312
 20
9.4520298969
 30
0.0
 10
13.7583368527
 20
9.4788160297
 30
0.0
 10
13.7653064066
 20
9.5003196825
 30
0.0
 10
13.771005624
 20
9.5168681107
 30
0.0
 10
13.7752847266
 20
9.52880156
 30
0.0
 10
13.7796136852
 20
9.5403890271
 30
0.0
 10
13.783989963
 20
9.5516235523
 30
0.0
 10
13.788410899
 20
9.5624983878
 30
0.0
 10
13.7928738077
 20
9.5730070131
 30
0.0
 10
13.7973760604
 20
9.5831431085
 30
0.0
 10
13.801914864
 20
9.5929006207
 30
0.0
 10
13.8064875779
 20
9.6022736807
 30
0.0
 10
13.8110913811
 20
9.6112567009
 30
0.0
 10
13.8157235478
 20
9.619844305
 30
0.0
 10
13.8203813173
 20
9.6280313674
 30
0.0
 10
13.8250618622
 20
9.6358130384
 30
0.0
 10
13.8297624831
 20
9.6431846432
 30
0.0
 10
13.8344802659
 20
9.6501418436
 30
0.0
 10
13.8392125301
 20
9.6566804983
 30
0.0
 10
13.8439565133
 20
9.6627968222
 30
0.0
 10
13.8487095841
 20
9.6684872633
 30
0.0
 10
13.8534687307
 20
9.6737481374
 30
0.0
 10
13.8567158088
 20
9.6770401195
 30
0.0
 10
13.8583404346
 20
9.6786093876
 30
0.0
  0
SPLINE
  5
2F5
100
AcDbEntity
  8
0
100
AcDbSpline
 62
7
  6
CONTINUOUS
 70
0
 71
3
 72
23
 73
19
 74
0
 42
0.0000001
 43
0.0000001
 44
0.0000000001
 40
0.0
 40
0.0
 40
0.0
 40
0.0
 40
0.0764219057
 40
0.1504656864
 40
0.2222015765
 40
0.2917109238
 40
0.3590900758
 40
0.4244474746
 40
0.487903775
 40
0.5495925967
 40
0.6096609602
 40
0.6682702092
 40
0.7255962386
 40
0.7818281892
 40
0.8371677688
 40
0.8918276742
 40
0.9460292214
 40
1.0
 40
1.0
 40
1.0
 40
1.0
 10
14.1449531357
 20
7.1424990979
 30
0.0
 10
14.143258512
 20
7.140862217
 30
0.0
 10
14.139869926
 20
7.1376926823
 30
0.0
 10
14.1347062893
 20
7.1331887965
 30
0.0
 10
14.1295449821
 20
7.1290130385
 30
0.0
 10
14.124387549
 20
7.1251669043
 30
0.0
 10
14.1192354371
 20
7.121651486
 30
0.0
 10
14.114089966
 20
7.1184678189
 30
0.0
 10
14.1089524512
 20
7.1156169128
 30
0.0
 10
14.1038243076
 20
7.1130996337
 30
0.0
 10
14.0987069232
 20
7.1109169026
 30
0.0
 10
14.0936017157
 20
7.1090695862
 30
0.0
 10
14.0885101818
 20
7.1075583339
 30
0.0
 10
14.0834337994
 20
7.1063838496
 30
0.0
 10
14.0783741551
 20
7.1055467138
 30
0.0
 10
14.0733328015
 20
7.105047282
 30
0.0
 10
14.0683117005
 20
7.1048859075
 30
0.0
 10
14.0649758317
 20
7.1050039275
 30
0.0
 10
14.0633159023
 20
7.1051190445
 30
0.0
  0
SPLINE
  5
2F6
100
AcDbEntity
  8
0
100
AcDbSpline
 62
7
  6
CONTINUOUS
 70
0
 71
3
 72
103
 73
99
 74
0
 42
0.0000001
 43
0.0000001
 44
0.0000000001
 40
0.0
 40
0.0
 40
0.0
 40
0.0
 40
0.0027164048
 40
0.0054531862
 40
0.0082302278
 40
0.0110664952
 40
0.0139796738
 40
0.0169859521
 40
0.0200998844
 40
0.0233343666
 40
0.026700688
 40
0.0302086012
 40
0.033866481
 40
0.0376814028
 40
0.0416593405
 40
0.04580522
 40
0.050123109
 40
0.0546162515
 40
0.059287218
 40
0.0641379428
 40
0.0691698167
 40
0.0743837442
 40
0.0797801764
 40
0.0853591945
 40
0.0911204909
 40
0.097063473
 40
0.1031872122
 40
0.1094905507
 40
0.115972045
 40
0.1226300528
 40
0.129462696
 40
0.1364679111
 40
0.1436434462
 40
0.1509868675
 40
0.1584955951
 40
0.1661668689
 40
0.1739978144
 40
0.1819853836
 40
0.1901264332
 40
0.1984176611
 40
0.2154367725
 40
0.2330143466
 40
0.251120167
 40
0.2697225161
 40
0.2887883097
 40
0.3082832214
 40
0.3281718007
 40
0.3484175849
 40
0.3689832078
 40
0.3898305045
 40
0.4109206147
 40
0.4322140837
 40
0.4536709631
 40
0.4752509101
 40
0.4969132863
 40
0.5186172556
 40
0.5403218829
 40
0.561986231
 40
0.5835694595
 40
0.6050309218
 40
0.6263302644
 40
0.6474275243
 40
0.6682832297
 40
0.6888584996
 40
0.7091151451
 40
0.7290157726
 40
0.748523889
 40
0.7676040092
 40
0.7862217692
 40
0.8043440428
 40
0.8219390666
 40
0.8389765737
 40
0.8472773366
 40
0.8554281366
 40
0.8634256636
 40
0.8712667662
 40
0.8789483877
 40
0.8864676444
 40
0.8938217669
 40
0.9010081646
 40
0.9080243933
 40
0.9148681894
 40
0.9215374772
 40
0.9280303652
 40
0.9343451972
 40
0.940480514
 40
0.946435142
 40
0.9522081344
 40
0.9577988776
 40
0.9632070413
 40
0.9684326863
 40
0.9734762434
 40
0.9783385761
 40
0.9830210188
 40
0.9875254912
 40
0.9918546128
 40
0.9960115506
 40
1.0
 40
1.0
 40
1.0
 40
1.0
 10
14.2265903691
 20
9.4594642365
 30
0.0
 10
14.228792693
 20
9.4593115042
 30
0.0
 10
14.2332025884
 20
9.4588055914
 30
0.0
 10
14.2397612719
 20
9.4574516557
 30
0.0
 10
14.2462704042
 20
9.4555030428
 30
0.0
 10
14.2527253153
 20
9.4529615134
 30
0.0
 10
14.2591226943
 20
9.4498294086
 30
0.0
 10
14.2654592481
 20
9.4461091384
 30
0.0
 10
14.2717320558
 20
9.4418033605
 30
0.0
 10
14.277938349
 20
9.4369148227
 30
0.0
 10
14.2840754039
 20
9.4314463378
 30
0.0
 10
14.2901406407
 20
9.4254009547
 30
0.0
 10
14.2961313223
 20
9.4187817529
 30
0.0
 10
14.3020448979
 20
9.4115921698
 30
0.0
 10
14.307878572
 20
9.4038357097
 30
0.0
 10
14.3136297677
 20
9.3955162769
 30
0.0
 10
14.3192956781
 20
9.386637909
 30
0.0
 10
14.3248736906
 20
9.3772050198
 30
0.0
 10
14.3303610509
 20
9.3672222267
 30
0.0
 10
14.3357551222
 20
9.3566944738
 30
0.0
 10
14.3410532482
 20
9.345626964
 30
0.0
 10
14.3462527921
 20
9.3340251802
 30
0.0
 10
14.3513512171
 20
9.3218948965
 30
0.0
 10
14.3563459171
 20
9.309242135
 30
0.0
 10
14.3612344765
 20
9.2960732196
 30
0.0
 10
14.3660143566
 20
9.2823947067
 30
0.0
 10
14.3706832504
 20
9.2682134476
 30
0.0
 10
14.3752387251
 20
9.2535365236
 30
0.0
 10
14.3796785643
 20
9.2383712928
 30
0.0
 10
14.3840004738
 20
9.2227253464
 30
0.0
 10
14.3882023161
 20
9.2066065323
 30
0.0
 10
14.3922819548
 20
9.190022933
 30
0.0
 10
14.3962373308
 20
9.1729828707
 30
0.0
 10
14.4000664718
 20
9.1554948985
 30
0.0
 10
14.4037674065
 20
9.1375677972
 30
0.0
 10
14.4073383222
 20
9.1192105705
 30
0.0
 10
14.4107773541
 20
9.1004324396
 30
0.0
 10
14.4140828319
 20
9.0812428423
 30
0.0
 10
14.4172530372
 20
9.0616514081
 30
0.0
 10
14.4213329641
 20
9.0347730978
 30
0.0
 10
14.426071903
 20
9.0002397276
 30
0.0
 10
14.4311467429
 20
8.9577082549
 30
0.0
 10
14.4356475275
 20
8.9138186483
 30
0.0
 10
14.4395651212
 20
8.8686591824
 30
0.0
 10
14.4428915394
 20
8.8223205559
 30
0.0
 10
14.4456200079
 20
8.7748959044
 30
0.0
 10
14.4477449631
 20
8.7264805526
 30
0.0
 10
14.449262066
 20
8.6771718351
 30
0.0
 10
14.4501682088
 20
8.6270688936
 30
0.0
 10
14.4504615208
 20
8.5762724763
 30
0.0
 10
14.4501413714
 20
8.5248847337
 30
0.0
 10
14.4492083721
 20
8.4730090116
 30
0.0
 10
14.4476643734
 20
8.4207496413
 30
0.0
 10
14.4455124612
 20
8.3682117289
 30
0.0
 10
14.4427569498
 20
8.3155009427
 30
0.0
 10
14.4394033731
 20
8.2627232996
 30
0.0
 10
14.4354584733
 20
8.2099849517
 30
0.0
 10
14.4309301875
 20
8.1573919712
 30
0.0
 10
14.4258276313
 20
8.1050501373
 30
0.0
 10
14.4201610809
 20
8.0530647219
 30
0.0
 10
14.4139419522
 20
8.0015402776
 30
0.0
 10
14.4071827783
 20
7.950580426
 30
0.0
 10
14.3998971847
 20
7.9002876479
 30
0.0
 10
14.3920998625
 20
7.8507630755
 30
0.0
 10
14.3838065388
 20
7.8021062878
 30
0.0
 10
14.3750339449
 20
7.754415108
 30
0.0
 10
14.3657997836
 20
7.707785406
 30
0.0
 10
14.3561226939
 20
7.6623108984
 30
0.0
 10
14.3460222131
 20
7.6180829724
 30
0.0
 10
14.3355187421
 20
7.5751904409
 30
0.0
 10
14.3246334885
 20
7.5337195621
 30
0.0
 10
14.3151826581
 20
7.5001299066
 30
0.0
 10
14.3074389505
 20
7.4740379483
 30
0.0
 10
14.3015999032
 20
7.4550452162
 30
0.0
 10
14.295682156
 20
7.4364685407
 30
0.0
 10
14.2896887377
 20
7.4183172357
 30
0.0
 10
14.2836226035
 20
7.4006004318
 30
0.0
 10
14.2774868698
 20
7.3833270191
 30
0.0
 10
14.2712845741
 20
7.3665056791
 30
0.0
 10
14.2650188771
 20
7.3501448517
 30
0.0
 10
14.2586929129
 20
7.3342527509
 30
0.0
 10
14.2523098658
 20
7.3188373506
 30
0.0
 10
14.2458729675
 20
7.3039063764
 30
0.0
 10
14.2393854151
 20
7.2894673224
 30
0.0
 10
14.2328505287
 20
7.2755274065
 30
0.0
 10
14.2262715172
 20
7.2620936269
 30
0.0
 10
14.2196517658
 20
7.2491726779
 30
0.0
 10
14.2129945047
 20
7.2367710441
 30
0.0
 10
14.2063031536
 20
7.2248948877
 30
0.0
 10
14.1995809796
 20
7.2135501534
 30
0.0
 10
14.1928313864
 20
7.2027424601
 30
0.0
 10
14.1860576815
 20
7.1924771968
 30
0.0
 10
14.1792632513
 20
7.1827594662
 30
0.0
 10
14.1724514623
 20
7.1735940648
 30
0.0
 10
14.1656255675
 20
7.1649855078
 30
0.0
 10
14.1587888065
 20
7.1569379265
 30
0.0
 10
14.1519447233
 20
7.1494556768
 30
0.0
 10
14.1472845276
 20
7.1447510497
 30
0.0
 10
14.1449531357
 20
7.1424990979
 30
0.0
  0
SPLINE
  5
2F7
100
AcDbEntity
  8
0
100
AcDbSpline
 62
7
  6
CONTINUOUS
 70
0
 71
3
 72
97
 73
93
 74
0
 42
0.0000001
 43
0.0000001
 44
0.0000000001
 40
0.0
 40
0.0
 40
0.0
 40
0.0
 40
0.0029027061
 40
0.0059020437
 40
0.0090102379
 40
0.0122381044
 40
0.0155950792
 40
0.0190893271
 40
0.0227278588
 40
0.026516607
 40
0.0304605954
 40
0.0345639677
 40
0.0388301563
 40
0.0432619034
 40
0.0478613741
 40
0.0526302134
 40
0.0575695765
 40
0.0626802339
 40
0.0679625365
 40
0.0734165366
 40
0.0790419433
 40
0.0848382048
 40
0.0908045085
 40
0.0969397914
 40
0.1032428009
 40
0.1097120435
 40
0.1163458789
 40
0.1231424543
 40
0.1300997785
 40
0.1372156947
 40
0.1444878953
 40
0.1519139557
 40
0.1672170187
 40
0.1831031189
 40
0.1995484719
 40
0.2165276689
 40
0.2340138184
 40
0.2519786728
 40
0.2703927473
 40
0.2892254282
 40
0.3084450743
 40
0.3280191131
 40
0.3479141333
 40
0.3680959742
 40
0.3885298129
 40
0.4091802504
 40
0.4300113978
 40
0.4509869601
 40
0.4720703194
 40
0.4932246172
 40
0.5144128375
 40
0.5355978882
 40
0.5567426845
 40
0.5778102312
 40
0.5987637053
 40
0.6195665382
 40
0.6401824983
 40
0.6605757746
 40
0.6807110604
 40
0.7005536395
 40
0.7200694732
 40
0.7392252869
 40
0.7579886608
 40
0.7763281223
 40
0.7942132434
 40
0.8116147428
 40
0.8285045958
 40
0.8448561546
 40
0.8606442774
 40
0.8758454732
 40
0.8832192436
 40
0.890438306
 40
0.8975002819
 40
0.9044029125
 40
0.9111440928
 40
0.9177218866
 40
0.9241344997
 40
0.9303803546
 40
0.9364580253
 40
0.9423663319
 40
0.9481042907
 40
0.9536711738
 40
0.9590665212
 40
0.9642901451
 40
0.9693422155
 40
0.9742232105
 40
0.978934022
 40
0.9834759404
 40
0.9878508243
 40
0.9920611161
 40
0.9961097164
 40
1.0
 40
1.0
 40
1.0
 40
1.0
 10
14.1951976755
 20
9.4551128812
 30
0.0
 10
14.1972749441
 20
9.4540614251
 30
0.0
 10
14.2014194275
 20
9.4517636604
 30
0.0
 10
14.2074845838
 20
9.4478244227
 30
0.0
 10
14.2134895964
 20
9.4433431573
 30
0.0
 10
14.219431458
 20
9.4383224864
 30
0.0
 10
14.2253079343
 20
9.4327649824
 30
0.0
 10
14.2311166061
 20
9.4266733996
 30
0.0
 10
14.2368550346
 20
9.4200505941
 30
0.0
 10
14.2425209008
 20
9.4128997191
 30
0.0
 10
14.2481116757
 20
9.4052239991
 30
0.0
 10
14.253625045
 20
9.3970270205
 30
0.0
 10
14.2590584894
 20
9.3883124821
 30
0.0
 10
14.2644096448
 20
9.3790844027
 30
0.0
 10
14.269676087
 20
9.3693469999
 30
0.0
 10
14.2748553964
 20
9.3591047348
 30
0.0
 10
14.2799452715
 20
9.3483623382
 30
0.0
 10
14.2849432831
 20
9.3371247318
 30
0.0
 10
14.2898472235
 20
9.325397131
 30
0.0
 10
14.2946547338
 20
9.3131849344
 30
0.0
 10
14.2993636471
 20
9.3004938122
 30
0.0
 10
14.3039717425
 20
9.2873296397
 30
0.0
 10
14.3084768675
 20
9.2736985261
 30
0.0
 10
14.3128769609
 20
9.2596068069
 30
0.0
 10
14.3171699023
 20
9.2450610237
 30
0.0
 10
14.3213537658
 20
9.2300679508
 30
0.0
 10
14.3254265166
 20
9.2146345573
 30
0.0
 10
14.3293863147
 20
9.1987680349
 30
0.0
 10
14.3332312689
 20
9.1824757692
 30
0.0
 10
14.336959585
 20
9.1657653565
 30
0.0
 10
14.3405695579
 20
9.1486445682
 30
0.0
 10
14.3452697321
 20
9.1250439927
 30
0.0
 10
14.3508239123
 20
9.094570846
 30
0.0
 10
14.3569261329
 20
9.0568520492
 30
0.0
 10
14.3625188531
 20
9.0176959336
 30
0.0
 10
14.3675915329
 20
8.9771755587
 30
0.0
 10
14.3721345888
 20
8.9353663838
 30
0.0
 10
14.3761394481
 20
8.8923463588
 30
0.0
 10
14.3795985503
 20
8.8481957037
 30
0.0
 10
14.3825053631
 20
8.8029967715
 30
0.0
 10
14.3848543938
 20
8.7568338844
 30
0.0
 10
14.3866411984
 20
8.709793176
 30
0.0
 10
14.3878623898
 20
8.6619624283
 30
0.0
 10
14.3885156426
 20
8.6134309067
 30
0.0
 10
14.3885997
 20
8.5642891929
 30
0.0
 10
14.3881143761
 20
8.5146290134
 30
0.0
 10
14.3870605521
 20
8.4645430663
 30
0.0
 10
14.3854401754
 20
8.4141248467
 30
0.0
 10
14.383256255
 20
8.3634684717
 30
0.0
 10
14.3805128566
 20
8.3126685049
 30
0.0
 10
14.3772150937
 20
8.2618197793
 30
0.0
 10
14.3733691192
 20
8.2110172198
 30
0.0
 10
14.368982117
 20
8.1603556647
 30
0.0
 10
14.364062285
 20
8.1099296872
 30
0.0
 10
14.3586188195
 20
8.0598334189
 30
0.0
 10
14.3526618981
 20
8.0101603732
 30
0.0
 10
14.3462026612
 20
7.9610032713
 30
0.0
 10
14.339253191
 20
7.912453868
 30
0.0
 10
14.3318264891
 20
7.8646027792
 30
0.0
 10
14.3239364549
 20
7.8175393102
 30
0.0
 10
14.3155978604
 20
7.7713512867
 30
0.0
 10
14.3068263196
 20
7.7261248904
 30
0.0
 10
14.2976382603
 20
7.6819444966
 30
0.0
 10
14.2880508942
 20
7.6388925153
 30
0.0
 10
14.2780821848
 20
7.5970492352
 30
0.0
 10
14.2677508141
 20
7.5564926652
 30
0.0
 10
14.2570761469
 20
7.5172984005
 30
0.0
 10
14.2460781988
 20
7.4795394037
 30
0.0
 10
14.2347775953
 20
7.443286109
 30
0.0
 10
14.2250297778
 20
7.414097803
 30
0.0
 10
14.2170862275
 20
7.3915588433
 30
0.0
 10
14.2111264962
 20
7.3752438719
 30
0.0
 10
14.205107157
 20
7.359354259
 30
0.0
 10
14.1990309796
 20
7.3438973978
 30
0.0
 10
14.1929007987
 20
7.328880494
 30
0.0
 10
14.1867195148
 20
7.31431053
 30
0.0
 10
14.1804899508
 20
7.3001943027
 30
0.0
 10
14.1742150916
 20
7.2865383592
 30
0.0
 10
14.1678977855
 20
7.273349069
 30
0.0
 10
14.1615410419
 20
7.2606325414
 30
0.0
 10
14.1551477805
 20
7.2483946905
 30
0.0
 10
14.1487209828
 20
7.2366411927
 30
0.0
 10
14.1422636645
 20
7.2253774812
 30
0.0
 10
14.135778755
 20
7.2146087905
 30
0.0
 10
14.12926933
 20
7.2043400562
 30
0.0
 10
14.1227382973
 20
7.1945760664
 30
0.0
 10
14.116188767
 20
7.1853212938
 30
0.0
 10
14.1096236721
 20
7.1765800097
 30
0.0
 10
14.1030459649
 20
7.1683561733
 30
0.0
 10
14.0964585146
 20
7.1606534817
 30
0.0
 10
14.0898645517
 20
7.1534758191
 30
0.0
 10
14.0853781974
 20
7.1489541245
 30
0.0
 10
14.0831338777
 20
7.146786278
 30
0.0
  0
SPLINE
  5
2F8
100
AcDbEntity
  8
0
100
AcDbSpline
 62
7
  6
CONTINUOUS
 70
0
 71
3
 72
15
 73
11
 74
0
 42
0.0000001
 43
0.0000001
 44
0.0000000001
 40
0.0
 40
0.0
 40
0.0
 40
0.0
 40
0.1101815669
 40
0.2238558367
 40
0.3414496131
 40
0.4633433092
 40
0.5898730615
 40
0.7213336431
 40
0.8579742969
 40
1.0
 40
1.0
 40
1.0
 40
1.0
 10
14.0328710418
 20
7.1137780515
 30
0.0
 10
14.0349761856
 20
7.1145005826
 30
0.0
 10
14.039201621
 20
7.1161229747
 30
0.0
 10
14.0454650792
 20
7.119022102
 30
0.0
 10
14.0517428649
 20
7.1224199645
 30
0.0
 10
14.0580320278
 20
7.1263147394
 30
0.0
 10
14.0643303778
 20
7.1307045285
 30
0.0
 10
14.0706354678
 20
7.1355873939
 30
0.0
 10
14.0769445785
 20
7.1409608736
 30
0.0
 10
14.0810703767
 20
7.144793089
 30
0.0
 10
14.0831338777
 20
7.146786278
 30
0.0
  0
SPLINE
  5
2F9
100
AcDbEntity
  8
0
100
AcDbSpline
 62
7
  6
CONTINUOUS
 70
0
 71
3
 72
99
 73
95
 74
0
 42
0.0000001
 43
0.0000001
 44
0.0000000001
 40
0.0
 40
0.0
 40
0.0
 40
0.0
 40
0.0028239661
 40
0.0056047905
 40
0.0083636166
 40
0.0111221331
 40
0.0139020398
 40
0.016724499
 40
0.0196096538
 40
0.0225762297
 40
0.0256413201
 40
0.0288202029
 40
0.0321263786
 40
0.0355715852
 40
0.0391659177
 40
0.0429179997
 40
0.0468350578
 40
0.0509231654
 40
0.0551872862
 40
0.0596314655
 40
0.0642589253
 40
0.0690721231
 40
0.0740729231
 40
0.0792625572
 40
0.0846417954
 40
0.0902109266
 40
0.095969825
 40
0.1019180283
 40
0.1080546845
 40
0.1143786935
 40
0.1208886265
 40
0.1275828204
 40
0.1344593782
 40
0.1415161482
 40
0.1487508229
 40
0.1561608448
 40
0.1637435196
 40
0.1714959595
 40
0.1874975592
 40
0.2041397666
 40
0.2213942363
 40
0.2392306358
 40
0.2576168271
 40
0.2765190268
 40
0.2959019634
 40
0.3157290174
 40
0.3359623518
 40
0.3565630363
 40
0.3774911663
 40
0.3987059778
 40
0.420165967
 40
0.4418290031
 40
0.46365244
 40
0.4855932252
 40
0.5076080099
 40
0.5296532585
 40
0.5516853603
 40
0.5736607382
 40
0.595535957
 40
0.6172678327
 40
0.638813542
 40
0.6601307357
 40
0.6811776498
 40
0.7019132156
 40
0.7222971737
 40
0.7422901893
 40
0.7618539721
 40
0.7809514047
 40
0.7995466682
 40
0.8176053752
 40
0.8350947152
 40
0.8519836119
 40
0.8682429013
 40
0.8838455382
 40
0.8913929424
 40
0.8987671149
 40
0.9059654073
 40
0.9129853005
 40
0.9198245203
 40
0.9264809738
 40
0.9329527942
 40
0.9392383862
 40
0.9453363668
 40
0.9512456968
 40
0.9569655976
 40
0.9624956681
 40
0.9678358878
 40
0.972986617
 40
0.9779487119
 40
0.9827235
 40
0.9873130284
 40
0.9917200094
 40
0.995947707
 40
1.0
 40
1.0
 40
1.0
 40
1.0
 10
14.1250628877
 20
9.0936711259
 30
0.0
 10
14.1266195373
 20
9.0939888691
 30
0.0
 10
14.1297377366
 20
9.0944884909
 30
0.0
 10
14.1344378088
 20
9.0948160199
 30
0.0
 10
14.1391118536
 20
9.094713984
 30
0.0
 10
14.1437560478
 20
9.0941820752
 30
0.0
 10
14.1483671636
 20
9.0932209389
 30
0.0
 10
14.1529420048
 20
9.0918315508
 30
0.0
 10
14.1574776501
 20
9.0900152857
 30
0.0
 10
14.1619715486
 20
9.087773959
 30
0.0
 10
14.1664212764
 20
9.085109297
 30
0.0
 10
14.1708247703
 20
9.0820234104
 30
0.0
 10
14.1751799492
 20
9.0785182599
 30
0.0
 10
14.1794848742
 20
9.0745960094
 30
0.0
 10
14.183737645
 20
9.0702589136
 30
0.0
 10
14.1879362433
 20
9.0655092695
 30
0.0
 10
14.1920788224
 20
9.0603496689
 30
0.0
 10
14.1961633126
 20
9.0547827286
 30
0.0
 10
14.2001878059
 20
9.0488113755
 30
0.0
 10
14.2041502938
 20
9.0424386709
 30
0.0
 10
14.2080487619
 20
9.0356678911
 30
0.0
 10
14.2118813076
 20
9.0285025624
 30
0.0
 10
14.2156458729
 20
9.0209463563
 30
0.0
 10
14.2193406088
 20
9.0130032281
 30
0.0
 10
14.2229635339
 20
9.0046772867
 30
0.0
 10
14.2265127806
 20
8.99597288
 30
0.0
 10
14.229986517
 20
8.9868945567
 30
0.0
 10
14.2333828573
 20
8.9774470512
 30
0.0
 10
14.2367000976
 20
8.9676353273
 30
0.0
 10
14.2399364122
 20
8.9574645145
 30
0.0
 10
14.2430901492
 20
8.9469399607
 30
0.0
 10
14.246159626
 20
8.9360671897
 30
0.0
 10
14.2491431994
 20
8.9248519148
 30
0.0
 10
14.2520393459
 20
8.913300038
 30
0.0
 10
14.2548464645
 20
8.9014176305
 30
0.0
 10
14.2575631341
 20
8.8892109552
 30
0.0
 10
14.2601878872
 20
8.8766864237
 30
0.0
 10
14.2635991201
 20
8.8593893841
 30
0.0
 10
14.2676128518
 20
8.837017892
 30
0.0
 10
14.2719923977
 20
8.8092872886
 30
0.0
 10
14.2759749464
 20
8.7804545813
 30
0.0
 10
14.2795520097
 20
8.7505805502
 30
0.0
 10
14.2827159366
 20
8.7197280538
 30
0.0
 10
14.2854599738
 20
8.6879620902
 30
0.0
 10
14.2877782593
 20
8.6553495941
 30
0.0
 10
14.2896658376
 20
8.6219593034
 30
0.0
 10
14.2911186687
 20
8.5878616068
 30
0.0
 10
14.2921336357
 20
8.5531283955
 30
0.0
 10
14.2927085517
 20
8.5178329123
 30
0.0
 10
14.2928421719
 20
8.4820495945
 30
0.0
 10
14.2925341865
 20
8.4458539144
 30
0.0
 10
14.2917852213
 20
8.4093222161
 30
0.0
 10
14.2905968362
 20
8.3725315547
 30
0.0
 10
14.2889715212
 20
8.3355595345
 30
0.0
 10
14.2869126918
 20
8.2984841452
 30
0.0
 10
14.2844246894
 20
8.2613835952
 30
0.0
 10
14.2815127635
 20
8.2243361457
 30
0.0
 10
14.2781830607
 20
8.1874199445
 30
0.0
 10
14.2744426118
 20
8.1507128619
 30
0.0
 10
14.270299317
 20
8.1142923266
 30
0.0
 10
14.2657619295
 20
8.0782351608
 30
0.0
 10
14.2608400456
 20
8.0426174143
 30
0.0
 10
14.2555440755
 20
8.0075142046
 30
0.0
 10
14.2498852226
 20
7.9729995581
 30
0.0
 10
14.2438754596
 20
7.9391462547
 30
0.0
 10
14.237527504
 20
7.9060256732
 30
0.0
 10
14.2308547914
 20
7.8737076353
 30
0.0
 10
14.2238714558
 20
7.8422602525
 30
0.0
 10
14.2165922915
 20
7.8117497819
 30
0.0
 10
14.2090327221
 20
7.7822404811
 30
0.0
 10
14.2012087689
 20
7.753794487
 30
0.0
 10
14.1931370156
 20
7.7264716155
 30
0.0
 10
14.1848345721
 20
7.700329442
 30
0.0
 10
14.1776612413
 20
7.6793481906
 30
0.0
 10
14.1718120131
 20
7.6632018978
 30
0.0
 10
14.1674269474
 20
7.6515551868
 30
0.0
 10
14.1629975637
 20
7.6402433803
 30
0.0
 10
14.1585261126
 20
7.6292724344
 30
0.0
 10
14.1540150079
 20
7.6186481122
 30
0.0
 10
14.1494666126
 20
7.6083760007
 30
0.0
 10
14.1448833032
 20
7.5984615041
 30
0.0
 10
14.14026755
 20
7.5889098109
 30
0.0
 10
14.1356217068
 20
7.5797259565
 30
0.0
 10
14.1309482947
 20
7.5709147296
 30
0.0
 10
14.1262497138
 20
7.5624807591
 30
0.0
 10
14.1215284401
 20
7.5544284456
 30
0.0
 10
14.1167869606
 20
7.5467619769
 30
0.0
 10
14.1120276872
 20
7.5394853873
 30
0.0
 10
14.1072531988
 20
7.5326024319
 30
0.0
 10
14.1024658672
 20
7.5261167072
 30
0.0
 10
14.0976681491
 20
7.5200314992
 30
0.0
 10
14.0928623773
 20
7.5143499189
 30
0.0
 10
14.0880512447
 20
7.5090751983
 30
0.0
 10
14.0847736324
 20
7.5057627364
 30
0.0
 10
14.0831338777
 20
7.5041788549
 30
0.0
  0
SPLINE
  5
2FA
100
AcDbEntity
  8
0
100
AcDbSpline
 62
7
  6
CONTINUOUS
 70
0
 71
3
 72
58
 73
54
 74
0
 42
0.0000001
 43
0.0000001
 44
0.0000000001
 40
0.0
 40
0.0
 40
0.0
 40
0.0
 40
0.0103086842
 40
0.0210704292
 40
0.0322801538
 40
0.0439315314
 40
0.0560170939
 40
0.0685284258
 40
0.0814561255
 40
0.0947900117
 40
0.1085190952
 40
0.1226316721
 40
0.137115405
 40
0.1519572852
 40
0.1671437852
 40
0.1826607916
 40
0.1984937126
 40
0.2146274904
 40
0.2310466019
 40
0.2477351577
 40
0.281854626
 40
0.3168519552
 40
0.3525879951
 40
0.388919657
 40
0.4257007237
 40
0.4627826423
 40
0.5000153068
 40
0.5372478349
 40
0.5743293434
 40
0.6111097271
 40
0.6474404379
 40
0.6831752664
 40
0.7181711322
 40
0.7353484898
 40
0.7522892981
 40
0.7689768948
 40
0.7853950086
 40
0.8015277182
 40
0.817359519
 40
0.8328753605
 40
0.8480606225
 40
0.8629012412
 40
0.8773836394
 40
0.8914948523
 40
0.9052225264
 40
0.9185549477
 40
0.9314811704
 40
0.943990957
 40
0.9560749714
 40
0.9677247558
 40
0.9789328609
 40
0.9896929844
 40
1.0
 40
1.0
 40
1.0
 40
1.0
 10
14.0086054997
 20
8.9456061622
 30
0.0
 10
14.010140201
 20
8.9413170907
 30
0.0
 10
14.0131516581
 20
8.9325051717
 30
0.0
 10
14.0174174984
 20
8.9188920642
 30
0.0
 10
14.0215252026
 20
8.9046119944
 30
0.0
 10
14.0254702564
 20
8.889680419
 30
0.0
 10
14.0292484403
 20
8.8741133354
 30
0.0
 10
14.0328555793
 20
8.8579274912
 30
0.0
 10
14.0362878202
 20
8.8411403115
 30
0.0
 10
14.0395413828
 20
8.8237698824
 30
0.0
 10
14.0426127449
 20
8.8058349312
 30
0.0
 10
14.0454985819
 20
8.7873548032
 30
0.0
 10
14.0481957101
 20
8.7683494402
 30
0.0
 10
14.0507012522
 20
8.7488393561
 30
0.0
 10
14.0530124286
 20
8.7288456182
 30
0.0
 10
14.0551267602
 20
8.7083898173
 30
0.0
 10
14.0570419396
 20
8.6874940479
 30
0.0
 10
14.0587558576
 20
8.6661808897
 30
0.0
 10
14.06026671
 20
8.6444733446
 30
0.0
 10
14.0620209749
 20
8.6148172821
 30
0.0
 10
14.0636840766
 20
8.5769339782
 30
0.0
 10
14.0648348394
 20
8.5306115527
 30
0.0
 10
14.0651496937
 20
8.48329837
 30
0.0
 10
14.0646271462
 20
8.4351989013
 30
0.0
 10
14.0632693168
 20
8.3865208658
 30
0.0
 10
14.0610819853
 20
8.3374745537
 30
0.0
 10
14.0580745473
 20
8.2882718449
 30
0.0
 10
14.0542599761
 20
8.2391253053
 30
0.0
 10
14.049654765
 20
8.1902472524
 30
0.0
 10
14.0442788629
 20
8.1418488455
 30
0.0
 10
14.0381555895
 20
8.0941391058
 30
0.0
 10
14.0313115005
 20
8.0473242207
 30
0.0
 10
14.0249938528
 20
8.0089925909
 30
0.0
 10
14.0195942856
 20
7.9789320077
 30
0.0
 10
14.0154087978
 20
7.9568743084
 30
0.0
 10
14.0110670242
 20
7.9351889035
 30
0.0
 10
14.0065736922
 20
7.9138992021
 30
0.0
 10
14.0019336478
 20
7.8930282133
 30
0.0
 10
13.9971519159
 20
7.8725984824
 30
0.0
 10
13.9922337049
 20
7.8526320762
 30
0.0
 10
13.987184295
 20
7.8331505626
 30
0.0
 10
13.9820092134
 20
7.8141749728
 30
0.0
 10
13.9767140217
 20
7.7957257968
 30
0.0
 10
13.9713044825
 20
7.7778229433
 30
0.0
 10
13.9657864654
 20
7.7604857264
 30
0.0
 10
13.960165913
 20
7.7437328487
 30
0.0
 10
13.9544489743
 20
7.7275823578
 30
0.0
 10
13.9486417798
 20
7.7120516614
 30
0.0
 10
13.9427506671
 20
7.6971574606
 30
0.0
 10
13.9367819973
 20
7.6829157816
 30
0.0
 10
13.9307421875
 20
7.6693418783
 30
0.0
 10
13.9246378805
 20
7.6564504217
 30
0.0
 10
13.92043871
 20
7.6481402654
 30
0.0
 10
13.9183265815
 20
7.6441049665
 30
0.0
  0
SPLINE
  5
2FB
100
AcDbEntity
  8
0
100
AcDbSpline
 62
7
  6
CONTINUOUS
 70
0
 71
3
 72
42
 73
38
 74
0
 42
0.0000001
 43
0.0000001
 44
0.0000000001
 40
0.0
 40
0.0
 40
0.0
 40
0.0
 40
0.0248535298
 40
0.0508826483
 40
0.0780304696
 40
0.1062353207
 40
0.1354312465
 40
0.1655484537
 40
0.1965137093
 40
0.228250707
 40
0.2606804114
 40
0.2937213873
 40
0.3272901161
 40
0.3613013039
 40
0.3956681842
 40
0.4303028161
 40
0.4651163799
 40
0.5000194712
 40
0.5349223935
 40
0.5697354507
 40
0.6043692392
 40
0.6387349412
 40
0.6727446191
 40
0.7063115113
 40
0.7393503306
 40
0.7717775664
 40
0.8035117931
 40
0.8344739863
 40
0.864587851
 40
0.8937801658
 40
0.92198115
 40
0.9356893101
 40
0.9491252606
 40
0.9622813984
 40
0.9751504954
 40
0.9877255529
 40
1.0
 40
1.0
 40
1.0
 40
1.0
 10
13.9622835138
 20
8.8089595672
 30
0.0
 10
13.9639999789
 20
8.8005605816
 30
0.0
 10
13.967275808
 20
8.7833159734
 30
0.0
 10
13.9716484315
 20
8.7567566124
 30
0.0
 10
13.9755847339
 20
8.7289611739
 30
0.0
 10
13.9790737137
 20
8.7000058279
 30
0.0
 10
13.9821056636
 20
8.6699696356
 30
0.0
 10
13.9846721342
 20
8.6389347713
 30
0.0
 10
13.9867659737
 20
8.6069861563
 30
0.0
 10
13.9883813411
 20
8.5742112543
 30
0.0
 10
13.9895137234
 20
8.5406998138
 30
0.0
 10
13.9901599443
 20
8.5065436203
 30
0.0
 10
13.9903181721
 20
8.4718362388
 30
0.0
 10
13.9899879238
 20
8.4366727553
 30
0.0
 10
13.989170065
 20
8.4011495127
 30
0.0
 10
13.987866807
 20
8.3653638457
 30
0.0
 10
13.9860817002
 20
8.3294138118
 30
0.0
 10
13.9838196237
 20
8.2933979214
 30
0.0
 10
13.9810867719
 20
8.2574148661
 30
0.0
 10
13.977890637
 20
8.2215632476
 30
0.0
 10
13.9742399891
 20
8.1859413055
 30
0.0
 10
13.9701448515
 20
8.1506466466
 30
0.0
 10
13.965616475
 20
8.1157759756
 30
0.0
 10
13.9606673062
 20
8.081424828
 30
0.0
 10
13.9553109536
 20
8.047687306
 30
0.0
 10
13.9495621513
 20
8.0146558192
 30
0.0
 10
13.9434367194
 20
7.9824208243
 30
0.0
 10
13.93695152
 20
7.951070587
 30
0.0
 10
13.9301244177
 20
7.9206908848
 30
0.0
 10
13.9229742088
 20
7.8913649449
 30
0.0
 10
13.9167052528
 20
7.8676532098
 30
0.0
 10
13.9115359343
 20
7.849276243
 30
0.0
 10
13.9076272026
 20
7.8359362748
 30
0.0
 10
13.9036527947
 20
7.8229180287
 30
0.0
 10
13.8996154864
 20
7.8102303906
 30
0.0
 10
13.8955179925
 20
7.7978820852
 30
0.0
 10
13.892713702
 20
7.7897823028
 30
0.0
 10
13.8913011196
 20
7.7857911517
 30
0.0
  0
SPLINE
  5
2FC
100
AcDbEntity
  8
0
100
AcDbSpline
 62
7
  6
CONTINUOUS
 70
0
 71
3
 72
23
 73
19
 74
0
 42
0.0000001
 43
0.0000001
 44
0.0000000001
 40
0.0
 40
0.0
 40
0.0
 40
0.0
 40
0.0567841365
 40
0.1127377137
 40
0.168222408
 40
0.2236098624
 40
0.2792738579
 40
0.3355821709
 40
0.3928891519
 40
0.4515291448
 40
0.5118124011
 40
0.5740210123
 40
0.6384083837
 40
0.7052002561
 40
0.7745955404
 40
0.8467680492
 40
0.9218629143
 40
1.0
 40
1.0
 40
1.0
 40
1.0
 10
14.013253363
 20
7.4814249153
 30
0.0
 10
14.0146393755
 20
7.4809348935
 30
0.0
 10
14.0174308125
 20
7.4800697951
 30
0.0
 10
14.0216873793
 20
7.4791260021
 30
0.0
 10
14.0259728478
 20
7.4785485613
 30
0.0
 10
14.0302843741
 20
7.4783381883
 30
0.0
 10
14.0346194615
 20
7.4784947994
 30
0.0
 10
14.0389755615
 20
7.4790181857
 30
0.0
 10
14.0433502413
 20
7.4799077831
 30
0.0
 10
14.0477412614
 20
7.4811626253
 30
0.0
 10
14.0521464602
 20
7.4827818045
 30
0.0
 10
14.0565638716
 20
7.4847640344
 30
0.0
 10
14.0609916134
 20
7.4871080329
 30
0.0
 10
14.0654278426
 20
7.4898125437
 30
0.0
 10
14.069870876
 20
7.4928761035
 30
0.0
 10
14.0743188725
 20
7.4962973108
 30
0.0
 10
14.0787698209
 20
7.5000742563
 30
0.0
 10
14.0816789029
 20
7.5027734571
 30
0.0
 10
14.0831338777
 20
7.5041788549
 30
0.0
  0
SPLINE
  5
2FD
100
AcDbEntity
  8
0
100
AcDbSpline
 62
7
  6
CONTINUOUS
 70
0
 71
3
 72
60
 73
56
 74
0
 42
0.0000001
 43
0.0000001
 44
0.0000000001
 40
0.0
 40
0.0
 40
0.0
 40
0.0
 40
0.0095822002
 40
0.0187369924
 40
0.0274867135
 40
0.0358591658
 40
0.0438870963
 40
0.0516083429
 40
0.0590660196
 40
0.0663086121
 40
0.0733896747
 40
0.0803668217
 40
0.0873005313
 40
0.0942524971
 40
0.1012839011
 40
0.1084536914
 40
0.115817217
 40
0.123425094
 40
0.1313227642
 40
0.1395501611
 40
0.1481419045
 40
0.1571276302
 40
0.1665322814
 40
0.1763768182
 40
0.1866783986
 40
0.1974510881
 40
0.20870609
 40
0.2204521222
 40
0.2326958587
 40
0.2454419251
 40
0.2586934556
 40
0.2724519705
 40
0.2867177534
 40
0.3014899277
 40
0.3167664669
 40
0.3325445437
 40
0.3488202857
 40
0.365589175
 40
0.3828458756
 40
0.400584382
 40
0.4187981383
 40
0.4374798679
 40
0.4566219099
 40
0.4762159462
 40
0.5167240395
 40
0.5589296956
 40
0.6027512093
 40
0.648101029
 40
0.6948863323
 40
0.7430095268
 40
0.7923686515
 40
0.8428581366
 40
0.894368089
 40
0.9467878086
 40
1.0
 40
1.0
 40
1.0
 40
1.0
 10
13.9165454536
 20
6.5104194531
 30
0.0
 10
13.9151302225
 20
6.5091023654
 30
0.0
 10
13.912300961
 20
6.5065922396
 30
0.0
 10
13.9079600469
 20
6.5031365679
 30
0.0
 10
13.9036235904
 20
6.5000808625
 30
0.0
 10
13.8992941154
 20
6.4974272275
 30
0.0
 10
13.8949737083
 20
6.4951775682
 30
0.0
 10
13.8906646521
 20
6.4933336635
 30
0.0
 10
13.8863693687
 20
6.4918972607
 30
0.0
 10
13.8820904796
 20
6.490870148
 30
0.0
 10
13.8778309628
 20
6.4902535675
 30
0.0
 10
13.8735940223
 20
6.4900487413
 30
0.0
 10
13.8693831532
 20
6.4902560366
 30
0.0
 10
13.8652019157
 20
6.4908754204
 30
0.0
 10
13.8610537961
 20
6.4919061537
 30
0.0
 10
13.8569419588
 20
6.4933468348
 30
0.0
 10
13.8528693207
 20
6.495195922
 30
0.0
 10
13.8488383123
 20
6.4974513169
 30
0.0
 10
13.8448512446
 20
6.5001110994
 30
0.0
 10
13.8409101273
 20
6.5031730651
 30
0.0
 10
13.8370169189
 20
6.5066350408
 30
0.0
 10
13.8331735997
 20
6.5104947961
 30
0.0
 10
13.829382004
 20
6.5147498616
 30
0.0
 10
13.8256441974
 20
6.5193977793
 30
0.0
 10
13.8219620477
 20
6.5244357464
 30
0.0
 10
13.8183376156
 20
6.5298608793
 30
0.0
 10
13.8147728878
 20
6.535670018
 30
0.0
 10
13.8112698305
 20
6.5418597792
 30
0.0
 10
13.8078305234
 20
6.548426597
 30
0.0
 10
13.8044568469
 20
6.555366605
 30
0.0
 10
13.8011508599
 20
6.5626757802
 30
0.0
 10
13.79791443
 20
6.5703498152
 30
0.0
 10
13.7947494847
 20
6.5783842102
 30
0.0
 10
13.7916579174
 20
6.5867742383
 30
0.0
 10
13.7886414963
 20
6.5955149402
 30
0.0
 10
13.7857020973
 20
6.6046011685
 30
0.0
 10
13.7828413833
 20
6.6140275357
 30
0.0
 10
13.7800611204
 20
6.623788471
 30
0.0
 10
13.7773629377
 20
6.6338781865
 30
0.0
 10
13.7747484317
 20
6.6442907005
 30
0.0
 10
13.772219209
 20
6.6550198396
 30
0.0
 10
13.7697767141
 20
6.6660592289
 30
0.0
 10
13.7674224597
 20
6.6774023294
 30
0.0
 10
13.7643691067
 20
6.6930965741
 30
0.0
 10
13.7607936217
 20
6.7134280012
 30
0.0
 10
13.7569220532
 20
6.7386640759
 30
0.0
 10
13.7534327982
 20
6.7649415035
 30
0.0
 10
13.7503342493
 20
6.7921978126
 30
0.0
 10
13.7476338946
 20
6.8203683247
 30
0.0
 10
13.7453382553
 20
6.8493860978
 30
0.0
 10
13.7434528594
 20
6.8791822021
 30
0.0
 10
13.7419822899
 20
6.9096856954
 30
0.0
 10
13.7409300496
 20
6.9408242934
 30
0.0
 10
13.7402987733
 20
6.9725235998
 30
0.0
 10
13.7401604833
 20
6.993835985
 30
0.0
 10
13.7401604833
 20
7.0045719789
 30
0.0
  0
SPLINE
  5
2FE
100
AcDbEntity
  8
0
100
AcDbSpline
 62
7
  6
CONTINUOUS
 70
0
 71
3
 72
24
 73
20
 74
0
 42
0.0000001
 43
0.0000001
 44
0.0000000001
 40
0.0
 40
0.0
 40
0.0
 40
0.0
 40
0.0616478629
 40
0.092481784
 40
0.1233243203
 40
0.1850410113
 40
0.246825752
 40
0.3087000522
 40
0.3706844264
 40
0.4327981632
 40
0.4950591366
 40
0.5574836428
 40
0.6200862031
 40
0.6828793215
 40
0.7458738189
 40
0.8090780183
 40
0.8724971396
 40
0.9361397753
 40
1.0
 40
1.0
 40
1.0
 40
1.0
 10
12.3110328037
 20
8.9627307414
 30
0.0
 10
12.3077110742
 20
8.959522197
 30
0.0
 10
12.302597094
 20
8.9548416016
 30
0.0
 10
12.2955354078
 20
8.9488832989
 30
0.0
 10
12.2883121108
 20
8.9431133817
 30
0.0
 10
12.2789897808
 20
8.9362631548
 30
0.0
 10
12.2673690474
 20
8.9286477336
 30
0.0
 10
12.2553405058
 20
8.9216539946
 30
0.0
 10
12.2429346342
 20
8.9152997335
 30
0.0
 10
12.2301826581
 20
8.9096008781
 30
0.0
 10
12.2171167382
 20
8.9045717292
 30
0.0
 10
12.2037697769
 20
8.9002249412
 30
0.0
 10
12.1901753894
 20
8.8965714798
 30
0.0
 10
12.176367828
 20
8.8936204344
 30
0.0
 10
12.1623818473
 20
8.8913792134
 30
0.0
 10
12.1482527624
 20
8.88985348
 30
0.0
 10
12.1340157763
 20
8.8890469162
 30
0.0
 10
12.1197075014
 20
8.8889617014
 30
0.0
 10
12.1101603979
 20
8.889385052
 30
0.0
 10
12.1053878292
 20
8.8897160308
 30
0.0
  0
SPLINE
  5
2FF
100
AcDbEntity
  8
0
100
AcDbSpline
 62
7
  6
CONTINUOUS
 70
0
 71
3
 72
53
 73
49
 74
0
 42
0.0000001
 43
0.0000001
 44
0.0000000001
 40
0.0
 40
0.0
 40
0.0
 40
0.0
 40
0.0063158453
 40
0.0126706042
 40
0.0191024045
 40
0.0256479299
 40
0.0323417859
 40
0.0392161006
 40
0.0536138955
 40
0.0611945924
 40
0.0690563441
 40
0.0772174269
 40
0.0856937979
 40
0.0944991832
 40
0.1036452597
 40
0.11314202
 40
0.1229977594
 40
0.1332193388
 40
0.1438124264
 40
0.1547814124
 40
0.1661297233
 40
0.1778599004
 40
0.1899735286
 40
0.2024715483
 40
0.215354187
 40
0.228620972
 40
0.2422709821
 40
0.2563026805
 40
0.2707140376
 40
0.2855026779
 40
0.3006656825
 40
0.3321007985
 40
0.3649898971
 40
0.3992976059
 40
0.4349839202
 40
0.4720046721
 40
0.5103119941
 40
0.5498546252
 40
0.5905781203
 40
0.632425176
 40
0.6753358984
 40
0.7192479643
 40
0.7640967369
 40
0.809815732
 40
0.8563364699
 40
0.9035882635
 40
0.9515016805
 40
1.0
 40
1.0
 40
1.0
 40
1.0
 10
12.9004133889
 20
6.4953561437
 30
0.0
 10
12.899145751
 20
6.4954440614
 30
0.0
 10
12.8966086575
 20
6.4957242228
 30
0.0
 10
12.8928314584
 20
6.4964544325
 30
0.0
 10
12.8890794888
 20
6.4974945181
 30
0.0
 10
12.885354985
 20
6.4988437881
 30
0.0
 10
12.8816593761
 20
6.5005013577
 30
0.0
 10
12.8766971466
 20
6.5031613919
 30
0.0
 10
12.8718697118
 20
6.5064177278
 30
0.0
 10
12.8671979439
 20
6.5101912496
 30
0.0
 10
12.8636692251
 20
6.5133728155
 30
0.0
 10
12.8601781416
 20
6.5168549895
 30
0.0
 10
12.8567256394
 20
6.5206366055
 30
0.0
 10
12.8533131181
 20
6.5247160122
 30
0.0
 10
12.8499417809
 20
6.5290915185
 30
0.0
 10
12.8466129977
 20
6.5337613855
 30
0.0
 10
12.8433280232
 20
6.5387236924
 30
0.0
 10
12.8400881252
 20
6.5439764181
 30
0.0
 10
12.8368946545
 20
6.5495174679
 30
0.0
 10
12.8337488278
 20
6.5553445596
 30
0.0
 10
12.8306519246
 20
6.5614553332
 30
0.0
 10
12.8276052407
 20
6.567847317
 30
0.0
 10
12.8246099517
 20
6.5745178786
 30
0.0
 10
12.8216673209
 20
6.5814643093
 30
0.0
 10
12.8187785609
 20
6.5886837694
 30
0.0
 10
12.8159448089
 20
6.596173288
 30
0.0
 10
12.8131672841
 20
6.6039298111
 30
0.0
 10
12.8104471056
 20
6.6119501488
 30
0.0
 10
12.8077853756
 20
6.6202310001
 30
0.0
 10
12.8051832276
 20
6.6287689857
 30
0.0
 10
12.8017533079
 20
6.6406339114
 30
0.0
 10
12.7976322457
 20
6.6560879163
 30
0.0
 10
12.7929985932
 20
6.6753849225
 30
0.0
 10
12.7886268017
 20
6.6956187212
 30
0.0
 10
12.7845241346
 20
6.7167559847
 30
0.0
 10
12.7806974134
 20
6.7387620154
 30
0.0
 10
12.777153018
 20
6.7616006148
 30
0.0
 10
12.7738968732
 20
6.7852342024
 30
0.0
 10
12.7709343903
 20
6.8096238516
 30
0.0
 10
12.7682705
 20
6.8347293744
 30
0.0
 10
12.7659096519
 20
6.8605093992
 30
0.0
 10
12.7638557922
 20
6.8869214194
 30
0.0
 10
12.7621123221
 20
6.9139218915
 30
0.0
 10
12.7606821569
 20
6.9414662881
 30
0.0
 10
12.7595677049
 20
6.9695090772
 30
0.0
 10
12.7587707827
 20
6.9980043348
 30
0.0
 10
12.7582927992
 20
7.0269045894
 30
0.0
 10
12.7581878322
 20
7.0463018157
 30
0.0
 10
12.7581878322
 20
7.0560591783
 30
0.0
  0
SPLINE
  5
300
100
AcDbEntity
  8
0
100
AcDbSpline
 62
7
  6
CONTINUOUS
 70
0
 71
3
 72
52
 73
48
 74
0
 42
0.0000001
 43
0.0000001
 44
0.0000000001
 40
0.0
 40
0.0
 40
0.0
 40
0.0
 40
0.006315855
 40
0.0126706206
 40
0.0191024263
 40
0.0256479374
 40
0.0323417941
 40
0.0392161045
 40
0.0536138683
 40
0.0611945479
 40
0.0690562617
 40
0.0772173543
 40
0.085693692
 40
0.0944990462
 40
0.103645138
 40
0.1131418498
 40
0.1229975739
 40
0.1332191689
 40
0.1438121987
 40
0.1547811893
 40
0.1661295086
 40
0.177859629
 40
0.1899732811
 40
0.2024712964
 40
0.2153538898
 40
0.2286207133
 40
0.2422707053
 40
0.2563023772
 40
0.2707137798
 40
0.3006646127
 40
0.3320997422
 40
0.3649888938
 40
0.3992966149
 40
0.4349829397
 40
0.4720037572
 40
0.5103111361
 40
0.549853795
 40
0.5905773573
 40
0.6324244925
 40
0.67533528
 40
0.7192474126
 40
0.7640962686
 40
0.8098153865
 40
0.8563361567
 40
0.9035880144
 40
0.9515017685
 40
1.0
 40
1.0
 40
1.0
 40
1.0
 10
13.8064523862
 20
6.4325221383
 30
0.0
 10
13.8051847454
 20
6.4326100435
 30
0.0
 10
13.8026476422
 20
6.432890147
 30
0.0
 10
13.7988704312
 20
6.4336203309
 30
0.0
 10
13.7951184609
 20
6.4346604065
 30
0.0
 10
13.7913939272
 20
6.4360095906
 30
0.0
 10
13.787698319
 20
6.437667157
 30
0.0
 10
13.7827360765
 20
6.4403271503
 30
0.0
 10
13.7779086187
 20
6.4435834362
 30
0.0
 10
13.7732368462
 20
6.4473569241
 30
0.0
 10
13.7697080878
 20
6.4505384339
 30
0.0
 10
13.7662170282
 20
6.4540206155
 30
0.0
 10
13.7627644958
 20
6.457802188
 30
0.0
 10
13.7593519496
 20
6.461881563
 30
0.0
 10
13.7559806373
 20
6.4662570722
 30
0.0
 10
13.7526518096
 20
6.4709268955
 30
0.0
 10
13.7493668268
 20
6.4758891869
 30
0.0
 10
13.7461269473
 20
6.4811419104
 30
0.0
 10
13.7429334248
 20
6.486682922
 30
0.0
 10
13.7397876058
 20
6.4925100089
 30
0.0
 10
13.7366907082
 20
6.4986207753
 30
0.0
 10
13.7336439743
 20
6.5050127307
 30
0.0
 10
13.7306487046
 20
6.5116832936
 30
0.0
 10
13.7277060636
 20
6.5186297146
 30
0.0
 10
13.7248172631
 20
6.5258491567
 30
0.0
 10
13.7219835347
 20
6.5333386804
 30
0.0
 10
13.7192059891
 20
6.5410951922
 30
0.0
 10
13.7164857702
 20
6.5491155282
 30
0.0
 10
13.7128906166
 20
6.5603006147
 30
0.0
 10
13.7085586654
 20
6.5749244948
 30
0.0
 10
13.7036708734
 20
6.593253211
 30
0.0
 10
13.699037227
 20
6.6125503399
 30
0.0
 10
13.694665408
 20
6.6327841201
 30
0.0
 10
13.6905627128
 20
6.6539214065
 30
0.0
 10
13.686735989
 20
6.6759274633
 30
0.0
 10
13.6831915842
 20
6.6987660941
 30
0.0
 10
13.6799354109
 20
6.7223997103
 30
0.0
 10
13.676972921
 20
6.746789396
 30
0.0
 10
13.6743090268
 20
6.7718949631
 30
0.0
 10
13.6719481636
 20
6.7976750311
 30
0.0
 10
13.6698942912
 20
6.8240870957
 30
0.0
 10
13.6681508187
 20
6.8510876248
 30
0.0
 10
13.6667206506
 20
6.8786320712
 30
0.0
 10
13.6656061867
 20
6.9066749061
 30
0.0
 10
13.6648092626
 20
6.9351702532
 30
0.0
 10
13.6643312819
 20
6.9640705729
 30
0.0
 10
13.6642263109
 20
6.9834678508
 30
0.0
 10
13.6642263109
 20
6.9932251964
 30
0.0
  0
ENDSEC
  0
SECTION
  2
OBJECTS
  0
DICTIONARY
  5
C
100
AcDbDictionary
280
0
281
1
  3
ACAD_GROUP
350
D
  3
ACAD_MLINESTYLE
350
17
  3
ACAD_LAYOUT
350
1A
  3
ACAD_PLOTSETTINGS
350
19
  3
ACAD_PLOTSTYLENAME
350
E
  3
ACAD_IMAGE_DICT
350
       302
  3
ACAD_IMAGE_VARS
350
       303
  3
ACAD_TABLESTYLE
350
       304
  0
IMAGEDEF_REACTOR
  5
301
100
AcDbRasterImageDefReactor
 90
2
330
27A
  0
DICTIONARY
  5
D
102
{ACAD_REACTORS
330
C
102
}
100
AcDbDictionary
280
0
281
1
  0
ACDBDICTIONARYWDFLT
  5
E
102
{ACAD_REACTORS
330
C
102
}
100
AcDbDictionary
281
1
  3
Normal
350
F
100
AcDbDictionaryWithDefault
340
F
  0
DICTIONARY
  5
302
330
C
100
AcDbDictionary
281
1
  3
X6W_assy_2_img_1
350
       307
  0
RASTERVARIABLES
  5
303
330
C
100
AcDbRasterVariables
 90
0
 70
0
 71
1
 72
5
  0
DICTIONARY
  5
17
102
{ACAD_REACTORS
330
C
102
}
100
AcDbDictionary
280
0
281
1
  3
Standard
350
18
  0
DICTIONARY
  5
304
330
C
100
AcDbDictionary
281
1
  3
Standard
350
       308
  3
Standard1
350
       309
  0
DICTIONARY
  5
19
102
{ACAD_REACTORS
330
C
102
}
100
AcDbDictionary
281
1
  0
DICTIONARY
  5
1A
102
{ACAD_REACTORS
330
C
102
}
100
AcDbDictionary
281
1
  3
Model
350
305
  3
Layout1
350
306
  0
ACDBPLACEHOLDER
  5
F
102
{ACAD_REACTORS
330
E
102
}
  0
MLINESTYLE
  5
18
102
{ACAD_REACTORS
330
17
102
}
100
AcDbMlineStyle
  2
STANDARD
 70
0
  3

 62
256
 51
90.0
 52
90.0
 71
2
 49
0.5
 62
256
  6
BYLAYER
 49
-0.5
 62
256
  6
BYLAYER
  0
LAYOUT
  5
305
102
{ACAD_REACTORS
330
1A
102
}
100
AcDbPlotSettings
  1

  2
none_device
  4
ANSI_C_(22.00_x_17.00_Inches)
  6

 40
0.0
 41
0.0
 42
0.0
 43
0.0
 44
558.8
 45
431.8
 46
0.0
 47
0.0
 48
0.0
 49
0.0
140
0.0
141
0.0
142
1.0
143
1.0
 70
1024
 72
0
 73
0
 74
0
  7

 75
0
147
1.0
148
0.0
149
0.0
100
AcDbLayout
  1
Model
 70
0
 71
0
 10
0.0
 20
0.0
 11
22.0
 21
17.0
 12
0.0
 22
0.0
 32
0.0
 14
0.0
 24
0.0
 34
0.0
 15
0.0
 25
0.0
 35
0.0
146
0.0
 13
0.0
 23
0.0
 33
0.0
 16
1.0
 26
0.0
 36
0.0
 17
0.0
 27
1.0
 37
0.0
 76
0
330
207
345
0
346
0
  0
LAYOUT
  5
306
102
{ACAD_REACTORS
330
1A
102
}
100
AcDbPlotSettings
  1

  2
none_device
  4
ANSI_C_(22.00_x_17.00_Inches)
  6

 40
0.0
 41
0.0
 42
0.0
 43
0.0
 44
558.8
 45
431.8
 46
0.0
 47
0.0
 48
0.0
 49
0.0
140
0.0
141
0.0
142
1.0
143
1.0
 70
0
 72
0
 73
0
 74
0
  7

 75
0
147
1.0
148
0.0
149
0.0
100
AcDbLayout
  1
Layout1
 70
0
 71
1
 10
0.0
 20
0.0
 11
22.0
 21
17.0
 12
0.0
 22
0.0
 32
0.0
 14
0.0
 24
0.0
 34
0.0
 15
0.0
 25
0.0
 35
0.0
146
0.0
 13
0.0
 23
0.0
 33
0.0
 16
1.0
 26
0.0
 36
0.0
 17
0.0
 27
1.0
 37
0.0
 76
0
330
208
345
0
346
0
  0
IMAGEDEF
  5
307
102
{ACAD_REACTORS
330
302
330
301
102
}
100
AcDbRasterImageDef
 90
0
  1
X6W_assy_2_img_1.png
 10
369.0
 20
92.0
 11
0.0066666667
 21
0.0066666667
280
1
281
0
  0
TABLESTYLE
  5
308
102
{ACAD_REACTORS
330
304
330
27D
330
27E
102
}
330
304
100
AcDbTableStyle
  3
Standard
 70
0
 71
0
 40
0.06
 41
0.06
280
1
281
1
  7
Standard
140
0.18
170
1
 62
0
 63
7
283
0
  7
Standard
140
0.18
170
1
 62
0
 63
7
283
0
  7
Standard
140
0.18
170
1
 62
0
 63
7
283
0
  0
TABLESTYLE
  5
309
102
{ACAD_REACTORS
330
304
330
27C
102
}
330
304
100
AcDbTableStyle
  3
Standard1
 70
1
 71
0
 40
0.06
 41
0.06
280
1
281
1
  7
Standard
140
0.18
170
1
 62
0
 63
7
283
0
  7
Standard
140
0.18
170
1
 62
0
 63
7
283
0
  7
Standard
140
0.18
170
1
 62
0
 63
7
283
0
  0
ENDSEC
  0
EOF
