999
DXF file: X5X_assy_2.dxf
999
Pro/ENGINEER 2014200 by Parametric Technology Corporation
  0
SECTION
  2
HEADER
  9
$ACADVER
  1
AC1021
  9
$DWGCODEPAGE
  3
ANSI_1252
  9
$EXTMAX
 10
22.0
 20
17.0
 30
0.0
  9
$EXTMIN
 10
0.0
 20
0.0
 30
0.0
  9
$LIMMIN
 10
0.0
 20
0.0
  9
$LIMMAX
 10
22.0
 20
17.0
  9
$VIEWCTR
 10
11.0
 20
8.5
  9
$VIEWSIZE
 40
17.0
  9
$CLAYER
  8
0
  9
$LTSCALE
 40
1.21
  9
$CELTYPE
  6
BYLAYER
  9
$DIMSCALE
 40
1.0
  9
$DIMASZ
 40
0.1875
  9
$DIMEXO
 40
0.0625
  9
$DIMDLI
 40
0.836
  9
$DIMEXE
 40
0.125
  9
$DIMCEN
 40
0.198
  9
$DIMLFAC
 40
1.0
  9
$DIMBLK
  1
_FILLED
  9
$DIMTXT
 40
0.1
  9
$DIMTOL
 70
0
  9
$DIMLIM
 70
0
  9
$DIMTFAC
 40
1.0
  9
$DIMGAP
 40
0.09
  9
$DIMDSEP
 70
46
  9
$AUNITS
 70
0
  9
$PDMODE
 70
3
  9
$PDSIZE
 40
0.3125
  9
$HANDSEED
  5
3EF
  9
$TILEMODE
 70
1
  9
$MEASUREMENT
 70
0
  9
$INSUNITS
 70
1
  0
ENDSEC
  0
SECTION
  2
CLASSES
  0
CLASS
  1
ACDBDICTIONARYWDFLT
  2
AcDbDictionaryWithDefault
  3
AutoCAD 2000
 90
0
 91
1
280
0
281
0
  0
CLASS
  1
ACDBPLACEHOLDER
  2
AcDbPlaceHolder
  3
AutoCAD 2000
 90
0
 91
1
280
0
281
0
  0
CLASS
  1
LAYOUT
  2
AcDbLayout
  3
AutoCAD 2000
 90
0
 91
0
280
0
281
0
  0
CLASS
  1
RASTERVARIABLES
  2
AcDbRasterVariables
  3
ISM
 90
0
 91
1
280
0
281
0
  0
CLASS
  1
IMAGEDEF
  2
AcDbRasterImageDef
  3
ISM
 90
0
 91
1
280
0
281
0
  0
CLASS
  1
IMAGEDEF_REACTOR
  2
AcDbRasterImageDefReactor
  3
ISM
 90
0
 91
1
280
0
281
0
  0
CLASS
  1
IMAGE
  2
AcDbRasterImage
  3
ISM
 90
127
 91
1
280
0
281
1
  0
CLASS
  1
TABLESTYLE
  2
AcDbTableStyle
  3
ObjectDBX Classes
 90
2047
 91
1
280
0
281
0
  0
CLASS
  1
ACAD_TABLE
  2
AcDbTable
  3
ObjectDBX Classes
 90
1025
 91
2
280
0
281
1
  0
ENDSEC
  0
SECTION
  2
TABLES
  0
TABLE
  2
VPORT
  5
8
100
AcDbSymbolTable
 70
2
  0
VPORT
  5
1F4
100
AcDbSymbolTableRecord
100
AcDbViewportTableRecord
  2
*ACTIVE
 70
0
 10
0.0
 20
0.0
 11
1.0
 21
1.0
 12
11.0
 22
8.5
 13
0.0
 23
0.0
 14
1.0
 24
1.0
 15
0.0
 25
0.0
 16
0.0
 26
0.0
 36
1.0
 17
0.0
 27
0.0
 37
0.0
 40
17.0
 41
1.2941176471
 42
50.0
 43
0.0
 44
0.0
 50
0.0
 51
0.0
 71
0
 72
100
 73
1
 74
1
 75
0
 76
0
 77
0
 78
0
  0
ENDTAB
  0
TABLE
  2
LTYPE
  5
5
100
AcDbSymbolTable
 70
6
  0
LTYPE
  5
14
100
AcDbSymbolTableRecord
100
AcDbLinetypeTableRecord
  2
BYBLOCK
 70
0
  3

 72
65
 73
0
 40
0.0
  0
LTYPE
  5
15
100
AcDbSymbolTableRecord
100
AcDbLinetypeTableRecord
  2
BYLAYER
 70
0
  3

 72
65
 73
0
 40
0.0
  0
LTYPE
  5
16
100
AcDbSymbolTableRecord
100
AcDbLinetypeTableRecord
  2
CONTINUOUS
 70
64
  3
Solid line
 72
65
 73
0
 40
0.0
  0
LTYPE
  5
1F5
100
AcDbSymbolTableRecord
100
AcDbLinetypeTableRecord
  2
CENTER
 70
64
  3
____ _ ____ _ ____ _ ____ _ ____ _ ____ _ ____
 72
65
 73
4
 40
0.6
 49
0.375
 74
0
 49
-0.075
 74
0
 49
0.075
 74
0
 49
-0.075
 74
0
  0
LTYPE
  5
1F6
100
AcDbSymbolTableRecord
100
AcDbLinetypeTableRecord
  2
HIDDEN
 70
64
  3
- - - - - - - - - - - - - - - - - - - -
 72
65
 73
2
 40
0.2
 49
0.1
 74
0
 49
-0.1
 74
0
  0
LTYPE
  5
1F7
100
AcDbSymbolTableRecord
100
AcDbLinetypeTableRecord
  2
PHANTOM
 70
64
  3
_____ _ _ _____ _ _ _____ _ _ _____
 72
65
 73
6
 40
0.8
 49
0.45
 74
0
 49
-0.05
 74
0
 49
0.1
 74
0
 49
-0.05
 74
0
 49
0.1
 74
0
 49
-0.05
 74
0
  0
LTYPE
  5
1F8
100
AcDbSymbolTableRecord
100
AcDbLinetypeTableRecord
  2
DOT
 70
64
  3
. . . . . . . . . . . . . . . . . . . .
 72
65
 73
2
 40
0.2
 49
0.1
 74
0
 49
-0.1
 74
0
  0
LTYPE
  5
1F9
100
AcDbSymbolTableRecord
100
AcDbLinetypeTableRecord
  2
DASHED
 70
64
  3
- - - - - - - - - - - - - - - - - - - -
 72
65
 73
2
 40
0.2
 49
0.1
 74
0
 49
-0.1
 74
0
  0
ENDTAB
  0
TABLE
  2
LAYER
  5
2
100
AcDbSymbolTable
 70
36
  0
LAYER
  5
10
100
AcDbSymbolTableRecord
100
AcDbLayerTableRecord
  2
0
 70
0
 62
7
  6
CONTINUOUS
370
-3
390
F
  0
LAYER
  5
1FA
100
AcDbSymbolTableRecord
100
AcDbLayerTableRecord
  2
DEFAULT_1
 70
0
 62
7
  6
CENTER
370
-3
390
F
  0
LAYER
  5
1FB
100
AcDbSymbolTableRecord
100
AcDbLayerTableRecord
  2
DEFAULT_2
 70
0
 62
8
  6
HIDDEN
370
-3
390
F
  0
LAYER
  5
1FC
100
AcDbSymbolTableRecord
100
AcDbLayerTableRecord
  2
DEFAULT_3
 70
0
 62
7
  6
PHANTOM
370
-3
390
F
  0
LAYER
  5
1FD
100
AcDbSymbolTableRecord
100
AcDbLayerTableRecord
  2
01___PRT_ALL_DTM_PLN
 70
0
 62
7
  6
CONTINUOUS
370
-3
390
F
  0
LAYER
  5
1FE
100
AcDbSymbolTableRecord
100
AcDbLayerTableRecord
  2
01___PRT_DEF_DTM_PLN
 70
0
 62
7
  6
CONTINUOUS
370
-3
390
F
  0
LAYER
  5
1FF
100
AcDbSymbolTableRecord
100
AcDbLayerTableRecord
  2
02___PRT_ALL_AXES
 70
0
 62
7
  6
CONTINUOUS
370
-3
390
F
  0
LAYER
  5
200
100
AcDbSymbolTableRecord
100
AcDbLayerTableRecord
  2
03___PRT_ALL_CURVES
 70
0
 62
7
  6
CONTINUOUS
370
-3
390
F
  0
LAYER
  5
201
100
AcDbSymbolTableRecord
100
AcDbLayerTableRecord
  2
04___PRT_ALL_DTM_PNT
 70
0
 62
7
  6
CONTINUOUS
370
-3
390
F
  0
LAYER
  5
202
100
AcDbSymbolTableRecord
100
AcDbLayerTableRecord
  2
05___PRT_ALL_DTM_CSYS
 70
0
 62
7
  6
CONTINUOUS
370
-3
390
F
  0
LAYER
  5
203
100
AcDbSymbolTableRecord
100
AcDbLayerTableRecord
  2
05___PRT_DEF_DTM_CSYS
 70
0
 62
7
  6
CONTINUOUS
370
-3
390
F
  0
LAYER
  5
204
100
AcDbSymbolTableRecord
100
AcDbLayerTableRecord
  2
06___PRT_ALL_SURFS
 70
0
 62
7
  6
CONTINUOUS
370
-3
390
F
  0
LAYER
  5
205
100
AcDbSymbolTableRecord
100
AcDbLayerTableRecord
  2
DATUM_PLANES
 70
0
 62
7
  6
CONTINUOUS
370
-3
390
F
  0
LAYER
  5
206
100
AcDbSymbolTableRecord
100
AcDbLayerTableRecord
  2
DIMENSIONS
 70
0
 62
7
  6
CONTINUOUS
370
-3
390
F
  0
LAYER
  5
207
100
AcDbSymbolTableRecord
100
AcDbLayerTableRecord
  2
PARAMETERDIMENSIONS
 70
0
 62
7
  6
CONTINUOUS
370
-3
390
F
  0
LAYER
  5
208
100
AcDbSymbolTableRecord
100
AcDbLayerTableRecord
  2
PLANE
 70
0
 62
7
  6
CONTINUOUS
370
-3
390
F
  0
LAYER
  5
209
100
AcDbSymbolTableRecord
100
AcDbLayerTableRecord
  2
PORT_AREAS
 70
0
 62
7
  6
CONTINUOUS
370
-3
390
F
  0
LAYER
  5
20A
100
AcDbSymbolTableRecord
100
AcDbLayerTableRecord
  2
SUNNBOMCOSMETIC
 70
0
 62
7
  6
CONTINUOUS
370
-3
390
F
  0
LAYER
  5
20B
100
AcDbSymbolTableRecord
100
AcDbLayerTableRecord
  2
SUNNBOMSTAMPING
 70
0
 62
7
  6
CONTINUOUS
370
-3
390
F
  0
LAYER
  5
20C
100
AcDbSymbolTableRecord
100
AcDbLayerTableRecord
  2
THREADS
 70
0
 62
7
  6
CONTINUOUS
370
-3
390
F
  0
ENDTAB
  0
TABLE
  2
STYLE
  5
3
100
AcDbSymbolTable
 70
1
  0
STYLE
  5
11
100
AcDbSymbolTableRecord
100
AcDbTextStyleTableRecord
  2
STANDARD
 70
0
 40
0.0
 41
0.8
 50
0.0
 71
0
 42
0.2
  3
txt
  4

  0
STYLE
  5
20D
100
AcDbSymbolTableRecord
100
AcDbTextStyleTableRecord
  2
TEXTSTYLE_1
 70
0
 40
0.0
 41
0.8
 50
0.0
 71
0
 42
0.2
  3
gdt
  4

  0
ENDTAB
  0
TABLE
  2
VIEW
  5
6
100
AcDbSymbolTable
 70
0
  0
ENDTAB
  0
TABLE
  2
UCS
  5
7
100
AcDbSymbolTable
 70
0
  0
ENDTAB
  0
TABLE
  2
APPID
  5
9
100
AcDbSymbolTable
 70
1
  0
APPID
  5
20E
100
AcDbSymbolTableRecord
100
AcDbRegAppTableRecord
  2
ACAD
 70
0
  0
ENDTAB
  0
TABLE
  2
BLOCK_RECORD
  5
1
100
AcDbSymbolTable
 70
0
  0
BLOCK_RECORD
  5
20F
100
AcDbSymbolTableRecord
100
AcDbBlockTableRecord
  2
*Model_Space
  0
BLOCK_RECORD
  5
210
100
AcDbSymbolTableRecord
100
AcDbBlockTableRecord
  2
*Paper_Space
  0
BLOCK_RECORD
  5
211
100
AcDbSymbolTableRecord
100
AcDbBlockTableRecord
  2
SUN_FIRST_THIRD_ANGLE_BL0
  0
BLOCK_RECORD
  5
212
100
AcDbSymbolTableRecord
100
AcDbBlockTableRecord
  2
*T1
  0
BLOCK_RECORD
  5
213
100
AcDbSymbolTableRecord
100
AcDbBlockTableRecord
  2
*T2
  0
ENDTAB
  0
TABLE
  2
DIMSTYLE
  5
A
100
AcDbSymbolTable
 70
1
100
AcDbDimStyleTable
 71
0
  0
DIMSTYLE
105
214
100
AcDbSymbolTableRecord
100
AcDbDimStyleTableRecord
  2
STANDARD
 70
0
  3

  4

 40
1.0
 41
0.1875
 42
0.0625
 43
0.38
 44
0.125
 45
0.0
 46
0.0
 47
0.001
 48
0.001
140
0.1
141
0.09
142
0.0
143
25.4
144
1.0
145
0.0
146
1.0
147
0.09
 71
0.0
 72
0.0
 73
1
 74
1
 75
0
 76
0
 77
0
 78
4
170
0
171
2
172
0
173
0
174
0
175
0
176
0
177
0
178
0
270
2
271
3
272
3
273
2
274
2
275
0
280
0
281
0
282
0
283
1
284
4
285
0
286
0
287
3
288
0
340
11
278
46
  0
ENDTAB
  0
ENDSEC
  0
SECTION
  2
BLOCKS
  0
BLOCK
  5
20
100
AcDbEntity
  8
0
100
AcDbBlockBegin
  2
*Model_Space
 70
0
 10
0.0
 20
0.0
 30
0.0
  3
*Model_Space
  1

  0
ENDBLK
  5
21
100
AcDbEntity
  8
0
100
AcDbBlockEnd
  0
BLOCK
  5
1C
100
AcDbEntity
  8
0
100
AcDbBlockBegin
  2
*Paper_Space
 70
0
 10
0.0
 20
0.0
 30
0.0
  3
*Paper_Space
  1

  0
ENDBLK
  5
1D
100
AcDbEntity
  8
0
100
AcDbBlockEnd
  0
BLOCK
  5
215
100
AcDbEntity
  8
0
100
AcDbBlockBegin
 62
2
  6
CONTINUOUS
  2
SUN_FIRST_THIRD_ANGLE_BL0
 70
64
 10
20.4816717061
 20
1.2289683772
  3
SUN_FIRST_THIRD_ANGLE_BL0
  1

  0
TEXT
  5
216
100
AcDbEntity
  8
0
100
AcDbText
 62
2
  6
CONTINUOUS
 10
19.4750896608
 20
1.4136269581
  7
STANDARD
 40
0.08
  1
FIRST ANGLE
 41
0.8
 72
0
100
AcDbText
  0
TEXT
  5
217
100
AcDbEntity
  8
0
100
AcDbText
 62
2
  6
CONTINUOUS
 10
20.7842537513
 20
1.4047600029
  7
STANDARD
 40
0.08
  1
THIRD ANGLE
 41
0.8
 72
0
100
AcDbText
  0
LINE
  5
218
100
AcDbEntity
  8
0
100
AcDbLine
 62
7
  6
CONTINUOUS
 10
19.4767170086
 20
1.1727031207
 11
19.6334271527
 21
1.1717972817
  0
LINE
  5
219
100
AcDbEntity
  8
0
100
AcDbLine
 62
7
  6
CONTINUOUS
 10
19.6596964832
 20
1.1717972817
 11
19.6950230232
 21
1.171593082
  0
LINE
  5
21A
100
AcDbEntity
  8
0
100
AcDbLine
 62
7
  6
CONTINUOUS
 10
19.7194818561
 20
1.1708914427
 11
19.8852396156
 21
1.1699333054
  0
LINE
  5
21B
100
AcDbEntity
  8
0
100
AcDbLine
 62
7
  6
CONTINUOUS
 10
19.4758111696
 20
1.2723454088
 11
19.88525039
 21
1.3511534004
  0
LINE
  5
21C
100
AcDbEntity
  8
0
100
AcDbLine
 62
7
  6
CONTINUOUS
 10
19.88525039
 20
1.3511534004
 11
19.8831348489
 21
0.9851647912
  0
LINE
  5
21D
100
AcDbEntity
  8
0
100
AcDbLine
 62
7
  6
CONTINUOUS
 10
19.8831348489
 20
0.9851647912
 11
19.4767170086
 21
1.0658141206
  0
LINE
  5
21E
100
AcDbEntity
  8
0
100
AcDbLine
 62
7
  6
CONTINUOUS
 10
19.4767170086
 20
1.0658141206
 11
19.4779056764
 21
1.2714536432
  0
CIRCLE
  5
21F
100
AcDbEntity
  8
0
100
AcDbCircle
 62
7
  6
CONTINUOUS
 10
20.2068232291
 20
1.1717972817
 40
0.175742101
  0
CIRCLE
  5
220
100
AcDbEntity
  8
0
100
AcDbCircle
 62
7
  6
CONTINUOUS
 10
20.2068232291
 20
1.1717972817
 40
0.1005522074
  0
LINE
  5
221
100
AcDbEntity
  8
0
100
AcDbLine
 62
7
  6
CONTINUOUS
 10
20.2077290681
 20
1.3756110529
 11
20.2071171714
 21
1.2379342989
  0
LINE
  5
222
100
AcDbEntity
  8
0
100
AcDbLine
 62
7
  6
CONTINUOUS
 10
20.2077290681
 20
1.2016899681
 11
20.2074674401
 21
1.1428236749
  0
LINE
  5
223
100
AcDbEntity
  8
0
100
AcDbLine
 62
7
  6
CONTINUOUS
 10
20.208634907
 20
1.101141841
 11
20.2080230104
 21
0.963465087
  0
LINE
  5
224
100
AcDbEntity
  8
0
100
AcDbLine
 62
7
  6
CONTINUOUS
 10
20.0066328138
 20
1.1745147986
 11
20.1443095678
 21
1.1739029019
  0
LINE
  5
225
100
AcDbEntity
  8
0
100
AcDbLine
 62
7
  6
CONTINUOUS
 10
20.1832714155
 20
1.1727031207
 11
20.238153505
 21
1.172335442
  0
LINE
  5
226
100
AcDbEntity
  8
0
100
AcDbLine
 62
7
  6
CONTINUOUS
 10
20.2756669918
 20
1.1717972817
 11
20.407916871
 21
1.1712095044
  0
CIRCLE
  5
227
100
AcDbEntity
  8
0
100
AcDbCircle
 62
7
  6
CONTINUOUS
 10
20.7509457401
 20
1.1693297793
 40
0.1722024983
  0
CIRCLE
  5
228
100
AcDbEntity
  8
0
100
AcDbCircle
 62
7
  6
CONTINUOUS
 10
20.7509457401
 20
1.1693297793
 40
0.0985164967
  0
LINE
  5
229
100
AcDbEntity
  8
0
100
AcDbLine
 62
7
  6
CONTINUOUS
 10
20.7169767782
 20
1.170462078
 11
20.7825395137
 21
1.1682766535
  0
LINE
  5
22A
100
AcDbEntity
  8
0
100
AcDbLine
 62
7
  6
CONTINUOUS
 10
20.8177513651
 20
1.1693297793
 11
20.947965719
 21
1.1693297793
  0
LINE
  5
22B
100
AcDbEntity
  8
0
100
AcDbLine
 62
7
  6
CONTINUOUS
 10
20.6875370113
 20
1.170462078
 11
20.5573226574
 21
1.170462078
  0
LINE
  5
22C
100
AcDbEntity
  8
0
100
AcDbLine
 62
7
  6
CONTINUOUS
 10
20.7486811426
 20
1.1987695462
 11
20.7486811426
 21
1.1432869085
  0
LINE
  5
22D
100
AcDbEntity
  8
0
100
AcDbLine
 62
7
  6
CONTINUOUS
 10
20.7498134414
 20
1.1059210505
 11
20.7498134414
 21
0.9757066966
  0
LINE
  5
22E
100
AcDbEntity
  8
0
100
AcDbLine
 62
7
  6
CONTINUOUS
 10
20.7486811426
 20
1.2338708068
 11
20.7486811426
 21
1.3640851607
  0
LINE
  5
22F
100
AcDbEntity
  8
0
100
AcDbLine
 62
7
  6
CONTINUOUS
 10
21.0702539817
 20
1.2701043662
 11
21.4790138229
 21
1.3448360823
  0
LINE
  5
230
100
AcDbEntity
  8
0
100
AcDbLine
 62
7
  6
CONTINUOUS
 10
21.4790138229
 20
1.3448360823
 11
21.4790138229
 21
0.9779712941
  0
LINE
  5
231
100
AcDbEntity
  8
0
100
AcDbLine
 62
7
  6
CONTINUOUS
 10
21.4790138229
 20
0.9779712941
 11
21.069121683
 21
1.0617614
  0
LINE
  5
232
100
AcDbEntity
  8
0
100
AcDbLine
 62
7
  6
CONTINUOUS
 10
21.0702539817
 20
1.2701043662
 11
21.069121683
 21
1.0617614
  0
LINE
  5
233
100
AcDbEntity
  8
0
100
AcDbLine
 62
7
  6
CONTINUOUS
 10
21.4790138229
 20
1.1693297793
 11
21.3159628059
 21
1.1693297793
  0
LINE
  5
234
100
AcDbEntity
  8
0
100
AcDbLine
 62
7
  6
CONTINUOUS
 10
21.2876553377
 20
1.1693297793
 11
21.2502894796
 21
1.1693297793
  0
LINE
  5
235
100
AcDbEntity
  8
0
100
AcDbLine
 62
7
  6
CONTINUOUS
 10
21.2208497126
 20
1.1659328831
 11
21.0713862804
 21
1.1659328831
  0
LINE
  5
236
100
AcDbEntity
  8
0
100
AcDbLine
 62
7
  6
CONTINUOUS
 10
20.4796138713
 20
1.5284908897
 11
20.4766766948
 21
0.9294458646
  0
ENDBLK
  5
237
100
AcDbEntity
  8
0
  6
BYBLOCK
 62
0
100
AcDbBlockEnd
  0
BLOCK
  5
238
100
AcDbEntity
  8
0
100
AcDbBlockBegin
  2
*T1
 70
1
 10
0.0
 20
0.0
  3
*T1
  1

  0
LINE
  5
239
100
AcDbEntity
  8
0
100
AcDbLine
 62
2
  6
CONTINUOUS
 10
9.275
 20
0.0
 11
-0.0
 21
0.0
  0
LINE
  5
23A
100
AcDbEntity
  8
0
100
AcDbLine
 62
2
  6
CONTINUOUS
 10
9.275
 20
0.0
 11
9.275
 21
1.25
  0
LINE
  5
23B
100
AcDbEntity
  8
0
100
AcDbLine
 62
2
  6
CONTINUOUS
 10
9.275
 20
0.625
 11
-0.0
 21
0.625
  0
LINE
  5
23C
100
AcDbEntity
  8
0
100
AcDbLine
 62
2
  6
CONTINUOUS
 10
9.275
 20
1.25
 11
-0.0
 21
1.25
  0
LINE
  5
23D
100
AcDbEntity
  8
0
100
AcDbLine
 62
2
  6
CONTINUOUS
 10
6.8
 20
0.0
 11
6.8
 21
1.25
  0
LINE
  5
23E
100
AcDbEntity
  8
0
100
AcDbLine
 62
2
  6
CONTINUOUS
 10
6.4
 20
0.0
 11
6.4
 21
0.625
  0
LINE
  5
23F
100
AcDbEntity
  8
0
100
AcDbLine
 62
2
  6
CONTINUOUS
 10
5.9
 20
0.0
 11
5.9
 21
0.625
  0
LINE
  5
240
100
AcDbEntity
  8
0
100
AcDbLine
 62
2
  6
CONTINUOUS
 10
5.2
 20
0.0
 11
5.2
 21
0.625
  0
LINE
  5
241
100
AcDbEntity
  8
0
100
AcDbLine
 62
2
  6
CONTINUOUS
 10
4.1
 20
0.0
 11
4.1
 21
1.25
  0
LINE
  5
242
100
AcDbEntity
  8
0
100
AcDbLine
 62
2
  6
CONTINUOUS
 10
-0.0
 20
0.0
 11
-0.0
 21
1.25
  0
MTEXT
  5
243
100
AcDbEntity
  8
0
100
AcDbMText
 62
2
  6
CONTINUOUS
  7
STANDARD
 71
2
 72
1
 10
6.6
 20
0.325
 30
0.0
 11
1.0
 21
0.0
 31
0.0
 44
0.9
  1
2
 40
0.125
 41
0.2
  0
MTEXT
  5
244
100
AcDbEntity
  8
0
100
AcDbMText
 62
2
  6
CONTINUOUS
  7
STANDARD
 71
2
 72
1
 10
6.15
 20
0.325
 30
0.0
 11
1.0
 21
0.0
 31
0.0
 44
0.9
  1
C
 40
0.125
 41
0.2
  0
MTEXT
  5
245
100
AcDbEntity
  8
0
100
AcDbMText
 62
2
  6
CONTINUOUS
  7
STANDARD
 71
2
 72
1
 10
5.55
 20
0.325
 30
0.0
 11
1.0
 21
0.0
 31
0.0
 44
0.9
  1
2.000
 40
0.125
 41
1.0
  0
MTEXT
  5
246
100
AcDbEntity
  8
0
100
AcDbMText
 62
2
  6
CONTINUOUS
  7
STANDARD
 71
2
 72
1
 10
4.65
 20
0.325
 30
0.0
 11
1.0
 21
0.0
 31
0.0
 44
0.9
  1
Sep-23-21
 40
0.125
 41
1.8
  0
MTEXT
  5
247
100
AcDbEntity
  8
0
100
AcDbMText
 62
2
  6
CONTINUOUS
  7
STANDARD
 71
2
 72
1
 10
2.05
 20
0.4625
 30
0.0
 11
1.0
 21
0.0
 31
0.0
 44
0.9
  1
T-13A Sandwich ISO 03\PFlow into or out of workport A or B
 40
0.125
 41
7.0
  0
MTEXT
  5
248
100
AcDbEntity
  8
0
100
AcDbMText
 62
2
  6
CONTINUOUS
  7
STANDARD
 71
1
 72
1
 10
6.45
 20
0.5625
 30
0.0
 11
1.0
 21
0.0
 31
0.0
 44
0.9
  1
SHEET
 40
0.06
 41
0.48
  0
MTEXT
  5
249
100
AcDbEntity
  8
0
100
AcDbMText
 62
2
  6
CONTINUOUS
  7
STANDARD
 71
1
 72
1
 10
5.95
 20
0.5625
 30
0.0
 11
1.0
 21
0.0
 31
0.0
 44
0.9
  1
DWG SIZE
 40
0.06
 41
0.768
  0
MTEXT
  5
24A
100
AcDbEntity
  8
0
100
AcDbMText
 62
2
  6
CONTINUOUS
  7
STANDARD
 71
1
 72
1
 10
5.25
 20
0.5625
 30
0.0
 11
1.0
 21
0.0
 31
0.0
 44
0.9
  1
SCALE
 40
0.06
 41
0.48
  0
MTEXT
  5
24B
100
AcDbEntity
  8
0
100
AcDbMText
 62
2
  6
CONTINUOUS
  7
STANDARD
 71
1
 72
1
 10
4.15
 20
0.5625
 30
0.0
 11
1.0
 21
0.0
 31
0.0
 44
0.9
  1
DATE
 40
0.06
 41
0.384
  0
MTEXT
  5
24C
100
AcDbEntity
  8
0
100
AcDbMText
 62
2
  6
CONTINUOUS
  7
STANDARD
 71
1
 72
1
 10
0.05
 20
0.5625
 30
0.0
 11
1.0
 21
0.0
 31
0.0
 44
0.9
  1
DESCRIPTION
 40
0.06
 41
1.056
  0
MTEXT
  5
24D
100
AcDbEntity
  8
0
100
AcDbMText
 62
2
  6
CONTINUOUS
  7
STANDARD
 71
2
 72
1
 10
5.45
 20
1.0375
 30
0.0
 11
1.0
 21
0.0
 31
0.0
 44
0.9
  1
ALL DIMENSIONS IN INCH\PVIEWS ARE THIRD ANGLE
 40
0.12
 41
4.224
  0
MTEXT
  5
24E
100
AcDbEntity
  8
0
100
AcDbMText
 62
2
  6
CONTINUOUS
  7
STANDARD
 71
2
 72
1
 10
2.05
 20
0.95
 30
0.0
 11
1.0
 21
0.0
 31
0.0
 44
0.9
  1
X5X
 40
0.125
 41
0.6
  0
MTEXT
  5
24F
100
AcDbEntity
  8
0
100
AcDbMText
 62
2
  6
CONTINUOUS
  7
STANDARD
 71
1
 72
1
 10
0.05
 20
1.1875
 30
0.0
 11
1.0
 21
0.0
 31
0.0
 44
0.9
  1
MODEL
 40
0.06
 41
0.48
  0
ENDBLK
  5
250
100
AcDbEntity
  8
0
  6
BYBLOCK
 62
0
100
AcDbBlockEnd
  0
BLOCK
  5
251
100
AcDbEntity
  8
0
100
AcDbBlockBegin
  2
*T2
 70
1
 10
0.0
 20
0.0
  3
*T2
  1

  0
LINE
  5
252
100
AcDbEntity
  8
0
100
AcDbLine
 62
2
  6
CONTINUOUS
 10
0.0
 20
0.0
 11
9.055
 21
0.0
  0
LINE
  5
253
100
AcDbEntity
  8
0
100
AcDbLine
 62
2
  6
CONTINUOUS
 10
0.0
 20
0.0
 11
0.0
 21
-2.344
  0
LINE
  5
254
100
AcDbEntity
  8
0
100
AcDbLine
 62
2
  6
CONTINUOUS
 10
0.0
 20
-0.344
 11
9.055
 21
-0.344
  0
LINE
  5
255
100
AcDbEntity
  8
0
100
AcDbLine
 62
2
  6
CONTINUOUS
 10
0.0
 20
-0.594
 11
9.055
 21
-0.594
  0
LINE
  5
256
100
AcDbEntity
  8
0
100
AcDbLine
 62
2
  6
CONTINUOUS
 10
0.0
 20
-0.844
 11
9.055
 21
-0.844
  0
LINE
  5
257
100
AcDbEntity
  8
0
100
AcDbLine
 62
2
  6
CONTINUOUS
 10
0.0
 20
-1.094
 11
9.055
 21
-1.094
  0
LINE
  5
258
100
AcDbEntity
  8
0
100
AcDbLine
 62
2
  6
CONTINUOUS
 10
0.0
 20
-1.344
 11
9.055
 21
-1.344
  0
LINE
  5
259
100
AcDbEntity
  8
0
100
AcDbLine
 62
2
  6
CONTINUOUS
 10
0.0
 20
-1.594
 11
9.055
 21
-1.594
  0
LINE
  5
25A
100
AcDbEntity
  8
0
100
AcDbLine
 62
2
  6
CONTINUOUS
 10
0.0
 20
-1.844
 11
9.055
 21
-1.844
  0
LINE
  5
25B
100
AcDbEntity
  8
0
100
AcDbLine
 62
2
  6
CONTINUOUS
 10
0.0
 20
-2.094
 11
9.055
 21
-2.094
  0
LINE
  5
25C
100
AcDbEntity
  8
0
100
AcDbLine
 62
2
  6
CONTINUOUS
 10
0.0
 20
-2.344
 11
9.055
 21
-2.344
  0
LINE
  5
25D
100
AcDbEntity
  8
0
100
AcDbLine
 62
2
  6
CONTINUOUS
 10
3.055
 20
0.0
 11
3.055
 21
-2.344
  0
LINE
  5
25E
100
AcDbEntity
  8
0
100
AcDbLine
 62
2
  6
CONTINUOUS
 10
9.055
 20
0.0
 11
9.055
 21
-2.344
  0
MTEXT
  5
25F
100
AcDbEntity
  8
0
100
AcDbMText
 62
2
  6
CONTINUOUS
  7
STANDARD
 71
2
 72
1
 10
1.5275
 20
-0.0995
 30
0.0
 11
1.0
 21
0.0
 31
0.0
 44
0.9
  1
Technical Data
 40
0.145
 41
3.248
  0
MTEXT
  5
260
100
AcDbEntity
  8
0
100
AcDbMText
 62
2
  6
CONTINUOUS
  7
STANDARD
 71
2
 72
1
 10
4.555
 20
-0.0995
 30
0.0
 11
1.0
 21
0.0
 31
0.0
 44
0.9
  1
U.S. Units
 40
0.145
 41
2.32
  0
MTEXT
  5
261
100
AcDbEntity
  8
0
100
AcDbMText
 62
2
  6
CONTINUOUS
  7
STANDARD
 71
2
 72
1
 10
7.555
 20
-0.0995
 30
0.0
 11
1.0
 21
0.0
 31
0.0
 44
0.9
  1
Metric Units
 40
0.145
 41
2.784
  0
MTEXT
  5
262
100
AcDbEntity
  8
0
100
AcDbMText
 62
2
  6
CONTINUOUS
  7
STANDARD
 71
2
 72
1
 10
1.5275
 20
-0.4065
 30
0.0
 11
1.0
 21
0.0
 31
0.0
 44
0.9
  1
Cavity
 40
0.125
 41
1.2
  0
MTEXT
  5
263
100
AcDbEntity
  8
0
100
AcDbMText
 62
2
  6
CONTINUOUS
  7
STANDARD
 71
2
 72
1
 10
6.055
 20
-0.4065
 30
0.0
 11
1.0
 21
0.0
 31
0.0
 44
0.9
  1
T-13A
 40
0.125
 41
1.0
  0
MTEXT
  5
264
100
AcDbEntity
  8
0
100
AcDbMText
 62
2
  6
CONTINUOUS
  7
STANDARD
 71
2
 72
1
 10
1.5275
 20
-0.6565
 30
0.0
 11
1.0
 21
0.0
 31
0.0
 44
0.9
  1
Body Features
 40
0.125
 41
2.6
  0
MTEXT
  5
265
100
AcDbEntity
  8
0
100
AcDbMText
 62
2
  6
CONTINUOUS
  7
STANDARD
 71
2
 72
1
 10
6.055
 20
-0.6565
 30
0.0
 11
1.0
 21
0.0
 31
0.0
 44
0.9
  1
Flow into or out of workport A or B
 40
0.125
 41
7.0
  0
MTEXT
  5
266
100
AcDbEntity
  8
0
100
AcDbMText
 62
2
  6
CONTINUOUS
  7
STANDARD
 71
2
 72
1
 10
1.5275
 20
-0.9065
 30
0.0
 11
1.0
 21
0.0
 31
0.0
 44
0.9
  1
Body Type
 40
0.125
 41
1.8
  0
MTEXT
  5
267
100
AcDbEntity
  8
0
100
AcDbMText
 62
2
  6
CONTINUOUS
  7
STANDARD
 71
2
 72
1
 10
6.055
 20
-0.9065
 30
0.0
 11
1.0
 21
0.0
 31
0.0
 44
0.9
  1
Sandwich
 40
0.125
 41
1.6
  0
MTEXT
  5
268
100
AcDbEntity
  8
0
100
AcDbMText
 62
2
  6
CONTINUOUS
  7
STANDARD
 71
2
 72
1
 10
1.5275
 20
-1.1565
 30
0.0
 11
1.0
 21
0.0
 31
0.0
 44
0.9
  1
Interface
 40
0.125
 41
1.8
  0
MTEXT
  5
269
100
AcDbEntity
  8
0
100
AcDbMText
 62
2
  6
CONTINUOUS
  7
STANDARD
 71
2
 72
1
 10
6.055
 20
-1.1565
 30
0.0
 11
1.0
 21
0.0
 31
0.0
 44
0.9
  1
ISO 03
 40
0.125
 41
1.2
  0
MTEXT
  5
26A
100
AcDbEntity
  8
0
100
AcDbMText
 62
2
  6
CONTINUOUS
  7
STANDARD
 71
2
 72
1
 10
1.5275
 20
-1.4065
 30
0.0
 11
1.0
 21
0.0
 31
0.0
 44
0.9
  1
Open Cavity Quantity
 40
0.125
 41
4.0
  0
MTEXT
  5
26B
100
AcDbEntity
  8
0
100
AcDbMText
 62
2
  6
CONTINUOUS
  7
STANDARD
 71
2
 72
1
 10
6.055
 20
-1.4065
 30
0.0
 11
1.0
 21
0.0
 31
0.0
 44
0.9
  1
1
 40
0.125
 41
0.2
  0
MTEXT
  5
26C
100
AcDbEntity
  8
0
100
AcDbMText
 62
2
  6
CONTINUOUS
  7
STANDARD
 71
2
 72
1
 10
1.5275
 20
-1.6565
 30
0.0
 11
1.0
 21
0.0
 31
0.0
 44
0.9
  1
Stack Height
 40
0.125
 41
2.4
  0
MTEXT
  5
26D
100
AcDbEntity
  8
0
100
AcDbMText
 62
2
  6
CONTINUOUS
  7
STANDARD
 71
2
 72
1
 10
4.555
 20
-1.6565
 30
0.0
 11
1.0
 21
0.0
 31
0.0
 44
0.9
  1
1.75 in.
 40
0.125
 41
1.6
  0
MTEXT
  5
26E
100
AcDbEntity
  8
0
100
AcDbMText
 62
2
  6
CONTINUOUS
  7
STANDARD
 71
2
 72
1
 10
7.555
 20
-1.6565
 30
0.0
 11
1.0
 21
0.0
 31
0.0
 44
0.9
  1
44,5 mm
 40
0.125
 41
1.4
  0
MTEXT
  5
26F
100
AcDbEntity
  8
0
100
AcDbMText
 62
2
  6
CONTINUOUS
  7
STANDARD
 71
2
 72
1
 10
1.5275
 20
-1.9065
 30
0.0
 11
1.0
 21
0.0
 31
0.0
 44
0.9
  1
Weight
 40
0.125
 41
1.2
  0
MTEXT
  5
270
100
AcDbEntity
  8
0
100
AcDbMText
 62
2
  6
CONTINUOUS
  7
STANDARD
 71
2
 72
1
 10
4.555
 20
-1.9065
 30
0.0
 11
1.0
 21
0.0
 31
0.0
 44
0.9
  1
0.948 lb.
 40
0.125
 41
1.8
  0
MTEXT
  5
271
100
AcDbEntity
  8
0
100
AcDbMText
 62
2
  6
CONTINUOUS
  7
STANDARD
 71
2
 72
1
 10
7.555
 20
-1.9065
 30
0.0
 11
1.0
 21
0.0
 31
0.0
 44
0.9
  1
0,430 kg.
 40
0.125
 41
1.8
  0
MTEXT
  5
272
100
AcDbEntity
  8
0
100
AcDbMText
 62
2
  6
CONTINUOUS
  7
STANDARD
 71
2
 72
1
 10
1.5275
 20
-2.1565
 30
0.0
 11
1.0
 21
0.0
 31
0.0
 44
0.9
  1
Seal Plate Included (see notes)
 40
0.125
 41
6.2
  0
MTEXT
  5
273
100
AcDbEntity
  8
0
100
AcDbMText
 62
2
  6
CONTINUOUS
  7
STANDARD
 71
2
 72
1
 10
6.055
 20
-2.1565
 30
0.0
 11
1.0
 21
0.0
 31
0.0
 44
0.9
  1
Yes
 40
0.125
 41
0.6
  0
ENDBLK
  5
274
100
AcDbEntity
  8
0
  6
BYBLOCK
 62
0
100
AcDbBlockEnd
  0
ENDSEC
  0
SECTION
  2
ENTITIES
  0
IMAGE
  5
275
100
AcDbEntity
  8
0
100
AcDbRasterImage
 62
7
  6
CONTINUOUS
 10
19.2297077316
 20
0.3094318264
 30
0.0
 11
0.0066666667
 21
0.0
 31
0.0
 12
0.0
 22
0.0066666667
 32
0.0
 13
369.0
 23
92.0
340
       3EC
 70
9
280
0
281
50
282
50
283
0
360
       3E6
 71
1
 91
2
 14
-0.5
 24
-0.5
 14
368.5
 24
91.5
  0
INSERT
  5
276
100
AcDbEntity
  8
0
100
AcDbBlockReference
 62
2
  6
CONTINUOUS
  2
SUN_FIRST_THIRD_ANGLE_BL0
 10
20.4816717061
 20
1.2289683772
  0
ACAD_TABLE
  5
277
100
AcDbEntity
  8
0
 62
2
  6
CONTINUOUS
100
AcDbBlockReference
  2
*T1
 10
12.42375
 20
0.30125
 30
0.0
100
AcDbTable
342
       3EE
343
212
 11
1.0
 21
0.0
 31
0.0
 90
6
 91
4
 92
6
 93
20
 94
0
 95
0
 96
0
 70
1
 41
0.0
141
0.525
141
0.1
141
0.525
141
0.1
142
4.1
142
1.1
142
0.7
142
0.5
142
0.4
142
2.475
171
1
172
0
173
0
174
0
175
1
176
1
 91
33
178
0
145
0.0
301
CELL_VALUE
 90
4
  1
T-13A Sandwich ISO 03\PFlow into or out of workport A or B
304
ACVALUE_END
170
2
140
0.125
171
1
172
0
173
0
174
0
175
1
176
1
 91
33
178
0
145
0.0
301
CELL_VALUE
 90
4
  1
Sep-23-21
304
ACVALUE_END
170
5
140
0.125
171
1
172
0
173
0
174
0
175
1
176
1
 91
33
178
0
145
0.0
301
CELL_VALUE
 90
4
  1
2.000
304
ACVALUE_END
170
5
140
0.125
171
1
172
0
173
0
174
0
175
1
176
1
 91
33
178
0
145
0.0
301
CELL_VALUE
 90
4
  1
C
304
ACVALUE_END
170
5
140
0.125
171
1
172
0
173
0
174
0
175
1
176
1
 91
33
178
0
145
0.0
301
CELL_VALUE
 90
4
  1
2
304
ACVALUE_END
170
5
140
0.125
171
1
172
0
173
0
174
0
175
1
176
1
 91
33
178
0
145
0.0
301
CELL_VALUE
 90
4
  1
 
304
ACVALUE_END
170
1
140
0.125
171
1
172
0
173
0
174
0
175
1
176
1
 91
33
178
0
145
0.0
301
CELL_VALUE
 90
4
  1
DESCRIPTION
304
ACVALUE_END
170
1
140
0.06
171
1
172
0
173
0
174
0
175
1
176
1
 91
33
178
0
145
0.0
301
CELL_VALUE
 90
4
  1
DATE
304
ACVALUE_END
170
1
140
0.06
171
1
172
0
173
0
174
0
175
1
176
1
 91
33
178
0
145
0.0
301
CELL_VALUE
 90
4
  1
SCALE
304
ACVALUE_END
170
1
140
0.06
171
1
172
0
173
0
174
0
175
1
176
1
 91
33
178
0
145
0.0
301
CELL_VALUE
 90
4
  1
DWG SIZE
304
ACVALUE_END
170
1
140
0.06
171
1
172
0
173
0
174
0
175
1
176
1
 91
33
178
0
145
0.0
301
CELL_VALUE
 90
4
  1
SHEET
304
ACVALUE_END
170
1
140
0.06
171
1
172
0
173
0
174
0
175
1
176
1
 91
33
178
0
145
0.0
301
CELL_VALUE
 90
4
  1
 
304
ACVALUE_END
170
1
140
0.125
171
1
172
0
173
0
174
0
175
1
176
1
 91
33
178
0
145
0.0
301
CELL_VALUE
 90
4
  1
X5X
304
ACVALUE_END
170
5
140
0.125
171
1
172
0
173
0
174
0
175
4
176
1
 91
33
178
0
145
0.0
301
CELL_VALUE
 90
4
  1
ALL DIMENSIONS IN INCH\PVIEWS ARE THIRD ANGLE
304
ACVALUE_END
170
5
140
0.12
171
1
172
0
173
1
174
0
175
1
176
1
 91
1
178
0
145
0.0
170
1
171
1
172
0
173
1
174
0
175
1
176
1
 91
1
178
0
145
0.0
170
1
171
1
172
0
173
1
174
0
175
1
176
1
 91
1
178
0
145
0.0
170
5
171
1
172
0
173
0
174
0
175
1
176
1
 91
33
178
0
145
0.0
301
CELL_VALUE
 90
4
  1
 
304
ACVALUE_END
170
1
140
0.125
171
1
172
0
173
0
174
0
175
1
176
1
 91
33
178
0
145
0.0
301
CELL_VALUE
 90
4
  1
MODEL
304
ACVALUE_END
170
1
140
0.06
171
1
172
0
173
0
174
0
175
1
176
1
 91
33
178
0
145
0.0
301
CELL_VALUE
 90
4
  1
 
304
ACVALUE_END
170
1
140
0.125
171
1
172
0
173
0
174
0
175
1
176
1
 91
33
178
0
145
0.0
301
CELL_VALUE
 90
4
  1
 
304
ACVALUE_END
170
1
140
0.125
171
1
172
0
173
0
174
0
175
1
176
1
 91
33
178
0
145
0.0
301
CELL_VALUE
 90
4
  1
 
304
ACVALUE_END
170
1
140
0.125
171
1
172
0
173
0
174
0
175
1
176
1
 91
33
178
0
145
0.0
301
CELL_VALUE
 90
4
  1
 
304
ACVALUE_END
170
1
140
0.125
171
1
172
0
173
0
174
0
175
1
176
1
 91
33
178
0
145
0.0
301
CELL_VALUE
 90
4
  1
 
304
ACVALUE_END
170
1
140
0.125
  0
ACAD_TABLE
  5
278
100
AcDbEntity
  8
0
 62
2
  6
CONTINUOUS
100
AcDbBlockReference
  2
*T2
 10
12.4237499994
 20
16.47875
 30
0.0
100
AcDbTable
342
       3ED
343
213
 11
1.0
 21
0.0
 31
0.0
 90
22
 91
9
 92
3
 93
16
 94
0
 95
0
 96
0
 41
0.028
141
0.344
141
0.25
141
0.25
141
0.25
141
0.25
141
0.25
141
0.25
141
0.25
141
0.25
142
3.055
142
3.0
142
3.0
171
1
172
0
173
0
174
0
175
1
176
1
 91
33
178
0
145
0.0
301
CELL_VALUE
 90
4
  1
Technical Data
304
ACVALUE_END
170
5
140
0.145
171
1
172
0
173
0
174
0
175
1
176
1
 91
33
178
0
145
0.0
301
CELL_VALUE
 90
4
  1
U.S. Units
304
ACVALUE_END
170
5
140
0.145
171
1
172
0
173
0
174
0
175
1
176
1
 91
33
178
0
145
0.0
301
CELL_VALUE
 90
4
  1
Metric Units
304
ACVALUE_END
170
5
140
0.145
171
1
172
0
173
0
174
0
175
1
176
1
 91
33
178
0
145
0.0
301
CELL_VALUE
 90
4
  1
Cavity
304
ACVALUE_END
170
5
140
0.125
171
1
172
0
173
0
174
0
175
2
176
1
 91
33
178
0
145
0.0
301
CELL_VALUE
 90
4
  1
T-13A
304
ACVALUE_END
170
5
140
0.125
171
1
172
0
173
1
174
0
175
1
176
1
 91
1
178
0
145
0.0
170
1
171
1
172
0
173
0
174
0
175
1
176
1
 91
33
178
0
145
0.0
301
CELL_VALUE
 90
4
  1
Body Features
304
ACVALUE_END
170
5
140
0.125
171
1
172
0
173
0
174
0
175
2
176
1
 91
33
178
0
145
0.0
301
CELL_VALUE
 90
4
  1
Flow into or out of workport A or B
304
ACVALUE_END
170
5
140
0.125
171
1
172
0
173
1
174
0
175
1
176
1
 91
1
178
0
145
0.0
170
1
171
1
172
0
173
0
174
0
175
1
176
1
 91
33
178
0
145
0.0
301
CELL_VALUE
 90
4
  1
Body Type
304
ACVALUE_END
170
5
140
0.125
171
1
172
0
173
0
174
0
175
2
176
1
 91
33
178
0
145
0.0
301
CELL_VALUE
 90
4
  1
Sandwich
304
ACVALUE_END
170
5
140
0.125
171
1
172
0
173
1
174
0
175
1
176
1
 91
1
178
0
145
0.0
170
1
171
1
172
0
173
0
174
0
175
1
176
1
 91
33
178
0
145
0.0
301
CELL_VALUE
 90
4
  1
Interface
304
ACVALUE_END
170
5
140
0.125
171
1
172
0
173
0
174
0
175
2
176
1
 91
33
178
0
145
0.0
301
CELL_VALUE
 90
4
  1
ISO 03
304
ACVALUE_END
170
5
140
0.125
171
1
172
0
173
1
174
0
175
1
176
1
 91
1
178
0
145
0.0
170
1
171
1
172
0
173
0
174
0
175
1
176
1
 91
33
178
0
145
0.0
301
CELL_VALUE
 90
4
  1
Open Cavity Quantity
304
ACVALUE_END
170
5
140
0.125
171
1
172
0
173
0
174
0
175
2
176
1
 91
33
178
0
145
0.0
301
CELL_VALUE
 90
4
  1
1
304
ACVALUE_END
170
5
140
0.125
171
1
172
0
173
1
174
0
175
1
176
1
 91
1
178
0
145
0.0
170
1
171
1
172
0
173
0
174
0
175
1
176
1
 91
33
178
0
145
0.0
301
CELL_VALUE
 90
4
  1
Stack Height
304
ACVALUE_END
170
5
140
0.125
171
1
172
0
173
0
174
0
175
1
176
1
 91
33
178
0
145
0.0
301
CELL_VALUE
 90
4
  1
1.75 in.
304
ACVALUE_END
170
5
140
0.125
171
1
172
0
173
0
174
0
175
1
176
1
 91
33
178
0
145
0.0
301
CELL_VALUE
 90
4
  1
44,5 mm
304
ACVALUE_END
170
5
140
0.125
171
1
172
0
173
0
174
0
175
1
176
1
 91
33
178
0
145
0.0
301
CELL_VALUE
 90
4
  1
Weight
304
ACVALUE_END
170
5
140
0.125
171
1
172
0
173
0
174
0
175
1
176
1
 91
33
178
0
145
0.0
301
CELL_VALUE
 90
4
  1
0.948 lb.
304
ACVALUE_END
170
5
140
0.125
171
1
172
0
173
0
174
0
175
1
176
1
 91
33
178
0
145
0.0
301
CELL_VALUE
 90
4
  1
0,430 kg.
304
ACVALUE_END
170
5
140
0.125
171
1
172
0
173
0
174
0
175
1
176
1
 91
33
178
0
145
0.0
301
CELL_VALUE
 90
4
  1
Seal Plate Included (see notes)
304
ACVALUE_END
170
5
140
0.125
171
1
172
0
173
0
174
0
175
2
176
1
 91
33
178
0
145
0.0
301
CELL_VALUE
 90
4
  1
Yes
304
ACVALUE_END
170
5
140
0.125
171
1
172
0
173
1
174
0
175
1
176
1
 91
1
178
0
145
0.0
170
1
  0
MTEXT
  5
279
100
AcDbEntity
  8
0
100
AcDbMText
 62
2
  6
CONTINUOUS
  7
STANDARD
 71
1
 72
1
 10
0.52125
 20
5.75995
 30
0.0
 11
1.0
 21
0.0
 31
0.0
 44
0.6
  3
Notes\P \P1. Stack height value in technical\P   data table includes seal retainer\P   plate.\P2. Important: Carefully consider\P   the maximum system pressure. The\P   pressure rating of the manifold is\P   dependent on the manifold material,\P   wi
  3
th the port type/size a secondary\P   consideration. Manifolds\P   constructed of aluminum are not\P   rated for pressures higher than\P   3000 psi (210 bar), regardless of\P   the port type/size specified.\P3. Items without balloons are\P   shipped 
  1
loose.
 40
0.1
 41
3.04
  0
LINE
  5
27A
100
AcDbEntity
  8
0
100
AcDbLine
 62
7
  6
CONTINUOUS
 10
0.30125
 20
0.30125
 11
0.30125
 21
16.69875
  0
LINE
  5
27B
100
AcDbEntity
  8
0
100
AcDbLine
 62
7
  6
CONTINUOUS
 10
0.30125
 20
0.30125
 11
21.69875
 21
0.30125
  0
LINE
  5
27C
100
AcDbEntity
  8
0
100
AcDbLine
 62
7
  6
CONTINUOUS
 10
0.30125
 20
16.69875
 11
21.69875
 21
16.69875
  0
LINE
  5
27D
100
AcDbEntity
  8
0
100
AcDbLine
 62
7
  6
CONTINUOUS
 10
21.69875
 20
0.30125
 11
21.69875
 21
16.69875
  0
LINE
  5
27E
100
AcDbEntity
  8
0
100
AcDbLine
 62
7
  6
CONTINUOUS
 10
6.8471165491
 20
9.1142629387
 11
6.8471165491
 21
7.4238926426
  0
LINE
  5
27F
100
AcDbEntity
  8
0
100
AcDbLine
 62
7
  6
CONTINUOUS
 10
6.8909571863
 20
9.094609745
 11
6.8909571863
 21
7.4042394488
  0
LINE
  5
280
100
AcDbEntity
  8
0
100
AcDbLine
 62
7
  6
CONTINUOUS
 10
6.9866464733
 20
6.8722559104
 11
6.9348955217
 21
6.93588641
  0
LINE
  5
281
100
AcDbEntity
  8
0
100
AcDbLine
 62
7
  6
CONTINUOUS
 10
7.0951786708
 20
6.5353511874
 11
7.0951786708
 21
9.9160917798
  0
LINE
  5
282
100
AcDbEntity
  8
0
100
AcDbLine
 62
7
  6
CONTINUOUS
 10
7.5003752798
 20
10.4098194632
 11
7.0251839051
 21
9.9508198148
  0
LINE
  5
283
100
AcDbEntity
  8
0
100
AcDbLine
 62
7
  6
CONTINUOUS
 10
7.5602626846
 20
10.4655536624
 11
7.0850713099
 21
10.006554014
  0
LINE
  5
284
100
AcDbEntity
  8
0
100
AcDbLine
 62
7
  6
CONTINUOUS
 10
7.5620950907
 20
10.4672913524
 11
7.5602626846
 21
10.4655536624
  0
LINE
  5
285
100
AcDbEntity
  8
0
100
AcDbLine
 62
7
  6
CONTINUOUS
 10
7.5020577956
 20
10.4114147558
 11
7.5003752798
 21
10.4098194632
  0
LINE
  5
286
100
AcDbEntity
  8
0
100
AcDbLine
 62
7
  6
CONTINUOUS
 10
7.5003752798
 20
10.4098194632
 11
7.5602465861
 21
10.4655709596
  0
LINE
  5
287
100
AcDbEntity
  8
0
100
AcDbLine
 62
7
  6
CONTINUOUS
 10
7.0251839051
 20
9.9508198148
 11
7.0850713099
 21
10.006554014
  0
LINE
  5
288
100
AcDbEntity
  8
0
100
AcDbLine
 62
7
  6
CONTINUOUS
 10
7.0951786708
 20
9.9160917798
 11
7.9751627226
 21
10.7660911525
  0
LINE
  5
289
100
AcDbEntity
  8
0
100
AcDbLine
 62
4
  6
CONTINUOUS
 10
7.51709037
 20
9.913627
 11
7.5585013821
 21
9.9536269685
  0
LINE
  5
28A
100
AcDbEntity
  8
0
100
AcDbLine
 62
4
  6
CONTINUOUS
 10
8.0766337414
 20
9.8641045764
 11
8.0766337169
 21
9.8928287055
  0
LINE
  5
28B
100
AcDbEntity
  8
0
100
AcDbLine
 62
4
  6
CONTINUOUS
 10
8.0766337414
 20
9.8641045764
 11
8.147032462
 21
9.9321045228
  0
LINE
  5
28C
100
AcDbEntity
  8
0
100
AcDbLine
 62
4
  6
CONTINUOUS
 10
8.1698085177
 20
9.9541045045
 11
8.2112195298
 21
9.994104473
  0
LINE
  5
28D
100
AcDbEntity
  8
0
100
AcDbLine
 62
4
  6
CONTINUOUS
 10
8.1642605634
 20
9.8687455936
 11
8.2056715755
 21
9.9087455621
  0
LINE
  5
28E
100
AcDbEntity
  8
0
100
AcDbLine
 62
4
  6
CONTINUOUS
 10
8.307812116
 20
9.9874057544
 11
8.2664011039
 21
9.9474057859
  0
LINE
  5
28F
100
AcDbEntity
  8
0
100
AcDbLine
 62
4
  6
CONTINUOUS
 10
8.2415346323
 20
9.8633866188
 11
8.2829456445
 21
9.9033865872
  0
LINE
  5
290
100
AcDbEntity
  8
0
100
AcDbLine
 62
4
  6
CONTINUOUS
 10
8.3340159142
 20
9.9427166829
 11
8.3754269263
 21
9.9827166514
  0
LINE
  5
291
100
AcDbEntity
  8
0
100
AcDbLine
 62
4
  6
CONTINUOUS
 10
8.3195021957
 20
9.8686975079
 11
8.3201956901
 21
9.8793673718
  0
LINE
  5
292
100
AcDbEntity
  8
0
100
AcDbLine
 62
4
  6
CONTINUOUS
 10
8.436800288
 20
9.8819987735
 11
8.4361067936
 21
9.8713289095
  0
LINE
  5
293
100
AcDbEntity
  8
0
100
AcDbLine
 62
4
  6
CONTINUOUS
 10
8.5686120987
 20
9.9693192142
 11
8.5272010866
 21
9.9293192457
  0
LINE
  5
294
100
AcDbEntity
  8
0
100
AcDbLine
 62
4
  6
CONTINUOUS
 10
8.5534048858
 20
9.8846301751
 11
8.5119938737
 21
9.8446302067
  0
LINE
  5
295
100
AcDbEntity
  8
0
100
AcDbLine
 62
4
  6
CONTINUOUS
 10
8.6431121901
 20
9.9212807834
 11
8.6845232022
 21
9.9612807518
  0
LINE
  5
296
100
AcDbEntity
  8
0
100
AcDbLine
 62
4
  6
CONTINUOUS
 10
8.797660328
 20
9.9105628336
 11
8.8390713401
 21
9.9505628021
  0
LINE
  5
297
100
AcDbEntity
  8
0
100
AcDbLine
 62
4
  6
CONTINUOUS
 10
8.8238641271
 20
9.865873763
 11
8.782453115
 21
9.8258737946
  0
LINE
  5
298
100
AcDbEntity
  8
0
100
AcDbLine
 62
4
  6
CONTINUOUS
 10
8.9094435729
 20
9.938537165
 11
8.9025417391
 21
9.9318705052
  0
LINE
  5
299
100
AcDbEntity
  8
0
100
AcDbLine
 62
7
  6
CONTINUOUS
 10
6.8471165491
 20
7.4238926426
 11
6.8909571863
 21
7.4042394488
  0
LINE
  5
29A
100
AcDbEntity
  8
0
100
AcDbLine
 62
4
  6
CONTINUOUS
 10
8.6285984715
 20
9.8472616083
 11
8.6292919659
 21
9.8579314723
  0
LINE
  5
29B
100
AcDbEntity
  8
0
100
AcDbLine
 62
4
  6
CONTINUOUS
 10
8.9011381961
 20
9.8605147882
 11
8.859727184
 21
9.8205148197
  0
LINE
  5
29C
100
AcDbEntity
  8
0
100
AcDbLine
 62
4
  6
CONTINUOUS
 10
9.1868046504
 20
9.9264474151
 11
9.1453936383
 21
9.8864474466
  0
LINE
  5
29D
100
AcDbEntity
  8
0
100
AcDbLine
 62
4
  6
CONTINUOUS
 10
9.2613047417
 20
9.8784089843
 11
9.3027157538
 21
9.9184089528
  0
LINE
  5
29E
100
AcDbEntity
  8
0
100
AcDbLine
 62
4
  6
CONTINUOUS
 10
9.9262834067
 20
10.4807290338
 11
9.9676944188
 21
10.5207290023
  0
LINE
  5
29F
100
AcDbEntity
  8
0
100
AcDbLine
 62
4
  6
CONTINUOUS
 10
8.3201956901
 20
9.8793673718
 11
8.3402077018
 21
9.8886974921
  0
LINE
  5
2A0
100
AcDbEntity
  8
0
100
AcDbLine
 62
4
  6
CONTINUOUS
 10
8.4361067936
 20
9.8713289095
 11
8.4160947819
 21
9.8619987893
  0
LINE
  5
2A1
100
AcDbEntity
  8
0
100
AcDbLine
 62
4
  6
CONTINUOUS
 10
8.6292919659
 20
9.8579314723
 11
8.6493039776
 21
9.8672615926
  0
LINE
  5
2A2
100
AcDbEntity
  8
0
100
AcDbLine
 62
4
  6
CONTINUOUS
 10
8.0766337414
 20
9.8641045764
 11
8.1321245222
 21
9.8889804051
  0
LINE
  5
2A3
100
AcDbEntity
  8
0
100
AcDbLine
 62
4
  6
CONTINUOUS
 10
9.7068944361
 20
10.5388155425
 11
9.6171871309
 21
10.5021649334
  0
LINE
  5
2A4
100
AcDbEntity
  8
0
100
AcDbLine
 62
4
  6
CONTINUOUS
 10
8.2250066464
 20
9.9574218068
 11
8.307812116
 21
9.9874057544
  0
LINE
  5
2A5
100
AcDbEntity
  8
0
100
AcDbLine
 62
7
  6
CONTINUOUS
 10
11.441845089
 20
6.2339088475
 11
7.0951786708
 21
6.5353511874
  0
LINE
  5
2A6
100
AcDbEntity
  8
0
100
AcDbLine
 62
4
  6
CONTINUOUS
 10
9.3385788106
 20
9.8730500094
 11
9.3799898228
 21
9.9130499779
  0
LINE
  5
2A7
100
AcDbEntity
  8
0
100
AcDbLine
 62
4
  6
CONTINUOUS
 10
10.0421945101
 20
10.4726905715
 11
10.0767036867
 21
10.5060238784
  0
LINE
  5
2A8
100
AcDbEntity
  8
0
100
AcDbLine
 62
4
  6
CONTINUOUS
 10
10.1539777556
 20
10.5006649035
 11
10.1194685791
 21
10.4673315966
  0
LINE
  5
2A9
100
AcDbEntity
  8
0
100
AcDbLine
 62
4
  6
CONTINUOUS
 10
9.602152771
 20
9.8976429251
 11
9.5607417589
 21
9.8576429566
  0
LINE
  5
2AA
100
AcDbEntity
  8
0
100
AcDbLine
 62
4
  6
CONTINUOUS
 10
9.6656231701
 20
9.8789506282
 11
9.6759759231
 21
9.8889506203
  0
LINE
  5
2AB
100
AcDbEntity
  8
0
100
AcDbLine
 62
4
  6
CONTINUOUS
 10
9.654576922
 20
9.8582807715
 11
9.6649296744
 21
9.868280763
  0
LINE
  5
2AC
100
AcDbEntity
  8
0
100
AcDbLine
 62
4
  6
CONTINUOUS
 10
10.1981296369
 20
10.4833123497
 11
10.2181416485
 21
10.49264247
  0
LINE
  5
2AD
100
AcDbEntity
  8
0
100
AcDbLine
 62
4
  6
CONTINUOUS
 10
10.3140407403
 20
10.4752738874
 11
10.2940287286
 21
10.4659437671
  0
LINE
  5
2AE
100
AcDbEntity
  8
0
100
AcDbLine
 62
4
  6
CONTINUOUS
 10
10.7877159712
 20
10.5228090624
 11
10.7677039595
 21
10.5134789422
  0
LINE
  5
2AF
100
AcDbEntity
  8
0
100
AcDbLine
 62
7
  6
CONTINUOUS
 10
11.5923533779
 20
6.525424998
 11
13.1919266935
 21
6.4144942118
  0
LINE
  5
2B0
100
AcDbEntity
  8
0
100
AcDbLine
 62
7
  6
CONTINUOUS
 10
7.0951786708
 20
6.839236975
 11
7.0331832602
 21
6.8435363713
  0
LINE
  5
2B1
100
AcDbEntity
  8
0
100
AcDbLine
 62
4
  6
CONTINUOUS
 10
8.2112195298
 20
9.994104473
 11
8.2250066464
 21
9.9574218068
  0
LINE
  5
2B2
100
AcDbEntity
  8
0
100
AcDbLine
 62
4
  6
CONTINUOUS
 10
10.515869741
 20
10.5202257466
 11
10.5572807531
 21
10.560225715
  0
LINE
  5
2B3
100
AcDbEntity
  8
0
100
AcDbLine
 62
4
  6
CONTINUOUS
 10
10.51274076
 20
10.4472033844
 11
10.5196425937
 21
10.4538700442
  0
LINE
  5
2B4
100
AcDbEntity
  8
0
100
AcDbLine
 62
4
  6
CONTINUOUS
 10
10.5931438099
 20
10.5148667717
 11
10.6345548221
 21
10.5548667401
  0
LINE
  5
2B5
100
AcDbEntity
  8
0
100
AcDbLine
 62
4
  6
CONTINUOUS
 10
10.6245240049
 20
10.4751777158
 11
10.5831129928
 21
10.4351777473
  0
LINE
  5
2B6
100
AcDbEntity
  8
0
100
AcDbLine
 62
4
  6
CONTINUOUS
 10
10.7790721428
 20
10.464459766
 11
10.7376611307
 21
10.4244597976
  0
LINE
  5
2B7
100
AcDbEntity
  8
0
100
AcDbLine
 62
4
  6
CONTINUOUS
 10
10.9809011435
 20
10.5094116252
 11
11.0009131552
 21
10.5187417455
  0
LINE
  5
2B8
100
AcDbEntity
  8
0
100
AcDbLine
 62
4
  6
CONTINUOUS
 10
11.096812247
 20
10.5013731629
 11
11.0768002353
 21
10.4920430426
  0
LINE
  5
2B9
100
AcDbEntity
  8
0
100
AcDbLine
 62
4
  6
CONTINUOUS
 10
11.3403741957
 20
10.5166359583
 11
11.2848834149
 21
10.4917601296
  0
LINE
  5
2BA
100
AcDbEntity
  8
0
100
AcDbLine
 62
4
  6
CONTINUOUS
 10
11.1971776865
 20
10.4283187426
 11
11.1143722169
 21
10.398334795
  0
LINE
  5
2BB
100
AcDbEntity
  8
0
100
AcDbLine
 62
7
  6
CONTINUOUS
 10
13.1256347919
 20
6.9865440718
 11
13.0497006196
 21
6.9751972893
  0
LINE
  5
2BC
100
AcDbEntity
  8
0
100
AcDbLine
 62
7
  6
CONTINUOUS
 10
9.2685119663
 20
7.0085458415
 11
9.2604170635
 21
7.0092484484
  0
LINE
  5
2BD
100
AcDbEntity
  8
0
100
AcDbLine
 62
4
  6
CONTINUOUS
 10
10.8636030513
 20
10.4961103596
 11
10.9050140634
 21
10.536110328
  0
LINE
  5
2BE
100
AcDbEntity
  8
0
100
AcDbLine
 62
4
  6
CONTINUOUS
 10
10.8535722342
 20
10.4164213352
 11
10.8949832463
 21
10.4564213037
  0
LINE
  5
2BF
100
AcDbEntity
  8
0
100
AcDbLine
 62
4
  6
CONTINUOUS
 10
11.0881684187
 20
10.4430238665
 11
11.0467574065
 21
10.403023898
  0
LINE
  5
2C0
100
AcDbEntity
  8
0
100
AcDbLine
 62
4
  6
CONTINUOUS
 10
11.1754733047
 20
10.5173539159
 11
11.1340622926
 21
10.4773539475
  0
LINE
  5
2C1
100
AcDbEntity
  8
0
100
AcDbLine
 62
4
  6
CONTINUOUS
 10
11.1143722169
 20
10.398334795
 11
11.155783229
 21
10.4383347635
  0
LINE
  5
2C2
100
AcDbEntity
  8
0
100
AcDbLine
 62
4
  6
CONTINUOUS
 10
11.2527473737
 20
10.5119949411
 11
11.2113363616
 21
10.4719949726
  0
LINE
  5
2C3
100
AcDbEntity
  8
0
100
AcDbLine
 62
7
  6
CONTINUOUS
 10
13.0497006196
 20
6.9751972893
 11
11.450127304
 21
7.0861280755
  0
LINE
  5
2C4
100
AcDbEntity
  8
0
100
AcDbLine
 62
7
  6
CONTINUOUS
 10
6.8909571863
 20
7.4042394488
 11
7.0951786708
 21
7.3900766408
  0
LINE
  5
2C5
100
AcDbEntity
  8
0
100
AcDbLine
 62
4
  6
CONTINUOUS
 10
8.2056715755
 20
9.9087455621
 11
8.2415346323
 21
9.8633866188
  0
LINE
  5
2C6
100
AcDbEntity
  8
0
100
AcDbLine
 62
4
  6
CONTINUOUS
 10
8.8666621271
 20
9.9272134585
 11
8.8749343969
 21
9.9052038587
  0
LINE
  5
2C7
100
AcDbEntity
  8
0
100
AcDbLine
 62
4
  6
CONTINUOUS
 10
10.1974361425
 20
10.4726424857
 11
10.1981296369
 21
10.4833123497
  0
LINE
  5
2C8
100
AcDbEntity
  8
0
100
AcDbLine
 62
4
  6
CONTINUOUS
 10
11.3403741957
 20
10.5166359583
 11
11.2699754751
 21
10.4486360119
  0
LINE
  5
2C9
100
AcDbEntity
  8
0
100
AcDbLine
 62
4
  6
CONTINUOUS
 10
11.2523758152
 20
10.4316360449
 11
11.2109648031
 21
10.3916360764
  0
LINE
  5
2CA
100
AcDbEntity
  8
0
100
AcDbLine
 62
7
  6
CONTINUOUS
 10
13.9102402259
 20
7.1980534713
 11
14.7514386774
 21
7.1397161605
  0
LINE
  5
2CB
100
AcDbEntity
  8
0
100
AcDbLine
 62
7
  6
CONTINUOUS
 10
13.8836892534
 20
7.2296166451
 11
14.7248877049
 21
7.1712793343
  0
LINE
  5
2CC
100
AcDbEntity
  8
0
100
AcDbLine
 62
7
  6
CONTINUOUS
 10
13.457337086
 20
7.3346677119
 11
13.8173299726
 21
7.3097021204
  0
LINE
  5
2CD
100
AcDbEntity
  8
0
100
AcDbLine
 62
7
  6
CONTINUOUS
 10
9.2685122781
 20
7.5109719073
 11
9.2766070728
 21
7.5102692896
  0
LINE
  5
2CE
100
AcDbEntity
  8
0
100
AcDbLine
 62
7
  6
CONTINUOUS
 10
6.8471165491
 20
9.1142629387
 11
6.8909571863
 21
9.094609745
  0
LINE
  5
2CF
100
AcDbEntity
  8
0
100
AcDbLine
 62
4
  6
CONTINUOUS
 10
9.6171871309
 20
10.5021649334
 11
9.6103018499
 21
10.5455142611
  0
LINE
  5
2D0
100
AcDbEntity
  8
0
100
AcDbLine
 62
4
  6
CONTINUOUS
 10
10.3147342347
 20
10.4859437514
 11
10.3140407403
 21
10.4752738874
  0
LINE
  5
2D1
100
AcDbEntity
  8
0
100
AcDbLine
 62
4
  6
CONTINUOUS
 10
11.9614561738
 20
10.4485552178
 11
11.9649070919
 21
10.4518885489
  0
LINE
  5
2D2
100
AcDbEntity
  8
0
100
AcDbLine
 62
4
  6
CONTINUOUS
 10
11.9504099276
 20
10.4278853629
 11
11.9538608445
 21
10.4312186928
  0
LINE
  5
2D3
100
AcDbEntity
  8
0
100
AcDbLine
 62
4
  6
CONTINUOUS
 10
10.7884094656
 20
10.5334789264
 11
10.7877159712
 21
10.5228090624
  0
LINE
  5
2D4
100
AcDbEntity
  8
0
100
AcDbLine
 62
7
  6
CONTINUOUS
 10
11.441845089
 20
9.6146494398
 11
12.3218291408
 21
10.4646488126
  0
LINE
  5
2D5
100
AcDbEntity
  8
0
100
AcDbLine
 62
7
  6
CONTINUOUS
 10
11.6442414276
 20
9.6884426407
 11
12.1194328023
 21
10.1474422891
  0
LINE
  5
2D6
100
AcDbEntity
  8
0
100
AcDbLine
 62
7
  6
CONTINUOUS
 10
13.7706346281
 20
7.8512114888
 11
14.6118330796
 21
7.792874178
  0
LINE
  5
2D7
100
AcDbEntity
  8
0
100
AcDbLine
 62
7
  6
CONTINUOUS
 10
13.7706346281
 20
7.9656303796
 11
14.6118330796
 21
7.9072930689
  0
LINE
  5
2D8
100
AcDbEntity
  8
0
100
AcDbLine
 62
4
  6
CONTINUOUS
 10
8.3319188777
 20
9.8606911028
 11
8.3195021957
 21
9.8686975079
  0
LINE
  5
2D9
100
AcDbEntity
  8
0
100
AcDbLine
 62
4
  6
CONTINUOUS
 10
9.3027157538
 20
9.9184089528
 11
9.3385788106
 21
9.8730500094
  0
LINE
  5
2DA
100
AcDbEntity
  8
0
100
AcDbLine
 62
4
  6
CONTINUOUS
 10
10.9802076491
 20
10.4987417612
 11
10.9809011435
 21
10.5094116252
  0
LINE
  5
2DB
100
AcDbEntity
  8
0
100
AcDbLine
 62
4
  6
CONTINUOUS
 10
11.0975057414
 20
10.5120430269
 11
11.096812247
 21
10.5013731629
  0
LINE
  5
2DC
100
AcDbEntity
  8
0
100
AcDbLine
 62
7
  6
CONTINUOUS
 10
13.1256347919
 20
8.6769143679
 11
13.0497006196
 21
8.6655675854
  0
LINE
  5
2DD
100
AcDbEntity
  8
0
100
AcDbLine
 62
4
  6
CONTINUOUS
 10
8.4243836069
 20
9.8900051794
 11
8.436800288
 21
9.8819987735
  0
LINE
  5
2DE
100
AcDbEntity
  8
0
100
AcDbLine
 62
4
  6
CONTINUOUS
 10
8.6410151535
 20
9.8392552033
 11
8.6285984715
 21
9.8472616083
  0
LINE
  5
2DF
100
AcDbEntity
  8
0
100
AcDbLine
 62
4
  6
CONTINUOUS
 10
8.7334798827
 20
9.8685692799
 11
8.739688222
 21
9.8645660757
  0
LINE
  5
2E0
100
AcDbEntity
  8
0
100
AcDbLine
 62
4
  6
CONTINUOUS
 10
11.3403741957
 20
10.5166359583
 11
11.3403742202
 21
10.4879118292
  0
LINE
  5
2E1
100
AcDbEntity
  8
0
100
AcDbLine
 62
7
  6
CONTINUOUS
 10
13.0497006196
 20
8.6655675854
 11
11.450127304
 21
8.7764983717
  0
LINE
  5
2E2
100
AcDbEntity
  8
0
100
AcDbLine
 62
7
  6
CONTINUOUS
 10
6.8909571863
 20
9.094609745
 11
7.0951786708
 21
9.0804469369
  0
LINE
  5
2E3
100
AcDbEntity
  8
0
100
AcDbLine
 62
4
  6
CONTINUOUS
 10
8.9032352336
 20
9.9425403691
 11
8.9094435729
 21
9.938537165
  0
LINE
  5
2E4
100
AcDbEntity
  8
0
100
AcDbLine
 62
4
  6
CONTINUOUS
 10
10.5555222058
 20
10.4585270909
 11
10.547249936
 21
10.4805366907
  0
LINE
  5
2E5
100
AcDbEntity
  8
0
100
AcDbLine
 62
7
  6
CONTINUOUS
 10
11.441845089
 20
6.2339088475
 11
11.441845089
 21
9.6146494398
  0
LINE
  5
2E6
100
AcDbEntity
  8
0
100
AcDbLine
 62
7
  6
CONTINUOUS
 10
11.450127304
 20
7.0861280755
 11
11.450127304
 21
8.7764983717
  0
LINE
  5
2E7
100
AcDbEntity
  8
0
100
AcDbLine
 62
7
  6
CONTINUOUS
 10
13.8836892534
 20
8.805630001
 11
14.7248877049
 21
8.7472926902
  0
LINE
  5
2E8
100
AcDbEntity
  8
0
100
AcDbLine
 62
7
  6
CONTINUOUS
 10
13.9102402259
 20
8.888485718
 11
14.7514386774
 21
8.8301484073
  0
LINE
  5
2E9
100
AcDbEntity
  8
0
100
AcDbLine
 62
4
  6
CONTINUOUS
 10
8.3477864772
 20
9.8560180283
 11
8.3319188777
 21
9.8606911028
  0
LINE
  5
2EA
100
AcDbEntity
  8
0
100
AcDbLine
 62
4
  6
CONTINUOUS
 10
8.4085160065
 20
9.894678253
 11
8.4243836069
 21
9.8900051794
  0
LINE
  5
2EB
100
AcDbEntity
  8
0
100
AcDbLine
 62
4
  6
CONTINUOUS
 10
8.656882753
 20
9.8345821288
 11
8.6410151535
 21
9.8392552033
  0
LINE
  5
2EC
100
AcDbEntity
  8
0
100
AcDbLine
 62
4
  6
CONTINUOUS
 10
8.7176122823
 20
9.8732423535
 11
8.7334798827
 21
9.8685692799
  0
LINE
  5
2ED
100
AcDbEntity
  8
0
100
AcDbLine
 62
4
  6
CONTINUOUS
 10
9.6649296744
 20
9.868280763
 11
9.6525129921
 21
9.8762871677
  0
LINE
  5
2EE
100
AcDbEntity
  8
0
100
AcDbLine
 62
4
  6
CONTINUOUS
 10
9.6759759231
 20
9.8889506203
 11
9.6697675813
 21
9.8929538221
  0
LINE
  5
2EF
100
AcDbEntity
  8
0
100
AcDbLine
 62
7
  6
CONTINUOUS
 10
13.2438147432
 20
9.5775118545
 11
13.7190061179
 21
10.0365115029
  0
LINE
  5
2F0
100
AcDbEntity
  8
0
100
AcDbLine
 62
7
  6
CONTINUOUS
 10
13.303702148
 20
9.5134712441
 11
13.7788935227
 21
9.9724708924
  0
LINE
  5
2F1
100
AcDbEntity
  8
0
100
AcDbLine
 62
7
  6
CONTINUOUS
 10
13.5754055488
 20
9.040586788
 11
13.9366906851
 21
9.0155315787
  0
LINE
  5
2F2
100
AcDbEntity
  8
0
100
AcDbLine
 62
7
  6
CONTINUOUS
 10
14.1363494765
 20
9.1068904957
 11
14.977547928
 21
9.048553185
  0
LINE
  5
2F3
100
AcDbEntity
  8
0
100
AcDbLine
 62
4
  6
CONTINUOUS
 10
8.8873676332
 20
9.9472134428
 11
8.9032352336
 21
9.9425403691
  0
LINE
  5
2F4
100
AcDbEntity
  8
0
100
AcDbLine
 62
4
  6
CONTINUOUS
 10
11.2109648031
 20
10.3916360764
 11
11.1971776865
 21
10.4283187426
  0
LINE
  5
2F5
100
AcDbEntity
  8
0
100
AcDbLine
 62
7
  6
CONTINUOUS
 10
7.0951786708
 20
9.9160917798
 11
11.441845089
 21
9.6146494398
  0
LINE
  5
2F6
100
AcDbEntity
  8
0
100
AcDbLine
 62
4
  6
CONTINUOUS
 10
8.6762012702
 20
9.833242385
 11
8.656882753
 21
9.8345821288
  0
LINE
  5
2F7
100
AcDbEntity
  8
0
100
AcDbLine
 62
4
  6
CONTINUOUS
 10
8.3671049944
 20
9.8546782846
 11
8.3477864772
 21
9.8560180283
  0
LINE
  5
2F8
100
AcDbEntity
  8
0
100
AcDbLine
 62
4
  6
CONTINUOUS
 10
7.4598283127
 20
9.9283160951
 11
7.5467616403
 21
9.9222872484
  0
LINE
  5
2F9
100
AcDbEntity
  8
0
100
AcDbLine
 62
4
  6
CONTINUOUS
 10
8.8031586211
 20
9.8458737788
 11
8.88043269
 21
9.8405148039
  0
LINE
  5
2FA
100
AcDbEntity
  8
0
100
AcDbLine
 62
4
  6
CONTINUOUS
 10
8.3891974893
 20
9.8960179968
 11
8.4085160065
 21
9.894678253
  0
LINE
  5
2FB
100
AcDbEntity
  8
0
100
AcDbLine
 62
4
  6
CONTINUOUS
 10
8.5051085927
 20
9.8879795344
 11
8.6017011789
 21
9.8812808158
  0
LINE
  5
2FC
100
AcDbEntity
  8
0
100
AcDbLine
 62
4
  6
CONTINUOUS
 10
8.6982937651
 20
9.8745820972
 11
8.7176122823
 21
9.8732423535
  0
LINE
  5
2FD
100
AcDbEntity
  8
0
100
AcDbLine
 62
7
  6
CONTINUOUS
 10
13.2438147432
 20
9.5775118545
 11
11.6442414276
 21
9.6884426407
  0
LINE
  5
2FE
100
AcDbEntity
  8
0
100
AcDbLine
 62
4
  6
CONTINUOUS
 10
8.147032462
 20
9.9321045228
 11
9.0743212895
 21
9.8677968242
  0
LINE
  5
2FF
100
AcDbEntity
  8
0
100
AcDbLine
 62
7
  6
CONTINUOUS
 10
7.0850713099
 20
10.006554014
 11
7.1818814206
 21
9.99984021
  0
LINE
  5
300
100
AcDbEntity
  8
0
100
AcDbLine
 62
4
  6
CONTINUOUS
 10
8.720386259
 20
9.9159218085
 11
8.6431121901
 21
9.9212807834
  0
LINE
  5
301
100
AcDbEntity
  8
0
100
AcDbLine
 62
4
  6
CONTINUOUS
 10
8.4112899832
 20
9.937357708
 11
8.3340159142
 21
9.9427166829
  0
LINE
  5
302
100
AcDbEntity
  8
0
100
AcDbLine
 62
4
  6
CONTINUOUS
 10
9.5607417589
 20
9.8576429566
 11
9.6283565692
 21
9.8529538536
  0
LINE
  5
303
100
AcDbEntity
  8
0
100
AcDbLine
 62
4
  6
CONTINUOUS
 10
8.8666621271
 20
9.9272134585
 11
8.818365834
 21
9.9305628178
  0
LINE
  5
304
100
AcDbEntity
  8
0
100
AcDbLine
 62
4
  6
CONTINUOUS
 10
8.3547214203
 20
9.9627166671
 11
8.4030177134
 21
9.9593673078
  0
LINE
  5
305
100
AcDbEntity
  8
0
100
AcDbLine
 62
4
  6
CONTINUOUS
 10
8.6638176961
 20
9.9412807676
 11
8.7121139892
 21
9.9379314083
  0
LINE
  5
306
100
AcDbEntity
  8
0
100
AcDbLine
 62
4
  6
CONTINUOUS
 10
9.5848981818
 20
9.8809762708
 11
9.6525129921
 21
9.8762871677
  0
LINE
  5
307
100
AcDbEntity
  8
0
100
AcDbLine
 62
4
  6
CONTINUOUS
 10
9.6697675813
 20
9.8929538221
 11
9.602152771
 21
9.8976429251
  0
LINE
  5
308
100
AcDbEntity
  8
0
100
AcDbLine
 62
4
  6
CONTINUOUS
 10
8.3754269263
 20
9.9827166514
 11
8.4527009953
 21
9.9773576765
  0
LINE
  5
309
100
AcDbEntity
  8
0
100
AcDbLine
 62
4
  6
CONTINUOUS
 10
8.5203158056
 20
9.9726685735
 11
8.6169083918
 21
9.9659698549
  0
LINE
  5
30A
100
AcDbEntity
  8
0
100
AcDbLine
 62
4
  6
CONTINUOUS
 10
8.6845232022
 20
9.9612807518
 11
8.7617972711
 21
9.955921777
  0
LINE
  5
30B
100
AcDbEntity
  8
0
100
AcDbLine
 62
4
  6
CONTINUOUS
 10
8.8390713401
 20
9.9505628021
 11
8.8873676332
 21
9.9472134428
  0
LINE
  5
30C
100
AcDbEntity
  8
0
100
AcDbLine
 62
4
  6
CONTINUOUS
 10
10.1477694148
 20
10.5046681062
 11
10.1539777556
 21
10.5006649035
  0
LINE
  5
30D
100
AcDbEntity
  8
0
100
AcDbLine
 62
4
  6
CONTINUOUS
 10
10.2098528235
 20
10.4646360798
 11
10.1974361425
 21
10.4726424857
  0
LINE
  5
30E
100
AcDbEntity
  8
0
100
AcDbLine
 62
4
  6
CONTINUOUS
 10
10.3023175527
 20
10.4939501564
 11
10.3147342347
 21
10.4859437514
  0
LINE
  5
30F
100
AcDbEntity
  8
0
100
AcDbLine
 62
7
  6
CONTINUOUS
 10
12.3218291408
 20
10.160763025
 11
12.3218291408
 21
10.4646488126
  0
LINE
  5
310
100
AcDbEntity
  8
0
100
AcDbLine
 62
4
  6
CONTINUOUS
 10
9.6283565692
 20
9.8529538536
 11
9.654576922
 21
9.8582807715
  0
LINE
  5
311
100
AcDbEntity
  8
0
100
AcDbLine
 62
4
  6
CONTINUOUS
 10
9.6525129921
 20
9.8762871677
 11
9.6656231701
 21
9.8789506282
  0
LINE
  5
312
100
AcDbEntity
  8
0
100
AcDbLine
 62
4
  6
CONTINUOUS
 10
8.6989707052
 20
9.8352359721
 11
8.6762012702
 21
9.833242385
  0
LINE
  5
313
100
AcDbEntity
  8
0
100
AcDbLine
 62
4
  6
CONTINUOUS
 10
8.675524331
 20
9.872588511
 11
8.6982937651
 21
9.8745820972
  0
LINE
  5
314
100
AcDbEntity
  8
0
100
AcDbLine
 62
4
  6
CONTINUOUS
 10
8.3898744294
 20
9.8566718717
 11
8.3671049944
 21
9.8546782846
  0
LINE
  5
315
100
AcDbEntity
  8
0
100
AcDbLine
 62
4
  6
CONTINUOUS
 10
8.8894315612
 20
9.9292070447
 11
8.8666621271
 21
9.9272134585
  0
LINE
  5
316
100
AcDbEntity
  8
0
100
AcDbLine
 62
4
  6
CONTINUOUS
 10
8.3664280552
 20
9.8940244106
 11
8.3891974893
 21
9.8960179968
  0
LINE
  5
317
100
AcDbEntity
  8
0
100
AcDbLine
 62
4
  6
CONTINUOUS
 10
10.5189490993
 20
10.4432001803
 11
10.51274076
 21
10.4472033844
  0
LINE
  5
318
100
AcDbEntity
  8
0
100
AcDbLine
 62
4
  6
CONTINUOUS
 10
10.6835280544
 20
10.5121712548
 11
10.6773197151
 21
10.516174459
  0
LINE
  5
319
100
AcDbEntity
  8
0
100
AcDbLine
 62
4
  6
CONTINUOUS
 10
10.7759927836
 20
10.5414853314
 11
10.7884094656
 21
10.5334789264
  0
LINE
  5
31A
100
AcDbEntity
  8
0
100
AcDbLine
 62
7
  6
CONTINUOUS
 10
13.7922816538
 20
7.3405003375
 11
13.8949488643
 21
7.2142656367
  0
LINE
  5
31B
100
AcDbEntity
  8
0
100
AcDbLine
 62
4
  6
CONTINUOUS
 10
11.2113363616
 20
10.4719949726
 11
11.1754733047
 21
10.5173539159
  0
LINE
  5
31C
100
AcDbEntity
  8
0
100
AcDbLine
 62
7
  6
CONTINUOUS
 10
13.9065749105
 20
8.9885590045
 11
13.9265494014
 21
9.0071491498
  0
LINE
  5
31D
100
AcDbEntity
  8
0
100
AcDbLine
 62
4
  6
CONTINUOUS
 10
11.9538608445
 20
10.4312186928
 11
11.96697102
 21
10.4338821508
  0
LINE
  5
31E
100
AcDbEntity
  8
0
100
AcDbLine
 62
4
  6
CONTINUOUS
 10
11.9649070919
 20
10.4518885489
 11
11.9911274444
 21
10.4572154665
  0
LINE
  5
31F
100
AcDbEntity
  8
0
100
AcDbLine
 62
4
  6
CONTINUOUS
 10
8.7120808816
 20
9.8378994311
 11
8.6989707052
 21
9.8352359721
  0
LINE
  5
320
100
AcDbEntity
  8
0
100
AcDbLine
 62
4
  6
CONTINUOUS
 10
8.6493039776
 20
9.8672615926
 11
8.675524331
 21
9.872588511
  0
LINE
  5
321
100
AcDbEntity
  8
0
100
AcDbLine
 62
4
  6
CONTINUOUS
 10
8.9025417391
 20
9.9318705052
 11
8.8894315612
 21
9.9292070447
  0
LINE
  5
322
100
AcDbEntity
  8
0
100
AcDbLine
 62
4
  6
CONTINUOUS
 10
8.4160947819
 20
9.8619987893
 11
8.3898744294
 21
9.8566718717
  0
LINE
  5
323
100
AcDbEntity
  8
0
100
AcDbLine
 62
4
  6
CONTINUOUS
 10
8.3402077018
 20
9.8886974921
 11
8.3664280552
 21
9.8940244106
  0
LINE
  5
324
100
AcDbEntity
  8
0
100
AcDbLine
 62
4
  6
CONTINUOUS
 10
12.0145738186
 20
10.4198629275
 11
11.9918043845
 21
10.4178693414
  0
LINE
  5
325
100
AcDbEntity
  8
0
100
AcDbLine
 62
4
  6
CONTINUOUS
 10
11.96697102
 20
10.4338821508
 11
11.9897404565
 21
10.4358757394
  0
LINE
  5
326
100
AcDbEntity
  8
0
100
AcDbLine
 62
4
  6
CONTINUOUS
 10
11.9911274444
 20
10.4572154665
 11
12.0138968794
 21
10.4592090535
  0
LINE
  5
327
100
AcDbEntity
  8
0
100
AcDbLine
 62
7
  6
CONTINUOUS
 10
13.7190061179
 20
10.0365115029
 11
12.1194328023
 21
10.1474422891
  0
LINE
  5
328
100
AcDbEntity
  8
0
100
AcDbLine
 62
7
  6
CONTINUOUS
 10
7.5602626846
 20
10.4655536624
 11
7.6570727952
 21
10.4588398584
  0
LINE
  5
329
100
AcDbEntity
  8
0
100
AcDbLine
 62
7
  6
CONTINUOUS
 10
12.171320852
 20
10.1712008103
 11
13.7708941676
 21
10.0602700241
  0
LINE
  5
32A
100
AcDbEntity
  8
0
100
AcDbLine
 62
7
  6
CONTINUOUS
 10
7.6834976004
 20
10.4843642617
 11
7.6121507343
 21
10.4893121836
  0
LINE
  5
32B
100
AcDbEntity
  8
0
100
AcDbLine
 62
4
  6
CONTINUOUS
 10
11.0467574065
 20
10.403023898
 11
10.9694833376
 21
10.4083828729
  0
LINE
  5
32C
100
AcDbEntity
  8
0
100
AcDbLine
 62
4
  6
CONTINUOUS
 10
10.9018685273
 20
10.4130719759
 11
10.8052759411
 21
10.4197706945
  0
LINE
  5
32D
100
AcDbEntity
  8
0
100
AcDbLine
 62
4
  6
CONTINUOUS
 10
10.7376611307
 20
10.4244597976
 11
10.6603870618
 21
10.4298187724
  0
LINE
  5
32E
100
AcDbEntity
  8
0
100
AcDbLine
 62
4
  6
CONTINUOUS
 10
10.5831129928
 20
10.4351777473
 11
10.5348166997
 21
10.4385271066
  0
LINE
  5
32F
100
AcDbEntity
  8
0
100
AcDbLine
 62
4
  6
CONTINUOUS
 10
10.2450389411
 20
10.4586232624
 11
10.2257204239
 21
10.4599630062
  0
LINE
  5
330
100
AcDbEntity
  8
0
100
AcDbLine
 62
4
  6
CONTINUOUS
 10
9.9745796998
 20
10.4773796745
 11
9.8779871136
 21
10.4840783931
  0
LINE
  5
331
100
AcDbEntity
  8
0
100
AcDbLine
 62
4
  6
CONTINUOUS
 10
11.0674629126
 20
10.4230238823
 11
11.0191666195
 21
10.4263732416
  0
LINE
  5
332
100
AcDbEntity
  8
0
100
AcDbLine
 62
4
  6
CONTINUOUS
 10
10.7583666368
 20
10.4444597818
 11
10.7100703437
 21
10.4478091411
  0
LINE
  5
333
100
AcDbEntity
  8
0
100
AcDbLine
 62
4
  6
CONTINUOUS
 10
10.5555222058
 20
10.4585270909
 11
10.6038184989
 21
10.4551777316
  0
LINE
  5
334
100
AcDbEntity
  8
0
100
AcDbLine
 62
4
  6
CONTINUOUS
 10
9.6737722477
 20
10.526821963
 11
9.615816696
 21
10.5308411942
  0
LINE
  5
335
100
AcDbEntity
  8
0
100
AcDbLine
 62
4
  6
CONTINUOUS
 10
10.2257204239
 20
10.4599630062
 11
10.2098528235
 21
10.4646360798
  0
LINE
  5
336
100
AcDbEntity
  8
0
100
AcDbLine
 62
4
  6
CONTINUOUS
 10
10.1319018153
 20
10.5093411807
 11
10.1477694148
 21
10.5046681062
  0
LINE
  5
337
100
AcDbEntity
  8
0
100
AcDbLine
 62
4
  6
CONTINUOUS
 10
10.2864499533
 20
10.4986232309
 11
10.3023175527
 21
10.4939501564
  0
LINE
  5
338
100
AcDbEntity
  8
0
100
AcDbLine
 62
4
  6
CONTINUOUS
 10
10.5348166997
 20
10.4385271066
 11
10.5189490993
 21
10.4432001803
  0
LINE
  5
339
100
AcDbEntity
  8
0
100
AcDbLine
 62
4
  6
CONTINUOUS
 10
10.6993956548
 20
10.5074981812
 11
10.6835280544
 21
10.5121712548
  0
LINE
  5
33A
100
AcDbEntity
  8
0
100
AcDbLine
 62
4
  6
CONTINUOUS
 10
10.7601251841
 20
10.5461584059
 11
10.7759927836
 21
10.5414853314
  0
LINE
  5
33B
100
AcDbEntity
  8
0
100
AcDbLine
 62
4
  6
CONTINUOUS
 10
11.0084919306
 20
10.4860622817
 11
10.9926243302
 21
10.4907353553
  0
LINE
  5
33C
100
AcDbEntity
  8
0
100
AcDbLine
 62
4
  6
CONTINUOUS
 10
10.9926243302
 20
10.4907353553
 11
10.9802076491
 21
10.4987417612
  0
LINE
  5
33D
100
AcDbEntity
  8
0
100
AcDbLine
 62
4
  6
CONTINUOUS
 10
11.0850890594
 20
10.5200494319
 11
11.0975057414
 21
10.5120430269
  0
LINE
  5
33E
100
AcDbEntity
  8
0
100
AcDbLine
 62
7
  6
CONTINUOUS
 10
13.0497006196
 20
6.9751972893
 11
13.0497006196
 21
8.6655675854
  0
LINE
  5
33F
100
AcDbEntity
  8
0
100
AcDbLine
 62
7
  6
CONTINUOUS
 10
13.1256347919
 20
6.9865440718
 11
13.1256347919
 21
8.6769143679
  0
LINE
  5
340
100
AcDbEntity
  8
0
100
AcDbLine
 62
7
  6
CONTINUOUS
 10
11.441845089
 20
6.2339088475
 11
11.7335102112
 21
6.5156357383
  0
LINE
  5
341
100
AcDbEntity
  8
0
100
AcDbLine
 62
4
  6
CONTINUOUS
 10
11.0768002353
 20
10.4920430426
 11
11.0505798819
 21
10.4867161241
  0
LINE
  5
342
100
AcDbEntity
  8
0
100
AcDbLine
 62
4
  6
CONTINUOUS
 10
11.0009131552
 20
10.5187417455
 11
11.0271335077
 21
10.5240686631
  0
LINE
  5
343
100
AcDbEntity
  8
0
100
AcDbLine
 62
4
  6
CONTINUOUS
 10
10.5196425937
 20
10.4538700442
 11
10.5327527717
 21
10.4565335047
  0
LINE
  5
344
100
AcDbEntity
  8
0
100
AcDbLine
 62
4
  6
CONTINUOUS
 10
10.7677039595
 20
10.5134789422
 11
10.7414836061
 21
10.5081520237
  0
LINE
  5
345
100
AcDbEntity
  8
0
100
AcDbLine
 62
4
  6
CONTINUOUS
 10
10.7049270555
 20
10.5428411036
 11
10.7180372319
 21
10.5455045626
  0
LINE
  5
346
100
AcDbEntity
  8
0
100
AcDbLine
 62
4
  6
CONTINUOUS
 10
10.2940287286
 20
10.4659437671
 11
10.2678083752
 21
10.4606168486
  0
LINE
  5
347
100
AcDbEntity
  8
0
100
AcDbLine
 62
4
  6
CONTINUOUS
 10
10.2181416485
 20
10.49264247
 11
10.244362001
 21
10.4979693876
  0
LINE
  5
348
100
AcDbEntity
  8
0
100
AcDbLine
 62
4
  6
CONTINUOUS
 10
10.0767036867
 20
10.5060238784
 11
10.0898138631
 21
10.5086873373
  0
LINE
  5
349
100
AcDbEntity
  8
0
100
AcDbLine
 62
4
  6
CONTINUOUS
 10
11.0505798819
 20
10.4867161241
 11
11.0278104478
 21
10.4847225379
  0
LINE
  5
34A
100
AcDbEntity
  8
0
100
AcDbLine
 62
4
  6
CONTINUOUS
 10
10.5327527717
 20
10.4565335047
 11
10.5555222058
 21
10.4585270909
  0
LINE
  5
34B
100
AcDbEntity
  8
0
100
AcDbLine
 62
4
  6
CONTINUOUS
 10
11.0271335077
 20
10.5240686631
 11
11.0499029427
 21
10.5260622501
  0
LINE
  5
34C
100
AcDbEntity
  8
0
100
AcDbLine
 62
4
  6
CONTINUOUS
 10
10.2678083752
 20
10.4606168486
 11
10.2450389411
 21
10.4586232624
  0
LINE
  5
34D
100
AcDbEntity
  8
0
100
AcDbLine
 62
4
  6
CONTINUOUS
 10
10.7414836061
 20
10.5081520237
 11
10.718714172
 21
10.5061584375
  0
LINE
  5
34E
100
AcDbEntity
  8
0
100
AcDbLine
 62
4
  6
CONTINUOUS
 10
10.244362001
 20
10.4979693876
 11
10.267131436
 21
10.4999629746
  0
LINE
  5
34F
100
AcDbEntity
  8
0
100
AcDbLine
 62
4
  6
CONTINUOUS
 10
10.7180372319
 20
10.5455045626
 11
10.7408066669
 21
10.5474981497
  0
LINE
  5
350
100
AcDbEntity
  8
0
100
AcDbLine
 62
4
  6
CONTINUOUS
 10
10.0898138631
 20
10.5086873373
 11
10.1125832981
 21
10.5106809244
  0
LINE
  5
351
100
AcDbEntity
  8
0
100
AcDbLine
 62
4
  6
CONTINUOUS
 10
10.1125832981
 20
10.5106809244
 11
10.1319018153
 21
10.5093411807
  0
LINE
  5
352
100
AcDbEntity
  8
0
100
AcDbLine
 62
4
  6
CONTINUOUS
 10
10.267131436
 20
10.4999629746
 11
10.2864499533
 21
10.4986232309
  0
LINE
  5
353
100
AcDbEntity
  8
0
100
AcDbLine
 62
4
  6
CONTINUOUS
 10
10.7017980739
 20
10.4698187409
 11
10.7790721428
 21
10.464459766
  0
LINE
  5
354
100
AcDbEntity
  8
0
100
AcDbLine
 62
4
  6
CONTINUOUS
 10
11.0108943497
 20
10.4483828414
 11
11.0881684187
 21
10.4430238665
  0
LINE
  5
355
100
AcDbEntity
  8
0
100
AcDbLine
 62
4
  6
CONTINUOUS
 10
11.2699754751
 20
10.4486360119
 11
10.3426866476
 21
10.5129437105
  0
LINE
  5
356
100
AcDbEntity
  8
0
100
AcDbLine
 62
4
  6
CONTINUOUS
 10
11.9918043845
 20
10.4178693414
 11
11.9724858673
 21
10.4192090851
  0
LINE
  5
357
100
AcDbEntity
  8
0
100
AcDbLine
 62
4
  6
CONTINUOUS
 10
11.0278104478
 20
10.4847225379
 11
11.0084919306
 21
10.4860622817
  0
LINE
  5
358
100
AcDbEntity
  8
0
100
AcDbLine
 62
4
  6
CONTINUOUS
 10
10.9118993444
 20
10.4927610003
 11
10.8153067582
 21
10.4994597189
  0
LINE
  5
359
100
AcDbEntity
  8
0
100
AcDbLine
 62
4
  6
CONTINUOUS
 10
10.718714172
 20
10.5061584375
 11
10.6993956548
 21
10.5074981812
  0
LINE
  5
35A
100
AcDbEntity
  8
0
100
AcDbLine
 62
4
  6
CONTINUOUS
 10
12.0090589738
 20
10.4345359957
 11
11.9897404565
 21
10.4358757394
  0
LINE
  5
35B
100
AcDbEntity
  8
0
100
AcDbLine
 62
4
  6
CONTINUOUS
 10
10.613849316
 20
10.5348667559
 11
10.5365752471
 21
10.5402257308
  0
LINE
  5
35C
100
AcDbEntity
  8
0
100
AcDbLine
 62
4
  6
CONTINUOUS
 10
10.7408066669
 20
10.5474981497
 11
10.7601251841
 21
10.5461584059
  0
LINE
  5
35D
100
AcDbEntity
  8
0
100
AcDbLine
 62
4
  6
CONTINUOUS
 10
11.0499029427
 20
10.5260622501
 11
11.0692214599
 21
10.5247225064
  0
LINE
  5
35E
100
AcDbEntity
  8
0
100
AcDbLine
 62
4
  6
CONTINUOUS
 10
12.0138968794
 20
10.4592090535
 11
12.0332153967
 21
10.4578693098
  0
LINE
  5
35F
100
AcDbEntity
  8
0
100
AcDbLine
 62
7
  6
CONTINUOUS
 10
7.9751627226
 20
10.7660911525
 11
12.3218291408
 21
10.4646488126
  0
LINE
  5
360
100
AcDbEntity
  8
0
100
AcDbLine
 62
4
  6
CONTINUOUS
 10
11.0692214599
 20
10.5247225064
 11
11.0850890594
 21
10.5200494319
  0
LINE
  5
361
100
AcDbEntity
  8
0
100
AcDbLine
 62
4
  6
CONTINUOUS
 10
11.9724858673
 20
10.4192090851
 11
11.9566182669
 21
10.4238821587
  0
LINE
  5
362
100
AcDbEntity
  8
0
100
AcDbLine
 62
4
  6
CONTINUOUS
 10
11.9897404565
 20
10.4358757394
 11
11.9738728561
 21
10.440548813
  0
LINE
  5
363
100
AcDbEntity
  8
0
100
AcDbLine
 62
4
  6
CONTINUOUS
 10
12.0332153967
 20
10.4578693098
 11
12.0490829961
 21
10.4531962353
  0
LINE
  5
364
100
AcDbEntity
  8
0
100
AcDbLine
 62
4
  6
CONTINUOUS
 10
11.9566182669
 20
10.4238821587
 11
11.9504099276
 21
10.4278853629
  0
LINE
  5
365
100
AcDbEntity
  8
0
100
AcDbLine
 62
4
  6
CONTINUOUS
 10
11.9738728561
 20
10.440548813
 11
11.9614561738
 21
10.4485552178
  0
LINE
  5
366
100
AcDbEntity
  8
0
100
AcDbLine
 62
4
  6
CONTINUOUS
 10
12.0490829961
 20
10.4531962353
 11
12.055291337
 21
10.4491930326
  0
LINE
  5
367
100
AcDbEntity
  8
0
100
AcDbLine
 62
4
  6
CONTINUOUS
 10
7.5585013821
 20
9.9536269685
 11
7.4598283127
 21
9.9283160951
  0
LINE
  5
368
100
AcDbEntity
  8
0
100
AcDbLine
 62
7
  6
CONTINUOUS
 10
13.303702148
 20
9.5134712441
 11
13.2438147432
 21
9.5775118545
  0
LINE
  5
369
100
AcDbEntity
  8
0
100
AcDbLine
 62
7
  6
CONTINUOUS
 10
13.9569608787
 20
9.4799137528
 11
13.9569608787
 21
9.0301822308
  0
LINE
  5
36A
100
AcDbEntity
  8
0
100
AcDbLine
 62
7
  6
CONTINUOUS
 10
13.7788935227
 20
6.9529865806
 11
13.303702148
 21
6.4939869322
  0
LINE
  5
36B
100
AcDbEntity
  8
0
100
AcDbLine
 62
7
  6
CONTINUOUS
 10
13.303702148
 20
6.4939869322
 11
13.3020196322
 21
6.4923916396
  0
LINE
  5
36C
100
AcDbEntity
  8
0
100
AcDbLine
 62
7
  6
CONTINUOUS
 10
13.2419823371
 20
6.436515043
 11
13.3020212208
 21
6.4923928912
  0
LINE
  5
36D
100
AcDbEntity
  8
0
100
AcDbLine
 62
7
  6
CONTINUOUS
 10
13.7788935227
 20
9.9724708924
 11
13.7190061179
 21
10.0365115029
  0
LINE
  5
36E
100
AcDbEntity
  8
0
100
AcDbLine
 62
7
  6
CONTINUOUS
 10
13.8174309545
 20
10.031550485
 11
13.8691819061
 21
9.9679199854
  0
LINE
  5
36F
100
AcDbEntity
  8
0
100
AcDbLine
 62
7
  6
CONTINUOUS
 10
14.9565550109
 20
7.2876675943
 11
14.9730027354
 21
7.3155544608
  0
LINE
  5
370
100
AcDbEntity
  8
0
100
AcDbLine
 62
7
  6
CONTINUOUS
 10
15.0563641362
 20
8.9057169077
 11
15.0794365465
 21
8.8502833654
  0
ARC
  5
371
100
AcDbEntity
  8
0
100
AcDbCircle
 62
7
  6
CONTINUOUS
 10
18.2274619094
 20
7.8493283469
 40
3.6160934368
100
AcDbArc
 50
179.0815292162
 51
179.9951434028
  0
ARC
  5
372
100
AcDbEntity
  8
0
100
AcDbCircle
 62
7
  6
CONTINUOUS
 10
17.3612706132
 20
7.9078670431
 40
3.5911005807
100
AcDbArc
 50
179.0783499239
 51
179.9983226951
  0
ARC
  5
373
100
AcDbEntity
  8
0
100
AcDbCircle
 62
7
  6
CONTINUOUS
 10
17.2231495589
 20
7.9078530437
 40
3.452979527
100
AcDbArc
 50
179.9980233072
 51
180.9399035171
  0
ARC
  5
374
100
AcDbEntity
  8
0
100
AcDbCircle
 62
7
  6
CONTINUOUS
 10
18.0643480104
 20
7.8495157329
 40
3.452979527
100
AcDbArc
 50
179.9980233072
 51
180.9399035171
  0
ARC
  5
375
100
AcDbEntity
  8
0
100
AcDbCircle
 62
7
  6
CONTINUOUS
 10
9.7229723157
 20
7.2121876835
 40
0.2566105159
100
AcDbArc
 50
175.87465328
 51
199.5528591107
  0
ARC
  5
376
100
AcDbEntity
  8
0
100
AcDbCircle
 62
7
  6
CONTINUOUS
 10
10.0929604115
 20
7.9169058984
 40
0.2344774275
100
AcDbArc
 50
68.8818672653
 51
86.1040386523
  0
ARC
  5
377
100
AcDbEntity
  8
0
100
AcDbCircle
 62
7
  6
CONTINUOUS
 10
10.3273047691
 20
9.4300328045
 40
0.139148734
100
AcDbArc
 50
213.1514198971
 51
234.8279908192
  0
ARC
  5
378
100
AcDbEntity
  8
0
100
AcDbCircle
 62
7
  6
CONTINUOUS
 10
8.5770470332
 20
7.0747795577
 40
0.139148734
100
AcDbArc
 50
213.1514198971
 51
234.8279908192
  0
SPLINE
  5
379
100
AcDbEntity
  8
0
100
AcDbSpline
 62
7
  6
CONTINUOUS
 70
0
 71
3
 72
25
 73
21
 74
0
 42
0.0000001
 43
0.0000001
 44
0.0000000001
 40
0.0
 40
0.0
 40
0.0
 40
0.0
 40
0.0778911642
 40
0.1545446089
 40
0.229737583
 40
0.3032863461
 40
0.3750153602
 40
0.4447480817
 40
0.5123134122
 40
0.5775519081
 40
0.640311925
 40
0.7004525562
 40
0.7578430724
 40
0.8123665827
 40
0.8639197306
 40
0.9124163721
 40
0.9354976417
 40
0.9577917231
 40
0.9792936456
 40
1.0
 40
1.0
 40
1.0
 40
1.0
 10
15.1528834509
 20
8.3045708497
 30
0.0
 10
15.1528834509
 20
8.3189420011
 30
0.0
 10
15.1526850864
 20
8.3474563788
 30
0.0
 10
15.1517800626
 20
8.3898354332
 30
0.0
 10
15.1502709694
 20
8.4313957513
 30
0.0
 10
15.1481628445
 20
8.4720203108
 30
0.0
 10
15.145461088
 20
8.5116001316
 30
0.0
 10
15.1421738075
 20
8.5500279107
 30
0.0
 10
15.1383093507
 20
8.5871983703
 30
0.0
 10
15.1338791754
 20
8.623009951
 30
0.0
 10
15.1288949737
 20
8.6573652667
 30
0.0
 10
15.1233711521
 20
8.6901708518
 30
0.0
 10
15.1173224894
 20
8.7213374966
 30
0.0
 10
15.1107662758
 20
8.7507808157
 30
0.0
 10
15.1037201783
 20
8.7784207732
 30
0.0
 10
15.0973563719
 20
8.8002352241
 30
0.0
 10
15.0920136807
 20
8.8167113479
 30
0.0
 10
15.0879626917
 20
8.8283675299
 30
0.0
 10
15.0838043302
 20
8.8395193327
 30
0.0
 10
15.080907459
 20
8.8467490911
 30
0.0
 10
15.0794394648
 20
8.8502761759
 30
0.0
  0
SPLINE
  5
37A
100
AcDbEntity
  8
0
100
AcDbSpline
 62
7
  6
CONTINUOUS
 70
0
 71
3
 72
11
 73
7
 74
0
 42
0.0000001
 43
0.0000001
 44
0.0000000001
 40
0.0
 40
0.0
 40
0.0
 40
0.0
 40
0.2715243135
 40
0.5282312124
 40
0.7707769425
 40
1.0
 40
1.0
 40
1.0
 40
1.0
 10
15.0040989006
 20
9.0169900111
 30
0.0
 10
15.0020246691
 20
9.0201047606
 30
0.0
 10
14.9978417345
 20
9.0260680502
 30
0.0
 10
14.9912635269
 20
9.0344169499
 30
0.0
 10
14.9845664302
 20
9.0419060792
 30
0.0
 10
14.9798995436
 20
9.0464435755
 30
0.0
 10
14.977547928
 20
9.048553185
 30
0.0
  0
SPLINE
  5
37B
100
AcDbEntity
  8
0
100
AcDbSpline
 62
7
  6
CONTINUOUS
 70
0
 71
3
 72
22
 73
18
 74
0
 42
0.0000001
 43
0.0000001
 44
0.0000000001
 40
0.0
 40
0.0
 40
0.0
 40
0.0
 40
0.1535110115
 40
0.2278996106
 40
0.3005634045
 40
0.3713875513
 40
0.4402596108
 40
0.5070650662
 40
0.5716888338
 40
0.634022614
 40
0.693966651
 40
0.7514316975
 40
0.8063484885
 40
0.8586682582
 40
0.908368178
 40
0.9554637074
 40
1.0
 40
1.0
 40
1.0
 40
1.0
 10
14.1363494765
 20
9.1068904957
 30
0.0
 10
14.1249132979
 20
9.1032440837
 30
0.0
 10
14.1079881006
 20
9.0976614988
 30
0.0
 10
14.0858101348
 20
9.0898833152
 30
0.0
 10
14.0698118728
 20
9.0840255271
 30
0.0
 10
14.0543069111
 20
9.0780803374
 30
0.0
 10
14.0393290517
 20
9.0720459255
 30
0.0
 10
14.0249130614
 20
9.0659211916
 30
0.0
 10
14.0110945378
 20
9.0597055524
 30
0.0
 10
13.9979095571
 20
9.0533985031
 30
0.0
 10
13.9853931074
 20
9.0470015702
 30
0.0
 10
13.9735798165
 20
9.0405153302
 30
0.0
 10
13.9625018618
 20
9.0339424376
 30
0.0
 10
13.9521887574
 20
9.0272863045
 30
0.0
 10
13.9426674512
 20
9.0205492122
 30
0.0
 10
13.9339591868
 20
9.0137380922
 30
0.0
 10
13.9285602745
 20
9.0090203858
 30
0.0
 10
13.9260111587
 20
9.0066477918
 30
0.0
  0
SPLINE
  5
37C
100
AcDbEntity
  8
0
100
AcDbSpline
 62
7
  6
CONTINUOUS
 70
0
 71
3
 72
23
 73
19
 74
0
 42
0.0000001
 43
0.0000001
 44
0.0000000001
 40
0.0
 40
0.0
 40
0.0
 40
0.0
 40
0.0797341203
 40
0.1575378097
 40
0.2332877783
 40
0.3068661147
 40
0.3781623301
 40
0.4470771462
 40
0.5135239148
 40
0.577439137
 40
0.6387821834
 40
0.6975452296
 40
0.7537528375
 40
0.8074683694
 40
0.8587936407
 40
0.9078682857
 40
0.9548687279
 40
1.0
 40
1.0
 40
1.0
 40
1.0
 10
14.7514386774
 20
7.1397161605
 30
0.0
 10
14.7576540359
 20
7.1425641287
 30
0.0
 10
14.7698941301
 20
7.1482793671
 30
0.0
 10
14.7878802744
 20
7.15703519
 30
0.0
 10
14.8052349456
 20
7.1658755625
 30
0.0
 10
14.8219156487
 20
7.1748017297
 30
0.0
 10
14.8378798673
 20
7.1838153274
 30
0.0
 10
14.8530865804
 20
7.1929160401
 30
0.0
 10
14.867495901
 20
7.2021041949
 30
0.0
 10
14.8810716596
 20
7.2113776763
 30
0.0
 10
14.8937810292
 20
7.2207350091
 30
0.0
 10
14.9055969878
 20
7.2301725311
 30
0.0
 10
14.9164980614
 20
7.2396866751
 30
0.0
 10
14.9264697849
 20
7.2492726341
 30
0.0
 10
14.9355051412
 20
7.2589247438
 30
0.0
 10
14.9436040137
 20
7.2686376133
 30
0.0
 10
14.9507745219
 20
7.2784032688
 30
0.0
 10
14.9550249708
 20
7.2850705987
 30
0.0
 10
14.9569894783
 20
7.28840464
 30
0.0
  0
SPLINE
  5
37D
100
AcDbEntity
  8
0
100
AcDbSpline
 62
7
  6
CONTINUOUS
 70
0
 71
3
 72
9
 73
5
 74
0
 42
0.0000001
 43
0.0000001
 44
0.0000000001
 40
0.0
 40
0.0
 40
0.0
 40
0.0
 40
0.4962161474
 40
1.0
 40
1.0
 40
1.0
 40
1.0
 10
15.0564482823
 20
8.9055147425
 30
0.0
 10
15.0486170814
 20
8.9243247237
 30
0.0
 10
15.0319060602
 20
8.9618492304
 30
0.0
 10
15.0136327788
 20
8.9986322506
 30
0.0
 10
15.0040989006
 20
9.0169900111
 30
0.0
  0
SPLINE
  5
37E
100
AcDbEntity
  8
0
100
AcDbSpline
 62
7
  6
CONTINUOUS
 70
0
 71
3
 72
33
 73
29
 74
0
 42
0.0000001
 43
0.0000001
 44
0.0000000001
 40
0.0
 40
0.0
 40
0.0
 40
0.0
 40
0.0188522592
 40
0.038879724
 40
0.0600708951
 40
0.0824080774
 40
0.1058688264
 40
0.1304251151
 40
0.1560459667
 40
0.1826957082
 40
0.2103361265
 40
0.2389257513
 40
0.268420217
 40
0.2987732787
 40
0.3299356184
 40
0.3618567029
 40
0.3944834373
 40
0.4277614061
 40
0.4616345882
 40
0.4960453155
 40
0.5309351235
 40
0.5662439715
 40
0.6378742842
 40
0.7104423625
 40
0.7834458083
 40
0.8563750987
 40
0.9287297367
 40
1.0
 40
1.0
 40
1.0
 40
1.0
 10
14.9730006166
 20
7.3155510845
 30
0.0
 10
14.9762366435
 20
7.3210376477
 30
0.0
 10
14.982660865
 20
7.3325012348
 30
0.0
 10
14.9919083571
 20
7.3505733607
 30
0.0
 10
15.0010431754
 20
7.3700118811
 30
0.0
 10
15.0100483734
 20
7.3907809525
 30
0.0
 10
15.0189068094
 20
7.4128428608
 30
0.0
 10
15.0276028216
 20
7.4361569378
 30
0.0
 10
15.0361193865
 20
7.4606804889
 30
0.0
 10
15.0444414017
 20
7.4863681988
 30
0.0
 10
15.0525529187
 20
7.5131727595
 30
0.0
 10
15.0604389515
 20
7.5410446385
 30
0.0
 10
15.0680850659
 20
7.5699323147
 30
0.0
 10
15.0754765081
 20
7.5997824057
 30
0.0
 10
15.0826002053
 20
7.6305396384
 30
0.0
 10
15.0894422327
 20
7.6621471416
 30
0.0
 10
15.0959903985
 20
7.6945463695
 30
0.0
 10
15.1022322542
 20
7.7276773589
 30
0.0
 10
15.1081561779
 20
7.7614787515
 30
0.0
 10
15.1137514549
 20
7.7958879223
 30
0.0
 10
15.1190072249
 20
7.8308412036
 30
0.0
 10
15.1255810179
 20
7.8783101641
 30
0.0
 10
15.1328704469
 20
7.9385279398
 30
0.0
 10
15.1400871344
 20
8.0115659376
 30
0.0
 10
15.1457599949
 20
8.0851803283
 30
0.0
 10
15.1498476563
 20
8.1588275769
 30
0.0
 10
15.1523191313
 20
8.2319605612
 30
0.0
 10
15.1528834509
 20
8.2804900899
 30
0.0
 10
15.1528834509
 20
8.3045708497
 30
0.0
  0
SPLINE
  5
37F
100
AcDbEntity
  8
0
100
AcDbSpline
 62
7
  6
CONTINUOUS
 70
0
 71
3
 72
9
 73
5
 74
0
 42
0.0000001
 43
0.0000001
 44
0.0000000001
 40
0.0
 40
0.0
 40
0.0
 40
0.0
 40
0.5160402906
 40
1.0
 40
1.0
 40
1.0
 40
1.0
 10
13.8949488824
 20
7.2142656074
 30
0.0
 10
13.8973695266
 20
7.2112892979
 30
0.0
 10
13.9022534534
 20
7.2056748961
 30
0.0
 10
13.9075620556
 20
7.2004560295
 30
0.0
 10
13.9102402259
 20
7.1980534713
 30
0.0
  0
SPLINE
  5
380
100
AcDbEntity
  8
0
100
AcDbSpline
 62
7
  6
CONTINUOUS
 70
0
 71
3
 72
9
 73
5
 74
0
 42
0.0000001
 43
0.0000001
 44
0.0000000001
 40
0.0
 40
0.0
 40
0.0
 40
0.0
 40
0.5121076911
 40
1.0
 40
1.0
 40
1.0
 40
1.0
 10
13.8836892534
 20
7.2296166451
 30
0.0
 10
13.885491054
 20
7.2269109887
 30
0.0
 10
13.8891211697
 20
7.2217008764
 30
0.0
 10
13.8929947801
 20
7.216668279
 30
0.0
 10
13.8949488824
 20
7.2142656074
 30
0.0
  0
SPLINE
  5
381
100
AcDbEntity
  8
0
100
AcDbSpline
 62
7
  6
CONTINUOUS
 70
0
 71
3
 72
32
 73
28
 74
0
 42
0.0000001
 43
0.0000001
 44
0.0000000001
 40
0.0
 40
0.0
 40
0.0
 40
0.0
 40
0.0851714631
 40
0.1685829366
 40
0.2498833072
 40
0.3287730357
 40
0.4049542219
 40
0.4781403096
 40
0.5480656923
 40
0.5817290334
 40
0.6144865508
 40
0.6463109346
 40
0.6771772012
 40
0.7070612591
 40
0.7359410139
 40
0.7637973853
 40
0.7906127244
 40
0.8163717302
 40
0.8410630448
 40
0.8646776953
 40
0.8872098528
 40
0.9086590348
 40
0.9290288738
 40
0.9483278842
 40
0.9665722999
 40
0.9837856706
 40
1.0
 40
1.0
 40
1.0
 40
1.0
 10
13.6831958666
 20
7.9469615713
 30
0.0
 10
13.6831958666
 20
7.9292478519
 30
0.0
 10
13.683497964
 20
7.8941855995
 30
0.0
 10
13.6848821485
 20
7.8422312012
 30
0.0
 10
13.6871882397
 20
7.7916169297
 30
0.0
 10
13.6904058025
 20
7.7425590553
 30
0.0
 10
13.6945205418
 20
7.6952615556
 30
0.0
 10
13.6995152391
 20
7.6499238235
 30
0.0
 10
13.7044530274
 20
7.61348705
 30
0.0
 10
13.708847909
 20
7.5854719418
 30
0.0
 10
13.712308198
 20
7.5653335105
 30
0.0
 10
13.7159707506
 20
7.545822432
 30
0.0
 10
13.7198313823
 20
7.5269591093
 30
0.0
 10
13.723886167
 20
7.5087634136
 30
0.0
 10
13.7281310274
 20
7.4912544989
 30
0.0
 10
13.7325610785
 20
7.4744506125
 30
0.0
 10
13.7371717443
 20
7.4583693866
 30
0.0
 10
13.7419584869
 20
7.4430277473
 30
0.0
 10
13.7469158361
 20
7.4284415573
 30
0.0
 10
13.7520386093
 20
7.4146259979
 30
0.0
 10
13.7573218974
 20
7.4015955851
 30
0.0
 10
13.7627597829
 20
7.3893635969
 30
0.0
 10
13.7683466225
 20
7.3779425195
 30
0.0
 10
13.7740772693
 20
7.3673443395
 30
0.0
 10
13.7799457739
 20
7.35757945
 30
0.0
 10
13.7859459329
 20
7.3486580296
 30
0.0
 10
13.7901534913
 20
7.343117111
 30
0.0
 10
13.7922812812
 20
7.3405009474
 30
0.0
  0
SPLINE
  5
382
100
AcDbEntity
  8
0
100
AcDbSpline
 62
7
  6
CONTINUOUS
 70
0
 71
3
 72
9
 73
5
 74
0
 42
0.0000001
 43
0.0000001
 44
0.0000000001
 40
0.0
 40
0.0
 40
0.0
 40
0.0
 40
0.5131620777
 40
1.0
 40
1.0
 40
1.0
 40
1.0
 10
13.8836892534
 20
8.805630001
 30
0.0
 10
13.8878513173
 20
8.8199204141
 30
0.0
 10
13.896306421
 20
8.8476693807
 30
0.0
 10
13.9055341035
 20
8.8751723745
 30
0.0
 10
13.9102402259
 20
8.888485718
 30
0.0
  0
SPLINE
  5
383
100
AcDbEntity
  8
0
100
AcDbSpline
 62
7
  6
CONTINUOUS
 70
0
 71
3
 72
44
 73
40
 74
0
 42
0.0000001
 43
0.0000001
 44
0.0000000001
 40
0.0
 40
0.0
 40
0.0
 40
0.0
 40
0.0379352649
 40
0.0762767364
 40
0.1149235917
 40
0.1537880237
 40
0.1927852001
 40
0.2318260509
 40
0.2708202503
 40
0.3096786974
 40
0.3483128921
 40
0.3866349434
 40
0.4245574847
 40
0.4619946974
 40
0.4988618849
 40
0.5350764277
 40
0.5705573187
 40
0.6052261591
 40
0.6390067478
 40
0.6718260582
 40
0.7036139905
 40
0.7343041721
 40
0.7638340034
 40
0.7921452665
 40
0.8191845992
 40
0.844903939
 40
0.8692616063
 40
0.8922226101
 40
0.9137605693
 40
0.9239906408
 40
0.9338596273
 40
0.9433672508
 40
0.9525139467
 40
0.9613014079
 40
0.9697326513
 40
0.9778117804
 40
0.9855441827
 40
0.9929371177
 40
1.0
 40
1.0
 40
1.0
 40
1.0
 10
13.6831958666
 20
7.9469615713
 30
0.0
 10
13.6831958666
 20
7.960635735
 30
0.0
 10
13.6833789557
 20
7.9881308018
 30
0.0
 10
13.6841891073
 20
8.0295493611
 30
0.0
 10
13.6855356199
 20
8.0712891085
 30
0.0
 10
13.6874145265
 20
8.1132448343
 30
0.0
 10
13.6898217183
 20
8.1553158142
 30
0.0
 10
13.6927507304
 20
8.1974005723
 30
0.0
 10
13.6961951413
 20
8.2393961162
 30
0.0
 10
13.7001459272
 20
8.2811998278
 30
0.0
 10
13.7045939843
 20
8.3227099131
 30
0.0
 10
13.7095279171
 20
8.3638253235
 30
0.0
 10
13.7149361944
 20
8.4044458364
 30
0.0
 10
13.720805122
 20
8.444472446
 30
0.0
 10
13.7271207813
 20
8.4838076312
 30
0.0
 10
13.733867337
 20
8.5223555752
 30
0.0
 10
13.7410286366
 20
8.5600223972
 30
0.0
 10
13.7485868519
 20
8.5967163606
 30
0.0
 10
13.7565237302
 20
8.6323481281
 30
0.0
 10
13.7648196382
 20
8.6668309661
 30
0.0
 10
13.7734543909
 20
8.7000810012
 30
0.0
 10
13.7824067555
 20
8.7320173895
 30
0.0
 10
13.7916547993
 20
8.7625625708
 30
0.0
 10
13.8011759155
 20
8.7916423987
 30
0.0
 10
13.8109466221
 20
8.8191864632
 30
0.0
 10
13.8209432181
 20
8.8451280902
 30
0.0
 10
13.8311409447
 20
8.8694049854
 30
0.0
 10
13.8415153413
 20
8.891958346
 30
0.0
 10
13.8504329645
 20
8.9095621851
 30
0.0
 10
13.8576538009
 20
8.9227207773
 30
0.0
 10
13.8630046307
 20
8.9319556873
 30
0.0
 10
13.86838056
 20
8.9407211163
 30
0.0
 10
13.8737785854
 20
8.9490116126
 30
0.0
 10
13.8791954569
 20
8.956822201
 30
0.0
 10
13.8846278128
 20
8.9641484212
 30
0.0
 10
13.8900724269
 20
8.9709859117
 30
0.0
 10
13.8955263364
 20
8.9773304359
 30
0.0
 10
13.9009862591
 20
8.9831779587
 30
0.0
 10
13.9047115867
 20
8.9868245885
 30
0.0
 10
13.9065752155
 20
8.9885590749
 30
0.0
  0
SPLINE
  5
384
100
AcDbEntity
  8
0
100
AcDbSpline
 62
7
  6
CONTINUOUS
 70
0
 71
3
 72
11
 73
7
 74
0
 42
0.0000001
 43
0.0000001
 44
0.0000000001
 40
0.0
 40
0.0
 40
0.0
 40
0.0
 40
0.2715243135
 40
0.5282312124
 40
0.7707769425
 40
1.0
 40
1.0
 40
1.0
 40
1.0
 10
14.7248877049
 20
7.1712793343
 30
0.0
 10
14.7269619364
 20
7.1681645848
 30
0.0
 10
14.731144871
 20
7.1622012953
 30
0.0
 10
14.7377230786
 20
7.1538523956
 30
0.0
 10
14.7444201753
 20
7.1463632662
 30
0.0
 10
14.7490870618
 20
7.14182577
 30
0.0
 10
14.7514386774
 20
7.1397161605
 30
0.0
  0
SPLINE
  5
385
100
AcDbEntity
  8
0
100
AcDbSpline
 62
7
  6
CONTINUOUS
 70
0
 71
3
 72
9
 73
5
 74
0
 42
0.0000001
 43
0.0000001
 44
0.0000000001
 40
0.0
 40
0.0
 40
0.0
 40
0.0
 40
0.4868379223
 40
1.0
 40
1.0
 40
1.0
 40
1.0
 10
14.7514386774
 20
8.8301484073
 30
0.0
 10
14.746732555
 20
8.8168350638
 30
0.0
 10
14.7375048725
 20
8.7893320699
 30
0.0
 10
14.7290497688
 20
8.7615831034
 30
0.0
 10
14.7248877049
 20
8.7472926902
 30
0.0
  0
SPLINE
  5
386
100
AcDbEntity
  8
0
100
AcDbSpline
 62
7
  6
CONTINUOUS
 70
0
 71
3
 72
32
 73
28
 74
0
 42
0.0000001
 43
0.0000001
 44
0.0000000001
 40
0.0
 40
0.0
 40
0.0
 40
0.0
 40
0.0216580356
 40
0.0433974264
 40
0.065269768
 40
0.0873323486
 40
0.1096472541
 40
0.1322812724
 40
0.1553048508
 40
0.1787893011
 40
0.2028075623
 40
0.2274325702
 40
0.2787627087
 40
0.3056126218
 40
0.3333230292
 40
0.391508505
 40
0.453633629
 40
0.4862377728
 40
0.5198808006
 40
0.5545666026
 40
0.5902899207
 40
0.6647941269
 40
0.7035421223
 40
0.7432528952
 40
0.8254449948
 40
0.9111201638
 40
1.0
 40
1.0
 40
1.0
 40
1.0
 10
14.977547928
 20
9.048553185
 30
0.0
 10
14.9774609879
 20
9.0461674807
 30
0.0
 10
14.977177238
 20
9.0413903117
 30
0.0
 10
14.9764087111
 20
9.034234309
 30
0.0
 10
14.9752813853
 20
9.0270804887
 30
0.0
 10
14.9737799427
 20
9.0199307706
 30
0.0
 10
14.9718895186
 20
9.0127868824
 30
0.0
 10
14.9695953197
 20
9.0056507834
 30
0.0
 10
14.966882792
 20
8.9985247879
 30
0.0
 10
14.9637393449
 20
8.9914110172
 30
0.0
 10
14.9601521984
 20
8.9843117897
 30
0.0
 10
14.954687442
 20
8.9747381707
 30
0.0
 10
14.948336437
 20
8.9653285634
 30
0.0
 10
14.9411657728
 20
8.9561157433
 30
0.0
 10
14.9331121089
 20
8.9466460541
 30
0.0
 10
14.9217696282
 20
8.9348927282
 30
0.0
 10
14.9092061875
 20
8.9236364751
 30
0.0
 10
14.8982362056
 20
8.9146961906
 30
0.0
 10
14.8894078862
 20
8.9079232499
 30
0.0
 10
14.8801194533
 20
8.9011927011
 30
0.0
 10
14.8669510949
 20
8.8921492788
 30
0.0
 10
14.8530889661
 20
8.8833348788
 30
0.0
 10
14.8386010141
 20
8.8747094565
 30
0.0
 10
14.8232209407
 20
8.8659311361
 30
0.0
 10
14.8030615699
 20
8.8551001341
 30
0.0
 10
14.777755415
 20
8.8424242766
 30
0.0
 10
14.7603451012
 20
8.834229461
 30
0.0
 10
14.7514386774
 20
8.8301484073
 30
0.0
  0
SPLINE
  5
387
100
AcDbEntity
  8
0
100
AcDbSpline
 62
7
  6
CONTINUOUS
 70
0
 71
3
 72
28
 73
24
 74
0
 42
0.0000001
 43
0.0000001
 44
0.0000000001
 40
0.0
 40
0.0
 40
0.0
 40
0.0
 40
0.06156059
 40
0.1232191873
 40
0.1849837433
 40
0.2468662409
 40
0.2778555915
 40
0.3088781211
 40
0.3710232186
 40
0.4021500798
 40
0.4333129452
 40
0.4645122643
 40
0.4957483478
 40
0.5270210508
 40
0.5583301635
 40
0.5896753974
 40
0.6210561595
 40
0.6839185967
 40
0.7154008998
 40
0.7469147894
 40
0.8100312356
 40
0.8732593099
 40
1.0
 40
1.0
 40
1.0
 40
1.0
 10
14.7248877049
 20
8.7472926902
 30
0.0
 10
14.7270233914
 20
8.7298246614
 30
0.0
 10
14.7308720631
 20
8.6948068715
 30
0.0
 10
14.7352511131
 20
8.6421013067
 30
0.0
 10
14.7381187424
 20
8.5891986233
 30
0.0
 10
14.7391481259
 20
8.54499711
 30
0.0
 10
14.7391038279
 20
8.5095784089
 30
0.0
 10
14.7384626586
 20
8.4740906072
 30
0.0
 10
14.7369060919
 20
8.4385844274
 30
0.0
 10
14.7344002121
 20
8.4030996051
 30
0.0
 10
14.7320399797
 20
8.3764771188
 30
0.0
 10
14.7291945788
 20
8.3498707877
 30
0.0
 10
14.7258617442
 20
8.3232894407
 30
0.0
 10
14.7220434286
 20
8.2967417744
 30
0.0
 10
14.7177400744
 20
8.2702368271
 30
0.0
 10
14.7129562787
 20
8.2437829108
 30
0.0
 10
14.7059439799
 20
8.2085714118
 30
0.0
 10
14.698000555
 20
8.1735109314
 30
0.0
 10
14.6891748683
 20
8.1386301934
 30
0.0
 10
14.6797630791
 20
8.1038276271
 30
0.0
 10
14.6669514
 20
8.0605496452
 30
0.0
 10
14.6443718122
 20
7.9918070575
 30
0.0
 10
14.6253131866
 20
7.9409228892
 30
0.0
 10
14.6118330796
 20
7.9072930689
 30
0.0
  0
SPLINE
  5
388
100
AcDbEntity
  8
0
100
AcDbSpline
 62
7
  6
CONTINUOUS
 70
0
 71
3
 72
27
 73
23
 74
0
 42
0.0000001
 43
0.0000001
 44
0.0000000001
 40
0.0
 40
0.0
 40
0.0
 40
0.0
 40
0.0639263878
 40
0.1277457056
 40
0.1914308689
 40
0.2549586075
 40
0.3183011279
 40
0.3814316126
 40
0.4129133574
 40
0.4443341522
 40
0.4756917471
 40
0.5069851127
 40
0.5382135924
 40
0.5693769527
 40
0.6004763445
 40
0.6315126205
 40
0.6933976736
 40
0.7550603846
 40
0.8165258329
 40
0.8778202146
 40
0.9389717178
 40
1.0
 40
1.0
 40
1.0
 40
1.0
 10
13.8836892534
 20
8.805630001
 30
0.0
 10
13.8740496727
 20
8.7896175498
 30
0.0
 10
13.8553193758
 20
8.7572942088
 30
0.0
 10
13.8290968808
 20
8.7078325048
 30
0.0
 10
13.8050375663
 20
8.657407611
 30
0.0
 10
13.7834324049
 20
8.6060299533
 30
0.0
 10
13.7645786797
 20
8.5537487895
 30
0.0
 10
13.7513836816
 20
8.5094625058
 30
0.0
 10
13.7424702701
 20
8.4737036105
 30
0.0
 10
13.7366341432
 20
8.4467651425
 30
0.0
 10
13.7316584953
 20
8.4197106025
 30
0.0
 10
13.7275601794
 20
8.3925660671
 30
0.0
 10
13.7243417103
 20
8.3653603597
 30
0.0
 10
13.7220082928
 20
8.3381214932
 30
0.0
 10
13.7205504865
 20
8.3108778975
 30
0.0
 10
13.7197616999
 20
8.2746216133
 30
0.0
 10
13.720890116
 20
8.2294093172
 30
0.0
 10
13.7254441899
 20
8.1754802878
 30
0.0
 10
13.7329432069
 20
8.1220592006
 30
0.0
 10
13.7431079335
 20
8.0692373649
 30
0.0
 10
13.7556547063
 20
8.0170663308
 30
0.0
 10
13.7654352917
 20
7.9826988321
 30
0.0
 10
13.7706346281
 20
7.9656303796
 30
0.0
  0
SPLINE
  5
389
100
AcDbEntity
  8
0
100
AcDbSpline
 62
7
  6
CONTINUOUS
 70
0
 71
3
 72
28
 73
24
 74
0
 42
0.0000001
 43
0.0000001
 44
0.0000000001
 40
0.0
 40
0.0
 40
0.0
 40
0.0
 40
0.0678449738
 40
0.1349971775
 40
0.2014062009
 40
0.234320946
 40
0.2670360988
 40
0.3318524833
 40
0.3958450801
 40
0.4275353602
 40
0.4590236808
 40
0.4903137328
 40
0.5214107976
 40
0.5523215723
 40
0.5830532103
 40
0.6440104094
 40
0.704363739
 40
0.7343426469
 40
0.7642022852
 40
0.8236039407
 40
0.8826549323
 40
0.9414323619
 40
1.0
 40
1.0
 40
1.0
 40
1.0
 10
14.6118330796
 20
7.792874178
 30
0.0
 10
14.6185501819
 20
7.7799402014
 30
0.0
 10
14.6315912297
 20
7.754033739
 30
0.0
 10
14.6499444505
 20
7.7148475027
 30
0.0
 10
14.6640905744
 20
7.6819946955
 30
0.0
 10
14.6746255106
 20
7.6556581385
 30
0.0
 10
14.6845605138
 20
7.6294550728
 30
0.0
 10
14.695941387
 20
7.5966667721
 30
0.0
 10
14.7059100192
 20
7.5636498201
 30
0.0
 10
14.7129430843
 20
7.5372502477
 30
0.0
 10
14.7177283349
 20
7.5175272713
 30
0.0
 10
14.7220332312
 20
7.4978243195
 30
0.0
 10
14.7258530988
 20
7.4781479579
 30
0.0
 10
14.7291874462
 20
7.4585050433
 30
0.0
 10
14.7329726631
 20
7.4324399896
 30
0.0
 10
14.7365034501
 20
7.3999567305
 30
0.0
 10
14.7384602619
 20
7.3675032618
 30
0.0
 10
14.7391034565
 20
7.3416900942
 30
0.0
 10
14.7391485665
 20
7.3160734274
 30
0.0
 10
14.7381231096
 20
7.2842186653
 30
0.0
 10
14.7352565932
 20
7.246243913
 30
0.0
 10
14.7308772559
 20
7.2085957102
 30
0.0
 10
14.7270248713
 20
7.1836777619
 30
0.0
 10
14.7248877049
 20
7.1712793343
 30
0.0
  0
SPLINE
  5
38A
100
AcDbEntity
  8
0
100
AcDbSpline
 62
7
  6
CONTINUOUS
 70
0
 71
3
 72
30
 73
26
 74
0
 42
0.0000001
 43
0.0000001
 44
0.0000000001
 40
0.0
 40
0.0
 40
0.0
 40
0.0
 40
0.0574391817
 40
0.1147883495
 40
0.1721572955
 40
0.229703178
 40
0.2876229381
 40
0.3168012371
 40
0.3461621978
 40
0.3757375196
 40
0.4055585335
 40
0.4356541026
 40
0.4660520271
 40
0.496775211
 40
0.5278437394
 40
0.5592724537
 40
0.5910714679
 40
0.6557886066
 40
0.6887138739
 40
0.7220062228
 40
0.7896430286
 40
0.8586028347
 40
0.8935437984
 40
0.9287688196
 40
1.0
 40
1.0
 40
1.0
 40
1.0
 10
13.7706346281
 20
7.8512114888
 30
0.0
 10
13.7654468479
 20
7.8395032513
 30
0.0
 10
13.7556789805
 20
7.8158324483
 30
0.0
 10
13.7431190162
 20
7.7795383733
 30
0.0
 10
13.7329412958
 20
7.7424733725
 30
0.0
 10
13.7254332056
 20
7.7046423975
 30
0.0
 10
13.7216469921
 20
7.6725779307
 30
0.0
 10
13.7202126378
 20
7.6466465596
 30
0.0
 10
13.7199586931
 20
7.6269968101
 30
0.0
 10
13.7205535866
 20
7.6072111904
 30
0.0
 10
13.7220149572
 20
7.5873062993
 30
0.0
 10
13.7243526409
 20
7.5673005627
 30
0.0
 10
13.7275758124
 20
7.5472146593
 30
0.0
 10
13.7316792051
 20
7.5270686947
 30
0.0
 10
13.7366598685
 20
7.5068850416
 30
0.0
 10
13.7425009008
 20
7.4866836362
 30
0.0
 10
13.7514644888
 20
7.4595974476
 30
0.0
 10
13.7620318217
 20
7.4327130111
 30
0.0
 10
13.7740282986
 20
7.406096355
 30
0.0
 10
13.7871265784
 20
7.3792766354
 30
0.0
 10
13.8052316924
 20
7.3459839231
 30
0.0
 10
13.8251904379
 20
7.3133435879
 30
0.0
 10
13.8422366905
 20
7.2874270103
 30
0.0
 10
13.860099272
 20
7.2614494167
 30
0.0
 10
13.874108789
 20
7.2422824051
 30
0.0
 10
13.8836892534
 20
7.2296166451
 30
0.0
  0
SPLINE
  5
38B
100
AcDbEntity
  8
0
100
AcDbSpline
 62
7
  6
CONTINUOUS
 70
0
 71
3
 72
63
 73
59
 74
0
 42
0.0000001
 43
0.0000001
 44
0.0000000001
 40
0.0
 40
0.0
 40
0.0
 40
0.0
 40
0.0116740335
 40
0.0227019944
 40
0.0330892994
 40
0.0428468662
 40
0.0519910592
 40
0.0605450039
 40
0.0685410489
 40
0.0760214221
 40
0.0830406592
 40
0.0896677106
 40
0.0928613088
 40
0.0959894575
 40
0.0990648897
 40
0.1021010547
 40
0.1051119532
 40
0.1081119663
 40
0.1111156586
 40
0.1141375532
 40
0.1171918683
 40
0.1202923222
 40
0.1266799212
 40
0.1333987893
 40
0.1405286917
 40
0.1481345816
 40
0.1562681288
 40
0.1649685917
 40
0.1742657025
 40
0.1841812216
 40
0.1947295791
 40
0.2059202826
 40
0.2177581707
 40
0.2302437901
 40
0.2433751176
 40
0.2571469616
 40
0.2715515175
 40
0.2865794852
 40
0.3022190976
 40
0.3184569868
 40
0.335278732
 40
0.3526678685
 40
0.3706069783
 40
0.3890777171
 40
0.4080600789
 40
0.4474756176
 40
0.488678263
 40
0.5314791203
 40
0.5756781856
 40
0.6210660094
 40
0.6674256736
 40
0.7145340764
 40
0.7621631379
 40
0.8100821776
 40
0.8580579643
 40
0.9058556979
 40
0.9532503162
 40
1.0
 40
1.0
 40
1.0
 40
1.0
 10
15.0794394648
 20
8.8502761759
 30
0.0
 10
15.0775094399
 20
8.8549133615
 30
0.0
 10
15.0735983223
 20
8.8638667296
 30
0.0
 10
15.0673794945
 20
8.8766780404
 30
0.0
 10
15.0609824149
 20
8.8884722397
 30
0.0
 10
15.0544153804
 20
8.8992347777
 30
0.0
 10
15.047685966
 20
8.9089526341
 30
0.0
 10
15.0408006539
 20
8.9176133694
 30
0.0
 10
15.0337671192
 20
8.9252066451
 30
0.0
 10
15.026591017
 20
8.9317222627
 30
0.0
 10
15.0192789623
 20
8.9371491016
 30
0.0
 10
15.0129994498
 20
8.9408009827
 30
0.0
 10
15.0079377742
 20
8.9431367036
 30
0.0
 10
15.0041614415
 20
8.9445897003
 30
0.0
 10
15.000360316
 20
8.9457645086
 30
0.0
 10
14.9965356869
 20
8.9466607479
 30
0.0
 10
14.9926890262
 20
8.9472779624
 30
0.0
 10
14.9888218229
 20
8.9476157972
 30
0.0
 10
14.9849355947
 20
8.9476739131
 30
0.0
 10
14.9810319514
 20
8.9474522541
 30
0.0
 10
14.9771122761
 20
8.9469511651
 30
0.0
 10
14.9718153649
 20
8.9459011395
 30
0.0
 10
14.965126017
 20
8.9438594184
 30
0.0
 10
14.9571513881
 20
8.940318917
 30
0.0
 10
14.9491550739
 20
8.9356749649
 30
0.0
 10
14.9411455703
 20
8.9299371985
 30
0.0
 10
14.9331304923
 20
8.9231140354
 30
0.0
 10
14.9251170051
 20
8.9152156706
 30
0.0
 10
14.9171136563
 20
8.9062518199
 30
0.0
 10
14.9091298049
 20
8.8962333113
 30
0.0
 10
14.9011740825
 20
8.8851730303
 30
0.0
 10
14.8932565952
 20
8.8730843591
 30
0.0
 10
14.8853872881
 20
8.8599823923
 30
0.0
 10
14.8775755354
 20
8.8458839094
 30
0.0
 10
14.8698318664
 20
8.8308065004
 30
0.0
 10
14.8621660702
 20
8.8147694765
 30
0.0
 10
14.8545877
 20
8.7977934721
 30
0.0
 10
14.8471071354
 20
8.7799000597
 30
0.0
 10
14.8397337264
 20
8.7611123931
 30
0.0
 10
14.8324769264
 20
8.7414547027
 30
0.0
 10
14.8253466566
 20
8.7209522071
 30
0.0
 10
14.8183517243
 20
8.6996315186
 30
0.0
 10
14.8115013211
 20
8.6775201765
 30
0.0
 10
14.8048046393
 20
8.6546466724
 30
0.0
 10
14.7959810276
 20
8.6227713741
 30
0.0
 10
14.78542617
 20
8.5812322045
 30
0.0
 10
14.7736573404
 20
8.5294461329
 30
0.0
 10
14.7626940272
 20
8.4753821552
 30
0.0
 10
14.7525934974
 20
8.4193202259
 30
0.0
 10
14.7434083536
 20
8.3615504212
 30
0.0
 10
14.735186576
 20
8.3023718688
 30
0.0
 10
14.7279712485
 20
8.2420910663
 30
0.0
 10
14.721799709
 20
8.1810202094
 30
0.0
 10
14.7167040811
 20
8.1194757585
 30
0.0
 10
14.712711011
 20
8.0577772572
 30
0.0
 10
14.7098407567
 20
7.9962421113
 30
0.0
 10
14.7081088801
 20
7.9351923117
 30
0.0
 10
14.7077150608
 20
7.894685406
 30
0.0
 10
14.7077150608
 20
7.8745711791
 30
0.0
  0
SPLINE
  5
38C
100
AcDbEntity
  8
0
100
AcDbSpline
 62
7
  6
CONTINUOUS
 70
0
 71
3
 72
23
 73
19
 74
0
 42
0.0000001
 43
0.0000001
 44
0.0000000001
 40
0.0
 40
0.0
 40
0.0
 40
0.0
 40
0.0776368967
 40
0.1508250625
 40
0.2199387827
 40
0.2854443318
 40
0.3478881306
 40
0.4078893731
 40
0.4660975153
 40
0.5231763528
 40
0.579757014
 40
0.63641721
 40
0.6936558986
 40
0.7518842185
 40
0.8114281386
 40
0.8725270877
 40
0.9353492642
 40
1.0
 40
1.0
 40
1.0
 40
1.0
 10
13.9260111587
 20
9.0066477918
 30
0.0
 10
13.9235160595
 20
9.0043254739
 30
0.0
 10
13.9188052233
 20
8.9996634104
 30
0.0
 10
13.9124377192
 20
8.9923922155
 30
0.0
 10
13.9069851137
 20
8.9850637603
 30
0.0
 10
13.9024421724
 20
8.9776861898
 30
0.0
 10
13.8987999358
 20
8.9702666651
 30
0.0
 10
13.8960393529
 20
8.9628157928
 30
0.0
 10
13.8941411199
 20
8.9553424285
 30
0.0
 10
13.8930752344
 20
8.947857757
 30
0.0
 10
13.8928105661
 20
8.9403710138
 30
0.0
 10
13.8933106544
 20
8.932890599
 30
0.0
 10
13.8945366503
 20
8.92542264
 30
0.0
 10
13.8964501147
 20
8.9179714444
 30
0.0
 10
13.8990122676
 20
8.9105398027
 30
0.0
 10
13.9021851372
 20
8.9031291521
 30
0.0
 10
13.9059327875
 20
8.8957411536
 30
0.0
 10
13.908750461
 20
8.8909018078
 30
0.0
 10
13.9102402259
 20
8.888485718
 30
0.0
  0
SPLINE
  5
38D
100
AcDbEntity
  8
0
100
AcDbSpline
 62
7
  6
CONTINUOUS
 70
0
 71
3
 72
57
 73
53
 74
0
 42
0.0000001
 43
0.0000001
 44
0.0000000001
 40
0.0
 40
0.0
 40
0.0
 40
0.0
 40
0.054353749
 40
0.1078368685
 40
0.1602921239
 40
0.2115898082
 40
0.2616057556
 40
0.310215127
 40
0.3572972388
 40
0.4027395474
 40
0.4464352193
 40
0.4882849052
 40
0.5281968422
 40
0.5660888695
 40
0.6018889282
 40
0.6355369385
 40
0.651539709
 40
0.6669887225
 40
0.6818806255
 40
0.696213378
 40
0.7099869068
 40
0.7232024608
 40
0.7358627206
 40
0.7479726121
 40
0.7595398501
 40
0.7705745244
 40
0.7810895164
 40
0.7911016327
 40
0.8006321141
 40
0.8097066453
 40
0.8183561131
 40
0.8266178479
 40
0.834535878
 40
0.8421609136
 40
0.8495504957
 40
0.8567687484
 40
0.8638848342
 40
0.8709711009
 40
0.8781009764
 40
0.8853464081
 40
0.8927756001
 40
0.900451496
 40
0.9084306742
 40
0.9167624342
 40
0.9254892284
 40
0.9346472702
 40
0.9442668123
 40
0.9543723426
 40
0.9649838999
 40
0.9761178295
 40
0.9877867952
 40
1.0
 40
1.0
 40
1.0
 40
1.0
 10
14.7077150608
 20
7.8745711791
 30
0.0
 10
14.7077150608
 20
7.8601045295
 30
0.0
 10
14.7079160523
 20
7.8314025078
 30
0.0
 10
14.7088331675
 20
7.7887479601
 30
0.0
 10
14.7103623953
 20
7.7469247154
 30
0.0
 10
14.7124985873
 20
7.7060520329
 30
0.0
 10
14.7152361557
 20
7.6662410451
 30
0.0
 10
14.7185668423
 20
7.6276011671
 30
0.0
 10
14.7224819858
 20
7.5902396828
 30
0.0
 10
14.7269699219
 20
7.5542600098
 30
0.0
 10
14.7320185183
 20
7.5197613076
 30
0.0
 10
14.7376131425
 20
7.4868386775
 30
0.0
 10
14.7437384301
 20
7.4555828394
 30
0.0
 10
14.7503768599
 20
7.4260795258
 30
0.0
 10
14.757510042
 20
7.3984099818
 30
0.0
 10
14.7639529725
 20
7.376592139
 30
0.0
 10
14.7693616725
 20
7.3601300118
 30
0.0
 10
14.7734612907
 20
7.3484954254
 30
0.0
 10
14.7776692372
 20
7.3373735028
 30
0.0
 10
14.7819828637
 20
7.3267719446
 30
0.0
 10
14.786398943
 20
7.316697832
 30
0.0
 10
14.7909144245
 20
7.307157955
 30
0.0
 10
14.795526419
 20
7.2981589548
 30
0.0
 10
14.8002319637
 20
7.2897070139
 30
0.0
 10
14.8050276784
 20
7.2818076078
 30
0.0
 10
14.8099104176
 20
7.2744659914
 30
0.0
 10
14.8148773167
 20
7.2676873409
 30
0.0
 10
14.8199253246
 20
7.2614762763
 30
0.0
 10
14.8250511628
 20
7.255836748
 30
0.0
 10
14.8302518584
 20
7.2507726679
 30
0.0
 10
14.8355247735
 20
7.2462881527
 30
0.0
 10
14.8408668662
 20
7.2423867181
 30
0.0
 10
14.846274922
 20
7.2390715146
 30
0.0
 10
14.8517457155
 20
7.2363459946
 30
0.0
 10
14.8572757328
 20
7.2342140704
 30
0.0
 10
14.8628604182
 20
7.2326784662
 30
0.0
 10
14.8684946774
 20
7.2317412468
 30
0.0
 10
14.8741729869
 20
7.2314040265
 30
0.0
 10
14.8798894493
 20
7.2316677241
 30
0.0
 10
14.8856382964
 20
7.2325308859
 30
0.0
 10
14.8914143742
 20
7.2339914452
 30
0.0
 10
14.8972130672
 20
7.236047187
 30
0.0
 10
14.9030301159
 20
7.2386956904
 30
0.0
 10
14.9088620307
 20
7.2419334145
 30
0.0
 10
14.9147054096
 20
7.2457572343
 30
0.0
 10
14.9205567514
 20
7.2501642814
 30
0.0
 10
14.9264124674
 20
7.255151408
 30
0.0
 10
14.9322693169
 20
7.2607146516
 30
0.0
 10
14.9381237019
 20
7.2668501638
 30
0.0
 10
14.9439717793
 20
7.2735540749
 30
0.0
 10
14.9498096403
 20
7.2808217857
 30
0.0
 10
14.9536053281
 20
7.2859224173
 30
0.0
 10
14.9555025864
 20
7.2885619312
 30
0.0
  0
SPLINE
  5
38E
100
AcDbEntity
  8
0
100
AcDbSpline
 62
7
  6
CONTINUOUS
 70
0
 71
3
 72
9
 73
5
 74
0
 42
0.0000001
 43
0.0000001
 44
0.0000000001
 40
0.0
 40
0.0
 40
0.0
 40
0.0
 40
0.484189766
 40
1.0
 40
1.0
 40
1.0
 40
1.0
 10
14.9555025864
 20
7.2885619312
 30
0.0
 10
14.9585333221
 20
7.2927783674
 30
0.0
 10
14.9645639687
 20
7.3016523317
 30
0.0
 10
14.970190328
 20
7.3107863447
 30
0.0
 10
14.9730006166
 20
7.3155510845
 30
0.0
  0
SPLINE
  5
38F
100
AcDbEntity
  8
0
100
AcDbSpline
 62
7
  6
CONTINUOUS
 70
0
 71
3
 72
23
 73
19
 74
0
 42
0.0000001
 43
0.0000001
 44
0.0000000001
 40
0.0
 40
0.0
 40
0.0
 40
0.0
 40
0.063775992
 40
0.1273452426
 40
0.190702051
 40
0.2538559967
 40
0.3168132418
 40
0.3795820857
 40
0.4421733813
 40
0.504599339
 40
0.5668738627
 40
0.6290123824
 40
0.6910316504
 40
0.7529496423
 40
0.8147853556
 40
0.8765586046
 40
0.9382898526
 40
1.0
 40
1.0
 40
1.0
 40
1.0
 10
8.0147403021
 20
6.9545423135
 30
0.0
 10
8.0147403021
 20
6.949975482
 30
0.0
 10
8.0145216766
 20
6.9408550769
 30
0.0
 10
8.0135351164
 20
6.927229979
 30
0.0
 10
8.0118924053
 20
6.9137128262
 30
0.0
 10
8.0095974834
 20
6.9003355042
 30
0.0
 10
8.0066555588
 20
6.8871284836
 30
0.0
 10
8.003073399
 20
6.8741222947
 30
0.0
 10
7.9988592012
 20
6.8613469403
 30
0.0
 10
7.9940226525
 20
6.8488318691
 30
0.0
 10
7.9885749314
 20
6.836605926
 30
0.0
 10
7.9825285269
 20
6.8246973302
 30
0.0
 10
7.9758973468
 20
6.8131335662
 30
0.0
 10
7.9686967225
 20
6.8019412695
 30
0.0
 10
7.9609432394
 20
6.7911462997
 30
0.0
 10
7.9526546418
 20
6.7807735099
 30
0.0
 10
7.9438504339
 20
6.7708471041
 30
0.0
 10
7.9376495725
 20
6.7645412027
 30
0.0
 10
7.9344712574
 20
6.7614711855
 30
0.0
  0
SPLINE
  5
390
100
AcDbEntity
  8
0
100
AcDbSpline
 62
7
  6
CONTINUOUS
 70
0
 71
3
 72
23
 73
19
 74
0
 42
0.0000001
 43
0.0000001
 44
0.0000000001
 40
0.0
 40
0.0
 40
0.0
 40
0.0
 40
0.063775992
 40
0.1273452426
 40
0.190702051
 40
0.2538559967
 40
0.3168132418
 40
0.3795820857
 40
0.4421733813
 40
0.504599339
 40
0.5668738627
 40
0.6290123824
 40
0.6910316504
 40
0.7529496423
 40
0.8147853556
 40
0.8765586046
 40
0.9382898526
 40
1.0
 40
1.0
 40
1.0
 40
1.0
 10
8.0147403021
 20
9.3693570223
 30
0.0
 10
8.0147403021
 20
9.3647901908
 30
0.0
 10
8.0145216766
 20
9.3556697857
 30
0.0
 10
8.0135351164
 20
9.3420446878
 30
0.0
 10
8.0118924053
 20
9.328527535
 30
0.0
 10
8.0095974834
 20
9.315150213
 30
0.0
 10
8.0066555588
 20
9.3019431924
 30
0.0
 10
8.003073399
 20
9.2889370035
 30
0.0
 10
7.9988592012
 20
9.2761616491
 30
0.0
 10
7.9940226525
 20
9.2636465779
 30
0.0
 10
7.9885749314
 20
9.2514206348
 30
0.0
 10
7.9825285269
 20
9.239512039
 30
0.0
 10
7.9758973468
 20
9.2279482751
 30
0.0
 10
7.9686967225
 20
9.2167559783
 30
0.0
 10
7.9609432394
 20
9.2059610085
 30
0.0
 10
7.9526546418
 20
9.1955882187
 30
0.0
 10
7.9438504339
 20
9.1856618129
 30
0.0
 10
7.9376495725
 20
9.1793559115
 30
0.0
 10
7.9344712574
 20
9.1762858943
 30
0.0
  0
SPLINE
  5
391
100
AcDbEntity
  8
0
100
AcDbSpline
 62
7
  6
CONTINUOUS
 70
0
 71
3
 72
23
 73
19
 74
0
 42
0.0000001
 43
0.0000001
 44
0.0000000001
 40
0.0
 40
0.0
 40
0.0
 40
0.0
 40
0.063775992
 40
0.1273452426
 40
0.190702051
 40
0.2538559967
 40
0.3168132418
 40
0.3795820857
 40
0.4421733813
 40
0.504599339
 40
0.5668738627
 40
0.6290123824
 40
0.6910316504
 40
0.7529496423
 40
0.8147853556
 40
0.8765586046
 40
0.9382898526
 40
1.0
 40
1.0
 40
1.0
 40
1.0
 10
11.0941117535
 20
9.1558018868
 30
0.0
 10
11.0941117535
 20
9.1512350553
 30
0.0
 10
11.0938931279
 20
9.1421146503
 30
0.0
 10
11.0929065678
 20
9.1284895523
 30
0.0
 10
11.0912638567
 20
9.1149723995
 30
0.0
 10
11.0889689347
 20
9.1015950775
 30
0.0
 10
11.0860270102
 20
9.0883880569
 30
0.0
 10
11.0824448504
 20
9.075381868
 30
0.0
 10
11.0782306526
 20
9.0626065136
 30
0.0
 10
11.0733941038
 20
9.0500914424
 30
0.0
 10
11.0679463828
 20
9.0378654994
 30
0.0
 10
11.0618999783
 20
9.0259569035
 30
0.0
 10
11.0552687982
 20
9.0143931396
 30
0.0
 10
11.0480681739
 20
9.0032008428
 30
0.0
 10
11.0403146908
 20
8.992405873
 30
0.0
 10
11.0320260932
 20
8.9820330832
 30
0.0
 10
11.0232218853
 20
8.9721066774
 30
0.0
 10
11.0170210239
 20
8.965800776
 30
0.0
 10
11.0138427088
 20
8.9627307588
 30
0.0
  0
SPLINE
  5
392
100
AcDbEntity
  8
0
100
AcDbSpline
 62
7
  6
CONTINUOUS
 70
0
 71
3
 72
23
 73
19
 74
0
 42
0.0000001
 43
0.0000001
 44
0.0000000001
 40
0.0
 40
0.0
 40
0.0
 40
0.0
 40
0.063775992
 40
0.1273452426
 40
0.190702051
 40
0.2538559967
 40
0.3168132418
 40
0.3795820857
 40
0.4421733813
 40
0.504599339
 40
0.5668738627
 40
0.6290123824
 40
0.6910316504
 40
0.7529496423
 40
0.8147853556
 40
0.8765586046
 40
0.9382898526
 40
1.0
 40
1.0
 40
1.0
 40
1.0
 10
11.0941117535
 20
6.740987178
 30
0.0
 10
11.0941117535
 20
6.7364203465
 30
0.0
 10
11.0938931279
 20
6.7272999414
 30
0.0
 10
11.0929065678
 20
6.7136748435
 30
0.0
 10
11.0912638567
 20
6.7001576907
 30
0.0
 10
11.0889689347
 20
6.6867803687
 30
0.0
 10
11.0860270102
 20
6.6735733481
 30
0.0
 10
11.0824448504
 20
6.6605671592
 30
0.0
 10
11.0782306526
 20
6.6477918048
 30
0.0
 10
11.0733941038
 20
6.6352767336
 30
0.0
 10
11.0679463828
 20
6.6230507906
 30
0.0
 10
11.0618999783
 20
6.6111421947
 30
0.0
 10
11.0552687982
 20
6.5995784308
 30
0.0
 10
11.0480681739
 20
6.588386134
 30
0.0
 10
11.0403146908
 20
6.5775911642
 30
0.0
 10
11.0320260932
 20
6.5672183744
 30
0.0
 10
11.0232218853
 20
6.5572919686
 30
0.0
 10
11.0170210239
 20
6.5509860672
 30
0.0
 10
11.0138427088
 20
6.54791605
 30
0.0
  0
SPLINE
  5
393
100
AcDbEntity
  8
0
100
AcDbSpline
 62
7
  6
CONTINUOUS
 70
0
 71
3
 72
15
 73
11
 74
0
 42
0.0000001
 43
0.0000001
 44
0.0000000001
 40
0.0
 40
0.0
 40
0.0
 40
0.0
 40
0.1273482228
 40
0.253860527
 40
0.3795879206
 40
0.5046050801
 40
0.6290174363
 40
0.7529533709
 40
0.8765605784
 40
1.0
 40
1.0
 40
1.0
 40
1.0
 10
9.3940823311
 20
8.0662919733
 30
0.0
 10
9.3940823311
 20
8.062288256
 30
0.0
 10
9.3937000604
 20
8.0543015668
 30
0.0
 10
9.3919712692
 20
8.042475138
 30
0.0
 10
9.3891046404
 20
8.0309458607
 30
0.0
 10
9.3851260607
 20
8.0198215601
 30
0.0
 10
9.3800720588
 20
8.009204817
 30
0.0
 10
9.3739886863
 20
7.9991936659
 30
0.0
 10
9.3669331426
 20
7.9898819123
 30
0.0
 10
9.3616206767
 20
7.9841937531
 30
0.0
 10
9.3588293793
 20
7.9814975549
 30
0.0
  0
SPLINE
  5
394
100
AcDbEntity
  8
0
100
AcDbSpline
 62
7
  6
CONTINUOUS
 70
0
 71
3
 72
15
 73
11
 74
0
 42
0.0000001
 43
0.0000001
 44
0.0000000001
 40
0.0
 40
0.0
 40
0.0
 40
0.0
 40
0.1273482228
 40
0.253860527
 40
0.3795879206
 40
0.5046050801
 40
0.6290174363
 40
0.7529533709
 40
0.8765605784
 40
1.0
 40
1.0
 40
1.0
 40
1.0
 10
8.518953348
 20
6.8886653866
 30
0.0
 10
8.518953348
 20
6.8846616694
 30
0.0
 10
8.5185710773
 20
6.8766749802
 30
0.0
 10
8.5168422861
 20
6.8648485514
 30
0.0
 10
8.5139756573
 20
6.8533192741
 30
0.0
 10
8.5099970776
 20
6.8421949734
 30
0.0
 10
8.5049430757
 20
6.8315782303
 30
0.0
 10
8.4988597032
 20
6.8215670793
 30
0.0
 10
8.4918041595
 20
6.8122553257
 30
0.0
 10
8.4864916936
 20
6.8065671665
 30
0.0
 10
8.4837003962
 20
6.8038709683
 30
0.0
  0
SPLINE
  5
395
100
AcDbEntity
  8
0
100
AcDbSpline
 62
7
  6
CONTINUOUS
 70
0
 71
3
 72
21
 73
17
 74
0
 42
0.0000001
 43
0.0000001
 44
0.0000000001
 40
0.0
 40
0.0
 40
0.0
 40
0.0
 40
0.1273178164
 40
0.2537997372
 40
0.3167618888
 40
0.3795355901
 40
0.4421314848
 40
0.5045621368
 40
0.5668413467
 40
0.6289845294
 40
0.6910084492
 40
0.7529310918
 40
0.8147714493
 40
0.8765493283
 40
0.9382852216
 40
1.0
 40
1.0
 40
1.0
 40
1.0
 10
10.2943251569
 20
6.7655429335
 30
0.0
 10
10.2943251569
 20
6.7607384344
 30
0.0
 10
10.2938665564
 20
6.7511547925
 30
0.0
 10
10.2921344326
 20
6.7393073472
 30
0.0
 10
10.2900642931
 20
6.7300140415
 30
0.0
 10
10.2881763341
 20
6.7231593075
 30
0.0
 10
10.2859553534
 20
6.7164263597
 30
0.0
 10
10.2834063553
 20
6.7098305598
 30
0.0
 10
10.2805352247
 20
6.7033871592
 30
0.0
 10
10.2773486208
 20
6.6971109827
 30
0.0
 10
10.273853772
 20
6.6910165719
 30
0.0
 10
10.2700588546
 20
6.6851179082
 30
0.0
 10
10.265972525
 20
6.6794286739
 30
0.0
 10
10.2616041963
 20
6.6739619272
 30
0.0
 10
10.2569641464
 20
6.6687304175
 30
0.0
 10
10.2536960832
 20
6.6654070641
 30
0.0
 10
10.2520210205
 20
6.6637890802
 30
0.0
  0
SPLINE
  5
396
100
AcDbEntity
  8
0
100
AcDbSpline
 62
7
  6
CONTINUOUS
 70
0
 71
3
 72
21
 73
17
 74
0
 42
0.0000001
 43
0.0000001
 44
0.0000000001
 40
0.0
 40
0.0
 40
0.0
 40
0.0
 40
0.0613014164
 40
0.1228184002
 40
0.184535955
 40
0.2464517365
 40
0.308555785
 40
0.3708361512
 40
0.4332800778
 40
0.4958733297
 40
0.5586005674
 40
0.6214454886
 40
0.6843917028
 40
0.74742227
 40
0.8736413304
 40
1.0
 40
1.0
 40
1.0
 40
1.0
 10
9.962046688
 20
7.7534088296
 30
0.0
 10
9.9584607755
 20
7.7536575135
 30
0.0
 10
9.9512875917
 20
7.7543363927
 30
0.0
 10
9.9405749609
 20
7.7558908286
 30
0.0
 10
9.9299163865
 20
7.7579782469
 30
0.0
 10
9.9193389928
 20
7.7605910387
 30
0.0
 10
9.9088681691
 20
7.7637196797
 30
0.0
 10
9.8985288054
 20
7.7673528098
 30
0.0
 10
9.8883446576
 20
7.7714774266
 30
0.0
 10
9.8783381345
 20
7.7760788165
 30
0.0
 10
9.868530344
 20
7.7811411107
 30
0.0
 10
9.8589410555
 20
7.7866473755
 30
0.0
 10
9.8495882431
 20
7.7925797363
 30
0.0
 10
9.837451607
 20
7.8010356511
 30
0.0
 10
9.8229553962
 20
7.8125762021
 30
0.0
 10
9.812152455
 20
7.8227345361
 30
0.0
 10
9.8069609683
 20
7.8280209256
 30
0.0
  0
SPLINE
  5
397
100
AcDbEntity
  8
0
100
AcDbSpline
 62
7
  6
CONTINUOUS
 70
0
 71
3
 72
44
 73
40
 74
0
 42
0.0000001
 43
0.0000001
 44
0.0000000001
 40
0.0
 40
0.0
 40
0.0
 40
0.0
 40
0.0309511144
 40
0.0464827038
 40
0.0620482435
 40
0.0932764658
 40
0.1246329558
 40
0.140358121
 40
0.1561113469
 40
0.1876916296
 40
0.2193640903
 40
0.2511136924
 40
0.2829243847
 40
0.314779453
 40
0.3466618348
 40
0.3626096902
 40
0.3785579729
 40
0.4104438968
 40
0.442306752
 40
0.474130824
 40
0.5059012738
 40
0.5376042979
 40
0.5534281931
 40
0.5692306152
 40
0.6007621977
 40
0.6321924554
 40
0.6635129168
 40
0.6947166453
 40
0.7257982979
 40
0.7567541749
 40
0.7875822644
 40
0.8182822716
 40
0.84885564
 40
0.8793055685
 40
0.909637017
 40
0.9398566982
 40
0.9549291032
 40
0.9699768713
 40
1.0
 40
1.0
 40
1.0
 40
1.0
 10
9.2685119663
 20
9.1414548889
 30
0.0
 10
9.2737522721
 20
9.1410914725
 30
0.0
 10
9.2816070659
 20
9.140279948
 30
0.0
 10
9.292016191
 20
9.1386764033
 30
0.0
 10
9.3024131454
 20
9.1367202489
 30
0.0
 10
9.3153203194
 20
9.1336237054
 30
0.0
 10
9.328023997
 20
9.1296848992
 30
0.0
 10
9.3380469129
 20
9.1260383115
 30
0.0
 10
9.3479831021
 20
9.1220583746
 30
0.0
 10
9.3601866295
 20
9.1164793501
 30
0.0
 10
9.3744083284
 20
9.1088610075
 30
0.0
 10
9.3881616761
 20
9.1003517279
 30
0.0
 10
9.4013901275
 20
9.0909939955
 30
0.0
 10
9.4140409393
 20
9.0808336595
 30
0.0
 10
9.4240612009
 20
9.0717381417
 30
0.0
 10
9.431742216
 20
9.064109533
 30
0.0
 10
9.4391927735
 20
9.0562548534
 30
0.0
 10
9.4480603359
 20
9.0460299847
 30
0.0
 10
9.4579515392
 20
9.0331631273
 30
0.0
 10
9.467059726
 20
9.0197539754
 30
0.0
 10
9.4753545625
 20
9.0058590973
 30
0.0
 10
9.481571578
 20
8.9939138133
 30
0.0
 10
9.4861129672
 20
8.9841709599
 30
0.0
 10
9.4903575041
 20
8.9743268509
 30
0.0
 10
9.495112749
 20
8.9618249199
 30
0.0
 10
9.4999234292
 20
8.9465547089
 30
0.0
 10
9.5038210422
 20
8.9310834051
 30
0.0
 10
9.506794437
 20
8.9154684645
 30
0.0
 10
9.5088353411
 20
8.8997668229
 30
0.0
 10
9.509938075
 20
8.8840353707
 30
0.0
 10
9.5100995638
 20
8.8683308128
 30
0.0
 10
9.5093192989
 20
8.8527096879
 30
0.0
 10
9.5075993308
 20
8.8372283978
 30
0.0
 10
9.5049442422
 20
8.821943052
 30
0.0
 10
9.5013613972
 20
8.8069100273
 30
0.0
 10
9.4976071154
 20
8.7946272452
 30
0.0
 10
9.49415084
 20
8.7849858404
 30
0.0
 10
9.4904016706
 20
8.7754907438
 30
0.0
 10
9.4872510669
 20
8.7685128266
 30
0.0
 10
9.4850046824
 20
8.7639393331
 30
0.0
  0
SPLINE
  5
398
100
AcDbEntity
  8
0
100
AcDbSpline
 62
7
  6
CONTINUOUS
 70
0
 71
3
 72
38
 73
34
 74
0
 42
0.0000001
 43
0.0000001
 44
0.0000000001
 40
0.0
 40
0.0
 40
0.0
 40
0.0
 40
0.0308964336
 40
0.0619739482
 40
0.0775806784
 40
0.0932274747
 40
0.1089118933
 40
0.1246312317
 40
0.1403827804
 40
0.15616337
 40
0.1719701281
 40
0.1877997707
 40
0.2195110124
 40
0.2512786415
 40
0.2830804833
 40
0.3148965036
 40
0.3467090233
 40
0.3785027101
 40
0.4102644513
 40
0.4419832709
 40
0.5052385618
 40
0.5367795051
 40
0.568249227
 40
0.6309443329
 40
0.6621783342
 40
0.6933287106
 40
0.7553587384
 40
0.7862496008
 40
0.8170523603
 40
0.8783796857
 40
0.9089179978
 40
0.9393691748
 40
1.0
 40
1.0
 40
1.0
 40
1.0
 10
8.5749772445
 20
8.4338256966
 30
0.0
 10
8.580516304
 20
8.4334415615
 30
0.0
 10
8.5915984369
 20
8.4321802559
 30
0.0
 10
8.6052800426
 20
8.4294089385
 30
0.0
 10
8.6160989728
 20
8.4264961358
 30
0.0
 10
8.6241484445
 20
8.4239663069
 30
0.0
 10
8.6321068367
 20
8.4211033775
 30
0.0
 10
8.6399615026
 20
8.4179167567
 30
0.0
 10
8.6477006828
 20
8.4144171514
 30
0.0
 10
8.6553134249
 20
8.4106153692
 30
0.0
 10
8.6627901163
 20
8.4065232152
 30
0.0
 10
8.6725703165
 20
8.4006927518
 30
0.0
 10
8.6844119889
 20
8.3927382402
 30
0.0
 10
8.6979486025
 20
8.3822323502
 30
0.0
 10
8.7107853983
 20
8.3708546479
 30
0.0
 10
8.7228959206
 20
8.3586970781
 30
0.0
 10
8.7342638977
 20
8.3458456107
 30
0.0
 10
8.7448802339
 20
8.3323802255
 30
0.0
 10
8.7547420123
 20
8.3183736356
 30
0.0
 10
8.766872463
 20
8.2990880105
 30
0.0
 10
8.7775217052
 20
8.2789523061
 30
0.0
 10
8.7866971506
 20
8.2581924383
 30
0.0
 10
8.7948815824
 20
8.2371297294
 30
0.0
 10
8.8016385888
 20
8.2155958902
 30
0.0
 10
8.8069801746
 20
8.1937564463
 30
0.0
 10
8.811373247
 20
8.1718283859
 30
0.0
 10
8.8143843852
 20
8.1497053781
 30
0.0
 10
8.8160138575
 20
8.1275257993
 30
0.0
 10
8.8167235916
 20
8.1054242004
 30
0.0
 10
8.8160650649
 20
8.0833592147
 30
0.0
 10
8.8140236714
 20
8.0614671214
 30
0.0
 10
8.8110687747
 20
8.0398068893
 30
0.0
 10
8.8078039569
 20
8.0237389337
 30
0.0
 10
8.8051529379
 20
8.0131704579
 30
0.0
  0
SPLINE
  5
399
100
AcDbEntity
  8
0
100
AcDbSpline
 62
7
  6
CONTINUOUS
 70
0
 71
3
 72
21
 73
17
 74
0
 42
0.0000001
 43
0.0000001
 44
0.0000000001
 40
0.0
 40
0.0
 40
0.0
 40
0.0
 40
0.1273177709
 40
0.2537997
 40
0.316761822
 40
0.3795355919
 40
0.4421314898
 40
0.5045621236
 40
0.5668413499
 40
0.6289845405
 40
0.6910084572
 40
0.7529311131
 40
0.8147714634
 40
0.876549347
 40
0.938285237
 40
1.0
 40
1.0
 40
1.0
 40
1.0
 10
8.544067421
 20
9.3635577528
 30
0.0
 10
8.544067421
 20
9.3587533151
 30
0.0
 10
8.5436088321
 20
9.3491697938
 30
0.0
 10
8.5418767552
 20
9.3373224946
 30
0.0
 10
8.5398066598
 20
9.3280292982
 30
0.0
 10
8.5379187471
 20
9.3211746419
 30
0.0
 10
8.5356978378
 20
9.3144417605
 30
0.0
 10
8.5331488733
 20
9.3078460421
 30
0.0
 10
8.5302778446
 20
9.3014026917
 30
0.0
 10
8.5270912907
 20
9.2951265865
 30
0.0
 10
8.5235965386
 20
9.2890322211
 30
0.0
 10
8.5198017216
 20
9.2831335949
 30
0.0
 10
8.5157154595
 20
9.27744442
 30
0.0
 10
8.5113472745
 20
9.2719776691
 30
0.0
 10
8.5067072824
 20
9.2667462255
 30
0.0
 10
8.503439331
 20
9.2634228446
 30
0.0
 10
8.5017642978
 20
9.2618048726
 30
0.0
  0
SPLINE
  5
39A
100
AcDbEntity
  8
0
100
AcDbSpline
 62
7
  6
CONTINUOUS
 70
0
 71
3
 72
15
 73
11
 74
0
 42
0.0000001
 43
0.0000001
 44
0.0000000001
 40
0.0
 40
0.0
 40
0.0
 40
0.0
 40
0.1273482228
 40
0.253860527
 40
0.3795879206
 40
0.5046050801
 40
0.6290174363
 40
0.7529533709
 40
0.8765605784
 40
1.0
 40
1.0
 40
1.0
 40
1.0
 10
10.269211084
 20
9.2439186334
 30
0.0
 10
10.269211084
 20
9.2399149162
 30
0.0
 10
10.2688288132
 20
9.231928227
 30
0.0
 10
10.2671000221
 20
9.2201017982
 30
0.0
 10
10.2642333933
 20
9.2085725209
 30
0.0
 10
10.2602548135
 20
9.1974482202
 30
0.0
 10
10.2552008116
 20
9.1868314771
 30
0.0
 10
10.2491174391
 20
9.1768203261
 30
0.0
 10
10.2420618954
 20
9.1675085725
 30
0.0
 10
10.2367494295
 20
9.1618204133
 30
0.0
 10
10.2339581321
 20
9.1591242151
 30
0.0
  0
SPLINE
  5
39B
100
AcDbEntity
  8
0
100
AcDbSpline
 62
7
  6
CONTINUOUS
 70
0
 71
3
 72
22
 73
18
 74
0
 42
0.0000001
 43
0.0000001
 44
0.0000000001
 40
0.0
 40
0.0
 40
0.0
 40
0.0
 40
0.0764238622
 40
0.1504703109
 40
0.2222096576
 40
0.2917225214
 40
0.3591045654
 40
0.4244644517
 40
0.5495744634
 40
0.6096453334
 40
0.6682571008
 40
0.7255853917
 40
0.7818196187
 40
0.837161409
 40
0.8918234106
 40
0.9460271042
 40
1.0
 40
1.0
 40
1.0
 40
1.0
 10
13.5412978353
 20
9.0175607758
 30
0.0
 10
13.5425343122
 20
9.0187551208
 30
0.0
 10
13.5450067985
 20
9.0210677722
 30
0.0
 10
13.5487744698
 20
9.0243540482
 30
0.0
 10
13.5525404771
 20
9.0274009514
 30
0.0
 10
13.5563036127
 20
9.0302073213
 30
0.0
 10
13.5600630551
 20
9.0327724609
 30
0.0
 10
13.5649965155
 20
9.0358250193
 30
0.0
 10
13.56999524
 20
9.0384524889
 30
0.0
 10
13.5750416194
 20
9.0406049509
 30
0.0
 10
13.578766739
 20
9.0419529311
 30
0.0
 10
13.5824818037
 20
9.0430556026
 30
0.0
 10
13.5861858202
 20
9.0439126052
 30
0.0
 10
13.5898776179
 20
9.0445234702
 30
0.0
 10
13.593556079
 20
9.0448878607
 30
0.0
 10
13.5972197557
 20
9.0450056444
 30
0.0
 10
13.5996537976
 20
9.0449195718
 30
0.0
 10
13.6008649766
 20
9.0448355803
 30
0.0
  0
SPLINE
  5
39C
100
AcDbEntity
  8
0
100
AcDbSpline
 62
7
  6
CONTINUOUS
 70
0
 71
3
 72
36
 73
32
 74
0
 42
0.0000001
 43
0.0000001
 44
0.0000000001
 40
0.0
 40
0.0
 40
0.0
 40
0.0
 40
0.0851782549
 40
0.1685794717
 40
0.2498815305
 40
0.2896476665
 40
0.3287728953
 40
0.3672203563
 40
0.4049539849
 40
0.441938865
 40
0.4781410438
 40
0.5135278984
 40
0.5480678468
 40
0.581730859
 40
0.6144881143
 40
0.6463125324
 40
0.6771784994
 40
0.7070623306
 40
0.7359421716
 40
0.7637983224
 40
0.7906133994
 40
0.8163724995
 40
0.8410636778
 40
0.8646779905
 40
0.8872103144
 40
0.908659385
 40
0.9290289611
 40
0.9483280668
 40
0.9665725025
 40
0.9837855762
 40
1.0
 40
1.0
 40
1.0
 40
1.0
 10
6.8471165491
 20
7.4238926426
 30
0.0
 10
6.8471165491
 20
7.4096375948
 30
0.0
 10
6.8473594504
 20
7.3814241905
 30
0.0
 10
6.8484735811
 20
7.3396178057
 30
0.0
 10
6.8500310432
 20
7.3054317859
 30
0.0
 10
6.8516552717
 20
7.2786713939
 30
0.0
 10
6.8530472266
 20
7.2590831189
 30
0.0
 10
6.8546203681
 20
7.2398498272
 30
0.0
 10
6.8563730813
 20
7.2209917553
 30
0.0
 10
6.8583034519
 20
7.2025287839
 30
0.0
 10
6.8604094979
 20
7.1844803505
 30
0.0
 10
6.8626889079
 20
7.1668654659
 30
0.0
 10
6.8651393503
 20
7.1497026701
 30
0.0
 10
6.8677581363
 20
7.1330100326
 30
0.0
 10
6.8705425761
 20
7.1168051141
 30
0.0
 10
6.8734896356
 20
7.101104961
 30
0.0
 10
6.8765962585
 20
7.0859260778
 30
0.0
 10
6.8798590984
 20
7.0712844115
 30
0.0
 10
6.8832747303
 20
7.0571953337
 30
0.0
 10
6.8868395266
 20
7.0436736198
 30
0.0
 10
6.8905497011
 20
7.0307334312
 30
0.0
 10
6.8944013755
 20
7.0183883036
 30
0.0
 10
6.8983904239
 20
7.0066511096
 30
0.0
 10
6.9025127481
 20
6.9955340792
 30
0.0
 10
6.9067639293
 20
6.9850487179
 30
0.0
 10
6.9111396852
 20
6.9752058863
 30
0.0
 10
6.915635396
 20
6.9660156441
 30
0.0
 10
6.9202466335
 20
6.9574874515
 30
0.0
 10
6.9249688018
 20
6.949629783
 30
0.0
 10
6.9297971779
 20
6.9424510199
 30
0.0
 10
6.9331828106
 20
6.9379923037
 30
0.0
 10
6.9348949817
 20
6.9358870847
 30
0.0
  0
SPLINE
  5
39D
100
AcDbEntity
  8
0
100
AcDbSpline
 62
7
  6
CONTINUOUS
 70
0
 71
3
 72
50
 73
46
 74
0
 42
0.0000001
 43
0.0000001
 44
0.0000000001
 40
0.0
 40
0.0
 40
0.0
 40
0.0
 40
0.0071626001
 40
0.0146566565
 40
0.022489792
 40
0.030668278
 40
0.0391972242
 40
0.0480804167
 40
0.0573201213
 40
0.0669176237
 40
0.0768732215
 40
0.0871863849
 40
0.0978558927
 40
0.1088796928
 40
0.1202552333
 40
0.1319792989
 40
0.1440481713
 40
0.1564576983
 40
0.1692031661
 40
0.1822795673
 40
0.1956813995
 40
0.2094028373
 40
0.2234377369
 40
0.2377795425
 40
0.2673560619
 40
0.2980749697
 40
0.3298741844
 40
0.3626878532
 40
0.3964467164
 40
0.4310784344
 40
0.4665078861
 40
0.5026574821
 40
0.5394474494
 40
0.5767960996
 40
0.6146200907
 40
0.6528346799
 40
0.6913539906
 40
0.7300912678
 40
0.7689591398
 40
0.8078698466
 40
0.8467354869
 40
0.8854684628
 40
0.9239808526
 40
0.9621873501
 40
1.0
 40
1.0
 40
1.0
 40
1.0
 10
7.0251839051
 20
9.9508198148
 30
0.0
 10
7.0236935916
 20
9.9493802825
 30
0.0
 10
7.0207149496
 20
9.9463604435
 30
0.0
 10
7.0163492273
 20
9.941534467
 30
0.0
 10
7.0119890533
 20
9.9363144274
 30
0.0
 10
7.0076372371
 20
9.9307037037
 30
0.0
 10
7.003296167
 20
9.9247055842
 30
0.0
 10
6.9989684005
 20
9.9183235134
 30
0.0
 10
6.9946563696
 20
9.9115612953
 30
0.0
 10
6.9903627335
 20
9.9044229136
 30
0.0
 10
6.9860900241
 20
9.8969126396
 30
0.0
 10
6.9818407625
 20
9.8890349526
 30
0.0
 10
6.9776175572
 20
9.880794523
 30
0.0
 10
6.9734228504
 20
9.8721963043
 30
0.0
 10
6.9692592445
 20
9.8632454148
 30
0.0
 10
6.9651291997
 20
9.8539472313
 30
0.0
 10
6.9610351964
 20
9.8443073268
 30
0.0
 10
6.9569797507
 20
9.8343314716
 30
0.0
 10
6.9529652295
 20
9.8240256714
 30
0.0
 10
6.94899413
 20
9.8133960985
 30
0.0
 10
6.9450687935
 20
9.8024491509
 30
0.0
 10
6.9411916022
 20
9.7911914073
 30
0.0
 10
6.9373649082
 20
9.7796296224
 30
0.0
 10
6.9322808742
 20
9.763653827
 30
0.0
 10
6.9260778606
 20
9.7429708202
 30
0.0
 10
6.9189456543
 20
9.7173000415
 30
0.0
 10
6.912067958
 20
9.6905918595
 30
0.0
 10
6.9054614099
 20
9.6629105512
 30
0.0
 10
6.8991420065
 20
9.6343226228
 30
0.0
 10
6.8931250427
 20
9.6048968331
 30
0.0
 10
6.8874250655
 20
9.5747039746
 30
0.0
 10
6.8820558537
 20
9.5438167068
 30
0.0
 10
6.8770303844
 20
9.5123093687
 30
0.0
 10
6.8723608019
 20
9.4802577998
 30
0.0
 10
6.8680583921
 20
9.4477391597
 30
0.0
 10
6.8641335408
 20
9.4148317428
 30
0.0
 10
6.8605957167
 20
9.3816147862
 30
0.0
 10
6.8574534538
 20
9.3481682723
 30
0.0
 10
6.8547143312
 20
9.3145727391
 30
0.0
 10
6.8523849573
 20
9.2809090919
 30
0.0
 10
6.8504709339
 20
9.2472583589
 30
0.0
 10
6.8489768879
 20
9.2137017018
 30
0.0
 10
6.8479063393
 20
9.1803196112
 30
0.0
 10
6.8472619457
 20
9.1471929004
 30
0.0
 10
6.8471165491
 20
9.1252015303
 30
0.0
 10
6.8471165491
 20
9.1142629387
 30
0.0
  0
LINE
  5
39E
100
AcDbEntity
  8
0
100
AcDbLine
 62
7
  6
CONTINUOUS
 10
13.8928047095
 20
7.2167831165
 11
13.8923032914
 21
7.2147470971
  0
SPLINE
  5
39F
100
AcDbEntity
  8
0
100
AcDbSpline
 62
7
  6
CONTINUOUS
 70
0
 71
3
 72
31
 73
27
 74
0
 42
0.0000001
 43
0.0000001
 44
0.0000000001
 40
0.0
 40
0.0
 40
0.0
 40
0.0
 40
0.0845523558
 40
0.1666178108
 40
0.2460672364
 40
0.3227789711
 40
0.3966393249
 40
0.4675432917
 40
0.5353957142
 40
0.6001124372
 40
0.6312727014
 40
0.6616232116
 40
0.6911570144
 40
0.7198684854
 40
0.7477528787
 40
0.7748065643
 40
0.8010275148
 40
0.826414826
 40
0.8509691532
 40
0.8746929751
 40
0.8975903689
 40
0.9196680079
 40
0.9409352002
 40
0.9614034664
 40
0.9810863296
 40
1.0
 40
1.0
 40
1.0
 40
1.0
 10
13.8923032914
 20
7.2147470971
 30
0.0
 10
13.8903561789
 20
7.2068631969
 30
0.0
 10
13.8863999877
 20
7.1913563892
 30
0.0
 10
13.8801810882
 20
7.1685547704
 30
0.0
 10
13.8737744585
 20
7.146588368
 30
0.0
 10
13.867192116
 20
7.1254980107
 30
0.0
 10
13.8604463705
 20
7.1053227958
 30
0.0
 10
13.8535498123
 20
7.0861000678
 30
0.0
 10
13.8465153249
 20
7.0678655202
 30
0.0
 10
13.8404755762
 20
7.0533439832
 30
0.0
 10
13.8355770644
 20
7.0422538092
 30
0.0
 10
13.8319232907
 20
7.0343090318
 30
0.0
 10
13.8282448785
 20
7.0266356322
 30
0.0
 10
13.8245435729
 20
7.0192371356
 30
0.0
 10
13.8208210886
 20
7.0121169718
 30
0.0
 10
13.8170791063
 20
7.0052784522
 30
0.0
 10
13.8133194185
 20
6.9987247023
 30
0.0
 10
13.8095437218
 20
6.9924587613
 30
0.0
 10
13.8057537461
 20
6.9864835361
 30
0.0
 10
13.801951313
 20
6.9808017542
 30
0.0
 10
13.7981381115
 20
6.9754160545
 30
0.0
 10
13.7943158481
 20
6.9703288675
 30
0.0
 10
13.7904862405
 20
6.9655424435
 30
0.0
 10
13.7866509203
 20
6.9610590327
 30
0.0
 10
13.7828119226
 20
6.9568808853
 30
0.0
 10
13.7802000867
 20
6.9542486245
 30
0.0
 10
13.7788935227
 20
6.9529865806
 30
0.0
  0
SPLINE
  5
3A0
100
AcDbEntity
  8
0
100
AcDbSpline
 62
7
  6
CONTINUOUS
 70
0
 71
3
 72
39
 73
35
 74
0
 42
0.0000001
 43
0.0000001
 44
0.0000000001
 40
0.0
 40
0.0
 40
0.0
 40
0.0
 40
0.0299424718
 40
0.0599093198
 40
0.0899243266
 40
0.120010106
 40
0.1501875647
 40
0.1804754164
 40
0.2108897604
 40
0.2414437366
 40
0.2721472601
 40
0.3030068419
 40
0.3340254933
 40
0.365202712
 40
0.3965345466
 40
0.4280137318
 40
0.4596298892
 40
0.491369784
 40
0.5232176323
 40
0.5551554498
 40
0.5871634345
 40
0.6192203774
 40
0.651304093
 40
0.6833918636
 40
0.7154608911
 40
0.7474887497
 40
0.7794538335
 40
0.8113357936
 40
0.8431159524
 40
0.8747777124
 40
0.906306864
 40
0.9376920822
 40
0.9689247084
 40
1.0
 40
1.0
 40
1.0
 40
1.0
 10
7.5231812238
 20
7.1872698565
 30
0.0
 10
7.5280917652
 20
7.1920130761
 30
0.0
 10
7.5382989752
 20
7.2011167177
 30
0.0
 10
7.5546525164
 20
7.2135188173
 30
0.0
 10
7.5719651945
 20
7.2246054864
 30
0.0
 10
7.5901402736
 20
7.2343145321
 30
0.0
 10
7.6090778283
 20
7.2425929118
 30
0.0
 10
7.6286733442
 20
7.2493951196
 30
0.0
 10
7.6488188383
 20
7.2546839379
 30
0.0
 10
7.6694033233
 20
7.2584304922
 30
0.0
 10
7.6903134648
 20
7.2606144316
 30
0.0
 10
7.7114341987
 20
7.2612240147
 30
0.0
 10
7.7326493663
 20
7.2602561621
 30
0.0
 10
7.7538423493
 20
7.257716458
 30
0.0
 10
7.7748967051
 20
7.2536191077
 30
0.0
 10
7.7956967989
 20
7.2479868501
 30
0.0
 10
7.8161284303
 20
7.2408508252
 30
0.0
 10
7.8360794513
 20
7.2322503982
 30
0.0
 10
7.8554403735
 20
7.2222329403
 30
0.0
 10
7.8741049608
 20
7.210853569
 30
0.0
 10
7.8919708048
 20
7.1981748442
 30
0.0
 10
7.9089398789
 20
7.1842664264
 30
0.0
 10
7.9249190703
 20
7.1692046968
 30
0.0
 10
7.9398206845
 20
7.1530723419
 30
0.0
 10
7.9535629222
 20
7.1359579039
 30
0.0
 10
7.9660703233
 20
7.1179552992
 30
0.0
 10
7.9772741783
 20
7.0991633102
 30
0.0
 10
7.9871128998
 20
7.0796850453
 30
0.0
 10
7.9955323674
 20
7.059627394
 30
0.0
 10
8.0024862014
 20
7.0391004007
 30
0.0
 10
8.0079360741
 20
7.0182168359
 30
0.0
 10
8.011851802
 20
6.997090969
 30
0.0
 10
8.0142117333
 20
6.9758403276
 30
0.0
 10
8.0147403021
 20
6.961627876
 30
0.0
 10
8.0147403021
 20
6.9545423135
 30
0.0
  0
SPLINE
  5
3A1
100
AcDbEntity
  8
0
100
AcDbSpline
 62
7
  6
CONTINUOUS
 70
0
 71
3
 72
39
 73
35
 74
0
 42
0.0000001
 43
0.0000001
 44
0.0000000001
 40
0.0
 40
0.0
 40
0.0
 40
0.0
 40
0.0299424718
 40
0.0599093198
 40
0.0899243266
 40
0.120010106
 40
0.1501875647
 40
0.1804754164
 40
0.2108897604
 40
0.2414437366
 40
0.2721472601
 40
0.3030068419
 40
0.3340254933
 40
0.365202712
 40
0.3965345466
 40
0.4280137318
 40
0.4596298892
 40
0.491369784
 40
0.5232176323
 40
0.5551554498
 40
0.5871634345
 40
0.6192203774
 40
0.651304093
 40
0.6833918636
 40
0.7154608911
 40
0.7474887497
 40
0.7794538335
 40
0.8113357936
 40
0.8431159524
 40
0.8747777124
 40
0.906306864
 40
0.9376920822
 40
0.9689247084
 40
1.0
 40
1.0
 40
1.0
 40
1.0
 10
7.5231812238
 20
9.6020845653
 30
0.0
 10
7.5280917652
 20
9.6068277849
 30
0.0
 10
7.5382989752
 20
9.6159314265
 30
0.0
 10
7.5546525164
 20
9.6283335261
 30
0.0
 10
7.5719651945
 20
9.6394201952
 30
0.0
 10
7.5901402736
 20
9.6491292409
 30
0.0
 10
7.6090778283
 20
9.6574076206
 30
0.0
 10
7.6286733442
 20
9.6642098284
 30
0.0
 10
7.6488188383
 20
9.6694986467
 30
0.0
 10
7.6694033233
 20
9.673245201
 30
0.0
 10
7.6903134648
 20
9.6754291404
 30
0.0
 10
7.7114341987
 20
9.6760387235
 30
0.0
 10
7.7326493663
 20
9.6750708709
 30
0.0
 10
7.7538423493
 20
9.6725311668
 30
0.0
 10
7.7748967051
 20
9.6684338165
 30
0.0
 10
7.7956967989
 20
9.6628015589
 30
0.0
 10
7.8161284303
 20
9.655665534
 30
0.0
 10
7.8360794513
 20
9.647065107
 30
0.0
 10
7.8554403735
 20
9.6370476491
 30
0.0
 10
7.8741049608
 20
9.6256682778
 30
0.0
 10
7.8919708048
 20
9.612989553
 30
0.0
 10
7.9089398789
 20
9.5990811352
 30
0.0
 10
7.9249190703
 20
9.5840194056
 30
0.0
 10
7.9398206845
 20
9.5678870507
 30
0.0
 10
7.9535629222
 20
9.5507726127
 30
0.0
 10
7.9660703233
 20
9.532770008
 30
0.0
 10
7.9772741783
 20
9.513978019
 30
0.0
 10
7.9871128998
 20
9.4944997541
 30
0.0
 10
7.9955323674
 20
9.4744421028
 30
0.0
 10
8.0024862014
 20
9.4539151095
 30
0.0
 10
8.0079360741
 20
9.4330315447
 30
0.0
 10
8.011851802
 20
9.4119056778
 30
0.0
 10
8.0142117333
 20
9.3906550364
 30
0.0
 10
8.0147403021
 20
9.3764425848
 30
0.0
 10
8.0147403021
 20
9.3693570223
 30
0.0
  0
SPLINE
  5
3A2
100
AcDbEntity
  8
0
100
AcDbSpline
 62
7
  6
CONTINUOUS
 70
0
 71
3
 72
39
 73
35
 74
0
 42
0.0000001
 43
0.0000001
 44
0.0000000001
 40
0.0
 40
0.0
 40
0.0
 40
0.0
 40
0.0299424718
 40
0.0599093198
 40
0.0899243266
 40
0.120010106
 40
0.1501875647
 40
0.1804754164
 40
0.2108897604
 40
0.2414437366
 40
0.2721472601
 40
0.3030068419
 40
0.3340254933
 40
0.365202712
 40
0.3965345466
 40
0.4280137318
 40
0.4596298892
 40
0.491369784
 40
0.5232176323
 40
0.5551554498
 40
0.5871634345
 40
0.6192203774
 40
0.651304093
 40
0.6833918636
 40
0.7154608911
 40
0.7474887497
 40
0.7794538335
 40
0.8113357936
 40
0.8431159524
 40
0.8747777124
 40
0.906306864
 40
0.9376920822
 40
0.9689247084
 40
1.0
 40
1.0
 40
1.0
 40
1.0
 10
10.6025526751
 20
9.3885294298
 30
0.0
 10
10.6074632166
 20
9.3932726494
 30
0.0
 10
10.6176704266
 20
9.402376291
 30
0.0
 10
10.6340239678
 20
9.4147783906
 30
0.0
 10
10.6513366459
 20
9.4258650597
 30
0.0
 10
10.669511725
 20
9.4355741054
 30
0.0
 10
10.6884492797
 20
9.4438524851
 30
0.0
 10
10.7080447956
 20
9.4506546929
 30
0.0
 10
10.7281902897
 20
9.4559435112
 30
0.0
 10
10.7487747746
 20
9.4596900656
 30
0.0
 10
10.7696849162
 20
9.4618740049
 30
0.0
 10
10.7908056501
 20
9.462483588
 30
0.0
 10
10.8120208176
 20
9.4615157354
 30
0.0
 10
10.8332138006
 20
9.4589760313
 30
0.0
 10
10.8542681565
 20
9.454878681
 30
0.0
 10
10.8750682503
 20
9.4492464234
 30
0.0
 10
10.8954998816
 20
9.4421103985
 30
0.0
 10
10.9154509027
 20
9.4335099715
 30
0.0
 10
10.9348118248
 20
9.4234925136
 30
0.0
 10
10.9534764122
 20
9.4121131423
 30
0.0
 10
10.9713422562
 20
9.3994344175
 30
0.0
 10
10.9883113303
 20
9.3855259997
 30
0.0
 10
11.0042905216
 20
9.3704642701
 30
0.0
 10
11.0191921359
 20
9.3543319152
 30
0.0
 10
11.0329343736
 20
9.3372174772
 30
0.0
 10
11.0454417747
 20
9.3192148725
 30
0.0
 10
11.0566456297
 20
9.3004228835
 30
0.0
 10
11.0664843512
 20
9.2809446187
 30
0.0
 10
11.0749038188
 20
9.2608869673
 30
0.0
 10
11.0818576528
 20
9.2403599741
 30
0.0
 10
11.0873075255
 20
9.2194764092
 30
0.0
 10
11.0912232534
 20
9.1983505423
 30
0.0
 10
11.0935831846
 20
9.1770999009
 30
0.0
 10
11.0941117535
 20
9.1628874493
 30
0.0
 10
11.0941117535
 20
9.1558018868
 30
0.0
  0
SPLINE
  5
3A3
100
AcDbEntity
  8
0
100
AcDbSpline
 62
7
  6
CONTINUOUS
 70
0
 71
3
 72
39
 73
35
 74
0
 42
0.0000001
 43
0.0000001
 44
0.0000000001
 40
0.0
 40
0.0
 40
0.0
 40
0.0
 40
0.0299424718
 40
0.0599093198
 40
0.0899243266
 40
0.120010106
 40
0.1501875647
 40
0.1804754164
 40
0.2108897604
 40
0.2414437366
 40
0.2721472601
 40
0.3030068419
 40
0.3340254933
 40
0.365202712
 40
0.3965345466
 40
0.4280137318
 40
0.4596298892
 40
0.491369784
 40
0.5232176323
 40
0.5551554498
 40
0.5871634345
 40
0.6192203774
 40
0.651304093
 40
0.6833918636
 40
0.7154608911
 40
0.7474887497
 40
0.7794538335
 40
0.8113357936
 40
0.8431159524
 40
0.8747777124
 40
0.906306864
 40
0.9376920822
 40
0.9689247084
 40
1.0
 40
1.0
 40
1.0
 40
1.0
 10
10.6025526751
 20
6.973714721
 30
0.0
 10
10.6074632166
 20
6.9784579406
 30
0.0
 10
10.6176704266
 20
6.9875615822
 30
0.0
 10
10.6340239678
 20
6.9999636818
 30
0.0
 10
10.6513366459
 20
7.0110503509
 30
0.0
 10
10.669511725
 20
7.0207593966
 30
0.0
 10
10.6884492797
 20
7.0290377763
 30
0.0
 10
10.7080447956
 20
7.0358399841
 30
0.0
 10
10.7281902897
 20
7.0411288024
 30
0.0
 10
10.7487747746
 20
7.0448753567
 30
0.0
 10
10.7696849162
 20
7.0470592961
 30
0.0
 10
10.7908056501
 20
7.0476688792
 30
0.0
 10
10.8120208176
 20
7.0467010266
 30
0.0
 10
10.8332138006
 20
7.0441613225
 30
0.0
 10
10.8542681565
 20
7.0400639722
 30
0.0
 10
10.8750682503
 20
7.0344317146
 30
0.0
 10
10.8954998816
 20
7.0272956897
 30
0.0
 10
10.9154509027
 20
7.0186952627
 30
0.0
 10
10.9348118248
 20
7.0086778048
 30
0.0
 10
10.9534764122
 20
6.9972984335
 30
0.0
 10
10.9713422562
 20
6.9846197087
 30
0.0
 10
10.9883113303
 20
6.9707112909
 30
0.0
 10
11.0042905216
 20
6.9556495613
 30
0.0
 10
11.0191921359
 20
6.9395172064
 30
0.0
 10
11.0329343736
 20
6.9224027684
 30
0.0
 10
11.0454417747
 20
6.9044001637
 30
0.0
 10
11.0566456297
 20
6.8856081747
 30
0.0
 10
11.0664843512
 20
6.8661299099
 30
0.0
 10
11.0749038188
 20
6.8460722585
 30
0.0
 10
11.0818576528
 20
6.8255452652
 30
0.0
 10
11.0873075255
 20
6.8046617004
 30
0.0
 10
11.0912232534
 20
6.7835358335
 30
0.0
 10
11.0935831846
 20
6.7622851921
 30
0.0
 10
11.0941117535
 20
6.7480727405
 30
0.0
 10
11.0941117535
 20
6.740987178
 30
0.0
  0
SPLINE
  5
3A4
100
AcDbEntity
  8
0
100
AcDbSpline
 62
7
  6
CONTINUOUS
 70
0
 71
3
 72
41
 73
37
 74
0
 42
0.0000001
 43
0.0000001
 44
0.0000000001
 40
0.0
 40
0.0
 40
0.0
 40
0.0
 40
0.0299421261
 40
0.0449237712
 40
0.0599145221
 40
0.0899291772
 40
0.1200146013
 40
0.1350933596
 40
0.1501974793
 40
0.1804849718
 40
0.2108989568
 40
0.2414525746
 40
0.27215574
 40
0.3030149616
 40
0.3340332486
 40
0.3652100987
 40
0.3965415618
 40
0.4280203745
 40
0.4596361601
 40
0.4913756848
 40
0.5232231637
 40
0.55516061
 40
0.587168221
 40
0.6192247883
 40
0.6513081285
 40
0.6833955259
 40
0.7154641834
 40
0.747491675
 40
0.7794563926
 40
0.8113379819
 40
0.8431177834
 40
0.8747791281
 40
0.9063080575
 40
0.9376925183
 40
0.9689255783
 40
1.0
 40
1.0
 40
1.0
 40
1.0
 10
9.1781945532
 20
8.1685030604
 30
0.0
 10
9.1803512092
 20
8.1705862392
 30
0.0
 10
9.1837132878
 20
8.1735848135
 30
0.0
 10
9.1884218504
 20
8.1773053504
 30
0.0
 10
9.1932803338
 20
8.1808407809
 30
0.0
 10
9.1996198782
 20
8.1849005892
 30
0.0
 10
9.20626767
 20
8.1884517281
 30
0.0
 10
9.2117503423
 20
8.1909780976
 30
0.0
 10
9.217346325
 20
8.1932958019
 30
0.0
 10
9.2245256759
 20
8.1957880946
 30
0.0
 10
9.233373164
 20
8.1981108299
 30
0.0
 10
9.2424137082
 20
8.1997563387
 30
0.0
 10
9.2515972137
 20
8.2007155205
 30
0.0
 10
9.2608732294
 20
8.2009832635
 30
0.0
 10
9.2701907152
 20
8.2005582091
 30
0.0
 10
9.27949846
 20
8.1994428159
 30
0.0
 10
9.2887453224
 20
8.197643323
 30
0.0
 10
9.2978805181
 20
8.1951697167
 30
0.0
 10
9.3068538914
 20
8.1920356713
 30
0.0
 10
9.3156161872
 20
8.1882584722
 30
0.0
 10
9.3241193156
 20
8.1838589192
 30
0.0
 10
9.3323166192
 20
8.1788612233
 30
0.0
 10
9.3401631229
 20
8.1732928642
 30
0.0
 10
9.3476157762
 20
8.1671844379
 30
0.0
 10
9.3546336859
 20
8.1605694903
 30
0.0
 10
9.3611783376
 20
8.1534843354
 30
0.0
 10
9.3672138041
 20
8.1459678578
 30
0.0
 10
9.3727069412
 20
8.1380613028
 30
0.0
 10
9.377627565
 20
8.1298080521
 30
0.0
 10
9.381948635
 20
8.1212533942
 30
0.0
 10
9.3856463713
 20
8.1124442771
 30
0.0
 10
9.3887004459
 20
8.1034290239
 30
0.0
 10
9.3910939384
 20
8.0942571954
 30
0.0
 10
9.3928137578
 20
8.0849788851
 30
0.0
 10
9.3938501606
 20
8.0756458215
 30
0.0
 10
9.3940823311
 20
8.0694038298
 30
0.0
 10
9.3940823311
 20
8.0662919733
 30
0.0
  0
SPLINE
  5
3A5
100
AcDbEntity
  8
0
100
AcDbSpline
 62
7
  6
CONTINUOUS
 70
0
 71
3
 72
41
 73
37
 74
0
 42
0.0000001
 43
0.0000001
 44
0.0000000001
 40
0.0
 40
0.0
 40
0.0
 40
0.0
 40
0.0299421261
 40
0.0449237712
 40
0.0599145221
 40
0.0899291772
 40
0.1200146013
 40
0.1350933596
 40
0.1501974793
 40
0.1804849718
 40
0.2108989568
 40
0.2414525746
 40
0.27215574
 40
0.3030149616
 40
0.3340332486
 40
0.3652100987
 40
0.3965415618
 40
0.4280203745
 40
0.4596361601
 40
0.4913756848
 40
0.5232231637
 40
0.55516061
 40
0.587168221
 40
0.6192247883
 40
0.6513081285
 40
0.6833955259
 40
0.7154641834
 40
0.747491675
 40
0.7794563926
 40
0.8113379819
 40
0.8431177834
 40
0.8747791281
 40
0.9063080575
 40
0.9376925183
 40
0.9689255783
 40
1.0
 40
1.0
 40
1.0
 40
1.0
 10
8.3030655701
 20
6.9908764737
 30
0.0
 10
8.3052222261
 20
6.9929596526
 30
0.0
 10
8.3085843046
 20
6.9959582269
 30
0.0
 10
8.3132928673
 20
6.9996787637
 30
0.0
 10
8.3181513507
 20
7.0032141943
 30
0.0
 10
8.3244908951
 20
7.0072740025
 30
0.0
 10
8.3311386869
 20
7.0108251415
 30
0.0
 10
8.3366213592
 20
7.0133515109
 30
0.0
 10
8.3422173419
 20
7.0156692153
 30
0.0
 10
8.3493966928
 20
7.0181615079
 30
0.0
 10
8.3582441808
 20
7.0204842433
 30
0.0
 10
8.3672847251
 20
7.0221297521
 30
0.0
 10
8.3764682306
 20
7.0230889339
 30
0.0
 10
8.3857442463
 20
7.0233566768
 30
0.0
 10
8.3950617321
 20
7.0229316225
 30
0.0
 10
8.4043694768
 20
7.0218162292
 30
0.0
 10
8.4136163392
 20
7.0200167363
 30
0.0
 10
8.422751535
 20
7.0175431301
 30
0.0
 10
8.4317249083
 20
7.0144090847
 30
0.0
 10
8.4404872041
 20
7.0106318856
 30
0.0
 10
8.4489903325
 20
7.0062323326
 30
0.0
 10
8.457187636
 20
7.0012346366
 30
0.0
 10
8.4650341398
 20
6.9956662776
 30
0.0
 10
8.4724867931
 20
6.9895578512
 30
0.0
 10
8.4795047028
 20
6.9829429037
 30
0.0
 10
8.4860493544
 20
6.9758577487
 30
0.0
 10
8.492084821
 20
6.9683412712
 30
0.0
 10
8.4975779581
 20
6.9604347162
 30
0.0
 10
8.5024985819
 20
6.9521814655
 30
0.0
 10
8.5068196519
 20
6.9436268076
 30
0.0
 10
8.5105173881
 20
6.9348176905
 30
0.0
 10
8.5135714628
 20
6.9258024373
 30
0.0
 10
8.5159649553
 20
6.9166306088
 30
0.0
 10
8.5176847747
 20
6.9073522985
 30
0.0
 10
8.5187211775
 20
6.8980192349
 30
0.0
 10
8.518953348
 20
6.8917772432
 30
0.0
 10
8.518953348
 20
6.8886653866
 30
0.0
  0
SPLINE
  5
3A6
100
AcDbEntity
  8
0
100
AcDbSpline
 62
7
  6
CONTINUOUS
 70
0
 71
3
 72
40
 73
36
 74
0
 42
0.0000001
 43
0.0000001
 44
0.0000000001
 40
0.0
 40
0.0
 40
0.0
 40
0.0
 40
0.0299423125
 40
0.0599090018
 40
0.0899238508
 40
0.1200094733
 40
0.1501867762
 40
0.1804744729
 40
0.2108886626
 40
0.2414424842
 40
0.2721458521
 40
0.3030052766
 40
0.3340237684
 40
0.3652008254
 40
0.3965324962
 40
0.428011516
 40
0.4596275069
 40
0.4913672348
 40
0.5232149163
 40
0.5551525674
 40
0.5871603865
 40
0.6192171641
 40
0.651300714
 40
0.6833883179
 40
0.7154571777
 40
0.7474848674
 40
0.7794497828
 40
0.8113315712
 40
0.8431115708
 40
0.8747731339
 40
0.9063022077
 40
0.9376870316
 40
0.9533250855
 40
0.9689251742
 40
1.0
 40
1.0
 40
1.0
 40
1.0
 10
10.0352604177
 20
6.8881967893
 30
0.0
 10
10.0378484059
 20
6.8906965901
 30
0.0
 10
10.0432278884
 20
6.8954944391
 30
0.0
 10
10.0518466475
 20
6.9020306656
 30
0.0
 10
10.060970897
 20
6.9078736251
 30
0.0
 10
10.0705496533
 20
6.9129905419
 30
0.0
 10
10.0805302542
 20
6.9173534598
 30
0.0
 10
10.0908576181
 20
6.920938395
 30
0.0
 10
10.1014748355
 20
6.9237257312
 30
0.0
 10
10.1123234126
 20
6.9257002497
 30
0.0
 10
10.1233436182
 20
6.9268512268
 30
0.0
 10
10.1344748099
 20
6.9271724756
 30
0.0
 10
10.145655769
 20
6.9266623744
 30
0.0
 10
10.1568250346
 20
6.9253238671
 30
0.0
 10
10.1679212389
 20
6.9231644409
 30
0.0
 10
10.1788834396
 20
6.9201960803
 30
0.0
 10
10.1896514509
 20
6.9164351969
 30
0.0
 10
10.2001661681
 20
6.911902537
 30
0.0
 10
10.2103698884
 20
6.9066230663
 30
0.0
 10
10.2202066222
 20
6.9006258317
 30
0.0
 10
10.229622397
 20
6.8939438027
 30
0.0
 10
10.2385655486
 20
6.886613691
 30
0.0
 10
10.2469870037
 20
6.8786757519
 30
0.0
 10
10.2548405459
 20
6.8701735649
 30
0.0
 10
10.2620830649
 20
6.8611537946
 30
0.0
 10
10.2686747927
 20
6.8516659378
 30
0.0
 10
10.2745795162
 20
6.8417620569
 30
0.0
 10
10.2797647832
 20
6.831496487
 30
0.0
 10
10.2842020557
 20
6.820925584
 30
0.0
 10
10.2878669319
 20
6.8101072564
 30
0.0
 10
10.2907391055
 20
6.7991012646
 30
0.0
 10
10.2924610766
 20
6.7898110243
 30
0.0
 10
10.2934270407
 20
6.7823463842
 30
0.0
 10
10.2941164018
 20
6.7748888928
 30
0.0
 10
10.2943251569
 20
6.7692771774
 30
0.0
 10
10.2943251569
 20
6.7655429335
 30
0.0
  0
SPLINE
  5
3A7
100
AcDbEntity
  8
0
100
AcDbSpline
 62
7
  6
CONTINUOUS
 70
0
 71
3
 72
49
 73
45
 74
0
 42
0.0000001
 43
0.0000001
 44
0.0000000001
 40
0.0
 40
0.0
 40
0.0
 40
0.0
 40
0.0325233139
 40
0.0650247583
 40
0.0974815271
 40
0.1298735031
 40
0.1621832549
 40
0.1943959433
 40
0.2264991792
 40
0.2584828644
 40
0.2903390389
 40
0.32206175
 40
0.353646953
 40
0.3850924491
 40
0.416397866
 40
0.4475646802
 40
0.478596282
 40
0.5094980816
 40
0.5402776515
 40
0.5709448976
 40
0.6015122475
 40
0.6319948363
 40
0.6624106611
 40
0.6927806675
 40
0.7079590409
 40
0.7231352151
 40
0.7383125939
 40
0.7534947594
 40
0.7686853181
 40
0.7838881284
 40
0.7991069199
 40
0.8143456517
 40
0.8296081026
 40
0.844898092
 40
0.86021932
 40
0.8755752557
 40
0.8909692755
 40
0.9064043239
 40
0.9218831685
 40
0.9374082074
 40
0.9529810261
 40
0.9686032702
 40
0.9842770713
 40
1.0
 40
1.0
 40
1.0
 40
1.0
 10
10.1171324077
 20
8.2257860971
 30
0.0
 10
10.1219506494
 20
8.2208797756
 30
0.0
 10
10.1312247838
 20
8.2107106744
 30
0.0
 10
10.1439947368
 20
8.1945113502
 30
0.0
 10
10.155585744
 20
8.1774817988
 30
0.0
 10
10.1659659483
 20
8.159736456
 30
0.0
 10
10.175112722
 20
8.1413832289
 30
0.0
 10
10.1830093319
 20
8.1225251696
 30
0.0
 10
10.1896439684
 20
8.1032603208
 30
0.0
 10
10.1950084416
 20
8.0836823367
 30
0.0
 10
10.1990972583
 20
8.0638810935
 30
0.0
 10
10.201906872
 20
8.0439434286
 30
0.0
 10
10.2034351398
 20
8.0239539222
 30
0.0
 10
10.2036809563
 20
8.0039957088
 30
0.0
 10
10.2026440575
 20
7.9841512995
 30
0.0
 10
10.2003249851
 20
7.9645034021
 30
0.0
 10
10.1967252131
 20
7.9451357292
 30
0.0
 10
10.1918474382
 20
7.9261337799
 30
0.0
 10
10.1856960554
 20
7.9075855874
 30
0.0
 10
10.178277801
 20
7.889582377
 30
0.0
 10
10.1696027007
 20
7.8722192183
 30
0.0
 10
10.1596849087
 20
7.8555951902
 30
0.0
 10
10.1485450608
 20
7.839814597
 30
0.0
 10
10.1382616998
 20
7.8274519533
 30
0.0
 10
10.1294608466
 20
7.8180993744
 30
0.0
 10
10.1225769477
 20
7.8113652488
 30
0.0
 10
10.115415856
 20
7.8049255767
 30
0.0
 10
10.1079845617
 20
7.7987947187
 30
0.0
 10
10.1002912077
 20
7.7929870613
 30
0.0
 10
10.0923446733
 20
7.7875171305
 30
0.0
 10
10.0841550244
 20
7.7823989926
 30
0.0
 10
10.0757331933
 20
7.7776467643
 30
0.0
 10
10.0670913153
 20
7.7732739401
 30
0.0
 10
10.0582425734
 20
7.769293621
 30
0.0
 10
10.0492012343
 20
7.7657183609
 30
0.0
 10
10.0399827592
 20
7.762559678
 30
0.0
 10
10.0306035755
 20
7.7598285609
 30
0.0
 10
10.0210812421
 20
7.7575345812
 30
0.0
 10
10.0114342165
 20
7.7556863117
 30
0.0
 10
10.0016818754
 20
7.7542911295
 30
0.0
 10
9.9918444134
 20
7.7533545649
 30
0.0
 10
9.9819422696
 20
7.7528810897
 30
0.0
 10
9.9719973173
 20
7.7528734222
 30
0.0
 10
9.9653631095
 20
7.753178835
 30
0.0
 10
9.962046688
 20
7.7534088296
 30
0.0
  0
SPLINE
  5
3A8
100
AcDbEntity
  8
0
100
AcDbSpline
 62
7
  6
CONTINUOUS
 70
0
 71
3
 72
47
 73
43
 74
0
 42
0.0000001
 43
0.0000001
 44
0.0000000001
 40
0.0
 40
0.0
 40
0.0
 40
0.0
 40
0.0384841476
 40
0.0770789683
 40
0.1157233981
 40
0.1350478382
 40
0.1543620144
 40
0.1929243928
 40
0.2313555786
 40
0.2695952633
 40
0.3075827023
 40
0.3452568453
 40
0.3825566204
 40
0.4194213878
 40
0.4557916887
 40
0.4916100477
 40
0.5268214882
 40
0.5613739918
 40
0.5952183856
 40
0.6118633364
 40
0.6283137678
 40
0.6606032555
 40
0.6920478373
 40
0.722601425
 40
0.7375315796
 40
0.7522204755
 40
0.7808418952
 40
0.8084134008
 40
0.8348726226
 40
0.8601532383
 40
0.8841875161
 40
0.8957193694
 40
0.9069161597
 40
0.9177712462
 40
0.9282797407
 40
0.9384378342
 40
0.9482442567
 40
0.9577001313
 40
0.9668095057
 40
0.9755807542
 40
0.9840255574
 40
1.0
 40
1.0
 40
1.0
 40
1.0
 10
9.8197277678
 20
7.8158651265
 30
0.0
 10
9.8168160239
 20
7.8193171713
 30
0.0
 10
9.8112070209
 20
7.826422761
 30
0.0
 10
9.8034936497
 20
7.8376101699
 30
0.0
 10
9.7976733836
 20
7.8473430367
 30
0.0
 10
9.7934029922
 20
7.8553453329
 30
0.0
 10
9.7894000163
 20
7.8634739707
 30
0.0
 10
9.7849073011
 20
7.8738538528
 30
0.0
 10
9.7803654383
 20
7.8866011564
 30
0.0
 10
9.7767063735
 20
7.8995597798
 30
0.0
 10
9.7739555289
 20
7.912650528
 30
0.0
 10
9.7721310001
 20
7.925791094
 30
0.0
 10
9.7712425386
 20
7.9388961259
 30
0.0
 10
9.7712902921
 20
7.9518783508
 30
0.0
 10
9.7722638099
 20
7.9646499305
 30
0.0
 10
9.7741413196
 20
7.9771241044
 30
0.0
 10
9.7768895888
 20
7.9892172158
 30
0.0
 10
9.7804638291
 20
8.0008498986
 30
0.0
 10
9.7841055191
 20
8.0101522623
 30
0.0
 10
9.7873798007
 20
8.0172944163
 30
0.0
 10
9.7908382494
 20
8.0241453317
 30
0.0
 10
9.7955475632
 20
8.0323028152
 30
0.0
 10
9.8017888302
 20
8.041451046
 30
0.0
 10
9.8074265722
 20
8.0485134803
 30
0.0
 10
9.8121380666
 20
8.0537749025
 30
0.0
 10
9.8168856546
 20
8.0586930872
 30
0.0
 10
9.8229932649
 20
8.0643522063
 30
0.0
 10
9.8305904607
 20
8.0703962737
 30
0.0
 10
9.83830084
 20
8.0756254886
 30
0.0
 10
9.8460324175
 20
8.0800354798
 30
0.0
 10
9.8525057011
 20
8.0830697184
 30
0.0
 10
9.8576142369
 20
8.0850777025
 30
0.0
 10
9.861342266
 20
8.0863597824
 30
0.0
 10
9.8650087799
 20
8.0874396697
 30
0.0
 10
9.8686032598
 20
8.0883188008
 30
0.0
 10
9.8721155194
 20
8.088998648
 30
0.0
 10
9.8755356964
 20
8.0894809882
 30
0.0
 10
9.8788544344
 20
8.0897678228
 30
0.0
 10
9.8820627419
 20
8.0898612382
 30
0.0
 10
9.8851527832
 20
8.0897636353
 30
0.0
 10
9.8890310847
 20
8.0893893073
 30
0.0
 10
9.8918540605
 20
8.0888236232
 30
0.0
 10
9.8936563844
 20
8.0883081784
 30
0.0
  0
SPLINE
  5
3A9
100
AcDbEntity
  8
0
100
AcDbSpline
 62
7
  6
CONTINUOUS
 70
0
 71
3
 72
66
 73
62
 74
0
 42
0.0000001
 43
0.0000001
 44
0.0000000001
 40
0.0
 40
0.0
 40
0.0
 40
0.0
 40
0.0157160354
 40
0.0314850949
 40
0.0473065728
 40
0.0631784073
 40
0.0790975606
 40
0.0950608627
 40
0.111064651
 40
0.1271048777
 40
0.1431771846
 40
0.1592769779
 40
0.175399467
 40
0.1915396962
 40
0.2076926555
 40
0.2238533034
 40
0.2400165822
 40
0.2561775324
 40
0.2723312977
 40
0.2884731287
 40
0.3206950397
 40
0.3528176237
 40
0.3848112329
 40
0.4166509491
 40
0.4483170738
 40
0.4640844064
 40
0.4798035406
 40
0.4954736489
 40
0.5110942745
 40
0.5266653574
 40
0.5421872251
 40
0.5576606013
 40
0.5730866016
 40
0.5884667414
 40
0.6038029335
 40
0.6190974668
 40
0.6343530314
 40
0.6495726835
 40
0.6647598281
 40
0.679918242
 40
0.6950520021
 40
0.7101654817
 40
0.7252633507
 40
0.7403504772
 40
0.7554319294
 40
0.7705129484
 40
0.7855988317
 40
0.8006949305
 40
0.8158066014
 40
0.8309390809
 40
0.8460974723
 40
0.8612866898
 40
0.8765113359
 40
0.8917756843
 40
0.9070836214
 40
0.9224385351
 40
0.9378434062
 40
0.9533004995
 40
0.9688113716
 40
0.9843784656
 40
1.0
 40
1.0
 40
1.0
 40
1.0
 10
9.276607073
 20
7.5102692936
 30
0.0
 10
9.2806005481
 20
7.5098529867
 30
0.0
 10
9.2885811157
 20
7.508814235
 30
0.0
 10
9.3004762395
 20
7.5066483035
 30
0.0
 10
9.3122865379
 20
7.5038784032
 30
0.0
 10
9.3239809091
 20
7.5005131141
 30
0.0
 10
9.3355290311
 20
7.4965626226
 30
0.0
 10
9.3469011245
 20
7.4920390079
 30
0.0
 10
9.3580683851
 20
7.4869560737
 30
0.0
 10
9.3690028875
 20
7.4813290847
 30
0.0
 10
9.3796777178
 20
7.4751746996
 30
0.0
 10
9.3900671653
 20
7.4685110311
 30
0.0
 10
9.4001466732
 20
7.4613573131
 30
0.0
 10
9.4098928652
 20
7.4537337773
 30
0.0
 10
9.4192837358
 20
7.4456617282
 30
0.0
 10
9.4282985478
 20
7.4371632577
 30
0.0
 10
9.4369178089
 20
7.4282610706
 30
0.0
 10
9.4451233849
 20
7.4189786852
 30
0.0
 10
9.4528986234
 20
7.4093397372
 30
0.0
 10
9.4626635336
 20
7.3960551411
 30
0.0
 10
9.4737203809
 20
7.3786829773
 30
0.0
 10
9.4850523862
 20
7.356799021
 30
0.0
 10
9.4943630194
 20
7.334085924
 30
0.0
 10
9.5015868332
 20
7.3107489428
 30
0.0
 10
9.5058342808
 20
7.2909164783
 30
0.0
 10
9.5081426414
 20
7.2749437746
 30
0.0
 10
9.5093268543
 20
7.2629502872
 30
0.0
 10
9.5099642204
 20
7.250953087
 30
0.0
 10
9.510053697
 20
7.2389770253
 30
0.0
 10
9.5095951584
 20
7.2270472873
 30
0.0
 10
9.5085893329
 20
7.215188888
 30
0.0
 10
9.5070377097
 20
7.2034268262
 30
0.0
 10
9.5049428285
 20
7.1917860125
 30
0.0
 10
9.5023080085
 20
7.1802913022
 30
0.0
 10
9.499137462
 20
7.1689674919
 30
0.0
 10
9.4954364744
 20
7.1578392505
 30
0.0
 10
9.4912111483
 20
7.1469311871
 30
0.0
 10
9.4864686385
 20
7.136267777
 30
0.0
 10
9.4812172075
 20
7.1258733004
 30
0.0
 10
9.4754660406
 20
7.1157719224
 30
0.0
 10
9.4692255341
 20
7.1059875311
 30
0.0
 10
9.462507249
 20
7.0965437089
 30
0.0
 10
9.4553238075
 20
7.0874637901
 30
0.0
 10
9.4476891714
 20
7.0787706194
 30
0.0
 10
9.4396185398
 20
7.0704865556
 30
0.0
 10
9.4311282941
 20
7.0626334921
 30
0.0
 10
9.4222362307
 20
7.0552325528
 30
0.0
 10
9.4129614353
 20
7.0483041114
 30
0.0
 10
9.4033242339
 20
7.0418677862
 30
0.0
 10
9.3933463572
 20
7.0359420935
 30
0.0
 10
9.383050809
 20
7.0305444598
 30
0.0
 10
9.3724617895
 20
7.0256912203
 30
0.0
 10
9.3616047728
 20
7.0213972623
 30
0.0
 10
9.3505063771
 20
7.0176760059
 30
0.0
 10
9.339194248
 20
7.0145394406
 30
0.0
 10
9.3276970252
 20
7.0119977977
 30
0.0
 10
9.3160442288
 20
7.0100595283
 30
0.0
 10
9.3042661953
 20
7.0087313141
 30
0.0
 10
9.2923934294
 20
7.0080178531
 30
0.0
 10
9.2804579891
 20
7.0079220565
 30
0.0
 10
9.2724933763
 20
7.0082697298
 30
0.0
 10
9.2685119663
 20
7.0085458415
 30
0.0
  0
SPLINE
  5
3AA
100
AcDbEntity
  8
0
100
AcDbSpline
 62
7
  6
CONTINUOUS
 70
0
 71
3
 72
23
 73
19
 74
0
 42
0.0000001
 43
0.0000001
 44
0.0000000001
 40
0.0
 40
0.0
 40
0.0
 40
0.0
 40
0.062240442
 40
0.1243296868
 40
0.1863037531
 40
0.2482017566
 40
0.3100652906
 40
0.371937684
 40
0.4338631428
 40
0.4958857872
 40
0.5580486125
 40
0.6203923991
 40
0.6829546282
 40
0.745768411
 40
0.8088615924
 40
0.8722557783
 40
0.9359660772
 40
1.0
 40
1.0
 40
1.0
 40
1.0
 10
9.0520192501
 20
9.0165443689
 30
0.0
 10
9.0544466607
 20
9.0214864198
 30
0.0
 10
9.0596438931
 20
9.0311919417
 30
0.0
 10
9.0684439205
 20
9.0451428527
 30
0.0
 10
9.0782064243
 20
9.0584018347
 30
0.0
 10
9.0888933976
 20
9.0709014561
 30
0.0
 10
9.1004623817
 20
9.0825773023
 30
0.0
 10
9.1128655243
 20
9.0933669303
 30
0.0
 10
9.126049671
 20
9.1032108266
 30
0.0
 10
9.1399562667
 20
9.1120529076
 30
0.0
 10
9.1545214171
 20
9.1198412038
 30
0.0
 10
9.1696760402
 20
9.1265285372
 30
0.0
 10
9.1853461303
 20
9.1320732074
 30
0.0
 10
9.2014531913
 20
9.1364396661
 30
0.0
 10
9.2179146234
 20
9.1395991201
 30
0.0
 10
9.2346448843
 20
9.1415300739
 30
0.0
 10
9.2515543309
 20
9.1422188249
 30
0.0
 10
9.2628608676
 20
9.1418467939
 30
0.0
 10
9.2685119663
 20
9.1414548889
 30
0.0
  0
SPLINE
  5
3AB
100
AcDbEntity
  8
0
100
AcDbSpline
 62
7
  6
CONTINUOUS
 70
0
 71
3
 72
34
 73
30
 74
0
 42
0.0000001
 43
0.0000001
 44
0.0000000001
 40
0.0
 40
0.0
 40
0.0
 40
0.0
 40
0.0629255936
 40
0.1256393776
 40
0.1881538338
 40
0.2193454975
 40
0.2504942492
 40
0.3126647143
 40
0.3747017938
 40
0.4056868322
 40
0.4366529127
 40
0.4676056203
 40
0.4985517757
 40
0.5294981075
 40
0.5604528623
 40
0.5914241105
 40
0.6224211889
 40
0.6534537396
 40
0.6845317176
 40
0.7156659068
 40
0.7468667267
 40
0.7781447637
 40
0.8095104655
 40
0.8409732481
 40
0.8725419598
 40
0.9042240748
 40
0.9360247605
 40
0.9679509237
 40
1.0
 40
1.0
 40
1.0
 40
1.0
 10
8.3448015512
 20
8.2330237502
 30
0.0
 10
8.3464966412
 20
8.2397813467
 30
0.0
 10
8.3502733234
 20
8.2531792829
 30
0.0
 10
8.3571238144
 20
8.2728653666
 30
0.0
 10
8.3638318448
 20
8.2888460307
 30
0.0
 10
8.3698020902
 20
8.3013163802
 30
0.0
 10
8.3761690112
 20
8.3135460436
 30
0.0
 10
8.3848938951
 20
8.3283868732
 30
0.0
 10
8.3946608955
 20
8.3425444057
 30
0.0
 10
8.4030944322
 20
8.3533797673
 30
0.0
 10
8.4097293726
 20
8.3612435601
 30
0.0
 10
8.416675477
 20
8.3688281251
 30
0.0
 10
8.4239316559
 20
8.3761138144
 30
0.0
 10
8.4314956966
 20
8.383079955
 30
0.0
 10
8.4393642397
 20
8.38970485
 30
0.0
 10
8.447532503
 20
8.3959660521
 30
0.0
 10
8.4559940652
 20
8.4018403267
 30
0.0
 10
8.4647406929
 20
8.4073038314
 30
0.0
 10
8.4737619582
 20
8.4123325721
 30
0.0
 10
8.4830452368
 20
8.4169022697
 30
0.0
 10
8.4925752975
 20
8.4209891687
 30
0.0
 10
8.5023342513
 20
8.4245702658
 30
0.0
 10
8.5123015318
 20
8.4276235636
 30
0.0
 10
8.5224537308
 20
8.4301290738
 30
0.0
 10
8.5327648047
 20
8.4320690279
 30
0.0
 10
8.5432061695
 20
8.4334283068
 30
0.0
 10
8.5537474984
 20
8.4341953695
 30
0.0
 10
8.5643556886
 20
8.4343621287
 30
0.0
 10
8.5714373587
 20
8.4340711885
 30
0.0
 10
8.5749772445
 20
8.4338256966
 30
0.0
  0
SPLINE
  5
3AC
100
AcDbEntity
  8
0
100
AcDbSpline
 62
7
  6
CONTINUOUS
 70
0
 71
3
 72
43
 73
39
 74
0
 42
0.0000001
 43
0.0000001
 44
0.0000000001
 40
0.0
 40
0.0
 40
0.0
 40
0.0
 40
0.0149723303
 40
0.0299477145
 40
0.0449292024
 40
0.0599197882
 40
0.0899341225
 40
0.1200192263
 40
0.1350978231
 40
0.1502017791
 40
0.1804889459
 40
0.2109026002
 40
0.241455882
 40
0.2721587075
 40
0.3030175887
 40
0.3340355376
 40
0.3652120527
 40
0.3965431823
 40
0.4280216603
 40
0.4596371068
 40
0.4913762872
 40
0.5232234184
 40
0.5551605172
 40
0.5871677834
 40
0.6192240096
 40
0.651307011
 40
0.6833940701
 40
0.7154623877
 40
0.7314848921
 40
0.7474943661
 40
0.7794587409
 40
0.8113399885
 40
0.8431194504
 40
0.8747804666
 40
0.9063090323
 40
0.9376932464
 40
0.9689257977
 40
1.0
 40
1.0
 40
1.0
 40
1.0
 10
8.2850016685
 20
9.4862106355
 30
0.0
 10
8.2862957849
 20
9.487460667
 30
0.0
 10
8.2889342685
 20
9.489909831
 30
0.0
 10
8.2930352785
 20
9.493423778
 30
0.0
 10
8.2972744649
 20
9.4967735363
 30
0.0
 10
8.3031045159
 20
9.5010159771
 30
0.0
 10
8.3107120193
 20
9.5058878401
 30
0.0
 10
8.3186893348
 20
9.5101492629
 30
0.0
 10
8.3252685763
 20
9.5131808657
 30
0.0
 10
8.3319837283
 20
9.5159622046
 30
0.0
 10
8.3405989706
 20
9.5189529473
 30
0.0
 10
8.3512159613
 20
9.521740269
 30
0.0
 10
8.3620646259
 20
9.5237149068
 30
0.0
 10
8.3730848428
 20
9.5248659661
 30
0.0
 10
8.3842160759
 20
9.5251873036
 30
0.0
 10
8.3953970777
 20
9.5246772821
 30
0.0
 10
8.4065663944
 20
9.5233388456
 30
0.0
 10
8.4176626537
 20
9.5211794761
 30
0.0
 10
8.4286249116
 20
9.5182111579
 30
0.0
 10
8.4393929809
 20
9.5144503067
 30
0.0
 10
8.4499077567
 20
9.5099176715
 30
0.0
 10
8.4601115364
 20
9.5046382194
 30
0.0
 10
8.4699483299
 20
9.4986410004
 30
0.0
 10
8.4793641692
 20
9.491958979
 30
0.0
 10
8.4883073759
 20
9.4846288871
 30
0.0
 10
8.4967289311
 20
9.4766909031
 30
0.0
 10
8.504582407
 20
9.4681888843
 30
0.0
 10
8.5106202303
 20
9.4606694351
 30
0.0
 10
8.5151249715
 20
9.4544192331
 30
0.0
 10
8.5194031105
 20
9.4480268297
 30
0.0
 10
8.5243217194
 20
9.4397770225
 30
0.0
 10
8.5295069062
 20
9.4295116018
 30
0.0
 10
8.5339442419
 20
9.4189405994
 30
0.0
 10
8.537609135
 20
9.408122294
 30
0.0
 10
8.5404813498
 20
9.3971160727
 30
0.0
 10
8.5425451218
 20
9.3859820934
 30
0.0
 10
8.5437888235
 20
9.3747823965
 30
0.0
 10
8.544067421
 20
9.3672920006
 30
0.0
 10
8.544067421
 20
9.3635577528
 30
0.0
  0
SPLINE
  5
3AD
100
AcDbEntity
  8
0
100
AcDbSpline
 62
7
  6
CONTINUOUS
 70
0
 71
3
 72
41
 73
37
 74
0
 42
0.0000001
 43
0.0000001
 44
0.0000000001
 40
0.0
 40
0.0
 40
0.0
 40
0.0
 40
0.0299421261
 40
0.0449237712
 40
0.0599145221
 40
0.0899291772
 40
0.1200146013
 40
0.1350933596
 40
0.1501974793
 40
0.1804849718
 40
0.2108989568
 40
0.2414525746
 40
0.27215574
 40
0.3030149616
 40
0.3340332486
 40
0.3652100987
 40
0.3965415618
 40
0.4280203745
 40
0.4596361601
 40
0.4913756848
 40
0.5232231637
 40
0.55516061
 40
0.587168221
 40
0.6192247883
 40
0.6513081285
 40
0.6833955259
 40
0.7154641834
 40
0.747491675
 40
0.7794563926
 40
0.8113379819
 40
0.8431177834
 40
0.8747791281
 40
0.9063080575
 40
0.9376925183
 40
0.9689255783
 40
1.0
 40
1.0
 40
1.0
 40
1.0
 10
10.0533233061
 20
9.3461297205
 30
0.0
 10
10.055479962
 20
9.3482128994
 30
0.0
 10
10.0588420406
 20
9.3512114737
 30
0.0
 10
10.0635506032
 20
9.3549320105
 30
0.0
 10
10.0684090867
 20
9.3584674411
 30
0.0
 10
10.074748631
 20
9.3625272493
 30
0.0
 10
10.0813964228
 20
9.3660783883
 30
0.0
 10
10.0868790951
 20
9.3686047577
 30
0.0
 10
10.0924750778
 20
9.3709224621
 30
0.0
 10
10.0996544287
 20
9.3734147547
 30
0.0
 10
10.1085019168
 20
9.3757374901
 30
0.0
 10
10.1175424611
 20
9.3773829989
 30
0.0
 10
10.1267259666
 20
9.3783421807
 30
0.0
 10
10.1360019823
 20
9.3786099237
 30
0.0
 10
10.145319468
 20
9.3781848693
 30
0.0
 10
10.1546272128
 20
9.377069476
 30
0.0
 10
10.1638740752
 20
9.3752699831
 30
0.0
 10
10.1730092709
 20
9.3727963769
 30
0.0
 10
10.1819826442
 20
9.3696623315
 30
0.0
 10
10.19074494
 20
9.3658851324
 30
0.0
 10
10.1992480684
 20
9.3614855794
 30
0.0
 10
10.207445372
 20
9.3564878834
 30
0.0
 10
10.2152918758
 20
9.3509195244
 30
0.0
 10
10.222744529
 20
9.344811098
 30
0.0
 10
10.2297624387
 20
9.3381961505
 30
0.0
 10
10.2363070904
 20
9.3311109955
 30
0.0
 10
10.2423425569
 20
9.323594518
 30
0.0
 10
10.247835694
 20
9.315687963
 30
0.0
 10
10.2527563178
 20
9.3074347123
 30
0.0
 10
10.2570773878
 20
9.2988800544
 30
0.0
 10
10.2607751241
 20
9.2900709373
 30
0.0
 10
10.2638291987
 20
9.2810556841
 30
0.0
 10
10.2662226912
 20
9.2718838556
 30
0.0
 10
10.2679425107
 20
9.2626055453
 30
0.0
 10
10.2689789134
 20
9.2532724817
 30
0.0
 10
10.269211084
 20
9.24703049
 30
0.0
 10
10.269211084
 20
9.2439186334
 30
0.0
  0
SPLINE
  5
3AE
100
AcDbEntity
  8
0
100
AcDbSpline
 62
7
  6
CONTINUOUS
 70
0
 71
3
 72
21
 73
17
 74
0
 42
0.0000001
 43
0.0000001
 44
0.0000000001
 40
0.0
 40
0.0
 40
0.0
 40
0.0
 40
0.0544269743
 40
0.1090707035
 40
0.1641452635
 40
0.2198592802
 40
0.2764135399
 40
0.3339993753
 40
0.452929691
 40
0.5146409336
 40
0.5780288971
 40
0.6432236798
 40
0.7103433139
 40
0.7794945759
 40
0.8507726736
 40
1.0
 40
1.0
 40
1.0
 40
1.0
 10
7.6121507329
 20
10.4893121642
 30
0.0
 10
7.6111325391
 20
10.4893827713
 30
0.0
 10
7.6090868447
 20
10.4894575615
 30
0.0
 10
7.6060079304
 20
10.4893695147
 30
0.0
 10
7.6029169345
 20
10.4890813505
 30
0.0
 10
7.5998150106
 20
10.4885932583
 30
0.0
 10
7.5967029055
 20
10.4879054575
 30
0.0
 10
7.5924967979
 20
10.4867100091
 30
0.0
 10
7.5883115798
 20
10.4851173166
 30
0.0
 10
7.5841717595
 20
10.4831642353
 30
0.0
 10
7.5810221715
 20
10.4814834629
 30
0.0
 10
7.5778677212
 20
10.4796055413
 30
0.0
 10
7.574708931
 20
10.4775309695
 30
0.0
 10
7.5715465544
 20
10.4752602678
 30
0.0
 10
7.5672611426
 20
10.4719210476
 30
0.0
 10
7.5641435658
 20
10.4691978194
 30
0.0
 10
7.5620950906
 20
10.4672913392
 30
0.0
  0
SPLINE
  5
3AF
100
AcDbEntity
  8
0
100
AcDbSpline
 62
7
  6
CONTINUOUS
 70
0
 71
3
 72
21
 73
17
 74
0
 42
0.0000001
 43
0.0000001
 44
0.0000000001
 40
0.0
 40
0.0
 40
0.0
 40
0.0
 40
0.1492270429
 40
0.2205017098
 40
0.2896520113
 40
0.3567720955
 40
0.4219679454
 40
0.4853571052
 40
0.5470689866
 40
0.6659991738
 40
0.723585292
 40
0.7801397768
 40
0.8358539772
 40
0.8909288234
 40
0.9455728241
 40
1.0
 40
1.0
 40
1.0
 40
1.0
 10
6.986646474
 20
6.8722559154
 30
0.0
 10
6.988412152
 20
6.8700849094
 30
0.0
 10
6.9911239341
 20
6.8669574608
 30
0.0
 10
6.9949073623
 20
6.8630587624
 30
0.0
 10
6.9977259479
 20
6.8603733004
 30
0.0
 10
7.0005681411
 20
6.857882553
 30
0.0
 10
7.0034332181
 20
6.8555871558
 30
0.0
 10
7.0063206691
 20
6.8534876541
 30
0.0
 10
7.0101512612
 20
6.8509817588
 30
0.0
 10
7.0140766182
 20
6.8488266686
 30
0.0
 10
7.0180774248
 20
6.8470620072
 30
0.0
 10
7.0210648091
 20
6.8459511995
 30
0.0
 10
7.0240696856
 20
6.8450396284
 30
0.0
 10
7.0270913239
 20
6.8443275379
 30
0.0
 10
7.0301286172
 20
6.8438152833
 30
0.0
 10
7.0321650641
 20
6.8436069981
 30
0.0
 10
7.0331832616
 20
6.8435363907
 30
0.0
  0
SPLINE
  5
3B0
100
AcDbEntity
  8
0
100
AcDbSpline
 62
7
  6
CONTINUOUS
 70
0
 71
3
 72
97
 73
93
 74
0
 42
0.0000001
 43
0.0000001
 44
0.0000000001
 40
0.0
 40
0.0
 40
0.0
 40
0.0
 40
0.0027164096
 40
0.0054531913
 40
0.0082302366
 40
0.0110665017
 40
0.0139796794
 40
0.0169859575
 40
0.0200998822
 40
0.0233343674
 40
0.026700678
 40
0.0302085934
 40
0.0338664646
 40
0.0376813835
 40
0.0416593171
 40
0.0458051897
 40
0.0501230771
 40
0.0546162141
 40
0.0592871766
 40
0.0641379001
 40
0.0691697666
 40
0.0743836957
 40
0.0797801223
 40
0.0853591396
 40
0.0911204374
 40
0.097063412
 40
0.1031871597
 40
0.109490487
 40
0.1159719923
 40
0.1226299929
 40
0.1294626422
 40
0.1364678594
 40
0.1436433923
 40
0.1509868249
 40
0.1661665846
 40
0.1819848859
 40
0.198416975
 40
0.2154360994
 40
0.2330136912
 40
0.2511195312
 40
0.2697219004
 40
0.2887877147
 40
0.3082826488
 40
0.3281712537
 40
0.3484170673
 40
0.3689827209
 40
0.3898300482
 40
0.4109201891
 40
0.4322136896
 40
0.4536706025
 40
0.475250585
 40
0.4969129978
 40
0.5186170041
 40
0.5403216688
 40
0.5619860553
 40
0.5835693229
 40
0.6050308244
 40
0.6263302052
 40
0.6474275031
 40
0.6682832473
 40
0.6888585573
 40
0.709115244
 40
0.7290159121
 40
0.748524066
 40
0.7676042218
 40
0.7862220168
 40
0.8043443261
 40
0.8219393861
 40
0.8389769284
 40
0.8554283266
 40
0.8712667649
 40
0.8864674231
 40
0.8938215695
 40
0.9010079732
 40
0.9080242208
 40
0.9148680291
 40
0.9215373265
 40
0.9280302349
 40
0.9343450682
 40
0.9404804095
 40
0.9464350378
 40
0.9522080492
 40
0.9577987966
 40
0.9632069712
 40
0.9684326348
 40
0.9734761983
 40
0.9783385373
 40
0.9830209667
 40
0.9875254629
 40
0.9918546305
 40
0.996011585
 40
1.0
 40
1.0
 40
1.0
 40
1.0
 10
13.4817306941
 20
7.3269615999
 30
0.0
 10
13.4801237428
 20
7.327073037
 30
0.0
 10
13.4769060194
 20
7.3274422076
 30
0.0
 10
13.4721203819
 20
7.3284300149
 30
0.0
 10
13.467370934
 20
7.3298518715
 30
0.0
 10
13.4626610185
 20
7.3317062592
 30
0.0
 10
13.4579930967
 20
7.3339916132
 30
0.0
 10
13.4533695655
 20
7.3367061329
 30
0.0
 10
13.4487925116
 20
7.339847832
 30
0.0
 10
13.4442640483
 20
7.3434148164
 30
0.0
 10
13.4397860373
 20
7.3474048946
 30
0.0
 10
13.435360495
 20
7.3518159762
 30
0.0
 10
13.4309893002
 20
7.356645706
 30
0.0
 10
13.4266743984
 20
7.3618916466
 30
0.0
 10
13.422417787
 20
7.3675512073
 30
0.0
 10
13.4182213501
 20
7.3736215447
 30
0.0
 10
13.4140871581
 20
7.3800997248
 30
0.0
 10
13.4100170879
 20
7.386982511
 30
0.0
 10
13.4060131674
 20
7.3942665439
 30
0.0
 10
13.4020773245
 20
7.4019482156
 30
0.0
 10
13.3982114688
 20
7.4100237209
 30
0.0
 10
13.3944175711
 20
7.4184890746
 30
0.0
 10
13.3906974321
 20
7.4273400475
 30
0.0
 10
13.3870529897
 20
7.4365722576
 30
0.0
 10
13.3834859999
 20
7.4461810854
 30
0.0
 10
13.3799982817
 20
7.456161743
 30
0.0
 10
13.376591592
 20
7.4665092422
 30
0.0
 10
13.3732676009
 20
7.4772184013
 30
0.0
 10
13.3700280467
 20
7.4882838679
 30
0.0
 10
13.3668744871
 20
7.4997000885
 30
0.0
 10
13.3638085723
 20
7.5114613476
 30
0.0
 10
13.3608318141
 20
7.5235617385
 30
0.0
 10
13.3579457003
 20
7.535995204
 30
0.0
 10
13.354178817
 20
7.5531991494
 30
0.0
 10
13.3497188386
 20
7.5754958948
 30
0.0
 10
13.3448079153
 20
7.6031915919
 30
0.0
 10
13.3402907495
 20
7.6320586342
 30
0.0
 10
13.3361765205
 20
7.6620390162
 30
0.0
 10
13.3324736087
 20
7.6930726235
 30
0.0
 10
13.329189547
 20
7.7250971392
 30
0.0
 10
13.3263310205
 20
7.7580482429
 30
0.0
 10
13.3239038492
 20
7.7918597294
 30
0.0
 10
13.3219129786
 20
7.8264636501
 30
0.0
 10
13.3203624698
 20
7.8617904504
 30
0.0
 10
13.3192554914
 20
7.8977691093
 30
0.0
 10
13.3185943075
 20
7.934327285
 30
0.0
 10
13.3183802812
 20
7.9713914632
 30
0.0
 10
13.3186138716
 20
8.0088871085
 30
0.0
 10
13.3192946334
 20
8.046738815
 30
0.0
 10
13.3204212179
 20
8.0848704572
 30
0.0
 10
13.3219913771
 20
8.1232053435
 30
0.0
 10
13.3240019616
 20
8.1616663709
 30
0.0
 10
13.3264489311
 20
8.2001761823
 30
0.0
 10
13.3293273652
 20
8.2386573227
 30
0.0
 10
13.3326314726
 20
8.2770323957
 30
0.0
 10
13.336354603
 20
8.3152242181
 30
0.0
 10
13.3404892606
 20
8.3531559758
 30
0.0
 10
13.3450271163
 20
8.3907513801
 30
0.0
 10
13.3499590215
 20
8.4279348234
 30
0.0
 10
13.3552750332
 20
8.4646315311
 30
0.0
 10
13.360964432
 20
8.5007677119
 30
0.0
 10
13.3670157433
 20
8.5362707059
 30
0.0
 10
13.3734167607
 20
8.5710691324
 30
0.0
 10
13.38015457
 20
8.605093037
 30
0.0
 10
13.3872155682
 20
8.638274037
 30
0.0
 10
13.3945854976
 20
8.6705454606
 30
0.0
 10
13.4022494739
 20
8.7018424802
 30
0.0
 10
13.4101920162
 20
8.73210225
 30
0.0
 10
13.4183970767
 20
8.7612640202
 30
0.0
 10
13.4268480782
 20
8.7892693307
 30
0.0
 10
13.4355279371
 20
8.8160619184
 30
0.0
 10
13.4430173213
 20
8.837564045
 30
0.0
 10
13.4491186362
 20
8.8541117646
 30
0.0
 10
13.4536905068
 20
8.866049636
 30
0.0
 10
13.4583063027
 20
8.8776454933
 30
0.0
 10
13.4629637681
 20
8.8888935202
 30
0.0
 10
13.4676605353
 20
8.8997880766
 30
0.0
 10
13.4723942287
 20
8.9103237071
 30
0.0
 10
13.4771625145
 20
8.9204951204
 30
0.0
 10
13.4819629305
 20
8.930297245
 30
0.0
 10
13.4867931413
 20
8.9397251551
 30
0.0
 10
13.4916506622
 20
8.9487741587
 30
0.0
 10
13.4965330945
 20
8.9574397297
 30
0.0
 10
13.5014380059
 20
8.9657175486
 30
0.0
 10
13.5063629171
 20
8.9736035165
 30
0.0
 10
13.5113054492
 20
8.9810936731
 30
0.0
 10
13.51626305
 20
8.988184331
 30
0.0
 10
13.5212333603
 20
8.994871958
 30
0.0
 10
13.5262139543
 20
9.0011533139
 30
0.0
 10
13.5312025131
 20
9.0070253419
 30
0.0
 10
13.5361963789
 20
9.0124848541
 30
0.0
 10
13.5395967261
 20
9.0159176304
 30
0.0
 10
13.5412978353
 20
9.0175607758
 30
0.0
  0
SPLINE
  5
3B1
100
AcDbEntity
  8
0
100
AcDbSpline
 62
7
  6
CONTINUOUS
 70
0
 71
3
 72
21
 73
17
 74
0
 42
0.0000001
 43
0.0000001
 44
0.0000000001
 40
0.0
 40
0.0
 40
0.0
 40
0.0
 40
0.0544271759
 40
0.1090711766
 40
0.1641460228
 40
0.2198602232
 40
0.276414708
 40
0.3340008262
 40
0.4529310134
 40
0.5146428948
 40
0.5780320546
 40
0.6432279045
 40
0.7103479887
 40
0.7794982902
 40
0.8507729571
 40
1.0
 40
1.0
 40
1.0
 40
1.0
 10
13.7708941662
 20
10.0602700047
 30
0.0
 10
13.7719123637
 20
10.0601993973
 30
0.0
 10
13.7739488106
 20
10.0599911121
 30
0.0
 10
13.7769861039
 20
10.0594788575
 30
0.0
 10
13.7800077422
 20
10.058766767
 30
0.0
 10
13.7830126187
 20
10.0578551959
 30
0.0
 10
13.7860000029
 20
10.0567443882
 30
0.0
 10
13.7900008096
 20
10.0549797268
 30
0.0
 10
13.7939261666
 20
10.0528246366
 30
0.0
 10
13.7977567587
 20
10.0503187413
 30
0.0
 10
13.8006442096
 20
10.0482192396
 30
0.0
 10
13.8035092867
 20
10.0459238424
 30
0.0
 10
13.8063514799
 20
10.043433095
 30
0.0
 10
13.8091700655
 20
10.040747633
 30
0.0
 10
13.8129534937
 20
10.0368489346
 30
0.0
 10
13.8156652758
 20
10.033721486
 30
0.0
 10
13.8174309538
 20
10.03155048
 30
0.0
  0
SPLINE
  5
3B2
100
AcDbEntity
  8
0
100
AcDbSpline
 62
7
  6
CONTINUOUS
 70
0
 71
3
 72
36
 73
32
 74
0
 42
0.0000001
 43
0.0000001
 44
0.0000000001
 40
0.0
 40
0.0
 40
0.0
 40
0.0
 40
0.0162144238
 40
0.0334274975
 40
0.0516719332
 40
0.0709710389
 40
0.091340615
 40
0.1127896856
 40
0.1353220095
 40
0.1589363222
 40
0.1836275005
 40
0.2093866006
 40
0.2362016776
 40
0.2640578284
 40
0.2929376694
 40
0.3228215006
 40
0.3536874676
 40
0.3855118857
 40
0.418269141
 40
0.4519321532
 40
0.4864721016
 40
0.5218589562
 40
0.558061135
 40
0.5950460151
 40
0.6327796437
 40
0.6712271047
 40
0.7103523335
 40
0.7501184695
 40
0.8314205283
 40
0.9148217451
 40
1.0
 40
1.0
 40
1.0
 40
1.0
 10
13.8691824461
 20
9.9679193107
 30
0.0
 10
13.8708946172
 20
9.9658140917
 30
0.0
 10
13.8742802499
 20
9.9613553755
 30
0.0
 10
13.879108626
 20
9.9541766124
 30
0.0
 10
13.8838307943
 20
9.9463189439
 30
0.0
 10
13.8884420318
 20
9.9377907513
 30
0.0
 10
13.8929377426
 20
9.9286005091
 30
0.0
 10
13.8973134985
 20
9.9187576775
 30
0.0
 10
13.9015646797
 20
9.9082723162
 30
0.0
 10
13.9056870039
 20
9.8971552858
 30
0.0
 10
13.9096760523
 20
9.8854180918
 30
0.0
 10
13.9135277267
 20
9.8730729642
 30
0.0
 10
13.9172379012
 20
9.8601327756
 30
0.0
 10
13.9208026975
 20
9.8466110617
 30
0.0
 10
13.9242183294
 20
9.8325219839
 30
0.0
 10
13.9274811693
 20
9.8178803176
 30
0.0
 10
13.9305877922
 20
9.8027014344
 30
0.0
 10
13.9335348517
 20
9.7870012813
 30
0.0
 10
13.9363192915
 20
9.7707963628
 30
0.0
 10
13.9389380775
 20
9.7541037253
 30
0.0
 10
13.9413885199
 20
9.7369409295
 30
0.0
 10
13.9436679299
 20
9.7193260449
 30
0.0
 10
13.9457739759
 20
9.7012776115
 30
0.0
 10
13.9477043465
 20
9.6828146401
 30
0.0
 10
13.9494570597
 20
9.6639565682
 30
0.0
 10
13.9510302012
 20
9.6447232765
 30
0.0
 10
13.9524221561
 20
9.6251350015
 30
0.0
 10
13.9540463846
 20
9.5983746095
 30
0.0
 10
13.9556038467
 20
9.5641885897
 30
0.0
 10
13.9567179774
 20
9.5223822049
 30
0.0
 10
13.9569608787
 20
9.4941688006
 30
0.0
 10
13.9569608787
 20
9.4799137528
 30
0.0
  0
SPLINE
  5
3B3
100
AcDbEntity
  8
0
100
AcDbSpline
 62
7
  6
CONTINUOUS
 70
0
 71
3
 72
21
 73
17
 74
0
 42
0.0000001
 43
0.0000001
 44
0.0000000001
 40
0.0
 40
0.0
 40
0.0
 40
0.0
 40
0.1492273264
 40
0.2205054241
 40
0.2896566861
 40
0.3567763202
 40
0.4219711029
 40
0.4853590664
 40
0.547070309
 40
0.6660006247
 40
0.7235864601
 40
0.7801407198
 40
0.8358547365
 40
0.8909292965
 40
0.9455730257
 40
1.0
 40
1.0
 40
1.0
 40
1.0
 10
13.2419823371
 20
6.4365150562
 30
0.0
 10
13.239933862
 20
6.434608576
 30
0.0
 10
13.2368162852
 20
6.4318853478
 30
0.0
 10
13.2325308734
 20
6.4285461276
 30
0.0
 10
13.2293684968
 20
6.426275426
 30
0.0
 10
13.2262097066
 20
6.4242008541
 30
0.0
 10
13.2230552563
 20
6.4223229325
 30
0.0
 10
13.2199056683
 20
6.4206421601
 30
0.0
 10
13.215765848
 20
6.4186890788
 30
0.0
 10
13.2115806299
 20
6.4170963863
 30
0.0
 10
13.2073745223
 20
6.4159009379
 30
0.0
 10
13.2042624172
 20
6.4152131371
 30
0.0
 10
13.2011604933
 20
6.4147250449
 30
0.0
 10
13.1980694973
 20
6.4144368807
 30
0.0
 10
13.1949905831
 20
6.4143488339
 30
0.0
 10
13.1929448887
 20
6.4144236241
 30
0.0
 10
13.1919266949
 20
6.4144942312
 30
0.0
  0
SPLINE
  5
3B4
100
AcDbEntity
  8
0
100
AcDbSpline
 62
7
  6
CONTINUOUS
 70
0
 71
3
 72
23
 73
19
 74
0
 42
0.0000001
 43
0.0000001
 44
0.0000000001
 40
0.0
 40
0.0
 40
0.0
 40
0.0
 40
0.063775992
 40
0.1273452426
 40
0.190702051
 40
0.2538559967
 40
0.3168132418
 40
0.3795820857
 40
0.4421733813
 40
0.504599339
 40
0.5668738627
 40
0.6290123824
 40
0.6910316504
 40
0.7529496423
 40
0.8147853556
 40
0.8765586046
 40
0.9382898526
 40
1.0
 40
1.0
 40
1.0
 40
1.0
 10
7.4429121791
 20
9.4090134373
 30
0.0
 10
7.4429121791
 20
9.4135802688
 30
0.0
 10
7.4431308046
 20
9.4227006739
 30
0.0
 10
7.4441173647
 20
9.4363257718
 30
0.0
 10
7.4457600758
 20
9.4498429246
 30
0.0
 10
7.4480549978
 20
9.4632202466
 30
0.0
 10
7.4509969224
 20
9.4764272672
 30
0.0
 10
7.4545790822
 20
9.4894334561
 30
0.0
 10
7.4587932799
 20
9.5022088105
 30
0.0
 10
7.4636298287
 20
9.5147238817
 30
0.0
 10
7.4690775497
 20
9.5269498247
 30
0.0
 10
7.4751239543
 20
9.5388584206
 30
0.0
 10
7.4817551344
 20
9.5504221845
 30
0.0
 10
7.4889557587
 20
9.5616144813
 30
0.0
 10
7.4967092418
 20
9.5724094511
 30
0.0
 10
7.5049978394
 20
9.5827822409
 30
0.0
 10
7.5138020472
 20
9.5927086467
 30
0.0
 10
7.5200029086
 20
9.5990145481
 30
0.0
 10
7.5231812238
 20
9.6020845653
 30
0.0
  0
SPLINE
  5
3B5
100
AcDbEntity
  8
0
100
AcDbSpline
 62
7
  6
CONTINUOUS
 70
0
 71
3
 72
23
 73
19
 74
0
 42
0.0000001
 43
0.0000001
 44
0.0000000001
 40
0.0
 40
0.0
 40
0.0
 40
0.0
 40
0.0622404401
 40
0.1243296829
 40
0.1863037472
 40
0.2482017486
 40
0.3100652808
 40
0.3719376727
 40
0.4338631302
 40
0.4958857739
 40
0.558048599
 40
0.620392386
 40
0.6829546161
 40
0.7457684006
 40
0.8088615844
 40
0.8722557733
 40
0.9359660758
 40
1.0
 40
1.0
 40
1.0
 40
1.0
 10
9.4850046824
 20
8.7639393331
 30
0.0
 10
9.4825772691
 20
8.7589972765
 30
0.0
 10
9.4773800303
 20
8.7492917437
 30
0.0
 10
9.468579991
 20
8.7353408177
 30
0.0
 10
9.4588174733
 20
8.7220818226
 30
0.0
 10
9.4481304841
 20
8.70958219
 30
0.0
 10
9.4365614823
 20
8.6979063347
 30
0.0
 10
9.4241583203
 20
8.6871167001
 30
0.0
 10
9.4109741527
 20
8.6772727998
 30
0.0
 10
9.3970675351
 20
8.6684307174
 30
0.0
 10
9.3825023619
 20
8.6606424228
 30
0.0
 10
9.3673477153
 20
8.653955094
 30
0.0
 10
9.3516776014
 20
8.6484104314
 30
0.0
 10
9.3355705166
 20
8.6440439834
 30
0.0
 10
9.319109061
 20
8.6408845434
 30
0.0
 10
9.3023787774
 20
8.6389536061
 30
0.0
 10
9.2854693093
 20
8.6382648772
 30
0.0
 10
9.2741627595
 20
8.6386369176
 30
0.0
 10
9.2685116541
 20
8.6390288231
 30
0.0
  0
SPLINE
  5
3B6
100
AcDbEntity
  8
0
100
AcDbSpline
 62
7
  6
CONTINUOUS
 70
0
 71
3
 72
34
 73
30
 74
0
 42
0.0000001
 43
0.0000001
 44
0.0000000001
 40
0.0
 40
0.0
 40
0.0
 40
0.0
 40
0.0629255934
 40
0.1256393771
 40
0.1881538332
 40
0.2193454967
 40
0.2504942483
 40
0.3126647131
 40
0.3747017924
 40
0.4056868307
 40
0.436652911
 40
0.4676056186
 40
0.4985517738
 40
0.5294981055
 40
0.5604528603
 40
0.5914241084
 40
0.6224211868
 40
0.6534537376
 40
0.6845317156
 40
0.7156659048
 40
0.7468667248
 40
0.778144762
 40
0.809510464
 40
0.8409732468
 40
0.8725419588
 40
0.9042240741
 40
0.9360247601
 40
0.9679509236
 40
1.0
 40
1.0
 40
1.0
 40
1.0
 10
8.8051529379
 20
8.0131704579
 30
0.0
 10
8.8034578477
 20
8.0064128605
 30
0.0
 10
8.799681165
 20
7.9930149228
 30
0.0
 10
8.792830673
 20
7.9733288369
 30
0.0
 10
8.7861226416
 20
7.957348171
 30
0.0
 10
8.7801523951
 20
7.9448778202
 30
0.0
 10
8.7737854731
 20
7.9326481556
 30
0.0
 10
8.7650605876
 20
7.9178073246
 30
0.0
 10
8.7552935854
 20
7.9036497909
 30
0.0
 10
8.7468600472
 20
7.8928144286
 30
0.0
 10
8.7402251055
 20
7.8849506352
 30
0.0
 10
8.7332789998
 20
7.8773660699
 30
0.0
 10
8.7260228195
 20
7.8700803802
 30
0.0
 10
8.7184587773
 20
7.8631142395
 30
0.0
 10
8.7105902326
 20
7.8564893444
 30
0.0
 10
8.7024219677
 20
7.8502281424
 30
0.0
 10
8.6939604039
 20
7.844353868
 30
0.0
 10
8.6852137745
 20
7.8388903637
 30
0.0
 10
8.6761925074
 20
7.8338616235
 30
0.0
 10
8.6669092271
 20
7.8292919266
 30
0.0
 10
8.6573791646
 20
7.8252050285
 30
0.0
 10
8.6476202091
 20
7.8216239324
 30
0.0
 10
8.6376529268
 20
7.8185706359
 30
0.0
 10
8.6275007261
 20
7.8160651271
 30
0.0
 10
8.6171896505
 20
7.8141251747
 30
0.0
 10
8.6067482841
 20
7.8127658975
 30
0.0
 10
8.5962069537
 20
7.8119988369
 30
0.0
 10
8.5855987621
 20
7.8118320796
 30
0.0
 10
8.5785170911
 20
7.8121230206
 30
0.0
 10
8.5749772049
 20
7.8123685125
 30
0.0
  0
SPLINE
  5
3B7
100
AcDbEntity
  8
0
100
AcDbSpline
 62
7
  6
CONTINUOUS
 70
0
 71
3
 72
43
 73
39
 74
0
 42
0.0000001
 43
0.0000001
 44
0.0000000001
 40
0.0
 40
0.0
 40
0.0
 40
0.0
 40
0.0149723303
 40
0.0299477145
 40
0.0449292024
 40
0.0599197882
 40
0.0899341225
 40
0.1200192263
 40
0.1350978231
 40
0.1502017791
 40
0.1804889459
 40
0.2109026002
 40
0.241455882
 40
0.2721587075
 40
0.3030175887
 40
0.3340355376
 40
0.3652120527
 40
0.3965431823
 40
0.4280216603
 40
0.4596371068
 40
0.4913762872
 40
0.5232234184
 40
0.5551605172
 40
0.5871677834
 40
0.6192240096
 40
0.651307011
 40
0.6833940701
 40
0.7154623877
 40
0.7314848921
 40
0.7474943661
 40
0.7794587409
 40
0.8113399885
 40
0.8431194504
 40
0.8747804666
 40
0.9063090323
 40
0.9376932464
 40
0.9689257977
 40
1.0
 40
1.0
 40
1.0
 40
1.0
 10
8.5017642978
 20
9.2618048726
 30
0.0
 10
8.5004701814
 20
9.2605548412
 30
0.0
 10
8.4978316978
 20
9.2581056772
 30
0.0
 10
8.4937306878
 20
9.2545917302
 30
0.0
 10
8.4894915014
 20
9.2512419719
 30
0.0
 10
8.4836614504
 20
9.2469995311
 30
0.0
 10
8.476053947
 20
9.242127668
 30
0.0
 10
8.4680766315
 20
9.2378662452
 30
0.0
 10
8.46149739
 20
9.2348346424
 30
0.0
 10
8.454782238
 20
9.2320533036
 30
0.0
 10
8.4461669957
 20
9.2290625609
 30
0.0
 10
8.435550005
 20
9.2262752392
 30
0.0
 10
8.4247013404
 20
9.2243006014
 30
0.0
 10
8.4136811235
 20
9.223149542
 30
0.0
 10
8.4025498904
 20
9.2228282046
 30
0.0
 10
8.3913688886
 20
9.2233382261
 30
0.0
 10
8.3801995719
 20
9.2246766626
 30
0.0
 10
8.3691033126
 20
9.2268360321
 30
0.0
 10
8.3581410547
 20
9.2298043502
 30
0.0
 10
8.3473729854
 20
9.2335652014
 30
0.0
 10
8.3368582096
 20
9.2380978367
 30
0.0
 10
8.3266544299
 20
9.2433772887
 30
0.0
 10
8.3168176364
 20
9.2493745078
 30
0.0
 10
8.3074017971
 20
9.2560565292
 30
0.0
 10
8.2984585904
 20
9.263386621
 30
0.0
 10
8.2900370352
 20
9.271324605
 30
0.0
 10
8.2821835593
 20
9.2798266238
 30
0.0
 10
8.276145736
 20
9.287346073
 30
0.0
 10
8.2716409948
 20
9.2935962751
 30
0.0
 10
8.2673628558
 20
9.2999886784
 30
0.0
 10
8.2624442469
 20
9.3082384857
 30
0.0
 10
8.2572590601
 20
9.3185039064
 30
0.0
 10
8.2528217244
 20
9.3290749088
 30
0.0
 10
8.2491568313
 20
9.3398932141
 30
0.0
 10
8.2462846165
 20
9.3508994355
 30
0.0
 10
8.2442208445
 20
9.3620334147
 30
0.0
 10
8.2429771428
 20
9.3732331116
 30
0.0
 10
8.2426985453
 20
9.3807235076
 30
0.0
 10
8.2426985453
 20
9.3844577553
 30
0.0
  0
SPLINE
  5
3B8
100
AcDbEntity
  8
0
100
AcDbSpline
 62
7
  6
CONTINUOUS
 70
0
 71
3
 72
39
 73
35
 74
0
 42
0.0000001
 43
0.0000001
 44
0.0000000001
 40
0.0
 40
0.0
 40
0.0
 40
0.0
 40
0.0300995381
 40
0.0603067993
 40
0.0906302437
 40
0.1210764849
 40
0.1516502012
 40
0.1823541187
 40
0.2131889851
 40
0.244153559
 40
0.2752446677
 40
0.3064572985
 40
0.3377846709
 40
0.3692183387
 40
0.4007483588
 40
0.4323634419
 40
0.4640510969
 40
0.4957978217
 40
0.5275893186
 40
0.5594106721
 40
0.5912465434
 40
0.6230814078
 40
0.6548997627
 40
0.6866863149
 40
0.7184262061
 40
0.7501052297
 40
0.78171002
 40
0.8132282297
 40
0.8446486653
 40
0.8759617314
 40
0.9071591156
 40
0.9382334662
 40
0.9691831965
 40
1.0
 40
1.0
 40
1.0
 40
1.0
 10
8.5342444134
 20
9.3109242919
 30
0.0
 10
8.5313920386
 20
9.3099315808
 30
0.0
 10
8.5256112444
 20
9.3081263975
 30
0.0
 10
8.5167697079
 20
9.3059743615
 30
0.0
 10
8.5077749504
 20
9.3043810791
 30
0.0
 10
8.498661414
 20
9.3033527191
 30
0.0
 10
8.4894633944
 20
9.302893013
 30
0.0
 10
8.4802156437
 20
9.3030036289
 30
0.0
 10
8.4709530485
 20
9.3036841332
 30
0.0
 10
8.4617105623
 20
9.3049319293
 30
0.0
 10
8.4525230377
 20
9.3067421991
 30
0.0
 10
8.4434251141
 20
9.3091080707
 30
0.0
 10
8.4344511082
 20
9.3120206383
 30
0.0
 10
8.425634843
 20
9.3154688512
 30
0.0
 10
8.4170095318
 20
9.3194396406
 30
0.0
 10
8.4086076866
 20
9.3239180313
 30
0.0
 10
8.4004609963
 20
9.3288871594
 30
0.0
 10
8.3926001311
 20
9.334328221
 30
0.0
 10
8.3850547029
 20
9.3402206852
 30
0.0
 10
8.377853176
 20
9.3465423712
 30
0.0
 10
8.3710226968
 20
9.3532694449
 30
0.0
 10
8.3645889727
 20
9.360376511
 30
0.0
 10
8.3585762596
 20
9.3678367923
 30
0.0
 10
8.3530072767
 20
9.3756222096
 30
0.0
 10
8.347902992
 20
9.3837033944
 30
0.0
 10
8.3432826352
 20
9.3920498815
 30
0.0
 10
8.3391636707
 20
9.4006302373
 30
0.0
 10
8.3355616929
 20
9.4094121355
 30
0.0
 10
8.3324902346
 20
9.418362454
 30
0.0
 10
8.329960928
 20
9.4274474803
 30
0.0
 10
8.327983432
 20
9.436632875
 30
0.0
 10
8.3265650694
 20
9.4458843373
 30
0.0
 10
8.3257115212
 20
9.45516625
 30
0.0
 10
8.3255205695
 20
9.4613655369
 30
0.0
 10
8.3255205695
 20
9.4644576923
 30
0.0
  0
SPLINE
  5
3B9
100
AcDbEntity
  8
0
100
AcDbSpline
 62
7
  6
CONTINUOUS
 70
0
 71
3
 72
11
 73
7
 74
0
 42
0.0000001
 43
0.0000001
 44
0.0000000001
 40
0.0
 40
0.0
 40
0.0
 40
0.0
 40
0.2478573209
 40
0.4970672042
 40
0.7477539364
 40
1.0
 40
1.0
 40
1.0
 40
1.0
 10
8.3352456363
 20
9.5170397271
 30
0.0
 10
8.333639007
 20
9.5128987797
 30
0.0
 10
8.3308092745
 20
9.5044361714
 30
0.0
 10
8.3277629324
 20
9.4913678538
 30
0.0
 10
8.3259266362
 20
9.4779962543
 30
0.0
 10
8.3255205695
 20
9.4689780406
 30
0.0
 10
8.3255205695
 20
9.4644576923
 30
0.0
  0
SPLINE
  5
3BA
100
AcDbEntity
  8
0
100
AcDbSpline
 62
7
  6
CONTINUOUS
 70
0
 71
3
 72
41
 73
37
 74
0
 42
0.0000001
 43
0.0000001
 44
0.0000000001
 40
0.0
 40
0.0
 40
0.0
 40
0.0
 40
0.0299421261
 40
0.0449237712
 40
0.0599145221
 40
0.0899291772
 40
0.1200146013
 40
0.1350933596
 40
0.1501974793
 40
0.1804849718
 40
0.2108989568
 40
0.2414525746
 40
0.27215574
 40
0.3030149616
 40
0.3340332486
 40
0.3652100987
 40
0.3965415618
 40
0.4280203745
 40
0.4596361601
 40
0.4913756848
 40
0.5232231637
 40
0.55516061
 40
0.587168221
 40
0.6192247883
 40
0.6513081285
 40
0.6833955259
 40
0.7154641834
 40
0.747491675
 40
0.7794563926
 40
0.8113379819
 40
0.8431177834
 40
0.8747791281
 40
0.9063080575
 40
0.9376925183
 40
0.9689255783
 40
1.0
 40
1.0
 40
1.0
 40
1.0
 10
10.2339581321
 20
9.1591242151
 30
0.0
 10
10.2318014762
 20
9.1570410363
 30
0.0
 10
10.2284393976
 20
9.154042462
 30
0.0
 10
10.223730835
 20
9.1503219251
 30
0.0
 10
10.2188723515
 20
9.1467864945
 30
0.0
 10
10.2125328072
 20
9.1427266863
 30
0.0
 10
10.2058850154
 20
9.1391755474
 30
0.0
 10
10.200402343
 20
9.1366491779
 30
0.0
 10
10.1948063603
 20
9.1343314735
 30
0.0
 10
10.1876270094
 20
9.1318391809
 30
0.0
 10
10.1787795214
 20
9.1295164456
 30
0.0
 10
10.1697389771
 20
9.1278709367
 30
0.0
 10
10.1605554716
 20
9.126911755
 30
0.0
 10
10.1512794559
 20
9.126644012
 30
0.0
 10
10.1419619701
 20
9.1270690663
 30
0.0
 10
10.1326542254
 20
9.1281844596
 30
0.0
 10
10.123407363
 20
9.1299839525
 30
0.0
 10
10.1142721673
 20
9.1324575587
 30
0.0
 10
10.1052987939
 20
9.1355916042
 30
0.0
 10
10.0965364982
 20
9.1393688033
 30
0.0
 10
10.0880333698
 20
9.1437683563
 30
0.0
 10
10.0798360662
 20
9.1487660522
 30
0.0
 10
10.0719895624
 20
9.1543344113
 30
0.0
 10
10.0645369091
 20
9.1604428376
 30
0.0
 10
10.0575189995
 20
9.1670577852
 30
0.0
 10
10.0509743478
 20
9.1741429401
 30
0.0
 10
10.0449388813
 20
9.1816594177
 30
0.0
 10
10.0394457442
 20
9.1895659727
 30
0.0
 10
10.0345251204
 20
9.1978192234
 30
0.0
 10
10.0302040504
 20
9.2063738813
 30
0.0
 10
10.0265063141
 20
9.2151829983
 30
0.0
 10
10.0234522395
 20
9.2241982516
 30
0.0
 10
10.021058747
 20
9.2333700801
 30
0.0
 10
10.0193389275
 20
9.2426483904
 30
0.0
 10
10.0183025248
 20
9.2519814539
 30
0.0
 10
10.0180703542
 20
9.2582234457
 30
0.0
 10
10.0180703542
 20
9.2613353022
 30
0.0
  0
SPLINE
  5
3BB
100
AcDbEntity
  8
0
100
AcDbSpline
 62
7
  6
CONTINUOUS
 70
0
 71
3
 72
18
 73
14
 74
0
 42
0.0000001
 43
0.0000001
 44
0.0000000001
 40
0.0
 40
0.0
 40
0.0
 40
0.0
 40
0.1504663731
 40
0.2917105206
 40
0.4244367454
 40
0.5495624809
 40
0.6682140449
 40
0.7255497559
 40
0.7817911968
 40
0.8371401738
 40
0.8918092593
 40
0.9460199951
 40
1.0
 40
1.0
 40
1.0
 40
1.0
 10
12.1194328023
 20
10.1474422891
 30
0.0
 10
12.1215531358
 20
10.1494903741
 30
0.0
 10
12.125790849
 20
10.1533331305
 30
0.0
 10
12.1323528832
 20
10.1584542933
 30
0.0
 10
12.1389072474
 20
10.1627373446
 30
0.0
 10
12.1454471013
 20
10.1661752346
 30
0.0
 10
12.1509437502
 20
10.1683552613
 30
0.0
 10
12.1553078674
 20
10.1696504608
 30
0.0
 10
12.1585344702
 20
10.1703969584
 30
0.0
 10
12.1617503536
 20
10.1709290497
 30
0.0
 10
12.1649546405
 20
10.1712464311
 30
0.0
 10
12.1681460442
 20
10.1713489517
 30
0.0
 10
12.1702663193
 20
10.171273941
 30
0.0
 10
12.1713213692
 20
10.1712007675
 30
0.0
  0
SPLINE
  5
3BC
100
AcDbEntity
  8
0
100
AcDbSpline
 62
7
  6
CONTINUOUS
 70
0
 71
3
 72
49
 73
45
 74
0
 42
0.0000001
 43
0.0000001
 44
0.0000000001
 40
0.0
 40
0.0
 40
0.0
 40
0.0
 40
0.037812879
 40
0.0760190693
 40
0.1145316237
 40
0.1532645827
 40
0.1921302413
 40
0.2310409708
 40
0.2699088584
 40
0.3086461583
 40
0.3471654869
 40
0.3853800904
 40
0.4232040958
 40
0.4605527656
 40
0.4973427546
 40
0.53349237
 40
0.5689218364
 40
0.6035535679
 40
0.63731245
 40
0.6701261382
 40
0.7019253664
 40
0.7326442808
 40
0.7622208063
 40
0.7905970583
 40
0.8043185097
 40
0.8177203565
 40
0.8307967418
 40
0.8435422462
 40
0.8559517477
 40
0.8680206507
 40
0.879744711
 40
0.8911202499
 40
0.9021440732
 40
0.9128135618
 40
0.9231267624
 40
0.9330823412
 40
0.9426798447
 40
0.9519195543
 40
0.9608027655
 40
0.9693317574
 40
0.9775102025
 40
0.9853432617
 40
0.9928373073
 40
1.0
 40
1.0
 40
1.0
 40
1.0
 10
11.450127304
 20
8.7764983717
 30
0.0
 10
11.450127304
 20
8.788422775
 30
0.0
 10
11.450285796
 20
8.8123958897
 30
0.0
 10
11.4509882716
 20
8.8485078664
 30
0.0
 10
11.4521552822
 20
8.8848981597
 30
0.0
 10
11.4537839763
 20
8.9214788527
 30
0.0
 10
11.4558704866
 20
8.9581620546
 30
0.0
 10
11.4584097717
 20
8.9948593452
 30
0.0
 10
11.4613957281
 20
9.0314823853
 30
0.0
 10
11.4648211565
 20
9.0679429754
 30
0.0
 10
11.4686777995
 20
9.1041533204
 30
0.0
 10
11.47295635
 20
9.1400262282
 30
0.0
 10
11.4776464799
 20
9.175475325
 30
0.0
 10
11.4827368639
 20
9.2104152635
 30
0.0
 10
11.4882152064
 20
9.244761929
 30
0.0
 10
11.4940682708
 20
9.2784326442
 30
0.0
 10
11.5002819107
 20
9.3113463695
 30
0.0
 10
11.5068411032
 20
9.3434239014
 30
0.0
 10
11.5137299857
 20
9.3745880672
 30
0.0
 10
11.5209318887
 20
9.404763922
 30
0.0
 10
11.528429381
 20
9.4338789162
 30
0.0
 10
11.5362043075
 20
9.4618631423
 30
0.0
 10
11.5442378501
 20
9.4886492797
 30
0.0
 10
11.5512073852
 20
9.510152939
 30
0.0
 10
11.556906631
 20
9.5267013621
 30
0.0
 10
11.5611857038
 20
9.5386348169
 30
0.0
 10
11.5655146923
 20
9.5502222794
 30
0.0
 10
11.5698909455
 20
9.5614568094
 30
0.0
 10
11.5743118958
 20
9.5723316421
 30
0.0
 10
11.5787748034
 20
9.5828402665
 30
0.0
 10
11.5832770454
 20
9.5929763646
 30
0.0
 10
11.5878158687
 20
9.6027338707
 30
0.0
 10
11.5923885581
 20
9.6121069387
 30
0.0
 10
11.5969923848
 20
9.6210899528
 30
0.0
 10
11.6016245347
 20
9.6296775633
 30
0.0
 10
11.6062823131
 20
9.6378646211
 30
0.0
 10
11.6109628546
 20
9.6456462897
 30
0.0
 10
11.6156634684
 20
9.6530178995
 30
0.0
 10
11.620381269
 20
9.6599750985
 30
0.0
 10
11.6251135261
 20
9.666513761
 30
0.0
 10
11.6298575089
 20
9.6726300712
 30
0.0
 10
11.6346105579
 20
9.6783205037
 30
0.0
 10
11.6393697043
 20
9.6835813764
 30
0.0
 10
11.6426167924
 20
9.6868733635
 30
0.0
 10
11.6442414276
 20
9.6884426407
 30
0.0
  0
SPLINE
  5
3BD
100
AcDbEntity
  8
0
100
AcDbSpline
 62
7
  6
CONTINUOUS
 70
0
 71
3
 72
15
 73
11
 74
0
 42
0.0000001
 43
0.0000001
 44
0.0000000001
 40
0.0
 40
0.0
 40
0.0
 40
0.0
 40
0.1330910311
 40
0.2618537035
 40
0.3871786562
 40
0.5100814519
 40
0.6316613919
 40
0.7530844013
 40
0.8754972388
 40
1.0
 40
1.0
 40
1.0
 40
1.0
 10
9.8936563844
 20
8.0883081784
 30
0.0
 10
9.8946137536
 20
8.0880343813
 30
0.0
 10
9.8964754561
 20
8.087414312
 30
0.0
 10
9.899130497
 20
8.0862452449
 30
0.0
 10
9.9015920332
 20
8.0848584287
 30
0.0
 10
9.9038556851
 20
8.0832589401
 30
0.0
 10
9.9059185256
 20
8.0814515965
 30
0.0
 10
9.9077794329
 20
8.0794419936
 30
0.0
 10
9.9094381433
 20
8.0772357116
 30
0.0
 10
9.9104001538
 20
8.0756547761
 30
0.0
 10
9.9108475782
 20
8.0748377716
 30
0.0
  0
SPLINE
  5
3BE
100
AcDbEntity
  8
0
100
AcDbSpline
 62
7
  6
CONTINUOUS
 70
0
 71
3
 72
50
 73
46
 74
0
 42
0.0000001
 43
0.0000001
 44
0.0000000001
 40
0.0
 40
0.0
 40
0.0
 40
0.0
 40
0.0378126499
 40
0.0760191474
 40
0.1145315372
 40
0.1532645131
 40
0.1921301534
 40
0.2310408602
 40
0.2699087322
 40
0.3086460094
 40
0.3471653201
 40
0.3853799093
 40
0.4232039004
 40
0.4605525506
 40
0.4973425179
 40
0.5334921139
 40
0.5689215656
 40
0.6035532836
 40
0.6373121468
 40
0.6701258156
 40
0.7019250303
 40
0.7326439381
 40
0.7622204575
 40
0.7765622631
 40
0.7905971627
 40
0.8043186005
 40
0.8177204327
 40
0.8307968339
 40
0.8435423017
 40
0.8559518287
 40
0.8680207011
 40
0.8797447667
 40
0.8911203072
 40
0.9021441073
 40
0.9128136151
 40
0.9231267785
 40
0.9330823763
 40
0.9426798787
 40
0.9519195833
 40
0.9608027758
 40
0.969331722
 40
0.977510208
 40
0.9853433435
 40
0.9928373999
 40
1.0
 40
1.0
 40
1.0
 40
1.0
 10
13.1256347919
 20
8.6769143679
 30
0.0
 10
13.1256347919
 20
8.6878529595
 30
0.0
 10
13.1257801886
 20
8.7098443296
 30
0.0
 10
13.1264245822
 20
8.7429710404
 30
0.0
 10
13.1274951308
 20
8.776353131
 30
0.0
 10
13.1289891768
 20
8.8099097881
 30
0.0
 10
13.1309032002
 20
8.8435605211
 30
0.0
 10
13.1332325741
 20
8.8772241683
 30
0.0
 10
13.1359716967
 20
8.9108197015
 30
0.0
 10
13.1391139596
 20
8.9442662154
 30
0.0
 10
13.1426517837
 20
8.977483172
 30
0.0
 10
13.146576635
 20
9.010390589
 30
0.0
 10
13.1508790448
 20
9.0429092291
 30
0.0
 10
13.1555486273
 20
9.0749607979
 30
0.0
 10
13.1605740966
 20
9.106468136
 30
0.0
 10
13.1659433084
 20
9.1373554038
 30
0.0
 10
13.1716432856
 20
9.1675482623
 30
0.0
 10
13.1776602494
 20
9.196974052
 30
0.0
 10
13.1839796528
 20
9.2255619805
 30
0.0
 10
13.1905862009
 20
9.2532432887
 30
0.0
 10
13.1974638972
 20
9.2799514707
 30
0.0
 10
13.2045961035
 20
9.3056222494
 30
0.0
 10
13.2107991171
 20
9.3263052562
 30
0.0
 10
13.2158831511
 20
9.3422810517
 30
0.0
 10
13.2197098451
 20
9.3538428365
 30
0.0
 10
13.2235870364
 20
9.3651005801
 30
0.0
 10
13.2275123728
 20
9.3760475277
 30
0.0
 10
13.2314834724
 20
9.3866771006
 30
0.0
 10
13.2354979936
 20
9.3969829009
 30
0.0
 10
13.2395534393
 20
9.406958756
 30
0.0
 10
13.2436474426
 20
9.4165986605
 30
0.0
 10
13.2477774874
 20
9.425896844
 30
0.0
 10
13.2519410933
 20
9.4348477335
 30
0.0
 10
13.2561358001
 20
9.4434459522
 30
0.0
 10
13.2603590054
 20
9.4516863819
 30
0.0
 10
13.264608267
 20
9.4595640688
 30
0.0
 10
13.2688809764
 20
9.4670743428
 30
0.0
 10
13.2731746125
 20
9.4742127245
 30
0.0
 10
13.2774866434
 20
9.4809749426
 30
0.0
 10
13.2818144099
 20
9.4873570134
 30
0.0
 10
13.28615548
 20
9.4933551329
 30
0.0
 10
13.2905072962
 20
9.4989658566
 30
0.0
 10
13.2948674702
 20
9.5041858962
 30
0.0
 10
13.2992331925
 20
9.5090118727
 30
0.0
 10
13.3022118345
 20
9.5120317117
 30
0.0
 10
13.303702148
 20
9.5134712441
 30
0.0
  0
SPLINE
  5
3BF
100
AcDbEntity
  8
0
100
AcDbSpline
 62
7
  6
CONTINUOUS
 70
0
 71
3
 72
49
 73
45
 74
0
 42
0.0000001
 43
0.0000001
 44
0.0000000001
 40
0.0
 40
0.0
 40
0.0
 40
0.0
 40
0.0378127845
 40
0.0760191223
 40
0.114531607
 40
0.1532645858
 40
0.1921302413
 40
0.2310409706
 40
0.2699088597
 40
0.3086461572
 40
0.3471654842
 40
0.3853800876
 40
0.4232040959
 40
0.4605527702
 40
0.4973427611
 40
0.533492372
 40
0.5689218309
 40
0.6035535573
 40
0.637312442
 40
0.6701261391
 40
0.7019253763
 40
0.7326442909
 40
0.7622208088
 40
0.7905970516
 40
0.80431852
 40
0.8177203446
 40
0.8307967508
 40
0.843542237
 40
0.8559517495
 40
0.8680206515
 40
0.8797447052
 40
0.8911202579
 40
0.9021440651
 40
0.9128135674
 40
0.9231267538
 40
0.9330823402
 40
0.9426798495
 40
0.9519195568
 40
0.960802764
 40
0.9693317342
 40
0.977510198
 40
0.9853432953
 40
0.992837349
 40
1.0
 40
1.0
 40
1.0
 40
1.0
 10
13.0497006196
 20
8.6655675854
 30
0.0
 10
13.0497006196
 20
8.677491959
 30
0.0
 10
13.0498591148
 20
8.7014650904
 30
0.0
 10
13.0505615852
 20
8.7375770619
 30
0.0
 10
13.0517286018
 20
8.7739673857
 30
0.0
 10
13.0533572911
 20
8.8105480622
 30
0.0
 10
13.0554438007
 20
8.8472312694
 30
0.0
 10
13.0579830844
 20
8.8839285594
 30
0.0
 10
13.060969043
 20
8.920551599
 30
0.0
 10
13.0643944758
 20
8.9570121879
 30
0.0
 10
13.0682511196
 20
8.9932225314
 30
0.0
 10
13.0725296685
 20
9.0290954398
 30
0.0
 10
13.077219795
 20
9.0645445394
 30
0.0
 10
13.0823101756
 20
9.0994844812
 30
0.0
 10
13.0877885174
 20
9.1338311475
 30
0.0
 10
13.0936415857
 20
9.1675018588
 30
0.0
 10
13.0998552297
 20
9.2004155778
 30
0.0
 10
13.1064144243
 20
9.232493106
 30
0.0
 10
13.1133033047
 20
9.2636572743
 30
0.0
 10
13.1205052038
 20
9.2938331366
 30
0.0
 10
13.128002692
 20
9.3229481379
 30
0.0
 10
13.1357776207
 20
9.3509323638
 30
0.0
 10
13.1438111613
 20
9.3777184966
 30
0.0
 10
13.1507807153
 20
9.3992221493
 30
0.0
 10
13.1564799327
 20
9.4157705776
 30
0.0
 10
13.1607590353
 20
9.4277040269
 30
0.0
 10
13.1650879939
 20
9.439291494
 30
0.0
 10
13.1694642717
 20
9.4505260191
 30
0.0
 10
13.1738852077
 20
9.4614008546
 30
0.0
 10
13.1783481164
 20
9.4719094799
 30
0.0
 10
13.1828503691
 20
9.4820455753
 30
0.0
 10
13.1873891727
 20
9.4918030876
 30
0.0
 10
13.1919618866
 20
9.5011761475
 30
0.0
 10
13.1965656898
 20
9.5101591678
 30
0.0
 10
13.2011978565
 20
9.5187467718
 30
0.0
 10
13.205855626
 20
9.5269338343
 30
0.0
 10
13.2105361709
 20
9.5347155052
 30
0.0
 10
13.2152367918
 20
9.5420871101
 30
0.0
 10
13.2199545746
 20
9.5490443104
 30
0.0
 10
13.2246868387
 20
9.5555829652
 30
0.0
 10
13.229430822
 20
9.561699289
 30
0.0
 10
13.2341838928
 20
9.5673897302
 30
0.0
 10
13.2389430394
 20
9.5726506043
 30
0.0
 10
13.2421901175
 20
9.5759425864
 30
0.0
 10
13.2438147432
 20
9.5775118545
 30
0.0
  0
SPLINE
  5
3C0
100
AcDbEntity
  8
0
100
AcDbSpline
 62
7
  6
CONTINUOUS
 70
0
 71
3
 72
29
 73
25
 74
0
 42
0.0000001
 43
0.0000001
 44
0.0000000001
 40
0.0
 40
0.0
 40
0.0
 40
0.0
 40
0.0755836755
 40
0.1466143562
 40
0.2134286572
 40
0.2764666867
 40
0.3362686904
 40
0.3651658039
 40
0.3935045519
 40
0.4213816903
 40
0.4488992609
 40
0.4761636692
 40
0.503284649
 40
0.5303738152
 40
0.5575431712
 40
0.5849037119
 40
0.6125638739
 40
0.6406282505
 40
0.6691966684
 40
0.7281925824
 40
0.7902529585
 40
0.8559465767
 40
0.925738346
 40
1.0
 40
1.0
 40
1.0
 40
1.0
 10
13.7788935227
 20
9.9724708924
 30
0.0
 10
13.7808056768
 20
9.9743178916
 30
0.0
 10
13.7846274513
 20
9.9777871229
 30
0.0
 10
13.7905419808
 20
9.9824217813
 30
0.0
 10
13.7964497304
 20
9.9863142682
 30
0.0
 10
13.8023445861
 20
9.9894585595
 30
0.0
 10
13.8072994285
 20
9.9914735274
 30
0.0
 10
13.8112348163
 20
9.992688477
 30
0.0
 10
13.814144701
 20
9.9933999324
 30
0.0
 10
13.8170452669
 20
9.9939215737
 30
0.0
 10
13.8199357112
 20
9.9942532079
 30
0.0
 10
13.822815107
 20
9.9943945892
 30
0.0
 10
13.8256825189
 20
9.9943456154
 30
0.0
 10
13.8285370013
 20
9.9941063418
 30
0.0
 10
13.8313776161
 20
9.9936768449
 30
0.0
 10
13.8342034263
 20
9.9930572246
 30
0.0
 10
13.8370135164
 20
9.9922478081
 30
0.0
 10
13.8398071094
 20
9.9912489087
 30
0.0
 10
13.8435481831
 20
9.9896481425
 30
0.0
 10
13.8481944249
 20
9.9871504014
 30
0.0
 10
13.8536239742
 20
9.9834344732
 30
0.0
 10
13.8589640502
 20
9.9789739729
 30
0.0
 10
13.8642097224
 20
9.9737757881
 30
0.0
 10
13.8675343498
 20
9.9699457457
 30
0.0
 10
13.8691824461
 20
9.9679193107
 30
0.0
  0
SPLINE
  5
3C1
100
AcDbEntity
  8
0
100
AcDbSpline
 62
7
  6
CONTINUOUS
 70
0
 71
3
 72
18
 73
14
 74
0
 42
0.0000001
 43
0.0000001
 44
0.0000000001
 40
0.0
 40
0.0
 40
0.0
 40
0.0
 40
0.1504654274
 40
0.2917102685
 40
0.4244367914
 40
0.5495623274
 40
0.6682139347
 40
0.7255498045
 40
0.781791271
 40
0.8371402644
 40
0.8918093774
 40
0.9460200616
 40
1.0
 40
1.0
 40
1.0
 40
1.0
 10
13.7190061179
 20
10.0365115029
 30
0.0
 10
13.7211264193
 20
10.0385595569
 30
0.0
 10
13.7253640967
 20
10.0424022694
 30
0.0
 10
13.7319260567
 20
10.0475234092
 30
0.0
 10
13.7384803707
 20
10.0518064385
 30
0.0
 10
13.7450201539
 20
10.0552443299
 30
0.0
 10
13.7505167489
 20
10.0574243467
 30
0.0
 10
13.7548808163
 20
10.0587195879
 30
0.0
 10
13.758107393
 20
10.0594660885
 30
0.0
 10
13.7613232455
 20
10.0599981928
 30
0.0
 10
13.7645274982
 20
10.0603156296
 30
0.0
 10
13.7677188722
 20
10.0604181661
 30
0.0
 10
13.7698391262
 20
10.0603431669
 30
0.0
 10
13.7708941662
 20
10.0602700047
 30
0.0
  0
SPLINE
  5
3C2
100
AcDbEntity
  8
0
100
AcDbSpline
 62
7
  6
CONTINUOUS
 70
0
 71
3
 72
15
 73
11
 74
0
 42
0.0000001
 43
0.0000001
 44
0.0000000001
 40
0.0
 40
0.0
 40
0.0
 40
0.0
 40
0.1273482228
 40
0.253860527
 40
0.3795879206
 40
0.5046050801
 40
0.6290174363
 40
0.7529533709
 40
0.8765605784
 40
1.0
 40
1.0
 40
1.0
 40
1.0
 10
10.0180703542
 20
9.2613353022
 30
0.0
 10
10.0180703542
 20
9.2653390195
 30
0.0
 10
10.018452625
 20
9.2733257087
 30
0.0
 10
10.0201814161
 20
9.2851521375
 30
0.0
 10
10.0230480449
 20
9.2966814148
 30
0.0
 10
10.0270266247
 20
9.3078057154
 30
0.0
 10
10.0320806266
 20
9.3184224585
 30
0.0
 10
10.0381639991
 20
9.3284336096
 30
0.0
 10
10.0452195428
 20
9.3377453632
 30
0.0
 10
10.0505320087
 20
9.3434335224
 30
0.0
 10
10.0533233061
 20
9.3461297205
 30
0.0
  0
SPLINE
  5
3C3
100
AcDbEntity
  8
0
100
AcDbSpline
 62
7
  6
CONTINUOUS
 70
0
 71
3
 72
14
 73
10
 74
0
 42
0.0000001
 43
0.0000001
 44
0.0000000001
 40
0.0
 40
0.0
 40
0.0
 40
0.0
 40
0.1211360981
 40
0.2426520404
 40
0.3649238118
 40
0.4883200927
 40
0.6131985127
 40
0.7399026757
 40
1.0
 40
1.0
 40
1.0
 40
1.0
 10
13.6008649766
 20
9.0448355803
 30
0.0
 10
13.6019016665
 20
9.044763689
 30
0.0
 10
13.6039746197
 20
9.0445594051
 30
0.0
 10
13.6070687503
 20
9.04407266
 30
0.0
 10
13.6101489921
 20
9.0434055394
 30
0.0
 10
13.6132144371
 20
9.0425582218
 30
0.0
 10
13.6162645658
 20
9.0415308813
 30
0.0
 10
13.6203446338
 20
9.039907902
 30
0.0
 10
13.6233283524
 20
9.0384390928
 30
0.0
 10
13.6252813204
 20
9.0373599727
 30
0.0
  0
SPLINE
  5
3C4
100
AcDbEntity
  8
0
100
AcDbSpline
 62
7
  6
CONTINUOUS
 70
0
 71
3
 72
44
 73
40
 74
0
 42
0.0000001
 43
0.0000001
 44
0.0000000001
 40
0.0
 40
0.0
 40
0.0
 40
0.0
 40
0.0309511184
 40
0.0464827101
 40
0.0620482504
 40
0.0932764743
 40
0.1246329665
 40
0.1403581325
 40
0.1561113591
 40
0.1876916432
 40
0.219364105
 40
0.2511137078
 40
0.2829244006
 40
0.3147794692
 40
0.3466618509
 40
0.3626097062
 40
0.3785579887
 40
0.4104439122
 40
0.4423067667
 40
0.474130838
 40
0.5059012868
 40
0.5376043099
 40
0.5534282046
 40
0.5692306261
 40
0.6007622075
 40
0.6321924641
 40
0.6635129244
 40
0.6947166519
 40
0.7257983034
 40
0.7567541796
 40
0.7875822681
 40
0.8182822745
 40
0.8488556422
 40
0.8793055701
 40
0.9096370181
 40
0.9398566989
 40
0.9549291037
 40
0.9699768716
 40
1.0
 40
1.0
 40
1.0
 40
1.0
 10
9.2685116541
 20
8.6390288231
 30
0.0
 10
9.2632713507
 20
8.6393922394
 30
0.0
 10
9.2554165631
 20
8.640203791
 30
0.0
 10
9.2450074463
 20
8.6418073531
 30
0.0
 10
9.2346104992
 20
8.6437635151
 30
0.0
 10
9.221703336
 20
8.6468600725
 30
0.0
 10
9.2089996702
 20
8.6507988918
 30
0.0
 10
9.1989767638
 20
8.6544454882
 30
0.0
 10
9.1890405845
 20
8.6584254337
 30
0.0
 10
9.1768370699
 20
8.6640044677
 30
0.0
 10
9.1626153869
 20
8.67162282
 30
0.0
 10
9.1488620552
 20
8.6801321076
 30
0.0
 10
9.1356336201
 20
8.6894898463
 30
0.0
 10
9.1229828246
 20
8.6996501868
 30
0.0
 10
9.1129625765
 20
8.708745707
 30
0.0
 10
9.105281572
 20
8.7163743169
 30
0.0
 10
9.097831025
 20
8.7242289973
 30
0.0
 10
9.0889634756
 20
8.7344538659
 30
0.0
 10
9.0790722872
 20
8.7473207218
 30
0.0
 10
9.0699641147
 20
8.760729871
 30
0.0
 10
9.0616692919
 20
8.7746247451
 30
0.0
 10
9.0554522871
 20
8.7865700249
 30
0.0
 10
9.050910906
 20
8.7963128745
 30
0.0
 10
9.0466663769
 20
8.8061569793
 30
0.0
 10
9.0419111412
 20
8.8186589045
 30
0.0
 10
9.037100471
 20
8.8339291078
 30
0.0
 10
9.0332028671
 20
8.8494004033
 30
0.0
 10
9.0302294801
 20
8.8650153349
 30
0.0
 10
9.0281885828
 20
8.880716967
 30
0.0
 10
9.0270858546
 20
8.8964484095
 30
0.0
 10
9.0269243702
 20
8.9121529573
 30
0.0
 10
9.0277046385
 20
8.9277740722
 30
0.0
 10
9.0294246087
 20
8.943255352
 30
0.0
 10
9.0320796983
 20
8.9585406877
 30
0.0
 10
9.0356625431
 20
8.9735737024
 30
0.0
 10
9.0394168238
 20
8.9858564764
 30
0.0
 10
9.0428730976
 20
8.9954978749
 30
0.0
 10
9.0466222652
 20
9.0049929654
 30
0.0
 10
9.0497728671
 20
9.0119708783
 30
0.0
 10
9.0520192501
 20
9.0165443689
 30
0.0
  0
SPLINE
  5
3C5
100
AcDbEntity
  8
0
100
AcDbSpline
 62
7
  6
CONTINUOUS
 70
0
 71
3
 72
22
 73
18
 74
0
 42
0.0000001
 43
0.0000001
 44
0.0000000001
 40
0.0
 40
0.0
 40
0.0
 40
0.0
 40
0.1255321128
 40
0.1896414048
 40
0.25431206
 40
0.3193024515
 40
0.3843805984
 40
0.4493266682
 40
0.5139347363
 40
0.5780144195
 40
0.6413928743
 40
0.7039167076
 40
0.7654540024
 40
0.8258966561
 40
0.8851634424
 40
0.9432033959
 40
1.0
 40
1.0
 40
1.0
 40
1.0
 10
9.9506869826
 20
7.9515867745
 30
0.0
 10
9.9526646482
 20
7.9432672849
 30
0.0
 10
9.9555688922
 20
7.9306792006
 30
0.0
 10
9.959378723
 20
7.9137794574
 30
0.0
 10
9.9622601781
 20
7.9008980462
 30
0.0
 10
9.9651583549
 20
7.8879527552
 30
0.0
 10
9.9680888113
 20
7.8749954738
 30
0.0
 10
9.9710698562
 20
7.8620764205
 30
0.0
 10
9.9741225241
 20
7.8492439299
 30
0.0
 10
9.9772705653
 20
7.8365443757
 30
0.0
 10
9.9805404617
 20
7.8240221626
 30
0.0
 10
9.9839614619
 20
7.8117198104
 30
0.0
 10
9.9875656368
 20
7.7996781381
 30
0.0
 10
9.9913879161
 20
7.7879365947
 30
0.0
 10
9.9954662013
 20
7.7765335189
 30
0.0
 10
9.9998410911
 20
7.7655071957
 30
0.0
 10
10.0030188171
 20
7.758355653
 30
0.0
 10
10.0046738791
 20
7.7548585021
 30
0.0
  0
SPLINE
  5
3C6
100
AcDbEntity
  8
0
100
AcDbSpline
 62
7
  6
CONTINUOUS
 70
0
 71
3
 72
53
 73
49
 74
0
 42
0.0000001
 43
0.0000001
 44
0.0000000001
 40
0.0
 40
0.0
 40
0.0
 40
0.0
 40
0.0063158453
 40
0.0126706042
 40
0.0191024045
 40
0.0256479299
 40
0.0323417859
 40
0.0392161006
 40
0.0536138955
 40
0.0611945924
 40
0.0690563441
 40
0.0772174269
 40
0.0856937979
 40
0.0944991832
 40
0.1036452597
 40
0.11314202
 40
0.1229977594
 40
0.1332193388
 40
0.1438124264
 40
0.1547814124
 40
0.1661297233
 40
0.1778599004
 40
0.1899735286
 40
0.2024715483
 40
0.215354187
 40
0.228620972
 40
0.2422709821
 40
0.2563026805
 40
0.2707140376
 40
0.2855026779
 40
0.3006656825
 40
0.3321007985
 40
0.3649898971
 40
0.3992976059
 40
0.4349839202
 40
0.4720046721
 40
0.5103119941
 40
0.5498546252
 40
0.5905781203
 40
0.632425176
 40
0.6753358984
 40
0.7192479643
 40
0.7640967369
 40
0.809815732
 40
0.8563364699
 40
0.9035882635
 40
0.9515016805
 40
1.0
 40
1.0
 40
1.0
 40
1.0
 10
11.5923528607
 20
6.5254250408
 30
0.0
 10
11.5910852228
 20
6.5255129585
 30
0.0
 10
11.5885481293
 20
6.52579312
 30
0.0
 10
11.5847709302
 20
6.5265233297
 30
0.0
 10
11.5810189606
 20
6.5275634152
 30
0.0
 10
11.5772944568
 20
6.5289126852
 30
0.0
 10
11.5735988479
 20
6.5305702548
 30
0.0
 10
11.5686366184
 20
6.5332302891
 30
0.0
 10
11.5638091836
 20
6.536486625
 30
0.0
 10
11.5591374157
 20
6.5402601467
 30
0.0
 10
11.5556086969
 20
6.5434417127
 30
0.0
 10
11.5521176134
 20
6.5469238866
 30
0.0
 10
11.5486651112
 20
6.5507055026
 30
0.0
 10
11.5452525899
 20
6.5547849094
 30
0.0
 10
11.5418812527
 20
6.5591604156
 30
0.0
 10
11.5385524695
 20
6.5638302826
 30
0.0
 10
11.535267495
 20
6.5687925896
 30
0.0
 10
11.532027597
 20
6.5740453153
 30
0.0
 10
11.5288341263
 20
6.579586365
 30
0.0
 10
11.5256882996
 20
6.5854134567
 30
0.0
 10
11.5225913964
 20
6.5915242303
 30
0.0
 10
11.5195447125
 20
6.5979162142
 30
0.0
 10
11.5165494236
 20
6.6045867757
 30
0.0
 10
11.5136067927
 20
6.6115332065
 30
0.0
 10
11.5107180327
 20
6.6187526666
 30
0.0
 10
11.5078842807
 20
6.6262421852
 30
0.0
 10
11.5051067559
 20
6.6339987083
 30
0.0
 10
11.5023865774
 20
6.6420190459
 30
0.0
 10
11.4997248474
 20
6.6502998973
 30
0.0
 10
11.4971226995
 20
6.6588378828
 30
0.0
 10
11.4936927798
 20
6.6707028086
 30
0.0
 10
11.4895717175
 20
6.6861568134
 30
0.0
 10
11.484938065
 20
6.7054538196
 30
0.0
 10
11.4805662735
 20
6.7256876184
 30
0.0
 10
11.4764636064
 20
6.7468248819
 30
0.0
 10
11.4726368852
 20
6.7688309126
 30
0.0
 10
11.4690924898
 20
6.791669512
 30
0.0
 10
11.465836345
 20
6.8153030996
 30
0.0
 10
11.4628738622
 20
6.8396927488
 30
0.0
 10
11.4602099718
 20
6.8647982715
 30
0.0
 10
11.4578491237
 20
6.8905782963
 30
0.0
 10
11.455795264
 20
6.9169903165
 30
0.0
 10
11.4540517939
 20
6.9439907887
 30
0.0
 10
11.4526216287
 20
6.9715351852
 30
0.0
 10
11.4515071767
 20
6.9995779743
 30
0.0
 10
11.4507102545
 20
7.028073232
 30
0.0
 10
11.450232271
 20
7.0569734866
 30
0.0
 10
11.450127304
 20
7.0763707129
 30
0.0
 10
11.450127304
 20
7.0861280755
 30
0.0
  0
SPLINE
  5
3C7
100
AcDbEntity
  8
0
100
AcDbSpline
 62
7
  6
CONTINUOUS
 70
0
 71
3
 72
52
 73
48
 74
0
 42
0.0000001
 43
0.0000001
 44
0.0000000001
 40
0.0
 40
0.0
 40
0.0
 40
0.0
 40
0.006315855
 40
0.0126706206
 40
0.0191024263
 40
0.0256479374
 40
0.0323417941
 40
0.0392161045
 40
0.0536138683
 40
0.0611945479
 40
0.0690562617
 40
0.0772173543
 40
0.085693692
 40
0.0944990462
 40
0.103645138
 40
0.1131418498
 40
0.1229975739
 40
0.1332191689
 40
0.1438121987
 40
0.1547811893
 40
0.1661295086
 40
0.177859629
 40
0.1899732811
 40
0.2024712964
 40
0.2153538898
 40
0.2286207133
 40
0.2422707053
 40
0.2563023772
 40
0.2707137798
 40
0.3006646127
 40
0.3320997422
 40
0.3649888938
 40
0.3992966149
 40
0.4349829397
 40
0.4720037572
 40
0.5103111361
 40
0.549853795
 40
0.5905773573
 40
0.6324244925
 40
0.67533528
 40
0.7192474126
 40
0.7640962686
 40
0.8098153865
 40
0.8563361567
 40
0.9035880144
 40
0.9515017685
 40
1.0
 40
1.0
 40
1.0
 40
1.0
 10
13.1919266949
 20
6.4144942312
 30
0.0
 10
13.1906590541
 20
6.4145821363
 30
0.0
 10
13.1881219509
 20
6.4148622399
 30
0.0
 10
13.1843447399
 20
6.4155924238
 30
0.0
 10
13.1805927696
 20
6.4166324993
 30
0.0
 10
13.1768682358
 20
6.4179816835
 30
0.0
 10
13.1731726276
 20
6.4196392499
 30
0.0
 10
13.1682103852
 20
6.4222992431
 30
0.0
 10
13.1633829273
 20
6.425555529
 30
0.0
 10
13.1587111548
 20
6.4293290169
 30
0.0
 10
13.1551823964
 20
6.4325105267
 30
0.0
 10
13.1516913369
 20
6.4359927083
 30
0.0
 10
13.1482388045
 20
6.4397742809
 30
0.0
 10
13.1448262582
 20
6.4438536558
 30
0.0
 10
13.141454946
 20
6.4482291651
 30
0.0
 10
13.1381261183
 20
6.4528989883
 30
0.0
 10
13.1348411355
 20
6.4578612798
 30
0.0
 10
13.131601256
 20
6.4631140032
 30
0.0
 10
13.1284077335
 20
6.4686550148
 30
0.0
 10
13.1252619145
 20
6.4744821017
 30
0.0
 10
13.1221650169
 20
6.4805928682
 30
0.0
 10
13.119118283
 20
6.4869848235
 30
0.0
 10
13.1161230132
 20
6.4936553864
 30
0.0
 10
13.1131803723
 20
6.5006018074
 30
0.0
 10
13.1102915718
 20
6.5078212496
 30
0.0
 10
13.1074578433
 20
6.5153107733
 30
0.0
 10
13.1046802977
 20
6.5230672851
 30
0.0
 10
13.1019600788
 20
6.531087621
 30
0.0
 10
13.0983649253
 20
6.5422727076
 30
0.0
 10
13.094032974
 20
6.5568965876
 30
0.0
 10
13.0891451821
 20
6.5752253038
 30
0.0
 10
13.0845115357
 20
6.5945224328
 30
0.0
 10
13.0801397167
 20
6.614756213
 30
0.0
 10
13.0760370215
 20
6.6358934994
 30
0.0
 10
13.0722102977
 20
6.6578995562
 30
0.0
 10
13.0686658929
 20
6.680738187
 30
0.0
 10
13.0654097196
 20
6.7043718031
 30
0.0
 10
13.0624472296
 20
6.7287614889
 30
0.0
 10
13.0597833355
 20
6.7538670559
 30
0.0
 10
13.0574224723
 20
6.7796471239
 30
0.0
 10
13.0553685999
 20
6.8060591886
 30
0.0
 10
13.0536251274
 20
6.8330597176
 30
0.0
 10
13.0521949593
 20
6.8606041641
 30
0.0
 10
13.0510804954
 20
6.888646999
 30
0.0
 10
13.0502835712
 20
6.917142346
 30
0.0
 10
13.0498055906
 20
6.9460426658
 30
0.0
 10
13.0497006196
 20
6.9654399436
 30
0.0
 10
13.0497006196
 20
6.9751972893
 30
0.0
  0
SPLINE
  5
3C8
100
AcDbEntity
  8
0
100
AcDbSpline
 62
7
  6
CONTINUOUS
 70
0
 71
3
 72
23
 73
19
 74
0
 42
0.0000001
 43
0.0000001
 44
0.0000000001
 40
0.0
 40
0.0
 40
0.0
 40
0.0
 40
0.0159892103
 40
0.0331042685
 40
0.0706878454
 40
0.1127008531
 40
0.1590752463
 40
0.2097171944
 40
0.264510055
 40
0.3233143826
 40
0.3859683542
 40
0.4522885455
 40
0.5220709877
 40
0.5950933182
 40
0.6711166461
 40
0.7498882209
 40
0.8311426689
 40
1.0
 40
1.0
 40
1.0
 40
1.0
 10
9.9108475782
 20
8.0748377716
 30
0.0
 10
9.9111799463
 20
8.0742308618
 30
0.0
 10
9.9118563765
 20
8.0729678676
 30
0.0
 10
9.9132558053
 20
8.070247468
 30
0.0
 10
9.9150816763
 20
8.0664806495
 30
0.0
 10
9.9173270196
 20
8.0615123078
 30
0.0
 10
9.9196723463
 20
8.0559709317
 30
0.0
 10
9.9221010266
 20
8.0498660286
 30
0.0
 10
9.9245973563
 20
8.0432106509
 30
0.0
 10
9.927146687
 20
8.0360213263
 30
0.0
 10
9.9297355183
 20
8.0283179333
 30
0.0
 10
9.9323516022
 20
8.0201235775
 30
0.0
 10
9.9349840774
 20
8.0114643902
 30
0.0
 10
9.9376236023
 20
8.0023692827
 30
0.0
 10
9.9402623976
 20
7.9928696095
 30
0.0
 10
9.9428943457
 20
7.9829988844
 30
0.0
 10
9.9464340804
 20
7.9692129448
 30
0.0
 10
9.9489969568
 20
7.958696243
 30
0.0
 10
9.9506869826
 20
7.9515867745
 30
0.0
  0
SPLINE
  5
3C9
100
AcDbEntity
  8
0
100
AcDbSpline
 62
7
  6
CONTINUOUS
 70
0
 71
3
 72
23
 73
19
 74
0
 42
0.0000001
 43
0.0000001
 44
0.0000000001
 40
0.0
 40
0.0
 40
0.0
 40
0.0
 40
0.0613163246
 40
0.1228276172
 40
0.1845262731
 40
0.2464140998
 40
0.3084847824
 40
0.3707312565
 40
0.4331444291
 40
0.4957130377
 40
0.5584241047
 40
0.6212629961
 40
0.684213513
 40
0.7472584112
 40
0.810379322
 40
0.8735555161
 40
0.936771686
 40
1.0
 40
1.0
 40
1.0
 40
1.0
 10
10.1088921794
 20
8.1508445058
 30
0.0
 10
10.1044331022
 20
8.1511537438
 30
0.0
 10
10.0954814932
 20
8.1515236828
 30
0.0
 10
10.082024883
 20
8.1513336081
 30
0.0
 10
10.0685572317
 20
8.1503998593
 30
0.0
 10
10.0551205612
 20
8.1487255757
 30
0.0
 10
10.0417555958
 20
8.1463157243
 30
0.0
 10
10.0285033166
 20
8.143177796
 30
0.0
 10
10.0154042099
 20
8.1393214393
 30
0.0
 10
10.0024983227
 20
8.1347584478
 30
0.0
 10
9.9898251207
 20
8.1295027708
 30
0.0
 10
9.9774233329
 20
8.1235705326
 30
0.0
 10
9.9653308477
 20
8.1169799119
 30
0.0
 10
9.9535846139
 20
8.1097510385
 30
0.0
 10
9.9422206714
 20
8.1019060367
 30
0.0
 10
9.9312733561
 20
8.0934688018
 30
0.0
 10
9.9207768775
 20
8.0844654705
 30
0.0
 10
9.9141001791
 20
8.0781035023
 30
0.0
 10
9.9108475782
 20
8.0748377716
 30
0.0
  0
SPLINE
  5
3CA
100
AcDbEntity
  8
0
100
AcDbSpline
 62
7
  6
CONTINUOUS
 70
0
 71
3
 72
39
 73
35
 74
0
 42
0.0000001
 43
0.0000001
 44
0.0000000001
 40
0.0
 40
0.0
 40
0.0
 40
0.0
 40
0.0299424718
 40
0.0599093198
 40
0.0899243266
 40
0.120010106
 40
0.1501875647
 40
0.1804754164
 40
0.2108897604
 40
0.2414437366
 40
0.2721472601
 40
0.3030068419
 40
0.3340254933
 40
0.365202712
 40
0.3965345466
 40
0.4280137318
 40
0.4596298892
 40
0.491369784
 40
0.5232176323
 40
0.5551554498
 40
0.5871634345
 40
0.6192203774
 40
0.651304093
 40
0.6833918636
 40
0.7154608911
 40
0.7474887497
 40
0.7794538335
 40
0.8113357936
 40
0.8431159524
 40
0.8747777124
 40
0.906306864
 40
0.9376920822
 40
0.9689247084
 40
1.0
 40
1.0
 40
1.0
 40
1.0
 10
7.9344712574
 20
6.7614711855
 30
0.0
 10
7.9295607159
 20
6.7567279659
 30
0.0
 10
7.919353506
 20
6.7476243243
 30
0.0
 10
7.9029999648
 20
6.7352222247
 30
0.0
 10
7.8856872867
 20
6.7241355556
 30
0.0
 10
7.8675122075
 20
6.7144265099
 30
0.0
 10
7.8485746528
 20
6.7061481302
 30
0.0
 10
7.828979137
 20
6.6993459224
 30
0.0
 10
7.8088336429
 20
6.6940571041
 30
0.0
 10
7.7882491579
 20
6.6903105497
 30
0.0
 10
7.7673390163
 20
6.6881266104
 30
0.0
 10
7.7462182825
 20
6.6875170273
 30
0.0
 10
7.7250031149
 20
6.6884848799
 30
0.0
 10
7.7038101319
 20
6.691024584
 30
0.0
 10
7.6827557761
 20
6.6951219343
 30
0.0
 10
7.6619556823
 20
6.7007541919
 30
0.0
 10
7.6415240509
 20
6.7078902168
 30
0.0
 10
7.6215730299
 20
6.7164906438
 30
0.0
 10
7.6022121077
 20
6.7265081017
 30
0.0
 10
7.5835475204
 20
6.737887473
 30
0.0
 10
7.5656816764
 20
6.7505661978
 30
0.0
 10
7.5487126022
 20
6.7644746156
 30
0.0
 10
7.5327334109
 20
6.7795363452
 30
0.0
 10
7.5178317967
 20
6.7956687001
 30
0.0
 10
7.5040895589
 20
6.8127831381
 30
0.0
 10
7.4915821578
 20
6.8307857428
 30
0.0
 10
7.4803783029
 20
6.8495777318
 30
0.0
 10
7.4705395813
 20
6.8690559966
 30
0.0
 10
7.4621201138
 20
6.889113648
 30
0.0
 10
7.4551662797
 20
6.9096406412
 30
0.0
 10
7.4497164071
 20
6.9305242061
 30
0.0
 10
7.4458006792
 20
6.951650073
 30
0.0
 10
7.4434407479
 20
6.9729007144
 30
0.0
 10
7.4429121791
 20
6.987113166
 30
0.0
 10
7.4429121791
 20
6.9941987285
 30
0.0
  0
SPLINE
  5
3CB
100
AcDbEntity
  8
0
100
AcDbSpline
 62
7
  6
CONTINUOUS
 70
0
 71
3
 72
23
 73
19
 74
0
 42
0.0000001
 43
0.0000001
 44
0.0000000001
 40
0.0
 40
0.0
 40
0.0
 40
0.0
 40
0.063775992
 40
0.1273452426
 40
0.190702051
 40
0.2538559967
 40
0.3168132418
 40
0.3795820857
 40
0.4421733813
 40
0.504599339
 40
0.5668738627
 40
0.6290123824
 40
0.6910316504
 40
0.7529496423
 40
0.8147853556
 40
0.8765586046
 40
0.9382898526
 40
1.0
 40
1.0
 40
1.0
 40
1.0
 10
7.4429121791
 20
6.9941987285
 30
0.0
 10
7.4429121791
 20
6.99876556
 30
0.0
 10
7.4431308046
 20
7.0078859651
 30
0.0
 10
7.4441173647
 20
7.021511063
 30
0.0
 10
7.4457600758
 20
7.0350282158
 30
0.0
 10
7.4480549978
 20
7.0484055378
 30
0.0
 10
7.4509969224
 20
7.0616125584
 30
0.0
 10
7.4545790822
 20
7.0746187473
 30
0.0
 10
7.4587932799
 20
7.0873941017
 30
0.0
 10
7.4636298287
 20
7.0999091729
 30
0.0
 10
7.4690775497
 20
7.1121351159
 30
0.0
 10
7.4751239543
 20
7.1240437118
 30
0.0
 10
7.4817551344
 20
7.1356074757
 30
0.0
 10
7.4889557587
 20
7.1467997725
 30
0.0
 10
7.4967092418
 20
7.1575947423
 30
0.0
 10
7.5049978394
 20
7.1679675321
 30
0.0
 10
7.5138020472
 20
7.1778939379
 30
0.0
 10
7.5200029086
 20
7.1841998393
 30
0.0
 10
7.5231812238
 20
7.1872698565
 30
0.0
  0
SPLINE
  5
3CC
100
AcDbEntity
  8
0
100
AcDbSpline
 62
7
  6
CONTINUOUS
 70
0
 71
3
 72
60
 73
56
 74
0
 42
0.0000001
 43
0.0000001
 44
0.0000000001
 40
0.0
 40
0.0
 40
0.0
 40
0.0
 40
0.0095821394
 40
0.0187369571
 40
0.0274867207
 40
0.0358591662
 40
0.0438870666
 40
0.0516082808
 40
0.0590659586
 40
0.0663085496
 40
0.0733896054
 40
0.080366749
 40
0.0873004549
 40
0.0942524187
 40
0.1012838273
 40
0.1084536228
 40
0.1158171423
 40
0.1234250419
 40
0.1313226947
 40
0.1395501171
 40
0.1481418633
 40
0.1571275843
 40
0.1665322732
 40
0.1763767759
 40
0.1866784016
 40
0.1974510773
 40
0.208706086
 40
0.2204521528
 40
0.23269585
 40
0.2454419727
 40
0.2586934711
 40
0.2724520077
 40
0.2867178092
 40
0.301489951
 40
0.316766546
 40
0.3325445796
 40
0.3488203557
 40
0.3655892438
 40
0.382845925
 40
0.4005844746
 40
0.4187981881
 40
0.4374799569
 40
0.4566219821
 40
0.4762160124
 40
0.5167240963
 40
0.5589297637
 40
0.602751289
 40
0.6481011065
 40
0.6948863988
 40
0.7430095683
 40
0.7923686923
 40
0.8428581937
 40
0.8943680299
 40
0.9467879921
 40
1.0
 40
1.0
 40
1.0
 40
1.0
 10
13.3020196316
 20
6.4923914254
 30
0.0
 10
13.3006044071
 20
6.4910743495
 30
0.0
 10
13.2977751443
 20
6.4885642378
 30
0.0
 10
13.293434228
 20
6.4851085696
 30
0.0
 10
13.2890977612
 20
6.4820528592
 30
0.0
 10
13.2847682762
 20
6.4793992421
 30
0.0
 10
13.2804478847
 20
6.4771495851
 30
0.0
 10
13.2761388251
 20
6.4753057237
 30
0.0
 10
13.2718435534
 20
6.4738693137
 30
0.0
 10
13.2675646626
 20
6.4728422131
 30
0.0
 10
13.2633051462
 20
6.4722256669
 30
0.0
 10
13.25906821
 20
6.4720208102
 30
0.0
 10
13.2548573475
 20
6.4722281711
 30
0.0
 10
13.2506761069
 20
6.4728475154
 30
0.0
 10
13.2465279939
 20
6.4738782865
 30
0.0
 10
13.2424161665
 20
6.4753189865
 30
0.0
 10
13.2383435104
 20
6.4771680455
 30
0.0
 10
13.23431254
 20
6.4794235038
 30
0.0
 10
13.2303254352
 20
6.4820832379
 30
0.0
 10
13.2263843523
 20
6.4851452521
 30
0.0
 10
13.2224911382
 20
6.488607223
 30
0.0
 10
13.218647804
 20
6.4924669736
 30
0.0
 10
13.2148562547
 20
6.4967220767
 30
0.0
 10
13.2111183947
 20
6.5013699617
 30
0.0
 10
13.2074362995
 20
6.5064079666
 30
0.0
 10
13.2038118403
 20
6.511833087
 30
0.0
 10
13.2002471164
 20
6.5176422336
 30
0.0
 10
13.196744092
 20
6.5238320104
 30
0.0
 10
13.1933047372
 20
6.5303988129
 30
0.0
 10
13.1899311189
 20
6.5373388435
 30
0.0
 10
13.1866250919
 20
6.5446480075
 30
0.0
 10
13.1833886838
 20
6.5523220515
 30
0.0
 10
13.1802237516
 20
6.56035645
 30
0.0
 10
13.1771321524
 20
6.5687464729
 30
0.0
 10
13.174115782
 20
6.577487185
 30
0.0
 10
13.1711763401
 20
6.5865734062
 30
0.0
 10
13.1683156591
 20
6.5959997784
 30
0.0
 10
13.165535392
 20
6.6057607119
 30
0.0
 10
13.1628371948
 20
6.6158504253
 30
0.0
 10
13.1602227255
 20
6.6262629411
 30
0.0
 10
13.1576934656
 20
6.6369920762
 30
0.0
 10
13.155251007
 20
6.6480314661
 30
0.0
 10
13.152896736
 20
6.6593745628
 30
0.0
 10
13.1498433912
 20
6.6750687977
 30
0.0
 10
13.1462679017
 20
6.6954002168
 30
0.0
 10
13.1423963436
 20
6.7206362883
 30
0.0
 10
13.1389070962
 20
6.746913713
 30
0.0
 10
13.1358085521
 20
6.7741700141
 30
0.0
 10
13.1331081978
 20
6.8023405099
 30
0.0
 10
13.130812555
 20
6.8313582667
 30
0.0
 10
13.1289271627
 20
6.8611543604
 30
0.0
 10
13.1274565998
 20
6.8916578245
 30
0.0
 10
13.1264043552
 20
6.9227964419
 30
0.0
 10
13.1257730858
 20
6.9544957274
 30
0.0
 10
13.1256347919
 20
6.9758081181
 30
0.0
 10
13.1256347919
 20
6.9865440718
 30
0.0
  0
SPLINE
  5
3CD
100
AcDbEntity
  8
0
100
AcDbSpline
 62
7
  6
CONTINUOUS
 70
0
 71
3
 72
21
 73
17
 74
0
 42
0.0000001
 43
0.0000001
 44
0.0000000001
 40
0.0
 40
0.0
 40
0.0
 40
0.0
 40
0.1273178164
 40
0.2537997372
 40
0.3167618888
 40
0.3795355901
 40
0.4421314848
 40
0.5045621368
 40
0.5668413467
 40
0.6289845294
 40
0.6910084492
 40
0.7529310918
 40
0.8147714493
 40
0.8765493283
 40
0.9382852216
 40
1.0
 40
1.0
 40
1.0
 40
1.0
 10
9.9929562813
 20
6.786442936
 30
0.0
 10
9.9929562813
 20
6.7912474351
 30
0.0
 10
9.9934148818
 20
6.800831077
 30
0.0
 10
9.9951470056
 20
6.8126785223
 30
0.0
 10
9.9972171451
 20
6.821971828
 30
0.0
 10
9.9991051041
 20
6.828826562
 30
0.0
 10
10.0013260848
 20
6.8355595099
 30
0.0
 10
10.0038750829
 20
6.8421553097
 30
0.0
 10
10.0067462135
 20
6.8485987104
 30
0.0
 10
10.0099328174
 20
6.8548748868
 30
0.0
 10
10.0134276662
 20
6.8609692977
 30
0.0
 10
10.0172225836
 20
6.8668679613
 30
0.0
 10
10.0213089132
 20
6.8725571956
 30
0.0
 10
10.0256772419
 20
6.8780239423
 30
0.0
 10
10.0303172918
 20
6.883255452
 30
0.0
 10
10.033585355
 20
6.8865788055
 30
0.0
 10
10.0352604177
 20
6.8881967893
 30
0.0
  0
SPLINE
  5
3CE
100
AcDbEntity
  8
0
100
AcDbSpline
 62
7
  6
CONTINUOUS
 70
0
 71
3
 72
39
 73
35
 74
0
 42
0.0000001
 43
0.0000001
 44
0.0000000001
 40
0.0
 40
0.0
 40
0.0
 40
0.0
 40
0.0299424718
 40
0.0599093198
 40
0.0899243266
 40
0.120010106
 40
0.1501875647
 40
0.1804754164
 40
0.2108897604
 40
0.2414437366
 40
0.2721472601
 40
0.3030068419
 40
0.3340254933
 40
0.365202712
 40
0.3965345466
 40
0.4280137318
 40
0.4596298892
 40
0.491369784
 40
0.5232176323
 40
0.5551554498
 40
0.5871634345
 40
0.6192203774
 40
0.651304093
 40
0.6833918636
 40
0.7154608911
 40
0.7474887497
 40
0.7794538335
 40
0.8113357936
 40
0.8431159524
 40
0.8747777124
 40
0.906306864
 40
0.9376920822
 40
0.9689247084
 40
1.0
 40
1.0
 40
1.0
 40
1.0
 10
7.9344712574
 20
9.1762858943
 30
0.0
 10
7.9295607159
 20
9.1715426747
 30
0.0
 10
7.919353506
 20
9.1624390331
 30
0.0
 10
7.9029999648
 20
9.1500369335
 30
0.0
 10
7.8856872867
 20
9.1389502644
 30
0.0
 10
7.8675122075
 20
9.1292412187
 30
0.0
 10
7.8485746528
 20
9.120962839
 30
0.0
 10
7.828979137
 20
9.1141606312
 30
0.0
 10
7.8088336429
 20
9.1088718129
 30
0.0
 10
7.7882491579
 20
9.1051252586
 30
0.0
 10
7.7673390163
 20
9.1029413192
 30
0.0
 10
7.7462182825
 20
9.1023317361
 30
0.0
 10
7.7250031149
 20
9.1032995887
 30
0.0
 10
7.7038101319
 20
9.1058392928
 30
0.0
 10
7.6827557761
 20
9.1099366431
 30
0.0
 10
7.6619556823
 20
9.1155689007
 30
0.0
 10
7.6415240509
 20
9.1227049256
 30
0.0
 10
7.6215730299
 20
9.1313053526
 30
0.0
 10
7.6022121077
 20
9.1413228105
 30
0.0
 10
7.5835475204
 20
9.1527021818
 30
0.0
 10
7.5656816764
 20
9.1653809066
 30
0.0
 10
7.5487126022
 20
9.1792893244
 30
0.0
 10
7.5327334109
 20
9.194351054
 30
0.0
 10
7.5178317967
 20
9.2104834089
 30
0.0
 10
7.5040895589
 20
9.2275978469
 30
0.0
 10
7.4915821578
 20
9.2456004516
 30
0.0
 10
7.4803783029
 20
9.2643924406
 30
0.0
 10
7.4705395813
 20
9.2838707055
 30
0.0
 10
7.4621201138
 20
9.3039283568
 30
0.0
 10
7.4551662797
 20
9.3244553501
 30
0.0
 10
7.4497164071
 20
9.3453389149
 30
0.0
 10
7.4458006792
 20
9.3664647818
 30
0.0
 10
7.4434407479
 20
9.3877154232
 30
0.0
 10
7.4429121791
 20
9.4019278748
 30
0.0
 10
7.4429121791
 20
9.4090134373
 30
0.0
  0
SPLINE
  5
3CF
100
AcDbEntity
  8
0
100
AcDbSpline
 62
7
  6
CONTINUOUS
 70
0
 71
3
 72
21
 73
17
 74
0
 42
0.0000001
 43
0.0000001
 44
0.0000000001
 40
0.0
 40
0.0
 40
0.0
 40
0.0
 40
0.0613014158
 40
0.1228183982
 40
0.184535953
 40
0.2464517344
 40
0.3085557825
 40
0.3708361487
 40
0.4332800753
 40
0.4958733272
 40
0.5586005651
 40
0.6214454865
 40
0.684391701
 40
0.7474222685
 40
0.8736413296
 40
1.0
 40
1.0
 40
1.0
 40
1.0
 10
9.9620466402
 20
8.3003981946
 30
0.0
 10
9.9656325536
 20
8.3001495106
 30
0.0
 10
9.9728057395
 20
8.2994706344
 30
0.0
 10
9.9835183737
 20
8.2979162021
 30
0.0
 10
9.9941769512
 20
8.2958287841
 30
0.0
 10
10.0047543482
 20
8.2932159935
 30
0.0
 10
10.0152251751
 20
8.2900873534
 30
0.0
 10
10.0255645421
 20
8.2864542237
 30
0.0
 10
10.0357486932
 20
8.282329607
 30
0.0
 10
10.0457552195
 20
8.2777282169
 30
0.0
 10
10.0555630131
 20
8.2726659223
 30
0.0
 10
10.0651523047
 20
8.2671596568
 30
0.0
 10
10.0745051202
 20
8.261227295
 30
0.0
 10
10.08664176
 20
8.2527713784
 30
0.0
 10
10.1011379752
 20
8.2412308248
 30
0.0
 10
10.1119409196
 20
8.2310724881
 30
0.0
 10
10.1171324077
 20
8.2257860971
 30
0.0
  0
SPLINE
  5
3D0
100
AcDbEntity
  8
0
100
AcDbSpline
 62
7
  6
CONTINUOUS
 70
0
 71
3
 72
13
 73
9
 74
0
 42
0.0000001
 43
0.0000001
 44
0.0000000001
 40
0.0
 40
0.0
 40
0.0
 40
0.0
 40
0.1211066659
 40
0.2432716242
 40
0.3665254065
 40
0.4909142589
 40
0.7431081562
 40
1.0
 40
1.0
 40
1.0
 40
1.0
 10
9.4670225213
 20
7.2306482064
 30
0.0
 10
9.467310494
 20
7.2271783384
 30
0.0
 10
9.4680765394
 20
7.220222469
 30
0.0
 10
9.4697801938
 20
7.2098189978
 30
0.0
 10
9.472039659
 20
7.1994249588
 30
0.0
 10
9.4758024453
 20
7.1855506708
 30
0.0
 10
9.4818852414
 20
7.1683516486
 30
0.0
 10
9.4880773021
 20
7.1550625252
 30
0.0
 10
9.4915002765
 20
7.1485180372
 30
0.0
  0
SPLINE
  5
3D1
100
AcDbEntity
  8
0
100
AcDbSpline
 62
7
  6
CONTINUOUS
 70
0
 71
3
 72
39
 73
35
 74
0
 42
0.0000001
 43
0.0000001
 44
0.0000000001
 40
0.0
 40
0.0
 40
0.0
 40
0.0
 40
0.0299424718
 40
0.0599093198
 40
0.0899243266
 40
0.120010106
 40
0.1501875647
 40
0.1804754164
 40
0.2108897604
 40
0.2414437366
 40
0.2721472601
 40
0.3030068419
 40
0.3340254933
 40
0.365202712
 40
0.3965345466
 40
0.4280137318
 40
0.4596298892
 40
0.491369784
 40
0.5232176323
 40
0.5551554498
 40
0.5871634345
 40
0.6192203774
 40
0.651304093
 40
0.6833918636
 40
0.7154608911
 40
0.7474887497
 40
0.7794538335
 40
0.8113357936
 40
0.8431159524
 40
0.8747777124
 40
0.906306864
 40
0.9376920822
 40
0.9689247084
 40
1.0
 40
1.0
 40
1.0
 40
1.0
 10
11.0138427088
 20
8.9627307588
 30
0.0
 10
11.0089321673
 20
8.9579875392
 30
0.0
 10
10.9987249574
 20
8.9488838976
 30
0.0
 10
10.9823714161
 20
8.936481798
 30
0.0
 10
10.9650587381
 20
8.9253951289
 30
0.0
 10
10.9468836589
 20
8.9156860832
 30
0.0
 10
10.9279461042
 20
8.9074077035
 30
0.0
 10
10.9083505883
 20
8.9006054957
 30
0.0
 10
10.8882050943
 20
8.8953166774
 30
0.0
 10
10.8676206093
 20
8.8915701231
 30
0.0
 10
10.8467104677
 20
8.8893861837
 30
0.0
 10
10.8255897339
 20
8.8887766006
 30
0.0
 10
10.8043745663
 20
8.8897444532
 30
0.0
 10
10.7831815833
 20
8.8922841573
 30
0.0
 10
10.7621272275
 20
8.8963815076
 30
0.0
 10
10.7413271337
 20
8.9020137652
 30
0.0
 10
10.7208955023
 20
8.9091497901
 30
0.0
 10
10.7009444812
 20
8.9177502171
 30
0.0
 10
10.6815835591
 20
8.927767675
 30
0.0
 10
10.6629189717
 20
8.9391470463
 30
0.0
 10
10.6450531277
 20
8.9518257711
 30
0.0
 10
10.6280840536
 20
8.9657341889
 30
0.0
 10
10.6121048623
 20
8.9807959185
 30
0.0
 10
10.5972032481
 20
8.9969282734
 30
0.0
 10
10.5834610103
 20
9.0140427114
 30
0.0
 10
10.5709536092
 20
9.0320453161
 30
0.0
 10
10.5597497542
 20
9.0508373051
 30
0.0
 10
10.5499110327
 20
9.07031557
 30
0.0
 10
10.5414915651
 20
9.0903732213
 30
0.0
 10
10.5345377311
 20
9.1109002146
 30
0.0
 10
10.5290878584
 20
9.1317837794
 30
0.0
 10
10.5251721305
 20
9.1529096463
 30
0.0
 10
10.5228121993
 20
9.1741602877
 30
0.0
 10
10.5222836304
 20
9.1883727393
 30
0.0
 10
10.5222836304
 20
9.1954583018
 30
0.0
  0
SPLINE
  5
3D2
100
AcDbEntity
  8
0
100
AcDbSpline
 62
7
  6
CONTINUOUS
 70
0
 71
3
 72
15
 73
11
 74
0
 42
0.0000001
 43
0.0000001
 44
0.0000000001
 40
0.0
 40
0.0
 40
0.0
 40
0.0
 40
0.1273482228
 40
0.253860527
 40
0.3795879206
 40
0.5046050801
 40
0.6290174363
 40
0.7529533709
 40
0.8765605784
 40
1.0
 40
1.0
 40
1.0
 40
1.0
 10
8.2678126183
 20
6.9060820554
 30
0.0
 10
8.2678126183
 20
6.9100857727
 30
0.0
 10
8.268194889
 20
6.9180724619
 30
0.0
 10
8.2699236802
 20
6.9298988906
 30
0.0
 10
8.272790309
 20
6.941428168
 30
0.0
 10
8.2767688887
 20
6.9525524686
 30
0.0
 10
8.2818228906
 20
6.9631692117
 30
0.0
 10
8.2879062631
 20
6.9731803628
 30
0.0
 10
8.2949618068
 20
6.9824921164
 30
0.0
 10
8.3002742727
 20
6.9881802756
 30
0.0
 10
8.3030655701
 20
6.9908764737
 30
0.0
  0
SPLINE
  5
3D3
100
AcDbEntity
  8
0
100
AcDbSpline
 62
7
  6
CONTINUOUS
 70
0
 71
3
 72
39
 73
35
 74
0
 42
0.0000001
 43
0.0000001
 44
0.0000000001
 40
0.0
 40
0.0
 40
0.0
 40
0.0
 40
0.0299424718
 40
0.0599093198
 40
0.0899243266
 40
0.120010106
 40
0.1501875647
 40
0.1804754164
 40
0.2108897604
 40
0.2414437366
 40
0.2721472601
 40
0.3030068419
 40
0.3340254933
 40
0.365202712
 40
0.3965345466
 40
0.4280137318
 40
0.4596298892
 40
0.491369784
 40
0.5232176323
 40
0.5551554498
 40
0.5871634345
 40
0.6192203774
 40
0.651304093
 40
0.6833918636
 40
0.7154608911
 40
0.7474887497
 40
0.7794538335
 40
0.8113357936
 40
0.8431159524
 40
0.8747777124
 40
0.906306864
 40
0.9376920822
 40
0.9689247084
 40
1.0
 40
1.0
 40
1.0
 40
1.0
 10
11.0138427088
 20
6.54791605
 30
0.0
 10
11.0089321673
 20
6.5431728304
 30
0.0
 10
10.9987249574
 20
6.5340691888
 30
0.0
 10
10.9823714161
 20
6.5216670892
 30
0.0
 10
10.9650587381
 20
6.5105804201
 30
0.0
 10
10.9468836589
 20
6.5008713744
 30
0.0
 10
10.9279461042
 20
6.4925929947
 30
0.0
 10
10.9083505883
 20
6.4857907869
 30
0.0
 10
10.8882050943
 20
6.4805019686
 30
0.0
 10
10.8676206093
 20
6.4767554143
 30
0.0
 10
10.8467104677
 20
6.4745714749
 30
0.0
 10
10.8255897339
 20
6.4739618918
 30
0.0
 10
10.8043745663
 20
6.4749297444
 30
0.0
 10
10.7831815833
 20
6.4774694485
 30
0.0
 10
10.7621272275
 20
6.4815667988
 30
0.0
 10
10.7413271337
 20
6.4871990564
 30
0.0
 10
10.7208955023
 20
6.4943350813
 30
0.0
 10
10.7009444812
 20
6.5029355083
 30
0.0
 10
10.6815835591
 20
6.5129529662
 30
0.0
 10
10.6629189717
 20
6.5243323375
 30
0.0
 10
10.6450531277
 20
6.5370110623
 30
0.0
 10
10.6280840536
 20
6.5509194801
 30
0.0
 10
10.6121048623
 20
6.5659812097
 30
0.0
 10
10.5972032481
 20
6.5821135646
 30
0.0
 10
10.5834610103
 20
6.5992280026
 30
0.0
 10
10.5709536092
 20
6.6172306073
 30
0.0
 10
10.5597497542
 20
6.6360225963
 30
0.0
 10
10.5499110327
 20
6.6555008612
 30
0.0
 10
10.5414915651
 20
6.6755585125
 30
0.0
 10
10.5345377311
 20
6.6960855058
 30
0.0
 10
10.5290878584
 20
6.7169690706
 30
0.0
 10
10.5251721305
 20
6.7380949375
 30
0.0
 10
10.5228121993
 20
6.7593455789
 30
0.0
 10
10.5222836304
 20
6.7735580305
 30
0.0
 10
10.5222836304
 20
6.780643593
 30
0.0
  0
SPLINE
  5
3D4
100
AcDbEntity
  8
0
100
AcDbSpline
 62
7
  6
CONTINUOUS
 70
0
 71
3
 72
36
 73
32
 74
0
 42
0.0000001
 43
0.0000001
 44
0.0000000001
 40
0.0
 40
0.0
 40
0.0
 40
0.0
 40
0.0851784539
 40
0.1685797221
 40
0.2498819146
 40
0.2896481023
 40
0.3287733825
 40
0.3672208992
 40
0.4049545595
 40
0.4419394685
 40
0.478141692
 40
0.5135285455
 40
0.5480685466
 40
0.5817315304
 40
0.6144888397
 40
0.6463132122
 40
0.6771792164
 40
0.7070630016
 40
0.7359428439
 40
0.7637989648
 40
0.790613997
 40
0.8163730895
 40
0.8410641782
 40
0.8646784984
 40
0.8872107022
 40
0.9086597752
 40
0.9290292269
 40
0.9483283084
 40
0.9665726389
 40
0.983785652
 40
1.0
 40
1.0
 40
1.0
 40
1.0
 10
6.8909571863
 20
7.4042394488
 30
0.0
 10
6.8909571863
 20
7.3886997262
 30
0.0
 10
6.8912219785
 20
7.3579437365
 30
0.0
 10
6.89243652
 20
7.3123697676
 30
0.0
 10
6.8941343508
 20
7.2751029245
 30
0.0
 10
6.8959049492
 20
7.245930892
 30
0.0
 10
6.8974223622
 20
7.2245773301
 30
0.0
 10
6.8991372723
 20
7.2036107444
 30
0.0
 10
6.9010479502
 20
7.1830531979
 30
0.0
 10
6.9031522966
 20
7.1629263599
 30
0.0
 10
6.9054481345
 20
7.1432514216
 30
0.0
 10
6.9079329943
 20
7.1240491029
 30
0.0
 10
6.9106042494
 20
7.1053396209
 30
0.0
 10
6.9134590851
 20
7.0871426672
 30
0.0
 10
6.9164944278
 20
7.0694773907
 30
0.0
 10
6.9197071263
 20
7.0523623708
 30
0.0
 10
6.9230936911
 20
7.0358156006
 30
0.0
 10
6.9266506182
 20
7.019854466
 30
0.0
 10
6.9303740595
 20
7.0044957204
 30
0.0
 10
6.9342601305
 20
6.989755474
 30
0.0
 10
6.9383046892
 20
6.9756491642
 30
0.0
 10
6.9425034594
 20
6.9621915401
 30
0.0
 10
6.9468520565
 20
6.9493966512
 30
0.0
 10
6.9513458392
 20
6.9372777993
 30
0.0
 10
6.9559802143
 20
6.9258475734
 30
0.0
 10
6.960750257
 20
6.9151177504
 30
0.0
 10
6.9656511977
 20
6.9050993719
 30
0.0
 10
6.9706779567
 20
6.8958026682
 30
0.0
 10
6.9758257405
 20
6.887236959
 30
0.0
 10
6.9810892303
 20
6.8794113044
 30
0.0
 10
6.9847800124
 20
6.8745508408
 30
0.0
 10
6.986646474
 20
6.8722559154
 30
0.0
  0
SPLINE
  5
3D5
100
AcDbEntity
  8
0
100
AcDbSpline
 62
7
  6
CONTINUOUS
 70
0
 71
3
 72
16
 73
12
 74
0
 42
0.0000001
 43
0.0000001
 44
0.0000000001
 40
0.0
 40
0.0
 40
0.0
 40
0.0
 40
0.1265634199
 40
0.2526588141
 40
0.3782749995
 40
0.4409187748
 40
0.503450796
 40
0.6281760008
 40
0.7524884314
 40
0.8764181271
 40
1.0
 40
1.0
 40
1.0
 40
1.0
 10
9.4670225213
 20
7.2306482064
 30
0.0
 10
9.4670219213
 20
7.23540486
 30
0.0
 10
9.4672818653
 20
7.2449027336
 30
0.0
 10
9.468453479
 20
7.2590778842
 30
0.0
 10
9.470080468
 20
7.2707866396
 30
0.0
 10
9.471770297
 20
7.280060571
 30
0.0
 10
9.4737140135
 20
7.2892504101
 30
0.0
 10
9.4766231531
 20
7.3006001291
 30
0.0
 10
9.4808773774
 20
7.3139643105
 30
0.0
 10
9.485881752
 20
7.327019897
 30
0.0
 10
9.4897156518
 20
7.3355023064
 30
0.0
 10
9.4917529087
 20
7.3396762581
 30
0.0
  0
SPLINE
  5
3D6
100
AcDbEntity
  8
0
100
AcDbSpline
 62
7
  6
CONTINUOUS
 70
0
 71
3
 72
15
 73
11
 74
0
 42
0.0000001
 43
0.0000001
 44
0.0000000001
 40
0.0
 40
0.0
 40
0.0
 40
0.0
 40
0.1273482228
 40
0.253860527
 40
0.3795879206
 40
0.5046050801
 40
0.6290174363
 40
0.7529533709
 40
0.8765605784
 40
1.0
 40
1.0
 40
1.0
 40
1.0
 10
9.1429416014
 20
8.083708642
 30
0.0
 10
9.1429416014
 20
8.0877123593
 30
0.0
 10
9.1433238721
 20
8.0956990485
 30
0.0
 10
9.1450526633
 20
8.1075254773
 30
0.0
 10
9.1479192921
 20
8.1190547546
 30
0.0
 10
9.1518978718
 20
8.1301790553
 30
0.0
 10
9.1569518737
 20
8.1407957983
 30
0.0
 10
9.1630352463
 20
8.1508069494
 30
0.0
 10
9.1700907899
 20
8.160118703
 30
0.0
 10
9.1754032558
 20
8.1658068622
 30
0.0
 10
9.1781945532
 20
8.1685030604
 30
0.0
  0
SPLINE
  5
3D7
100
AcDbEntity
  8
0
100
AcDbSpline
 62
7
  6
CONTINUOUS
 70
0
 71
3
 72
38
 73
34
 74
0
 42
0.0000001
 43
0.0000001
 44
0.0000000001
 40
0.0
 40
0.0
 40
0.0
 40
0.0
 40
0.0308964342
 40
0.0619739492
 40
0.0775806795
 40
0.093227476
 40
0.1089118947
 40
0.1246312333
 40
0.140382782
 40
0.1561633718
 40
0.17197013
 40
0.1877997726
 40
0.2195110144
 40
0.2512786435
 40
0.2830804853
 40
0.3148965056
 40
0.3467090252
 40
0.3785027119
 40
0.4102644531
 40
0.4419832726
 40
0.5052385632
 40
0.5367795064
 40
0.5682492282
 40
0.6309443339
 40
0.662178335
 40
0.6933287113
 40
0.7553587389
 40
0.7862496012
 40
0.8170523606
 40
0.8783796859
 40
0.9089179979
 40
0.9393691749
 40
1.0
 40
1.0
 40
1.0
 40
1.0
 10
8.5749772049
 20
7.8123685125
 30
0.0
 10
8.5694381457
 20
7.8127526476
 30
0.0
 10
8.5583560141
 20
7.8140139598
 30
0.0
 10
8.5446744095
 20
7.8167852777
 30
0.0
 10
8.5338554806
 20
7.8196980825
 30
0.0
 10
8.5258060099
 20
7.8222279127
 30
0.0
 10
8.5178476187
 20
7.8250908433
 30
0.0
 10
8.5099929539
 20
7.8282774652
 30
0.0
 10
8.5022537747
 20
7.8317770716
 30
0.0
 10
8.4946410337
 20
7.8355788547
 30
0.0
 10
8.4871643435
 20
7.8396710095
 30
0.0
 10
8.4773841448
 20
7.8455014739
 30
0.0
 10
8.4655424743
 20
7.8534559865
 30
0.0
 10
8.4520058629
 20
7.8639618774
 30
0.0
 10
8.4391690693
 20
7.8753395803
 30
0.0
 10
8.4270585492
 20
7.8874971505
 30
0.0
 10
8.4156905741
 20
7.9003486179
 30
0.0
 10
8.4050742399
 20
7.913814003
 30
0.0
 10
8.3952124633
 20
7.9278205926
 30
0.0
 10
8.3830820149
 20
7.9471062171
 30
0.0
 10
8.3724327748
 20
7.9672419205
 30
0.0
 10
8.3632573312
 20
7.9880017873
 30
0.0
 10
8.3550729011
 20
8.0090644949
 30
0.0
 10
8.3483158961
 20
8.0305983328
 30
0.0
 10
8.3429743115
 20
8.0524377752
 30
0.0
 10
8.3385812401
 20
8.074365834
 30
0.0
 10
8.3355701028
 20
8.0964888402
 30
0.0
 10
8.3339406311
 20
8.1186684174
 30
0.0
 10
8.3332308975
 20
8.1407700146
 30
0.0
 10
8.3338894246
 20
8.1628349987
 30
0.0
 10
8.3359308181
 20
8.1847270903
 30
0.0
 10
8.3388857148
 20
8.2063873207
 30
0.0
 10
8.3421505324
 20
8.2224552751
 30
0.0
 10
8.3448015512
 20
8.2330237502
 30
0.0
  0
SPLINE
  5
3D8
100
AcDbEntity
  8
0
100
AcDbSpline
 62
7
  6
CONTINUOUS
 70
0
 71
3
 72
41
 73
37
 74
0
 42
0.0000001
 43
0.0000001
 44
0.0000000001
 40
0.0
 40
0.0
 40
0.0
 40
0.0
 40
0.0299421261
 40
0.0449237712
 40
0.0599145221
 40
0.0899291772
 40
0.1200146013
 40
0.1350933596
 40
0.1501974793
 40
0.1804849718
 40
0.2108989568
 40
0.2414525746
 40
0.27215574
 40
0.3030149616
 40
0.3340332486
 40
0.3652100987
 40
0.3965415618
 40
0.4280203745
 40
0.4596361601
 40
0.4913756848
 40
0.5232231637
 40
0.55516061
 40
0.587168221
 40
0.6192247883
 40
0.6513081285
 40
0.6833955259
 40
0.7154641834
 40
0.747491675
 40
0.7794563926
 40
0.8113379819
 40
0.8431177834
 40
0.8747791281
 40
0.9063080575
 40
0.9376925183
 40
0.9689255783
 40
1.0
 40
1.0
 40
1.0
 40
1.0
 10
9.3588293793
 20
7.9814975549
 30
0.0
 10
9.3566727234
 20
7.9794143761
 30
0.0
 10
9.3533106448
 20
7.9764158018
 30
0.0
 10
9.3486020821
 20
7.9726952649
 30
0.0
 10
9.3437435987
 20
7.9691598344
 30
0.0
 10
9.3374040543
 20
7.9651000261
 30
0.0
 10
9.3307562625
 20
7.9615488872
 30
0.0
 10
9.3252735902
 20
7.9590225177
 30
0.0
 10
9.3196776075
 20
7.9567048134
 30
0.0
 10
9.3124982566
 20
7.9542125207
 30
0.0
 10
9.3036507686
 20
7.9518897854
 30
0.0
 10
9.2946102243
 20
7.9502442766
 30
0.0
 10
9.2854267188
 20
7.9492850948
 30
0.0
 10
9.2761507031
 20
7.9490173518
 30
0.0
 10
9.2668332173
 20
7.9494424062
 30
0.0
 10
9.2575254726
 20
7.9505577994
 30
0.0
 10
9.2482786102
 20
7.9523572924
 30
0.0
 10
9.2391434145
 20
7.9548308986
 30
0.0
 10
9.2301700411
 20
7.957964944
 30
0.0
 10
9.2214077454
 20
7.9617421431
 30
0.0
 10
9.212904617
 20
7.9661416961
 30
0.0
 10
9.2047073134
 20
7.9711393921
 30
0.0
 10
9.1968608096
 20
7.9767077511
 30
0.0
 10
9.1894081563
 20
7.9828161774
 30
0.0
 10
9.1823902466
 20
7.989431125
 30
0.0
 10
9.175845595
 20
7.9965162799
 30
0.0
 10
9.1698101284
 20
8.0040327575
 30
0.0
 10
9.1643169913
 20
8.0119393125
 30
0.0
 10
9.1593963676
 20
8.0201925632
 30
0.0
 10
9.1550752975
 20
8.0287472211
 30
0.0
 10
9.1513775613
 20
8.0375563382
 30
0.0
 10
9.1483234866
 20
8.0465715914
 30
0.0
 10
9.1459299941
 20
8.0557434199
 30
0.0
 10
9.1442101747
 20
8.0650217302
 30
0.0
 10
9.143173772
 20
8.0743547938
 30
0.0
 10
9.1429416014
 20
8.0805967855
 30
0.0
 10
9.1429416014
 20
8.083708642
 30
0.0
  0
SPLINE
  5
3D9
100
AcDbEntity
  8
0
100
AcDbSpline
 62
7
  6
CONTINUOUS
 70
0
 71
3
 72
39
 73
35
 74
0
 42
0.0000001
 43
0.0000001
 44
0.0000000001
 40
0.0
 40
0.0
 40
0.0
 40
0.0
 40
0.0299405241
 40
0.0599543948
 40
0.0900586605
 40
0.1202685397
 40
0.1505971266
 40
0.1810551504
 40
0.2116508084
 40
0.2423896433
 40
0.2732744675
 40
0.3043053385
 40
0.3354795981
 40
0.3667919755
 40
0.3982347126
 40
0.4297977237
 40
0.4614687939
 40
0.4932338269
 40
0.5250771139
 40
0.5569816056
 40
0.5889292014
 40
0.6209010657
 40
0.6528779627
 40
0.684840576
 40
0.716769825
 40
0.7486471848
 40
0.780455013
 40
0.8121768826
 40
0.843797796
 40
0.8753045412
 40
0.9066860892
 40
0.9379324594
 40
0.9690398663
 40
1.0
 40
1.0
 40
1.0
 40
1.0
 10
9.3732885985
 20
7.9985629968
 30
0.0
 10
9.3709528548
 20
7.9970670151
 30
0.0
 10
9.3661644313
 20
7.9942411337
 30
0.0
 10
9.3586841824
 20
7.9905302519
 30
0.0
 10
9.3509322154
 20
7.9873591833
 30
0.0
 10
9.3429453329
 20
7.9847430226
 30
0.0
 10
9.3347607904
 20
7.9826938945
 30
0.0
 10
9.3264169395
 20
7.9812213192
 30
0.0
 10
9.3179528105
 20
7.9803320774
 30
0.0
 10
9.3094079843
 20
7.9800302473
 30
0.0
 10
9.3008223989
 20
7.9803171753
 30
0.0
 10
9.2922361743
 20
7.9811914678
 30
0.0
 10
9.2836894141
 20
7.9826489352
 30
0.0
 10
9.2752220213
 20
7.9846826923
 30
0.0
 10
9.266873518
 20
7.9872831833
 30
0.0
 10
9.2586828732
 20
7.9904382382
 30
0.0
 10
9.2506883081
 20
7.9941330805
 30
0.0
 10
9.2429271091
 20
7.9983503982
 30
0.0
 10
9.2354354778
 20
8.003070475
 30
0.0
 10
9.2282483638
 20
8.0082712673
 30
0.0
 10
9.2213993136
 20
8.0139285117
 30
0.0
 10
9.2149202672
 20
8.0200157791
 30
0.0
 10
9.2088414417
 20
8.0265046489
 30
0.0
 10
9.2031912022
 20
8.0333648458
 30
0.0
 10
9.1979959366
 20
8.040564377
 30
0.0
 10
9.1932799197
 20
8.0480696635
 30
0.0
 10
9.1890651526
 20
8.0558456751
 30
0.0
 10
9.1853713321
 20
8.0638561375
 30
0.0
 10
9.182215734
 20
8.0720636775
 30
0.0
 10
9.1796131457
 20
8.0804300353
 30
0.0
 10
9.1775758403
 20
8.0889160662
 30
0.0
 10
9.1761131708
 20
8.0974824531
 30
0.0
 10
9.1752323412
 20
8.1060884873
 30
0.0
 10
9.175035136
 20
8.1118404146
 30
0.0
 10
9.175035136
 20
8.1147086178
 30
0.0
  0
SPLINE
  5
3DA
100
AcDbEntity
  8
0
100
AcDbSpline
 62
7
  6
CONTINUOUS
 70
0
 71
3
 72
23
 73
19
 74
0
 42
0.0000001
 43
0.0000001
 44
0.0000000001
 40
0.0
 40
0.0
 40
0.0
 40
0.0
 40
0.063775992
 40
0.1273452426
 40
0.190702051
 40
0.2538559967
 40
0.3168132418
 40
0.3795820857
 40
0.4421733813
 40
0.504599339
 40
0.5668738627
 40
0.6290123824
 40
0.6910316504
 40
0.7529496423
 40
0.8147853556
 40
0.8765586046
 40
0.9382898526
 40
1.0
 40
1.0
 40
1.0
 40
1.0
 10
10.5222836304
 20
9.1954583018
 30
0.0
 10
10.5222836304
 20
9.2000251333
 30
0.0
 10
10.522502256
 20
9.2091455384
 30
0.0
 10
10.5234888161
 20
9.2227706364
 30
0.0
 10
10.5251315272
 20
9.2362877891
 30
0.0
 10
10.5274264492
 20
9.2496651111
 30
0.0
 10
10.5303683737
 20
9.2628721317
 30
0.0
 10
10.5339505335
 20
9.2758783206
 30
0.0
 10
10.5381647313
 20
9.288653675
 30
0.0
 10
10.5430012801
 20
9.3011687462
 30
0.0
 10
10.5484490011
 20
9.3133946893
 30
0.0
 10
10.5544954056
 20
9.3253032851
 30
0.0
 10
10.5611265857
 20
9.3368670491
 30
0.0
 10
10.5683272101
 20
9.3480593458
 30
0.0
 10
10.5760806932
 20
9.3588543156
 30
0.0
 10
10.5843692907
 20
9.3692271054
 30
0.0
 10
10.5931734986
 20
9.3791535112
 30
0.0
 10
10.59937436
 20
9.3854594126
 30
0.0
 10
10.6025526751
 20
9.3885294298
 30
0.0
  0
SPLINE
  5
3DB
100
AcDbEntity
  8
0
100
AcDbSpline
 62
7
  6
CONTINUOUS
 70
0
 71
3
 72
15
 73
11
 74
0
 42
0.0000001
 43
0.0000001
 44
0.0000000001
 40
0.0
 40
0.0
 40
0.0
 40
0.0
 40
0.1233935011
 40
0.2471136887
 40
0.3712397631
 40
0.4958413136
 40
0.6209784082
 40
0.7466945351
 40
0.8730323784
 40
1.0
 40
1.0
 40
1.0
 40
1.0
 10
9.1958062844
 20
8.182442097
 30
0.0
 10
9.1941233292
 20
8.1800090923
 30
0.0
 10
9.1909413186
 20
8.1750032518
 30
0.0
 10
9.1867582268
 20
8.1671375243
 30
0.0
 10
9.1831805583
 20
8.1589464722
 30
0.0
 10
9.1802276494
 20
8.150474309
 30
0.0
 10
9.1779151013
 20
8.1417661016
 30
0.0
 10
9.1762549525
 20
8.13286798
 30
0.0
 10
9.1752561965
 20
8.1238280475
 30
0.0
 10
9.175035136
 20
8.1177526596
 30
0.0
 10
9.175035136
 20
8.1147086178
 30
0.0
  0
SPLINE
  5
3DC
100
AcDbEntity
  8
0
100
AcDbSpline
 62
7
  6
CONTINUOUS
 70
0
 71
3
 72
41
 73
37
 74
0
 42
0.0000001
 43
0.0000001
 44
0.0000000001
 40
0.0
 40
0.0
 40
0.0
 40
0.0
 40
0.0299421261
 40
0.0449237712
 40
0.0599145221
 40
0.0899291772
 40
0.1200146013
 40
0.1350933596
 40
0.1501974793
 40
0.1804849718
 40
0.2108989568
 40
0.2414525746
 40
0.27215574
 40
0.3030149616
 40
0.3340332486
 40
0.3652100987
 40
0.3965415618
 40
0.4280203745
 40
0.4596361601
 40
0.4913756848
 40
0.5232231637
 40
0.55516061
 40
0.587168221
 40
0.6192247883
 40
0.6513081285
 40
0.6833955259
 40
0.7154641834
 40
0.747491675
 40
0.7794563926
 40
0.8113379819
 40
0.8431177834
 40
0.8747791281
 40
0.9063080575
 40
0.9376925183
 40
0.9689255783
 40
1.0
 40
1.0
 40
1.0
 40
1.0
 10
8.4837003962
 20
6.8038709683
 30
0.0
 10
8.4815437402
 20
6.8017877895
 30
0.0
 10
8.4781816617
 20
6.7987892152
 30
0.0
 10
8.473473099
 20
6.7950686783
 30
0.0
 10
8.4686146156
 20
6.7915332477
 30
0.0
 10
8.4622750712
 20
6.7874734395
 30
0.0
 10
8.4556272794
 20
6.7839223006
 30
0.0
 10
8.4501446071
 20
6.7813959311
 30
0.0
 10
8.4445486244
 20
6.7790782267
 30
0.0
 10
8.4373692735
 20
6.7765859341
 30
0.0
 10
8.4285217854
 20
6.7742631988
 30
0.0
 10
8.4194812412
 20
6.7726176899
 30
0.0
 10
8.4102977357
 20
6.7716585082
 30
0.0
 10
8.40102172
 20
6.7713907652
 30
0.0
 10
8.3917042342
 20
6.7718158195
 30
0.0
 10
8.3823964895
 20
6.7729312128
 30
0.0
 10
8.3731496271
 20
6.7747307057
 30
0.0
 10
8.3640144313
 20
6.7772043119
 30
0.0
 10
8.355041058
 20
6.7803383574
 30
0.0
 10
8.3462787622
 20
6.7841155565
 30
0.0
 10
8.3377756338
 20
6.7885151095
 30
0.0
 10
8.3295783303
 20
6.7935128054
 30
0.0
 10
8.3217318265
 20
6.7990811645
 30
0.0
 10
8.3142791732
 20
6.8051895908
 30
0.0
 10
8.3072612635
 20
6.8118045384
 30
0.0
 10
8.3007166119
 20
6.8188896933
 30
0.0
 10
8.2946811453
 20
6.8264061709
 30
0.0
 10
8.2891880082
 20
6.8343127259
 30
0.0
 10
8.2842673844
 20
6.8425659766
 30
0.0
 10
8.2799463144
 20
6.8511206345
 30
0.0
 10
8.2762485782
 20
6.8599297515
 30
0.0
 10
8.2731945035
 20
6.8689450048
 30
0.0
 10
8.270801011
 20
6.8781168333
 30
0.0
 10
8.2690811916
 20
6.8873951436
 30
0.0
 10
8.2680447888
 20
6.8967282071
 30
0.0
 10
8.2678126183
 20
6.9029701989
 30
0.0
 10
8.2678126183
 20
6.9060820554
 30
0.0
  0
SPLINE
  5
3DD
100
AcDbEntity
  8
0
100
AcDbSpline
 62
7
  6
CONTINUOUS
 70
0
 71
3
 72
23
 73
19
 74
0
 42
0.0000001
 43
0.0000001
 44
0.0000000001
 40
0.0
 40
0.0
 40
0.0
 40
0.0
 40
0.063775992
 40
0.1273452426
 40
0.190702051
 40
0.2538559967
 40
0.3168132418
 40
0.3795820857
 40
0.4421733813
 40
0.504599339
 40
0.5668738627
 40
0.6290123824
 40
0.6910316504
 40
0.7529496423
 40
0.8147853556
 40
0.8765586046
 40
0.9382898526
 40
1.0
 40
1.0
 40
1.0
 40
1.0
 10
10.5222836304
 20
6.780643593
 30
0.0
 10
10.5222836304
 20
6.7852104245
 30
0.0
 10
10.522502256
 20
6.7943308296
 30
0.0
 10
10.5234888161
 20
6.8079559275
 30
0.0
 10
10.5251315272
 20
6.8214730803
 30
0.0
 10
10.5274264492
 20
6.8348504023
 30
0.0
 10
10.5303683737
 20
6.8480574229
 30
0.0
 10
10.5339505335
 20
6.8610636118
 30
0.0
 10
10.5381647313
 20
6.8738389662
 30
0.0
 10
10.5430012801
 20
6.8863540374
 30
0.0
 10
10.5484490011
 20
6.8985799805
 30
0.0
 10
10.5544954056
 20
6.9104885763
 30
0.0
 10
10.5611265857
 20
6.9220523402
 30
0.0
 10
10.5683272101
 20
6.933244637
 30
0.0
 10
10.5760806932
 20
6.9440396068
 30
0.0
 10
10.5843692907
 20
6.9544123966
 30
0.0
 10
10.5931734986
 20
6.9643388024
 30
0.0
 10
10.59937436
 20
6.9706447038
 30
0.0
 10
10.6025526751
 20
6.973714721
 30
0.0
  0
SPLINE
  5
3DE
100
AcDbEntity
  8
0
100
AcDbSpline
 62
7
  6
CONTINUOUS
 70
0
 71
3
 72
40
 73
36
 74
0
 42
0.0000001
 43
0.0000001
 44
0.0000000001
 40
0.0
 40
0.0
 40
0.0
 40
0.0
 40
0.0299423125
 40
0.0599090018
 40
0.0899238508
 40
0.1200094733
 40
0.1501867762
 40
0.1804744729
 40
0.2108886626
 40
0.2414424842
 40
0.2721458521
 40
0.3030052766
 40
0.3340237684
 40
0.3652008254
 40
0.3965324962
 40
0.428011516
 40
0.4596275069
 40
0.4913672348
 40
0.5232149163
 40
0.5551525674
 40
0.5871603865
 40
0.6192171641
 40
0.651300714
 40
0.6833883179
 40
0.7154571777
 40
0.7474848674
 40
0.7794497828
 40
0.8113315712
 40
0.8431115708
 40
0.8747731339
 40
0.9063022077
 40
0.9376870316
 40
0.9533250855
 40
0.9689251742
 40
1.0
 40
1.0
 40
1.0
 40
1.0
 10
10.2520210205
 20
6.6637890802
 30
0.0
 10
10.2494330323
 20
6.6612892795
 30
0.0
 10
10.2440535498
 20
6.6564914304
 30
0.0
 10
10.2354347907
 20
6.6499552039
 30
0.0
 10
10.2263105412
 20
6.6441122445
 30
0.0
 10
10.2167317849
 20
6.6389953277
 30
0.0
 10
10.206751184
 20
6.6346324098
 30
0.0
 10
10.1964238201
 20
6.6310474746
 30
0.0
 10
10.1858066027
 20
6.6282601383
 30
0.0
 10
10.1749580256
 20
6.6262856198
 30
0.0
 10
10.16393782
 20
6.6251346427
 30
0.0
 10
10.1528066283
 20
6.6248133939
 30
0.0
 10
10.1416256692
 20
6.6253234951
 30
0.0
 10
10.1304564036
 20
6.6266620025
 30
0.0
 10
10.1193601993
 20
6.6288214286
 30
0.0
 10
10.1083979985
 20
6.6317897893
 30
0.0
 10
10.0976299873
 20
6.6355506727
 30
0.0
 10
10.0871152701
 20
6.6400833325
 30
0.0
 10
10.0769115498
 20
6.6453628032
 30
0.0
 10
10.067074816
 20
6.6513600379
 30
0.0
 10
10.0576590412
 20
6.6580420668
 30
0.0
 10
10.0487158896
 20
6.6653721786
 30
0.0
 10
10.0402944345
 20
6.6733101176
 30
0.0
 10
10.0324408923
 20
6.6818123047
 30
0.0
 10
10.0251983732
 20
6.6908320749
 30
0.0
 10
10.0186066455
 20
6.7003199317
 30
0.0
 10
10.012701922
 20
6.7102238127
 30
0.0
 10
10.007516655
 20
6.7204893825
 30
0.0
 10
10.0030793825
 20
6.7310602855
 30
0.0
 10
9.9994145063
 20
6.7418786132
 30
0.0
 10
9.9965423327
 20
6.7528846049
 30
0.0
 10
9.9948203615
 20
6.7621748453
 30
0.0
 10
9.9938543975
 20
6.7696394853
 30
0.0
 10
9.9931650364
 20
6.7770969767
 30
0.0
 10
9.9929562813
 20
6.7827086921
 30
0.0
 10
9.9929562813
 20
6.786442936
 30
0.0
  0
SPLINE
  5
3DF
100
AcDbEntity
  8
0
100
AcDbSpline
 62
7
  6
CONTINUOUS
 70
0
 71
3
 72
39
 73
35
 74
0
 42
0.0000001
 43
0.0000001
 44
0.0000000001
 40
0.0
 40
0.0
 40
0.0
 40
0.0
 40
0.0300994521
 40
0.0603066284
 40
0.0906299734
 40
0.1210761056
 40
0.1516497269
 40
0.1823535586
 40
0.2131883308
 40
0.2441528161
 40
0.2752438603
 40
0.3064564361
 40
0.3377837513
 40
0.3692173802
 40
0.4007473851
 40
0.4323624579
 40
0.464050108
 40
0.49579685
 40
0.527588379
 40
0.5594097651
 40
0.5912456799
 40
0.6230806042
 40
0.6548990219
 40
0.6866856366
 40
0.7184255999
 40
0.7501047027
 40
0.7817095634
 40
0.8132278458
 40
0.8446483673
 40
0.875961473
 40
0.907158955
 40
0.9382334174
 40
0.9691829708
 40
1.0
 40
1.0
 40
1.0
 40
1.0
 10
10.2845134468
 20
6.7129134079
 30
0.0
 10
10.2816610418
 20
6.7119204449
 30
0.0
 10
10.2758802097
 20
6.710114636
 30
0.0
 10
10.2670385049
 20
6.7079618607
 30
0.0
 10
10.258043539
 20
6.7063678519
 30
0.0
 10
10.2489297506
 20
6.7053387459
 30
0.0
 10
10.2397314264
 20
6.7048783515
 30
0.0
 10
10.2304833277
 20
6.7049883882
 30
0.0
 10
10.2212203493
 20
6.7056683342
 30
0.0
 10
10.211977438
 20
6.7069155671
 30
0.0
 10
10.2027894603
 20
6.7087253644
 30
0.0
 10
10.1936910724
 20
6.7110908655
 30
0.0
 10
10.184716569
 20
6.7140030628
 30
0.0
 10
10.1758997779
 20
6.7174509355
 30
0.0
 10
10.1672739462
 20
6.721421485
 30
0.0
 10
10.1588715892
 20
6.725899713
 30
0.0
 10
10.1507243548
 20
6.7308686765
 30
0.0
 10
10.1428629438
 20
6.7363096269
 30
0.0
 10
10.1353170072
 20
6.7422020734
 30
0.0
 10
10.1281149817
 20
6.7485237844
 30
0.0
 10
10.1212839881
 20
6.755250898
 30
0.0
 10
10.1148497747
 20
6.7623580593
 30
0.0
 10
10.1088366322
 20
6.769818508
 30
0.0
 10
10.1032672214
 20
6.7776041109
 30
0.0
 10
10.098162523
 20
6.7856855094
 30
0.0
 10
10.0935417988
 20
6.7940322531
 30
0.0
 10
10.0894225285
 20
6.8026129066
 30
0.0
 10
10.0858202501
 20
6.8113951139
 30
0.0
 10
10.082748537
 20
6.8203457642
 30
0.0
 10
10.0802190231
 20
6.8294311457
 30
0.0
 10
10.0782413758
 20
6.8386169157
 30
0.0
 10
10.0768228955
 20
6.8478687395
 30
0.0
 10
10.0759692637
 20
6.8571510335
 30
0.0
 10
10.0757783055
 20
6.8633505721
 30
0.0
 10
10.0757783055
 20
6.866442873
 30
0.0
  0
SPLINE
  5
3E0
100
AcDbEntity
  8
0
100
AcDbSpline
 62
7
  6
CONTINUOUS
 70
0
 71
3
 72
11
 73
7
 74
0
 42
0.0000001
 43
0.0000001
 44
0.0000000001
 40
0.0
 40
0.0
 40
0.0
 40
0.0
 40
0.2478581763
 40
0.4970685815
 40
0.7477546789
 40
1.0
 40
1.0
 40
1.0
 40
1.0
 10
10.0854934995
 20
6.9189994421
 30
0.0
 10
10.0838884928
 20
6.9148602667
 30
0.0
 10
10.0810616094
 20
6.9064014727
 30
0.0
 10
10.0780183798
 20
6.893339428
 30
0.0
 10
10.0761839546
 20
6.8799745209
 30
0.0
 10
10.0757783055
 20
6.870960914
 30
0.0
 10
10.0757783055
 20
6.866442873
 30
0.0
  0
SPLINE
  5
3E1
100
AcDbEntity
  8
0
100
AcDbSpline
 62
7
  6
CONTINUOUS
 70
0
 71
3
 72
21
 73
17
 74
0
 42
0.0000001
 43
0.0000001
 44
0.0000000001
 40
0.0
 40
0.0
 40
0.0
 40
0.0
 40
0.1273177709
 40
0.2537997
 40
0.316761822
 40
0.3795355919
 40
0.4421314898
 40
0.5045621236
 40
0.5668413499
 40
0.6289845405
 40
0.6910084572
 40
0.7529311131
 40
0.8147714634
 40
0.876549347
 40
0.938285237
 40
1.0
 40
1.0
 40
1.0
 40
1.0
 10
8.2426985453
 20
9.3844577553
 30
0.0
 10
8.2426985453
 20
9.3892621931
 30
0.0
 10
8.2431571342
 20
9.3988457144
 30
0.0
 10
8.2448892111
 20
9.4106930136
 30
0.0
 10
8.2469593065
 20
9.4199862099
 30
0.0
 10
8.2488472192
 20
9.4268408663
 30
0.0
 10
8.2510681285
 20
9.4335737477
 30
0.0
 10
8.253617093
 20
9.4401694661
 30
0.0
 10
8.2564881217
 20
9.4466128164
 30
0.0
 10
8.2596746756
 20
9.4528889217
 30
0.0
 10
8.2631694277
 20
9.458983287
 30
0.0
 10
8.2669642447
 20
9.4648819132
 30
0.0
 10
8.2710505068
 20
9.4705710882
 30
0.0
 10
8.2754186918
 20
9.4760378391
 30
0.0
 10
8.2800586839
 20
9.4812692827
 30
0.0
 10
8.2833266353
 20
9.4845926635
 30
0.0
 10
8.2850016685
 20
9.4862106355
 30
0.0
  0
SPLINE
  5
3E2
100
AcDbEntity
  8
0
100
AcDbSpline
 62
7
  6
CONTINUOUS
 70
0
 71
3
 72
14
 73
10
 74
0
 42
0.0000001
 43
0.0000001
 44
0.0000000001
 40
0.0
 40
0.0
 40
0.0
 40
0.0
 40
0.2602743096
 40
0.3870094026
 40
0.5118864868
 40
0.6352549195
 40
0.7574786827
 40
0.8789328048
 40
1.0
 40
1.0
 40
1.0
 40
1.0
 10
13.5071852451
 20
7.3310881864
 30
0.0
 10
13.5050827173
 20
7.3302727874
 30
0.0
 10
13.5018949927
 20
7.3292081872
 30
0.0
 10
13.4975884976
 20
7.3281411783
 30
0.0
 10
13.4943955184
 20
7.3275313041
 30
0.0
 10
13.4912123659
 20
7.3271052826
 30
0.0
 10
13.4880396023
 20
7.3268631582
 30
0.0
 10
13.4848781727
 20
7.3268050199
 30
0.0
 10
13.4827771482
 20
7.3268890315
 30
0.0
 10
13.4817306941
 20
7.3269615999
 30
0.0
  0
SPLINE
  5
3E3
100
AcDbEntity
  8
0
100
AcDbSpline
 62
7
  6
CONTINUOUS
 70
0
 71
3
 72
49
 73
45
 74
0
 42
0.0000001
 43
0.0000001
 44
0.0000000001
 40
0.0
 40
0.0
 40
0.0
 40
0.0
 40
0.0325233139
 40
0.0650247583
 40
0.0974815272
 40
0.1298735032
 40
0.162183255
 40
0.1943959435
 40
0.2264991795
 40
0.2584828647
 40
0.2903390393
 40
0.3220617506
 40
0.3536469536
 40
0.3850924499
 40
0.416397867
 40
0.4475646813
 40
0.4785962832
 40
0.509498083
 40
0.5402776531
 40
0.5709448993
 40
0.6015122494
 40
0.6319948383
 40
0.6624106632
 40
0.6927806696
 40
0.7079590431
 40
0.7231352173
 40
0.7383125961
 40
0.7534947616
 40
0.7686853202
 40
0.7838881305
 40
0.7991069219
 40
0.8143456537
 40
0.8296081044
 40
0.8448980937
 40
0.8602193216
 40
0.8755752572
 40
0.8909692768
 40
0.9064043251
 40
0.9218831695
 40
0.9374082082
 40
0.9529810266
 40
0.9686032705
 40
0.9842770714
 40
1.0
 40
1.0
 40
1.0
 40
1.0
 10
9.8069609683
 20
7.8280209256
 30
0.0
 10
9.8021427269
 20
7.8329272467
 30
0.0
 10
9.7928685932
 20
7.8430963471
 30
0.0
 10
9.7800986411
 20
7.85929567
 30
0.0
 10
9.7685076345
 20
7.87632522
 30
0.0
 10
9.7581274306
 20
7.8940705613
 30
0.0
 10
9.7489806572
 20
7.9124237869
 30
0.0
 10
9.7410840474
 20
7.9312818445
 30
0.0
 10
9.7344494108
 20
7.9505466917
 30
0.0
 10
9.7290849373
 20
7.9701246742
 30
0.0
 10
9.72499612
 20
7.9899259158
 30
0.0
 10
9.7221865056
 20
8.0098635791
 30
0.0
 10
9.720658237
 20
8.029853084
 30
0.0
 10
9.7204124194
 20
8.049811296
 30
0.0
 10
9.7214493169
 20
8.0696557039
 30
0.0
 10
9.7237683878
 20
8.0893036001
 30
0.0
 10
9.7273681582
 20
8.1086712719
 30
0.0
 10
9.7322459312
 20
8.1276732202
 30
0.0
 10
9.738397312
 20
8.146221412
 30
0.0
 10
9.7458155642
 20
8.1642246217
 30
0.0
 10
9.7544906621
 20
8.1815877801
 30
0.0
 10
9.7644084516
 20
8.1982118081
 30
0.0
 10
9.7755482967
 20
8.2139924016
 30
0.0
 10
9.7858316554
 20
8.2263550456
 30
0.0
 10
9.7946325067
 20
8.2357076251
 30
0.0
 10
9.8015164041
 20
8.2424417512
 30
0.0
 10
9.8086774943
 20
8.2488814238
 30
0.0
 10
9.8161087871
 20
8.2550122824
 30
0.0
 10
9.8238021395
 20
8.2608199406
 30
0.0
 10
9.8317486724
 20
8.2662898723
 30
0.0
 10
9.8399383198
 20
8.2714080112
 30
0.0
 10
9.8483601494
 20
8.2761602406
 30
0.0
 10
9.857002026
 20
8.2805330659
 30
0.0
 10
9.8658507664
 20
8.2845133864
 30
0.0
 10
9.8748921041
 20
8.2880886478
 30
0.0
 10
9.8841105777
 20
8.2912473323
 30
0.0
 10
9.8934897601
 20
8.293978451
 30
0.0
 10
9.9030120922
 20
8.2962724325
 30
0.0
 10
9.9126591165
 20
8.2981207038
 30
0.0
 10
9.9224114565
 20
8.2995158878
 30
0.0
 10
9.9322489175
 20
8.3004524545
 30
0.0
 10
9.9421510602
 20
8.300925932
 30
0.0
 10
9.9520960117
 20
8.3009336014
 30
0.0
 10
9.958730219
 20
8.3006281892
 30
0.0
 10
9.9620466402
 20
8.3003981946
 30
0.0
  0
SPLINE
  5
3E4
100
AcDbEntity
  8
0
100
AcDbSpline
 62
7
  6
CONTINUOUS
 70
0
 71
3
 72
49
 73
45
 74
0
 42
0.0000001
 43
0.0000001
 44
0.0000000001
 40
0.0
 40
0.0
 40
0.0
 40
0.0
 40
0.007162651
 40
0.0146567047
 40
0.022489802
 40
0.0306682658
 40
0.039197236
 40
0.0480804432
 40
0.0573201505
 40
0.0669176598
 40
0.0768732462
 40
0.0871864326
 40
0.0978559349
 40
0.1088797421
 40
0.1202552948
 40
0.1319793485
 40
0.1440482505
 40
0.156457763
 40
0.1692032492
 40
0.1822796554
 40
0.19568148
 40
0.2094029484
 40
0.2377791912
 40
0.2673557091
 40
0.2980746237
 40
0.3298738609
 40
0.362687558
 40
0.3964464427
 40
0.4310781691
 40
0.466507628
 40
0.5026572389
 40
0.5394472298
 40
0.5767959041
 40
0.6146199124
 40
0.6528345158
 40
0.6913538428
 40
0.7300911403
 40
0.7689590294
 40
0.8078697587
 40
0.8467354142
 40
0.885468393
 40
0.9239808777
 40
0.9621872155
 40
1.0
 40
1.0
 40
1.0
 40
1.0
 10
7.0850713099
 20
10.006554014
 30
0.0
 10
7.0834466841
 20
10.0049847459
 30
0.0
 10
7.0801996061
 20
10.0016927638
 30
0.0
 10
7.0754404595
 20
9.9964318897
 30
0.0
 10
7.0706873887
 20
9.9907414486
 30
0.0
 10
7.0659434054
 20
9.9846251247
 30
0.0
 10
7.0612111413
 20
9.97808647
 30
0.0
 10
7.0564933584
 20
9.9711292696
 30
0.0
 10
7.0517927375
 20
9.9637576648
 30
0.0
 10
7.0471121927
 20
9.9559759938
 30
0.0
 10
7.0424544232
 20
9.9477889314
 30
0.0
 10
7.0378222565
 20
9.9392013273
 30
0.0
 10
7.0332184533
 20
9.9302183071
 30
0.0
 10
7.0286457394
 20
9.9208452471
 30
0.0
 10
7.0241069357
 20
9.9110877349
 30
0.0
 10
7.019604683
 20
9.9009516395
 30
0.0
 10
7.0151417744
 20
9.8904430142
 30
0.0
 10
7.0107208384
 20
9.8795681787
 30
0.0
 10
7.0063445606
 20
9.8683336535
 30
0.0
 10
7.0020156019
 20
9.8567461864
 30
0.0
 10
6.9977364994
 20
9.8448127371
 30
0.0
 10
6.992037282
 20
9.8282643089
 30
0.0
 10
6.985067728
 20
9.8067606561
 30
0.0
 10
6.9770341874
 20
9.7799745233
 30
0.0
 10
6.9692592586
 20
9.7519902974
 30
0.0
 10
6.9617617705
 20
9.7228752962
 30
0.0
 10
6.9545598714
 20
9.6926994339
 30
0.0
 10
6.947670991
 20
9.6615352656
 30
0.0
 10
6.9411117964
 20
9.6294577373
 30
0.0
 10
6.9348981524
 20
9.5965440184
 30
0.0
 10
6.9290450841
 20
9.5628733071
 30
0.0
 10
6.9235667423
 20
9.5285266408
 30
0.0
 10
6.9184763617
 20
9.4935866989
 30
0.0
 10
6.9137862351
 20
9.4581375993
 30
0.0
 10
6.9095076863
 20
9.422264691
 30
0.0
 10
6.9056510424
 20
9.3860543474
 30
0.0
 10
6.9022256097
 20
9.3495937585
 30
0.0
 10
6.899239651
 20
9.312970719
 30
0.0
 10
6.8967003674
 20
9.2762734289
 30
0.0
 10
6.8946138578
 20
9.2395902217
 30
0.0
 10
6.8929851684
 20
9.2030095453
 30
0.0
 10
6.8918181518
 20
9.1666192214
 30
0.0
 10
6.8911156815
 20
9.1305072499
 30
0.0
 10
6.8909571863
 20
9.1065341185
 30
0.0
 10
6.8909571863
 20
9.094609745
 30
0.0
  0
SPLINE
  5
3E5
100
AcDbEntity
  8
0
100
AcDbSpline
 62
7
  6
CONTINUOUS
 70
0
 71
3
 72
66
 73
62
 74
0
 42
0.0000001
 43
0.0000001
 44
0.0000000001
 40
0.0
 40
0.0
 40
0.0
 40
0.0
 40
0.0157160326
 40
0.0314850915
 40
0.047306569
 40
0.0631784025
 40
0.0790975552
 40
0.0950608568
 40
0.1110646446
 40
0.1271048709
 40
0.1431771775
 40
0.1592769705
 40
0.1753994594
 40
0.1915396885
 40
0.2076926477
 40
0.2238532956
 40
0.2400165744
 40
0.2561775246
 40
0.27233129
 40
0.2884731211
 40
0.3206950323
 40
0.3528176165
 40
0.3848112258
 40
0.4166509421
 40
0.4483170666
 40
0.4640843992
 40
0.4798035332
 40
0.4954736414
 40
0.5110942667
 40
0.5266653495
 40
0.5421872169
 40
0.5576605928
 40
0.5730865928
 40
0.5884667323
 40
0.6038029241
 40
0.619097457
 40
0.6343530213
 40
0.649572673
 40
0.6647598173
 40
0.6799182309
 40
0.6950519908
 40
0.7101654701
 40
0.725263339
 40
0.7403504653
 40
0.7554319175
 40
0.7705129365
 40
0.78559882
 40
0.800694919
 40
0.8158065903
 40
0.8309390702
 40
0.8460974621
 40
0.8612866803
 40
0.8765113272
 40
0.8917756765
 40
0.9070836145
 40
0.9224385294
 40
0.9378434017
 40
0.9533004962
 40
0.9688113697
 40
0.984378465
 40
1.0
 40
1.0
 40
1.0
 40
1.0
 10
9.2604170637
 20
7.0092484552
 30
0.0
 10
9.2564235858
 20
7.0096647547
 30
0.0
 10
9.248443011
 20
7.0107034872
 30
0.0
 10
9.2365478793
 20
7.0128694168
 30
0.0
 10
9.2247375716
 20
7.0156393104
 30
0.0
 10
9.2130431902
 20
7.0190045917
 30
0.0
 10
9.2014950583
 20
7.0229550783
 30
0.0
 10
9.1901229547
 20
7.0274786884
 30
0.0
 10
9.1789556837
 20
7.032561619
 30
0.0
 10
9.168021171
 20
7.0381886054
 30
0.0
 10
9.1573463304
 20
7.0443429888
 30
0.0
 10
9.1469568728
 20
7.0510066564
 30
0.0
 10
9.1368773548
 20
7.0581603745
 30
0.0
 10
9.1271311531
 20
7.0657839112
 30
0.0
 10
9.1177402729
 20
7.0738559619
 30
0.0
 10
9.1087254518
 20
7.0823544348
 30
0.0
 10
9.100106182
 20
7.091256625
 30
0.0
 10
9.0919005976
 20
7.1005390143
 30
0.0
 10
9.0841253513
 20
7.1101779668
 30
0.0
 10
9.0743604314
 20
7.1234625696
 30
0.0
 10
9.0633035733
 20
7.1408347431
 30
0.0
 10
9.0519715574
 20
7.1627187128
 30
0.0
 10
9.0426609163
 20
7.1854318246
 30
0.0
 10
9.0354370974
 20
7.2087688215
 30
0.0
 10
9.031189648
 20
7.2286012996
 30
0.0
 10
9.0288812874
 20
7.2445740142
 30
0.0
 10
9.0276970753
 20
7.2565675097
 30
0.0
 10
9.0270597106
 20
7.268564718
 30
0.0
 10
9.0269702363
 20
7.2805407876
 30
0.0
 10
9.0274287778
 20
7.2924705334
 30
0.0
 10
9.028434607
 20
7.3043289402
 30
0.0
 10
9.0299862346
 20
7.3160910092
 30
0.0
 10
9.032081121
 20
7.3277318299
 30
0.0
 10
9.0347159468
 20
7.3392265468
 30
0.0
 10
9.0378864998
 20
7.3505503632
 30
0.0
 10
9.0415874946
 20
7.3616786102
 30
0.0
 10
9.0458128286
 20
7.3725866788
 30
0.0
 10
9.0505553468
 20
7.3832500934
 30
0.0
 10
9.0558067869
 20
7.393644574
 30
0.0
 10
9.0615579633
 20
7.4037459553
 30
0.0
 10
9.06779848
 20
7.4135303491
 30
0.0
 10
9.0745167757
 20
7.4229741732
 30
0.0
 10
9.0817002284
 20
7.4320540929
 30
0.0
 10
9.089334876
 20
7.4407472638
 30
0.0
 10
9.0974055194
 20
7.4490313269
 30
0.0
 10
9.1058957773
 20
7.4568843888
 30
0.0
 10
9.114787853
 20
7.4642853256
 30
0.0
 10
9.1240626611
 20
7.4712137634
 30
0.0
 10
9.1336998752
 20
7.4776500841
 30
0.0
 10
9.1436777646
 20
7.4835757713
 30
0.0
 10
9.1539733256
 20
7.4889733984
 30
0.0
 10
9.1645623577
 20
7.4938266304
 30
0.0
 10
9.1754193869
 20
7.4981205797
 30
0.0
 10
9.1865177949
 20
7.5018418264
 30
0.0
 10
9.197829936
 20
7.5049783811
 30
0.0
 10
9.2093271704
 20
7.5075200122
 30
0.0
 10
9.2209799778
 20
7.509458269
 30
0.0
 10
9.2327580219
 20
7.5107864698
 30
0.0
 10
9.2446307977
 20
7.5114999151
 30
0.0
 10
9.256566247
 20
7.5115956974
 30
0.0
 10
9.2645308653
 20
7.5112480192
 30
0.0
 10
9.2685122781
 20
7.5109719073
 30
0.0
  0
ENDSEC
  0
SECTION
  2
OBJECTS
  0
DICTIONARY
  5
C
100
AcDbDictionary
280
0
281
1
  3
ACAD_GROUP
350
D
  3
ACAD_MLINESTYLE
350
17
  3
ACAD_LAYOUT
350
1A
  3
ACAD_PLOTSETTINGS
350
19
  3
ACAD_PLOTSTYLENAME
350
E
  3
ACAD_IMAGE_DICT
350
       3E7
  3
ACAD_IMAGE_VARS
350
       3E8
  3
ACAD_TABLESTYLE
350
       3E9
  0
IMAGEDEF_REACTOR
  5
3E6
100
AcDbRasterImageDefReactor
 90
2
330
275
  0
DICTIONARY
  5
D
102
{ACAD_REACTORS
330
C
102
}
100
AcDbDictionary
280
0
281
1
  0
ACDBDICTIONARYWDFLT
  5
E
102
{ACAD_REACTORS
330
C
102
}
100
AcDbDictionary
281
1
  3
Normal
350
F
100
AcDbDictionaryWithDefault
340
F
  0
DICTIONARY
  5
3E7
330
C
100
AcDbDictionary
281
1
  3
X5X_assy_2_img_1
350
       3EC
  0
RASTERVARIABLES
  5
3E8
330
C
100
AcDbRasterVariables
 90
0
 70
0
 71
1
 72
5
  0
DICTIONARY
  5
17
102
{ACAD_REACTORS
330
C
102
}
100
AcDbDictionary
280
0
281
1
  3
Standard
350
18
  0
DICTIONARY
  5
3E9
330
C
100
AcDbDictionary
281
1
  3
Standard
350
       3ED
  3
Standard1
350
       3EE
  0
DICTIONARY
  5
19
102
{ACAD_REACTORS
330
C
102
}
100
AcDbDictionary
281
1
  0
DICTIONARY
  5
1A
102
{ACAD_REACTORS
330
C
102
}
100
AcDbDictionary
281
1
  3
Model
350
3EA
  3
Layout1
350
3EB
  0
ACDBPLACEHOLDER
  5
F
102
{ACAD_REACTORS
330
E
102
}
  0
MLINESTYLE
  5
18
102
{ACAD_REACTORS
330
17
102
}
100
AcDbMlineStyle
  2
STANDARD
 70
0
  3

 62
256
 51
90.0
 52
90.0
 71
2
 49
0.5
 62
256
  6
BYLAYER
 49
-0.5
 62
256
  6
BYLAYER
  0
LAYOUT
  5
3EA
102
{ACAD_REACTORS
330
1A
102
}
100
AcDbPlotSettings
  1

  2
none_device
  4
ANSI_C_(22.00_x_17.00_Inches)
  6

 40
0.0
 41
0.0
 42
0.0
 43
0.0
 44
558.8
 45
431.8
 46
0.0
 47
0.0
 48
0.0
 49
0.0
140
0.0
141
0.0
142
1.0
143
1.0
 70
1024
 72
0
 73
0
 74
0
  7

 75
0
147
1.0
148
0.0
149
0.0
100
AcDbLayout
  1
Model
 70
0
 71
0
 10
0.0
 20
0.0
 11
22.0
 21
17.0
 12
0.0
 22
0.0
 32
0.0
 14
0.0
 24
0.0
 34
0.0
 15
0.0
 25
0.0
 35
0.0
146
0.0
 13
0.0
 23
0.0
 33
0.0
 16
1.0
 26
0.0
 36
0.0
 17
0.0
 27
1.0
 37
0.0
 76
0
330
20F
345
0
346
0
  0
LAYOUT
  5
3EB
102
{ACAD_REACTORS
330
1A
102
}
100
AcDbPlotSettings
  1

  2
none_device
  4
ANSI_C_(22.00_x_17.00_Inches)
  6

 40
0.0
 41
0.0
 42
0.0
 43
0.0
 44
558.8
 45
431.8
 46
0.0
 47
0.0
 48
0.0
 49
0.0
140
0.0
141
0.0
142
1.0
143
1.0
 70
0
 72
0
 73
0
 74
0
  7

 75
0
147
1.0
148
0.0
149
0.0
100
AcDbLayout
  1
Layout1
 70
0
 71
1
 10
0.0
 20
0.0
 11
22.0
 21
17.0
 12
0.0
 22
0.0
 32
0.0
 14
0.0
 24
0.0
 34
0.0
 15
0.0
 25
0.0
 35
0.0
146
0.0
 13
0.0
 23
0.0
 33
0.0
 16
1.0
 26
0.0
 36
0.0
 17
0.0
 27
1.0
 37
0.0
 76
0
330
210
345
0
346
0
  0
IMAGEDEF
  5
3EC
102
{ACAD_REACTORS
330
3E7
330
3E6
102
}
100
AcDbRasterImageDef
 90
0
  1
X5X_assy_2_img_1.png
 10
369.0
 20
92.0
 11
0.0066666667
 21
0.0066666667
280
1
281
0
  0
TABLESTYLE
  5
3ED
102
{ACAD_REACTORS
330
3E9
330
278
102
}
330
3E9
100
AcDbTableStyle
  3
Standard
 70
0
 71
0
 40
0.06
 41
0.06
280
1
281
1
  7
Standard
140
0.18
170
1
 62
0
 63
7
283
0
  7
Standard
140
0.18
170
1
 62
0
 63
7
283
0
  7
Standard
140
0.18
170
1
 62
0
 63
7
283
0
  0
TABLESTYLE
  5
3EE
102
{ACAD_REACTORS
330
3E9
330
277
102
}
330
3E9
100
AcDbTableStyle
  3
Standard1
 70
1
 71
0
 40
0.06
 41
0.06
280
1
281
1
  7
Standard
140
0.18
170
1
 62
0
 63
7
283
0
  7
Standard
140
0.18
170
1
 62
0
 63
7
283
0
  7
Standard
140
0.18
170
1
 62
0
 63
7
283
0
  0
ENDSEC
  0
EOF
