999
DXF file: X5P_assy_2.dxf
999
Pro/ENGINEER 2014200 by Parametric Technology Corporation
  0
SECTION
  2
HEADER
  9
$ACADVER
  1
AC1021
  9
$DWGCODEPAGE
  3
ANSI_1252
  9
$EXTMAX
 10
22.0
 20
17.0
 30
0.0
  9
$EXTMIN
 10
0.0
 20
0.0
 30
0.0
  9
$LIMMIN
 10
0.0
 20
0.0
  9
$LIMMAX
 10
22.0
 20
17.0
  9
$VIEWCTR
 10
11.0
 20
8.5
  9
$VIEWSIZE
 40
17.0
  9
$CLAYER
  8
0
  9
$LTSCALE
 40
1.21
  9
$CELTYPE
  6
BYLAYER
  9
$DIMSCALE
 40
1.0
  9
$DIMASZ
 40
0.1875
  9
$DIMEXO
 40
0.0625
  9
$DIMDLI
 40
0.836
  9
$DIMEXE
 40
0.125
  9
$DIMCEN
 40
0.198
  9
$DIMLFAC
 40
1.0
  9
$DIMBLK
  1
_FILLED
  9
$DIMTXT
 40
0.1
  9
$DIMTOL
 70
0
  9
$DIMLIM
 70
0
  9
$DIMTFAC
 40
1.0
  9
$DIMGAP
 40
0.09
  9
$DIMDSEP
 70
46
  9
$AUNITS
 70
0
  9
$PDMODE
 70
3
  9
$PDSIZE
 40
0.3125
  9
$HANDSEED
  5
3C5
  9
$TILEMODE
 70
1
  9
$MEASUREMENT
 70
0
  9
$INSUNITS
 70
1
  0
ENDSEC
  0
SECTION
  2
CLASSES
  0
CLASS
  1
ACDBDICTIONARYWDFLT
  2
AcDbDictionaryWithDefault
  3
AutoCAD 2000
 90
0
 91
1
280
0
281
0
  0
CLASS
  1
ACDBPLACEHOLDER
  2
AcDbPlaceHolder
  3
AutoCAD 2000
 90
0
 91
1
280
0
281
0
  0
CLASS
  1
LAYOUT
  2
AcDbLayout
  3
AutoCAD 2000
 90
0
 91
0
280
0
281
0
  0
CLASS
  1
RASTERVARIABLES
  2
AcDbRasterVariables
  3
ISM
 90
0
 91
1
280
0
281
0
  0
CLASS
  1
IMAGEDEF
  2
AcDbRasterImageDef
  3
ISM
 90
0
 91
1
280
0
281
0
  0
CLASS
  1
IMAGEDEF_REACTOR
  2
AcDbRasterImageDefReactor
  3
ISM
 90
0
 91
1
280
0
281
0
  0
CLASS
  1
IMAGE
  2
AcDbRasterImage
  3
ISM
 90
127
 91
1
280
0
281
1
  0
CLASS
  1
TABLESTYLE
  2
AcDbTableStyle
  3
ObjectDBX Classes
 90
2047
 91
1
280
0
281
0
  0
CLASS
  1
ACAD_TABLE
  2
AcDbTable
  3
ObjectDBX Classes
 90
1025
 91
3
280
0
281
1
  0
ENDSEC
  0
SECTION
  2
TABLES
  0
TABLE
  2
VPORT
  5
8
100
AcDbSymbolTable
 70
2
  0
VPORT
  5
1F4
100
AcDbSymbolTableRecord
100
AcDbViewportTableRecord
  2
*ACTIVE
 70
0
 10
0.0
 20
0.0
 11
1.0
 21
1.0
 12
11.0
 22
8.5
 13
0.0
 23
0.0
 14
1.0
 24
1.0
 15
0.0
 25
0.0
 16
0.0
 26
0.0
 36
1.0
 17
0.0
 27
0.0
 37
0.0
 40
17.0
 41
1.2941176471
 42
50.0
 43
0.0
 44
0.0
 50
0.0
 51
0.0
 71
0
 72
100
 73
1
 74
1
 75
0
 76
0
 77
0
 78
0
  0
ENDTAB
  0
TABLE
  2
LTYPE
  5
5
100
AcDbSymbolTable
 70
6
  0
LTYPE
  5
14
100
AcDbSymbolTableRecord
100
AcDbLinetypeTableRecord
  2
BYBLOCK
 70
0
  3

 72
65
 73
0
 40
0.0
  0
LTYPE
  5
15
100
AcDbSymbolTableRecord
100
AcDbLinetypeTableRecord
  2
BYLAYER
 70
0
  3

 72
65
 73
0
 40
0.0
  0
LTYPE
  5
16
100
AcDbSymbolTableRecord
100
AcDbLinetypeTableRecord
  2
CONTINUOUS
 70
64
  3
Solid line
 72
65
 73
0
 40
0.0
  0
LTYPE
  5
1F5
100
AcDbSymbolTableRecord
100
AcDbLinetypeTableRecord
  2
CENTER
 70
64
  3
____ _ ____ _ ____ _ ____ _ ____ _ ____ _ ____
 72
65
 73
4
 40
0.6
 49
0.375
 74
0
 49
-0.075
 74
0
 49
0.075
 74
0
 49
-0.075
 74
0
  0
LTYPE
  5
1F6
100
AcDbSymbolTableRecord
100
AcDbLinetypeTableRecord
  2
HIDDEN
 70
64
  3
- - - - - - - - - - - - - - - - - - - -
 72
65
 73
2
 40
0.2
 49
0.1
 74
0
 49
-0.1
 74
0
  0
LTYPE
  5
1F7
100
AcDbSymbolTableRecord
100
AcDbLinetypeTableRecord
  2
PHANTOM
 70
64
  3
_____ _ _ _____ _ _ _____ _ _ _____
 72
65
 73
6
 40
0.8
 49
0.45
 74
0
 49
-0.05
 74
0
 49
0.1
 74
0
 49
-0.05
 74
0
 49
0.1
 74
0
 49
-0.05
 74
0
  0
LTYPE
  5
1F8
100
AcDbSymbolTableRecord
100
AcDbLinetypeTableRecord
  2
DOT
 70
64
  3
. . . . . . . . . . . . . . . . . . . .
 72
65
 73
2
 40
0.2
 49
0.1
 74
0
 49
-0.1
 74
0
  0
LTYPE
  5
1F9
100
AcDbSymbolTableRecord
100
AcDbLinetypeTableRecord
  2
DASHED
 70
64
  3
- - - - - - - - - - - - - - - - - - - -
 72
65
 73
2
 40
0.2
 49
0.1
 74
0
 49
-0.1
 74
0
  0
ENDTAB
  0
TABLE
  2
LAYER
  5
2
100
AcDbSymbolTable
 70
36
  0
LAYER
  5
10
100
AcDbSymbolTableRecord
100
AcDbLayerTableRecord
  2
0
 70
0
 62
7
  6
CONTINUOUS
370
-3
390
F
  0
LAYER
  5
1FA
100
AcDbSymbolTableRecord
100
AcDbLayerTableRecord
  2
DEFAULT_1
 70
0
 62
7
  6
CENTER
370
-3
390
F
  0
LAYER
  5
1FB
100
AcDbSymbolTableRecord
100
AcDbLayerTableRecord
  2
DEFAULT_2
 70
0
 62
8
  6
HIDDEN
370
-3
390
F
  0
LAYER
  5
1FC
100
AcDbSymbolTableRecord
100
AcDbLayerTableRecord
  2
DEFAULT_3
 70
0
 62
7
  6
PHANTOM
370
-3
390
F
  0
LAYER
  5
1FD
100
AcDbSymbolTableRecord
100
AcDbLayerTableRecord
  2
DATUM_PLANES
 70
0
 62
7
  6
CONTINUOUS
370
-3
390
F
  0
LAYER
  5
1FE
100
AcDbSymbolTableRecord
100
AcDbLayerTableRecord
  2
DIMENSIONS
 70
0
 62
7
  6
CONTINUOUS
370
-3
390
F
  0
LAYER
  5
1FF
100
AcDbSymbolTableRecord
100
AcDbLayerTableRecord
  2
PARAMETERDIMENSIONS
 70
0
 62
7
  6
CONTINUOUS
370
-3
390
F
  0
LAYER
  5
200
100
AcDbSymbolTableRecord
100
AcDbLayerTableRecord
  2
PORT_AREAS
 70
0
 62
7
  6
CONTINUOUS
370
-3
390
F
  0
LAYER
  5
201
100
AcDbSymbolTableRecord
100
AcDbLayerTableRecord
  2
SUNNBOMCOSMETIC
 70
0
 62
7
  6
CONTINUOUS
370
-3
390
F
  0
LAYER
  5
202
100
AcDbSymbolTableRecord
100
AcDbLayerTableRecord
  2
SUNNBOMSTAMPING
 70
0
 62
7
  6
CONTINUOUS
370
-3
390
F
  0
LAYER
  5
203
100
AcDbSymbolTableRecord
100
AcDbLayerTableRecord
  2
THREADS
 70
0
 62
7
  6
CONTINUOUS
370
-3
390
F
  0
ENDTAB
  0
TABLE
  2
STYLE
  5
3
100
AcDbSymbolTable
 70
1
  0
STYLE
  5
11
100
AcDbSymbolTableRecord
100
AcDbTextStyleTableRecord
  2
STANDARD
 70
0
 40
0.0
 41
0.8
 50
0.0
 71
0
 42
0.2
  3
txt
  4

  0
STYLE
  5
204
100
AcDbSymbolTableRecord
100
AcDbTextStyleTableRecord
  2
TEXTSTYLE_1
 70
0
 40
0.0
 41
0.8
 50
0.0
 71
0
 42
0.2
  3
gdt
  4

  0
ENDTAB
  0
TABLE
  2
VIEW
  5
6
100
AcDbSymbolTable
 70
0
  0
ENDTAB
  0
TABLE
  2
UCS
  5
7
100
AcDbSymbolTable
 70
0
  0
ENDTAB
  0
TABLE
  2
APPID
  5
9
100
AcDbSymbolTable
 70
1
  0
APPID
  5
205
100
AcDbSymbolTableRecord
100
AcDbRegAppTableRecord
  2
ACAD
 70
0
  0
ENDTAB
  0
TABLE
  2
BLOCK_RECORD
  5
1
100
AcDbSymbolTable
 70
0
  0
BLOCK_RECORD
  5
206
100
AcDbSymbolTableRecord
100
AcDbBlockTableRecord
  2
*Model_Space
  0
BLOCK_RECORD
  5
207
100
AcDbSymbolTableRecord
100
AcDbBlockTableRecord
  2
*Paper_Space
  0
BLOCK_RECORD
  5
208
100
AcDbSymbolTableRecord
100
AcDbBlockTableRecord
  2
SUN_FIRST_THIRD_ANGLE_BL0
  0
BLOCK_RECORD
  5
209
100
AcDbSymbolTableRecord
100
AcDbBlockTableRecord
  2
*T1
  0
BLOCK_RECORD
  5
20A
100
AcDbSymbolTableRecord
100
AcDbBlockTableRecord
  2
*T2
  0
BLOCK_RECORD
  5
20B
100
AcDbSymbolTableRecord
100
AcDbBlockTableRecord
  2
*T3
  0
ENDTAB
  0
TABLE
  2
DIMSTYLE
  5
A
100
AcDbSymbolTable
 70
1
100
AcDbDimStyleTable
 71
0
  0
DIMSTYLE
105
20C
100
AcDbSymbolTableRecord
100
AcDbDimStyleTableRecord
  2
STANDARD
 70
0
  3

  4

 40
1.0
 41
0.1875
 42
0.0625
 43
0.38
 44
0.125
 45
0.0
 46
0.0
 47
0.001
 48
0.001
140
0.1
141
0.09
142
0.0
143
25.4
144
1.0
145
0.0
146
1.0
147
0.09
 71
0.0
 72
0.0
 73
1
 74
1
 75
0
 76
0
 77
0
 78
4
170
0
171
2
172
0
173
0
174
0
175
0
176
0
177
0
178
0
270
2
271
3
272
3
273
2
274
2
275
0
280
0
281
0
282
0
283
1
284
4
285
0
286
0
287
3
288
0
340
11
278
46
  0
ENDTAB
  0
ENDSEC
  0
SECTION
  2
BLOCKS
  0
BLOCK
  5
20
100
AcDbEntity
  8
0
100
AcDbBlockBegin
  2
*Model_Space
 70
0
 10
0.0
 20
0.0
 30
0.0
  3
*Model_Space
  1

  0
ENDBLK
  5
21
100
AcDbEntity
  8
0
100
AcDbBlockEnd
  0
BLOCK
  5
1C
100
AcDbEntity
  8
0
100
AcDbBlockBegin
  2
*Paper_Space
 70
0
 10
0.0
 20
0.0
 30
0.0
  3
*Paper_Space
  1

  0
ENDBLK
  5
1D
100
AcDbEntity
  8
0
100
AcDbBlockEnd
  0
BLOCK
  5
20D
100
AcDbEntity
  8
0
100
AcDbBlockBegin
 62
2
  6
CONTINUOUS
  2
SUN_FIRST_THIRD_ANGLE_BL0
 70
64
 10
20.4816717061
 20
1.2289683772
  3
SUN_FIRST_THIRD_ANGLE_BL0
  1

  0
TEXT
  5
20E
100
AcDbEntity
  8
0
100
AcDbText
 62
2
  6
CONTINUOUS
 10
19.4750896608
 20
1.4136269581
  7
STANDARD
 40
0.08
  1
FIRST ANGLE
 41
0.8
 72
0
100
AcDbText
  0
TEXT
  5
20F
100
AcDbEntity
  8
0
100
AcDbText
 62
2
  6
CONTINUOUS
 10
20.7842537513
 20
1.4047600029
  7
STANDARD
 40
0.08
  1
THIRD ANGLE
 41
0.8
 72
0
100
AcDbText
  0
LINE
  5
210
100
AcDbEntity
  8
0
100
AcDbLine
 62
7
  6
CONTINUOUS
 10
19.4767170086
 20
1.1727031207
 11
19.6334271527
 21
1.1717972817
  0
LINE
  5
211
100
AcDbEntity
  8
0
100
AcDbLine
 62
7
  6
CONTINUOUS
 10
19.6596964832
 20
1.1717972817
 11
19.6950230232
 21
1.171593082
  0
LINE
  5
212
100
AcDbEntity
  8
0
100
AcDbLine
 62
7
  6
CONTINUOUS
 10
19.7194818561
 20
1.1708914427
 11
19.8852396156
 21
1.1699333054
  0
LINE
  5
213
100
AcDbEntity
  8
0
100
AcDbLine
 62
7
  6
CONTINUOUS
 10
19.4758111696
 20
1.2723454088
 11
19.88525039
 21
1.3511534004
  0
LINE
  5
214
100
AcDbEntity
  8
0
100
AcDbLine
 62
7
  6
CONTINUOUS
 10
19.88525039
 20
1.3511534004
 11
19.8831348489
 21
0.9851647912
  0
LINE
  5
215
100
AcDbEntity
  8
0
100
AcDbLine
 62
7
  6
CONTINUOUS
 10
19.8831348489
 20
0.9851647912
 11
19.4767170086
 21
1.0658141206
  0
LINE
  5
216
100
AcDbEntity
  8
0
100
AcDbLine
 62
7
  6
CONTINUOUS
 10
19.4767170086
 20
1.0658141206
 11
19.4779056764
 21
1.2714536432
  0
CIRCLE
  5
217
100
AcDbEntity
  8
0
100
AcDbCircle
 62
7
  6
CONTINUOUS
 10
20.2068232291
 20
1.1717972817
 40
0.175742101
  0
CIRCLE
  5
218
100
AcDbEntity
  8
0
100
AcDbCircle
 62
7
  6
CONTINUOUS
 10
20.2068232291
 20
1.1717972817
 40
0.1005522074
  0
LINE
  5
219
100
AcDbEntity
  8
0
100
AcDbLine
 62
7
  6
CONTINUOUS
 10
20.2077290681
 20
1.3756110529
 11
20.2071171714
 21
1.2379342989
  0
LINE
  5
21A
100
AcDbEntity
  8
0
100
AcDbLine
 62
7
  6
CONTINUOUS
 10
20.2077290681
 20
1.2016899681
 11
20.2074674401
 21
1.1428236749
  0
LINE
  5
21B
100
AcDbEntity
  8
0
100
AcDbLine
 62
7
  6
CONTINUOUS
 10
20.208634907
 20
1.101141841
 11
20.2080230104
 21
0.963465087
  0
LINE
  5
21C
100
AcDbEntity
  8
0
100
AcDbLine
 62
7
  6
CONTINUOUS
 10
20.0066328138
 20
1.1745147986
 11
20.1443095678
 21
1.1739029019
  0
LINE
  5
21D
100
AcDbEntity
  8
0
100
AcDbLine
 62
7
  6
CONTINUOUS
 10
20.1832714155
 20
1.1727031207
 11
20.238153505
 21
1.172335442
  0
LINE
  5
21E
100
AcDbEntity
  8
0
100
AcDbLine
 62
7
  6
CONTINUOUS
 10
20.2756669918
 20
1.1717972817
 11
20.407916871
 21
1.1712095044
  0
CIRCLE
  5
21F
100
AcDbEntity
  8
0
100
AcDbCircle
 62
7
  6
CONTINUOUS
 10
20.7509457401
 20
1.1693297793
 40
0.1722024983
  0
CIRCLE
  5
220
100
AcDbEntity
  8
0
100
AcDbCircle
 62
7
  6
CONTINUOUS
 10
20.7509457401
 20
1.1693297793
 40
0.0985164967
  0
LINE
  5
221
100
AcDbEntity
  8
0
100
AcDbLine
 62
7
  6
CONTINUOUS
 10
20.7169767782
 20
1.170462078
 11
20.7825395137
 21
1.1682766535
  0
LINE
  5
222
100
AcDbEntity
  8
0
100
AcDbLine
 62
7
  6
CONTINUOUS
 10
20.8177513651
 20
1.1693297793
 11
20.947965719
 21
1.1693297793
  0
LINE
  5
223
100
AcDbEntity
  8
0
100
AcDbLine
 62
7
  6
CONTINUOUS
 10
20.6875370113
 20
1.170462078
 11
20.5573226574
 21
1.170462078
  0
LINE
  5
224
100
AcDbEntity
  8
0
100
AcDbLine
 62
7
  6
CONTINUOUS
 10
20.7486811426
 20
1.1987695462
 11
20.7486811426
 21
1.1432869085
  0
LINE
  5
225
100
AcDbEntity
  8
0
100
AcDbLine
 62
7
  6
CONTINUOUS
 10
20.7498134414
 20
1.1059210505
 11
20.7498134414
 21
0.9757066966
  0
LINE
  5
226
100
AcDbEntity
  8
0
100
AcDbLine
 62
7
  6
CONTINUOUS
 10
20.7486811426
 20
1.2338708068
 11
20.7486811426
 21
1.3640851607
  0
LINE
  5
227
100
AcDbEntity
  8
0
100
AcDbLine
 62
7
  6
CONTINUOUS
 10
21.0702539817
 20
1.2701043662
 11
21.4790138229
 21
1.3448360823
  0
LINE
  5
228
100
AcDbEntity
  8
0
100
AcDbLine
 62
7
  6
CONTINUOUS
 10
21.4790138229
 20
1.3448360823
 11
21.4790138229
 21
0.9779712941
  0
LINE
  5
229
100
AcDbEntity
  8
0
100
AcDbLine
 62
7
  6
CONTINUOUS
 10
21.4790138229
 20
0.9779712941
 11
21.069121683
 21
1.0617614
  0
LINE
  5
22A
100
AcDbEntity
  8
0
100
AcDbLine
 62
7
  6
CONTINUOUS
 10
21.0702539817
 20
1.2701043662
 11
21.069121683
 21
1.0617614
  0
LINE
  5
22B
100
AcDbEntity
  8
0
100
AcDbLine
 62
7
  6
CONTINUOUS
 10
21.4790138229
 20
1.1693297793
 11
21.3159628059
 21
1.1693297793
  0
LINE
  5
22C
100
AcDbEntity
  8
0
100
AcDbLine
 62
7
  6
CONTINUOUS
 10
21.2876553377
 20
1.1693297793
 11
21.2502894796
 21
1.1693297793
  0
LINE
  5
22D
100
AcDbEntity
  8
0
100
AcDbLine
 62
7
  6
CONTINUOUS
 10
21.2208497126
 20
1.1659328831
 11
21.0713862804
 21
1.1659328831
  0
LINE
  5
22E
100
AcDbEntity
  8
0
100
AcDbLine
 62
7
  6
CONTINUOUS
 10
20.4796138713
 20
1.5284908897
 11
20.4766766948
 21
0.9294458646
  0
ENDBLK
  5
22F
100
AcDbEntity
  8
0
  6
BYBLOCK
 62
0
100
AcDbBlockEnd
  0
BLOCK
  5
230
100
AcDbEntity
  8
0
100
AcDbBlockBegin
  2
*T1
 70
1
 10
0.0
 20
0.0
  3
*T1
  1

  0
LINE
  5
231
100
AcDbEntity
  8
0
100
AcDbLine
 62
2
  6
CONTINUOUS
 10
9.275
 20
0.0
 11
-0.0
 21
0.0
  0
LINE
  5
232
100
AcDbEntity
  8
0
100
AcDbLine
 62
2
  6
CONTINUOUS
 10
9.275
 20
0.0
 11
9.275
 21
1.25
  0
LINE
  5
233
100
AcDbEntity
  8
0
100
AcDbLine
 62
2
  6
CONTINUOUS
 10
9.275
 20
0.625
 11
-0.0
 21
0.625
  0
LINE
  5
234
100
AcDbEntity
  8
0
100
AcDbLine
 62
2
  6
CONTINUOUS
 10
9.275
 20
1.25
 11
-0.0
 21
1.25
  0
LINE
  5
235
100
AcDbEntity
  8
0
100
AcDbLine
 62
2
  6
CONTINUOUS
 10
6.8
 20
0.0
 11
6.8
 21
1.25
  0
LINE
  5
236
100
AcDbEntity
  8
0
100
AcDbLine
 62
2
  6
CONTINUOUS
 10
6.4
 20
0.0
 11
6.4
 21
0.625
  0
LINE
  5
237
100
AcDbEntity
  8
0
100
AcDbLine
 62
2
  6
CONTINUOUS
 10
5.9
 20
0.0
 11
5.9
 21
0.625
  0
LINE
  5
238
100
AcDbEntity
  8
0
100
AcDbLine
 62
2
  6
CONTINUOUS
 10
5.2
 20
0.0
 11
5.2
 21
0.625
  0
LINE
  5
239
100
AcDbEntity
  8
0
100
AcDbLine
 62
2
  6
CONTINUOUS
 10
4.1
 20
0.0
 11
4.1
 21
1.25
  0
LINE
  5
23A
100
AcDbEntity
  8
0
100
AcDbLine
 62
2
  6
CONTINUOUS
 10
-0.0
 20
0.0
 11
-0.0
 21
1.25
  0
MTEXT
  5
23B
100
AcDbEntity
  8
0
100
AcDbMText
 62
2
  6
CONTINUOUS
  7
STANDARD
 71
2
 72
1
 10
6.6
 20
0.325
 30
0.0
 11
1.0
 21
0.0
 31
0.0
 44
0.9
  1
2
 40
0.125
 41
0.2
  0
MTEXT
  5
23C
100
AcDbEntity
  8
0
100
AcDbMText
 62
2
  6
CONTINUOUS
  7
STANDARD
 71
2
 72
1
 10
6.15
 20
0.325
 30
0.0
 11
1.0
 21
0.0
 31
0.0
 44
0.9
  1
C
 40
0.125
 41
0.2
  0
MTEXT
  5
23D
100
AcDbEntity
  8
0
100
AcDbMText
 62
2
  6
CONTINUOUS
  7
STANDARD
 71
2
 72
1
 10
5.55
 20
0.325
 30
0.0
 11
1.0
 21
0.0
 31
0.0
 44
0.9
  1
2.000
 40
0.125
 41
1.0
  0
MTEXT
  5
23E
100
AcDbEntity
  8
0
100
AcDbMText
 62
2
  6
CONTINUOUS
  7
STANDARD
 71
2
 72
1
 10
4.65
 20
0.325
 30
0.0
 11
1.0
 21
0.0
 31
0.0
 44
0.9
  1
Aug-13-19
 40
0.125
 41
1.8
  0
MTEXT
  5
23F
100
AcDbEntity
  8
0
100
AcDbMText
 62
2
  6
CONTINUOUS
  7
STANDARD
 71
2
 72
1
 10
2.05
 20
0.4625
 30
0.0
 11
1.0
 21
0.0
 31
0.0
 44
0.9
  1
T-10A Line mount\PNinety degree with reverse flow check
 40
0.125
 41
7.4
  0
MTEXT
  5
240
100
AcDbEntity
  8
0
100
AcDbMText
 62
2
  6
CONTINUOUS
  7
STANDARD
 71
1
 72
1
 10
6.45
 20
0.5625
 30
0.0
 11
1.0
 21
0.0
 31
0.0
 44
0.9
  1
SHEET
 40
0.06
 41
0.48
  0
MTEXT
  5
241
100
AcDbEntity
  8
0
100
AcDbMText
 62
2
  6
CONTINUOUS
  7
STANDARD
 71
1
 72
1
 10
5.95
 20
0.5625
 30
0.0
 11
1.0
 21
0.0
 31
0.0
 44
0.9
  1
DWG SIZE
 40
0.06
 41
0.768
  0
MTEXT
  5
242
100
AcDbEntity
  8
0
100
AcDbMText
 62
2
  6
CONTINUOUS
  7
STANDARD
 71
1
 72
1
 10
5.25
 20
0.5625
 30
0.0
 11
1.0
 21
0.0
 31
0.0
 44
0.9
  1
SCALE
 40
0.06
 41
0.48
  0
MTEXT
  5
243
100
AcDbEntity
  8
0
100
AcDbMText
 62
2
  6
CONTINUOUS
  7
STANDARD
 71
1
 72
1
 10
4.15
 20
0.5625
 30
0.0
 11
1.0
 21
0.0
 31
0.0
 44
0.9
  1
DATE
 40
0.06
 41
0.384
  0
MTEXT
  5
244
100
AcDbEntity
  8
0
100
AcDbMText
 62
2
  6
CONTINUOUS
  7
STANDARD
 71
1
 72
1
 10
0.05
 20
0.5625
 30
0.0
 11
1.0
 21
0.0
 31
0.0
 44
0.9
  1
DESCRIPTION
 40
0.06
 41
1.056
  0
MTEXT
  5
245
100
AcDbEntity
  8
0
100
AcDbMText
 62
2
  6
CONTINUOUS
  7
STANDARD
 71
2
 72
1
 10
5.45
 20
1.0375
 30
0.0
 11
1.0
 21
0.0
 31
0.0
 44
0.9
  1
ALL DIMENSIONS IN INCH\PVIEWS ARE THIRD ANGLE
 40
0.12
 41
4.224
  0
MTEXT
  5
246
100
AcDbEntity
  8
0
100
AcDbMText
 62
2
  6
CONTINUOUS
  7
STANDARD
 71
2
 72
1
 10
2.05
 20
0.95
 30
0.0
 11
1.0
 21
0.0
 31
0.0
 44
0.9
  1
X5P
 40
0.125
 41
0.6
  0
MTEXT
  5
247
100
AcDbEntity
  8
0
100
AcDbMText
 62
2
  6
CONTINUOUS
  7
STANDARD
 71
1
 72
1
 10
0.05
 20
1.1875
 30
0.0
 11
1.0
 21
0.0
 31
0.0
 44
0.9
  1
MODEL
 40
0.06
 41
0.48
  0
ENDBLK
  5
248
100
AcDbEntity
  8
0
  6
BYBLOCK
 62
0
100
AcDbBlockEnd
  0
BLOCK
  5
249
100
AcDbEntity
  8
0
100
AcDbBlockBegin
  2
*T2
 70
1
 10
0.0
 20
0.0
  3
*T2
  1

  0
LINE
  5
24A
100
AcDbEntity
  8
0
100
AcDbLine
 62
2
  6
CONTINUOUS
 10
0.0
 20
0.0
 11
9.055
 21
0.0
  0
LINE
  5
24B
100
AcDbEntity
  8
0
100
AcDbLine
 62
2
  6
CONTINUOUS
 10
0.0
 20
0.0
 11
0.0
 21
-2.344
  0
LINE
  5
24C
100
AcDbEntity
  8
0
100
AcDbLine
 62
2
  6
CONTINUOUS
 10
0.0
 20
-0.344
 11
9.055
 21
-0.344
  0
LINE
  5
24D
100
AcDbEntity
  8
0
100
AcDbLine
 62
2
  6
CONTINUOUS
 10
0.0
 20
-0.594
 11
9.055
 21
-0.594
  0
LINE
  5
24E
100
AcDbEntity
  8
0
100
AcDbLine
 62
2
  6
CONTINUOUS
 10
0.0
 20
-0.844
 11
9.055
 21
-0.844
  0
LINE
  5
24F
100
AcDbEntity
  8
0
100
AcDbLine
 62
2
  6
CONTINUOUS
 10
0.0
 20
-1.094
 11
9.055
 21
-1.094
  0
LINE
  5
250
100
AcDbEntity
  8
0
100
AcDbLine
 62
2
  6
CONTINUOUS
 10
0.0
 20
-1.344
 11
9.055
 21
-1.344
  0
LINE
  5
251
100
AcDbEntity
  8
0
100
AcDbLine
 62
2
  6
CONTINUOUS
 10
0.0
 20
-1.594
 11
9.055
 21
-1.594
  0
LINE
  5
252
100
AcDbEntity
  8
0
100
AcDbLine
 62
2
  6
CONTINUOUS
 10
0.0
 20
-1.844
 11
9.055
 21
-1.844
  0
LINE
  5
253
100
AcDbEntity
  8
0
100
AcDbLine
 62
2
  6
CONTINUOUS
 10
0.0
 20
-2.094
 11
9.055
 21
-2.094
  0
LINE
  5
254
100
AcDbEntity
  8
0
100
AcDbLine
 62
2
  6
CONTINUOUS
 10
0.0
 20
-2.344
 11
9.055
 21
-2.344
  0
LINE
  5
255
100
AcDbEntity
  8
0
100
AcDbLine
 62
2
  6
CONTINUOUS
 10
3.055
 20
0.0
 11
3.055
 21
-2.344
  0
LINE
  5
256
100
AcDbEntity
  8
0
100
AcDbLine
 62
2
  6
CONTINUOUS
 10
9.055
 20
0.0
 11
9.055
 21
-2.344
  0
MTEXT
  5
257
100
AcDbEntity
  8
0
100
AcDbMText
 62
2
  6
CONTINUOUS
  7
STANDARD
 71
2
 72
1
 10
1.5275
 20
-0.0995
 30
0.0
 11
1.0
 21
0.0
 31
0.0
 44
0.9
  1
Technical Data
 40
0.145
 41
3.248
  0
MTEXT
  5
258
100
AcDbEntity
  8
0
100
AcDbMText
 62
2
  6
CONTINUOUS
  7
STANDARD
 71
2
 72
1
 10
4.555
 20
-0.0995
 30
0.0
 11
1.0
 21
0.0
 31
0.0
 44
0.9
  1
U.S. Units
 40
0.145
 41
2.32
  0
MTEXT
  5
259
100
AcDbEntity
  8
0
100
AcDbMText
 62
2
  6
CONTINUOUS
  7
STANDARD
 71
2
 72
1
 10
7.555
 20
-0.0995
 30
0.0
 11
1.0
 21
0.0
 31
0.0
 44
0.9
  1
Metric Units
 40
0.145
 41
2.784
  0
MTEXT
  5
25A
100
AcDbEntity
  8
0
100
AcDbMText
 62
2
  6
CONTINUOUS
  7
STANDARD
 71
2
 72
1
 10
1.5275
 20
-0.4065
 30
0.0
 11
1.0
 21
0.0
 31
0.0
 44
0.9
  1
Cavity
 40
0.125
 41
1.2
  0
MTEXT
  5
25B
100
AcDbEntity
  8
0
100
AcDbMText
 62
2
  6
CONTINUOUS
  7
STANDARD
 71
2
 72
1
 10
6.055
 20
-0.4065
 30
0.0
 11
1.0
 21
0.0
 31
0.0
 44
0.9
  1
T-10A
 40
0.125
 41
1.0
  0
MTEXT
  5
25C
100
AcDbEntity
  8
0
100
AcDbMText
 62
2
  6
CONTINUOUS
  7
STANDARD
 71
2
 72
1
 10
1.5275
 20
-0.6565
 30
0.0
 11
1.0
 21
0.0
 31
0.0
 44
0.9
  1
Body Features
 40
0.125
 41
2.6
  0
MTEXT
  5
25D
100
AcDbEntity
  8
0
100
AcDbMText
 62
2
  6
CONTINUOUS
  7
STANDARD
 71
2
 72
1
 10
6.055
 20
-0.6565
 30
0.0
 11
1.0
 21
0.0
 31
0.0
 44
0.9
  1
Ninety degree with reverse flow check
 40
0.125
 41
7.4
  0
MTEXT
  5
25E
100
AcDbEntity
  8
0
100
AcDbMText
 62
2
  6
CONTINUOUS
  7
STANDARD
 71
2
 72
1
 10
1.5275
 20
-0.9065
 30
0.0
 11
1.0
 21
0.0
 31
0.0
 44
0.9
  1
Body Type
 40
0.125
 41
1.8
  0
MTEXT
  5
25F
100
AcDbEntity
  8
0
100
AcDbMText
 62
2
  6
CONTINUOUS
  7
STANDARD
 71
2
 72
1
 10
6.055
 20
-0.9065
 30
0.0
 11
1.0
 21
0.0
 31
0.0
 44
0.9
  1
Line mount
 40
0.125
 41
2.0
  0
MTEXT
  5
260
100
AcDbEntity
  8
0
100
AcDbMText
 62
2
  6
CONTINUOUS
  7
STANDARD
 71
2
 72
1
 10
1.5275
 20
-1.1565
 30
0.0
 11
1.0
 21
0.0
 31
0.0
 44
0.9
  1
Open Cavity Quantity
 40
0.125
 41
4.0
  0
MTEXT
  5
261
100
AcDbEntity
  8
0
100
AcDbMText
 62
2
  6
CONTINUOUS
  7
STANDARD
 71
2
 72
1
 10
6.055
 20
-1.1565
 30
0.0
 11
1.0
 21
0.0
 31
0.0
 44
0.9
  1
1
 40
0.125
 41
0.2
  0
MTEXT
  5
262
100
AcDbEntity
  8
0
100
AcDbMText
 62
2
  6
CONTINUOUS
  7
STANDARD
 71
2
 72
1
 10
1.5275
 20
-1.4065
 30
0.0
 11
1.0
 21
0.0
 31
0.0
 44
0.9
  1
Weight
 40
0.125
 41
1.2
  0
MTEXT
  5
263
100
AcDbEntity
  8
0
100
AcDbMText
 62
2
  6
CONTINUOUS
  7
STANDARD
 71
2
 72
1
 10
4.555
 20
-1.4065
 30
0.0
 11
1.0
 21
0.0
 31
0.0
 44
0.9
  1
0.957 lb.
 40
0.125
 41
1.8
  0
MTEXT
  5
264
100
AcDbEntity
  8
0
100
AcDbMText
 62
2
  6
CONTINUOUS
  7
STANDARD
 71
2
 72
1
 10
7.555
 20
-1.4065
 30
0.0
 11
1.0
 21
0.0
 31
0.0
 44
0.9
  1
0,434 kg.
 40
0.125
 41
1.8
  0
MTEXT
  5
265
100
AcDbEntity
  8
0
100
AcDbMText
 62
2
  6
CONTINUOUS
  7
STANDARD
 71
2
 72
1
 10
1.5275
 20
-1.6565
 30
0.0
 11
1.0
 21
0.0
 31
0.0
 44
0.9
  1
Mounting Hole Diameter
 40
0.125
 41
4.4
  0
MTEXT
  5
266
100
AcDbEntity
  8
0
100
AcDbMText
 62
2
  6
CONTINUOUS
  7
STANDARD
 71
2
 72
1
 10
4.555
 20
-1.6565
 30
0.0
 11
1.0
 21
0.0
 31
0.0
 44
0.9
  1
.28 in.
 40
0.125
 41
1.4
  0
MTEXT
  5
267
100
AcDbEntity
  8
0
100
AcDbMText
 62
2
  6
CONTINUOUS
  7
STANDARD
 71
2
 72
1
 10
7.555
 20
-1.6565
 30
0.0
 11
1.0
 21
0.0
 31
0.0
 44
0.9
  1
7,1 mm
 40
0.125
 41
1.2
  0
MTEXT
  5
268
100
AcDbEntity
  8
0
100
AcDbMText
 62
2
  6
CONTINUOUS
  7
STANDARD
 71
2
 72
1
 10
1.5275
 20
-1.9065
 30
0.0
 11
1.0
 21
0.0
 31
0.0
 44
0.9
  1
Mounting Hole Depth
 40
0.125
 41
3.8
  0
MTEXT
  5
269
100
AcDbEntity
  8
0
100
AcDbMText
 62
2
  6
CONTINUOUS
  7
STANDARD
 71
2
 72
1
 10
6.055
 20
-1.9065
 30
0.0
 11
1.0
 21
0.0
 31
0.0
 44
0.9
  1
Through
 40
0.125
 41
1.4
  0
MTEXT
  5
26A
100
AcDbEntity
  8
0
100
AcDbMText
 62
2
  6
CONTINUOUS
  7
STANDARD
 71
2
 72
1
 10
1.5275
 20
-2.1565
 30
0.0
 11
1.0
 21
0.0
 31
0.0
 44
0.9
  1
Mounting Hole Quantity
 40
0.125
 41
4.4
  0
MTEXT
  5
26B
100
AcDbEntity
  8
0
100
AcDbMText
 62
2
  6
CONTINUOUS
  7
STANDARD
 71
2
 72
1
 10
6.055
 20
-2.1565
 30
0.0
 11
1.0
 21
0.0
 31
0.0
 44
0.9
  1
2
 40
0.125
 41
0.2
  0
ENDBLK
  5
26C
100
AcDbEntity
  8
0
  6
BYBLOCK
 62
0
100
AcDbBlockEnd
  0
BLOCK
  5
26D
100
AcDbEntity
  8
0
100
AcDbBlockBegin
  2
*T3
 70
1
 10
0.0
 20
0.0
  3
*T3
  1

  0
LINE
  5
26E
100
AcDbEntity
  8
0
100
AcDbLine
 62
2
  6
CONTINUOUS
 10
0.0
 20
0.0
 11
4.6
 21
0.0
  0
LINE
  5
26F
100
AcDbEntity
  8
0
100
AcDbLine
 62
2
  6
CONTINUOUS
 10
0.0
 20
0.0
 11
0.0
 21
-1.18775
  0
LINE
  5
270
100
AcDbEntity
  8
0
100
AcDbLine
 62
2
  6
CONTINUOUS
 10
0.0
 20
-0.34375
 11
4.6
 21
-0.34375
  0
LINE
  5
271
100
AcDbEntity
  8
0
100
AcDbLine
 62
2
  6
CONTINUOUS
 10
0.0
 20
-0.68775
 11
4.6
 21
-0.68775
  0
LINE
  5
272
100
AcDbEntity
  8
0
100
AcDbLine
 62
2
  6
CONTINUOUS
 10
0.0
 20
-0.93775
 11
4.6
 21
-0.93775
  0
LINE
  5
273
100
AcDbEntity
  8
0
100
AcDbLine
 62
2
  6
CONTINUOUS
 10
0.0
 20
-1.18775
 11
4.6
 21
-1.18775
  0
LINE
  5
274
100
AcDbEntity
  8
0
100
AcDbLine
 62
2
  6
CONTINUOUS
 10
1.3
 20
-0.34375
 11
1.3
 21
-1.18775
  0
LINE
  5
275
100
AcDbEntity
  8
0
100
AcDbLine
 62
2
  6
CONTINUOUS
 10
3.3
 20
-0.34375
 11
3.3
 21
-1.18775
  0
LINE
  5
276
100
AcDbEntity
  8
0
100
AcDbLine
 62
2
  6
CONTINUOUS
 10
4.6
 20
0.0
 11
4.6
 21
-1.18775
  0
MTEXT
  5
277
100
AcDbEntity
  8
0
100
AcDbMText
 62
2
  6
CONTINUOUS
  7
STANDARD
 71
2
 72
1
 10
2.3
 20
-0.099375
 30
0.0
 11
1.0
 21
0.0
 31
0.0
 44
0.9
  1
Port Headings
 40
0.145
 41
3.016
  0
MTEXT
  5
278
100
AcDbEntity
  8
0
100
AcDbMText
 62
2
  6
CONTINUOUS
  7
STANDARD
 71
2
 72
1
 10
0.65
 20
-0.44325
 30
0.0
 11
1.0
 21
0.0
 31
0.0
 44
0.9
  1
Product
 40
0.145
 41
1.624
  0
MTEXT
  5
279
100
AcDbEntity
  8
0
100
AcDbMText
 62
2
  6
CONTINUOUS
  7
STANDARD
 71
2
 72
1
 10
2.3
 20
-0.44325
 30
0.0
 11
1.0
 21
0.0
 31
0.0
 44
0.9
  1
Port
 40
0.145
 41
0.928
  0
MTEXT
  5
27A
100
AcDbEntity
  8
0
100
AcDbMText
 62
2
  6
CONTINUOUS
  7
STANDARD
 71
2
 72
1
 10
3.95
 20
-0.44325
 30
0.0
 11
1.0
 21
0.0
 31
0.0
 44
0.9
  1
Size
 40
0.145
 41
0.928
  0
MTEXT
  5
27B
100
AcDbEntity
  8
0
100
AcDbMText
 62
2
  6
CONTINUOUS
  7
STANDARD
 71
2
 72
1
 10
0.65
 20
-0.75025
 30
0.0
 11
1.0
 21
0.0
 31
0.0
 44
0.9
  1
X5P
 40
0.125
 41
0.6
  0
MTEXT
  5
27C
100
AcDbEntity
  8
0
100
AcDbMText
 62
2
  6
CONTINUOUS
  7
STANDARD
 71
2
 72
1
 10
2.3
 20
-0.75025
 30
0.0
 11
1.0
 21
0.0
 31
0.0
 44
0.9
  1
Ports 1 &  2
 40
0.125
 41
2.4
  0
MTEXT
  5
27D
100
AcDbEntity
  8
0
100
AcDbMText
 62
2
  6
CONTINUOUS
  7
STANDARD
 71
2
 72
1
 10
3.95
 20
-0.75025
 30
0.0
 11
1.0
 21
0.0
 31
0.0
 44
0.9
  1
3/8" BSPP
 40
0.125
 41
1.8
  0
MTEXT
  5
27E
100
AcDbEntity
  8
0
100
AcDbMText
 62
2
  6
CONTINUOUS
  7
STANDARD
 71
2
 72
1
 10
0.65
 20
-1.00025
 30
0.0
 11
1.0
 21
0.0
 31
0.0
 44
0.9
  1
X5P
 40
0.125
 41
0.6
  0
MTEXT
  5
27F
100
AcDbEntity
  8
0
100
AcDbMText
 62
2
  6
CONTINUOUS
  7
STANDARD
 71
2
 72
1
 10
2.3
 20
-1.00025
 30
0.0
 11
1.0
 21
0.0
 31
0.0
 44
0.9
  1
Gage Port (Plugged)
 40
0.125
 41
3.8
  0
MTEXT
  5
280
100
AcDbEntity
  8
0
100
AcDbMText
 62
2
  6
CONTINUOUS
  7
STANDARD
 71
2
 72
1
 10
3.95
 20
-1.00025
 30
0.0
 11
1.0
 21
0.0
 31
0.0
 44
0.9
  1
1/4" BSPP
 40
0.125
 41
1.8
  0
ENDBLK
  5
281
100
AcDbEntity
  8
0
  6
BYBLOCK
 62
0
100
AcDbBlockEnd
  0
ENDSEC
  0
SECTION
  2
ENTITIES
  0
IMAGE
  5
282
100
AcDbEntity
  8
0
100
AcDbRasterImage
 62
7
  6
CONTINUOUS
 10
19.2297077316
 20
0.3094318264
 30
0.0
 11
0.0066666667
 21
0.0
 31
0.0
 12
0.0
 22
0.0066666667
 32
0.0
 13
369.0
 23
92.0
340
       3C2
 70
9
280
0
281
50
282
50
283
0
360
       3BC
 71
1
 91
2
 14
-0.5
 24
-0.5
 14
368.5
 24
91.5
  0
INSERT
  5
283
100
AcDbEntity
  8
0
100
AcDbBlockReference
 62
2
  6
CONTINUOUS
  2
SUN_FIRST_THIRD_ANGLE_BL0
 10
20.4816717061
 20
1.2289683772
  0
ACAD_TABLE
  5
284
100
AcDbEntity
  8
0
 62
2
  6
CONTINUOUS
100
AcDbBlockReference
  2
*T1
 10
12.42375
 20
0.30125
 30
0.0
100
AcDbTable
342
       3C4
343
209
 11
1.0
 21
0.0
 31
0.0
 90
6
 91
4
 92
6
 93
20
 94
0
 95
0
 96
0
 70
1
 41
0.0
141
0.525
141
0.1
141
0.525
141
0.1
142
4.1
142
1.1
142
0.7
142
0.5
142
0.4
142
2.475
171
1
172
0
173
0
174
0
175
1
176
1
 91
33
178
0
145
0.0
301
CELL_VALUE
 90
4
  1
T-10A Line mount\PNinety degree with reverse flow check
304
ACVALUE_END
170
2
140
0.125
171
1
172
0
173
0
174
0
175
1
176
1
 91
33
178
0
145
0.0
301
CELL_VALUE
 90
4
  1
Aug-13-19
304
ACVALUE_END
170
5
140
0.125
171
1
172
0
173
0
174
0
175
1
176
1
 91
33
178
0
145
0.0
301
CELL_VALUE
 90
4
  1
2.000
304
ACVALUE_END
170
5
140
0.125
171
1
172
0
173
0
174
0
175
1
176
1
 91
33
178
0
145
0.0
301
CELL_VALUE
 90
4
  1
C
304
ACVALUE_END
170
5
140
0.125
171
1
172
0
173
0
174
0
175
1
176
1
 91
33
178
0
145
0.0
301
CELL_VALUE
 90
4
  1
2
304
ACVALUE_END
170
5
140
0.125
171
1
172
0
173
0
174
0
175
1
176
1
 91
33
178
0
145
0.0
301
CELL_VALUE
 90
4
  1
 
304
ACVALUE_END
170
1
140
0.125
171
1
172
0
173
0
174
0
175
1
176
1
 91
33
178
0
145
0.0
301
CELL_VALUE
 90
4
  1
DESCRIPTION
304
ACVALUE_END
170
1
140
0.06
171
1
172
0
173
0
174
0
175
1
176
1
 91
33
178
0
145
0.0
301
CELL_VALUE
 90
4
  1
DATE
304
ACVALUE_END
170
1
140
0.06
171
1
172
0
173
0
174
0
175
1
176
1
 91
33
178
0
145
0.0
301
CELL_VALUE
 90
4
  1
SCALE
304
ACVALUE_END
170
1
140
0.06
171
1
172
0
173
0
174
0
175
1
176
1
 91
33
178
0
145
0.0
301
CELL_VALUE
 90
4
  1
DWG SIZE
304
ACVALUE_END
170
1
140
0.06
171
1
172
0
173
0
174
0
175
1
176
1
 91
33
178
0
145
0.0
301
CELL_VALUE
 90
4
  1
SHEET
304
ACVALUE_END
170
1
140
0.06
171
1
172
0
173
0
174
0
175
1
176
1
 91
33
178
0
145
0.0
301
CELL_VALUE
 90
4
  1
 
304
ACVALUE_END
170
1
140
0.125
171
1
172
0
173
0
174
0
175
1
176
1
 91
33
178
0
145
0.0
301
CELL_VALUE
 90
4
  1
X5P
304
ACVALUE_END
170
5
140
0.125
171
1
172
0
173
0
174
0
175
4
176
1
 91
33
178
0
145
0.0
301
CELL_VALUE
 90
4
  1
ALL DIMENSIONS IN INCH\PVIEWS ARE THIRD ANGLE
304
ACVALUE_END
170
5
140
0.12
171
1
172
0
173
1
174
0
175
1
176
1
 91
1
178
0
145
0.0
170
1
171
1
172
0
173
1
174
0
175
1
176
1
 91
1
178
0
145
0.0
170
1
171
1
172
0
173
1
174
0
175
1
176
1
 91
1
178
0
145
0.0
170
5
171
1
172
0
173
0
174
0
175
1
176
1
 91
33
178
0
145
0.0
301
CELL_VALUE
 90
4
  1
 
304
ACVALUE_END
170
1
140
0.125
171
1
172
0
173
0
174
0
175
1
176
1
 91
33
178
0
145
0.0
301
CELL_VALUE
 90
4
  1
MODEL
304
ACVALUE_END
170
1
140
0.06
171
1
172
0
173
0
174
0
175
1
176
1
 91
33
178
0
145
0.0
301
CELL_VALUE
 90
4
  1
 
304
ACVALUE_END
170
1
140
0.125
171
1
172
0
173
0
174
0
175
1
176
1
 91
33
178
0
145
0.0
301
CELL_VALUE
 90
4
  1
 
304
ACVALUE_END
170
1
140
0.125
171
1
172
0
173
0
174
0
175
1
176
1
 91
33
178
0
145
0.0
301
CELL_VALUE
 90
4
  1
 
304
ACVALUE_END
170
1
140
0.125
171
1
172
0
173
0
174
0
175
1
176
1
 91
33
178
0
145
0.0
301
CELL_VALUE
 90
4
  1
 
304
ACVALUE_END
170
1
140
0.125
171
1
172
0
173
0
174
0
175
1
176
1
 91
33
178
0
145
0.0
301
CELL_VALUE
 90
4
  1
 
304
ACVALUE_END
170
1
140
0.125
  0
ACAD_TABLE
  5
285
100
AcDbEntity
  8
0
 62
2
  6
CONTINUOUS
100
AcDbBlockReference
  2
*T2
 10
12.4237499994
 20
16.47875
 30
0.0
100
AcDbTable
342
       3C3
343
20A
 11
1.0
 21
0.0
 31
0.0
 90
22
 91
9
 92
3
 93
16
 94
0
 95
0
 96
0
 41
0.028
141
0.344
141
0.25
141
0.25
141
0.25
141
0.25
141
0.25
141
0.25
141
0.25
141
0.25
142
3.055
142
3.0
142
3.0
171
1
172
0
173
0
174
0
175
1
176
1
 91
33
178
0
145
0.0
301
CELL_VALUE
 90
4
  1
Technical Data
304
ACVALUE_END
170
5
140
0.145
171
1
172
0
173
0
174
0
175
1
176
1
 91
33
178
0
145
0.0
301
CELL_VALUE
 90
4
  1
U.S. Units
304
ACVALUE_END
170
5
140
0.145
171
1
172
0
173
0
174
0
175
1
176
1
 91
33
178
0
145
0.0
301
CELL_VALUE
 90
4
  1
Metric Units
304
ACVALUE_END
170
5
140
0.145
171
1
172
0
173
0
174
0
175
1
176
1
 91
33
178
0
145
0.0
301
CELL_VALUE
 90
4
  1
Cavity
304
ACVALUE_END
170
5
140
0.125
171
1
172
0
173
0
174
0
175
2
176
1
 91
33
178
0
145
0.0
301
CELL_VALUE
 90
4
  1
T-10A
304
ACVALUE_END
170
5
140
0.125
171
1
172
0
173
1
174
0
175
1
176
1
 91
1
178
0
145
0.0
170
1
171
1
172
0
173
0
174
0
175
1
176
1
 91
33
178
0
145
0.0
301
CELL_VALUE
 90
4
  1
Body Features
304
ACVALUE_END
170
5
140
0.125
171
1
172
0
173
0
174
0
175
2
176
1
 91
33
178
0
145
0.0
301
CELL_VALUE
 90
4
  1
Ninety degree with reverse flow check
304
ACVALUE_END
170
5
140
0.125
171
1
172
0
173
1
174
0
175
1
176
1
 91
1
178
0
145
0.0
170
1
171
1
172
0
173
0
174
0
175
1
176
1
 91
33
178
0
145
0.0
301
CELL_VALUE
 90
4
  1
Body Type
304
ACVALUE_END
170
5
140
0.125
171
1
172
0
173
0
174
0
175
2
176
1
 91
33
178
0
145
0.0
301
CELL_VALUE
 90
4
  1
Line mount
304
ACVALUE_END
170
5
140
0.125
171
1
172
0
173
1
174
0
175
1
176
1
 91
1
178
0
145
0.0
170
1
171
1
172
0
173
0
174
0
175
1
176
1
 91
33
178
0
145
0.0
301
CELL_VALUE
 90
4
  1
Open Cavity Quantity
304
ACVALUE_END
170
5
140
0.125
171
1
172
0
173
0
174
0
175
2
176
1
 91
33
178
0
145
0.0
301
CELL_VALUE
 90
4
  1
1
304
ACVALUE_END
170
5
140
0.125
171
1
172
0
173
1
174
0
175
1
176
1
 91
1
178
0
145
0.0
170
1
171
1
172
0
173
0
174
0
175
1
176
1
 91
33
178
0
145
0.0
301
CELL_VALUE
 90
4
  1
Weight
304
ACVALUE_END
170
5
140
0.125
171
1
172
0
173
0
174
0
175
1
176
1
 91
33
178
0
145
0.0
301
CELL_VALUE
 90
4
  1
0.957 lb.
304
ACVALUE_END
170
5
140
0.125
171
1
172
0
173
0
174
0
175
1
176
1
 91
33
178
0
145
0.0
301
CELL_VALUE
 90
4
  1
0,434 kg.
304
ACVALUE_END
170
5
140
0.125
171
1
172
0
173
0
174
0
175
1
176
1
 91
33
178
0
145
0.0
301
CELL_VALUE
 90
4
  1
Mounting Hole Diameter
304
ACVALUE_END
170
5
140
0.125
171
1
172
0
173
0
174
0
175
1
176
1
 91
33
178
0
145
0.0
301
CELL_VALUE
 90
4
  1
.28 in.
304
ACVALUE_END
170
5
140
0.125
171
1
172
0
173
0
174
0
175
1
176
1
 91
33
178
0
145
0.0
301
CELL_VALUE
 90
4
  1
7,1 mm
304
ACVALUE_END
170
5
140
0.125
171
1
172
0
173
0
174
0
175
1
176
1
 91
33
178
0
145
0.0
301
CELL_VALUE
 90
4
  1
Mounting Hole Depth
304
ACVALUE_END
170
5
140
0.125
171
1
172
0
173
0
174
0
175
2
176
1
 91
33
178
0
145
0.0
301
CELL_VALUE
 90
4
  1
Through
304
ACVALUE_END
170
5
140
0.125
171
1
172
0
173
1
174
0
175
1
176
1
 91
1
178
0
145
0.0
170
1
171
1
172
0
173
0
174
0
175
1
176
1
 91
33
178
0
145
0.0
301
CELL_VALUE
 90
4
  1
Mounting Hole Quantity
304
ACVALUE_END
170
5
140
0.125
171
1
172
0
173
0
174
0
175
2
176
1
 91
33
178
0
145
0.0
301
CELL_VALUE
 90
4
  1
2
304
ACVALUE_END
170
5
140
0.125
171
1
172
0
173
1
174
0
175
1
176
1
 91
1
178
0
145
0.0
170
1
  0
ACAD_TABLE
  5
286
100
AcDbEntity
  8
0
 62
2
  6
CONTINUOUS
100
AcDbBlockReference
  2
*T3
 10
0.52125
 20
1.709
 30
0.0
100
AcDbTable
342
       3C3
343
20B
 11
1.0
 21
0.0
 31
0.0
 90
22
 91
4
 92
3
 93
16
 94
0
 95
0
 96
0
 41
0.05
141
0.34375
141
0.344
141
0.25
141
0.25
142
1.3
142
2.0
142
1.3
171
1
172
0
173
0
174
0
175
3
176
1
 91
33
178
0
145
0.0
301
CELL_VALUE
 90
4
  1
Port Headings
304
ACVALUE_END
170
5
140
0.145
171
1
172
0
173
1
174
0
175
1
176
1
 91
1
178
0
145
0.0
170
1
171
1
172
0
173
1
174
0
175
1
176
1
 91
1
178
0
145
0.0
170
1
171
1
172
0
173
0
174
0
175
1
176
1
 91
33
178
0
145
0.0
301
CELL_VALUE
 90
4
  1
Product
304
ACVALUE_END
170
5
140
0.145
171
1
172
0
173
0
174
0
175
1
176
1
 91
33
178
0
145
0.0
301
CELL_VALUE
 90
4
  1
Port
304
ACVALUE_END
170
5
140
0.145
171
1
172
0
173
0
174
0
175
1
176
1
 91
33
178
0
145
0.0
301
CELL_VALUE
 90
4
  1
Size
304
ACVALUE_END
170
5
140
0.145
171
1
172
0
173
0
174
0
175
1
176
1
 91
33
178
0
145
0.0
301
CELL_VALUE
 90
4
  1
X5P
304
ACVALUE_END
170
5
140
0.125
171
1
172
0
173
0
174
0
175
1
176
1
 91
33
178
0
145
0.0
301
CELL_VALUE
 90
4
  1
Ports 1 &  2
304
ACVALUE_END
170
5
140
0.125
171
1
172
0
173
0
174
0
175
1
176
1
 91
33
178
0
145
0.0
301
CELL_VALUE
 90
4
  1
3/8" BSPP
304
ACVALUE_END
170
5
140
0.125
171
1
172
0
173
0
174
0
175
1
176
1
 91
33
178
0
145
0.0
301
CELL_VALUE
 90
4
  1
X5P
304
ACVALUE_END
170
5
140
0.125
171
1
172
0
173
0
174
0
175
1
176
1
 91
33
178
0
145
0.0
301
CELL_VALUE
 90
4
  1
Gage Port (Plugged)
304
ACVALUE_END
170
5
140
0.125
171
1
172
0
173
0
174
0
175
1
176
1
 91
33
178
0
145
0.0
301
CELL_VALUE
 90
4
  1
1/4" BSPP
304
ACVALUE_END
170
5
140
0.125
  0
MTEXT
  5
287
100
AcDbEntity
  8
0
100
AcDbMText
 62
2
  6
CONTINUOUS
  7
STANDARD
 71
1
 72
1
 10
0.52125
 20
5.75995
 30
0.0
 11
1.0
 21
0.0
 31
0.0
 44
0.6
  3
Notes\P \P1. Important: Carefully consider\P   the maximum system pressure. The\P   pressure rating of the manifold is\P   dependent on the manifold material,\P   with the port type/size a secondary\P   consideration. Manifolds\P   constructed of alu
  1
minum are not\P   rated for pressures higher than\P   3000 psi (210 bar), regardless of\P   the port type/size specified.
 40
0.1
 41
3.04
  0
LINE
  5
288
100
AcDbEntity
  8
0
100
AcDbLine
 62
7
  6
CONTINUOUS
 10
0.30125
 20
0.30125
 11
0.30125
 21
16.69875
  0
LINE
  5
289
100
AcDbEntity
  8
0
100
AcDbLine
 62
7
  6
CONTINUOUS
 10
0.30125
 20
0.30125
 11
21.69875
 21
0.30125
  0
LINE
  5
28A
100
AcDbEntity
  8
0
100
AcDbLine
 62
7
  6
CONTINUOUS
 10
0.30125
 20
16.69875
 11
21.69875
 21
16.69875
  0
LINE
  5
28B
100
AcDbEntity
  8
0
100
AcDbLine
 62
7
  6
CONTINUOUS
 10
21.69875
 20
0.30125
 11
21.69875
 21
16.69875
  0
LINE
  5
28C
100
AcDbEntity
  8
0
100
AcDbLine
 62
7
  6
CONTINUOUS
 10
8.8070701108
 20
12.3494099593
 11
8.1600230321
 21
11.724410438
  0
LINE
  5
28D
100
AcDbEntity
  8
0
100
AcDbLine
 62
7
  6
CONTINUOUS
 10
10.6889949904
 20
4.7945369821
 11
10.7393263109
 21
4.7696742735
  0
LINE
  5
28E
100
AcDbEntity
  8
0
100
AcDbLine
 62
7
  6
CONTINUOUS
 10
8.1600230321
 20
11.724410438
 11
8.1600230321
 21
5.9288551369
  0
LINE
  5
28F
100
AcDbEntity
  8
0
100
AcDbLine
 62
4
  6
CONTINUOUS
 10
9.8648822009
 20
11.4554936851
 11
9.8938599767
 21
11.4728025822
  0
LINE
  5
290
100
AcDbEntity
  8
0
100
AcDbLine
 62
4
  6
CONTINUOUS
 10
9.9228377526
 20
11.2582892776
 11
9.8938599767
 21
11.2409803753
  0
LINE
  5
291
100
AcDbEntity
  8
0
100
AcDbLine
 62
4
  6
CONTINUOUS
 10
8.3957090151
 20
7.7748153217
 11
8.3957090151
 21
7.5429931148
  0
LINE
  5
292
100
AcDbEntity
  8
0
100
AcDbLine
 62
4
  6
CONTINUOUS
 10
9.8503933129
 20
11.4371799665
 11
9.8648822009
 21
11.4554936851
  0
LINE
  5
293
100
AcDbEntity
  8
0
100
AcDbLine
 62
4
  6
CONTINUOUS
 10
9.9373266405
 20
11.2766029876
 11
9.9228377526
 21
11.2582892776
  0
LINE
  5
294
100
AcDbEntity
  8
0
100
AcDbLine
 62
7
  6
CONTINUOUS
 10
8.1600230321
 20
5.9288551369
 11
12.9896524497
 21
5.5939191992
  0
LINE
  5
295
100
AcDbEntity
  8
0
100
AcDbLine
 62
4
  6
CONTINUOUS
 10
11.4886035444
 20
5.8177921019
 11
11.4306479927
 21
5.8218113331
  0
LINE
  5
296
100
AcDbEntity
  8
0
100
AcDbLine
 62
4
  6
CONTINUOUS
 10
11.0394480186
 20
5.8489411435
 11
11.0104702427
 21
5.850950759
  0
LINE
  5
297
100
AcDbEntity
  8
0
100
AcDbLine
 62
4
  6
CONTINUOUS
 10
11.6769590874
 20
5.8820036719
 11
11.763892415
 21
5.8759748252
  0
LINE
  5
298
100
AcDbEntity
  8
0
100
AcDbLine
 62
4
  6
CONTINUOUS
 10
11.0104702427
 20
6.0827729659
 11
11.0394480186
 21
6.0807633503
  0
LINE
  5
299
100
AcDbEntity
  8
0
100
AcDbLine
 62
4
  6
CONTINUOUS
 10
11.4306479927
 20
6.05363354
 11
11.4886035444
 21
6.0496143088
  0
LINE
  5
29A
100
AcDbEntity
  8
0
100
AcDbLine
 62
4
  6
CONTINUOUS
 10
9.835904425
 20
11.399547749
 11
9.8503933129
 21
11.4371799665
  0
LINE
  5
29B
100
AcDbEntity
  8
0
100
AcDbLine
 62
4
  6
CONTINUOUS
 10
9.9518155284
 20
11.3142352154
 11
9.9373266405
 21
11.2766029876
  0
LINE
  5
29C
100
AcDbEntity
  8
0
100
AcDbLine
 62
4
  6
CONTINUOUS
 10
11.0104702427
 20
5.850950759
 11
10.9814924669
 21
5.8722788924
  0
LINE
  5
29D
100
AcDbEntity
  8
0
100
AcDbLine
 62
4
  6
CONTINUOUS
 10
11.0394480186
 20
6.0807633503
 11
11.0684257944
 21
6.0594352221
  0
LINE
  5
29E
100
AcDbEntity
  8
0
100
AcDbLine
 62
4
  6
CONTINUOUS
 10
9.1983933561
 20
11.5210333561
 11
9.1983933561
 21
11.2892111493
  0
LINE
  5
29F
100
AcDbEntity
  8
0
100
AcDbLine
 62
4
  6
CONTINUOUS
 10
10.0532377439
 20
11.2299274896
 11
10.1256821836
 21
11.4567256575
  0
LINE
  5
2A0
100
AcDbEntity
  8
0
100
AcDbLine
 62
4
  6
CONTINUOUS
 10
9.4902410105
 20
9.3001384464
 11
9.5233584701
 21
9.3309591989
  0
LINE
  5
2A1
100
AcDbEntity
  8
0
100
AcDbLine
 62
4
  6
CONTINUOUS
 10
11.4886035444
 20
6.0496143088
 11
11.5175813202
 21
6.0282861806
  0
LINE
  5
2A2
100
AcDbEntity
  8
0
100
AcDbLine
 62
4
  6
CONTINUOUS
 10
9.4902410105
 20
9.2670209902
 11
9.4902410105
 21
9.3001384464
  0
LINE
  5
2A3
100
AcDbEntity
  8
0
100
AcDbLine
 62
4
  6
CONTINUOUS
 10
9.6061521139
 20
9.1265126929
 11
9.6061521139
 21
9.1596301526
  0
LINE
  5
2A4
100
AcDbEntity
  8
0
100
AcDbLine
 62
4
  6
CONTINUOUS
 10
9.6620377699
 20
11.4888795068
 11
9.6620377699
 21
11.2570573
  0
LINE
  5
2A5
100
AcDbEntity
  8
0
100
AcDbLine
 62
4
  6
CONTINUOUS
 10
9.6723870262
 20
9.3206240334
 11
9.6723870262
 21
9.1219192862
  0
LINE
  5
2A6
100
AcDbEntity
  8
0
100
AcDbLine
 62
4
  6
CONTINUOUS
 10
9.7441415472
 20
7.9015323786
 11
9.7441415472
 21
8.1333545855
  0
LINE
  5
2A7
100
AcDbEntity
  8
0
100
AcDbLine
 62
4
  6
CONTINUOUS
 10
9.5730346577
 20
9.0956919367
 11
9.6061521139
 21
9.1265126929
  0
LINE
  5
2A8
100
AcDbEntity
  8
0
100
AcDbLine
 62
4
  6
CONTINUOUS
 10
9.7551806873
 20
9.0830600667
 11
9.7882981296
 21
9.1138808239
  0
LINE
  5
2A9
100
AcDbEntity
  8
0
100
AcDbLine
 62
7
  6
CONTINUOUS
 10
13.5512040725
 20
6.8903728134
 11
13.2305166792
 21
6.9126125597
  0
LINE
  5
2AA
100
AcDbEntity
  8
0
100
AcDbLine
 62
4
  6
CONTINUOUS
 10
10.9814924669
 20
5.8722788924
 11
10.952514691
 21
5.9129255419
  0
LINE
  5
2AB
100
AcDbEntity
  8
0
100
AcDbLine
 62
4
  6
CONTINUOUS
 10
11.0684257944
 20
6.0594352221
 11
11.0829146824
 21
6.0391118879
  0
LINE
  5
2AC
100
AcDbEntity
  8
0
100
AcDbLine
 62
4
  6
CONTINUOUS
 10
9.7882981296
 20
9.1138808239
 11
9.7882981296
 21
9.3125855711
  0
LINE
  5
2AD
100
AcDbEntity
  8
0
100
AcDbLine
 62
4
  6
CONTINUOUS
 10
9.835904425
 20
11.3222736778
 11
9.835904425
 21
11.399547749
  0
LINE
  5
2AE
100
AcDbEntity
  8
0
100
AcDbLine
 62
4
  6
CONTINUOUS
 10
9.8545330419
 20
9.0761699575
 11
9.8545330419
 21
9.3079921643
  0
LINE
  5
2AF
100
AcDbEntity
  8
0
100
AcDbLine
 62
4
  6
CONTINUOUS
 10
9.8600526368
 20
8.092198668
 11
9.8600526368
 21
7.9266113769
  0
LINE
  5
2B0
100
AcDbEntity
  8
0
100
AcDbLine
 62
4
  6
CONTINUOUS
 10
9.9518155284
 20
11.3915092867
 11
9.9518155284
 21
11.3142352154
  0
LINE
  5
2B1
100
AcDbEntity
  8
0
100
AcDbLine
 62
4
  6
CONTINUOUS
 10
9.9704441454
 20
9.0681314952
 11
9.9704441454
 21
9.299953702
  0
LINE
  5
2B2
100
AcDbEntity
  8
0
100
AcDbLine
 62
4
  6
CONTINUOUS
 10
12.7278865454
 20
7.2425555827
 11
12.6989087696
 21
7.2445651983
  0
LINE
  5
2B3
100
AcDbEntity
  8
0
100
AcDbLine
 62
4
  6
CONTINUOUS
 10
12.7133976575
 20
7.3594714939
 11
12.7713532092
 21
7.3554522628
  0
LINE
  5
2B4
100
AcDbEntity
  8
0
100
AcDbLine
 62
4
  6
CONTINUOUS
 10
9.6116717088
 20
8.0100715685
 11
9.6999849321
 21
7.959790414
  0
LINE
  5
2B5
100
AcDbEntity
  8
0
100
AcDbLine
 62
4
  6
CONTINUOUS
 10
9.8269351806
 20
8.1276128275
 11
9.8600526368
 21
8.092198668
  0
LINE
  5
2B6
100
AcDbEntity
  8
0
100
AcDbLine
 62
4
  6
CONTINUOUS
 10
11.5175813202
 20
6.0282861806
 11
11.5465590961
 21
5.9876395259
  0
LINE
  5
2B7
100
AcDbEntity
  8
0
100
AcDbLine
 62
4
  6
CONTINUOUS
 10
10.0201203484
 20
8.1142153906
 11
10.0863552884
 21
7.8777997751
  0
LINE
  5
2B8
100
AcDbEntity
  8
0
100
AcDbLine
 62
4
  6
CONTINUOUS
 10
10.2188251129
 20
7.8686129615
 11
10.2188251129
 21
8.1004351684
  0
LINE
  5
2B9
100
AcDbEntity
  8
0
100
AcDbLine
 62
4
  6
CONTINUOUS
 10
10.2188250734
 20
9.0509062193
 11
10.2188250734
 21
9.2827284262
  0
LINE
  5
2BA
100
AcDbEntity
  8
0
100
AcDbLine
 62
4
  6
CONTINUOUS
 10
10.3181774557
 20
9.1930446678
 11
10.3181774557
 21
9.0440161082
  0
LINE
  5
2BB
100
AcDbEntity
  8
0
100
AcDbLine
 62
4
  6
CONTINUOUS
 10
10.3512949375
 20
7.859426148
 11
10.3512949375
 21
8.0912483549
  0
LINE
  5
2BC
100
AcDbEntity
  8
0
100
AcDbLine
 62
4
  6
CONTINUOUS
 10
9.9538854361
 20
7.8869865905
 11
10.0201203484
 21
8.1142153906
  0
LINE
  5
2BD
100
AcDbEntity
  8
0
100
AcDbLine
 62
4
  6
CONTINUOUS
 10
10.4175298379
 20
8.9819302334
 11
10.4837647226
 21
9.1981198868
  0
LINE
  5
2BE
100
AcDbEntity
  8
0
100
AcDbLine
 62
7
  6
CONTINUOUS
 10
13.6366995284
 20
12.0144740216
 11
12.9896524497
 21
11.3894745003
  0
LINE
  5
2BF
100
AcDbEntity
  8
0
100
AcDbLine
 62
4
  6
CONTINUOUS
 10
10.5279213861
 20
9.1784988768
 11
10.5610388284
 21
9.1927609093
  0
LINE
  5
2C0
100
AcDbEntity
  8
0
100
AcDbLine
 62
4
  6
CONTINUOUS
 10
12.6989087696
 20
7.4763874051
 11
12.7278865454
 21
7.4743777896
  0
LINE
  5
2C1
100
AcDbEntity
  8
0
100
AcDbLine
 62
7
  6
CONTINUOUS
 10
13.7239224031
 20
7.5598153824
 11
13.6017599147
 21
7.5682873798
  0
LINE
  5
2C2
100
AcDbEntity
  8
0
100
AcDbLine
 62
4
  6
CONTINUOUS
 10
11.157153051
 20
7.803539698
 11
11.0743593899
 21
7.8092814579
  0
LINE
  5
2C3
100
AcDbEntity
  8
0
100
AcDbLine
 62
4
  6
CONTINUOUS
 10
10.9750070629
 20
7.8161715652
 11
10.9253308441
 21
7.8196166227
  0
LINE
  5
2C4
100
AcDbEntity
  8
0
100
AcDbLine
 62
4
  6
CONTINUOUS
 10
10.7983806301
 20
7.8284206499
 11
10.7321457454
 21
7.8330140548
  0
LINE
  5
2C5
100
AcDbEntity
  8
0
100
AcDbLine
 62
4
  6
CONTINUOUS
 10
9.8269351806
 20
7.8957906207
 11
9.7441415472
 21
7.9015323786
  0
LINE
  5
2C6
100
AcDbEntity
  8
0
100
AcDbLine
 62
4
  6
CONTINUOUS
 10
10.3512949375
 20
7.859426148
 11
10.4506473198
 21
7.8525360369
  0
LINE
  5
2C7
100
AcDbEntity
  8
0
100
AcDbLine
 62
4
  6
CONTINUOUS
 10
11.2841033756
 20
7.7947356631
 11
11.3834557026
 21
7.7878455558
  0
LINE
  5
2C8
100
AcDbEntity
  8
0
100
AcDbLine
 62
4
  6
CONTINUOUS
 10
9.9759637402
 20
7.9516903742
 11
10.0642769566
 21
7.9455658318
  0
LINE
  5
2C9
100
AcDbEntity
  8
0
100
AcDbLine
 62
4
  6
CONTINUOUS
 10
9.4902410105
 20
9.1179924255
 11
9.5067997403
 21
9.1002853439
  0
LINE
  5
2CA
100
AcDbEntity
  8
0
100
AcDbLine
 62
4
  6
CONTINUOUS
 10
10.7321457454
 20
7.8330140548
 11
10.6990283031
 21
7.8684282168
  0
LINE
  5
2CB
100
AcDbEntity
  8
0
100
AcDbLine
 62
4
  6
CONTINUOUS
 10
11.1988257858
 20
6.0697104646
 11
11.3147368892
 21
5.8298497954
  0
LINE
  5
2CC
100
AcDbEntity
  8
0
100
AcDbLine
 62
4
  6
CONTINUOUS
 10
9.8545330419
 20
9.3079921643
 11
9.9704441454
 21
9.0681314952
  0
LINE
  5
2CD
100
AcDbEntity
  8
0
100
AcDbLine
 62
4
  6
CONTINUOUS
 10
10.952514691
 20
5.9129255419
 11
10.9380258031
 21
5.9718859014
  0
LINE
  5
2CE
100
AcDbEntity
  8
0
100
AcDbLine
 62
4
  6
CONTINUOUS
 10
10.5279213861
 20
9.046029047
 11
10.5279213861
 21
9.1784988768
  0
LINE
  5
2CF
100
AcDbEntity
  8
0
100
AcDbLine
 62
4
  6
CONTINUOUS
 10
10.5334409464
 20
8.4892729729
 11
10.5334409464
 21
8.5886253413
  0
LINE
  5
2D0
100
AcDbEntity
  8
0
100
AcDbLine
 62
7
  6
CONTINUOUS
 10
10.5428282377
 20
5.7293938196
 11
10.5428282377
 21
4.8881953681
  0
LINE
  5
2D1
100
AcDbEntity
  8
0
100
AcDbLine
 62
7
  6
CONTINUOUS
 10
10.5734867106
 20
5.6997800594
 11
10.5734867106
 21
4.8585816079
  0
LINE
  5
2D2
100
AcDbEntity
  8
0
100
AcDbLine
 62
4
  6
CONTINUOUS
 10
10.627273713
 20
9.2544024168
 11
10.627273713
 21
9.0225802099
  0
LINE
  5
2D3
100
AcDbEntity
  8
0
100
AcDbLine
 62
4
  6
CONTINUOUS
 10
10.6327933149
 20
8.3830304839
 11
10.6327933149
 21
8.4492653997
  0
LINE
  5
2D4
100
AcDbEntity
  8
0
100
AcDbLine
 62
4
  6
CONTINUOUS
 10
10.6935087083
 20
9.0179867974
 11
10.6935087083
 21
9.183574092
  0
LINE
  5
2D5
100
AcDbEntity
  8
0
100
AcDbLine
 62
4
  6
CONTINUOUS
 10
10.6990282272
 20
8.3453196176
 11
10.6990282272
 21
8.5771418244
  0
LINE
  5
2D6
100
AcDbEntity
  8
0
100
AcDbLine
 62
4
  6
CONTINUOUS
 10
10.6990283031
 20
7.8684282168
 11
10.6990283031
 21
8.0340155079
  0
LINE
  5
2D7
100
AcDbEntity
  8
0
100
AcDbLine
 62
4
  6
CONTINUOUS
 10
10.3347361957
 20
8.3705833558
 11
10.4672060341
 21
8.5932187481
  0
LINE
  5
2D8
100
AcDbEntity
  8
0
100
AcDbLine
 62
4
  6
CONTINUOUS
 10
9.8600526368
 20
7.9266113769
 11
9.8269351806
 21
7.8957906207
  0
LINE
  5
2D9
100
AcDbEntity
  8
0
100
AcDbLine
 62
4
  6
CONTINUOUS
 10
12.6409532178
 20
9.8140836809
 11
12.6699309937
 21
9.831392578
  0
LINE
  5
2DA
100
AcDbEntity
  8
0
100
AcDbLine
 62
4
  6
CONTINUOUS
 10
10.842537254
 20
9.0738865519
 11
10.8756546963
 21
9.0881485775
  0
LINE
  5
2DB
100
AcDbEntity
  8
0
100
AcDbLine
 62
4
  6
CONTINUOUS
 10
11.3503382602
 20
7.9226120967
 11
11.2841033756
 21
7.9272055015
  0
LINE
  5
2DC
100
AcDbEntity
  8
0
100
AcDbLine
 62
4
  6
CONTINUOUS
 10
10.4175298775
 20
7.9873025777
 11
10.3512949375
 21
7.9918959864
  0
LINE
  5
2DD
100
AcDbEntity
  8
0
100
AcDbLine
 62
7
  6
CONTINUOUS
 10
13.7239224031
 20
7.8230391949
 11
13.6414065469
 21
7.828761689
  0
LINE
  5
2DE
100
AcDbEntity
  8
0
100
AcDbLine
 62
4
  6
CONTINUOUS
 10
9.7441415472
 20
8.1333545855
 11
9.8269351806
 21
8.1276128275
  0
LINE
  5
2DF
100
AcDbEntity
  8
0
100
AcDbLine
 62
4
  6
CONTINUOUS
 10
10.152590173
 20
8.1050285771
 11
10.2850599976
 21
8.0958417636
  0
LINE
  5
2E0
100
AcDbEntity
  8
0
100
AcDbLine
 62
4
  6
CONTINUOUS
 10
10.3512949375
 20
8.0912483549
 11
10.4506473198
 21
8.0843582438
  0
LINE
  5
2E1
100
AcDbEntity
  8
0
100
AcDbLine
 62
4
  6
CONTINUOUS
 10
10.7321457454
 20
8.0648362616
 11
10.7983806301
 21
8.0602428568
  0
LINE
  5
2E2
100
AcDbEntity
  8
0
100
AcDbLine
 62
4
  6
CONTINUOUS
 10
10.9253308441
 20
8.0514388295
 11
10.9750070629
 21
8.0479937721
  0
LINE
  5
2E3
100
AcDbEntity
  8
0
100
AcDbLine
 62
4
  6
CONTINUOUS
 10
11.0743593899
 20
8.0411036648
 11
11.157153051
 21
8.0353619049
  0
LINE
  5
2E4
100
AcDbEntity
  8
0
100
AcDbLine
 62
4
  6
CONTINUOUS
 10
11.2841033756
 20
8.02655787
 11
11.3834557026
 21
8.0196677627
  0
LINE
  5
2E5
100
AcDbEntity
  8
0
100
AcDbLine
 62
4
  6
CONTINUOUS
 10
9.6061521139
 20
9.1596301526
 11
9.4902410105
 21
9.2670209902
  0
LINE
  5
2E6
100
AcDbEntity
  8
0
100
AcDbLine
 62
4
  6
CONTINUOUS
 10
9.6723870262
 20
9.1219192862
 11
9.7055044823
 21
9.0865051232
  0
LINE
  5
2E7
100
AcDbEntity
  8
0
100
AcDbLine
 62
4
  6
CONTINUOUS
 10
10.9253308441
 20
7.8196166227
 11
10.8922134018
 21
7.8550307847
  0
LINE
  5
2E8
100
AcDbEntity
  8
0
100
AcDbLine
 62
4
  6
CONTINUOUS
 10
9.5895933858
 20
9.3263657919
 11
9.6061521139
 21
9.3086587052
  0
LINE
  5
2E9
100
AcDbEntity
  8
0
100
AcDbLine
 62
4
  6
CONTINUOUS
 10
10.9750070629
 20
8.0479937721
 11
11.0081245052
 21
8.0125796135
  0
LINE
  5
2EA
100
AcDbEntity
  8
0
100
AcDbLine
 62
4
  6
CONTINUOUS
 10
10.6327933149
 20
8.4492653997
 11
10.5996758725
 21
8.4846795652
  0
LINE
  5
2EB
100
AcDbEntity
  8
0
100
AcDbLine
 62
4
  6
CONTINUOUS
 10
10.3347361957
 20
8.6024055626
 11
10.4672060341
 21
8.3613965413
  0
LINE
  5
2EC
100
AcDbEntity
  8
0
100
AcDbLine
 62
4
  6
CONTINUOUS
 10
10.3844123956
 20
9.2050099941
 11
10.4340886144
 21
9.035977642
  0
LINE
  5
2ED
100
AcDbEntity
  8
0
100
AcDbLine
 62
4
  6
CONTINUOUS
 10
10.7707827035
 20
9.1616563872
 11
10.7707827035
 21
9.1285389311
  0
LINE
  5
2EE
100
AcDbEntity
  8
0
100
AcDbLine
 62
4
  6
CONTINUOUS
 10
10.8149393306
 20
8.535985906
 11
10.8149393306
 21
8.4697509937
  0
LINE
  5
2EF
100
AcDbEntity
  8
0
100
AcDbLine
 62
4
  6
CONTINUOUS
 10
10.842537254
 20
9.0242103625
 11
10.842537254
 21
9.0738865519
  0
LINE
  5
2F0
100
AcDbEntity
  8
0
100
AcDbLine
 62
4
  6
CONTINUOUS
 10
10.8922134018
 20
7.8550307847
 11
10.8922134018
 21
8.0206180758
  0
LINE
  5
2F1
100
AcDbEntity
  8
0
100
AcDbLine
 62
4
  6
CONTINUOUS
 10
10.941889581
 20
9.0007615254
 11
10.941889581
 21
9.1332313638
  0
LINE
  5
2F2
100
AcDbEntity
  8
0
100
AcDbLine
 62
4
  6
CONTINUOUS
 10
11.0081244657
 20
9.1617554151
 11
11.0081244657
 21
9.0127268503
  0
LINE
  5
2F3
100
AcDbEntity
  8
0
100
AcDbLine
 62
4
  6
CONTINUOUS
 10
11.0081245052
 20
8.0125796135
 11
11.0081245052
 21
7.8469923224
  0
LINE
  5
2F4
100
AcDbEntity
  8
0
100
AcDbLine
 62
4
  6
CONTINUOUS
 10
11.41105355
 20
9.1172534532
 11
11.4276122159
 21
9.1326638408
  0
LINE
  5
2F5
100
AcDbEntity
  8
0
100
AcDbLine
 62
4
  6
CONTINUOUS
 10
10.5996758725
 20
8.3522097268
 11
10.6327933149
 21
8.3830304839
  0
LINE
  5
2F6
100
AcDbEntity
  8
0
100
AcDbLine
 62
4
  6
CONTINUOUS
 10
10.8149393306
 20
8.4697509937
 11
10.7818218883
 21
8.438930233
  0
LINE
  5
2F7
100
AcDbEntity
  8
0
100
AcDbLine
 62
4
  6
CONTINUOUS
 10
11.5600822063
 20
9.1069182808
 11
11.5766408722
 21
9.1223286684
  0
LINE
  5
2F8
100
AcDbEntity
  8
0
100
AcDbLine
 62
4
  6
CONTINUOUS
 10
12.7278865454
 20
9.730780756
 11
12.6699309937
 21
9.696162955
  0
LINE
  5
2F9
100
AcDbEntity
  8
0
100
AcDbLine
 62
4
  6
CONTINUOUS
 10
9.6999849321
 20
8.0481036408
 11
9.6116717088
 21
8.0100715685
  0
LINE
  5
2FA
100
AcDbEntity
  8
0
100
AcDbLine
 62
4
  6
CONTINUOUS
 10
10.5334409464
 20
8.3568031345
 11
10.5996758725
 21
8.3522097268
  0
LINE
  5
2FB
100
AcDbEntity
  8
0
100
AcDbLine
 62
4
  6
CONTINUOUS
 10
10.7818218883
 20
8.438930233
 11
10.6990282272
 21
8.4446719929
  0
LINE
  5
2FC
100
AcDbEntity
  8
0
100
AcDbLine
 62
4
  6
CONTINUOUS
 10
10.5996758725
 20
8.4846795652
 11
10.5334409464
 21
8.4892729729
  0
LINE
  5
2FD
100
AcDbEntity
  8
0
100
AcDbLine
 62
4
  6
CONTINUOUS
 10
11.4496905872
 20
7.9267611414
 11
11.5380038036
 21
7.876479984
  0
LINE
  5
2FE
100
AcDbEntity
  8
0
100
AcDbLine
 62
4
  6
CONTINUOUS
 10
12.6989087696
 20
7.2445651983
 11
12.6699309937
 21
7.2658933317
  0
LINE
  5
2FF
100
AcDbEntity
  8
0
100
AcDbLine
 62
4
  6
CONTINUOUS
 10
11.157153051
 20
8.0353619049
 11
11.1902704933
 21
7.9999477463
  0
LINE
  5
300
100
AcDbEntity
  8
0
100
AcDbLine
 62
4
  6
CONTINUOUS
 10
10.7818218883
 20
8.5714000645
 11
10.8149393306
 21
8.535985906
  0
LINE
  5
301
100
AcDbEntity
  8
0
100
AcDbLine
 62
4
  6
CONTINUOUS
 10
10.3016187345
 20
9.210751754
 11
10.3181774557
 21
9.1930446678
  0
LINE
  5
302
100
AcDbEntity
  8
0
100
AcDbLine
 62
4
  6
CONTINUOUS
 10
9.8503933129
 20
11.2826318343
 11
9.835904425
 21
11.3222736778
  0
LINE
  5
303
100
AcDbEntity
  8
0
100
AcDbLine
 62
4
  6
CONTINUOUS
 10
9.9373266405
 20
11.4311511197
 11
9.9518155284
 21
11.3915092867
  0
LINE
  5
304
100
AcDbEntity
  8
0
100
AcDbLine
 62
4
  6
CONTINUOUS
 10
11.7204257512
 20
6.0335373842
 11
11.7928701909
 21
5.7966911383
  0
LINE
  5
305
100
AcDbEntity
  8
0
100
AcDbLine
 62
4
  6
CONTINUOUS
 10
10.1256821836
 20
11.4567256575
 11
10.1981266232
 21
11.2198794117
  0
LINE
  5
306
100
AcDbEntity
  8
0
100
AcDbLine
 62
4
  6
CONTINUOUS
 10
11.5465590961
 20
5.9876395259
 11
11.561047984
 21
5.9286791664
  0
LINE
  5
307
100
AcDbEntity
  8
0
100
AcDbLine
 62
4
  6
CONTINUOUS
 10
11.0743593899
 20
7.8092814579
 11
11.0743593899
 21
8.0411036648
  0
LINE
  5
308
100
AcDbEntity
  8
0
100
AcDbLine
 62
4
  6
CONTINUOUS
 10
11.1074769032
 20
8.9892780056
 11
11.1074769032
 21
9.1548653001
  0
LINE
  5
309
100
AcDbEntity
  8
0
100
AcDbLine
 62
4
  6
CONTINUOUS
 10
11.1737117879
 20
9.0012433305
 11
11.1737117879
 21
9.2165068076
  0
LINE
  5
30A
100
AcDbEntity
  8
0
100
AcDbLine
 62
4
  6
CONTINUOUS
 10
11.1902704933
 20
7.9999477463
 11
11.1902704933
 21
7.8343604552
  0
LINE
  5
30B
100
AcDbEntity
  8
0
100
AcDbLine
 62
7
  6
CONTINUOUS
 10
11.1912293178
 20
5.5398967104
 11
11.1912293178
 21
4.6986982589
  0
LINE
  5
30C
100
AcDbEntity
  8
0
100
AcDbLine
 62
4
  6
CONTINUOUS
 10
11.2841033756
 20
7.7947356631
 11
11.2841033756
 21
8.02655787
  0
LINE
  5
30D
100
AcDbEntity
  8
0
100
AcDbLine
 62
7
  6
CONTINUOUS
 10
11.3056482087
 20
5.5319617334
 11
11.3056482087
 21
4.6907632819
  0
LINE
  5
30E
100
AcDbEntity
  8
0
100
AcDbLine
 62
4
  6
CONTINUOUS
 10
11.3227403336
 20
8.974349436
 11
11.3227403336
 21
9.1399367305
  0
LINE
  5
30F
100
AcDbEntity
  8
0
100
AcDbLine
 62
4
  6
CONTINUOUS
 10
11.3227403336
 20
9.1896129079
 11
11.3227403336
 21
9.2061716428
  0
LINE
  5
310
100
AcDbEntity
  8
0
100
AcDbLine
 62
4
  6
CONTINUOUS
 10
11.3282598889
 20
9.2057888604
 11
11.3227403336
 21
9.1896129079
  0
LINE
  5
311
100
AcDbEntity
  8
0
100
AcDbLine
 62
4
  6
CONTINUOUS
 10
11.6428757569
 20
8.952147969
 11
11.6594344228
 21
8.9675583514
  0
LINE
  5
312
100
AcDbEntity
  8
0
100
AcDbLine
 62
4
  6
CONTINUOUS
 10
10.6990283031
 20
8.0340155079
 11
10.7321457454
 21
8.0648362616
  0
LINE
  5
313
100
AcDbEntity
  8
0
100
AcDbLine
 62
4
  6
CONTINUOUS
 10
10.8922134018
 20
8.0206180758
 11
10.9253308441
 21
8.0514388295
  0
LINE
  5
314
100
AcDbEntity
  8
0
100
AcDbLine
 62
4
  6
CONTINUOUS
 10
10.5334409464
 20
8.5886253413
 11
10.6327933149
 21
8.5817352312
  0
LINE
  5
315
100
AcDbEntity
  8
0
100
AcDbLine
 62
4
  6
CONTINUOUS
 10
10.6990282272
 20
8.5771418244
 11
10.7818218883
 21
8.5714000645
  0
LINE
  5
316
100
AcDbEntity
  8
0
100
AcDbLine
 62
7
  6
CONTINUOUS
 10
13.6547034357
 20
8.3827882656
 11
13.3340160424
 21
8.4050280118
  0
LINE
  5
317
100
AcDbEntity
  8
0
100
AcDbLine
 62
4
  6
CONTINUOUS
 10
10.5610388284
 20
9.0271736148
 11
10.5279213861
 21
9.046029047
  0
LINE
  5
318
100
AcDbEntity
  8
0
100
AcDbLine
 62
4
  6
CONTINUOUS
 10
12.7278865454
 20
7.4743777896
 11
12.7568643213
 21
7.4530496613
  0
LINE
  5
319
100
AcDbEntity
  8
0
100
AcDbLine
 62
4
  6
CONTINUOUS
 10
11.0081244657
 20
9.0127268503
 11
11.0246832421
 21
8.9950197655
  0
LINE
  5
31A
100
AcDbEntity
  8
0
100
AcDbLine
 62
4
  6
CONTINUOUS
 10
10.7597435929
 20
9.1789806871
 11
10.7707827035
 21
9.1616563872
  0
LINE
  5
31B
100
AcDbEntity
  8
0
100
AcDbLine
 62
4
  6
CONTINUOUS
 10
10.941889581
 20
9.1332313638
 11
10.9253309151
 21
9.1674971673
  0
LINE
  5
31C
100
AcDbEntity
  8
0
100
AcDbLine
 62
4
  6
CONTINUOUS
 10
11.41105355
 20
8.9847836234
 11
11.41105355
 21
9.1172534532
  0
LINE
  5
31D
100
AcDbEntity
  8
0
100
AcDbLine
 62
4
  6
CONTINUOUS
 10
11.4306479927
 20
5.8218113331
 11
11.4306479927
 21
6.05363354
  0
LINE
  5
31E
100
AcDbEntity
  8
0
100
AcDbLine
 62
4
  6
CONTINUOUS
 10
11.5600822063
 20
9.0572420966
 11
11.5600822063
 21
9.1069182808
  0
LINE
  5
31F
100
AcDbEntity
  8
0
100
AcDbLine
 62
4
  6
CONTINUOUS
 10
11.6594344228
 20
8.9675583514
 11
11.6594344228
 21
9.0172345408
  0
LINE
  5
320
100
AcDbEntity
  8
0
100
AcDbLine
 62
4
  6
CONTINUOUS
 10
10.9380258031
 20
5.9718859014
 11
10.952514691
 21
6.0288366453
  0
LINE
  5
321
100
AcDbEntity
  8
0
100
AcDbLine
 62
4
  6
CONTINUOUS
 10
12.6264643299
 20
9.7957699623
 11
12.6409532178
 21
9.8140836809
  0
LINE
  5
322
100
AcDbEntity
  8
0
100
AcDbLine
 62
4
  6
CONTINUOUS
 10
12.6699309937
 20
9.696162955
 11
12.6409532178
 21
9.6595355384
  0
LINE
  5
323
100
AcDbEntity
  8
0
100
AcDbLine
 62
4
  6
CONTINUOUS
 10
12.7423754333
 20
9.7490944747
 11
12.7278865454
 21
9.730780756
  0
LINE
  5
324
100
AcDbEntity
  8
0
100
AcDbLine
 62
4
  6
CONTINUOUS
 10
11.0081245052
 20
7.8469923224
 11
10.9750070629
 21
7.8161715652
  0
LINE
  5
325
100
AcDbEntity
  8
0
100
AcDbLine
 62
4
  6
CONTINUOUS
 10
11.1902704933
 20
7.8343604552
 11
11.157153051
 21
7.803539698
  0
LINE
  5
326
100
AcDbEntity
  8
0
100
AcDbLine
 62
4
  6
CONTINUOUS
 10
10.3844123956
 20
8.9842269358
 11
10.4175298379
 21
8.9819302334
  0
LINE
  5
327
100
AcDbEntity
  8
0
100
AcDbLine
 62
4
  6
CONTINUOUS
 10
11.4938473217
 20
8.962483126
 11
11.4276122159
 21
8.9670765462
  0
LINE
  5
328
100
AcDbEntity
  8
0
100
AcDbLine
 62
4
  6
CONTINUOUS
 10
11.2233880066
 20
8.9812395432
 11
11.1902705643
 21
8.9835362457
  0
LINE
  5
329
100
AcDbEntity
  8
0
100
AcDbLine
 62
4
  6
CONTINUOUS
 10
10.941889581
 20
9.0007615254
 11
10.8756546963
 21
9.0053549302
  0
LINE
  5
32A
100
AcDbEntity
  8
0
100
AcDbLine
 62
4
  6
CONTINUOUS
 10
10.627273713
 20
9.0225802099
 11
10.5610388284
 21
9.0271736148
  0
LINE
  5
32B
100
AcDbEntity
  8
0
100
AcDbLine
 62
4
  6
CONTINUOUS
 10
9.5067997403
 20
9.1002853439
 11
9.5730346577
 21
9.0956919367
  0
LINE
  5
32C
100
AcDbEntity
  8
0
100
AcDbLine
 62
4
  6
CONTINUOUS
 10
9.7055044823
 20
9.0865051232
 11
9.7551806873
 21
9.0830600667
  0
LINE
  5
32D
100
AcDbEntity
  8
0
100
AcDbLine
 62
4
  6
CONTINUOUS
 10
11.0246832421
 20
8.9950197655
 11
11.1074769032
 21
8.9892780056
  0
LINE
  5
32E
100
AcDbEntity
  8
0
100
AcDbLine
 62
4
  6
CONTINUOUS
 10
11.5766408722
 20
8.9567413738
 11
11.6428757569
 21
8.952147969
  0
LINE
  5
32F
100
AcDbEntity
  8
0
100
AcDbLine
 62
4
  6
CONTINUOUS
 10
10.8756546963
 20
9.0881485775
 11
10.941889581
 21
9.0835551727
  0
LINE
  5
330
100
AcDbEntity
  8
0
100
AcDbLine
 62
4
  6
CONTINUOUS
 10
10.9253309151
 20
9.1674971673
 11
10.842537254
 21
9.1732389272
  0
LINE
  5
331
100
AcDbEntity
  8
0
100
AcDbLine
 62
4
  6
CONTINUOUS
 10
10.2188250734
 20
9.2164935139
 11
10.3016187345
 21
9.210751754
  0
LINE
  5
332
100
AcDbEntity
  8
0
100
AcDbLine
 62
4
  6
CONTINUOUS
 10
10.5610388284
 20
9.1927609093
 11
10.627273713
 21
9.1881675045
  0
LINE
  5
333
100
AcDbEntity
  8
0
100
AcDbLine
 62
4
  6
CONTINUOUS
 10
10.6935087083
 20
9.183574092
 11
10.7597435929
 21
9.1789806871
  0
LINE
  5
334
100
AcDbEntity
  8
0
100
AcDbLine
 62
4
  6
CONTINUOUS
 10
11.4276122159
 20
9.1326638408
 11
11.4938473217
 21
9.1280704206
  0
LINE
  5
335
100
AcDbEntity
  8
0
100
AcDbLine
 62
4
  6
CONTINUOUS
 10
11.5766408722
 20
9.1223286684
 11
11.6428757569
 21
9.1177352635
  0
LINE
  5
336
100
AcDbEntity
  8
0
100
AcDbLine
 62
4
  6
CONTINUOUS
 10
11.6428757569
 20
9.0294220402
 11
11.5766408722
 21
9.0450545971
  0
LINE
  5
337
100
AcDbEntity
  8
0
100
AcDbLine
 62
4
  6
CONTINUOUS
 10
10.8756546963
 20
9.0053549302
 11
10.842537254
 21
9.0242103625
  0
LINE
  5
338
100
AcDbEntity
  8
0
100
AcDbLine
 62
4
  6
CONTINUOUS
 10
11.1902705643
 20
8.9835362457
 11
11.1737117879
 21
9.0012433305
  0
LINE
  5
339
100
AcDbEntity
  8
0
100
AcDbLine
 62
4
  6
CONTINUOUS
 10
11.4276122159
 20
8.9670765462
 11
11.41105355
 21
8.9847836234
  0
LINE
  5
33A
100
AcDbEntity
  8
0
100
AcDbLine
 62
4
  6
CONTINUOUS
 10
12.6699309937
 20
7.2658933317
 11
12.6409532178
 21
7.3065399812
  0
LINE
  5
33B
100
AcDbEntity
  8
0
100
AcDbLine
 62
4
  6
CONTINUOUS
 10
9.8648822009
 20
11.2623085087
 11
9.8503933129
 21
11.2826318343
  0
LINE
  5
33C
100
AcDbEntity
  8
0
100
AcDbLine
 62
4
  6
CONTINUOUS
 10
11.5380038036
 20
7.876479984
 11
11.4496905872
 21
7.8384479147
  0
LINE
  5
33D
100
AcDbEntity
  8
0
100
AcDbLine
 62
4
  6
CONTINUOUS
 10
9.5233584701
 20
9.3309591989
 11
9.5895933858
 21
9.3263657919
  0
LINE
  5
33E
100
AcDbEntity
  8
0
100
AcDbLine
 62
4
  6
CONTINUOUS
 10
11.3227403336
 20
9.2061716428
 11
11.3282598889
 21
9.2057888604
  0
LINE
  5
33F
100
AcDbEntity
  8
0
100
AcDbLine
 62
4
  6
CONTINUOUS
 10
11.5766408722
 20
9.0450545971
 11
11.5600822063
 21
9.0572420966
  0
LINE
  5
340
100
AcDbEntity
  8
0
100
AcDbLine
 62
4
  6
CONTINUOUS
 10
11.6594344228
 20
9.0172345408
 11
11.6428757569
 21
9.0294220402
  0
LINE
  5
341
100
AcDbEntity
  8
0
100
AcDbLine
 62
4
  6
CONTINUOUS
 10
11.5600822063
 20
8.974448451
 11
11.5766408722
 21
8.9567413738
  0
LINE
  5
342
100
AcDbEntity
  8
0
100
AcDbLine
 62
4
  6
CONTINUOUS
 10
11.6428757569
 20
9.1177352635
 11
11.6594344228
 21
9.1000281812
  0
LINE
  5
343
100
AcDbEntity
  8
0
100
AcDbLine
 62
4
  6
CONTINUOUS
 10
12.7568643213
 20
7.4530496613
 11
12.7713532092
 21
7.4327263271
  0
LINE
  5
344
100
AcDbEntity
  8
0
100
AcDbLine
 62
4
  6
CONTINUOUS
 10
9.9228377526
 20
11.451474454
 11
9.9373266405
 21
11.4311511197
  0
LINE
  5
345
100
AcDbEntity
  8
0
100
AcDbLine
 62
7
  6
CONTINUOUS
 10
12.1495000665
 20
5.590483162
 11
12.1495000665
 21
4.7492847105
  0
LINE
  5
346
100
AcDbEntity
  8
0
100
AcDbLine
 62
7
  6
CONTINUOUS
 10
12.2332604845
 20
5.6121619451
 11
12.2332604845
 21
4.7709634936
  0
LINE
  5
347
100
AcDbEntity
  8
0
100
AcDbLine
 62
4
  6
CONTINUOUS
 10
11.561047984
 20
5.9286791664
 11
11.5465590961
 21
5.8717284225
  0
LINE
  5
348
100
AcDbEntity
  8
0
100
AcDbLine
 62
4
  6
CONTINUOUS
 10
12.6409532178
 20
9.6595355384
 11
12.6264643299
 21
9.6025847945
  0
LINE
  5
349
100
AcDbEntity
  8
0
100
AcDbLine
 62
4
  6
CONTINUOUS
 10
12.6264643299
 20
9.6025847945
 11
12.7423754333
 21
9.5945463322
  0
LINE
  5
34A
100
AcDbEntity
  8
0
100
AcDbLine
 62
7
  6
CONTINUOUS
 10
13.6017599147
 20
7.4418154728
 11
13.6628411589
 21
7.3692035214
  0
LINE
  5
34B
100
AcDbEntity
  8
0
100
AcDbLine
 62
4
  6
CONTINUOUS
 10
12.6409532178
 20
7.3065399812
 11
12.6264643299
 21
7.3655003407
  0
LINE
  5
34C
100
AcDbEntity
  8
0
100
AcDbLine
 62
7
  6
CONTINUOUS
 10
12.4593697351
 20
5.6306944304
 11
12.4593697351
 21
4.9893682713
  0
LINE
  5
34D
100
AcDbEntity
  8
0
100
AcDbLine
 62
4
  6
CONTINUOUS
 10
11.6479813116
 20
5.8067392162
 11
11.7204257512
 21
6.0335373842
  0
LINE
  5
34E
100
AcDbEntity
  8
0
100
AcDbLine
 62
4
  6
CONTINUOUS
 10
11.1988257858
 20
5.8378882578
 11
11.3147368892
 21
6.0616720023
  0
LINE
  5
34F
100
AcDbEntity
  8
0
100
AcDbLine
 62
4
  6
CONTINUOUS
 10
10.952514691
 20
6.0288366453
 11
10.9814924669
 21
6.0654640688
  0
LINE
  5
350
100
AcDbEntity
  8
0
100
AcDbLine
 62
4
  6
CONTINUOUS
 10
12.6699309937
 20
9.831392578
 11
12.6989087696
 21
9.8293829624
  0
LINE
  5
351
100
AcDbEntity
  8
0
100
AcDbLine
 62
4
  6
CONTINUOUS
 10
9.8938599767
 20
11.2409803753
 11
9.8648822009
 21
11.2623085087
  0
LINE
  5
352
100
AcDbEntity
  8
0
100
AcDbLine
 62
4
  6
CONTINUOUS
 10
12.7423754333
 20
9.7877315
 11
12.7423754333
 21
9.7490944747
  0
LINE
  5
353
100
AcDbEntity
  8
0
100
AcDbLine
 62
4
  6
CONTINUOUS
 10
12.7713532092
 20
7.3554522628
 11
12.7713532092
 21
7.2781781949
  0
LINE
  5
354
100
AcDbEntity
  8
0
100
AcDbLine
 62
4
  6
CONTINUOUS
 10
12.6264643299
 20
7.3655003407
 11
12.6409532178
 21
7.4224510846
  0
LINE
  5
355
100
AcDbEntity
  8
0
100
AcDbLine
 62
4
  6
CONTINUOUS
 10
11.0829146824
 20
5.8845637557
 11
11.0684257944
 21
5.8662500457
  0
LINE
  5
356
100
AcDbEntity
  8
0
100
AcDbLine
 62
4
  6
CONTINUOUS
 10
12.6409532178
 20
7.4224510846
 11
12.6699309937
 21
7.4590785081
  0
LINE
  5
357
100
AcDbEntity
  8
0
100
AcDbLine
 62
4
  6
CONTINUOUS
 10
12.6699309937
 20
7.4590785081
 11
12.6989087696
 21
7.4763874051
  0
LINE
  5
358
100
AcDbEntity
  8
0
100
AcDbLine
 62
4
  6
CONTINUOUS
 10
9.8938599767
 20
11.4728025822
 11
9.9228377526
 21
11.451474454
  0
LINE
  5
359
100
AcDbEntity
  8
0
100
AcDbLine
 62
7
  6
CONTINUOUS
 10
13.7239224031
 20
7.8230391949
 11
13.6628411589
 21
7.8956511464
  0
LINE
  5
35A
100
AcDbEntity
  8
0
100
AcDbLine
 62
7
  6
CONTINUOUS
 10
12.9896524497
 20
5.5939191992
 11
12.9896524497
 21
11.3894745003
  0
LINE
  5
35B
100
AcDbEntity
  8
0
100
AcDbLine
 62
4
  6
CONTINUOUS
 10
11.5465590961
 20
5.8717284225
 11
11.5175813202
 21
5.8351010042
  0
LINE
  5
35C
100
AcDbEntity
  8
0
100
AcDbLine
 62
4
  6
CONTINUOUS
 10
12.7713532092
 20
7.2781781949
 11
12.7568643213
 21
7.2598644849
  0
LINE
  5
35D
100
AcDbEntity
  8
0
100
AcDbLine
 62
4
  6
CONTINUOUS
 10
12.7568643213
 20
7.2598644849
 11
12.7278865454
 21
7.2425555827
  0
LINE
  5
35E
100
AcDbEntity
  8
0
100
AcDbLine
 62
4
  6
CONTINUOUS
 10
10.9814924669
 20
6.0654640688
 11
11.0104702427
 21
6.0827729659
  0
LINE
  5
35F
100
AcDbEntity
  8
0
100
AcDbLine
 62
4
  6
CONTINUOUS
 10
12.6989087696
 20
9.8293829624
 11
12.7278865454
 21
9.8080548342
  0
LINE
  5
360
100
AcDbEntity
  8
0
100
AcDbLine
 62
7
  6
CONTINUOUS
 10
13.7528670761
 20
8.2905148123
 11
13.7011161245
 21
8.3541453119
  0
LINE
  5
361
100
AcDbEntity
  8
0
100
AcDbLine
 62
4
  6
CONTINUOUS
 10
12.7278865454
 20
9.8080548342
 11
12.7423754333
 21
9.7877315
  0
LINE
  5
362
100
AcDbEntity
  8
0
100
AcDbLine
 62
4
  6
CONTINUOUS
 10
11.0684257944
 20
5.8662500457
 11
11.0394480186
 21
5.8489411435
  0
LINE
  5
363
100
AcDbEntity
  8
0
100
AcDbLine
 62
4
  6
CONTINUOUS
 10
11.5175813202
 20
5.8351010042
 11
11.4886035444
 21
5.8177921019
  0
LINE
  5
364
100
AcDbEntity
  8
0
100
AcDbLine
 62
7
  6
CONTINUOUS
 10
13.6017599147
 20
7.7050392853
 11
13.6017599147
 21
7.4418154728
  0
LINE
  5
365
100
AcDbEntity
  8
0
100
AcDbLine
 62
7
  6
CONTINUOUS
 10
13.6366995284
 20
6.2189187204
 11
13.6366995284
 21
6.9454427853
  0
LINE
  5
366
100
AcDbEntity
  8
0
100
AcDbLine
 62
7
  6
CONTINUOUS
 10
13.6366995284
 20
8.3840368408
 11
13.6366995284
 21
12.0144740216
  0
LINE
  5
367
100
AcDbEntity
  8
0
100
AcDbLine
 62
7
  6
CONTINUOUS
 10
13.7239224031
 20
7.5598153824
 11
13.7239224031
 21
7.8230391949
  0
LINE
  5
368
100
AcDbEntity
  8
0
100
AcDbLine
 62
7
  6
CONTINUOUS
 10
13.6628411589
 20
7.8956511464
 11
13.6017599147
 21
7.7050392853
  0
LINE
  5
369
100
AcDbEntity
  8
0
100
AcDbLine
 62
7
  6
CONTINUOUS
 10
13.6628411589
 20
7.3692035214
 11
13.7239224031
 21
7.5598153824
  0
LINE
  5
36A
100
AcDbEntity
  8
0
100
AcDbLine
 62
4
  6
CONTINUOUS
 10
10.0822155198
 20
11.3051919453
 11
10.1691488474
 21
11.2991630986
  0
LINE
  5
36B
100
AcDbEntity
  8
0
100
AcDbLine
 62
4
  6
CONTINUOUS
 10
9.3867488992
 20
11.3920597514
 11
9.4736822268
 21
11.3860309047
  0
LINE
  5
36C
100
AcDbEntity
  8
0
100
AcDbLine
 62
4
  6
CONTINUOUS
 10
9.1259489165
 20
11.5260573951
 11
9.2708377958
 21
11.5160093172
  0
LINE
  5
36D
100
AcDbEntity
  8
0
100
AcDbLine
 62
7
  6
CONTINUOUS
 10
13.6628411589
 20
6.9698021778
 11
13.6611558132
 21
6.9682074354
  0
LINE
  5
36E
100
AcDbEntity
  8
0
100
AcDbLine
 62
7
  6
CONTINUOUS
 10
13.6611651181
 20
6.9682127707
 11
13.6011262344
 21
6.9123349225
  0
LINE
  5
36F
100
AcDbEntity
  8
0
100
AcDbLine
 62
7
  6
CONTINUOUS
 10
12.9896524497
 20
11.3894745003
 11
8.1600230321
 21
11.724410438
  0
LINE
  5
370
100
AcDbEntity
  8
0
100
AcDbLine
 62
7
  6
CONTINUOUS
 10
13.6366995284
 20
6.2189187204
 11
12.9896524497
 21
5.5939191992
  0
LINE
  5
371
100
AcDbEntity
  8
0
100
AcDbLine
 62
7
  6
CONTINUOUS
 10
13.6366995284
 20
12.0144740216
 11
8.8070701108
 21
12.3494099593
  0
LINE
  5
372
100
AcDbEntity
  8
0
100
AcDbLine
 62
7
  6
CONTINUOUS
 10
12.295477406
 20
4.7857808867
 11
12.2628716619
 21
4.7696742735
  0
ARC
  5
373
100
AcDbEntity
  8
0
100
AcDbCircle
 62
7
  6
CONTINUOUS
 10
11.4908239542
 20
8.2003217149
 40
3.5144402757
100
AcDbArc
 50
266.0376720962
 51
266.9796885983
  0
ARC
  5
374
100
AcDbEntity
  8
0
100
AcDbCircle
 62
7
  6
CONTINUOUS
 10
11.4908239542
 20
9.0415201663
 40
3.5144402757
100
AcDbArc
 50
266.0376720962
 51
266.9796885983
  0
ARC
  5
375
100
AcDbEntity
  8
0
100
AcDbCircle
 62
7
  6
CONTINUOUS
 10
11.4804563549
 20
8.0482364586
 40
3.3620021461
100
AcDbArc
 50
265.0648462661
 51
266.0348369886
  0
ARC
  5
376
100
AcDbEntity
  8
0
100
AcDbCircle
 62
7
  6
CONTINUOUS
 10
11.4782610038
 20
8.8612266306
 40
3.3337095895
100
AcDbArc
 50
265.0607301035
 51
266.0389531511
  0
ARC
  5
377
100
AcDbEntity
  8
0
100
AcDbCircle
 62
7
  6
CONTINUOUS
 10
12.1513141547
 20
5.1188171811
 40
1.7204739977
100
AcDbArc
 50
158.0101016107
 51
159.2133818387
  0
ARC
  5
378
100
AcDbEntity
  8
0
100
AcDbCircle
 62
7
  6
CONTINUOUS
 10
13.7807934735
 20
5.0254580894
 40
1.6550165456
100
AcDbArc
 50
157.9863052277
 51
159.2371781952
  0
ARC
  5
379
100
AcDbEntity
  8
0
100
AcDbCircle
 62
7
  6
CONTINUOUS
 10
11.2032957583
 20
5.8334766947
 40
1.159267388
100
AcDbArc
 50
243.6664579456
 51
246.4394383889
  0
ARC
  5
37A
100
AcDbEntity
  8
0
100
AcDbCircle
 62
7
  6
CONTINUOUS
 10
13.22264227
 20
10.5811822936
 40
0.0380499273
100
AcDbArc
 50
86.0666256942
 51
96.785909956
  0
ARC
  5
37B
100
AcDbEntity
  8
0
100
AcDbCircle
 62
7
  6
CONTINUOUS
 10
13.1448850511
 20
9.4599654728
 40
0.0380402362
100
AcDbArc
 50
255.3915581768
 51
265.9999715347
  0
SPLINE
  5
37C
100
AcDbEntity
  8
0
100
AcDbSpline
 62
7
  6
CONTINUOUS
 70
0
 71
3
 72
16
 73
12
 74
0
 42
0.0000001
 43
0.0000001
 44
0.0000000001
 40
0.0
 40
0.0
 40
0.0
 40
0.0
 40
0.149258619
 40
0.2896843822
 40
0.4219994245
 40
0.4854046256
 40
0.5471319458
 40
0.6660884209
 40
0.7802037592
 40
0.8909636543
 40
1.0
 40
1.0
 40
1.0
 40
1.0
 10
13.7011161191
 20
8.3541452721
 30
0.0
 10
13.699355218
 20
8.3563104901
 30
0.0
 10
13.695803273
 20
8.3604066491
 30
0.0
 10
13.6902042654
 20
8.365977111
 30
0.0
 10
13.6853891917
 20
8.3700311215
 30
0.0
 10
13.6814945103
 20
8.3728633045
 30
0.0
 10
13.6776739712
 20
8.3753628208
 30
0.0
 10
13.6728318134
 20
8.3780212202
 30
0.0
 10
13.6668653766
 20
8.3804563191
 30
0.0
 10
13.66082335
 20
8.3820917138
 30
0.0
 10
13.656737314
 20
8.3826469263
 30
0.0
 10
13.6547034277
 20
8.38278815
 30
0.0
  0
SPLINE
  5
37D
100
AcDbEntity
  8
0
100
AcDbSpline
 62
7
  6
CONTINUOUS
 70
0
 71
3
 72
17
 73
13
 74
0
 42
0.0000001
 43
0.0000001
 44
0.0000000001
 40
0.0
 40
0.0
 40
0.0
 40
0.0
 40
0.0539807814
 40
0.108191854
 40
0.2181534822
 40
0.3316846739
 40
0.4503566821
 40
0.5120765005
 40
0.575569677
 40
0.7083431338
 40
0.8495892815
 40
1.0
 40
1.0
 40
1.0
 40
1.0
 10
13.3340122508
 20
8.4050281588
 30
0.0
 10
13.3329601546
 20
8.4051011257
 30
0.0
 10
13.3308457408
 20
8.4051758299
 30
0.0
 10
13.3265833127
 20
8.4050387288
 30
0.0
 10
13.3211886162
 20
8.4043180938
 30
0.0
 10
13.3147130906
 20
8.4025949441
 30
0.0
 10
13.3093632753
 20
8.400472894
 30
0.0
 10
13.3050848861
 20
8.3983719775
 30
0.0
 10
13.3006764175
 20
8.3959246531
 30
0.0
 10
13.2951486826
 20
8.3923116178
 30
0.0
 10
13.2886052733
 20
8.3872054303
 30
0.0
 10
13.2843799455
 20
8.3833744128
 30
0.0
 10
13.2822663608
 20
8.3813328466
 30
0.0
  0
SPLINE
  5
37E
100
AcDbEntity
  8
0
100
AcDbSpline
 62
7
  6
CONTINUOUS
 70
0
 71
3
 72
56
 73
52
 74
0
 42
0.0000001
 43
0.0000001
 44
0.0000000001
 40
0.0
 40
0.0
 40
0.0
 40
0.0
 40
0.007650342
 40
0.0158923868
 40
0.0247427662
 40
0.0342118619
 40
0.0443048895
 40
0.0550229511
 40
0.0663641512
 40
0.0783228417
 40
0.0908890443
 40
0.1040510469
 40
0.1177955269
 40
0.1321061581
 40
0.1469651994
 40
0.1623541411
 40
0.178252335
 40
0.1946374281
 40
0.2287751412
 40
0.2645706685
 40
0.3018121949
 40
0.3402741785
 40
0.3797220078
 40
0.4199122427
 40
0.4605958075
 40
0.5015196636
 40
0.5424287685
 40
0.5830683209
 40
0.6231854722
 40
0.6625319262
 40
0.7008648856
 40
0.7379508489
 40
0.7559559498
 40
0.7735666103
 40
0.8074998912
 40
0.8237746951
 40
0.8395573669
 40
0.8548257454
 40
0.8695599408
 40
0.8837415262
 40
0.8973528177
 40
0.9103783475
 40
0.9228053826
 40
0.9346225503
 40
0.945820746
 40
0.9563950923
 40
0.9663436114
 40
0.9756676861
 40
0.984374806
 40
0.9924787419
 40
1.0
 40
1.0
 40
1.0
 40
1.0
 10
13.6628411589
 20
6.9698021778
 30
0.0
 10
13.6653464762
 20
6.9722221286
 30
0.0
 10
13.670347189
 20
6.9774625522
 30
0.0
 10
13.6775631977
 20
6.986122201
 30
0.0
 10
13.6847555901
 20
6.9958520426
 30
0.0
 10
13.6919099741
 20
7.006635632
 30
0.0
 10
13.6990150871
 20
7.0184550557
 30
0.0
 10
13.7060603967
 20
7.0312909903
 30
0.0
 10
13.7130343796
 20
7.0451236564
 30
0.0
 10
13.7199255807
 20
7.0599309309
 30
0.0
 10
13.7267233613
 20
7.0756881324
 30
0.0
 10
13.7334160815
 20
7.0923694019
 30
0.0
 10
13.7399917286
 20
7.1099475638
 30
0.0
 10
13.7464400828
 20
7.1283932074
 30
0.0
 10
13.752750564
 20
7.1476757457
 30
0.0
 10
13.7589119987
 20
7.1677636153
 30
0.0
 10
13.7649143939
 20
7.188623502
 30
0.0
 10
13.772800664
 20
7.2178198844
 30
0.0
 10
13.7821578714
 20
7.2559970362
 30
0.0
 10
13.7924560005
 20
7.3037004562
 30
0.0
 10
13.8019004225
 20
7.3535851634
 30
0.0
 10
13.8104294508
 20
7.4053200354
 30
0.0
 10
13.8179847153
 20
7.4585621063
 30
0.0
 10
13.8245160431
 20
7.5129581051
 30
0.0
 10
13.8299802453
 20
7.5681468664
 30
0.0
 10
13.834339743
 20
7.6237621026
 30
0.0
 10
13.8375668936
 20
7.6794344468
 30
0.0
 10
13.839639265
 20
7.7347942633
 30
0.0
 10
13.8405436764
 20
7.7894740288
 30
0.0
 10
13.8402749106
 20
7.8431107093
 30
0.0
 10
13.8388338764
 20
7.8953482293
 30
0.0
 10
13.8366453786
 20
7.93783281
 30
0.0
 10
13.8342972987
 20
7.970851572
 30
0.0
 10
13.8316261501
 20
8.0024051606
 30
0.0
 10
13.828380809
 20
8.0331176182
 30
0.0
 10
13.8245148824
 20
8.0629146643
 30
0.0
 10
13.8213880568
 20
8.0842352337
 30
0.0
 10
13.8179980894
 20
8.1048050206
 30
0.0
 10
13.8143509868
 20
8.1245900983
 30
0.0
 10
13.8104533465
 20
8.1435578751
 30
0.0
 10
13.8063111428
 20
8.1616767565
 30
0.0
 10
13.8019310698
 20
8.1789167533
 30
0.0
 10
13.7973212422
 20
8.1952497946
 30
0.0
 10
13.7924891935
 20
8.2106489583
 30
0.0
 10
13.7874420687
 20
8.2250886956
 30
0.0
 10
13.7821890699
 20
8.2385458955
 30
0.0
 10
13.7767389999
 20
8.2509990603
 30
0.0
 10
13.7710995599
 20
8.262427622
 30
0.0
 10
13.7652796981
 20
8.2728139717
 30
0.0
 10
13.7592894016
 20
8.2821417055
 30
0.0
 10
13.7550325646
 20
8.2878519551
 30
0.0
 10
13.7528719483
 20
8.2905087458
 30
0.0
  0
SPLINE
  5
37F
100
AcDbEntity
  8
0
100
AcDbSpline
 62
7
  6
CONTINUOUS
 70
0
 71
3
 72
16
 73
12
 74
0
 42
0.0000001
 43
0.0000001
 44
0.0000000001
 40
0.0
 40
0.0
 40
0.0
 40
0.0
 40
0.1492051171
 40
0.2896396997
 40
0.4219894512
 40
0.4854108338
 40
0.5471484261
 40
0.6661110956
 40
0.7802212943
 40
0.8909708486
 40
1.0
 40
1.0
 40
1.0
 40
1.0
 10
13.6011262346
 20
6.9123350028
 30
0.0
 10
13.5990839129
 20
6.9104343916
 30
0.0
 10
13.5950009285
 20
6.90686857
 30
0.0
 10
13.5886867991
 20
6.9021243296
 30
0.0
 10
13.5833575306
 20
6.8987727564
 30
0.0
 10
13.5791083422
 20
6.896504413
 30
0.0
 10
13.5749788152
 20
6.8945558675
 30
0.0
 10
13.569815883
 20
6.8925911445
 30
0.0
 10
13.5635706624
 20
6.89100266
 30
0.0
 10
13.5573611018
 20
6.8902170441
 30
0.0
 10
13.5532378382
 20
6.8902317143
 30
0.0
 10
13.5512040806
 20
6.890372929
 30
0.0
  0
SPLINE
  5
380
100
AcDbEntity
  8
0
100
AcDbSpline
 62
7
  6
CONTINUOUS
 70
0
 71
3
 72
67
 73
63
 74
0
 42
0.0000001
 43
0.0000001
 44
0.0000000001
 40
0.0
 40
0.0
 40
0.0
 40
0.0
 40
0.0027164192
 40
0.0054532658
 40
0.008230372
 40
0.011066655
 40
0.0139798127
 40
0.0169861147
 40
0.0201001361
 40
0.0233346857
 40
0.0302061049
 40
0.037676715
 40
0.0457990946
 40
0.0546086874
 40
0.0641293383
 40
0.0743745773
 40
0.0853492472
 40
0.0970530804
 40
0.1094800181
 40
0.1226190923
 40
0.1364568561
 40
0.1509759043
 40
0.1661557108
 40
0.1819743673
 40
0.1984068809
 40
0.2154261546
 40
0.2330042014
 40
0.2511105098
 40
0.2697131361
 40
0.2887794925
 40
0.308274945
 40
0.3281639146
 40
0.3484103254
 40
0.3689765376
 40
0.410914343
 40
0.4536651925
 40
0.4969081794
 40
0.5403174125
 40
0.5835657003
 40
0.6263271848
 40
0.6682807051
 40
0.7091132441
 40
0.7290144451
 40
0.7485233401
 40
0.7676040831
 40
0.7862223648
 40
0.8043454147
 40
0.8219409897
 40
0.8389789754
 40
0.855431093
 40
0.8712699196
 40
0.8864709453
 40
0.9010119284
 40
0.9148720704
 40
0.928034322
 40
0.9404845472
 40
0.9522113763
 40
0.9632096454
 40
0.9734792117
 40
0.9830249331
 40
0.9918584849
 40
1.0
 40
1.0
 40
1.0
 40
1.0
 10
13.2305204708
 20
6.9126124127
 30
0.0
 10
13.2291244485
 20
6.9127092322
 30
0.0
 10
13.2263290625
 20
6.913030028
 30
0.0
 10
13.2221715479
 20
6.9138882086
 30
0.0
 10
13.2180453576
 20
6.9151230862
 30
0.0
 10
13.2139534308
 20
6.9167334939
 30
0.0
 10
13.2098979035
 20
6.9187182345
 30
0.0
 10
13.2058810716
 20
6.9210761883
 30
0.0
 10
13.2019046961
 20
6.9238056245
 30
0.0
 10
13.1965514869
 20
6.9280222711
 30
0.0
 10
13.1899714693
 20
6.9342733226
 30
0.0
 10
13.1824306431
 20
6.9430729909
 30
0.0
 10
13.1750986045
 20
6.9533010006
 30
0.0
 10
13.1679853607
 20
6.9649363296
 30
0.0
 10
13.1611035337
 20
6.977958793
 30
0.0
 10
13.1544655803
 20
6.9923438136
 30
0.0
 10
13.1480827415
 20
7.008063557
 30
0.0
 10
13.1419687391
 20
7.0250881502
 30
0.0
 10
13.1361354728
 20
7.043384177
 30
0.0
 10
13.1305937309
 20
7.0629153599
 30
0.0
 10
13.125355898
 20
7.0836433024
 30
0.0
 10
13.1204321874
 20
7.105526639
 30
0.0
 10
13.1158319346
 20
7.1285215929
 30
0.0
 10
13.1115655886
 20
7.1525823657
 30
0.0
 10
13.1076412971
 20
7.1776606822
 30
0.0
 10
13.1040665853
 20
7.203706215
 30
0.0
 10
13.1008497326
 20
7.2306668132
 30
0.0
 10
13.0979966594
 20
7.2584882922
 30
0.0
 10
13.0955128817
 20
7.2871147477
 30
0.0
 10
13.0934043752
 20
7.3164887206
 30
0.0
 10
13.0916747366
 20
7.3465511536
 30
0.0
 10
13.0903273508
 20
7.3772415872
 30
0.0
 10
13.0893657877
 20
7.4084983968
 30
0.0
 10
13.0885948396
 20
7.4511216205
 30
0.0
 10
13.0886204675
 20
7.5053498729
 30
0.0
 10
13.0901959749
 20
7.5712412517
 30
0.0
 10
13.0933054521
 20
7.6378369667
 30
0.0
 10
13.0979234816
 20
7.7046018444
 30
0.0
 10
13.1040128422
 20
7.7709996117
 30
0.0
 10
13.1115249457
 20
7.8364969863
 30
0.0
 10
13.1203989236
 20
7.9005677035
 30
0.0
 10
13.1289393037
 20
7.9527798951
 30
0.0
 10
13.1364179462
 20
7.9934361834
 30
0.0
 10
13.1422712863
 20
8.0229950241
 30
0.0
 10
13.1484055655
 20
8.0518215055
 30
0.0
 10
13.1548084898
 20
8.0798577519
 30
0.0
 10
13.1614663791
 20
8.107047573
 30
0.0
 10
13.1683665998
 20
8.1333361953
 30
0.0
 10
13.175495063
 20
8.1586708834
 30
0.0
 10
13.1828366438
 20
8.1830009786
 30
0.0
 10
13.1903774421
 20
8.2062774715
 30
0.0
 10
13.1981019274
 20
8.2284538792
 30
0.0
 10
13.20599389
 20
8.2494861313
 30
0.0
 10
13.2140385585
 20
8.2693318641
 30
0.0
 10
13.2222190252
 20
8.2879517017
 30
0.0
 10
13.2305180766
 20
8.3053089008
 30
0.0
 10
13.23892036
 20
8.3213688467
 30
0.0
 10
13.2474090561
 20
8.3361009029
 30
0.0
 10
13.2559677614
 20
8.3494773656
 30
0.0
 10
13.2645818999
 20
8.3614715591
 30
0.0
 10
13.273231442
 20
8.372059212
 30
0.0
 10
13.2792497077
 20
8.3784189834
 30
0.0
 10
13.2822663608
 20
8.3813328466
 30
0.0
  0
SPLINE
  5
381
100
AcDbEntity
  8
0
100
AcDbSpline
 62
7
  6
CONTINUOUS
 70
0
 71
3
 72
23
 73
19
 74
0
 42
0.0000001
 43
0.0000001
 44
0.0000000001
 40
0.0
 40
0.0
 40
0.0
 40
0.0
 40
0.0742747342
 40
0.1440806738
 40
0.2097895622
 40
0.2718628455
 40
0.3308686805
 40
0.3874856273
 40
0.4424873426
 40
0.4967227075
 40
0.551083069
 40
0.6064550761
 40
0.6636741877
 40
0.7234943344
 40
0.786564425
 40
0.8534068866
 40
0.9244408305
 40
1.0
 40
1.0
 40
1.0
 40
1.0
 10
13.7528719483
 20
8.2905087458
 30
0.0
 10
13.7512285962
 20
8.2925294853
 30
0.0
 10
13.7479133983
 20
8.2963487334
 30
0.0
 10
13.7426827257
 20
8.3015325873
 30
0.0
 10
13.7373582765
 20
8.3059812144
 30
0.0
 10
13.731943897
 20
8.3096873569
 30
0.0
 10
13.7264438098
 20
8.3126439733
 30
0.0
 10
13.7208642586
 20
8.314845515
 30
0.0
 10
13.7152126028
 20
8.3162859635
 30
0.0
 10
13.7094981975
 20
8.3169598014
 30
0.0
 10
13.7037321441
 20
8.3168640885
 30
0.0
 10
13.6979254147
 20
8.3160013151
 30
0.0
 10
13.6920871754
 20
8.3143755074
 30
0.0
 10
13.6862249518
 20
8.3119912971
 30
0.0
 10
13.6803455597
 20
8.3088540596
 30
0.0
 10
13.6744541573
 20
8.3049717332
 30
0.0
 10
13.6685568796
 20
8.3003513447
 30
0.0
 10
13.6647469331
 20
8.2968933266
 30
0.0
 10
13.6628411589
 20
8.29505249
 30
0.0
  0
SPLINE
  5
382
100
AcDbEntity
  8
0
100
AcDbSpline
 62
7
  6
CONTINUOUS
 70
0
 71
3
 72
78
 73
74
 74
0
 42
0.0000001
 43
0.0000001
 44
0.0000000001
 40
0.0
 40
0.0
 40
0.0
 40
0.0
 40
0.0039467049
 40
0.0077179338
 40
0.0113229671
 40
0.0147728056
 40
0.0212562462
 40
0.0243277651
 40
0.027310656
 40
0.0302272718
 40
0.0331016094
 40
0.0359588319
 40
0.0388246063
 40
0.041724254
 40
0.0446820928
 40
0.0477209242
 40
0.0508616725
 40
0.0541231765
 40
0.057521886
 40
0.0610719082
 40
0.0647853255
 40
0.0686724161
 40
0.0727418773
 40
0.0770009119
 40
0.0814550899
 40
0.0861088302
 40
0.0909656519
 40
0.1012977651
 40
0.1124659972
 40
0.1244721712
 40
0.1373118167
 40
0.1509737231
 40
0.1654405058
 40
0.1806918389
 40
0.1967024842
 40
0.2134436443
 40
0.2308847452
 40
0.2489911911
 40
0.2677264211
 40
0.2870523971
 40
0.3069279008
 40
0.3273107093
 40
0.3481571611
 40
0.3694213689
 40
0.4130151879
 40
0.4577074269
 40
0.5030997716
 40
0.5487856076
 40
0.5943549397
 40
0.6393993487
 40
0.6615988755
 40
0.6835170961
 40
0.7263143325
 40
0.7471006092
 40
0.7674171789
 40
0.7872206227
 40
0.8064689183
 40
0.8251211117
 40
0.8431394606
 40
0.8604876557
 40
0.8771314875
 40
0.893040825
 40
0.9081873221
 40
0.9225462355
 40
0.9360975551
 40
0.9488243157
 40
0.9607165583
 40
0.9717716473
 40
0.9819931937
 40
0.9867955897
 40
0.9913951536
 40
0.9957952043
 40
1.0
 40
1.0
 40
1.0
 40
1.0
 10
13.6611558049
 20
6.9682041852
 30
0.0
 10
13.6597411192
 20
6.9668879492
 30
0.0
 10
13.656912435
 20
6.9643795704
 30
0.0
 10
13.6525716877
 20
6.9609270123
 30
0.0
 10
13.648234017
 20
6.9578741234
 30
0.0
 10
13.6425781192
 20
6.9544126586
 30
0.0
 10
13.6368076931
 20
6.9516520635
 30
0.0
 10
13.6309762621
 20
6.949714267
 30
0.0
 10
13.6266971712
 20
6.948697163
 30
0.0
 10
13.6224379713
 20
6.9480919961
 30
0.0
 10
13.6182015335
 20
6.9478996402
 30
0.0
 10
13.6139913101
 20
6.9481209554
 30
0.0
 10
13.6098109154
 20
6.9487560457
 30
0.0
 10
13.6056637909
 20
6.9498035241
 30
0.0
 10
13.6015531046
 20
6.9512618674
 30
0.0
 10
13.597481717
 20
6.9531293943
 30
0.0
 10
13.5934521657
 20
6.9554044178
 30
0.0
 10
13.589466969
 20
6.9580854086
 30
0.0
 10
13.58552814
 20
6.9611700034
 30
0.0
 10
13.5816374499
 20
6.964655579
 30
0.0
 10
13.577796814
 20
6.9685397317
 30
0.0
 10
13.5740081679
 20
6.9728201357
 30
0.0
 10
13.5702735646
 20
6.9774945131
 30
0.0
 10
13.5665952129
 20
6.9825603352
 30
0.0
 10
13.562974851
 20
6.9880143114
 30
0.0
 10
13.5594143676
 20
6.993853054
 30
0.0
 10
13.5546511501
 20
7.0023221308
 30
0.0
 10
13.548885092
 20
7.0138764341
 30
0.0
 10
13.5423742528
 20
7.0289411043
 30
0.0
 10
13.5361489173
 20
7.0454442536
 30
0.0
 10
13.5302250965
 20
7.0633476946
 30
0.0
 10
13.5246168615
 20
7.0826098514
 30
0.0
 10
13.5193364794
 20
7.1031852118
 30
0.0
 10
13.5143981665
 20
7.1250254765
 30
0.0
 10
13.5098132313
 20
7.1480787163
 30
0.0
 10
13.5055922209
 20
7.1722900975
 30
0.0
 10
13.5017467021
 20
7.1976020856
 30
0.0
 10
13.4982849572
 20
7.2239542105
 30
0.0
 10
13.4952154037
 20
7.2512835781
 30
0.0
 10
13.4925464713
 20
7.2795249499
 30
0.0
 10
13.4902834677
 20
7.3086107949
 30
0.0
 10
13.4884323933
 20
7.33847155
 30
0.0
 10
13.4869981823
 20
7.3690358722
 30
0.0
 10
13.4856339971
 20
7.4109758184
 30
0.0
 10
13.4850130294
 20
7.4646151852
 30
0.0
 10
13.4859590403
 20
7.5300641609
 30
0.0
 10
13.4885831849
 20
7.5964923996
 30
0.0
 10
13.4928608818
 20
7.6632648407
 30
0.0
 10
13.4987510636
 20
7.7297432162
 30
0.0
 10
13.5049852882
 20
7.7846300497
 30
0.0
 10
13.5107478994
 20
7.8279029805
 30
0.0
 10
13.5169175778
 20
7.8700078359
 30
0.0
 10
13.5238161133
 20
7.9113037787
 30
0.0
 10
13.5314675758
 20
7.951663602
 30
0.0
 10
13.537464541
 20
7.980875366
 30
0.0
 10
13.5437604134
 20
8.0092533623
 30
0.0
 10
13.5503397148
 20
8.0367298866
 30
0.0
 10
13.557187744
 20
8.0632390642
 30
0.0
 10
13.5642869997
 20
8.0887177796
 30
0.0
 10
13.5716204423
 20
8.11310523
 30
0.0
 10
13.5791713989
 20
8.1363430667
 30
0.0
 10
13.5869204514
 20
8.1583763429
 30
0.0
 10
13.5948496713
 20
8.1791525988
 30
0.0
 10
13.6029404736
 20
8.1986223281
 30
0.0
 10
13.6111718548
 20
8.216739951
 30
0.0
 10
13.6195252564
 20
8.2334625963
 30
0.0
 10
13.6279813928
 20
8.2487519559
 30
0.0
 10
13.6365200623
 20
8.2625734893
 30
0.0
 10
13.6438348968
 20
8.2730497454
 30
0.0
 10
13.649727361
 20
8.2806404938
 30
0.0
 10
13.6540619014
 20
8.2858267789
 30
0.0
 10
13.6584006977
 20
8.2906217131
 30
0.0
 10
13.6613604518
 20
8.2936222367
 30
0.0
 10
13.6628411589
 20
8.29505249
 30
0.0
  0
SPLINE
  5
383
100
AcDbEntity
  8
0
100
AcDbSpline
 62
7
  6
CONTINUOUS
 70
0
 71
3
 72
17
 73
13
 74
0
 42
0.0000001
 43
0.0000001
 44
0.0000000001
 40
0.0
 40
0.0
 40
0.0
 40
0.0
 40
0.0539812065
 40
0.1081924644
 40
0.2181539024
 40
0.3316844589
 40
0.450355717
 40
0.5120752155
 40
0.5755681521
 40
0.7083414689
 40
0.8495880815
 40
1.0
 40
1.0
 40
1.0
 40
1.0
 10
13.6547034277
 20
8.38278815
 30
0.0
 10
13.6536512612
 20
8.3828612076
 30
0.0
 10
13.6515367043
 20
8.3829360836
 30
0.0
 10
13.6472739821
 20
8.3827992844
 30
0.0
 10
13.6418789003
 20
8.3820789476
 30
0.0
 10
13.6354028961
 20
8.3803560189
 30
0.0
 10
13.6300526842
 20
8.3782340431
 30
0.0
 10
13.6257739803
 20
8.3761331262
 30
0.0
 10
13.6213651804
 20
8.3736857546
 30
0.0
 10
13.6158370265
 20
8.3700725739
 30
0.0
 10
13.6092931265
 20
8.3649660926
 30
0.0
 10
13.6050674923
 20
8.3611348148
 30
0.0
 10
13.6029537541
 20
8.3590931004
 30
0.0
  0
SPLINE
  5
384
100
AcDbEntity
  8
0
100
AcDbSpline
 62
7
  6
CONTINUOUS
 70
0
 71
3
 72
67
 73
63
 74
0
 42
0.0000001
 43
0.0000001
 44
0.0000000001
 40
0.0
 40
0.0
 40
0.0
 40
0.0
 40
0.002716416
 40
0.0054532772
 40
0.0082304148
 40
0.0110667448
 40
0.0139799634
 40
0.0169863387
 40
0.0201004439
 40
0.0233350862
 40
0.0302067118
 40
0.0376775473
 40
0.0458001623
 40
0.0546099942
 40
0.0641308833
 40
0.0743763554
 40
0.0853512506
 40
0.0970552995
 40
0.1094824412
 40
0.1226217065
 40
0.1364596481
 40
0.1509788593
 40
0.166158814
 40
0.1819776035
 40
0.1984102344
 40
0.2154296096
 40
0.2330077426
 40
0.2511141212
 40
0.2697168026
 40
0.2887831989
 40
0.3082786762
 40
0.3281676563
 40
0.3484140635
 40
0.3689802584
 40
0.4109179906
 40
0.4536687192
 40
0.496911543
 40
0.5403205763
 40
0.5835686338
 40
0.626329864
 40
0.6682831125
 40
0.7091153688
 40
0.7290164264
 40
0.7485251778
 40
0.7676057776
 40
0.7862239177
 40
0.804346828
 40
0.8219422662
 40
0.8389801188
 40
0.8554321076
 40
0.8712708102
 40
0.8864717177
 40
0.9010125887
 40
0.9148726254
 40
0.9280347789
 40
0.9404849137
 40
0.9522116604
 40
0.9632098557
 40
0.9734793566
 40
0.9830250213
 40
0.9918585248
 40
1.0
 40
1.0
 40
1.0
 40
1.0
 10
13.5512040806
 20
6.890372929
 30
0.0
 10
13.5498080713
 20
6.8904698614
 30
0.0
 10
13.5470127124
 20
6.8907908834
 30
0.0
 10
13.5428552545
 20
6.891649395
 30
0.0
 10
13.5387291228
 20
6.8928845972
 30
0.0
 10
13.5346372561
 20
6.8944953231
 30
0.0
 10
13.5305817904
 20
6.8964803757
 30
0.0
 10
13.5265650213
 20
6.898838635
 30
0.0
 10
13.5225887095
 20
6.9015683696
 30
0.0
 10
13.5172355853
 20
6.9057854151
 30
0.0
 10
13.5106556818
 20
6.912036943
 30
0.0
 10
13.5031149937
 20
6.9208371422
 30
0.0
 10
13.4957830934
 20
6.9310656547
 30
0.0
 10
13.4886699891
 20
6.9427014588
 30
0.0
 10
13.4817883039
 20
6.9557243693
 30
0.0
 10
13.475150493
 20
6.9701098073
 30
0.0
 10
13.4687677979
 20
6.9858299384
 30
0.0
 10
13.4626539406
 20
7.0028548893
 30
0.0
 10
13.4568208192
 20
7.0211512428
 30
0.0
 10
13.4512792224
 20
7.0406827218
 30
0.0
 10
13.4460415346
 20
7.0614109293
 30
0.0
 10
13.4411179677
 20
7.0832944998
 30
0.0
 10
13.4365178575
 20
7.1062896569
 30
0.0
 10
13.4322516526
 20
7.1303506022
 30
0.0
 10
13.4283274998
 20
7.1554290608
 30
0.0
 10
13.4247529243
 20
7.1814747058
 30
0.0
 10
13.4215362053
 20
7.2084353867
 30
0.0
 10
13.4186832621
 20
7.2362569195
 30
0.0
 10
13.416199611
 20
7.2648834007
 30
0.0
 10
13.4140912273
 20
7.2942573719
 30
0.0
 10
13.412361707
 20
7.3243197765
 30
0.0
 10
13.4110144352
 20
7.355010156
 30
0.0
 10
13.4100529812
 20
7.3862668869
 30
0.0
 10
13.4092821729
 20
7.4288899601
 30
0.0
 10
13.409307961
 20
7.4831179704
 30
0.0
 10
13.4108836368
 20
7.5490089994
 30
0.0
 10
13.4139932588
 20
7.6156042945
 30
0.0
 10
13.4186114088
 20
7.6823686929
 30
0.0
 10
13.4247008648
 20
7.7487659332
 30
0.0
 10
13.4322130388
 20
7.8142627448
 30
0.0
 10
13.4410870625
 20
7.8783328748
 30
0.0
 10
13.4496274616
 20
7.9305445675
 30
0.0
 10
13.4571061074
 20
7.9712004538
 30
0.0
 10
13.4629594436
 20
8.0007589941
 30
0.0
 10
13.4690937137
 20
8.0295851779
 30
0.0
 10
13.4754966233
 20
8.0576211311
 30
0.0
 10
13.482154493
 20
8.0848106646
 30
0.0
 10
13.4890546893
 20
8.1110990064
 30
0.0
 10
13.4961831233
 20
8.1364334222
 30
0.0
 10
13.5035246706
 20
8.1607632548
 30
0.0
 10
13.5110654315
 20
8.1840394958
 30
0.0
 10
13.5187898754
 20
8.2062156638
 30
0.0
 10
13.5266817931
 20
8.2272476891
 30
0.0
 10
13.5347264137
 20
8.2470932093
 30
0.0
 10
13.5429068296
 20
8.2657128494
 30
0.0
 10
13.5512058277
 20
8.283069867
 30
0.0
 10
13.5596080558
 20
8.2991296483
 30
0.0
 10
13.5680966947
 20
8.3138615575
 30
0.0
 10
13.5766553413
 20
8.3272378916
 30
0.0
 10
13.58526942
 20
8.3392319753
 30
0.0
 10
13.5939189016
 20
8.3498195379
 30
0.0
 10
13.5999371233
 20
8.3561792586
 30
0.0
 10
13.6029537541
 20
8.3590931004
 30
0.0
  0
SPLINE
  5
385
100
AcDbEntity
  8
0
100
AcDbSpline
 62
7
  6
CONTINUOUS
 70
0
 71
3
 72
23
 73
19
 74
0
 42
0.0000001
 43
0.0000001
 44
0.0000000001
 40
0.0
 40
0.0
 40
0.0
 40
0.0
 40
0.0771591088
 40
0.153151303
 40
0.2277613898
 40
0.3008118635
 40
0.3721337705
 40
0.4415569994
 40
0.508915912
 40
0.5740562277
 40
0.6368307546
 40
0.6971028067
 40
0.7547446115
 40
0.8096420695
 40
0.8616928899
 40
0.9108117328
 40
0.9569295723
 40
1.0
 40
1.0
 40
1.0
 40
1.0
 10
11.2785147913
 20
4.6579760312
 30
0.0
 10
11.264313405
 20
4.6589609007
 30
0.0
 10
11.2361388076
 20
4.6611154455
 30
0.0
 10
11.1942901082
 20
4.6649322709
 30
0.0
 10
11.1532576747
 20
4.6693028988
 30
0.0
 10
11.1131543416
 20
4.6742145034
 30
0.0
 10
11.0740850951
 20
4.6796545505
 30
0.0
 10
11.0361531615
 20
4.6856077891
 30
0.0
 10
10.9994599977
 20
4.6920590951
 30
0.0
 10
10.9641034164
 20
4.6989902477
 30
0.0
 10
10.9301772846
 20
4.7063834082
 30
0.0
 10
10.8977716219
 20
4.7142179026
 30
0.0
 10
10.8669724591
 20
4.7224734913
 30
0.0
 10
10.83786124
 20
4.7311271685
 30
0.0
 10
10.8105149666
 20
4.7401564945
 30
0.0
 10
10.7850051558
 20
4.749536583
 30
0.0
 10
10.76139952
 20
4.7592429503
 30
0.0
 10
10.7464575162
 20
4.7661517065
 30
0.0
 10
10.739333035
 20
4.769670988
 30
0.0
  0
SPLINE
  5
386
100
AcDbEntity
  8
0
100
AcDbSpline
 62
7
  6
CONTINUOUS
 70
0
 71
3
 72
11
 73
7
 74
0
 42
0.0000001
 43
0.0000001
 44
0.0000000001
 40
0.0
 40
0.0
 40
0.0
 40
0.0
 40
0.2706838103
 40
0.527147417
 40
0.7699959294
 40
1.0
 40
1.0
 40
1.0
 40
1.0
 10
10.5734867106
 20
4.8585816079
 30
0.0
 10
10.5704394626
 20
4.8609425782
 30
0.0
 10
10.56461267
 20
4.8656821754
 30
0.0
 10
10.5564886689
 20
4.87305613
 30
0.0
 10
10.5492288038
 20
4.880492983
 30
0.0
 10
10.5448556436
 20
4.885622684
 30
0.0
 10
10.5428282377
 20
4.8881953681
 30
0.0
  0
SPLINE
  5
387
100
AcDbEntity
  8
0
100
AcDbSpline
 62
7
  6
CONTINUOUS
 70
0
 71
3
 72
23
 73
19
 74
0
 42
0.0000001
 43
0.0000001
 44
0.0000000001
 40
0.0
 40
0.0
 40
0.0
 40
0.0
 40
0.080971538
 40
0.1598879644
 40
0.2366109899
 40
0.3110079654
 40
0.3829545068
 40
0.4523386671
 40
0.5190634269
 40
0.5830595163
 40
0.6442826854
 40
0.70272999
 40
0.758431804
 40
0.811469128
 40
0.8619597678
 40
0.9100718893
 40
0.9560057306
 40
1.0
 40
1.0
 40
1.0
 40
1.0
 10
12.4593697351
 20
4.9893682713
 30
0.0
 10
12.4560736076
 20
4.9830123706
 30
0.0
 10
12.4494754772
 20
4.9705080018
 30
0.0
 10
12.4394134319
 20
4.952163519
 30
0.0
 10
12.4293089375
 20
4.9345088766
 30
0.0
 10
12.4191638747
 20
4.9175919513
 30
0.0
 10
12.4089797505
 20
4.9014605741
 30
0.0
 10
12.3987603013
 20
4.8861604976
 30
0.0
 10
12.3885079829
 20
4.8717361608
 30
0.0
 10
12.3782286462
 20
4.8582266404
 30
0.0
 10
12.3679255275
 20
4.845667764
 30
0.0
 10
12.3576062011
 20
4.8340864874
 30
0.0
 10
12.3472744298
 20
4.8235052676
 30
0.0
 10
12.33693876
 20
4.8139347951
 30
0.0
 10
12.3266033318
 20
4.805381064
 30
0.0
 10
12.3162765562
 20
4.7978368719
 30
0.0
 10
12.3059636222
 20
4.7912915262
 30
0.0
 10
12.2989633678
 20
4.787502916
 30
0.0
 10
12.2954756086
 20
4.7857799987
 30
0.0
  0
SPLINE
  5
388
100
AcDbEntity
  8
0
100
AcDbSpline
 62
7
  6
CONTINUOUS
 70
0
 71
3
 72
9
 73
5
 74
0
 42
0.0000001
 43
0.0000001
 44
0.0000000001
 40
0.0
 40
0.0
 40
0.0
 40
0.0
 40
0.4960083102
 40
1.0
 40
1.0
 40
1.0
 40
1.0
 10
10.6890494571
 20
4.7945100839
 30
0.0
 10
10.6694573658
 20
4.804188609
 30
0.0
 10
10.6304641209
 20
4.8247375867
 30
0.0
 10
10.5924333662
 20
4.8470038889
 30
0.0
 10
10.5734867106
 20
4.8585816079
 30
0.0
  0
SPLINE
  5
389
100
AcDbEntity
  8
0
100
AcDbSpline
 62
7
  6
CONTINUOUS
 70
0
 71
3
 72
30
 73
26
 74
0
 42
0.0000001
 43
0.0000001
 44
0.0000000001
 40
0.0
 40
0.0
 40
0.0
 40
0.0
 40
0.0193648516
 40
0.0398589858
 40
0.061469503
 40
0.0841791322
 40
0.1079647721
 40
0.1327996946
 40
0.1586534104
 40
0.1854915569
 40
0.2132776379
 40
0.2419713852
 40
0.2715308561
 40
0.3019113755
 40
0.333066161
 40
0.3649469428
 40
0.4306813696
 40
0.4986954582
 40
0.5685475621
 40
0.6397796875
 40
0.7119215783
 40
0.784496127
 40
0.8570190166
 40
0.9290157221
 40
1.0
 40
1.0
 40
1.0
 40
1.0
 10
12.2628672145
 20
4.7696721766
 30
0.0
 10
12.2570856682
 20
4.766816231
 30
0.0
 10
12.2450616442
 20
4.761186075
 30
0.0
 10
12.2262192716
 20
4.753179484
 30
0.0
 10
12.206089452
 20
4.7453840795
 30
0.0
 10
12.1847076794
 20
4.7378148141
 30
0.0
 10
12.1621115882
 20
4.7304843834
 30
0.0
 10
12.138340988
 20
4.7234062132
 30
0.0
 10
12.1134378821
 20
4.7165930683
 30
0.0
 10
12.0874463825
 20
4.7100566296
 30
0.0
 10
12.0604124871
 20
4.7038093295
 30
0.0
 10
12.0323842044
 20
4.6978615911
 30
0.0
 10
12.0034112448
 20
4.6922246211
 30
0.0
 10
11.973545093
 20
4.6869082717
 30
0.0
 10
11.942838743
 20
4.681921879
 30
0.0
 10
11.900416647
 20
4.6756621444
 30
0.0
 10
11.8456894026
 20
4.6687540753
 30
0.0
 10
11.7782225797
 20
4.6619867561
 30
0.0
 10
11.7087869815
 20
4.6567088189
 30
0.0
 10
11.6378760917
 20
4.6529583979
 30
0.0
 10
11.5659932452
 20
4.6507624588
 30
0.0
 10
11.4936498865
 20
4.6501370852
 30
0.0
 10
11.4213582757
 20
4.6510862698
 30
0.0
 10
11.3496344513
 20
4.6536039246
 30
0.0
 10
11.3020958064
 20
4.6563406823
 30
0.0
 10
11.2785147913
 20
4.6579760312
 30
0.0
  0
SPLINE
  5
38A
100
AcDbEntity
  8
0
100
AcDbSpline
 62
7
  6
CONTINUOUS
 70
0
 71
3
 72
28
 73
24
 74
0
 42
0.0000001
 43
0.0000001
 44
0.0000000001
 40
0.0
 40
0.0
 40
0.0
 40
0.0
 40
0.1268659191
 40
0.1901463679
 40
0.25330733
 40
0.2848402857
 40
0.3163394042
 40
0.3792283979
 40
0.4106187434
 40
0.4419710208
 40
0.4732845857
 40
0.5045591139
 40
0.5357943787
 40
0.5669902228
 40
0.5981469641
 40
0.629265076
 40
0.6913849328
 40
0.7223910769
 40
0.7533616145
 40
0.8151995131
 40
0.8769107384
 40
0.9385080012
 40
1.0
 40
1.0
 40
1.0
 40
1.0
 10
12.1495000665
 20
4.7492847105
 30
0.0
 10
12.1151011965
 20
4.738028859
 30
0.0
 10
12.0631441732
 20
4.7223288343
 30
0.0
 10
11.9931631316
 20
4.7042705237
 30
0.0
 10
11.949203242
 20
4.6942992836
 30
0.0
 10
11.9139136186
 20
4.6871677345
 30
0.0
 10
11.8785891326
 20
4.6806251816
 30
0.0
 10
11.8431454126
 20
4.6749722103
 30
0.0
 10
11.8076141733
 20
4.670255794
 30
0.0
 10
11.7809545221
 20
4.6671948404
 30
0.0
 10
11.7542772343
 20
4.6646154656
 30
0.0
 10
11.7275908987
 20
4.6625217123
 30
0.0
 10
11.7009045498
 20
4.6609134403
 30
0.0
 10
11.6742269693
 20
4.659792034
 30
0.0
 10
11.6475667898
 20
4.6591546716
 30
0.0
 10
11.6120773816
 20
4.6589423404
 30
0.0
 10
11.5766307087
 20
4.6596763788
 30
0.0
 10
11.5412641048
 20
4.6613206954
 30
0.0
 10
11.5060102417
 20
4.6635546259
 30
0.0
 10
11.4620891214
 20
4.6674222355
 30
0.0
 10
11.4096328985
 20
4.6736797116
 30
0.0
 10
11.3574771863
 20
4.6814292142
 30
0.0
 10
11.3228876181
 20
4.6875133943
 30
0.0
 10
11.3056482087
 20
4.6907632819
 30
0.0
  0
SPLINE
  5
38B
100
AcDbEntity
  8
0
100
AcDbSpline
 62
7
  6
CONTINUOUS
 70
0
 71
3
 72
27
 73
23
 74
0
 42
0.0000001
 43
0.0000001
 44
0.0000000001
 40
0.0
 40
0.0
 40
0.0
 40
0.0
 40
0.060919931
 40
0.1219725003
 40
0.1831790974
 40
0.2445697664
 40
0.306172584
 40
0.368014351
 40
0.3990356526
 40
0.4301246832
 40
0.4612823654
 40
0.4925098844
 40
0.5238069761
 40
0.5551729231
 40
0.5866065737
 40
0.6181055251
 40
0.681282706
 40
0.744686725
 40
0.8082887534
 40
0.8720589913
 40
0.9359723153
 40
1.0
 40
1.0
 40
1.0
 40
1.0
 10
12.1495000665
 20
5.590483162
 30
0.0
 10
12.1328696184
 20
5.5967575902
 30
0.0
 10
12.0993360436
 20
5.6087059733
 30
0.0
 10
12.0482756584
 20
5.6245524635
 30
0.0
 10
11.9964030399
 20
5.6380693136
 30
0.0
 10
11.9437499775
 20
5.6489707772
 30
0.0
 10
11.8903881637
 20
5.6569729731
 30
0.0
 10
11.8454691673
 20
5.6610037781
 30
0.0
 10
11.8093315258
 20
5.6625503249
 30
0.0
 10
11.7821154296
 20
5.6628512688
 30
0.0
 10
11.7548436182
 20
5.662280201
 30
0.0
 10
11.7275437547
 20
5.6608258981
 30
0.0
 10
11.7002440556
 20
5.6584917411
 30
0.0
 10
11.6729734036
 20
5.6552783836
 30
0.0
 10
11.6457588961
 20
5.6512009272
 30
0.0
 10
11.6095507561
 20
5.6446268122
 30
0.0
 10
11.5645598972
 20
5.6343383432
 30
0.0
 10
11.5112242442
 20
5.6189313883
 30
0.0
 10
11.4585979002
 20
5.6007272703
 30
0.0
 10
11.4067503499
 20
5.5800187395
 30
0.0
 10
11.3557120234
 20
5.557094761
 30
0.0
 10
11.322249908
 20
5.5405279826
 30
0.0
 10
11.3056482087
 20
5.5319617334
 30
0.0
  0
SPLINE
  5
38C
100
AcDbEntity
  8
0
100
AcDbSpline
 62
7
  6
CONTINUOUS
 70
0
 71
3
 72
15
 73
11
 74
0
 42
0.0000001
 43
0.0000001
 44
0.0000000001
 40
0.0
 40
0.0
 40
0.0
 40
0.0
 40
0.1200543119
 40
0.2408745055
 40
0.3627723785
 40
0.4861015007
 40
0.611221097
 40
0.7384475142
 40
0.8680059215
 40
1.0
 40
1.0
 40
1.0
 40
1.0
 10
11.1912293178
 20
4.6986982589
 30
0.0
 10
11.1728124619
 20
4.6969775382
 30
0.0
 10
11.1357663249
 20
4.6944489249
 30
0.0
 10
11.0798456967
 20
4.6937781187
 30
0.0
 10
11.0234788824
 20
4.6965936069
 30
0.0
 10
10.9667607128
 20
4.7032227255
 30
0.0
 10
10.9098254378
 20
4.71389958
 30
0.0
 10
10.8528351622
 20
4.7287251812
 30
0.0
 10
10.7959597045
 20
4.7476466868
 30
0.0
 10
10.7585590003
 20
4.7627240278
 30
0.0
 10
10.7399155102
 20
4.7708480567
 30
0.0
  0
SPLINE
  5
38D
100
AcDbEntity
  8
0
100
AcDbSpline
 62
7
  6
CONTINUOUS
 70
0
 71
3
 72
30
 73
26
 74
0
 42
0.0000001
 43
0.0000001
 44
0.0000000001
 40
0.0
 40
0.0
 40
0.0
 40
0.0
 40
0.071178206
 40
0.1063864824
 40
0.1413173684
 40
0.2102772599
 40
0.2779404401
 40
0.3112551436
 40
0.3442083408
 40
0.4089957047
 40
0.4408350868
 40
0.4723063752
 40
0.5034184842
 40
0.534184955
 40
0.5646245079
 40
0.5947586506
 40
0.6246138194
 40
0.6542175698
 40
0.6836000373
 40
0.7127918723
 40
0.7707116392
 40
0.8282172138
 40
0.8855033008
 40
0.9427270794
 40
1.0
 40
1.0
 40
1.0
 40
1.0
 10
11.1912293178
 20
5.5398967104
 30
0.0
 10
11.179147891
 20
5.5503946799
 30
0.0
 10
11.1608324078
 20
5.5657938067
 30
0.0
 10
11.1359349832
 20
5.5855421518
 30
0.0
 10
11.1110373786
 20
5.6044774111
 30
0.0
 10
11.0795748436
 20
5.6268228392
 30
0.0
 10
11.0473327156
 20
5.6473698562
 30
0.0
 10
11.0212555646
 20
5.6624435609
 30
0.0
 10
10.9953014245
 20
5.6764083045
 30
0.0
 10
10.9689806528
 20
5.6889703026
 30
0.0
 10
10.9423461404
 20
5.6999522191
 30
0.0
 10
10.9224215489
 20
5.7073035195
 30
0.0
 10
10.902454815
 20
5.7137976692
 30
0.0
 10
10.8824648209
 20
5.7194163404
 30
0.0
 10
10.8624738641
 20
5.7241549004
 30
0.0
 10
10.8425017881
 20
5.7280065839
 30
0.0
 10
10.8225700347
 20
5.7309789401
 30
0.0
 10
10.8026978104
 20
5.7330803471
 30
0.0
 10
10.7829030407
 20
5.7343270794
 30
0.0
 10
10.7567074619
 20
5.7348789064
 30
0.0
 10
10.724176996
 20
5.7335603362
 30
0.0
 10
10.6855767298
 20
5.7289795874
 30
0.0
 10
10.6475602167
 20
5.7216846983
 30
0.0
 10
10.6101527377
 20
5.7119610579
 30
0.0
 10
10.5856372583
 20
5.7040485121
 30
0.0
 10
10.5734867106
 20
5.6997800594
 30
0.0
  0
SPLINE
  5
38E
100
AcDbEntity
  8
0
100
AcDbSpline
 62
7
  6
CONTINUOUS
 70
0
 71
3
 72
15
 73
11
 74
0
 42
0.0000001
 43
0.0000001
 44
0.0000000001
 40
0.0
 40
0.0
 40
0.0
 40
0.0
 40
0.1340175358
 40
0.2644724274
 40
0.3918735456
 40
0.5167249534
 40
0.6395193915
 40
0.760718379
 40
0.8807495477
 40
1.0
 40
1.0
 40
1.0
 40
1.0
 10
12.2954756086
 20
4.7857799987
 30
0.0
 10
12.2928915481
 20
4.7845034994
 30
0.0
 10
12.2877212707
 20
4.7821246301
 30
0.0
 10
12.2798716123
 20
4.7790452736
 30
0.0
 10
12.2720428746
 20
4.7764899917
 30
0.0
 10
12.2642370839
 20
4.7744407333
 30
0.0
 10
12.2564558597
 20
4.7728771717
 30
0.0
 10
12.2487002613
 20
4.7717791767
 30
0.0
 10
12.2409715861
 20
4.7711259607
 30
0.0
 10
12.2358250455
 20
4.7709726195
 30
0.0
 10
12.2332604845
 20
4.7709634936
 30
0.0
  0
SPLINE
  5
38F
100
AcDbEntity
  8
0
100
AcDbSpline
 62
7
  6
CONTINUOUS
 70
0
 71
3
 72
15
 73
11
 74
0
 42
0.0000001
 43
0.0000001
 44
0.0000000001
 40
0.0
 40
0.0
 40
0.0
 40
0.0
 40
0.1097867181
 40
0.2247132299
 40
0.3444131583
 40
0.4684947016
 40
0.5965354434
 40
0.7281039141
 40
0.8627644476
 40
1.0
 40
1.0
 40
1.0
 40
1.0
 10
10.9149612128
 20
5.7376825042
 30
0.0
 10
10.9280825032
 20
5.7344847292
 30
0.0
 10
10.9550354762
 20
5.7283290867
 30
0.0
 10
10.9965724603
 20
5.7199600593
 30
0.0
 10
11.0400267323
 20
5.7122666201
 30
0.0
 10
11.085232705
 20
5.7052791116
 30
0.0
 10
11.1320188831
 20
5.6990235198
 30
0.0
 10
11.1802098177
 20
5.6935242382
 30
0.0
 10
11.2296192158
 20
5.6888030503
 30
0.0
 10
11.2629674044
 20
5.6862072793
 30
0.0
 10
11.2798088855
 20
5.6850393186
 30
0.0
  0
SPLINE
  5
390
100
AcDbEntity
  8
0
100
AcDbSpline
 62
7
  6
CONTINUOUS
 70
0
 71
3
 72
15
 73
11
 74
0
 42
0.0000001
 43
0.0000001
 44
0.0000000001
 40
0.0
 40
0.0
 40
0.0
 40
0.0
 40
0.1238190299
 40
0.2488653922
 40
0.3746972357
 40
0.5008688785
 40
0.6269279472
 40
0.7524308765
 40
0.8769490408
 40
1.0
 40
1.0
 40
1.0
 40
1.0
 10
11.6974751505
 20
5.6834149783
 30
0.0
 10
11.6802570398
 20
5.6823633614
 30
0.0
 10
11.645631665
 20
5.6805416568
 30
0.0
 10
11.5934616659
 20
5.6786532043
 30
0.0
 10
11.5409402016
 20
5.6775991381
 30
0.0
 10
11.4882675695
 20
5.677384026
 30
0.0
 10
11.4356440171
 20
5.6780079494
 30
0.0
 10
11.3832674266
 20
5.6794690688
 30
0.0
 10
11.3313402509
 20
5.6817620267
 30
0.0
 10
11.2969109981
 20
5.683853283
 30
0.0
 10
11.2798088855
 20
5.6850393186
 30
0.0
  0
SPLINE
  5
391
100
AcDbEntity
  8
0
100
AcDbSpline
 62
7
  6
CONTINUOUS
 70
0
 71
3
 72
9
 73
5
 74
0
 42
0.0000001
 43
0.0000001
 44
0.0000000001
 40
0.0
 40
0.0
 40
0.0
 40
0.0
 40
0.4867517019
 40
1.0
 40
1.0
 40
1.0
 40
1.0
 10
12.2332604845
 20
5.6121619451
 30
0.0
 10
12.2197846908
 20
5.6082236015
 30
0.0
 10
12.1919620998
 20
5.6005982774
 30
0.0
 10
12.1639296232
 20
5.5937905555
 30
0.0
 10
12.1495000665
 20
5.590483162
 30
0.0
  0
SPLINE
  5
392
100
AcDbEntity
  8
0
100
AcDbSpline
 62
7
  6
CONTINUOUS
 70
0
 71
3
 72
11
 73
7
 74
0
 42
0.0000001
 43
0.0000001
 44
0.0000000001
 40
0.0
 40
0.0
 40
0.0
 40
0.0
 40
0.2300040706
 40
0.472852583
 40
0.7293161897
 40
1.0
 40
1.0
 40
1.0
 40
1.0
 10
10.5428282377
 20
5.7293938196
 30
0.0
 10
10.5448556436
 20
5.7268211355
 30
0.0
 10
10.5492288038
 20
5.7216914345
 30
0.0
 10
10.5564886689
 20
5.7142545815
 30
0.0
 10
10.56461267
 20
5.7068806269
 30
0.0
 10
10.5704394626
 20
5.7021410297
 30
0.0
 10
10.5734867106
 20
5.6997800594
 30
0.0
  0
SPLINE
  5
393
100
AcDbEntity
  8
0
100
AcDbSpline
 62
7
  6
CONTINUOUS
 70
0
 71
3
 72
9
 73
5
 74
0
 42
0.0000001
 43
0.0000001
 44
0.0000000001
 40
0.0
 40
0.0
 40
0.0
 40
0.0
 40
0.4867517019
 40
1.0
 40
1.0
 40
1.0
 40
1.0
 10
12.2332604845
 20
4.7709634936
 30
0.0
 10
12.2197846908
 20
4.76702515
 30
0.0
 10
12.1919620998
 20
4.7593998259
 30
0.0
 10
12.1639296232
 20
4.752592104
 30
0.0
 10
12.1495000665
 20
4.7492847105
 30
0.0
  0
SPLINE
  5
394
100
AcDbEntity
  8
0
100
AcDbSpline
 62
7
  6
CONTINUOUS
 70
0
 71
3
 72
23
 73
19
 74
0
 42
0.0000001
 43
0.0000001
 44
0.0000000001
 40
0.0
 40
0.0
 40
0.0
 40
0.0
 40
0.063775992
 40
0.1273452426
 40
0.190702051
 40
0.2538559967
 40
0.3168132418
 40
0.3795820857
 40
0.4421733813
 40
0.504599339
 40
0.5668738627
 40
0.6290123824
 40
0.6910316504
 40
0.7529496423
 40
0.8147853556
 40
0.8765586046
 40
0.9382898526
 40
1.0
 40
1.0
 40
1.0
 40
1.0
 10
12.7781146812
 20
6.091552335
 30
0.0
 10
12.7781146812
 20
6.0872169308
 30
0.0
 10
12.7779071346
 20
6.0785587084
 30
0.0
 10
12.7769705691
 20
6.0656240715
 30
0.0
 10
12.7754111035
 20
6.0527919096
 30
0.0
 10
12.7732324782
 20
6.0400924924
 30
0.0
 10
12.7704396377
 20
6.0275547465
 30
0.0
 10
12.7670390063
 20
6.015207655
 30
0.0
 10
12.7630383658
 20
6.0030797004
 30
0.0
 10
12.7584469124
 20
5.9911988388
 30
0.0
 10
12.7532752583
 20
5.9795924537
 30
0.0
 10
12.7475352595
 20
5.968287334
 30
0.0
 10
12.7412401189
 20
5.9573095716
 30
0.0
 10
12.7344043911
 20
5.946684452
 30
0.0
 10
12.727043821
 20
5.9364365246
 30
0.0
 10
12.7191752537
 20
5.9265893829
 30
0.0
 10
12.710817205
 20
5.9171660045
 30
0.0
 10
12.7049305764
 20
5.9111796589
 30
0.0
 10
12.7019133245
 20
5.9082652169
 30
0.0
  0
SPLINE
  5
395
100
AcDbEntity
  8
0
100
AcDbSpline
 62
7
  6
CONTINUOUS
 70
0
 71
3
 72
23
 73
19
 74
0
 42
0.0000001
 43
0.0000001
 44
0.0000000001
 40
0.0
 40
0.0
 40
0.0
 40
0.0
 40
0.063775992
 40
0.1273452426
 40
0.190702051
 40
0.2538559967
 40
0.3168132418
 40
0.3795820857
 40
0.4421733813
 40
0.504599339
 40
0.5668738627
 40
0.6290123824
 40
0.6910316504
 40
0.7529496423
 40
0.8147853556
 40
0.8765586046
 40
0.9382898526
 40
1.0
 40
1.0
 40
1.0
 40
1.0
 10
8.9144111471
 20
6.3595010852
 30
0.0
 10
8.9144111471
 20
6.355165681
 30
0.0
 10
8.9142036005
 20
6.3465074586
 30
0.0
 10
8.913267035
 20
6.3335728217
 30
0.0
 10
8.9117075694
 20
6.3207406597
 30
0.0
 10
8.9095289442
 20
6.3080412426
 30
0.0
 10
8.9067361036
 20
6.2955034967
 30
0.0
 10
8.9033354722
 20
6.2831564052
 30
0.0
 10
8.8993348318
 20
6.2710284505
 30
0.0
 10
8.8947433783
 20
6.259147589
 30
0.0
 10
8.8895717243
 20
6.2475412039
 30
0.0
 10
8.8838317254
 20
6.2362360841
 30
0.0
 10
8.8775365848
 20
6.2252583218
 30
0.0
 10
8.870700857
 20
6.2146332022
 30
0.0
 10
8.8633402869
 20
6.2043852748
 30
0.0
 10
8.8554717196
 20
6.1945381331
 30
0.0
 10
8.8471136709
 20
6.1851147547
 30
0.0
 10
8.8412270423
 20
6.1791284091
 30
0.0
 10
8.8382097905
 20
6.1762139671
 30
0.0
  0
SPLINE
  5
396
100
AcDbEntity
  8
0
100
AcDbSpline
 62
7
  6
CONTINUOUS
 70
0
 71
3
 72
61
 73
57
 74
0
 42
0.0000001
 43
0.0000001
 44
0.0000000001
 40
0.0
 40
0.0
 40
0.0
 40
0.0
 40
0.0417736088
 40
0.0840360431
 40
0.126657155
 40
0.1695046842
 40
0.2124458378
 40
0.2553473321
 40
0.2980760744
 40
0.3404996436
 40
0.3824868274
 40
0.4239081481
 40
0.4646363976
 40
0.5045471783
 40
0.5435194547
 40
0.5814361204
 40
0.5999634452
 40
0.6181850312
 40
0.6360876424
 40
0.6536583488
 40
0.6708846631
 40
0.6877544565
 40
0.7042560738
 40
0.7203782989
 40
0.7361104104
 40
0.7514422273
 40
0.7663640903
 40
0.7808669935
 40
0.7949425048
 40
0.8085829615
 40
0.8217813757
 40
0.8345316441
 40
0.8468285057
 40
0.8586677174
 40
0.8700461208
 40
0.8809617639
 40
0.8914141105
 40
0.9014041268
 40
0.9109346407
 40
0.9200104579
 40
0.9286388542
 40
0.9368298218
 40
0.9445966692
 40
0.9519564915
 40
0.9589308526
 40
0.9655464796
 40
0.97183593
 40
0.9778382749
 40
0.9807467215
 40
0.9836011958
 40
0.9864085004
 40
0.9891758164
 40
0.9919106777
 40
0.9946209229
 40
0.9973146203
 40
1.0
 40
1.0
 40
1.0
 40
1.0
 10
13.0672980991
 20
9.7741041467
 30
0.0
 10
13.0672980991
 20
9.7918272278
 30
0.0
 10
13.0675745964
 20
9.8274813386
 30
0.0
 10
13.0687969503
 20
9.8812055006
 30
0.0
 10
13.0708257479
 20
9.9353612902
 30
0.0
 10
13.0736543492
 20
9.9897694808
 30
0.0
 10
13.0772734003
 20
10.0442500317
 30
0.0
 10
13.0816709413
 20
10.0986227177
 30
0.0
 10
13.086832404
 20
10.1527076484
 30
0.0
 10
13.0927406787
 20
10.2063258992
 30
0.0
 10
13.0993761634
 20
10.2593000968
 30
0.0
 10
13.1067168297
 20
10.3114550174
 30
0.0
 10
13.1147382958
 20
10.3626181547
 30
0.0
 10
13.1234138979
 20
10.4126203618
 30
0.0
 10
13.1327147997
 20
10.4612961888
 30
0.0
 10
13.1410233662
 20
10.5009187572
 30
0.0
 10
13.1479689694
 20
10.5318263701
 30
0.0
 10
13.1532747276
 20
10.554398296
 30
0.0
 10
13.1587125819
 20
10.5765210464
 30
0.0
 10
13.1642781062
 20
10.5981763378
 30
0.0
 10
13.1699666221
 20
10.6193462611
 30
0.0
 10
13.1757734626
 20
10.6400133089
 30
0.0
 10
13.1816937778
 20
10.6601603981
 30
0.0
 10
13.187722674
 20
10.6797708746
 30
0.0
 10
13.1938551561
 20
10.6988285331
 30
0.0
 10
13.2000861131
 20
10.7173176332
 30
0.0
 10
13.2064104237
 20
10.735222901
 30
0.0
 10
13.2128227825
 20
10.7525295666
 30
0.0
 10
13.2193179479
 20
10.7692233406
 30
0.0
 10
13.2258904604
 20
10.7852904757
 30
0.0
 10
13.2325349517
 20
10.8007177226
 30
0.0
 10
13.2392458605
 20
10.8154924019
 30
0.0
 10
13.2460176859
 20
10.8296023618
 30
0.0
 10
13.2528448179
 20
10.8430360316
 30
0.0
 10
13.2597216325
 20
10.8557824141
 30
0.0
 10
13.2666425184
 20
10.8678310853
 30
0.0
 10
13.2736017641
 20
10.8791722556
 30
0.0
 10
13.2805938004
 20
10.8897966837
 30
0.0
 10
13.287612903
 20
10.8996958254
 30
0.0
 10
13.2946535902
 20
10.908861653
 30
0.0
 10
13.3017102483
 20
10.9172868658
 30
0.0
 10
13.308777549
 20
10.9249646534
 30
0.0
 10
13.315850147
 20
10.9318888715
 30
0.0
 10
13.3229229718
 20
10.9380538364
 30
0.0
 10
13.3299910368
 20
10.943454299
 30
0.0
 10
13.3370496911
 20
10.9480854426
 30
0.0
 10
13.3440937065
 20
10.9519422966
 30
0.0
 10
13.3500098164
 20
10.9545344276
 30
0.0
 10
13.3547171672
 20
10.9562000502
 30
0.0
 10
13.358202832
 20
10.9572406034
 30
0.0
 10
13.3616795351
 20
10.9580851458
 30
0.0
 10
13.3651466005
 20
10.9587334276
 30
0.0
 10
13.3686032274
 20
10.9591851999
 30
0.0
 10
13.3720486642
 20
10.9594403601
 30
0.0
 10
13.3754819634
 20
10.9594988209
 30
0.0
 10
13.3777637423
 20
10.959406529
 30
0.0
 10
13.3789003254
 20
10.9593277117
 30
0.0
  0
SPLINE
  5
397
100
AcDbEntity
  8
0
100
AcDbSpline
 62
7
  6
CONTINUOUS
 70
0
 71
3
 72
60
 73
56
 74
0
 42
0.0000001
 43
0.0000001
 44
0.0000000001
 40
0.0
 40
0.0
 40
0.0
 40
0.0
 40
0.0417737215
 40
0.0840362954
 40
0.1266575307
 40
0.1695051874
 40
0.2124464681
 40
0.2553480875
 40
0.2980769527
 40
0.3405006415
 40
0.3824879411
 40
0.4239093736
 40
0.4646377307
 40
0.5045486136
 40
0.543520985
 40
0.5814377367
 40
0.599965091
 40
0.6181867239
 40
0.6360893624
 40
0.6536601077
 40
0.6708864507
 40
0.6877562714
 40
0.7042579206
 40
0.7203801597
 40
0.7361123056
 40
0.7514441249
 40
0.7663660213
 40
0.7808689196
 40
0.7949444585
 40
0.8085849095
 40
0.8217833396
 40
0.8345336065
 40
0.8468304684
 40
0.8586696849
 40
0.8700480724
 40
0.8809637257
 40
0.8914160437
 40
0.9014060712
 40
0.9109365509
 40
0.9200123738
 40
0.9286407389
 40
0.9368317014
 40
0.9445985263
 40
0.9519583321
 40
0.9589326812
 40
0.9655482848
 40
0.9718377328
 40
0.9778400566
 40
0.9836011837
 40
0.9864084827
 40
0.9891757961
 40
0.9919106627
 40
0.9946209124
 40
0.9973146132
 40
1.0
 40
1.0
 40
1.0
 40
1.0
 10
13.0854154173
 20
7.4366768643
 30
0.0
 10
13.0854154173
 20
7.4530940588
 30
0.0
 10
13.0856715423
 20
7.4861210842
 30
0.0
 10
13.0868038308
 20
7.5358867117
 30
0.0
 10
13.0886831451
 20
7.5860521678
 30
0.0
 10
13.0913033321
 20
7.6364514216
 30
0.0
 10
13.0946557283
 20
7.6869177042
 30
0.0
 10
13.0987292546
 20
7.7372840678
 30
0.0
 10
13.103510416
 20
7.787383876
 30
0.0
 10
13.1089833633
 20
7.8370513877
 30
0.0
 10
13.1151299385
 20
7.8861222986
 30
0.0
 10
13.1219297358
 20
7.934434296
 30
0.0
 10
13.1293601696
 20
7.981827584
 30
0.0
 10
13.1373965401
 20
8.0281454784
 30
0.0
 10
13.1460121419
 20
8.0732347172
 30
0.0
 10
13.1537085118
 20
8.1099377639
 30
0.0
 10
13.1601423738
 20
8.1385679941
 30
0.0
 10
13.1650571783
 20
8.1594767416
 30
0.0
 10
13.1700943799
 20
8.1799694067
 30
0.0
 10
13.1752498168
 20
8.200029057
 30
0.0
 10
13.1805191996
 20
8.2196390991
 30
0.0
 10
13.1858981853
 20
8.2387833178
 30
0.0
 10
13.1913822727
 20
8.2574458888
 30
0.0
 10
13.1969669676
 20
8.2756113817
 30
0.0
 10
13.2026475744
 20
8.293264792
 30
0.0
 10
13.2084194536
 20
8.3103915283
 30
0.0
 10
13.2142777457
 20
8.326977457
 30
0.0
 10
13.2202176643
 20
8.343008878
 30
0.0
 10
13.226234223
 20
8.3584725764
 30
0.0
 10
13.2323224873
 20
8.3733557954
 30
0.0
 10
13.2384773808
 20
8.3876462827
 30
0.0
 10
13.2446938265
 20
8.4013322768
 30
0.0
 10
13.2509666917
 20
8.4144025297
 30
0.0
 10
13.2572907738
 20
8.4268463261
 30
0.0
 10
13.263660915
 20
8.4386534612
 30
0.0
 10
13.2700718201
 20
8.4498143147
 30
0.0
 10
13.276518337
 20
8.4603197633
 30
0.0
 10
13.2829951354
 20
8.4701613214
 30
0.0
 10
13.2894971046
 20
8.4793309823
 30
0.0
 10
13.2960189701
 20
8.4878214138
 30
0.0
 10
13.3025557165
 20
8.4956257464
 30
0.0
 10
13.309102251
 20
8.5027377699
 30
0.0
 10
13.3156537406
 20
8.5091517159
 30
0.0
 10
13.3222054095
 20
8.5148623585
 30
0.0
 10
13.328752703
 20
8.5198648562
 30
0.0
 10
13.3352911607
 20
8.5241546275
 30
0.0
 10
13.3418165349
 20
8.5277273861
 30
0.0
 10
13.3483238093
 20
8.5305786303
 30
0.0
 10
13.3537753936
 20
8.5323654097
 30
0.0
 10
13.3581062463
 20
8.5334172867
 30
0.0
 10
13.3613178957
 20
8.5340177608
 30
0.0
 10
13.3645198106
 20
8.5344362335
 30
0.0
 10
13.3677113805
 20
8.5346725719
 30
0.0
 10
13.3708917027
 20
8.5347266416
 30
0.0
 10
13.3730053503
 20
8.5346411221
 30
0.0
 10
13.3740581863
 20
8.5345681055
 30
0.0
  0
SPLINE
  5
398
100
AcDbEntity
  8
0
100
AcDbSpline
 62
7
  6
CONTINUOUS
 70
0
 71
3
 72
55
 73
51
 74
0
 42
0.0000001
 43
0.0000001
 44
0.0000000001
 40
0.0
 40
0.0
 40
0.0
 40
0.0
 40
0.0481975415
 40
0.0958290817
 40
0.142818713
 40
0.1890963521
 40
0.2345910715
 40
0.279234315
 40
0.3229593385
 40
0.3657013756
 40
0.4073979227
 40
0.4479889149
 40
0.4874169784
 40
0.525627636
 40
0.5625695632
 40
0.5981948995
 40
0.6324596307
 40
0.6653239472
 40
0.681220104
 40
0.69675341
 40
0.7119202568
 40
0.7267175098
 40
0.7411423279
 40
0.7551923488
 40
0.7688656914
 40
0.782160877
 40
0.7950770786
 40
0.8076139743
 40
0.8197718786
 40
0.8315518771
 40
0.8429557109
 40
0.8539860605
 40
0.8646465134
 40
0.8749416424
 40
0.8848772785
 40
0.8944604376
 40
0.9036996141
 40
0.912604918
 40
0.921188144
 40
0.9294631376
 40
0.9374458256
 40
0.9451544636
 40
0.952609859
 40
0.9598353745
 40
0.966857131
 40
0.9737039172
 40
0.9804070573
 40
0.9870002114
 40
0.9935188976
 40
1.0
 40
1.0
 40
1.0
 40
1.0
 10
9.7095923828
 20
11.7211795822
 30
0.0
 10
9.6983131545
 20
11.7219617994
 30
0.0
 10
9.6758956648
 20
11.7236429639
 30
0.0
 10
9.6425170464
 20
11.7265336453
 30
0.0
 10
9.609623097
 20
11.729774896
 30
0.0
 10
9.5772692319
 20
11.7333611602
 30
0.0
 10
9.5455092437
 20
11.7372864942
 30
0.0
 10
9.5143963374
 20
11.7415442733
 30
0.0
 10
9.4839824912
 20
11.7461273385
 30
0.0
 10
9.4543185299
 20
11.7510279893
 30
0.0
 10
9.4254540262
 20
11.7562379921
 30
0.0
 10
9.3974371931
 20
11.7617485916
 30
0.0
 10
9.3703148062
 20
11.7675505107
 30
0.0
 10
9.3441321241
 20
11.773633991
 30
0.0
 10
9.3189328332
 20
11.7799888046
 30
0.0
 10
9.2947588965
 20
11.7866042745
 30
0.0
 10
9.2716506875
 20
11.7934692719
 30
0.0
 10
9.253114031
 20
11.7994528287
 30
0.0
 10
9.2388533346
 20
11.8043637667
 30
0.0
 10
9.2285666223
 20
11.8080612571
 30
0.0
 10
9.2185742277
 20
11.8118123826
 30
0.0
 10
9.2088802914
 20
11.8156155356
 30
0.0
 10
9.1994888661
 20
11.8194691643
 30
0.0
 10
9.1904038621
 20
11.8233716552
 30
0.0
 10
9.181629049
 20
11.8273213429
 30
0.0
 10
9.1731680975
 20
11.8313166436
 30
0.0
 10
9.1650245039
 20
11.8353558378
 30
0.0
 10
9.1572016546
 20
11.8394372671
 30
0.0
 10
9.1497028065
 20
11.843559266
 30
0.0
 10
9.1425310387
 20
11.8477200686
 30
0.0
 10
9.1356893477
 20
11.8519180254
 30
0.0
 10
9.1291805434
 20
11.8561513758
 30
0.0
 10
9.1230073018
 20
11.8604183769
 30
0.0
 10
9.1171722045
 20
11.8647173542
 30
0.0
 10
9.1116776105
 20
11.8690464996
 30
0.0
 10
9.1065258175
 20
11.8734041334
 30
0.0
 10
9.1017189578
 20
11.8777885251
 30
0.0
 10
9.097258988
 20
11.8821979089
 30
0.0
 10
9.0931478484
 20
11.8866306503
 30
0.0
 10
9.0893872324
 20
11.8910849824
 30
0.0
 10
9.0859787991
 20
11.8955592328
 30
0.0
 10
9.0829241366
 20
11.9000517334
 30
0.0
 10
9.0802246104
 20
11.9045607124
 30
0.0
 10
9.0778816824
 20
11.9090844913
 30
0.0
 10
9.0758965878
 20
11.9136212339
 30
0.0
 10
9.0742704838
 20
11.9181690628
 30
0.0
 10
9.0730045415
 20
11.9227259913
 30
0.0
 10
9.0720995394
 20
11.9272899673
 30
0.0
 10
9.0715562643
 20
11.9318583994
 30
0.0
 10
9.0714354108
 20
11.9349092887
 30
0.0
 10
9.0714354138
 20
11.9364296446
 30
0.0
  0
SPLINE
  5
399
100
AcDbEntity
  8
0
100
AcDbSpline
 62
7
  6
CONTINUOUS
 70
0
 71
3
 72
39
 73
35
 74
0
 42
0.0000001
 43
0.0000001
 44
0.0000000001
 40
0.0
 40
0.0
 40
0.0
 40
0.0
 40
0.0299424718
 40
0.0599093198
 40
0.0899243266
 40
0.120010106
 40
0.1501875647
 40
0.1804754164
 40
0.2108897604
 40
0.2414437366
 40
0.2721472601
 40
0.3030068419
 40
0.3340254933
 40
0.365202712
 40
0.3965345466
 40
0.4280137318
 40
0.4596298892
 40
0.491369784
 40
0.5232176323
 40
0.5551554498
 40
0.5871634345
 40
0.6192203774
 40
0.651304093
 40
0.6833918636
 40
0.7154608911
 40
0.7474887497
 40
0.7794538335
 40
0.8113357936
 40
0.8431159524
 40
0.8747777124
 40
0.906306864
 40
0.9376920822
 40
0.9689247084
 40
1.0
 40
1.0
 40
1.0
 40
1.0
 10
12.3114656913
 20
6.3124862526
 30
0.0
 10
12.3161273877
 20
6.3169891063
 30
0.0
 10
12.3258173404
 20
6.3256314147
 30
0.0
 10
12.3413421549
 20
6.3374050295
 30
0.0
 10
12.3577775013
 20
6.3479298742
 30
0.0
 10
12.3750315461
 20
6.3571469074
 30
0.0
 10
12.3930094274
 20
6.3650057746
 30
0.0
 10
12.4116119272
 20
6.3714632759
 30
0.0
 10
12.4307365348
 20
6.3764840798
 30
0.0
 10
12.4502778871
 20
6.380040775
 30
0.0
 10
12.4701283931
 20
6.3821140417
 30
0.0
 10
12.4901788195
 20
6.3826927338
 30
0.0
 10
12.5103188941
 20
6.3817739278
 30
0.0
 10
12.5304379084
 20
6.3793629249
 30
0.0
 10
12.5504253205
 20
6.3754732106
 30
0.0
 10
12.5701713555
 20
6.3701263715
 30
0.0
 10
12.5895676001
 20
6.3633519695
 30
0.0
 10
12.6085075897
 20
6.3551873749
 30
0.0
 10
12.6268873841
 20
6.3456775585
 30
0.0
 10
12.6446061308
 20
6.3348748445
 30
0.0
 10
12.6615666111
 20
6.3228386227
 30
0.0
 10
12.677675766
 20
6.3096350233
 30
0.0
 10
12.692845201
 20
6.295336557
 30
0.0
 10
12.7069916658
 20
6.2800217201
 30
0.0
 10
12.7200375064
 20
6.2637745678
 30
0.0
 10
12.7319110865
 20
6.2466842572
 30
0.0
 10
12.7425471785
 20
6.228844565
 30
0.0
 10
12.7518873162
 20
6.2103533744
 30
0.0
 10
12.7598801216
 20
6.191312158
 30
0.0
 10
12.7664815654
 20
6.1718253841
 30
0.0
 10
12.771655262
 20
6.152000108
 30
0.0
 10
12.7753725578
 20
6.1319448087
 30
0.0
 10
12.7776128979
 20
6.1117710579
 30
0.0
 10
12.7781146812
 20
6.0982788319
 30
0.0
 10
12.7781146812
 20
6.091552335
 30
0.0
  0
SPLINE
  5
39A
100
AcDbEntity
  8
0
100
AcDbSpline
 62
7
  6
CONTINUOUS
 70
0
 71
3
 72
39
 73
35
 74
0
 42
0.0000001
 43
0.0000001
 44
0.0000000001
 40
0.0
 40
0.0
 40
0.0
 40
0.0
 40
0.0299424718
 40
0.0599093198
 40
0.0899243266
 40
0.120010106
 40
0.1501875647
 40
0.1804754164
 40
0.2108897604
 40
0.2414437366
 40
0.2721472601
 40
0.3030068419
 40
0.3340254933
 40
0.365202712
 40
0.3965345466
 40
0.4280137318
 40
0.4596298892
 40
0.491369784
 40
0.5232176323
 40
0.5551554498
 40
0.5871634345
 40
0.6192203774
 40
0.651304093
 40
0.6833918636
 40
0.7154608911
 40
0.7474887497
 40
0.7794538335
 40
0.8113357936
 40
0.8431159524
 40
0.8747777124
 40
0.906306864
 40
0.9376920822
 40
0.9689247084
 40
1.0
 40
1.0
 40
1.0
 40
1.0
 10
8.4477621572
 20
6.5804350027
 30
0.0
 10
8.4524238537
 20
6.5849378565
 30
0.0
 10
8.4621138063
 20
6.5935801649
 30
0.0
 10
8.4776386208
 20
6.6053537797
 30
0.0
 10
8.4940739672
 20
6.6158786244
 30
0.0
 10
8.511328012
 20
6.6250956576
 30
0.0
 10
8.5293058933
 20
6.6329545248
 30
0.0
 10
8.5479083932
 20
6.6394120261
 30
0.0
 10
8.5670330007
 20
6.64443283
 30
0.0
 10
8.586574353
 20
6.6479895252
 30
0.0
 10
8.606424859
 20
6.6500627919
 30
0.0
 10
8.6264752854
 20
6.650641484
 30
0.0
 10
8.64661536
 20
6.649722678
 30
0.0
 10
8.6667343743
 20
6.6473116751
 30
0.0
 10
8.6867217864
 20
6.6434219608
 30
0.0
 10
8.7064678214
 20
6.6380751216
 30
0.0
 10
8.725864066
 20
6.6313007196
 30
0.0
 10
8.7448040556
 20
6.6231361251
 30
0.0
 10
8.76318385
 20
6.6136263086
 30
0.0
 10
8.7809025967
 20
6.6028235947
 30
0.0
 10
8.797863077
 20
6.5907873728
 30
0.0
 10
8.8139722319
 20
6.5775837734
 30
0.0
 10
8.8291416669
 20
6.5632853072
 30
0.0
 10
8.8432881317
 20
6.5479704703
 30
0.0
 10
8.8563339723
 20
6.531723318
 30
0.0
 10
8.8682075524
 20
6.5146330074
 30
0.0
 10
8.8788436444
 20
6.4967933151
 30
0.0
 10
8.8881837821
 20
6.4783021246
 30
0.0
 10
8.8961765875
 20
6.4592609082
 30
0.0
 10
8.9027780313
 20
6.4397741342
 30
0.0
 10
8.907951728
 20
6.4199488582
 30
0.0
 10
8.9116690237
 20
6.3998935588
 30
0.0
 10
8.9139093638
 20
6.379719808
 30
0.0
 10
8.9144111471
 20
6.366227582
 30
0.0
 10
8.9144111471
 20
6.3595010852
 30
0.0
  0
SPLINE
  5
39B
100
AcDbEntity
  8
0
100
AcDbSpline
 62
7
  6
CONTINUOUS
 70
0
 71
3
 72
61
 73
57
 74
0
 42
0.0000001
 43
0.0000001
 44
0.0000000001
 40
0.0
 40
0.0
 40
0.0
 40
0.0
 40
0.0027758433
 40
0.0055595941
 40
0.0083590873
 40
0.0111820092
 40
0.0140358402
 40
0.0169278032
 40
0.0228516385
 40
0.0290063602
 40
0.0354367082
 40
0.0387681006
 40
0.0421822872
 40
0.0492730731
 40
0.0567370731
 40
0.064596108
 40
0.072867737
 40
0.081565694
 40
0.09070057
 40
0.1002800962
 40
0.110309688
 40
0.1207926208
 40
0.131730418
 40
0.1431229861
 40
0.1549688512
 40
0.1672653029
 40
0.1800084954
 40
0.1931936241
 40
0.2068149163
 40
0.2208658417
 40
0.235339028
 40
0.2502264837
 40
0.2655194851
 40
0.2812087772
 40
0.2972844765
 40
0.3137362206
 40
0.3305531169
 40
0.3477238252
 40
0.3652365653
 40
0.3830791312
 40
0.4012389558
 40
0.4197030683
 40
0.4574902793
 40
0.4963311237
 40
0.5361109391
 40
0.5767111052
 40
0.6180096092
 40
0.6598815936
 40
0.7021998921
 40
0.7448355581
 40
0.7876583843
 40
0.8305374341
 40
0.8733415137
 40
0.9159398405
 40
0.9582021223
 40
1.0
 40
1.0
 40
1.0
 40
1.0
 10
10.7934353797
 20
11.9364291901
 30
0.0
 10
10.7934353776
 20
11.9353653279
 30
0.0
 10
10.7933763559
 20
11.9332341043
 30
0.0
 10
10.7931108792
 20
11.9300398993
 30
0.0
 10
10.79266849
 20
11.9268470629
 30
0.0
 10
10.7920493773
 20
11.9236564619
 30
0.0
 10
10.7912536735
 20
11.9204686938
 30
0.0
 10
10.7899473662
 20
11.9161895038
 30
0.0
 10
10.7878568715
 20
11.9108355663
 30
0.0
 10
10.7846652584
 20
11.9044902497
 30
0.0
 10
10.7814612701
 20
11.8992905839
 30
0.0
 10
10.7785658854
 20
11.8951521718
 30
0.0
 10
10.7753646829
 20
11.8909231218
 30
0.0
 10
10.7709138508
 20
11.8856602744
 30
0.0
 10
10.7649533486
 20
11.8794672981
 30
0.0
 10
10.7583123996
 20
11.8733228758
 30
0.0
 10
10.7509965314
 20
11.8672317699
 30
0.0
 10
10.7430116146
 20
11.8611982878
 30
0.0
 10
10.7343639584
 20
11.8552271338
 30
0.0
 10
10.7250605045
 20
11.8493228133
 30
0.0
 10
10.7151086423
 20
11.8434900591
 30
0.0
 10
10.704516381
 20
11.8377334365
 30
0.0
 10
10.6932922213
 20
11.8320576174
 30
0.0
 10
10.6814452316
 20
11.8264671588
 30
0.0
 10
10.6689849964
 20
11.8209666059
 30
0.0
 10
10.6559216189
 20
11.815560457
 30
0.0
 10
10.6422657227
 20
11.8102530928
 30
0.0
 10
10.6280284127
 20
11.8050489108
 30
0.0
 10
10.6132213032
 20
11.7999521102
 30
0.0
 10
10.5978564626
 20
11.7949669483
 30
0.0
 10
10.5819464469
 20
11.7900974378
 30
0.0
 10
10.5655042466
 20
11.7853476583
 30
0.0
 10
10.5485433107
 20
11.7807214375
 30
0.0
 10
10.5310775064
 20
11.776222643
 30
0.0
 10
10.5131211275
 20
11.771854919
 30
0.0
 10
10.4946888687
 20
11.7676218946
 30
0.0
 10
10.4757958204
 20
11.7635270257
 30
0.0
 10
10.4564574532
 20
11.7595736859
 30
0.0
 10
10.4366896031
 20
11.7557651316
 30
0.0
 10
10.4165084672
 20
11.7521044755
 30
0.0
 10
10.3959305595
 20
11.7485947412
 30
0.0
 10
10.3677702748
 20
11.7440855286
 30
0.0
 10
10.3316999503
 20
11.7388576376
 30
0.0
 10
10.287433932
 20
11.7332762531
 30
0.0
 10
10.2420048327
 20
11.7283582713
 30
0.0
 10
10.1955615454
 20
11.72411992
 30
0.0
 10
10.1482561449
 20
11.7205752093
 30
0.0
 10
10.1002436036
 20
11.7177358449
 30
0.0
 10
10.0516812159
 20
11.7156112029
 30
0.0
 10
10.0027280954
 20
11.7142082982
 30
0.0
 10
9.9535446418
 20
11.7135317607
 30
0.0
 10
9.9042920217
 20
11.7135838267
 30
0.0
 10
9.8551316104
 20
11.7143643172
 30
0.0
 10
9.8062245165
 20
11.7158706708
 30
0.0
 10
9.7577310669
 20
11.7180978866
 30
0.0
 10
9.725573341
 20
11.720071299
 30
0.0
 10
9.7095923828
 20
11.7211795822
 30
0.0
  0
SPLINE
  5
39C
100
AcDbEntity
  8
0
100
AcDbSpline
 62
7
  6
CONTINUOUS
 70
0
 71
3
 72
54
 73
50
 74
0
 42
0.0000001
 43
0.0000001
 44
0.0000000001
 40
0.0
 40
0.0
 40
0.0
 40
0.0
 40
0.0063158507
 40
0.0126706009
 40
0.0191023977
 40
0.0256478986
 40
0.0323417211
 40
0.0392160215
 40
0.0536137219
 40
0.0611943855
 40
0.0690560622
 40
0.0772171197
 40
0.0856934318
 40
0.0944987522
 40
0.1036448027
 40
0.113141486
 40
0.1229971814
 40
0.1332187245
 40
0.1438117391
 40
0.1547806923
 40
0.1661289554
 40
0.1778590781
 40
0.1899726748
 40
0.2024706471
 40
0.2153532452
 40
0.2286199987
 40
0.2422699729
 40
0.2563016345
 40
0.2707129683
 40
0.2855015805
 40
0.3006645508
 40
0.3161986637
 40
0.3321003047
 40
0.364989385
 40
0.3992970598
 40
0.4349833452
 40
0.4720041093
 40
0.5103114544
 40
0.549854083
 40
0.590577587
 40
0.6324246928
 40
0.6753354638
 40
0.7192475599
 40
0.7640963991
 40
0.8098154153
 40
0.8563362597
 40
0.9035882195
 40
0.9515013118
 40
1.0
 40
1.0
 40
1.0
 40
1.0
 10
13.2474516527
 20
9.0638802178
 30
0.0
 10
13.245845972
 20
9.063991565
 30
0.0
 10
13.2426323105
 20
9.0643463832
 30
0.0
 10
13.237847816
 20
9.0652711552
 30
0.0
 10
13.2330953152
 20
9.0665885852
 30
0.0
 10
13.2283775748
 20
9.0682975411
 30
0.0
 10
13.2236964285
 20
9.0703970259
 30
0.0
 10
13.2174109446
 20
9.07376637
 30
0.0
 10
13.211296109
 20
9.0778908996
 30
0.0
 10
13.2053785427
 20
9.0826706473
 30
0.0
 10
13.200908757
 20
9.0867005162
 30
0.0
 10
13.1964867349
 20
9.0911112509
 30
0.0
 10
13.1921135224
 20
9.0959012246
 30
0.0
 10
13.1877909512
 20
9.1010684075
 30
0.0
 10
13.1835206029
 20
9.10661069
 30
0.0
 10
13.1793040809
 20
9.1125257831
 30
0.0
 10
13.1751431
 20
9.1188113363
 30
0.0
 10
13.171039218
 20
9.1254647558
 30
0.0
 10
13.1669941003
 20
9.1324833664
 30
0.0
 10
13.1630093824
 20
9.1398643242
 30
0.0
 10
13.1590866075
 20
9.1476046044
 30
0.0
 10
13.1552274402
 20
9.1557010855
 30
0.0
 10
13.1514333952
 20
9.1641504433
 30
0.0
 10
13.1477060294
 20
9.1729492314
 30
0.0
 10
13.1440469092
 20
9.1820938621
 30
0.0
 10
13.1404574691
 20
9.1915805724
 30
0.0
 10
13.1369392457
 20
9.2014054893
 30
0.0
 10
13.1334936594
 20
9.2115645731
 30
0.0
 10
13.130122113
 20
9.2220536498
 30
0.0
 10
13.1268260497
 20
9.2328684201
 30
0.0
 10
13.1236067724
 20
9.2440044225
 30
0.0
 10
13.1204656336
 20
9.2554570957
 30
0.0
 10
13.1163370126
 20
9.271321663
 30
0.0
 10
13.111392071
 20
9.291915407
 30
0.0
 10
13.1058544127
 20
9.317544801
 30
0.0
 10
13.1006576561
 20
9.3443187398
 30
0.0
 10
13.0958104478
 20
9.3721930971
 30
0.0
 10
13.0913208579
 20
9.4011220631
 30
0.0
 10
13.0871963668
 20
9.4310580098
 30
0.0
 10
13.0834438515
 20
9.4619516455
 30
0.0
 10
13.0800695755
 20
9.4937520719
 30
0.0
 10
13.0770791529
 20
9.5264068748
 30
0.0
 10
13.0744775666
 20
9.55986221
 30
0.0
 10
13.0722691526
 20
9.5940629135
 30
0.0
 10
13.0704576001
 20
9.6289526094
 30
0.0
 10
13.0690459531
 20
9.6644736294
 30
0.0
 10
13.0680365119
 20
9.7005676893
 30
0.0
 10
13.0674310513
 20
9.7371748133
 30
0.0
 10
13.0672980991
 20
9.7617446993
 30
0.0
 10
13.0672980991
 20
9.7741041467
 30
0.0
  0
SPLINE
  5
39D
100
AcDbEntity
  8
0
100
AcDbSpline
 62
7
  6
CONTINUOUS
 70
0
 71
3
 72
35
 73
31
 74
0
 42
0.0000001
 43
0.0000001
 44
0.0000000001
 40
0.0
 40
0.0
 40
0.0
 40
0.0
 40
0.0162143026
 40
0.0334272723
 40
0.0516715624
 40
0.0709706074
 40
0.0913400271
 40
0.1127890733
 40
0.1353212558
 40
0.1589355604
 40
0.1836266397
 40
0.2093857288
 40
0.2362007638
 40
0.264056894
 40
0.2929367518
 40
0.3228205587
 40
0.3536865909
 40
0.3855109973
 40
0.4182683466
 40
0.4519313762
 40
0.4864714288
 40
0.5218583391
 40
0.5580606248
 40
0.595045601
 40
0.6327793332
 40
0.6712269265
 40
0.7501175084
 40
0.8314198815
 40
0.9148213429
 40
1.0
 40
1.0
 40
1.0
 40
1.0
 10
13.1634309698
 20
9.3731521268
 30
0.0
 10
13.1617635899
 20
9.3752022456
 30
0.0
 10
13.1584664761
 20
9.3795442324
 30
0.0
 10
13.1537644038
 20
9.3865351143
 30
0.0
 10
13.1491656959
 20
9.3941871158
 30
0.0
 10
13.1446751036
 20
9.4024921432
 30
0.0
 10
13.1402969094
 20
9.411441871
 30
0.0
 10
13.1360356509
 20
9.42102716
 30
0.0
 10
13.1318955893
 20
9.4312381465
 30
0.0
 10
13.1278811238
 20
9.4420643096
 30
0.0
 10
13.123996358
 20
9.4534944032
 30
0.0
 10
13.120245438
 20
9.4655165442
 30
0.0
 10
13.1166322808
 20
9.4781181817
 30
0.0
 10
13.1131607065
 20
9.4912861398
 30
0.0
 10
13.1098344153
 20
9.5050066276
 30
0.0
 10
13.1066568775
 20
9.5192652534
 30
0.0
 10
13.1036315306
 20
9.5340470505
 30
0.0
 10
13.100761505
 20
9.5493364876
 30
0.0
 10
13.098049918
 20
9.5651174906
 30
0.0
 10
13.0954995847
 20
9.5813734619
 30
0.0
 10
13.0931132508
 20
9.598087295
 30
0.0
 10
13.0908934311
 20
9.6152413983
 30
0.0
 10
13.0888424709
 20
9.6328177125
 30
0.0
 10
13.086962581
 20
9.6507977227
 30
0.0
 10
13.085255688
 20
9.6691625162
 30
0.0
 10
13.0831954218
 20
9.6943520349
 30
0.0
 10
13.0810766919
 20
9.7266590768
 30
0.0
 10
13.079269638
 20
9.7663207263
 30
0.0
 10
13.0781846692
 20
9.8070336825
 30
0.0
 10
13.0779481139
 20
9.8345090834
 30
0.0
 10
13.0779481139
 20
9.8483912732
 30
0.0
  0
SPLINE
  5
39E
100
AcDbEntity
  8
0
100
AcDbSpline
 62
7
  6
CONTINUOUS
 70
0
 71
3
 72
49
 73
45
 74
0
 42
0.0000001
 43
0.0000001
 44
0.0000000001
 40
0.0
 40
0.0
 40
0.0
 40
0.0
 40
0.0070629146
 40
0.0144559708
 40
0.022188369
 40
0.0302674222
 40
0.0386986612
 40
0.047486257
 40
0.056632964
 40
0.066140483
 40
0.0760094589
 40
0.0862396177
 40
0.0968299456
 40
0.1077785894
 40
0.1190831572
 40
0.1307405437
 40
0.1427471621
 40
0.1550988978
 40
0.1677911284
 40
0.1808188769
 40
0.1941766466
 40
0.2078586706
 40
0.2361698433
 40
0.2656995715
 40
0.2963896393
 40
0.3281774849
 40
0.3609966393
 40
0.3947771125
 40
0.4294457399
 40
0.4649265035
 40
0.5011408341
 40
0.5380078971
 40
0.5754448724
 40
0.6133672343
 40
0.6516890196
 40
0.6903230915
 40
0.7291813988
 40
0.7681752373
 40
0.8072155137
 40
0.8462129582
 40
0.8850786071
 40
0.9237232965
 40
0.9620599881
 40
1.0
 40
1.0
 40
1.0
 40
1.0
 10
13.2529931579
 20
10.6646133311
 30
0.0
 10
13.2515327567
 20
10.6632541358
 30
0.0
 10
13.2486134953
 20
10.6603964593
 30
0.0
 10
13.2443350459
 20
10.6558140279
 30
0.0
 10
13.2400612054
 20
10.6508422716
 30
0.0
 10
13.235794638
 20
10.6454842647
 30
0.0
 10
13.2315376946
 20
10.6397432101
 30
0.0
 10
13.2272929931
 20
10.633622488
 30
0.0
 10
13.223062963
 20
10.6271258033
 30
0.0
 10
13.2188501913
 20
10.6202570219
 30
0.0
 10
13.2146571943
 20
10.613020281
 30
0.0
 10
13.210486475
 20
10.605419947
 30
0.0
 10
13.2063406201
 20
10.5974605841
 30
0.0
 10
13.2022220623
 20
10.5891470298
 30
0.0
 10
13.1981333877
 20
10.5804842888
 30
0.0
 10
13.1940770178
 20
10.5714776302
 30
0.0
 10
13.1900554582
 20
10.5621325056
 30
0.0
 10
13.1860711618
 20
10.5524545882
 30
0.0
 10
13.1821265205
 20
10.542449762
 30
0.0
 10
13.1782240078
 20
10.5321240969
 30
0.0
 10
13.1743659115
 20
10.5214838752
 30
0.0
 10
13.1692257285
 20
10.5067177898
 30
0.0
 10
13.1629388954
 20
10.4875158484
 30
0.0
 10
13.1556919069
 20
10.4635799461
 30
0.0
 10
13.1486766341
 20
10.4385537491
 30
0.0
 10
13.1419102663
 20
10.4124981827
 30
0.0
 10
13.1354093837
 20
10.3854765606
 30
0.0
 10
13.1291899104
 20
10.3575546302
 30
0.0
 10
13.1232670771
 20
10.3288003438
 30
0.0
 10
13.1176553836
 20
10.2992837058
 30
0.0
 10
13.1123685647
 20
10.2690765942
 30
0.0
 10
13.1074195553
 20
10.2382525857
 30
0.0
 10
13.1028204551
 20
10.2068867732
 30
0.0
 10
13.0985825062
 20
10.175055578
 30
0.0
 10
13.0947160646
 20
10.1428365602
 30
0.0
 10
13.0912305761
 20
10.1103082294
 30
0.0
 10
13.0881345529
 20
10.0775498531
 30
0.0
 10
13.0854355537
 20
10.0446412613
 30
0.0
 10
13.0831401647
 20
10.0116626631
 30
0.0
 10
13.0812539664
 20
9.9786943974
 30
0.0
 10
13.0797815752
 20
9.9458169084
 30
0.0
 10
13.0787265181
 20
9.9131100886
 30
0.0
 10
13.0780914208
 20
9.8806539698
 30
0.0
 10
13.0779481139
 20
9.8591080721
 30
0.0
 10
13.0779481139
 20
9.8483912732
 30
0.0
  0
SPLINE
  5
39F
100
AcDbEntity
  8
0
100
AcDbSpline
 62
7
  6
CONTINUOUS
 70
0
 71
3
 72
54
 73
50
 74
0
 42
0.0000001
 43
0.0000001
 44
0.0000000001
 40
0.0
 40
0.0
 40
0.0
 40
0.0
 40
0.0063158427
 40
0.0126705974
 40
0.0191023953
 40
0.0256479035
 40
0.0323417516
 40
0.0392160545
 40
0.0536138127
 40
0.061194488
 40
0.0690562166
 40
0.0772172825
 40
0.0856936302
 40
0.0944989909
 40
0.1036450473
 40
0.113141787
 40
0.1229974971
 40
0.1332190617
 40
0.1438121259
 40
0.1547810799
 40
0.1661293869
 40
0.1778595312
 40
0.189973133
 40
0.2024711534
 40
0.2153537503
 40
0.2286205275
 40
0.2422705277
 40
0.256302183
 40
0.2707135528
 40
0.2855021644
 40
0.300665138
 40
0.316199276
 40
0.3321009043
 40
0.3649900029
 40
0.3992976831
 40
0.4349839512
 40
0.472004695
 40
0.5103120262
 40
0.5498546333
 40
0.5905781015
 40
0.6324251619
 40
0.6753358913
 40
0.7192479428
 40
0.7640967229
 40
0.8098156864
 40
0.8563364658
 40
0.9035883331
 40
0.9515014468
 40
1.0
 40
1.0
 40
1.0
 40
1.0
 10
13.2522937918
 20
6.778785286
 30
0.0
 10
13.2508064285
 20
6.778888438
 30
0.0
 10
13.247829565
 20
6.7792171091
 30
0.0
 10
13.2433976409
 20
6.7800738639
 30
0.0
 10
13.2389953324
 20
6.781294234
 30
0.0
 10
13.2346252233
 20
6.7828773074
 30
0.0
 10
13.2302890434
 20
6.7848221871
 30
0.0
 10
13.2244666826
 20
6.7879432595
 30
0.0
 10
13.2188024794
 20
6.7917639939
 30
0.0
 10
13.213320926
 20
6.7961915604
 30
0.0
 10
13.2091805502
 20
6.7999245728
 30
0.0
 10
13.2050843425
 20
6.8040103095
 30
0.0
 10
13.2010333952
 20
6.8084473842
 30
0.0
 10
13.1970293598
 20
6.8132338686
 30
0.0
 10
13.1930736504
 20
6.8183677811
 30
0.0
 10
13.1891678726
 20
6.8238470775
 30
0.0
 10
13.1853134854
 20
6.8296694983
 30
0.0
 10
13.1815120048
 20
6.8358326882
 30
0.0
 10
13.1777649904
 20
6.8423341727
 30
0.0
 10
13.1740738663
 20
6.8491712776
 30
0.0
 10
13.1704401771
 20
6.8563412501
 30
0.0
 10
13.1668653809
 20
6.8638411627
 30
0.0
 10
13.1633508947
 20
6.8716679453
 30
0.0
 10
13.1598982204
 20
6.8798184238
 30
0.0
 10
13.1565087107
 20
6.8882892439
 30
0.0
 10
13.1531837785
 20
6.8970769446
 30
0.0
 10
13.149924816
 20
6.906177929
 30
0.0
 10
13.1467331082
 20
6.9155884498
 30
0.0
 10
13.1436100284
 20
6.9253046556
 30
0.0
 10
13.1405568341
 20
6.9353225469
 30
0.0
 10
13.1375747768
 20
6.9456380005
 30
0.0
 10
13.1346651183
 20
6.9562467925
 30
0.0
 10
13.1308407089
 20
6.9709423827
 30
0.0
 10
13.1262601682
 20
6.9900186846
 30
0.0
 10
13.1211305711
 20
7.0137595783
 30
0.0
 10
13.116316752
 20
7.0385606707
 30
0.0
 10
13.1118267247
 20
7.0643810923
 30
0.0
 10
13.1076679701
 20
7.0911784131
 30
0.0
 10
13.1038474094
 20
7.1189085108
 30
0.0
 10
13.1003714111
 20
7.1475257218
 30
0.0
 10
13.0972457771
 20
7.1769829011
 30
0.0
 10
13.0944757169
 20
7.2072315003
 30
0.0
 10
13.0920658401
 20
7.238221641
 30
0.0
 10
13.090020161
 20
7.2699022244
 30
0.0
 10
13.0883420978
 20
7.3022210267
 30
0.0
 10
13.0870344742
 20
7.335124626
 30
0.0
 10
13.0860994166
 20
7.3685590582
 30
0.0
 10
13.0855385739
 20
7.4024687326
 30
0.0
 10
13.0854154173
 20
7.4252281563
 30
0.0
 10
13.0854154173
 20
7.4366768643
 30
0.0
  0
SPLINE
  5
3A0
100
AcDbEntity
  8
0
100
AcDbSpline
 62
7
  6
CONTINUOUS
 70
0
 71
3
 72
49
 73
45
 74
0
 42
0.0000001
 43
0.0000001
 44
0.0000000001
 40
0.0
 40
0.0
 40
0.0
 40
0.0
 40
0.0455520348
 40
0.0906172391
 40
0.1351364895
 40
0.1790571357
 40
0.2223253225
 40
0.2648883701
 40
0.3066950953
 40
0.3476954933
 40
0.3878410167
 40
0.427084628
 40
0.4653809569
 40
0.5026864676
 40
0.5389595089
 40
0.5741605147
 40
0.6082522409
 40
0.641199848
 40
0.6729711422
 40
0.7035369332
 40
0.7328712173
 40
0.7609515242
 40
0.7877594761
 40
0.8006821772
 40
0.8132820064
 40
0.825558021
 40
0.8375097362
 40
0.8491369881
 40
0.8604400637
 40
0.8714197993
 40
0.8820774643
 40
0.8924149284
 40
0.902434744
 40
0.9121400646
 40
0.9215348493
 40
0.9306239359
 40
0.9394130061
 40
0.9479088264
 40
0.9561193187
 40
0.9640535796
 40
0.9717221467
 40
0.9791370633
 40
0.9863119401
 40
1.0
 40
1.0
 40
1.0
 40
1.0
 10
13.497234621
 20
10.253390963
 30
0.0
 10
13.497234621
 20
10.2645049117
 30
0.0
 10
13.497127021
 20
10.2866141929
 30
0.0
 10
13.4966376435
 20
10.3195821798
 30
0.0
 10
13.4958216653
 20
10.3521455982
 30
0.0
 10
13.4946802425
 20
10.3842605332
 30
0.0
 10
13.4932149011
 20
10.4158845634
 30
0.0
 10
13.4914276175
 20
10.4469754646
 30
0.0
 10
13.4893207855
 20
10.4774917877
 30
0.0
 10
13.4868972383
 20
10.5073929013
 30
0.0
 10
13.4841602508
 20
10.5366389704
 30
0.0
 10
13.4811134829
 20
10.5651910387
 30
0.0
 10
13.4777610238
 20
10.5930110873
 30
0.0
 10
13.4741074013
 20
10.6200620841
 30
0.0
 10
13.4701575112
 20
10.6463080251
 30
0.0
 10
13.4659166451
 20
10.671713992
 30
0.0
 10
13.461390528
 20
10.6962462112
 30
0.0
 10
13.4565852344
 20
10.7198720828
 30
0.0
 10
13.4515071908
 20
10.7425602381
 30
0.0
 10
13.4461632416
 20
10.764280585
 30
0.0
 10
13.4405605545
 20
10.7850044093
 30
0.0
 10
13.4347065968
 20
10.8047041523
 30
0.0
 10
13.4295645735
 20
10.8204321933
 30
0.0
 10
13.4253226547
 20
10.8324751795
 30
0.0
 10
13.4221222199
 20
10.8411247017
 30
0.0
 10
13.4188649111
 20
10.8494992837
 30
0.0
 10
13.4155518391
 20
10.8575961803
 30
0.0
 10
13.4121840814
 20
10.8654126984
 30
0.0
 10
13.4087627296
 20
10.8729462429
 30
0.0
 10
13.4052889652
 20
10.8801943457
 30
0.0
 10
13.4017638967
 20
10.8871545996
 30
0.0
 10
13.3981886687
 20
10.8938247015
 30
0.0
 10
13.3945645011
 20
10.9002024809
 30
0.0
 10
13.390892529
 20
10.9062858173
 30
0.0
 10
13.3871739387
 20
10.9120727072
 30
0.0
 10
13.3834099736
 20
10.9175612808
 30
0.0
 10
13.3796017826
 20
10.9227497008
 30
0.0
 10
13.3757505774
 20
10.9276362649
 30
0.0
 10
13.3718576157
 20
10.9322193884
 30
0.0
 10
13.3679240139
 20
10.9364975236
 30
0.0
 10
13.3639511135
 20
10.9404691682
 30
0.0
 10
13.359939759
 20
10.9441332906
 30
0.0
 10
13.3546265205
 20
10.9485367476
 30
0.0
 10
13.3504615
 20
10.9514860713
 30
0.0
 10
13.3476257482
 20
10.9532501159
 30
0.0
  0
SPLINE
  5
3A1
100
AcDbEntity
  8
0
100
AcDbSpline
 62
7
  6
CONTINUOUS
 70
0
 71
3
 72
55
 73
51
 74
0
 42
0.0000001
 43
0.0000001
 44
0.0000000001
 40
0.0
 40
0.0
 40
0.0
 40
0.0
 40
0.0397892894
 40
0.0800195368
 40
0.1205836155
 40
0.1613732222
 40
0.2022793063
 40
0.2431924132
 40
0.2840030676
 40
0.3246021411
 40
0.3648812252
 40
0.4047330052
 40
0.4440516355
 40
0.4827331193
 40
0.5206756934
 40
0.5577802202
 40
0.5939505912
 40
0.6290941457
 40
0.6462531469
 40
0.6631225091
 40
0.6796917907
 40
0.6959509181
 40
0.7118900738
 40
0.7274998481
 40
0.7427711224
 40
0.7576952303
 40
0.7722638382
 40
0.7864691164
 40
0.8003036194
 40
0.8137604677
 40
0.8268332309
 40
0.8395161222
 40
0.8518038882
 40
0.8636920192
 40
0.875176652
 40
0.8862547999
 40
0.8969242782
 40
0.9071839612
 40
0.917033742
 40
0.926474829
 40
0.9355097579
 40
0.9441427445
 40
0.9523797722
 40
0.9602290233
 40
0.9677010698
 40
0.9748094013
 40
0.9815707338
 40
0.9880056232
 40
0.9941388493
 40
1.0
 40
1.0
 40
1.0
 40
1.0
 10
13.497234621
 20
10.253390963
 30
0.0
 10
13.497234621
 20
10.2369410812
 30
0.0
 10
13.496996462
 20
10.2038585663
 30
0.0
 10
13.4959422538
 20
10.1540159488
 30
0.0
 10
13.4941917479
 20
10.1037790481
 30
0.0
 10
13.4917499057
 20
10.0532913207
 30
0.0
 10
13.4886236745
 20
10.0026967786
 30
0.0
 10
13.4848219664
 20
9.9521397811
 30
0.0
 10
13.4803556335
 20
9.9017645694
 30
0.0
 10
13.4752374367
 20
9.8517148656
 30
0.0
 10
13.4694820092
 20
9.8021334572
 30
0.0
 10
13.4631058155
 20
9.7531617876
 30
0.0
 10
13.4561271044
 20
9.7049395504
 30
0.0
 10
13.4485658588
 20
9.6576042832
 30
0.0
 10
13.440443737
 20
9.6112909866
 30
0.0
 10
13.4317840199
 20
9.5661316768
 30
0.0
 10
13.4226115183
 20
9.5222552077
 30
0.0
 10
13.4144993363
 20
9.4865869541
 30
0.0
 10
13.4077644163
 20
9.4587935608
 30
0.0
 10
13.4026418959
 20
9.4385117793
 30
0.0
 10
13.3974115459
 20
9.4186420005
 30
0.0
 10
13.3920771532
 20
9.3991983758
 30
0.0
 10
13.3866424666
 20
9.3801947781
 30
0.0
 10
13.3811114408
 20
9.3616447493
 30
0.0
 10
13.3754879584
 20
9.343561519
 30
0.0
 10
13.3697761126
 20
9.3259579668
 30
0.0
 10
13.3639799122
 20
9.3088466434
 30
0.0
 10
13.3581035764
 20
9.292239727
 30
0.0
 10
13.352151228
 20
9.2761490526
 30
0.0
 10
13.3461271991
 20
9.260586059
 30
0.0
 10
13.3400357132
 20
9.2455618304
 30
0.0
 10
13.3338812018
 20
9.2310870302
 30
0.0
 10
13.327667974
 20
9.2171719573
 30
0.0
 10
13.3214005451
 20
9.203826465
 30
0.0
 10
13.3150832923
 20
9.1910600344
 30
0.0
 10
13.3087207962
 20
9.1788816743
 30
0.0
 10
13.3023174812
 20
9.1673000173
 30
0.0
 10
13.2958779691
 20
9.1563231956
 30
0.0
 10
13.2894067036
 20
9.1459589652
 30
0.0
 10
13.2829083148
 20
9.1362145529
 30
0.0
 10
13.276387227
 20
9.1270968171
 30
0.0
 10
13.2698480311
 20
9.1186120598
 30
0.0
 10
13.2632950768
 20
9.1107662379
 30
0.0
 10
13.256732848
 20
9.1035647347
 30
0.0
 10
13.2501655509
 20
9.0970126437
 30
0.0
 10
13.2435974677
 20
9.0911144898
 30
0.0
 10
13.2370326441
 20
9.0858746467
 30
0.0
 10
13.2304749519
 20
9.0812968881
 30
0.0
 10
13.2239289061
 20
9.0773853733
 30
0.0
 10
13.2194813781
 20
9.0751776644
 30
0.0
 10
13.2172662499
 20
9.0741954013
 30
0.0
  0
SPLINE
  5
3A2
100
AcDbEntity
  8
0
100
AcDbSpline
 62
7
  6
CONTINUOUS
 70
0
 71
3
 72
65
 73
61
 74
0
 42
0.0000001
 43
0.0000001
 44
0.0000000001
 40
0.0
 40
0.0
 40
0.0
 40
0.0
 40
0.0452101927
 40
0.0910010513
 40
0.1371886991
 40
0.1835861507
 40
0.2300058742
 40
0.2762600571
 40
0.3221617787
 40
0.3675259239
 40
0.4121701674
 40
0.4559159554
 40
0.4985895022
 40
0.5400228122
 40
0.5602240273
 40
0.5800553529
 40
0.5994979231
 40
0.6185334196
 40
0.637144134
 40
0.6553130526
 40
0.6730237993
 40
0.6902608414
 40
0.707009362
 40
0.7232555034
 40
0.7389862877
 40
0.7541897856
 40
0.7688551946
 40
0.7829728765
 40
0.7965346271
 40
0.809533628
 40
0.8219648495
 40
0.8338250638
 40
0.8451132732
 40
0.855830963
 40
0.8659825122
 40
0.8755758034
 40
0.8846227048
 40
0.8931400696
 40
0.9011504878
 40
0.9086836016
 40
0.9157772462
 40
0.9224787885
 40
0.9288462102
 40
0.9319270747
 40
0.9349512235
 40
0.9379289194
 40
0.94087095
 40
0.9437885423
 40
0.9466932401
 40
0.9495967481
 40
0.9525107896
 40
0.9554469506
 40
0.9584165283
 40
0.9614304164
 40
0.964498997
 40
0.9708362237
 40
0.9775011049
 40
0.9845526874
 40
0.9920394154
 40
1.0
 40
1.0
 40
1.0
 40
1.0
 10
13.4247653482
 20
10.1833910166
 30
0.0
 10
13.4247653482
 20
10.1691061171
 30
0.0
 10
13.424510586
 20
10.140352269
 30
0.0
 10
13.4233872139
 20
10.0970178724
 30
0.0
 10
13.4215244548
 20
10.0533333912
 30
0.0
 10
13.4189302567
 20
10.0094872549
 30
0.0
 10
13.4156158105
 20
9.9656685849
 30
0.0
 10
13.4115954098
 20
9.9220663175
 30
0.0
 10
13.4068864365
 20
9.8788684739
 30
0.0
 10
13.4015092679
 20
9.8362613069
 30
0.0
 10
13.3954871949
 20
9.7944285136
 30
0.0
 10
13.3888463339
 20
9.7535503642
 30
0.0
 10
13.3816154793
 20
9.7138031542
 30
0.0
 10
13.3750704285
 20
9.6814991022
 30
0.0
 10
13.3695536171
 20
9.6563563342
 30
0.0
 10
13.3653234992
 20
9.6380460694
 30
0.0
 10
13.3609706763
 20
9.6201434185
 30
0.0
 10
13.3564998221
 20
9.602667666
 30
0.0
 10
13.3519157646
 20
9.5856376538
 30
0.0
 10
13.3472234982
 20
9.5690717308
 30
0.0
 10
13.342428042
 20
9.5529877501
 30
0.0
 10
13.3375346516
 20
9.5374030274
 30
0.0
 10
13.3325485526
 20
9.5223343489
 30
0.0
 10
13.3274751945
 20
9.5077979214
 30
0.0
 10
13.3223200299
 20
9.4938093814
 30
0.0
 10
13.3170886378
 20
9.4803837587
 30
0.0
 10
13.3117866961
 20
9.4675354588
 30
0.0
 10
13.3064198745
 20
9.4552782678
 30
0.0
 10
13.3009940355
 20
9.4436252846
 30
0.0
 10
13.2955149305
 20
9.4325889787
 30
0.0
 10
13.2899885205
 20
9.42218108
 30
0.0
 10
13.2844206449
 20
9.4124126572
 30
0.0
 10
13.2788172475
 20
9.4032940256
 30
0.0
 10
13.273184226
 20
9.3948347709
 30
0.0
 10
13.2675273837
 20
9.3870437637
 30
0.0
 10
13.2618525611
 20
9.3799290576
 30
0.0
 10
13.2561652843
 20
9.3734980871
 30
0.0
 10
13.2504711079
 20
9.3677574493
 30
0.0
 10
13.244775118
 20
9.362713275
 30
0.0
 10
13.2390823624
 20
9.3583710931
 30
0.0
 10
13.2333973027
 20
9.3547361825
 30
0.0
 10
13.2277251947
 20
9.351813958
 30
0.0
 10
13.2229602288
 20
9.3499567668
 30
0.0
 10
13.2191763229
 20
9.3488486117
 30
0.0
 10
13.2163773228
 20
9.3482068175
 30
0.0
 10
13.2135873876
 20
9.3477456702
 30
0.0
 10
13.2108072725
 20
9.347465383
 30
0.0
 10
13.2080378615
 20
9.3473661614
 30
0.0
 10
13.2052800335
 20
9.3474480115
 30
0.0
 10
13.2025346694
 20
9.3477109201
 30
0.0
 10
13.1998026594
 20
9.3481548536
 30
0.0
 10
13.1970848662
 20
9.3487796113
 30
0.0
 10
13.1943821369
 20
9.3495848823
 30
0.0
 10
13.1916952098
 20
9.3505704238
 30
0.0
 10
13.1880967802
 20
9.3521408641
 30
0.0
 10
13.1836280228
 20
9.3545761797
 30
0.0
 10
13.1784051482
 20
9.3581814316
 30
0.0
 10
13.1732672954
 20
9.3624948933
 30
0.0
 10
13.1682193229
 20
9.3675103321
 30
0.0
 10
13.1650180354
 20
9.371200758
 30
0.0
 10
13.1634309698
 20
9.3731521268
 30
0.0
  0
SPLINE
  5
3A3
100
AcDbEntity
  8
0
100
AcDbSpline
 62
7
  6
CONTINUOUS
 70
0
 71
3
 72
57
 73
53
 74
0
 42
0.0000001
 43
0.0000001
 44
0.0000000001
 40
0.0
 40
0.0
 40
0.0
 40
0.0
 40
0.0417736329
 40
0.084036458
 40
0.1266576489
 40
0.1695053878
 40
0.2124467069
 40
0.2553483792
 40
0.2980772929
 40
0.3405010312
 40
0.3824883797
 40
0.4239098608
 40
0.4646382662
 40
0.5045491978
 40
0.5435216189
 40
0.5814384217
 40
0.6181870176
 40
0.6536599611
 40
0.6877556223
 40
0.7042573042
 40
0.7203795629
 40
0.7361117396
 40
0.7514435795
 40
0.7663655068
 40
0.7808684247
 40
0.7949439964
 40
0.808584464
 40
0.8217829298
 40
0.8345332095
 40
0.84683011
 40
0.8586693359
 40
0.8700477639
 40
0.8809634249
 40
0.8914157828
 40
0.9014058192
 40
0.910936335
 40
0.9200121712
 40
0.9286405653
 40
0.9368315472
 40
0.9445983921
 40
0.9519582231
 40
0.9589325837
 40
0.9655482159
 40
0.971837669
 40
0.9778400201
 40
0.9836011499
 40
0.9864084616
 40
0.989175783
 40
0.9919106501
 40
0.994620903
 40
0.9973146098
 40
1.0
 40
1.0
 40
1.0
 40
1.0
 10
13.3390332181
 20
10.1705801331
 30
0.0
 10
13.3390332181
 20
10.159386634
 30
0.0
 10
13.3388585842
 20
10.136868202
 30
0.0
 10
13.3380865794
 20
10.1029371175
 30
0.0
 10
13.3368052221
 20
10.0687333778
 30
0.0
 10
13.3350187385
 20
10.0343702874
 30
0.0
 10
13.3327330138
 20
9.9999614699
 30
0.0
 10
13.3299556134
 20
9.9656207878
 30
0.0
 10
13.3266957331
 20
9.9314618447
 30
0.0
 10
13.3229641814
 20
9.89759765
 30
0.0
 10
13.3187733381
 20
9.8641402276
 30
0.0
 10
13.3141371163
 20
9.8312002472
 30
0.0
 10
13.3090709162
 20
9.7988866529
 30
0.0
 10
13.3035915755
 20
9.7673063002
 30
0.0
 10
13.2977173147
 20
9.736563592
 30
0.0
 10
13.291467677
 20
9.7067601441
 30
0.0
 10
13.2848634702
 20
9.677994376
 30
0.0
 10
13.2779266786
 20
9.6503613999
 30
0.0
 10
13.2718236138
 20
9.628118208
 30
0.0
 10
13.266783176
 20
9.6109651359
 30
0.0
 10
13.2629754112
 20
9.5985795662
 30
0.0
 10
13.2591022841
 20
9.586543151
 30
0.0
 10
13.2551669077
 20
9.57486583
 30
0.0
 10
13.2511726283
 20
9.5635572399
 30
0.0
 10
13.2471226792
 20
9.5526267244
 30
0.0
 10
13.243020493
 20
9.5420832892
 30
0.0
 10
13.2388693956
 20
9.5319356386
 30
0.0
 10
13.2346728943
 20
9.5221921176
 30
0.0
 10
13.2304343957
 20
9.5128607571
 30
0.0
 10
13.226157464
 20
9.5039492109
 30
0.0
 10
13.2218455722
 20
9.4954648048
 30
0.0
 10
13.2175023197
 20
9.4874144714
 30
0.0
 10
13.2131312276
 20
9.4798048002
 30
0.0
 10
13.2087359017
 20
9.4726419769
 30
0.0
 10
13.2043198835
 20
9.4659318253
 30
0.0
 10
13.1998867451
 20
9.4596797646
 30
0.0
 10
13.1954400059
 20
9.4538908326
 30
0.0
 10
13.1909831463
 20
9.44856968
 30
0.0
 10
13.1865195987
 20
9.4437205638
 30
0.0
 10
13.1820526736
 20
9.4393474104
 30
0.0
 10
13.1775856389
 20
9.4354537671
 30
0.0
 10
13.1731215611
 20
9.4320429803
 30
0.0
 10
13.1686635457
 20
9.4291180918
 30
0.0
 10
13.1642144039
 20
9.4266821488
 30
0.0
 10
13.1597776542
 20
9.4247380479
 30
0.0
 10
13.1560606446
 20
9.4235198352
 30
0.0
 10
13.1531078015
 20
9.4228026008
 30
0.0
 10
13.1509180418
 20
9.4223931647
 30
0.0
 10
13.1487349156
 20
9.4221078625
 30
0.0
 10
13.1465588467
 20
9.4219467283
 30
0.0
 10
13.1443904466
 20
9.4219098233
 30
0.0
 10
13.1429493218
 20
9.4219681168
 30
0.0
 10
13.1422314795
 20
9.422017902
 30
0.0
  0
SPLINE
  5
3A4
100
AcDbEntity
  8
0
100
AcDbSpline
 62
7
  6
CONTINUOUS
 70
0
 71
3
 72
39
 73
35
 74
0
 42
0.0000001
 43
0.0000001
 44
0.0000000001
 40
0.0
 40
0.0
 40
0.0
 40
0.0
 40
0.0299424718
 40
0.0599093198
 40
0.0899243266
 40
0.120010106
 40
0.1501875647
 40
0.1804754164
 40
0.2108897604
 40
0.2414437366
 40
0.2721472601
 40
0.3030068419
 40
0.3340254933
 40
0.365202712
 40
0.3965345466
 40
0.4280137318
 40
0.4596298892
 40
0.491369784
 40
0.5232176323
 40
0.5551554498
 40
0.5871634345
 40
0.6192203774
 40
0.651304093
 40
0.6833918636
 40
0.7154608911
 40
0.7474887497
 40
0.7794538335
 40
0.8113357936
 40
0.8431159524
 40
0.8747777124
 40
0.906306864
 40
0.9376920822
 40
0.9689247084
 40
1.0
 40
1.0
 40
1.0
 40
1.0
 10
12.7019133245
 20
5.9082652169
 30
0.0
 10
12.6972516281
 20
5.9037623631
 30
0.0
 10
12.6875616754
 20
5.8951200547
 30
0.0
 10
12.6720368609
 20
5.88334644
 30
0.0
 10
12.6556015145
 20
5.8728215953
 30
0.0
 10
12.6383474698
 20
5.863604562
 30
0.0
 10
12.6203695885
 20
5.8557456948
 30
0.0
 10
12.6017670886
 20
5.8492881935
 30
0.0
 10
12.582642481
 20
5.8442673896
 30
0.0
 10
12.5631011288
 20
5.8407106945
 30
0.0
 10
12.5432506227
 20
5.8386374277
 30
0.0
 10
12.5232001963
 20
5.8380587356
 30
0.0
 10
12.5030601217
 20
5.8389775416
 30
0.0
 10
12.4829411074
 20
5.8413885446
 30
0.0
 10
12.4629536953
 20
5.8452782588
 30
0.0
 10
12.4432076603
 20
5.850625098
 30
0.0
 10
12.4238114157
 20
5.8573995
 30
0.0
 10
12.4048714261
 20
5.8655640946
 30
0.0
 10
12.3864916318
 20
5.875073911
 30
0.0
 10
12.368772885
 20
5.8858766249
 30
0.0
 10
12.3518124047
 20
5.8979128468
 30
0.0
 10
12.3357032499
 20
5.9111164462
 30
0.0
 10
12.3205338149
 20
5.9254149124
 30
0.0
 10
12.30638735
 20
5.9407297493
 30
0.0
 10
12.2933415095
 20
5.9569769017
 30
0.0
 10
12.2814679294
 20
5.9740672122
 30
0.0
 10
12.2708318373
 20
5.9919069045
 30
0.0
 10
12.2614916996
 20
6.0103980951
 30
0.0
 10
12.2534988943
 20
6.0294393114
 30
0.0
 10
12.2468974505
 20
6.0489260854
 30
0.0
 10
12.2417237538
 20
6.0687513614
 30
0.0
 10
12.2380064581
 20
6.0888066608
 30
0.0
 10
12.2357661179
 20
6.1089804116
 30
0.0
 10
12.2352643346
 20
6.1224726376
 30
0.0
 10
12.2352643346
 20
6.1291991344
 30
0.0
  0
SPLINE
  5
3A5
100
AcDbEntity
  8
0
100
AcDbSpline
 62
7
  6
CONTINUOUS
 70
0
 71
3
 72
23
 73
19
 74
0
 42
0.0000001
 43
0.0000001
 44
0.0000000001
 40
0.0
 40
0.0
 40
0.0
 40
0.0
 40
0.063775992
 40
0.1273452426
 40
0.190702051
 40
0.2538559967
 40
0.3168132418
 40
0.3795820857
 40
0.4421733813
 40
0.504599339
 40
0.5668738627
 40
0.6290123824
 40
0.6910316504
 40
0.7529496423
 40
0.8147853556
 40
0.8765586046
 40
0.9382898526
 40
1.0
 40
1.0
 40
1.0
 40
1.0
 10
12.2352643346
 20
6.1291991344
 30
0.0
 10
12.2352643346
 20
6.1335345386
 30
0.0
 10
12.2354718812
 20
6.142192761
 30
0.0
 10
12.2364084467
 20
6.1551273979
 30
0.0
 10
12.2379679123
 20
6.1679595599
 30
0.0
 10
12.2401465376
 20
6.180658977
 30
0.0
 10
12.2429393781
 20
6.1931967229
 30
0.0
 10
12.2463400096
 20
6.2055438144
 30
0.0
 10
12.25034065
 20
6.2176717691
 30
0.0
 10
12.2549321034
 20
6.2295526306
 30
0.0
 10
12.2601037575
 20
6.2411590157
 30
0.0
 10
12.2658437564
 20
6.2524641355
 30
0.0
 10
12.2721388969
 20
6.2634418978
 30
0.0
 10
12.2789746248
 20
6.2740670174
 30
0.0
 10
12.2863351949
 20
6.2843149448
 30
0.0
 10
12.2942037622
 20
6.2941620865
 30
0.0
 10
12.3025618108
 20
6.303585465
 30
0.0
 10
12.3084484394
 20
6.3095718106
 30
0.0
 10
12.3114656913
 20
6.3124862526
 30
0.0
  0
SPLINE
  5
3A6
100
AcDbEntity
  8
0
100
AcDbSpline
 62
7
  6
CONTINUOUS
 70
0
 71
3
 72
23
 73
19
 74
0
 42
0.0000001
 43
0.0000001
 44
0.0000000001
 40
0.0
 40
0.0
 40
0.0
 40
0.0
 40
0.063775992
 40
0.1273452426
 40
0.190702051
 40
0.2538559967
 40
0.3168132418
 40
0.3795820857
 40
0.4421733813
 40
0.504599339
 40
0.5668738627
 40
0.6290123824
 40
0.6910316504
 40
0.7529496423
 40
0.8147853556
 40
0.8765586046
 40
0.9382898526
 40
1.0
 40
1.0
 40
1.0
 40
1.0
 10
8.3715608006
 20
6.3971478846
 30
0.0
 10
8.3715608006
 20
6.4014832888
 30
0.0
 10
8.3717683471
 20
6.4101415112
 30
0.0
 10
8.3727049126
 20
6.4230761481
 30
0.0
 10
8.3742643782
 20
6.4359083101
 30
0.0
 10
8.3764430035
 20
6.4486077272
 30
0.0
 10
8.379235844
 20
6.4611454731
 30
0.0
 10
8.3826364755
 20
6.4734925646
 30
0.0
 10
8.3866371159
 20
6.4856205193
 30
0.0
 10
8.3912285693
 20
6.4975013808
 30
0.0
 10
8.3964002234
 20
6.5091077659
 30
0.0
 10
8.4021402223
 20
6.5204128857
 30
0.0
 10
8.4084353628
 20
6.531390648
 30
0.0
 10
8.4152710907
 20
6.5420157676
 30
0.0
 10
8.4226316608
 20
6.552263695
 30
0.0
 10
8.4305002281
 20
6.5621108367
 30
0.0
 10
8.4388582768
 20
6.5715342151
 30
0.0
 10
8.4447449053
 20
6.5775205607
 30
0.0
 10
8.4477621572
 20
6.5804350027
 30
0.0
  0
SPLINE
  5
3A7
100
AcDbEntity
  8
0
100
AcDbSpline
 62
7
  6
CONTINUOUS
 70
0
 71
3
 72
39
 73
35
 74
0
 42
0.0000001
 43
0.0000001
 44
0.0000000001
 40
0.0
 40
0.0
 40
0.0
 40
0.0
 40
0.0299424718
 40
0.0599093198
 40
0.0899243266
 40
0.120010106
 40
0.1501875647
 40
0.1804754164
 40
0.2108897604
 40
0.2414437366
 40
0.2721472601
 40
0.3030068419
 40
0.3340254933
 40
0.365202712
 40
0.3965345466
 40
0.4280137318
 40
0.4596298892
 40
0.491369784
 40
0.5232176323
 40
0.5551554498
 40
0.5871634345
 40
0.6192203774
 40
0.651304093
 40
0.6833918636
 40
0.7154608911
 40
0.7474887497
 40
0.7794538335
 40
0.8113357936
 40
0.8431159524
 40
0.8747777124
 40
0.906306864
 40
0.9376920822
 40
0.9689247084
 40
1.0
 40
1.0
 40
1.0
 40
1.0
 10
8.8382097905
 20
6.1762139671
 30
0.0
 10
8.833548094
 20
6.1717111133
 30
0.0
 10
8.8238581413
 20
6.1630688049
 30
0.0
 10
8.8083333269
 20
6.1512951901
 30
0.0
 10
8.7918979804
 20
6.1407703454
 30
0.0
 10
8.7746439357
 20
6.1315533122
 30
0.0
 10
8.7566660544
 20
6.123694445
 30
0.0
 10
8.7380635545
 20
6.1172369437
 30
0.0
 10
8.718938947
 20
6.1122161398
 30
0.0
 10
8.6993975947
 20
6.1086594446
 30
0.0
 10
8.6795470887
 20
6.1065861779
 30
0.0
 10
8.6594966623
 20
6.1060074858
 30
0.0
 10
8.6393565876
 20
6.1069262918
 30
0.0
 10
8.6192375734
 20
6.1093372947
 30
0.0
 10
8.5992501612
 20
6.113227009
 30
0.0
 10
8.5795041262
 20
6.1185738481
 30
0.0
 10
8.5601078816
 20
6.1253482501
 30
0.0
 10
8.541167892
 20
6.1335128447
 30
0.0
 10
8.5227880977
 20
6.1430226612
 30
0.0
 10
8.5050693509
 20
6.1538253751
 30
0.0
 10
8.4881088706
 20
6.165861597
 30
0.0
 10
8.4719997158
 20
6.1790651963
 30
0.0
 10
8.4568302808
 20
6.1933636626
 30
0.0
 10
8.4426838159
 20
6.2086784995
 30
0.0
 10
8.4296379754
 20
6.2249256518
 30
0.0
 10
8.4177643953
 20
6.2420159624
 30
0.0
 10
8.4071283032
 20
6.2598556546
 30
0.0
 10
8.3977881655
 20
6.2783468452
 30
0.0
 10
8.3897953602
 20
6.2973880616
 30
0.0
 10
8.3831939164
 20
6.3168748355
 30
0.0
 10
8.3780202197
 20
6.3367001116
 30
0.0
 10
8.374302924
 20
6.3567554109
 30
0.0
 10
8.3720625838
 20
6.3769291618
 30
0.0
 10
8.3715608006
 20
6.3904213877
 30
0.0
 10
8.3715608006
 20
6.3971478846
 30
0.0
  0
SPLINE
  5
3A8
100
AcDbEntity
  8
0
100
AcDbSpline
 62
7
  6
CONTINUOUS
 70
0
 71
3
 72
60
 73
56
 74
0
 42
0.0000001
 43
0.0000001
 44
0.0000000001
 40
0.0
 40
0.0
 40
0.0
 40
0.0
 40
0.0532123647
 40
0.1056322477
 40
0.1571423518
 40
0.2076319745
 40
0.256991221
 40
0.3051145194
 40
0.3518999072
 40
0.3972497901
 40
0.4410713445
 40
0.4832770174
 40
0.5237851024
 40
0.5433791249
 40
0.5625211466
 40
0.5812028492
 40
0.5994165719
 40
0.617155038
 40
0.6344116917
 40
0.6511805273
 40
0.6674562091
 40
0.6832342192
 40
0.6985106852
 40
0.7132827802
 40
0.7275484777
 40
0.7413069015
 40
0.7545583356
 40
0.7673043005
 40
0.7795479311
 40
0.7912938535
 40
0.8025487425
 40
0.8133213167
 40
0.8236227808
 40
0.8334672012
 40
0.8428717376
 40
0.8518573515
 40
0.8604489884
 40
0.8686762863
 40
0.8765738674
 40
0.8841816681
 40
0.8915451332
 40
0.8987148818
 40
0.9057462651
 40
0.9126982326
 40
0.9196319694
 40
0.9266091741
 40
0.933690325
 40
0.9409330208
 40
0.9483908014
 40
0.9561121939
 40
0.9641403832
 40
0.9725131364
 40
0.9812629257
 40
0.9904174844
 40
1.0
 40
1.0
 40
1.0
 40
1.0
 10
13.4247653482
 20
10.1833910166
 30
0.0
 10
13.4247653482
 20
10.1938462079
 30
0.0
 10
13.4246306741
 20
10.2146011612
 30
0.0
 10
13.4240159042
 20
10.2454713598
 30
0.0
 10
13.4229911776
 20
10.2757955102
 30
0.0
 10
13.4215590601
 20
10.3055011606
 30
0.0
 10
13.419722963
 20
10.3345179164
 30
0.0
 10
13.4174873497
 20
10.3627766899
 30
0.0
 10
13.4148576036
 20
10.3902103531
 30
0.0
 10
13.4118400754
 20
10.416753714
 30
0.0
 10
13.4084420577
 20
10.4423437849
 30
0.0
 10
13.4046717239
 20
10.4669197277
 30
0.0
 10
13.4011897312
 20
10.4867193095
 30
0.0
 10
13.3982162179
 20
10.5020030031
 30
0.0
 10
13.3959235236
 20
10.513049369
 30
0.0
 10
13.3935448964
 20
10.5237999638
 30
0.0
 10
13.3910818093
 20
10.5342484195
 30
0.0
 10
13.3885356692
 20
10.5443885277
 30
0.0
 10
13.3859080408
 20
10.5542142767
 30
0.0
 10
13.3832004786
 20
10.5637198411
 30
0.0
 10
13.3804145693
 20
10.5728995842
 30
0.0
 10
13.3775520328
 20
10.581748081
 30
0.0
 10
13.3746144886
 20
10.5902600848
 30
0.0
 10
13.3716037635
 20
10.5984305829
 30
0.0
 10
13.3685215796
 20
10.6062547457
 30
0.0
 10
13.3653697807
 20
10.6137279697
 30
0.0
 10
13.3621502439
 20
10.6208458731
 30
0.0
 10
13.3588647881
 20
10.6276042609
 30
0.0
 10
13.3555154183
 20
10.6339992155
 30
0.0
 10
13.3521039659
 20
10.6400269714
 30
0.0
 10
13.3486324561
 20
10.6456840563
 30
0.0
 10
13.3451028035
 20
10.6509671752
 30
0.0
 10
13.3415169434
 20
10.6558732509
 30
0.0
 10
13.3378768821
 20
10.660399475
 30
0.0
 10
13.334184439
 20
10.6645431183
 30
0.0
 10
13.3304416253
 20
10.668301787
 30
0.0
 10
13.3266502275
 20
10.6716730762
 30
0.0
 10
13.3228121742
 20
10.674654814
 30
0.0
 10
13.3189293727
 20
10.677244884
 30
0.0
 10
13.3150037802
 20
10.6794411395
 30
0.0
 10
13.3110376473
 20
10.6812417104
 30
0.0
 10
13.3070333409
 20
10.6826445528
 30
0.0
 10
13.3029937024
 20
10.6836481663
 30
0.0
 10
13.2989218138
 20
10.6842511866
 30
0.0
 10
13.294821069
 20
10.6844528936
 30
0.0
 10
13.2906949344
 20
10.6842532521
 30
0.0
 10
13.2865468163
 20
10.6836526204
 30
0.0
 10
13.2823798395
 20
10.6826521979
 30
0.0
 10
13.2781968979
 20
10.6812531989
 30
0.0
 10
13.2740005305
 20
10.6794573415
 30
0.0
 10
13.2697930978
 20
10.6772663067
 30
0.0
 10
13.2655768619
 20
10.6746818732
 30
0.0
 10
13.2613538955
 20
10.6717059772
 30
0.0
 10
13.2571265778
 20
10.6683405962
 30
0.0
 10
13.2543713812
 20
10.6658960435
 30
0.0
 10
13.2529931579
 20
10.6646133311
 30
0.0
  0
SPLINE
  5
3A9
100
AcDbEntity
  8
0
100
AcDbSpline
 62
7
  6
CONTINUOUS
 70
0
 71
3
 72
52
 73
48
 74
0
 42
0.0000001
 43
0.0000001
 44
0.0000000001
 40
0.0
 40
0.0
 40
0.0
 40
0.0
 40
0.0484981258
 40
0.0964120117
 40
0.1436638632
 40
0.1901845942
 40
0.2359037346
 40
0.2807525935
 40
0.3246647139
 40
0.3675755059
 40
0.4094226503
 40
0.4501462007
 40
0.4896888577
 40
0.5279962522
 40
0.5650170613
 40
0.6007033731
 40
0.6350111143
 40
0.6679002679
 40
0.6993353701
 40
0.7292862234
 40
0.743697604
 40
0.7577293129
 40
0.7713792861
 40
0.7846460915
 40
0.7975287244
 40
0.810026714
 40
0.8221403543
 40
0.8338705134
 40
0.8452188012
 40
0.8561877887
 40
0.8667808526
 40
0.8770024124
 40
0.8868581431
 40
0.8963548813
 40
0.905500937
 40
0.9143063065
 40
0.9227826612
 40
0.9309437203
 40
0.9388054552
 40
0.9463861422
 40
0.9607839036
 40
0.9676582138
 40
0.9743520539
 40
0.9808975807
 40
0.9873293835
 40
0.9936841439
 40
1.0
 40
1.0
 40
1.0
 40
1.0
 10
13.3390332181
 20
10.1705801331
 30
0.0
 10
13.3390332181
 20
10.1783859926
 30
0.0
 10
13.3389492397
 20
10.1939038191
 30
0.0
 10
13.3385668575
 20
10.2170240782
 30
0.0
 10
13.3379293188
 20
10.2398203698
 30
0.0
 10
13.337037744
 20
10.2622546338
 30
0.0
 10
13.3358936118
 20
10.2842901889
 30
0.0
 10
13.3344988362
 20
10.3058906144
 30
0.0
 10
13.3328557334
 20
10.327020265
 30
0.0
 10
13.330967044
 20
10.3476443198
 30
0.0
 10
13.3288359336
 20
10.3677287742
 30
0.0
 10
13.3264659359
 20
10.3872405214
 30
0.0
 10
13.3238609964
 20
10.4061474144
 30
0.0
 10
13.3210254794
 20
10.4244183211
 30
0.0
 10
13.3179640969
 20
10.442023165
 30
0.0
 10
13.3146819348
 20
10.4589329927
 30
0.0
 10
13.3111844876
 20
10.47512002
 30
0.0
 10
13.3074775739
 20
10.4905577234
 30
0.0
 10
13.3035673224
 20
10.5052206904
 30
0.0
 10
13.3001017844
 20
10.5169197967
 30
0.0
 10
13.2972256388
 20
10.5258678646
 30
0.0
 10
13.2950494854
 20
10.53228414
 30
0.0
 10
13.2928274393
 20
10.5384893462
 30
0.0
 10
13.2905604442
 20
10.5444809607
 30
0.0
 10
13.2882494282
 20
10.5502565235
 30
0.0
 10
13.2858953007
 20
10.5558136547
 30
0.0
 10
13.2834990757
 20
10.5611501007
 30
0.0
 10
13.2810617148
 20
10.5662636767
 30
0.0
 10
13.2785841763
 20
10.5711522807
 30
0.0
 10
13.2760675172
 20
10.5758139475
 30
0.0
 10
13.2735127249
 20
10.580246771
 30
0.0
 10
13.2709207955
 20
10.5844489353
 30
0.0
 10
13.2682928126
 20
10.5884187694
 30
0.0
 10
13.2656297732
 20
10.5921546442
 30
0.0
 10
13.2629326934
 20
10.5956550299
 30
0.0
 10
13.2602026681
 20
10.5989185376
 30
0.0
 10
13.2574406593
 20
10.6019438124
 30
0.0
 10
13.2546477793
 20
10.604729526
 30
0.0
 10
13.2518247944
 20
10.6072747557
 30
0.0
 10
13.248087375
 20
10.6102935529
 30
0.0
 10
13.244225402
 20
10.6128985698
 30
0.0
 10
13.2402556191
 20
10.6150265818
 30
0.0
 10
13.2372991111
 20
10.6163525847
 30
0.0
 10
13.2343195053
 20
10.6174319852
 30
0.0
 10
13.231317922
 20
10.618264035
 30
0.0
 10
13.2282961476
 20
10.6188481371
 30
0.0
 10
13.2262664711
 20
10.6190722613
 30
0.0
 10
13.2252523589
 20
10.619142594
 30
0.0
  0
SPLINE
  5
3AA
100
AcDbEntity
  8
0
100
AcDbSpline
 62
7
  6
CONTINUOUS
 70
0
 71
3
 72
54
 73
50
 74
0
 42
0.0000001
 43
0.0000001
 44
0.0000000001
 40
0.0
 40
0.0
 40
0.0
 40
0.0
 40
0.0063158507
 40
0.0126706009
 40
0.0191023977
 40
0.0256478986
 40
0.0323417211
 40
0.0392160215
 40
0.0536137219
 40
0.0611943855
 40
0.0690560622
 40
0.0772171197
 40
0.0856934318
 40
0.0944987522
 40
0.1036448027
 40
0.113141486
 40
0.1229971814
 40
0.1332187245
 40
0.1438117391
 40
0.1547806923
 40
0.1661289554
 40
0.1778590781
 40
0.1899726748
 40
0.2024706471
 40
0.2153532452
 40
0.2286199987
 40
0.2422699729
 40
0.2563016345
 40
0.2707129683
 40
0.2855015805
 40
0.3006645508
 40
0.3161986637
 40
0.3321003047
 40
0.364989385
 40
0.3992970598
 40
0.4349833452
 40
0.4720041093
 40
0.5103114544
 40
0.549854083
 40
0.590577587
 40
0.6324246928
 40
0.6753354638
 40
0.7192475599
 40
0.7640963991
 40
0.8098154153
 40
0.8563362597
 40
0.9035882195
 40
0.9515013118
 40
1.0
 40
1.0
 40
1.0
 40
1.0
 10
13.3789003254
 20
10.9593277117
 30
0.0
 10
13.3805060062
 20
10.9592163646
 30
0.0
 10
13.3837196676
 20
10.9588615464
 30
0.0
 10
13.3885041621
 20
10.9579367743
 30
0.0
 10
13.393256663
 20
10.9566193444
 30
0.0
 10
13.3979744033
 20
10.9549103885
 30
0.0
 10
13.4026555496
 20
10.9528109037
 30
0.0
 10
13.4089410335
 20
10.9494415596
 30
0.0
 10
13.4150558691
 20
10.9453170299
 30
0.0
 10
13.4209734354
 20
10.9405372823
 30
0.0
 10
13.4254432211
 20
10.9365074133
 30
0.0
 10
13.4298652432
 20
10.9320966787
 30
0.0
 10
13.4342384557
 20
10.927306705
 30
0.0
 10
13.4385610269
 20
10.922139522
 30
0.0
 10
13.4428313752
 20
10.9165972395
 30
0.0
 10
13.4470478973
 20
10.9106821464
 30
0.0
 10
13.4512088782
 20
10.9043965933
 30
0.0
 10
13.4553127602
 20
10.8977431737
 30
0.0
 10
13.4593578779
 20
10.8907245631
 30
0.0
 10
13.4633425957
 20
10.8833436054
 30
0.0
 10
13.4672653707
 20
10.8756033251
 30
0.0
 10
13.471124538
 20
10.867506844
 30
0.0
 10
13.4749185829
 20
10.8590574862
 30
0.0
 10
13.4786459487
 20
10.8502586981
 30
0.0
 10
13.4823050689
 20
10.8411140675
 30
0.0
 10
13.485894509
 20
10.8316273572
 30
0.0
 10
13.4894127324
 20
10.8218024403
 30
0.0
 10
13.4928583187
 20
10.8116433565
 30
0.0
 10
13.4962298651
 20
10.8011542798
 30
0.0
 10
13.4995259284
 20
10.7903395095
 30
0.0
 10
13.5027452057
 20
10.779203507
 30
0.0
 10
13.5058863446
 20
10.7677508339
 30
0.0
 10
13.5100149655
 20
10.7518862666
 30
0.0
 10
13.5149599071
 20
10.7312925225
 30
0.0
 10
13.5204975654
 20
10.7056631286
 30
0.0
 10
13.525694322
 20
10.6788891898
 30
0.0
 10
13.5305415303
 20
10.6510148324
 30
0.0
 10
13.5350311202
 20
10.6220858665
 30
0.0
 10
13.5391556113
 20
10.5921499198
 30
0.0
 10
13.5429081266
 20
10.561256284
 30
0.0
 10
13.5462824027
 20
10.5294558576
 30
0.0
 10
13.5492728253
 20
10.4968010548
 30
0.0
 10
13.5518744115
 20
10.4633457195
 30
0.0
 10
13.5540828255
 20
10.4291450161
 30
0.0
 10
13.555894378
 20
10.3942553202
 30
0.0
 10
13.557306025
 20
10.3587343002
 30
0.0
 10
13.5583154663
 20
10.3226402402
 30
0.0
 10
13.5589209268
 20
10.2860331163
 30
0.0
 10
13.559053879
 20
10.2614632303
 30
0.0
 10
13.559053879
 20
10.2491037828
 30
0.0
  0
SPLINE
  5
3AB
100
AcDbEntity
  8
0
100
AcDbSpline
 62
7
  6
CONTINUOUS
 70
0
 71
3
 72
58
 73
54
 74
0
 42
0.0000001
 43
0.0000001
 44
0.0000000001
 40
0.0
 40
0.0
 40
0.0
 40
0.0
 40
0.0414402715
 40
0.0833367342
 40
0.1255652605
 40
0.1680001769
 40
0.2105151651
 40
0.2529835401
 40
0.2952788166
 40
0.337275168
 40
0.3788479236
 40
0.4198740573
 40
0.4602326839
 40
0.4998055622
 40
0.5384776081
 40
0.5761374243
 40
0.6126778504
 40
0.6304963547
 40
0.6479970419
 40
0.6651680091
 40
0.6819976694
 40
0.6984749153
 40
0.7145889933
 40
0.7303296919
 40
0.7456872009
 40
0.7606523228
 40
0.775216323
 40
0.7893711612
 40
0.8031093422
 40
0.8164241639
 40
0.82930958
 40
0.8417604635
 40
0.8537724942
 40
0.8653424394
 40
0.8764680839
 40
0.8871485323
 40
0.8973842036
 40
0.9071771682
 40
0.9165312336
 40
0.9254523369
 40
0.9339487549
 40
0.9420315775
 40
0.9497150732
 40
0.9570172582
 40
0.963960412
 40
0.9705716931
 40
0.9768836793
 40
0.9829348042
 40
0.9887695487
 40
0.9916222058
 40
0.9944400804
 40
0.9972302449
 40
1.0
 40
1.0
 40
1.0
 40
1.0
 10
10.148549121
 20
12.0852918536
 30
0.0
 10
10.133254913
 20
12.0863525106
 30
0.0
 10
10.1024809031
 20
12.0882442361
 30
0.0
 10
10.0560755934
 20
12.090389556
 30
0.0
 10
10.0092755804
 20
12.0918540664
 30
0.0
 10
9.9622303388
 20
12.0926330426
 30
0.0
 10
9.9150900044
 20
12.0927239886
 30
0.0
 10
9.8680050286
 20
12.092126608
 30
0.0
 10
9.8211256881
 20
12.0908428231
 30
0.0
 10
9.774601597
 20
12.0888767598
 30
0.0
 10
9.7285812282
 20
12.0862347395
 30
0.0
 10
9.6832114364
 20
12.0829252576
 30
0.0
 10
9.6386369803
 20
12.0789589588
 30
0.0
 10
9.5950000725
 20
12.0743486018
 30
0.0
 10
9.5524398556
 20
12.0691090294
 30
0.0
 10
9.5110921769
 20
12.0632570909
 30
0.0
 10
9.477480603
 20
12.0578416218
 30
0.0
 10
9.4513024918
 20
12.0532077523
 30
0.0
 10
9.4322174303
 20
12.0496204975
 30
0.0
 10
9.413531697
 20
12.0458952788
 30
0.0
 10
9.3952601811
 20
12.0420349932
 30
0.0
 10
9.37741746
 20
12.0380428066
 30
0.0
 10
9.3600177633
 20
12.0339218383
 30
0.0
 10
9.3430749611
 20
12.0296754671
 30
0.0
 10
9.3266025622
 20
12.025307009
 30
0.0
 10
9.3106136866
 20
12.0208200472
 30
0.0
 10
9.2951210765
 20
12.016218083
 30
0.0
 10
9.280137057
 20
12.0115048907
 30
0.0
 10
9.2656735607
 20
12.0066841461
 30
0.0
 10
9.2517420741
 20
12.0017597981
 30
0.0
 10
9.2383536792
 20
11.9967356843
 30
0.0
 10
9.225518982
 20
11.9916159095
 30
0.0
 10
9.2132481731
 20
11.9864044575
 30
0.0
 10
9.2015509381
 20
11.9811055659
 30
0.0
 10
9.1904365376
 20
11.9757233438
 30
0.0
 10
9.1799136993
 20
11.9702621308
 30
0.0
 10
9.1699907178
 20
11.9647261317
 30
0.0
 10
9.160675332
 20
11.959119745
 30
0.0
 10
9.1519748429
 20
11.9534472262
 30
0.0
 10
9.1438959852
 20
11.94771297
 30
0.0
 10
9.1364450632
 20
11.9419212157
 30
0.0
 10
9.1296278332
 20
11.9360762682
 30
0.0
 10
9.1234496582
 20
11.9301822623
 30
0.0
 10
9.1179154352
 20
11.9242433259
 30
0.0
 10
9.1130297612
 20
11.9182634221
 30
0.0
 10
9.1087969517
 20
11.9122465457
 30
0.0
 10
9.1052211421
 20
11.9061965145
 30
0.0
 10
9.1023064889
 20
11.9001179778
 30
0.0
 10
9.1004175284
 20
11.8949929504
 30
0.0
 10
9.0992517528
 20
11.8908976659
 30
0.0
 10
9.0985504893
 20
11.8878456519
 30
0.0
 10
9.0980160942
 20
11.8847912897
 30
0.0
 10
9.0977704371
 20
11.8827479132
 30
0.0
 10
9.0976758139
 20
11.881727613
 30
0.0
  0
SPLINE
  5
3AC
100
AcDbEntity
  8
0
100
AcDbSpline
 62
7
  6
CONTINUOUS
 70
0
 71
3
 72
22
 73
18
 74
0
 42
0.0000001
 43
0.0000001
 44
0.0000000001
 40
0.0
 40
0.0
 40
0.0
 40
0.0
 40
0.0835528565
 40
0.1642238861
 40
0.2419991912
 40
0.3168713584
 40
0.3888405291
 40
0.4579148025
 40
0.5241120124
 40
0.587460135
 40
0.6479998428
 40
0.7057851451
 40
0.7608867654
 40
0.8133932712
 40
0.8634152166
 40
0.9110868906
 40
1.0
 40
1.0
 40
1.0
 40
1.0
 10
13.4186558349
 20
8.3993535971
 30
0.0
 10
13.4173456901
 20
8.4033809648
 30
0.0
 10
13.4146925233
 20
8.4112717071
 30
0.0
 10
13.4105342576
 20
8.422812825
 30
0.0
 10
13.4062696893
 20
8.4338447867
 30
0.0
 10
13.4019016459
 20
8.4443602287
 30
0.0
 10
13.3974330522
 20
8.4543522386
 30
0.0
 10
13.3928667901
 20
8.4638142198
 30
0.0
 10
13.3882059118
 20
8.4727399912
 30
0.0
 10
13.3834533414
 20
8.4811236821
 30
0.0
 10
13.3786122045
 20
8.4889598787
 30
0.0
 10
13.3736854445
 20
8.4962434111
 30
0.0
 10
13.3686761235
 20
8.5029696857
 30
0.0
 10
13.3635873997
 20
8.5091339774
 30
0.0
 10
13.3584213226
 20
8.5147331796
 30
0.0
 10
13.3515957357
 20
8.5212851848
 30
0.0
 10
13.3461315975
 20
8.5255890757
 30
0.0
 10
13.3423718615
 20
8.5280741775
 30
0.0
  0
SPLINE
  5
3AD
100
AcDbEntity
  8
0
100
AcDbSpline
 62
7
  6
CONTINUOUS
 70
0
 71
3
 72
55
 73
51
 74
0
 42
0.0000001
 43
0.0000001
 44
0.0000000001
 40
0.0
 40
0.0
 40
0.0
 40
0.0
 40
0.0404000695
 40
0.0812324805
 40
0.1223851511
 40
0.1637450173
 40
0.2051981811
 40
0.2466304537
 40
0.2879277054
 40
0.3289762917
 40
0.3696634525
 40
0.4098777235
 40
0.449509347
 40
0.4884506895
 40
0.5265966653
 40
0.5638451714
 40
0.6000975371
 40
0.6352589949
 40
0.6524024329
 40
0.6692396463
 40
0.6857601119
 40
0.7019536632
 40
0.7178104933
 40
0.7333211878
 40
0.748476745
 40
0.7632685977
 40
0.7776886544
 40
0.7917293095
 40
0.8053835093
 40
0.8186447521
 40
0.8315071823
 40
0.8439655837
 40
0.8560155069
 40
0.8676532613
 40
0.8788760822
 40
0.8896821293
 40
0.9000707037
 40
0.9100422668
 40
0.9195987184
 40
0.9287434558
 40
0.9374817317
 40
0.9458207769
 40
0.9537702576
 40
0.9613424892
 40
0.9685530006
 40
0.9754208446
 40
0.9819692325
 40
0.9882258689
 40
0.9942234935
 40
1.0
 40
1.0
 40
1.0
 40
1.0
 10
10.1431139256
 20
12.0449081708
 30
0.0
 10
10.1287803323
 20
12.0459022089
 30
0.0
 10
10.0999442486
 20
12.0476835622
 30
0.0
 10
10.0564655386
 20
12.0497316016
 30
0.0
 10
10.012620671
 20
12.051166228
 30
0.0
 10
9.9685391916
 20
12.0519831764
 30
0.0
 10
9.9243511448
 20
12.0521800184
 30
0.0
 10
9.8801869616
 20
12.0517561706
 30
0.0
 10
9.8361769792
 20
12.0507128914
 30
0.0
 10
9.7924510841
 20
12.0490532808
 30
0.0
 10
9.7491383171
 20
12.0467822697
 30
0.0
 10
9.7063664922
 20
12.0439066068
 30
0.0
 10
9.6642618167
 20
12.0404348392
 30
0.0
 10
9.6229485106
 20
12.0363772883
 30
0.0
 10
9.5825484517
 20
12.0317460187
 30
0.0
 10
9.5431807521
 20
12.0265548124
 30
0.0
 10
9.5049616067
 20
12.0208190968
 30
0.0
 10
9.4739073248
 20
12.0155565489
 30
0.0
 10
9.4497282117
 20
12.0110783919
 30
0.0
 10
9.4321030031
 20
12.0076229153
 30
0.0
 10
9.4148471255
 20
12.0040448911
 30
0.0
 10
9.3979732929
 20
12.0003469531
 30
0.0
 10
9.3814939532
 20
11.9965318418
 30
0.0
 10
9.3654212576
 20
11.9926023772
 30
0.0
 10
9.3497670547
 20
11.9885614734
 30
0.0
 10
9.3345428829
 20
11.9844121114
 30
0.0
 10
9.3197599575
 20
11.9801573747
 30
0.0
 10
9.3054291684
 20
11.975800394
 30
0.0
 10
9.2915610622
 20
11.9713444132
 30
0.0
 10
9.2781658461
 20
11.9667927012
 30
0.0
 10
9.2652533635
 20
11.9621486518
 30
0.0
 10
9.2528331066
 20
11.9574156592
 30
0.0
 10
9.2409141817
 20
11.9525972546
 30
0.0
 10
9.2295053352
 20
11.9476969419
 30
0.0
 10
9.2186149036
 20
11.942718374
 30
0.0
 10
9.2082508583
 20
11.9376651452
 30
0.0
 10
9.1984207345
 20
11.9325410087
 30
0.0
 10
9.1891317035
 20
11.9273496223
 30
0.0
 10
9.1803904713
 20
11.9220948098
 30
0.0
 10
9.1722033913
 20
11.9167802551
 30
0.0
 10
9.1645763227
 20
11.9114098075
 30
0.0
 10
9.1575148024
 20
11.9059871241
 30
0.0
 10
9.1510238525
 20
11.9005160177
 30
0.0
 10
9.1451082378
 20
11.8950000509
 30
0.0
 10
9.1397722155
 20
11.8894429346
 30
0.0
 10
9.1350199046
 20
11.8838480752
 30
0.0
 10
9.1308549902
 20
11.8782191176
 30
0.0
 10
9.1272811299
 20
11.8725592214
 30
0.0
 10
9.124301897
 20
11.8668727819
 30
0.0
 10
9.1226875739
 20
11.8630016603
 30
0.0
 10
9.1219880149
 20
11.8610700596
 30
0.0
  0
SPLINE
  5
3AE
100
AcDbEntity
  8
0
100
AcDbSpline
 62
7
  6
CONTINUOUS
 70
0
 71
3
 72
22
 73
18
 74
0
 42
0.0000001
 43
0.0000001
 44
0.0000000001
 40
0.0
 40
0.0
 40
0.0
 40
0.0
 40
0.0835194161
 40
0.1641620368
 40
0.2419140189
 40
0.3167679282
 40
0.3887238962
 40
0.457789924
 40
0.5239837447
 40
0.5873331327
 40
0.64787853
 40
0.7056735997
 40
0.7607886489
 40
0.8133116944
 40
0.8633526128
 40
0.9110448594
 40
1.0
 40
1.0
 40
1.0
 40
1.0
 10
13.3151272264
 20
6.9065445892
 30
0.0
 10
13.3132761267
 20
6.902741688
 30
0.0
 10
13.3095640245
 20
6.8953024042
 30
0.0
 10
13.3038601421
 20
6.8844594415
 30
0.0
 10
13.2981213446
 20
6.8741340345
 30
0.0
 10
13.2923514275
 20
6.8643330617
 30
0.0
 10
13.2865542329
 20
6.855062939
 30
0.0
 10
13.2807335042
 20
6.846329783
 30
0.0
 10
13.2748931091
 20
6.8381392708
 30
0.0
 10
13.2690367333
 20
6.8304967987
 30
0.0
 10
13.2631682113
 20
6.8234072778
 30
0.0
 10
13.2572911534
 20
6.8168754109
 30
0.0
 10
13.2514092177
 20
6.8109053101
 30
0.0
 10
13.2455261677
 20
6.8055012088
 30
0.0
 10
13.2396444602
 20
6.8006658928
 30
0.0
 10
13.2319897576
 20
6.7951129653
 30
0.0
 10
13.2259917929
 20
6.7915977668
 30
0.0
 10
13.2219301165
 20
6.7896495138
 30
0.0
  0
SPLINE
  5
3AF
100
AcDbEntity
  8
0
100
AcDbSpline
 62
7
  6
CONTINUOUS
 70
0
 71
3
 72
23
 73
19
 74
0
 42
0.0000001
 43
0.0000001
 44
0.0000000001
 40
0.0
 40
0.0
 40
0.0
 40
0.0
 40
0.0635608666
 40
0.1277998777
 40
0.1925421144
 40
0.2576112089
 40
0.3228294401
 40
0.388018646
 40
0.4530007355
 40
0.517598358
 40
0.5816355185
 40
0.6449382144
 40
0.7073350709
 40
0.7686579867
 40
0.8287427892
 40
0.8874299067
 40
0.9445650622
 40
1.0
 40
1.0
 40
1.0
 40
1.0
 10
10.1431139256
 20
11.778672982
 30
0.0
 10
10.1288400333
 20
11.7796628798
 30
0.0
 10
10.1001245819
 20
11.7814376848
 30
0.0
 10
10.0568282274
 20
11.7834810619
 30
0.0
 10
10.0131676751
 20
11.7849161245
 30
0.0
 10
9.9692708675
 20
11.7857386435
 30
0.0
 10
9.9252662294
 20
11.7859461929
 30
0.0
 10
9.8812825801
 20
11.7855381635
 30
0.0
 10
9.8374486511
 20
11.7845157562
 30
0.0
 10
9.7938927414
 20
11.7828819839
 30
0.0
 10
9.7507423289
 20
11.7806416603
 30
0.0
 10
9.7081236973
 20
11.7778013876
 30
0.0
 10
9.6661615644
 20
11.7743695375
 30
0.0
 10
9.6249787067
 20
11.7703562268
 30
0.0
 10
9.5846956217
 20
11.7657732932
 30
0.0
 10
9.5454300749
 20
11.7606342459
 30
0.0
 10
9.5072970893
 20
11.7549542851
 30
0.0
 10
9.4823055479
 20
11.750751125
 30
0.0
 10
9.470021103
 20
11.7485564506
 30
0.0
  0
SPLINE
  5
3B0
100
AcDbEntity
  8
0
100
AcDbSpline
 62
7
  6
CONTINUOUS
 70
0
 71
3
 72
54
 73
50
 74
0
 42
0.0000001
 43
0.0000001
 44
0.0000000001
 40
0.0
 40
0.0
 40
0.0
 40
0.0
 40
0.0398033734
 40
0.0800254056
 40
0.120560708
 40
0.1613030477
 40
0.2021453548
 40
0.2429802772
 40
0.2837004667
 40
0.3241989715
 40
0.3643695906
 40
0.404107244
 40
0.4433083399
 40
0.4818711486
 40
0.5196961804
 40
0.5566865734
 40
0.5927484924
 40
0.6277915442
 40
0.661729217
 40
0.6782579103
 40
0.6944798197
 40
0.7103854633
 40
0.7259656533
 40
0.7412116136
 40
0.7561148929
 40
0.7706675075
 40
0.7848618374
 40
0.7986907952
 40
0.8121477074
 40
0.8252265103
 40
0.8379216217
 40
0.8502281642
 40
0.8621418335
 40
0.8736591506
 40
0.8847773371
 40
0.8954945982
 40
0.9058100181
 40
0.915723879
 40
0.9252375938
 40
0.9343540703
 40
0.9430777036
 40
0.951414797
 40
0.9593736415
 40
0.9669650058
 40
0.974202323
 40
0.9811022498
 40
0.9876849501
 40
0.993974666
 40
1.0
 40
1.0
 40
1.0
 40
1.0
 10
10.1552784107
 20
12.0917918487
 30
0.0
 10
10.1404700555
 20
12.0928188116
 30
0.0
 10
10.1106819514
 20
12.0946642161
 30
0.0
 10
10.0657705461
 20
12.0968025129
 30
0.0
 10
10.0204835074
 20
12.098321831
 30
0.0
 10
9.9749485352
 20
12.0992178636
 30
0.0
 10
9.9292938129
 20
12.0994880682
 30
0.0
 10
9.883647944
 20
12.0991316815
 30
0.0
 10
9.8381394789
 20
12.0981497121
 30
0.0
 10
9.7928965882
 20
12.0965449439
 30
0.0
 10
9.7480466872
 20
12.0943219253
 30
0.0
 10
9.7037160783
 20
12.0914869583
 30
0.0
 10
9.6600295917
 20
12.088048081
 30
0.0
 10
9.6171102315
 20
12.0840150456
 30
0.0
 10
9.5750788212
 20
12.0793992924
 30
0.0
 10
9.5340536752
 20
12.0742139168
 30
0.0
 10
9.4941501986
 20
12.0684736414
 30
0.0
 10
9.4554807729
 20
12.0621947478
 30
0.0
 10
9.424105625
 20
12.0564793608
 30
0.0
 10
9.399710089
 20
12.0516418623
 30
0.0
 10
9.3819495818
 20
12.0479223642
 30
0.0
 10
9.3645768334
 20
12.0440823203
 30
0.0
 10
9.3476040565
 20
12.0401243741
 30
0.0
 10
9.3310431961
 20
12.0360513796
 30
0.0
 10
9.3149059054
 20
12.0318661526
 30
0.0
 10
9.2992035304
 20
12.0275717124
 30
0.0
 10
9.2839471174
 20
12.0231710225
 30
0.0
 10
9.269147383
 20
12.0186672627
 30
0.0
 10
9.2548147334
 20
12.0140635333
 30
0.0
 10
9.2409592226
 20
12.0093631653
 30
0.0
 10
9.2275905863
 20
12.0045693855
 30
0.0
 10
9.2147181833
 20
11.999685664
 30
0.0
 10
9.2023510494
 20
11.9947153424
 30
0.0
 10
9.190497817
 20
11.9896620157
 30
0.0
 10
9.1791667939
 20
11.9845291261
 30
0.0
 10
9.1683658559
 20
11.9793203755
 30
0.0
 10
9.1581025566
 20
11.974039288
 30
0.0
 10
9.1483839874
 20
11.9686896476
 30
0.0
 10
9.1392169255
 20
11.9632750351
 30
0.0
 10
9.1306076554
 20
11.9577992819
 30
0.0
 10
9.1225621645
 20
11.9522659887
 30
0.0
 10
9.115085923
 20
11.9466789854
 30
0.0
 10
9.1081841366
 20
11.9410418409
 30
0.0
 10
9.1018614889
 20
11.9353583225
 30
0.0
 10
9.0961224555
 20
11.9296318981
 30
0.0
 10
9.0909710492
 20
11.9238662546
 30
0.0
 10
9.0864110883
 20
11.9180645971
 30
0.0
 10
9.0824463612
 20
11.9122310513
 30
0.0
 10
9.0801566898
 20
11.9082432613
 30
0.0
 10
9.0791204693
 20
11.9062494168
 30
0.0
  0
SPLINE
  5
3B1
100
AcDbEntity
  8
0
100
AcDbSpline
 62
7
  6
CONTINUOUS
 70
0
 71
3
 72
37
 73
33
 74
0
 42
0.0000001
 43
0.0000001
 44
0.0000000001
 40
0.0
 40
0.0
 40
0.0
 40
0.0
 40
0.0206685574
 40
0.0414299829
 40
0.0623757863
 40
0.0835948458
 40
0.1051724209
 40
0.1271891274
 40
0.1497203101
 40
0.1728358248
 40
0.1965996149
 40
0.2210697144
 40
0.2462986553
 40
0.2723334201
 40
0.299215718
 40
0.3269826842
 40
0.3556669375
 40
0.3852968457
 40
0.4158972979
 40
0.447489741
 40
0.4800923108
 40
0.5137205907
 40
0.5483876053
 40
0.5841037937
 40
0.6208777309
 40
0.6587160992
 40
0.6976235183
 40
0.7376032269
 40
0.7786570576
 40
0.8207851513
 40
0.9082568143
 40
1.0
 40
1.0
 40
1.0
 40
1.0
 10
13.3740581863
 20
8.5345681055
 30
0.0
 10
13.3753272701
 20
8.5344800917
 30
0.0
 10
13.3778658849
 20
8.5342151937
 30
0.0
 10
13.3816504836
 20
8.5335532273
 30
0.0
 10
13.385414146
 20
8.5326266383
 30
0.0
 10
13.3891553445
 20
8.5314359229
 30
0.0
 10
13.3928728777
 20
8.5299815435
 30
0.0
 10
13.3965655518
 20
8.5282641678
 30
0.0
 10
13.4002322751
 20
8.5262845464
 30
0.0
 10
13.4038719402
 20
8.5240433802
 30
0.0
 10
13.4074835176
 20
8.5215415057
 30
0.0
 10
13.411066034
 20
8.518779833
 30
0.0
 10
13.4146184653
 20
8.5157592266
 30
0.0
 10
13.4181398349
 20
8.5124806614
 30
0.0
 10
13.4216292117
 20
8.5089452003
 30
0.0
 10
13.4250855932
 20
8.5051538872
 30
0.0
 10
13.4285080074
 20
8.5011078661
 30
0.0
 10
13.4318955325
 20
8.4968083852
 30
0.0
 10
13.4352471739
 20
8.4922566974
 30
0.0
 10
13.4385619576
 20
8.4874541482
 30
0.0
 10
13.4418389708
 20
8.482402194
 30
0.0
 10
13.4450772343
 20
8.4771023133
 30
0.0
 10
13.4482757815
 20
8.4715560686
 30
0.0
 10
13.4514337171
 20
8.4657651337
 30
0.0
 10
13.4545500883
 20
8.4597312164
 30
0.0
 10
13.4576239471
 20
8.4534561002
 30
0.0
 10
13.4606544251
 20
8.4469416761
 30
0.0
 10
13.4636405999
 20
8.4401898797
 30
0.0
 10
13.4665815705
 20
8.4332027051
 30
0.0
 10
13.4704904515
 20
8.4234530853
 30
0.0
 10
13.4752479727
 20
8.4106848217
 30
0.0
 10
13.4787945161
 20
8.4002382845
 30
0.0
 10
13.4805396116
 20
8.394867993
 30
0.0
  0
SPLINE
  5
3B2
100
AcDbEntity
  8
0
100
AcDbSpline
 62
7
  6
CONTINUOUS
 70
0
 71
3
 72
35
 73
31
 74
0
 42
0.0000001
 43
0.0000001
 44
0.0000000001
 40
0.0
 40
0.0
 40
0.0
 40
0.0
 40
0.0917334219
 40
0.1791960779
 40
0.2623670525
 40
0.3023432295
 40
0.3412475039
 40
0.3790829726
 40
0.4158543794
 40
0.4515684901
 40
0.4862337381
 40
0.5198606544
 40
0.5524623716
 40
0.5840543353
 40
0.6146547397
 40
0.6442851567
 40
0.6729703445
 40
0.7007386959
 40
0.7276229589
 40
0.7788789487
 40
0.8033524852
 40
0.8271201619
 40
0.8502399745
 40
0.872775943
 40
0.8947978126
 40
0.9163808638
 40
0.9376057295
 40
0.9585575633
 40
0.9793251664
 40
1.0
 40
1.0
 40
1.0
 40
1.0
 10
13.3769706472
 20
6.9023070497
 30
0.0
 10
13.3745021256
 20
6.8972346356
 30
0.0
 10
13.3695499115
 20
6.8873884132
 30
0.0
 10
13.3618785773
 20
6.8731917771
 30
0.0
 10
13.3553540945
 20
6.8620003955
 30
0.0
 10
13.350101275
 20
6.8535311881
 30
0.0
 10
13.3462026433
 20
6.8475042606
 30
0.0
 10
13.3422941072
 20
6.841720106
 30
0.0
 10
13.3383767818
 20
6.8361804516
 30
0.0
 10
13.3344518729
 20
6.8308869181
 30
0.0
 10
13.330520521
 20
6.8258410885
 30
0.0
 10
13.326583857
 20
6.8210444835
 30
0.0
 10
13.3226430751
 20
6.8164984926
 30
0.0
 10
13.3186993105
 20
6.8122044728
 30
0.0
 10
13.3147536788
 20
6.8081637362
 30
0.0
 10
13.3108073422
 20
6.8043774332
 30
0.0
 10
13.3068614781
 20
6.8008467478
 30
0.0
 10
13.3029169708
 20
6.7975726236
 30
0.0
 10
13.2977438781
 20
6.7936139707
 30
0.0
 10
13.2924949863
 20
6.7900928002
 30
0.0
 10
13.2871771807
 20
6.7870622292
 30
0.0
 10
13.2832570352
 20
6.7850852255
 30
0.0
 10
13.2793451238
 20
6.7833700846
 30
0.0
 10
13.2754425083
 20
6.7819173712
 30
0.0
 10
13.2715503829
 20
6.7807276864
 30
0.0
 10
13.2676699206
 20
6.7798016532
 30
0.0
 10
13.2638024158
 20
6.7791396781
 30
0.0
 10
13.2599491034
 20
6.7787421037
 30
0.0
 10
13.2561115661
 20
6.7786092543
 30
0.0
 10
13.2535621531
 20
6.7786973223
 30
0.0
 10
13.2522937918
 20
6.778785286
 30
0.0
  0
SPLINE
  5
3B3
100
AcDbEntity
  8
0
100
AcDbSpline
 62
7
  6
CONTINUOUS
 70
0
 71
3
 72
61
 73
57
 74
0
 42
0.0000001
 43
0.0000001
 44
0.0000000001
 40
0.0
 40
0.0
 40
0.0
 40
0.0
 40
0.0027758433
 40
0.0055595941
 40
0.0083590873
 40
0.0111820092
 40
0.0140358402
 40
0.0169278032
 40
0.0228516385
 40
0.0290063602
 40
0.0354367082
 40
0.0387681006
 40
0.0421822872
 40
0.0492730731
 40
0.0567370731
 40
0.064596108
 40
0.072867737
 40
0.081565694
 40
0.09070057
 40
0.1002800962
 40
0.110309688
 40
0.1207926208
 40
0.131730418
 40
0.1431229861
 40
0.1549688512
 40
0.1672653029
 40
0.1800084954
 40
0.1931936241
 40
0.2068149163
 40
0.2208658417
 40
0.235339028
 40
0.2502264837
 40
0.2655194851
 40
0.2812087772
 40
0.2972844765
 40
0.3137362206
 40
0.3305531169
 40
0.3477238252
 40
0.3652365653
 40
0.3830791312
 40
0.4012389558
 40
0.4197030683
 40
0.4574902793
 40
0.4963311237
 40
0.5361109391
 40
0.5767111052
 40
0.6180096092
 40
0.6598815936
 40
0.7021998921
 40
0.7448355581
 40
0.7876583843
 40
0.8305374341
 40
0.8733415137
 40
0.9159398405
 40
0.9582021223
 40
1.0
 40
1.0
 40
1.0
 40
1.0
 10
9.0714354138
 20
11.9364296446
 30
0.0
 10
9.0714354159
 20
11.9374935068
 30
0.0
 10
9.0714944376
 20
11.9396247304
 30
0.0
 10
9.0717599143
 20
11.9428189354
 30
0.0
 10
9.0722023035
 20
11.9460117718
 30
0.0
 10
9.0728214162
 20
11.9492023728
 30
0.0
 10
9.07361712
 20
11.9523901409
 30
0.0
 10
9.0749234272
 20
11.9566693309
 30
0.0
 10
9.077013922
 20
11.9620232684
 30
0.0
 10
9.0802055351
 20
11.9683685849
 30
0.0
 10
9.0834095234
 20
11.9735682508
 30
0.0
 10
9.086304908
 20
11.9777066629
 30
0.0
 10
9.0895061105
 20
11.9819357129
 30
0.0
 10
9.0939569427
 20
11.9871985603
 30
0.0
 10
9.0999174449
 20
11.9933915366
 30
0.0
 10
9.1065583939
 20
11.9995359589
 30
0.0
 10
9.1138742621
 20
12.0056270648
 30
0.0
 10
9.1218591789
 20
12.0116605469
 30
0.0
 10
9.1305068351
 20
12.0176317009
 30
0.0
 10
9.1398102889
 20
12.0235360213
 30
0.0
 10
9.1497621512
 20
12.0293687756
 30
0.0
 10
9.1603544124
 20
12.0351253982
 30
0.0
 10
9.1715785722
 20
12.0408012173
 30
0.0
 10
9.1834255619
 20
12.0463916758
 30
0.0
 10
9.1958857971
 20
12.0518922287
 30
0.0
 10
9.2089491746
 20
12.0572983777
 30
0.0
 10
9.2226050708
 20
12.0626057419
 30
0.0
 10
9.2368423808
 20
12.0678099239
 30
0.0
 10
9.2516494903
 20
12.0729067245
 30
0.0
 10
9.2670143309
 20
12.0778918863
 30
0.0
 10
9.2829243466
 20
12.0827613968
 30
0.0
 10
9.2993665468
 20
12.0875111764
 30
0.0
 10
9.3163274827
 20
12.0921373972
 30
0.0
 10
9.333793287
 20
12.0966361917
 30
0.0
 10
9.351749666
 20
12.1010039157
 30
0.0
 10
9.3701819247
 20
12.1052369401
 30
0.0
 10
9.3890749731
 20
12.109331809
 30
0.0
 10
9.4084133403
 20
12.1132851487
 30
0.0
 10
9.4281811904
 20
12.1170937031
 30
0.0
 10
9.4483623263
 20
12.1207543592
 30
0.0
 10
9.4689402339
 20
12.1242640935
 30
0.0
 10
9.4971005186
 20
12.1287733061
 30
0.0
 10
9.5331708431
 20
12.1340011971
 30
0.0
 10
9.5774368615
 20
12.1395825816
 30
0.0
 10
9.6228659608
 20
12.1445005634
 30
0.0
 10
9.6693092481
 20
12.1487389147
 30
0.0
 10
9.7166146486
 20
12.1522836254
 30
0.0
 10
9.7646271899
 20
12.1551229898
 30
0.0
 10
9.8131895776
 20
12.1572476318
 30
0.0
 10
9.8621426981
 20
12.1586505365
 30
0.0
 10
9.9113261517
 20
12.159327074
 30
0.0
 10
9.9605787717
 20
12.159275008
 30
0.0
 10
10.0097391831
 20
12.1584945175
 30
0.0
 10
10.058646277
 20
12.1569881639
 30
0.0
 10
10.1071397266
 20
12.154760948
 30
0.0
 10
10.1392974524
 20
12.1527875357
 30
0.0
 10
10.1552784107
 20
12.1516792525
 30
0.0
  0
SPLINE
  5
3B4
100
AcDbEntity
  8
0
100
AcDbSpline
 62
7
  6
CONTINUOUS
 70
0
 71
3
 72
49
 73
45
 74
0
 42
0.0000001
 43
0.0000001
 44
0.0000000001
 40
0.0
 40
0.0
 40
0.0
 40
0.0
 40
0.0452815664
 40
0.0900934916
 40
0.1343764452
 40
0.1780778156
 40
0.2211437761
 40
0.2635215776
 40
0.3051600111
 40
0.3460090596
 40
0.3860201398
 40
0.4251461855
 40
0.4633418347
 40
0.5005635451
 40
0.5367696648
 40
0.5719206903
 40
0.6059794313
 40
0.6389111097
 40
0.6706836833
 40
0.7012681201
 40
0.7306385835
 40
0.7587728829
 40
0.7856529568
 40
0.7986186113
 40
0.8112660877
 40
0.8235944712
 40
0.835603312
 40
0.8472925624
 40
0.8586625372
 40
0.8697141245
 40
0.8804487193
 40
0.8908682143
 40
0.9009752246
 40
0.910773026
 40
0.9202655834
 40
0.9294577897
 40
0.9383554191
 40
0.9469651977
 40
0.9552950545
 40
0.9633540956
 40
0.9711527135
 40
0.9787028343
 40
0.9860179023
 40
1.0
 40
1.0
 40
1.0
 40
1.0
 10
10.1552784107
 20
12.0917918487
 30
0.0
 10
10.1654067863
 20
12.0910894434
 30
0.0
 10
10.1855516021
 20
12.0895902996
 30
0.0
 10
10.2155732517
 20
12.0870441283
 30
0.0
 10
10.2452136874
 20
12.0842146585
 30
0.0
 10
10.2744324893
 20
12.081105799
 30
0.0
 10
10.3031906618
 20
12.0777217233
 30
0.0
 10
10.3314493986
 20
12.0740670112
 30
0.0
 10
10.3591706169
 20
12.0701465934
 30
0.0
 10
10.3863170161
 20
12.065965781
 30
0.0
 10
10.412852045
 20
12.0615302413
 30
0.0
 10
10.4387399787
 20
12.0568459503
 30
0.0
 10
10.4639459813
 20
12.0519192552
 30
0.0
 10
10.4884361432
 20
12.0467568399
 30
0.0
 10
10.5121775191
 20
12.0413656648
 30
0.0
 10
10.5351381913
 20
12.0357530299
 30
0.0
 10
10.5572873144
 20
12.0299265528
 30
0.0
 10
10.5785951384
 20
12.0238940931
 30
0.0
 10
10.5990330786
 20
12.0176638063
 30
0.0
 10
10.6185737438
 20
12.0112441431
 30
0.0
 10
10.6371910218
 20
12.0046437479
 30
0.0
 10
10.6548598918
 20
11.9978715182
 30
0.0
 10
10.6689382845
 20
11.9920243346
 30
0.0
 10
10.6797010942
 20
11.987260274
 30
0.0
 10
10.6874243991
 20
11.9836929568
 30
0.0
 10
10.6948934635
 20
11.98008957
 30
0.0
 10
10.7021058048
 20
11.9764513243
 30
0.0
 10
10.709059018
 20
11.9727794666
 30
0.0
 10
10.7157507533
 20
11.9690751751
 30
0.0
 10
10.7221787879
 20
11.9653397148
 30
0.0
 10
10.7283409884
 20
11.9615743494
 30
0.0
 10
10.7342352684
 20
11.9577802778
 30
0.0
 10
10.7398596831
 20
11.9539587897
 30
0.0
 10
10.7452123726
 20
11.9501111607
 30
0.0
 10
10.7502915164
 20
11.9462385994
 30
0.0
 10
10.7550954513
 20
11.9423424089
 30
0.0
 10
10.7596225885
 20
11.9384238641
 30
0.0
 10
10.7638713695
 20
11.9344841698
 30
0.0
 10
10.7678404015
 20
11.930524638
 30
0.0
 10
10.7715283709
 20
11.9265464989
 30
0.0
 10
10.7749338954
 20
11.9225510581
 30
0.0
 10
10.7780560649
 20
11.9185392389
 30
0.0
 10
10.7817826611
 20
11.9132511392
 30
0.0
 10
10.7842405843
 20
11.9091432243
 30
0.0
 10
10.7856907473
 20
11.9063638312
 30
0.0
  0
SPLINE
  5
3B5
100
AcDbEntity
  8
0
100
AcDbSpline
 62
7
  6
CONTINUOUS
 70
0
 71
3
 72
54
 73
50
 74
0
 42
0.0000001
 43
0.0000001
 44
0.0000000001
 40
0.0
 40
0.0
 40
0.0
 40
0.0
 40
0.0476755643
 40
0.0948035029
 40
0.1413105796
 40
0.1871303663
 40
0.2321952114
 40
0.2764395567
 40
0.3197996841
 40
0.3622136003
 40
0.4036214605
 40
0.443965691
 40
0.4831911402
 40
0.5212453112
 40
0.5580786713
 40
0.5936448614
 40
0.6279009647
 40
0.660807902
 40
0.6923308943
 40
0.7075641742
 40
0.7224406167
 40
0.7369572781
 40
0.7511116813
 40
0.7649016442
 40
0.7783254858
 40
0.7913820263
 40
0.8040704929
 40
0.8163907811
 40
0.8283433533
 40
0.8399292739
 40
0.8511504567
 40
0.8620095274
 40
0.8725100023
 40
0.8826564649
 40
0.8924544799
 40
0.9019108907
 40
0.9110339098
 40
0.9198331545
 40
0.9283200011
 40
0.9365076151
 40
0.9444111214
 40
0.9520479116
 40
0.9594376359
 40
0.9666024071
 40
0.9735669077
 40
0.9803582746
 40
0.9870060946
 40
0.9935421425
 40
1.0
 40
1.0
 40
1.0
 40
1.0
 10
10.148549121
 20
12.0852918536
 30
0.0
 10
10.1592860596
 20
12.0845472444
 30
0.0
 10
10.1806286488
 20
12.082948905
 30
0.0
 10
10.2124120059
 20
12.0802066878
 30
0.0
 10
10.2437445347
 20
12.0771367687
 30
0.0
 10
10.2745752861
 20
12.0737442277
 30
0.0
 10
10.3048549547
 20
12.0700344768
 30
0.0
 10
10.3345346734
 20
12.0660135501
 30
0.0
 10
10.3635666588
 20
12.0616879628
 30
0.0
 10
10.3919041781
 20
12.0570646939
 30
0.0
 10
10.4195016136
 20
12.0521512363
 30
0.0
 10
10.4463145648
 20
12.046955558
 30
0.0
 10
10.4722998969
 20
12.0414860701
 30
0.0
 10
10.4974158188
 20
12.0357516134
 30
0.0
 10
10.5216219771
 20
12.029761492
 30
0.0
 10
10.5448794946
 20
12.0235254146
 30
0.0
 10
10.5671510883
 20
12.0170534683
 30
0.0
 10
10.5884009285
 20
12.010356117
 30
0.0
 10
10.6054178923
 20
12.0045317921
 30
0.0
 10
10.6184879906
 20
11.9997600163
 30
0.0
 10
10.627902313
 20
11.9961724277
 30
0.0
 10
10.6370365205
 20
11.9925366933
 30
0.0
 10
10.6458869744
 20
11.9888543119
 30
0.0
 10
10.6544501072
 20
11.9851267241
 30
0.0
 10
10.6627224875
 20
11.9813554325
 30
0.0
 10
10.6707008162
 20
11.9775419914
 30
0.0
 10
10.6783818757
 20
11.9736878684
 30
0.0
 10
10.6857626101
 20
11.9697946462
 30
0.0
 10
10.6928400778
 20
11.9658638909
 30
0.0
 10
10.6996114257
 20
11.9618971109
 30
0.0
 10
10.7060739869
 20
11.9578959453
 30
0.0
 10
10.7122251779
 20
11.9538619509
 30
0.0
 10
10.7180625323
 20
11.9497966855
 30
0.0
 10
10.7235837717
 20
11.9457018057
 30
0.0
 10
10.7287866675
 20
11.9415788462
 30
0.0
 10
10.7336691545
 20
11.9374294076
 30
0.0
 10
10.7382293248
 20
11.9332551209
 30
0.0
 10
10.7424652906
 20
11.9290574937
 30
0.0
 10
10.7463753796
 20
11.9248381479
 30
0.0
 10
10.7499580018
 20
11.9205986558
 30
0.0
 10
10.7532115807
 20
11.9163405186
 30
0.0
 10
10.7561347829
 20
11.9120653657
 30
0.0
 10
10.7587262461
 20
11.9077747369
 30
0.0
 10
10.7609846726
 20
11.9034702143
 30
0.0
 10
10.7629089882
 20
11.899153489
 30
0.0
 10
10.7644980133
 20
11.8948262565
 30
0.0
 10
10.7657507945
 20
11.8904902492
 30
0.0
 10
10.766666535
 20
11.8861477432
 30
0.0
 10
10.7670535187
 20
11.8832366031
 30
0.0
 10
10.7671896104
 20
11.8817851121
 30
0.0
  0
SPLINE
  5
3B6
100
AcDbEntity
  8
0
100
AcDbSpline
 62
7
  6
CONTINUOUS
 70
0
 71
3
 72
61
 73
57
 74
0
 42
0.0000001
 43
0.0000001
 44
0.0000000001
 40
0.0
 40
0.0
 40
0.0
 40
0.0
 40
0.0417736088
 40
0.0840360431
 40
0.126657155
 40
0.1695046842
 40
0.2124458378
 40
0.2553473321
 40
0.2980760744
 40
0.3404996436
 40
0.3824868274
 40
0.4239081481
 40
0.4646363976
 40
0.5045471783
 40
0.5435194547
 40
0.5814361204
 40
0.5999634452
 40
0.6181850312
 40
0.6360876424
 40
0.6536583488
 40
0.6708846631
 40
0.6877544565
 40
0.7042560738
 40
0.7203782989
 40
0.7361104104
 40
0.7514422273
 40
0.7663640903
 40
0.7808669935
 40
0.7949425048
 40
0.8085829615
 40
0.8217813757
 40
0.8345316441
 40
0.8468285057
 40
0.8586677174
 40
0.8700461208
 40
0.8809617639
 40
0.8914141105
 40
0.9014041268
 40
0.9109346407
 40
0.9200104579
 40
0.9286388542
 40
0.9368298218
 40
0.9445966692
 40
0.9519564915
 40
0.9589308526
 40
0.9655464796
 40
0.97183593
 40
0.9778382749
 40
0.9807467215
 40
0.9836011958
 40
0.9864085004
 40
0.9891758164
 40
0.9919106777
 40
0.9946209229
 40
0.9973146203
 40
1.0
 40
1.0
 40
1.0
 40
1.0
 10
13.559053879
 20
10.2491037828
 30
0.0
 10
13.559053879
 20
10.2313807018
 30
0.0
 10
13.5587773817
 20
10.1957265909
 30
0.0
 10
13.5575550279
 20
10.142002429
 30
0.0
 10
13.5555262302
 20
10.0878466394
 30
0.0
 10
13.5526976289
 20
10.0334384488
 30
0.0
 10
13.5490785778
 20
9.9789578979
 30
0.0
 10
13.5446810368
 20
9.9245852119
 30
0.0
 10
13.5395195741
 20
9.8705002812
 30
0.0
 10
13.5336112994
 20
9.8168820303
 30
0.0
 10
13.5269758147
 20
9.7639078328
 30
0.0
 10
13.5196351484
 20
9.7117529122
 30
0.0
 10
13.5116136823
 20
9.6605897749
 30
0.0
 10
13.5029380802
 20
9.6105875678
 30
0.0
 10
13.4936371784
 20
9.5619117407
 30
0.0
 10
13.4853286119
 20
9.5222891723
 30
0.0
 10
13.4783830087
 20
9.4913815595
 30
0.0
 10
13.4730772505
 20
9.4688096336
 30
0.0
 10
13.4676393963
 20
9.4466868832
 30
0.0
 10
13.4620738719
 20
9.4250315917
 30
0.0
 10
13.456385356
 20
9.4038616685
 30
0.0
 10
13.4505785155
 20
9.3831946207
 30
0.0
 10
13.4446582003
 20
9.3630475314
 30
0.0
 10
13.4386293041
 20
9.343437055
 30
0.0
 10
13.432496822
 20
9.3243793965
 30
0.0
 10
13.426265865
 20
9.3058902964
 30
0.0
 10
13.4199415544
 20
9.2879850286
 30
0.0
 10
13.4135291956
 20
9.270678363
 30
0.0
 10
13.4070340302
 20
9.253984589
 30
0.0
 10
13.4004615177
 20
9.2379174539
 30
0.0
 10
13.3938170264
 20
9.222490207
 30
0.0
 10
13.3871061177
 20
9.2077155276
 30
0.0
 10
13.3803342923
 20
9.1936055677
 30
0.0
 10
13.3735071602
 20
9.1801718979
 30
0.0
 10
13.3666303456
 20
9.1674255154
 30
0.0
 10
13.3597094597
 20
9.1553768442
 30
0.0
 10
13.352750214
 20
9.1440356739
 30
0.0
 10
13.3457581777
 20
9.1334112458
 30
0.0
 10
13.3387390752
 20
9.1235121041
 30
0.0
 10
13.3316983879
 20
9.1143462766
 30
0.0
 10
13.3246417298
 20
9.1059210638
 30
0.0
 10
13.3175744291
 20
9.0982432761
 30
0.0
 10
13.3105018311
 20
9.0913190581
 30
0.0
 10
13.3034290064
 20
9.0851540931
 30
0.0
 10
13.2963609413
 20
9.0797536306
 30
0.0
 10
13.289302287
 20
9.0751224869
 30
0.0
 10
13.2822582716
 20
9.0712656329
 30
0.0
 10
13.2763421617
 20
9.068673502
 30
0.0
 10
13.271634811
 20
9.0670078794
 30
0.0
 10
13.2681491462
 20
9.0659673262
 30
0.0
 10
13.264672443
 20
9.0651227838
 30
0.0
 10
13.2612053776
 20
9.0644745019
 30
0.0
 10
13.2577487507
 20
9.0640227297
 30
0.0
 10
13.2543033139
 20
9.0637675695
 30
0.0
 10
13.2508700147
 20
9.0637091087
 30
0.0
 10
13.2485882358
 20
9.0638014006
 30
0.0
 10
13.2474516527
 20
9.0638802178
 30
0.0
  0
SPLINE
  5
3B7
100
AcDbEntity
  8
0
100
AcDbSpline
 62
7
  6
CONTINUOUS
 70
0
 71
3
 72
50
 73
46
 74
0
 42
0.0000001
 43
0.0000001
 44
0.0000000001
 40
0.0
 40
0.0
 40
0.0
 40
0.0
 40
0.0461558267
 40
0.0918143428
 40
0.1369111716
 40
0.1813889563
 40
0.2251890572
 40
0.2682542074
 40
0.3105288172
 40
0.3519586522
 40
0.3924911667
 40
0.4320755631
 40
0.4706629685
 40
0.5082066558
 40
0.5446621138
 40
0.5799872674
 40
0.6141427892
 40
0.6470922259
 40
0.678802274
 40
0.709243238
 40
0.7383893172
 40
0.7662190323
 40
0.7927159385
 40
0.8054614736
 40
0.8178702801
 40
0.8299420431
 40
0.8416769836
 40
0.8530757429
 40
0.8641395922
 40
0.8748704598
 40
0.8852708599
 40
0.895344137
 40
0.9050944757
 40
0.9145268872
 40
0.9236474839
 40
0.9324634853
 40
0.94098327
 40
0.9492166701
 40
0.9571749795
 40
0.9648710636
 40
0.9723196366
 40
0.9795372547
 40
0.9865424271
 40
0.9933557882
 40
1.0
 40
1.0
 40
1.0
 40
1.0
 10
10.1431139256
 20
12.0449081708
 30
0.0
 10
10.1530158191
 20
12.0442214722
 30
0.0
 10
10.1727059611
 20
12.0427527649
 30
0.0
 10
10.2020422052
 20
12.0402489808
 30
0.0
 10
10.2309901587
 20
12.0374589719
 30
0.0
 10
10.259507624
 20
12.0343868637
 30
0.0
 10
10.2875538723
 20
12.0310370598
 30
0.0
 10
10.3150884189
 20
12.0274144182
 30
0.0
 10
10.3420715818
 20
12.0235241733
 30
0.0
 10
10.3684645213
 20
12.0193719505
 30
0.0
 10
10.3942292298
 20
12.0149637789
 30
0.0
 10
10.4193286092
 20
12.010306025
 30
0.0
 10
10.4437265323
 20
12.005405422
 30
0.0
 10
10.4673878999
 20
12.0002690897
 30
0.0
 10
10.4902786769
 20
11.9949044574
 30
0.0
 10
10.5123659503
 20
11.989319272
 30
0.0
 10
10.5336179981
 20
11.9835216466
 30
0.0
 10
10.5540043143
 20
11.9775199742
 30
0.0
 10
10.5734956622
 20
11.9713229075
 30
0.0
 10
10.5920641295
 20
11.9649394297
 30
0.0
 10
10.6096832378
 20
11.9583787573
 30
0.0
 10
10.6263276817
 20
11.9516503296
 30
0.0
 10
10.6395317787
 20
11.9458388097
 30
0.0
 10
10.6495805835
 20
11.941105114
 30
0.0
 10
10.6567611365
 20
11.9375649324
 30
0.0
 10
10.6636808075
 20
11.9339901294
 30
0.0
 10
10.6703371532
 20
11.9303820048
 30
0.0
 10
10.6767277706
 20
11.9267418102
 30
0.0
 10
10.6828503787
 20
11.9230708448
 30
0.0
 10
10.6887028171
 20
11.9193704532
 30
0.0
 10
10.6942829706
 20
11.9156418946
 30
0.0
 10
10.6995888603
 20
11.9118864992
 30
0.0
 10
10.7046186231
 20
11.9081056181
 30
0.0
 10
10.7093704289
 20
11.9043005128
 30
0.0
 10
10.7138426043
 20
11.9004725297
 30
0.0
 10
10.7180335773
 20
11.896623009
 30
0.0
 10
10.7219417918
 20
11.8927532034
 30
0.0
 10
10.7255658693
 20
11.8888644604
 30
0.0
 10
10.7289045038
 20
11.8849580956
 30
0.0
 10
10.7319563832
 20
11.8810353543
 30
0.0
 10
10.7347203935
 20
11.8770975797
 30
0.0
 10
10.7371954399
 20
11.873146097
 30
0.0
 10
10.7393804357
 20
11.8691821183
 30
0.0
 10
10.7412744054
 20
11.8652072807
 30
0.0
 10
10.7423548939
 20
11.8625200105
 30
0.0
 10
10.7428438003
 20
11.8611774411
 30
0.0
  0
SPLINE
  5
3B8
100
AcDbEntity
  8
0
100
AcDbSpline
 62
7
  6
CONTINUOUS
 70
0
 71
3
 72
15
 73
11
 74
0
 42
0.0000001
 43
0.0000001
 44
0.0000000001
 40
0.0
 40
0.0
 40
0.0
 40
0.0
 40
0.1322285991
 40
0.2628226728
 40
0.3915550757
 40
0.5182156063
 40
0.642592113
 40
0.7644798976
 40
0.8836800241
 40
1.0
 40
1.0
 40
1.0
 40
1.0
 10
10.1431139256
 20
11.778672982
 30
0.0
 10
10.1542653791
 20
11.7778996261
 30
0.0
 10
10.1764216538
 20
11.7762323337
 30
0.0
 10
10.2093976848
 20
11.773349946
 30
0.0
 10
10.2418671241
 20
11.7701054597
 30
0.0
 10
10.2737701493
 20
11.7665049592
 30
0.0
 10
10.3050487036
 20
11.7625549801
 30
0.0
 10
10.3356454906
 20
11.7582628143
 30
0.0
 10
10.3655044878
 20
11.7536363711
 30
0.0
 10
10.3851328034
 20
11.7502922262
 30
0.0
 10
10.3948129348
 20
11.7485630182
 30
0.0
  0
SPLINE
  5
3B9
100
AcDbEntity
  8
0
100
AcDbSpline
 62
7
  6
CONTINUOUS
 70
0
 71
3
 72
55
 73
51
 74
0
 42
0.0000001
 43
0.0000001
 44
0.0000000001
 40
0.0
 40
0.0
 40
0.0
 40
0.0
 40
0.0481975415
 40
0.0958290817
 40
0.142818713
 40
0.1890963521
 40
0.2345910715
 40
0.279234315
 40
0.3229593385
 40
0.3657013756
 40
0.4073979227
 40
0.4479889149
 40
0.4874169784
 40
0.525627636
 40
0.5625695632
 40
0.5981948995
 40
0.6324596307
 40
0.6653239472
 40
0.681220104
 40
0.69675341
 40
0.7119202568
 40
0.7267175098
 40
0.7411423279
 40
0.7551923488
 40
0.7688656914
 40
0.782160877
 40
0.7950770786
 40
0.8076139743
 40
0.8197718786
 40
0.8315518771
 40
0.8429557109
 40
0.8539860605
 40
0.8646465134
 40
0.8749416424
 40
0.8848772785
 40
0.8944604376
 40
0.9036996141
 40
0.912604918
 40
0.921188144
 40
0.9294631376
 40
0.9374458256
 40
0.9451544636
 40
0.952609859
 40
0.9598353745
 40
0.966857131
 40
0.9737039172
 40
0.9804070573
 40
0.9870002114
 40
0.9935188976
 40
1.0
 40
1.0
 40
1.0
 40
1.0
 10
10.1552784107
 20
12.1516792525
 30
0.0
 10
10.166557639
 20
12.1508970353
 30
0.0
 10
10.1889751287
 20
12.1492158708
 30
0.0
 10
10.222353747
 20
12.1463251894
 30
0.0
 10
10.2552476965
 20
12.1430839387
 30
0.0
 10
10.2876015616
 20
12.1394976745
 30
0.0
 10
10.3193615497
 20
12.1355723405
 30
0.0
 10
10.3504744561
 20
12.1313145613
 30
0.0
 10
10.3808883023
 20
12.1267314962
 30
0.0
 10
10.4105522636
 20
12.1218308454
 30
0.0
 10
10.4394167672
 20
12.1166208426
 30
0.0
 10
10.4674336003
 20
12.1111102431
 30
0.0
 10
10.4945559873
 20
12.1053083239
 30
0.0
 10
10.5207386694
 20
12.0992248437
 30
0.0
 10
10.5459379602
 20
12.0928700301
 30
0.0
 10
10.5701118969
 20
12.0862545602
 30
0.0
 10
10.593220106
 20
12.0793895628
 30
0.0
 10
10.6117567624
 20
12.073406006
 30
0.0
 10
10.6260174589
 20
12.068495068
 30
0.0
 10
10.6363041712
 20
12.0647975776
 30
0.0
 10
10.6462965658
 20
12.0610464521
 30
0.0
 10
10.655990502
 20
12.057243299
 30
0.0
 10
10.6653819273
 20
12.0533896703
 30
0.0
 10
10.6744669314
 20
12.0494871795
 30
0.0
 10
10.6832417444
 20
12.0455374917
 30
0.0
 10
10.691702696
 20
12.0415421911
 30
0.0
 10
10.6998462895
 20
12.0375029969
 30
0.0
 10
10.7076691389
 20
12.0334215676
 30
0.0
 10
10.7151679869
 20
12.0292995687
 30
0.0
 10
10.7223397547
 20
12.0251387661
 30
0.0
 10
10.7291814458
 20
12.0209408093
 30
0.0
 10
10.73569025
 20
12.0167074589
 30
0.0
 10
10.7418634917
 20
12.0124404578
 30
0.0
 10
10.7476985889
 20
12.0081414805
 30
0.0
 10
10.7531931829
 20
12.0038123351
 30
0.0
 10
10.758344976
 20
11.9994547013
 30
0.0
 10
10.7631518357
 20
11.9950703096
 30
0.0
 10
10.7676118055
 20
11.9906609258
 30
0.0
 10
10.7717229451
 20
11.9862281844
 30
0.0
 10
10.775483561
 20
11.9817738523
 30
0.0
 10
10.7788919943
 20
11.9772996019
 30
0.0
 10
10.7819466569
 20
11.9728071013
 30
0.0
 10
10.7846461831
 20
11.9682981223
 30
0.0
 10
10.7869891111
 20
11.9637743434
 30
0.0
 10
10.7889742057
 20
11.9592376007
 30
0.0
 10
10.7906003097
 20
11.9546897719
 30
0.0
 10
10.791866252
 20
11.9501328433
 30
0.0
 10
10.792771254
 20
11.9455688674
 30
0.0
 10
10.7933145291
 20
11.9410004352
 30
0.0
 10
10.7934353827
 20
11.9379495459
 30
0.0
 10
10.7934353797
 20
11.9364291901
 30
0.0
  0
SPLINE
  5
3BA
100
AcDbEntity
  8
0
100
AcDbSpline
 62
4
  6
CONTINUOUS
 70
0
 71
3
 72
403
 73
399
 74
0
 42
0.0000001
 43
0.0000001
 44
0.0000000001
 40
0.0
 40
0.0
 40
0.0
 40
0.0
 40
0.015625
 40
0.0234375
 40
0.03125
 40
0.0390625
 40
0.04296875
 40
0.046875
 40
0.05078125
 40
0.0546875
 40
0.056640625
 40
0.05859375
 40
0.0595703125
 40
0.060546875
 40
0.0615234375
 40
0.0620117188
 40
0.0622558594
 40
0.0625
 40
0.0627441406
 40
0.0629882812
 40
0.0634765625
 40
0.064453125
 40
0.0654296875
 40
0.06640625
 40
0.068359375
 40
0.0703125
 40
0.07421875
 40
0.078125
 40
0.08203125
 40
0.0859375
 40
0.09375
 40
0.1015625
 40
0.10546875
 40
0.109375
 40
0.11328125
 40
0.1171875
 40
0.119140625
 40
0.12109375
 40
0.1220703125
 40
0.123046875
 40
0.1240234375
 40
0.1245117188
 40
0.1247558594
 40
0.125
 40
0.1252441406
 40
0.1254882812
 40
0.1259765625
 40
0.126953125
 40
0.1279296875
 40
0.12890625
 40
0.130859375
 40
0.1328125
 40
0.13671875
 40
0.140625
 40
0.14453125
 40
0.1484375
 40
0.15625
 40
0.1640625
 40
0.16796875
 40
0.171875
 40
0.17578125
 40
0.1796875
 40
0.181640625
 40
0.18359375
 40
0.1845703125
 40
0.185546875
 40
0.1865234375
 40
0.1870117188
 40
0.1872558594
 40
0.1875
 40
0.1877441406
 40
0.1879882812
 40
0.1884765625
 40
0.189453125
 40
0.1904296875
 40
0.19140625
 40
0.193359375
 40
0.1953125
 40
0.19921875
 40
0.203125
 40
0.20703125
 40
0.2109375
 40
0.21875
 40
0.2265625
 40
0.23046875
 40
0.234375
 40
0.23828125
 40
0.2421875
 40
0.244140625
 40
0.24609375
 40
0.2470703125
 40
0.248046875
 40
0.2490234375
 40
0.2495117188
 40
0.2497558594
 40
0.25
 40
0.2502441406
 40
0.2504882812
 40
0.2509765625
 40
0.251953125
 40
0.2529296875
 40
0.25390625
 40
0.255859375
 40
0.2578125
 40
0.26171875
 40
0.265625
 40
0.26953125
 40
0.2734375
 40
0.28125
 40
0.2890625
 40
0.29296875
 40
0.296875
 40
0.30078125
 40
0.3046875
 40
0.306640625
 40
0.30859375
 40
0.3095703125
 40
0.310546875
 40
0.3115234375
 40
0.3120117188
 40
0.3122558594
 40
0.3125
 40
0.3127441406
 40
0.3129882812
 40
0.3134765625
 40
0.314453125
 40
0.3154296875
 40
0.31640625
 40
0.318359375
 40
0.3203125
 40
0.32421875
 40
0.328125
 40
0.33203125
 40
0.3359375
 40
0.34375
 40
0.3515625
 40
0.35546875
 40
0.359375
 40
0.36328125
 40
0.3671875
 40
0.369140625
 40
0.37109375
 40
0.3720703125
 40
0.373046875
 40
0.3740234375
 40
0.3745117188
 40
0.3747558594
 40
0.375
 40
0.3752441406
 40
0.3754882812
 40
0.3759765625
 40
0.376953125
 40
0.3779296875
 40
0.37890625
 40
0.380859375
 40
0.3828125
 40
0.38671875
 40
0.390625
 40
0.39453125
 40
0.3984375
 40
0.40625
 40
0.4140625
 40
0.41796875
 40
0.421875
 40
0.42578125
 40
0.4296875
 40
0.431640625
 40
0.43359375
 40
0.4345703125
 40
0.435546875
 40
0.4365234375
 40
0.4370117188
 40
0.4372558594
 40
0.4375
 40
0.4377441406
 40
0.4379882812
 40
0.4384765625
 40
0.439453125
 40
0.4404296875
 40
0.44140625
 40
0.443359375
 40
0.4453125
 40
0.44921875
 40
0.453125
 40
0.45703125
 40
0.4609375
 40
0.46875
 40
0.4765625
 40
0.48046875
 40
0.484375
 40
0.48828125
 40
0.4921875
 40
0.494140625
 40
0.49609375
 40
0.4970703125
 40
0.498046875
 40
0.4990234375
 40
0.4995117188
 40
0.4997558594
 40
0.5
 40
0.5002441406
 40
0.5004882812
 40
0.5009765625
 40
0.501953125
 40
0.5029296875
 40
0.50390625
 40
0.505859375
 40
0.5078125
 40
0.51171875
 40
0.515625
 40
0.51953125
 40
0.5234375
 40
0.53125
 40
0.5390625
 40
0.54296875
 40
0.546875
 40
0.55078125
 40
0.5546875
 40
0.556640625
 40
0.55859375
 40
0.5595703125
 40
0.560546875
 40
0.5615234375
 40
0.5620117188
 40
0.5622558594
 40
0.5625
 40
0.5627441406
 40
0.5629882812
 40
0.5634765625
 40
0.564453125
 40
0.5654296875
 40
0.56640625
 40
0.568359375
 40
0.5703125
 40
0.57421875
 40
0.578125
 40
0.58203125
 40
0.5859375
 40
0.59375
 40
0.6015625
 40
0.60546875
 40
0.609375
 40
0.61328125
 40
0.6171875
 40
0.619140625
 40
0.62109375
 40
0.6220703125
 40
0.623046875
 40
0.6240234375
 40
0.6245117188
 40
0.6247558594
 40
0.625
 40
0.6252441406
 40
0.6254882812
 40
0.6259765625
 40
0.626953125
 40
0.6279296875
 40
0.62890625
 40
0.630859375
 40
0.6328125
 40
0.63671875
 40
0.640625
 40
0.64453125
 40
0.6484375
 40
0.65625
 40
0.6640625
 40
0.66796875
 40
0.671875
 40
0.67578125
 40
0.6796875
 40
0.681640625
 40
0.68359375
 40
0.6845703125
 40
0.685546875
 40
0.6865234375
 40
0.6870117188
 40
0.6872558594
 40
0.6875
 40
0.6877441406
 40
0.6879882812
 40
0.6884765625
 40
0.689453125
 40
0.6904296875
 40
0.69140625
 40
0.693359375
 40
0.6953125
 40
0.69921875
 40
0.703125
 40
0.70703125
 40
0.7109375
 40
0.71875
 40
0.7265625
 40
0.73046875
 40
0.734375
 40
0.73828125
 40
0.7421875
 40
0.744140625
 40
0.74609375
 40
0.7470703125
 40
0.748046875
 40
0.7490234375
 40
0.7495117188
 40
0.7497558594
 40
0.75
 40
0.7502441406
 40
0.7504882812
 40
0.7509765625
 40
0.751953125
 40
0.7529296875
 40
0.75390625
 40
0.755859375
 40
0.7578125
 40
0.76171875
 40
0.765625
 40
0.76953125
 40
0.7734375
 40
0.78125
 40
0.7890625
 40
0.79296875
 40
0.796875
 40
0.80078125
 40
0.8046875
 40
0.806640625
 40
0.80859375
 40
0.8095703125
 40
0.810546875
 40
0.8115234375
 40
0.8120117188
 40
0.8122558594
 40
0.8125
 40
0.8127441406
 40
0.8129882812
 40
0.8134765625
 40
0.814453125
 40
0.8154296875
 40
0.81640625
 40
0.818359375
 40
0.8203125
 40
0.82421875
 40
0.828125
 40
0.83203125
 40
0.8359375
 40
0.84375
 40
0.8515625
 40
0.85546875
 40
0.859375
 40
0.86328125
 40
0.8671875
 40
0.869140625
 40
0.87109375
 40
0.8720703125
 40
0.873046875
 40
0.8740234375
 40
0.8745117188
 40
0.8747558594
 40
0.875
 40
0.8752441406
 40
0.8754882812
 40
0.8759765625
 40
0.876953125
 40
0.8779296875
 40
0.87890625
 40
0.880859375
 40
0.8828125
 40
0.88671875
 40
0.890625
 40
0.89453125
 40
0.8984375
 40
0.90625
 40
0.9140625
 40
0.91796875
 40
0.921875
 40
0.92578125
 40
0.9296875
 40
0.931640625
 40
0.93359375
 40
0.9345703125
 40
0.935546875
 40
0.9365234375
 40
0.9370117188
 40
0.9372558594
 40
0.9375
 40
0.9377441406
 40
0.9379882812
 40
0.9384765625
 40
0.939453125
 40
0.9404296875
 40
0.94140625
 40
0.943359375
 40
0.9453125
 40
0.94921875
 40
0.953125
 40
0.95703125
 40
0.9609375
 40
0.96875
 40
0.9765625
 40
0.984375
 40
1.0
 40
1.0
 40
1.0
 40
1.0
 10
9.7240502417
 20
9.5882731593
 30
0.0
 10
9.7177838678
 20
9.5880933105
 30
0.0
 10
9.7083843071
 20
9.5878235372
 30
0.0
 10
9.6958515594
 20
9.5874638396
 30
0.0
 10
9.6864519987
 20
9.5871940663
 30
0.0
 10
9.6786190313
 20
9.5869692556
 30
0.0
 10
9.6723526576
 20
9.5867894061
 30
0.0
 10
9.6676528768
 20
9.5866545215
 30
0.0
 10
9.6629530979
 20
9.5865196274
 30
0.0
 10
9.6590366097
 20
9.5864072451
 30
0.0
 10
9.6559034321
 20
9.5863172733
 30
0.0
 10
9.6539451667
 20
9.5862611911
 30
0.0
 10
9.6523786216
 20
9.5862159814
 30
0.0
 10
9.6512035288
 20
9.5861830159
 30
0.0
 10
9.65022487
 20
9.5861525487
 30
0.0
 10
9.6495386604
 20
9.5861371011
 30
0.0
 10
9.6491483338
 20
9.5861190937
 30
0.0
 10
9.6488505376
 20
9.5861314487
 30
0.0
 10
9.6485720496
 20
9.5860449518
 30
0.0
 10
9.6481939972
 20
9.5859641033
 30
0.0
 10
9.6475355436
 20
9.5858065532
 30
0.0
 10
9.646593255
 20
9.5855898807
 30
0.0
 10
9.6454632109
 20
9.5853262786
 30
0.0
 10
9.6439562402
 20
9.5849760648
 30
0.0
 10
9.6420726107
 20
9.5845378676
 30
0.0
 10
9.6390587567
 20
9.5838369925
 30
0.0
 10
9.6352914552
 20
9.5829608161
 30
0.0
 10
9.6307706865
 20
9.5819094397
 30
0.0
 10
9.6262499197
 20
9.5808580539
 30
0.0
 10
9.62022223
 20
9.5794562095
 30
0.0
 10
9.6126876181
 20
9.5777039027
 30
0.0
 10
9.6051530059
 20
9.5759515967
 30
0.0
 10
9.5991253166
 20
9.574549751
 30
0.0
 10
9.5946045486
 20
9.5734983691
 30
0.0
 10
9.5900837843
 20
9.5724469781
 30
0.0
 10
9.5863164694
 20
9.5715708472
 30
0.0
 10
9.5833026427
 20
9.5708698793
 30
0.0
 10
9.5814189435
 20
9.570431918
 30
0.0
 10
9.579912116
 20
9.5700812201
 30
0.0
 10
9.5787816344
 20
9.5698190972
 30
0.0
 10
9.5778407145
 20
9.5695977965
 30
0.0
 10
9.5771798175
 20
9.5694485085
 30
0.0
 10
9.57680568
 20
9.569354422
 30
0.0
 10
9.576515167
 20
9.5693085877
 30
0.0
 10
9.5762625346
 20
9.5691682209
 30
0.0
 10
9.5759124782
 20
9.5690140392
 30
0.0
 10
9.5753060359
 20
9.5687288579
 30
0.0
 10
9.5744364711
 20
9.5683294882
 30
0.0
 10
9.573394371
 20
9.5678468066
 30
0.0
 10
9.572004423
 20
9.5672044319
 30
0.0
 10
9.5702671528
 20
9.5664010524
 30
0.0
 10
9.5674874284
 20
9.5651158749
 30
0.0
 10
9.5640128044
 20
9.5635093242
 30
0.0
 10
9.5598432422
 20
9.5615814973
 30
0.0
 10
9.5556736835
 20
9.5596536612
 30
0.0
 10
9.5501142707
 20
9.5570832163
 30
0.0
 10
9.5431650052
 20
9.553870159
 30
0.0
 10
9.5362157393
 20
9.5506571025
 30
0.0
 10
9.5306563271
 20
9.5480866564
 30
0.0
 10
9.5264867667
 20
9.5461588241
 30
0.0
 10
9.522317211
 20
9.544230983
 30
0.0
 10
9.5188425667
 20
9.5426244763
 30
0.0
 10
9.5160628837
 20
9.5413392092
 30
0.0
 10
9.5143255081
 20
9.5405360579
 30
0.0
 10
9.5129357765
 20
9.5398932147
 30
0.0
 10
9.5118930152
 20
9.5394119644
 30
0.0
 10
9.5110255191
 20
9.5390081163
 30
0.0
 10
9.5104153838
 20
9.5387309298
 30
0.0
 10
9.5100712445
 20
9.5385639384
 30
0.0
 10
9.5098004369
 20
9.5384629186
 30
0.0
 10
9.5095781869
 20
9.5382693036
 30
0.0
 10
9.5092649161
 20
9.5380434484
 30
0.0
 10
9.5087245838
 20
9.5376331536
 30
0.0
 10
9.5079485546
 20
9.5370548855
 30
0.0
 10
9.5070190856
 20
9.5363575963
 30
0.0
 10
9.5057791767
 20
9.5354290535
 30
0.0
 10
9.5042295019
 20
9.5342679723
 30
0.0
 10
9.501749904
 20
9.5324104675
 30
0.0
 10
9.4986504473
 20
9.5300885093
 30
0.0
 10
9.4949310818
 20
9.5273021925
 30
0.0
 10
9.4912117209
 20
9.5245158669
 30
0.0
 10
9.4862525715
 20
9.5208007692
 30
0.0
 10
9.4800536354
 20
9.5161568959
 30
0.0
 10
9.4738546987
 20
9.5115130233
 30
0.0
 10
9.4688955501
 20
9.5077979244
 30
0.0
 10
9.4651761867
 20
9.5050116021
 30
0.0
 10
9.4614568308
 20
9.502225273
 30
0.0
 10
9.4583573443
 20
9.4999033531
 30
0.0
 10
9.4558778071
 20
9.4980457701
 30
0.0
 10
9.454327978
 20
9.496884888
 30
0.0
 10
9.4530883857
 20
9.4959559366
 30
0.0
 10
9.4521579496
 20
9.495259896
 30
0.0
 10
9.4513849461
 20
9.4946777214
 30
0.0
 10
9.4508392123
 20
9.4942744003
 30
0.0
 10
9.450534596
 20
9.4940373713
 30
0.0
 10
9.4502857624
 20
9.4938780787
 30
0.0
 10
9.4501147984
 20
9.4936481496
 30
0.0
 10
9.4498596847
 20
9.4933662163
 30
0.0
 10
9.4494258908
 20
9.4928613534
 30
0.0
 10
9.448799569
 20
9.4921461224
 30
0.0
 10
9.4480508148
 20
9.4912852762
 30
0.0
 10
9.4470514867
 20
9.4901383786
 30
0.0
 10
9.4458026652
 20
9.4887044494
 30
0.0
 10
9.4438043616
 20
9.4864103343
 30
0.0
 10
9.4413065471
 20
9.4835426315
 30
0.0
 10
9.4383091418
 20
9.4801014135
 30
0.0
 10
9.435311744
 20
9.4766601887
 30
0.0
 10
9.4313152109
 20
9.4720718913
 30
0.0
 10
9.4263195456
 20
9.4663365187
 30
0.0
 10
9.4213238796
 20
9.4606011466
 30
0.0
 10
9.4173273476
 20
9.4560128483
 30
0.0
 10
9.4143299466
 20
9.4525716262
 30
0.0
 10
9.4113325534
 20
9.4491303982
 30
0.0
 10
9.4088347011
 20
9.4462627263
 30
0.0
 10
9.4068364745
 20
9.4439685482
 30
0.0
 10
9.4055874573
 20
9.4425347795
 30
0.0
 10
9.404588531
 20
9.4413875522
 30
0.0
 10
9.4038385493
 20
9.4405277132
 30
0.0
 10
9.403216068
 20
9.4398093311
 30
0.0
 10
9.4027754181
 20
9.4393100934
 30
0.0
 10
9.4025312894
 20
9.4390191472
 30
0.0
 10
9.4023265828
 20
9.4388169029
 30
0.0
 10
9.402204481
 20
9.4385536308
 30
0.0
 10
9.4020128652
 20
9.4382238886
 30
0.0
 10
9.4016909621
 20
9.4376369216
 30
0.0
 10
9.4012240821
 20
9.4368035826
 30
0.0
 10
9.4006668302
 20
9.4358013564
 30
0.0
 10
9.3999227783
 20
9.4344658299
 30
0.0
 10
9.3989930728
 20
9.4327961564
 30
0.0
 10
9.3975053432
 20
9.4301248271
 30
0.0
 10
9.3956457501
 20
9.4267856146
 30
0.0
 10
9.3934142088
 20
9.4227785815
 30
0.0
 10
9.3911826754
 20
9.4187715425
 30
0.0
 10
9.3882072948
 20
9.4134288259
 30
0.0
 10
9.3844880701
 20
9.4067504293
 30
0.0
 10
9.3807688447
 20
9.4000720332
 30
0.0
 10
9.3777934653
 20
9.3947293159
 30
0.0
 10
9.3755619284
 20
9.390722279
 30
0.0
 10
9.3733304003
 20
9.3867152379
 30
0.0
 10
9.3714707662
 20
9.3833760502
 30
0.0
 10
9.3699831201
 20
9.3807046703
 30
0.0
 10
9.3690532019
 20
9.3790351256
 30
0.0
 10
9.3683095867
 20
9.3776993348
 30
0.0
 10
9.367751001
 20
9.3766979162
 30
0.0
 10
9.3672882942
 20
9.3758620501
 30
0.0
 10
9.3669589411
 20
9.3752795945
 30
0.0
 10
9.3667792621
 20
9.374942624
 30
0.0
 10
9.3666204943
 20
9.3747015548
 30
0.0
 10
9.3665534991
 20
9.37441592
 30
0.0
 10
9.3664321609
 20
9.3740506186
 30
0.0
 10
9.3662347337
 20
9.3734040984
 30
0.0
 10
9.3659448973
 20
9.3724842847
 30
0.0
 10
9.3656004313
 20
9.3713788875
 30
0.0
 10
9.3651399774
 20
9.3699055906
 30
0.0
 10
9.3645648093
 20
9.3680637757
 30
0.0
 10
9.3636443172
 20
9.3651169802
 30
0.0
 10
9.3624937786
 20
9.3614334486
 30
0.0
 10
9.3611130994
 20
9.3570132266
 30
0.0
 10
9.3597324291
 20
9.3525930004
 30
0.0
 10
9.3578915322
 20
9.3466993669
 30
0.0
 10
9.3555904123
 20
9.3393323245
 30
0.0
 10
9.3532892916
 20
9.3319652825
 30
0.0
 10
9.3514483959
 20
9.3260716485
 30
0.0
 10
9.3500677218
 20
9.3216514238
 30
0.0
 10
9.3486870569
 20
9.3172311958
 30
0.0
 10
9.3475364739
 20
9.3135476831
 30
0.0
 10
9.3466160725
 20
9.3106008492
 30
0.0
 10
9.3460406735
 20
9.3087591319
 30
0.0
 10
9.3455806934
 20
9.3072856346
 30
0.0
 10
9.3452347801
 20
9.3061808499
 30
0.0
 10
9.3449494718
 20
9.3052591197
 30
0.0
 10
9.3447439612
 20
9.3046160208
 30
0.0
 10
9.3446355746
 20
9.3042452376
 30
0.0
 10
9.3445287964
 20
9.3039764411
 30
0.0
 10
9.3445194471
 20
9.3036721298
 30
0.0
 10
9.3444729971
 20
9.3032787693
 30
0.0
 10
9.3444075436
 20
9.3025846167
 30
0.0
 10
9.3443057603
 20
9.3015959877
 30
0.0
 10
9.3441871637
 20
9.3004083413
 30
0.0
 10
9.3440277973
 20
9.2988252639
 30
0.0
 10
9.3438290131
 20
9.2968462627
 30
0.0
 10
9.3435107214
 20
9.293679947
 30
0.0
 10
9.3431129382
 20
9.2897220229
 30
0.0
 10
9.3426355634
 20
9.2849725265
 30
0.0
 10
9.342158198
 20
9.2802230268
 30
0.0
 10
9.3415217075
 20
9.2738903617
 30
0.0
 10
9.3407260956
 20
9.26597453
 30
0.0
 10
9.3399304828
 20
9.2580586983
 30
0.0
 10
9.3392939936
 20
9.251726033
 30
0.0
 10
9.3388166242
 20
9.246976534
 30
0.0
 10
9.3383392644
 20
9.2422270351
 30
0.0
 10
9.3379414345
 20
9.2382691188
 30
0.0
 10
9.3376232381
 20
9.2351027871
 30
0.0
 10
9.3374242116
 20
9.2331238268
 30
0.0
 10
9.3372653424
 20
9.2315406653
 30
0.0
 10
9.3371452266
 20
9.2303532759
 30
0.0
 10
9.3370481968
 20
9.2293638428
 30
0.0
 10
9.3369742575
 20
9.2286711257
 30
0.0
 10
9.3369414038
 20
9.2282754652
 30
0.0
 10
9.336890291
 20
9.2279782187
 30
0.0
 10
9.3369403694
 20
9.2276828879
 30
0.0
 10
9.3369718439
 20
9.2272884453
 30
0.0
 10
9.3370433697
 20
9.2265984819
 30
0.0
 10
9.3371369516
 20
9.2256126573
 30
0.0
 10
9.33725293
 20
9.2244297374
 30
0.0
 10
9.3374062825
 20
9.2228524866
 30
0.0
 10
9.3375984132
 20
9.2208809313
 30
0.0
 10
9.3379055764
 20
9.2177264383
 30
0.0
 10
9.3382896147
 20
9.2137833236
 30
0.0
 10
9.3387504246
 20
9.2090515853
 30
0.0
 10
9.3392112441
 20
9.2043198471
 30
0.0
 10
9.3398256668
 20
9.1980108629
 30
0.0
 10
9.3405936963
 20
9.1901246326
 30
0.0
 10
9.3413617251
 20
9.1822384022
 30
0.0
 10
9.3419761491
 20
9.1759294181
 30
0.0
 10
9.3424369646
 20
9.1711976797
 30
0.0
 10
9.3428977895
 20
9.1664659424
 30
0.0
 10
9.3432817811
 20
9.1625228243
 30
0.0
 10
9.3435890395
 20
9.1593683382
 30
0.0
 10
9.3437809279
 20
9.1573967653
 30
0.0
 10
9.3439347779
 20
9.1558195507
 30
0.0
 10
9.3440492363
 20
9.1546365202
 30
0.0
 10
9.3441475737
 20
9.1536510417
 30
0.0
 10
9.3442106102
 20
9.1529604605
 30
0.0
 10
9.3442556867
 20
9.1525670078
 30
0.0
 10
9.344263984
 20
9.1522686362
 30
0.0
 10
9.3443697941
 20
9.1519828102
 30
0.0
 10
9.3444768606
 20
9.1515973328
 30
0.0
 10
9.3446800747
 20
9.1509247862
 30
0.0
 10
9.3449620951
 20
9.1499629394
 30
0.0
 10
9.345304066
 20
9.1488091796
 30
0.0
 10
9.3457587886
 20
9.1472706737
 30
0.0
 10
9.3463276159
 20
9.1453475959
 30
0.0
 10
9.3472375026
 20
9.142270641
 30
0.0
 10
9.3483749422
 20
9.1384244579
 30
0.0
 10
9.3497398349
 20
9.1338090336
 30
0.0
 10
9.351104737
 20
9.1291936105
 30
0.0
 10
9.3529246031
 20
9.1230397126
 30
0.0
 10
9.355199437
 20
9.1153473404
 30
0.0
 10
9.3574742701
 20
9.1076549681
 30
0.0
 10
9.3592941375
 20
9.1015010705
 30
0.0
 10
9.3606590358
 20
9.0968856465
 30
0.0
 10
9.3620239428
 20
9.0922702255
 30
0.0
 10
9.3631613379
 20
9.088424032
 30
0.0
 10
9.3640713154
 20
9.0853470982
 30
0.0
 10
9.3646399116
 20
9.0834239667
 30
0.0
 10
9.3650951084
 20
9.0818855712
 30
0.0
 10
9.3654356305
 20
9.0807314743
 30
0.0
 10
9.3657221842
 20
9.0797706818
 30
0.0
 10
9.3659173056
 20
9.0790962532
 30
0.0
 10
9.3660373385
 20
9.0787137913
 30
0.0
 10
9.36610332
 20
9.0784187024
 30
0.0
 10
9.3662612069
 20
9.0781551206
 30
0.0
 10
9.3664396651
 20
9.0777926881
 30
0.0
 10
9.3667669033
 20
9.0771635517
 30
0.0
 10
9.3672265775
 20
9.0762621084
 30
0.0
 10
9.3677815291
 20
9.0751815223
 30
0.0
 10
9.368520297
 20
9.0737403406
 30
0.0
 10
9.3694441566
 20
9.0719390005
 30
0.0
 10
9.3709221086
 20
9.0690567797
 30
0.0
 10
9.3727696252
 20
9.0654540301
 30
0.0
 10
9.3749866124
 20
9.0611307192
 30
0.0
 10
9.3772036083
 20
9.0568074114
 30
0.0
 10
9.3801595998
 20
9.0510429999
 30
0.0
 10
9.3838545902
 20
9.0438374859
 30
0.0
 10
9.38754958
 20
9.0366319716
 30
0.0
 10
9.3905055727
 20
9.0308675606
 30
0.0
 10
9.3927225649
 20
9.0265442513
 30
0.0
 10
9.3949395657
 20
9.022220946
 30
0.0
 10
9.3967870398
 20
9.018618179
 30
0.0
 10
9.3982650786
 20
9.0157359937
 30
0.0
 10
9.3991887173
 20
9.0139345635
 30
0.0
 10
9.3999279387
 20
9.0124935667
 30
0.0
 10
9.4004815047
 20
9.0114124155
 30
0.0
 10
9.4009455139
 20
9.0105127402
 30
0.0
 10
9.4012650135
 20
9.0098804476
 30
0.0
 10
9.4014558709
 20
9.0095230722
 30
0.0
 10
9.4015756713
 20
9.0092439565
 30
0.0
 10
9.4017846995
 20
9.0090072103
 30
0.0
 10
9.40203228
 20
9.0086767698
 30
0.0
 10
9.4024800471
 20
9.0081053847
 30
0.0
 10
9.403112133
 20
9.0072855202
 30
0.0
 10
9.4038738811
 20
9.0063032238
 30
0.0
 10
9.4048884118
 20
9.004992957
 30
0.0
 10
9.4061569633
 20
9.0033553078
 30
0.0
 10
9.4081864288
 20
9.000734966
 30
0.0
 10
9.4107233351
 20
8.9974595742
 30
0.0
 10
9.4137675907
 20
8.9935290889
 30
0.0
 10
9.4168118549
 20
8.9895986076
 30
0.0
 10
9.4208708708
 20
8.9843579644
 30
0.0
 10
9.4259446418
 20
8.9778071611
 30
0.0
 10
9.4310184121
 20
8.9712563572
 30
0.0
 10
9.435077429
 20
8.9660157149
 30
0.0
 10
9.4381216901
 20
8.9620852313
 30
0.0
 10
9.4411659574
 20
8.9581547547
 30
0.0
 10
9.4437028274
 20
8.9548793357
 30
0.0
 10
9.4457323669
 20
8.9522590494
 30
0.0
 10
9.44700073
 20
8.950621259
 30
0.0
 10
9.4480156475
 20
8.949311282
 30
0.0
 10
9.4487762141
 20
8.9483281004
 30
0.0
 10
9.4494119966
 20
8.9475110053
 30
0.0
 10
9.4498531645
 20
8.9469346764
 30
0.0
 10
9.4501113186
 20
8.946612157
 30
0.0
 10
9.450287868
 20
8.9463510796
 30
0.0
 10
9.4505296534
 20
8.9461633478
 30
0.0
 10
9.4508292789
 20
8.945887455
 30
0.0
 10
9.4513642255
 20
8.9454165624
 30
0.0
 10
9.4521228921
 20
8.9447376269
 30
0.0
 10
9.4530356646
 20
8.9439255717
 30
0.0
 10
9.4542518658
 20
8.9428418997
 30
0.0
 10
9.4557724011
 20
8.9414876288
 30
0.0
 10
9.458205099
 20
8.9393206171
 30
0.0
 10
9.4612460258
 20
8.9366119135
 30
0.0
 10
9.4648951146
 20
8.9333614431
 30
0.0
 10
9.4685442097
 20
8.9301109797
 30
0.0
 10
9.4734096676
 20
8.9257770259
 30
0.0
 10
9.4794914908
 20
8.9203595847
 30
0.0
 10
9.4855733134
 20
8.9149421429
 30
0.0
 10
9.4904387721
 20
8.9106081902
 30
0.0
 10
9.4940878648
 20
8.9073577237
 30
0.0
 10
9.4977369627
 20
8.9041072648
 30
0.0
 10
9.5007778612
 20
8.9013985255
 30
0.0
 10
9.5032106168
 20
8.8992315866
 30
0.0
 10
9.5047310051
 20
8.8978771302
 30
0.0
 10
9.5059475082
 20
8.8967938391
 30
0.0
 10
9.5068593586
 20
8.8959806203
 30
0.0
 10
9.5076209099
 20
8.8953053253
 30
0.0
 10
9.5081507068
 20
8.8948279339
 30
0.0
 10
9.5084585834
 20
8.8945624539
 30
0.0
 10
9.5086750241
 20
8.894342737
 30
0.0
 10
9.508946764
 20
8.89420179
 30
0.0
 10
9.5092897948
 20
8.8939863849
 30
0.0
 10
9.5098990859
 20
8.8936222274
 30
0.0
 10
9.5107648031
 20
8.8930953096
 30
0.0
 10
9.5118056749
 20
8.892465873
 30
0.0
 10
9.5131928015
 20
8.8916256236
 30
0.0
 10
9.5149269504
 20
8.8905756545
 30
0.0
 10
9.517701454
 20
8.8888955124
 30
0.0
 10
9.5211696297
 20
8.8867954005
 30
0.0
 10
9.5253314208
 20
8.884275238
 30
0.0
 10
9.5294932172
 20
8.8817550831
 30
0.0
 10
9.5350422771
 20
8.8783948739
 30
0.0
 10
9.5419786028
 20
8.8741946133
 30
0.0
 10
9.548914928
 20
8.8699943521
 30
0.0
 10
9.5544639886
 20
8.866634144
 30
0.0
 10
9.5586257831
 20
8.8641139857
 30
0.0
 10
9.5627875813
 20
8.8615938359
 30
0.0
 10
9.566255735
 20
8.8594936845
 30
0.0
 10
9.5690302835
 20
8.8578136229
 30
0.0
 10
9.5707643182
 20
8.856763449
 30
0.0
 10
9.572151679
 20
8.85592362
 30
0.0
 10
9.5731918356
 20
8.8552928991
 30
0.0
 10
9.5740597905
 20
8.8547699994
 30
0.0
 10
9.5746650869
 20
8.854398669
 30
0.0
 10
9.5750145182
 20
8.8541947567
 30
0.0
 10
9.5752665979
 20
8.8540185072
 30
0.0
 10
9.5755568788
 20
8.853931381
 30
0.0
 10
9.5759305951
 20
8.8537841254
 30
0.0
 10
9.5765908069
 20
8.8535409124
 30
0.0
 10
9.5775307208
 20
8.8531858928
 30
0.0
 10
9.5786600068
 20
8.8527631105
 30
0.0
 10
9.5801652363
 20
8.8521982686
 30
0.0
 10
9.5820469393
 20
8.8514926039
 30
0.0
 10
9.5850575711
 20
8.8503633238
 30
0.0
 10
9.5888208928
 20
8.8489517979
 30
0.0
 10
9.5933368652
 20
8.8472579351
 30
0.0
 10
9.5978528413
 20
8.8455640807
 30
0.0
 10
9.6038741414
 20
8.8433056052
 30
0.0
 10
9.611400767
 20
8.840482512
 30
0.0
 10
9.6189273923
 20
8.8376594181
 30
0.0
 10
9.6249486928
 20
8.8354009439
 30
0.0
 10
9.6294646675
 20
8.8337070858
 30
0.0
 10
9.633980645
 20
8.8320132369
 30
0.0
 10
9.6377439509
 20
8.8306016676
 30
0.0
 10
9.6407546149
 20
8.8294724759
 30
0.0
 10
9.6426362362
 20
8.8287665861
 30
0.0
 10
9.6441416333
 20
8.8282022064
 30
0.0
 10
9.6452704071
 20
8.8277780123
 30
0.0
 10
9.6462119236
 20
8.8274274096
 30
0.0
 10
9.6468692746
 20
8.8271763116
 30
0.0
 10
9.6472475745
 20
8.8270416898
 30
0.0
 10
9.647523776
 20
8.826915757
 30
0.0
 10
9.6478287359
 20
8.8268852587
 30
0.0
 10
9.6482253178
 20
8.8268113056
 30
0.0
 10
9.6489240099
 20
8.8266973976
 30
0.0
 10
9.6499196981
 20
8.8265265631
 30
0.0
 10
9.6511155697
 20
8.8263250325
 30
0.0
 10
9.6527096999
 20
8.8260551128
 30
0.0
 10
9.6547024878
 20
8.8257181283
 30
0.0
 10
9.6578908784
 20
8.825178721
 30
0.0
 10
9.6618763907
 20
8.8245045415
 30
0.0
 10
9.6666589952
 20
8.823695492
 30
0.0
 10
9.6714416025
 20
8.8228864517
 30
0.0
 10
9.6778184111
 20
8.821807728
 30
0.0
 10
9.6857894223
 20
8.8204593245
 30
0.0
 10
9.6953546356
 20
8.8188412398
 30
0.0
 10
9.7081082534
 20
8.8166837937
 30
0.0
 10
9.7176734667
 20
8.8150657091
 30
0.0
 10
9.7240502755
 20
8.813986986
 30
0.0
  0
SPLINE
  5
3BB
100
AcDbEntity
  8
0
100
AcDbSpline
 62
4
  6
CONTINUOUS
 70
0
 71
3
 72
403
 73
399
 74
0
 42
0.0000001
 43
0.0000001
 44
0.0000000001
 40
0.0
 40
0.0
 40
0.0
 40
0.0
 40
0.015625
 40
0.0234375
 40
0.03125
 40
0.0390625
 40
0.04296875
 40
0.046875
 40
0.05078125
 40
0.0546875
 40
0.056640625
 40
0.05859375
 40
0.0595703125
 40
0.060546875
 40
0.0615234375
 40
0.0620117188
 40
0.0622558594
 40
0.0625
 40
0.0627441406
 40
0.0629882812
 40
0.0634765625
 40
0.064453125
 40
0.0654296875
 40
0.06640625
 40
0.068359375
 40
0.0703125
 40
0.07421875
 40
0.078125
 40
0.08203125
 40
0.0859375
 40
0.09375
 40
0.1015625
 40
0.10546875
 40
0.109375
 40
0.11328125
 40
0.1171875
 40
0.119140625
 40
0.12109375
 40
0.1220703125
 40
0.123046875
 40
0.1240234375
 40
0.1245117188
 40
0.1247558594
 40
0.125
 40
0.1252441406
 40
0.1254882812
 40
0.1259765625
 40
0.126953125
 40
0.1279296875
 40
0.12890625
 40
0.130859375
 40
0.1328125
 40
0.13671875
 40
0.140625
 40
0.14453125
 40
0.1484375
 40
0.15625
 40
0.1640625
 40
0.16796875
 40
0.171875
 40
0.17578125
 40
0.1796875
 40
0.181640625
 40
0.18359375
 40
0.1845703125
 40
0.185546875
 40
0.1865234375
 40
0.1870117188
 40
0.1872558594
 40
0.1875
 40
0.1877441406
 40
0.1879882812
 40
0.1884765625
 40
0.189453125
 40
0.1904296875
 40
0.19140625
 40
0.193359375
 40
0.1953125
 40
0.19921875
 40
0.203125
 40
0.20703125
 40
0.2109375
 40
0.21875
 40
0.2265625
 40
0.23046875
 40
0.234375
 40
0.23828125
 40
0.2421875
 40
0.244140625
 40
0.24609375
 40
0.2470703125
 40
0.248046875
 40
0.2490234375
 40
0.2495117188
 40
0.2497558594
 40
0.25
 40
0.2502441406
 40
0.2504882812
 40
0.2509765625
 40
0.251953125
 40
0.2529296875
 40
0.25390625
 40
0.255859375
 40
0.2578125
 40
0.26171875
 40
0.265625
 40
0.26953125
 40
0.2734375
 40
0.28125
 40
0.2890625
 40
0.29296875
 40
0.296875
 40
0.30078125
 40
0.3046875
 40
0.306640625
 40
0.30859375
 40
0.3095703125
 40
0.310546875
 40
0.3115234375
 40
0.3120117188
 40
0.3122558594
 40
0.3125
 40
0.3127441406
 40
0.3129882812
 40
0.3134765625
 40
0.314453125
 40
0.3154296875
 40
0.31640625
 40
0.318359375
 40
0.3203125
 40
0.32421875
 40
0.328125
 40
0.33203125
 40
0.3359375
 40
0.34375
 40
0.3515625
 40
0.35546875
 40
0.359375
 40
0.36328125
 40
0.3671875
 40
0.369140625
 40
0.37109375
 40
0.3720703125
 40
0.373046875
 40
0.3740234375
 40
0.3745117188
 40
0.3747558594
 40
0.375
 40
0.3752441406
 40
0.3754882812
 40
0.3759765625
 40
0.376953125
 40
0.3779296875
 40
0.37890625
 40
0.380859375
 40
0.3828125
 40
0.38671875
 40
0.390625
 40
0.39453125
 40
0.3984375
 40
0.40625
 40
0.4140625
 40
0.41796875
 40
0.421875
 40
0.42578125
 40
0.4296875
 40
0.431640625
 40
0.43359375
 40
0.4345703125
 40
0.435546875
 40
0.4365234375
 40
0.4370117188
 40
0.4372558594
 40
0.4375
 40
0.4377441406
 40
0.4379882812
 40
0.4384765625
 40
0.439453125
 40
0.4404296875
 40
0.44140625
 40
0.443359375
 40
0.4453125
 40
0.44921875
 40
0.453125
 40
0.45703125
 40
0.4609375
 40
0.46875
 40
0.4765625
 40
0.48046875
 40
0.484375
 40
0.48828125
 40
0.4921875
 40
0.494140625
 40
0.49609375
 40
0.4970703125
 40
0.498046875
 40
0.4990234375
 40
0.4995117188
 40
0.4997558594
 40
0.5
 40
0.5002441406
 40
0.5004882812
 40
0.5009765625
 40
0.501953125
 40
0.5029296875
 40
0.50390625
 40
0.505859375
 40
0.5078125
 40
0.51171875
 40
0.515625
 40
0.51953125
 40
0.5234375
 40
0.53125
 40
0.5390625
 40
0.54296875
 40
0.546875
 40
0.55078125
 40
0.5546875
 40
0.556640625
 40
0.55859375
 40
0.5595703125
 40
0.560546875
 40
0.5615234375
 40
0.5620117188
 40
0.5622558594
 40
0.5625
 40
0.5627441406
 40
0.5629882812
 40
0.5634765625
 40
0.564453125
 40
0.5654296875
 40
0.56640625
 40
0.568359375
 40
0.5703125
 40
0.57421875
 40
0.578125
 40
0.58203125
 40
0.5859375
 40
0.59375
 40
0.6015625
 40
0.60546875
 40
0.609375
 40
0.61328125
 40
0.6171875
 40
0.619140625
 40
0.62109375
 40
0.6220703125
 40
0.623046875
 40
0.6240234375
 40
0.6245117188
 40
0.6247558594
 40
0.625
 40
0.6252441406
 40
0.6254882812
 40
0.6259765625
 40
0.626953125
 40
0.6279296875
 40
0.62890625
 40
0.630859375
 40
0.6328125
 40
0.63671875
 40
0.640625
 40
0.64453125
 40
0.6484375
 40
0.65625
 40
0.6640625
 40
0.66796875
 40
0.671875
 40
0.67578125
 40
0.6796875
 40
0.681640625
 40
0.68359375
 40
0.6845703125
 40
0.685546875
 40
0.6865234375
 40
0.6870117188
 40
0.6872558594
 40
0.6875
 40
0.6877441406
 40
0.6879882812
 40
0.6884765625
 40
0.689453125
 40
0.6904296875
 40
0.69140625
 40
0.693359375
 40
0.6953125
 40
0.69921875
 40
0.703125
 40
0.70703125
 40
0.7109375
 40
0.71875
 40
0.7265625
 40
0.73046875
 40
0.734375
 40
0.73828125
 40
0.7421875
 40
0.744140625
 40
0.74609375
 40
0.7470703125
 40
0.748046875
 40
0.7490234375
 40
0.7495117188
 40
0.7497558594
 40
0.75
 40
0.7502441406
 40
0.7504882812
 40
0.7509765625
 40
0.751953125
 40
0.7529296875
 40
0.75390625
 40
0.755859375
 40
0.7578125
 40
0.76171875
 40
0.765625
 40
0.76953125
 40
0.7734375
 40
0.78125
 40
0.7890625
 40
0.79296875
 40
0.796875
 40
0.80078125
 40
0.8046875
 40
0.806640625
 40
0.80859375
 40
0.8095703125
 40
0.810546875
 40
0.8115234375
 40
0.8120117188
 40
0.8122558594
 40
0.8125
 40
0.8127441406
 40
0.8129882812
 40
0.8134765625
 40
0.814453125
 40
0.8154296875
 40
0.81640625
 40
0.818359375
 40
0.8203125
 40
0.82421875
 40
0.828125
 40
0.83203125
 40
0.8359375
 40
0.84375
 40
0.8515625
 40
0.85546875
 40
0.859375
 40
0.86328125
 40
0.8671875
 40
0.869140625
 40
0.87109375
 40
0.8720703125
 40
0.873046875
 40
0.8740234375
 40
0.8745117188
 40
0.8747558594
 40
0.875
 40
0.8752441406
 40
0.8754882812
 40
0.8759765625
 40
0.876953125
 40
0.8779296875
 40
0.87890625
 40
0.880859375
 40
0.8828125
 40
0.88671875
 40
0.890625
 40
0.89453125
 40
0.8984375
 40
0.90625
 40
0.9140625
 40
0.91796875
 40
0.921875
 40
0.92578125
 40
0.9296875
 40
0.931640625
 40
0.93359375
 40
0.9345703125
 40
0.935546875
 40
0.9365234375
 40
0.9370117188
 40
0.9372558594
 40
0.9375
 40
0.9377441406
 40
0.9379882812
 40
0.9384765625
 40
0.939453125
 40
0.9404296875
 40
0.94140625
 40
0.943359375
 40
0.9453125
 40
0.94921875
 40
0.953125
 40
0.95703125
 40
0.9609375
 40
0.96875
 40
0.9765625
 40
0.984375
 40
1.0
 40
1.0
 40
1.0
 40
1.0
 10
9.7240502417
 20
8.8139869884
 30
0.0
 10
9.7303166155
 20
8.8141668372
 30
0.0
 10
9.7397161763
 20
8.8144366105
 30
0.0
 10
9.7522489239
 20
8.8147963081
 30
0.0
 10
9.7616484847
 20
8.8150660814
 30
0.0
 10
9.769481452
 20
8.8152908921
 30
0.0
 10
9.7757478258
 20
8.8154707416
 30
0.0
 10
9.7804476065
 20
8.8156056262
 30
0.0
 10
9.7851473854
 20
8.8157405203
 30
0.0
 10
9.7890638736
 20
8.8158529026
 30
0.0
 10
9.7921970513
 20
8.8159428744
 30
0.0
 10
9.7941553167
 20
8.8159989566
 30
0.0
 10
9.7957218618
 20
8.8160441663
 30
0.0
 10
9.7968969546
 20
8.8160771318
 30
0.0
 10
9.7978756134
 20
8.8161075989
 30
0.0
 10
9.7985618229
 20
8.8161230466
 30
0.0
 10
9.7989521496
 20
8.8161410539
 30
0.0
 10
9.7992499457
 20
8.816128699
 30
0.0
 10
9.7995284338
 20
8.8162151959
 30
0.0
 10
9.7999064861
 20
8.8162960444
 30
0.0
 10
9.8005649398
 20
8.8164535945
 30
0.0
 10
9.8015072284
 20
8.816670267
 30
0.0
 10
9.8026372725
 20
8.8169338691
 30
0.0
 10
9.8041442432
 20
8.8172840829
 30
0.0
 10
9.8060278727
 20
8.81772228
 30
0.0
 10
9.8090417267
 20
8.8184231552
 30
0.0
 10
9.8128090282
 20
8.8192993316
 30
0.0
 10
9.8173297968
 20
8.820350708
 30
0.0
 10
9.8218505636
 20
8.8214020938
 30
0.0
 10
9.8278782534
 20
8.8228039382
 30
0.0
 10
9.8354128653
 20
8.824556245
 30
0.0
 10
9.8429474774
 20
8.826308551
 30
0.0
 10
9.8489751668
 20
8.8277103967
 30
0.0
 10
9.8534959348
 20
8.8287617786
 30
0.0
 10
9.8580166991
 20
8.8298131696
 30
0.0
 10
9.861784014
 20
8.8306893005
 30
0.0
 10
9.8647978406
 20
8.8313902684
 30
0.0
 10
9.8666815399
 20
8.8318282297
 30
0.0
 10
9.8681883674
 20
8.8321789276
 30
0.0
 10
9.869318849
 20
8.8324410505
 30
0.0
 10
9.8702597689
 20
8.8326623512
 30
0.0
 10
9.8709206658
 20
8.8328116392
 30
0.0
 10
9.8712948034
 20
8.8329057257
 30
0.0
 10
9.8715853164
 20
8.83295156
 30
0.0
 10
9.8718379488
 20
8.8330919268
 30
0.0
 10
9.8721880051
 20
8.8332461085
 30
0.0
 10
9.8727944475
 20
8.8335312898
 30
0.0
 10
9.8736640123
 20
8.8339306595
 30
0.0
 10
9.8747061124
 20
8.8344133411
 30
0.0
 10
9.8760960604
 20
8.8350557158
 30
0.0
 10
9.8778333306
 20
8.8358590953
 30
0.0
 10
9.880613055
 20
8.8371442728
 30
0.0
 10
9.8840876789
 20
8.8387508234
 30
0.0
 10
9.8882572412
 20
8.8406786504
 30
0.0
 10
9.8924267999
 20
8.8426064865
 30
0.0
 10
9.8979862127
 20
8.8451769314
 30
0.0
 10
9.9049354782
 20
8.8483899886
 30
0.0
 10
9.911884744
 20
8.8516030452
 30
0.0
 10
9.9174441563
 20
8.8541734913
 30
0.0
 10
9.9216137167
 20
8.8561013236
 30
0.0
 10
9.9257832724
 20
8.8580291647
 30
0.0
 10
9.9292579167
 20
8.8596356714
 30
0.0
 10
9.9320375997
 20
8.8609209385
 30
0.0
 10
9.9337749753
 20
8.8617240898
 30
0.0
 10
9.9351647069
 20
8.862366933
 30
0.0
 10
9.9362074681
 20
8.8628481833
 30
0.0
 10
9.9370749643
 20
8.8632520314
 30
0.0
 10
9.9376850995
 20
8.8635292179
 30
0.0
 10
9.9380292389
 20
8.8636962092
 30
0.0
 10
9.9383000465
 20
8.863797229
 30
0.0
 10
9.9385222965
 20
8.8639908441
 30
0.0
 10
9.9388355672
 20
8.8642166993
 30
0.0
 10
9.9393758996
 20
8.8646269941
 30
0.0
 10
9.9401519288
 20
8.8652052622
 30
0.0
 10
9.9410813978
 20
8.8659025514
 30
0.0
 10
9.9423213066
 20
8.8668310942
 30
0.0
 10
9.9438709815
 20
8.8679921754
 30
0.0
 10
9.9463505793
 20
8.8698496802
 30
0.0
 10
9.9494500361
 20
8.8721716384
 30
0.0
 10
9.9531694016
 20
8.8749579552
 30
0.0
 10
9.9568887624
 20
8.8777442808
 30
0.0
 10
9.9618479119
 20
8.8814593785
 30
0.0
 10
9.968046848
 20
8.8861032518
 30
0.0
 10
9.9742457847
 20
8.8907471244
 30
0.0
 10
9.9792049333
 20
8.8944622232
 30
0.0
 10
9.9829242967
 20
8.8972485456
 30
0.0
 10
9.9866436526
 20
8.9000348747
 30
0.0
 10
9.9897431391
 20
8.9023567945
 30
0.0
 10
9.9922226763
 20
8.9042143776
 30
0.0
 10
9.9937725054
 20
8.9053752596
 30
0.0
 10
9.9950120977
 20
8.9063042111
 30
0.0
 10
9.9959425338
 20
8.9070002517
 30
0.0
 10
9.9967155372
 20
8.9075824263
 30
0.0
 10
9.997261271
 20
8.9079857474
 30
0.0
 10
9.9975658874
 20
8.9082227764
 30
0.0
 10
9.997814721
 20
8.908382069
 30
0.0
 10
9.9979856849
 20
8.9086119981
 30
0.0
 10
9.9982407987
 20
8.9088939313
 30
0.0
 10
9.9986745926
 20
8.9093987943
 30
0.0
 10
9.9993009144
 20
8.9101140253
 30
0.0
 10
10.0000496686
 20
8.9109748715
 30
0.0
 10
10.0010489967
 20
8.9121217691
 30
0.0
 10
10.0022978181
 20
8.9135556983
 30
0.0
 10
10.0042961217
 20
8.9158498134
 30
0.0
 10
10.0067939363
 20
8.9187175161
 30
0.0
 10
10.0097913415
 20
8.9221587342
 30
0.0
 10
10.0127887394
 20
8.925599959
 30
0.0
 10
10.0167852724
 20
8.9301882564
 30
0.0
 10
10.0217809378
 20
8.935923629
 30
0.0
 10
10.0267766038
 20
8.9416590011
 30
0.0
 10
10.0307731357
 20
8.9462472994
 30
0.0
 10
10.0337705368
 20
8.9496885215
 30
0.0
 10
10.03676793
 20
8.9531297495
 30
0.0
 10
10.0392657822
 20
8.9559974214
 30
0.0
 10
10.0412640089
 20
8.9582915995
 30
0.0
 10
10.0425130261
 20
8.9597253682
 30
0.0
 10
10.0435119524
 20
8.9608725954
 30
0.0
 10
10.0442619341
 20
8.9617324345
 30
0.0
 10
10.0448844154
 20
8.9624508166
 30
0.0
 10
10.0453250653
 20
8.9629500543
 30
0.0
 10
10.0455691939
 20
8.9632410005
 30
0.0
 10
10.0457739006
 20
8.9634432448
 30
0.0
 10
10.0458960023
 20
8.9637065168
 30
0.0
 10
10.0460876182
 20
8.9640362591
 30
0.0
 10
10.0464095212
 20
8.9646232261
 30
0.0
 10
10.0468764013
 20
8.9654565651
 30
0.0
 10
10.0474336532
 20
8.9664587913
 30
0.0
 10
10.048177705
 20
8.9677943178
 30
0.0
 10
10.0491074105
 20
8.9694639913
 30
0.0
 10
10.0505951402
 20
8.9721353206
 30
0.0
 10
10.0524547333
 20
8.975474533
 30
0.0
 10
10.0546862746
 20
8.9794815662
 30
0.0
 10
10.0569178079
 20
8.9834886052
 30
0.0
 10
10.0598931885
 20
8.9888313218
 30
0.0
 10
10.0636124132
 20
8.9955097184
 30
0.0
 10
10.0673316387
 20
9.0021881145
 30
0.0
 10
10.0703070181
 20
9.0075308318
 30
0.0
 10
10.072538555
 20
9.0115378687
 30
0.0
 10
10.0747700831
 20
9.0155449098
 30
0.0
 10
10.0766297172
 20
9.0188840975
 30
0.0
 10
10.0781173632
 20
9.0215554773
 30
0.0
 10
10.0790472814
 20
9.0232250221
 30
0.0
 10
10.0797908967
 20
9.0245608129
 30
0.0
 10
10.0803494824
 20
9.0255622315
 30
0.0
 10
10.0808121892
 20
9.0263980976
 30
0.0
 10
10.0811415422
 20
9.0269805532
 30
0.0
 10
10.0813212213
 20
9.0273175237
 30
0.0
 10
10.0814799891
 20
9.0275585928
 30
0.0
 10
10.0815469843
 20
9.0278442277
 30
0.0
 10
10.0816683225
 20
9.0282095291
 30
0.0
 10
10.0818657496
 20
9.0288560493
 30
0.0
 10
10.082155586
 20
9.029775863
 30
0.0
 10
10.0825000521
 20
9.0308812602
 30
0.0
 10
10.0829605059
 20
9.0323545571
 30
0.0
 10
10.0835356741
 20
9.034196372
 30
0.0
 10
10.0844561662
 20
9.0371431675
 30
0.0
 10
10.0856067048
 20
9.0408266991
 30
0.0
 10
10.0869873839
 20
9.0452469211
 30
0.0
 10
10.0883680543
 20
9.0496671473
 30
0.0
 10
10.0902089511
 20
9.0555607808
 30
0.0
 10
10.0925100711
 20
9.0629278232
 30
0.0
 10
10.0948111918
 20
9.0702948652
 30
0.0
 10
10.0966520874
 20
9.0761884992
 30
0.0
 10
10.0980327616
 20
9.0806087238
 30
0.0
 10
10.0994134264
 20
9.0850289519
 30
0.0
 10
10.1005640095
 20
9.0887124646
 30
0.0
 10
10.1014844109
 20
9.0916592985
 30
0.0
 10
10.1020598098
 20
9.0935010158
 30
0.0
 10
10.10251979
 20
9.0949745131
 30
0.0
 10
10.1028657033
 20
9.0960792978
 30
0.0
 10
10.1031510116
 20
9.097001028
 30
0.0
 10
10.1033565221
 20
9.0976441269
 30
0.0
 10
10.1034649088
 20
9.0980149101
 30
0.0
 10
10.103571687
 20
9.0982837066
 30
0.0
 10
10.1035810362
 20
9.0985880179
 30
0.0
 10
10.1036274862
 20
9.0989813784
 30
0.0
 10
10.1036929398
 20
9.099675531
 30
0.0
 10
10.1037947231
 20
9.1006641599
 30
0.0
 10
10.1039133197
 20
9.1018518064
 30
0.0
 10
10.1040726861
 20
9.1034348838
 30
0.0
 10
10.1042714703
 20
9.105413885
 30
0.0
 10
10.1045897619
 20
9.1085802006
 30
0.0
 10
10.1049875452
 20
9.1125381248
 30
0.0
 10
10.10546492
 20
9.1172876211
 30
0.0
 10
10.1059422854
 20
9.1220371209
 30
0.0
 10
10.1065787759
 20
9.128369786
 30
0.0
 10
10.1073743878
 20
9.1362856177
 30
0.0
 10
10.1081700006
 20
9.1442014494
 30
0.0
 10
10.1088064897
 20
9.1505341147
 30
0.0
 10
10.1092838592
 20
9.1552836137
 30
0.0
 10
10.1097612189
 20
9.1600331126
 30
0.0
 10
10.1101590489
 20
9.1639910289
 30
0.0
 10
10.1104772453
 20
9.1671573606
 30
0.0
 10
10.1106762718
 20
9.1691363209
 30
0.0
 10
10.1108351409
 20
9.1707194824
 30
0.0
 10
10.1109552568
 20
9.1719068718
 30
0.0
 10
10.1110522866
 20
9.1728963049
 30
0.0
 10
10.1111262259
 20
9.173589022
 30
0.0
 10
10.1111590796
 20
9.1739846825
 30
0.0
 10
10.1112101923
 20
9.174281929
 30
0.0
 10
10.111160114
 20
9.1745772598
 30
0.0
 10
10.1111286394
 20
9.1749717024
 30
0.0
 10
10.1110571136
 20
9.1756616657
 30
0.0
 10
10.1109635318
 20
9.1766474904
 30
0.0
 10
10.1108475533
 20
9.1778304103
 30
0.0
 10
10.1106942009
 20
9.1794076611
 30
0.0
 10
10.1105020702
 20
9.1813792164
 30
0.0
 10
10.110194907
 20
9.1845337094
 30
0.0
 10
10.1098108686
 20
9.1884768241
 30
0.0
 10
10.1093500588
 20
9.1932085624
 30
0.0
 10
10.1088892392
 20
9.1979403006
 30
0.0
 10
10.1082748166
 20
9.2042492848
 30
0.0
 10
10.107506787
 20
9.2121355151
 30
0.0
 10
10.1067387583
 20
9.2200217454
 30
0.0
 10
10.1061243343
 20
9.2263307296
 30
0.0
 10
10.1056635188
 20
9.231062468
 30
0.0
 10
10.1052026939
 20
9.2357942053
 30
0.0
 10
10.1048187022
 20
9.2397373234
 30
0.0
 10
10.1045114438
 20
9.2428918095
 30
0.0
 10
10.1043195555
 20
9.2448633823
 30
0.0
 10
10.1041657055
 20
9.246440597
 30
0.0
 10
10.104051247
 20
9.2476236275
 30
0.0
 10
10.1039529097
 20
9.248609106
 30
0.0
 10
10.1038898732
 20
9.2492996872
 30
0.0
 10
10.1038447966
 20
9.2496931399
 30
0.0
 10
10.1038364994
 20
9.2499915115
 30
0.0
 10
10.1037306893
 20
9.2502773375
 30
0.0
 10
10.1036236227
 20
9.2506628149
 30
0.0
 10
10.1034204087
 20
9.2513353615
 30
0.0
 10
10.1031383882
 20
9.2522972083
 30
0.0
 10
10.1027964173
 20
9.2534509681
 30
0.0
 10
10.1023416948
 20
9.254989474
 30
0.0
 10
10.1017728675
 20
9.2569125517
 30
0.0
 10
10.1008629808
 20
9.2599895067
 30
0.0
 10
10.0997255411
 20
9.2638356898
 30
0.0
 10
10.0983606484
 20
9.2684511141
 30
0.0
 10
10.0969957464
 20
9.2730665372
 30
0.0
 10
10.0951758802
 20
9.2792204351
 30
0.0
 10
10.0929010463
 20
9.2869128073
 30
0.0
 10
10.0906262133
 20
9.2946051796
 30
0.0
 10
10.0888063459
 20
9.3007590772
 30
0.0
 10
10.0874414476
 20
9.3053745012
 30
0.0
 10
10.0860765406
 20
9.3099899222
 30
0.0
 10
10.0849391454
 20
9.3138361157
 30
0.0
 10
10.084029168
 20
9.3169130495
 30
0.0
 10
10.0834605717
 20
9.318836181
 30
0.0
 10
10.0830053749
 20
9.3203745765
 30
0.0
 10
10.0826648529
 20
9.3215286734
 30
0.0
 10
10.0823782992
 20
9.3224894659
 30
0.0
 10
10.0821831778
 20
9.3231638945
 30
0.0
 10
10.0820631448
 20
9.3235463564
 30
0.0
 10
10.0819971634
 20
9.3238414452
 30
0.0
 10
10.0818392765
 20
9.3241050271
 30
0.0
 10
10.0816608182
 20
9.3244674596
 30
0.0
 10
10.0813335801
 20
9.325096596
 30
0.0
 10
10.0808739058
 20
9.3259980393
 30
0.0
 10
10.0803189543
 20
9.3270786254
 30
0.0
 10
10.0795801864
 20
9.3285198071
 30
0.0
 10
10.0786563268
 20
9.3303211472
 30
0.0
 10
10.0771783748
 20
9.3332033679
 30
0.0
 10
10.0753308581
 20
9.3368061176
 30
0.0
 10
10.073113871
 20
9.3411294285
 30
0.0
 10
10.0708968751
 20
9.3454527363
 30
0.0
 10
10.0679408836
 20
9.3512171478
 30
0.0
 10
10.0642458931
 20
9.3584226618
 30
0.0
 10
10.0605509034
 20
9.3656281761
 30
0.0
 10
10.0575949107
 20
9.3713925871
 30
0.0
 10
10.0553779184
 20
9.3757158964
 30
0.0
 10
10.0531609176
 20
9.3800392017
 30
0.0
 10
10.0513134436
 20
9.3836419687
 30
0.0
 10
10.0498354047
 20
9.386524154
 30
0.0
 10
10.0489117661
 20
9.3883255842
 30
0.0
 10
10.0481725446
 20
9.389766581
 30
0.0
 10
10.0476189786
 20
9.3908477322
 30
0.0
 10
10.0471549694
 20
9.3917474074
 30
0.0
 10
10.0468354699
 20
9.3923797001
 30
0.0
 10
10.0466446124
 20
9.3927370754
 30
0.0
 10
10.0465248121
 20
9.3930161912
 30
0.0
 10
10.0463157839
 20
9.3932529374
 30
0.0
 10
10.0460682034
 20
9.3935833779
 30
0.0
 10
10.0456204363
 20
9.394154763
 30
0.0
 10
10.0449883504
 20
9.3949746275
 30
0.0
 10
10.0442266023
 20
9.3959569239
 30
0.0
 10
10.0432120716
 20
9.3972671907
 30
0.0
 10
10.0419435201
 20
9.3989048399
 30
0.0
 10
10.0399140546
 20
9.4015251817
 30
0.0
 10
10.0373771483
 20
9.4048005735
 30
0.0
 10
10.0343328927
 20
9.4087310588
 30
0.0
 10
10.0312886285
 20
9.4126615401
 30
0.0
 10
10.0272296126
 20
9.4179021832
 30
0.0
 10
10.0221558416
 20
9.4244529866
 30
0.0
 10
10.0170820713
 20
9.4310037904
 30
0.0
 10
10.0130230543
 20
9.4362444328
 30
0.0
 10
10.0099787933
 20
9.4401749164
 30
0.0
 10
10.006934526
 20
9.444105393
 30
0.0
 10
10.004397656
 20
9.447380812
 30
0.0
 10
10.0023681164
 20
9.4500010983
 30
0.0
 10
10.0010997534
 20
9.4516388886
 30
0.0
 10
10.0000848359
 20
9.4529488657
 30
0.0
 10
9.9993242693
 20
9.4539320473
 30
0.0
 10
9.9986884867
 20
9.4547491424
 30
0.0
 10
9.9982473189
 20
9.4553254713
 30
0.0
 10
9.9979891647
 20
9.4556479907
 30
0.0
 10
9.9978126154
 20
9.455909068
 30
0.0
 10
9.99757083
 20
9.4560967999
 30
0.0
 10
9.9972712045
 20
9.4563726927
 30
0.0
 10
9.9967362579
 20
9.4568435853
 30
0.0
 10
9.9959775912
 20
9.4575225208
 30
0.0
 10
9.9950648188
 20
9.458334576
 30
0.0
 10
9.9938486176
 20
9.4594182479
 30
0.0
 10
9.9923280823
 20
9.4607725189
 30
0.0
 10
9.9898953844
 20
9.4629395306
 30
0.0
 10
9.9868544576
 20
9.4656482341
 30
0.0
 10
9.9832053687
 20
9.4688987046
 30
0.0
 10
9.9795562737
 20
9.472149168
 30
0.0
 10
9.9746908158
 20
9.4764831217
 30
0.0
 10
9.9686089926
 20
9.4819005629
 30
0.0
 10
9.9625271699
 20
9.4873180048
 30
0.0
 10
9.9576617112
 20
9.4916519575
 30
0.0
 10
9.9540126186
 20
9.494902424
 30
0.0
 10
9.9503635207
 20
9.4981528829
 30
0.0
 10
9.9473226222
 20
9.5008616222
 30
0.0
 10
9.9448898665
 20
9.503028561
 30
0.0
 10
9.9433694782
 20
9.5043830175
 30
0.0
 10
9.9421529752
 20
9.5054663086
 30
0.0
 10
9.9412411248
 20
9.5062795273
 30
0.0
 10
9.9404795735
 20
9.5069548224
 30
0.0
 10
9.9399497765
 20
9.5074322138
 30
0.0
 10
9.9396418999
 20
9.5076976938
 30
0.0
 10
9.9394254592
 20
9.5079174107
 30
0.0
 10
9.9391537194
 20
9.5080583577
 30
0.0
 10
9.9388106885
 20
9.5082737628
 30
0.0
 10
9.9382013975
 20
9.5086379203
 30
0.0
 10
9.9373356803
 20
9.5091648381
 30
0.0
 10
9.9362948085
 20
9.5097942747
 30
0.0
 10
9.9349076818
 20
9.5106345241
 30
0.0
 10
9.933173533
 20
9.5116844932
 30
0.0
 10
9.9303990293
 20
9.5133646353
 30
0.0
 10
9.9269308536
 20
9.5154647472
 30
0.0
 10
9.9227690626
 20
9.5179849097
 30
0.0
 10
9.9186072662
 20
9.5205050646
 30
0.0
 10
9.9130582062
 20
9.5238652738
 30
0.0
 10
9.9061218806
 20
9.5280655343
 30
0.0
 10
9.8991855553
 20
9.5322657956
 30
0.0
 10
9.8936364947
 20
9.5356260037
 30
0.0
 10
9.8894747003
 20
9.538146162
 30
0.0
 10
9.8853129021
 20
9.5406663118
 30
0.0
 10
9.8818447484
 20
9.5427664631
 30
0.0
 10
9.8790701999
 20
9.5444465248
 30
0.0
 10
9.8773361651
 20
9.5454966987
 30
0.0
 10
9.8759488044
 20
9.5463365277
 30
0.0
 10
9.8749086478
 20
9.5469672486
 30
0.0
 10
9.8740406929
 20
9.5474901482
 30
0.0
 10
9.8734353965
 20
9.5478614787
 30
0.0
 10
9.8730859652
 20
9.5480653909
 30
0.0
 10
9.8728338855
 20
9.5482416405
 30
0.0
 10
9.8725436045
 20
9.5483287667
 30
0.0
 10
9.8721698883
 20
9.5484760222
 30
0.0
 10
9.8715096765
 20
9.5487192353
 30
0.0
 10
9.8705697625
 20
9.5490742549
 30
0.0
 10
9.8694404765
 20
9.5494970372
 30
0.0
 10
9.8679352471
 20
9.5500618791
 30
0.0
 10
9.8660535441
 20
9.5507675438
 30
0.0
 10
9.8630429122
 20
9.5518968239
 30
0.0
 10
9.8592795905
 20
9.5533083498
 30
0.0
 10
9.8547636182
 20
9.5550022126
 30
0.0
 10
9.8502476421
 20
9.556696067
 30
0.0
 10
9.844226342
 20
9.5589545424
 30
0.0
 10
9.8366997164
 20
9.5617776356
 30
0.0
 10
9.8291730911
 20
9.5646007296
 30
0.0
 10
9.8231517905
 20
9.5668592038
 30
0.0
 10
9.8186358158
 20
9.5685530619
 30
0.0
 10
9.8141198384
 20
9.5702469108
 30
0.0
 10
9.8103565324
 20
9.57165848
 30
0.0
 10
9.8073458685
 20
9.5727876717
 30
0.0
 10
9.8054642472
 20
9.5734935615
 30
0.0
 10
9.8039588501
 20
9.5740579413
 30
0.0
 10
9.8028300763
 20
9.5744821353
 30
0.0
 10
9.8018885598
 20
9.5748327381
 30
0.0
 10
9.8012312087
 20
9.575083836
 30
0.0
 10
9.8008529088
 20
9.5752184579
 30
0.0
 10
9.8005767074
 20
9.5753443907
 30
0.0
 10
9.8002717475
 20
9.575374889
 30
0.0
 10
9.7998751655
 20
9.5754488421
 30
0.0
 10
9.7991764734
 20
9.5755627501
 30
0.0
 10
9.7981807853
 20
9.5757335846
 30
0.0
 10
9.7969849136
 20
9.5759351151
 30
0.0
 10
9.7953907834
 20
9.5762050348
 30
0.0
 10
9.7933979956
 20
9.5765420194
 30
0.0
 10
9.7902096049
 20
9.5770814267
 30
0.0
 10
9.7862240926
 20
9.5777556061
 30
0.0
 10
9.7814414881
 20
9.5785646557
 30
0.0
 10
9.7766588809
 20
9.579373696
 30
0.0
 10
9.7702820722
 20
9.5804524197
 30
0.0
 10
9.762311061
 20
9.5818008232
 30
0.0
 10
9.7527458478
 20
9.5834189079
 30
0.0
 10
9.73999223
 20
9.585576354
 30
0.0
 10
9.7304270167
 20
9.5871944386
 30
0.0
 10
9.7240502078
 20
9.5882731617
 30
0.0
  0
ENDSEC
  0
SECTION
  2
OBJECTS
  0
DICTIONARY
  5
C
100
AcDbDictionary
280
0
281
1
  3
ACAD_GROUP
350
D
  3
ACAD_MLINESTYLE
350
17
  3
ACAD_LAYOUT
350
1A
  3
ACAD_PLOTSETTINGS
350
19
  3
ACAD_PLOTSTYLENAME
350
E
  3
ACAD_IMAGE_DICT
350
       3BD
  3
ACAD_IMAGE_VARS
350
       3BE
  3
ACAD_TABLESTYLE
350
       3BF
  0
IMAGEDEF_REACTOR
  5
3BC
100
AcDbRasterImageDefReactor
 90
2
330
282
  0
DICTIONARY
  5
D
102
{ACAD_REACTORS
330
C
102
}
100
AcDbDictionary
280
0
281
1
  0
ACDBDICTIONARYWDFLT
  5
E
102
{ACAD_REACTORS
330
C
102
}
100
AcDbDictionary
281
1
  3
Normal
350
F
100
AcDbDictionaryWithDefault
340
F
  0
DICTIONARY
  5
3BD
330
C
100
AcDbDictionary
281
1
  3
X5P_assy_2_img_1
350
       3C2
  0
RASTERVARIABLES
  5
3BE
330
C
100
AcDbRasterVariables
 90
0
 70
0
 71
1
 72
5
  0
DICTIONARY
  5
17
102
{ACAD_REACTORS
330
C
102
}
100
AcDbDictionary
280
0
281
1
  3
Standard
350
18
  0
DICTIONARY
  5
3BF
330
C
100
AcDbDictionary
281
1
  3
Standard
350
       3C3
  3
Standard1
350
       3C4
  0
DICTIONARY
  5
19
102
{ACAD_REACTORS
330
C
102
}
100
AcDbDictionary
281
1
  0
DICTIONARY
  5
1A
102
{ACAD_REACTORS
330
C
102
}
100
AcDbDictionary
281
1
  3
Model
350
3C0
  3
Layout1
350
3C1
  0
ACDBPLACEHOLDER
  5
F
102
{ACAD_REACTORS
330
E
102
}
  0
MLINESTYLE
  5
18
102
{ACAD_REACTORS
330
17
102
}
100
AcDbMlineStyle
  2
STANDARD
 70
0
  3

 62
256
 51
90.0
 52
90.0
 71
2
 49
0.5
 62
256
  6
BYLAYER
 49
-0.5
 62
256
  6
BYLAYER
  0
LAYOUT
  5
3C0
102
{ACAD_REACTORS
330
1A
102
}
100
AcDbPlotSettings
  1

  2
none_device
  4
ANSI_C_(22.00_x_17.00_Inches)
  6

 40
0.0
 41
0.0
 42
0.0
 43
0.0
 44
558.8
 45
431.8
 46
0.0
 47
0.0
 48
0.0
 49
0.0
140
0.0
141
0.0
142
1.0
143
1.0
 70
1024
 72
0
 73
0
 74
0
  7

 75
0
147
1.0
148
0.0
149
0.0
100
AcDbLayout
  1
Model
 70
0
 71
0
 10
0.0
 20
0.0
 11
22.0
 21
17.0
 12
0.0
 22
0.0
 32
0.0
 14
0.0
 24
0.0
 34
0.0
 15
0.0
 25
0.0
 35
0.0
146
0.0
 13
0.0
 23
0.0
 33
0.0
 16
1.0
 26
0.0
 36
0.0
 17
0.0
 27
1.0
 37
0.0
 76
0
330
206
345
0
346
0
  0
LAYOUT
  5
3C1
102
{ACAD_REACTORS
330
1A
102
}
100
AcDbPlotSettings
  1

  2
none_device
  4
ANSI_C_(22.00_x_17.00_Inches)
  6

 40
0.0
 41
0.0
 42
0.0
 43
0.0
 44
558.8
 45
431.8
 46
0.0
 47
0.0
 48
0.0
 49
0.0
140
0.0
141
0.0
142
1.0
143
1.0
 70
0
 72
0
 73
0
 74
0
  7

 75
0
147
1.0
148
0.0
149
0.0
100
AcDbLayout
  1
Layout1
 70
0
 71
1
 10
0.0
 20
0.0
 11
22.0
 21
17.0
 12
0.0
 22
0.0
 32
0.0
 14
0.0
 24
0.0
 34
0.0
 15
0.0
 25
0.0
 35
0.0
146
0.0
 13
0.0
 23
0.0
 33
0.0
 16
1.0
 26
0.0
 36
0.0
 17
0.0
 27
1.0
 37
0.0
 76
0
330
207
345
0
346
0
  0
IMAGEDEF
  5
3C2
102
{ACAD_REACTORS
330
3BD
330
3BC
102
}
100
AcDbRasterImageDef
 90
0
  1
X5P_assy_2_img_1.png
 10
369.0
 20
92.0
 11
0.0066666667
 21
0.0066666667
280
1
281
0
  0
TABLESTYLE
  5
3C3
102
{ACAD_REACTORS
330
3BF
330
285
330
286
102
}
330
3BF
100
AcDbTableStyle
  3
Standard
 70
0
 71
0
 40
0.06
 41
0.06
280
1
281
1
  7
Standard
140
0.18
170
1
 62
0
 63
7
283
0
  7
Standard
140
0.18
170
1
 62
0
 63
7
283
0
  7
Standard
140
0.18
170
1
 62
0
 63
7
283
0
  0
TABLESTYLE
  5
3C4
102
{ACAD_REACTORS
330
3BF
330
284
102
}
330
3BF
100
AcDbTableStyle
  3
Standard1
 70
1
 71
0
 40
0.06
 41
0.06
280
1
281
1
  7
Standard
140
0.18
170
1
 62
0
 63
7
283
0
  7
Standard
140
0.18
170
1
 62
0
 63
7
283
0
  7
Standard
140
0.18
170
1
 62
0
 63
7
283
0
  0
ENDSEC
  0
EOF
