999
DXF file: X5K_assy_2.dxf
999
Pro/ENGINEER 2014200 by Parametric Technology Corporation
  0
SECTION
  2
HEADER
  9
$ACADVER
  1
AC1021
  9
$DWGCODEPAGE
  3
ANSI_1252
  9
$EXTMAX
 10
22.0
 20
17.0
 30
0.0
  9
$EXTMIN
 10
0.0
 20
0.0
 30
0.0
  9
$LIMMIN
 10
0.0
 20
0.0
  9
$LIMMAX
 10
22.0
 20
17.0
  9
$VIEWCTR
 10
11.0
 20
8.5
  9
$VIEWSIZE
 40
17.0
  9
$CLAYER
  8
0
  9
$LTSCALE
 40
1.21
  9
$CELTYPE
  6
BYLAYER
  9
$DIMSCALE
 40
1.0
  9
$DIMASZ
 40
0.1875
  9
$DIMEXO
 40
0.0625
  9
$DIMDLI
 40
0.836
  9
$DIMEXE
 40
0.125
  9
$DIMCEN
 40
0.198
  9
$DIMLFAC
 40
1.0
  9
$DIMBLK
  1
_FILLED
  9
$DIMTXT
 40
0.1
  9
$DIMTOL
 70
0
  9
$DIMLIM
 70
0
  9
$DIMTFAC
 40
1.0
  9
$DIMGAP
 40
0.09
  9
$DIMDSEP
 70
46
  9
$AUNITS
 70
0
  9
$PDMODE
 70
3
  9
$PDSIZE
 40
0.3125
  9
$HANDSEED
  5
3D1
  9
$TILEMODE
 70
1
  9
$MEASUREMENT
 70
0
  9
$INSUNITS
 70
1
  0
ENDSEC
  0
SECTION
  2
CLASSES
  0
CLASS
  1
ACDBDICTIONARYWDFLT
  2
AcDbDictionaryWithDefault
  3
AutoCAD 2000
 90
0
 91
1
280
0
281
0
  0
CLASS
  1
ACDBPLACEHOLDER
  2
AcDbPlaceHolder
  3
AutoCAD 2000
 90
0
 91
1
280
0
281
0
  0
CLASS
  1
LAYOUT
  2
AcDbLayout
  3
AutoCAD 2000
 90
0
 91
0
280
0
281
0
  0
CLASS
  1
RASTERVARIABLES
  2
AcDbRasterVariables
  3
ISM
 90
0
 91
1
280
0
281
0
  0
CLASS
  1
IMAGEDEF
  2
AcDbRasterImageDef
  3
ISM
 90
0
 91
1
280
0
281
0
  0
CLASS
  1
IMAGEDEF_REACTOR
  2
AcDbRasterImageDefReactor
  3
ISM
 90
0
 91
1
280
0
281
0
  0
CLASS
  1
IMAGE
  2
AcDbRasterImage
  3
ISM
 90
127
 91
1
280
0
281
1
  0
CLASS
  1
TABLESTYLE
  2
AcDbTableStyle
  3
ObjectDBX Classes
 90
2047
 91
1
280
0
281
0
  0
CLASS
  1
ACAD_TABLE
  2
AcDbTable
  3
ObjectDBX Classes
 90
1025
 91
3
280
0
281
1
  0
ENDSEC
  0
SECTION
  2
TABLES
  0
TABLE
  2
VPORT
  5
8
100
AcDbSymbolTable
 70
2
  0
VPORT
  5
1F4
100
AcDbSymbolTableRecord
100
AcDbViewportTableRecord
  2
*ACTIVE
 70
0
 10
0.0
 20
0.0
 11
1.0
 21
1.0
 12
11.0
 22
8.5
 13
0.0
 23
0.0
 14
1.0
 24
1.0
 15
0.0
 25
0.0
 16
0.0
 26
0.0
 36
1.0
 17
0.0
 27
0.0
 37
0.0
 40
17.0
 41
1.2941176471
 42
50.0
 43
0.0
 44
0.0
 50
0.0
 51
0.0
 71
0
 72
100
 73
1
 74
1
 75
0
 76
0
 77
0
 78
0
  0
ENDTAB
  0
TABLE
  2
LTYPE
  5
5
100
AcDbSymbolTable
 70
6
  0
LTYPE
  5
14
100
AcDbSymbolTableRecord
100
AcDbLinetypeTableRecord
  2
BYBLOCK
 70
0
  3

 72
65
 73
0
 40
0.0
  0
LTYPE
  5
15
100
AcDbSymbolTableRecord
100
AcDbLinetypeTableRecord
  2
BYLAYER
 70
0
  3

 72
65
 73
0
 40
0.0
  0
LTYPE
  5
16
100
AcDbSymbolTableRecord
100
AcDbLinetypeTableRecord
  2
CONTINUOUS
 70
64
  3
Solid line
 72
65
 73
0
 40
0.0
  0
LTYPE
  5
1F5
100
AcDbSymbolTableRecord
100
AcDbLinetypeTableRecord
  2
CENTER
 70
64
  3
____ _ ____ _ ____ _ ____ _ ____ _ ____ _ ____
 72
65
 73
4
 40
0.6
 49
0.375
 74
0
 49
-0.075
 74
0
 49
0.075
 74
0
 49
-0.075
 74
0
  0
LTYPE
  5
1F6
100
AcDbSymbolTableRecord
100
AcDbLinetypeTableRecord
  2
HIDDEN
 70
64
  3
- - - - - - - - - - - - - - - - - - - -
 72
65
 73
2
 40
0.2
 49
0.1
 74
0
 49
-0.1
 74
0
  0
LTYPE
  5
1F7
100
AcDbSymbolTableRecord
100
AcDbLinetypeTableRecord
  2
PHANTOM
 70
64
  3
_____ _ _ _____ _ _ _____ _ _ _____
 72
65
 73
6
 40
0.8
 49
0.45
 74
0
 49
-0.05
 74
0
 49
0.1
 74
0
 49
-0.05
 74
0
 49
0.1
 74
0
 49
-0.05
 74
0
  0
LTYPE
  5
1F8
100
AcDbSymbolTableRecord
100
AcDbLinetypeTableRecord
  2
DOT
 70
64
  3
. . . . . . . . . . . . . . . . . . . .
 72
65
 73
2
 40
0.2
 49
0.1
 74
0
 49
-0.1
 74
0
  0
LTYPE
  5
1F9
100
AcDbSymbolTableRecord
100
AcDbLinetypeTableRecord
  2
DASHED
 70
64
  3
- - - - - - - - - - - - - - - - - - - -
 72
65
 73
2
 40
0.2
 49
0.1
 74
0
 49
-0.1
 74
0
  0
ENDTAB
  0
TABLE
  2
LAYER
  5
2
100
AcDbSymbolTable
 70
36
  0
LAYER
  5
10
100
AcDbSymbolTableRecord
100
AcDbLayerTableRecord
  2
0
 70
0
 62
7
  6
CONTINUOUS
370
-3
390
F
  0
LAYER
  5
1FA
100
AcDbSymbolTableRecord
100
AcDbLayerTableRecord
  2
DEFAULT_1
 70
0
 62
7
  6
CENTER
370
-3
390
F
  0
LAYER
  5
1FB
100
AcDbSymbolTableRecord
100
AcDbLayerTableRecord
  2
DEFAULT_2
 70
0
 62
8
  6
HIDDEN
370
-3
390
F
  0
LAYER
  5
1FC
100
AcDbSymbolTableRecord
100
AcDbLayerTableRecord
  2
DEFAULT_3
 70
0
 62
7
  6
PHANTOM
370
-3
390
F
  0
LAYER
  5
1FD
100
AcDbSymbolTableRecord
100
AcDbLayerTableRecord
  2
DATUM_PLANES
 70
0
 62
7
  6
CONTINUOUS
370
-3
390
F
  0
LAYER
  5
1FE
100
AcDbSymbolTableRecord
100
AcDbLayerTableRecord
  2
DIMENSIONS
 70
0
 62
7
  6
CONTINUOUS
370
-3
390
F
  0
LAYER
  5
1FF
100
AcDbSymbolTableRecord
100
AcDbLayerTableRecord
  2
PARAMETERDIMENSIONS
 70
0
 62
7
  6
CONTINUOUS
370
-3
390
F
  0
LAYER
  5
200
100
AcDbSymbolTableRecord
100
AcDbLayerTableRecord
  2
PORT_AREAS
 70
0
 62
7
  6
CONTINUOUS
370
-3
390
F
  0
LAYER
  5
201
100
AcDbSymbolTableRecord
100
AcDbLayerTableRecord
  2
SUNNBOMCOSMETIC
 70
0
 62
7
  6
CONTINUOUS
370
-3
390
F
  0
LAYER
  5
202
100
AcDbSymbolTableRecord
100
AcDbLayerTableRecord
  2
SUNNBOMSTAMPING
 70
0
 62
7
  6
CONTINUOUS
370
-3
390
F
  0
LAYER
  5
203
100
AcDbSymbolTableRecord
100
AcDbLayerTableRecord
  2
THREADS
 70
0
 62
7
  6
CONTINUOUS
370
-3
390
F
  0
ENDTAB
  0
TABLE
  2
STYLE
  5
3
100
AcDbSymbolTable
 70
1
  0
STYLE
  5
11
100
AcDbSymbolTableRecord
100
AcDbTextStyleTableRecord
  2
STANDARD
 70
0
 40
0.0
 41
0.8
 50
0.0
 71
0
 42
0.2
  3
txt
  4

  0
STYLE
  5
204
100
AcDbSymbolTableRecord
100
AcDbTextStyleTableRecord
  2
TEXTSTYLE_1
 70
0
 40
0.0
 41
0.8
 50
0.0
 71
0
 42
0.2
  3
gdt
  4

  0
ENDTAB
  0
TABLE
  2
VIEW
  5
6
100
AcDbSymbolTable
 70
0
  0
ENDTAB
  0
TABLE
  2
UCS
  5
7
100
AcDbSymbolTable
 70
0
  0
ENDTAB
  0
TABLE
  2
APPID
  5
9
100
AcDbSymbolTable
 70
1
  0
APPID
  5
205
100
AcDbSymbolTableRecord
100
AcDbRegAppTableRecord
  2
ACAD
 70
0
  0
ENDTAB
  0
TABLE
  2
BLOCK_RECORD
  5
1
100
AcDbSymbolTable
 70
0
  0
BLOCK_RECORD
  5
206
100
AcDbSymbolTableRecord
100
AcDbBlockTableRecord
  2
*Model_Space
  0
BLOCK_RECORD
  5
207
100
AcDbSymbolTableRecord
100
AcDbBlockTableRecord
  2
*Paper_Space
  0
BLOCK_RECORD
  5
208
100
AcDbSymbolTableRecord
100
AcDbBlockTableRecord
  2
SUN_FIRST_THIRD_ANGLE_BL0
  0
BLOCK_RECORD
  5
209
100
AcDbSymbolTableRecord
100
AcDbBlockTableRecord
  2
*T1
  0
BLOCK_RECORD
  5
20A
100
AcDbSymbolTableRecord
100
AcDbBlockTableRecord
  2
*T2
  0
BLOCK_RECORD
  5
20B
100
AcDbSymbolTableRecord
100
AcDbBlockTableRecord
  2
*T3
  0
ENDTAB
  0
TABLE
  2
DIMSTYLE
  5
A
100
AcDbSymbolTable
 70
1
100
AcDbDimStyleTable
 71
0
  0
DIMSTYLE
105
20C
100
AcDbSymbolTableRecord
100
AcDbDimStyleTableRecord
  2
STANDARD
 70
0
  3

  4

 40
1.0
 41
0.1875
 42
0.0625
 43
0.38
 44
0.125
 45
0.0
 46
0.0
 47
0.001
 48
0.001
140
0.1
141
0.09
142
0.0
143
25.4
144
1.0
145
0.0
146
1.0
147
0.09
 71
0.0
 72
0.0
 73
1
 74
1
 75
0
 76
0
 77
0
 78
4
170
0
171
2
172
0
173
0
174
0
175
0
176
0
177
0
178
0
270
2
271
3
272
3
273
2
274
2
275
0
280
0
281
0
282
0
283
1
284
4
285
0
286
0
287
3
288
0
340
11
278
46
  0
ENDTAB
  0
ENDSEC
  0
SECTION
  2
BLOCKS
  0
BLOCK
  5
20
100
AcDbEntity
  8
0
100
AcDbBlockBegin
  2
*Model_Space
 70
0
 10
0.0
 20
0.0
 30
0.0
  3
*Model_Space
  1

  0
ENDBLK
  5
21
100
AcDbEntity
  8
0
100
AcDbBlockEnd
  0
BLOCK
  5
1C
100
AcDbEntity
  8
0
100
AcDbBlockBegin
  2
*Paper_Space
 70
0
 10
0.0
 20
0.0
 30
0.0
  3
*Paper_Space
  1

  0
ENDBLK
  5
1D
100
AcDbEntity
  8
0
100
AcDbBlockEnd
  0
BLOCK
  5
20D
100
AcDbEntity
  8
0
100
AcDbBlockBegin
 62
2
  6
CONTINUOUS
  2
SUN_FIRST_THIRD_ANGLE_BL0
 70
64
 10
20.4816717061
 20
1.2289683772
  3
SUN_FIRST_THIRD_ANGLE_BL0
  1

  0
TEXT
  5
20E
100
AcDbEntity
  8
0
100
AcDbText
 62
2
  6
CONTINUOUS
 10
19.4750896608
 20
1.4136269581
  7
STANDARD
 40
0.08
  1
FIRST ANGLE
 41
0.8
 72
0
100
AcDbText
  0
TEXT
  5
20F
100
AcDbEntity
  8
0
100
AcDbText
 62
2
  6
CONTINUOUS
 10
20.7842537513
 20
1.4047600029
  7
STANDARD
 40
0.08
  1
THIRD ANGLE
 41
0.8
 72
0
100
AcDbText
  0
LINE
  5
210
100
AcDbEntity
  8
0
100
AcDbLine
 62
7
  6
CONTINUOUS
 10
19.4767170086
 20
1.1727031207
 11
19.6334271527
 21
1.1717972817
  0
LINE
  5
211
100
AcDbEntity
  8
0
100
AcDbLine
 62
7
  6
CONTINUOUS
 10
19.6596964832
 20
1.1717972817
 11
19.6950230232
 21
1.171593082
  0
LINE
  5
212
100
AcDbEntity
  8
0
100
AcDbLine
 62
7
  6
CONTINUOUS
 10
19.7194818561
 20
1.1708914427
 11
19.8852396156
 21
1.1699333054
  0
LINE
  5
213
100
AcDbEntity
  8
0
100
AcDbLine
 62
7
  6
CONTINUOUS
 10
19.4758111696
 20
1.2723454088
 11
19.88525039
 21
1.3511534004
  0
LINE
  5
214
100
AcDbEntity
  8
0
100
AcDbLine
 62
7
  6
CONTINUOUS
 10
19.88525039
 20
1.3511534004
 11
19.8831348489
 21
0.9851647912
  0
LINE
  5
215
100
AcDbEntity
  8
0
100
AcDbLine
 62
7
  6
CONTINUOUS
 10
19.8831348489
 20
0.9851647912
 11
19.4767170086
 21
1.0658141206
  0
LINE
  5
216
100
AcDbEntity
  8
0
100
AcDbLine
 62
7
  6
CONTINUOUS
 10
19.4767170086
 20
1.0658141206
 11
19.4779056764
 21
1.2714536432
  0
CIRCLE
  5
217
100
AcDbEntity
  8
0
100
AcDbCircle
 62
7
  6
CONTINUOUS
 10
20.2068232291
 20
1.1717972817
 40
0.175742101
  0
CIRCLE
  5
218
100
AcDbEntity
  8
0
100
AcDbCircle
 62
7
  6
CONTINUOUS
 10
20.2068232291
 20
1.1717972817
 40
0.1005522074
  0
LINE
  5
219
100
AcDbEntity
  8
0
100
AcDbLine
 62
7
  6
CONTINUOUS
 10
20.2077290681
 20
1.3756110529
 11
20.2071171714
 21
1.2379342989
  0
LINE
  5
21A
100
AcDbEntity
  8
0
100
AcDbLine
 62
7
  6
CONTINUOUS
 10
20.2077290681
 20
1.2016899681
 11
20.2074674401
 21
1.1428236749
  0
LINE
  5
21B
100
AcDbEntity
  8
0
100
AcDbLine
 62
7
  6
CONTINUOUS
 10
20.208634907
 20
1.101141841
 11
20.2080230104
 21
0.963465087
  0
LINE
  5
21C
100
AcDbEntity
  8
0
100
AcDbLine
 62
7
  6
CONTINUOUS
 10
20.0066328138
 20
1.1745147986
 11
20.1443095678
 21
1.1739029019
  0
LINE
  5
21D
100
AcDbEntity
  8
0
100
AcDbLine
 62
7
  6
CONTINUOUS
 10
20.1832714155
 20
1.1727031207
 11
20.238153505
 21
1.172335442
  0
LINE
  5
21E
100
AcDbEntity
  8
0
100
AcDbLine
 62
7
  6
CONTINUOUS
 10
20.2756669918
 20
1.1717972817
 11
20.407916871
 21
1.1712095044
  0
CIRCLE
  5
21F
100
AcDbEntity
  8
0
100
AcDbCircle
 62
7
  6
CONTINUOUS
 10
20.7509457401
 20
1.1693297793
 40
0.1722024983
  0
CIRCLE
  5
220
100
AcDbEntity
  8
0
100
AcDbCircle
 62
7
  6
CONTINUOUS
 10
20.7509457401
 20
1.1693297793
 40
0.0985164967
  0
LINE
  5
221
100
AcDbEntity
  8
0
100
AcDbLine
 62
7
  6
CONTINUOUS
 10
20.7169767782
 20
1.170462078
 11
20.7825395137
 21
1.1682766535
  0
LINE
  5
222
100
AcDbEntity
  8
0
100
AcDbLine
 62
7
  6
CONTINUOUS
 10
20.8177513651
 20
1.1693297793
 11
20.947965719
 21
1.1693297793
  0
LINE
  5
223
100
AcDbEntity
  8
0
100
AcDbLine
 62
7
  6
CONTINUOUS
 10
20.6875370113
 20
1.170462078
 11
20.5573226574
 21
1.170462078
  0
LINE
  5
224
100
AcDbEntity
  8
0
100
AcDbLine
 62
7
  6
CONTINUOUS
 10
20.7486811426
 20
1.1987695462
 11
20.7486811426
 21
1.1432869085
  0
LINE
  5
225
100
AcDbEntity
  8
0
100
AcDbLine
 62
7
  6
CONTINUOUS
 10
20.7498134414
 20
1.1059210505
 11
20.7498134414
 21
0.9757066966
  0
LINE
  5
226
100
AcDbEntity
  8
0
100
AcDbLine
 62
7
  6
CONTINUOUS
 10
20.7486811426
 20
1.2338708068
 11
20.7486811426
 21
1.3640851607
  0
LINE
  5
227
100
AcDbEntity
  8
0
100
AcDbLine
 62
7
  6
CONTINUOUS
 10
21.0702539817
 20
1.2701043662
 11
21.4790138229
 21
1.3448360823
  0
LINE
  5
228
100
AcDbEntity
  8
0
100
AcDbLine
 62
7
  6
CONTINUOUS
 10
21.4790138229
 20
1.3448360823
 11
21.4790138229
 21
0.9779712941
  0
LINE
  5
229
100
AcDbEntity
  8
0
100
AcDbLine
 62
7
  6
CONTINUOUS
 10
21.4790138229
 20
0.9779712941
 11
21.069121683
 21
1.0617614
  0
LINE
  5
22A
100
AcDbEntity
  8
0
100
AcDbLine
 62
7
  6
CONTINUOUS
 10
21.0702539817
 20
1.2701043662
 11
21.069121683
 21
1.0617614
  0
LINE
  5
22B
100
AcDbEntity
  8
0
100
AcDbLine
 62
7
  6
CONTINUOUS
 10
21.4790138229
 20
1.1693297793
 11
21.3159628059
 21
1.1693297793
  0
LINE
  5
22C
100
AcDbEntity
  8
0
100
AcDbLine
 62
7
  6
CONTINUOUS
 10
21.2876553377
 20
1.1693297793
 11
21.2502894796
 21
1.1693297793
  0
LINE
  5
22D
100
AcDbEntity
  8
0
100
AcDbLine
 62
7
  6
CONTINUOUS
 10
21.2208497126
 20
1.1659328831
 11
21.0713862804
 21
1.1659328831
  0
LINE
  5
22E
100
AcDbEntity
  8
0
100
AcDbLine
 62
7
  6
CONTINUOUS
 10
20.4796138713
 20
1.5284908897
 11
20.4766766948
 21
0.9294458646
  0
ENDBLK
  5
22F
100
AcDbEntity
  8
0
  6
BYBLOCK
 62
0
100
AcDbBlockEnd
  0
BLOCK
  5
230
100
AcDbEntity
  8
0
100
AcDbBlockBegin
  2
*T1
 70
1
 10
0.0
 20
0.0
  3
*T1
  1

  0
LINE
  5
231
100
AcDbEntity
  8
0
100
AcDbLine
 62
2
  6
CONTINUOUS
 10
9.275
 20
0.0
 11
-0.0
 21
0.0
  0
LINE
  5
232
100
AcDbEntity
  8
0
100
AcDbLine
 62
2
  6
CONTINUOUS
 10
9.275
 20
0.0
 11
9.275
 21
1.25
  0
LINE
  5
233
100
AcDbEntity
  8
0
100
AcDbLine
 62
2
  6
CONTINUOUS
 10
9.275
 20
0.625
 11
-0.0
 21
0.625
  0
LINE
  5
234
100
AcDbEntity
  8
0
100
AcDbLine
 62
2
  6
CONTINUOUS
 10
9.275
 20
1.25
 11
-0.0
 21
1.25
  0
LINE
  5
235
100
AcDbEntity
  8
0
100
AcDbLine
 62
2
  6
CONTINUOUS
 10
6.8
 20
0.0
 11
6.8
 21
1.25
  0
LINE
  5
236
100
AcDbEntity
  8
0
100
AcDbLine
 62
2
  6
CONTINUOUS
 10
6.4
 20
0.0
 11
6.4
 21
0.625
  0
LINE
  5
237
100
AcDbEntity
  8
0
100
AcDbLine
 62
2
  6
CONTINUOUS
 10
5.9
 20
0.0
 11
5.9
 21
0.625
  0
LINE
  5
238
100
AcDbEntity
  8
0
100
AcDbLine
 62
2
  6
CONTINUOUS
 10
5.2
 20
0.0
 11
5.2
 21
0.625
  0
LINE
  5
239
100
AcDbEntity
  8
0
100
AcDbLine
 62
2
  6
CONTINUOUS
 10
4.1
 20
0.0
 11
4.1
 21
1.25
  0
LINE
  5
23A
100
AcDbEntity
  8
0
100
AcDbLine
 62
2
  6
CONTINUOUS
 10
-0.0
 20
0.0
 11
-0.0
 21
1.25
  0
MTEXT
  5
23B
100
AcDbEntity
  8
0
100
AcDbMText
 62
2
  6
CONTINUOUS
  7
STANDARD
 71
2
 72
1
 10
6.6
 20
0.325
 30
0.0
 11
1.0
 21
0.0
 31
0.0
 44
0.9
  1
2
 40
0.125
 41
0.2
  0
MTEXT
  5
23C
100
AcDbEntity
  8
0
100
AcDbMText
 62
2
  6
CONTINUOUS
  7
STANDARD
 71
2
 72
1
 10
6.15
 20
0.325
 30
0.0
 11
1.0
 21
0.0
 31
0.0
 44
0.9
  1
C
 40
0.125
 41
0.2
  0
MTEXT
  5
23D
100
AcDbEntity
  8
0
100
AcDbMText
 62
2
  6
CONTINUOUS
  7
STANDARD
 71
2
 72
1
 10
5.55
 20
0.325
 30
0.0
 11
1.0
 21
0.0
 31
0.0
 44
0.9
  1
2.000
 40
0.125
 41
1.0
  0
MTEXT
  5
23E
100
AcDbEntity
  8
0
100
AcDbMText
 62
2
  6
CONTINUOUS
  7
STANDARD
 71
2
 72
1
 10
4.65
 20
0.325
 30
0.0
 11
1.0
 21
0.0
 31
0.0
 44
0.9
  1
Aug-13-19
 40
0.125
 41
1.8
  0
MTEXT
  5
23F
100
AcDbEntity
  8
0
100
AcDbMText
 62
2
  6
CONTINUOUS
  7
STANDARD
 71
2
 72
1
 10
2.05
 20
0.4625
 30
0.0
 11
1.0
 21
0.0
 31
0.0
 44
0.9
  1
T-10A Line mount\PNinety degree with reverse flow check
 40
0.125
 41
7.4
  0
MTEXT
  5
240
100
AcDbEntity
  8
0
100
AcDbMText
 62
2
  6
CONTINUOUS
  7
STANDARD
 71
1
 72
1
 10
6.45
 20
0.5625
 30
0.0
 11
1.0
 21
0.0
 31
0.0
 44
0.9
  1
SHEET
 40
0.06
 41
0.48
  0
MTEXT
  5
241
100
AcDbEntity
  8
0
100
AcDbMText
 62
2
  6
CONTINUOUS
  7
STANDARD
 71
1
 72
1
 10
5.95
 20
0.5625
 30
0.0
 11
1.0
 21
0.0
 31
0.0
 44
0.9
  1
DWG SIZE
 40
0.06
 41
0.768
  0
MTEXT
  5
242
100
AcDbEntity
  8
0
100
AcDbMText
 62
2
  6
CONTINUOUS
  7
STANDARD
 71
1
 72
1
 10
5.25
 20
0.5625
 30
0.0
 11
1.0
 21
0.0
 31
0.0
 44
0.9
  1
SCALE
 40
0.06
 41
0.48
  0
MTEXT
  5
243
100
AcDbEntity
  8
0
100
AcDbMText
 62
2
  6
CONTINUOUS
  7
STANDARD
 71
1
 72
1
 10
4.15
 20
0.5625
 30
0.0
 11
1.0
 21
0.0
 31
0.0
 44
0.9
  1
DATE
 40
0.06
 41
0.384
  0
MTEXT
  5
244
100
AcDbEntity
  8
0
100
AcDbMText
 62
2
  6
CONTINUOUS
  7
STANDARD
 71
1
 72
1
 10
0.05
 20
0.5625
 30
0.0
 11
1.0
 21
0.0
 31
0.0
 44
0.9
  1
DESCRIPTION
 40
0.06
 41
1.056
  0
MTEXT
  5
245
100
AcDbEntity
  8
0
100
AcDbMText
 62
2
  6
CONTINUOUS
  7
STANDARD
 71
2
 72
1
 10
5.45
 20
1.0375
 30
0.0
 11
1.0
 21
0.0
 31
0.0
 44
0.9
  1
ALL DIMENSIONS IN INCH\PVIEWS ARE THIRD ANGLE
 40
0.12
 41
4.224
  0
MTEXT
  5
246
100
AcDbEntity
  8
0
100
AcDbMText
 62
2
  6
CONTINUOUS
  7
STANDARD
 71
2
 72
1
 10
2.05
 20
0.95
 30
0.0
 11
1.0
 21
0.0
 31
0.0
 44
0.9
  1
X5K
 40
0.125
 41
0.6
  0
MTEXT
  5
247
100
AcDbEntity
  8
0
100
AcDbMText
 62
2
  6
CONTINUOUS
  7
STANDARD
 71
1
 72
1
 10
0.05
 20
1.1875
 30
0.0
 11
1.0
 21
0.0
 31
0.0
 44
0.9
  1
MODEL
 40
0.06
 41
0.48
  0
ENDBLK
  5
248
100
AcDbEntity
  8
0
  6
BYBLOCK
 62
0
100
AcDbBlockEnd
  0
BLOCK
  5
249
100
AcDbEntity
  8
0
100
AcDbBlockBegin
  2
*T2
 70
1
 10
0.0
 20
0.0
  3
*T2
  1

  0
LINE
  5
24A
100
AcDbEntity
  8
0
100
AcDbLine
 62
2
  6
CONTINUOUS
 10
0.0
 20
0.0
 11
9.055
 21
0.0
  0
LINE
  5
24B
100
AcDbEntity
  8
0
100
AcDbLine
 62
2
  6
CONTINUOUS
 10
0.0
 20
0.0
 11
0.0
 21
-2.344
  0
LINE
  5
24C
100
AcDbEntity
  8
0
100
AcDbLine
 62
2
  6
CONTINUOUS
 10
0.0
 20
-0.344
 11
9.055
 21
-0.344
  0
LINE
  5
24D
100
AcDbEntity
  8
0
100
AcDbLine
 62
2
  6
CONTINUOUS
 10
0.0
 20
-0.594
 11
9.055
 21
-0.594
  0
LINE
  5
24E
100
AcDbEntity
  8
0
100
AcDbLine
 62
2
  6
CONTINUOUS
 10
0.0
 20
-0.844
 11
9.055
 21
-0.844
  0
LINE
  5
24F
100
AcDbEntity
  8
0
100
AcDbLine
 62
2
  6
CONTINUOUS
 10
0.0
 20
-1.094
 11
9.055
 21
-1.094
  0
LINE
  5
250
100
AcDbEntity
  8
0
100
AcDbLine
 62
2
  6
CONTINUOUS
 10
0.0
 20
-1.344
 11
9.055
 21
-1.344
  0
LINE
  5
251
100
AcDbEntity
  8
0
100
AcDbLine
 62
2
  6
CONTINUOUS
 10
0.0
 20
-1.594
 11
9.055
 21
-1.594
  0
LINE
  5
252
100
AcDbEntity
  8
0
100
AcDbLine
 62
2
  6
CONTINUOUS
 10
0.0
 20
-1.844
 11
9.055
 21
-1.844
  0
LINE
  5
253
100
AcDbEntity
  8
0
100
AcDbLine
 62
2
  6
CONTINUOUS
 10
0.0
 20
-2.094
 11
9.055
 21
-2.094
  0
LINE
  5
254
100
AcDbEntity
  8
0
100
AcDbLine
 62
2
  6
CONTINUOUS
 10
0.0
 20
-2.344
 11
9.055
 21
-2.344
  0
LINE
  5
255
100
AcDbEntity
  8
0
100
AcDbLine
 62
2
  6
CONTINUOUS
 10
3.055
 20
0.0
 11
3.055
 21
-2.344
  0
LINE
  5
256
100
AcDbEntity
  8
0
100
AcDbLine
 62
2
  6
CONTINUOUS
 10
9.055
 20
0.0
 11
9.055
 21
-2.344
  0
MTEXT
  5
257
100
AcDbEntity
  8
0
100
AcDbMText
 62
2
  6
CONTINUOUS
  7
STANDARD
 71
2
 72
1
 10
1.5275
 20
-0.0995
 30
0.0
 11
1.0
 21
0.0
 31
0.0
 44
0.9
  1
Technical Data
 40
0.145
 41
3.248
  0
MTEXT
  5
258
100
AcDbEntity
  8
0
100
AcDbMText
 62
2
  6
CONTINUOUS
  7
STANDARD
 71
2
 72
1
 10
4.555
 20
-0.0995
 30
0.0
 11
1.0
 21
0.0
 31
0.0
 44
0.9
  1
U.S. Units
 40
0.145
 41
2.32
  0
MTEXT
  5
259
100
AcDbEntity
  8
0
100
AcDbMText
 62
2
  6
CONTINUOUS
  7
STANDARD
 71
2
 72
1
 10
7.555
 20
-0.0995
 30
0.0
 11
1.0
 21
0.0
 31
0.0
 44
0.9
  1
Metric Units
 40
0.145
 41
2.784
  0
MTEXT
  5
25A
100
AcDbEntity
  8
0
100
AcDbMText
 62
2
  6
CONTINUOUS
  7
STANDARD
 71
2
 72
1
 10
1.5275
 20
-0.4065
 30
0.0
 11
1.0
 21
0.0
 31
0.0
 44
0.9
  1
Cavity
 40
0.125
 41
1.2
  0
MTEXT
  5
25B
100
AcDbEntity
  8
0
100
AcDbMText
 62
2
  6
CONTINUOUS
  7
STANDARD
 71
2
 72
1
 10
6.055
 20
-0.4065
 30
0.0
 11
1.0
 21
0.0
 31
0.0
 44
0.9
  1
T-10A
 40
0.125
 41
1.0
  0
MTEXT
  5
25C
100
AcDbEntity
  8
0
100
AcDbMText
 62
2
  6
CONTINUOUS
  7
STANDARD
 71
2
 72
1
 10
1.5275
 20
-0.6565
 30
0.0
 11
1.0
 21
0.0
 31
0.0
 44
0.9
  1
Body Features
 40
0.125
 41
2.6
  0
MTEXT
  5
25D
100
AcDbEntity
  8
0
100
AcDbMText
 62
2
  6
CONTINUOUS
  7
STANDARD
 71
2
 72
1
 10
6.055
 20
-0.6565
 30
0.0
 11
1.0
 21
0.0
 31
0.0
 44
0.9
  1
Ninety degree with reverse flow check
 40
0.125
 41
7.4
  0
MTEXT
  5
25E
100
AcDbEntity
  8
0
100
AcDbMText
 62
2
  6
CONTINUOUS
  7
STANDARD
 71
2
 72
1
 10
1.5275
 20
-0.9065
 30
0.0
 11
1.0
 21
0.0
 31
0.0
 44
0.9
  1
Body Type
 40
0.125
 41
1.8
  0
MTEXT
  5
25F
100
AcDbEntity
  8
0
100
AcDbMText
 62
2
  6
CONTINUOUS
  7
STANDARD
 71
2
 72
1
 10
6.055
 20
-0.9065
 30
0.0
 11
1.0
 21
0.0
 31
0.0
 44
0.9
  1
Line mount
 40
0.125
 41
2.0
  0
MTEXT
  5
260
100
AcDbEntity
  8
0
100
AcDbMText
 62
2
  6
CONTINUOUS
  7
STANDARD
 71
2
 72
1
 10
1.5275
 20
-1.1565
 30
0.0
 11
1.0
 21
0.0
 31
0.0
 44
0.9
  1
Open Cavity Quantity
 40
0.125
 41
4.0
  0
MTEXT
  5
261
100
AcDbEntity
  8
0
100
AcDbMText
 62
2
  6
CONTINUOUS
  7
STANDARD
 71
2
 72
1
 10
6.055
 20
-1.1565
 30
0.0
 11
1.0
 21
0.0
 31
0.0
 44
0.9
  1
1
 40
0.125
 41
0.2
  0
MTEXT
  5
262
100
AcDbEntity
  8
0
100
AcDbMText
 62
2
  6
CONTINUOUS
  7
STANDARD
 71
2
 72
1
 10
1.5275
 20
-1.4065
 30
0.0
 11
1.0
 21
0.0
 31
0.0
 44
0.9
  1
Weight
 40
0.125
 41
1.2
  0
MTEXT
  5
263
100
AcDbEntity
  8
0
100
AcDbMText
 62
2
  6
CONTINUOUS
  7
STANDARD
 71
2
 72
1
 10
4.555
 20
-1.4065
 30
0.0
 11
1.0
 21
0.0
 31
0.0
 44
0.9
  1
0.948 lb.
 40
0.125
 41
1.8
  0
MTEXT
  5
264
100
AcDbEntity
  8
0
100
AcDbMText
 62
2
  6
CONTINUOUS
  7
STANDARD
 71
2
 72
1
 10
7.555
 20
-1.4065
 30
0.0
 11
1.0
 21
0.0
 31
0.0
 44
0.9
  1
0,430 kg.
 40
0.125
 41
1.8
  0
MTEXT
  5
265
100
AcDbEntity
  8
0
100
AcDbMText
 62
2
  6
CONTINUOUS
  7
STANDARD
 71
2
 72
1
 10
1.5275
 20
-1.6565
 30
0.0
 11
1.0
 21
0.0
 31
0.0
 44
0.9
  1
Mounting Hole Diameter
 40
0.125
 41
4.4
  0
MTEXT
  5
266
100
AcDbEntity
  8
0
100
AcDbMText
 62
2
  6
CONTINUOUS
  7
STANDARD
 71
2
 72
1
 10
4.555
 20
-1.6565
 30
0.0
 11
1.0
 21
0.0
 31
0.0
 44
0.9
  1
.28 in.
 40
0.125
 41
1.4
  0
MTEXT
  5
267
100
AcDbEntity
  8
0
100
AcDbMText
 62
2
  6
CONTINUOUS
  7
STANDARD
 71
2
 72
1
 10
7.555
 20
-1.6565
 30
0.0
 11
1.0
 21
0.0
 31
0.0
 44
0.9
  1
7,1 mm
 40
0.125
 41
1.2
  0
MTEXT
  5
268
100
AcDbEntity
  8
0
100
AcDbMText
 62
2
  6
CONTINUOUS
  7
STANDARD
 71
2
 72
1
 10
1.5275
 20
-1.9065
 30
0.0
 11
1.0
 21
0.0
 31
0.0
 44
0.9
  1
Mounting Hole Depth
 40
0.125
 41
3.8
  0
MTEXT
  5
269
100
AcDbEntity
  8
0
100
AcDbMText
 62
2
  6
CONTINUOUS
  7
STANDARD
 71
2
 72
1
 10
6.055
 20
-1.9065
 30
0.0
 11
1.0
 21
0.0
 31
0.0
 44
0.9
  1
Through
 40
0.125
 41
1.4
  0
MTEXT
  5
26A
100
AcDbEntity
  8
0
100
AcDbMText
 62
2
  6
CONTINUOUS
  7
STANDARD
 71
2
 72
1
 10
1.5275
 20
-2.1565
 30
0.0
 11
1.0
 21
0.0
 31
0.0
 44
0.9
  1
Mounting Hole Quantity
 40
0.125
 41
4.4
  0
MTEXT
  5
26B
100
AcDbEntity
  8
0
100
AcDbMText
 62
2
  6
CONTINUOUS
  7
STANDARD
 71
2
 72
1
 10
6.055
 20
-2.1565
 30
0.0
 11
1.0
 21
0.0
 31
0.0
 44
0.9
  1
2
 40
0.125
 41
0.2
  0
ENDBLK
  5
26C
100
AcDbEntity
  8
0
  6
BYBLOCK
 62
0
100
AcDbBlockEnd
  0
BLOCK
  5
26D
100
AcDbEntity
  8
0
100
AcDbBlockBegin
  2
*T3
 70
1
 10
0.0
 20
0.0
  3
*T3
  1

  0
LINE
  5
26E
100
AcDbEntity
  8
0
100
AcDbLine
 62
2
  6
CONTINUOUS
 10
0.0
 20
0.0
 11
4.6
 21
0.0
  0
LINE
  5
26F
100
AcDbEntity
  8
0
100
AcDbLine
 62
2
  6
CONTINUOUS
 10
0.0
 20
0.0
 11
0.0
 21
-1.18775
  0
LINE
  5
270
100
AcDbEntity
  8
0
100
AcDbLine
 62
2
  6
CONTINUOUS
 10
0.0
 20
-0.34375
 11
4.6
 21
-0.34375
  0
LINE
  5
271
100
AcDbEntity
  8
0
100
AcDbLine
 62
2
  6
CONTINUOUS
 10
0.0
 20
-0.68775
 11
4.6
 21
-0.68775
  0
LINE
  5
272
100
AcDbEntity
  8
0
100
AcDbLine
 62
2
  6
CONTINUOUS
 10
0.0
 20
-0.93775
 11
4.6
 21
-0.93775
  0
LINE
  5
273
100
AcDbEntity
  8
0
100
AcDbLine
 62
2
  6
CONTINUOUS
 10
0.0
 20
-1.18775
 11
4.6
 21
-1.18775
  0
LINE
  5
274
100
AcDbEntity
  8
0
100
AcDbLine
 62
2
  6
CONTINUOUS
 10
1.3
 20
-0.34375
 11
1.3
 21
-1.18775
  0
LINE
  5
275
100
AcDbEntity
  8
0
100
AcDbLine
 62
2
  6
CONTINUOUS
 10
3.3
 20
-0.34375
 11
3.3
 21
-1.18775
  0
LINE
  5
276
100
AcDbEntity
  8
0
100
AcDbLine
 62
2
  6
CONTINUOUS
 10
4.6
 20
0.0
 11
4.6
 21
-1.18775
  0
MTEXT
  5
277
100
AcDbEntity
  8
0
100
AcDbMText
 62
2
  6
CONTINUOUS
  7
STANDARD
 71
2
 72
1
 10
2.3
 20
-0.099375
 30
0.0
 11
1.0
 21
0.0
 31
0.0
 44
0.9
  1
Port Headings
 40
0.145
 41
3.016
  0
MTEXT
  5
278
100
AcDbEntity
  8
0
100
AcDbMText
 62
2
  6
CONTINUOUS
  7
STANDARD
 71
2
 72
1
 10
0.65
 20
-0.44325
 30
0.0
 11
1.0
 21
0.0
 31
0.0
 44
0.9
  1
Product
 40
0.145
 41
1.624
  0
MTEXT
  5
279
100
AcDbEntity
  8
0
100
AcDbMText
 62
2
  6
CONTINUOUS
  7
STANDARD
 71
2
 72
1
 10
2.3
 20
-0.44325
 30
0.0
 11
1.0
 21
0.0
 31
0.0
 44
0.9
  1
Port
 40
0.145
 41
0.928
  0
MTEXT
  5
27A
100
AcDbEntity
  8
0
100
AcDbMText
 62
2
  6
CONTINUOUS
  7
STANDARD
 71
2
 72
1
 10
3.95
 20
-0.44325
 30
0.0
 11
1.0
 21
0.0
 31
0.0
 44
0.9
  1
Size
 40
0.145
 41
0.928
  0
MTEXT
  5
27B
100
AcDbEntity
  8
0
100
AcDbMText
 62
2
  6
CONTINUOUS
  7
STANDARD
 71
2
 72
1
 10
0.65
 20
-0.75025
 30
0.0
 11
1.0
 21
0.0
 31
0.0
 44
0.9
  1
X5K
 40
0.125
 41
0.6
  0
MTEXT
  5
27C
100
AcDbEntity
  8
0
100
AcDbMText
 62
2
  6
CONTINUOUS
  7
STANDARD
 71
2
 72
1
 10
2.3
 20
-0.75025
 30
0.0
 11
1.0
 21
0.0
 31
0.0
 44
0.9
  1
Ports 1 &  2
 40
0.125
 41
2.4
  0
MTEXT
  5
27D
100
AcDbEntity
  8
0
100
AcDbMText
 62
2
  6
CONTINUOUS
  7
STANDARD
 71
2
 72
1
 10
3.95
 20
-0.75025
 30
0.0
 11
1.0
 21
0.0
 31
0.0
 44
0.9
  1
SAE 6
 40
0.125
 41
1.0
  0
MTEXT
  5
27E
100
AcDbEntity
  8
0
100
AcDbMText
 62
2
  6
CONTINUOUS
  7
STANDARD
 71
2
 72
1
 10
0.65
 20
-1.00025
 30
0.0
 11
1.0
 21
0.0
 31
0.0
 44
0.9
  1
X5K
 40
0.125
 41
0.6
  0
MTEXT
  5
27F
100
AcDbEntity
  8
0
100
AcDbMText
 62
2
  6
CONTINUOUS
  7
STANDARD
 71
2
 72
1
 10
2.3
 20
-1.00025
 30
0.0
 11
1.0
 21
0.0
 31
0.0
 44
0.9
  1
Gage Port (Plugged)
 40
0.125
 41
3.8
  0
MTEXT
  5
280
100
AcDbEntity
  8
0
100
AcDbMText
 62
2
  6
CONTINUOUS
  7
STANDARD
 71
2
 72
1
 10
3.95
 20
-1.00025
 30
0.0
 11
1.0
 21
0.0
 31
0.0
 44
0.9
  1
SAE 4
 40
0.125
 41
1.0
  0
ENDBLK
  5
281
100
AcDbEntity
  8
0
  6
BYBLOCK
 62
0
100
AcDbBlockEnd
  0
ENDSEC
  0
SECTION
  2
ENTITIES
  0
IMAGE
  5
282
100
AcDbEntity
  8
0
100
AcDbRasterImage
 62
7
  6
CONTINUOUS
 10
19.2297077316
 20
0.3094318264
 30
0.0
 11
0.0066666667
 21
0.0
 31
0.0
 12
0.0
 22
0.0066666667
 32
0.0
 13
369.0
 23
92.0
340
       3CE
 70
9
280
0
281
50
282
50
283
0
360
       3C8
 71
1
 91
2
 14
-0.5
 24
-0.5
 14
368.5
 24
91.5
  0
INSERT
  5
283
100
AcDbEntity
  8
0
100
AcDbBlockReference
 62
2
  6
CONTINUOUS
  2
SUN_FIRST_THIRD_ANGLE_BL0
 10
20.4816717061
 20
1.2289683772
  0
ACAD_TABLE
  5
284
100
AcDbEntity
  8
0
 62
2
  6
CONTINUOUS
100
AcDbBlockReference
  2
*T1
 10
12.42375
 20
0.30125
 30
0.0
100
AcDbTable
342
       3D0
343
209
 11
1.0
 21
0.0
 31
0.0
 90
6
 91
4
 92
6
 93
20
 94
0
 95
0
 96
0
 70
1
 41
0.0
141
0.525
141
0.1
141
0.525
141
0.1
142
4.1
142
1.1
142
0.7
142
0.5
142
0.4
142
2.475
171
1
172
0
173
0
174
0
175
1
176
1
 91
33
178
0
145
0.0
301
CELL_VALUE
 90
4
  1
T-10A Line mount\PNinety degree with reverse flow check
304
ACVALUE_END
170
2
140
0.125
171
1
172
0
173
0
174
0
175
1
176
1
 91
33
178
0
145
0.0
301
CELL_VALUE
 90
4
  1
Aug-13-19
304
ACVALUE_END
170
5
140
0.125
171
1
172
0
173
0
174
0
175
1
176
1
 91
33
178
0
145
0.0
301
CELL_VALUE
 90
4
  1
2.000
304
ACVALUE_END
170
5
140
0.125
171
1
172
0
173
0
174
0
175
1
176
1
 91
33
178
0
145
0.0
301
CELL_VALUE
 90
4
  1
C
304
ACVALUE_END
170
5
140
0.125
171
1
172
0
173
0
174
0
175
1
176
1
 91
33
178
0
145
0.0
301
CELL_VALUE
 90
4
  1
2
304
ACVALUE_END
170
5
140
0.125
171
1
172
0
173
0
174
0
175
1
176
1
 91
33
178
0
145
0.0
301
CELL_VALUE
 90
4
  1
 
304
ACVALUE_END
170
1
140
0.125
171
1
172
0
173
0
174
0
175
1
176
1
 91
33
178
0
145
0.0
301
CELL_VALUE
 90
4
  1
DESCRIPTION
304
ACVALUE_END
170
1
140
0.06
171
1
172
0
173
0
174
0
175
1
176
1
 91
33
178
0
145
0.0
301
CELL_VALUE
 90
4
  1
DATE
304
ACVALUE_END
170
1
140
0.06
171
1
172
0
173
0
174
0
175
1
176
1
 91
33
178
0
145
0.0
301
CELL_VALUE
 90
4
  1
SCALE
304
ACVALUE_END
170
1
140
0.06
171
1
172
0
173
0
174
0
175
1
176
1
 91
33
178
0
145
0.0
301
CELL_VALUE
 90
4
  1
DWG SIZE
304
ACVALUE_END
170
1
140
0.06
171
1
172
0
173
0
174
0
175
1
176
1
 91
33
178
0
145
0.0
301
CELL_VALUE
 90
4
  1
SHEET
304
ACVALUE_END
170
1
140
0.06
171
1
172
0
173
0
174
0
175
1
176
1
 91
33
178
0
145
0.0
301
CELL_VALUE
 90
4
  1
 
304
ACVALUE_END
170
1
140
0.125
171
1
172
0
173
0
174
0
175
1
176
1
 91
33
178
0
145
0.0
301
CELL_VALUE
 90
4
  1
X5K
304
ACVALUE_END
170
5
140
0.125
171
1
172
0
173
0
174
0
175
4
176
1
 91
33
178
0
145
0.0
301
CELL_VALUE
 90
4
  1
ALL DIMENSIONS IN INCH\PVIEWS ARE THIRD ANGLE
304
ACVALUE_END
170
5
140
0.12
171
1
172
0
173
1
174
0
175
1
176
1
 91
1
178
0
145
0.0
170
1
171
1
172
0
173
1
174
0
175
1
176
1
 91
1
178
0
145
0.0
170
1
171
1
172
0
173
1
174
0
175
1
176
1
 91
1
178
0
145
0.0
170
5
171
1
172
0
173
0
174
0
175
1
176
1
 91
33
178
0
145
0.0
301
CELL_VALUE
 90
4
  1
 
304
ACVALUE_END
170
1
140
0.125
171
1
172
0
173
0
174
0
175
1
176
1
 91
33
178
0
145
0.0
301
CELL_VALUE
 90
4
  1
MODEL
304
ACVALUE_END
170
1
140
0.06
171
1
172
0
173
0
174
0
175
1
176
1
 91
33
178
0
145
0.0
301
CELL_VALUE
 90
4
  1
 
304
ACVALUE_END
170
1
140
0.125
171
1
172
0
173
0
174
0
175
1
176
1
 91
33
178
0
145
0.0
301
CELL_VALUE
 90
4
  1
 
304
ACVALUE_END
170
1
140
0.125
171
1
172
0
173
0
174
0
175
1
176
1
 91
33
178
0
145
0.0
301
CELL_VALUE
 90
4
  1
 
304
ACVALUE_END
170
1
140
0.125
171
1
172
0
173
0
174
0
175
1
176
1
 91
33
178
0
145
0.0
301
CELL_VALUE
 90
4
  1
 
304
ACVALUE_END
170
1
140
0.125
171
1
172
0
173
0
174
0
175
1
176
1
 91
33
178
0
145
0.0
301
CELL_VALUE
 90
4
  1
 
304
ACVALUE_END
170
1
140
0.125
  0
ACAD_TABLE
  5
285
100
AcDbEntity
  8
0
 62
2
  6
CONTINUOUS
100
AcDbBlockReference
  2
*T2
 10
12.4237499994
 20
16.47875
 30
0.0
100
AcDbTable
342
       3CF
343
20A
 11
1.0
 21
0.0
 31
0.0
 90
22
 91
9
 92
3
 93
16
 94
0
 95
0
 96
0
 41
0.028
141
0.344
141
0.25
141
0.25
141
0.25
141
0.25
141
0.25
141
0.25
141
0.25
141
0.25
142
3.055
142
3.0
142
3.0
171
1
172
0
173
0
174
0
175
1
176
1
 91
33
178
0
145
0.0
301
CELL_VALUE
 90
4
  1
Technical Data
304
ACVALUE_END
170
5
140
0.145
171
1
172
0
173
0
174
0
175
1
176
1
 91
33
178
0
145
0.0
301
CELL_VALUE
 90
4
  1
U.S. Units
304
ACVALUE_END
170
5
140
0.145
171
1
172
0
173
0
174
0
175
1
176
1
 91
33
178
0
145
0.0
301
CELL_VALUE
 90
4
  1
Metric Units
304
ACVALUE_END
170
5
140
0.145
171
1
172
0
173
0
174
0
175
1
176
1
 91
33
178
0
145
0.0
301
CELL_VALUE
 90
4
  1
Cavity
304
ACVALUE_END
170
5
140
0.125
171
1
172
0
173
0
174
0
175
2
176
1
 91
33
178
0
145
0.0
301
CELL_VALUE
 90
4
  1
T-10A
304
ACVALUE_END
170
5
140
0.125
171
1
172
0
173
1
174
0
175
1
176
1
 91
1
178
0
145
0.0
170
1
171
1
172
0
173
0
174
0
175
1
176
1
 91
33
178
0
145
0.0
301
CELL_VALUE
 90
4
  1
Body Features
304
ACVALUE_END
170
5
140
0.125
171
1
172
0
173
0
174
0
175
2
176
1
 91
33
178
0
145
0.0
301
CELL_VALUE
 90
4
  1
Ninety degree with reverse flow check
304
ACVALUE_END
170
5
140
0.125
171
1
172
0
173
1
174
0
175
1
176
1
 91
1
178
0
145
0.0
170
1
171
1
172
0
173
0
174
0
175
1
176
1
 91
33
178
0
145
0.0
301
CELL_VALUE
 90
4
  1
Body Type
304
ACVALUE_END
170
5
140
0.125
171
1
172
0
173
0
174
0
175
2
176
1
 91
33
178
0
145
0.0
301
CELL_VALUE
 90
4
  1
Line mount
304
ACVALUE_END
170
5
140
0.125
171
1
172
0
173
1
174
0
175
1
176
1
 91
1
178
0
145
0.0
170
1
171
1
172
0
173
0
174
0
175
1
176
1
 91
33
178
0
145
0.0
301
CELL_VALUE
 90
4
  1
Open Cavity Quantity
304
ACVALUE_END
170
5
140
0.125
171
1
172
0
173
0
174
0
175
2
176
1
 91
33
178
0
145
0.0
301
CELL_VALUE
 90
4
  1
1
304
ACVALUE_END
170
5
140
0.125
171
1
172
0
173
1
174
0
175
1
176
1
 91
1
178
0
145
0.0
170
1
171
1
172
0
173
0
174
0
175
1
176
1
 91
33
178
0
145
0.0
301
CELL_VALUE
 90
4
  1
Weight
304
ACVALUE_END
170
5
140
0.125
171
1
172
0
173
0
174
0
175
1
176
1
 91
33
178
0
145
0.0
301
CELL_VALUE
 90
4
  1
0.948 lb.
304
ACVALUE_END
170
5
140
0.125
171
1
172
0
173
0
174
0
175
1
176
1
 91
33
178
0
145
0.0
301
CELL_VALUE
 90
4
  1
0,430 kg.
304
ACVALUE_END
170
5
140
0.125
171
1
172
0
173
0
174
0
175
1
176
1
 91
33
178
0
145
0.0
301
CELL_VALUE
 90
4
  1
Mounting Hole Diameter
304
ACVALUE_END
170
5
140
0.125
171
1
172
0
173
0
174
0
175
1
176
1
 91
33
178
0
145
0.0
301
CELL_VALUE
 90
4
  1
.28 in.
304
ACVALUE_END
170
5
140
0.125
171
1
172
0
173
0
174
0
175
1
176
1
 91
33
178
0
145
0.0
301
CELL_VALUE
 90
4
  1
7,1 mm
304
ACVALUE_END
170
5
140
0.125
171
1
172
0
173
0
174
0
175
1
176
1
 91
33
178
0
145
0.0
301
CELL_VALUE
 90
4
  1
Mounting Hole Depth
304
ACVALUE_END
170
5
140
0.125
171
1
172
0
173
0
174
0
175
2
176
1
 91
33
178
0
145
0.0
301
CELL_VALUE
 90
4
  1
Through
304
ACVALUE_END
170
5
140
0.125
171
1
172
0
173
1
174
0
175
1
176
1
 91
1
178
0
145
0.0
170
1
171
1
172
0
173
0
174
0
175
1
176
1
 91
33
178
0
145
0.0
301
CELL_VALUE
 90
4
  1
Mounting Hole Quantity
304
ACVALUE_END
170
5
140
0.125
171
1
172
0
173
0
174
0
175
2
176
1
 91
33
178
0
145
0.0
301
CELL_VALUE
 90
4
  1
2
304
ACVALUE_END
170
5
140
0.125
171
1
172
0
173
1
174
0
175
1
176
1
 91
1
178
0
145
0.0
170
1
  0
ACAD_TABLE
  5
286
100
AcDbEntity
  8
0
 62
2
  6
CONTINUOUS
100
AcDbBlockReference
  2
*T3
 10
0.52125
 20
1.709
 30
0.0
100
AcDbTable
342
       3CF
343
20B
 11
1.0
 21
0.0
 31
0.0
 90
22
 91
4
 92
3
 93
16
 94
0
 95
0
 96
0
 41
0.05
141
0.34375
141
0.344
141
0.25
141
0.25
142
1.3
142
2.0
142
1.3
171
1
172
0
173
0
174
0
175
3
176
1
 91
33
178
0
145
0.0
301
CELL_VALUE
 90
4
  1
Port Headings
304
ACVALUE_END
170
5
140
0.145
171
1
172
0
173
1
174
0
175
1
176
1
 91
1
178
0
145
0.0
170
1
171
1
172
0
173
1
174
0
175
1
176
1
 91
1
178
0
145
0.0
170
1
171
1
172
0
173
0
174
0
175
1
176
1
 91
33
178
0
145
0.0
301
CELL_VALUE
 90
4
  1
Product
304
ACVALUE_END
170
5
140
0.145
171
1
172
0
173
0
174
0
175
1
176
1
 91
33
178
0
145
0.0
301
CELL_VALUE
 90
4
  1
Port
304
ACVALUE_END
170
5
140
0.145
171
1
172
0
173
0
174
0
175
1
176
1
 91
33
178
0
145
0.0
301
CELL_VALUE
 90
4
  1
Size
304
ACVALUE_END
170
5
140
0.145
171
1
172
0
173
0
174
0
175
1
176
1
 91
33
178
0
145
0.0
301
CELL_VALUE
 90
4
  1
X5K
304
ACVALUE_END
170
5
140
0.125
171
1
172
0
173
0
174
0
175
1
176
1
 91
33
178
0
145
0.0
301
CELL_VALUE
 90
4
  1
Ports 1 &  2
304
ACVALUE_END
170
5
140
0.125
171
1
172
0
173
0
174
0
175
1
176
1
 91
33
178
0
145
0.0
301
CELL_VALUE
 90
4
  1
SAE 6
304
ACVALUE_END
170
5
140
0.125
171
1
172
0
173
0
174
0
175
1
176
1
 91
33
178
0
145
0.0
301
CELL_VALUE
 90
4
  1
X5K
304
ACVALUE_END
170
5
140
0.125
171
1
172
0
173
0
174
0
175
1
176
1
 91
33
178
0
145
0.0
301
CELL_VALUE
 90
4
  1
Gage Port (Plugged)
304
ACVALUE_END
170
5
140
0.125
171
1
172
0
173
0
174
0
175
1
176
1
 91
33
178
0
145
0.0
301
CELL_VALUE
 90
4
  1
SAE 4
304
ACVALUE_END
170
5
140
0.125
  0
MTEXT
  5
287
100
AcDbEntity
  8
0
100
AcDbMText
 62
2
  6
CONTINUOUS
  7
STANDARD
 71
1
 72
1
 10
0.52125
 20
5.75995
 30
0.0
 11
1.0
 21
0.0
 31
0.0
 44
0.6
  3
Notes\P \P1. Important: Carefully consider\P   the maximum system pressure. The\P   pressure rating of the manifold is\P   dependent on the manifold material,\P   with the port type/size a secondary\P   consideration. Manifolds\P   constructed of alu
  1
minum are not\P   rated for pressures higher than\P   3000 psi (210 bar), regardless of\P   the port type/size specified.
 40
0.1
 41
3.04
  0
LINE
  5
288
100
AcDbEntity
  8
0
100
AcDbLine
 62
7
  6
CONTINUOUS
 10
0.30125
 20
0.30125
 11
0.30125
 21
16.69875
  0
LINE
  5
289
100
AcDbEntity
  8
0
100
AcDbLine
 62
7
  6
CONTINUOUS
 10
0.30125
 20
0.30125
 11
21.69875
 21
0.30125
  0
LINE
  5
28A
100
AcDbEntity
  8
0
100
AcDbLine
 62
7
  6
CONTINUOUS
 10
0.30125
 20
16.69875
 11
21.69875
 21
16.69875
  0
LINE
  5
28B
100
AcDbEntity
  8
0
100
AcDbLine
 62
7
  6
CONTINUOUS
 10
21.69875
 20
0.30125
 11
21.69875
 21
16.69875
  0
LINE
  5
28C
100
AcDbEntity
  8
0
100
AcDbLine
 62
7
  6
CONTINUOUS
 10
8.906319683
 20
12.3494099593
 11
8.2592726043
 21
11.724410438
  0
LINE
  5
28D
100
AcDbEntity
  8
0
100
AcDbLine
 62
7
  6
CONTINUOUS
 10
10.7882445626
 20
4.7945369821
 11
10.8385758831
 21
4.7696742735
  0
LINE
  5
28E
100
AcDbEntity
  8
0
100
AcDbLine
 62
4
  6
CONTINUOUS
 10
10.3505022186
 20
11.4055164204
 11
10.3794799944
 21
11.4228253175
  0
LINE
  5
28F
100
AcDbEntity
  8
0
100
AcDbLine
 62
7
  6
CONTINUOUS
 10
8.2592726043
 20
11.724410438
 11
8.2592726043
 21
5.9288551369
  0
LINE
  5
290
100
AcDbEntity
  8
0
100
AcDbLine
 62
4
  6
CONTINUOUS
 10
10.4084577703
 20
11.2083120128
 11
10.3794799944
 21
11.1910031106
  0
LINE
  5
291
100
AcDbEntity
  8
0
100
AcDbLine
 62
7
  6
CONTINUOUS
 10
8.2592726043
 20
5.9288551369
 11
13.0889020219
 21
5.5939191992
  0
LINE
  5
292
100
AcDbEntity
  8
0
100
AcDbLine
 62
4
  6
CONTINUOUS
 10
8.664961657
 20
7.8712092567
 11
8.664961657
 21
7.6393870498
  0
LINE
  5
293
100
AcDbEntity
  8
0
100
AcDbLine
 62
4
  6
CONTINUOUS
 10
10.3360133307
 20
11.3872027017
 11
10.3505022186
 21
11.4055164204
  0
LINE
  5
294
100
AcDbEntity
  8
0
100
AcDbLine
 62
4
  6
CONTINUOUS
 10
11.3212575506
 20
6.1028761188
 11
11.2633019989
 21
6.10689535
  0
LINE
  5
295
100
AcDbEntity
  8
0
100
AcDbLine
 62
4
  6
CONTINUOUS
 10
10.8721020248
 20
6.1340251603
 11
10.8431242489
 21
6.1360347759
  0
LINE
  5
296
100
AcDbEntity
  8
0
100
AcDbLine
 62
4
  6
CONTINUOUS
 10
11.5096130937
 20
6.1670876888
 11
11.5965464213
 21
6.161058842
  0
LINE
  5
297
100
AcDbEntity
  8
0
100
AcDbLine
 62
4
  6
CONTINUOUS
 10
10.4229466582
 20
11.2266257229
 11
10.4084577703
 21
11.2083120128
  0
LINE
  5
298
100
AcDbEntity
  8
0
100
AcDbLine
 62
4
  6
CONTINUOUS
 10
10.8431242489
 20
6.3678569828
 11
10.8721020248
 21
6.3658473672
  0
LINE
  5
299
100
AcDbEntity
  8
0
100
AcDbLine
 62
4
  6
CONTINUOUS
 10
11.2633019989
 20
6.3387175568
 11
11.3212575506
 21
6.3346983257
  0
LINE
  5
29A
100
AcDbEntity
  8
0
100
AcDbLine
 62
4
  6
CONTINUOUS
 10
10.8431242489
 20
6.1360347759
 11
10.8141464731
 21
6.1573629093
  0
LINE
  5
29B
100
AcDbEntity
  8
0
100
AcDbLine
 62
4
  6
CONTINUOUS
 10
10.3215244427
 20
11.3495704843
 11
10.3360133307
 21
11.3872027017
  0
LINE
  5
29C
100
AcDbEntity
  8
0
100
AcDbLine
 62
4
  6
CONTINUOUS
 10
10.8721020248
 20
6.3658473672
 11
10.9010798007
 21
6.344519239
  0
LINE
  5
29D
100
AcDbEntity
  8
0
100
AcDbLine
 62
4
  6
CONTINUOUS
 10
11.3212575506
 20
6.3346983257
 11
11.3502353265
 21
6.3133701975
  0
LINE
  5
29E
100
AcDbEntity
  8
0
100
AcDbLine
 62
4
  6
CONTINUOUS
 10
9.5894905827
 20
8.7840580485
 11
9.5894905827
 21
8.8171755046
  0
LINE
  5
29F
100
AcDbEntity
  8
0
100
AcDbLine
 62
4
  6
CONTINUOUS
 10
9.6840133739
 20
11.4710560914
 11
9.6840133739
 21
11.2392338845
  0
LINE
  5
2A0
100
AcDbEntity
  8
0
100
AcDbLine
 62
4
  6
CONTINUOUS
 10
9.7054016861
 20
8.6435497512
 11
9.7054016861
 21
8.6766672108
  0
LINE
  5
2A1
100
AcDbEntity
  8
0
100
AcDbLine
 62
4
  6
CONTINUOUS
 10
9.7716365984
 20
8.8376610917
 11
9.7716365984
 21
8.6389563444
  0
LINE
  5
2A2
100
AcDbEntity
  8
0
100
AcDbLine
 62
4
  6
CONTINUOUS
 10
10.5388577617
 20
11.1799502249
 11
10.6113022013
 21
11.4067483928
  0
LINE
  5
2A3
100
AcDbEntity
  8
0
100
AcDbLine
 62
4
  6
CONTINUOUS
 10
10.4374355462
 20
11.2642579507
 11
10.4229466582
 21
11.2266257229
  0
LINE
  5
2A4
100
AcDbEntity
  8
0
100
AcDbLine
 62
7
  6
CONTINUOUS
 10
13.5338186286
 20
7.0839058202
 11
13.3734749319
 21
7.0950256934
  0
LINE
  5
2A5
100
AcDbEntity
  8
0
100
AcDbLine
 62
4
  6
CONTINUOUS
 10
9.7109212234
 20
7.5271086307
 11
9.7992344467
 21
7.4768274762
  0
LINE
  5
2A6
100
AcDbEntity
  8
0
100
AcDbLine
 62
4
  6
CONTINUOUS
 10
9.9261846953
 20
7.6446498898
 11
9.9593021514
 21
7.6092357302
  0
LINE
  5
2A7
100
AcDbEntity
  8
0
100
AcDbLine
 62
4
  6
CONTINUOUS
 10
10.8141464731
 20
6.1573629093
 11
10.7851686972
 21
6.1980095588
  0
LINE
  5
2A8
100
AcDbEntity
  8
0
100
AcDbLine
 62
4
  6
CONTINUOUS
 10
10.9010798007
 20
6.344519239
 11
10.9155686886
 21
6.3241959047
  0
LINE
  5
2A9
100
AcDbEntity
  8
0
100
AcDbLine
 62
4
  6
CONTINUOUS
 10
9.8433910618
 20
7.4185694409
 11
9.8433910618
 21
7.6503916477
  0
LINE
  5
2AA
100
AcDbEntity
  8
0
100
AcDbLine
 62
4
  6
CONTINUOUS
 10
9.8875477018
 20
8.6309178821
 11
9.8875477018
 21
8.8296226294
  0
LINE
  5
2AB
100
AcDbEntity
  8
0
100
AcDbLine
 62
4
  6
CONTINUOUS
 10
9.9537826141
 20
8.5932070157
 11
9.9537826141
 21
8.8250292226
  0
LINE
  5
2AC
100
AcDbEntity
  8
0
100
AcDbLine
 62
4
  6
CONTINUOUS
 10
9.9593021514
 20
7.6092357302
 11
9.9593021514
 21
7.4436484391
  0
LINE
  5
2AD
100
AcDbEntity
  8
0
100
AcDbLine
 62
4
  6
CONTINUOUS
 10
10.0696937176
 20
8.5851685534
 11
10.0696937176
 21
8.8169907603
  0
LINE
  5
2AE
100
AcDbEntity
  8
0
100
AcDbLine
 62
4
  6
CONTINUOUS
 10
9.5894905827
 20
8.8171755046
 11
9.6226080423
 21
8.8479962571
  0
LINE
  5
2AF
100
AcDbEntity
  8
0
100
AcDbLine
 62
4
  6
CONTINUOUS
 10
9.6722842299
 20
8.612728995
 11
9.7054016861
 21
8.6435497512
  0
LINE
  5
2B0
100
AcDbEntity
  8
0
100
AcDbLine
 62
4
  6
CONTINUOUS
 10
11.2564025656
 20
7.3205767603
 11
11.1736089045
 21
7.3263185202
  0
LINE
  5
2B1
100
AcDbEntity
  8
0
100
AcDbLine
 62
4
  6
CONTINUOUS
 10
11.0742565775
 20
7.3332086274
 11
11.0245803588
 21
7.3366536849
  0
LINE
  5
2B2
100
AcDbEntity
  8
0
100
AcDbLine
 62
4
  6
CONTINUOUS
 10
10.8976301447
 20
7.3454577121
 11
10.8313952601
 21
7.350051117
  0
LINE
  5
2B3
100
AcDbEntity
  8
0
100
AcDbLine
 62
4
  6
CONTINUOUS
 10
9.9261846953
 20
7.4128276829
 11
9.8433910618
 21
7.4185694409
  0
LINE
  5
2B4
100
AcDbEntity
  8
0
100
AcDbLine
 62
4
  6
CONTINUOUS
 10
10.4505444522
 20
7.3764632102
 11
10.5498968344
 21
7.3695730991
  0
LINE
  5
2B5
100
AcDbEntity
  8
0
100
AcDbLine
 62
4
  6
CONTINUOUS
 10
11.3833528902
 20
7.3117727253
 11
11.4827052172
 21
7.3048826181
  0
LINE
  5
2B6
100
AcDbEntity
  8
0
100
AcDbLine
 62
4
  6
CONTINUOUS
 10
10.0752132548
 20
7.4687274364
 11
10.1635264712
 21
7.462602894
  0
LINE
  5
2B7
100
AcDbEntity
  8
0
100
AcDbLine
 62
4
  6
CONTINUOUS
 10
11.4495877749
 20
7.4396491589
 11
11.3833528902
 21
7.4442425638
  0
LINE
  5
2B8
100
AcDbEntity
  8
0
100
AcDbLine
 62
4
  6
CONTINUOUS
 10
10.5167793921
 20
7.50433964
 11
10.4505444522
 21
7.5089330487
  0
LINE
  5
2B9
100
AcDbEntity
  8
0
100
AcDbLine
 62
4
  6
CONTINUOUS
 10
12.8039538782
 20
7.3523469644
 11
12.7749761024
 21
7.3543565799
  0
LINE
  5
2BA
100
AcDbEntity
  8
0
100
AcDbLine
 62
4
  6
CONTINUOUS
 10
9.8433910618
 20
7.6503916477
 11
9.9261846953
 21
7.6446498898
  0
LINE
  5
2BB
100
AcDbEntity
  8
0
100
AcDbLine
 62
4
  6
CONTINUOUS
 10
10.2518396876
 20
7.6220656393
 11
10.3843095122
 21
7.6128788258
  0
LINE
  5
2BC
100
AcDbEntity
  8
0
100
AcDbLine
 62
4
  6
CONTINUOUS
 10
10.4505444522
 20
7.6082854171
 11
10.5498968344
 21
7.601395306
  0
LINE
  5
2BD
100
AcDbEntity
  8
0
100
AcDbLine
 62
4
  6
CONTINUOUS
 10
10.8313952601
 20
7.5818733239
 11
10.8976301447
 21
7.577279919
  0
LINE
  5
2BE
100
AcDbEntity
  8
0
100
AcDbLine
 62
4
  6
CONTINUOUS
 10
11.0245803588
 20
7.5684758918
 11
11.0742565775
 21
7.5650308343
  0
LINE
  5
2BF
100
AcDbEntity
  8
0
100
AcDbLine
 62
4
  6
CONTINUOUS
 10
11.1736089045
 20
7.558140727
 11
11.2564025656
 21
7.5523989671
  0
LINE
  5
2C0
100
AcDbEntity
  8
0
100
AcDbLine
 62
4
  6
CONTINUOUS
 10
11.3833528902
 20
7.5435949322
 11
11.4827052172
 21
7.5367048249
  0
LINE
  5
2C1
100
AcDbEntity
  8
0
100
AcDbLine
 62
4
  6
CONTINUOUS
 10
12.7894649903
 20
7.4692628756
 11
12.847420542
 21
7.4652436444
  0
LINE
  5
2C2
100
AcDbEntity
  8
0
100
AcDbLine
 62
4
  6
CONTINUOUS
 10
9.5894905827
 20
8.6350294837
 11
9.6060493125
 21
8.6173224021
  0
LINE
  5
2C3
100
AcDbEntity
  8
0
100
AcDbLine
 62
4
  6
CONTINUOUS
 10
10.8313952601
 20
7.350051117
 11
10.7982778177
 21
7.385465279
  0
LINE
  5
2C4
100
AcDbEntity
  8
0
100
AcDbLine
 62
4
  6
CONTINUOUS
 10
11.3502353265
 20
6.3133701975
 11
11.3792131023
 21
6.2727235428
  0
LINE
  5
2C5
100
AcDbEntity
  8
0
100
AcDbLine
 62
4
  6
CONTINUOUS
 10
11.031479792
 20
6.3547944815
 11
11.1473908955
 21
6.1149338123
  0
LINE
  5
2C6
100
AcDbEntity
  8
0
100
AcDbLine
 62
4
  6
CONTINUOUS
 10
10.119369863
 20
7.6312524529
 11
10.185604803
 21
7.3948368373
  0
LINE
  5
2C7
100
AcDbEntity
  8
0
100
AcDbLine
 62
4
  6
CONTINUOUS
 10
10.1476577876
 20
11.4389022421
 11
10.1476577876
 21
11.2070800352
  0
LINE
  5
2C8
100
AcDbEntity
  8
0
100
AcDbLine
 62
4
  6
CONTINUOUS
 10
10.3180746276
 20
7.3856500238
 11
10.3180746276
 21
7.6174722306
  0
LINE
  5
2C9
100
AcDbEntity
  8
0
100
AcDbLine
 62
4
  6
CONTINUOUS
 10
10.3180746456
 20
8.5679432775
 11
10.3180746456
 21
8.7997654844
  0
LINE
  5
2CA
100
AcDbEntity
  8
0
100
AcDbLine
 62
4
  6
CONTINUOUS
 10
10.3215244427
 20
11.272296413
 11
10.3215244427
 21
11.3495704843
  0
LINE
  5
2CB
100
AcDbEntity
  8
0
100
AcDbLine
 62
4
  6
CONTINUOUS
 10
10.0531349507
 20
7.4040236528
 11
10.119369863
 21
7.6312524529
  0
LINE
  5
2CC
100
AcDbEntity
  8
0
100
AcDbLine
 62
7
  6
CONTINUOUS
 10
13.7359491006
 20
12.0144740216
 11
13.0889020219
 21
11.3894745003
  0
LINE
  5
2CD
100
AcDbEntity
  8
0
100
AcDbLine
 62
4
  6
CONTINUOUS
 10
9.8544302595
 20
8.6000971249
 11
9.8875477018
 21
8.6309178821
  0
LINE
  5
2CE
100
AcDbEntity
  8
0
100
AcDbLine
 62
7
  6
CONTINUOUS
 10
13.6299205585
 20
7.4890829759
 11
13.5540062454
 21
7.4943476514
  0
LINE
  5
2CF
100
AcDbEntity
  8
0
100
AcDbLine
 62
4
  6
CONTINUOUS
 10
12.7749761024
 20
7.5861787868
 11
12.8039538782
 21
7.5841691712
  0
LINE
  5
2D0
100
AcDbEntity
  8
0
100
AcDbLine
 62
4
  6
CONTINUOUS
 10
10.6326905186
 20
7.8738401927
 11
10.6989254447
 21
7.869246785
  0
LINE
  5
2D1
100
AcDbEntity
  8
0
100
AcDbLine
 62
7
  6
CONTINUOUS
 10
13.6580132335
 20
7.6978124838
 11
13.55509691
 21
7.7049497551
  0
LINE
  5
2D2
100
AcDbEntity
  8
0
100
AcDbLine
 62
4
  6
CONTINUOUS
 10
11.5489401018
 20
7.4437982037
 11
11.6372533182
 21
7.3935170462
  0
LINE
  5
2D3
100
AcDbEntity
  8
0
100
AcDbLine
 62
4
  6
CONTINUOUS
 10
9.7054016861
 20
8.6766672108
 11
9.5894905827
 21
8.7840580485
  0
LINE
  5
2D4
100
AcDbEntity
  8
0
100
AcDbLine
 62
4
  6
CONTINUOUS
 10
9.7716365984
 20
8.6389563444
 11
9.8047540545
 21
8.6035421814
  0
LINE
  5
2D5
100
AcDbEntity
  8
0
100
AcDbLine
 62
4
  6
CONTINUOUS
 10
11.0245803588
 20
7.3366536849
 11
10.9914629164
 21
7.3720678469
  0
LINE
  5
2D6
100
AcDbEntity
  8
0
100
AcDbLine
 62
4
  6
CONTINUOUS
 10
9.688842958
 20
8.8434028501
 11
9.7054016861
 21
8.8256957635
  0
LINE
  5
2D7
100
AcDbEntity
  8
0
100
AcDbLine
 62
4
  6
CONTINUOUS
 10
10.4339857679
 20
8.1194426209
 11
10.5664556063
 21
7.8784335995
  0
LINE
  5
2D8
100
AcDbEntity
  8
0
100
AcDbLine
 62
4
  6
CONTINUOUS
 10
9.9537826141
 20
8.8250292226
 11
10.0696937176
 21
8.5851685534
  0
LINE
  5
2D9
100
AcDbEntity
  8
0
100
AcDbLine
 62
4
  6
CONTINUOUS
 10
10.7851686972
 20
6.1980095588
 11
10.7706798093
 21
6.2569699183
  0
LINE
  5
2DA
100
AcDbEntity
  8
0
100
AcDbLine
 62
4
  6
CONTINUOUS
 10
10.4174270278
 20
8.710081726
 11
10.4174270278
 21
8.5610531664
  0
LINE
  5
2DB
100
AcDbEntity
  8
0
100
AcDbLine
 62
4
  6
CONTINUOUS
 10
10.4374355462
 20
11.3415320219
 11
10.4374355462
 21
11.2642579507
  0
LINE
  5
2DC
100
AcDbEntity
  8
0
100
AcDbLine
 62
4
  6
CONTINUOUS
 10
10.4505444522
 20
7.3764632102
 11
10.4505444522
 21
7.6082854171
  0
LINE
  5
2DD
100
AcDbEntity
  8
0
100
AcDbLine
 62
4
  6
CONTINUOUS
 10
10.6271709582
 20
8.5630661052
 11
10.6271709582
 21
8.695535935
  0
LINE
  5
2DE
100
AcDbEntity
  8
0
100
AcDbLine
 62
4
  6
CONTINUOUS
 10
10.6326905186
 20
8.0063100311
 11
10.6326905186
 21
8.1056623996
  0
LINE
  5
2DF
100
AcDbEntity
  8
0
100
AcDbLine
 62
7
  6
CONTINUOUS
 10
10.6420778099
 20
5.7293938196
 11
10.6420778099
 21
4.8881953681
  0
LINE
  5
2E0
100
AcDbEntity
  8
0
100
AcDbLine
 62
7
  6
CONTINUOUS
 10
10.6727362828
 20
5.6997800594
 11
10.6727362828
 21
4.8585816079
  0
LINE
  5
2E1
100
AcDbEntity
  8
0
100
AcDbLine
 62
4
  6
CONTINUOUS
 10
10.7265232852
 20
8.771439475
 11
10.7265232852
 21
8.5396172682
  0
LINE
  5
2E2
100
AcDbEntity
  8
0
100
AcDbLine
 62
4
  6
CONTINUOUS
 10
10.5167794101
 20
8.4989672916
 11
10.5830142948
 21
8.715156945
  0
LINE
  5
2E3
100
AcDbEntity
  8
0
100
AcDbLine
 62
4
  6
CONTINUOUS
 10
10.6271709582
 20
8.695535935
 11
10.6602884006
 21
8.7097979676
  0
LINE
  5
2E4
100
AcDbEntity
  8
0
100
AcDbLine
 62
4
  6
CONTINUOUS
 10
10.6989254447
 20
8.0017166234
 11
10.6326905186
 21
8.0063100311
  0
LINE
  5
2E5
100
AcDbEntity
  8
0
100
AcDbLine
 62
4
  6
CONTINUOUS
 10
10.6326905186
 20
8.1056623996
 11
10.7320428871
 21
8.0987722894
  0
LINE
  5
2E6
100
AcDbEntity
  8
0
100
AcDbLine
 62
4
  6
CONTINUOUS
 10
11.0742565775
 20
7.5650308343
 11
11.1073740199
 21
7.5296166757
  0
LINE
  5
2E7
100
AcDbEntity
  8
0
100
AcDbLine
 62
4
  6
CONTINUOUS
 10
10.7320428871
 20
7.9663024579
 11
10.6989254447
 21
8.0017166234
  0
LINE
  5
2E8
100
AcDbEntity
  8
0
100
AcDbLine
 62
4
  6
CONTINUOUS
 10
11.2564025656
 20
7.5523989671
 11
11.289520008
 21
7.5169848085
  0
LINE
  5
2E9
100
AcDbEntity
  8
0
100
AcDbLine
 62
4
  6
CONTINUOUS
 10
10.4008683067
 20
8.7277888122
 11
10.4174270278
 21
8.710081726
  0
LINE
  5
2EA
100
AcDbEntity
  8
0
100
AcDbLine
 62
4
  6
CONTINUOUS
 10
10.8479539905
 20
7.9913814587
 11
10.9141889028
 21
7.8543182135
  0
LINE
  5
2EB
100
AcDbEntity
  8
0
100
AcDbLine
 62
4
  6
CONTINUOUS
 10
10.4836619678
 20
8.7220470523
 11
10.5333381865
 21
8.5530147003
  0
LINE
  5
2EC
100
AcDbEntity
  8
0
100
AcDbLine
 62
4
  6
CONTINUOUS
 10
10.7320428871
 20
7.9000675422
 11
10.7320428871
 21
7.9663024579
  0
LINE
  5
2ED
100
AcDbEntity
  8
0
100
AcDbLine
 62
4
  6
CONTINUOUS
 10
10.7927582804
 20
8.5350238556
 11
10.7927582804
 21
8.7006111502
  0
LINE
  5
2EE
100
AcDbEntity
  8
0
100
AcDbLine
 62
4
  6
CONTINUOUS
 10
10.7982777994
 20
7.8623566758
 11
10.7982777994
 21
8.0941788827
  0
LINE
  5
2EF
100
AcDbEntity
  8
0
100
AcDbLine
 62
4
  6
CONTINUOUS
 10
10.7982778177
 20
7.385465279
 11
10.7982778177
 21
7.5510525701
  0
LINE
  5
2F0
100
AcDbEntity
  8
0
100
AcDbLine
 62
4
  6
CONTINUOUS
 10
10.8700322757
 20
8.6786934455
 11
10.8700322757
 21
8.6455759893
  0
LINE
  5
2F1
100
AcDbEntity
  8
0
100
AcDbLine
 62
4
  6
CONTINUOUS
 10
10.9417868262
 20
8.5412474207
 11
10.9417868262
 21
8.5909236101
  0
LINE
  5
2F2
100
AcDbEntity
  8
0
100
AcDbLine
 62
4
  6
CONTINUOUS
 10
10.9914629164
 20
7.3720678469
 11
10.9914629164
 21
7.537655138
  0
LINE
  5
2F3
100
AcDbEntity
  8
0
100
AcDbLine
 62
4
  6
CONTINUOUS
 10
11.0411391532
 20
8.5177985836
 11
11.0411391532
 21
8.650268422
  0
LINE
  5
2F4
100
AcDbEntity
  8
0
100
AcDbLine
 62
4
  6
CONTINUOUS
 10
10.4339857679
 20
7.887620414
 11
10.5664556063
 21
8.1102558064
  0
LINE
  5
2F5
100
AcDbEntity
  8
0
100
AcDbLine
 62
4
  6
CONTINUOUS
 10
12.7170205506
 20
9.6959164951
 11
12.7459983265
 21
9.7132253922
  0
LINE
  5
2F6
100
AcDbEntity
  8
0
100
AcDbLine
 62
4
  6
CONTINUOUS
 10
12.8039538782
 20
9.6126135702
 11
12.7459983265
 21
9.5779957692
  0
LINE
  5
2F7
100
AcDbEntity
  8
0
100
AcDbLine
 62
4
  6
CONTINUOUS
 10
10.9417868262
 20
8.5909236101
 11
10.9749042685
 21
8.6051856357
  0
LINE
  5
2F8
100
AcDbEntity
  8
0
100
AcDbLine
 62
7
  6
CONTINUOUS
 10
13.6117198872
 20
8.207207825
 11
13.4513761906
 21
8.2183276981
  0
LINE
  5
2F9
100
AcDbEntity
  8
0
100
AcDbLine
 62
4
  6
CONTINUOUS
 10
10.4836619678
 20
8.501263994
 11
10.5167794101
 21
8.4989672916
  0
LINE
  5
2FA
100
AcDbEntity
  8
0
100
AcDbLine
 62
4
  6
CONTINUOUS
 10
11.5930968939
 20
8.4795201843
 11
11.5268617881
 21
8.4841136045
  0
LINE
  5
2FB
100
AcDbEntity
  8
0
100
AcDbLine
 62
4
  6
CONTINUOUS
 10
11.3226375788
 20
8.4982766015
 11
11.2895201365
 21
8.5005733039
  0
LINE
  5
2FC
100
AcDbEntity
  8
0
100
AcDbLine
 62
4
  6
CONTINUOUS
 10
11.0411391532
 20
8.5177985836
 11
10.9749042685
 21
8.5223919885
  0
LINE
  5
2FD
100
AcDbEntity
  8
0
100
AcDbLine
 62
4
  6
CONTINUOUS
 10
10.7265232852
 20
8.5396172682
 11
10.6602884006
 21
8.544210673
  0
LINE
  5
2FE
100
AcDbEntity
  8
0
100
AcDbLine
 62
4
  6
CONTINUOUS
 10
9.6060493125
 20
8.6173224021
 11
9.6722842299
 21
8.612728995
  0
LINE
  5
2FF
100
AcDbEntity
  8
0
100
AcDbLine
 62
4
  6
CONTINUOUS
 10
9.8047540545
 20
8.6035421814
 11
9.8544302595
 21
8.6000971249
  0
LINE
  5
300
100
AcDbEntity
  8
0
100
AcDbLine
 62
4
  6
CONTINUOUS
 10
11.1239328143
 20
8.5120568237
 11
11.2067264754
 21
8.5063150638
  0
LINE
  5
301
100
AcDbEntity
  8
0
100
AcDbLine
 62
4
  6
CONTINUOUS
 10
11.6758904444
 20
8.4737784321
 11
11.7421253291
 21
8.4691850272
  0
LINE
  5
302
100
AcDbEntity
  8
0
100
AcDbLine
 62
4
  6
CONTINUOUS
 10
10.6602884006
 20
8.544210673
 11
10.6271709582
 21
8.5630661052
  0
LINE
  5
303
100
AcDbEntity
  8
0
100
AcDbLine
 62
4
  6
CONTINUOUS
 10
10.9749042685
 20
8.5223919885
 11
10.9417868262
 21
8.5412474207
  0
LINE
  5
304
100
AcDbEntity
  8
0
100
AcDbLine
 62
4
  6
CONTINUOUS
 10
10.8589931651
 20
8.6960177454
 11
10.8700322757
 21
8.6786934455
  0
LINE
  5
305
100
AcDbEntity
  8
0
100
AcDbLine
 62
4
  6
CONTINUOUS
 10
11.5530797575
 20
6.318621401
 11
11.6255241971
 21
6.0817751552
  0
LINE
  5
306
100
AcDbEntity
  8
0
100
AcDbLine
 62
4
  6
CONTINUOUS
 10
11.3792131023
 20
6.2727235428
 11
11.3937019902
 21
6.2137631833
  0
LINE
  5
307
100
AcDbEntity
  8
0
100
AcDbLine
 62
4
  6
CONTINUOUS
 10
11.1073740199
 20
7.5296166757
 11
11.1073740199
 21
7.3640293846
  0
LINE
  5
308
100
AcDbEntity
  8
0
100
AcDbLine
 62
4
  6
CONTINUOUS
 10
11.1073740379
 20
8.6787924733
 11
11.1073740379
 21
8.5297639086
  0
LINE
  5
309
100
AcDbEntity
  8
0
100
AcDbLine
 62
4
  6
CONTINUOUS
 10
11.1736089045
 20
7.3263185202
 11
11.1736089045
 21
7.558140727
  0
LINE
  5
30A
100
AcDbEntity
  8
0
100
AcDbLine
 62
4
  6
CONTINUOUS
 10
11.2067264754
 20
8.5063150638
 11
11.2067264754
 21
8.6719023584
  0
LINE
  5
30B
100
AcDbEntity
  8
0
100
AcDbLine
 62
4
  6
CONTINUOUS
 10
11.2633019989
 20
6.10689535
 11
11.2633019989
 21
6.3387175568
  0
LINE
  5
30C
100
AcDbEntity
  8
0
100
AcDbLine
 62
4
  6
CONTINUOUS
 10
11.2729613601
 20
8.5182803888
 11
11.2729613601
 21
8.7335438658
  0
LINE
  5
30D
100
AcDbEntity
  8
0
100
AcDbLine
 62
4
  6
CONTINUOUS
 10
11.289520008
 20
7.5169848085
 11
11.289520008
 21
7.3513975174
  0
LINE
  5
30E
100
AcDbEntity
  8
0
100
AcDbLine
 62
7
  6
CONTINUOUS
 10
11.29047889
 20
5.5398967104
 11
11.29047889
 21
4.6986982589
  0
LINE
  5
30F
100
AcDbEntity
  8
0
100
AcDbLine
 62
4
  6
CONTINUOUS
 10
10.7706798093
 20
6.2569699183
 11
10.7851686972
 21
6.3139206622
  0
LINE
  5
310
100
AcDbEntity
  8
0
100
AcDbLine
 62
4
  6
CONTINUOUS
 10
11.4275094611
 20
8.7228259186
 11
11.4219899058
 21
8.7066499661
  0
LINE
  5
311
100
AcDbEntity
  8
0
100
AcDbLine
 62
4
  6
CONTINUOUS
 10
10.7982777994
 20
7.9396307471
 11
10.9141889028
 21
8.0861404203
  0
LINE
  5
312
100
AcDbEntity
  8
0
100
AcDbLine
 62
4
  6
CONTINUOUS
 10
9.9593021514
 20
7.4436484391
 11
9.9261846953
 21
7.4128276829
  0
LINE
  5
313
100
AcDbEntity
  8
0
100
AcDbLine
 62
4
  6
CONTINUOUS
 10
11.5103031222
 20
8.6342905114
 11
11.5268617881
 21
8.649700899
  0
LINE
  5
314
100
AcDbEntity
  8
0
100
AcDbLine
 62
4
  6
CONTINUOUS
 10
10.6989254447
 20
7.869246785
 11
10.7320428871
 21
7.9000675422
  0
LINE
  5
315
100
AcDbEntity
  8
0
100
AcDbLine
 62
4
  6
CONTINUOUS
 10
10.9749042685
 20
8.6051856357
 11
11.0411391532
 21
8.6005922309
  0
LINE
  5
316
100
AcDbEntity
  8
0
100
AcDbLine
 62
4
  6
CONTINUOUS
 10
11.0245804873
 20
8.6845342256
 11
10.9417868262
 21
8.6902759855
  0
LINE
  5
317
100
AcDbEntity
  8
0
100
AcDbLine
 62
4
  6
CONTINUOUS
 10
10.3180746456
 20
8.7335305721
 11
10.4008683067
 21
8.7277888122
  0
LINE
  5
318
100
AcDbEntity
  8
0
100
AcDbLine
 62
4
  6
CONTINUOUS
 10
10.6602884006
 20
8.7097979676
 11
10.7265232852
 21
8.7052045627
  0
LINE
  5
319
100
AcDbEntity
  8
0
100
AcDbLine
 62
4
  6
CONTINUOUS
 10
10.7927582804
 20
8.7006111502
 11
10.8589931651
 21
8.6960177454
  0
LINE
  5
31A
100
AcDbEntity
  8
0
100
AcDbLine
 62
4
  6
CONTINUOUS
 10
11.5268617881
 20
8.649700899
 11
11.5930968939
 21
8.6451074788
  0
LINE
  5
31B
100
AcDbEntity
  8
0
100
AcDbLine
 62
4
  6
CONTINUOUS
 10
11.6758904444
 20
8.6393657266
 11
11.7421253291
 21
8.6347723218
  0
LINE
  5
31C
100
AcDbEntity
  8
0
100
AcDbLine
 62
4
  6
CONTINUOUS
 10
9.6226080423
 20
8.8479962571
 11
9.688842958
 21
8.8434028501
  0
LINE
  5
31D
100
AcDbEntity
  8
0
100
AcDbLine
 62
4
  6
CONTINUOUS
 10
11.4219899058
 20
8.7232087011
 11
11.4275094611
 21
8.7228259186
  0
LINE
  5
31E
100
AcDbEntity
  8
0
100
AcDbLine
 62
4
  6
CONTINUOUS
 10
11.7421253291
 20
8.5464590985
 11
11.6758904444
 21
8.5620916554
  0
LINE
  5
31F
100
AcDbEntity
  8
0
100
AcDbLine
 62
4
  6
CONTINUOUS
 10
12.7749761024
 20
7.3543565799
 11
12.7459983265
 21
7.3756847133
  0
LINE
  5
320
100
AcDbEntity
  8
0
100
AcDbLine
 62
4
  6
CONTINUOUS
 10
12.8039538782
 20
7.5841691712
 11
12.8329316541
 21
7.562841043
  0
LINE
  5
321
100
AcDbEntity
  8
0
100
AcDbLine
 62
4
  6
CONTINUOUS
 10
11.1073740379
 20
8.5297639086
 11
11.1239328143
 21
8.5120568237
  0
LINE
  5
322
100
AcDbEntity
  8
0
100
AcDbLine
 62
4
  6
CONTINUOUS
 10
11.2895201365
 20
8.5005733039
 11
11.2729613601
 21
8.5182803888
  0
LINE
  5
323
100
AcDbEntity
  8
0
100
AcDbLine
 62
4
  6
CONTINUOUS
 10
11.0411391532
 20
8.650268422
 11
11.0245804873
 21
8.6845342256
  0
LINE
  5
324
100
AcDbEntity
  8
0
100
AcDbLine
 62
4
  6
CONTINUOUS
 10
10.3360133307
 20
11.2326545696
 11
10.3215244427
 21
11.272296413
  0
LINE
  5
325
100
AcDbEntity
  8
0
100
AcDbLine
 62
4
  6
CONTINUOUS
 10
11.3833528902
 20
7.3117727253
 11
11.3833528902
 21
7.5435949322
  0
LINE
  5
326
100
AcDbEntity
  8
0
100
AcDbLine
 62
7
  6
CONTINUOUS
 10
11.4048977809
 20
5.5319617334
 11
11.4048977809
 21
4.6907632819
  0
LINE
  5
327
100
AcDbEntity
  8
0
100
AcDbLine
 62
4
  6
CONTINUOUS
 10
11.4219899058
 20
8.4913864942
 11
11.4219899058
 21
8.6569737888
  0
LINE
  5
328
100
AcDbEntity
  8
0
100
AcDbLine
 62
4
  6
CONTINUOUS
 10
11.4219899058
 20
8.7066499661
 11
11.4219899058
 21
8.7232087011
  0
LINE
  5
329
100
AcDbEntity
  8
0
100
AcDbLine
 62
4
  6
CONTINUOUS
 10
11.5103031222
 20
8.5018206817
 11
11.5103031222
 21
8.6342905114
  0
LINE
  5
32A
100
AcDbEntity
  8
0
100
AcDbLine
 62
4
  6
CONTINUOUS
 10
11.6593317785
 20
8.5742791548
 11
11.6593317785
 21
8.623955339
  0
LINE
  5
32B
100
AcDbEntity
  8
0
100
AcDbLine
 62
4
  6
CONTINUOUS
 10
12.7025316627
 20
9.6776027765
 11
12.7170205506
 21
9.6959164951
  0
LINE
  5
32C
100
AcDbEntity
  8
0
100
AcDbLine
 62
4
  6
CONTINUOUS
 10
11.6593317785
 20
8.623955339
 11
11.6758904444
 21
8.6393657266
  0
LINE
  5
32D
100
AcDbEntity
  8
0
100
AcDbLine
 62
4
  6
CONTINUOUS
 10
11.7421253291
 20
8.4691850272
 11
11.758683995
 21
8.4845954096
  0
LINE
  5
32E
100
AcDbEntity
  8
0
100
AcDbLine
 62
4
  6
CONTINUOUS
 10
10.7982778177
 20
7.5510525701
 11
10.8313952601
 21
7.5818733239
  0
LINE
  5
32F
100
AcDbEntity
  8
0
100
AcDbLine
 62
4
  6
CONTINUOUS
 10
9.7992344467
 20
7.565140703
 11
9.7109212234
 21
7.5271086307
  0
LINE
  5
330
100
AcDbEntity
  8
0
100
AcDbLine
 62
4
  6
CONTINUOUS
 10
11.6758904444
 20
8.5620916554
 11
11.6593317785
 21
8.5742791548
  0
LINE
  5
331
100
AcDbEntity
  8
0
100
AcDbLine
 62
4
  6
CONTINUOUS
 10
11.758683995
 20
8.534271599
 11
11.7421253291
 21
8.5464590985
  0
LINE
  5
332
100
AcDbEntity
  8
0
100
AcDbLine
 62
4
  6
CONTINUOUS
 10
11.5268617881
 20
8.4841136045
 11
11.5103031222
 21
8.5018206817
  0
LINE
  5
333
100
AcDbEntity
  8
0
100
AcDbLine
 62
4
  6
CONTINUOUS
 10
11.6593317785
 20
8.4914855092
 11
11.6758904444
 21
8.4737784321
  0
LINE
  5
334
100
AcDbEntity
  8
0
100
AcDbLine
 62
4
  6
CONTINUOUS
 10
11.7421253291
 20
8.6347723218
 11
11.758683995
 21
8.6170652394
  0
LINE
  5
335
100
AcDbEntity
  8
0
100
AcDbLine
 62
4
  6
CONTINUOUS
 10
10.4229466582
 20
11.381173855
 11
10.4374355462
 21
11.3415320219
  0
LINE
  5
336
100
AcDbEntity
  8
0
100
AcDbLine
 62
4
  6
CONTINUOUS
 10
10.6113022013
 20
11.4067483928
 11
10.683746641
 21
11.169902147
  0
LINE
  5
337
100
AcDbEntity
  8
0
100
AcDbLine
 62
4
  6
CONTINUOUS
 10
11.758683995
 20
8.4845954096
 11
11.758683995
 21
8.534271599
  0
LINE
  5
338
100
AcDbEntity
  8
0
100
AcDbLine
 62
4
  6
CONTINUOUS
 10
11.3937019902
 20
6.2137631833
 11
11.3792131023
 21
6.1568124394
  0
LINE
  5
339
100
AcDbEntity
  8
0
100
AcDbLine
 62
4
  6
CONTINUOUS
 10
12.7459983265
 20
9.5779957692
 11
12.7170205506
 21
9.5413683526
  0
LINE
  5
33A
100
AcDbEntity
  8
0
100
AcDbLine
 62
4
  6
CONTINUOUS
 10
12.8184427661
 20
9.6309272889
 11
12.8039538782
 21
9.6126135702
  0
LINE
  5
33B
100
AcDbEntity
  8
0
100
AcDbLine
 62
4
  6
CONTINUOUS
 10
10.9914629164
 20
7.537655138
 11
11.0245803588
 21
7.5684758918
  0
LINE
  5
33C
100
AcDbEntity
  8
0
100
AcDbLine
 62
4
  6
CONTINUOUS
 10
11.1073740199
 20
7.3640293846
 11
11.0742565775
 21
7.3332086274
  0
LINE
  5
33D
100
AcDbEntity
  8
0
100
AcDbLine
 62
7
  6
CONTINUOUS
 10
13.3385413172
 20
7.1165844941
 11
13.3118311486
 21
7.1494260422
  0
LINE
  5
33E
100
AcDbEntity
  8
0
100
AcDbLine
 62
4
  6
CONTINUOUS
 10
12.7459983265
 20
7.3756847133
 11
12.7170205506
 21
7.4163313628
  0
LINE
  5
33F
100
AcDbEntity
  8
0
100
AcDbLine
 62
4
  6
CONTINUOUS
 10
12.8329316541
 20
7.562841043
 11
12.847420542
 21
7.5425177088
  0
LINE
  5
340
100
AcDbEntity
  8
0
100
AcDbLine
 62
7
  6
CONTINUOUS
 10
12.2487496387
 20
5.590483162
 11
12.2487496387
 21
4.7492847105
  0
LINE
  5
341
100
AcDbEntity
  8
0
100
AcDbLine
 62
4
  6
CONTINUOUS
 10
11.4806353178
 20
6.0918232331
 11
11.5530797575
 21
6.318621401
  0
LINE
  5
342
100
AcDbEntity
  8
0
100
AcDbLine
 62
4
  6
CONTINUOUS
 10
11.031479792
 20
6.1229722746
 11
11.1473908955
 21
6.3467560192
  0
LINE
  5
343
100
AcDbEntity
  8
0
100
AcDbLine
 62
4
  6
CONTINUOUS
 10
10.7851686972
 20
6.3139206622
 11
10.8141464731
 21
6.3505480857
  0
LINE
  5
344
100
AcDbEntity
  8
0
100
AcDbLine
 62
4
  6
CONTINUOUS
 10
11.289520008
 20
7.3513975174
 11
11.2564025656
 21
7.3205767603
  0
LINE
  5
345
100
AcDbEntity
  8
0
100
AcDbLine
 62
4
  6
CONTINUOUS
 10
11.6372533182
 20
7.3935170462
 11
11.5489401018
 21
7.3554849769
  0
LINE
  5
346
100
AcDbEntity
  8
0
100
AcDbLine
 62
4
  6
CONTINUOUS
 10
12.7025316627
 20
9.4844176087
 11
12.8184427661
 21
9.4763791464
  0
LINE
  5
347
100
AcDbEntity
  8
0
100
AcDbLine
 62
4
  6
CONTINUOUS
 10
10.3505022186
 20
11.212331244
 11
10.3360133307
 21
11.2326545696
  0
LINE
  5
348
100
AcDbEntity
  8
0
100
AcDbLine
 62
4
  6
CONTINUOUS
 10
10.4084577703
 20
11.4014971892
 11
10.4229466582
 21
11.381173855
  0
LINE
  5
349
100
AcDbEntity
  8
0
100
AcDbLine
 62
7
  6
CONTINUOUS
 10
12.3325100567
 20
5.6121619451
 11
12.3325100567
 21
4.7709634936
  0
LINE
  5
34A
100
AcDbEntity
  8
0
100
AcDbLine
 62
7
  6
CONTINUOUS
 10
12.5586193073
 20
5.6306944304
 11
12.5586193073
 21
4.9893682713
  0
LINE
  5
34B
100
AcDbEntity
  8
0
100
AcDbLine
 62
4
  6
CONTINUOUS
 10
12.7170205506
 20
9.5413683526
 11
12.7025316627
 21
9.4844176087
  0
LINE
  5
34C
100
AcDbEntity
  8
0
100
AcDbLine
 62
4
  6
CONTINUOUS
 10
10.9155686886
 20
6.1696477726
 11
10.9010798007
 21
6.1513340625
  0
LINE
  5
34D
100
AcDbEntity
  8
0
100
AcDbLine
 62
4
  6
CONTINUOUS
 10
12.7459983265
 20
9.7132253922
 11
12.7749761024
 21
9.7112157766
  0
LINE
  5
34E
100
AcDbEntity
  8
0
100
AcDbLine
 62
4
  6
CONTINUOUS
 10
12.7170205506
 20
7.4163313628
 11
12.7025316627
 21
7.4752917223
  0
LINE
  5
34F
100
AcDbEntity
  8
0
100
AcDbLine
 62
4
  6
CONTINUOUS
 10
12.8184427661
 20
9.6695643142
 11
12.8184427661
 21
9.6309272889
  0
LINE
  5
350
100
AcDbEntity
  8
0
100
AcDbLine
 62
4
  6
CONTINUOUS
 10
12.847420542
 20
7.4652436444
 11
12.847420542
 21
7.3879695766
  0
LINE
  5
351
100
AcDbEntity
  8
0
100
AcDbLine
 62
4
  6
CONTINUOUS
 10
12.7025316627
 20
7.4752917223
 11
12.7170205506
 21
7.5322424662
  0
LINE
  5
352
100
AcDbEntity
  8
0
100
AcDbLine
 62
4
  6
CONTINUOUS
 10
11.3792131023
 20
6.1568124394
 11
11.3502353265
 21
6.120185021
  0
LINE
  5
353
100
AcDbEntity
  8
0
100
AcDbLine
 62
7
  6
CONTINUOUS
 10
13.4124255613
 20
8.2004929682
 11
13.4138010875
 21
8.2017973941
  0
LINE
  5
354
100
AcDbEntity
  8
0
100
AcDbLine
 62
7
  6
CONTINUOUS
 10
13.381515933
 20
8.1717269299
 11
13.3828219875
 21
8.1729618882
  0
LINE
  5
355
100
AcDbEntity
  8
0
100
AcDbLine
 62
7
  6
CONTINUOUS
 10
13.4124134767
 20
8.2005059526
 11
13.3828132765
 21
8.1729572144
  0
LINE
  5
356
100
AcDbEntity
  8
0
100
AcDbLine
 62
4
  6
CONTINUOUS
 10
12.7459983265
 20
7.5688698897
 11
12.7749761024
 21
7.5861787868
  0
LINE
  5
357
100
AcDbEntity
  8
0
100
AcDbLine
 62
4
  6
CONTINUOUS
 10
10.8141464731
 20
6.3505480857
 11
10.8431242489
 21
6.3678569828
  0
LINE
  5
358
100
AcDbEntity
  8
0
100
AcDbLine
 62
4
  6
CONTINUOUS
 10
12.8329316541
 20
7.3696558666
 11
12.8039538782
 21
7.3523469644
  0
LINE
  5
359
100
AcDbEntity
  8
0
100
AcDbLine
 62
4
  6
CONTINUOUS
 10
10.3794799944
 20
11.1910031106
 11
10.3505022186
 21
11.212331244
  0
LINE
  5
35A
100
AcDbEntity
  8
0
100
AcDbLine
 62
7
  6
CONTINUOUS
 10
13.6733636705
 20
8.1528074761
 11
13.646653502
 21
8.1856490243
  0
LINE
  5
35B
100
AcDbEntity
  8
0
100
AcDbLine
 62
7
  6
CONTINUOUS
 10
13.0889020219
 20
5.5939191992
 11
13.0889020219
 21
11.3894745003
  0
LINE
  5
35C
100
AcDbEntity
  8
0
100
AcDbLine
 62
4
  6
CONTINUOUS
 10
12.7170205506
 20
7.5322424662
 11
12.7459983265
 21
7.5688698897
  0
LINE
  5
35D
100
AcDbEntity
  8
0
100
AcDbLine
 62
4
  6
CONTINUOUS
 10
12.847420542
 20
7.3879695766
 11
12.8329316541
 21
7.3696558666
  0
LINE
  5
35E
100
AcDbEntity
  8
0
100
AcDbLine
 62
4
  6
CONTINUOUS
 10
10.9010798007
 20
6.1513340625
 11
10.8721020248
 21
6.1340251603
  0
LINE
  5
35F
100
AcDbEntity
  8
0
100
AcDbLine
 62
4
  6
CONTINUOUS
 10
11.3502353265
 20
6.120185021
 11
11.3212575506
 21
6.1028761188
  0
LINE
  5
360
100
AcDbEntity
  8
0
100
AcDbLine
 62
4
  6
CONTINUOUS
 10
10.3794799944
 20
11.4228253175
 11
10.4084577703
 21
11.4014971892
  0
LINE
  5
361
100
AcDbEntity
  8
0
100
AcDbLine
 62
4
  6
CONTINUOUS
 10
12.7749761024
 20
9.7112157766
 11
12.8039538782
 21
9.6898876484
  0
LINE
  5
362
100
AcDbEntity
  8
0
100
AcDbLine
 62
4
  6
CONTINUOUS
 10
12.8039538782
 20
9.6898876484
 11
12.8184427661
 21
9.6695643142
  0
LINE
  5
363
100
AcDbEntity
  8
0
100
AcDbLine
 62
7
  6
CONTINUOUS
 10
13.6042188946
 20
7.8554607098
 11
13.6036788862
 21
7.8549510011
  0
LINE
  5
364
100
AcDbEntity
  8
0
100
AcDbLine
 62
7
  6
CONTINUOUS
 10
13.7359491006
 20
6.2189187204
 11
13.7359491006
 21
7.6362716893
  0
LINE
  5
365
100
AcDbEntity
  8
0
100
AcDbLine
 62
7
  6
CONTINUOUS
 10
13.7359491006
 20
7.9060812234
 11
13.7359491006
 21
12.0144740216
  0
LINE
  5
366
100
AcDbEntity
  8
0
100
AcDbLine
 62
7
  6
CONTINUOUS
 10
13.6036788862
 20
7.1305065885
 11
13.6023728316
 21
7.1292716302
  0
LINE
  5
367
100
AcDbEntity
  8
0
100
AcDbLine
 62
7
  6
CONTINUOUS
 10
13.6023815427
 20
7.129276304
 11
13.5713937317
 21
7.1004361243
  0
LINE
  5
368
100
AcDbEntity
  8
0
100
AcDbLine
 62
4
  6
CONTINUOUS
 10
10.5678355375
 20
11.2552146806
 11
10.6547688651
 21
11.2491858338
  0
LINE
  5
369
100
AcDbEntity
  8
0
100
AcDbLine
 62
4
  6
CONTINUOUS
 10
9.8723689169
 20
11.3420824867
 11
9.9593022445
 21
11.33605364
  0
LINE
  5
36A
100
AcDbEntity
  8
0
100
AcDbLine
 62
4
  6
CONTINUOUS
 10
9.6115689342
 20
11.4760801304
 11
9.7564578135
 21
11.4660320525
  0
LINE
  5
36B
100
AcDbEntity
  8
0
100
AcDbLine
 62
7
  6
CONTINUOUS
 10
13.0889020219
 20
11.3894745003
 11
8.2592726043
 21
11.724410438
  0
LINE
  5
36C
100
AcDbEntity
  8
0
100
AcDbLine
 62
7
  6
CONTINUOUS
 10
13.7359491006
 20
6.2189187204
 11
13.0889020219
 21
5.5939191992
  0
LINE
  5
36D
100
AcDbEntity
  8
0
100
AcDbLine
 62
7
  6
CONTINUOUS
 10
13.7359491006
 20
12.0144740216
 11
8.906319683
 21
12.3494099593
  0
LINE
  5
36E
100
AcDbEntity
  8
0
100
AcDbLine
 62
7
  6
CONTINUOUS
 10
12.3947269782
 20
4.7857808867
 11
12.3621212341
 21
4.7696742735
  0
ARC
  5
36F
100
AcDbEntity
  8
0
100
AcDbCircle
 62
7
  6
CONTINUOUS
 10
11.5900735264
 20
8.2003217149
 40
3.5144402757
100
AcDbArc
 50
266.0376720962
 51
266.9796885983
  0
ARC
  5
370
100
AcDbEntity
  8
0
100
AcDbCircle
 62
7
  6
CONTINUOUS
 10
11.5900735264
 20
9.0415201663
 40
3.5144402757
100
AcDbArc
 50
266.0376720962
 51
266.9796885983
  0
ARC
  5
371
100
AcDbEntity
  8
0
100
AcDbCircle
 62
7
  6
CONTINUOUS
 10
11.579705927
 20
8.0482364586
 40
3.3620021461
100
AcDbArc
 50
265.0648462661
 51
266.0348369886
  0
ARC
  5
372
100
AcDbEntity
  8
0
100
AcDbCircle
 62
7
  6
CONTINUOUS
 10
11.577510576
 20
8.8612266305
 40
3.3337095895
100
AcDbArc
 50
265.0607301035
 51
266.0389531511
  0
ARC
  5
373
100
AcDbEntity
  8
0
100
AcDbCircle
 62
7
  6
CONTINUOUS
 10
11.446035312
 20
10.1618779154
 40
1.7697741294
100
AcDbArc
 50
359.9918235663
 51
1.3297664509
  0
ARC
  5
374
100
AcDbEntity
  8
0
100
AcDbCircle
 62
7
  6
CONTINUOUS
 10
12.2505637269
 20
5.1188171811
 40
1.7204739977
100
AcDbArc
 50
158.0101016107
 51
159.2133818387
  0
ARC
  5
375
100
AcDbEntity
  8
0
100
AcDbCircle
 62
7
  6
CONTINUOUS
 10
13.8800430457
 20
5.0254580894
 40
1.6550165456
100
AcDbArc
 50
157.9863052277
 51
159.2371781952
  0
ARC
  5
376
100
AcDbEntity
  8
0
100
AcDbCircle
 62
7
  6
CONTINUOUS
 10
11.3025453305
 20
5.8334766947
 40
1.159267388
100
AcDbArc
 50
243.6664579456
 51
246.4394383889
  0
ARC
  5
377
100
AcDbEntity
  8
0
100
AcDbCircle
 62
7
  6
CONTINUOUS
 10
13.6112356234
 20
7.462519895
 40
0.0465859313
100
AcDbArc
 50
214.663941808
 51
216.7740184535
  0
ARC
  5
378
100
AcDbEntity
  8
0
100
AcDbCircle
 62
7
  6
CONTINUOUS
 10
13.6070844114
 20
7.4594353038
 40
0.0414141781
100
AcDbArc
 50
216.7939403026
 51
219.0901123115
  0
SPLINE
  5
379
100
AcDbEntity
  8
0
100
AcDbSpline
 62
7
  6
CONTINUOUS
 70
0
 71
3
 72
50
 73
46
 74
0
 42
0.0000001
 43
0.0000001
 44
0.0000000001
 40
0.0
 40
0.0
 40
0.0
 40
0.0
 40
0.0075791485
 40
0.0157370876
 40
0.0244894744
 40
0.0338459717
 40
0.0438116586
 40
0.0543871615
 40
0.0655695464
 40
0.0773535699
 40
0.0897321852
 40
0.1026952709
 40
0.1162286885
 40
0.1303170452
 40
0.1600914748
 40
0.1918703645
 40
0.2254824806
 40
0.2607422248
 40
0.2974457295
 40
0.3353807925
 40
0.3743216534
 40
0.4140375419
 40
0.4542895121
 40
0.4948355752
 40
0.5354313342
 40
0.5758314323
 40
0.6157930145
 40
0.6550755649
 40
0.6934445148
 40
0.7306725851
 40
0.7665405496
 40
0.8008428373
 40
0.8333837143
 40
0.8639882802
 40
0.8924949614
 40
0.9059200812
 40
0.9187727085
 40
0.9310392351
 40
0.942709173
 40
0.9537756049
 40
0.9642335536
 40
0.974080406
 40
0.9833175622
 40
0.9919530023
 40
1.0
 40
1.0
 40
1.0
 40
1.0
 10
13.6036788862
 20
7.8549510011
 30
0.0
 10
13.6028926537
 20
7.8541915588
 30
0.0
 10
13.601323089
 20
7.8525487563
 30
0.0
 10
13.5990565753
 20
7.8498371596
 30
0.0
 10
13.5967967318
 20
7.846794272
 30
0.0
 10
13.5945477602
 20
7.8434253752
 30
0.0
 10
13.5923139448
 20
7.8397355611
 30
0.0
 10
13.5900988012
 20
7.8357309444
 30
0.0
 10
13.5879054803
 20
7.8314180827
 30
0.0
 10
13.5857373363
 20
7.8268035904
 30
0.0
 10
13.5835978644
 20
7.821894335
 30
0.0
 10
13.5814905314
 20
7.816697962
 30
0.0
 10
13.5794184042
 20
7.8112230125
 30
0.0
 10
13.5766559656
 20
7.8034188527
 30
0.0
 10
13.5733299622
 20
7.7930256263
 30
0.0
 10
13.5696007717
 20
7.7798141021
 30
0.0
 10
13.5660874019
 20
7.7657269263
 30
0.0
 10
13.5628135528
 20
7.750854363
 30
0.0
 10
13.559799334
 20
7.7352916391
 30
0.0
 10
13.5570658206
 20
7.719138593
 30
0.0
 10
13.5546291714
 20
7.7024989882
 30
0.0
 10
13.5525067619
 20
7.6854796621
 30
0.0
 10
13.5507108319
 20
7.6681900693
 30
0.0
 10
13.5492543017
 20
7.6507412593
 30
0.0
 10
13.5481454937
 20
7.6332455072
 30
0.0
 10
13.5473922838
 20
7.6158151988
 30
0.0
 10
13.5469990584
 20
7.5985624702
 30
0.0
 10
13.5469683047
 20
7.5815981681
 30
0.0
 10
13.5473004487
 20
7.5650313261
 30
0.0
 10
13.5479924535
 20
7.548968398
 30
0.0
 10
13.5490407604
 20
7.5335124304
 30
0.0
 10
13.5504369107
 20
7.5187626772
 30
0.0
 10
13.552173276
 20
7.5048133983
 30
0.0
 10
13.5542364712
 20
7.4917540722
 30
0.0
 10
13.5562564012
 20
7.4814858848
 30
0.0
 10
13.5580399306
 20
7.4737877497
 30
0.0
 10
13.5594237647
 20
7.4684029919
 30
0.0
 10
13.5608786021
 20
7.4632996517
 30
0.0
 10
13.5624022167
 20
7.4584858686
 30
0.0
 10
13.5639918057
 20
7.4539689827
 30
0.0
 10
13.565644801
 20
7.449756002
 30
0.0
 10
13.5673586939
 20
7.4458537648
 30
0.0
 10
13.5691312715
 20
7.4422685232
 30
0.0
 10
13.5709593224
 20
7.4390056734
 30
0.0
 10
13.5722583216
 20
7.4369780645
 30
0.0
 10
13.572918595
 20
7.4360235872
 30
0.0
  0
SPLINE
  5
37A
100
AcDbEntity
  8
0
100
AcDbSpline
 62
7
  6
CONTINUOUS
 70
0
 71
3
 72
57
 73
53
 74
0
 42
0.0000001
 43
0.0000001
 44
0.0000000001
 40
0.0
 40
0.0
 40
0.0
 40
0.0
 40
0.0075206938
 40
0.0156241014
 40
0.0243315401
 40
0.0336555214
 40
0.0436031767
 40
0.0541774702
 40
0.0653760278
 40
0.077192624
 40
0.0896190592
 40
0.1026449487
 40
0.1162562121
 40
0.1304371569
 40
0.1451712296
 40
0.1604399192
 40
0.1762222695
 40
0.1924966817
 40
0.2092410023
 40
0.2264310861
 40
0.2620456537
 40
0.2991316772
 40
0.3374645182
 40
0.376811015
 40
0.4169281429
 40
0.4575678171
 40
0.4984769648
 40
0.5394009943
 40
0.58008463
 40
0.6202751746
 40
0.6597229417
 40
0.698185461
 40
0.7354267501
 40
0.7712228899
 40
0.7885119832
 40
0.8053614336
 40
0.8217469981
 40
0.8376449349
 40
0.8530336786
 40
0.8678932336
 40
0.8822041759
 40
0.8959483276
 40
0.9091104961
 40
0.9216769731
 40
0.9336352807
 40
0.944976123
 40
0.9556945877
 40
0.965788291
 40
0.9752579131
 40
0.9841085552
 40
0.9923504306
 40
1.0
 40
1.0
 40
1.0
 40
1.0
 10
13.3118294398
 20
7.149428787
 30
0.0
 10
13.3101570916
 20
7.1514851053
 30
0.0
 10
13.3068617703
 20
7.1559044372
 30
0.0
 10
13.3022246104
 20
7.1631241112
 30
0.0
 10
13.297720287
 20
7.1711639245
 30
0.0
 10
13.2933550494
 20
7.1800099885
 30
0.0
 10
13.289135643
 20
7.1896487132
 30
0.0
 10
13.2850697086
 20
7.200065205
 30
0.0
 10
13.2811633695
 20
7.2112423988
 30
0.0
 10
13.2774226224
 20
7.2231617475
 30
0.0
 10
13.2738539691
 20
7.2358040251
 30
0.0
 10
13.2704640134
 20
7.2491487584
 30
0.0
 10
13.2672576628
 20
7.2631736428
 30
0.0
 10
13.2642401886
 20
7.2778553676
 30
0.0
 10
13.2614171334
 20
7.2931699527
 30
0.0
 10
13.2587934095
 20
7.3090921129
 30
0.0
 10
13.2563727865
 20
7.3255951933
 30
0.0
 10
13.2541594017
 20
7.3426518212
 30
0.0
 10
13.2521575243
 20
7.3602339557
 30
0.0
 10
13.2497461654
 20
7.3846268539
 30
0.0
 10
13.2473021288
 20
7.4162167577
 30
0.0
 10
13.2452885997
 20
7.455300128
 30
0.0
 10
13.2441729695
 20
7.4957350091
 30
0.0
 10
13.2439649212
 20
7.5372526841
 30
0.0
 10
13.2446647164
 20
7.579577913
 30
0.0
 10
13.2462689612
 20
7.6224295136
 30
0.0
 10
13.2487666548
 20
7.6655231224
 30
0.0
 10
13.2521412049
 20
7.7085724896
 30
0.0
 10
13.2563707629
 20
7.7512918363
 30
0.0
 10
13.2614260144
 20
7.7933975128
 30
0.0
 10
13.2672747263
 20
7.8346100015
 30
0.0
 10
13.2738758288
 20
7.8746559405
 30
0.0
 10
13.2811872734
 20
7.9132693939
 30
0.0
 10
13.28790447
 20
7.9443905706
 30
0.0
 10
13.2936128186
 20
7.9683681638
 30
0.0
 10
13.297989997
 20
7.985628628
 30
0.0
 10
13.3025052276
 20
8.0023461882
 30
0.0
 10
13.3071515889
 20
8.0184928311
 30
0.0
 10
13.3119211294
 20
8.0340419007
 30
0.0
 10
13.316805534
 20
8.0489679634
 30
0.0
 10
13.3217967887
 20
8.0632461474
 30
0.0
 10
13.3268872253
 20
8.0768524776
 30
0.0
 10
13.3320676632
 20
8.0897647774
 30
0.0
 10
13.3373291503
 20
8.1019619059
 30
0.0
 10
13.3426632478
 20
8.1134234124
 30
0.0
 10
13.3480615943
 20
8.1241304761
 30
0.0
 10
13.3535150343
 20
8.1340664952
 30
0.0
 10
13.3590150103
 20
8.1432159164
 30
0.0
 10
13.3645535767
 20
8.1515631821
 30
0.0
 10
13.3701210431
 20
8.1590947635
 30
0.0
 10
13.3757063552
 20
8.1657977266
 30
0.0
 10
13.3795768747
 20
8.1698539433
 30
0.0
 10
13.381515933
 20
8.1717269299
 30
0.0
  0
SPLINE
  5
37B
100
AcDbEntity
  8
0
100
AcDbSpline
 62
7
  6
CONTINUOUS
 70
0
 71
3
 72
16
 73
12
 74
0
 42
0.0000001
 43
0.0000001
 44
0.0000000001
 40
0.0
 40
0.0
 40
0.0
 40
0.0
 40
0.1491769314
 40
0.2895973161
 40
0.4219490506
 40
0.48537778
 40
0.5471266964
 40
0.666107749
 40
0.7802246869
 40
0.8909748487
 40
1.0
 40
1.0
 40
1.0
 40
1.0
 10
13.4138010873
 20
8.2017973137
 30
0.0
 10
13.4153380159
 20
8.2032275565
 30
0.0
 10
13.4184108044
 20
8.2059109557
 30
0.0
 10
13.4231629643
 20
8.2094812685
 30
0.0
 10
13.4271741047
 20
8.2120038341
 30
0.0
 10
13.4303725007
 20
8.2137114749
 30
0.0
 10
13.433480936
 20
8.2151787578
 30
0.0
 10
13.4373672552
 20
8.2166581899
 30
0.0
 10
13.4420682615
 20
8.2178537548
 30
0.0
 10
13.4467420924
 20
8.2184448212
 30
0.0
 10
13.4498454889
 20
8.2184338949
 30
0.0
 10
13.4513761955
 20
8.2183277693
 30
0.0
  0
SPLINE
  5
37C
100
AcDbEntity
  8
0
100
AcDbSpline
 62
7
  6
CONTINUOUS
 70
0
 71
3
 72
13
 73
9
 74
0
 42
0.0000001
 43
0.0000001
 44
0.0000000001
 40
0.0
 40
0.0
 40
0.0
 40
0.0
 40
0.2725316601
 40
0.5318563102
 40
0.65576167
 40
0.7753345126
 40
0.8901985042
 40
1.0
 40
1.0
 40
1.0
 40
1.0
 10
13.6299205585
 20
7.8522711081
 30
0.0
 10
13.6263799995
 20
7.8512377138
 30
0.0
 10
13.6194914135
 20
7.8491479893
 30
0.0
 10
13.6110721989
 20
7.8463359929
 30
0.0
 10
13.6046795875
 20
7.8440029255
 30
0.0
 10
13.6001595046
 20
7.8422446308
 30
0.0
 10
13.5958596049
 20
7.8404504442
 30
0.0
 10
13.5930873727
 20
7.8392003066
 30
0.0
 10
13.5917432872
 20
7.8385665861
 30
0.0
  0
SPLINE
  5
37D
100
AcDbEntity
  8
0
100
AcDbSpline
 62
7
  6
CONTINUOUS
 70
0
 71
3
 72
16
 73
12
 74
0
 42
0.0000001
 43
0.0000001
 44
0.0000000001
 40
0.0
 40
0.0
 40
0.0
 40
0.0
 40
0.1491769314
 40
0.2895973161
 40
0.4219490506
 40
0.48537778
 40
0.5471266964
 40
0.666107749
 40
0.7802246869
 40
0.8909748487
 40
1.0
 40
1.0
 40
1.0
 40
1.0
 10
13.5713937319
 20
7.1004362047
 30
0.0
 10
13.5698568032
 20
7.0990059618
 30
0.0
 10
13.5667840147
 20
7.0963225627
 30
0.0
 10
13.5620318548
 20
7.0927522499
 30
0.0
 10
13.5580207145
 20
7.0902296843
 30
0.0
 10
13.5548223185
 20
7.0885220435
 30
0.0
 10
13.5517138832
 20
7.0870547606
 30
0.0
 10
13.547827564
 20
7.0855753285
 30
0.0
 10
13.5431265576
 20
7.0843797636
 30
0.0
 10
13.5384527268
 20
7.0837886972
 30
0.0
 10
13.5353493302
 20
7.0837996234
 30
0.0
 10
13.5338186237
 20
7.0839057491
 30
0.0
  0
SPLINE
  5
37E
100
AcDbEntity
  8
0
100
AcDbSpline
 62
7
  6
CONTINUOUS
 70
0
 71
3
 72
57
 73
53
 74
0
 42
0.0000001
 43
0.0000001
 44
0.0000000001
 40
0.0
 40
0.0
 40
0.0
 40
0.0
 40
0.0075206938
 40
0.0156241014
 40
0.0243315401
 40
0.0336555214
 40
0.0436031767
 40
0.0541774702
 40
0.0653760278
 40
0.077192624
 40
0.0896190592
 40
0.1026449487
 40
0.1162562121
 40
0.1304371569
 40
0.1451712296
 40
0.1604399192
 40
0.1762222695
 40
0.1924966817
 40
0.2092410023
 40
0.2264310861
 40
0.2620456537
 40
0.2991316772
 40
0.3374645182
 40
0.376811015
 40
0.4169281429
 40
0.4575678171
 40
0.4984769648
 40
0.5394009943
 40
0.58008463
 40
0.6202751746
 40
0.6597229417
 40
0.698185461
 40
0.7354267501
 40
0.7712228899
 40
0.7885119832
 40
0.8053614336
 40
0.8217469981
 40
0.8376449349
 40
0.8530336786
 40
0.8678932336
 40
0.8822041759
 40
0.8959483276
 40
0.9091104961
 40
0.9216769731
 40
0.9336352807
 40
0.944976123
 40
0.9556945877
 40
0.965788291
 40
0.9752579131
 40
0.9841085552
 40
0.9923504306
 40
1.0
 40
1.0
 40
1.0
 40
1.0
 10
13.6733653794
 20
8.1528047314
 30
0.0
 10
13.6750377276
 20
8.1507484131
 30
0.0
 10
13.6783330489
 20
8.1463290812
 30
0.0
 10
13.6829702088
 20
8.1391094072
 30
0.0
 10
13.6874745322
 20
8.1310695939
 30
0.0
 10
13.6918397697
 20
8.1222235299
 30
0.0
 10
13.6960591762
 20
8.1125848052
 30
0.0
 10
13.7001251106
 20
8.1021683134
 30
0.0
 10
13.7040314496
 20
8.0909911195
 30
0.0
 10
13.7077721968
 20
8.0790717709
 30
0.0
 10
13.7113408501
 20
8.0664294933
 30
0.0
 10
13.7147308058
 20
8.0530847599
 30
0.0
 10
13.7179371564
 20
8.0390598756
 30
0.0
 10
13.7209546306
 20
8.0243781508
 30
0.0
 10
13.7237776858
 20
8.0090635656
 30
0.0
 10
13.7264014097
 20
7.9931414055
 30
0.0
 10
13.7288220327
 20
7.9766383251
 30
0.0
 10
13.7310354174
 20
7.9595816972
 30
0.0
 10
13.7330372949
 20
7.9419995626
 30
0.0
 10
13.7354486537
 20
7.9176066645
 30
0.0
 10
13.7378926904
 20
7.8860167607
 30
0.0
 10
13.7399062195
 20
7.8469333904
 30
0.0
 10
13.7410218497
 20
7.8064985093
 30
0.0
 10
13.741229898
 20
7.7649808343
 30
0.0
 10
13.7405301028
 20
7.7226556053
 30
0.0
 10
13.738925858
 20
7.6798040048
 30
0.0
 10
13.7364281644
 20
7.636710396
 30
0.0
 10
13.7330536143
 20
7.5936610288
 30
0.0
 10
13.7288240563
 20
7.5509416821
 30
0.0
 10
13.7237688048
 20
7.5088360056
 30
0.0
 10
13.7179200929
 20
7.4676235168
 30
0.0
 10
13.7113189904
 20
7.4275775779
 30
0.0
 10
13.7040075458
 20
7.3889641244
 30
0.0
 10
13.6972903492
 20
7.3578429478
 30
0.0
 10
13.6915820006
 20
7.3338653546
 30
0.0
 10
13.6872048221
 20
7.3166048904
 30
0.0
 10
13.6826895915
 20
7.2998873302
 30
0.0
 10
13.6780432303
 20
7.2837406872
 30
0.0
 10
13.6732736898
 20
7.2681916176
 30
0.0
 10
13.6683892851
 20
7.2532655549
 30
0.0
 10
13.6633980304
 20
7.238987371
 30
0.0
 10
13.6583075938
 20
7.2253810408
 30
0.0
 10
13.6531271559
 20
7.212468741
 30
0.0
 10
13.6478656689
 20
7.2002716124
 30
0.0
 10
13.6425315713
 20
7.188810106
 30
0.0
 10
13.6371332249
 20
7.1781030422
 30
0.0
 10
13.6316797848
 20
7.1681670232
 30
0.0
 10
13.6261798089
 20
7.159017602
 30
0.0
 10
13.6206412424
 20
7.1506703363
 30
0.0
 10
13.615073776
 20
7.1431387549
 30
0.0
 10
13.6094884639
 20
7.1364357918
 30
0.0
 10
13.6056179445
 20
7.1323795751
 30
0.0
 10
13.6036788862
 20
7.1305065885
 30
0.0
  0
SPLINE
  5
37F
100
AcDbEntity
  8
0
100
AcDbSpline
 62
7
  6
CONTINUOUS
 70
0
 71
3
 72
16
 73
12
 74
0
 42
0.0000001
 43
0.0000001
 44
0.0000000001
 40
0.0
 40
0.0
 40
0.0
 40
0.0
 40
0.1090299121
 40
0.2197874449
 40
0.3339055687
 40
0.4528620072
 40
0.5145856865
 40
0.5779866132
 40
0.7103007537
 40
0.8507367287
 40
1.0
 40
1.0
 40
1.0
 40
1.0
 10
13.6117198922
 20
8.2072078962
 30
0.0
 10
13.6132506756
 20
8.2071017652
 30
0.0
 10
13.6163260979
 20
8.206684238
 30
0.0
 10
13.6208735732
 20
8.2054526435
 30
0.0
 10
13.6253640602
 20
8.2036190495
 30
0.0
 10
13.629008632
 20
8.201618198
 30
0.0
 10
13.6318844892
 20
8.1997374091
 30
0.0
 10
13.63481619
 20
8.1976062459
 30
0.0
 10
13.6384405443
 20
8.194554902
 30
0.0
 10
13.6426544458
 20
8.1903614947
 30
0.0
 10
13.6453279335
 20
8.1872781598
 30
0.0
 10
13.646653422
 20
8.1856484402
 30
0.0
  0
SPLINE
  5
380
100
AcDbEntity
  8
0
100
AcDbSpline
 62
7
  6
CONTINUOUS
 70
0
 71
3
 72
16
 73
12
 74
0
 42
0.0000001
 43
0.0000001
 44
0.0000000001
 40
0.0
 40
0.0
 40
0.0
 40
0.0
 40
0.1090299121
 40
0.2197874449
 40
0.3339055687
 40
0.4528620072
 40
0.5145856865
 40
0.5779866132
 40
0.7103007537
 40
0.8507367287
 40
1.0
 40
1.0
 40
1.0
 40
1.0
 10
13.373474927
 20
7.0950256222
 30
0.0
 10
13.3719441435
 20
7.0951317532
 30
0.0
 10
13.3688687213
 20
7.0955492804
 30
0.0
 10
13.3643212459
 20
7.0967808748
 30
0.0
 10
13.359830759
 20
7.0986144689
 30
0.0
 10
13.3561861872
 20
7.1006153204
 30
0.0
 10
13.35331033
 20
7.1024961093
 30
0.0
 10
13.3503786292
 20
7.1046272725
 30
0.0
 10
13.3467542748
 20
7.1076786164
 30
0.0
 10
13.3425403733
 20
7.1118720237
 30
0.0
 10
13.3398668857
 20
7.1149553585
 30
0.0
 10
13.3385413971
 20
7.1165850782
 30
0.0
  0
SPLINE
  5
381
100
AcDbEntity
  8
0
100
AcDbSpline
 62
7
  6
CONTINUOUS
 70
0
 71
3
 72
15
 73
11
 74
0
 42
0.0000001
 43
0.0000001
 44
0.0000000001
 40
0.0
 40
0.0
 40
0.0
 40
0.0
 40
0.1025590344
 40
0.2112527466
 40
0.326286508
 40
0.4477985104
 40
0.5758800838
 40
0.710590291
 40
0.851962206
 40
1.0
 40
1.0
 40
1.0
 40
1.0
 10
13.3385413971
 20
7.1165850782
 30
0.0
 10
13.3371815291
 20
7.1182570683
 30
0.0
 10
13.3344913843
 20
7.1217923291
 30
0.0
 10
13.3306491056
 20
7.1274747748
 30
0.0
 10
13.3268889765
 20
7.1336823906
 30
0.0
 10
13.3232141973
 20
7.1404085426
 30
0.0
 10
13.3196279739
 20
7.1476465231
 30
0.0
 10
13.3161337658
 20
7.1553893827
 30
0.0
 10
13.3127351941
 20
7.1636299301
 30
0.0
 10
13.3105849536
 20
7.1693198165
 30
0.0
 10
13.309524084
 20
7.1722442081
 30
0.0
  0
SPLINE
  5
382
100
AcDbEntity
  8
0
100
AcDbSpline
 62
7
  6
CONTINUOUS
 70
0
 71
3
 72
48
 73
44
 74
0
 42
0.0000001
 43
0.0000001
 44
0.0000000001
 40
0.0
 40
0.0
 40
0.0
 40
0.0
 40
0.0102583182
 40
0.0209732087
 40
0.0321398545
 40
0.0437526023
 40
0.0558040165
 40
0.0682851301
 40
0.0811864628
 40
0.0944981342
 40
0.1223077726
 40
0.1516164811
 40
0.1823186707
 40
0.2142977294
 40
0.2474304683
 40
0.2815869455
 40
0.3166306858
 40
0.3524216864
 40
0.3888143874
 40
0.4256614137
 40
0.4628120312
 40
0.5001143578
 40
0.5374157815
 40
0.5745633332
 40
0.6114052422
 40
0.6477911894
 40
0.6835728935
 40
0.7186062652
 40
0.7527496537
 40
0.7858683024
 40
0.8178311538
 40
0.8485155347
 40
0.877805469
 40
0.8918938353
 40
0.9055946532
 40
0.9188961737
 40
0.931786959
 40
0.9442565588
 40
0.9562961146
 40
0.9678973616
 40
0.9790525924
 40
0.9897549517
 40
1.0
 40
1.0
 40
1.0
 40
1.0
 10
13.309524084
 20
7.1722442081
 30
0.0
 10
13.3083613811
 20
7.1754493127
 30
0.0
 10
13.3060797747
 20
7.1820371485
 30
0.0
 10
13.3028479837
 20
7.192219717
 30
0.0
 10
13.2997353217
 20
7.2029089986
 30
0.0
 10
13.2967456513
 20
7.2140936543
 30
0.0
 10
13.293882127
 20
7.2257615378
 30
0.0
 10
13.2911475629
 20
7.2378996372
 30
0.0
 10
13.2885449302
 20
7.2504946827
 30
0.0
 10
13.2852061141
 20
7.2681373468
 30
0.0
 10
13.2814044059
 20
7.291238785
 30
0.0
 10
13.2774726278
 20
7.3201643628
 30
0.0
 10
13.2741272895
 20
7.3505579059
 30
0.0
 10
13.2713816443
 20
7.3822869821
 30
0.0
 10
13.2692488897
 20
7.4152134681
 30
0.0
 10
13.2677385518
 20
7.4491937723
 30
0.0
 10
13.266856715
 20
7.4840798346
 30
0.0
 10
13.2666087714
 20
7.5197192885
 30
0.0
 10
13.2669941314
 20
7.5559568097
 30
0.0
 10
13.2680132152
 20
7.5926340463
 30
0.0
 10
13.2696597234
 20
7.6295910589
 30
0.0
 10
13.2719280869
 20
7.6666664121
 30
0.0
 10
13.2748073682
 20
7.7036983032
 30
0.0
 10
13.278285374
 20
7.7405250897
 30
0.0
 10
13.282347199
 20
7.776985963
 30
0.0
 10
13.2869740494
 20
7.8129218654
 30
0.0
 10
13.2921472063
 20
7.8481758704
 30
0.0
 10
13.2978419968
 20
7.8825942464
 30
0.0
 10
13.3040355014
 20
7.9160267846
 30
0.0
 10
13.310698544
 20
7.9483277671
 30
0.0
 10
13.3178033228
 20
7.9793564755
 30
0.0
 10
13.3253177261
 20
8.0089775682
 30
0.0
 10
13.3319766424
 20
8.0326788805
 30
0.0
 10
13.3374978052
 20
8.0508292727
 30
0.0
 10
13.3416664201
 20
8.0638351091
 30
0.0
 10
13.3459119133
 20
8.0763966333
 30
0.0
 10
13.350229874
 20
8.0884998774
 30
0.0
 10
13.3546158026
 20
8.100131504
 30
0.0
 10
13.3590644522
 20
8.1112791685
 30
0.0
 10
13.3635708495
 20
8.1219309055
 30
0.0
 10
13.3681300103
 20
8.1320749346
 30
0.0
 10
13.3727373055
 20
8.1416998011
 30
0.0
 10
13.3759071557
 20
8.147899634
 30
0.0
 10
13.3775014291
 20
8.1509084229
 30
0.0
  0
SPLINE
  5
383
100
AcDbEntity
  8
0
100
AcDbSpline
 62
7
  6
CONTINUOUS
 70
0
 71
3
 72
15
 73
11
 74
0
 42
0.0000001
 43
0.0000001
 44
0.0000000001
 40
0.0
 40
0.0
 40
0.0
 40
0.0
 40
0.1469621508
 40
0.2875949747
 40
0.4218949809
 40
0.5498791425
 40
0.6715921731
 40
0.7871066209
 40
0.8965274794
 40
1.0
 40
1.0
 40
1.0
 40
1.0
 10
13.3775014291
 20
8.1509084229
 30
0.0
 10
13.3788978837
 20
8.1535438789
 30
0.0
 10
13.3816969327
 20
8.1586665869
 30
0.0
 10
13.3860158568
 20
8.1660612054
 30
0.0
 10
13.390359363
 20
8.1729910961
 30
0.0
 10
13.3947239
 20
8.1794494507
 30
0.0
 10
13.3991047808
 20
8.1854304927
 30
0.0
 10
13.4034974552
 20
8.1909287438
 30
0.0
 10
13.4078971987
 20
8.1959384627
 30
0.0
 10
13.4109151592
 20
8.1990340317
 30
0.0
 10
13.4124255613
 20
8.2004929682
 30
0.0
  0
SPLINE
  5
384
100
AcDbEntity
  8
0
100
AcDbSpline
 62
7
  6
CONTINUOUS
 70
0
 71
3
 72
24
 73
20
 74
0
 42
0.0000001
 43
0.0000001
 44
0.0000000001
 40
0.0
 40
0.0
 40
0.0
 40
0.0
 40
0.1279434508
 40
0.1917593551
 40
0.2554099803
 40
0.3188723208
 40
0.3821037338
 40
0.4136272067
 40
0.4450826873
 40
0.5077604513
 40
0.5701350484
 40
0.6012170335
 40
0.6322244578
 40
0.694022403
 40
0.7555748461
 40
0.8169109851
 40
0.8780794544
 40
0.9391014843
 40
1.0
 40
1.0
 40
1.0
 40
1.0
 10
13.6580132335
 20
7.6978124838
 30
0.0
 10
13.652846629
 20
7.689982728
 30
0.0
 10
13.6454830807
 20
7.6779836354
 30
0.0
 10
13.6367581779
 20
7.6614073068
 30
0.0
 10
13.6308645081
 20
7.6487018541
 30
0.0
 10
13.6257208274
 20
7.6357196677
 30
0.0
 10
13.6221335358
 20
7.6246779634
 30
0.0
 10
13.6197361383
 20
7.6157383836
 30
0.0
 10
13.6176687255
 20
7.6067585313
 30
0.0
 10
13.6157045066
 20
7.5954413114
 30
0.0
 10
13.6146072564
 20
7.5840346809
 30
0.0
 10
13.6142399633
 20
7.5749146564
 30
0.0
 10
13.6142082239
 20
7.5658295125
 30
0.0
 10
13.614780329
 20
7.554516508
 30
0.0
 10
13.6163645956
 20
7.5410593329
 30
0.0
 10
13.6187599581
 20
7.527770909
 30
0.0
 10
13.6218648451
 20
7.5146718912
 30
0.0
 10
13.6255862083
 20
7.5017693975
 30
0.0
 10
13.6284255756
 20
7.4932903241
 30
0.0
 10
13.6299205585
 20
7.4890829759
 30
0.0
  0
SPLINE
  5
385
100
AcDbEntity
  8
0
100
AcDbSpline
 62
7
  6
CONTINUOUS
 70
0
 71
3
 72
26
 73
22
 74
0
 42
0.0000001
 43
0.0000001
 44
0.0000000001
 40
0.0
 40
0.0
 40
0.0
 40
0.0
 40
0.0573248607
 40
0.1144504653
 40
0.1714745054
 40
0.2285447607
 40
0.2571753699
 40
0.2859125567
 40
0.3438301596
 40
0.3731148153
 40
0.4026687711
 40
0.4627138508
 40
0.5242693487
 40
0.5875066092
 40
0.6197862177
 40
0.65250121
 40
0.719180286
 40
0.7874332322
 40
0.8571093813
 40
0.9280223339
 40
1.0
 40
1.0
 40
1.0
 40
1.0
 10
13.6299205585
 20
7.8522711081
 30
0.0
 10
13.6284301233
 20
7.8494128446
 30
0.0
 10
13.6255972316
 20
7.8436299203
 30
0.0
 10
13.6218719867
 20
7.834729308
 30
0.0
 10
13.6187624725
 20
7.825608525
 30
0.0
 10
13.6167649326
 20
7.8178250439
 30
0.0
 10
13.6155737683
 20
7.8114990687
 30
0.0
 10
13.6146641801
 20
7.8050786982
 30
0.0
 10
13.614207607
 20
7.7985628786
 30
0.0
 10
13.6142404741
 20
7.7919951612
 30
0.0
 10
13.6146106021
 20
7.7853178242
 30
0.0
 10
13.6157228435
 20
7.7768753853
 30
0.0
 10
13.6180957665
 20
7.7667404281
 30
0.0
 10
13.6208844146
 20
7.7583470601
 30
0.0
 10
13.6235768895
 20
7.7516562017
 30
0.0
 10
13.6266038785
 20
7.7448970826
 30
0.0
 10
13.6309213421
 20
7.7365078026
 30
0.0
 10
13.6368144127
 20
7.726618994
 30
0.0
 10
13.6433506072
 20
7.7168567355
 30
0.0
 10
13.6504379555
 20
7.707227395
 30
0.0
 10
13.6554431359
 20
7.7009392555
 30
0.0
 10
13.6580132335
 20
7.6978124838
 30
0.0
  0
SPLINE
  5
386
100
AcDbEntity
  8
0
100
AcDbSpline
 62
7
  6
CONTINUOUS
 70
0
 71
3
 72
84
 73
80
 74
0
 42
0.0000001
 43
0.0000001
 44
0.0000000001
 40
0.0
 40
0.0
 40
0.0
 40
0.0
 40
0.0039460605
 40
0.0077168288
 40
0.0113216132
 40
0.0147714338
 40
0.0180792498
 40
0.0212601722
 40
0.0243319053
 40
0.0273148744
 40
0.0302314922
 40
0.0331057827
 40
0.0359628996
 40
0.0388285134
 40
0.0417280697
 40
0.0446859242
 40
0.0477248344
 40
0.0508656239
 40
0.0541270025
 40
0.0575255361
 40
0.0610756165
 40
0.0647892766
 40
0.0686766194
 40
0.0727461288
 40
0.0770048926
 40
0.0814588048
 40
0.0861126438
 40
0.0909698131
 40
0.0960327839
 40
0.1013033644
 40
0.1124709551
 40
0.1244776132
 40
0.1373174151
 40
0.1509786995
 40
0.1654459392
 40
0.180697283
 40
0.1967073817
 40
0.2134488895
 40
0.230889883
 40
0.248995884
 40
0.2677312932
 40
0.2870570985
 40
0.3069322508
 40
0.3273150458
 40
0.348161309
 40
0.369425232
 40
0.4130186773
 40
0.4577103857
 40
0.4803445899
 40
0.5031031383
 40
0.5487883825
 40
0.5943572002
 40
0.6169704725
 40
0.6394019271
 40
0.6835179917
 40
0.7051058839
 40
0.7263159656
 40
0.7471016163
 40
0.7674181801
 40
0.7872214765
 40
0.8064690723
 40
0.8251213569
 40
0.8431395294
 40
0.8604869841
 40
0.8771310041
 40
0.8930402807
 40
0.9081862231
 40
0.9225452049
 40
0.9360961165
 40
0.9488221721
 40
0.9607146947
 40
0.9663475599
 40
0.9717712692
 40
0.9769864327
 40
0.9819942924
 40
0.9867966754
 40
0.9913960742
 40
0.9957957731
 40
1.0
 40
1.0
 40
1.0
 40
1.0
 10
13.6023728231
 20
7.1292682663
 30
0.0
 10
13.6012779189
 20
7.1282496249
 30
0.0
 10
13.5990886041
 20
7.126308376
 30
0.0
 10
13.5957287636
 20
7.1236363523
 30
0.0
 10
13.59237161
 20
7.1212737248
 30
0.0
 10
13.5890193297
 20
7.1192224634
 30
0.0
 10
13.5856739923
 20
7.1174845067
 30
0.0
 10
13.5823375845
 20
7.1160619957
 30
0.0
 10
13.579012098
 20
7.1149568374
 30
0.0
 10
13.5756997901
 20
7.1141697865
 30
0.0
 10
13.5724028354
 20
7.1137016153
 30
0.0
 10
13.5691236437
 20
7.1135529636
 30
0.0
 10
13.5658648112
 20
7.1137242544
 30
0.0
 10
13.5626290414
 20
7.1142156604
 30
0.0
 10
13.5594190919
 20
7.1150268322
 30
0.0
 10
13.5562373722
 20
7.1161562187
 30
0.0
 10
13.5530860528
 20
7.1176022839
 30
0.0
 10
13.5499670732
 20
7.1193634821
 30
0.0
 10
13.5468821914
 20
7.1214383705
 30
0.0
 10
13.5438330992
 20
7.1238256273
 30
0.0
 10
13.5408215612
 20
7.1265238488
 30
0.0
 10
13.5378488409
 20
7.129530861
 30
0.0
 10
13.5349163757
 20
7.1328445649
 30
0.0
 10
13.5320256635
 20
7.1364628836
 30
0.0
 10
13.5291782523
 20
7.1403837811
 30
0.0
 10
13.5263757499
 20
7.1446052058
 30
0.0
 10
13.5236199268
 20
7.1491249153
 30
0.0
 10
13.5209121426
 20
7.153940054
 30
0.0
 10
13.5182538246
 20
7.1590475886
 30
0.0
 10
13.5147089049
 20
7.1663856978
 30
0.0
 10
13.5104296714
 20
7.1762857353
 30
0.0
 10
13.5056117831
 20
7.1890601386
 30
0.0
 10
13.5010265542
 20
7.2029185894
 30
0.0
 10
13.496684819
 20
7.2178284165
 30
0.0
 10
13.4925982824
 20
7.2337551082
 30
0.0
 10
13.4887757755
 20
7.2506607139
 30
0.0
 10
13.485226321
 20
7.2685051162
 30
0.0
 10
13.4819596802
 20
7.2872461441
 30
0.0
 10
13.4789829841
 20
7.3068390132
 30
0.0
 10
13.4763031153
 20
7.3272369257
 30
0.0
 10
13.4739276135
 20
7.3483913484
 30
0.0
 10
13.4718616499
 20
7.370251684
 30
0.0
 10
13.4701098103
 20
7.3927656182
 30
0.0
 10
13.4686772982
 20
7.4158794019
 30
0.0
 10
13.4675671206
 20
7.4395377867
 30
0.0
 10
13.466511102
 20
7.4720014518
 30
0.0
 10
13.466030785
 20
7.5135209092
 30
0.0
 10
13.466638007
 20
7.5555574131
 30
0.0
 10
13.467770622
 20
7.5896795172
 30
0.0
 10
13.4693424751
 20
7.6241611538
 30
0.0
 10
13.4721057642
 20
7.6672856922
 30
0.0
 10
13.4759140904
 20
7.7102752993
 30
0.0
 10
13.4795817678
 20
7.744420361
 30
0.0
 10
13.4836125338
 20
7.7779698415
 30
0.0
 10
13.4882297771
 20
7.811055309
 30
0.0
 10
13.4934441148
 20
7.8435794047
 30
0.0
 10
13.497590005
 20
7.8673178115
 30
0.0
 10
13.5019894672
 20
7.8905203137
 30
0.0
 10
13.5066311017
 20
7.9131316577
 30
0.0
 10
13.5115041864
 20
7.935097637
 30
0.0
 10
13.5165975066
 20
7.9563656439
 30
0.0
 10
13.5218978453
 20
7.9768851001
 30
0.0
 10
13.5273927979
 20
7.9966068793
 30
0.0
 10
13.5330698149
 20
8.015483752
 30
0.0
 10
13.5389142446
 20
8.0334710953
 30
0.0
 10
13.5449123432
 20
8.0505260202
 30
0.0
 10
13.5510505397
 20
8.0666076402
 30
0.0
 10
13.5573127511
 20
8.0816781854
 30
0.0
 10
13.5636839717
 20
8.0957020739
 30
0.0
 10
13.5701501377
 20
8.1086457706
 30
0.0
 10
13.5757005995
 20
8.1186822579
 30
0.0
 10
13.5801879126
 20
8.1261334482
 30
0.0
 10
13.5835067373
 20
8.1313317702
 30
0.0
 10
13.5868381024
 20
8.1362383389
 30
0.0
 10
13.5901796471
 20
8.1408503087
 30
0.0
 10
13.5935290327
 20
8.1451648643
 30
0.0
 10
13.5968839917
 20
8.1491792493
 30
0.0
 10
13.6002421379
 20
8.1528905671
 30
0.0
 10
13.6025328873
 20
8.1552129268
 30
0.0
 10
13.6036788862
 20
8.1563198768
 30
0.0
  0
SPLINE
  5
387
100
AcDbEntity
  8
0
100
AcDbSpline
 62
7
  6
CONTINUOUS
 70
0
 71
3
 72
20
 73
16
 74
0
 42
0.0000001
 43
0.0000001
 44
0.0000000001
 40
0.0
 40
0.0
 40
0.0
 40
0.0
 40
0.0425215842
 40
0.0879878321
 40
0.1364452891
 40
0.187904296
 40
0.2423279876
 40
0.299623413
 40
0.3596732535
 40
0.4223438254
 40
0.4874921332
 40
0.5549675792
 40
0.6962520906
 40
0.8449639943
 40
1.0
 40
1.0
 40
1.0
 40
1.0
 10
13.5737351838
 20
7.4638957693
 30
0.0
 10
13.5743677219
 20
7.4645067543
 30
0.0
 10
13.5757265575
 20
7.4657199148
 30
0.0
 10
13.5779505768
 20
7.4674594833
 30
0.0
 10
13.5804203287
 20
7.4691769754
 30
0.0
 10
13.5831280717
 20
7.4708694635
 30
0.0
 10
13.5860642979
 20
7.4725350636
 30
0.0
 10
13.58921692
 20
7.4741740763
 30
0.0
 10
13.5925736415
 20
7.4757859092
 30
0.0
 10
13.5961220778
 20
7.4773699687
 30
0.0
 10
13.5998496675
 20
7.4789263216
 30
0.0
 10
13.6051230363
 20
7.4809970061
 30
0.0
 10
13.6120802149
 20
7.4835032106
 30
0.0
 10
13.6208278854
 20
7.4863689781
 30
0.0
 10
13.6268425182
 20
7.4881845784
 30
0.0
 10
13.6299205585
 20
7.4890829759
 30
0.0
  0
SPLINE
  5
388
100
AcDbEntity
  8
0
100
AcDbSpline
 62
7
  6
CONTINUOUS
 70
0
 71
3
 72
15
 73
11
 74
0
 42
0.0000001
 43
0.0000001
 44
0.0000000001
 40
0.0
 40
0.0
 40
0.0
 40
0.0
 40
0.1184199586
 40
0.2335456869
 40
0.3474463534
 40
0.4628114041
 40
0.5827314659
 40
0.7104618824
 40
0.8488173292
 40
1.0
 40
1.0
 40
1.0
 40
1.0
 10
13.5682551642
 20
7.4441413426
 30
0.0
 10
13.5679611665
 20
7.4449520929
 30
0.0
 10
13.5674716974
 20
7.4465863849
 30
0.0
 10
13.5670795015
 20
7.4490948779
 30
0.0
 10
13.5670775663
 20
7.4516138961
 30
0.0
 10
13.5674971605
 20
7.4541340642
 30
0.0
 10
13.5683624632
 20
7.456644787
 30
0.0
 10
13.569694737
 20
7.4591324445
 30
0.0
 10
13.5714968919
 20
7.4615895514
 30
0.0
 10
13.5729432781
 20
7.4631308471
 30
0.0
 10
13.5737351838
 20
7.4638957693
 30
0.0
  0
SPLINE
  5
389
100
AcDbEntity
  8
0
100
AcDbSpline
 62
7
  6
CONTINUOUS
 70
0
 71
3
 72
23
 73
19
 74
0
 42
0.0000001
 43
0.0000001
 44
0.0000000001
 40
0.0
 40
0.0
 40
0.0
 40
0.0
 40
0.0755493506
 40
0.1465781137
 40
0.2134209155
 40
0.2764972924
 40
0.3363264137
 40
0.393550056
 40
0.4489238843
 40
0.5032842931
 40
0.5575175409
 40
0.6125176493
 40
0.6691350224
 40
0.7281410513
 40
0.790210366
 40
0.8559157723
 40
0.9257235102
 40
1.0
 40
1.0
 40
1.0
 40
1.0
 10
13.6036788862
 20
8.1563198768
 30
0.0
 10
13.6051538098
 20
8.1577445437
 30
0.0
 10
13.6081025401
 20
8.1604208175
 30
0.0
 10
13.6126669517
 20
8.163996749
 30
0.0
 10
13.6172270986
 20
8.1670017388
 30
0.0
 10
13.6217781266
 20
8.1694304514
 30
0.0
 10
13.6263158695
 20
8.1712767434
 30
0.0
 10
13.630835213
 20
8.1725353292
 30
0.0
 10
13.635329947
 20
8.1732030936
 30
0.0
 10
13.6397929762
 20
8.173277225
 30
0.0
 10
13.6442160541
 20
8.172756391
 30
0.0
 10
13.6485904791
 20
8.171641294
 30
0.0
 10
13.6529089923
 20
8.1699368355
 30
0.0
 10
13.6571660239
 20
8.1676482929
 30
0.0
 10
13.6613572822
 20
8.1647806129
 30
0.0
 10
13.6654788424
 20
8.1613378257
 30
0.0
 10
13.6695273067
 20
8.1573251723
 30
0.0
 10
13.6720933267
 20
8.1543688465
 30
0.0
 10
13.6733653794
 20
8.1528047314
 30
0.0
  0
SPLINE
  5
38A
100
AcDbEntity
  8
0
100
AcDbSpline
 62
7
  6
CONTINUOUS
 70
0
 71
3
 72
17
 73
13
 74
0
 42
0.0000001
 43
0.0000001
 44
0.0000000001
 40
0.0
 40
0.0
 40
0.0
 40
0.0
 40
0.1503824987
 40
0.2916131423
 40
0.4243865528
 40
0.4878859743
 40
0.5496162545
 40
0.6683083772
 40
0.7818474148
 40
0.8918106403
 40
0.9460210325
 40
1.0
 40
1.0
 40
1.0
 40
1.0
 10
13.5727692579
 20
8.189373095
 30
0.0
 10
13.5743598969
 20
8.1909095344
 30
0.0
 10
13.5775399825
 20
8.1937927111
 30
0.0
 10
13.5824650155
 20
8.1976356081
 30
0.0
 10
13.5866258156
 20
8.2003550043
 30
0.0
 10
13.5899443294
 20
8.2021973444
 30
0.0
 10
13.5931650941
 20
8.2037792791
 30
0.0
 10
13.5971923731
 20
8.2053772534
 30
0.0
 10
13.6020671762
 20
8.2066740631
 30
0.0
 10
13.6061280562
 20
8.2072160558
 30
0.0
 10
13.6093364614
 20
8.2073190285
 30
0.0
 10
13.6109279837
 20
8.2072628001
 30
0.0
 10
13.6117198922
 20
8.2072078962
 30
0.0
  0
SPLINE
  5
38B
100
AcDbEntity
  8
0
100
AcDbSpline
 62
7
  6
CONTINUOUS
 70
0
 71
3
 72
62
 73
58
 74
0
 42
0.0000001
 43
0.0000001
 44
0.0000000001
 40
0.0
 40
0.0
 40
0.0
 40
0.0
 40
0.0086004184
 40
0.0180007096
 40
0.0282235826
 40
0.0392808585
 40
0.0511753323
 40
0.0639022528
 40
0.0774521901
 40
0.0918114638
 40
0.1069585582
 40
0.1228679158
 40
0.1395123474
 40
0.1568614039
 40
0.1748801448
 40
0.1935324272
 40
0.2325840348
 40
0.2736862379
 40
0.3164850653
 40
0.3606027146
 40
0.4056484764
 40
0.4512190187
 40
0.4969063186
 40
0.54229991
 40
0.5869939699
 40
0.6305889634
 40
0.6727003923
 40
0.7129589805
 40
0.751020525
 40
0.7691274816
 40
0.7865696845
 40
0.8033122323
 40
0.8193230412
 40
0.8345751555
 40
0.8490436684
 40
0.8627059962
 40
0.875546038
 40
0.8875536119
 40
0.8987228984
 40
0.9090554381
 40
0.9185652283
 40
0.9272775949
 40
0.935232515
 40
0.9424927855
 40
0.949149274
 40
0.9553241426
 40
0.9582818929
 40
0.9611813308
 40
0.9640469898
 40
0.9669042785
 40
0.9697788346
 40
0.9726958505
 40
0.9756794556
 40
0.9787521618
 40
0.9852374942
 40
0.9922879759
 40
1.0
 40
1.0
 40
1.0
 40
1.0
 10
13.6036788862
 20
7.4318754641
 30
0.0
 10
13.6046457053
 20
7.4328093397
 30
0.0
 10
13.6065735766
 20
7.4348641627
 30
0.0
 10
13.6093335457
 20
7.4383095892
 30
0.0
 10
13.6120808805
 20
7.4422434071
 30
0.0
 10
13.6148076411
 20
7.4466562155
 30
0.0
 10
13.6175071941
 20
7.4515377382
 30
0.0
 10
13.6201739615
 20
7.4568761952
 30
0.0
 10
13.6228017964
 20
7.4626596422
 30
0.0
 10
13.6253841589
 20
7.46887505
 30
0.0
 10
13.6279153867
 20
7.4755075769
 30
0.0
 10
13.6303894831
 20
7.4825412906
 30
0.0
 10
13.6328000782
 20
7.4899596753
 30
0.0
 10
13.635141112
 20
7.4977451406
 30
0.0
 10
13.6374075179
 20
7.505878865
 30
0.0
 10
13.6403677988
 20
7.5173382815
 30
0.0
 10
13.6438261586
 20
7.5323921826
 30
0.0
 10
13.6475380946
 20
7.5512498724
 30
0.0
 10
13.6508348579
 20
7.5709876324
 30
0.0
 10
13.6536860123
 20
7.5914169079
 30
0.0
 10
13.6560629941
 20
7.6123426963
 30
0.0
 10
13.6579433784
 20
7.633565155
 30
0.0
 10
13.6593091735
 20
7.6548814004
 30
0.0
 10
13.6601467613
 20
7.6760878658
 30
0.0
 10
13.6604493146
 20
7.69698177
 30
0.0
 10
13.6602128265
 20
7.7173636617
 30
0.0
 10
13.6594414916
 20
7.7370388907
 30
0.0
 10
13.6581416518
 20
7.7558196453
 30
0.0
 10
13.6566060237
 20
7.7708157104
 30
0.0
 10
13.6551074859
 20
7.7822232831
 30
0.0
 10
13.6538799096
 20
7.7903040753
 30
0.0
 10
13.652532752
 20
7.7980335063
 30
0.0
 10
13.6510688508
 20
7.8053930773
 30
0.0
 10
13.6494923119
 20
7.8123655095
 30
0.0
 10
13.6478070616
 20
7.8189343241
 30
0.0
 10
13.6460165808
 20
7.8250837171
 30
0.0
 10
13.6441253111
 20
7.8307993016
 30
0.0
 10
13.6421382315
 20
7.8360680887
 30
0.0
 10
13.6400598568
 20
7.8408778237
 30
0.0
 10
13.6378941803
 20
7.8452172014
 30
0.0
 10
13.6356465275
 20
7.8490770074
 30
0.0
 10
13.6333214664
 20
7.8524492067
 30
0.0
 10
13.6309221374
 20
7.8553258926
 30
0.0
 10
13.6284511951
 20
7.8577001633
 30
0.0
 10
13.6259124207
 20
7.8595657219
 30
0.0
 10
13.6237089484
 20
7.860705325
 30
0.0
 10
13.6219344768
 20
7.861335112
 30
0.0
 10
13.6206106256
 20
7.8616695552
 30
0.0
 10
13.619276181
 20
7.8618722858
 30
0.0
 10
13.6179321486
 20
7.8619431697
 30
0.0
 10
13.6165796366
 20
7.8618821225
 30
0.0
 10
13.6152197226
 20
7.8616892045
 30
0.0
 10
13.6138533448
 20
7.861364542
 30
0.0
 10
13.6119912676
 20
7.8607453162
 30
0.0
 10
13.6096395876
 20
7.8596198594
 30
0.0
 10
13.6068660088
 20
7.8577785213
 30
0.0
 10
13.6051014462
 20
7.8562839267
 30
0.0
 10
13.6042189004
 20
7.8554629702
 30
0.0
  0
SPLINE
  5
38C
100
AcDbEntity
  8
0
100
AcDbSpline
 62
7
  6
CONTINUOUS
 70
0
 71
3
 72
23
 73
19
 74
0
 42
0.0000001
 43
0.0000001
 44
0.0000000001
 40
0.0
 40
0.0
 40
0.0
 40
0.0
 40
0.074268336
 40
0.144063996
 40
0.2097651649
 40
0.2718372069
 40
0.3308445251
 40
0.3874574953
 40
0.442452966
 40
0.4966870178
 40
0.551052246
 40
0.6064353138
 40
0.6636760912
 40
0.723525645
 40
0.7866121066
 40
0.8534536872
 40
0.9244708493
 40
1.0
 40
1.0
 40
1.0
 40
1.0
 10
13.5749405803
 20
7.4333219303
 30
0.0
 10
13.5754651365
 20
7.4326770359
 30
0.0
 10
13.576523403
 20
7.4314582874
 30
0.0
 10
13.5781932802
 20
7.4298043403
 30
0.0
 10
13.5798930476
 20
7.428385038
 30
0.0
 10
13.5816213017
 20
7.4272023237
 30
0.0
 10
13.5833766548
 20
7.4262583001
 30
0.0
 10
13.5851575158
 20
7.4255555989
 30
0.0
 10
13.5869614888
 20
7.425096385
 30
0.0
 10
13.5887854736
 20
7.4248817626
 30
0.0
 10
13.5906260889
 20
7.4249123175
 30
0.0
 10
13.5924799637
 20
7.4251877939
 30
0.0
 10
13.5943440221
 20
7.4257074382
 30
0.0
 10
13.5962155295
 20
7.4264695852
 30
0.0
 10
13.5980925012
 20
7.4274713589
 30
0.0
 10
13.5999730116
 20
7.4287104722
 30
0.0
 10
13.601855065
 20
7.4301847629
 30
0.0
 10
13.6030708245
 20
7.4312881216
 30
0.0
 10
13.6036788862
 20
7.4318754641
 30
0.0
  0
SPLINE
  5
38D
100
AcDbEntity
  8
0
100
AcDbSpline
 62
7
  6
CONTINUOUS
 70
0
 71
3
 72
68
 73
64
 74
0
 42
0.0000001
 43
0.0000001
 44
0.0000000001
 40
0.0
 40
0.0
 40
0.0
 40
0.0
 40
0.002716249
 40
0.0054529703
 40
0.0082300776
 40
0.0110664635
 40
0.0139797367
 40
0.0169860309
 40
0.0233309747
 40
0.026697465
 40
0.0302056257
 40
0.0338636885
 40
0.0376786729
 40
0.0416565382
 40
0.0458023236
 40
0.0546124063
 40
0.0641335713
 40
0.0743785048
 40
0.0853534037
 40
0.0970577777
 40
0.1094845951
 40
0.1226236921
 40
0.1364618603
 40
0.1509809841
 40
0.166160763
 40
0.1819795375
 40
0.1984122578
 40
0.2154315742
 40
0.2330094584
 40
0.2511159898
 40
0.2697187551
 40
0.2887848017
 40
0.3082803741
 40
0.3281695332
 40
0.3689809947
 40
0.3898289407
 40
0.4109195199
 40
0.4536702469
 40
0.4969129544
 40
0.5403220059
 40
0.5835699786
 40
0.6050319651
 40
0.6263319518
 40
0.668285115
 40
0.7091174807
 40
0.7485261181
 40
0.7862240536
 40
0.8043466341
 40
0.8219423424
 40
0.8389803343
 40
0.8554317801
 40
0.871270708
 40
0.8864720835
 40
0.9010125363
 40
0.9148726302
 40
0.9280349913
 40
0.9404843162
 40
0.9522108667
 40
0.9632098363
 40
0.9734801899
 40
0.9830263288
 40
0.9918596627
 40
1.0
 40
1.0
 40
1.0
 40
1.0
 10
13.5338186237
 20
7.0839057491
 30
0.0
 10
13.5327679396
 20
7.0839785942
 30
0.0
 10
13.5306640253
 20
7.0842199382
 30
0.0
 10
13.5275349465
 20
7.0848662004
 30
0.0
 10
13.5244294848
 20
7.0857963736
 30
0.0
 10
13.521349824
 20
7.0870092014
 30
0.0
 10
13.5182974104
 20
7.0885035983
 30
0.0
 10
13.5141930817
 20
7.0909127411
 30
0.0
 10
13.5102198252
 20
7.0938621279
 30
0.0
 10
13.506391847
 20
7.0972734344
 30
0.0
 10
13.5034978775
 20
7.1001582417
 30
0.0
 10
13.5006397021
 20
7.1033164718
 30
0.0
 10
13.4978182191
 20
7.1067467078
 30
0.0
 10
13.4950347571
 20
7.1104472046
 30
0.0
 10
13.491300086
 20
7.1158493414
 30
0.0
 10
13.4867511495
 20
7.1232921925
 30
0.0
 10
13.4815719192
 20
7.1330939934
 30
0.0
 10
13.4765750723
 20
7.1439212233
 30
0.0
 10
13.4717711724
 20
7.1557533451
 30
0.0
 10
13.4671697918
 20
7.1685677332
 30
0.0
 10
13.4627789635
 20
7.1823387416
 30
0.0
 10
13.4586078917
 20
7.1970394823
 30
0.0
 10
13.4546658937
 20
7.2126411413
 30
0.0
 10
13.4509599212
 20
7.22911231
 30
0.0
 10
13.4474974375
 20
7.2464200602
 30
0.0
 10
13.4442863988
 20
7.2645300958
 30
0.0
 10
13.441332877
 20
7.2834060427
 30
0.0
 10
13.4386423735
 20
7.3030098577
 30
0.0
 10
13.4362209824
 20
7.323302397
 30
0.0
 10
13.4340738637
 20
7.3442429863
 30
0.0
 10
13.4322045999
 20
7.365789386
 30
0.0
 10
13.4306172429
 20
7.3878983317
 30
0.0
 10
13.4293156869
 20
7.410525569
 30
0.0
 10
13.4279523253
 20
7.4415919126
 30
0.0
 10
13.4271908793
 20
7.4732066968
 30
0.0
 10
13.4270057486
 20
7.5052924482
 30
0.0
 10
13.4272101016
 20
7.5381301842
 30
0.0
 10
13.4282035203
 20
7.5796433855
 30
0.0
 10
13.4305433361
 20
7.6297678636
 30
0.0
 10
13.4340197614
 20
7.6800195816
 30
0.0
 10
13.4378484929
 20
7.7217706463
 30
0.0
 10
13.4414625895
 20
7.7549246372
 30
0.0
 10
13.4453986637
 20
7.7875362731
 30
0.0
 10
13.4509365276
 20
7.8275171276
 30
0.0
 10
13.4585857016
 20
7.874280587
 30
0.0
 10
13.4671446595
 20
7.9192079457
 30
0.0
 10
13.4750757758
 20
7.9552767282
 30
0.0
 10
13.4818470074
 20
7.9829274131
 30
0.0
 10
13.4870403914
 20
8.0027141024
 30
0.0
 10
13.4924054411
 20
8.021782722
 30
0.0
 10
13.4979317416
 20
8.0400949562
 30
0.0
 10
13.5036073523
 20
8.0576144946
 30
0.0
 10
13.5094209463
 20
8.0743061995
 30
0.0
 10
13.5153616853
 20
8.0901362664
 30
0.0
 10
13.5214166193
 20
8.1050734354
 30
0.0
 10
13.5275731039
 20
8.1190880561
 30
0.0
 10
13.5338196421
 20
8.1321518694
 30
0.0
 10
13.5401438223
 20
8.1442395347
 30
0.0
 10
13.5465330074
 20
8.15532852
 30
0.0
 10
13.5529757511
 20
8.1653969772
 30
0.0
 10
13.5594599163
 20
8.1744247575
 30
0.0
 10
13.5659697544
 20
8.1823936541
 30
0.0
 10
13.5704990329
 20
8.1871802259
 30
0.0
 10
13.5727692579
 20
8.189373095
 30
0.0
  0
SPLINE
  5
38E
100
AcDbEntity
  8
0
100
AcDbSpline
 62
7
  6
CONTINUOUS
 70
0
 71
3
 72
23
 73
19
 74
0
 42
0.0000001
 43
0.0000001
 44
0.0000000001
 40
0.0
 40
0.0
 40
0.0
 40
0.0
 40
0.0771591088
 40
0.153151303
 40
0.2277613898
 40
0.3008118635
 40
0.3721337705
 40
0.4415569994
 40
0.508915912
 40
0.5740562277
 40
0.6368307546
 40
0.6971028067
 40
0.7547446115
 40
0.8096420695
 40
0.8616928899
 40
0.9108117328
 40
0.9569295723
 40
1.0
 40
1.0
 40
1.0
 40
1.0
 10
11.3777643635
 20
4.6579760312
 30
0.0
 10
11.3635629772
 20
4.6589609007
 30
0.0
 10
11.3353883798
 20
4.6611154455
 30
0.0
 10
11.2935396804
 20
4.6649322709
 30
0.0
 10
11.2525072469
 20
4.6693028988
 30
0.0
 10
11.2124039137
 20
4.6742145034
 30
0.0
 10
11.1733346673
 20
4.6796545505
 30
0.0
 10
11.1354027337
 20
4.6856077891
 30
0.0
 10
11.0987095699
 20
4.6920590951
 30
0.0
 10
11.0633529886
 20
4.6989902477
 30
0.0
 10
11.0294268568
 20
4.7063834082
 30
0.0
 10
10.9970211941
 20
4.7142179026
 30
0.0
 10
10.9662220313
 20
4.7224734913
 30
0.0
 10
10.9371108122
 20
4.7311271685
 30
0.0
 10
10.9097645388
 20
4.7401564945
 30
0.0
 10
10.884254728
 20
4.749536583
 30
0.0
 10
10.8606490922
 20
4.7592429503
 30
0.0
 10
10.8457070884
 20
4.7661517065
 30
0.0
 10
10.8385826072
 20
4.769670988
 30
0.0
  0
SPLINE
  5
38F
100
AcDbEntity
  8
0
100
AcDbSpline
 62
7
  6
CONTINUOUS
 70
0
 71
3
 72
11
 73
7
 74
0
 42
0.0000001
 43
0.0000001
 44
0.0000000001
 40
0.0
 40
0.0
 40
0.0
 40
0.0
 40
0.2706838103
 40
0.527147417
 40
0.7699959294
 40
1.0
 40
1.0
 40
1.0
 40
1.0
 10
10.6727362828
 20
4.8585816079
 30
0.0
 10
10.6696890348
 20
4.8609425782
 30
0.0
 10
10.6638622422
 20
4.8656821754
 30
0.0
 10
10.6557382411
 20
4.87305613
 30
0.0
 10
10.648478376
 20
4.880492983
 30
0.0
 10
10.6441052158
 20
4.885622684
 30
0.0
 10
10.6420778099
 20
4.8881953681
 30
0.0
  0
SPLINE
  5
390
100
AcDbEntity
  8
0
100
AcDbSpline
 62
7
  6
CONTINUOUS
 70
0
 71
3
 72
23
 73
19
 74
0
 42
0.0000001
 43
0.0000001
 44
0.0000000001
 40
0.0
 40
0.0
 40
0.0
 40
0.0
 40
0.080971538
 40
0.1598879644
 40
0.2366109899
 40
0.3110079654
 40
0.3829545068
 40
0.4523386671
 40
0.5190634269
 40
0.5830595163
 40
0.6442826854
 40
0.70272999
 40
0.758431804
 40
0.811469128
 40
0.8619597678
 40
0.9100718893
 40
0.9560057306
 40
1.0
 40
1.0
 40
1.0
 40
1.0
 10
12.5586193073
 20
4.9893682713
 30
0.0
 10
12.5553231798
 20
4.9830123706
 30
0.0
 10
12.5487250493
 20
4.9705080018
 30
0.0
 10
12.5386630041
 20
4.952163519
 30
0.0
 10
12.5285585097
 20
4.9345088766
 30
0.0
 10
12.5184134469
 20
4.9175919513
 30
0.0
 10
12.5082293227
 20
4.9014605741
 30
0.0
 10
12.4980098735
 20
4.8861604976
 30
0.0
 10
12.4877575551
 20
4.8717361608
 30
0.0
 10
12.4774782184
 20
4.8582266404
 30
0.0
 10
12.4671750997
 20
4.845667764
 30
0.0
 10
12.4568557732
 20
4.8340864874
 30
0.0
 10
12.446524002
 20
4.8235052676
 30
0.0
 10
12.4361883322
 20
4.8139347951
 30
0.0
 10
12.425852904
 20
4.805381064
 30
0.0
 10
12.4155261284
 20
4.7978368719
 30
0.0
 10
12.4052131944
 20
4.7912915262
 30
0.0
 10
12.39821294
 20
4.787502916
 30
0.0
 10
12.3947251808
 20
4.7857799987
 30
0.0
  0
SPLINE
  5
391
100
AcDbEntity
  8
0
100
AcDbSpline
 62
7
  6
CONTINUOUS
 70
0
 71
3
 72
9
 73
5
 74
0
 42
0.0000001
 43
0.0000001
 44
0.0000000001
 40
0.0
 40
0.0
 40
0.0
 40
0.0
 40
0.4960083102
 40
1.0
 40
1.0
 40
1.0
 40
1.0
 10
10.7882990293
 20
4.7945100839
 30
0.0
 10
10.768706938
 20
4.804188609
 30
0.0
 10
10.7297136931
 20
4.8247375867
 30
0.0
 10
10.6916829383
 20
4.8470038889
 30
0.0
 10
10.6727362828
 20
4.8585816079
 30
0.0
  0
SPLINE
  5
392
100
AcDbEntity
  8
0
100
AcDbSpline
 62
7
  6
CONTINUOUS
 70
0
 71
3
 72
30
 73
26
 74
0
 42
0.0000001
 43
0.0000001
 44
0.0000000001
 40
0.0
 40
0.0
 40
0.0
 40
0.0
 40
0.0193648516
 40
0.0398589858
 40
0.061469503
 40
0.0841791322
 40
0.1079647721
 40
0.1327996946
 40
0.1586534104
 40
0.1854915569
 40
0.2132776379
 40
0.2419713852
 40
0.2715308561
 40
0.3019113755
 40
0.333066161
 40
0.3649469428
 40
0.4306813696
 40
0.4986954582
 40
0.5685475621
 40
0.6397796875
 40
0.7119215783
 40
0.784496127
 40
0.8570190166
 40
0.9290157221
 40
1.0
 40
1.0
 40
1.0
 40
1.0
 10
12.3621167866
 20
4.7696721766
 30
0.0
 10
12.3563352404
 20
4.766816231
 30
0.0
 10
12.3443112164
 20
4.761186075
 30
0.0
 10
12.3254688438
 20
4.753179484
 30
0.0
 10
12.3053390242
 20
4.7453840795
 30
0.0
 10
12.2839572516
 20
4.7378148141
 30
0.0
 10
12.2613611604
 20
4.7304843834
 30
0.0
 10
12.2375905602
 20
4.7234062132
 30
0.0
 10
12.2126874543
 20
4.7165930683
 30
0.0
 10
12.1866959547
 20
4.7100566296
 30
0.0
 10
12.1596620593
 20
4.7038093295
 30
0.0
 10
12.1316337765
 20
4.6978615911
 30
0.0
 10
12.102660817
 20
4.6922246211
 30
0.0
 10
12.0727946652
 20
4.6869082717
 30
0.0
 10
12.0420883152
 20
4.681921879
 30
0.0
 10
11.9996662192
 20
4.6756621444
 30
0.0
 10
11.9449389748
 20
4.6687540753
 30
0.0
 10
11.8774721519
 20
4.6619867561
 30
0.0
 10
11.8080365537
 20
4.6567088189
 30
0.0
 10
11.7371256639
 20
4.6529583979
 30
0.0
 10
11.6652428174
 20
4.6507624588
 30
0.0
 10
11.5928994587
 20
4.6501370852
 30
0.0
 10
11.5206078478
 20
4.6510862698
 30
0.0
 10
11.4488840235
 20
4.6536039246
 30
0.0
 10
11.4013453786
 20
4.6563406823
 30
0.0
 10
11.3777643635
 20
4.6579760312
 30
0.0
  0
SPLINE
  5
393
100
AcDbEntity
  8
0
100
AcDbSpline
 62
7
  6
CONTINUOUS
 70
0
 71
3
 72
28
 73
24
 74
0
 42
0.0000001
 43
0.0000001
 44
0.0000000001
 40
0.0
 40
0.0
 40
0.0
 40
0.0
 40
0.1268659191
 40
0.1901463679
 40
0.25330733
 40
0.2848402857
 40
0.3163394042
 40
0.3792283979
 40
0.4106187434
 40
0.4419710208
 40
0.4732845857
 40
0.5045591139
 40
0.5357943787
 40
0.5669902228
 40
0.5981469641
 40
0.629265076
 40
0.6913849328
 40
0.7223910769
 40
0.7533616145
 40
0.8151995131
 40
0.8769107384
 40
0.9385080012
 40
1.0
 40
1.0
 40
1.0
 40
1.0
 10
12.2487496387
 20
4.7492847105
 30
0.0
 10
12.2143507687
 20
4.738028859
 30
0.0
 10
12.1623937454
 20
4.7223288343
 30
0.0
 10
12.0924127038
 20
4.7042705237
 30
0.0
 10
12.0484528142
 20
4.6942992836
 30
0.0
 10
12.0131631908
 20
4.6871677345
 30
0.0
 10
11.9778387048
 20
4.6806251816
 30
0.0
 10
11.9423949848
 20
4.6749722103
 30
0.0
 10
11.9068637455
 20
4.670255794
 30
0.0
 10
11.8802040943
 20
4.6671948404
 30
0.0
 10
11.8535268065
 20
4.6646154656
 30
0.0
 10
11.8268404709
 20
4.6625217123
 30
0.0
 10
11.800154122
 20
4.6609134403
 30
0.0
 10
11.7734765415
 20
4.659792034
 30
0.0
 10
11.746816362
 20
4.6591546716
 30
0.0
 10
11.7113269538
 20
4.6589423404
 30
0.0
 10
11.6758802809
 20
4.6596763788
 30
0.0
 10
11.640513677
 20
4.6613206954
 30
0.0
 10
11.6052598139
 20
4.6635546259
 30
0.0
 10
11.5613386936
 20
4.6674222355
 30
0.0
 10
11.5088824707
 20
4.6736797116
 30
0.0
 10
11.4567267585
 20
4.6814292142
 30
0.0
 10
11.4221371902
 20
4.6875133943
 30
0.0
 10
11.4048977809
 20
4.6907632819
 30
0.0
  0
SPLINE
  5
394
100
AcDbEntity
  8
0
100
AcDbSpline
 62
7
  6
CONTINUOUS
 70
0
 71
3
 72
27
 73
23
 74
0
 42
0.0000001
 43
0.0000001
 44
0.0000000001
 40
0.0
 40
0.0
 40
0.0
 40
0.0
 40
0.060919931
 40
0.1219725003
 40
0.1831790974
 40
0.2445697664
 40
0.306172584
 40
0.368014351
 40
0.3990356526
 40
0.4301246832
 40
0.4612823654
 40
0.4925098844
 40
0.5238069761
 40
0.5551729231
 40
0.5866065737
 40
0.6181055251
 40
0.681282706
 40
0.744686725
 40
0.8082887534
 40
0.8720589913
 40
0.9359723153
 40
1.0
 40
1.0
 40
1.0
 40
1.0
 10
12.2487496387
 20
5.590483162
 30
0.0
 10
12.2321191906
 20
5.5967575902
 30
0.0
 10
12.1985856158
 20
5.6087059733
 30
0.0
 10
12.1475252306
 20
5.6245524635
 30
0.0
 10
12.0956526121
 20
5.6380693136
 30
0.0
 10
12.0429995497
 20
5.6489707772
 30
0.0
 10
11.9896377359
 20
5.6569729731
 30
0.0
 10
11.9447187395
 20
5.6610037781
 30
0.0
 10
11.908581098
 20
5.6625503249
 30
0.0
 10
11.8813650018
 20
5.6628512688
 30
0.0
 10
11.8540931904
 20
5.662280201
 30
0.0
 10
11.8267933269
 20
5.6608258981
 30
0.0
 10
11.7994936278
 20
5.6584917411
 30
0.0
 10
11.7722229758
 20
5.6552783836
 30
0.0
 10
11.7450084683
 20
5.6512009272
 30
0.0
 10
11.7088003283
 20
5.6446268122
 30
0.0
 10
11.6638094694
 20
5.6343383432
 30
0.0
 10
11.6104738164
 20
5.6189313883
 30
0.0
 10
11.5578474724
 20
5.6007272703
 30
0.0
 10
11.5059999221
 20
5.5800187395
 30
0.0
 10
11.4549615956
 20
5.557094761
 30
0.0
 10
11.4214994802
 20
5.5405279826
 30
0.0
 10
11.4048977809
 20
5.5319617334
 30
0.0
  0
SPLINE
  5
395
100
AcDbEntity
  8
0
100
AcDbSpline
 62
7
  6
CONTINUOUS
 70
0
 71
3
 72
15
 73
11
 74
0
 42
0.0000001
 43
0.0000001
 44
0.0000000001
 40
0.0
 40
0.0
 40
0.0
 40
0.0
 40
0.1200543119
 40
0.2408745055
 40
0.3627723785
 40
0.4861015007
 40
0.611221097
 40
0.7384475142
 40
0.8680059215
 40
1.0
 40
1.0
 40
1.0
 40
1.0
 10
11.29047889
 20
4.6986982589
 30
0.0
 10
11.2720620341
 20
4.6969775382
 30
0.0
 10
11.2350158971
 20
4.6944489249
 30
0.0
 10
11.1790952689
 20
4.6937781187
 30
0.0
 10
11.1227284546
 20
4.6965936069
 30
0.0
 10
11.066010285
 20
4.7032227255
 30
0.0
 10
11.00907501
 20
4.71389958
 30
0.0
 10
10.9520847344
 20
4.7287251812
 30
0.0
 10
10.8952092767
 20
4.7476466868
 30
0.0
 10
10.8578085725
 20
4.7627240278
 30
0.0
 10
10.8391650824
 20
4.7708480567
 30
0.0
  0
SPLINE
  5
396
100
AcDbEntity
  8
0
100
AcDbSpline
 62
7
  6
CONTINUOUS
 70
0
 71
3
 72
30
 73
26
 74
0
 42
0.0000001
 43
0.0000001
 44
0.0000000001
 40
0.0
 40
0.0
 40
0.0
 40
0.0
 40
0.071178206
 40
0.1063864824
 40
0.1413173684
 40
0.2102772599
 40
0.2779404401
 40
0.3112551436
 40
0.3442083408
 40
0.4089957047
 40
0.4408350868
 40
0.4723063752
 40
0.5034184842
 40
0.534184955
 40
0.5646245079
 40
0.5947586506
 40
0.6246138194
 40
0.6542175698
 40
0.6836000373
 40
0.7127918723
 40
0.7707116392
 40
0.8282172138
 40
0.8855033008
 40
0.9427270794
 40
1.0
 40
1.0
 40
1.0
 40
1.0
 10
11.29047889
 20
5.5398967104
 30
0.0
 10
11.2783974632
 20
5.5503946799
 30
0.0
 10
11.26008198
 20
5.5657938067
 30
0.0
 10
11.2351845554
 20
5.5855421518
 30
0.0
 10
11.2102869508
 20
5.6044774111
 30
0.0
 10
11.1788244158
 20
5.6268228392
 30
0.0
 10
11.1465822878
 20
5.6473698562
 30
0.0
 10
11.1205051368
 20
5.6624435609
 30
0.0
 10
11.0945509967
 20
5.6764083045
 30
0.0
 10
11.068230225
 20
5.6889703026
 30
0.0
 10
11.0415957126
 20
5.6999522191
 30
0.0
 10
11.0216711211
 20
5.7073035195
 30
0.0
 10
11.0017043872
 20
5.7137976692
 30
0.0
 10
10.9817143931
 20
5.7194163404
 30
0.0
 10
10.9617234363
 20
5.7241549004
 30
0.0
 10
10.9417513603
 20
5.7280065839
 30
0.0
 10
10.9218196069
 20
5.7309789401
 30
0.0
 10
10.9019473826
 20
5.7330803471
 30
0.0
 10
10.8821526129
 20
5.7343270794
 30
0.0
 10
10.8559570341
 20
5.7348789064
 30
0.0
 10
10.8234265682
 20
5.7335603362
 30
0.0
 10
10.784826302
 20
5.7289795874
 30
0.0
 10
10.7468097889
 20
5.7216846983
 30
0.0
 10
10.7094023099
 20
5.7119610579
 30
0.0
 10
10.6848868305
 20
5.7040485121
 30
0.0
 10
10.6727362828
 20
5.6997800594
 30
0.0
  0
SPLINE
  5
397
100
AcDbEntity
  8
0
100
AcDbSpline
 62
7
  6
CONTINUOUS
 70
0
 71
3
 72
15
 73
11
 74
0
 42
0.0000001
 43
0.0000001
 44
0.0000000001
 40
0.0
 40
0.0
 40
0.0
 40
0.0
 40
0.1340175358
 40
0.2644724274
 40
0.3918735456
 40
0.5167249534
 40
0.6395193915
 40
0.760718379
 40
0.8807495477
 40
1.0
 40
1.0
 40
1.0
 40
1.0
 10
12.3947251808
 20
4.7857799987
 30
0.0
 10
12.3921411203
 20
4.7845034994
 30
0.0
 10
12.3869708429
 20
4.7821246301
 30
0.0
 10
12.3791211845
 20
4.7790452736
 30
0.0
 10
12.3712924468
 20
4.7764899917
 30
0.0
 10
12.3634866561
 20
4.7744407333
 30
0.0
 10
12.3557054318
 20
4.7728771717
 30
0.0
 10
12.3479498335
 20
4.7717791767
 30
0.0
 10
12.3402211583
 20
4.7711259607
 30
0.0
 10
12.3350746177
 20
4.7709726195
 30
0.0
 10
12.3325100567
 20
4.7709634936
 30
0.0
  0
SPLINE
  5
398
100
AcDbEntity
  8
0
100
AcDbSpline
 62
7
  6
CONTINUOUS
 70
0
 71
3
 72
15
 73
11
 74
0
 42
0.0000001
 43
0.0000001
 44
0.0000000001
 40
0.0
 40
0.0
 40
0.0
 40
0.0
 40
0.1097867181
 40
0.2247132299
 40
0.3444131583
 40
0.4684947016
 40
0.5965354434
 40
0.7281039141
 40
0.8627644476
 40
1.0
 40
1.0
 40
1.0
 40
1.0
 10
11.014210785
 20
5.7376825042
 30
0.0
 10
11.0273320754
 20
5.7344847292
 30
0.0
 10
11.0542850484
 20
5.7283290867
 30
0.0
 10
11.0958220325
 20
5.7199600593
 30
0.0
 10
11.1392763045
 20
5.7122666201
 30
0.0
 10
11.1844822772
 20
5.7052791116
 30
0.0
 10
11.2312684553
 20
5.6990235198
 30
0.0
 10
11.2794593899
 20
5.6935242382
 30
0.0
 10
11.328868788
 20
5.6888030503
 30
0.0
 10
11.3622169766
 20
5.6862072793
 30
0.0
 10
11.3790584577
 20
5.6850393186
 30
0.0
  0
SPLINE
  5
399
100
AcDbEntity
  8
0
100
AcDbSpline
 62
7
  6
CONTINUOUS
 70
0
 71
3
 72
15
 73
11
 74
0
 42
0.0000001
 43
0.0000001
 44
0.0000000001
 40
0.0
 40
0.0
 40
0.0
 40
0.0
 40
0.1238190299
 40
0.2488653922
 40
0.3746972357
 40
0.5008688785
 40
0.6269279472
 40
0.7524308765
 40
0.8769490408
 40
1.0
 40
1.0
 40
1.0
 40
1.0
 10
11.7967247226
 20
5.6834149783
 30
0.0
 10
11.779506612
 20
5.6823633614
 30
0.0
 10
11.7448812372
 20
5.6805416568
 30
0.0
 10
11.6927112381
 20
5.6786532043
 30
0.0
 10
11.6401897737
 20
5.6775991381
 30
0.0
 10
11.5875171417
 20
5.677384026
 30
0.0
 10
11.5348935893
 20
5.6780079494
 30
0.0
 10
11.4825169988
 20
5.6794690688
 30
0.0
 10
11.4305898231
 20
5.6817620267
 30
0.0
 10
11.3961605703
 20
5.683853283
 30
0.0
 10
11.3790584577
 20
5.6850393186
 30
0.0
  0
SPLINE
  5
39A
100
AcDbEntity
  8
0
100
AcDbSpline
 62
7
  6
CONTINUOUS
 70
0
 71
3
 72
9
 73
5
 74
0
 42
0.0000001
 43
0.0000001
 44
0.0000000001
 40
0.0
 40
0.0
 40
0.0
 40
0.0
 40
0.4867517019
 40
1.0
 40
1.0
 40
1.0
 40
1.0
 10
12.3325100567
 20
5.6121619451
 30
0.0
 10
12.319034263
 20
5.6082236015
 30
0.0
 10
12.291211672
 20
5.6005982774
 30
0.0
 10
12.2631791954
 20
5.5937905555
 30
0.0
 10
12.2487496387
 20
5.590483162
 30
0.0
  0
SPLINE
  5
39B
100
AcDbEntity
  8
0
100
AcDbSpline
 62
7
  6
CONTINUOUS
 70
0
 71
3
 72
11
 73
7
 74
0
 42
0.0000001
 43
0.0000001
 44
0.0000000001
 40
0.0
 40
0.0
 40
0.0
 40
0.0
 40
0.2300040706
 40
0.472852583
 40
0.7293161897
 40
1.0
 40
1.0
 40
1.0
 40
1.0
 10
10.6420778099
 20
5.7293938196
 30
0.0
 10
10.6441052158
 20
5.7268211355
 30
0.0
 10
10.648478376
 20
5.7216914345
 30
0.0
 10
10.6557382411
 20
5.7142545815
 30
0.0
 10
10.6638622422
 20
5.7068806269
 30
0.0
 10
10.6696890348
 20
5.7021410297
 30
0.0
 10
10.6727362828
 20
5.6997800594
 30
0.0
  0
SPLINE
  5
39C
100
AcDbEntity
  8
0
100
AcDbSpline
 62
7
  6
CONTINUOUS
 70
0
 71
3
 72
9
 73
5
 74
0
 42
0.0000001
 43
0.0000001
 44
0.0000000001
 40
0.0
 40
0.0
 40
0.0
 40
0.0
 40
0.4867517019
 40
1.0
 40
1.0
 40
1.0
 40
1.0
 10
12.3325100567
 20
4.7709634936
 30
0.0
 10
12.319034263
 20
4.76702515
 30
0.0
 10
12.291211672
 20
4.7593998259
 30
0.0
 10
12.2631791954
 20
4.752592104
 30
0.0
 10
12.2487496387
 20
4.7492847105
 30
0.0
  0
SPLINE
  5
39D
100
AcDbEntity
  8
0
100
AcDbSpline
 62
7
  6
CONTINUOUS
 70
0
 71
3
 72
23
 73
19
 74
0
 42
0.0000001
 43
0.0000001
 44
0.0000000001
 40
0.0
 40
0.0
 40
0.0
 40
0.0
 40
0.063775992
 40
0.1273452426
 40
0.190702051
 40
0.2538559967
 40
0.3168132418
 40
0.3795820857
 40
0.4421733813
 40
0.504599339
 40
0.5668738627
 40
0.6290123824
 40
0.6910316504
 40
0.7529496423
 40
0.8147853556
 40
0.8765586046
 40
0.9382898526
 40
1.0
 40
1.0
 40
1.0
 40
1.0
 10
12.8773642534
 20
6.091552335
 30
0.0
 10
12.8773642534
 20
6.0872169308
 30
0.0
 10
12.8771567068
 20
6.0785587084
 30
0.0
 10
12.8762201413
 20
6.0656240715
 30
0.0
 10
12.8746606757
 20
6.0527919096
 30
0.0
 10
12.8724820504
 20
6.0400924924
 30
0.0
 10
12.8696892099
 20
6.0275547465
 30
0.0
 10
12.8662885785
 20
6.015207655
 30
0.0
 10
12.862287938
 20
6.0030797004
 30
0.0
 10
12.8576964846
 20
5.9911988388
 30
0.0
 10
12.8525248305
 20
5.9795924537
 30
0.0
 10
12.8467848317
 20
5.968287334
 30
0.0
 10
12.8404896911
 20
5.9573095716
 30
0.0
 10
12.8336539633
 20
5.946684452
 30
0.0
 10
12.8262933932
 20
5.9364365246
 30
0.0
 10
12.8184248259
 20
5.9265893829
 30
0.0
 10
12.8100667772
 20
5.9171660045
 30
0.0
 10
12.8041801486
 20
5.9111796589
 30
0.0
 10
12.8011628967
 20
5.9082652169
 30
0.0
  0
SPLINE
  5
39E
100
AcDbEntity
  8
0
100
AcDbSpline
 62
7
  6
CONTINUOUS
 70
0
 71
3
 72
23
 73
19
 74
0
 42
0.0000001
 43
0.0000001
 44
0.0000000001
 40
0.0
 40
0.0
 40
0.0
 40
0.0
 40
0.063775992
 40
0.1273452426
 40
0.190702051
 40
0.2538559967
 40
0.3168132418
 40
0.3795820857
 40
0.4421733813
 40
0.504599339
 40
0.5668738627
 40
0.6290123824
 40
0.6910316504
 40
0.7529496423
 40
0.8147853556
 40
0.8765586046
 40
0.9382898526
 40
1.0
 40
1.0
 40
1.0
 40
1.0
 10
9.0136607193
 20
6.3595010852
 30
0.0
 10
9.0136607193
 20
6.355165681
 30
0.0
 10
9.0134531727
 20
6.3465074586
 30
0.0
 10
9.0125166072
 20
6.3335728217
 30
0.0
 10
9.0109571416
 20
6.3207406597
 30
0.0
 10
9.0087785163
 20
6.3080412426
 30
0.0
 10
9.0059856758
 20
6.2955034967
 30
0.0
 10
9.0025850444
 20
6.2831564052
 30
0.0
 10
8.9985844039
 20
6.2710284505
 30
0.0
 10
8.9939929505
 20
6.259147589
 30
0.0
 10
8.9888212964
 20
6.2475412039
 30
0.0
 10
8.9830812976
 20
6.2362360841
 30
0.0
 10
8.976786157
 20
6.2252583218
 30
0.0
 10
8.9699504292
 20
6.2146332022
 30
0.0
 10
8.9625898591
 20
6.2043852748
 30
0.0
 10
8.9547212918
 20
6.1945381331
 30
0.0
 10
8.9463632431
 20
6.1851147547
 30
0.0
 10
8.9404766145
 20
6.1791284091
 30
0.0
 10
8.9374593627
 20
6.1762139671
 30
0.0
  0
SPLINE
  5
39F
100
AcDbEntity
  8
0
100
AcDbSpline
 62
7
  6
CONTINUOUS
 70
0
 71
3
 72
61
 73
57
 74
0
 42
0.0000001
 43
0.0000001
 44
0.0000000001
 40
0.0
 40
0.0
 40
0.0
 40
0.0
 40
0.041773683
 40
0.0840361744
 40
0.126657356
 40
0.1695049536
 40
0.2124461739
 40
0.255347734
 40
0.2980765393
 40
0.3405001682
 40
0.3824874064
 40
0.4239087759
 40
0.4646370687
 40
0.5045478875
 40
0.5435201962
 40
0.5814368877
 40
0.5999642174
 40
0.6181858165
 40
0.6360884225
 40
0.6536591429
 40
0.6708854449
 40
0.6877552479
 40
0.7042568506
 40
0.7203790744
 40
0.7361111744
 40
0.7514429752
 40
0.7663648323
 40
0.7808677049
 40
0.7949432137
 40
0.8085836306
 40
0.8217820383
 40
0.8345322654
 40
0.8468291079
 40
0.8586682842
 40
0.8700466517
 40
0.8809622685
 40
0.8914145636
 40
0.9014045599
 40
0.9109350136
 40
0.9200108095
 40
0.9286391477
 40
0.9368300847
 40
0.9445968849
 40
0.951956666
 40
0.9589309937
 40
0.9655465745
 40
0.9718360038
 40
0.977838309
 40
0.9807467497
 40
0.9836012173
 40
0.9864085083
 40
0.9891758169
 40
0.9919106779
 40
0.9946209207
 40
0.9973146171
 40
1.0
 40
1.0
 40
1.0
 40
1.0
 10
13.1577478311
 20
9.7656041532
 30
0.0
 10
13.1577478311
 20
9.7839615816
 30
0.0
 10
13.1580342253
 20
9.8208918221
 30
0.0
 10
13.1593003334
 20
9.8765388771
 30
0.0
 10
13.1614017502
 20
9.9326330051
 30
0.0
 10
13.1643315991
 20
9.9889885717
 30
0.0
 10
13.1680801912
 20
10.0454190863
 30
0.0
 10
13.1726351381
 20
10.1017378729
 30
0.0
 10
13.177981351
 20
10.1577586018
 30
0.0
 10
13.1841011077
 20
10.2132959427
 30
0.0
 10
13.1909741054
 20
10.2681661723
 30
0.0
 10
13.1985775266
 20
10.3221877949
 30
0.0
 10
13.2068861146
 20
10.37518213
 30
0.0
 10
13.2158722506
 20
10.4269739774
 30
0.0
 10
13.2255060691
 20
10.4773919641
 30
0.0
 10
13.2341120243
 20
10.5184326606
 30
0.0
 10
13.2413062476
 20
10.5504464786
 30
0.0
 10
13.2468019046
 20
10.5738262658
 30
0.0
 10
13.2524344202
 20
10.5967407968
 30
0.0
 10
13.2581991305
 20
10.619171138
 30
0.0
 10
13.2640912848
 20
10.6410987326
 30
0.0
 10
13.270105948
 20
10.6625054544
 30
0.0
 10
13.2762381924
 20
10.6833735999
 30
0.0
 10
13.2824828707
 20
10.703685927
 30
0.0
 10
13.288834859
 20
10.7234256447
 30
0.0
 10
13.2952888499
 20
10.7425764511
 30
0.0
 10
13.3018395106
 20
10.7611225294
 30
0.0
 10
13.3084814157
 20
10.7790485706
 30
0.0
 10
13.3152090292
 20
10.7963397921
 30
0.0
 10
13.3220168298
 20
10.812981929
 30
0.0
 10
13.3288991105
 20
10.8289612882
 30
0.0
 10
13.3358502538
 20
10.8442647036
 30
0.0
 10
13.3428644406
 20
10.8588796187
 30
0.0
 10
13.3499359436
 20
10.8727940266
 30
0.0
 10
13.3570589039
 20
10.8859965449
 30
0.0
 10
13.3642274854
 20
10.8984763878
 30
0.0
 10
13.3714358551
 20
10.9102233802
 30
0.0
 10
13.3786781077
 20
10.9212280118
 30
0.0
 10
13.3859484922
 20
10.931481345
 30
0.0
 10
13.3932411301
 20
10.9409751724
 30
0.0
 10
13.400550406
 20
10.9497018151
 30
0.0
 10
13.4078706276
 20
10.9576543298
 30
0.0
 10
13.4151963843
 20
10.964826266
 30
0.0
 10
13.4225223601
 20
10.9712117792
 30
0.0
 10
13.4298433858
 20
10.9768054521
 30
0.0
 10
13.4371547126
 20
10.9816021993
 30
0.0
 10
13.4444508055
 20
10.9855970523
 30
0.0
 10
13.4505786946
 20
10.988281794
 30
0.0
 10
13.4554545118
 20
10.9900069884
 30
0.0
 10
13.4590649286
 20
10.9910847501
 30
0.0
 10
13.4626660751
 20
10.9919594243
 30
0.0
 10
13.4662572305
 20
10.9926308365
 30
0.0
 10
13.4698375684
 20
10.9930987648
 30
0.0
 10
13.4734063231
 20
10.9933629899
 30
0.0
 10
13.4769625025
 20
10.9934234424
 30
0.0
 10
13.4793259459
 20
10.9933278161
 30
0.0
 10
13.4805032084
 20
10.9932461676
 30
0.0
  0
SPLINE
  5
3A0
100
AcDbEntity
  8
0
100
AcDbSpline
 62
7
  6
CONTINUOUS
 70
0
 71
3
 72
60
 73
56
 74
0
 42
0.0000001
 43
0.0000001
 44
0.0000000001
 40
0.0
 40
0.0
 40
0.0
 40
0.0
 40
0.0417736946
 40
0.084036273
 40
0.1266574884
 40
0.1695051326
 40
0.2124463996
 40
0.2553480056
 40
0.2980768578
 40
0.340500534
 40
0.3824878216
 40
0.423909243
 40
0.4646375902
 40
0.5045484653
 40
0.5435208314
 40
0.5814375809
 40
0.5999649312
 40
0.618186568
 40
0.6360891978
 40
0.6536599534
 40
0.6708862834
 40
0.6877561191
 40
0.7042577531
 40
0.72038001
 40
0.7361121415
 40
0.751443978
 40
0.7663658649
 40
0.7808687762
 40
0.7949443138
 40
0.8085847706
 40
0.8217832093
 40
0.8345334736
 40
0.8468303542
 40
0.8586695603
 40
0.8700479747
 40
0.8809636125
 40
0.8914159615
 40
0.9014059734
 40
0.910936483
 40
0.9200122954
 40
0.9286406842
 40
0.9368316446
 40
0.9445984841
 40
0.9519582967
 40
0.958932651
 40
0.9655482683
 40
0.9718377143
 40
0.9778400536
 40
0.9836011758
 40
0.9864084793
 40
0.9891757987
 40
0.9919106634
 40
0.9946209114
 40
0.9973146136
 40
1.0
 40
1.0
 40
1.0
 40
1.0
 10
13.1983823876
 20
7.4499268541
 30
0.0
 10
13.1983823876
 20
7.4653552733
 30
0.0
 10
13.1986230869
 20
7.4963931575
 30
0.0
 10
13.1996871785
 20
7.5431615136
 30
0.0
 10
13.2014533057
 20
7.590305623
 30
0.0
 10
13.2039156832
 20
7.6376694424
 30
0.0
 10
13.2070661709
 20
7.6850962559
 30
0.0
 10
13.2108943565
 20
7.7324291682
 30
0.0
 10
13.2153875579
 20
7.7795115796
 30
0.0
 10
13.2205308803
 20
7.8261877311
 30
0.0
 10
13.2263072594
 20
7.8723032142
 30
0.0
 10
13.2326975181
 20
7.9177054925
 30
0.0
 10
13.2396804312
 20
7.9622443945
 30
0.0
 10
13.2472327858
 20
8.0057726737
 30
0.0
 10
13.2553294866
 20
8.0481462987
 30
0.0
 10
13.2625623141
 20
8.082638813
 30
0.0
 10
13.2686086826
 20
8.1095447168
 30
0.0
 10
13.2732274687
 20
8.1291941838
 30
0.0
 10
13.2779613036
 20
8.1484526277
 30
0.0
 10
13.2828062197
 20
8.1673041381
 30
0.0
 10
13.2877582609
 20
8.1857331171
 30
0.0
 10
13.2928132547
 20
8.2037243321
 30
0.0
 10
13.2979670748
 20
8.2212629036
 30
0.0
 10
13.3032153855
 20
8.238334341
 30
0.0
 10
13.3085538894
 20
8.2549245316
 30
0.0
 10
13.3139781136
 20
8.2710197759
 30
0.0
 10
13.319483595
 20
8.2866067782
 30
0.0
 10
13.3250657473
 20
8.3016726762
 30
0.0
 10
13.3307199511
 20
8.31620504
 30
0.0
 10
13.3364415294
 20
8.3301918883
 30
0.0
 10
13.3422257202
 20
8.3436217052
 30
0.0
 10
13.3480677774
 20
8.3564834314
 30
0.0
 10
13.3539628171
 20
8.3687665121
 30
0.0
 10
13.3599060455
 20
8.3804608498
 30
0.0
 10
13.3658924869
 20
8.3915568953
 30
0.0
 10
13.3719173225
 20
8.4020455524
 30
0.0
 10
13.3779755305
 20
8.4119183169
 30
0.0
 10
13.3840622956
 20
8.4211671316
 30
0.0
 10
13.3901726171
 20
8.4297845653
 30
0.0
 10
13.3963017287
 20
8.4377636283
 30
0.0
 10
13.4024447451
 20
8.4450979634
 30
0.0
 10
13.4085970234
 20
8.4517816438
 30
0.0
 10
13.4147539156
 20
8.4578093221
 30
0.0
 10
13.4209109968
 20
8.4631760408
 30
0.0
 10
13.4270639687
 20
8.4678772577
 30
0.0
 10
13.4332086136
 20
8.4719087093
 30
0.0
 10
13.4393410035
 20
8.4752662666
 30
0.0
 10
13.445456333
 20
8.4779458628
 30
0.0
 10
13.4505796019
 20
8.4796249909
 30
0.0
 10
13.4546496124
 20
8.4806135434
 30
0.0
 10
13.4576678278
 20
8.4811778978
 30
0.0
 10
13.4606769031
 20
8.4815711542
 30
0.0
 10
13.4636762528
 20
8.4817932386
 30
0.0
 10
13.4666650306
 20
8.4818440924
 30
0.0
 10
13.4686513806
 20
8.4817637465
 30
0.0
 10
13.4696408069
 20
8.4816951293
 30
0.0
  0
SPLINE
  5
3A1
100
AcDbEntity
  8
0
100
AcDbSpline
 62
7
  6
CONTINUOUS
 70
0
 71
3
 72
55
 73
51
 74
0
 42
0.0000001
 43
0.0000001
 44
0.0000000001
 40
0.0
 40
0.0
 40
0.0
 40
0.0
 40
0.0481975415
 40
0.0958290817
 40
0.142818713
 40
0.1890963521
 40
0.2345910715
 40
0.279234315
 40
0.3229593385
 40
0.3657013756
 40
0.4073979227
 40
0.4479889149
 40
0.4874169784
 40
0.525627636
 40
0.5625695632
 40
0.5981948995
 40
0.6324596307
 40
0.6653239472
 40
0.681220104
 40
0.69675341
 40
0.7119202568
 40
0.7267175098
 40
0.7411423279
 40
0.7551923488
 40
0.7688656914
 40
0.782160877
 40
0.7950770786
 40
0.8076139743
 40
0.8197718786
 40
0.8315518771
 40
0.8429557109
 40
0.8539860605
 40
0.8646465134
 40
0.8749416424
 40
0.8848772785
 40
0.8944604376
 40
0.9036996141
 40
0.912604918
 40
0.921188144
 40
0.9294631376
 40
0.9374458256
 40
0.9451544636
 40
0.952609859
 40
0.9598353745
 40
0.966857131
 40
0.9737039172
 40
0.9804070573
 40
0.9870002114
 40
0.9935188976
 40
1.0
 40
1.0
 40
1.0
 40
1.0
 10
9.808841955
 20
11.7211795822
 30
0.0
 10
9.7975627267
 20
11.7219617994
 30
0.0
 10
9.775145237
 20
11.7236429639
 30
0.0
 10
9.7417666186
 20
11.7265336453
 30
0.0
 10
9.7088726692
 20
11.729774896
 30
0.0
 10
9.6765188041
 20
11.7333611602
 30
0.0
 10
9.6447588159
 20
11.7372864942
 30
0.0
 10
9.6136459096
 20
11.7415442733
 30
0.0
 10
9.5832320634
 20
11.7461273385
 30
0.0
 10
9.5535681021
 20
11.7510279893
 30
0.0
 10
9.5247035984
 20
11.7562379921
 30
0.0
 10
9.4966867653
 20
11.7617485916
 30
0.0
 10
9.4695643784
 20
11.7675505107
 30
0.0
 10
9.4433816963
 20
11.773633991
 30
0.0
 10
9.4181824054
 20
11.7799888046
 30
0.0
 10
9.3940084687
 20
11.7866042745
 30
0.0
 10
9.3709002597
 20
11.7934692719
 30
0.0
 10
9.3523636032
 20
11.7994528287
 30
0.0
 10
9.3381029068
 20
11.8043637667
 30
0.0
 10
9.3278161945
 20
11.8080612571
 30
0.0
 10
9.3178237999
 20
11.8118123826
 30
0.0
 10
9.3081298636
 20
11.8156155356
 30
0.0
 10
9.2987384383
 20
11.8194691643
 30
0.0
 10
9.2896534343
 20
11.8233716552
 30
0.0
 10
9.2808786212
 20
11.8273213429
 30
0.0
 10
9.2724176696
 20
11.8313166436
 30
0.0
 10
9.2642740761
 20
11.8353558378
 30
0.0
 10
9.2564512268
 20
11.8394372671
 30
0.0
 10
9.2489523787
 20
11.843559266
 30
0.0
 10
9.2417806109
 20
11.8477200686
 30
0.0
 10
9.2349389199
 20
11.8519180254
 30
0.0
 10
9.2284301156
 20
11.8561513758
 30
0.0
 10
9.2222568739
 20
11.8604183769
 30
0.0
 10
9.2164217767
 20
11.8647173542
 30
0.0
 10
9.2109271827
 20
11.8690464996
 30
0.0
 10
9.2057753897
 20
11.8734041334
 30
0.0
 10
9.20096853
 20
11.8777885251
 30
0.0
 10
9.1965085602
 20
11.8821979089
 30
0.0
 10
9.1923974206
 20
11.8866306503
 30
0.0
 10
9.1886368046
 20
11.8910849824
 30
0.0
 10
9.1852283713
 20
11.8955592328
 30
0.0
 10
9.1821737088
 20
11.9000517334
 30
0.0
 10
9.1794741826
 20
11.9045607124
 30
0.0
 10
9.1771312546
 20
11.9090844913
 30
0.0
 10
9.1751461599
 20
11.9136212339
 30
0.0
 10
9.173520056
 20
11.9181690628
 30
0.0
 10
9.1722541136
 20
11.9227259913
 30
0.0
 10
9.1713491116
 20
11.9272899673
 30
0.0
 10
9.1708058365
 20
11.9318583994
 30
0.0
 10
9.170684983
 20
11.9349092887
 30
0.0
 10
9.170684986
 20
11.9364296446
 30
0.0
  0
SPLINE
  5
3A2
100
AcDbEntity
  8
0
100
AcDbSpline
 62
7
  6
CONTINUOUS
 70
0
 71
3
 72
39
 73
35
 74
0
 42
0.0000001
 43
0.0000001
 44
0.0000000001
 40
0.0
 40
0.0
 40
0.0
 40
0.0
 40
0.0299424718
 40
0.0599093198
 40
0.0899243266
 40
0.120010106
 40
0.1501875647
 40
0.1804754164
 40
0.2108897604
 40
0.2414437366
 40
0.2721472601
 40
0.3030068419
 40
0.3340254933
 40
0.365202712
 40
0.3965345466
 40
0.4280137318
 40
0.4596298892
 40
0.491369784
 40
0.5232176323
 40
0.5551554498
 40
0.5871634345
 40
0.6192203774
 40
0.651304093
 40
0.6833918636
 40
0.7154608911
 40
0.7474887497
 40
0.7794538335
 40
0.8113357936
 40
0.8431159524
 40
0.8747777124
 40
0.906306864
 40
0.9376920822
 40
0.9689247084
 40
1.0
 40
1.0
 40
1.0
 40
1.0
 10
12.4107152635
 20
6.3124862526
 30
0.0
 10
12.4153769599
 20
6.3169891063
 30
0.0
 10
12.4250669126
 20
6.3256314147
 30
0.0
 10
12.4405917271
 20
6.3374050295
 30
0.0
 10
12.4570270735
 20
6.3479298742
 30
0.0
 10
12.4742811183
 20
6.3571469074
 30
0.0
 10
12.4922589996
 20
6.3650057746
 30
0.0
 10
12.5108614994
 20
6.3714632759
 30
0.0
 10
12.529986107
 20
6.3764840798
 30
0.0
 10
12.5495274593
 20
6.380040775
 30
0.0
 10
12.5693779653
 20
6.3821140417
 30
0.0
 10
12.5894283917
 20
6.3826927338
 30
0.0
 10
12.6095684663
 20
6.3817739278
 30
0.0
 10
12.6296874806
 20
6.3793629249
 30
0.0
 10
12.6496748927
 20
6.3754732106
 30
0.0
 10
12.6694209277
 20
6.3701263715
 30
0.0
 10
12.6888171723
 20
6.3633519695
 30
0.0
 10
12.7077571619
 20
6.3551873749
 30
0.0
 10
12.7261369562
 20
6.3456775585
 30
0.0
 10
12.743855703
 20
6.3348748445
 30
0.0
 10
12.7608161833
 20
6.3228386227
 30
0.0
 10
12.7769253382
 20
6.3096350233
 30
0.0
 10
12.7920947732
 20
6.295336557
 30
0.0
 10
12.806241238
 20
6.2800217201
 30
0.0
 10
12.8192870786
 20
6.2637745678
 30
0.0
 10
12.8311606587
 20
6.2466842572
 30
0.0
 10
12.8417967507
 20
6.228844565
 30
0.0
 10
12.8511368884
 20
6.2103533744
 30
0.0
 10
12.8591296938
 20
6.191312158
 30
0.0
 10
12.8657311375
 20
6.1718253841
 30
0.0
 10
12.8709048342
 20
6.152000108
 30
0.0
 10
12.87462213
 20
6.1319448087
 30
0.0
 10
12.8768624701
 20
6.1117710579
 30
0.0
 10
12.8773642534
 20
6.0982788319
 30
0.0
 10
12.8773642534
 20
6.091552335
 30
0.0
  0
SPLINE
  5
3A3
100
AcDbEntity
  8
0
100
AcDbSpline
 62
7
  6
CONTINUOUS
 70
0
 71
3
 72
39
 73
35
 74
0
 42
0.0000001
 43
0.0000001
 44
0.0000000001
 40
0.0
 40
0.0
 40
0.0
 40
0.0
 40
0.0299424718
 40
0.0599093198
 40
0.0899243266
 40
0.120010106
 40
0.1501875647
 40
0.1804754164
 40
0.2108897604
 40
0.2414437366
 40
0.2721472601
 40
0.3030068419
 40
0.3340254933
 40
0.365202712
 40
0.3965345466
 40
0.4280137318
 40
0.4596298892
 40
0.491369784
 40
0.5232176323
 40
0.5551554498
 40
0.5871634345
 40
0.6192203774
 40
0.651304093
 40
0.6833918636
 40
0.7154608911
 40
0.7474887497
 40
0.7794538335
 40
0.8113357936
 40
0.8431159524
 40
0.8747777124
 40
0.906306864
 40
0.9376920822
 40
0.9689247084
 40
1.0
 40
1.0
 40
1.0
 40
1.0
 10
8.5470117294
 20
6.5804350027
 30
0.0
 10
8.5516734258
 20
6.5849378565
 30
0.0
 10
8.5613633785
 20
6.5935801649
 30
0.0
 10
8.576888193
 20
6.6053537797
 30
0.0
 10
8.5933235394
 20
6.6158786244
 30
0.0
 10
8.6105775842
 20
6.6250956576
 30
0.0
 10
8.6285554655
 20
6.6329545248
 30
0.0
 10
8.6471579653
 20
6.6394120261
 30
0.0
 10
8.6662825729
 20
6.64443283
 30
0.0
 10
8.6858239252
 20
6.6479895252
 30
0.0
 10
8.7056744312
 20
6.6500627919
 30
0.0
 10
8.7257248576
 20
6.650641484
 30
0.0
 10
8.7458649322
 20
6.649722678
 30
0.0
 10
8.7659839465
 20
6.6473116751
 30
0.0
 10
8.7859713586
 20
6.6434219608
 30
0.0
 10
8.8057173936
 20
6.6380751216
 30
0.0
 10
8.8251136382
 20
6.6313007196
 30
0.0
 10
8.8440536278
 20
6.6231361251
 30
0.0
 10
8.8624334222
 20
6.6136263086
 30
0.0
 10
8.8801521689
 20
6.6028235947
 30
0.0
 10
8.8971126492
 20
6.5907873728
 30
0.0
 10
8.9132218041
 20
6.5775837734
 30
0.0
 10
8.9283912391
 20
6.5632853072
 30
0.0
 10
8.9425377039
 20
6.5479704703
 30
0.0
 10
8.9555835445
 20
6.531723318
 30
0.0
 10
8.9674571246
 20
6.5146330074
 30
0.0
 10
8.9780932166
 20
6.4967933151
 30
0.0
 10
8.9874333543
 20
6.4783021246
 30
0.0
 10
8.9954261597
 20
6.4592609082
 30
0.0
 10
9.0020276035
 20
6.4397741342
 30
0.0
 10
9.0072013001
 20
6.4199488582
 30
0.0
 10
9.0109185959
 20
6.3998935588
 30
0.0
 10
9.013158936
 20
6.379719808
 30
0.0
 10
9.0136607193
 20
6.366227582
 30
0.0
 10
9.0136607193
 20
6.3595010852
 30
0.0
  0
SPLINE
  5
3A4
100
AcDbEntity
  8
0
100
AcDbSpline
 62
7
  6
CONTINUOUS
 70
0
 71
3
 72
61
 73
57
 74
0
 42
0.0000001
 43
0.0000001
 44
0.0000000001
 40
0.0
 40
0.0
 40
0.0
 40
0.0
 40
0.0027758433
 40
0.0055595941
 40
0.0083590873
 40
0.0111820092
 40
0.0140358402
 40
0.0169278032
 40
0.0228516385
 40
0.0290063602
 40
0.0354367082
 40
0.0387681006
 40
0.0421822872
 40
0.0492730731
 40
0.0567370731
 40
0.064596108
 40
0.072867737
 40
0.081565694
 40
0.09070057
 40
0.1002800962
 40
0.110309688
 40
0.1207926208
 40
0.131730418
 40
0.1431229861
 40
0.1549688512
 40
0.1672653029
 40
0.1800084954
 40
0.1931936241
 40
0.2068149163
 40
0.2208658417
 40
0.235339028
 40
0.2502264837
 40
0.2655194851
 40
0.2812087772
 40
0.2972844765
 40
0.3137362206
 40
0.3305531169
 40
0.3477238252
 40
0.3652365653
 40
0.3830791312
 40
0.4012389558
 40
0.4197030683
 40
0.4574902793
 40
0.4963311237
 40
0.5361109391
 40
0.5767111052
 40
0.6180096092
 40
0.6598815936
 40
0.7021998921
 40
0.7448355581
 40
0.7876583843
 40
0.8305374341
 40
0.8733415137
 40
0.9159398405
 40
0.9582021223
 40
1.0
 40
1.0
 40
1.0
 40
1.0
 10
10.8926849519
 20
11.9364291901
 30
0.0
 10
10.8926849498
 20
11.9353653279
 30
0.0
 10
10.8926259281
 20
11.9332341043
 30
0.0
 10
10.8923604514
 20
11.9300398993
 30
0.0
 10
10.8919180622
 20
11.9268470629
 30
0.0
 10
10.8912989495
 20
11.9236564619
 30
0.0
 10
10.8905032457
 20
11.9204686938
 30
0.0
 10
10.8891969384
 20
11.9161895038
 30
0.0
 10
10.8871064437
 20
11.9108355663
 30
0.0
 10
10.8839148306
 20
11.9044902497
 30
0.0
 10
10.8807108422
 20
11.8992905839
 30
0.0
 10
10.8778154576
 20
11.8951521718
 30
0.0
 10
10.8746142551
 20
11.8909231218
 30
0.0
 10
10.870163423
 20
11.8856602744
 30
0.0
 10
10.8642029208
 20
11.8794672981
 30
0.0
 10
10.8575619718
 20
11.8733228758
 30
0.0
 10
10.8502461036
 20
11.8672317699
 30
0.0
 10
10.8422611868
 20
11.8611982878
 30
0.0
 10
10.8336135306
 20
11.8552271338
 30
0.0
 10
10.8243100767
 20
11.8493228133
 30
0.0
 10
10.8143582145
 20
11.8434900591
 30
0.0
 10
10.8037659532
 20
11.8377334365
 30
0.0
 10
10.7925417934
 20
11.8320576174
 30
0.0
 10
10.7806948038
 20
11.8264671588
 30
0.0
 10
10.7682345686
 20
11.8209666059
 30
0.0
 10
10.7551711911
 20
11.815560457
 30
0.0
 10
10.7415152949
 20
11.8102530928
 30
0.0
 10
10.7272779849
 20
11.8050489108
 30
0.0
 10
10.7124708754
 20
11.7999521102
 30
0.0
 10
10.6971060348
 20
11.7949669483
 30
0.0
 10
10.6811960191
 20
11.7900974378
 30
0.0
 10
10.6647538188
 20
11.7853476583
 30
0.0
 10
10.6477928829
 20
11.7807214375
 30
0.0
 10
10.6303270786
 20
11.776222643
 30
0.0
 10
10.6123706997
 20
11.771854919
 30
0.0
 10
10.5939384409
 20
11.7676218946
 30
0.0
 10
10.5750453926
 20
11.7635270257
 30
0.0
 10
10.5557070254
 20
11.7595736859
 30
0.0
 10
10.5359391753
 20
11.7557651316
 30
0.0
 10
10.5157580394
 20
11.7521044755
 30
0.0
 10
10.4951801317
 20
11.7485947412
 30
0.0
 10
10.467019847
 20
11.7440855286
 30
0.0
 10
10.4309495225
 20
11.7388576376
 30
0.0
 10
10.3866835042
 20
11.7332762531
 30
0.0
 10
10.3412544049
 20
11.7283582713
 30
0.0
 10
10.2948111176
 20
11.72411992
 30
0.0
 10
10.2475057171
 20
11.7205752093
 30
0.0
 10
10.1994931758
 20
11.7177358449
 30
0.0
 10
10.1509307881
 20
11.7156112029
 30
0.0
 10
10.1019776676
 20
11.7142082982
 30
0.0
 10
10.0527942139
 20
11.7135317607
 30
0.0
 10
10.0035415939
 20
11.7135838267
 30
0.0
 10
9.9543811826
 20
11.7143643172
 30
0.0
 10
9.9054740887
 20
11.7158706708
 30
0.0
 10
9.8569806391
 20
11.7180978866
 30
0.0
 10
9.8248229132
 20
11.720071299
 30
0.0
 10
9.808841955
 20
11.7211795822
 30
0.0
  0
SPLINE
  5
3A5
100
AcDbEntity
  8
0
100
AcDbSpline
 62
7
  6
CONTINUOUS
 70
0
 71
3
 72
55
 73
51
 74
0
 42
0.0000001
 43
0.0000001
 44
0.0000000001
 40
0.0
 40
0.0
 40
0.0
 40
0.0
 40
0.0063157967
 40
0.0126705064
 40
0.0191022577
 40
0.0256477311
 40
0.0323415292
 40
0.039215794
 40
0.0462999396
 40
0.0536204765
 40
0.0612011269
 40
0.0690627967
 40
0.077223814
 40
0.0857001286
 40
0.0945054138
 40
0.1036514395
 40
0.1131481141
 40
0.1230037529
 40
0.1332252839
 40
0.1438182539
 40
0.1547871578
 40
0.1661353969
 40
0.1778654436
 40
0.1899790024
 40
0.2024769158
 40
0.215359436
 40
0.2286261423
 40
0.2422760211
 40
0.2563076146
 40
0.2707188714
 40
0.2855073776
 40
0.3006702734
 40
0.3162042724
 40
0.3321058142
 40
0.3649946654
 40
0.3993021056
 40
0.4349881404
 40
0.4720086211
 40
0.5103156623
 40
0.5498579758
 40
0.5905811562
 40
0.6324279171
 40
0.6753383233
 40
0.7192500409
 40
0.7640984978
 40
0.8098171101
 40
0.8563375432
 40
0.9035891104
 40
0.9515016896
 40
1.0
 40
1.0
 40
1.0
 40
1.0
 10
13.3443479141
 20
9.0299617619
 30
0.0
 10
13.3426847727
 20
9.0300771083
 30
0.0
 10
13.3393561042
 20
9.0304446619
 30
0.0
 10
13.3344004124
 20
9.0314026853
 30
0.0
 10
13.3294778355
 20
9.0327672674
 30
0.0
 10
13.3245912505
 20
9.0345375233
 30
0.0
 10
13.3197427318
 20
9.0367121398
 30
0.0
 10
13.3149343747
 20
9.0392897708
 30
0.0
 10
13.3101681235
 20
9.042268972
 30
0.0
 10
13.3054457247
 20
9.0456480695
 30
0.0
 10
13.3007689971
 20
9.0494255052
 30
0.0
 10
13.2961395951
 20
9.0535994709
 30
0.0
 10
13.2915592077
 20
9.0581681421
 30
0.0
 10
13.2870295708
 20
9.0631296158
 30
0.0
 10
13.2825522886
 20
9.0684817634
 30
0.0
 10
13.2781291323
 20
9.0742224483
 30
0.0
 10
13.2737617536
 20
9.0803492983
 30
0.0
 10
13.2694518374
 20
9.086859826
 30
0.0
 10
13.2652011371
 20
9.0937514226
 30
0.0
 10
13.2610112569
 20
9.1010212532
 30
0.0
 10
13.2568839415
 20
9.1086663999
 30
0.0
 10
13.2528208245
 20
9.1166837397
 30
0.0
 10
13.2488235287
 20
9.1250700023
 30
0.0
 10
13.2448937429
 20
9.1338217887
 30
0.0
 10
13.2410329966
 20
9.1429354996
 30
0.0
 10
13.2372429249
 20
9.1524074246
 30
0.0
 10
13.2335250691
 20
9.1622336789
 30
0.0
 10
13.2298809265
 20
9.1724102288
 30
0.0
 10
13.2263120592
 20
9.1829329123
 30
0.0
 10
13.2228198731
 20
9.1937973941
 30
0.0
 10
13.219405848
 20
9.2049992184
 30
0.0
 10
13.2160713972
 20
9.2165337749
 30
0.0
 10
13.2128178407
 20
9.2283963272
 30
0.0
 10
13.2085414973
 20
9.2448286679
 30
0.0
 10
13.2034196002
 20
9.2661594312
 30
0.0
 10
13.1976837936
 20
9.2927060613
 30
0.0
 10
13.192301087
 20
9.320438189
 30
0.0
 10
13.1872804287
 20
9.349310104
 30
0.0
 10
13.1826301859
 20
9.3792743594
 30
0.0
 10
13.178358108
 20
9.4102816293
 30
0.0
 10
13.174471322
 20
9.4422808581
 30
0.0
 10
13.1709763057
 20
9.4752193218
 30
0.0
 10
13.1678788759
 20
9.5090427293
 30
0.0
 10
13.1651841965
 20
9.5436953142
 30
0.0
 10
13.162896761
 20
9.5791199373
 30
0.0
 10
13.1610203881
 20
9.6152582065
 30
0.0
 10
13.1595582272
 20
9.6520503951
 30
0.0
 10
13.1585126668
 20
9.6894361069
 30
0.0
 10
13.1578855392
 20
9.7273532566
 30
0.0
 10
13.1577478311
 20
9.7528023949
 30
0.0
 10
13.1577478311
 20
9.7656041532
 30
0.0
  0
SPLINE
  5
3A6
100
AcDbEntity
  8
0
100
AcDbSpline
 62
7
  6
CONTINUOUS
 70
0
 71
3
 72
51
 73
47
 74
0
 42
0.0000001
 43
0.0000001
 44
0.0000000001
 40
0.0
 40
0.0
 40
0.0
 40
0.0
 40
0.0063396096
 40
0.0128069396
 40
0.0194315486
 40
0.0262407626
 40
0.0332594175
 40
0.0405099132
 40
0.0480123017
 40
0.0557842366
 40
0.0638412318
 40
0.072196883
 40
0.0808628532
 40
0.0898491663
 40
0.0991644441
 40
0.1088158504
 40
0.1188093494
 40
0.1291499225
 40
0.1398414629
 40
0.150886983
 40
0.1622888116
 40
0.1740484524
 40
0.1861667434
 40
0.1986440426
 40
0.211480067
 40
0.2246740089
 40
0.2521296966
 40
0.2809973068
 40
0.3112562963
 40
0.3428809072
 40
0.3758407581
 40
0.4101015212
 40
0.4456251143
 40
0.4823700872
 40
0.5202920569
 40
0.5593437547
 40
0.5994753343
 40
0.6406346759
 40
0.6827673919
 40
0.7258170545
 40
0.7697254855
 40
0.8144328907
 40
0.8598773702
 40
0.9059959849
 40
0.9527270034
 40
1.0
 40
1.0
 40
1.0
 40
1.0
 10
13.2994560272
 20
9.4008877509
 30
0.0
 10
13.2984649504
 20
9.4011788178
 30
0.0
 10
13.2964842354
 20
9.4018423456
 30
0.0
 10
13.2935599848
 20
9.4030623069
 30
0.0
 10
13.2906581461
 20
9.4045147522
 30
0.0
 10
13.2877800744
 20
9.4061989146
 30
0.0
 10
13.2849267008
 20
9.4081139088
 30
0.0
 10
13.2820990182
 20
9.4102588473
 30
0.0
 10
13.2792980324
 20
9.4126328686
 30
0.0
 10
13.276524651
 20
9.4152349438
 30
0.0
 10
13.2737798005
 20
9.4180640364
 30
0.0
 10
13.271064473
 20
9.4211191045
 30
0.0
 10
13.2683795693
 20
9.4243989493
 30
0.0
 10
13.2657260147
 20
9.42790233
 30
0.0
 10
13.2631048032
 20
9.4316279771
 30
0.0
 10
13.260516841
 20
9.4355744751
 30
0.0
 10
13.2579630469
 20
9.4397403445
 30
0.0
 10
13.2554444045
 20
9.444124065
 30
0.0
 10
13.2529618118
 20
9.4487239829
 30
0.0
 10
13.2505161665
 20
9.4535383707
 30
0.0
 10
13.2481084254
 20
9.4585654528
 30
0.0
 10
13.2457394649
 20
9.463803334
 30
0.0
 10
13.243410148
 20
9.4692500409
 30
0.0
 10
13.2411213975
 20
9.4749035459
 30
0.0
 10
13.2388740392
 20
9.4807617249
 30
0.0
 10
13.2358943112
 20
9.4889514661
 30
0.0
 10
13.2322878022
 20
9.4996907991
 30
0.0
 10
13.2281936937
 20
9.5131926584
 30
0.0
 10
13.2242841127
 20
9.5274545469
 30
0.0
 10
13.2205649994
 20
9.5424549539
 30
0.0
 10
13.2170419884
 20
9.5581713779
 30
0.0
 10
13.2137204902
 20
9.5745801619
 30
0.0
 10
13.2106055676
 20
9.591656579
 30
0.0
 10
13.2077019524
 20
9.6093748645
 30
0.0
 10
13.2050141147
 20
9.6277082736
 30
0.0
 10
13.2025461465
 20
9.6466291095
 30
0.0
 10
13.2003017993
 20
9.6661087755
 30
0.0
 10
13.1982845348
 20
9.6861178257
 30
0.0
 10
13.1964974175
 20
9.7066259973
 30
0.0
 10
13.1949431641
 20
9.727602266
 30
0.0
 10
13.1936241785
 20
9.749014923
 30
0.0
 10
13.1925424682
 20
9.7708315331
 30
0.0
 10
13.1916996673
 20
9.7930190291
 30
0.0
 10
13.1910970821
 20
9.8155441682
 30
0.0
 10
13.1907356791
 20
9.8383723884
 30
0.0
 10
13.1906562654
 20
9.8536889122
 30
0.0
 10
13.1906562654
 20
9.8613912632
 30
0.0
  0
SPLINE
  5
3A7
100
AcDbEntity
  8
0
100
AcDbSpline
 62
7
  6
CONTINUOUS
 70
0
 71
3
 72
54
 73
50
 74
0
 42
0.0000001
 43
0.0000001
 44
0.0000000001
 40
0.0
 40
0.0
 40
0.0
 40
0.0
 40
0.0054465069
 40
0.0110657958
 40
0.0169073432
 40
0.0230145597
 40
0.0294246974
 40
0.0361691224
 40
0.0432737866
 40
0.0507599027
 40
0.058644442
 40
0.0669408647
 40
0.0756594323
 40
0.0848078783
 40
0.0943915212
 40
0.1044138512
 40
0.1148765072
 40
0.1257797672
 40
0.1371224676
 40
0.148902384
 40
0.1611161573
 40
0.1737595554
 40
0.1868274485
 40
0.2003139495
 40
0.2142124612
 40
0.2285157012
 40
0.2432158261
 40
0.2583043571
 40
0.2737723706
 40
0.2896103491
 40
0.305808417
 40
0.3223561487
 40
0.3564567233
 40
0.3918218213
 40
0.428355103
 40
0.4659552986
 40
0.5045167728
 40
0.5439300524
 40
0.5840823313
 40
0.6248579578
 40
0.6661389094
 40
0.7078052621
 40
0.749735648
 40
0.7918077272
 40
0.8338986045
 40
0.8758854024
 40
0.9176453936
 40
0.9590572421
 40
1.0
 40
1.0
 40
1.0
 40
1.0
 10
13.3848382304
 20
10.6320677338
 30
0.0
 10
13.3833666237
 20
10.6318495621
 30
0.0
 10
13.3803987204
 20
10.631243688
 30
0.0
 10
13.3759841733
 20
10.629863898
 30
0.0
 10
13.3715533728
 20
10.6280040054
 30
0.0
 10
13.3671102292
 20
10.6256668148
 30
0.0
 10
13.3626574964
 20
10.6228549909
 30
0.0
 10
13.3581980933
 20
10.6195712855
 30
0.0
 10
13.3537348321
 20
10.6158185899
 30
0.0
 10
13.3492707105
 20
10.6115998902
 30
0.0
 10
13.3448086873
 20
10.6069185254
 30
0.0
 10
13.3403519799
 20
10.601777996
 30
0.0
 10
13.3359036903
 20
10.5961822623
 30
0.0
 10
13.3314671972
 20
10.5901354891
 30
0.0
 10
13.3270456952
 20
10.5836423248
 30
0.0
 10
13.3226426399
 20
10.5767076521
 30
0.0
 10
13.3182612767
 20
10.5693368162
 30
0.0
 10
13.3139050696
 20
10.561535422
 30
0.0
 10
13.3095772873
 20
10.5533094973
 30
0.0
 10
13.3052813548
 20
10.544665352
 30
0.0
 10
13.3010205447
 20
10.5356096764
 30
0.0
 10
13.2967982124
 20
10.5261494586
 30
0.0
 10
13.2926176176
 20
10.5162920295
 30
0.0
 10
13.2884820268
 20
10.5060450253
 30
0.0
 10
13.2843946706
 20
10.4954163944
 30
0.0
 10
13.280358715
 20
10.4844143899
 30
0.0
 10
13.2763773443
 20
10.4730475529
 30
0.0
 10
13.2724536178
 20
10.4613247225
 30
0.0
 10
13.2685906541
 20
10.449255005
 30
0.0
 10
13.264791408
 20
10.4368477963
 30
0.0
 10
13.2610588946
 20
10.4241127308
 30
0.0
 10
13.2561256549
 20
10.4065326353
 30
0.0
 10
13.2501567681
 20
10.3838072622
 30
0.0
 10
13.2433747417
 20
10.3556577405
 30
0.0
 10
13.236924928
 20
10.3264506071
 30
0.0
 10
13.2308275169
 20
10.2962767886
 30
0.0
 10
13.2251016088
 20
10.2652301061
 30
0.0
 10
13.219765125
 20
10.2334071727
 30
0.0
 10
13.2148347616
 20
10.2009070296
 30
0.0
 10
13.2103259362
 20
10.1678308484
 30
0.0
 10
13.206252741
 20
10.1342816071
 30
0.0
 10
13.2026279006
 20
10.1003637682
 30
0.0
 10
13.1994627306
 20
10.0661829476
 30
0.0
 10
13.1967671081
 20
10.0318455919
 30
0.0
 10
13.1945494289
 20
9.9974586182
 30
0.0
 10
13.1928166078
 20
9.963129156
 30
0.0
 10
13.1915740054
 20
9.928964012
 30
0.0
 10
13.1908254955
 20
9.8950697685
 30
0.0
 10
13.1906562654
 20
9.8725746111
 30
0.0
 10
13.1906562654
 20
9.8613912632
 30
0.0
  0
SPLINE
  5
3A8
100
AcDbEntity
  8
0
100
AcDbSpline
 62
7
  6
CONTINUOUS
 70
0
 71
3
 72
53
 73
49
 74
0
 42
0.0000001
 43
0.0000001
 44
0.0000000001
 40
0.0
 40
0.0
 40
0.0
 40
0.0
 40
0.0063158505
 40
0.0126706065
 40
0.0191024059
 40
0.025647925
 40
0.0323417594
 40
0.0392160732
 40
0.0536138138
 40
0.0611945116
 40
0.0690562199
 40
0.0772172833
 40
0.0856936463
 40
0.0944989782
 40
0.1036450547
 40
0.113141788
 40
0.1229974785
 40
0.1332190725
 40
0.143812113
 40
0.1547810712
 40
0.1661293938
 40
0.1778595131
 40
0.1899731419
 40
0.202471156
 40
0.2153537422
 40
0.2286205498
 40
0.2422705327
 40
0.2563022009
 40
0.2707135857
 40
0.2855021832
 40
0.3006651871
 40
0.3321002773
 40
0.3649893983
 40
0.3992971141
 40
0.4349834107
 40
0.4720041701
 40
0.5103115331
 40
0.5498541823
 40
0.5905776893
 40
0.6324247808
 40
0.6753355513
 40
0.7192476511
 40
0.7640964723
 40
0.8098154905
 40
0.8563363112
 40
0.9035882029
 40
0.951501464
 40
1.0
 40
1.0
 40
1.0
 40
1.0
 10
13.3552103156
 20
6.8316582622
 30
0.0
 10
13.3538125307
 20
6.8317551993
 30
0.0
 10
13.3510149595
 20
6.832064115
 30
0.0
 10
13.3468499481
 20
6.83286921
 30
0.0
 10
13.3427127689
 20
6.8340160613
 30
0.0
 10
13.3386058763
 20
6.8355038253
 30
0.0
 10
13.3345308195
 20
6.8373314969
 30
0.0
 10
13.3290591533
 20
6.8402646374
 30
0.0
 10
13.3237360373
 20
6.8438551816
 30
0.0
 10
13.3185846629
 20
6.8480161294
 30
0.0
 10
13.3146936187
 20
6.8515242721
 30
0.0
 10
13.3108441124
 20
6.8553639306
 30
0.0
 10
13.3070371626
 20
6.8595337816
 30
0.0
 10
13.3032742381
 20
6.8640319536
 30
0.0
 10
13.2995567966
 20
6.8688566783
 30
0.0
 10
13.2958862419
 20
6.8740059579
 30
0.0
 10
13.2922639695
 20
6.8794776925
 30
0.0
 10
13.2886914724
 20
6.8852697023
 30
0.0
 10
13.285170098
 20
6.8913796003
 30
0.0
 10
13.2817012839
 20
6.8978049233
 30
0.0
 10
13.2782864525
 20
6.9045430683
 30
0.0
 10
13.2749269246
 20
6.9115912673
 30
0.0
 10
13.2716241287
 20
6.9189466699
 30
0.0
 10
13.2683793857
 20
6.9266062599
 30
0.0
 10
13.2651940015
 20
6.9345668992
 30
0.0
 10
13.2620693415
 20
6.9428253452
 30
0.0
 10
13.2590066318
 20
6.9513781949
 30
0.0
 10
13.2560071562
 20
6.9602219468
 30
0.0
 10
13.2530721777
 20
6.9693529704
 30
0.0
 10
13.2502028339
 20
6.9787675144
 30
0.0
 10
13.2464207817
 20
6.9918505702
 30
0.0
 10
13.2418765846
 20
7.0088911897
 30
0.0
 10
13.2367672107
 20
7.030169375
 30
0.0
 10
13.2319465643
 20
7.0524805284
 30
0.0
 10
13.2274226616
 20
7.0757878981
 30
0.0
 10
13.2232030443
 20
7.1000532389
 30
0.0
 10
13.219294756
 20
7.1252366372
 30
0.0
 10
13.2157042958
 20
7.1512966418
 30
0.0
 10
13.2124376446
 20
7.1781903299
 30
0.0
 10
13.2095002505
 20
7.2058733964
 30
0.0
 10
13.2068970203
 20
7.2343002201
 30
0.0
 10
13.2046322831
 20
7.2634239265
 30
0.0
 10
13.2027098072
 20
7.2931964948
 30
0.0
 10
13.2011328056
 20
7.3235688419
 30
0.0
 10
13.199903935
 20
7.3544907616
 30
0.0
 10
13.1990251917
 20
7.3859115638
 30
0.0
 10
13.1984981284
 20
7.4177789727
 30
0.0
 10
13.1983823876
 20
7.4391676787
 30
0.0
 10
13.1983823876
 20
7.4499268541
 30
0.0
  0
SPLINE
  5
3A9
100
AcDbEntity
  8
0
100
AcDbSpline
 62
7
  6
CONTINUOUS
 70
0
 71
3
 72
35
 73
31
 74
0
 42
0.0000001
 43
0.0000001
 44
0.0000000001
 40
0.0
 40
0.0
 40
0.0
 40
0.0
 40
0.015174081
 40
0.0313459646
 40
0.0485707239
 40
0.0668894777
 40
0.0863318811
 40
0.1069178148
 40
0.1286593751
 40
0.1515616343
 40
0.1756242417
 40
0.2008416113
 40
0.2272041787
 40
0.2546983724
 40
0.2833074978
 40
0.313011748
 40
0.3437886969
 40
0.3756134844
 40
0.4084589418
 40
0.4422959841
 40
0.4770934434
 40
0.5128186165
 40
0.5494369226
 40
0.5869125053
 40
0.6252078773
 40
0.6642844099
 40
0.7446186259
 40
0.8275840016
 40
0.9128313306
 40
1.0
 40
1.0
 40
1.0
 40
1.0
 10
13.2917101406
 20
7.1849054755
 30
0.0
 10
13.290396515
 20
7.186207382
 30
0.0
 10
13.2877950636
 20
7.1890115778
 30
0.0
 10
13.2840872182
 20
7.1936318431
 30
0.0
 10
13.2804574375
 20
7.1987897087
 30
0.0
 10
13.2769096114
 20
7.2044790865
 30
0.0
 10
13.2734473145
 20
7.2106938686
 30
0.0
 10
13.2700741925
 20
7.2174271253
 30
0.0
 10
13.2667940336
 20
7.2246714045
 30
0.0
 10
13.2636104005
 20
7.2324185483
 30
0.0
 10
13.2605270105
 20
7.240659841
 30
0.0
 10
13.2575472849
 20
7.2493859116
 30
0.0
 10
13.2546747433
 20
7.2585868363
 30
0.0
 10
13.2519126297
 20
7.2682520919
 30
0.0
 10
13.249264196
 20
7.2783706136
 30
0.0
 10
13.2467324845
 20
7.2889307877
 30
0.0
 10
13.2443204435
 20
7.2999204794
 30
0.0
 10
13.2420308907
 20
7.311327046
 30
0.0
 10
13.239866455
 20
7.3231373535
 30
0.0
 10
13.2378297036
 20
7.3353377933
 30
0.0
 10
13.2359229437
 20
7.3479143025
 30
0.0
 10
13.2341484636
 20
7.360852373
 30
0.0
 10
13.2325082537
 20
7.3741370832
 30
0.0
 10
13.2310042969
 20
7.3877530945
 30
0.0
 10
13.229638262
 20
7.4016847124
 30
0.0
 10
13.2279878513
 20
7.4208359661
 30
0.0
 10
13.2262906641
 20
7.4454461105
 30
0.0
 10
13.2248434624
 20
7.4757074949
 30
0.0
 10
13.2239743956
 20
7.5068241688
 30
0.0
 10
13.2237850758
 20
7.5278394955
 30
0.0
 10
13.2237850758
 20
7.5384639697
 30
0.0
  0
SPLINE
  5
3AA
100
AcDbEntity
  8
0
100
AcDbSpline
 62
7
  6
CONTINUOUS
 70
0
 71
3
 72
49
 73
45
 74
0
 42
0.0000001
 43
0.0000001
 44
0.0000000001
 40
0.0
 40
0.0
 40
0.0
 40
0.0
 40
0.0065762875
 40
0.0134734864
 40
0.0207063925
 40
0.0282869263
 40
0.0362246432
 40
0.0445270423
 40
0.0531996849
 40
0.0622466923
 40
0.0716706574
 40
0.0814730206
 40
0.0916541579
 40
0.1022133795
 40
0.1131492826
 40
0.1244595388
 40
0.1361412067
 40
0.1481906981
 40
0.1606037559
 40
0.1733757178
 40
0.1865012724
 40
0.1999747449
 40
0.227939865
 40
0.257217843
 40
0.2877489769
 40
0.3194684248
 40
0.3523067463
 40
0.3861903644
 40
0.4210419764
 40
0.4567809161
 40
0.4933235289
 40
0.5305835196
 40
0.5684722745
 40
0.6068991719
 40
0.6457718809
 40
0.6849966746
 40
0.7244787346
 40
0.7641224598
 40
0.8038317341
 40
0.8435102222
 40
0.883061871
 40
0.9223902382
 40
0.9614017885
 40
1.0
 40
1.0
 40
1.0
 40
1.0
 10
13.3578380197
 20
8.140482732
 30
0.0
 10
13.3567388215
 20
8.1396552867
 30
0.0
 10
13.3545390522
 20
8.137889709
 30
0.0
 10
13.3513139357
 20
8.1349947306
 30
0.0
 10
13.3480889752
 20
8.1317937495
 30
0.0
 10
13.3448661812
 20
8.1282889997
 30
0.0
 10
13.3416474364
 20
8.12448265
 30
0.0
 10
13.3384347591
 20
8.1203770884
 30
0.0
 10
13.335230051
 20
8.1159749514
 30
0.0
 10
13.3320354028
 20
8.1112789746
 30
0.0
 10
13.3288527643
 20
8.1062921737
 30
0.0
 10
13.3256841774
 20
8.1010177072
 30
0.0
 10
13.3225316922
 20
8.0954589287
 30
0.0
 10
13.3193972646
 20
8.0896194154
 30
0.0
 10
13.3162829868
 20
8.083502877
 30
0.0
 10
13.3131908007
 20
8.077113261
 30
0.0
 10
13.3101227298
 20
8.0704546605
 30
0.0
 10
13.3070807705
 20
8.0635313548
 30
0.0
 10
13.3040668381
 20
8.056347812
 30
0.0
 10
13.3010829557
 20
8.0489086439
 30
0.0
 10
13.2981309724
 20
8.0412186547
 30
0.0
 10
13.294191241
 20
8.0305043246
 30
0.0
 10
13.2893690268
 20
8.01651572
 30
0.0
 10
13.2838088536
 20
7.9990127708
 30
0.0
 10
13.2784201962
 20
7.9806363431
 30
0.0
 10
13.2732170688
 20
7.961433889
 30
0.0
 10
13.268213009
 20
7.9414548841
 30
0.0
 10
13.2634210319
 20
7.9207508849
 30
0.0
 10
13.258853602
 20
7.8993753382
 30
0.0
 10
13.2545225856
 20
7.8773834582
 30
0.0
 10
13.2504392301
 20
7.85483207
 30
0.0
 10
13.2466141389
 20
7.831779455
 30
0.0
 10
13.2430572425
 20
7.8082851974
 30
0.0
 10
13.239777776
 20
7.7844100321
 30
0.0
 10
13.236784246
 20
7.7602156882
 30
0.0
 10
13.2340844095
 20
7.7357647273
 30
0.0
 10
13.2316852622
 20
7.7111203751
 30
0.0
 10
13.2295930201
 20
7.6863463598
 30
0.0
 10
13.2278131048
 20
7.6615067516
 30
0.0
 10
13.2263501153
 20
7.6366657581
 30
0.0
 10
13.2252078501
 20
7.6118877233
 30
0.0
 10
13.2243891981
 20
7.5872364688
 30
0.0
 10
13.2238963438
 20
7.562776089
 30
0.0
 10
13.2237850758
 20
7.5465391178
 30
0.0
 10
13.2237850758
 20
7.5384639697
 30
0.0
  0
SPLINE
  5
3AB
100
AcDbEntity
  8
0
100
AcDbSpline
 62
7
  6
CONTINUOUS
 70
0
 71
3
 72
42
 73
38
 74
0
 42
0.0000001
 43
0.0000001
 44
0.0000000001
 40
0.0
 40
0.0
 40
0.0
 40
0.0
 40
0.0493961092
 40
0.0977060063
 40
0.1449049098
 40
0.1909693355
 40
0.2358771221
 40
0.2796074765
 40
0.3221412121
 40
0.3634606216
 40
0.4035499352
 40
0.4423950416
 40
0.4799841573
 40
0.5163074446
 40
0.5513578623
 40
0.5851307633
 40
0.6176248818
 40
0.648842023
 40
0.6787881405
 40
0.7074732475
 40
0.7349125602
 40
0.7611267573
 40
0.7861431969
 40
0.8099966284
 40
0.8327305029
 40
0.8543981653
 40
0.8750642108
 40
0.8850468554
 40
0.8948092312
 40
0.913717895
 40
0.9318996417
 40
0.9494757237
 40
0.9665820777
 40
0.9750077146
 40
0.9833725223
 40
0.9916965092
 40
1.0
 40
1.0
 40
1.0
 40
1.0
 10
13.5245189511
 20
7.084430706
 30
0.0
 10
13.5229747662
 20
7.0793964284
 30
0.0
 10
13.5198644086
 20
7.0694556208
 30
0.0
 10
13.5150771651
 20
7.0547684411
 30
0.0
 10
13.5102223682
 20
7.0404780095
 30
0.0
 10
13.5053032371
 20
7.0265937558
 30
0.0
 10
13.5003230259
 20
7.0131248069
 30
0.0
 10
13.4952850018
 20
7.0000800268
 30
0.0
 10
13.490192524
 20
6.9874679838
 30
0.0
 10
13.4850489055
 20
6.9752969737
 30
0.0
 10
13.4798575972
 20
6.9635749738
 30
0.0
 10
13.4746219496
 20
6.9523096908
 30
0.0
 10
13.46934549
 20
6.9415084856
 30
0.0
 10
13.4640315985
 20
6.9311784535
 30
0.0
 10
13.4586838577
 20
6.9213263156
 30
0.0
 10
13.4533056698
 20
6.9119585333
 30
0.0
 10
13.4479006445
 20
6.903081168
 30
0.0
 10
13.4424721961
 20
6.8947000255
 30
0.0
 10
13.4370239247
 20
6.886820493
 30
0.0
 10
13.4315592393
 20
6.8794477018
 30
0.0
 10
13.4260816834
 20
6.872586362
 30
0.0
 10
13.4205946316
 20
6.8662409231
 30
0.0
 10
13.4151015097
 20
6.860415436
 30
0.0
 10
13.409605629
 20
6.855113698
 30
0.0
 10
13.4041101889
 20
6.8503391368
 30
0.0
 10
13.3986185779
 20
6.8460950914
 30
0.0
 10
13.3939955225
 20
6.8429675329
 30
0.0
 10
13.3903046392
 20
6.8407442117
 30
0.0
 10
13.3866994278
 20
6.8387472294
 30
0.0
 10
13.3821959902
 20
6.8365743894
 30
0.0
 10
13.3767499224
 20
6.83448056
 30
0.0
 10
13.3713236699
 20
6.8329308904
 30
0.0
 10
13.3667976514
 20
6.8320905398
 30
0.0
 10
13.3632043009
 20
6.83169757
 30
0.0
 10
13.360530428
 20
6.8315405283
 30
0.0
 10
13.3578651596
 20
6.8315198507
 30
0.0
 10
13.356093373
 20
6.8315970218
 30
0.0
 10
13.3552103156
 20
6.8316582622
 30
0.0
  0
SPLINE
  5
3AC
100
AcDbEntity
  8
0
100
AcDbSpline
 62
7
  6
CONTINUOUS
 70
0
 71
3
 72
61
 73
57
 74
0
 42
0.0000001
 43
0.0000001
 44
0.0000000001
 40
0.0
 40
0.0
 40
0.0
 40
0.0
 40
0.041773683
 40
0.0840361744
 40
0.126657356
 40
0.1695049536
 40
0.2124461739
 40
0.255347734
 40
0.2980765393
 40
0.3405001682
 40
0.3824874064
 40
0.4239087759
 40
0.4646370687
 40
0.5045478875
 40
0.5435201962
 40
0.5814368877
 40
0.5999642174
 40
0.6181858165
 40
0.6360884225
 40
0.6536591429
 40
0.6708854449
 40
0.6877552479
 40
0.7042568506
 40
0.7203790744
 40
0.7361111744
 40
0.7514429752
 40
0.7663648323
 40
0.7808677049
 40
0.7949432137
 40
0.8085836306
 40
0.8217820383
 40
0.8345322654
 40
0.8468291079
 40
0.8586682842
 40
0.8700466517
 40
0.8809622685
 40
0.8914145636
 40
0.9014045599
 40
0.9109350136
 40
0.9200108095
 40
0.9286391477
 40
0.9368300847
 40
0.9445968849
 40
0.951956666
 40
0.9589309937
 40
0.9655465745
 40
0.9718360038
 40
0.977838309
 40
0.9807467497
 40
0.9836012173
 40
0.9864085083
 40
0.9891758169
 40
0.9919106779
 40
0.9946209207
 40
0.9973146171
 40
1.0
 40
1.0
 40
1.0
 40
1.0
 10
13.6671032915
 20
10.2576037763
 30
0.0
 10
13.6671032915
 20
10.239246348
 30
0.0
 10
13.6668168972
 20
10.2023161075
 30
0.0
 10
13.6655507891
 20
10.1466690525
 30
0.0
 10
13.6634493723
 20
10.0905749244
 30
0.0
 10
13.6605195234
 20
10.0342193579
 30
0.0
 10
13.6567709313
 20
9.9777888432
 30
0.0
 10
13.6522159844
 20
9.9214700566
 30
0.0
 10
13.6468697715
 20
9.8654493278
 30
0.0
 10
13.6407500148
 20
9.8099119869
 30
0.0
 10
13.6338770171
 20
9.7550417572
 30
0.0
 10
13.6262735959
 20
9.7010201347
 30
0.0
 10
13.6179650079
 20
9.6480257995
 30
0.0
 10
13.6089788719
 20
9.5962339522
 30
0.0
 10
13.5993450534
 20
9.5458159654
 30
0.0
 10
13.5907390982
 20
9.504775269
 30
0.0
 10
13.5835448749
 20
9.472761451
 30
0.0
 10
13.5780492179
 20
9.4493816638
 30
0.0
 10
13.5724167024
 20
9.4264671327
 30
0.0
 10
13.566651992
 20
9.4040367916
 30
0.0
 10
13.5607598377
 20
9.382109197
 30
0.0
 10
13.5547451745
 20
9.3607024752
 30
0.0
 10
13.5486129301
 20
9.3398343296
 30
0.0
 10
13.5423682518
 20
9.3195220026
 30
0.0
 10
13.5360162635
 20
9.2997822849
 30
0.0
 10
13.5295622726
 20
9.2806314785
 30
0.0
 10
13.5230116119
 20
9.2620854002
 30
0.0
 10
13.5163697068
 20
9.2441593589
 30
0.0
 10
13.5096420933
 20
9.2268681374
 30
0.0
 10
13.5028342927
 20
9.2102260006
 30
0.0
 10
13.495952012
 20
9.1942466414
 30
0.0
 10
13.4890008687
 20
9.178943226
 30
0.0
 10
13.4819866819
 20
9.1643283109
 30
0.0
 10
13.4749151789
 20
9.150413903
 30
0.0
 10
13.4677922186
 20
9.1372113847
 30
0.0
 10
13.4606236371
 20
9.1247315417
 30
0.0
 10
13.4534152674
 20
9.1129845494
 30
0.0
 10
13.4461730148
 20
9.1019799178
 30
0.0
 10
13.4389026303
 20
9.0917265846
 30
0.0
 10
13.4316099924
 20
9.0822327572
 30
0.0
 10
13.4243007165
 20
9.0735061144
 30
0.0
 10
13.4169804949
 20
9.0655535998
 30
0.0
 10
13.4096547382
 20
9.0583816635
 30
0.0
 10
13.4023287624
 20
9.0519961503
 30
0.0
 10
13.3950077367
 20
9.0464024774
 30
0.0
 10
13.3876964099
 20
9.0416057303
 30
0.0
 10
13.380400317
 20
9.0376108773
 30
0.0
 10
13.3742724279
 20
9.0349261356
 30
0.0
 10
13.3693966107
 20
9.0332009412
 30
0.0
 10
13.3657861939
 20
9.0321231795
 30
0.0
 10
13.3621850474
 20
9.0312485052
 30
0.0
 10
13.358593892
 20
9.030577093
 30
0.0
 10
13.3550135541
 20
9.0301091647
 30
0.0
 10
13.3514447994
 20
9.0298449396
 30
0.0
 10
13.34788862
 20
9.0297844872
 30
0.0
 10
13.3455251766
 20
9.0298801134
 30
0.0
 10
13.3443479141
 20
9.0299617619
 30
0.0
  0
SPLINE
  5
3AD
100
AcDbEntity
  8
0
100
AcDbSpline
 62
7
  6
CONTINUOUS
 70
0
 71
3
 72
23
 73
19
 74
0
 42
0.0000001
 43
0.0000001
 44
0.0000000001
 40
0.0
 40
0.0
 40
0.0
 40
0.0
 40
0.063775992
 40
0.1273452426
 40
0.190702051
 40
0.2538559967
 40
0.3168132418
 40
0.3795820857
 40
0.4421733813
 40
0.504599339
 40
0.5668738627
 40
0.6290123824
 40
0.6910316504
 40
0.7529496423
 40
0.8147853556
 40
0.8765586046
 40
0.9382898526
 40
1.0
 40
1.0
 40
1.0
 40
1.0
 10
12.3345139068
 20
6.1291991344
 30
0.0
 10
12.3345139068
 20
6.1335345386
 30
0.0
 10
12.3347214534
 20
6.142192761
 30
0.0
 10
12.3356580189
 20
6.1551273979
 30
0.0
 10
12.3372174845
 20
6.1679595599
 30
0.0
 10
12.3393961098
 20
6.180658977
 30
0.0
 10
12.3421889503
 20
6.1931967229
 30
0.0
 10
12.3455895818
 20
6.2055438144
 30
0.0
 10
12.3495902222
 20
6.2176717691
 30
0.0
 10
12.3541816756
 20
6.2295526306
 30
0.0
 10
12.3593533297
 20
6.2411590157
 30
0.0
 10
12.3650933286
 20
6.2524641355
 30
0.0
 10
12.3713884691
 20
6.2634418978
 30
0.0
 10
12.378224197
 20
6.2740670174
 30
0.0
 10
12.3855847671
 20
6.2843149448
 30
0.0
 10
12.3934533344
 20
6.2941620865
 30
0.0
 10
12.401811383
 20
6.303585465
 30
0.0
 10
12.4076980116
 20
6.3095718106
 30
0.0
 10
12.4107152635
 20
6.3124862526
 30
0.0
  0
SPLINE
  5
3AE
100
AcDbEntity
  8
0
100
AcDbSpline
 62
7
  6
CONTINUOUS
 70
0
 71
3
 72
55
 73
51
 74
0
 42
0.0000001
 43
0.0000001
 44
0.0000000001
 40
0.0
 40
0.0
 40
0.0
 40
0.0
 40
0.0481975415
 40
0.0958290817
 40
0.142818713
 40
0.1890963521
 40
0.2345910715
 40
0.279234315
 40
0.3229593385
 40
0.3657013756
 40
0.4073979227
 40
0.4479889149
 40
0.4874169784
 40
0.525627636
 40
0.5625695632
 40
0.5981948995
 40
0.6324596307
 40
0.6653239472
 40
0.681220104
 40
0.69675341
 40
0.7119202568
 40
0.7267175098
 40
0.7411423279
 40
0.7551923488
 40
0.7688656914
 40
0.782160877
 40
0.7950770786
 40
0.8076139743
 40
0.8197718786
 40
0.8315518771
 40
0.8429557109
 40
0.8539860605
 40
0.8646465134
 40
0.8749416424
 40
0.8848772785
 40
0.8944604376
 40
0.9036996141
 40
0.912604918
 40
0.921188144
 40
0.9294631376
 40
0.9374458256
 40
0.9451544636
 40
0.952609859
 40
0.9598353745
 40
0.966857131
 40
0.9737039172
 40
0.9804070573
 40
0.9870002114
 40
0.9935188976
 40
1.0
 40
1.0
 40
1.0
 40
1.0
 10
10.2545279829
 20
12.1516792525
 30
0.0
 10
10.2658072112
 20
12.1508970353
 30
0.0
 10
10.2882247009
 20
12.1492158708
 30
0.0
 10
10.3216033192
 20
12.1463251894
 30
0.0
 10
10.3544972687
 20
12.1430839387
 30
0.0
 10
10.3868511338
 20
12.1394976745
 30
0.0
 10
10.4186111219
 20
12.1355723405
 30
0.0
 10
10.4497240282
 20
12.1313145613
 30
0.0
 10
10.4801378745
 20
12.1267314962
 30
0.0
 10
10.5098018358
 20
12.1218308454
 30
0.0
 10
10.5386663394
 20
12.1166208426
 30
0.0
 10
10.5666831725
 20
12.1111102431
 30
0.0
 10
10.5938055594
 20
12.1053083239
 30
0.0
 10
10.6199882415
 20
12.0992248437
 30
0.0
 10
10.6451875324
 20
12.0928700301
 30
0.0
 10
10.6693614691
 20
12.0862545602
 30
0.0
 10
10.6924696782
 20
12.0793895628
 30
0.0
 10
10.7110063346
 20
12.073406006
 30
0.0
 10
10.7252670311
 20
12.068495068
 30
0.0
 10
10.7355537434
 20
12.0647975776
 30
0.0
 10
10.745546138
 20
12.0610464521
 30
0.0
 10
10.7552400742
 20
12.057243299
 30
0.0
 10
10.7646314995
 20
12.0533896703
 30
0.0
 10
10.7737165036
 20
12.0494871795
 30
0.0
 10
10.7824913166
 20
12.0455374917
 30
0.0
 10
10.7909522682
 20
12.0415421911
 30
0.0
 10
10.7990958617
 20
12.0375029969
 30
0.0
 10
10.8069187111
 20
12.0334215676
 30
0.0
 10
10.8144175591
 20
12.0292995687
 30
0.0
 10
10.8215893269
 20
12.0251387661
 30
0.0
 10
10.828431018
 20
12.0209408093
 30
0.0
 10
10.8349398222
 20
12.0167074589
 30
0.0
 10
10.8411130639
 20
12.0124404578
 30
0.0
 10
10.8469481611
 20
12.0081414805
 30
0.0
 10
10.8524427551
 20
12.0038123351
 30
0.0
 10
10.8575945482
 20
11.9994547013
 30
0.0
 10
10.8624014079
 20
11.9950703096
 30
0.0
 10
10.8668613777
 20
11.9906609258
 30
0.0
 10
10.8709725173
 20
11.9862281844
 30
0.0
 10
10.8747331332
 20
11.9817738523
 30
0.0
 10
10.8781415665
 20
11.9772996019
 30
0.0
 10
10.8811962291
 20
11.9728071013
 30
0.0
 10
10.8838957553
 20
11.9682981223
 30
0.0
 10
10.8862386833
 20
11.9637743434
 30
0.0
 10
10.8882237779
 20
11.9592376007
 30
0.0
 10
10.8898498819
 20
11.9546897719
 30
0.0
 10
10.8911158242
 20
11.9501328433
 30
0.0
 10
10.8920208262
 20
11.9455688674
 30
0.0
 10
10.8925641013
 20
11.9410004352
 30
0.0
 10
10.8926849549
 20
11.9379495459
 30
0.0
 10
10.8926849519
 20
11.9364291901
 30
0.0
  0
SPLINE
  5
3AF
100
AcDbEntity
  8
0
100
AcDbSpline
 62
7
  6
CONTINUOUS
 70
0
 71
3
 72
23
 73
19
 74
0
 42
0.0000001
 43
0.0000001
 44
0.0000000001
 40
0.0
 40
0.0
 40
0.0
 40
0.0
 40
0.063775992
 40
0.1273452426
 40
0.190702051
 40
0.2538559967
 40
0.3168132418
 40
0.3795820857
 40
0.4421733813
 40
0.504599339
 40
0.5668738627
 40
0.6290123824
 40
0.6910316504
 40
0.7529496423
 40
0.8147853556
 40
0.8765586046
 40
0.9382898526
 40
1.0
 40
1.0
 40
1.0
 40
1.0
 10
8.4708103728
 20
6.3971478846
 30
0.0
 10
8.4708103728
 20
6.4014832888
 30
0.0
 10
8.4710179193
 20
6.4101415112
 30
0.0
 10
8.4719544848
 20
6.4230761481
 30
0.0
 10
8.4735139504
 20
6.4359083101
 30
0.0
 10
8.4756925757
 20
6.4486077272
 30
0.0
 10
8.4784854162
 20
6.4611454731
 30
0.0
 10
8.4818860477
 20
6.4734925646
 30
0.0
 10
8.4858866881
 20
6.4856205193
 30
0.0
 10
8.4904781415
 20
6.4975013808
 30
0.0
 10
8.4956497956
 20
6.5091077659
 30
0.0
 10
8.5013897945
 20
6.5204128857
 30
0.0
 10
8.507684935
 20
6.531390648
 30
0.0
 10
8.5145206629
 20
6.5420157676
 30
0.0
 10
8.521881233
 20
6.552263695
 30
0.0
 10
8.5297498003
 20
6.5621108367
 30
0.0
 10
8.5381078489
 20
6.5715342151
 30
0.0
 10
8.5439944775
 20
6.5775205607
 30
0.0
 10
8.5470117294
 20
6.5804350027
 30
0.0
  0
SPLINE
  5
3B0
100
AcDbEntity
  8
0
100
AcDbSpline
 62
7
  6
CONTINUOUS
 70
0
 71
3
 72
50
 73
46
 74
0
 42
0.0000001
 43
0.0000001
 44
0.0000000001
 40
0.0
 40
0.0
 40
0.0
 40
0.0
 40
0.0456766109
 40
0.0908622396
 40
0.1354973684
 40
0.1795286107
 40
0.2229013809
 40
0.2655624428
 40
0.3074600057
 40
0.3485434644
 40
0.3887637328
 40
0.4280732756
 40
0.4664262187
 40
0.503778574
 40
0.5400883166
 40
0.5753155127
 40
0.609422579
 40
0.6423744613
 40
0.6741387923
 40
0.7046862065
 40
0.7339907023
 40
0.7620299133
 40
0.7755694729
 40
0.7887862663
 40
0.8016787388
 40
0.8142456478
 40
0.8264861982
 40
0.8383999018
 40
0.8499866984
 40
0.8612470521
 40
0.8721818343
 40
0.8827924965
 40
0.8930811269
 40
0.9030503778
 40
0.9127036848
 40
0.9220452888
 40
0.9310802296
 40
0.9398145983
 40
0.948255542
 40
0.9564113344
 40
0.9642916414
 40
0.9719075246
 40
0.9792715769
 40
0.9863981615
 40
1.0
 40
1.0
 40
1.0
 40
1.0
 10
13.6052840334
 20
10.2618909564
 30
0.0
 10
13.6052840334
 20
10.2734575856
 30
0.0
 10
13.6051715226
 20
10.2964666835
 30
0.0
 10
13.6046597726
 20
10.3307752513
 30
0.0
 10
13.6038064968
 20
10.3646602955
 30
0.0
 10
13.6026129191
 20
10.3980757197
 30
0.0
 10
13.6010806377
 20
10.4309769337
 30
0.0
 10
13.599211747
 20
10.4633195824
 30
0.0
 10
13.5970087829
 20
10.4950601448
 30
0.0
 10
13.5944747207
 20
10.5261559474
 30
0.0
 10
13.5916130203
 20
10.556565167
 30
0.0
 10
13.5884275624
 20
10.5862469131
 30
0.0
 10
13.5849226467
 20
10.6151612792
 30
0.0
 10
13.5811030475
 20
10.6432694071
 30
0.0
 10
13.5769739535
 20
10.6705335338
 30
0.0
 10
13.5725409443
 20
10.6969170365
 30
0.0
 10
13.5678100391
 20
10.7223845005
 30
0.0
 10
13.5627876721
 20
10.746901774
 30
0.0
 10
13.5574806384
 20
10.7704359812
 30
0.0
 10
13.5518961169
 20
10.7929556551
 30
0.0
 10
13.5460416868
 20
10.8144305601
 30
0.0
 10
13.5408864607
 20
10.8316264145
 30
0.0
 10
13.5366248406
 20
10.8448320152
 30
0.0
 10
13.5334033555
 20
10.8543417816
 30
0.0
 10
13.5301204422
 20
10.8635695113
 30
0.0
 10
13.5267771464
 20
10.8725121123
 30
0.0
 10
13.5233746469
 20
10.8811666047
 30
0.0
 10
13.5199140576
 20
10.8895300871
 30
0.0
 10
13.5163965143
 20
10.8975997544
 30
0.0
 10
13.5128232439
 20
10.9053729323
 30
0.0
 10
13.5091953972
 20
10.9128470131
 30
0.0
 10
13.505514174
 20
10.9200195024
 30
0.0
 10
13.5017808412
 20
10.9268880364
 30
0.0
 10
13.4979965767
 20
10.9334503068
 30
0.0
 10
13.4941626366
 20
10.9397041402
 30
0.0
 10
13.4902803094
 20
10.9456474857
 30
0.0
 10
13.4863507902
 20
10.9512783346
 30
0.0
 10
13.482375377
 20
10.9565948385
 30
0.0
 10
13.4783553552
 20
10.9615952514
 30
0.0
 10
13.4742919374
 20
10.9662778473
 30
0.0
 10
13.4701864084
 20
10.9706411144
 30
0.0
 10
13.4660401613
 20
10.9746834943
 30
0.0
 10
13.4618539718
 20
10.9784038186
 30
0.0
 10
13.4563089187
 20
10.9828626759
 30
0.0
 10
13.4519633852
 20
10.9858324716
 30
0.0
 10
13.4490065195
 20
10.9875990137
 30
0.0
  0
SPLINE
  5
3B1
100
AcDbEntity
  8
0
100
AcDbSpline
 62
7
  6
CONTINUOUS
 70
0
 71
3
 72
39
 73
35
 74
0
 42
0.0000001
 43
0.0000001
 44
0.0000000001
 40
0.0
 40
0.0
 40
0.0
 40
0.0
 40
0.0299424718
 40
0.0599093198
 40
0.0899243266
 40
0.120010106
 40
0.1501875647
 40
0.1804754164
 40
0.2108897604
 40
0.2414437366
 40
0.2721472601
 40
0.3030068419
 40
0.3340254933
 40
0.365202712
 40
0.3965345466
 40
0.4280137318
 40
0.4596298892
 40
0.491369784
 40
0.5232176323
 40
0.5551554498
 40
0.5871634345
 40
0.6192203774
 40
0.651304093
 40
0.6833918636
 40
0.7154608911
 40
0.7474887497
 40
0.7794538335
 40
0.8113357936
 40
0.8431159524
 40
0.8747777124
 40
0.906306864
 40
0.9376920822
 40
0.9689247084
 40
1.0
 40
1.0
 40
1.0
 40
1.0
 10
12.8011628967
 20
5.9082652169
 30
0.0
 10
12.7965012003
 20
5.9037623631
 30
0.0
 10
12.7868112476
 20
5.8951200547
 30
0.0
 10
12.7712864331
 20
5.88334644
 30
0.0
 10
12.7548510867
 20
5.8728215953
 30
0.0
 10
12.737597042
 20
5.863604562
 30
0.0
 10
12.7196191607
 20
5.8557456948
 30
0.0
 10
12.7010166608
 20
5.8492881935
 30
0.0
 10
12.6818920532
 20
5.8442673896
 30
0.0
 10
12.6623507009
 20
5.8407106945
 30
0.0
 10
12.6425001949
 20
5.8386374277
 30
0.0
 10
12.6224497685
 20
5.8380587356
 30
0.0
 10
12.6023096939
 20
5.8389775416
 30
0.0
 10
12.5821906796
 20
5.8413885446
 30
0.0
 10
12.5622032675
 20
5.8452782588
 30
0.0
 10
12.5424572325
 20
5.850625098
 30
0.0
 10
12.5230609879
 20
5.8573995
 30
0.0
 10
12.5041209983
 20
5.8655640946
 30
0.0
 10
12.485741204
 20
5.875073911
 30
0.0
 10
12.4680224572
 20
5.8858766249
 30
0.0
 10
12.4510619769
 20
5.8979128468
 30
0.0
 10
12.4349528221
 20
5.9111164462
 30
0.0
 10
12.4197833871
 20
5.9254149124
 30
0.0
 10
12.4056369222
 20
5.9407297493
 30
0.0
 10
12.3925910817
 20
5.9569769017
 30
0.0
 10
12.3807175015
 20
5.9740672122
 30
0.0
 10
12.3700814095
 20
5.9919069045
 30
0.0
 10
12.3607412718
 20
6.0103980951
 30
0.0
 10
12.3527484665
 20
6.0294393114
 30
0.0
 10
12.3461470227
 20
6.0489260854
 30
0.0
 10
12.340973326
 20
6.0687513614
 30
0.0
 10
12.3372560303
 20
6.0888066608
 30
0.0
 10
12.3350156901
 20
6.1089804116
 30
0.0
 10
12.3345139068
 20
6.1224726376
 30
0.0
 10
12.3345139068
 20
6.1291991344
 30
0.0
  0
SPLINE
  5
3B2
100
AcDbEntity
  8
0
100
AcDbSpline
 62
7
  6
CONTINUOUS
 70
0
 71
3
 72
54
 73
50
 74
0
 42
0.0000001
 43
0.0000001
 44
0.0000000001
 40
0.0
 40
0.0
 40
0.0
 40
0.0
 40
0.0398683851
 40
0.0801795791
 40
0.1208256769
 40
0.1616974081
 40
0.2026848509
 40
0.2436776399
 40
0.2845654083
 40
0.3252381427
 40
0.3655865674
 40
0.4055025217
 40
0.4448793417
 40
0.4836122452
 40
0.521598722
 40
0.5587389327
 40
0.5949361178
 40
0.6300970239
 40
0.6641323517
 40
0.6807014417
 40
0.6969576854
 40
0.7128912859
 40
0.7284927294
 40
0.743752936
 40
0.7586631433
 40
0.7732150759
 40
0.7874008199
 40
0.8012130087
 40
0.8146446948
 40
0.82768955
 40
0.8403417416
 40
0.8525961455
 40
0.8644482359
 40
0.8758943116
 40
0.886931411
 40
0.8975575536
 40
0.9077716945
 40
0.9175739881
 40
0.9269658016
 40
0.9359500123
 40
0.9445311035
 40
0.9527155153
 40
0.9605118513
 40
0.967931304
 40
0.9749879957
 40
0.981699488
 40
0.9880872409
 40
0.9941771507
 40
1.0
 40
1.0
 40
1.0
 40
1.0
 10
13.6052840334
 20
10.2618909564
 30
0.0
 10
13.6052840334
 20
10.2447990927
 30
0.0
 10
13.6050358059
 20
10.210425061
 30
0.0
 10
13.6039370801
 20
10.1586363096
 30
0.0
 10
13.6021126905
 20
10.1064375634
 30
0.0
 10
13.599567832
 20
10.0539787802
 30
0.0
 10
13.5963097959
 20
10.0014105472
 30
0.0
 10
13.5923479248
 20
9.9488837781
 30
0.0
 10
13.5876936
 20
9.896549269
 30
0.0
 10
13.5823602019
 20
9.844557259
 30
0.0
 10
13.5763630744
 20
9.7930569991
 30
0.0
 10
13.5697194806
 20
9.7421963198
 30
0.0
 10
13.5624485536
 20
9.6921212037
 30
0.0
 10
13.5545712427
 20
9.6429753638
 30
0.0
 10
13.5461102544
 20
9.5948998214
 30
0.0
 10
13.537089987
 20
9.5480325142
 30
0.0
 10
13.5275364671
 20
9.5025078252
 30
0.0
 10
13.5174772572
 20
9.4584564316
 30
0.0
 10
13.5086201953
 20
9.4227683051
 30
0.0
 10
13.5012932896
 20
9.3950564674
 30
0.0
 10
13.4957391106
 20
9.3749041379
 30
0.0
 10
13.4900809384
 20
9.3552120201
 30
0.0
 10
13.4843227525
 20
9.3359942296
 30
0.0
 10
13.478468773
 20
9.3172645478
 30
0.0
 10
13.4725231338
 20
9.2990364116
 30
0.0
 10
13.4664901911
 20
9.2813228798
 30
0.0
 10
13.4603742022
 20
9.2641366571
 30
0.0
 10
13.45417965
 20
9.2474900434
 30
0.0
 10
13.4479109021
 20
9.2313949721
 30
0.0
 10
13.4415725527
 20
9.2158629461
 30
0.0
 10
13.4351690664
 20
9.2009050906
 30
0.0
 10
13.4287051312
 20
9.1865320744
 30
0.0
 10
13.4221852941
 20
9.1727541791
 30
0.0
 10
13.4156143163
 20
9.1595812038
 30
0.0
 10
13.4089968094
 20
9.1470225524
 30
0.0
 10
13.4023375829
 20
9.1350871204
 30
0.0
 10
13.3956412895
 20
9.1237834014
 30
0.0
 10
13.3889127546
 20
9.1131193572
 30
0.0
 10
13.3821566388
 20
9.1031025424
 30
0.0
 10
13.3753777382
 20
9.0937399626
 30
0.0
 10
13.3685806732
 20
9.0850382157
 30
0.0
 10
13.3617701467
 20
9.0770033483
 30
0.0
 10
13.3549506697
 20
9.0696410126
 30
0.0
 10
13.348126773
 20
9.0629563421
 30
0.0
 10
13.3413027637
 20
9.0569541154
 30
0.0
 10
13.3344829822
 20
9.0516387154
 30
0.0
 10
13.3276713228
 20
9.0470141779
 30
0.0
 10
13.3208726336
 20
9.0430846644
 30
0.0
 10
13.3162556041
 20
9.0408853034
 30
0.0
 10
13.3139567117
 20
9.0399123725
 30
0.0
  0
SPLINE
  5
3B3
100
AcDbEntity
  8
0
100
AcDbSpline
 62
7
  6
CONTINUOUS
 70
0
 71
3
 72
62
 73
58
 74
0
 42
0.0000001
 43
0.0000001
 44
0.0000000001
 40
0.0
 40
0.0
 40
0.0
 40
0.0
 40
0.0425879204
 40
0.0856851367
 40
0.1291504194
 40
0.1728409961
 40
0.2166131501
 40
0.2603228251
 40
0.3038262252
 40
0.346980417
 40
0.3896439332
 40
0.43167738
 40
0.4729440506
 40
0.5133105482
 40
0.5526474231
 40
0.5908298313
 40
0.6094507562
 40
0.6277387247
 40
0.6456796929
 40
0.6632601452
 40
0.6804669141
 40
0.697287424
 40
0.7137094997
 40
0.7297216303
 40
0.7453127688
 40
0.7604726172
 40
0.7751914217
 40
0.7894602805
 40
0.8032709413
 40
0.8166161352
 40
0.8294893846
 40
0.8418853704
 40
0.853799763
 40
0.8652296333
 40
0.8761733266
 40
0.886630935
 40
0.8966042431
 40
0.9060972905
 40
0.9151164306
 40
0.9236710231
 40
0.9317736597
 40
0.9394410267
 40
0.9466943388
 40
0.9535603619
 40
0.9600719918
 40
0.9662692266
 40
0.9721995149
 40
0.9750825387
 40
0.9779201363
 40
0.9807202885
 40
0.9834913471
 40
0.9862419487
 40
0.9889809369
 40
0.9917172815
 40
0.9944599814
 40
0.9972179642
 40
1.0
 40
1.0
 40
1.0
 40
1.0
 10
13.5105563411
 20
10.1703910265
 30
0.0
 10
13.5105563411
 20
10.1585156649
 30
0.0
 10
13.5103654974
 20
10.1346225331
 30
0.0
 10
13.5095222797
 20
10.0986183375
 30
0.0
 10
13.5081230005
 20
10.0623237038
 30
0.0
 10
13.5061725388
 20
10.0258660884
 30
0.0
 10
13.503677721
 20
9.9893733687
 30
0.0
 10
13.5006472992
 20
9.952973588
 30
0.0
 10
13.4970919197
 20
9.9167944497
 30
0.0
 10
13.4930240858
 20
9.8809628807
 30
0.0
 10
13.4884581144
 20
9.8456045794
 30
0.0
 10
13.4834100866
 20
9.8108435684
 30
0.0
 10
13.4778977903
 20
9.7768017679
 30
0.0
 10
13.4719406678
 20
9.7435985128
 30
0.0
 10
13.4655597177
 20
9.7113503044
 30
0.0
 10
13.4598614403
 20
9.685152932
 30
0.0
 10
13.4551007207
 20
9.6647622845
 30
0.0
 10
13.4514683865
 20
9.6499050417
 30
0.0
 10
13.4477476505
 20
9.6353689831
 30
0.0
 10
13.4439418405
 20
9.6211668408
 30
0.0
 10
13.4400542328
 20
9.6073110763
 30
0.0
 10
13.4360883228
 20
9.5938138303
 30
0.0
 10
13.4320475201
 20
9.5806869401
 30
0.0
 10
13.4279354597
 20
9.5679419003
 30
0.0
 10
13.4237556755
 20
9.5555898844
 30
0.0
 10
13.4195119286
 20
9.5436416969
 30
0.0
 10
13.4152078632
 20
9.5321078069
 30
0.0
 10
13.4108473527
 20
9.5209982875
 30
0.0
 10
13.4064341363
 20
9.5103228642
 30
0.0
 10
13.4019721843
 20
9.5000908384
 30
0.0
 10
13.3974653132
 20
9.4903111547
 30
0.0
 10
13.3929175721
 20
9.4809923032
 30
0.0
 10
13.3883328334
 20
9.4721424123
 30
0.0
 10
13.3837152012
 20
9.463769122
 30
0.0
 10
13.3790685755
 20
9.4558797114
 30
0.0
 10
13.3743970826
 20
9.4484809346
 30
0.0
 10
13.3697046095
 20
9.4415791939
 30
0.0
 10
13.3649952544
 20
9.4351803289
 30
0.0
 10
13.3602728297
 20
9.4292898544
 30
0.0
 10
13.3555413292
 20
9.423912693
 30
0.0
 10
13.3508044022
 20
9.4190535057
 30
0.0
 10
13.3460658382
 20
9.4147163661
 30
0.0
 10
13.3413290239
 20
9.4109052234
 30
0.0
 10
13.3365975115
 20
9.4076235261
 30
0.0
 10
13.3318743676
 20
9.4048748222
 30
0.0
 10
13.3271634915
 20
9.4026623973
 30
0.0
 10
13.3232131115
 20
9.40125533
 30
0.0
 10
13.3200744777
 20
9.4004113655
 30
0.0
 10
13.3177487061
 20
9.3999195439
 30
0.0
 10
13.3154299285
 20
9.3995632907
 30
0.0
 10
13.3131186556
 20
9.3993426661
 30
0.0
 10
13.310815471
 20
9.3992577497
 30
0.0
 10
13.3085209443
 20
9.3993085984
 30
0.0
 10
13.3062356694
 20
9.3994952551
 30
0.0
 10
13.3039602011
 20
9.3998176331
 30
0.0
 10
13.3016952006
 20
9.4002755919
 30
0.0
 10
13.3002003439
 20
9.4006691543
 30
0.0
 10
13.2994560272
 20
9.4008877509
 30
0.0
  0
SPLINE
  5
3B4
100
AcDbEntity
  8
0
100
AcDbSpline
 62
7
  6
CONTINUOUS
 70
0
 71
3
 72
29
 73
25
 74
0
 42
0.0000001
 43
0.0000001
 44
0.0000000001
 40
0.0
 40
0.0
 40
0.0
 40
0.0
 40
0.0665035265
 40
0.1338981385
 40
0.2018762096
 40
0.27012487
 40
0.3383305422
 40
0.4061796505
 40
0.4733607523
 40
0.5395663204
 40
0.6044946068
 40
0.6678515165
 40
0.6988518055
 40
0.7293534199
 40
0.7593226247
 40
0.7887265513
 40
0.8175331866
 40
0.8457116172
 40
0.873231875
 40
0.9000652532
 40
0.9261842135
 40
0.9515625542
 40
0.9761755735
 40
1.0
 40
1.0
 40
1.0
 40
1.0
 10
13.2941171619
 20
10.1733268212
 30
0.0
 10
13.2941171619
 20
10.1602975597
 30
0.0
 10
13.2938692867
 20
10.134063861
 30
0.0
 10
13.292777785
 20
10.0945256647
 30
0.0
 10
13.2909688445
 20
10.0546714398
 30
0.0
 10
13.2884512394
 20
10.0146965458
 30
0.0
 10
13.2852373171
 20
9.9747969354
 30
0.0
 10
13.2813428409
 20
9.9351681189
 30
0.0
 10
13.2767869574
 20
9.8960043016
 30
0.0
 10
13.2715921017
 20
9.8574973356
 30
0.0
 10
13.2657838585
 20
9.8198359844
 30
0.0
 10
13.2604183636
 20
9.78909134
 30
0.0
 10
13.2558332525
 20
9.7650623595
 30
0.0
 10
13.2522845605
 20
9.7474959808
 30
0.0
 10
13.2486055631
 20
9.7302761147
 30
0.0
 10
13.2448007802
 20
9.7134238487
 30
0.0
 10
13.2408748536
 20
9.6969598415
 30
0.0
 10
13.2368326641
 20
9.680904261
 30
0.0
 10
13.2326791261
 20
9.6652767809
 30
0.0
 10
13.228419391
 20
9.6500965345
 30
0.0
 10
13.2240586803
 20
9.6353821146
 30
0.0
 10
13.2196023398
 20
9.6211515129
 30
0.0
 10
13.2150559142
 20
9.6074221968
 30
0.0
 10
13.2119165011
 20
9.5984661
 30
0.0
 10
13.2103309206
 20
9.5940760179
 30
0.0
  0
SPLINE
  5
3B5
100
AcDbEntity
  8
0
100
AcDbSpline
 62
7
  6
CONTINUOUS
 70
0
 71
3
 72
15
 73
11
 74
0
 42
0.0000001
 43
0.0000001
 44
0.0000000001
 40
0.0
 40
0.0
 40
0.0
 40
0.0
 40
0.1238418467
 40
0.2494617772
 40
0.3761423742
 40
0.5031548325
 40
0.6297693132
 40
0.7552586706
 40
0.878904004
 40
1.0
 40
1.0
 40
1.0
 40
1.0
 10
13.2158094234
 20
10.1616253586
 30
0.0
 10
13.2158094234
 20
10.1486714089
 30
0.0
 10
13.2155335911
 20
10.1225767892
 30
0.0
 10
13.2143221897
 20
10.0832481969
 30
0.0
 10
13.2123167224
 20
10.0436198987
 30
0.0
 10
13.2095293619
 20
10.0039346894
 30
0.0
 10
13.205977198
 20
9.9644356978
 30
0.0
 10
13.2016820584
 20
9.9253647651
 30
0.0
 10
13.1966704147
 20
9.8869614051
 30
0.0
 10
13.1928249351
 20
9.8616493681
 30
0.0
 10
13.1907827125
 20
9.8491483514
 30
0.0
  0
SPLINE
  5
3B6
100
AcDbEntity
  8
0
100
AcDbSpline
 62
7
  6
CONTINUOUS
 70
0
 71
3
 72
55
 73
51
 74
0
 42
0.0000001
 43
0.0000001
 44
0.0000000001
 40
0.0
 40
0.0
 40
0.0
 40
0.0
 40
0.0063157967
 40
0.0126705064
 40
0.0191022577
 40
0.0256477311
 40
0.0323415292
 40
0.039215794
 40
0.0462999396
 40
0.0536204765
 40
0.0612011269
 40
0.0690627967
 40
0.077223814
 40
0.0857001286
 40
0.0945054138
 40
0.1036514395
 40
0.1131481141
 40
0.1230037529
 40
0.1332252839
 40
0.1438182539
 40
0.1547871578
 40
0.1661353969
 40
0.1778654436
 40
0.1899790024
 40
0.2024769158
 40
0.215359436
 40
0.2286261423
 40
0.2422760211
 40
0.2563076146
 40
0.2707188714
 40
0.2855073776
 40
0.3006702734
 40
0.3162042724
 40
0.3321058142
 40
0.3649946654
 40
0.3993021056
 40
0.4349881404
 40
0.4720086211
 40
0.5103156623
 40
0.5498579758
 40
0.5905811562
 40
0.6324279171
 40
0.6753383233
 40
0.7192500409
 40
0.7640984978
 40
0.8098171101
 40
0.8563375432
 40
0.9035891104
 40
0.9515016896
 40
1.0
 40
1.0
 40
1.0
 40
1.0
 10
13.4805032084
 20
10.9932461676
 30
0.0
 10
13.4821663498
 20
10.9931308212
 30
0.0
 10
13.4854950183
 20
10.9927632676
 30
0.0
 10
13.4904507101
 20
10.9918052443
 30
0.0
 10
13.495373287
 20
10.9904406621
 30
0.0
 10
13.500259872
 20
10.9886704063
 30
0.0
 10
13.5051083907
 20
10.9864957898
 30
0.0
 10
13.5099167478
 20
10.9839181587
 30
0.0
 10
13.514682999
 20
10.9809389576
 30
0.0
 10
13.5194053978
 20
10.97755986
 30
0.0
 10
13.5240821255
 20
10.9737824244
 30
0.0
 10
13.5287115274
 20
10.9696084587
 30
0.0
 10
13.5332919148
 20
10.9650397874
 30
0.0
 10
13.5378215517
 20
10.9600783138
 30
0.0
 10
13.5422988339
 20
10.9547261662
 30
0.0
 10
13.5467219902
 20
10.9489854813
 30
0.0
 10
13.551089369
 20
10.9428586312
 30
0.0
 10
13.5553992851
 20
10.9363481036
 30
0.0
 10
13.5596499854
 20
10.929456507
 30
0.0
 10
13.5638398657
 20
10.9221866763
 30
0.0
 10
13.567967181
 20
10.9145415296
 30
0.0
 10
13.572030298
 20
10.9065241899
 30
0.0
 10
13.5760275938
 20
10.8981379273
 30
0.0
 10
13.5799573796
 20
10.8893861409
 30
0.0
 10
13.5838181259
 20
10.8802724299
 30
0.0
 10
13.5876081976
 20
10.870800505
 30
0.0
 10
13.5913260534
 20
10.8609742506
 30
0.0
 10
13.594970196
 20
10.8507977007
 30
0.0
 10
13.5985390633
 20
10.8402750172
 30
0.0
 10
13.6020312494
 20
10.8294105355
 30
0.0
 10
13.6054452745
 20
10.8182087111
 30
0.0
 10
13.6087797253
 20
10.8066741547
 30
0.0
 10
13.6120332818
 20
10.7948116024
 30
0.0
 10
13.6163096252
 20
10.7783792616
 30
0.0
 10
13.6214315223
 20
10.7570484984
 30
0.0
 10
13.6271673289
 20
10.7305018683
 30
0.0
 10
13.6325500356
 20
10.7027697405
 30
0.0
 10
13.6375706938
 20
10.6738978256
 30
0.0
 10
13.6422209366
 20
10.6439335702
 30
0.0
 10
13.6464930145
 20
10.6129263002
 30
0.0
 10
13.6503798005
 20
10.5809270715
 30
0.0
 10
13.6538748168
 20
10.5479886077
 30
0.0
 10
13.6569722466
 20
10.5141652002
 30
0.0
 10
13.659666926
 20
10.4795126154
 30
0.0
 10
13.6619543615
 20
10.4440879923
 30
0.0
 10
13.6638307344
 20
10.4079497231
 30
0.0
 10
13.6652928953
 20
10.3711575344
 30
0.0
 10
13.6663384557
 20
10.3337718227
 30
0.0
 10
13.6669655833
 20
10.295854673
 30
0.0
 10
13.6671032915
 20
10.2704055347
 30
0.0
 10
13.6671032915
 20
10.2576037763
 30
0.0
  0
SPLINE
  5
3B7
100
AcDbEntity
  8
0
100
AcDbSpline
 62
7
  6
CONTINUOUS
 70
0
 71
3
 72
39
 73
35
 74
0
 42
0.0000001
 43
0.0000001
 44
0.0000000001
 40
0.0
 40
0.0
 40
0.0
 40
0.0
 40
0.0299424718
 40
0.0599093198
 40
0.0899243266
 40
0.120010106
 40
0.1501875647
 40
0.1804754164
 40
0.2108897604
 40
0.2414437366
 40
0.2721472601
 40
0.3030068419
 40
0.3340254933
 40
0.365202712
 40
0.3965345466
 40
0.4280137318
 40
0.4596298892
 40
0.491369784
 40
0.5232176323
 40
0.5551554498
 40
0.5871634345
 40
0.6192203774
 40
0.651304093
 40
0.6833918636
 40
0.7154608911
 40
0.7474887497
 40
0.7794538335
 40
0.8113357936
 40
0.8431159524
 40
0.8747777124
 40
0.906306864
 40
0.9376920822
 40
0.9689247084
 40
1.0
 40
1.0
 40
1.0
 40
1.0
 10
8.9374593627
 20
6.1762139671
 30
0.0
 10
8.9327976662
 20
6.1717111133
 30
0.0
 10
8.9231077135
 20
6.1630688049
 30
0.0
 10
8.907582899
 20
6.1512951901
 30
0.0
 10
8.8911475526
 20
6.1407703454
 30
0.0
 10
8.8738935079
 20
6.1315533122
 30
0.0
 10
8.8559156266
 20
6.123694445
 30
0.0
 10
8.8373131267
 20
6.1172369437
 30
0.0
 10
8.8181885192
 20
6.1122161398
 30
0.0
 10
8.7986471669
 20
6.1086594446
 30
0.0
 10
8.7787966609
 20
6.1065861779
 30
0.0
 10
8.7587462345
 20
6.1060074858
 30
0.0
 10
8.7386061598
 20
6.1069262918
 30
0.0
 10
8.7184871455
 20
6.1093372947
 30
0.0
 10
8.6984997334
 20
6.113227009
 30
0.0
 10
8.6787536984
 20
6.1185738481
 30
0.0
 10
8.6593574538
 20
6.1253482501
 30
0.0
 10
8.6404174642
 20
6.1335128447
 30
0.0
 10
8.6220376699
 20
6.1430226612
 30
0.0
 10
8.6043189231
 20
6.1538253751
 30
0.0
 10
8.5873584428
 20
6.165861597
 30
0.0
 10
8.571249288
 20
6.1790651963
 30
0.0
 10
8.556079853
 20
6.1933636626
 30
0.0
 10
8.5419333881
 20
6.2086784995
 30
0.0
 10
8.5288875476
 20
6.2249256518
 30
0.0
 10
8.5170139675
 20
6.2420159624
 30
0.0
 10
8.5063778754
 20
6.2598556546
 30
0.0
 10
8.4970377377
 20
6.2783468452
 30
0.0
 10
8.4890449324
 20
6.2973880616
 30
0.0
 10
8.4824434886
 20
6.3168748355
 30
0.0
 10
8.4772697919
 20
6.3367001116
 30
0.0
 10
8.4735524962
 20
6.3567554109
 30
0.0
 10
8.471312156
 20
6.3769291618
 30
0.0
 10
8.4708103728
 20
6.3904213877
 30
0.0
 10
8.4708103728
 20
6.3971478846
 30
0.0
  0
SPLINE
  5
3B8
100
AcDbEntity
  8
0
100
AcDbSpline
 62
7
  6
CONTINUOUS
 70
0
 71
3
 72
58
 73
54
 74
0
 42
0.0000001
 43
0.0000001
 44
0.0000000001
 40
0.0
 40
0.0
 40
0.0
 40
0.0
 40
0.0414402715
 40
0.0833367342
 40
0.1255652605
 40
0.1680001769
 40
0.2105151651
 40
0.2529835401
 40
0.2952788166
 40
0.337275168
 40
0.3788479236
 40
0.4198740573
 40
0.4602326839
 40
0.4998055622
 40
0.5384776081
 40
0.5761374243
 40
0.6126778504
 40
0.6304963547
 40
0.6479970419
 40
0.6651680091
 40
0.6819976694
 40
0.6984749153
 40
0.7145889933
 40
0.7303296919
 40
0.7456872009
 40
0.7606523228
 40
0.775216323
 40
0.7893711612
 40
0.8031093422
 40
0.8164241639
 40
0.82930958
 40
0.8417604635
 40
0.8537724942
 40
0.8653424394
 40
0.8764680839
 40
0.8871485323
 40
0.8973842036
 40
0.9071771682
 40
0.9165312336
 40
0.9254523369
 40
0.9339487549
 40
0.9420315775
 40
0.9497150732
 40
0.9570172582
 40
0.963960412
 40
0.9705716931
 40
0.9768836793
 40
0.9829348042
 40
0.9887695487
 40
0.9916222058
 40
0.9944400804
 40
0.9972302449
 40
1.0
 40
1.0
 40
1.0
 40
1.0
 10
10.2477986932
 20
12.0852918536
 30
0.0
 10
10.2325044852
 20
12.0863525106
 30
0.0
 10
10.2017304753
 20
12.0882442361
 30
0.0
 10
10.1553251656
 20
12.090389556
 30
0.0
 10
10.1085251526
 20
12.0918540664
 30
0.0
 10
10.061479911
 20
12.0926330426
 30
0.0
 10
10.0143395766
 20
12.0927239886
 30
0.0
 10
9.9672546008
 20
12.092126608
 30
0.0
 10
9.9203752603
 20
12.0908428231
 30
0.0
 10
9.8738511692
 20
12.0888767598
 30
0.0
 10
9.8278308004
 20
12.0862347395
 30
0.0
 10
9.7824610086
 20
12.0829252576
 30
0.0
 10
9.7378865525
 20
12.0789589588
 30
0.0
 10
9.6942496447
 20
12.0743486018
 30
0.0
 10
9.6516894278
 20
12.0691090294
 30
0.0
 10
9.6103417491
 20
12.0632570909
 30
0.0
 10
9.5767301751
 20
12.0578416218
 30
0.0
 10
9.550552064
 20
12.0532077523
 30
0.0
 10
9.5314670025
 20
12.0496204975
 30
0.0
 10
9.5127812692
 20
12.0458952788
 30
0.0
 10
9.4945097533
 20
12.0420349932
 30
0.0
 10
9.4766670322
 20
12.0380428066
 30
0.0
 10
9.4592673355
 20
12.0339218383
 30
0.0
 10
9.4423245333
 20
12.0296754671
 30
0.0
 10
9.4258521344
 20
12.025307009
 30
0.0
 10
9.4098632588
 20
12.0208200472
 30
0.0
 10
9.3943706487
 20
12.016218083
 30
0.0
 10
9.3793866291
 20
12.0115048907
 30
0.0
 10
9.3649231329
 20
12.0066841461
 30
0.0
 10
9.3509916463
 20
12.0017597981
 30
0.0
 10
9.3376032514
 20
11.9967356843
 30
0.0
 10
9.3247685542
 20
11.9916159095
 30
0.0
 10
9.3124977453
 20
11.9864044575
 30
0.0
 10
9.3008005103
 20
11.9811055659
 30
0.0
 10
9.2896861098
 20
11.9757233438
 30
0.0
 10
9.2791632715
 20
11.9702621308
 30
0.0
 10
9.26924029
 20
11.9647261317
 30
0.0
 10
9.2599249042
 20
11.959119745
 30
0.0
 10
9.2512244151
 20
11.9534472262
 30
0.0
 10
9.2431455574
 20
11.94771297
 30
0.0
 10
9.2356946354
 20
11.9419212157
 30
0.0
 10
9.2288774054
 20
11.9360762682
 30
0.0
 10
9.2226992304
 20
11.9301822623
 30
0.0
 10
9.2171650074
 20
11.9242433259
 30
0.0
 10
9.2122793334
 20
11.9182634221
 30
0.0
 10
9.2080465239
 20
11.9122465457
 30
0.0
 10
9.2044707143
 20
11.9061965145
 30
0.0
 10
9.2015560611
 20
11.9001179778
 30
0.0
 10
9.1996671006
 20
11.8949929504
 30
0.0
 10
9.198501325
 20
11.8908976659
 30
0.0
 10
9.1978000615
 20
11.8878456519
 30
0.0
 10
9.1972656663
 20
11.8847912897
 30
0.0
 10
9.1970200093
 20
11.8827479132
 30
0.0
 10
9.1969253861
 20
11.881727613
 30
0.0
  0
SPLINE
  5
3B9
100
AcDbEntity
  8
0
100
AcDbSpline
 62
7
  6
CONTINUOUS
 70
0
 71
3
 72
53
 73
49
 74
0
 42
0.0000001
 43
0.0000001
 44
0.0000000001
 40
0.0
 40
0.0
 40
0.0
 40
0.0
 40
0.0496807096
 40
0.0987337499
 40
0.1470735357
 40
0.1946230643
 40
0.2413039669
 40
0.2870403556
 40
0.3317587549
 40
0.3753878772
 40
0.4178592014
 40
0.4591070858
 40
0.4990689794
 40
0.5376858169
 40
0.5749023574
 40
0.6106674528
 40
0.6449345025
 40
0.6776620953
 40
0.7088145195
 40
0.7237910509
 40
0.7383634583
 40
0.7525291913
 40
0.7662863379
 40
0.7796335993
 40
0.7925701863
 40
0.8050961567
 40
0.8172122978
 40
0.8289201588
 40
0.8402223952
 40
0.8511226166
 40
0.8616255804
 40
0.8717374976
 40
0.8814659305
 40
0.8908201421
 40
0.8998113445
 40
0.9084527167
 40
0.9167598629
 40
0.9247509939
 40
0.9324470609
 40
0.9470456288
 40
0.9540141106
 40
0.9608035334
 40
0.9674508821
 40
0.9739958129
 40
0.9804800779
 40
0.986946688
 40
0.9934390503
 40
1.0
 40
1.0
 40
1.0
 40
1.0
 10
13.5105563411
 20
10.1703910265
 30
0.0
 10
13.5105563411
 20
10.1787685894
 30
0.0
 10
13.5104624632
 20
10.1954180383
 30
0.0
 10
13.5100347769
 20
10.2202156247
 30
0.0
 10
13.509321734
 20
10.2446471776
 30
0.0
 10
13.5083247035
 20
10.2686684632
 30
0.0
 10
13.5070454578
 20
10.2922367714
 30
0.0
 10
13.5054863365
 20
10.3153097873
 30
0.0
 10
13.5036501714
 20
10.3378461765
 30
0.0
 10
13.5015402662
 20
10.3598055901
 30
0.0
 10
13.4991604628
 20
10.3811487076
 30
0.0
 10
13.4965150797
 20
10.401837332
 30
0.0
 10
13.4936088926
 20
10.4218344442
 30
0.0
 10
13.4904471654
 20
10.4411042864
 30
0.0
 10
13.4870356439
 20
10.4596124402
 30
0.0
 10
13.4833805022
 20
10.4773258563
 30
0.0
 10
13.4794883384
 20
10.4942129939
 30
0.0
 10
13.4753661966
 20
10.5102436756
 30
0.0
 10
13.4716991819
 20
10.5230276699
 30
0.0
 10
13.4686482586
 20
10.5327987647
 30
0.0
 10
13.4663373108
 20
10.5397990512
 30
0.0
 10
13.4639745522
 20
10.5465646081
 30
0.0
 10
13.4615610303
 20
10.5530924314
 30
0.0
 10
13.4590978636
 20
10.5593796237
 30
0.0
 10
13.4565860913
 20
10.5654233706
 30
0.0
 10
13.4540268675
 20
10.5712209996
 30
0.0
 10
13.4514213422
 20
10.5767699471
 30
0.0
 10
13.4487706078
 20
10.5820677311
 30
0.0
 10
13.4460758873
 20
10.5871120346
 30
0.0
 10
13.4433383466
 20
10.5919006303
 30
0.0
 10
13.4405591286
 20
10.5964313836
 30
0.0
 10
13.4377394947
 20
10.6007023391
 30
0.0
 10
13.4348806044
 20
10.604711599
 30
0.0
 10
13.4319836371
 20
10.6084573838
 30
0.0
 10
13.4290498607
 20
10.6119380785
 30
0.0
 10
13.4260803753
 20
10.6151521048
 30
0.0
 10
13.4230764945
 20
10.6180979441
 30
0.0
 10
13.4200390587
 20
10.620774512
 30
0.0
 10
13.4160181645
 20
10.6239260589
 30
0.0
 10
13.4118580946
 20
10.6266124609
 30
0.0
 10
13.4075816572
 20
10.6287599136
 30
0.0
 10
13.4043963857
 20
10.6300706265
 30
0.0
 10
13.401185804
 20
10.6311049181
 30
0.0
 10
13.3979513987
 20
10.6318619875
 30
0.0
 10
13.394695052
 20
10.6323413018
 30
0.0
 10
13.3914185526
 20
10.6325423996
 30
0.0
 10
13.3881241308
 20
10.6324651847
 30
0.0
 10
13.3859326291
 20
10.6322299829
 30
0.0
 10
13.3848382304
 20
10.6320677338
 30
0.0
  0
SPLINE
  5
3BA
100
AcDbEntity
  8
0
100
AcDbSpline
 62
7
  6
CONTINUOUS
 70
0
 71
3
 72
21
 73
17
 74
0
 42
0.0000001
 43
0.0000001
 44
0.0000000001
 40
0.0
 40
0.0
 40
0.0
 40
0.0
 40
0.1411199528
 40
0.2788812635
 40
0.3462964617
 40
0.4126254796
 40
0.4777897869
 40
0.541712797
 40
0.6043198853
 40
0.6655388834
 40
0.7252999682
 40
0.7835362609
 40
0.8401835989
 40
0.8951810474
 40
0.9484711746
 40
1.0
 40
1.0
 40
1.0
 40
1.0
 10
13.2941171619
 20
10.1733268212
 30
0.0
 10
13.2941171619
 20
10.1865554244
 30
0.0
 10
13.2938664048
 20
10.2126985255
 30
0.0
 10
13.2928992609
 20
10.2451484648
 30
0.0
 10
13.2917312169
 20
10.2705730515
 30
0.0
 10
13.2906702621
 20
10.2891889563
 30
0.0
 10
13.289419608
 20
10.3074649755
 30
0.0
 10
13.2879808674
 20
10.3253771827
 30
0.0
 10
13.2863559435
 20
10.3429021002
 30
0.0
 10
13.284547014
 20
10.3600167501
 30
0.0
 10
13.2825564218
 20
10.3766987042
 30
0.0
 10
13.2803868488
 20
10.3929261077
 30
0.0
 10
13.2780411335
 20
10.4086777007
 30
0.0
 10
13.2755223717
 20
10.4239328803
 30
0.0
 10
13.2728339446
 20
10.4386716087
 30
0.0
 10
13.2708976939
 20
10.448305372
 30
0.0
 10
13.269899673
 20
10.453031463
 30
0.0
  0
SPLINE
  5
3BB
100
AcDbEntity
  8
0
100
AcDbSpline
 62
7
  6
CONTINUOUS
 70
0
 71
3
 72
55
 73
51
 74
0
 42
0.0000001
 43
0.0000001
 44
0.0000000001
 40
0.0
 40
0.0
 40
0.0
 40
0.0
 40
0.0404000695
 40
0.0812324805
 40
0.1223851511
 40
0.1637450173
 40
0.2051981811
 40
0.2466304537
 40
0.2879277054
 40
0.3289762917
 40
0.3696634525
 40
0.4098777235
 40
0.449509347
 40
0.4884506895
 40
0.5265966653
 40
0.5638451714
 40
0.6000975371
 40
0.6352589949
 40
0.6524024329
 40
0.6692396463
 40
0.6857601119
 40
0.7019536632
 40
0.7178104933
 40
0.7333211878
 40
0.748476745
 40
0.7632685977
 40
0.7776886544
 40
0.7917293095
 40
0.8053835093
 40
0.8186447521
 40
0.8315071823
 40
0.8439655837
 40
0.8560155069
 40
0.8676532613
 40
0.8788760822
 40
0.8896821293
 40
0.9000707037
 40
0.9100422668
 40
0.9195987184
 40
0.9287434558
 40
0.9374817317
 40
0.9458207769
 40
0.9537702576
 40
0.9613424892
 40
0.9685530006
 40
0.9754208446
 40
0.9819692325
 40
0.9882258689
 40
0.9942234935
 40
1.0
 40
1.0
 40
1.0
 40
1.0
 10
10.2423634978
 20
12.0449081708
 30
0.0
 10
10.2280299045
 20
12.0459022089
 30
0.0
 10
10.1991938208
 20
12.0476835622
 30
0.0
 10
10.1557151108
 20
12.0497316016
 30
0.0
 10
10.1118702432
 20
12.051166228
 30
0.0
 10
10.0677887638
 20
12.0519831764
 30
0.0
 10
10.023600717
 20
12.0521800184
 30
0.0
 10
9.9794365338
 20
12.0517561706
 30
0.0
 10
9.9354265514
 20
12.0507128914
 30
0.0
 10
9.8917006563
 20
12.0490532808
 30
0.0
 10
9.8483878893
 20
12.0467822697
 30
0.0
 10
9.8056160644
 20
12.0439066068
 30
0.0
 10
9.7635113889
 20
12.0404348392
 30
0.0
 10
9.7221980828
 20
12.0363772883
 30
0.0
 10
9.6817980239
 20
12.0317460187
 30
0.0
 10
9.6424303243
 20
12.0265548124
 30
0.0
 10
9.6042111789
 20
12.0208190968
 30
0.0
 10
9.573156897
 20
12.0155565489
 30
0.0
 10
9.5489777839
 20
12.0110783919
 30
0.0
 10
9.5313525753
 20
12.0076229153
 30
0.0
 10
9.5140966977
 20
12.0040448911
 30
0.0
 10
9.4972228651
 20
12.0003469531
 30
0.0
 10
9.4807435254
 20
11.9965318418
 30
0.0
 10
9.4646708298
 20
11.9926023772
 30
0.0
 10
9.4490166269
 20
11.9885614734
 30
0.0
 10
9.4337924551
 20
11.9844121114
 30
0.0
 10
9.4190095297
 20
11.9801573747
 30
0.0
 10
9.4046787406
 20
11.975800394
 30
0.0
 10
9.3908106344
 20
11.9713444132
 30
0.0
 10
9.3774154183
 20
11.9667927012
 30
0.0
 10
9.3645029357
 20
11.9621486518
 30
0.0
 10
9.3520826788
 20
11.9574156592
 30
0.0
 10
9.3401637539
 20
11.9525972546
 30
0.0
 10
9.3287549074
 20
11.9476969419
 30
0.0
 10
9.3178644758
 20
11.942718374
 30
0.0
 10
9.3075004305
 20
11.9376651452
 30
0.0
 10
9.2976703067
 20
11.9325410087
 30
0.0
 10
9.2883812757
 20
11.9273496223
 30
0.0
 10
9.2796400435
 20
11.9220948098
 30
0.0
 10
9.2714529635
 20
11.9167802551
 30
0.0
 10
9.2638258949
 20
11.9114098075
 30
0.0
 10
9.2567643746
 20
11.9059871241
 30
0.0
 10
9.2502734247
 20
11.9005160177
 30
0.0
 10
9.24435781
 20
11.8950000509
 30
0.0
 10
9.2390217877
 20
11.8894429346
 30
0.0
 10
9.2342694768
 20
11.8838480752
 30
0.0
 10
9.2301045624
 20
11.8782191176
 30
0.0
 10
9.2265307021
 20
11.8725592214
 30
0.0
 10
9.2235514692
 20
11.8668727819
 30
0.0
 10
9.2219371461
 20
11.8630016603
 30
0.0
 10
9.2212375871
 20
11.8610700596
 30
0.0
  0
SPLINE
  5
3BC
100
AcDbEntity
  8
0
100
AcDbSpline
 62
7
  6
CONTINUOUS
 70
0
 71
3
 72
54
 73
50
 74
0
 42
0.0000001
 43
0.0000001
 44
0.0000000001
 40
0.0
 40
0.0
 40
0.0
 40
0.0
 40
0.0398033734
 40
0.0800254056
 40
0.120560708
 40
0.1613030477
 40
0.2021453548
 40
0.2429802772
 40
0.2837004667
 40
0.3241989715
 40
0.3643695906
 40
0.404107244
 40
0.4433083399
 40
0.4818711486
 40
0.5196961804
 40
0.5566865734
 40
0.5927484924
 40
0.6277915442
 40
0.661729217
 40
0.6782579103
 40
0.6944798197
 40
0.7103854633
 40
0.7259656533
 40
0.7412116136
 40
0.7561148929
 40
0.7706675075
 40
0.7848618374
 40
0.7986907952
 40
0.8121477074
 40
0.8252265103
 40
0.8379216217
 40
0.8502281642
 40
0.8621418335
 40
0.8736591506
 40
0.8847773371
 40
0.8954945982
 40
0.9058100181
 40
0.915723879
 40
0.9252375938
 40
0.9343540703
 40
0.9430777036
 40
0.951414797
 40
0.9593736415
 40
0.9669650058
 40
0.974202323
 40
0.9811022498
 40
0.9876849501
 40
0.993974666
 40
1.0
 40
1.0
 40
1.0
 40
1.0
 10
10.2545279829
 20
12.0917918487
 30
0.0
 10
10.2397196277
 20
12.0928188116
 30
0.0
 10
10.2099315236
 20
12.0946642161
 30
0.0
 10
10.1650201183
 20
12.0968025129
 30
0.0
 10
10.1197330796
 20
12.098321831
 30
0.0
 10
10.0741981074
 20
12.0992178636
 30
0.0
 10
10.0285433851
 20
12.0994880682
 30
0.0
 10
9.9828975162
 20
12.0991316815
 30
0.0
 10
9.9373890511
 20
12.0981497121
 30
0.0
 10
9.8921461604
 20
12.0965449439
 30
0.0
 10
9.8472962594
 20
12.0943219253
 30
0.0
 10
9.8029656505
 20
12.0914869583
 30
0.0
 10
9.7592791639
 20
12.088048081
 30
0.0
 10
9.7163598037
 20
12.0840150456
 30
0.0
 10
9.6743283934
 20
12.0793992924
 30
0.0
 10
9.6333032474
 20
12.0742139168
 30
0.0
 10
9.5933997708
 20
12.0684736414
 30
0.0
 10
9.5547303451
 20
12.0621947478
 30
0.0
 10
9.5233551972
 20
12.0564793608
 30
0.0
 10
9.4989596612
 20
12.0516418623
 30
0.0
 10
9.481199154
 20
12.0479223642
 30
0.0
 10
9.4638264056
 20
12.0440823203
 30
0.0
 10
9.4468536287
 20
12.0401243741
 30
0.0
 10
9.4302927683
 20
12.0360513796
 30
0.0
 10
9.4141554776
 20
12.0318661526
 30
0.0
 10
9.3984531026
 20
12.0275717124
 30
0.0
 10
9.3831966896
 20
12.0231710225
 30
0.0
 10
9.3683969552
 20
12.0186672627
 30
0.0
 10
9.3540643056
 20
12.0140635333
 30
0.0
 10
9.3402087948
 20
12.0093631653
 30
0.0
 10
9.3268401585
 20
12.0045693855
 30
0.0
 10
9.3139677555
 20
11.999685664
 30
0.0
 10
9.3016006216
 20
11.9947153424
 30
0.0
 10
9.2897473892
 20
11.9896620157
 30
0.0
 10
9.2784163661
 20
11.9845291261
 30
0.0
 10
9.2676154281
 20
11.9793203755
 30
0.0
 10
9.2573521288
 20
11.974039288
 30
0.0
 10
9.2476335596
 20
11.9686896476
 30
0.0
 10
9.2384664977
 20
11.9632750351
 30
0.0
 10
9.2298572276
 20
11.9577992819
 30
0.0
 10
9.2218117367
 20
11.9522659887
 30
0.0
 10
9.2143354952
 20
11.9466789854
 30
0.0
 10
9.2074337088
 20
11.9410418409
 30
0.0
 10
9.2011110611
 20
11.9353583225
 30
0.0
 10
9.1953720277
 20
11.9296318981
 30
0.0
 10
9.1902206214
 20
11.9238662546
 30
0.0
 10
9.1856606605
 20
11.9180645971
 30
0.0
 10
9.1816959334
 20
11.9122310513
 30
0.0
 10
9.1794062619
 20
11.9082432613
 30
0.0
 10
9.1783700415
 20
11.9062494168
 30
0.0
  0
SPLINE
  5
3BD
100
AcDbEntity
  8
0
100
AcDbSpline
 62
7
  6
CONTINUOUS
 70
0
 71
3
 72
23
 73
19
 74
0
 42
0.0000001
 43
0.0000001
 44
0.0000000001
 40
0.0
 40
0.0
 40
0.0
 40
0.0
 40
0.0635608666
 40
0.1277998777
 40
0.1925421144
 40
0.2576112089
 40
0.3228294401
 40
0.388018646
 40
0.4530007355
 40
0.517598358
 40
0.5816355185
 40
0.6449382144
 40
0.7073350709
 40
0.7686579867
 40
0.8287427892
 40
0.8874299067
 40
0.9445650622
 40
1.0
 40
1.0
 40
1.0
 40
1.0
 10
10.2423634978
 20
11.778672982
 30
0.0
 10
10.2280896055
 20
11.7796628798
 30
0.0
 10
10.1993741541
 20
11.7814376848
 30
0.0
 10
10.1560777996
 20
11.7834810619
 30
0.0
 10
10.1124172473
 20
11.7849161245
 30
0.0
 10
10.0685204397
 20
11.7857386435
 30
0.0
 10
10.0245158016
 20
11.7859461929
 30
0.0
 10
9.9805321523
 20
11.7855381635
 30
0.0
 10
9.9366982232
 20
11.7845157562
 30
0.0
 10
9.8931423136
 20
11.7828819839
 30
0.0
 10
9.8499919011
 20
11.7806416603
 30
0.0
 10
9.8073732695
 20
11.7778013876
 30
0.0
 10
9.7654111366
 20
11.7743695375
 30
0.0
 10
9.7242282789
 20
11.7703562268
 30
0.0
 10
9.6839451939
 20
11.7657732932
 30
0.0
 10
9.6446796471
 20
11.7606342459
 30
0.0
 10
9.6065466615
 20
11.7549542851
 30
0.0
 10
9.58155512
 20
11.750751125
 30
0.0
 10
9.5692706752
 20
11.7485564506
 30
0.0
  0
SPLINE
  5
3BE
100
AcDbEntity
  8
0
100
AcDbSpline
 62
7
  6
CONTINUOUS
 70
0
 71
3
 72
49
 73
45
 74
0
 42
0.0000001
 43
0.0000001
 44
0.0000000001
 40
0.0
 40
0.0
 40
0.0
 40
0.0
 40
0.0452815664
 40
0.0900934916
 40
0.1343764452
 40
0.1780778156
 40
0.2211437761
 40
0.2635215776
 40
0.3051600111
 40
0.3460090596
 40
0.3860201398
 40
0.4251461855
 40
0.4633418347
 40
0.5005635451
 40
0.5367696648
 40
0.5719206903
 40
0.6059794313
 40
0.6389111097
 40
0.6706836833
 40
0.7012681201
 40
0.7306385835
 40
0.7587728829
 40
0.7856529568
 40
0.7986186113
 40
0.8112660877
 40
0.8235944712
 40
0.835603312
 40
0.8472925624
 40
0.8586625372
 40
0.8697141245
 40
0.8804487193
 40
0.8908682143
 40
0.9009752246
 40
0.910773026
 40
0.9202655834
 40
0.9294577897
 40
0.9383554191
 40
0.9469651977
 40
0.9552950545
 40
0.9633540956
 40
0.9711527135
 40
0.9787028343
 40
0.9860179023
 40
1.0
 40
1.0
 40
1.0
 40
1.0
 10
10.2545279829
 20
12.0917918487
 30
0.0
 10
10.2646563584
 20
12.0910894434
 30
0.0
 10
10.2848011743
 20
12.0895902996
 30
0.0
 10
10.3148228239
 20
12.0870441283
 30
0.0
 10
10.3444632596
 20
12.0842146585
 30
0.0
 10
10.3736820615
 20
12.081105799
 30
0.0
 10
10.402440234
 20
12.0777217233
 30
0.0
 10
10.4306989708
 20
12.0740670112
 30
0.0
 10
10.4584201891
 20
12.0701465934
 30
0.0
 10
10.4855665883
 20
12.065965781
 30
0.0
 10
10.5121016171
 20
12.0615302413
 30
0.0
 10
10.5379895509
 20
12.0568459503
 30
0.0
 10
10.5631955535
 20
12.0519192552
 30
0.0
 10
10.5876857154
 20
12.0467568399
 30
0.0
 10
10.6114270913
 20
12.0413656648
 30
0.0
 10
10.6343877635
 20
12.0357530299
 30
0.0
 10
10.6565368866
 20
12.0299265528
 30
0.0
 10
10.6778447106
 20
12.0238940931
 30
0.0
 10
10.6982826508
 20
12.0176638063
 30
0.0
 10
10.717823316
 20
12.0112441431
 30
0.0
 10
10.736440594
 20
12.0046437479
 30
0.0
 10
10.754109464
 20
11.9978715182
 30
0.0
 10
10.7681878567
 20
11.9920243346
 30
0.0
 10
10.7789506664
 20
11.987260274
 30
0.0
 10
10.7866739713
 20
11.9836929568
 30
0.0
 10
10.7941430357
 20
11.98008957
 30
0.0
 10
10.801355377
 20
11.9764513243
 30
0.0
 10
10.8083085902
 20
11.9727794666
 30
0.0
 10
10.8150003254
 20
11.9690751751
 30
0.0
 10
10.8214283601
 20
11.9653397148
 30
0.0
 10
10.8275905606
 20
11.9615743494
 30
0.0
 10
10.8334848406
 20
11.9577802778
 30
0.0
 10
10.8391092553
 20
11.9539587897
 30
0.0
 10
10.8444619448
 20
11.9501111607
 30
0.0
 10
10.8495410886
 20
11.9462385994
 30
0.0
 10
10.8543450235
 20
11.9423424089
 30
0.0
 10
10.8588721607
 20
11.9384238641
 30
0.0
 10
10.8631209417
 20
11.9344841698
 30
0.0
 10
10.8670899737
 20
11.930524638
 30
0.0
 10
10.8707779431
 20
11.9265464989
 30
0.0
 10
10.8741834676
 20
11.9225510581
 30
0.0
 10
10.8773056371
 20
11.9185392389
 30
0.0
 10
10.8810322333
 20
11.9132511392
 30
0.0
 10
10.8834901565
 20
11.9091432243
 30
0.0
 10
10.8849403195
 20
11.9063638312
 30
0.0
  0
SPLINE
  5
3BF
100
AcDbEntity
  8
0
100
AcDbSpline
 62
7
  6
CONTINUOUS
 70
0
 71
3
 72
42
 73
38
 74
0
 42
0.0000001
 43
0.0000001
 44
0.0000000001
 40
0.0
 40
0.0
 40
0.0
 40
0.0
 40
0.0083034448
 40
0.0166273864
 40
0.0249921497
 40
0.0334177432
 40
0.0505240139
 40
0.06810002
 40
0.0862816971
 40
0.1051903015
 40
0.1149526492
 40
0.124935269
 40
0.1456012733
 40
0.1672689
 40
0.1900027512
 40
0.2138561638
 40
0.2388725963
 40
0.2650867899
 40
0.2925261098
 40
0.3212112269
 40
0.3511573635
 40
0.3823745266
 40
0.4148686736
 40
0.4486416063
 40
0.4836920596
 40
0.5200153861
 40
0.5576045421
 40
0.5964496928
 40
0.6365390492
 40
0.6778585054
 40
0.7203922844
 40
0.7641226854
 40
0.8090305135
 40
0.855094983
 40
0.9022939241
 40
0.9506038595
 40
1.0
 40
1.0
 40
1.0
 40
1.0
 10
13.4696408069
 20
8.4816951293
 30
0.0
 10
13.4705238722
 20
8.4816338883
 30
0.0
 10
13.4722893657
 20
8.4814657461
 30
0.0
 10
13.4749262885
 20
8.4810773537
 30
0.0
 10
13.47755291
 20
8.4805527123
 30
0.0
 10
13.4810576483
 20
8.4796674744
 30
0.0
 10
13.485424379
 20
8.4782103855
 30
0.0
 10
13.4905848187
 20
8.4759264861
 30
0.0
 10
13.4956897704
 20
8.4731008942
 30
0.0
 10
13.4998501979
 20
8.4703271641
 30
0.0
 10
13.5031452674
 20
8.4678516047
 30
0.0
 10
13.5064939459
 20
8.4651400411
 30
0.0
 10
13.5106410599
 20
8.4614042034
 30
0.0
 10
13.5154943056
 20
8.4564426555
 30
0.0
 10
13.5202781084
 20
8.4509551305
 30
0.0
 10
13.5249895797
 20
8.4449454078
 30
0.0
 10
13.5296260171
 20
8.4384173199
 30
0.0
 10
13.5341846715
 20
8.4313750887
 30
0.0
 10
13.5386627032
 20
8.4238231963
 30
0.0
 10
13.5430573892
 20
8.415766518
 30
0.0
 10
13.5473658654
 20
8.4072102063
 30
0.0
 10
13.5515854676
 20
8.3981598154
 30
0.0
 10
13.5557133707
 20
8.3886211771
 30
0.0
 10
13.5597469965
 20
8.378600514
 30
0.0
 10
13.5636836055
 20
8.3681043273
 30
0.0
 10
13.5675207199
 20
8.3571394868
 30
0.0
 10
13.5712557199
 20
8.345713144
 30
0.0
 10
13.5748862355
 20
8.333832793
 30
0.0
 10
13.5784097916
 20
8.3215062116
 30
0.0
 10
13.5818241306
 20
8.3087414951
 30
0.0
 10
13.5851269391
 20
8.2955470214
 30
0.0
 10
13.5883160771
 20
8.2819314646
 30
0.0
 10
13.5913894043
 20
8.2679037746
 30
0.0
 10
13.5943449043
 20
8.2534731821
 30
0.0
 10
13.5971806179
 20
8.238649176
 30
0.0
 10
13.5998946544
 20
8.2234415406
 30
0.0
 10
13.601603034
 20
8.2131663912
 30
0.0
 10
13.6024375174
 20
8.2079670712
 30
0.0
  0
SPLINE
  5
3C0
100
AcDbEntity
  8
0
100
AcDbSpline
 62
7
  6
CONTINUOUS
 70
0
 71
3
 72
33
 73
29
 74
0
 42
0.0000001
 43
0.0000001
 44
0.0000000001
 40
0.0
 40
0.0
 40
0.0
 40
0.0
 40
0.0892801496
 40
0.1752846118
 40
0.2578990554
 40
0.3370198495
 40
0.4125553925
 40
0.4489546649
 40
0.4844294352
 40
0.5189723875
 40
0.5525772935
 40
0.5852388966
 40
0.616953529
 40
0.647718673
 40
0.6775333665
 40
0.7063984825
 40
0.7343164309
 40
0.761291909
 40
0.7873317715
 40
0.8124452347
 40
0.8366445944
 40
0.8599450078
 40
0.8823652579
 40
0.9039281553
 40
0.9246606882
 40
0.9445950491
 40
0.9637687828
 40
1.0
 40
1.0
 40
1.0
 40
1.0
 10
13.5406068346
 20
8.2123254037
 30
0.0
 10
13.539253294
 20
8.2207559883
 30
0.0
 10
13.5364452521
 20
8.2372841773
 30
0.0
 10
13.5318309617
 20
8.2615152955
 30
0.0
 10
13.5268992891
 20
8.2846916801
 30
0.0
 10
13.5216589838
 20
8.3067725617
 30
0.0
 10
13.5169868406
 20
8.3244397834
 30
0.0
 10
13.5130922616
 20
8.3379895297
 30
0.0
 10
13.5101360381
 20
8.3477286272
 30
0.0
 10
13.5071097878
 20
8.3571659385
 30
0.0
 10
13.5040148461
 20
8.3662973522
 30
0.0
 10
13.500852515
 20
8.3751188568
 30
0.0
 10
13.4976242435
 20
8.3836266139
 30
0.0
 10
13.4943314154
 20
8.3918169039
 30
0.0
 10
13.4909754482
 20
8.3996861478
 30
0.0
 10
13.4875578661
 20
8.4072309397
 30
0.0
 10
13.4840800818
 20
8.4144479753
 30
0.0
 10
13.4805436421
 20
8.4213341367
 30
0.0
 10
13.4769500818
 20
8.4278864489
 30
0.0
 10
13.4733008732
 20
8.4341020471
 30
0.0
 10
13.4695976463
 20
8.4399782858
 30
0.0
 10
13.4658419002
 20
8.4455126083
 30
0.0
 10
13.4620352039
 20
8.4507026119
 30
0.0
 10
13.4581791391
 20
8.4555461268
 30
0.0
 10
13.4542753066
 20
8.4600408707
 30
0.0
 10
13.450324868
 20
8.464185324
 30
0.0
 10
13.4450977513
 20
8.469146721
 30
0.0
 10
13.440964581
 20
8.47248756
 30
0.0
 10
13.4381344725
 20
8.4744868603
 30
0.0
  0
SPLINE
  5
3C1
100
AcDbEntity
  8
0
100
AcDbSpline
 62
7
  6
CONTINUOUS
 70
0
 71
3
 72
33
 73
29
 74
0
 42
0.0000001
 43
0.0000001
 44
0.0000000001
 40
0.0
 40
0.0
 40
0.0
 40
0.0
 40
0.0893052496
 40
0.1753314909
 40
0.2579642152
 40
0.3370997466
 40
0.4126463683
 40
0.4490497228
 40
0.4845277226
 40
0.5190728768
 40
0.552679063
 40
0.5853410562
 40
0.6170550642
 40
0.6478187492
 40
0.6776310436
 40
0.7064928585
 40
0.7344067471
 40
0.7613772678
 40
0.7874114546
 40
0.8125185571
 40
0.8367108483
 40
0.8600037175
 40
0.8824158962
 40
0.9039703608
 40
0.924694295
 40
0.9446199012
 40
0.9637850237
 40
1.0
 40
1.0
 40
1.0
 40
1.0
 10
13.462671364
 20
7.0886255561
 30
0.0
 10
13.460165475
 20
7.080457994
 30
0.0
 10
13.4550996324
 20
7.064467035
 30
0.0
 10
13.4471795507
 20
7.0410927219
 30
0.0
 10
13.4390905389
 20
7.018808283
 30
0.0
 10
13.4308469277
 20
6.9976529474
 30
0.0
 10
13.4237759915
 20
6.9807931518
 30
0.0
 10
13.4180443938
 20
6.9679062296
 30
0.0
 10
13.4137692611
 20
6.9586656185
 30
0.0
 10
13.4094663848
 20
6.9497339964
 30
0.0
 10
13.4051376942
 20
6.941115245
 30
0.0
 10
13.4007850491
 20
6.9328131557
 30
0.0
 10
13.3964103633
 20
6.9248313582
 30
0.0
 10
13.3920155926
 20
6.9171733225
 30
0.0
 10
13.387602591
 20
6.9098424219
 30
0.0
 10
13.3831733419
 20
6.9028418248
 30
0.0
 10
13.3787297551
 20
6.8961745836
 30
0.0
 10
13.3742737212
 20
6.8898436184
 30
0.0
 10
13.3698072311
 20
6.8838516362
 30
0.0
 10
13.365332135
 20
6.8782012729
 30
0.0
 10
13.3608503691
 20
6.8728949599
 30
0.0
 10
13.3563638513
 20
6.8679349685
 30
0.0
 10
13.3518744014
 20
6.8633235151
 30
0.0
 10
13.3473839108
 20
6.8590625178
 30
0.0
 10
13.3428943212
 20
6.8551539739
 30
0.0
 10
13.3384069164
 20
6.8515993113
 30
0.0
 10
13.3325415561
 20
6.8474138012
 30
0.0
 10
13.3279841363
 20
6.8446815163
 30
0.0
 10
13.3249034935
 20
6.8430964956
 30
0.0
  0
SPLINE
  5
3C2
100
AcDbEntity
  8
0
100
AcDbSpline
 62
7
  6
CONTINUOUS
 70
0
 71
3
 72
61
 73
57
 74
0
 42
0.0000001
 43
0.0000001
 44
0.0000000001
 40
0.0
 40
0.0
 40
0.0
 40
0.0
 40
0.0027758433
 40
0.0055595941
 40
0.0083590873
 40
0.0111820092
 40
0.0140358402
 40
0.0169278032
 40
0.0228516385
 40
0.0290063602
 40
0.0354367082
 40
0.0387681006
 40
0.0421822872
 40
0.0492730731
 40
0.0567370731
 40
0.064596108
 40
0.072867737
 40
0.081565694
 40
0.09070057
 40
0.1002800962
 40
0.110309688
 40
0.1207926208
 40
0.131730418
 40
0.1431229861
 40
0.1549688512
 40
0.1672653029
 40
0.1800084954
 40
0.1931936241
 40
0.2068149163
 40
0.2208658417
 40
0.235339028
 40
0.2502264837
 40
0.2655194851
 40
0.2812087772
 40
0.2972844765
 40
0.3137362206
 40
0.3305531169
 40
0.3477238252
 40
0.3652365653
 40
0.3830791312
 40
0.4012389558
 40
0.4197030683
 40
0.4574902793
 40
0.4963311237
 40
0.5361109391
 40
0.5767111052
 40
0.6180096092
 40
0.6598815936
 40
0.7021998921
 40
0.7448355581
 40
0.7876583843
 40
0.8305374341
 40
0.8733415137
 40
0.9159398405
 40
0.9582021223
 40
1.0
 40
1.0
 40
1.0
 40
1.0
 10
9.170684986
 20
11.9364296446
 30
0.0
 10
9.1706849881
 20
11.9374935068
 30
0.0
 10
9.1707440098
 20
11.9396247304
 30
0.0
 10
9.1710094865
 20
11.9428189354
 30
0.0
 10
9.1714518756
 20
11.9460117718
 30
0.0
 10
9.1720709884
 20
11.9492023728
 30
0.0
 10
9.1728666922
 20
11.9523901409
 30
0.0
 10
9.1741729994
 20
11.9566693309
 30
0.0
 10
9.1762634942
 20
11.9620232684
 30
0.0
 10
9.1794551073
 20
11.9683685849
 30
0.0
 10
9.1826590956
 20
11.9735682508
 30
0.0
 10
9.1855544802
 20
11.9777066629
 30
0.0
 10
9.1887556827
 20
11.9819357129
 30
0.0
 10
9.1932065149
 20
11.9871985603
 30
0.0
 10
9.1991670171
 20
11.9933915366
 30
0.0
 10
9.2058079661
 20
11.9995359589
 30
0.0
 10
9.2131238343
 20
12.0056270648
 30
0.0
 10
9.2211087511
 20
12.0116605469
 30
0.0
 10
9.2297564072
 20
12.0176317009
 30
0.0
 10
9.2390598611
 20
12.0235360213
 30
0.0
 10
9.2490117233
 20
12.0293687756
 30
0.0
 10
9.2596039846
 20
12.0351253982
 30
0.0
 10
9.2708281444
 20
12.0408012173
 30
0.0
 10
9.2826751341
 20
12.0463916758
 30
0.0
 10
9.2951353693
 20
12.0518922287
 30
0.0
 10
9.3081987468
 20
12.0572983777
 30
0.0
 10
9.321854643
 20
12.0626057419
 30
0.0
 10
9.336091953
 20
12.0678099239
 30
0.0
 10
9.3508990625
 20
12.0729067245
 30
0.0
 10
9.3662639031
 20
12.0778918863
 30
0.0
 10
9.3821739188
 20
12.0827613968
 30
0.0
 10
9.398616119
 20
12.0875111764
 30
0.0
 10
9.4155770549
 20
12.0921373972
 30
0.0
 10
9.4330428592
 20
12.0966361917
 30
0.0
 10
9.4509992381
 20
12.1010039157
 30
0.0
 10
9.4694314969
 20
12.1052369401
 30
0.0
 10
9.4883245453
 20
12.109331809
 30
0.0
 10
9.5076629125
 20
12.1132851487
 30
0.0
 10
9.5274307626
 20
12.1170937031
 30
0.0
 10
9.5476118984
 20
12.1207543592
 30
0.0
 10
9.5681898061
 20
12.1242640935
 30
0.0
 10
9.5963500908
 20
12.1287733061
 30
0.0
 10
9.6324204153
 20
12.1340011971
 30
0.0
 10
9.6766864337
 20
12.1395825816
 30
0.0
 10
9.722115533
 20
12.1445005634
 30
0.0
 10
9.7685588202
 20
12.1487389147
 30
0.0
 10
9.8158642208
 20
12.1522836254
 30
0.0
 10
9.8638767621
 20
12.1551229898
 30
0.0
 10
9.9124391498
 20
12.1572476318
 30
0.0
 10
9.9613922703
 20
12.1586505365
 30
0.0
 10
10.0105757239
 20
12.159327074
 30
0.0
 10
10.0598283439
 20
12.159275008
 30
0.0
 10
10.1089887553
 20
12.1584945175
 30
0.0
 10
10.1578958491
 20
12.1569881639
 30
0.0
 10
10.2063892988
 20
12.154760948
 30
0.0
 10
10.2385470246
 20
12.1527875357
 30
0.0
 10
10.2545279829
 20
12.1516792525
 30
0.0
  0
SPLINE
  5
3C3
100
AcDbEntity
  8
0
100
AcDbSpline
 62
7
  6
CONTINUOUS
 70
0
 71
3
 72
54
 73
50
 74
0
 42
0.0000001
 43
0.0000001
 44
0.0000000001
 40
0.0
 40
0.0
 40
0.0
 40
0.0
 40
0.0476755643
 40
0.0948035029
 40
0.1413105796
 40
0.1871303663
 40
0.2321952114
 40
0.2764395567
 40
0.3197996841
 40
0.3622136003
 40
0.4036214605
 40
0.443965691
 40
0.4831911402
 40
0.5212453112
 40
0.5580786713
 40
0.5936448614
 40
0.6279009647
 40
0.660807902
 40
0.6923308943
 40
0.7075641742
 40
0.7224406167
 40
0.7369572781
 40
0.7511116813
 40
0.7649016442
 40
0.7783254858
 40
0.7913820263
 40
0.8040704929
 40
0.8163907811
 40
0.8283433533
 40
0.8399292739
 40
0.8511504567
 40
0.8620095274
 40
0.8725100023
 40
0.8826564649
 40
0.8924544799
 40
0.9019108907
 40
0.9110339098
 40
0.9198331545
 40
0.9283200011
 40
0.9365076151
 40
0.9444111214
 40
0.9520479116
 40
0.9594376359
 40
0.9666024071
 40
0.9735669077
 40
0.9803582746
 40
0.9870060946
 40
0.9935421425
 40
1.0
 40
1.0
 40
1.0
 40
1.0
 10
10.2477986932
 20
12.0852918536
 30
0.0
 10
10.2585356318
 20
12.0845472444
 30
0.0
 10
10.279878221
 20
12.082948905
 30
0.0
 10
10.3116615781
 20
12.0802066878
 30
0.0
 10
10.3429941069
 20
12.0771367687
 30
0.0
 10
10.3738248582
 20
12.0737442277
 30
0.0
 10
10.4041045269
 20
12.0700344768
 30
0.0
 10
10.4337842456
 20
12.0660135501
 30
0.0
 10
10.462816231
 20
12.0616879628
 30
0.0
 10
10.4911537502
 20
12.0570646939
 30
0.0
 10
10.5187511857
 20
12.0521512363
 30
0.0
 10
10.545564137
 20
12.046955558
 30
0.0
 10
10.5715494691
 20
12.0414860701
 30
0.0
 10
10.596665391
 20
12.0357516134
 30
0.0
 10
10.6208715493
 20
12.029761492
 30
0.0
 10
10.6441290668
 20
12.0235254146
 30
0.0
 10
10.6664006605
 20
12.0170534683
 30
0.0
 10
10.6876505007
 20
12.010356117
 30
0.0
 10
10.7046674645
 20
12.0045317921
 30
0.0
 10
10.7177375628
 20
11.9997600163
 30
0.0
 10
10.7271518851
 20
11.9961724277
 30
0.0
 10
10.7362860927
 20
11.9925366933
 30
0.0
 10
10.7451365466
 20
11.9888543119
 30
0.0
 10
10.7536996794
 20
11.9851267241
 30
0.0
 10
10.7619720597
 20
11.9813554325
 30
0.0
 10
10.7699503884
 20
11.9775419914
 30
0.0
 10
10.7776314479
 20
11.9736878684
 30
0.0
 10
10.7850121823
 20
11.9697946462
 30
0.0
 10
10.79208965
 20
11.9658638909
 30
0.0
 10
10.7988609979
 20
11.9618971109
 30
0.0
 10
10.805323559
 20
11.9578959453
 30
0.0
 10
10.8114747501
 20
11.9538619509
 30
0.0
 10
10.8173121044
 20
11.9497966855
 30
0.0
 10
10.8228333439
 20
11.9457018057
 30
0.0
 10
10.8280362397
 20
11.9415788462
 30
0.0
 10
10.8329187266
 20
11.9374294076
 30
0.0
 10
10.837478897
 20
11.9332551209
 30
0.0
 10
10.8417148628
 20
11.9290574937
 30
0.0
 10
10.8456249518
 20
11.9248381479
 30
0.0
 10
10.849207574
 20
11.9205986558
 30
0.0
 10
10.8524611529
 20
11.9163405186
 30
0.0
 10
10.8553843551
 20
11.9120653657
 30
0.0
 10
10.8579758183
 20
11.9077747369
 30
0.0
 10
10.8602342448
 20
11.9034702143
 30
0.0
 10
10.8621585604
 20
11.899153489
 30
0.0
 10
10.8637475855
 20
11.8948262565
 30
0.0
 10
10.8650003667
 20
11.8904902492
 30
0.0
 10
10.8659161072
 20
11.8861477432
 30
0.0
 10
10.8663030909
 20
11.8832366031
 30
0.0
 10
10.8664391826
 20
11.8817851121
 30
0.0
  0
SPLINE
  5
3C4
100
AcDbEntity
  8
0
100
AcDbSpline
 62
7
  6
CONTINUOUS
 70
0
 71
3
 72
50
 73
46
 74
0
 42
0.0000001
 43
0.0000001
 44
0.0000000001
 40
0.0
 40
0.0
 40
0.0
 40
0.0
 40
0.0461558267
 40
0.0918143428
 40
0.1369111716
 40
0.1813889563
 40
0.2251890572
 40
0.2682542074
 40
0.3105288172
 40
0.3519586522
 40
0.3924911667
 40
0.4320755631
 40
0.4706629685
 40
0.5082066558
 40
0.5446621138
 40
0.5799872674
 40
0.6141427892
 40
0.6470922259
 40
0.678802274
 40
0.709243238
 40
0.7383893172
 40
0.7662190323
 40
0.7927159385
 40
0.8054614736
 40
0.8178702801
 40
0.8299420431
 40
0.8416769836
 40
0.8530757429
 40
0.8641395922
 40
0.8748704598
 40
0.8852708599
 40
0.895344137
 40
0.9050944757
 40
0.9145268872
 40
0.9236474839
 40
0.9324634853
 40
0.94098327
 40
0.9492166701
 40
0.9571749795
 40
0.9648710636
 40
0.9723196366
 40
0.9795372547
 40
0.9865424271
 40
0.9933557882
 40
1.0
 40
1.0
 40
1.0
 40
1.0
 10
10.2423634978
 20
12.0449081708
 30
0.0
 10
10.2522653913
 20
12.0442214722
 30
0.0
 10
10.2719555333
 20
12.0427527649
 30
0.0
 10
10.3012917774
 20
12.0402489808
 30
0.0
 10
10.3302397309
 20
12.0374589719
 30
0.0
 10
10.3587571962
 20
12.0343868637
 30
0.0
 10
10.3868034445
 20
12.0310370598
 30
0.0
 10
10.4143379911
 20
12.0274144182
 30
0.0
 10
10.441321154
 20
12.0235241733
 30
0.0
 10
10.4677140935
 20
12.0193719505
 30
0.0
 10
10.493478802
 20
12.0149637789
 30
0.0
 10
10.5185781814
 20
12.010306025
 30
0.0
 10
10.5429761045
 20
12.005405422
 30
0.0
 10
10.5666374721
 20
12.0002690897
 30
0.0
 10
10.5895282491
 20
11.9949044574
 30
0.0
 10
10.6116155225
 20
11.989319272
 30
0.0
 10
10.6328675703
 20
11.9835216466
 30
0.0
 10
10.6532538865
 20
11.9775199742
 30
0.0
 10
10.6727452344
 20
11.9713229075
 30
0.0
 10
10.6913137017
 20
11.9649394297
 30
0.0
 10
10.70893281
 20
11.9583787573
 30
0.0
 10
10.7255772538
 20
11.9516503296
 30
0.0
 10
10.7387813509
 20
11.9458388097
 30
0.0
 10
10.7488301557
 20
11.941105114
 30
0.0
 10
10.7560107087
 20
11.9375649324
 30
0.0
 10
10.7629303797
 20
11.9339901294
 30
0.0
 10
10.7695867254
 20
11.9303820048
 30
0.0
 10
10.7759773428
 20
11.9267418102
 30
0.0
 10
10.7820999509
 20
11.9230708448
 30
0.0
 10
10.7879523893
 20
11.9193704532
 30
0.0
 10
10.7935325428
 20
11.9156418946
 30
0.0
 10
10.7988384325
 20
11.9118864992
 30
0.0
 10
10.8038681953
 20
11.9081056181
 30
0.0
 10
10.8086200011
 20
11.9043005128
 30
0.0
 10
10.8130921765
 20
11.9004725297
 30
0.0
 10
10.8172831495
 20
11.896623009
 30
0.0
 10
10.821191364
 20
11.8927532034
 30
0.0
 10
10.8248154415
 20
11.8888644604
 30
0.0
 10
10.828154076
 20
11.8849580956
 30
0.0
 10
10.8312059554
 20
11.8810353543
 30
0.0
 10
10.8339699657
 20
11.8770975797
 30
0.0
 10
10.8364450121
 20
11.873146097
 30
0.0
 10
10.8386300079
 20
11.8691821183
 30
0.0
 10
10.8405239776
 20
11.8652072807
 30
0.0
 10
10.8416044661
 20
11.8625200105
 30
0.0
 10
10.8420933725
 20
11.8611774411
 30
0.0
  0
SPLINE
  5
3C5
100
AcDbEntity
  8
0
100
AcDbSpline
 62
7
  6
CONTINUOUS
 70
0
 71
3
 72
15
 73
11
 74
0
 42
0.0000001
 43
0.0000001
 44
0.0000000001
 40
0.0
 40
0.0
 40
0.0
 40
0.0
 40
0.1322285991
 40
0.2628226728
 40
0.3915550757
 40
0.5182156063
 40
0.642592113
 40
0.7644798976
 40
0.8836800241
 40
1.0
 40
1.0
 40
1.0
 40
1.0
 10
10.2423634978
 20
11.778672982
 30
0.0
 10
10.2535149513
 20
11.7778996261
 30
0.0
 10
10.275671226
 20
11.7762323337
 30
0.0
 10
10.308647257
 20
11.773349946
 30
0.0
 10
10.3411166963
 20
11.7701054597
 30
0.0
 10
10.3730197215
 20
11.7665049592
 30
0.0
 10
10.4042982758
 20
11.7625549801
 30
0.0
 10
10.4348950628
 20
11.7582628143
 30
0.0
 10
10.46475406
 20
11.7536363711
 30
0.0
 10
10.4843823756
 20
11.7502922262
 30
0.0
 10
10.494062507
 20
11.7485630182
 30
0.0
  0
SPLINE
  5
3C6
100
AcDbEntity
  8
0
100
AcDbSpline
 62
4
  6
CONTINUOUS
 70
0
 71
3
 72
403
 73
399
 74
0
 42
0.0000001
 43
0.0000001
 44
0.0000000001
 40
0.0
 40
0.0
 40
0.0
 40
0.0
 40
0.015625
 40
0.0234375
 40
0.03125
 40
0.0390625
 40
0.04296875
 40
0.046875
 40
0.05078125
 40
0.0546875
 40
0.056640625
 40
0.05859375
 40
0.0595703125
 40
0.060546875
 40
0.0615234375
 40
0.0620117188
 40
0.0622558594
 40
0.0625
 40
0.0627441406
 40
0.0629882812
 40
0.0634765625
 40
0.064453125
 40
0.0654296875
 40
0.06640625
 40
0.068359375
 40
0.0703125
 40
0.07421875
 40
0.078125
 40
0.08203125
 40
0.0859375
 40
0.09375
 40
0.1015625
 40
0.10546875
 40
0.109375
 40
0.11328125
 40
0.1171875
 40
0.119140625
 40
0.12109375
 40
0.1220703125
 40
0.123046875
 40
0.1240234375
 40
0.1245117188
 40
0.1247558594
 40
0.125
 40
0.1252441406
 40
0.1254882812
 40
0.1259765625
 40
0.126953125
 40
0.1279296875
 40
0.12890625
 40
0.130859375
 40
0.1328125
 40
0.13671875
 40
0.140625
 40
0.14453125
 40
0.1484375
 40
0.15625
 40
0.1640625
 40
0.16796875
 40
0.171875
 40
0.17578125
 40
0.1796875
 40
0.181640625
 40
0.18359375
 40
0.1845703125
 40
0.185546875
 40
0.1865234375
 40
0.1870117188
 40
0.1872558594
 40
0.1875
 40
0.1877441406
 40
0.1879882812
 40
0.1884765625
 40
0.189453125
 40
0.1904296875
 40
0.19140625
 40
0.193359375
 40
0.1953125
 40
0.19921875
 40
0.203125
 40
0.20703125
 40
0.2109375
 40
0.21875
 40
0.2265625
 40
0.23046875
 40
0.234375
 40
0.23828125
 40
0.2421875
 40
0.244140625
 40
0.24609375
 40
0.2470703125
 40
0.248046875
 40
0.2490234375
 40
0.2495117188
 40
0.2497558594
 40
0.25
 40
0.2502441406
 40
0.2504882812
 40
0.2509765625
 40
0.251953125
 40
0.2529296875
 40
0.25390625
 40
0.255859375
 40
0.2578125
 40
0.26171875
 40
0.265625
 40
0.26953125
 40
0.2734375
 40
0.28125
 40
0.2890625
 40
0.29296875
 40
0.296875
 40
0.30078125
 40
0.3046875
 40
0.306640625
 40
0.30859375
 40
0.3095703125
 40
0.310546875
 40
0.3115234375
 40
0.3120117188
 40
0.3122558594
 40
0.3125
 40
0.3127441406
 40
0.3129882812
 40
0.3134765625
 40
0.314453125
 40
0.3154296875
 40
0.31640625
 40
0.318359375
 40
0.3203125
 40
0.32421875
 40
0.328125
 40
0.33203125
 40
0.3359375
 40
0.34375
 40
0.3515625
 40
0.35546875
 40
0.359375
 40
0.36328125
 40
0.3671875
 40
0.369140625
 40
0.37109375
 40
0.3720703125
 40
0.373046875
 40
0.3740234375
 40
0.3745117188
 40
0.3747558594
 40
0.375
 40
0.3752441406
 40
0.3754882812
 40
0.3759765625
 40
0.376953125
 40
0.3779296875
 40
0.37890625
 40
0.380859375
 40
0.3828125
 40
0.38671875
 40
0.390625
 40
0.39453125
 40
0.3984375
 40
0.40625
 40
0.4140625
 40
0.41796875
 40
0.421875
 40
0.42578125
 40
0.4296875
 40
0.431640625
 40
0.43359375
 40
0.4345703125
 40
0.435546875
 40
0.4365234375
 40
0.4370117188
 40
0.4372558594
 40
0.4375
 40
0.4377441406
 40
0.4379882812
 40
0.4384765625
 40
0.439453125
 40
0.4404296875
 40
0.44140625
 40
0.443359375
 40
0.4453125
 40
0.44921875
 40
0.453125
 40
0.45703125
 40
0.4609375
 40
0.46875
 40
0.4765625
 40
0.48046875
 40
0.484375
 40
0.48828125
 40
0.4921875
 40
0.494140625
 40
0.49609375
 40
0.4970703125
 40
0.498046875
 40
0.4990234375
 40
0.4995117188
 40
0.4997558594
 40
0.5
 40
0.5002441406
 40
0.5004882812
 40
0.5009765625
 40
0.501953125
 40
0.5029296875
 40
0.50390625
 40
0.505859375
 40
0.5078125
 40
0.51171875
 40
0.515625
 40
0.51953125
 40
0.5234375
 40
0.53125
 40
0.5390625
 40
0.54296875
 40
0.546875
 40
0.55078125
 40
0.5546875
 40
0.556640625
 40
0.55859375
 40
0.5595703125
 40
0.560546875
 40
0.5615234375
 40
0.5620117188
 40
0.5622558594
 40
0.5625
 40
0.5627441406
 40
0.5629882812
 40
0.5634765625
 40
0.564453125
 40
0.5654296875
 40
0.56640625
 40
0.568359375
 40
0.5703125
 40
0.57421875
 40
0.578125
 40
0.58203125
 40
0.5859375
 40
0.59375
 40
0.6015625
 40
0.60546875
 40
0.609375
 40
0.61328125
 40
0.6171875
 40
0.619140625
 40
0.62109375
 40
0.6220703125
 40
0.623046875
 40
0.6240234375
 40
0.6245117188
 40
0.6247558594
 40
0.625
 40
0.6252441406
 40
0.6254882812
 40
0.6259765625
 40
0.626953125
 40
0.6279296875
 40
0.62890625
 40
0.630859375
 40
0.6328125
 40
0.63671875
 40
0.640625
 40
0.64453125
 40
0.6484375
 40
0.65625
 40
0.6640625
 40
0.66796875
 40
0.671875
 40
0.67578125
 40
0.6796875
 40
0.681640625
 40
0.68359375
 40
0.6845703125
 40
0.685546875
 40
0.6865234375
 40
0.6870117188
 40
0.6872558594
 40
0.6875
 40
0.6877441406
 40
0.6879882812
 40
0.6884765625
 40
0.689453125
 40
0.6904296875
 40
0.69140625
 40
0.693359375
 40
0.6953125
 40
0.69921875
 40
0.703125
 40
0.70703125
 40
0.7109375
 40
0.71875
 40
0.7265625
 40
0.73046875
 40
0.734375
 40
0.73828125
 40
0.7421875
 40
0.744140625
 40
0.74609375
 40
0.7470703125
 40
0.748046875
 40
0.7490234375
 40
0.7495117188
 40
0.7497558594
 40
0.75
 40
0.7502441406
 40
0.7504882812
 40
0.7509765625
 40
0.751953125
 40
0.7529296875
 40
0.75390625
 40
0.755859375
 40
0.7578125
 40
0.76171875
 40
0.765625
 40
0.76953125
 40
0.7734375
 40
0.78125
 40
0.7890625
 40
0.79296875
 40
0.796875
 40
0.80078125
 40
0.8046875
 40
0.806640625
 40
0.80859375
 40
0.8095703125
 40
0.810546875
 40
0.8115234375
 40
0.8120117188
 40
0.8122558594
 40
0.8125
 40
0.8127441406
 40
0.8129882812
 40
0.8134765625
 40
0.814453125
 40
0.8154296875
 40
0.81640625
 40
0.818359375
 40
0.8203125
 40
0.82421875
 40
0.828125
 40
0.83203125
 40
0.8359375
 40
0.84375
 40
0.8515625
 40
0.85546875
 40
0.859375
 40
0.86328125
 40
0.8671875
 40
0.869140625
 40
0.87109375
 40
0.8720703125
 40
0.873046875
 40
0.8740234375
 40
0.8745117188
 40
0.8747558594
 40
0.875
 40
0.8752441406
 40
0.8754882812
 40
0.8759765625
 40
0.876953125
 40
0.8779296875
 40
0.87890625
 40
0.880859375
 40
0.8828125
 40
0.88671875
 40
0.890625
 40
0.89453125
 40
0.8984375
 40
0.90625
 40
0.9140625
 40
0.91796875
 40
0.921875
 40
0.92578125
 40
0.9296875
 40
0.931640625
 40
0.93359375
 40
0.9345703125
 40
0.935546875
 40
0.9365234375
 40
0.9370117188
 40
0.9372558594
 40
0.9375
 40
0.9377441406
 40
0.9379882812
 40
0.9384765625
 40
0.939453125
 40
0.9404296875
 40
0.94140625
 40
0.943359375
 40
0.9453125
 40
0.94921875
 40
0.953125
 40
0.95703125
 40
0.9609375
 40
0.96875
 40
0.9765625
 40
0.984375
 40
1.0
 40
1.0
 40
1.0
 40
1.0
 10
9.8232998139
 20
8.3310240466
 30
0.0
 10
9.8295661877
 20
8.3312038954
 30
0.0
 10
9.8389657485
 20
8.3314736687
 30
0.0
 10
9.8514984961
 20
8.3318333663
 30
0.0
 10
9.8608980569
 20
8.3321031397
 30
0.0
 10
9.8687310242
 20
8.3323279504
 30
0.0
 10
9.8749973979
 20
8.3325077998
 30
0.0
 10
9.8796971787
 20
8.3326426845
 30
0.0
 10
9.8843969576
 20
8.3327775786
 30
0.0
 10
9.8883134458
 20
8.3328899608
 30
0.0
 10
9.8914466235
 20
8.3329799326
 30
0.0
 10
9.8934048889
 20
8.3330360148
 30
0.0
 10
9.894971434
 20
8.3330812245
 30
0.0
 10
9.8961465268
 20
8.33311419
 30
0.0
 10
9.8971251856
 20
8.3331446572
 30
0.0
 10
9.8978113951
 20
8.3331601049
 30
0.0
 10
9.8982017218
 20
8.3331781122
 30
0.0
 10
9.8984995179
 20
8.3331657572
 30
0.0
 10
9.898778006
 20
8.3332522541
 30
0.0
 10
9.8991560583
 20
8.3333331026
 30
0.0
 10
9.899814512
 20
8.3334906527
 30
0.0
 10
9.9007568005
 20
8.3337073253
 30
0.0
 10
9.9018868447
 20
8.3339709273
 30
0.0
 10
9.9033938154
 20
8.3343211411
 30
0.0
 10
9.9052774448
 20
8.3347593383
 30
0.0
 10
9.9082912989
 20
8.3354602135
 30
0.0
 10
9.9120586004
 20
8.3363363899
 30
0.0
 10
9.916579369
 20
8.3373877662
 30
0.0
 10
9.9211001358
 20
8.338439152
 30
0.0
 10
9.9271278256
 20
8.3398409965
 30
0.0
 10
9.9346624375
 20
8.3415933032
 30
0.0
 10
9.9421970496
 20
8.3433456092
 30
0.0
 10
9.948224739
 20
8.3447474549
 30
0.0
 10
9.9527455069
 20
8.3457988368
 30
0.0
 10
9.9572662713
 20
8.3468502278
 30
0.0
 10
9.9610335862
 20
8.3477263588
 30
0.0
 10
9.9640474128
 20
8.3484273266
 30
0.0
 10
9.965931112
 20
8.3488652879
 30
0.0
 10
9.9674379396
 20
8.3492159859
 30
0.0
 10
9.9685684212
 20
8.3494781087
 30
0.0
 10
9.9695093411
 20
8.3496994094
 30
0.0
 10
9.970170238
 20
8.3498486975
 30
0.0
 10
9.9705443756
 20
8.3499427839
 30
0.0
 10
9.9708348886
 20
8.3499886182
 30
0.0
 10
9.971087521
 20
8.350128985
 30
0.0
 10
9.9714375773
 20
8.3502831668
 30
0.0
 10
9.9720440197
 20
8.350568348
 30
0.0
 10
9.9729135845
 20
8.3509677177
 30
0.0
 10
9.9739556846
 20
8.3514503993
 30
0.0
 10
9.9753456325
 20
8.352092774
 30
0.0
 10
9.9770829028
 20
8.3528961536
 30
0.0
 10
9.9798626272
 20
8.354181331
 30
0.0
 10
9.9833372511
 20
8.3557878817
 30
0.0
 10
9.9875068134
 20
8.3577157087
 30
0.0
 10
9.991676372
 20
8.3596435447
 30
0.0
 10
9.9972357849
 20
8.3622139896
 30
0.0
 10
10.0041850504
 20
8.3654270469
 30
0.0
 10
10.0111343162
 20
8.3686401034
 30
0.0
 10
10.0166937285
 20
8.3712105495
 30
0.0
 10
10.0208632889
 20
8.3731383818
 30
0.0
 10
10.0250328446
 20
8.3750662229
 30
0.0
 10
10.0285074888
 20
8.3766727296
 30
0.0
 10
10.0312871718
 20
8.3779579968
 30
0.0
 10
10.0330245475
 20
8.378761148
 30
0.0
 10
10.0344142791
 20
8.3794039912
 30
0.0
 10
10.0354570403
 20
8.3798852415
 30
0.0
 10
10.0363245364
 20
8.3802890896
 30
0.0
 10
10.0369346717
 20
8.3805662761
 30
0.0
 10
10.0372788111
 20
8.3807332675
 30
0.0
 10
10.0375496186
 20
8.3808342873
 30
0.0
 10
10.0377718687
 20
8.3810279023
 30
0.0
 10
10.0380851394
 20
8.3812537575
 30
0.0
 10
10.0386254718
 20
8.3816640524
 30
0.0
 10
10.039401501
 20
8.3822423205
 30
0.0
 10
10.04033097
 20
8.3829396097
 30
0.0
 10
10.0415708788
 20
8.3838681524
 30
0.0
 10
10.0431205537
 20
8.3850292336
 30
0.0
 10
10.0456001515
 20
8.3868867384
 30
0.0
 10
10.0486996083
 20
8.3892086966
 30
0.0
 10
10.0524189738
 20
8.3919950134
 30
0.0
 10
10.0561383346
 20
8.394781339
 30
0.0
 10
10.0610974841
 20
8.3984964367
 30
0.0
 10
10.0672964202
 20
8.40314031
 30
0.0
 10
10.0734953569
 20
8.4077841827
 30
0.0
 10
10.0784545055
 20
8.4114992815
 30
0.0
 10
10.0821738688
 20
8.4142856038
 30
0.0
 10
10.0858932248
 20
8.4170719329
 30
0.0
 10
10.0889927113
 20
8.4193938528
 30
0.0
 10
10.0914722485
 20
8.4212514358
 30
0.0
 10
10.0930220776
 20
8.4224123179
 30
0.0
 10
10.0942616699
 20
8.4233412693
 30
0.0
 10
10.095192106
 20
8.42403731
 30
0.0
 10
10.0959651094
 20
8.4246194846
 30
0.0
 10
10.0965108432
 20
8.4250228056
 30
0.0
 10
10.0968154596
 20
8.4252598346
 30
0.0
 10
10.0970642932
 20
8.4254191273
 30
0.0
 10
10.0972352571
 20
8.4256490563
 30
0.0
 10
10.0974903709
 20
8.4259309896
 30
0.0
 10
10.0979241648
 20
8.4264358525
 30
0.0
 10
10.0985504866
 20
8.4271510835
 30
0.0
 10
10.0992992408
 20
8.4280119297
 30
0.0
 10
10.1002985689
 20
8.4291588273
 30
0.0
 10
10.1015473903
 20
8.4305927565
 30
0.0
 10
10.1035456939
 20
8.4328868716
 30
0.0
 10
10.1060435085
 20
8.4357545744
 30
0.0
 10
10.1090409137
 20
8.4391957924
 30
0.0
 10
10.1120383116
 20
8.4426370173
 30
0.0
 10
10.1160348446
 20
8.4472253146
 30
0.0
 10
10.12103051
 20
8.4529606873
 30
0.0
 10
10.126026176
 20
8.4586960593
 30
0.0
 10
10.1300227079
 20
8.4632843576
 30
0.0
 10
10.133020109
 20
8.4667255798
 30
0.0
 10
10.1360175022
 20
8.4701668078
 30
0.0
 10
10.1385153544
 20
8.4730344796
 30
0.0
 10
10.1405135811
 20
8.4753286578
 30
0.0
 10
10.1417625983
 20
8.4767624264
 30
0.0
 10
10.1427615246
 20
8.4779096537
 30
0.0
 10
10.1435115063
 20
8.4787694927
 30
0.0
 10
10.1441339876
 20
8.4794878748
 30
0.0
 10
10.1445746375
 20
8.4799871126
 30
0.0
 10
10.1448187661
 20
8.4802780588
 30
0.0
 10
10.1450234728
 20
8.480480303
 30
0.0
 10
10.1451455745
 20
8.4807435751
 30
0.0
 10
10.1453371904
 20
8.4810733173
 30
0.0
 10
10.1456590934
 20
8.4816602843
 30
0.0
 10
10.1461259735
 20
8.4824936233
 30
0.0
 10
10.1466832254
 20
8.4834958496
 30
0.0
 10
10.1474272772
 20
8.484831376
 30
0.0
 10
10.1483569827
 20
8.4865010495
 30
0.0
 10
10.1498447124
 20
8.4891723788
 30
0.0
 10
10.1517043055
 20
8.4925115913
 30
0.0
 10
10.1539358467
 20
8.4965186244
 30
0.0
 10
10.1561673801
 20
8.5005256634
 30
0.0
 10
10.1591427607
 20
8.5058683801
 30
0.0
 10
10.1628619854
 20
8.5125467766
 30
0.0
 10
10.1665812109
 20
8.5192251727
 30
0.0
 10
10.1695565903
 20
8.52456789
 30
0.0
 10
10.1717881272
 20
8.5285749269
 30
0.0
 10
10.1740196553
 20
8.532581968
 30
0.0
 10
10.1758792894
 20
8.5359211557
 30
0.0
 10
10.1773669354
 20
8.5385925356
 30
0.0
 10
10.1782968536
 20
8.5402620803
 30
0.0
 10
10.1790404689
 20
8.5415978711
 30
0.0
 10
10.1795990546
 20
8.5425992897
 30
0.0
 10
10.1800617614
 20
8.5434351558
 30
0.0
 10
10.1803911144
 20
8.5440176115
 30
0.0
 10
10.1805707935
 20
8.544354582
 30
0.0
 10
10.1807295613
 20
8.5445956511
 30
0.0
 10
10.1807965565
 20
8.5448812859
 30
0.0
 10
10.1809178947
 20
8.5452465873
 30
0.0
 10
10.1811153218
 20
8.5458931075
 30
0.0
 10
10.1814051582
 20
8.5468129212
 30
0.0
 10
10.1817496243
 20
8.5479183185
 30
0.0
 10
10.1822100781
 20
8.5493916153
 30
0.0
 10
10.1827852463
 20
8.5512334302
 30
0.0
 10
10.1837057384
 20
8.5541802258
 30
0.0
 10
10.184856277
 20
8.5578637573
 30
0.0
 10
10.1862369561
 20
8.5622839793
 30
0.0
 10
10.1876176265
 20
8.5667042055
 30
0.0
 10
10.1894585233
 20
8.572597839
 30
0.0
 10
10.1917596433
 20
8.5799648814
 30
0.0
 10
10.194060764
 20
8.5873319235
 30
0.0
 10
10.1959016596
 20
8.5932255575
 30
0.0
 10
10.1972823338
 20
8.5976457821
 30
0.0
 10
10.1986629986
 20
8.6020660101
 30
0.0
 10
10.1998135817
 20
8.6057495228
 30
0.0
 10
10.2007339831
 20
8.6086963568
 30
0.0
 10
10.201309382
 20
8.610538074
 30
0.0
 10
10.2017693622
 20
8.6120115714
 30
0.0
 10
10.2021152755
 20
8.613116356
 30
0.0
 10
10.2024005838
 20
8.6140380863
 30
0.0
 10
10.2026060943
 20
8.6146811851
 30
0.0
 10
10.202714481
 20
8.6150519684
 30
0.0
 10
10.2028212592
 20
8.6153207648
 30
0.0
 10
10.2028306084
 20
8.6156250761
 30
0.0
 10
10.2028770584
 20
8.6160184366
 30
0.0
 10
10.202942512
 20
8.6167125892
 30
0.0
 10
10.2030442953
 20
8.6177012182
 30
0.0
 10
10.2031628919
 20
8.6188888646
 30
0.0
 10
10.2033222583
 20
8.620471942
 30
0.0
 10
10.2035210425
 20
8.6224509432
 30
0.0
 10
10.2038393341
 20
8.6256172589
 30
0.0
 10
10.2042371174
 20
8.6295751831
 30
0.0
 10
10.2047144921
 20
8.6343246794
 30
0.0
 10
10.2051918576
 20
8.6390741791
 30
0.0
 10
10.2058283481
 20
8.6454068442
 30
0.0
 10
10.20662396
 20
8.653322676
 30
0.0
 10
10.2074195728
 20
8.6612385076
 30
0.0
 10
10.2080560619
 20
8.6675711729
 30
0.0
 10
10.2085334314
 20
8.672320672
 30
0.0
 10
10.2090107911
 20
8.6770701708
 30
0.0
 10
10.2094086211
 20
8.6810280871
 30
0.0
 10
10.2097268175
 20
8.6841944188
 30
0.0
 10
10.209925844
 20
8.6861733791
 30
0.0
 10
10.2100847131
 20
8.6877565406
 30
0.0
 10
10.210204829
 20
8.68894393
 30
0.0
 10
10.2103018588
 20
8.6899333631
 30
0.0
 10
10.2103757981
 20
8.6906260803
 30
0.0
 10
10.2104086518
 20
8.6910217407
 30
0.0
 10
10.2104597645
 20
8.6913189872
 30
0.0
 10
10.2104096862
 20
8.691614318
 30
0.0
 10
10.2103782116
 20
8.6920087607
 30
0.0
 10
10.2103066858
 20
8.692698724
 30
0.0
 10
10.2102131039
 20
8.6936845486
 30
0.0
 10
10.2100971255
 20
8.6948674685
 30
0.0
 10
10.2099437731
 20
8.6964447194
 30
0.0
 10
10.2097516423
 20
8.6984162746
 30
0.0
 10
10.2094444792
 20
8.7015707676
 30
0.0
 10
10.2090604408
 20
8.7055138823
 30
0.0
 10
10.208599631
 20
8.7102456207
 30
0.0
 10
10.2081388114
 20
8.7149773588
 30
0.0
 10
10.2075243888
 20
8.7212863431
 30
0.0
 10
10.2067563592
 20
8.7291725733
 30
0.0
 10
10.2059883305
 20
8.7370588037
 30
0.0
 10
10.2053739065
 20
8.7433677878
 30
0.0
 10
10.204913091
 20
8.7480995263
 30
0.0
 10
10.2044522661
 20
8.7528312635
 30
0.0
 10
10.2040682744
 20
8.7567743816
 30
0.0
 10
10.203761016
 20
8.7599288677
 30
0.0
 10
10.2035691277
 20
8.7619004406
 30
0.0
 10
10.2034152777
 20
8.7634776552
 30
0.0
 10
10.2033008192
 20
8.7646606857
 30
0.0
 10
10.2032024819
 20
8.7656461643
 30
0.0
 10
10.2031394454
 20
8.7663367454
 30
0.0
 10
10.2030943688
 20
8.7667301981
 30
0.0
 10
10.2030860716
 20
8.7670285697
 30
0.0
 10
10.2029802615
 20
8.7673143957
 30
0.0
 10
10.2028731949
 20
8.7676998731
 30
0.0
 10
10.2026699809
 20
8.7683724197
 30
0.0
 10
10.2023879604
 20
8.7693342665
 30
0.0
 10
10.2020459895
 20
8.7704880264
 30
0.0
 10
10.201591267
 20
8.7720265322
 30
0.0
 10
10.2010224397
 20
8.77394961
 30
0.0
 10
10.200112553
 20
8.7770265649
 30
0.0
 10
10.1989751133
 20
8.7808727481
 30
0.0
 10
10.1976102206
 20
8.7854881724
 30
0.0
 10
10.1962453186
 20
8.7901035955
 30
0.0
 10
10.1944254524
 20
8.7962574933
 30
0.0
 10
10.1921506185
 20
8.8039498655
 30
0.0
 10
10.1898757854
 20
8.8116422379
 30
0.0
 10
10.188055918
 20
8.8177961354
 30
0.0
 10
10.1866910198
 20
8.8224115594
 30
0.0
 10
10.1853261128
 20
8.8270269804
 30
0.0
 10
10.1841887176
 20
8.8308731739
 30
0.0
 10
10.1832787402
 20
8.8339501077
 30
0.0
 10
10.1827101439
 20
8.8358732392
 30
0.0
 10
10.1822549471
 20
8.8374116348
 30
0.0
 10
10.1819144251
 20
8.8385657316
 30
0.0
 10
10.1816278714
 20
8.8395265241
 30
0.0
 10
10.18143275
 20
8.8402009528
 30
0.0
 10
10.181312717
 20
8.8405834146
 30
0.0
 10
10.1812467356
 20
8.8408785035
 30
0.0
 10
10.1810888486
 20
8.8411420853
 30
0.0
 10
10.1809103904
 20
8.8415045178
 30
0.0
 10
10.1805831523
 20
8.8421336542
 30
0.0
 10
10.180123478
 20
8.8430350975
 30
0.0
 10
10.1795685265
 20
8.8441156836
 30
0.0
 10
10.1788297586
 20
8.8455568653
 30
0.0
 10
10.177905899
 20
8.8473582054
 30
0.0
 10
10.176427947
 20
8.8502404262
 30
0.0
 10
10.1745804303
 20
8.8538431758
 30
0.0
 10
10.1723634432
 20
8.8581664867
 30
0.0
 10
10.1701464473
 20
8.8624897945
 30
0.0
 10
10.1671904558
 20
8.868254206
 30
0.0
 10
10.1634954653
 20
8.87545972
 30
0.0
 10
10.1598004756
 20
8.8826652343
 30
0.0
 10
10.1568444829
 20
8.8884296453
 30
0.0
 10
10.1546274906
 20
8.8927529546
 30
0.0
 10
10.1524104898
 20
8.8970762599
 30
0.0
 10
10.1505630157
 20
8.9006790269
 30
0.0
 10
10.1490849769
 20
8.9035612123
 30
0.0
 10
10.1481613382
 20
8.9053626425
 30
0.0
 10
10.1474221168
 20
8.9068036392
 30
0.0
 10
10.1468685508
 20
8.9078847904
 30
0.0
 10
10.1464045416
 20
8.9087844657
 30
0.0
 10
10.1460850421
 20
8.9094167583
 30
0.0
 10
10.1458941846
 20
8.9097741337
 30
0.0
 10
10.1457743842
 20
8.9100532494
 30
0.0
 10
10.1455653561
 20
8.9102899956
 30
0.0
 10
10.1453177755
 20
8.9106204361
 30
0.0
 10
10.1448700085
 20
8.9111918213
 30
0.0
 10
10.1442379226
 20
8.9120116857
 30
0.0
 10
10.1434761745
 20
8.9129939822
 30
0.0
 10
10.1424616438
 20
8.914304249
 30
0.0
 10
10.1411930923
 20
8.9159418982
 30
0.0
 10
10.1391636268
 20
8.9185622399
 30
0.0
 10
10.1366267205
 20
8.9218376317
 30
0.0
 10
10.1335824649
 20
8.9257681171
 30
0.0
 10
10.1305382007
 20
8.9296985983
 30
0.0
 10
10.1264791848
 20
8.9349392415
 30
0.0
 10
10.1214054138
 20
8.9414900448
 30
0.0
 10
10.1163316435
 20
8.9480408487
 30
0.0
 10
10.1122726265
 20
8.953281491
 30
0.0
 10
10.1092283655
 20
8.9572119746
 30
0.0
 10
10.1061840981
 20
8.9611424512
 30
0.0
 10
10.1036472282
 20
8.9644178703
 30
0.0
 10
10.1016176886
 20
8.9670381565
 30
0.0
 10
10.1003493256
 20
8.9686759469
 30
0.0
 10
10.0993344081
 20
8.969985924
 30
0.0
 10
10.0985738415
 20
8.9709691055
 30
0.0
 10
10.0979380589
 20
8.9717862006
 30
0.0
 10
10.0974968911
 20
8.9723625295
 30
0.0
 10
10.0972387369
 20
8.9726850489
 30
0.0
 10
10.0970621876
 20
8.9729461263
 30
0.0
 10
10.0968204022
 20
8.9731338581
 30
0.0
 10
10.0965207767
 20
8.973409751
 30
0.0
 10
10.09598583
 20
8.9738806435
 30
0.0
 10
10.0952271634
 20
8.9745595791
 30
0.0
 10
10.094314391
 20
8.9753716342
 30
0.0
 10
10.0930981897
 20
8.9764553062
 30
0.0
 10
10.0915776544
 20
8.9778095771
 30
0.0
 10
10.0891449565
 20
8.9799765889
 30
0.0
 10
10.0861040298
 20
8.9826852924
 30
0.0
 10
10.0824549409
 20
8.9859357628
 30
0.0
 10
10.0788058459
 20
8.9891862263
 30
0.0
 10
10.073940388
 20
8.99352018
 30
0.0
 10
10.0678585648
 20
8.9989376212
 30
0.0
 10
10.0617767421
 20
9.004355063
 30
0.0
 10
10.0569112834
 20
9.0086890157
 30
0.0
 10
10.0532621908
 20
9.0119394822
 30
0.0
 10
10.0496130928
 20
9.0151899412
 30
0.0
 10
10.0465721944
 20
9.0178986804
 30
0.0
 10
10.0441394387
 20
9.0200656193
 30
0.0
 10
10.0426190504
 20
9.0214200757
 30
0.0
 10
10.0414025474
 20
9.0225033668
 30
0.0
 10
10.040490697
 20
9.0233165856
 30
0.0
 10
10.0397291456
 20
9.0239918806
 30
0.0
 10
10.0391993487
 20
9.0244692721
 30
0.0
 10
10.0388914721
 20
9.0247347521
 30
0.0
 10
10.0386750314
 20
9.0249544689
 30
0.0
 10
10.0384032916
 20
9.0250954159
 30
0.0
 10
10.0380602607
 20
9.025310821
 30
0.0
 10
10.0374509697
 20
9.0256749785
 30
0.0
 10
10.0365852525
 20
9.0262018963
 30
0.0
 10
10.0355443806
 20
9.0268313329
 30
0.0
 10
10.034157254
 20
9.0276715823
 30
0.0
 10
10.0324231052
 20
9.0287215514
 30
0.0
 10
10.0296486015
 20
9.0304016935
 30
0.0
 10
10.0261804258
 20
9.0325018054
 30
0.0
 10
10.0220186348
 20
9.0350219679
 30
0.0
 10
10.0178568384
 20
9.0375421228
 30
0.0
 10
10.0123077784
 20
9.0409023321
 30
0.0
 10
10.0053714528
 20
9.0451025926
 30
0.0
 10
9.9984351275
 20
9.0493028538
 30
0.0
 10
9.9928860669
 20
9.0526630619
 30
0.0
 10
9.9887242724
 20
9.0551832202
 30
0.0
 10
9.9845624743
 20
9.05770337
 30
0.0
 10
9.9810943206
 20
9.0598035214
 30
0.0
 10
9.9783197721
 20
9.061483583
 30
0.0
 10
9.9765857373
 20
9.0625337569
 30
0.0
 10
9.9751983766
 20
9.063373586
 30
0.0
 10
9.97415822
 20
9.0640043068
 30
0.0
 10
9.9732902651
 20
9.0645272065
 30
0.0
 10
9.9726849687
 20
9.064898537
 30
0.0
 10
9.9723355374
 20
9.0651024492
 30
0.0
 10
9.9720834577
 20
9.0652786988
 30
0.0
 10
9.9717931767
 20
9.065365825
 30
0.0
 10
9.9714194605
 20
9.0655130805
 30
0.0
 10
9.9707592487
 20
9.0657562935
 30
0.0
 10
9.9698193347
 20
9.0661113131
 30
0.0
 10
9.9686900487
 20
9.0665340955
 30
0.0
 10
9.9671848193
 20
9.0670989373
 30
0.0
 10
9.9653031163
 20
9.067804602
 30
0.0
 10
9.9622924844
 20
9.0689338821
 30
0.0
 10
9.9585291627
 20
9.070345408
 30
0.0
 10
9.9540131903
 20
9.0720392709
 30
0.0
 10
9.9494972143
 20
9.0737331252
 30
0.0
 10
9.9434759142
 20
9.0759916007
 30
0.0
 10
9.9359492886
 20
9.0788146939
 30
0.0
 10
9.9284226633
 20
9.0816377878
 30
0.0
 10
9.9224013627
 20
9.0838962621
 30
0.0
 10
9.917885388
 20
9.0855901201
 30
0.0
 10
9.9133694106
 20
9.0872839691
 30
0.0
 10
9.9096061046
 20
9.0886955383
 30
0.0
 10
9.9065954407
 20
9.08982473
 30
0.0
 10
9.9047138194
 20
9.0905306198
 30
0.0
 10
9.9032084223
 20
9.0910949996
 30
0.0
 10
9.9020796484
 20
9.0915191936
 30
0.0
 10
9.901138132
 20
9.0918697963
 30
0.0
 10
9.9004807809
 20
9.0921208943
 30
0.0
 10
9.900102481
 20
9.0922555161
 30
0.0
 10
9.8998262796
 20
9.092381449
 30
0.0
 10
9.8995213197
 20
9.0924119473
 30
0.0
 10
9.8991247377
 20
9.0924859003
 30
0.0
 10
9.8984260456
 20
9.0925998083
 30
0.0
 10
9.8974303575
 20
9.0927706428
 30
0.0
 10
9.8962344858
 20
9.0929721734
 30
0.0
 10
9.8946403556
 20
9.0932420931
 30
0.0
 10
9.8926475678
 20
9.0935790776
 30
0.0
 10
9.8894591771
 20
9.0941184849
 30
0.0
 10
9.8854736648
 20
9.0947926644
 30
0.0
 10
9.8806910603
 20
9.0956017139
 30
0.0
 10
9.8759084531
 20
9.0964107543
 30
0.0
 10
9.8695316444
 20
9.097489478
 30
0.0
 10
9.8615606332
 20
9.0988378815
 30
0.0
 10
9.85199542
 20
9.1004559662
 30
0.0
 10
9.8392418022
 20
9.1026134122
 30
0.0
 10
9.8296765889
 20
9.1042314968
 30
0.0
 10
9.82329978
 20
9.1053102199
 30
0.0
  0
SPLINE
  5
3C7
100
AcDbEntity
  8
0
100
AcDbSpline
 62
4
  6
CONTINUOUS
 70
0
 71
3
 72
403
 73
399
 74
0
 42
0.0000001
 43
0.0000001
 44
0.0000000001
 40
0.0
 40
0.0
 40
0.0
 40
0.0
 40
0.015625
 40
0.0234375
 40
0.03125
 40
0.0390625
 40
0.04296875
 40
0.046875
 40
0.05078125
 40
0.0546875
 40
0.056640625
 40
0.05859375
 40
0.0595703125
 40
0.060546875
 40
0.0615234375
 40
0.0620117188
 40
0.0622558594
 40
0.0625
 40
0.0627441406
 40
0.0629882812
 40
0.0634765625
 40
0.064453125
 40
0.0654296875
 40
0.06640625
 40
0.068359375
 40
0.0703125
 40
0.07421875
 40
0.078125
 40
0.08203125
 40
0.0859375
 40
0.09375
 40
0.1015625
 40
0.10546875
 40
0.109375
 40
0.11328125
 40
0.1171875
 40
0.119140625
 40
0.12109375
 40
0.1220703125
 40
0.123046875
 40
0.1240234375
 40
0.1245117188
 40
0.1247558594
 40
0.125
 40
0.1252441406
 40
0.1254882812
 40
0.1259765625
 40
0.126953125
 40
0.1279296875
 40
0.12890625
 40
0.130859375
 40
0.1328125
 40
0.13671875
 40
0.140625
 40
0.14453125
 40
0.1484375
 40
0.15625
 40
0.1640625
 40
0.16796875
 40
0.171875
 40
0.17578125
 40
0.1796875
 40
0.181640625
 40
0.18359375
 40
0.1845703125
 40
0.185546875
 40
0.1865234375
 40
0.1870117188
 40
0.1872558594
 40
0.1875
 40
0.1877441406
 40
0.1879882812
 40
0.1884765625
 40
0.189453125
 40
0.1904296875
 40
0.19140625
 40
0.193359375
 40
0.1953125
 40
0.19921875
 40
0.203125
 40
0.20703125
 40
0.2109375
 40
0.21875
 40
0.2265625
 40
0.23046875
 40
0.234375
 40
0.23828125
 40
0.2421875
 40
0.244140625
 40
0.24609375
 40
0.2470703125
 40
0.248046875
 40
0.2490234375
 40
0.2495117188
 40
0.2497558594
 40
0.25
 40
0.2502441406
 40
0.2504882812
 40
0.2509765625
 40
0.251953125
 40
0.2529296875
 40
0.25390625
 40
0.255859375
 40
0.2578125
 40
0.26171875
 40
0.265625
 40
0.26953125
 40
0.2734375
 40
0.28125
 40
0.2890625
 40
0.29296875
 40
0.296875
 40
0.30078125
 40
0.3046875
 40
0.306640625
 40
0.30859375
 40
0.3095703125
 40
0.310546875
 40
0.3115234375
 40
0.3120117188
 40
0.3122558594
 40
0.3125
 40
0.3127441406
 40
0.3129882812
 40
0.3134765625
 40
0.314453125
 40
0.3154296875
 40
0.31640625
 40
0.318359375
 40
0.3203125
 40
0.32421875
 40
0.328125
 40
0.33203125
 40
0.3359375
 40
0.34375
 40
0.3515625
 40
0.35546875
 40
0.359375
 40
0.36328125
 40
0.3671875
 40
0.369140625
 40
0.37109375
 40
0.3720703125
 40
0.373046875
 40
0.3740234375
 40
0.3745117188
 40
0.3747558594
 40
0.375
 40
0.3752441406
 40
0.3754882812
 40
0.3759765625
 40
0.376953125
 40
0.3779296875
 40
0.37890625
 40
0.380859375
 40
0.3828125
 40
0.38671875
 40
0.390625
 40
0.39453125
 40
0.3984375
 40
0.40625
 40
0.4140625
 40
0.41796875
 40
0.421875
 40
0.42578125
 40
0.4296875
 40
0.431640625
 40
0.43359375
 40
0.4345703125
 40
0.435546875
 40
0.4365234375
 40
0.4370117188
 40
0.4372558594
 40
0.4375
 40
0.4377441406
 40
0.4379882812
 40
0.4384765625
 40
0.439453125
 40
0.4404296875
 40
0.44140625
 40
0.443359375
 40
0.4453125
 40
0.44921875
 40
0.453125
 40
0.45703125
 40
0.4609375
 40
0.46875
 40
0.4765625
 40
0.48046875
 40
0.484375
 40
0.48828125
 40
0.4921875
 40
0.494140625
 40
0.49609375
 40
0.4970703125
 40
0.498046875
 40
0.4990234375
 40
0.4995117188
 40
0.4997558594
 40
0.5
 40
0.5002441406
 40
0.5004882812
 40
0.5009765625
 40
0.501953125
 40
0.5029296875
 40
0.50390625
 40
0.505859375
 40
0.5078125
 40
0.51171875
 40
0.515625
 40
0.51953125
 40
0.5234375
 40
0.53125
 40
0.5390625
 40
0.54296875
 40
0.546875
 40
0.55078125
 40
0.5546875
 40
0.556640625
 40
0.55859375
 40
0.5595703125
 40
0.560546875
 40
0.5615234375
 40
0.5620117188
 40
0.5622558594
 40
0.5625
 40
0.5627441406
 40
0.5629882812
 40
0.5634765625
 40
0.564453125
 40
0.5654296875
 40
0.56640625
 40
0.568359375
 40
0.5703125
 40
0.57421875
 40
0.578125
 40
0.58203125
 40
0.5859375
 40
0.59375
 40
0.6015625
 40
0.60546875
 40
0.609375
 40
0.61328125
 40
0.6171875
 40
0.619140625
 40
0.62109375
 40
0.6220703125
 40
0.623046875
 40
0.6240234375
 40
0.6245117188
 40
0.6247558594
 40
0.625
 40
0.6252441406
 40
0.6254882812
 40
0.6259765625
 40
0.626953125
 40
0.6279296875
 40
0.62890625
 40
0.630859375
 40
0.6328125
 40
0.63671875
 40
0.640625
 40
0.64453125
 40
0.6484375
 40
0.65625
 40
0.6640625
 40
0.66796875
 40
0.671875
 40
0.67578125
 40
0.6796875
 40
0.681640625
 40
0.68359375
 40
0.6845703125
 40
0.685546875
 40
0.6865234375
 40
0.6870117188
 40
0.6872558594
 40
0.6875
 40
0.6877441406
 40
0.6879882812
 40
0.6884765625
 40
0.689453125
 40
0.6904296875
 40
0.69140625
 40
0.693359375
 40
0.6953125
 40
0.69921875
 40
0.703125
 40
0.70703125
 40
0.7109375
 40
0.71875
 40
0.7265625
 40
0.73046875
 40
0.734375
 40
0.73828125
 40
0.7421875
 40
0.744140625
 40
0.74609375
 40
0.7470703125
 40
0.748046875
 40
0.7490234375
 40
0.7495117188
 40
0.7497558594
 40
0.75
 40
0.7502441406
 40
0.7504882812
 40
0.7509765625
 40
0.751953125
 40
0.7529296875
 40
0.75390625
 40
0.755859375
 40
0.7578125
 40
0.76171875
 40
0.765625
 40
0.76953125
 40
0.7734375
 40
0.78125
 40
0.7890625
 40
0.79296875
 40
0.796875
 40
0.80078125
 40
0.8046875
 40
0.806640625
 40
0.80859375
 40
0.8095703125
 40
0.810546875
 40
0.8115234375
 40
0.8120117188
 40
0.8122558594
 40
0.8125
 40
0.8127441406
 40
0.8129882812
 40
0.8134765625
 40
0.814453125
 40
0.8154296875
 40
0.81640625
 40
0.818359375
 40
0.8203125
 40
0.82421875
 40
0.828125
 40
0.83203125
 40
0.8359375
 40
0.84375
 40
0.8515625
 40
0.85546875
 40
0.859375
 40
0.86328125
 40
0.8671875
 40
0.869140625
 40
0.87109375
 40
0.8720703125
 40
0.873046875
 40
0.8740234375
 40
0.8745117188
 40
0.8747558594
 40
0.875
 40
0.8752441406
 40
0.8754882812
 40
0.8759765625
 40
0.876953125
 40
0.8779296875
 40
0.87890625
 40
0.880859375
 40
0.8828125
 40
0.88671875
 40
0.890625
 40
0.89453125
 40
0.8984375
 40
0.90625
 40
0.9140625
 40
0.91796875
 40
0.921875
 40
0.92578125
 40
0.9296875
 40
0.931640625
 40
0.93359375
 40
0.9345703125
 40
0.935546875
 40
0.9365234375
 40
0.9370117188
 40
0.9372558594
 40
0.9375
 40
0.9377441406
 40
0.9379882812
 40
0.9384765625
 40
0.939453125
 40
0.9404296875
 40
0.94140625
 40
0.943359375
 40
0.9453125
 40
0.94921875
 40
0.953125
 40
0.95703125
 40
0.9609375
 40
0.96875
 40
0.9765625
 40
0.984375
 40
1.0
 40
1.0
 40
1.0
 40
1.0
 10
9.8232998139
 20
9.1053102175
 30
0.0
 10
9.81703344
 20
9.1051303687
 30
0.0
 10
9.8076338793
 20
9.1048605955
 30
0.0
 10
9.7951011316
 20
9.1045008979
 30
0.0
 10
9.7857015709
 20
9.1042311245
 30
0.0
 10
9.7778686035
 20
9.1040063138
 30
0.0
 10
9.7716022298
 20
9.1038264643
 30
0.0
 10
9.766902449
 20
9.1036915797
 30
0.0
 10
9.7622026701
 20
9.1035566856
 30
0.0
 10
9.7582861819
 20
9.1034443033
 30
0.0
 10
9.7551530043
 20
9.1033543315
 30
0.0
 10
9.7531947389
 20
9.1032982494
 30
0.0
 10
9.7516281938
 20
9.1032530396
 30
0.0
 10
9.750453101
 20
9.1032200741
 30
0.0
 10
9.7494744422
 20
9.103189607
 30
0.0
 10
9.7487882326
 20
9.1031741593
 30
0.0
 10
9.748397906
 20
9.103156152
 30
0.0
 10
9.7481001098
 20
9.103168507
 30
0.0
 10
9.7478216218
 20
9.1030820101
 30
0.0
 10
9.7474435694
 20
9.1030011615
 30
0.0
 10
9.7467851158
 20
9.1028436114
 30
0.0
 10
9.7458428272
 20
9.1026269389
 30
0.0
 10
9.7447127831
 20
9.1023633368
 30
0.0
 10
9.7432058124
 20
9.102013123
 30
0.0
 10
9.7413221829
 20
9.1015749259
 30
0.0
 10
9.7383083288
 20
9.1008740507
 30
0.0
 10
9.7345410274
 20
9.0999978743
 30
0.0
 10
9.7300202587
 20
9.0989464979
 30
0.0
 10
9.7254994919
 20
9.0978951121
 30
0.0
 10
9.7194718022
 20
9.0964932677
 30
0.0
 10
9.7119371903
 20
9.0947409609
 30
0.0
 10
9.7044025781
 20
9.092988655
 30
0.0
 10
9.6983748888
 20
9.0915868092
 30
0.0
 10
9.6938541208
 20
9.0905354273
 30
0.0
 10
9.6893333565
 20
9.0894840364
 30
0.0
 10
9.6855660416
 20
9.0886079054
 30
0.0
 10
9.6825522149
 20
9.0879069375
 30
0.0
 10
9.6806685157
 20
9.0874689763
 30
0.0
 10
9.6791616881
 20
9.0871182783
 30
0.0
 10
9.6780312066
 20
9.0868561554
 30
0.0
 10
9.6770902867
 20
9.0866348547
 30
0.0
 10
9.6764293897
 20
9.0864855667
 30
0.0
 10
9.6760552522
 20
9.0863914803
 30
0.0
 10
9.6757647392
 20
9.0863456459
 30
0.0
 10
9.6755121068
 20
9.0862052791
 30
0.0
 10
9.6751620504
 20
9.0860510974
 30
0.0
 10
9.6745556081
 20
9.0857659162
 30
0.0
 10
9.6736860433
 20
9.0853665465
 30
0.0
 10
9.6726439432
 20
9.0848838648
 30
0.0
 10
9.6712539952
 20
9.0842414901
 30
0.0
 10
9.669516725
 20
9.0834381106
 30
0.0
 10
9.6667370006
 20
9.0821529332
 30
0.0
 10
9.6632623766
 20
9.0805463825
 30
0.0
 10
9.6590928144
 20
9.0786185555
 30
0.0
 10
9.6549232557
 20
9.0766907194
 30
0.0
 10
9.6493638429
 20
9.0741202746
 30
0.0
 10
9.6424145774
 20
9.0709072173
 30
0.0
 10
9.6354653115
 20
9.0676941608
 30
0.0
 10
9.6299058993
 20
9.0651237146
 30
0.0
 10
9.6257363389
 20
9.0631958824
 30
0.0
 10
9.6215667832
 20
9.0612680412
 30
0.0
 10
9.6180921389
 20
9.0596615345
 30
0.0
 10
9.6153124559
 20
9.0583762674
 30
0.0
 10
9.6135750803
 20
9.0575731161
 30
0.0
 10
9.6121853487
 20
9.0569302729
 30
0.0
 10
9.6111425874
 20
9.0564490227
 30
0.0
 10
9.6102750913
 20
9.0560451745
 30
0.0
 10
9.609664956
 20
9.055767988
 30
0.0
 10
9.6093208167
 20
9.0556009967
 30
0.0
 10
9.6090500091
 20
9.0554999769
 30
0.0
 10
9.6088277591
 20
9.0553063618
 30
0.0
 10
9.6085144883
 20
9.0550805067
 30
0.0
 10
9.6079741559
 20
9.0546702118
 30
0.0
 10
9.6071981268
 20
9.0540919437
 30
0.0
 10
9.6062686578
 20
9.0533946545
 30
0.0
 10
9.6050287489
 20
9.0524661117
 30
0.0
 10
9.6034790741
 20
9.0513050306
 30
0.0
 10
9.6009994762
 20
9.0494475258
 30
0.0
 10
9.5979000195
 20
9.0471255675
 30
0.0
 10
9.594180654
 20
9.0443392508
 30
0.0
 10
9.5904612931
 20
9.0415529251
 30
0.0
 10
9.5855021437
 20
9.0378378274
 30
0.0
 10
9.5793032076
 20
9.0331939541
 30
0.0
 10
9.5731042709
 20
9.0285500815
 30
0.0
 10
9.5681451223
 20
9.0248349827
 30
0.0
 10
9.5644257589
 20
9.0220486603
 30
0.0
 10
9.560706403
 20
9.0192623312
 30
0.0
 10
9.5576069165
 20
9.0169404114
 30
0.0
 10
9.5551273793
 20
9.0150828284
 30
0.0
 10
9.5535775502
 20
9.0139219463
 30
0.0
 10
9.5523379579
 20
9.0129929948
 30
0.0
 10
9.5514075218
 20
9.0122969542
 30
0.0
 10
9.5506345183
 20
9.0117147796
 30
0.0
 10
9.5500887845
 20
9.0113114585
 30
0.0
 10
9.5497841682
 20
9.0110744296
 30
0.0
 10
9.5495353346
 20
9.0109151369
 30
0.0
 10
9.5493643706
 20
9.0106852079
 30
0.0
 10
9.5491092569
 20
9.0104032746
 30
0.0
 10
9.548675463
 20
9.0098984117
 30
0.0
 10
9.5480491412
 20
9.0091831806
 30
0.0
 10
9.547300387
 20
9.0083223345
 30
0.0
 10
9.5463010589
 20
9.0071754369
 30
0.0
 10
9.5450522374
 20
9.0057415076
 30
0.0
 10
9.5430539338
 20
9.0034473925
 30
0.0
 10
9.5405561193
 20
9.0005796898
 30
0.0
 10
9.537558714
 20
8.9971384717
 30
0.0
 10
9.5345613162
 20
8.9936972469
 30
0.0
 10
9.5305647831
 20
8.9891089495
 30
0.0
 10
9.5255691178
 20
8.9833735769
 30
0.0
 10
9.5205734518
 20
8.9776382048
 30
0.0
 10
9.5165769198
 20
8.9730499066
 30
0.0
 10
9.5135795187
 20
8.9696086844
 30
0.0
 10
9.5105821256
 20
8.9661674564
 30
0.0
 10
9.5080842733
 20
8.9632997846
 30
0.0
 10
9.5060860467
 20
8.9610056064
 30
0.0
 10
9.5048370295
 20
8.9595718377
 30
0.0
 10
9.5038381032
 20
8.9584246105
 30
0.0
 10
9.5030881215
 20
8.9575647715
 30
0.0
 10
9.5024656402
 20
8.9568463894
 30
0.0
 10
9.5020249903
 20
8.9563471516
 30
0.0
 10
9.5017808616
 20
8.9560562054
 30
0.0
 10
9.501576155
 20
8.9558539611
 30
0.0
 10
9.5014540532
 20
8.9555906891
 30
0.0
 10
9.5012624374
 20
8.9552609469
 30
0.0
 10
9.5009405343
 20
8.9546739799
 30
0.0
 10
9.5004736543
 20
8.9538406409
 30
0.0
 10
9.4999164024
 20
8.9528384146
 30
0.0
 10
9.4991723505
 20
8.9515028881
 30
0.0
 10
9.498242645
 20
8.9498332146
 30
0.0
 10
9.4967549154
 20
8.9471618854
 30
0.0
 10
9.4948953223
 20
8.9438226729
 30
0.0
 10
9.492663781
 20
8.9398156397
 30
0.0
 10
9.4904322476
 20
8.9358086007
 30
0.0
 10
9.487456867
 20
8.9304658841
 30
0.0
 10
9.4837376423
 20
8.9237874876
 30
0.0
 10
9.4800184169
 20
8.9171090915
 30
0.0
 10
9.4770430375
 20
8.9117663741
 30
0.0
 10
9.4748115006
 20
8.9077593373
 30
0.0
 10
9.4725799725
 20
8.9037522961
 30
0.0
 10
9.4707203384
 20
8.9004131085
 30
0.0
 10
9.4692326923
 20
8.8977417286
 30
0.0
 10
9.4683027741
 20
8.8960721839
 30
0.0
 10
9.4675591589
 20
8.894736393
 30
0.0
 10
9.4670005731
 20
8.8937349745
 30
0.0
 10
9.4665378664
 20
8.8928991084
 30
0.0
 10
9.4662085133
 20
8.8923166527
 30
0.0
 10
9.4660288342
 20
8.8919796822
 30
0.0
 10
9.4658700665
 20
8.8917386131
 30
0.0
 10
9.4658030713
 20
8.8914529782
 30
0.0
 10
9.4656817331
 20
8.8910876768
 30
0.0
 10
9.4654843059
 20
8.8904411566
 30
0.0
 10
9.4651944695
 20
8.8895213429
 30
0.0
 10
9.4648500035
 20
8.8884159457
 30
0.0
 10
9.4643895496
 20
8.8869426488
 30
0.0
 10
9.4638143815
 20
8.8851008339
 30
0.0
 10
9.4628938894
 20
8.8821540384
 30
0.0
 10
9.4617433508
 20
8.8784705068
 30
0.0
 10
9.4603626716
 20
8.8740502849
 30
0.0
 10
9.4589820013
 20
8.8696300586
 30
0.0
 10
9.4571411044
 20
8.8637364252
 30
0.0
 10
9.4548399845
 20
8.8563693828
 30
0.0
 10
9.4525388637
 20
8.8490023407
 30
0.0
 10
9.4506979681
 20
8.8431087067
 30
0.0
 10
9.449317294
 20
8.8386884821
 30
0.0
 10
9.4479366291
 20
8.8342682541
 30
0.0
 10
9.4467860461
 20
8.8305847413
 30
0.0
 10
9.4458656446
 20
8.8276379074
 30
0.0
 10
9.4452902457
 20
8.8257961902
 30
0.0
 10
9.4448302656
 20
8.8243226928
 30
0.0
 10
9.4444843523
 20
8.8232179081
 30
0.0
 10
9.444199044
 20
8.8222961779
 30
0.0
 10
9.4439935334
 20
8.821653079
 30
0.0
 10
9.4438851468
 20
8.8212822958
 30
0.0
 10
9.4437783686
 20
8.8210134994
 30
0.0
 10
9.4437690193
 20
8.820709188
 30
0.0
 10
9.4437225693
 20
8.8203158276
 30
0.0
 10
9.4436571158
 20
8.819621675
 30
0.0
 10
9.4435553325
 20
8.818633046
 30
0.0
 10
9.4434367359
 20
8.8174453996
 30
0.0
 10
9.4432773695
 20
8.8158623222
 30
0.0
 10
9.4430785853
 20
8.8138833209
 30
0.0
 10
9.4427602936
 20
8.8107170053
 30
0.0
 10
9.4423625104
 20
8.8067590811
 30
0.0
 10
9.4418851356
 20
8.8020095848
 30
0.0
 10
9.4414077702
 20
8.7972600851
 30
0.0
 10
9.4407712797
 20
8.79092742
 30
0.0
 10
9.4399756677
 20
8.7830115882
 30
0.0
 10
9.439180055
 20
8.7750957566
 30
0.0
 10
9.4385435658
 20
8.7687630912
 30
0.0
 10
9.4380661964
 20
8.7640135922
 30
0.0
 10
9.4375888366
 20
8.7592640934
 30
0.0
 10
9.4371910067
 20
8.7553061771
 30
0.0
 10
9.4368728103
 20
8.7521398453
 30
0.0
 10
9.4366737837
 20
8.7501608851
 30
0.0
 10
9.4365149146
 20
8.7485777235
 30
0.0
 10
9.4363947988
 20
8.7473903341
 30
0.0
 10
9.436297769
 20
8.746400901
 30
0.0
 10
9.4362238297
 20
8.7457081839
 30
0.0
 10
9.4361909759
 20
8.7453125235
 30
0.0
 10
9.4361398632
 20
8.745015277
 30
0.0
 10
9.4361899416
 20
8.7447199461
 30
0.0
 10
9.4362214161
 20
8.7443255035
 30
0.0
 10
9.4362929419
 20
8.7436355402
 30
0.0
 10
9.4363865238
 20
8.7426497155
 30
0.0
 10
9.4365025022
 20
8.7414667957
 30
0.0
 10
9.4366558547
 20
8.7398895448
 30
0.0
 10
9.4368479854
 20
8.7379179896
 30
0.0
 10
9.4371551486
 20
8.7347634965
 30
0.0
 10
9.4375391869
 20
8.7308203818
 30
0.0
 10
9.4379999968
 20
8.7260886435
 30
0.0
 10
9.4384608163
 20
8.7213569054
 30
0.0
 10
9.439075239
 20
8.7150479211
 30
0.0
 10
9.4398432685
 20
8.7071616908
 30
0.0
 10
9.4406112973
 20
8.6992754605
 30
0.0
 10
9.4412257213
 20
8.6929664763
 30
0.0
 10
9.4416865368
 20
8.6882347379
 30
0.0
 10
9.4421473617
 20
8.6835030007
 30
0.0
 10
9.4425313533
 20
8.6795598826
 30
0.0
 10
9.4428386117
 20
8.6764053965
 30
0.0
 10
9.4430305001
 20
8.6744338236
 30
0.0
 10
9.44318435
 20
8.6728566089
 30
0.0
 10
9.4432988085
 20
8.6716735784
 30
0.0
 10
9.4433971459
 20
8.6706880999
 30
0.0
 10
9.4434601824
 20
8.6699975188
 30
0.0
 10
9.4435052589
 20
8.669604066
 30
0.0
 10
9.4435135562
 20
8.6693056945
 30
0.0
 10
9.4436193663
 20
8.6690198684
 30
0.0
 10
9.4437264328
 20
8.668634391
 30
0.0
 10
9.4439296469
 20
8.6679618444
 30
0.0
 10
9.4442116673
 20
8.6669999977
 30
0.0
 10
9.4445536382
 20
8.6658462378
 30
0.0
 10
9.4450083608
 20
8.6643077319
 30
0.0
 10
9.4455771881
 20
8.6623846542
 30
0.0
 10
9.4464870748
 20
8.6593076993
 30
0.0
 10
9.4476245144
 20
8.6554615161
 30
0.0
 10
9.4489894071
 20
8.6508460918
 30
0.0
 10
9.4503543092
 20
8.6462306687
 30
0.0
 10
9.4521741753
 20
8.6400767708
 30
0.0
 10
9.4544490092
 20
8.6323843987
 30
0.0
 10
9.4567238423
 20
8.6246920263
 30
0.0
 10
9.4585437097
 20
8.6185381287
 30
0.0
 10
9.4599086079
 20
8.6139227047
 30
0.0
 10
9.461273515
 20
8.6093072838
 30
0.0
 10
9.4624109101
 20
8.6054610902
 30
0.0
 10
9.4633208876
 20
8.6023841564
 30
0.0
 10
9.4638894838
 20
8.600461025
 30
0.0
 10
9.4643446806
 20
8.5989226294
 30
0.0
 10
9.4646852027
 20
8.5977685326
 30
0.0
 10
9.4649717564
 20
8.5968077401
 30
0.0
 10
9.4651668778
 20
8.5961333114
 30
0.0
 10
9.4652869107
 20
8.5957508496
 30
0.0
 10
9.4653528922
 20
8.5954557607
 30
0.0
 10
9.4655107791
 20
8.5951921788
 30
0.0
 10
9.4656892373
 20
8.5948297463
 30
0.0
 10
9.4660164755
 20
8.59420061
 30
0.0
 10
9.4664761497
 20
8.5932991666
 30
0.0
 10
9.4670311013
 20
8.5922185805
 30
0.0
 10
9.4677698692
 20
8.5907773988
 30
0.0
 10
9.4686937288
 20
8.5889760587
 30
0.0
 10
9.4701716808
 20
8.586093838
 30
0.0
 10
9.4720191974
 20
8.5824910883
 30
0.0
 10
9.4742361846
 20
8.5781677775
 30
0.0
 10
9.4764531805
 20
8.5738444696
 30
0.0
 10
9.4794091719
 20
8.5680800581
 30
0.0
 10
9.4831041624
 20
8.5608745442
 30
0.0
 10
9.4867991522
 20
8.5536690299
 30
0.0
 10
9.4897551449
 20
8.5479046189
 30
0.0
 10
9.4919721371
 20
8.5435813095
 30
0.0
 10
9.4941891379
 20
8.5392580043
 30
0.0
 10
9.496036612
 20
8.5356552372
 30
0.0
 10
9.4975146508
 20
8.5327730519
 30
0.0
 10
9.4984382895
 20
8.5309716217
 30
0.0
 10
9.4991775109
 20
8.529530625
 30
0.0
 10
9.4997310769
 20
8.5284494737
 30
0.0
 10
9.5001950861
 20
8.5275497985
 30
0.0
 10
9.5005145856
 20
8.5269175058
 30
0.0
 10
9.5007054431
 20
8.5265601305
 30
0.0
 10
9.5008252435
 20
8.5262810147
 30
0.0
 10
9.5010342717
 20
8.5260442686
 30
0.0
 10
9.5012818522
 20
8.525713828
 30
0.0
 10
9.5017296193
 20
8.5251424429
 30
0.0
 10
9.5023617051
 20
8.5243225784
 30
0.0
 10
9.5031234533
 20
8.523340282
 30
0.0
 10
9.504137984
 20
8.5220300152
 30
0.0
 10
9.5054065355
 20
8.520392366
 30
0.0
 10
9.507436001
 20
8.5177720243
 30
0.0
 10
9.5099729073
 20
8.5144966324
 30
0.0
 10
9.5130171629
 20
8.5105661471
 30
0.0
 10
9.5160614271
 20
8.5066356658
 30
0.0
 10
9.520120443
 20
8.5013950227
 30
0.0
 10
9.525194214
 20
8.4948442193
 30
0.0
 10
9.5302679843
 20
8.4882934155
 30
0.0
 10
9.5343270012
 20
8.4830527731
 30
0.0
 10
9.5373712623
 20
8.4791222895
 30
0.0
 10
9.5404155296
 20
8.4751918129
 30
0.0
 10
9.5429523996
 20
8.4719163939
 30
0.0
 10
9.5449819391
 20
8.4692961076
 30
0.0
 10
9.5462503022
 20
8.4676583173
 30
0.0
 10
9.5472652197
 20
8.4663483402
 30
0.0
 10
9.5480257862
 20
8.4653651586
 30
0.0
 10
9.5486615688
 20
8.4645480635
 30
0.0
 10
9.5491027367
 20
8.4639717346
 30
0.0
 10
9.5493608908
 20
8.4636492152
 30
0.0
 10
9.5495374402
 20
8.4633881379
 30
0.0
 10
9.5497792256
 20
8.463200406
 30
0.0
 10
9.5500788511
 20
8.4629245132
 30
0.0
 10
9.5506137977
 20
8.4624536206
 30
0.0
 10
9.5513724643
 20
8.4617746851
 30
0.0
 10
9.5522852368
 20
8.4609626299
 30
0.0
 10
9.553501438
 20
8.459878958
 30
0.0
 10
9.5550219733
 20
8.4585246871
 30
0.0
 10
9.5574546712
 20
8.4563576753
 30
0.0
 10
9.560495598
 20
8.4536489718
 30
0.0
 10
9.5641446868
 20
8.4503985013
 30
0.0
 10
9.5677937819
 20
8.4471480379
 30
0.0
 10
9.5726592398
 20
8.4428140842
 30
0.0
 10
9.578741063
 20
8.437396643
 30
0.0
 10
9.5848228856
 20
8.4319792011
 30
0.0
 10
9.5896883443
 20
8.4276452485
 30
0.0
 10
9.593337437
 20
8.424394782
 30
0.0
 10
9.5969865349
 20
8.421144323
 30
0.0
 10
9.6000274334
 20
8.4184355837
 30
0.0
 10
9.602460189
 20
8.4162686449
 30
0.0
 10
9.6039805773
 20
8.4149141884
 30
0.0
 10
9.6051970804
 20
8.4138308973
 30
0.0
 10
9.6061089308
 20
8.4130176786
 30
0.0
 10
9.6068704821
 20
8.4123423835
 30
0.0
 10
9.607400279
 20
8.4118649921
 30
0.0
 10
9.6077081556
 20
8.4115995121
 30
0.0
 10
9.6079245963
 20
8.4113797953
 30
0.0
 10
9.6081963362
 20
8.4112388483
 30
0.0
 10
9.608539367
 20
8.4110234431
 30
0.0
 10
9.6091486581
 20
8.4106592856
 30
0.0
 10
9.6100143753
 20
8.4101323679
 30
0.0
 10
9.6110552471
 20
8.4095029313
 30
0.0
 10
9.6124423737
 20
8.4086626819
 30
0.0
 10
9.6141765225
 20
8.4076127127
 30
0.0
 10
9.6169510262
 20
8.4059325706
 30
0.0
 10
9.6204192019
 20
8.4038324587
 30
0.0
 10
9.624580993
 20
8.4013122962
 30
0.0
 10
9.6287427894
 20
8.3987921413
 30
0.0
 10
9.6342918493
 20
8.3954319321
 30
0.0
 10
9.641228175
 20
8.3912316716
 30
0.0
 10
9.6481645002
 20
8.3870314104
 30
0.0
 10
9.6537135608
 20
8.3836712023
 30
0.0
 10
9.6578753553
 20
8.3811510439
 30
0.0
 10
9.6620371534
 20
8.3786308942
 30
0.0
 10
9.6655053072
 20
8.3765307428
 30
0.0
 10
9.6682798557
 20
8.3748506812
 30
0.0
 10
9.6700138904
 20
8.3738005072
 30
0.0
 10
9.6714012511
 20
8.3729606782
 30
0.0
 10
9.6724414078
 20
8.3723299573
 30
0.0
 10
9.6733093627
 20
8.3718070577
 30
0.0
 10
9.6739146591
 20
8.3714357272
 30
0.0
 10
9.6742640904
 20
8.371231815
 30
0.0
 10
9.6745161701
 20
8.3710555654
 30
0.0
 10
9.674806451
 20
8.3709684392
 30
0.0
 10
9.6751801673
 20
8.3708211837
 30
0.0
 10
9.6758403791
 20
8.3705779707
 30
0.0
 10
9.676780293
 20
8.370222951
 30
0.0
 10
9.677909579
 20
8.3698001687
 30
0.0
 10
9.6794148085
 20
8.3692353268
 30
0.0
 10
9.6812965114
 20
8.3685296622
 30
0.0
 10
9.6843071433
 20
8.367400382
 30
0.0
 10
9.688070465
 20
8.3659888562
 30
0.0
 10
9.6925864374
 20
8.3642949933
 30
0.0
 10
9.6971024134
 20
8.3626011389
 30
0.0
 10
9.7031237136
 20
8.3603426635
 30
0.0
 10
9.7106503392
 20
8.3575195703
 30
0.0
 10
9.7181769645
 20
8.3546964763
 30
0.0
 10
9.724198265
 20
8.3524380021
 30
0.0
 10
9.7287142397
 20
8.350744144
 30
0.0
 10
9.7332302172
 20
8.3490502951
 30
0.0
 10
9.7369935231
 20
8.3476387259
 30
0.0
 10
9.7400041871
 20
8.3465095342
 30
0.0
 10
9.7418858084
 20
8.3458036444
 30
0.0
 10
9.7433912055
 20
8.3452392646
 30
0.0
 10
9.7445199793
 20
8.3448150706
 30
0.0
 10
9.7454614957
 20
8.3444644679
 30
0.0
 10
9.7461188468
 20
8.3442133699
 30
0.0
 10
9.7464971467
 20
8.3440787481
 30
0.0
 10
9.7467733482
 20
8.3439528152
 30
0.0
 10
9.7470783081
 20
8.3439223169
 30
0.0
 10
9.74747489
 20
8.3438483639
 30
0.0
 10
9.7481735821
 20
8.3437344558
 30
0.0
 10
9.7491692703
 20
8.3435636214
 30
0.0
 10
9.7503651419
 20
8.3433620908
 30
0.0
 10
9.7519592721
 20
8.3430921711
 30
0.0
 10
9.75395206
 20
8.3427551865
 30
0.0
 10
9.7571404506
 20
8.3422157793
 30
0.0
 10
9.7611259629
 20
8.3415415998
 30
0.0
 10
9.7659085674
 20
8.3407325503
 30
0.0
 10
9.7706911746
 20
8.3399235099
 30
0.0
 10
9.7770679833
 20
8.3388447862
 30
0.0
 10
9.7850389945
 20
8.3374963827
 30
0.0
 10
9.7946042078
 20
8.335878298
 30
0.0
 10
9.8073578255
 20
8.3337208519
 30
0.0
 10
9.8169230389
 20
8.3321027673
 30
0.0
 10
9.8232998477
 20
8.3310240443
 30
0.0
  0
ENDSEC
  0
SECTION
  2
OBJECTS
  0
DICTIONARY
  5
C
100
AcDbDictionary
280
0
281
1
  3
ACAD_GROUP
350
D
  3
ACAD_MLINESTYLE
350
17
  3
ACAD_LAYOUT
350
1A
  3
ACAD_PLOTSETTINGS
350
19
  3
ACAD_PLOTSTYLENAME
350
E
  3
ACAD_IMAGE_DICT
350
       3C9
  3
ACAD_IMAGE_VARS
350
       3CA
  3
ACAD_TABLESTYLE
350
       3CB
  0
IMAGEDEF_REACTOR
  5
3C8
100
AcDbRasterImageDefReactor
 90
2
330
282
  0
DICTIONARY
  5
D
102
{ACAD_REACTORS
330
C
102
}
100
AcDbDictionary
280
0
281
1
  0
ACDBDICTIONARYWDFLT
  5
E
102
{ACAD_REACTORS
330
C
102
}
100
AcDbDictionary
281
1
  3
Normal
350
F
100
AcDbDictionaryWithDefault
340
F
  0
DICTIONARY
  5
3C9
330
C
100
AcDbDictionary
281
1
  3
X5K_assy_2_img_1
350
       3CE
  0
RASTERVARIABLES
  5
3CA
330
C
100
AcDbRasterVariables
 90
0
 70
0
 71
1
 72
5
  0
DICTIONARY
  5
17
102
{ACAD_REACTORS
330
C
102
}
100
AcDbDictionary
280
0
281
1
  3
Standard
350
18
  0
DICTIONARY
  5
3CB
330
C
100
AcDbDictionary
281
1
  3
Standard
350
       3CF
  3
Standard1
350
       3D0
  0
DICTIONARY
  5
19
102
{ACAD_REACTORS
330
C
102
}
100
AcDbDictionary
281
1
  0
DICTIONARY
  5
1A
102
{ACAD_REACTORS
330
C
102
}
100
AcDbDictionary
281
1
  3
Model
350
3CC
  3
Layout1
350
3CD
  0
ACDBPLACEHOLDER
  5
F
102
{ACAD_REACTORS
330
E
102
}
  0
MLINESTYLE
  5
18
102
{ACAD_REACTORS
330
17
102
}
100
AcDbMlineStyle
  2
STANDARD
 70
0
  3

 62
256
 51
90.0
 52
90.0
 71
2
 49
0.5
 62
256
  6
BYLAYER
 49
-0.5
 62
256
  6
BYLAYER
  0
LAYOUT
  5
3CC
102
{ACAD_REACTORS
330
1A
102
}
100
AcDbPlotSettings
  1

  2
none_device
  4
ANSI_C_(22.00_x_17.00_Inches)
  6

 40
0.0
 41
0.0
 42
0.0
 43
0.0
 44
558.8
 45
431.8
 46
0.0
 47
0.0
 48
0.0
 49
0.0
140
0.0
141
0.0
142
1.0
143
1.0
 70
1024
 72
0
 73
0
 74
0
  7

 75
0
147
1.0
148
0.0
149
0.0
100
AcDbLayout
  1
Model
 70
0
 71
0
 10
0.0
 20
0.0
 11
22.0
 21
17.0
 12
0.0
 22
0.0
 32
0.0
 14
0.0
 24
0.0
 34
0.0
 15
0.0
 25
0.0
 35
0.0
146
0.0
 13
0.0
 23
0.0
 33
0.0
 16
1.0
 26
0.0
 36
0.0
 17
0.0
 27
1.0
 37
0.0
 76
0
330
206
345
0
346
0
  0
LAYOUT
  5
3CD
102
{ACAD_REACTORS
330
1A
102
}
100
AcDbPlotSettings
  1

  2
none_device
  4
ANSI_C_(22.00_x_17.00_Inches)
  6

 40
0.0
 41
0.0
 42
0.0
 43
0.0
 44
558.8
 45
431.8
 46
0.0
 47
0.0
 48
0.0
 49
0.0
140
0.0
141
0.0
142
1.0
143
1.0
 70
0
 72
0
 73
0
 74
0
  7

 75
0
147
1.0
148
0.0
149
0.0
100
AcDbLayout
  1
Layout1
 70
0
 71
1
 10
0.0
 20
0.0
 11
22.0
 21
17.0
 12
0.0
 22
0.0
 32
0.0
 14
0.0
 24
0.0
 34
0.0
 15
0.0
 25
0.0
 35
0.0
146
0.0
 13
0.0
 23
0.0
 33
0.0
 16
1.0
 26
0.0
 36
0.0
 17
0.0
 27
1.0
 37
0.0
 76
0
330
207
345
0
346
0
  0
IMAGEDEF
  5
3CE
102
{ACAD_REACTORS
330
3C9
330
3C8
102
}
100
AcDbRasterImageDef
 90
0
  1
X5K_assy_2_img_1.png
 10
369.0
 20
92.0
 11
0.0066666667
 21
0.0066666667
280
1
281
0
  0
TABLESTYLE
  5
3CF
102
{ACAD_REACTORS
330
3CB
330
285
330
286
102
}
330
3CB
100
AcDbTableStyle
  3
Standard
 70
0
 71
0
 40
0.06
 41
0.06
280
1
281
1
  7
Standard
140
0.18
170
1
 62
0
 63
7
283
0
  7
Standard
140
0.18
170
1
 62
0
 63
7
283
0
  7
Standard
140
0.18
170
1
 62
0
 63
7
283
0
  0
TABLESTYLE
  5
3D0
102
{ACAD_REACTORS
330
3CB
330
284
102
}
330
3CB
100
AcDbTableStyle
  3
Standard1
 70
1
 71
0
 40
0.06
 41
0.06
280
1
281
1
  7
Standard
140
0.18
170
1
 62
0
 63
7
283
0
  7
Standard
140
0.18
170
1
 62
0
 63
7
283
0
  7
Standard
140
0.18
170
1
 62
0
 63
7
283
0
  0
ENDSEC
  0
EOF
