999
DXF file: X5H_assy_2.dxf
999
Pro/ENGINEER 2014200 by Parametric Technology Corporation
  0
SECTION
  2
HEADER
  9
$ACADVER
  1
AC1021
  9
$DWGCODEPAGE
  3
ANSI_1252
  9
$EXTMAX
 10
22.0
 20
17.0
 30
0.0
  9
$EXTMIN
 10
0.0
 20
0.0
 30
0.0
  9
$LIMMIN
 10
0.0
 20
0.0
  9
$LIMMAX
 10
22.0
 20
17.0
  9
$VIEWCTR
 10
11.0
 20
8.5
  9
$VIEWSIZE
 40
17.0
  9
$CLAYER
  8
0
  9
$LTSCALE
 40
1.21
  9
$CELTYPE
  6
BYLAYER
  9
$DIMSCALE
 40
1.0
  9
$DIMASZ
 40
0.1875
  9
$DIMEXO
 40
0.0625
  9
$DIMDLI
 40
0.836
  9
$DIMEXE
 40
0.125
  9
$DIMCEN
 40
0.198
  9
$DIMLFAC
 40
1.0
  9
$DIMBLK
  1
_FILLED
  9
$DIMTXT
 40
0.1
  9
$DIMTOL
 70
0
  9
$DIMLIM
 70
0
  9
$DIMTFAC
 40
1.0
  9
$DIMGAP
 40
0.09
  9
$DIMDSEP
 70
46
  9
$AUNITS
 70
0
  9
$PDMODE
 70
3
  9
$PDSIZE
 40
0.3125
  9
$HANDSEED
  5
3B5
  9
$TILEMODE
 70
1
  9
$MEASUREMENT
 70
0
  9
$INSUNITS
 70
1
  0
ENDSEC
  0
SECTION
  2
CLASSES
  0
CLASS
  1
ACDBDICTIONARYWDFLT
  2
AcDbDictionaryWithDefault
  3
AutoCAD 2000
 90
0
 91
1
280
0
281
0
  0
CLASS
  1
ACDBPLACEHOLDER
  2
AcDbPlaceHolder
  3
AutoCAD 2000
 90
0
 91
1
280
0
281
0
  0
CLASS
  1
LAYOUT
  2
AcDbLayout
  3
AutoCAD 2000
 90
0
 91
0
280
0
281
0
  0
CLASS
  1
RASTERVARIABLES
  2
AcDbRasterVariables
  3
ISM
 90
0
 91
1
280
0
281
0
  0
CLASS
  1
IMAGEDEF
  2
AcDbRasterImageDef
  3
ISM
 90
0
 91
1
280
0
281
0
  0
CLASS
  1
IMAGEDEF_REACTOR
  2
AcDbRasterImageDefReactor
  3
ISM
 90
0
 91
1
280
0
281
0
  0
CLASS
  1
IMAGE
  2
AcDbRasterImage
  3
ISM
 90
127
 91
1
280
0
281
1
  0
CLASS
  1
TABLESTYLE
  2
AcDbTableStyle
  3
ObjectDBX Classes
 90
2047
 91
1
280
0
281
0
  0
CLASS
  1
ACAD_TABLE
  2
AcDbTable
  3
ObjectDBX Classes
 90
1025
 91
3
280
0
281
1
  0
ENDSEC
  0
SECTION
  2
TABLES
  0
TABLE
  2
VPORT
  5
8
100
AcDbSymbolTable
 70
2
  0
VPORT
  5
1F4
100
AcDbSymbolTableRecord
100
AcDbViewportTableRecord
  2
*ACTIVE
 70
0
 10
0.0
 20
0.0
 11
1.0
 21
1.0
 12
11.0
 22
8.5
 13
0.0
 23
0.0
 14
1.0
 24
1.0
 15
0.0
 25
0.0
 16
0.0
 26
0.0
 36
1.0
 17
0.0
 27
0.0
 37
0.0
 40
17.0
 41
1.2941176471
 42
50.0
 43
0.0
 44
0.0
 50
0.0
 51
0.0
 71
0
 72
100
 73
1
 74
1
 75
0
 76
0
 77
0
 78
0
  0
ENDTAB
  0
TABLE
  2
LTYPE
  5
5
100
AcDbSymbolTable
 70
6
  0
LTYPE
  5
14
100
AcDbSymbolTableRecord
100
AcDbLinetypeTableRecord
  2
BYBLOCK
 70
0
  3

 72
65
 73
0
 40
0.0
  0
LTYPE
  5
15
100
AcDbSymbolTableRecord
100
AcDbLinetypeTableRecord
  2
BYLAYER
 70
0
  3

 72
65
 73
0
 40
0.0
  0
LTYPE
  5
16
100
AcDbSymbolTableRecord
100
AcDbLinetypeTableRecord
  2
CONTINUOUS
 70
64
  3
Solid line
 72
65
 73
0
 40
0.0
  0
LTYPE
  5
1F5
100
AcDbSymbolTableRecord
100
AcDbLinetypeTableRecord
  2
CENTER
 70
64
  3
____ _ ____ _ ____ _ ____ _ ____ _ ____ _ ____
 72
65
 73
4
 40
0.6
 49
0.375
 74
0
 49
-0.075
 74
0
 49
0.075
 74
0
 49
-0.075
 74
0
  0
LTYPE
  5
1F6
100
AcDbSymbolTableRecord
100
AcDbLinetypeTableRecord
  2
HIDDEN
 70
64
  3
- - - - - - - - - - - - - - - - - - - -
 72
65
 73
2
 40
0.2
 49
0.1
 74
0
 49
-0.1
 74
0
  0
LTYPE
  5
1F7
100
AcDbSymbolTableRecord
100
AcDbLinetypeTableRecord
  2
PHANTOM
 70
64
  3
_____ _ _ _____ _ _ _____ _ _ _____
 72
65
 73
6
 40
0.8
 49
0.45
 74
0
 49
-0.05
 74
0
 49
0.1
 74
0
 49
-0.05
 74
0
 49
0.1
 74
0
 49
-0.05
 74
0
  0
LTYPE
  5
1F8
100
AcDbSymbolTableRecord
100
AcDbLinetypeTableRecord
  2
DOT
 70
64
  3
. . . . . . . . . . . . . . . . . . . .
 72
65
 73
2
 40
0.2
 49
0.1
 74
0
 49
-0.1
 74
0
  0
LTYPE
  5
1F9
100
AcDbSymbolTableRecord
100
AcDbLinetypeTableRecord
  2
DASHED
 70
64
  3
- - - - - - - - - - - - - - - - - - - -
 72
65
 73
2
 40
0.2
 49
0.1
 74
0
 49
-0.1
 74
0
  0
ENDTAB
  0
TABLE
  2
LAYER
  5
2
100
AcDbSymbolTable
 70
36
  0
LAYER
  5
10
100
AcDbSymbolTableRecord
100
AcDbLayerTableRecord
  2
0
 70
0
 62
7
  6
CONTINUOUS
370
-3
390
F
  0
LAYER
  5
1FA
100
AcDbSymbolTableRecord
100
AcDbLayerTableRecord
  2
DEFAULT_1
 70
0
 62
7
  6
CENTER
370
-3
390
F
  0
LAYER
  5
1FB
100
AcDbSymbolTableRecord
100
AcDbLayerTableRecord
  2
DEFAULT_2
 70
0
 62
8
  6
HIDDEN
370
-3
390
F
  0
LAYER
  5
1FC
100
AcDbSymbolTableRecord
100
AcDbLayerTableRecord
  2
DEFAULT_3
 70
0
 62
7
  6
PHANTOM
370
-3
390
F
  0
LAYER
  5
1FD
100
AcDbSymbolTableRecord
100
AcDbLayerTableRecord
  2
01___PRT_ALL_DTM_PLN
 70
0
 62
7
  6
CONTINUOUS
370
-3
390
F
  0
LAYER
  5
1FE
100
AcDbSymbolTableRecord
100
AcDbLayerTableRecord
  2
01___PRT_DEF_DTM_PLN
 70
0
 62
7
  6
CONTINUOUS
370
-3
390
F
  0
LAYER
  5
1FF
100
AcDbSymbolTableRecord
100
AcDbLayerTableRecord
  2
02___PRT_ALL_AXES
 70
0
 62
7
  6
CONTINUOUS
370
-3
390
F
  0
LAYER
  5
200
100
AcDbSymbolTableRecord
100
AcDbLayerTableRecord
  2
03___PRT_ALL_CURVES
 70
0
 62
7
  6
CONTINUOUS
370
-3
390
F
  0
LAYER
  5
201
100
AcDbSymbolTableRecord
100
AcDbLayerTableRecord
  2
04___PRT_ALL_DTM_PNT
 70
0
 62
7
  6
CONTINUOUS
370
-3
390
F
  0
LAYER
  5
202
100
AcDbSymbolTableRecord
100
AcDbLayerTableRecord
  2
05___PRT_ALL_DTM_CSYS
 70
0
 62
7
  6
CONTINUOUS
370
-3
390
F
  0
LAYER
  5
203
100
AcDbSymbolTableRecord
100
AcDbLayerTableRecord
  2
05___PRT_DEF_DTM_CSYS
 70
0
 62
7
  6
CONTINUOUS
370
-3
390
F
  0
LAYER
  5
204
100
AcDbSymbolTableRecord
100
AcDbLayerTableRecord
  2
06___PRT_ALL_SURFS
 70
0
 62
7
  6
CONTINUOUS
370
-3
390
F
  0
LAYER
  5
205
100
AcDbSymbolTableRecord
100
AcDbLayerTableRecord
  2
DATUM_PLANES
 70
0
 62
7
  6
CONTINUOUS
370
-3
390
F
  0
LAYER
  5
206
100
AcDbSymbolTableRecord
100
AcDbLayerTableRecord
  2
PORT_AREAS
 70
0
 62
7
  6
CONTINUOUS
370
-3
390
F
  0
LAYER
  5
207
100
AcDbSymbolTableRecord
100
AcDbLayerTableRecord
  2
SUNNBOMCOSMETIC
 70
0
 62
7
  6
CONTINUOUS
370
-3
390
F
  0
LAYER
  5
208
100
AcDbSymbolTableRecord
100
AcDbLayerTableRecord
  2
SUNNBOMSTAMPING
 70
0
 62
7
  6
CONTINUOUS
370
-3
390
F
  0
LAYER
  5
209
100
AcDbSymbolTableRecord
100
AcDbLayerTableRecord
  2
THREADS
 70
0
 62
7
  6
CONTINUOUS
370
-3
390
F
  0
ENDTAB
  0
TABLE
  2
STYLE
  5
3
100
AcDbSymbolTable
 70
1
  0
STYLE
  5
11
100
AcDbSymbolTableRecord
100
AcDbTextStyleTableRecord
  2
STANDARD
 70
0
 40
0.0
 41
0.8
 50
0.0
 71
0
 42
0.2
  3
txt
  4

  0
STYLE
  5
20A
100
AcDbSymbolTableRecord
100
AcDbTextStyleTableRecord
  2
TEXTSTYLE_1
 70
0
 40
0.0
 41
0.8
 50
0.0
 71
0
 42
0.2
  3
gdt
  4

  0
ENDTAB
  0
TABLE
  2
VIEW
  5
6
100
AcDbSymbolTable
 70
0
  0
ENDTAB
  0
TABLE
  2
UCS
  5
7
100
AcDbSymbolTable
 70
0
  0
ENDTAB
  0
TABLE
  2
APPID
  5
9
100
AcDbSymbolTable
 70
1
  0
APPID
  5
20B
100
AcDbSymbolTableRecord
100
AcDbRegAppTableRecord
  2
ACAD
 70
0
  0
ENDTAB
  0
TABLE
  2
BLOCK_RECORD
  5
1
100
AcDbSymbolTable
 70
0
  0
BLOCK_RECORD
  5
20C
100
AcDbSymbolTableRecord
100
AcDbBlockTableRecord
  2
*Model_Space
  0
BLOCK_RECORD
  5
20D
100
AcDbSymbolTableRecord
100
AcDbBlockTableRecord
  2
*Paper_Space
  0
BLOCK_RECORD
  5
20E
100
AcDbSymbolTableRecord
100
AcDbBlockTableRecord
  2
SUN_FIRST_THIRD_ANGLE_BL0
  0
BLOCK_RECORD
  5
20F
100
AcDbSymbolTableRecord
100
AcDbBlockTableRecord
  2
*T1
  0
BLOCK_RECORD
  5
210
100
AcDbSymbolTableRecord
100
AcDbBlockTableRecord
  2
*T2
  0
BLOCK_RECORD
  5
211
100
AcDbSymbolTableRecord
100
AcDbBlockTableRecord
  2
*T3
  0
ENDTAB
  0
TABLE
  2
DIMSTYLE
  5
A
100
AcDbSymbolTable
 70
1
100
AcDbDimStyleTable
 71
0
  0
DIMSTYLE
105
212
100
AcDbSymbolTableRecord
100
AcDbDimStyleTableRecord
  2
STANDARD
 70
0
  3

  4

 40
1.0
 41
0.1875
 42
0.0625
 43
0.38
 44
0.125
 45
0.0
 46
0.0
 47
0.001
 48
0.001
140
0.1
141
0.09
142
0.0
143
25.4
144
1.0
145
0.0
146
1.0
147
0.09
 71
0.0
 72
0.0
 73
1
 74
1
 75
0
 76
0
 77
0
 78
4
170
0
171
2
172
0
173
0
174
0
175
0
176
0
177
0
178
0
270
2
271
3
272
3
273
2
274
2
275
0
280
0
281
0
282
0
283
1
284
4
285
0
286
0
287
3
288
0
340
11
278
46
  0
ENDTAB
  0
ENDSEC
  0
SECTION
  2
BLOCKS
  0
BLOCK
  5
20
100
AcDbEntity
  8
0
100
AcDbBlockBegin
  2
*Model_Space
 70
0
 10
0.0
 20
0.0
 30
0.0
  3
*Model_Space
  1

  0
ENDBLK
  5
21
100
AcDbEntity
  8
0
100
AcDbBlockEnd
  0
BLOCK
  5
1C
100
AcDbEntity
  8
0
100
AcDbBlockBegin
  2
*Paper_Space
 70
0
 10
0.0
 20
0.0
 30
0.0
  3
*Paper_Space
  1

  0
ENDBLK
  5
1D
100
AcDbEntity
  8
0
100
AcDbBlockEnd
  0
BLOCK
  5
213
100
AcDbEntity
  8
0
100
AcDbBlockBegin
 62
2
  6
CONTINUOUS
  2
SUN_FIRST_THIRD_ANGLE_BL0
 70
64
 10
20.4816717061
 20
1.2289683772
  3
SUN_FIRST_THIRD_ANGLE_BL0
  1

  0
TEXT
  5
214
100
AcDbEntity
  8
0
100
AcDbText
 62
2
  6
CONTINUOUS
 10
19.4750896608
 20
1.4136269581
  7
STANDARD
 40
0.08
  1
FIRST ANGLE
 41
0.8
 72
0
100
AcDbText
  0
TEXT
  5
215
100
AcDbEntity
  8
0
100
AcDbText
 62
2
  6
CONTINUOUS
 10
20.7842537513
 20
1.4047600029
  7
STANDARD
 40
0.08
  1
THIRD ANGLE
 41
0.8
 72
0
100
AcDbText
  0
LINE
  5
216
100
AcDbEntity
  8
0
100
AcDbLine
 62
7
  6
CONTINUOUS
 10
19.4767170086
 20
1.1727031207
 11
19.6334271527
 21
1.1717972817
  0
LINE
  5
217
100
AcDbEntity
  8
0
100
AcDbLine
 62
7
  6
CONTINUOUS
 10
19.6596964832
 20
1.1717972817
 11
19.6950230232
 21
1.171593082
  0
LINE
  5
218
100
AcDbEntity
  8
0
100
AcDbLine
 62
7
  6
CONTINUOUS
 10
19.7194818561
 20
1.1708914427
 11
19.8852396156
 21
1.1699333054
  0
LINE
  5
219
100
AcDbEntity
  8
0
100
AcDbLine
 62
7
  6
CONTINUOUS
 10
19.4758111696
 20
1.2723454088
 11
19.88525039
 21
1.3511534004
  0
LINE
  5
21A
100
AcDbEntity
  8
0
100
AcDbLine
 62
7
  6
CONTINUOUS
 10
19.88525039
 20
1.3511534004
 11
19.8831348489
 21
0.9851647912
  0
LINE
  5
21B
100
AcDbEntity
  8
0
100
AcDbLine
 62
7
  6
CONTINUOUS
 10
19.8831348489
 20
0.9851647912
 11
19.4767170086
 21
1.0658141206
  0
LINE
  5
21C
100
AcDbEntity
  8
0
100
AcDbLine
 62
7
  6
CONTINUOUS
 10
19.4767170086
 20
1.0658141206
 11
19.4779056764
 21
1.2714536432
  0
CIRCLE
  5
21D
100
AcDbEntity
  8
0
100
AcDbCircle
 62
7
  6
CONTINUOUS
 10
20.2068232291
 20
1.1717972817
 40
0.175742101
  0
CIRCLE
  5
21E
100
AcDbEntity
  8
0
100
AcDbCircle
 62
7
  6
CONTINUOUS
 10
20.2068232291
 20
1.1717972817
 40
0.1005522074
  0
LINE
  5
21F
100
AcDbEntity
  8
0
100
AcDbLine
 62
7
  6
CONTINUOUS
 10
20.2077290681
 20
1.3756110529
 11
20.2071171714
 21
1.2379342989
  0
LINE
  5
220
100
AcDbEntity
  8
0
100
AcDbLine
 62
7
  6
CONTINUOUS
 10
20.2077290681
 20
1.2016899681
 11
20.2074674401
 21
1.1428236749
  0
LINE
  5
221
100
AcDbEntity
  8
0
100
AcDbLine
 62
7
  6
CONTINUOUS
 10
20.208634907
 20
1.101141841
 11
20.2080230104
 21
0.963465087
  0
LINE
  5
222
100
AcDbEntity
  8
0
100
AcDbLine
 62
7
  6
CONTINUOUS
 10
20.0066328138
 20
1.1745147986
 11
20.1443095678
 21
1.1739029019
  0
LINE
  5
223
100
AcDbEntity
  8
0
100
AcDbLine
 62
7
  6
CONTINUOUS
 10
20.1832714155
 20
1.1727031207
 11
20.238153505
 21
1.172335442
  0
LINE
  5
224
100
AcDbEntity
  8
0
100
AcDbLine
 62
7
  6
CONTINUOUS
 10
20.2756669918
 20
1.1717972817
 11
20.407916871
 21
1.1712095044
  0
CIRCLE
  5
225
100
AcDbEntity
  8
0
100
AcDbCircle
 62
7
  6
CONTINUOUS
 10
20.7509457401
 20
1.1693297793
 40
0.1722024983
  0
CIRCLE
  5
226
100
AcDbEntity
  8
0
100
AcDbCircle
 62
7
  6
CONTINUOUS
 10
20.7509457401
 20
1.1693297793
 40
0.0985164967
  0
LINE
  5
227
100
AcDbEntity
  8
0
100
AcDbLine
 62
7
  6
CONTINUOUS
 10
20.7169767782
 20
1.170462078
 11
20.7825395137
 21
1.1682766535
  0
LINE
  5
228
100
AcDbEntity
  8
0
100
AcDbLine
 62
7
  6
CONTINUOUS
 10
20.8177513651
 20
1.1693297793
 11
20.947965719
 21
1.1693297793
  0
LINE
  5
229
100
AcDbEntity
  8
0
100
AcDbLine
 62
7
  6
CONTINUOUS
 10
20.6875370113
 20
1.170462078
 11
20.5573226574
 21
1.170462078
  0
LINE
  5
22A
100
AcDbEntity
  8
0
100
AcDbLine
 62
7
  6
CONTINUOUS
 10
20.7486811426
 20
1.1987695462
 11
20.7486811426
 21
1.1432869085
  0
LINE
  5
22B
100
AcDbEntity
  8
0
100
AcDbLine
 62
7
  6
CONTINUOUS
 10
20.7498134414
 20
1.1059210505
 11
20.7498134414
 21
0.9757066966
  0
LINE
  5
22C
100
AcDbEntity
  8
0
100
AcDbLine
 62
7
  6
CONTINUOUS
 10
20.7486811426
 20
1.2338708068
 11
20.7486811426
 21
1.3640851607
  0
LINE
  5
22D
100
AcDbEntity
  8
0
100
AcDbLine
 62
7
  6
CONTINUOUS
 10
21.0702539817
 20
1.2701043662
 11
21.4790138229
 21
1.3448360823
  0
LINE
  5
22E
100
AcDbEntity
  8
0
100
AcDbLine
 62
7
  6
CONTINUOUS
 10
21.4790138229
 20
1.3448360823
 11
21.4790138229
 21
0.9779712941
  0
LINE
  5
22F
100
AcDbEntity
  8
0
100
AcDbLine
 62
7
  6
CONTINUOUS
 10
21.4790138229
 20
0.9779712941
 11
21.069121683
 21
1.0617614
  0
LINE
  5
230
100
AcDbEntity
  8
0
100
AcDbLine
 62
7
  6
CONTINUOUS
 10
21.0702539817
 20
1.2701043662
 11
21.069121683
 21
1.0617614
  0
LINE
  5
231
100
AcDbEntity
  8
0
100
AcDbLine
 62
7
  6
CONTINUOUS
 10
21.4790138229
 20
1.1693297793
 11
21.3159628059
 21
1.1693297793
  0
LINE
  5
232
100
AcDbEntity
  8
0
100
AcDbLine
 62
7
  6
CONTINUOUS
 10
21.2876553377
 20
1.1693297793
 11
21.2502894796
 21
1.1693297793
  0
LINE
  5
233
100
AcDbEntity
  8
0
100
AcDbLine
 62
7
  6
CONTINUOUS
 10
21.2208497126
 20
1.1659328831
 11
21.0713862804
 21
1.1659328831
  0
LINE
  5
234
100
AcDbEntity
  8
0
100
AcDbLine
 62
7
  6
CONTINUOUS
 10
20.4796138713
 20
1.5284908897
 11
20.4766766948
 21
0.9294458646
  0
ENDBLK
  5
235
100
AcDbEntity
  8
0
  6
BYBLOCK
 62
0
100
AcDbBlockEnd
  0
BLOCK
  5
236
100
AcDbEntity
  8
0
100
AcDbBlockBegin
  2
*T1
 70
1
 10
0.0
 20
0.0
  3
*T1
  1

  0
LINE
  5
237
100
AcDbEntity
  8
0
100
AcDbLine
 62
2
  6
CONTINUOUS
 10
9.275
 20
0.0
 11
-0.0
 21
0.0
  0
LINE
  5
238
100
AcDbEntity
  8
0
100
AcDbLine
 62
2
  6
CONTINUOUS
 10
9.275
 20
0.0
 11
9.275
 21
1.25
  0
LINE
  5
239
100
AcDbEntity
  8
0
100
AcDbLine
 62
2
  6
CONTINUOUS
 10
9.275
 20
0.625
 11
-0.0
 21
0.625
  0
LINE
  5
23A
100
AcDbEntity
  8
0
100
AcDbLine
 62
2
  6
CONTINUOUS
 10
9.275
 20
1.25
 11
-0.0
 21
1.25
  0
LINE
  5
23B
100
AcDbEntity
  8
0
100
AcDbLine
 62
2
  6
CONTINUOUS
 10
6.8
 20
0.0
 11
6.8
 21
1.25
  0
LINE
  5
23C
100
AcDbEntity
  8
0
100
AcDbLine
 62
2
  6
CONTINUOUS
 10
6.4
 20
0.0
 11
6.4
 21
0.625
  0
LINE
  5
23D
100
AcDbEntity
  8
0
100
AcDbLine
 62
2
  6
CONTINUOUS
 10
5.9
 20
0.0
 11
5.9
 21
0.625
  0
LINE
  5
23E
100
AcDbEntity
  8
0
100
AcDbLine
 62
2
  6
CONTINUOUS
 10
5.2
 20
0.0
 11
5.2
 21
0.625
  0
LINE
  5
23F
100
AcDbEntity
  8
0
100
AcDbLine
 62
2
  6
CONTINUOUS
 10
4.1
 20
0.0
 11
4.1
 21
1.25
  0
LINE
  5
240
100
AcDbEntity
  8
0
100
AcDbLine
 62
2
  6
CONTINUOUS
 10
-0.0
 20
0.0
 11
-0.0
 21
1.25
  0
MTEXT
  5
241
100
AcDbEntity
  8
0
100
AcDbMText
 62
2
  6
CONTINUOUS
  7
STANDARD
 71
2
 72
1
 10
6.6
 20
0.325
 30
0.0
 11
1.0
 21
0.0
 31
0.0
 44
0.9
  1
2
 40
0.125
 41
0.2
  0
MTEXT
  5
242
100
AcDbEntity
  8
0
100
AcDbMText
 62
2
  6
CONTINUOUS
  7
STANDARD
 71
2
 72
1
 10
6.15
 20
0.325
 30
0.0
 11
1.0
 21
0.0
 31
0.0
 44
0.9
  1
C
 40
0.125
 41
0.2
  0
MTEXT
  5
243
100
AcDbEntity
  8
0
100
AcDbMText
 62
2
  6
CONTINUOUS
  7
STANDARD
 71
2
 72
1
 10
5.55
 20
0.325
 30
0.0
 11
1.0
 21
0.0
 31
0.0
 44
0.9
  1
2.000
 40
0.125
 41
1.0
  0
MTEXT
  5
244
100
AcDbEntity
  8
0
100
AcDbMText
 62
2
  6
CONTINUOUS
  7
STANDARD
 71
2
 72
1
 10
4.65
 20
0.325
 30
0.0
 11
1.0
 21
0.0
 31
0.0
 44
0.9
  1
Aug-13-19
 40
0.125
 41
1.8
  0
MTEXT
  5
245
100
AcDbEntity
  8
0
100
AcDbMText
 62
2
  6
CONTINUOUS
  7
STANDARD
 71
2
 72
1
 10
2.05
 20
0.4625
 30
0.0
 11
1.0
 21
0.0
 31
0.0
 44
0.9
  1
T-10A Line mount\PInline with reverse flow check
 40
0.125
 41
6.0
  0
MTEXT
  5
246
100
AcDbEntity
  8
0
100
AcDbMText
 62
2
  6
CONTINUOUS
  7
STANDARD
 71
1
 72
1
 10
6.45
 20
0.5625
 30
0.0
 11
1.0
 21
0.0
 31
0.0
 44
0.9
  1
SHEET
 40
0.06
 41
0.48
  0
MTEXT
  5
247
100
AcDbEntity
  8
0
100
AcDbMText
 62
2
  6
CONTINUOUS
  7
STANDARD
 71
1
 72
1
 10
5.95
 20
0.5625
 30
0.0
 11
1.0
 21
0.0
 31
0.0
 44
0.9
  1
DWG SIZE
 40
0.06
 41
0.768
  0
MTEXT
  5
248
100
AcDbEntity
  8
0
100
AcDbMText
 62
2
  6
CONTINUOUS
  7
STANDARD
 71
1
 72
1
 10
5.25
 20
0.5625
 30
0.0
 11
1.0
 21
0.0
 31
0.0
 44
0.9
  1
SCALE
 40
0.06
 41
0.48
  0
MTEXT
  5
249
100
AcDbEntity
  8
0
100
AcDbMText
 62
2
  6
CONTINUOUS
  7
STANDARD
 71
1
 72
1
 10
4.15
 20
0.5625
 30
0.0
 11
1.0
 21
0.0
 31
0.0
 44
0.9
  1
DATE
 40
0.06
 41
0.384
  0
MTEXT
  5
24A
100
AcDbEntity
  8
0
100
AcDbMText
 62
2
  6
CONTINUOUS
  7
STANDARD
 71
1
 72
1
 10
0.05
 20
0.5625
 30
0.0
 11
1.0
 21
0.0
 31
0.0
 44
0.9
  1
DESCRIPTION
 40
0.06
 41
1.056
  0
MTEXT
  5
24B
100
AcDbEntity
  8
0
100
AcDbMText
 62
2
  6
CONTINUOUS
  7
STANDARD
 71
2
 72
1
 10
5.45
 20
1.0375
 30
0.0
 11
1.0
 21
0.0
 31
0.0
 44
0.9
  1
ALL DIMENSIONS IN INCH\PVIEWS ARE THIRD ANGLE
 40
0.12
 41
4.224
  0
MTEXT
  5
24C
100
AcDbEntity
  8
0
100
AcDbMText
 62
2
  6
CONTINUOUS
  7
STANDARD
 71
2
 72
1
 10
2.05
 20
0.95
 30
0.0
 11
1.0
 21
0.0
 31
0.0
 44
0.9
  1
X5H
 40
0.125
 41
0.6
  0
MTEXT
  5
24D
100
AcDbEntity
  8
0
100
AcDbMText
 62
2
  6
CONTINUOUS
  7
STANDARD
 71
1
 72
1
 10
0.05
 20
1.1875
 30
0.0
 11
1.0
 21
0.0
 31
0.0
 44
0.9
  1
MODEL
 40
0.06
 41
0.48
  0
ENDBLK
  5
24E
100
AcDbEntity
  8
0
  6
BYBLOCK
 62
0
100
AcDbBlockEnd
  0
BLOCK
  5
24F
100
AcDbEntity
  8
0
100
AcDbBlockBegin
  2
*T2
 70
1
 10
0.0
 20
0.0
  3
*T2
  1

  0
LINE
  5
250
100
AcDbEntity
  8
0
100
AcDbLine
 62
2
  6
CONTINUOUS
 10
0.0
 20
0.0
 11
9.055
 21
0.0
  0
LINE
  5
251
100
AcDbEntity
  8
0
100
AcDbLine
 62
2
  6
CONTINUOUS
 10
0.0
 20
0.0
 11
0.0
 21
-2.344
  0
LINE
  5
252
100
AcDbEntity
  8
0
100
AcDbLine
 62
2
  6
CONTINUOUS
 10
0.0
 20
-0.344
 11
9.055
 21
-0.344
  0
LINE
  5
253
100
AcDbEntity
  8
0
100
AcDbLine
 62
2
  6
CONTINUOUS
 10
0.0
 20
-0.594
 11
9.055
 21
-0.594
  0
LINE
  5
254
100
AcDbEntity
  8
0
100
AcDbLine
 62
2
  6
CONTINUOUS
 10
0.0
 20
-0.844
 11
9.055
 21
-0.844
  0
LINE
  5
255
100
AcDbEntity
  8
0
100
AcDbLine
 62
2
  6
CONTINUOUS
 10
0.0
 20
-1.094
 11
9.055
 21
-1.094
  0
LINE
  5
256
100
AcDbEntity
  8
0
100
AcDbLine
 62
2
  6
CONTINUOUS
 10
0.0
 20
-1.344
 11
9.055
 21
-1.344
  0
LINE
  5
257
100
AcDbEntity
  8
0
100
AcDbLine
 62
2
  6
CONTINUOUS
 10
0.0
 20
-1.594
 11
9.055
 21
-1.594
  0
LINE
  5
258
100
AcDbEntity
  8
0
100
AcDbLine
 62
2
  6
CONTINUOUS
 10
0.0
 20
-1.844
 11
9.055
 21
-1.844
  0
LINE
  5
259
100
AcDbEntity
  8
0
100
AcDbLine
 62
2
  6
CONTINUOUS
 10
0.0
 20
-2.094
 11
9.055
 21
-2.094
  0
LINE
  5
25A
100
AcDbEntity
  8
0
100
AcDbLine
 62
2
  6
CONTINUOUS
 10
0.0
 20
-2.344
 11
9.055
 21
-2.344
  0
LINE
  5
25B
100
AcDbEntity
  8
0
100
AcDbLine
 62
2
  6
CONTINUOUS
 10
3.055
 20
0.0
 11
3.055
 21
-2.344
  0
LINE
  5
25C
100
AcDbEntity
  8
0
100
AcDbLine
 62
2
  6
CONTINUOUS
 10
9.055
 20
0.0
 11
9.055
 21
-2.344
  0
MTEXT
  5
25D
100
AcDbEntity
  8
0
100
AcDbMText
 62
2
  6
CONTINUOUS
  7
STANDARD
 71
2
 72
1
 10
1.5275
 20
-0.0995
 30
0.0
 11
1.0
 21
0.0
 31
0.0
 44
0.9
  1
Technical Data
 40
0.145
 41
3.248
  0
MTEXT
  5
25E
100
AcDbEntity
  8
0
100
AcDbMText
 62
2
  6
CONTINUOUS
  7
STANDARD
 71
2
 72
1
 10
4.555
 20
-0.0995
 30
0.0
 11
1.0
 21
0.0
 31
0.0
 44
0.9
  1
U.S. Units
 40
0.145
 41
2.32
  0
MTEXT
  5
25F
100
AcDbEntity
  8
0
100
AcDbMText
 62
2
  6
CONTINUOUS
  7
STANDARD
 71
2
 72
1
 10
7.555
 20
-0.0995
 30
0.0
 11
1.0
 21
0.0
 31
0.0
 44
0.9
  1
Metric Units
 40
0.145
 41
2.784
  0
MTEXT
  5
260
100
AcDbEntity
  8
0
100
AcDbMText
 62
2
  6
CONTINUOUS
  7
STANDARD
 71
2
 72
1
 10
1.5275
 20
-0.4065
 30
0.0
 11
1.0
 21
0.0
 31
0.0
 44
0.9
  1
Cavity
 40
0.125
 41
1.2
  0
MTEXT
  5
261
100
AcDbEntity
  8
0
100
AcDbMText
 62
2
  6
CONTINUOUS
  7
STANDARD
 71
2
 72
1
 10
6.055
 20
-0.4065
 30
0.0
 11
1.0
 21
0.0
 31
0.0
 44
0.9
  1
T-10A
 40
0.125
 41
1.0
  0
MTEXT
  5
262
100
AcDbEntity
  8
0
100
AcDbMText
 62
2
  6
CONTINUOUS
  7
STANDARD
 71
2
 72
1
 10
1.5275
 20
-0.6565
 30
0.0
 11
1.0
 21
0.0
 31
0.0
 44
0.9
  1
Body Features
 40
0.125
 41
2.6
  0
MTEXT
  5
263
100
AcDbEntity
  8
0
100
AcDbMText
 62
2
  6
CONTINUOUS
  7
STANDARD
 71
2
 72
1
 10
6.055
 20
-0.6565
 30
0.0
 11
1.0
 21
0.0
 31
0.0
 44
0.9
  1
Inline with reverse flow check
 40
0.125
 41
6.0
  0
MTEXT
  5
264
100
AcDbEntity
  8
0
100
AcDbMText
 62
2
  6
CONTINUOUS
  7
STANDARD
 71
2
 72
1
 10
1.5275
 20
-0.9065
 30
0.0
 11
1.0
 21
0.0
 31
0.0
 44
0.9
  1
Body Type
 40
0.125
 41
1.8
  0
MTEXT
  5
265
100
AcDbEntity
  8
0
100
AcDbMText
 62
2
  6
CONTINUOUS
  7
STANDARD
 71
2
 72
1
 10
6.055
 20
-0.9065
 30
0.0
 11
1.0
 21
0.0
 31
0.0
 44
0.9
  1
Line mount
 40
0.125
 41
2.0
  0
MTEXT
  5
266
100
AcDbEntity
  8
0
100
AcDbMText
 62
2
  6
CONTINUOUS
  7
STANDARD
 71
2
 72
1
 10
1.5275
 20
-1.1565
 30
0.0
 11
1.0
 21
0.0
 31
0.0
 44
0.9
  1
Open Cavity Quantity
 40
0.125
 41
4.0
  0
MTEXT
  5
267
100
AcDbEntity
  8
0
100
AcDbMText
 62
2
  6
CONTINUOUS
  7
STANDARD
 71
2
 72
1
 10
6.055
 20
-1.1565
 30
0.0
 11
1.0
 21
0.0
 31
0.0
 44
0.9
  1
1
 40
0.125
 41
0.2
  0
MTEXT
  5
268
100
AcDbEntity
  8
0
100
AcDbMText
 62
2
  6
CONTINUOUS
  7
STANDARD
 71
2
 72
1
 10
1.5275
 20
-1.4065
 30
0.0
 11
1.0
 21
0.0
 31
0.0
 44
0.9
  1
Weight
 40
0.125
 41
1.2
  0
MTEXT
  5
269
100
AcDbEntity
  8
0
100
AcDbMText
 62
2
  6
CONTINUOUS
  7
STANDARD
 71
2
 72
1
 10
4.555
 20
-1.4065
 30
0.0
 11
1.0
 21
0.0
 31
0.0
 44
0.9
  1
0.935 lb.
 40
0.125
 41
1.8
  0
MTEXT
  5
26A
100
AcDbEntity
  8
0
100
AcDbMText
 62
2
  6
CONTINUOUS
  7
STANDARD
 71
2
 72
1
 10
7.555
 20
-1.4065
 30
0.0
 11
1.0
 21
0.0
 31
0.0
 44
0.9
  1
0,424 kg.
 40
0.125
 41
1.8
  0
MTEXT
  5
26B
100
AcDbEntity
  8
0
100
AcDbMText
 62
2
  6
CONTINUOUS
  7
STANDARD
 71
2
 72
1
 10
1.5275
 20
-1.6565
 30
0.0
 11
1.0
 21
0.0
 31
0.0
 44
0.9
  1
Mounting Hole Diameter
 40
0.125
 41
4.4
  0
MTEXT
  5
26C
100
AcDbEntity
  8
0
100
AcDbMText
 62
2
  6
CONTINUOUS
  7
STANDARD
 71
2
 72
1
 10
4.555
 20
-1.6565
 30
0.0
 11
1.0
 21
0.0
 31
0.0
 44
0.9
  1
.28 in.
 40
0.125
 41
1.4
  0
MTEXT
  5
26D
100
AcDbEntity
  8
0
100
AcDbMText
 62
2
  6
CONTINUOUS
  7
STANDARD
 71
2
 72
1
 10
7.555
 20
-1.6565
 30
0.0
 11
1.0
 21
0.0
 31
0.0
 44
0.9
  1
7,1 mm
 40
0.125
 41
1.2
  0
MTEXT
  5
26E
100
AcDbEntity
  8
0
100
AcDbMText
 62
2
  6
CONTINUOUS
  7
STANDARD
 71
2
 72
1
 10
1.5275
 20
-1.9065
 30
0.0
 11
1.0
 21
0.0
 31
0.0
 44
0.9
  1
Mounting Hole Depth
 40
0.125
 41
3.8
  0
MTEXT
  5
26F
100
AcDbEntity
  8
0
100
AcDbMText
 62
2
  6
CONTINUOUS
  7
STANDARD
 71
2
 72
1
 10
6.055
 20
-1.9065
 30
0.0
 11
1.0
 21
0.0
 31
0.0
 44
0.9
  1
Through
 40
0.125
 41
1.4
  0
MTEXT
  5
270
100
AcDbEntity
  8
0
100
AcDbMText
 62
2
  6
CONTINUOUS
  7
STANDARD
 71
2
 72
1
 10
1.5275
 20
-2.1565
 30
0.0
 11
1.0
 21
0.0
 31
0.0
 44
0.9
  1
Mounting Hole Quantity
 40
0.125
 41
4.4
  0
MTEXT
  5
271
100
AcDbEntity
  8
0
100
AcDbMText
 62
2
  6
CONTINUOUS
  7
STANDARD
 71
2
 72
1
 10
6.055
 20
-2.1565
 30
0.0
 11
1.0
 21
0.0
 31
0.0
 44
0.9
  1
2
 40
0.125
 41
0.2
  0
ENDBLK
  5
272
100
AcDbEntity
  8
0
  6
BYBLOCK
 62
0
100
AcDbBlockEnd
  0
BLOCK
  5
273
100
AcDbEntity
  8
0
100
AcDbBlockBegin
  2
*T3
 70
1
 10
0.0
 20
0.0
  3
*T3
  1

  0
LINE
  5
274
100
AcDbEntity
  8
0
100
AcDbLine
 62
2
  6
CONTINUOUS
 10
0.0
 20
0.0
 11
4.6
 21
0.0
  0
LINE
  5
275
100
AcDbEntity
  8
0
100
AcDbLine
 62
2
  6
CONTINUOUS
 10
0.0
 20
0.0
 11
0.0
 21
-1.18775
  0
LINE
  5
276
100
AcDbEntity
  8
0
100
AcDbLine
 62
2
  6
CONTINUOUS
 10
0.0
 20
-0.34375
 11
4.6
 21
-0.34375
  0
LINE
  5
277
100
AcDbEntity
  8
0
100
AcDbLine
 62
2
  6
CONTINUOUS
 10
0.0
 20
-0.68775
 11
4.6
 21
-0.68775
  0
LINE
  5
278
100
AcDbEntity
  8
0
100
AcDbLine
 62
2
  6
CONTINUOUS
 10
0.0
 20
-0.93775
 11
4.6
 21
-0.93775
  0
LINE
  5
279
100
AcDbEntity
  8
0
100
AcDbLine
 62
2
  6
CONTINUOUS
 10
0.0
 20
-1.18775
 11
4.6
 21
-1.18775
  0
LINE
  5
27A
100
AcDbEntity
  8
0
100
AcDbLine
 62
2
  6
CONTINUOUS
 10
1.3
 20
-0.34375
 11
1.3
 21
-1.18775
  0
LINE
  5
27B
100
AcDbEntity
  8
0
100
AcDbLine
 62
2
  6
CONTINUOUS
 10
3.3
 20
-0.34375
 11
3.3
 21
-1.18775
  0
LINE
  5
27C
100
AcDbEntity
  8
0
100
AcDbLine
 62
2
  6
CONTINUOUS
 10
4.6
 20
0.0
 11
4.6
 21
-1.18775
  0
MTEXT
  5
27D
100
AcDbEntity
  8
0
100
AcDbMText
 62
2
  6
CONTINUOUS
  7
STANDARD
 71
2
 72
1
 10
2.3
 20
-0.099375
 30
0.0
 11
1.0
 21
0.0
 31
0.0
 44
0.9
  1
Port Headings
 40
0.145
 41
3.016
  0
MTEXT
  5
27E
100
AcDbEntity
  8
0
100
AcDbMText
 62
2
  6
CONTINUOUS
  7
STANDARD
 71
2
 72
1
 10
0.65
 20
-0.44325
 30
0.0
 11
1.0
 21
0.0
 31
0.0
 44
0.9
  1
Product
 40
0.145
 41
1.624
  0
MTEXT
  5
27F
100
AcDbEntity
  8
0
100
AcDbMText
 62
2
  6
CONTINUOUS
  7
STANDARD
 71
2
 72
1
 10
2.3
 20
-0.44325
 30
0.0
 11
1.0
 21
0.0
 31
0.0
 44
0.9
  1
Port
 40
0.145
 41
0.928
  0
MTEXT
  5
280
100
AcDbEntity
  8
0
100
AcDbMText
 62
2
  6
CONTINUOUS
  7
STANDARD
 71
2
 72
1
 10
3.95
 20
-0.44325
 30
0.0
 11
1.0
 21
0.0
 31
0.0
 44
0.9
  1
Size
 40
0.145
 41
0.928
  0
MTEXT
  5
281
100
AcDbEntity
  8
0
100
AcDbMText
 62
2
  6
CONTINUOUS
  7
STANDARD
 71
2
 72
1
 10
0.65
 20
-0.75025
 30
0.0
 11
1.0
 21
0.0
 31
0.0
 44
0.9
  1
X5H
 40
0.125
 41
0.6
  0
MTEXT
  5
282
100
AcDbEntity
  8
0
100
AcDbMText
 62
2
  6
CONTINUOUS
  7
STANDARD
 71
2
 72
1
 10
2.3
 20
-0.75025
 30
0.0
 11
1.0
 21
0.0
 31
0.0
 44
0.9
  1
Ports 1 &  2
 40
0.125
 41
2.4
  0
MTEXT
  5
283
100
AcDbEntity
  8
0
100
AcDbMText
 62
2
  6
CONTINUOUS
  7
STANDARD
 71
2
 72
1
 10
3.95
 20
-0.75025
 30
0.0
 11
1.0
 21
0.0
 31
0.0
 44
0.9
  1
3/8" NPTF
 40
0.125
 41
1.8
  0
MTEXT
  5
284
100
AcDbEntity
  8
0
100
AcDbMText
 62
2
  6
CONTINUOUS
  7
STANDARD
 71
2
 72
1
 10
0.65
 20
-1.00025
 30
0.0
 11
1.0
 21
0.0
 31
0.0
 44
0.9
  1
X5H
 40
0.125
 41
0.6
  0
MTEXT
  5
285
100
AcDbEntity
  8
0
100
AcDbMText
 62
2
  6
CONTINUOUS
  7
STANDARD
 71
2
 72
1
 10
2.3
 20
-1.00025
 30
0.0
 11
1.0
 21
0.0
 31
0.0
 44
0.9
  1
Gage Port (Plugged)
 40
0.125
 41
3.8
  0
MTEXT
  5
286
100
AcDbEntity
  8
0
100
AcDbMText
 62
2
  6
CONTINUOUS
  7
STANDARD
 71
2
 72
1
 10
3.95
 20
-1.00025
 30
0.0
 11
1.0
 21
0.0
 31
0.0
 44
0.9
  1
1/4" NPTF
 40
0.125
 41
1.8
  0
ENDBLK
  5
287
100
AcDbEntity
  8
0
  6
BYBLOCK
 62
0
100
AcDbBlockEnd
  0
ENDSEC
  0
SECTION
  2
ENTITIES
  0
IMAGE
  5
288
100
AcDbEntity
  8
0
100
AcDbRasterImage
 62
7
  6
CONTINUOUS
 10
19.2297077316
 20
0.3094318264
 30
0.0
 11
0.0066666667
 21
0.0
 31
0.0
 12
0.0
 22
0.0066666667
 32
0.0
 13
369.0
 23
92.0
340
       3B2
 70
9
280
0
281
50
282
50
283
0
360
       3AC
 71
1
 91
2
 14
-0.5
 24
-0.5
 14
368.5
 24
91.5
  0
INSERT
  5
289
100
AcDbEntity
  8
0
100
AcDbBlockReference
 62
2
  6
CONTINUOUS
  2
SUN_FIRST_THIRD_ANGLE_BL0
 10
20.4816717061
 20
1.2289683772
  0
ACAD_TABLE
  5
28A
100
AcDbEntity
  8
0
 62
2
  6
CONTINUOUS
100
AcDbBlockReference
  2
*T1
 10
12.42375
 20
0.30125
 30
0.0
100
AcDbTable
342
       3B4
343
20F
 11
1.0
 21
0.0
 31
0.0
 90
6
 91
4
 92
6
 93
20
 94
0
 95
0
 96
0
 70
1
 41
0.0
141
0.525
141
0.1
141
0.525
141
0.1
142
4.1
142
1.1
142
0.7
142
0.5
142
0.4
142
2.475
171
1
172
0
173
0
174
0
175
1
176
1
 91
33
178
0
145
0.0
301
CELL_VALUE
 90
4
  1
T-10A Line mount\PInline with reverse flow check
304
ACVALUE_END
170
2
140
0.125
171
1
172
0
173
0
174
0
175
1
176
1
 91
33
178
0
145
0.0
301
CELL_VALUE
 90
4
  1
Aug-13-19
304
ACVALUE_END
170
5
140
0.125
171
1
172
0
173
0
174
0
175
1
176
1
 91
33
178
0
145
0.0
301
CELL_VALUE
 90
4
  1
2.000
304
ACVALUE_END
170
5
140
0.125
171
1
172
0
173
0
174
0
175
1
176
1
 91
33
178
0
145
0.0
301
CELL_VALUE
 90
4
  1
C
304
ACVALUE_END
170
5
140
0.125
171
1
172
0
173
0
174
0
175
1
176
1
 91
33
178
0
145
0.0
301
CELL_VALUE
 90
4
  1
2
304
ACVALUE_END
170
5
140
0.125
171
1
172
0
173
0
174
0
175
1
176
1
 91
33
178
0
145
0.0
301
CELL_VALUE
 90
4
  1
 
304
ACVALUE_END
170
1
140
0.125
171
1
172
0
173
0
174
0
175
1
176
1
 91
33
178
0
145
0.0
301
CELL_VALUE
 90
4
  1
DESCRIPTION
304
ACVALUE_END
170
1
140
0.06
171
1
172
0
173
0
174
0
175
1
176
1
 91
33
178
0
145
0.0
301
CELL_VALUE
 90
4
  1
DATE
304
ACVALUE_END
170
1
140
0.06
171
1
172
0
173
0
174
0
175
1
176
1
 91
33
178
0
145
0.0
301
CELL_VALUE
 90
4
  1
SCALE
304
ACVALUE_END
170
1
140
0.06
171
1
172
0
173
0
174
0
175
1
176
1
 91
33
178
0
145
0.0
301
CELL_VALUE
 90
4
  1
DWG SIZE
304
ACVALUE_END
170
1
140
0.06
171
1
172
0
173
0
174
0
175
1
176
1
 91
33
178
0
145
0.0
301
CELL_VALUE
 90
4
  1
SHEET
304
ACVALUE_END
170
1
140
0.06
171
1
172
0
173
0
174
0
175
1
176
1
 91
33
178
0
145
0.0
301
CELL_VALUE
 90
4
  1
 
304
ACVALUE_END
170
1
140
0.125
171
1
172
0
173
0
174
0
175
1
176
1
 91
33
178
0
145
0.0
301
CELL_VALUE
 90
4
  1
X5H
304
ACVALUE_END
170
5
140
0.125
171
1
172
0
173
0
174
0
175
4
176
1
 91
33
178
0
145
0.0
301
CELL_VALUE
 90
4
  1
ALL DIMENSIONS IN INCH\PVIEWS ARE THIRD ANGLE
304
ACVALUE_END
170
5
140
0.12
171
1
172
0
173
1
174
0
175
1
176
1
 91
1
178
0
145
0.0
170
1
171
1
172
0
173
1
174
0
175
1
176
1
 91
1
178
0
145
0.0
170
1
171
1
172
0
173
1
174
0
175
1
176
1
 91
1
178
0
145
0.0
170
5
171
1
172
0
173
0
174
0
175
1
176
1
 91
33
178
0
145
0.0
301
CELL_VALUE
 90
4
  1
 
304
ACVALUE_END
170
1
140
0.125
171
1
172
0
173
0
174
0
175
1
176
1
 91
33
178
0
145
0.0
301
CELL_VALUE
 90
4
  1
MODEL
304
ACVALUE_END
170
1
140
0.06
171
1
172
0
173
0
174
0
175
1
176
1
 91
33
178
0
145
0.0
301
CELL_VALUE
 90
4
  1
 
304
ACVALUE_END
170
1
140
0.125
171
1
172
0
173
0
174
0
175
1
176
1
 91
33
178
0
145
0.0
301
CELL_VALUE
 90
4
  1
 
304
ACVALUE_END
170
1
140
0.125
171
1
172
0
173
0
174
0
175
1
176
1
 91
33
178
0
145
0.0
301
CELL_VALUE
 90
4
  1
 
304
ACVALUE_END
170
1
140
0.125
171
1
172
0
173
0
174
0
175
1
176
1
 91
33
178
0
145
0.0
301
CELL_VALUE
 90
4
  1
 
304
ACVALUE_END
170
1
140
0.125
171
1
172
0
173
0
174
0
175
1
176
1
 91
33
178
0
145
0.0
301
CELL_VALUE
 90
4
  1
 
304
ACVALUE_END
170
1
140
0.125
  0
ACAD_TABLE
  5
28B
100
AcDbEntity
  8
0
 62
2
  6
CONTINUOUS
100
AcDbBlockReference
  2
*T2
 10
12.4237499994
 20
16.47875
 30
0.0
100
AcDbTable
342
       3B3
343
210
 11
1.0
 21
0.0
 31
0.0
 90
22
 91
9
 92
3
 93
16
 94
0
 95
0
 96
0
 41
0.028
141
0.344
141
0.25
141
0.25
141
0.25
141
0.25
141
0.25
141
0.25
141
0.25
141
0.25
142
3.055
142
3.0
142
3.0
171
1
172
0
173
0
174
0
175
1
176
1
 91
33
178
0
145
0.0
301
CELL_VALUE
 90
4
  1
Technical Data
304
ACVALUE_END
170
5
140
0.145
171
1
172
0
173
0
174
0
175
1
176
1
 91
33
178
0
145
0.0
301
CELL_VALUE
 90
4
  1
U.S. Units
304
ACVALUE_END
170
5
140
0.145
171
1
172
0
173
0
174
0
175
1
176
1
 91
33
178
0
145
0.0
301
CELL_VALUE
 90
4
  1
Metric Units
304
ACVALUE_END
170
5
140
0.145
171
1
172
0
173
0
174
0
175
1
176
1
 91
33
178
0
145
0.0
301
CELL_VALUE
 90
4
  1
Cavity
304
ACVALUE_END
170
5
140
0.125
171
1
172
0
173
0
174
0
175
2
176
1
 91
33
178
0
145
0.0
301
CELL_VALUE
 90
4
  1
T-10A
304
ACVALUE_END
170
5
140
0.125
171
1
172
0
173
1
174
0
175
1
176
1
 91
1
178
0
145
0.0
170
1
171
1
172
0
173
0
174
0
175
1
176
1
 91
33
178
0
145
0.0
301
CELL_VALUE
 90
4
  1
Body Features
304
ACVALUE_END
170
5
140
0.125
171
1
172
0
173
0
174
0
175
2
176
1
 91
33
178
0
145
0.0
301
CELL_VALUE
 90
4
  1
Inline with reverse flow check
304
ACVALUE_END
170
5
140
0.125
171
1
172
0
173
1
174
0
175
1
176
1
 91
1
178
0
145
0.0
170
1
171
1
172
0
173
0
174
0
175
1
176
1
 91
33
178
0
145
0.0
301
CELL_VALUE
 90
4
  1
Body Type
304
ACVALUE_END
170
5
140
0.125
171
1
172
0
173
0
174
0
175
2
176
1
 91
33
178
0
145
0.0
301
CELL_VALUE
 90
4
  1
Line mount
304
ACVALUE_END
170
5
140
0.125
171
1
172
0
173
1
174
0
175
1
176
1
 91
1
178
0
145
0.0
170
1
171
1
172
0
173
0
174
0
175
1
176
1
 91
33
178
0
145
0.0
301
CELL_VALUE
 90
4
  1
Open Cavity Quantity
304
ACVALUE_END
170
5
140
0.125
171
1
172
0
173
0
174
0
175
2
176
1
 91
33
178
0
145
0.0
301
CELL_VALUE
 90
4
  1
1
304
ACVALUE_END
170
5
140
0.125
171
1
172
0
173
1
174
0
175
1
176
1
 91
1
178
0
145
0.0
170
1
171
1
172
0
173
0
174
0
175
1
176
1
 91
33
178
0
145
0.0
301
CELL_VALUE
 90
4
  1
Weight
304
ACVALUE_END
170
5
140
0.125
171
1
172
0
173
0
174
0
175
1
176
1
 91
33
178
0
145
0.0
301
CELL_VALUE
 90
4
  1
0.935 lb.
304
ACVALUE_END
170
5
140
0.125
171
1
172
0
173
0
174
0
175
1
176
1
 91
33
178
0
145
0.0
301
CELL_VALUE
 90
4
  1
0,424 kg.
304
ACVALUE_END
170
5
140
0.125
171
1
172
0
173
0
174
0
175
1
176
1
 91
33
178
0
145
0.0
301
CELL_VALUE
 90
4
  1
Mounting Hole Diameter
304
ACVALUE_END
170
5
140
0.125
171
1
172
0
173
0
174
0
175
1
176
1
 91
33
178
0
145
0.0
301
CELL_VALUE
 90
4
  1
.28 in.
304
ACVALUE_END
170
5
140
0.125
171
1
172
0
173
0
174
0
175
1
176
1
 91
33
178
0
145
0.0
301
CELL_VALUE
 90
4
  1
7,1 mm
304
ACVALUE_END
170
5
140
0.125
171
1
172
0
173
0
174
0
175
1
176
1
 91
33
178
0
145
0.0
301
CELL_VALUE
 90
4
  1
Mounting Hole Depth
304
ACVALUE_END
170
5
140
0.125
171
1
172
0
173
0
174
0
175
2
176
1
 91
33
178
0
145
0.0
301
CELL_VALUE
 90
4
  1
Through
304
ACVALUE_END
170
5
140
0.125
171
1
172
0
173
1
174
0
175
1
176
1
 91
1
178
0
145
0.0
170
1
171
1
172
0
173
0
174
0
175
1
176
1
 91
33
178
0
145
0.0
301
CELL_VALUE
 90
4
  1
Mounting Hole Quantity
304
ACVALUE_END
170
5
140
0.125
171
1
172
0
173
0
174
0
175
2
176
1
 91
33
178
0
145
0.0
301
CELL_VALUE
 90
4
  1
2
304
ACVALUE_END
170
5
140
0.125
171
1
172
0
173
1
174
0
175
1
176
1
 91
1
178
0
145
0.0
170
1
  0
ACAD_TABLE
  5
28C
100
AcDbEntity
  8
0
 62
2
  6
CONTINUOUS
100
AcDbBlockReference
  2
*T3
 10
0.52125
 20
1.709
 30
0.0
100
AcDbTable
342
       3B3
343
211
 11
1.0
 21
0.0
 31
0.0
 90
22
 91
4
 92
3
 93
16
 94
0
 95
0
 96
0
 41
0.05
141
0.34375
141
0.344
141
0.25
141
0.25
142
1.3
142
2.0
142
1.3
171
1
172
0
173
0
174
0
175
3
176
1
 91
33
178
0
145
0.0
301
CELL_VALUE
 90
4
  1
Port Headings
304
ACVALUE_END
170
5
140
0.145
171
1
172
0
173
1
174
0
175
1
176
1
 91
1
178
0
145
0.0
170
1
171
1
172
0
173
1
174
0
175
1
176
1
 91
1
178
0
145
0.0
170
1
171
1
172
0
173
0
174
0
175
1
176
1
 91
33
178
0
145
0.0
301
CELL_VALUE
 90
4
  1
Product
304
ACVALUE_END
170
5
140
0.145
171
1
172
0
173
0
174
0
175
1
176
1
 91
33
178
0
145
0.0
301
CELL_VALUE
 90
4
  1
Port
304
ACVALUE_END
170
5
140
0.145
171
1
172
0
173
0
174
0
175
1
176
1
 91
33
178
0
145
0.0
301
CELL_VALUE
 90
4
  1
Size
304
ACVALUE_END
170
5
140
0.145
171
1
172
0
173
0
174
0
175
1
176
1
 91
33
178
0
145
0.0
301
CELL_VALUE
 90
4
  1
X5H
304
ACVALUE_END
170
5
140
0.125
171
1
172
0
173
0
174
0
175
1
176
1
 91
33
178
0
145
0.0
301
CELL_VALUE
 90
4
  1
Ports 1 &  2
304
ACVALUE_END
170
5
140
0.125
171
1
172
0
173
0
174
0
175
1
176
1
 91
33
178
0
145
0.0
301
CELL_VALUE
 90
4
  1
3/8" NPTF
304
ACVALUE_END
170
5
140
0.125
171
1
172
0
173
0
174
0
175
1
176
1
 91
33
178
0
145
0.0
301
CELL_VALUE
 90
4
  1
X5H
304
ACVALUE_END
170
5
140
0.125
171
1
172
0
173
0
174
0
175
1
176
1
 91
33
178
0
145
0.0
301
CELL_VALUE
 90
4
  1
Gage Port (Plugged)
304
ACVALUE_END
170
5
140
0.125
171
1
172
0
173
0
174
0
175
1
176
1
 91
33
178
0
145
0.0
301
CELL_VALUE
 90
4
  1
1/4" NPTF
304
ACVALUE_END
170
5
140
0.125
  0
MTEXT
  5
28D
100
AcDbEntity
  8
0
100
AcDbMText
 62
2
  6
CONTINUOUS
  7
STANDARD
 71
1
 72
1
 10
0.52125
 20
5.75995
 30
0.0
 11
1.0
 21
0.0
 31
0.0
 44
0.6
  3
Notes\P \P1. Important: Carefully consider\P   the maximum system pressure. The\P   pressure rating of the manifold is\P   dependent on the manifold material,\P   with the port type/size a secondary\P   consideration. Manifolds\P   constructed of alu
  1
minum are not\P   rated for pressures higher than\P   3000 psi (210 bar), regardless of\P   the port type/size specified.
 40
0.1
 41
3.04
  0
LINE
  5
28E
100
AcDbEntity
  8
0
100
AcDbLine
 62
7
  6
CONTINUOUS
 10
0.30125
 20
0.30125
 11
0.30125
 21
16.69875
  0
LINE
  5
28F
100
AcDbEntity
  8
0
100
AcDbLine
 62
7
  6
CONTINUOUS
 10
0.30125
 20
0.30125
 11
21.69875
 21
0.30125
  0
LINE
  5
290
100
AcDbEntity
  8
0
100
AcDbLine
 62
7
  6
CONTINUOUS
 10
0.30125
 20
16.69875
 11
21.69875
 21
16.69875
  0
LINE
  5
291
100
AcDbEntity
  8
0
100
AcDbLine
 62
7
  6
CONTINUOUS
 10
21.69875
 20
0.30125
 11
21.69875
 21
16.69875
  0
LINE
  5
292
100
AcDbEntity
  8
0
100
AcDbLine
 62
7
  6
CONTINUOUS
 10
8.9087088306
 20
12.3494099593
 11
8.2616617518
 21
11.724410438
  0
LINE
  5
293
100
AcDbEntity
  8
0
100
AcDbLine
 62
7
  6
CONTINUOUS
 10
10.7906337102
 20
4.7945369821
 11
10.8409650307
 21
4.7696742735
  0
LINE
  5
294
100
AcDbEntity
  8
0
100
AcDbLine
 62
4
  6
CONTINUOUS
 10
9.9665209206
 20
11.4554936851
 11
9.9954986965
 21
11.4728025822
  0
LINE
  5
295
100
AcDbEntity
  8
0
100
AcDbLine
 62
4
  6
CONTINUOUS
 10
10.0244764723
 20
11.2582892776
 11
9.9954986965
 21
11.2409803753
  0
LINE
  5
296
100
AcDbEntity
  8
0
100
AcDbLine
 62
7
  6
CONTINUOUS
 10
8.2616617518
 20
11.724410438
 11
8.2616617518
 21
5.9288551369
  0
LINE
  5
297
100
AcDbEntity
  8
0
100
AcDbLine
 62
4
  6
CONTINUOUS
 10
8.4973477348
 20
7.7748153217
 11
8.4973477348
 21
7.5429931148
  0
LINE
  5
298
100
AcDbEntity
  8
0
100
AcDbLine
 62
4
  6
CONTINUOUS
 10
9.9520320327
 20
11.4371799665
 11
9.9665209206
 21
11.4554936851
  0
LINE
  5
299
100
AcDbEntity
  8
0
100
AcDbLine
 62
7
  6
CONTINUOUS
 10
8.2616617518
 20
5.9288551369
 11
13.0912911694
 21
5.5939191992
  0
LINE
  5
29A
100
AcDbEntity
  8
0
100
AcDbLine
 62
4
  6
CONTINUOUS
 10
11.5902422641
 20
5.8177921019
 11
11.5322867124
 21
5.8218113331
  0
LINE
  5
29B
100
AcDbEntity
  8
0
100
AcDbLine
 62
4
  6
CONTINUOUS
 10
11.1410867383
 20
5.8489411435
 11
11.1121089625
 21
5.850950759
  0
LINE
  5
29C
100
AcDbEntity
  8
0
100
AcDbLine
 62
4
  6
CONTINUOUS
 10
11.7785978072
 20
5.8820036719
 11
11.8655311348
 21
5.8759748252
  0
LINE
  5
29D
100
AcDbEntity
  8
0
100
AcDbLine
 62
4
  6
CONTINUOUS
 10
10.0389653603
 20
11.2766029876
 11
10.0244764723
 21
11.2582892776
  0
LINE
  5
29E
100
AcDbEntity
  8
0
100
AcDbLine
 62
4
  6
CONTINUOUS
 10
11.1121089625
 20
6.0827729659
 11
11.1410867383
 21
6.0807633503
  0
LINE
  5
29F
100
AcDbEntity
  8
0
100
AcDbLine
 62
4
  6
CONTINUOUS
 10
11.5322867124
 20
6.05363354
 11
11.5902422641
 21
6.0496143088
  0
LINE
  5
2A0
100
AcDbEntity
  8
0
100
AcDbLine
 62
4
  6
CONTINUOUS
 10
9.9375431448
 20
11.399547749
 11
9.9520320327
 21
11.4371799665
  0
LINE
  5
2A1
100
AcDbEntity
  8
0
100
AcDbLine
 62
4
  6
CONTINUOUS
 10
10.0534542482
 20
11.3142352154
 11
10.0389653603
 21
11.2766029876
  0
LINE
  5
2A2
100
AcDbEntity
  8
0
100
AcDbLine
 62
4
  6
CONTINUOUS
 10
11.1121089625
 20
5.850950759
 11
11.0831311866
 21
5.8722788924
  0
LINE
  5
2A3
100
AcDbEntity
  8
0
100
AcDbLine
 62
4
  6
CONTINUOUS
 10
11.1410867383
 20
6.0807633503
 11
11.1700645142
 21
6.0594352221
  0
LINE
  5
2A4
100
AcDbEntity
  8
0
100
AcDbLine
 62
4
  6
CONTINUOUS
 10
9.3000320759
 20
11.5210333561
 11
9.3000320759
 21
11.2892111493
  0
LINE
  5
2A5
100
AcDbEntity
  8
0
100
AcDbLine
 62
4
  6
CONTINUOUS
 10
10.1548764637
 20
11.2299274896
 11
10.2273209033
 21
11.4567256575
  0
LINE
  5
2A6
100
AcDbEntity
  8
0
100
AcDbLine
 62
4
  6
CONTINUOUS
 10
9.5918797302
 20
9.3001384464
 11
9.6249971898
 21
9.3309591989
  0
LINE
  5
2A7
100
AcDbEntity
  8
0
100
AcDbLine
 62
4
  6
CONTINUOUS
 10
11.5902422641
 20
6.0496143088
 11
11.61922004
 21
6.0282861806
  0
LINE
  5
2A8
100
AcDbEntity
  8
0
100
AcDbLine
 62
4
  6
CONTINUOUS
 10
9.5918797302
 20
9.2670209902
 11
9.5918797302
 21
9.3001384464
  0
LINE
  5
2A9
100
AcDbEntity
  8
0
100
AcDbLine
 62
4
  6
CONTINUOUS
 10
9.7077908336
 20
9.1265126929
 11
9.7077908336
 21
9.1596301526
  0
LINE
  5
2AA
100
AcDbEntity
  8
0
100
AcDbLine
 62
4
  6
CONTINUOUS
 10
9.7636764896
 20
11.4888795068
 11
9.7636764896
 21
11.2570573
  0
LINE
  5
2AB
100
AcDbEntity
  8
0
100
AcDbLine
 62
4
  6
CONTINUOUS
 10
9.7740257459
 20
9.3206240334
 11
9.7740257459
 21
9.1219192862
  0
LINE
  5
2AC
100
AcDbEntity
  8
0
100
AcDbLine
 62
4
  6
CONTINUOUS
 10
9.6746733775
 20
9.0956919367
 11
9.7077908336
 21
9.1265126929
  0
LINE
  5
2AD
100
AcDbEntity
  8
0
100
AcDbLine
 62
4
  6
CONTINUOUS
 10
11.0831311866
 20
5.8722788924
 11
11.0541534107
 21
5.9129255419
  0
LINE
  5
2AE
100
AcDbEntity
  8
0
100
AcDbLine
 62
4
  6
CONTINUOUS
 10
11.1700645142
 20
6.0594352221
 11
11.1845534021
 21
6.0391118879
  0
LINE
  5
2AF
100
AcDbEntity
  8
0
100
AcDbLine
 62
4
  6
CONTINUOUS
 10
9.8457802669
 20
7.9015323786
 11
9.8457802669
 21
8.1333545855
  0
LINE
  5
2B0
100
AcDbEntity
  8
0
100
AcDbLine
 62
4
  6
CONTINUOUS
 10
9.8899368494
 20
9.1138808239
 11
9.8899368494
 21
9.3125855711
  0
LINE
  5
2B1
100
AcDbEntity
  8
0
100
AcDbLine
 62
4
  6
CONTINUOUS
 10
9.9375431448
 20
11.3222736778
 11
9.9375431448
 21
11.399547749
  0
LINE
  5
2B2
100
AcDbEntity
  8
0
100
AcDbLine
 62
4
  6
CONTINUOUS
 10
9.9561717617
 20
9.0761699575
 11
9.9561717617
 21
9.3079921643
  0
LINE
  5
2B3
100
AcDbEntity
  8
0
100
AcDbLine
 62
4
  6
CONTINUOUS
 10
9.9616913565
 20
8.092198668
 11
9.9616913565
 21
7.9266113769
  0
LINE
  5
2B4
100
AcDbEntity
  8
0
100
AcDbLine
 62
4
  6
CONTINUOUS
 10
10.0534542482
 20
11.3915092867
 11
10.0534542482
 21
11.3142352154
  0
LINE
  5
2B5
100
AcDbEntity
  8
0
100
AcDbLine
 62
4
  6
CONTINUOUS
 10
10.0720828651
 20
9.0681314952
 11
10.0720828651
 21
9.299953702
  0
LINE
  5
2B6
100
AcDbEntity
  8
0
100
AcDbLine
 62
4
  6
CONTINUOUS
 10
9.856819407
 20
9.0830600667
 11
9.8899368494
 21
9.1138808239
  0
LINE
  5
2B7
100
AcDbEntity
  8
0
100
AcDbLine
 62
4
  6
CONTINUOUS
 10
12.8295252652
 20
7.2425555827
 11
12.8005474893
 21
7.2445651983
  0
LINE
  5
2B8
100
AcDbEntity
  8
0
100
AcDbLine
 62
4
  6
CONTINUOUS
 10
12.8150363772
 20
7.3594714939
 11
12.8729919289
 21
7.3554522628
  0
LINE
  5
2B9
100
AcDbEntity
  8
0
100
AcDbLine
 62
4
  6
CONTINUOUS
 10
9.7133104285
 20
8.0100715685
 11
9.8016236518
 21
7.959790414
  0
LINE
  5
2BA
100
AcDbEntity
  8
0
100
AcDbLine
 62
4
  6
CONTINUOUS
 10
9.9285739004
 20
8.1276128275
 11
9.9616913565
 21
8.092198668
  0
LINE
  5
2BB
100
AcDbEntity
  8
0
100
AcDbLine
 62
4
  6
CONTINUOUS
 10
11.61922004
 20
6.0282861806
 11
11.6481978158
 21
5.9876395259
  0
LINE
  5
2BC
100
AcDbEntity
  8
0
100
AcDbLine
 62
4
  6
CONTINUOUS
 10
10.1217590682
 20
8.1142153906
 11
10.1879940081
 21
7.8777997751
  0
LINE
  5
2BD
100
AcDbEntity
  8
0
100
AcDbLine
 62
4
  6
CONTINUOUS
 10
10.3204637931
 20
9.0509062193
 11
10.3204637931
 21
9.2827284262
  0
LINE
  5
2BE
100
AcDbEntity
  8
0
100
AcDbLine
 62
4
  6
CONTINUOUS
 10
10.3204638327
 20
7.8686129615
 11
10.3204638327
 21
8.1004351684
  0
LINE
  5
2BF
100
AcDbEntity
  8
0
100
AcDbLine
 62
4
  6
CONTINUOUS
 10
10.0555241559
 20
7.8869865905
 11
10.1217590682
 21
8.1142153906
  0
LINE
  5
2C0
100
AcDbEntity
  8
0
100
AcDbLine
 62
4
  6
CONTINUOUS
 10
10.5191685577
 20
8.9819302334
 11
10.5854034423
 21
9.1981198868
  0
LINE
  5
2C1
100
AcDbEntity
  8
0
100
AcDbLine
 62
7
  6
CONTINUOUS
 10
13.7383382482
 20
12.0144740216
 11
13.0912911694
 21
11.3894745003
  0
LINE
  5
2C2
100
AcDbEntity
  8
0
100
AcDbLine
 62
4
  6
CONTINUOUS
 10
10.6295601058
 20
9.1784988768
 11
10.6626775481
 21
9.1927609093
  0
LINE
  5
2C3
100
AcDbEntity
  8
0
100
AcDbLine
 62
4
  6
CONTINUOUS
 10
12.8005474893
 20
7.4763874051
 11
12.8295252652
 21
7.4743777896
  0
LINE
  5
2C4
100
AcDbEntity
  8
0
100
AcDbLine
 62
7
  6
CONTINUOUS
 10
13.4795194167
 20
7.5797572557
 11
13.3501100009
 21
7.5887318291
  0
LINE
  5
2C5
100
AcDbEntity
  8
0
100
AcDbLine
 62
4
  6
CONTINUOUS
 10
11.2587917707
 20
7.803539698
 11
11.1759981096
 21
7.8092814579
  0
LINE
  5
2C6
100
AcDbEntity
  8
0
100
AcDbLine
 62
4
  6
CONTINUOUS
 10
11.0766457827
 20
7.8161715652
 11
11.0269695639
 21
7.8196166227
  0
LINE
  5
2C7
100
AcDbEntity
  8
0
100
AcDbLine
 62
4
  6
CONTINUOUS
 10
10.9000193499
 20
7.8284206499
 11
10.8337844652
 21
7.8330140548
  0
LINE
  5
2C8
100
AcDbEntity
  8
0
100
AcDbLine
 62
4
  6
CONTINUOUS
 10
9.9285739004
 20
7.8957906207
 11
9.8457802669
 21
7.9015323786
  0
LINE
  5
2C9
100
AcDbEntity
  8
0
100
AcDbLine
 62
4
  6
CONTINUOUS
 10
10.4529336573
 20
7.859426148
 11
10.5522860396
 21
7.8525360369
  0
LINE
  5
2CA
100
AcDbEntity
  8
0
100
AcDbLine
 62
4
  6
CONTINUOUS
 10
11.3857420953
 20
7.7947356631
 11
11.4850944223
 21
7.7878455558
  0
LINE
  5
2CB
100
AcDbEntity
  8
0
100
AcDbLine
 62
4
  6
CONTINUOUS
 10
10.07760246
 20
7.9516903742
 11
10.1659156764
 21
7.9455658318
  0
LINE
  5
2CC
100
AcDbEntity
  8
0
100
AcDbLine
 62
4
  6
CONTINUOUS
 10
9.5918797302
 20
9.1179924255
 11
9.60843846
 21
9.1002853439
  0
LINE
  5
2CD
100
AcDbEntity
  8
0
100
AcDbLine
 62
4
  6
CONTINUOUS
 10
11.3004645055
 20
6.0697104646
 11
11.416375609
 21
5.8298497954
  0
LINE
  5
2CE
100
AcDbEntity
  8
0
100
AcDbLine
 62
4
  6
CONTINUOUS
 10
9.9561717617
 20
9.3079921643
 11
10.0720828651
 21
9.0681314952
  0
LINE
  5
2CF
100
AcDbEntity
  8
0
100
AcDbLine
 62
4
  6
CONTINUOUS
 10
10.4198161754
 20
9.1930446678
 11
10.4198161754
 21
9.0440161082
  0
LINE
  5
2D0
100
AcDbEntity
  8
0
100
AcDbLine
 62
4
  6
CONTINUOUS
 10
10.4529336573
 20
7.859426148
 11
10.4529336573
 21
8.0912483549
  0
LINE
  5
2D1
100
AcDbEntity
  8
0
100
AcDbLine
 62
4
  6
CONTINUOUS
 10
10.6295601058
 20
9.046029047
 11
10.6295601058
 21
9.1784988768
  0
LINE
  5
2D2
100
AcDbEntity
  8
0
100
AcDbLine
 62
4
  6
CONTINUOUS
 10
10.6350796662
 20
8.4892729729
 11
10.6350796662
 21
8.5886253413
  0
LINE
  5
2D3
100
AcDbEntity
  8
0
100
AcDbLine
 62
7
  6
CONTINUOUS
 10
10.6444669575
 20
5.7293938196
 11
10.6444669575
 21
4.8881953681
  0
LINE
  5
2D4
100
AcDbEntity
  8
0
100
AcDbLine
 62
7
  6
CONTINUOUS
 10
10.6751254304
 20
5.6997800594
 11
10.6751254304
 21
4.8585816079
  0
LINE
  5
2D5
100
AcDbEntity
  8
0
100
AcDbLine
 62
4
  6
CONTINUOUS
 10
10.4363749154
 20
8.3705833558
 11
10.5688447539
 21
8.5932187481
  0
LINE
  5
2D6
100
AcDbEntity
  8
0
100
AcDbLine
 62
4
  6
CONTINUOUS
 10
9.9616913565
 20
7.9266113769
 11
9.9285739004
 21
7.8957906207
  0
LINE
  5
2D7
100
AcDbEntity
  8
0
100
AcDbLine
 62
4
  6
CONTINUOUS
 10
10.9441759738
 20
9.0738865519
 11
10.9772934161
 21
9.0881485775
  0
LINE
  5
2D8
100
AcDbEntity
  8
0
100
AcDbLine
 62
4
  6
CONTINUOUS
 10
11.45197698
 20
7.9226120967
 11
11.3857420953
 21
7.9272055015
  0
LINE
  5
2D9
100
AcDbEntity
  8
0
100
AcDbLine
 62
4
  6
CONTINUOUS
 10
10.5191685972
 20
7.9873025777
 11
10.4529336573
 21
7.9918959864
  0
LINE
  5
2DA
100
AcDbEntity
  8
0
100
AcDbLine
 62
7
  6
CONTINUOUS
 10
13.4795194167
 20
7.8585960401
 11
13.392108552
 21
7.8646580042
  0
LINE
  5
2DB
100
AcDbEntity
  8
0
100
AcDbLine
 62
4
  6
CONTINUOUS
 10
9.8457802669
 20
8.1333545855
 11
9.9285739004
 21
8.1276128275
  0
LINE
  5
2DC
100
AcDbEntity
  8
0
100
AcDbLine
 62
4
  6
CONTINUOUS
 10
10.2542288928
 20
8.1050285771
 11
10.3866987174
 21
8.0958417636
  0
LINE
  5
2DD
100
AcDbEntity
  8
0
100
AcDbLine
 62
4
  6
CONTINUOUS
 10
10.4529336573
 20
8.0912483549
 11
10.5522860396
 21
8.0843582438
  0
LINE
  5
2DE
100
AcDbEntity
  8
0
100
AcDbLine
 62
4
  6
CONTINUOUS
 10
10.8337844652
 20
8.0648362616
 11
10.9000193499
 21
8.0602428568
  0
LINE
  5
2DF
100
AcDbEntity
  8
0
100
AcDbLine
 62
4
  6
CONTINUOUS
 10
11.0269695639
 20
8.0514388295
 11
11.0766457827
 21
8.0479937721
  0
LINE
  5
2E0
100
AcDbEntity
  8
0
100
AcDbLine
 62
4
  6
CONTINUOUS
 10
11.1759981096
 20
8.0411036648
 11
11.2587917707
 21
8.0353619049
  0
LINE
  5
2E1
100
AcDbEntity
  8
0
100
AcDbLine
 62
4
  6
CONTINUOUS
 10
11.3857420953
 20
8.02655787
 11
11.4850944223
 21
8.0196677627
  0
LINE
  5
2E2
100
AcDbEntity
  8
0
100
AcDbLine
 62
4
  6
CONTINUOUS
 10
9.7077908336
 20
9.1596301526
 11
9.5918797302
 21
9.2670209902
  0
LINE
  5
2E3
100
AcDbEntity
  8
0
100
AcDbLine
 62
4
  6
CONTINUOUS
 10
10.8337844652
 20
7.8330140548
 11
10.8006670229
 21
7.8684282168
  0
LINE
  5
2E4
100
AcDbEntity
  8
0
100
AcDbLine
 62
4
  6
CONTINUOUS
 10
9.7740257459
 20
9.1219192862
 11
9.8071432021
 21
9.0865051232
  0
LINE
  5
2E5
100
AcDbEntity
  8
0
100
AcDbLine
 62
4
  6
CONTINUOUS
 10
11.0269695639
 20
7.8196166227
 11
10.9938521216
 21
7.8550307847
  0
LINE
  5
2E6
100
AcDbEntity
  8
0
100
AcDbLine
 62
4
  6
CONTINUOUS
 10
9.6912321056
 20
9.3263657919
 11
9.7077908336
 21
9.3086587052
  0
LINE
  5
2E7
100
AcDbEntity
  8
0
100
AcDbLine
 62
4
  6
CONTINUOUS
 10
10.4363749154
 20
8.6024055626
 11
10.5688447539
 21
8.3613965413
  0
LINE
  5
2E8
100
AcDbEntity
  8
0
100
AcDbLine
 62
4
  6
CONTINUOUS
 10
10.4860511153
 20
9.2050099941
 11
10.5357273341
 21
9.035977642
  0
LINE
  5
2E9
100
AcDbEntity
  8
0
100
AcDbLine
 62
4
  6
CONTINUOUS
 10
11.0541534107
 20
5.9129255419
 11
11.0396645228
 21
5.9718859014
  0
LINE
  5
2EA
100
AcDbEntity
  8
0
100
AcDbLine
 62
4
  6
CONTINUOUS
 10
10.7289124328
 20
9.2544024168
 11
10.7289124328
 21
9.0225802099
  0
LINE
  5
2EB
100
AcDbEntity
  8
0
100
AcDbLine
 62
4
  6
CONTINUOUS
 10
10.7344320346
 20
8.3830304839
 11
10.7344320346
 21
8.4492653997
  0
LINE
  5
2EC
100
AcDbEntity
  8
0
100
AcDbLine
 62
4
  6
CONTINUOUS
 10
10.795147428
 20
9.0179867974
 11
10.795147428
 21
9.183574092
  0
LINE
  5
2ED
100
AcDbEntity
  8
0
100
AcDbLine
 62
4
  6
CONTINUOUS
 10
10.8006669469
 20
8.3453196176
 11
10.8006669469
 21
8.5771418244
  0
LINE
  5
2EE
100
AcDbEntity
  8
0
100
AcDbLine
 62
4
  6
CONTINUOUS
 10
10.8006670229
 20
7.8684282168
 11
10.8006670229
 21
8.0340155079
  0
LINE
  5
2EF
100
AcDbEntity
  8
0
100
AcDbLine
 62
4
  6
CONTINUOUS
 10
10.8724214233
 20
9.1616563872
 11
10.8724214233
 21
9.1285389311
  0
LINE
  5
2F0
100
AcDbEntity
  8
0
100
AcDbLine
 62
4
  6
CONTINUOUS
 10
10.9165780503
 20
8.5691033621
 11
10.9165780503
 21
8.3372811552
  0
LINE
  5
2F1
100
AcDbEntity
  8
0
100
AcDbLine
 62
4
  6
CONTINUOUS
 10
10.9441759738
 20
9.0242103625
 11
10.9441759738
 21
9.0738865519
  0
LINE
  5
2F2
100
AcDbEntity
  8
0
100
AcDbLine
 62
4
  6
CONTINUOUS
 10
10.9938521216
 20
7.8550307847
 11
10.9938521216
 21
8.0206180758
  0
LINE
  5
2F3
100
AcDbEntity
  8
0
100
AcDbLine
 62
4
  6
CONTINUOUS
 10
11.5126922698
 20
9.1172534532
 11
11.5292509357
 21
9.1326638408
  0
LINE
  5
2F4
100
AcDbEntity
  8
0
100
AcDbLine
 62
4
  6
CONTINUOUS
 10
10.7013145923
 20
8.3522097268
 11
10.7344320346
 21
8.3830304839
  0
LINE
  5
2F5
100
AcDbEntity
  8
0
100
AcDbLine
 62
4
  6
CONTINUOUS
 10
11.6617209261
 20
9.1069182808
 11
11.678279592
 21
9.1223286684
  0
LINE
  5
2F6
100
AcDbEntity
  8
0
100
AcDbLine
 62
4
  6
CONTINUOUS
 10
12.7425919376
 20
9.8140836809
 11
12.7715697134
 21
9.831392578
  0
LINE
  5
2F7
100
AcDbEntity
  8
0
100
AcDbLine
 62
4
  6
CONTINUOUS
 10
12.8295252652
 20
9.730780756
 11
12.7715697134
 21
9.696162955
  0
LINE
  5
2F8
100
AcDbEntity
  8
0
100
AcDbLine
 62
4
  6
CONTINUOUS
 10
9.8016236518
 20
8.0481036408
 11
9.7133104285
 21
8.0100715685
  0
LINE
  5
2F9
100
AcDbEntity
  8
0
100
AcDbLine
 62
4
  6
CONTINUOUS
 10
10.6350796662
 20
8.3568031345
 11
10.7013145923
 21
8.3522097268
  0
LINE
  5
2FA
100
AcDbEntity
  8
0
100
AcDbLine
 62
4
  6
CONTINUOUS
 10
10.7013145923
 20
8.4846795652
 11
10.6350796662
 21
8.4892729729
  0
LINE
  5
2FB
100
AcDbEntity
  8
0
100
AcDbLine
 62
4
  6
CONTINUOUS
 10
10.8006669469
 20
8.477789456
 11
10.9165780503
 21
8.4697509937
  0
LINE
  5
2FC
100
AcDbEntity
  8
0
100
AcDbLine
 62
4
  6
CONTINUOUS
 10
11.551329307
 20
7.9267611414
 11
11.6396425234
 21
7.876479984
  0
LINE
  5
2FD
100
AcDbEntity
  8
0
100
AcDbLine
 62
4
  6
CONTINUOUS
 10
11.0766457827
 20
8.0479937721
 11
11.109763225
 21
8.0125796135
  0
LINE
  5
2FE
100
AcDbEntity
  8
0
100
AcDbLine
 62
4
  6
CONTINUOUS
 10
10.7344320346
 20
8.4492653997
 11
10.7013145923
 21
8.4846795652
  0
LINE
  5
2FF
100
AcDbEntity
  8
0
100
AcDbLine
 62
4
  6
CONTINUOUS
 10
11.2587917707
 20
8.0353619049
 11
11.2919092131
 21
7.9999477463
  0
LINE
  5
300
100
AcDbEntity
  8
0
100
AcDbLine
 62
4
  6
CONTINUOUS
 10
9.9520320327
 20
11.2826318343
 11
9.9375431448
 21
11.3222736778
  0
LINE
  5
301
100
AcDbEntity
  8
0
100
AcDbLine
 62
4
  6
CONTINUOUS
 10
11.6481978158
 20
5.9876395259
 11
11.6626867038
 21
5.9286791664
  0
LINE
  5
302
100
AcDbEntity
  8
0
100
AcDbLine
 62
4
  6
CONTINUOUS
 10
11.0435283008
 20
9.0007615254
 11
11.0435283008
 21
9.1332313638
  0
LINE
  5
303
100
AcDbEntity
  8
0
100
AcDbLine
 62
4
  6
CONTINUOUS
 10
11.1097631854
 20
9.1617554151
 11
11.1097631854
 21
9.0127268503
  0
LINE
  5
304
100
AcDbEntity
  8
0
100
AcDbLine
 62
4
  6
CONTINUOUS
 10
11.109763225
 20
8.0125796135
 11
11.109763225
 21
7.8469923224
  0
LINE
  5
305
100
AcDbEntity
  8
0
100
AcDbLine
 62
4
  6
CONTINUOUS
 10
11.1759981096
 20
7.8092814579
 11
11.1759981096
 21
8.0411036648
  0
LINE
  5
306
100
AcDbEntity
  8
0
100
AcDbLine
 62
4
  6
CONTINUOUS
 10
11.209115623
 20
8.9892780056
 11
11.209115623
 21
9.1548653001
  0
LINE
  5
307
100
AcDbEntity
  8
0
100
AcDbLine
 62
4
  6
CONTINUOUS
 10
11.2753505076
 20
9.0012433305
 11
11.2753505076
 21
9.2165068076
  0
LINE
  5
308
100
AcDbEntity
  8
0
100
AcDbLine
 62
4
  6
CONTINUOUS
 10
11.2919092131
 20
7.9999477463
 11
11.2919092131
 21
7.8343604552
  0
LINE
  5
309
100
AcDbEntity
  8
0
100
AcDbLine
 62
7
  6
CONTINUOUS
 10
11.2928680376
 20
5.5398967104
 11
11.2928680376
 21
4.6986982589
  0
LINE
  5
30A
100
AcDbEntity
  8
0
100
AcDbLine
 62
4
  6
CONTINUOUS
 10
11.4298986087
 20
9.2057888604
 11
11.4243790534
 21
9.1896129079
  0
LINE
  5
30B
100
AcDbEntity
  8
0
100
AcDbLine
 62
4
  6
CONTINUOUS
 10
11.7445144766
 20
8.952147969
 11
11.7610731425
 21
8.9675583514
  0
LINE
  5
30C
100
AcDbEntity
  8
0
100
AcDbLine
 62
4
  6
CONTINUOUS
 10
10.8006670229
 20
8.0340155079
 11
10.8337844652
 21
8.0648362616
  0
LINE
  5
30D
100
AcDbEntity
  8
0
100
AcDbLine
 62
4
  6
CONTINUOUS
 10
10.9938521216
 20
8.0206180758
 11
11.0269695639
 21
8.0514388295
  0
LINE
  5
30E
100
AcDbEntity
  8
0
100
AcDbLine
 62
4
  6
CONTINUOUS
 10
10.6350796662
 20
8.5886253413
 11
10.7344320346
 21
8.5817352312
  0
LINE
  5
30F
100
AcDbEntity
  8
0
100
AcDbLine
 62
4
  6
CONTINUOUS
 10
10.6626775481
 20
9.0271736148
 11
10.6295601058
 21
9.046029047
  0
LINE
  5
310
100
AcDbEntity
  8
0
100
AcDbLine
 62
4
  6
CONTINUOUS
 10
12.8005474893
 20
7.2445651983
 11
12.7715697134
 21
7.2658933317
  0
LINE
  5
311
100
AcDbEntity
  8
0
100
AcDbLine
 62
4
  6
CONTINUOUS
 10
12.8295252652
 20
7.4743777896
 11
12.858503041
 21
7.4530496613
  0
LINE
  5
312
100
AcDbEntity
  8
0
100
AcDbLine
 62
4
  6
CONTINUOUS
 10
10.4032574542
 20
9.210751754
 11
10.4198161754
 21
9.1930446678
  0
LINE
  5
313
100
AcDbEntity
  8
0
100
AcDbLine
 62
4
  6
CONTINUOUS
 10
10.8613823127
 20
9.1789806871
 11
10.8724214233
 21
9.1616563872
  0
LINE
  5
314
100
AcDbEntity
  8
0
100
AcDbLine
 62
4
  6
CONTINUOUS
 10
11.0435283008
 20
9.1332313638
 11
11.0269696349
 21
9.1674971673
  0
LINE
  5
315
100
AcDbEntity
  8
0
100
AcDbLine
 62
4
  6
CONTINUOUS
 10
10.0389653603
 20
11.4311511197
 11
10.0534542482
 21
11.3915092867
  0
LINE
  5
316
100
AcDbEntity
  8
0
100
AcDbLine
 62
4
  6
CONTINUOUS
 10
11.822064471
 20
6.0335373842
 11
11.8945089106
 21
5.7966911383
  0
LINE
  5
317
100
AcDbEntity
  8
0
100
AcDbLine
 62
4
  6
CONTINUOUS
 10
10.2273209033
 20
11.4567256575
 11
10.299765343
 21
11.2198794117
  0
LINE
  5
318
100
AcDbEntity
  8
0
100
AcDbLine
 62
4
  6
CONTINUOUS
 10
11.3857420953
 20
7.7947356631
 11
11.3857420953
 21
8.02655787
  0
LINE
  5
319
100
AcDbEntity
  8
0
100
AcDbLine
 62
7
  6
CONTINUOUS
 10
11.4072869284
 20
5.5319617334
 11
11.4072869284
 21
4.6907632819
  0
LINE
  5
31A
100
AcDbEntity
  8
0
100
AcDbLine
 62
4
  6
CONTINUOUS
 10
11.4243790534
 20
8.974349436
 11
11.4243790534
 21
9.1399367305
  0
LINE
  5
31B
100
AcDbEntity
  8
0
100
AcDbLine
 62
4
  6
CONTINUOUS
 10
11.4243790534
 20
9.1896129079
 11
11.4243790534
 21
9.2061716428
  0
LINE
  5
31C
100
AcDbEntity
  8
0
100
AcDbLine
 62
4
  6
CONTINUOUS
 10
11.5126922698
 20
8.9847836234
 11
11.5126922698
 21
9.1172534532
  0
LINE
  5
31D
100
AcDbEntity
  8
0
100
AcDbLine
 62
4
  6
CONTINUOUS
 10
11.5322867124
 20
5.8218113331
 11
11.5322867124
 21
6.05363354
  0
LINE
  5
31E
100
AcDbEntity
  8
0
100
AcDbLine
 62
4
  6
CONTINUOUS
 10
11.6617209261
 20
9.0572420966
 11
11.6617209261
 21
9.1069182808
  0
LINE
  5
31F
100
AcDbEntity
  8
0
100
AcDbLine
 62
4
  6
CONTINUOUS
 10
11.0396645228
 20
5.9718859014
 11
11.0541534107
 21
6.0288366453
  0
LINE
  5
320
100
AcDbEntity
  8
0
100
AcDbLine
 62
4
  6
CONTINUOUS
 10
12.7281030497
 20
9.7957699623
 11
12.7425919376
 21
9.8140836809
  0
LINE
  5
321
100
AcDbEntity
  8
0
100
AcDbLine
 62
4
  6
CONTINUOUS
 10
12.7715697134
 20
9.696162955
 11
12.7425919376
 21
9.6595355384
  0
LINE
  5
322
100
AcDbEntity
  8
0
100
AcDbLine
 62
4
  6
CONTINUOUS
 10
12.8440141531
 20
9.7490944747
 11
12.8295252652
 21
9.730780756
  0
LINE
  5
323
100
AcDbEntity
  8
0
100
AcDbLine
 62
4
  6
CONTINUOUS
 10
11.109763225
 20
7.8469923224
 11
11.0766457827
 21
7.8161715652
  0
LINE
  5
324
100
AcDbEntity
  8
0
100
AcDbLine
 62
4
  6
CONTINUOUS
 10
10.4860511153
 20
8.9842269358
 11
10.5191685577
 21
8.9819302334
  0
LINE
  5
325
100
AcDbEntity
  8
0
100
AcDbLine
 62
4
  6
CONTINUOUS
 10
11.5954860414
 20
8.962483126
 11
11.5292509357
 21
8.9670765462
  0
LINE
  5
326
100
AcDbEntity
  8
0
100
AcDbLine
 62
4
  6
CONTINUOUS
 10
11.3250267264
 20
8.9812395432
 11
11.2919092841
 21
8.9835362457
  0
LINE
  5
327
100
AcDbEntity
  8
0
100
AcDbLine
 62
4
  6
CONTINUOUS
 10
11.0435283008
 20
9.0007615254
 11
10.9772934161
 21
9.0053549302
  0
LINE
  5
328
100
AcDbEntity
  8
0
100
AcDbLine
 62
4
  6
CONTINUOUS
 10
10.7289124328
 20
9.0225802099
 11
10.6626775481
 21
9.0271736148
  0
LINE
  5
329
100
AcDbEntity
  8
0
100
AcDbLine
 62
4
  6
CONTINUOUS
 10
9.60843846
 20
9.1002853439
 11
9.6746733775
 21
9.0956919367
  0
LINE
  5
32A
100
AcDbEntity
  8
0
100
AcDbLine
 62
4
  6
CONTINUOUS
 10
9.8071432021
 20
9.0865051232
 11
9.856819407
 21
9.0830600667
  0
LINE
  5
32B
100
AcDbEntity
  8
0
100
AcDbLine
 62
4
  6
CONTINUOUS
 10
11.1263219619
 20
8.9950197655
 11
11.209115623
 21
8.9892780056
  0
LINE
  5
32C
100
AcDbEntity
  8
0
100
AcDbLine
 62
4
  6
CONTINUOUS
 10
11.678279592
 20
8.9567413738
 11
11.7445144766
 21
8.952147969
  0
LINE
  5
32D
100
AcDbEntity
  8
0
100
AcDbLine
 62
4
  6
CONTINUOUS
 10
10.9772934161
 20
9.0881485775
 11
11.0435283008
 21
9.0835551727
  0
LINE
  5
32E
100
AcDbEntity
  8
0
100
AcDbLine
 62
4
  6
CONTINUOUS
 10
11.0269696349
 20
9.1674971673
 11
10.9441759738
 21
9.1732389272
  0
LINE
  5
32F
100
AcDbEntity
  8
0
100
AcDbLine
 62
4
  6
CONTINUOUS
 10
10.3204637931
 20
9.2164935139
 11
10.4032574542
 21
9.210751754
  0
LINE
  5
330
100
AcDbEntity
  8
0
100
AcDbLine
 62
4
  6
CONTINUOUS
 10
10.6626775481
 20
9.1927609093
 11
10.7289124328
 21
9.1881675045
  0
LINE
  5
331
100
AcDbEntity
  8
0
100
AcDbLine
 62
4
  6
CONTINUOUS
 10
10.795147428
 20
9.183574092
 11
10.8613823127
 21
9.1789806871
  0
LINE
  5
332
100
AcDbEntity
  8
0
100
AcDbLine
 62
4
  6
CONTINUOUS
 10
11.5292509357
 20
9.1326638408
 11
11.5954860414
 21
9.1280704206
  0
LINE
  5
333
100
AcDbEntity
  8
0
100
AcDbLine
 62
4
  6
CONTINUOUS
 10
11.678279592
 20
9.1223286684
 11
11.7445144766
 21
9.1177352635
  0
LINE
  5
334
100
AcDbEntity
  8
0
100
AcDbLine
 62
4
  6
CONTINUOUS
 10
10.9772934161
 20
9.0053549302
 11
10.9441759738
 21
9.0242103625
  0
LINE
  5
335
100
AcDbEntity
  8
0
100
AcDbLine
 62
4
  6
CONTINUOUS
 10
11.1097631854
 20
9.0127268503
 11
11.1263219619
 21
8.9950197655
  0
LINE
  5
336
100
AcDbEntity
  8
0
100
AcDbLine
 62
4
  6
CONTINUOUS
 10
11.2919092841
 20
8.9835362457
 11
11.2753505076
 21
9.0012433305
  0
LINE
  5
337
100
AcDbEntity
  8
0
100
AcDbLine
 62
4
  6
CONTINUOUS
 10
11.7610731425
 20
8.9675583514
 11
11.7610731425
 21
9.0172345408
  0
LINE
  5
338
100
AcDbEntity
  8
0
100
AcDbLine
 62
4
  6
CONTINUOUS
 10
11.2919092131
 20
7.8343604552
 11
11.2587917707
 21
7.803539698
  0
LINE
  5
339
100
AcDbEntity
  8
0
100
AcDbLine
 62
4
  6
CONTINUOUS
 10
11.6396425234
 20
7.876479984
 11
11.551329307
 21
7.8384479147
  0
LINE
  5
33A
100
AcDbEntity
  8
0
100
AcDbLine
 62
4
  6
CONTINUOUS
 10
9.6249971898
 20
9.3309591989
 11
9.6912321056
 21
9.3263657919
  0
LINE
  5
33B
100
AcDbEntity
  8
0
100
AcDbLine
 62
4
  6
CONTINUOUS
 10
11.4243790534
 20
9.2061716428
 11
11.4298986087
 21
9.2057888604
  0
LINE
  5
33C
100
AcDbEntity
  8
0
100
AcDbLine
 62
4
  6
CONTINUOUS
 10
11.7445144766
 20
9.0294220402
 11
11.678279592
 21
9.0450545971
  0
LINE
  5
33D
100
AcDbEntity
  8
0
100
AcDbLine
 62
4
  6
CONTINUOUS
 10
11.678279592
 20
9.0450545971
 11
11.6617209261
 21
9.0572420966
  0
LINE
  5
33E
100
AcDbEntity
  8
0
100
AcDbLine
 62
4
  6
CONTINUOUS
 10
11.7610731425
 20
9.0172345408
 11
11.7445144766
 21
9.0294220402
  0
LINE
  5
33F
100
AcDbEntity
  8
0
100
AcDbLine
 62
4
  6
CONTINUOUS
 10
11.5292509357
 20
8.9670765462
 11
11.5126922698
 21
8.9847836234
  0
LINE
  5
340
100
AcDbEntity
  8
0
100
AcDbLine
 62
4
  6
CONTINUOUS
 10
11.6617209261
 20
8.974448451
 11
11.678279592
 21
8.9567413738
  0
LINE
  5
341
100
AcDbEntity
  8
0
100
AcDbLine
 62
4
  6
CONTINUOUS
 10
11.7445144766
 20
9.1177352635
 11
11.7610731425
 21
9.1000281812
  0
LINE
  5
342
100
AcDbEntity
  8
0
100
AcDbLine
 62
4
  6
CONTINUOUS
 10
12.7715697134
 20
7.2658933317
 11
12.7425919376
 21
7.3065399812
  0
LINE
  5
343
100
AcDbEntity
  8
0
100
AcDbLine
 62
4
  6
CONTINUOUS
 10
9.9665209206
 20
11.2623085087
 11
9.9520320327
 21
11.2826318343
  0
LINE
  5
344
100
AcDbEntity
  8
0
100
AcDbLine
 62
4
  6
CONTINUOUS
 10
12.858503041
 20
7.4530496613
 11
12.8729919289
 21
7.4327263271
  0
LINE
  5
345
100
AcDbEntity
  8
0
100
AcDbLine
 62
4
  6
CONTINUOUS
 10
10.0244764723
 20
11.451474454
 11
10.0389653603
 21
11.4311511197
  0
LINE
  5
346
100
AcDbEntity
  8
0
100
AcDbLine
 62
7
  6
CONTINUOUS
 10
12.2511387863
 20
5.590483162
 11
12.2511387863
 21
4.7492847105
  0
LINE
  5
347
100
AcDbEntity
  8
0
100
AcDbLine
 62
4
  6
CONTINUOUS
 10
11.6626867038
 20
5.9286791664
 11
11.6481978158
 21
5.8717284225
  0
LINE
  5
348
100
AcDbEntity
  8
0
100
AcDbLine
 62
4
  6
CONTINUOUS
 10
12.7281030497
 20
9.6025847945
 11
12.8440141531
 21
9.5945463322
  0
LINE
  5
349
100
AcDbEntity
  8
0
100
AcDbLine
 62
7
  6
CONTINUOUS
 10
13.3501100009
 20
7.4547573514
 11
13.4148147088
 21
7.3778379113
  0
LINE
  5
34A
100
AcDbEntity
  8
0
100
AcDbLine
 62
7
  6
CONTINUOUS
 10
12.3348992042
 20
5.6121619451
 11
12.3348992042
 21
4.7709634936
  0
LINE
  5
34B
100
AcDbEntity
  8
0
100
AcDbLine
 62
7
  6
CONTINUOUS
 10
12.5610084549
 20
5.6306944304
 11
12.5610084549
 21
4.9893682713
  0
LINE
  5
34C
100
AcDbEntity
  8
0
100
AcDbLine
 62
4
  6
CONTINUOUS
 10
12.7425919376
 20
9.6595355384
 11
12.7281030497
 21
9.6025847945
  0
LINE
  5
34D
100
AcDbEntity
  8
0
100
AcDbLine
 62
4
  6
CONTINUOUS
 10
11.7496200313
 20
5.8067392162
 11
11.822064471
 21
6.0335373842
  0
LINE
  5
34E
100
AcDbEntity
  8
0
100
AcDbLine
 62
4
  6
CONTINUOUS
 10
11.3004645055
 20
5.8378882578
 11
11.416375609
 21
6.0616720023
  0
LINE
  5
34F
100
AcDbEntity
  8
0
100
AcDbLine
 62
4
  6
CONTINUOUS
 10
11.0541534107
 20
6.0288366453
 11
11.0831311866
 21
6.0654640688
  0
LINE
  5
350
100
AcDbEntity
  8
0
100
AcDbLine
 62
4
  6
CONTINUOUS
 10
12.7715697134
 20
9.831392578
 11
12.8005474893
 21
9.8293829624
  0
LINE
  5
351
100
AcDbEntity
  8
0
100
AcDbLine
 62
4
  6
CONTINUOUS
 10
9.9954986965
 20
11.2409803753
 11
9.9665209206
 21
11.2623085087
  0
LINE
  5
352
100
AcDbEntity
  8
0
100
AcDbLine
 62
7
  6
CONTINUOUS
 10
13.4795194167
 20
7.8585960401
 11
13.4148147088
 21
7.9355154802
  0
LINE
  5
353
100
AcDbEntity
  8
0
100
AcDbLine
 62
4
  6
CONTINUOUS
 10
12.7425919376
 20
7.3065399812
 11
12.7281030497
 21
7.3655003407
  0
LINE
  5
354
100
AcDbEntity
  8
0
100
AcDbLine
 62
4
  6
CONTINUOUS
 10
12.8440141531
 20
9.7877315
 11
12.8440141531
 21
9.7490944747
  0
LINE
  5
355
100
AcDbEntity
  8
0
100
AcDbLine
 62
4
  6
CONTINUOUS
 10
12.8729919289
 20
7.3554522628
 11
12.8729919289
 21
7.2781781949
  0
LINE
  5
356
100
AcDbEntity
  8
0
100
AcDbLine
 62
4
  6
CONTINUOUS
 10
11.1845534021
 20
5.8845637557
 11
11.1700645142
 21
5.8662500457
  0
LINE
  5
357
100
AcDbEntity
  8
0
100
AcDbLine
 62
4
  6
CONTINUOUS
 10
12.7715697134
 20
7.4590785081
 11
12.8005474893
 21
7.4763874051
  0
LINE
  5
358
100
AcDbEntity
  8
0
100
AcDbLine
 62
4
  6
CONTINUOUS
 10
9.9954986965
 20
11.4728025822
 11
10.0244764723
 21
11.451474454
  0
LINE
  5
359
100
AcDbEntity
  8
02___PRT_ALL_AXES
100
AcDbLine
 62
7
  6
CONTINUOUS
 10
13.3884531355
 20
8.1339952872
 11
13.4669142557
 21
8.0375232394
  0
LINE
  5
35A
100
AcDbEntity
  8
0
100
AcDbLine
 62
7
  6
CONTINUOUS
 10
13.0912911694
 20
5.5939191992
 11
13.0912911694
 21
11.3894745003
  0
LINE
  5
35B
100
AcDbEntity
  8
0
100
AcDbLine
 62
4
  6
CONTINUOUS
 10
12.7281030497
 20
7.3655003407
 11
12.7425919376
 21
7.4224510846
  0
LINE
  5
35C
100
AcDbEntity
  8
0
100
AcDbLine
 62
4
  6
CONTINUOUS
 10
12.7425919376
 20
7.4224510846
 11
12.7715697134
 21
7.4590785081
  0
LINE
  5
35D
100
AcDbEntity
  8
0
100
AcDbLine
 62
4
  6
CONTINUOUS
 10
11.6481978158
 20
5.8717284225
 11
11.61922004
 21
5.8351010042
  0
LINE
  5
35E
100
AcDbEntity
  8
0
100
AcDbLine
 62
4
  6
CONTINUOUS
 10
12.8729919289
 20
7.2781781949
 11
12.858503041
 21
7.2598644849
  0
LINE
  5
35F
100
AcDbEntity
  8
0
100
AcDbLine
 62
4
  6
CONTINUOUS
 10
12.858503041
 20
7.2598644849
 11
12.8295252652
 21
7.2425555827
  0
LINE
  5
360
100
AcDbEntity
  8
0
100
AcDbLine
 62
4
  6
CONTINUOUS
 10
11.0831311866
 20
6.0654640688
 11
11.1121089625
 21
6.0827729659
  0
LINE
  5
361
100
AcDbEntity
  8
0
100
AcDbLine
 62
4
  6
CONTINUOUS
 10
12.8005474893
 20
9.8293829624
 11
12.8295252652
 21
9.8080548342
  0
LINE
  5
362
100
AcDbEntity
  8
0
100
AcDbLine
 62
7
  6
CONTINUOUS
 10
13.3501100009
 20
7.7335961359
 11
13.3501100009
 21
7.4547573514
  0
LINE
  5
363
100
AcDbEntity
  8
0
100
AcDbLine
 62
7
  6
CONTINUOUS
 10
13.4795194167
 20
7.5797572557
 11
13.4795194167
 21
7.8585960401
  0
LINE
  5
364
100
AcDbEntity
  8
0
100
AcDbLine
 62
7
  6
CONTINUOUS
 10
13.4148147088
 20
7.9355154802
 11
13.3501100009
 21
7.7335961359
  0
LINE
  5
365
100
AcDbEntity
  8
02___PRT_ALL_AXES
100
AcDbLine
 62
7
  6
CONTINUOUS
 10
13.4138393702
 20
7.2722812151
 11
13.4148147088
 21
7.27320412
  0
LINE
  5
366
100
AcDbEntity
  8
02___PRT_ALL_AXES
100
AcDbLine
 62
7
  6
CONTINUOUS
 10
13.3228180605
 20
7.1875662749
 11
13.4138447552
 21
7.2722843028
  0
LINE
  5
367
100
AcDbEntity
  8
0
100
AcDbLine
 62
4
  6
CONTINUOUS
 10
11.1700645142
 20
5.8662500457
 11
11.1410867383
 21
5.8489411435
  0
LINE
  5
368
100
AcDbEntity
  8
0
100
AcDbLine
 62
4
  6
CONTINUOUS
 10
12.8295252652
 20
9.8080548342
 11
12.8440141531
 21
9.7877315
  0
LINE
  5
369
100
AcDbEntity
  8
0
100
AcDbLine
 62
7
  6
CONTINUOUS
 10
13.7383382482
 20
6.2189187204
 11
13.7383382482
 21
12.0144740216
  0
LINE
  5
36A
100
AcDbEntity
  8
0
100
AcDbLine
 62
7
  6
CONTINUOUS
 10
13.4148147088
 20
7.3778379113
 11
13.4795194167
 21
7.5797572557
  0
LINE
  5
36B
100
AcDbEntity
  8
0
100
AcDbLine
 62
4
  6
CONTINUOUS
 10
11.61922004
 20
5.8351010042
 11
11.5902422641
 21
5.8177921019
  0
LINE
  5
36C
100
AcDbEntity
  8
0
100
AcDbLine
 62
4
  6
CONTINUOUS
 10
10.1838542395
 20
11.3051919453
 11
10.2707875671
 21
11.2991630986
  0
LINE
  5
36D
100
AcDbEntity
  8
0
100
AcDbLine
 62
4
  6
CONTINUOUS
 10
9.488387619
 20
11.3920597514
 11
9.5753209465
 21
11.3860309047
  0
LINE
  5
36E
100
AcDbEntity
  8
0
100
AcDbLine
 62
4
  6
CONTINUOUS
 10
9.2275876362
 20
11.5260573951
 11
9.3724765155
 21
11.5160093172
  0
LINE
  5
36F
100
AcDbEntity
  8
0
100
AcDbLine
 62
7
  6
CONTINUOUS
 10
13.0912911694
 20
11.3894745003
 11
8.2616617518
 21
11.724410438
  0
LINE
  5
370
100
AcDbEntity
  8
0
100
AcDbLine
 62
7
  6
CONTINUOUS
 10
13.7383382482
 20
6.2189187204
 11
13.0912911694
 21
5.5939191992
  0
LINE
  5
371
100
AcDbEntity
  8
0
100
AcDbLine
 62
7
  6
CONTINUOUS
 10
13.7383382482
 20
12.0144740216
 11
8.9087088306
 21
12.3494099593
  0
LINE
  5
372
100
AcDbEntity
  8
0
100
AcDbLine
 62
7
  6
CONTINUOUS
 10
12.3971161258
 20
4.7857808867
 11
12.3645103817
 21
4.7696742735
  0
ARC
  5
373
100
AcDbEntity
  8
0
100
AcDbCircle
 62
7
  6
CONTINUOUS
 10
11.5924626739
 20
8.2003217149
 40
3.5144402757
100
AcDbArc
 50
266.0376720962
 51
266.9796885983
  0
ARC
  5
374
100
AcDbEntity
  8
0
100
AcDbCircle
 62
7
  6
CONTINUOUS
 10
11.5924626739
 20
9.0415201663
 40
3.5144402757
100
AcDbArc
 50
266.0376720962
 51
266.9796885983
  0
ARC
  5
375
100
AcDbEntity
  8
0
100
AcDbCircle
 62
7
  6
CONTINUOUS
 10
11.5820950746
 20
8.0482364586
 40
3.3620021461
100
AcDbArc
 50
265.0648462661
 51
266.0348369886
  0
ARC
  5
376
100
AcDbEntity
  8
0
100
AcDbCircle
 62
7
  6
CONTINUOUS
 10
11.5798997236
 20
8.8612266305
 40
3.3337095895
100
AcDbArc
 50
265.0607301035
 51
266.0389531511
  0
ARC
  5
377
100
AcDbEntity
  8
0
100
AcDbCircle
 62
7
  6
CONTINUOUS
 10
12.2529528745
 20
5.1188171811
 40
1.7204739976
100
AcDbArc
 50
158.0101016106
 51
159.2133818387
  0
ARC
  5
378
100
AcDbEntity
  8
0
100
AcDbCircle
 62
7
  6
CONTINUOUS
 10
13.8824321932
 20
5.0254580894
 40
1.6550165456
100
AcDbArc
 50
157.9863052277
 51
159.2371781952
  0
ARC
  5
379
100
AcDbEntity
  8
0
100
AcDbCircle
 62
7
  6
CONTINUOUS
 10
11.3049344781
 20
5.8334766947
 40
1.159267388
100
AcDbArc
 50
243.6664579456
 51
246.4394383889
  0
SPLINE
  5
37A
100
AcDbEntity
  8
02___PRT_ALL_AXES
100
AcDbSpline
 62
7
  6
CONTINUOUS
 70
0
 71
3
 72
55
 73
51
 74
0
 42
0.0000001
 43
0.0000001
 44
0.0000000001
 40
0.0
 40
0.0
 40
0.0
 40
0.0
 40
0.0075212641
 40
0.0156252066
 40
0.0243323335
 40
0.0336564158
 40
0.0436049429
 40
0.0541792978
 40
0.0653775025
 40
0.0771946798
 40
0.0896217249
 40
0.1026472653
 40
0.1162585677
 40
0.1304401646
 40
0.1451743719
 40
0.1604427627
 40
0.1762254472
 40
0.1925002644
 40
0.2264335727
 40
0.2620485549
 40
0.2991345481
 40
0.3374675385
 40
0.3768140243
 40
0.4169312081
 40
0.4575707933
 40
0.4984799313
 40
0.5394038204
 40
0.5800874181
 40
0.6202776854
 40
0.6597255466
 40
0.6981875613
 40
0.7354291178
 40
0.7712246739
 40
0.8053624147
 40
0.821747521
 40
0.8376457277
 40
0.8530346819
 40
0.8678937351
 40
0.8822043779
 40
0.8959488691
 40
0.9091108822
 40
0.921677095
 40
0.9336357952
 40
0.9449770044
 40
0.9556950747
 40
0.9657881105
 40
0.9752572138
 40
0.9841076004
 40
0.9923496519
 40
1.0
 40
1.0
 40
1.0
 40
1.0
 10
13.4669170753
 20
8.0375197286
 30
0.0
 10
13.4681674611
 20
8.0359821981
 30
0.0
 10
13.4706309659
 20
8.0326775785
 30
0.0
 10
13.4740976535
 20
8.0272794585
 30
0.0
 10
13.4774657076
 20
8.0212686992
 30
0.0
 10
13.4807293486
 20
8.014654794
 30
0.0
 10
13.4838833979
 20
8.0074479333
 30
0.0
 10
13.4869233986
 20
7.9996600202
 30
0.0
 10
13.4898442565
 20
7.9913034959
 30
0.0
 10
13.4926406462
 20
7.982391735
 30
0.0
 10
13.4953084328
 20
7.9729395231
 30
0.0
 10
13.4978432564
 20
7.9629624403
 30
0.0
 10
13.5002404208
 20
7.952476732
 30
0.0
 10
13.5024960524
 20
7.9414997532
 30
0.0
 10
13.5046066931
 20
7.9300497889
 30
0.0
 10
13.5065685268
 20
7.9181456977
 30
0.0
 10
13.5083780697
 20
7.905807124
 30
0.0
 10
13.5106153735
 20
7.8885630265
 30
0.0
 10
13.5129919002
 20
7.8660709432
 30
0.0
 10
13.5151593121
 20
7.8380542928
 30
0.0
 10
13.516664766
 20
7.8088336026
 30
0.0
 10
13.5174986606
 20
7.7786027718
 30
0.0
 10
13.5176542158
 20
7.7475623243
 30
0.0
 10
13.517130813
 20
7.7159181974
 30
0.0
 10
13.5159314972
 20
7.6838805209
 30
0.0
 10
13.5140638893
 20
7.6516619773
 30
0.0
 10
13.5115409731
 20
7.6194764836
 30
0.0
 10
13.5083787453
 20
7.587537798
 30
0.0
 10
13.5045989535
 20
7.5560578979
 30
0.0
 10
13.500226592
 20
7.5252457956
 30
0.0
 10
13.4952906967
 20
7.4953059353
 30
0.0
 10
13.4898250472
 20
7.4664367972
 30
0.0
 10
13.4838653427
 20
7.4388300075
 30
0.0
 10
13.4784501659
 20
7.416736233
 30
0.0
 10
13.4738862457
 20
7.3998397843
 30
0.0
 10
13.4704125563
 20
7.3877678091
 30
0.0
 10
13.4668468281
 20
7.3761426134
 30
0.0
 10
13.4631948441
 20
7.3649834768
 30
0.0
 10
13.4594630706
 20
7.3543086656
 30
0.0
 10
13.4556576305
 20
7.3441358809
 30
0.0
 10
13.4517844382
 20
7.3344821433
 30
0.0
 10
13.4478504456
 20
7.3253631798
 30
0.0
 10
13.443862389
 20
7.3167939553
 30
0.0
 10
13.4398264252
 20
7.3087887535
 30
0.0
 10
13.4357491833
 20
7.3013603774
 30
0.0
 10
13.4316373322
 20
7.2945202735
 30
0.0
 10
13.4274969671
 20
7.2882796248
 30
0.0
 10
13.4233346059
 20
7.2826487981
 30
0.0
 10
13.4191585776
 20
7.2776373104
 30
0.0
 10
13.416264579
 20
7.2746045872
 30
0.0
 10
13.4148147088
 20
7.27320412
 30
0.0
  0
SPLINE
  5
37B
100
AcDbEntity
  8
02___PRT_ALL_AXES
100
AcDbSpline
 62
7
  6
CONTINUOUS
 70
0
 71
3
 72
74
 73
70
 74
0
 42
0.0000001
 43
0.0000001
 44
0.0000000001
 40
0.0
 40
0.0
 40
0.0
 40
0.0
 40
0.0086029208
 40
0.0180034319
 40
0.0282250707
 40
0.0392802598
 40
0.05117261
 40
0.0638994858
 40
0.077450928
 40
0.0918099714
 40
0.1069566056
 40
0.122866087
 40
0.1395100695
 40
0.1568584216
 40
0.1748769336
 40
0.1935292957
 40
0.2127777656
 40
0.2325813885
 40
0.2736834302
 40
0.3164810539
 40
0.3383994729
 40
0.3605992005
 40
0.4056440172
 40
0.4512137617
 40
0.4969000112
 40
0.5422927666
 40
0.5869854102
 40
0.6305796236
 40
0.6518440239
 40
0.6726906644
 40
0.6930736573
 40
0.7129493409
 40
0.7322754918
 40
0.7510108913
 40
0.7691175011
 40
0.7865587598
 40
0.8033000714
 40
0.8193108616
 40
0.8345623328
 40
0.8490292465
 40
0.8626912765
 40
0.8755310382
 40
0.8875373208
 40
0.898705654
 40
0.9090378607
 40
0.9138947264
 40
0.9185485088
 40
0.923002727
 40
0.9272618002
 40
0.9313312983
 40
0.935218424
 40
0.938931875
 40
0.9424819293
 40
0.9491378672
 40
0.9522786439
 40
0.9553175028
 40
0.9582753684
 40
0.9611750423
 40
0.9640408427
 40
0.9668980911
 40
0.9697724547
 40
0.9726890968
 40
0.9756720147
 40
0.9787435614
 40
0.9852270607
 40
0.9886769304
 40
0.9922819964
 40
0.9960532594
 40
1.0
 40
1.0
 40
1.0
 40
1.0
 10
13.4148147088
 20
8.0401492715
 30
0.0
 10
13.4130615041
 20
8.0384558057
 30
0.0
 10
13.4095657801
 20
8.0347304243
 30
0.0
 10
13.4045617401
 20
8.0284843406
 30
0.0
 10
13.3995822625
 20
8.0213532669
 30
0.0
 10
13.394640755
 20
8.0133543106
 30
0.0
 10
13.3897470532
 20
8.0045061541
 30
0.0
 10
13.3849127931
 20
7.9948284542
 30
0.0
 10
13.380149152
 20
7.9843434793
 30
0.0
 10
13.3754668654
 20
7.9730760106
 30
0.0
 10
13.3708780894
 20
7.9610524343
 30
0.0
 10
13.3663935795
 20
7.9483013983
 30
0.0
 10
13.3620237109
 20
7.9348532624
 30
0.0
 10
13.357779722
 20
7.9207398256
 30
0.0
 10
13.3536712589
 20
7.9059948538
 30
0.0
 10
13.3497081933
 20
7.8906535403
 30
0.0
 10
13.3459006122
 20
7.8747523893
 30
0.0
 10
13.340981605
 20
7.8525799219
 30
0.0
 10
13.3353071967
 20
7.8237450317
 30
0.0
 10
13.3303662102
 20
7.7941687011
 30
0.0
 10
13.3267957257
 20
7.7698017993
 30
0.0
 10
13.3234607998
 20
7.7447590346
 30
0.0
 10
13.3198529486
 20
7.7129950676
 30
0.0
 10
13.3164441985
 20
7.6745228923
 30
0.0
 10
13.3139686218
 20
7.6358805309
 30
0.0
 10
13.3124499842
 20
7.5974373669
 30
0.0
 10
13.3119025114
 20
7.5595609187
 30
0.0
 10
13.3122618761
 20
7.5285188945
 30
0.0
 10
13.3130513536
 20
7.5042475263
 30
0.0
 10
13.3138813561
 20
7.4865594272
 30
0.0
 10
13.3149526047
 20
7.4692784946
 30
0.0
 10
13.3162622438
 20
7.4524460158
 30
0.0
 10
13.3178068009
 20
7.4361022482
 30
0.0
 10
13.3195832043
 20
7.4202862731
 30
0.0
 10
13.3215865757
 20
7.4050358451
 30
0.0
 10
13.3238120435
 20
7.3903873622
 30
0.0
 10
13.3262548149
 20
7.3763758194
 30
0.0
 10
13.3289081957
 20
7.363034513
 30
0.0
 10
13.3317660823
 20
7.3503951762
 30
0.0
 10
13.3348219303
 20
7.3384878612
 30
0.0
 10
13.3380675123
 20
7.3273405197
 30
0.0
 10
13.3414957294
 20
7.3169794904
 30
0.0
 10
13.3450984381
 20
7.307428834
 30
0.0
 10
13.3488663727
 20
7.2987106502
 30
0.0
 10
13.3522032897
 20
7.2920239762
 30
0.0
 10
13.3549598457
 20
7.2871227757
 30
0.0
 10
13.3570203583
 20
7.2837437952
 30
0.0
 10
13.3591155254
 20
7.2805874843
 30
0.0
 10
13.3612442458
 20
7.2776558098
 30
0.0
 10
13.3634055425
 20
7.2749506535
 30
0.0
 10
13.365598036
 20
7.2724735579
 30
0.0
 10
13.3678208914
 20
7.2702255652
 30
0.0
 10
13.3707593701
 20
7.2675929414
 30
0.0
 10
13.3738200374
 20
7.2653450297
 30
0.0
 10
13.376990014
 20
7.2635553315
 30
0.0
 10
13.3793462734
 20
7.2624745137
 30
0.0
 10
13.3817251783
 20
7.2616305576
 30
0.0
 10
13.3841251958
 20
7.2610243607
 30
0.0
 10
13.3865444607
 20
7.2606568238
 30
0.0
 10
13.3889809898
 20
7.2605287447
 30
0.0
 10
13.3914326892
 20
7.2606400644
 30
0.0
 10
13.3938975614
 20
7.2609902849
 30
0.0
 10
13.3963739449
 20
7.2615789005
 30
0.0
 10
13.3997486943
 20
7.2627003367
 30
0.0
 10
13.4030881392
 20
7.2642979405
 30
0.0
 10
13.4063613045
 20
7.2663011497
 30
0.0
 10
13.4088715892
 20
7.2680679091
 30
0.0
 10
13.4113836543
 20
7.2700659639
 30
0.0
 10
13.4130206625
 20
7.2715176058
 30
0.0
 10
13.4138393655
 20
7.2722793342
 30
0.0
  0
SPLINE
  5
37C
100
AcDbEntity
  8
02___PRT_ALL_AXES
100
AcDbSpline
 62
7
  6
CONTINUOUS
 70
0
 71
3
 72
23
 73
19
 74
0
 42
0.0000001
 43
0.0000001
 44
0.0000000001
 40
0.0
 40
0.0
 40
0.0
 40
0.0
 40
0.0755591695
 40
0.1465931134
 40
0.213435575
 40
0.2765056656
 40
0.3363258123
 40
0.3935449239
 40
0.448916931
 40
0.5032772925
 40
0.5575126574
 40
0.6125143727
 40
0.6691313195
 40
0.7281371545
 40
0.7902104378
 40
0.8559193262
 40
0.9257252658
 40
1.0
 40
1.0
 40
1.0
 40
1.0
 10
13.4148147088
 20
8.0401492715
 30
0.0
 10
13.4159176131
 20
8.0412145953
 30
0.0
 10
13.4181224947
 20
8.0432158099
 30
0.0
 10
13.4215353508
 20
8.0458897082
 30
0.0
 10
13.4249448066
 20
8.0481364773
 30
0.0
 10
13.428347312
 20
8.0499520506
 30
0.0
 10
13.4317398816
 20
8.0513318341
 30
0.0
 10
13.4351185711
 20
8.052272717
 30
0.0
 10
13.4384790253
 20
8.0527720188
 30
0.0
 10
13.4418159396
 20
8.0528274095
 30
0.0
 10
13.4451229643
 20
8.0524374479
 30
0.0
 10
13.4483936746
 20
8.0516038355
 30
0.0
 10
13.4516226569
 20
8.0503297655
 30
0.0
 10
13.454805652
 20
8.0486187207
 30
0.0
 10
13.4579390466
 20
8.0464739123
 30
0.0
 10
13.4610203969
 20
8.0438994153
 30
0.0
 10
13.4640474771
 20
8.0408994299
 30
0.0
 10
13.4659660391
 20
8.0386891653
 30
0.0
 10
13.4669170753
 20
8.0375197286
 30
0.0
  0
SPLINE
  5
37D
100
AcDbEntity
  8
0
100
AcDbSpline
 62
7
  6
CONTINUOUS
 70
0
 71
3
 72
23
 73
19
 74
0
 42
0.0000001
 43
0.0000001
 44
0.0000000001
 40
0.0
 40
0.0
 40
0.0
 40
0.0
 40
0.0771591088
 40
0.153151303
 40
0.2277613898
 40
0.3008118635
 40
0.3721337705
 40
0.4415569994
 40
0.508915912
 40
0.5740562277
 40
0.6368307546
 40
0.6971028067
 40
0.7547446115
 40
0.8096420695
 40
0.8616928899
 40
0.9108117328
 40
0.9569295723
 40
1.0
 40
1.0
 40
1.0
 40
1.0
 10
11.3801535111
 20
4.6579760312
 30
0.0
 10
11.3659521248
 20
4.6589609007
 30
0.0
 10
11.3377775273
 20
4.6611154455
 30
0.0
 10
11.2959288279
 20
4.6649322709
 30
0.0
 10
11.2548963945
 20
4.6693028988
 30
0.0
 10
11.2147930613
 20
4.6742145034
 30
0.0
 10
11.1757238148
 20
4.6796545505
 30
0.0
 10
11.1377918812
 20
4.6856077891
 30
0.0
 10
11.1010987174
 20
4.6920590951
 30
0.0
 10
11.0657421361
 20
4.6989902477
 30
0.0
 10
11.0318160044
 20
4.7063834082
 30
0.0
 10
10.9994103416
 20
4.7142179026
 30
0.0
 10
10.9686111789
 20
4.7224734913
 30
0.0
 10
10.9394999598
 20
4.7311271685
 30
0.0
 10
10.9121536863
 20
4.7401564945
 30
0.0
 10
10.8866438756
 20
4.749536583
 30
0.0
 10
10.8630382397
 20
4.7592429503
 30
0.0
 10
10.8480962359
 20
4.7661517065
 30
0.0
 10
10.8409717548
 20
4.769670988
 30
0.0
  0
SPLINE
  5
37E
100
AcDbEntity
  8
0
100
AcDbSpline
 62
7
  6
CONTINUOUS
 70
0
 71
3
 72
11
 73
7
 74
0
 42
0.0000001
 43
0.0000001
 44
0.0000000001
 40
0.0
 40
0.0
 40
0.0
 40
0.0
 40
0.2706838103
 40
0.527147417
 40
0.7699959294
 40
1.0
 40
1.0
 40
1.0
 40
1.0
 10
10.6751254304
 20
4.8585816079
 30
0.0
 10
10.6720781823
 20
4.8609425782
 30
0.0
 10
10.6662513898
 20
4.8656821754
 30
0.0
 10
10.6581273886
 20
4.87305613
 30
0.0
 10
10.6508675235
 20
4.880492983
 30
0.0
 10
10.6464943634
 20
4.885622684
 30
0.0
 10
10.6444669575
 20
4.8881953681
 30
0.0
  0
SPLINE
  5
37F
100
AcDbEntity
  8
0
100
AcDbSpline
 62
7
  6
CONTINUOUS
 70
0
 71
3
 72
23
 73
19
 74
0
 42
0.0000001
 43
0.0000001
 44
0.0000000001
 40
0.0
 40
0.0
 40
0.0
 40
0.0
 40
0.080971538
 40
0.1598879644
 40
0.2366109899
 40
0.3110079654
 40
0.3829545068
 40
0.4523386671
 40
0.5190634269
 40
0.5830595163
 40
0.6442826854
 40
0.70272999
 40
0.758431804
 40
0.811469128
 40
0.8619597678
 40
0.9100718893
 40
0.9560057306
 40
1.0
 40
1.0
 40
1.0
 40
1.0
 10
12.5610084549
 20
4.9893682713
 30
0.0
 10
12.5577123273
 20
4.9830123706
 30
0.0
 10
12.5511141969
 20
4.9705080018
 30
0.0
 10
12.5410521516
 20
4.952163519
 30
0.0
 10
12.5309476572
 20
4.9345088766
 30
0.0
 10
12.5208025944
 20
4.9175919513
 30
0.0
 10
12.5106184703
 20
4.9014605741
 30
0.0
 10
12.5003990211
 20
4.8861604976
 30
0.0
 10
12.4901467026
 20
4.8717361608
 30
0.0
 10
12.479867366
 20
4.8582266404
 30
0.0
 10
12.4695642472
 20
4.845667764
 30
0.0
 10
12.4592449208
 20
4.8340864874
 30
0.0
 10
12.4489131496
 20
4.8235052676
 30
0.0
 10
12.4385774798
 20
4.8139347951
 30
0.0
 10
12.4282420516
 20
4.805381064
 30
0.0
 10
12.417915276
 20
4.7978368719
 30
0.0
 10
12.4076023419
 20
4.7912915262
 30
0.0
 10
12.4006020876
 20
4.787502916
 30
0.0
 10
12.3971143283
 20
4.7857799987
 30
0.0
  0
SPLINE
  5
380
100
AcDbEntity
  8
0
100
AcDbSpline
 62
7
  6
CONTINUOUS
 70
0
 71
3
 72
9
 73
5
 74
0
 42
0.0000001
 43
0.0000001
 44
0.0000000001
 40
0.0
 40
0.0
 40
0.0
 40
0.0
 40
0.4960083102
 40
1.0
 40
1.0
 40
1.0
 40
1.0
 10
10.7906881768
 20
4.7945100839
 30
0.0
 10
10.7710960855
 20
4.804188609
 30
0.0
 10
10.7321028406
 20
4.8247375867
 30
0.0
 10
10.6940720859
 20
4.8470038889
 30
0.0
 10
10.6751254304
 20
4.8585816079
 30
0.0
  0
SPLINE
  5
381
100
AcDbEntity
  8
0
100
AcDbSpline
 62
7
  6
CONTINUOUS
 70
0
 71
3
 72
30
 73
26
 74
0
 42
0.0000001
 43
0.0000001
 44
0.0000000001
 40
0.0
 40
0.0
 40
0.0
 40
0.0
 40
0.0193648516
 40
0.0398589858
 40
0.061469503
 40
0.0841791322
 40
0.1079647721
 40
0.1327996946
 40
0.1586534104
 40
0.1854915569
 40
0.2132776379
 40
0.2419713852
 40
0.2715308561
 40
0.3019113755
 40
0.333066161
 40
0.3649469428
 40
0.4306813696
 40
0.4986954582
 40
0.5685475621
 40
0.6397796875
 40
0.7119215783
 40
0.784496127
 40
0.8570190166
 40
0.9290157221
 40
1.0
 40
1.0
 40
1.0
 40
1.0
 10
12.3645059342
 20
4.7696721766
 30
0.0
 10
12.3587243879
 20
4.766816231
 30
0.0
 10
12.3467003639
 20
4.761186075
 30
0.0
 10
12.3278579914
 20
4.753179484
 30
0.0
 10
12.3077281717
 20
4.7453840795
 30
0.0
 10
12.2863463992
 20
4.7378148141
 30
0.0
 10
12.263750308
 20
4.7304843834
 30
0.0
 10
12.2399797077
 20
4.7234062132
 30
0.0
 10
12.2150766018
 20
4.7165930683
 30
0.0
 10
12.1890851022
 20
4.7100566296
 30
0.0
 10
12.1620512068
 20
4.7038093295
 30
0.0
 10
12.1340229241
 20
4.6978615911
 30
0.0
 10
12.1050499645
 20
4.6922246211
 30
0.0
 10
12.0751838128
 20
4.6869082717
 30
0.0
 10
12.0444774627
 20
4.681921879
 30
0.0
 10
12.0020553667
 20
4.6756621444
 30
0.0
 10
11.9473281224
 20
4.6687540753
 30
0.0
 10
11.8798612995
 20
4.6619867561
 30
0.0
 10
11.8104257013
 20
4.6567088189
 30
0.0
 10
11.7395148114
 20
4.6529583979
 30
0.0
 10
11.6676319649
 20
4.6507624588
 30
0.0
 10
11.5952886062
 20
4.6501370852
 30
0.0
 10
11.5229969954
 20
4.6510862698
 30
0.0
 10
11.451273171
 20
4.6536039246
 30
0.0
 10
11.4037345261
 20
4.6563406823
 30
0.0
 10
11.3801535111
 20
4.6579760312
 30
0.0
  0
SPLINE
  5
382
100
AcDbEntity
  8
0
100
AcDbSpline
 62
7
  6
CONTINUOUS
 70
0
 71
3
 72
28
 73
24
 74
0
 42
0.0000001
 43
0.0000001
 44
0.0000000001
 40
0.0
 40
0.0
 40
0.0
 40
0.0
 40
0.1268659191
 40
0.1901463679
 40
0.25330733
 40
0.2848402857
 40
0.3163394042
 40
0.3792283979
 40
0.4106187434
 40
0.4419710208
 40
0.4732845857
 40
0.5045591139
 40
0.5357943787
 40
0.5669902228
 40
0.5981469641
 40
0.629265076
 40
0.6913849328
 40
0.7223910769
 40
0.7533616145
 40
0.8151995131
 40
0.8769107384
 40
0.9385080012
 40
1.0
 40
1.0
 40
1.0
 40
1.0
 10
12.2511387863
 20
4.7492847105
 30
0.0
 10
12.2167399162
 20
4.738028859
 30
0.0
 10
12.1647828929
 20
4.7223288343
 30
0.0
 10
12.0948018514
 20
4.7042705237
 30
0.0
 10
12.0508419618
 20
4.6942992836
 30
0.0
 10
12.0155523384
 20
4.6871677345
 30
0.0
 10
11.9802278523
 20
4.6806251816
 30
0.0
 10
11.9447841323
 20
4.6749722103
 30
0.0
 10
11.909252893
 20
4.670255794
 30
0.0
 10
11.8825932418
 20
4.6671948404
 30
0.0
 10
11.855915954
 20
4.6646154656
 30
0.0
 10
11.8292296184
 20
4.6625217123
 30
0.0
 10
11.8025432695
 20
4.6609134403
 30
0.0
 10
11.7758656891
 20
4.659792034
 30
0.0
 10
11.7492055096
 20
4.6591546716
 30
0.0
 10
11.7137161013
 20
4.6589423404
 30
0.0
 10
11.6782694284
 20
4.6596763788
 30
0.0
 10
11.6429028246
 20
4.6613206954
 30
0.0
 10
11.6076489614
 20
4.6635546259
 30
0.0
 10
11.5637278411
 20
4.6674222355
 30
0.0
 10
11.5112716182
 20
4.6736797116
 30
0.0
 10
11.4591159061
 20
4.6814292142
 30
0.0
 10
11.4245263378
 20
4.6875133943
 30
0.0
 10
11.4072869284
 20
4.6907632819
 30
0.0
  0
SPLINE
  5
383
100
AcDbEntity
  8
0
100
AcDbSpline
 62
7
  6
CONTINUOUS
 70
0
 71
3
 72
27
 73
23
 74
0
 42
0.0000001
 43
0.0000001
 44
0.0000000001
 40
0.0
 40
0.0
 40
0.0
 40
0.0
 40
0.060919931
 40
0.1219725003
 40
0.1831790974
 40
0.2445697664
 40
0.306172584
 40
0.368014351
 40
0.3990356526
 40
0.4301246832
 40
0.4612823654
 40
0.4925098844
 40
0.5238069761
 40
0.5551729231
 40
0.5866065737
 40
0.6181055251
 40
0.681282706
 40
0.744686725
 40
0.8082887534
 40
0.8720589913
 40
0.9359723153
 40
1.0
 40
1.0
 40
1.0
 40
1.0
 10
12.2511387863
 20
5.590483162
 30
0.0
 10
12.2345083381
 20
5.5967575902
 30
0.0
 10
12.2009747633
 20
5.6087059733
 30
0.0
 10
12.1499143782
 20
5.6245524635
 30
0.0
 10
12.0980417596
 20
5.6380693136
 30
0.0
 10
12.0453886972
 20
5.6489707772
 30
0.0
 10
11.9920268835
 20
5.6569729731
 30
0.0
 10
11.9471078871
 20
5.6610037781
 30
0.0
 10
11.9109702455
 20
5.6625503249
 30
0.0
 10
11.8837541493
 20
5.6628512688
 30
0.0
 10
11.856482338
 20
5.662280201
 30
0.0
 10
11.8291824744
 20
5.6608258981
 30
0.0
 10
11.8018827754
 20
5.6584917411
 30
0.0
 10
11.7746121233
 20
5.6552783836
 30
0.0
 10
11.7473976159
 20
5.6512009272
 30
0.0
 10
11.7111894759
 20
5.6446268122
 30
0.0
 10
11.6661986169
 20
5.6343383432
 30
0.0
 10
11.6128629639
 20
5.6189313883
 30
0.0
 10
11.56023662
 20
5.6007272703
 30
0.0
 10
11.5083890696
 20
5.5800187395
 30
0.0
 10
11.4573507431
 20
5.557094761
 30
0.0
 10
11.4238886278
 20
5.5405279826
 30
0.0
 10
11.4072869284
 20
5.5319617334
 30
0.0
  0
SPLINE
  5
384
100
AcDbEntity
  8
0
100
AcDbSpline
 62
7
  6
CONTINUOUS
 70
0
 71
3
 72
15
 73
11
 74
0
 42
0.0000001
 43
0.0000001
 44
0.0000000001
 40
0.0
 40
0.0
 40
0.0
 40
0.0
 40
0.1200543119
 40
0.2408745055
 40
0.3627723785
 40
0.4861015007
 40
0.611221097
 40
0.7384475142
 40
0.8680059215
 40
1.0
 40
1.0
 40
1.0
 40
1.0
 10
11.2928680376
 20
4.6986982589
 30
0.0
 10
11.2744511817
 20
4.6969775382
 30
0.0
 10
11.2374050446
 20
4.6944489249
 30
0.0
 10
11.1814844165
 20
4.6937781187
 30
0.0
 10
11.1251176022
 20
4.6965936069
 30
0.0
 10
11.0683994325
 20
4.7032227255
 30
0.0
 10
11.0114641575
 20
4.71389958
 30
0.0
 10
10.954473882
 20
4.7287251812
 30
0.0
 10
10.8975984242
 20
4.7476466868
 30
0.0
 10
10.86019772
 20
4.7627240278
 30
0.0
 10
10.8415542299
 20
4.7708480567
 30
0.0
  0
SPLINE
  5
385
100
AcDbEntity
  8
0
100
AcDbSpline
 62
7
  6
CONTINUOUS
 70
0
 71
3
 72
30
 73
26
 74
0
 42
0.0000001
 43
0.0000001
 44
0.0000000001
 40
0.0
 40
0.0
 40
0.0
 40
0.0
 40
0.071178206
 40
0.1063864824
 40
0.1413173684
 40
0.2102772599
 40
0.2779404401
 40
0.3112551436
 40
0.3442083408
 40
0.4089957047
 40
0.4408350868
 40
0.4723063752
 40
0.5034184842
 40
0.534184955
 40
0.5646245079
 40
0.5947586506
 40
0.6246138194
 40
0.6542175698
 40
0.6836000373
 40
0.7127918723
 40
0.7707116392
 40
0.8282172138
 40
0.8855033008
 40
0.9427270794
 40
1.0
 40
1.0
 40
1.0
 40
1.0
 10
11.2928680376
 20
5.5398967104
 30
0.0
 10
11.2807866107
 20
5.5503946799
 30
0.0
 10
11.2624711276
 20
5.5657938067
 30
0.0
 10
11.2375737029
 20
5.5855421518
 30
0.0
 10
11.2126760983
 20
5.6044774111
 30
0.0
 10
11.1812135634
 20
5.6268228392
 30
0.0
 10
11.1489714353
 20
5.6473698562
 30
0.0
 10
11.1228942843
 20
5.6624435609
 30
0.0
 10
11.0969401442
 20
5.6764083045
 30
0.0
 10
11.0706193725
 20
5.6889703026
 30
0.0
 10
11.0439848601
 20
5.6999522191
 30
0.0
 10
11.0240602686
 20
5.7073035195
 30
0.0
 10
11.0040935347
 20
5.7137976692
 30
0.0
 10
10.9841035407
 20
5.7194163404
 30
0.0
 10
10.9641125838
 20
5.7241549004
 30
0.0
 10
10.9441405078
 20
5.7280065839
 30
0.0
 10
10.9242087544
 20
5.7309789401
 30
0.0
 10
10.9043365301
 20
5.7330803471
 30
0.0
 10
10.8845417605
 20
5.7343270794
 30
0.0
 10
10.8583461816
 20
5.7348789064
 30
0.0
 10
10.8258157158
 20
5.7335603362
 30
0.0
 10
10.7872154496
 20
5.7289795874
 30
0.0
 10
10.7491989365
 20
5.7216846983
 30
0.0
 10
10.7117914575
 20
5.7119610579
 30
0.0
 10
10.687275978
 20
5.7040485121
 30
0.0
 10
10.6751254304
 20
5.6997800594
 30
0.0
  0
SPLINE
  5
386
100
AcDbEntity
  8
0
100
AcDbSpline
 62
7
  6
CONTINUOUS
 70
0
 71
3
 72
15
 73
11
 74
0
 42
0.0000001
 43
0.0000001
 44
0.0000000001
 40
0.0
 40
0.0
 40
0.0
 40
0.0
 40
0.1340175358
 40
0.2644724274
 40
0.3918735456
 40
0.5167249534
 40
0.6395193915
 40
0.760718379
 40
0.8807495477
 40
1.0
 40
1.0
 40
1.0
 40
1.0
 10
12.3971143283
 20
4.7857799987
 30
0.0
 10
12.3945302679
 20
4.7845034994
 30
0.0
 10
12.3893599904
 20
4.7821246301
 30
0.0
 10
12.3815103321
 20
4.7790452736
 30
0.0
 10
12.3736815944
 20
4.7764899917
 30
0.0
 10
12.3658758036
 20
4.7744407333
 30
0.0
 10
12.3580945794
 20
4.7728771717
 30
0.0
 10
12.350338981
 20
4.7717791767
 30
0.0
 10
12.3426103058
 20
4.7711259607
 30
0.0
 10
12.3374637652
 20
4.7709726195
 30
0.0
 10
12.3348992042
 20
4.7709634936
 30
0.0
  0
SPLINE
  5
387
100
AcDbEntity
  8
0
100
AcDbSpline
 62
7
  6
CONTINUOUS
 70
0
 71
3
 72
15
 73
11
 74
0
 42
0.0000001
 43
0.0000001
 44
0.0000000001
 40
0.0
 40
0.0
 40
0.0
 40
0.0
 40
0.1097867181
 40
0.2247132299
 40
0.3444131583
 40
0.4684947016
 40
0.5965354434
 40
0.7281039141
 40
0.8627644476
 40
1.0
 40
1.0
 40
1.0
 40
1.0
 10
11.0165999325
 20
5.7376825042
 30
0.0
 10
11.029721223
 20
5.7344847292
 30
0.0
 10
11.0566741959
 20
5.7283290867
 30
0.0
 10
11.0982111801
 20
5.7199600593
 30
0.0
 10
11.1416654521
 20
5.7122666201
 30
0.0
 10
11.1868714247
 20
5.7052791116
 30
0.0
 10
11.2336576029
 20
5.6990235198
 30
0.0
 10
11.2818485374
 20
5.6935242382
 30
0.0
 10
11.3312579355
 20
5.6888030503
 30
0.0
 10
11.3646061241
 20
5.6862072793
 30
0.0
 10
11.3814476052
 20
5.6850393186
 30
0.0
  0
SPLINE
  5
388
100
AcDbEntity
  8
0
100
AcDbSpline
 62
7
  6
CONTINUOUS
 70
0
 71
3
 72
15
 73
11
 74
0
 42
0.0000001
 43
0.0000001
 44
0.0000000001
 40
0.0
 40
0.0
 40
0.0
 40
0.0
 40
0.1238190299
 40
0.2488653922
 40
0.3746972357
 40
0.5008688785
 40
0.6269279472
 40
0.7524308765
 40
0.8769490408
 40
1.0
 40
1.0
 40
1.0
 40
1.0
 10
11.7991138702
 20
5.6834149783
 30
0.0
 10
11.7818957596
 20
5.6823633614
 30
0.0
 10
11.7472703847
 20
5.6805416568
 30
0.0
 10
11.6951003857
 20
5.6786532043
 30
0.0
 10
11.6425789213
 20
5.6775991381
 30
0.0
 10
11.5899062893
 20
5.677384026
 30
0.0
 10
11.5372827369
 20
5.6780079494
 30
0.0
 10
11.4849061464
 20
5.6794690688
 30
0.0
 10
11.4329789707
 20
5.6817620267
 30
0.0
 10
11.3985497178
 20
5.683853283
 30
0.0
 10
11.3814476052
 20
5.6850393186
 30
0.0
  0
SPLINE
  5
389
100
AcDbEntity
  8
0
100
AcDbSpline
 62
7
  6
CONTINUOUS
 70
0
 71
3
 72
9
 73
5
 74
0
 42
0.0000001
 43
0.0000001
 44
0.0000000001
 40
0.0
 40
0.0
 40
0.0
 40
0.0
 40
0.4867517019
 40
1.0
 40
1.0
 40
1.0
 40
1.0
 10
12.3348992042
 20
5.6121619451
 30
0.0
 10
12.3214234105
 20
5.6082236015
 30
0.0
 10
12.2936008195
 20
5.6005982774
 30
0.0
 10
12.265568343
 20
5.5937905555
 30
0.0
 10
12.2511387863
 20
5.590483162
 30
0.0
  0
SPLINE
  5
38A
100
AcDbEntity
  8
0
100
AcDbSpline
 62
7
  6
CONTINUOUS
 70
0
 71
3
 72
11
 73
7
 74
0
 42
0.0000001
 43
0.0000001
 44
0.0000000001
 40
0.0
 40
0.0
 40
0.0
 40
0.0
 40
0.2300040706
 40
0.472852583
 40
0.7293161897
 40
1.0
 40
1.0
 40
1.0
 40
1.0
 10
10.6444669575
 20
5.7293938196
 30
0.0
 10
10.6464943634
 20
5.7268211355
 30
0.0
 10
10.6508675235
 20
5.7216914345
 30
0.0
 10
10.6581273886
 20
5.7142545815
 30
0.0
 10
10.6662513898
 20
5.7068806269
 30
0.0
 10
10.6720781823
 20
5.7021410297
 30
0.0
 10
10.6751254304
 20
5.6997800594
 30
0.0
  0
SPLINE
  5
38B
100
AcDbEntity
  8
0
100
AcDbSpline
 62
7
  6
CONTINUOUS
 70
0
 71
3
 72
9
 73
5
 74
0
 42
0.0000001
 43
0.0000001
 44
0.0000000001
 40
0.0
 40
0.0
 40
0.0
 40
0.0
 40
0.4867517019
 40
1.0
 40
1.0
 40
1.0
 40
1.0
 10
12.3348992042
 20
4.7709634936
 30
0.0
 10
12.3214234105
 20
4.76702515
 30
0.0
 10
12.2936008195
 20
4.7593998259
 30
0.0
 10
12.265568343
 20
4.752592104
 30
0.0
 10
12.2511387863
 20
4.7492847105
 30
0.0
  0
SPLINE
  5
38C
100
AcDbEntity
  8
0
100
AcDbSpline
 62
7
  6
CONTINUOUS
 70
0
 71
3
 72
23
 73
19
 74
0
 42
0.0000001
 43
0.0000001
 44
0.0000000001
 40
0.0
 40
0.0
 40
0.0
 40
0.0
 40
0.063775992
 40
0.1273452426
 40
0.190702051
 40
0.2538559967
 40
0.3168132418
 40
0.3795820857
 40
0.4421733813
 40
0.504599339
 40
0.5668738627
 40
0.6290123824
 40
0.6910316504
 40
0.7529496423
 40
0.8147853556
 40
0.8765586046
 40
0.9382898526
 40
1.0
 40
1.0
 40
1.0
 40
1.0
 10
12.8797534009
 20
6.091552335
 30
0.0
 10
12.8797534009
 20
6.0872169308
 30
0.0
 10
12.8795458544
 20
6.0785587084
 30
0.0
 10
12.8786092888
 20
6.0656240715
 30
0.0
 10
12.8770498233
 20
6.0527919096
 30
0.0
 10
12.874871198
 20
6.0400924924
 30
0.0
 10
12.8720783575
 20
6.0275547465
 30
0.0
 10
12.868677726
 20
6.015207655
 30
0.0
 10
12.8646770856
 20
6.0030797004
 30
0.0
 10
12.8600856322
 20
5.9911988388
 30
0.0
 10
12.8549139781
 20
5.9795924537
 30
0.0
 10
12.8491739792
 20
5.968287334
 30
0.0
 10
12.8428788386
 20
5.9573095716
 30
0.0
 10
12.8360431108
 20
5.946684452
 30
0.0
 10
12.8286825407
 20
5.9364365246
 30
0.0
 10
12.8208139734
 20
5.9265893829
 30
0.0
 10
12.8124559247
 20
5.9171660045
 30
0.0
 10
12.8065692962
 20
5.9111796589
 30
0.0
 10
12.8035520443
 20
5.9082652169
 30
0.0
  0
SPLINE
  5
38D
100
AcDbEntity
  8
0
100
AcDbSpline
 62
7
  6
CONTINUOUS
 70
0
 71
3
 72
23
 73
19
 74
0
 42
0.0000001
 43
0.0000001
 44
0.0000000001
 40
0.0
 40
0.0
 40
0.0
 40
0.0
 40
0.063775992
 40
0.1273452426
 40
0.190702051
 40
0.2538559967
 40
0.3168132418
 40
0.3795820857
 40
0.4421733813
 40
0.504599339
 40
0.5668738627
 40
0.6290123824
 40
0.6910316504
 40
0.7529496423
 40
0.8147853556
 40
0.8765586046
 40
0.9382898526
 40
1.0
 40
1.0
 40
1.0
 40
1.0
 10
9.0160498668
 20
6.3595010852
 30
0.0
 10
9.0160498668
 20
6.355165681
 30
0.0
 10
9.0158423203
 20
6.3465074586
 30
0.0
 10
9.0149057548
 20
6.3335728217
 30
0.0
 10
9.0133462892
 20
6.3207406597
 30
0.0
 10
9.0111676639
 20
6.3080412426
 30
0.0
 10
9.0083748234
 20
6.2955034967
 30
0.0
 10
9.0049741919
 20
6.2831564052
 30
0.0
 10
9.0009735515
 20
6.2710284505
 30
0.0
 10
8.9963820981
 20
6.259147589
 30
0.0
 10
8.991210444
 20
6.2475412039
 30
0.0
 10
8.9854704451
 20
6.2362360841
 30
0.0
 10
8.9791753046
 20
6.2252583218
 30
0.0
 10
8.9723395767
 20
6.2146332022
 30
0.0
 10
8.9649790066
 20
6.2043852748
 30
0.0
 10
8.9571104393
 20
6.1945381331
 30
0.0
 10
8.9487523906
 20
6.1851147547
 30
0.0
 10
8.9428657621
 20
6.1791284091
 30
0.0
 10
8.9398485102
 20
6.1762139671
 30
0.0
  0
SPLINE
  5
38E
100
AcDbEntity
  8
0
100
AcDbSpline
 62
7
  6
CONTINUOUS
 70
0
 71
3
 72
49
 73
45
 74
0
 42
0.0000001
 43
0.0000001
 44
0.0000000001
 40
0.0
 40
0.0
 40
0.0
 40
0.0
 40
0.0379401089
 40
0.0762766584
 40
0.1149214215
 40
0.1537870538
 40
0.1927845061
 40
0.2318247862
 40
0.270818627
 40
0.3096769399
 40
0.3483110172
 40
0.3866328065
 40
0.4245551694
 40
0.4619921429
 40
0.4988592043
 40
0.5350735383
 40
0.5705543102
 40
0.605222946
 40
0.6390034222
 40
0.6718225712
 40
0.7036104065
 40
0.7343004665
 40
0.7638301959
 40
0.7921413748
 40
0.8058233947
 40
0.8191811742
 40
0.8322089033
 40
0.8449011538
 40
0.8572528689
 40
0.8692595009
 40
0.8809168767
 40
0.8922214417
 40
0.90317009
 40
0.9137604037
 40
0.9239905739
 40
0.9338595357
 40
0.9433670611
 40
0.9525137607
 40
0.9613013533
 40
0.9697325923
 40
0.9778116382
 40
0.9855440373
 40
0.9929370888
 40
1.0
 40
1.0
 40
1.0
 40
1.0
 10
13.2336415268
 20
9.8366040988
 30
0.0
 10
13.2336415268
 20
9.8478007839
 30
0.0
 10
13.2337912474
 20
9.8703114118
 30
0.0
 10
13.2344547871
 20
9.9042208007
 30
0.0
 10
13.2355570801
 20
9.9383920827
 30
0.0
 10
13.2370954043
 20
9.9727417199
 30
0.0
 10
13.2390660604
 20
10.0071861776
 30
0.0
 10
13.2414642306
 20
10.0416414361
 30
0.0
 10
13.2442840802
 20
10.0760235532
 30
0.0
 10
13.2475187284
 20
10.1102487294
 30
0.0
 10
13.251160283
 20
10.1442335599
 30
0.0
 10
13.255199851
 20
10.1778952258
 30
0.0
 10
13.259627563
 20
10.2111517015
 30
0.0
 10
13.2644325979
 20
10.2439219546
 30
0.0
 10
13.2696032086
 20
10.2761261446
 30
0.0
 10
13.2751267507
 20
10.307685819
 30
0.0
 10
13.2809897121
 20
10.3385241065
 30
0.0
 10
13.2871777458
 20
10.3685659069
 30
0.0
 10
13.2936757046
 20
10.3977380769
 30
0.0
 10
13.3004676763
 20
10.4259696198
 30
0.0
 10
13.3075370217
 20
10.4531918468
 30
0.0
 10
13.3148664151
 20
10.4793386159
 30
0.0
 10
13.3224378981
 20
10.5043462761
 30
0.0
 10
13.3290062241
 20
10.5244080113
 30
0.0
 10
13.334376577
 20
10.5398352653
 30
0.0
 10
13.3384074085
 20
10.5509519173
 30
0.0
 10
13.3424846861
 20
10.56173992
 30
0.0
 10
13.3466059262
 20
10.5721927288
 30
0.0
 10
13.3507686511
 20
10.5823039796
 30
0.0
 10
13.3549702615
 20
10.592067546
 30
0.0
 10
13.3592082716
 20
10.6014774836
 30
0.0
 10
13.3634800229
 20
10.6105281055
 30
0.0
 10
13.3677829845
 20
10.61921391
 30
0.0
 10
13.3721144928
 20
10.6275296542
 30
0.0
 10
13.376471942
 20
10.6354703071
 30
0.0
 10
13.3808527041
 20
10.6430310722
 30
0.0
 10
13.3852540947
 20
10.6502074141
 30
0.0
 10
13.3896735374
 20
10.6569949893
 30
0.0
 10
13.3941083007
 20
10.6633897699
 30
0.0
 10
13.3985558499
 20
10.6693878864
 30
0.0
 10
13.4030134653
 20
10.6749857962
 30
0.0
 10
13.4074786666
 20
10.6801801693
 30
0.0
 10
13.4119486922
 20
10.6849677786
 30
0.0
 10
13.4149986673
 20
10.6879534071
 30
0.0
 10
13.4165244595
 20
10.689373461
 30
0.0
  0
SPLINE
  5
38F
100
AcDbEntity
  8
0
100
AcDbSpline
 62
7
  6
CONTINUOUS
 70
0
 71
3
 72
48
 73
44
 74
0
 42
0.0000001
 43
0.0000001
 44
0.0000000001
 40
0.0
 40
0.0
 40
0.0
 40
0.0
 40
0.0379400533
 40
0.0762769271
 40
0.1149216779
 40
0.1537874356
 40
0.1927849794
 40
0.2318253528
 40
0.2708192876
 40
0.3096776863
 40
0.3483118474
 40
0.3866337187
 40
0.4245561621
 40
0.4619932105
 40
0.4988603344
 40
0.5350747192
 40
0.570555534
 40
0.6052242082
 40
0.6390047198
 40
0.6718238972
 40
0.7036117442
 40
0.7343018019
 40
0.7638315197
 40
0.79214268
 40
0.8191818925
 40
0.832209593
 40
0.8449018306
 40
0.8572535143
 40
0.869260116
 40
0.8809174713
 40
0.8922219865
 40
0.9031706221
 40
0.9137608763
 40
0.9239910225
 40
0.9338599347
 40
0.9433674086
 40
0.9525140806
 40
0.9613015982
 40
0.9697328194
 40
0.9778117876
 40
0.985544153
 40
0.9929371483
 40
1.0
 40
1.0
 40
1.0
 40
1.0
 10
13.2698761632
 20
7.516676803
 30
0.0
 10
13.2698761632
 20
7.5256341459
 30
0.0
 10
13.2699959443
 20
7.5436427276
 30
0.0
 10
13.2705267732
 20
7.5707703234
 30
0.0
 10
13.2714086205
 20
7.5981074762
 30
0.0
 10
13.2726392823
 20
7.6255872586
 30
0.0
 10
13.2742158166
 20
7.6531429222
 30
0.0
 10
13.2761343642
 20
7.6807072188
 30
0.0
 10
13.2783902617
 20
7.7082130003
 30
0.0
 10
13.2809780006
 20
7.7355932264
 30
0.0
 10
13.2838912635
 20
7.7627811728
 30
0.0
 10
13.2871229362
 20
7.7897105862
 30
0.0
 10
13.2906651244
 20
7.8163158449
 30
0.0
 10
13.2945091736
 20
7.84253212
 30
0.0
 10
13.2986456896
 20
7.8682955361
 30
0.0
 10
13.3030645531
 20
7.893543331
 30
0.0
 10
13.3077549524
 20
7.9182140097
 30
0.0
 10
13.3127054089
 20
7.9422474942
 30
0.0
 10
13.3179038042
 20
7.9655852709
 30
0.0
 10
13.3233374099
 20
7.988170536
 30
0.0
 10
13.3289929183
 20
8.0099483462
 30
0.0
 10
13.334856468
 20
8.0308657462
 30
0.0
 10
13.3409136826
 20
8.0508719649
 30
0.0
 10
13.3471497238
 20
8.0699183282
 30
0.0
 10
13.3525474128
 20
8.0851348331
 30
0.0
 10
13.3569511938
 20
8.0967867722
 30
0.0
 10
13.3602482065
 20
8.1051490106
 30
0.0
 10
13.3635784033
 20
8.1132379912
 30
0.0
 10
13.3669397123
 20
8.1210488231
 30
0.0
 10
13.3703301235
 20
8.1285767537
 30
0.0
 10
13.3737475605
 20
8.1358172204
 30
0.0
 10
13.3771899202
 20
8.1427658443
 30
0.0
 10
13.3806551663
 20
8.1494184011
 30
0.0
 10
13.3841411232
 20
8.155770896
 30
0.0
 10
13.3876457531
 20
8.1618194699
 30
0.0
 10
13.3911668904
 20
8.1675604991
 30
0.0
 10
13.3947024332
 20
8.1729905306
 30
0.0
 10
13.3982502944
 20
8.1781062918
 30
0.0
 10
13.4018083061
 20
8.1829047622
 30
0.0
 10
13.4053744479
 20
8.1873830186
 30
0.0
 10
13.4089465989
 20
8.191538479
 30
0.0
 10
13.4125226351
 20
8.1953685114
 30
0.0
 10
13.414962635
 20
8.1977569585
 30
0.0
 10
13.4161832654
 20
8.1988929867
 30
0.0
  0
SPLINE
  5
390
100
AcDbEntity
  8
0
100
AcDbSpline
 62
7
  6
CONTINUOUS
 70
0
 71
3
 72
55
 73
51
 74
0
 42
0.0000001
 43
0.0000001
 44
0.0000000001
 40
0.0
 40
0.0
 40
0.0
 40
0.0
 40
0.0481975415
 40
0.0958290817
 40
0.142818713
 40
0.1890963521
 40
0.2345910715
 40
0.279234315
 40
0.3229593385
 40
0.3657013756
 40
0.4073979227
 40
0.4479889149
 40
0.4874169784
 40
0.525627636
 40
0.5625695632
 40
0.5981948995
 40
0.6324596307
 40
0.6653239472
 40
0.681220104
 40
0.69675341
 40
0.7119202568
 40
0.7267175098
 40
0.7411423279
 40
0.7551923488
 40
0.7688656914
 40
0.782160877
 40
0.7950770786
 40
0.8076139743
 40
0.8197718786
 40
0.8315518771
 40
0.8429557109
 40
0.8539860605
 40
0.8646465134
 40
0.8749416424
 40
0.8848772785
 40
0.8944604376
 40
0.9036996141
 40
0.912604918
 40
0.921188144
 40
0.9294631376
 40
0.9374458256
 40
0.9451544636
 40
0.952609859
 40
0.9598353745
 40
0.966857131
 40
0.9737039172
 40
0.9804070573
 40
0.9870002114
 40
0.9935188976
 40
1.0
 40
1.0
 40
1.0
 40
1.0
 10
9.8112311026
 20
11.7211795822
 30
0.0
 10
9.7999518742
 20
11.7219617994
 30
0.0
 10
9.7775343845
 20
11.7236429639
 30
0.0
 10
9.7441557662
 20
11.7265336453
 30
0.0
 10
9.7112618167
 20
11.729774896
 30
0.0
 10
9.6789079517
 20
11.7333611602
 30
0.0
 10
9.6471479635
 20
11.7372864942
 30
0.0
 10
9.6160350572
 20
11.7415442733
 30
0.0
 10
9.5856212109
 20
11.7461273385
 30
0.0
 10
9.5559572497
 20
11.7510279893
 30
0.0
 10
9.527092746
 20
11.7562379921
 30
0.0
 10
9.4990759129
 20
11.7617485916
 30
0.0
 10
9.471953526
 20
11.7675505107
 30
0.0
 10
9.4457708439
 20
11.773633991
 30
0.0
 10
9.420571553
 20
11.7799888046
 30
0.0
 10
9.3963976163
 20
11.7866042745
 30
0.0
 10
9.3732894072
 20
11.7934692719
 30
0.0
 10
9.3547527508
 20
11.7994528287
 30
0.0
 10
9.3404920543
 20
11.8043637667
 30
0.0
 10
9.330205342
 20
11.8080612571
 30
0.0
 10
9.3202129474
 20
11.8118123826
 30
0.0
 10
9.3105190112
 20
11.8156155356
 30
0.0
 10
9.3011275859
 20
11.8194691643
 30
0.0
 10
9.2920425818
 20
11.8233716552
 30
0.0
 10
9.2832677688
 20
11.8273213429
 30
0.0
 10
9.2748068172
 20
11.8313166436
 30
0.0
 10
9.2666632237
 20
11.8353558378
 30
0.0
 10
9.2588403743
 20
11.8394372671
 30
0.0
 10
9.2513415263
 20
11.843559266
 30
0.0
 10
9.2441697585
 20
11.8477200686
 30
0.0
 10
9.2373280674
 20
11.8519180254
 30
0.0
 10
9.2308192632
 20
11.8561513758
 30
0.0
 10
9.2246460215
 20
11.8604183769
 30
0.0
 10
9.2188109243
 20
11.8647173542
 30
0.0
 10
9.2133163303
 20
11.8690464996
 30
0.0
 10
9.2081645373
 20
11.8734041334
 30
0.0
 10
9.2033576775
 20
11.8777885251
 30
0.0
 10
9.1988977077
 20
11.8821979089
 30
0.0
 10
9.1947865681
 20
11.8866306503
 30
0.0
 10
9.1910259522
 20
11.8910849824
 30
0.0
 10
9.1876175189
 20
11.8955592328
 30
0.0
 10
9.1845628563
 20
11.9000517334
 30
0.0
 10
9.1818633301
 20
11.9045607124
 30
0.0
 10
9.1795204021
 20
11.9090844913
 30
0.0
 10
9.1775353075
 20
11.9136212339
 30
0.0
 10
9.1759092035
 20
11.9181690628
 30
0.0
 10
9.1746432612
 20
11.9227259913
 30
0.0
 10
9.1737382592
 20
11.9272899673
 30
0.0
 10
9.1731949841
 20
11.9318583994
 30
0.0
 10
9.1730741305
 20
11.9349092887
 30
0.0
 10
9.1730741335
 20
11.9364296446
 30
0.0
  0
SPLINE
  5
391
100
AcDbEntity
  8
0
100
AcDbSpline
 62
7
  6
CONTINUOUS
 70
0
 71
3
 72
39
 73
35
 74
0
 42
0.0000001
 43
0.0000001
 44
0.0000000001
 40
0.0
 40
0.0
 40
0.0
 40
0.0
 40
0.0299424718
 40
0.0599093198
 40
0.0899243266
 40
0.120010106
 40
0.1501875647
 40
0.1804754164
 40
0.2108897604
 40
0.2414437366
 40
0.2721472601
 40
0.3030068419
 40
0.3340254933
 40
0.365202712
 40
0.3965345466
 40
0.4280137318
 40
0.4596298892
 40
0.491369784
 40
0.5232176323
 40
0.5551554498
 40
0.5871634345
 40
0.6192203774
 40
0.651304093
 40
0.6833918636
 40
0.7154608911
 40
0.7474887497
 40
0.7794538335
 40
0.8113357936
 40
0.8431159524
 40
0.8747777124
 40
0.906306864
 40
0.9376920822
 40
0.9689247084
 40
1.0
 40
1.0
 40
1.0
 40
1.0
 10
12.413104411
 20
6.3124862526
 30
0.0
 10
12.4177661075
 20
6.3169891063
 30
0.0
 10
12.4274560602
 20
6.3256314147
 30
0.0
 10
12.4429808746
 20
6.3374050295
 30
0.0
 10
12.4594162211
 20
6.3479298742
 30
0.0
 10
12.4766702658
 20
6.3571469074
 30
0.0
 10
12.4946481471
 20
6.3650057746
 30
0.0
 10
12.513250647
 20
6.3714632759
 30
0.0
 10
12.5323752545
 20
6.3764840798
 30
0.0
 10
12.5519166068
 20
6.380040775
 30
0.0
 10
12.5717671128
 20
6.3821140417
 30
0.0
 10
12.5918175392
 20
6.3826927338
 30
0.0
 10
12.6119576139
 20
6.3817739278
 30
0.0
 10
12.6320766281
 20
6.3793629249
 30
0.0
 10
12.6520640403
 20
6.3754732106
 30
0.0
 10
12.6718100752
 20
6.3701263715
 30
0.0
 10
12.6912063199
 20
6.3633519695
 30
0.0
 10
12.7101463095
 20
6.3551873749
 30
0.0
 10
12.7285261038
 20
6.3456775585
 30
0.0
 10
12.7462448506
 20
6.3348748445
 30
0.0
 10
12.7632053309
 20
6.3228386227
 30
0.0
 10
12.7793144857
 20
6.3096350233
 30
0.0
 10
12.7944839207
 20
6.295336557
 30
0.0
 10
12.8086303856
 20
6.2800217201
 30
0.0
 10
12.8216762261
 20
6.2637745678
 30
0.0
 10
12.8335498062
 20
6.2466842572
 30
0.0
 10
12.8441858983
 20
6.228844565
 30
0.0
 10
12.8535260359
 20
6.2103533744
 30
0.0
 10
12.8615188413
 20
6.191312158
 30
0.0
 10
12.8681202851
 20
6.1718253841
 30
0.0
 10
12.8732939818
 20
6.152000108
 30
0.0
 10
12.8770112775
 20
6.1319448087
 30
0.0
 10
12.8792516177
 20
6.1117710579
 30
0.0
 10
12.8797534009
 20
6.0982788319
 30
0.0
 10
12.8797534009
 20
6.091552335
 30
0.0
  0
SPLINE
  5
392
100
AcDbEntity
  8
0
100
AcDbSpline
 62
7
  6
CONTINUOUS
 70
0
 71
3
 72
39
 73
35
 74
0
 42
0.0000001
 43
0.0000001
 44
0.0000000001
 40
0.0
 40
0.0
 40
0.0
 40
0.0
 40
0.0299424718
 40
0.0599093198
 40
0.0899243266
 40
0.120010106
 40
0.1501875647
 40
0.1804754164
 40
0.2108897604
 40
0.2414437366
 40
0.2721472601
 40
0.3030068419
 40
0.3340254933
 40
0.365202712
 40
0.3965345466
 40
0.4280137318
 40
0.4596298892
 40
0.491369784
 40
0.5232176323
 40
0.5551554498
 40
0.5871634345
 40
0.6192203774
 40
0.651304093
 40
0.6833918636
 40
0.7154608911
 40
0.7474887497
 40
0.7794538335
 40
0.8113357936
 40
0.8431159524
 40
0.8747777124
 40
0.906306864
 40
0.9376920822
 40
0.9689247084
 40
1.0
 40
1.0
 40
1.0
 40
1.0
 10
8.5494008769
 20
6.5804350027
 30
0.0
 10
8.5540625734
 20
6.5849378565
 30
0.0
 10
8.5637525261
 20
6.5935801649
 30
0.0
 10
8.5792773405
 20
6.6053537797
 30
0.0
 10
8.595712687
 20
6.6158786244
 30
0.0
 10
8.6129667317
 20
6.6250956576
 30
0.0
 10
8.630944613
 20
6.6329545248
 30
0.0
 10
8.6495471129
 20
6.6394120261
 30
0.0
 10
8.6686717204
 20
6.64443283
 30
0.0
 10
8.6882130727
 20
6.6479895252
 30
0.0
 10
8.7080635787
 20
6.6500627919
 30
0.0
 10
8.7281140051
 20
6.650641484
 30
0.0
 10
8.7482540798
 20
6.649722678
 30
0.0
 10
8.7683730941
 20
6.6473116751
 30
0.0
 10
8.7883605062
 20
6.6434219608
 30
0.0
 10
8.8081065412
 20
6.6380751216
 30
0.0
 10
8.8275027858
 20
6.6313007196
 30
0.0
 10
8.8464427754
 20
6.6231361251
 30
0.0
 10
8.8648225697
 20
6.6136263086
 30
0.0
 10
8.8825413165
 20
6.6028235947
 30
0.0
 10
8.8995017968
 20
6.5907873728
 30
0.0
 10
8.9156109516
 20
6.5775837734
 30
0.0
 10
8.9307803866
 20
6.5632853072
 30
0.0
 10
8.9449268515
 20
6.5479704703
 30
0.0
 10
8.957972692
 20
6.531723318
 30
0.0
 10
8.9698462721
 20
6.5146330074
 30
0.0
 10
8.9804823642
 20
6.4967933151
 30
0.0
 10
8.9898225019
 20
6.4783021246
 30
0.0
 10
8.9978153072
 20
6.4592609082
 30
0.0
 10
9.004416751
 20
6.4397741342
 30
0.0
 10
9.0095904477
 20
6.4199488582
 30
0.0
 10
9.0133077434
 20
6.3998935588
 30
0.0
 10
9.0155480836
 20
6.379719808
 30
0.0
 10
9.0160498668
 20
6.366227582
 30
0.0
 10
9.0160498668
 20
6.3595010852
 30
0.0
  0
SPLINE
  5
393
100
AcDbEntity
  8
0
100
AcDbSpline
 62
7
  6
CONTINUOUS
 70
0
 71
3
 72
61
 73
57
 74
0
 42
0.0000001
 43
0.0000001
 44
0.0000000001
 40
0.0
 40
0.0
 40
0.0
 40
0.0
 40
0.0027758433
 40
0.0055595941
 40
0.0083590873
 40
0.0111820092
 40
0.0140358402
 40
0.0169278032
 40
0.0228516385
 40
0.0290063602
 40
0.0354367082
 40
0.0387681006
 40
0.0421822872
 40
0.0492730731
 40
0.0567370731
 40
0.064596108
 40
0.072867737
 40
0.081565694
 40
0.09070057
 40
0.1002800962
 40
0.110309688
 40
0.1207926208
 40
0.131730418
 40
0.1431229861
 40
0.1549688512
 40
0.1672653029
 40
0.1800084954
 40
0.1931936241
 40
0.2068149163
 40
0.2208658417
 40
0.235339028
 40
0.2502264837
 40
0.2655194851
 40
0.2812087772
 40
0.2972844765
 40
0.3137362206
 40
0.3305531169
 40
0.3477238252
 40
0.3652365653
 40
0.3830791312
 40
0.4012389558
 40
0.4197030683
 40
0.4574902793
 40
0.4963311237
 40
0.5361109391
 40
0.5767111052
 40
0.6180096092
 40
0.6598815936
 40
0.7021998921
 40
0.7448355581
 40
0.7876583843
 40
0.8305374341
 40
0.8733415137
 40
0.9159398405
 40
0.9582021223
 40
1.0
 40
1.0
 40
1.0
 40
1.0
 10
10.8950740994
 20
11.9364291901
 30
0.0
 10
10.8950740973
 20
11.9353653279
 30
0.0
 10
10.8950150756
 20
11.9332341043
 30
0.0
 10
10.894749599
 20
11.9300398993
 30
0.0
 10
10.8943072098
 20
11.9268470629
 30
0.0
 10
10.893688097
 20
11.9236564619
 30
0.0
 10
10.8928923932
 20
11.9204686938
 30
0.0
 10
10.891586086
 20
11.9161895038
 30
0.0
 10
10.8894955912
 20
11.9108355663
 30
0.0
 10
10.8863039781
 20
11.9044902497
 30
0.0
 10
10.8830999898
 20
11.8992905839
 30
0.0
 10
10.8802046052
 20
11.8951521718
 30
0.0
 10
10.8770034027
 20
11.8909231218
 30
0.0
 10
10.8725525705
 20
11.8856602744
 30
0.0
 10
10.8665920683
 20
11.8794672981
 30
0.0
 10
10.8599511193
 20
11.8733228758
 30
0.0
 10
10.8526352511
 20
11.8672317699
 30
0.0
 10
10.8446503343
 20
11.8611982878
 30
0.0
 10
10.8360026782
 20
11.8552271338
 30
0.0
 10
10.8266992243
 20
11.8493228133
 30
0.0
 10
10.8167473621
 20
11.8434900591
 30
0.0
 10
10.8061551008
 20
11.8377334365
 30
0.0
 10
10.794930941
 20
11.8320576174
 30
0.0
 10
10.7830839514
 20
11.8264671588
 30
0.0
 10
10.7706237161
 20
11.8209666059
 30
0.0
 10
10.7575603386
 20
11.815560457
 30
0.0
 10
10.7439044424
 20
11.8102530928
 30
0.0
 10
10.7296671324
 20
11.8050489108
 30
0.0
 10
10.7148600229
 20
11.7999521102
 30
0.0
 10
10.6994951823
 20
11.7949669483
 30
0.0
 10
10.6835851666
 20
11.7900974378
 30
0.0
 10
10.6671429664
 20
11.7853476583
 30
0.0
 10
10.6501820305
 20
11.7807214375
 30
0.0
 10
10.6327162262
 20
11.776222643
 30
0.0
 10
10.6147598473
 20
11.771854919
 30
0.0
 10
10.5963275885
 20
11.7676218946
 30
0.0
 10
10.5774345401
 20
11.7635270257
 30
0.0
 10
10.5580961729
 20
11.7595736859
 30
0.0
 10
10.5383283228
 20
11.7557651316
 30
0.0
 10
10.518147187
 20
11.7521044755
 30
0.0
 10
10.4975692793
 20
11.7485947412
 30
0.0
 10
10.4694089946
 20
11.7440855286
 30
0.0
 10
10.4333386701
 20
11.7388576376
 30
0.0
 10
10.3890726517
 20
11.7332762531
 30
0.0
 10
10.3436435524
 20
11.7283582713
 30
0.0
 10
10.2972002652
 20
11.72411992
 30
0.0
 10
10.2498948646
 20
11.7205752093
 30
0.0
 10
10.2018823233
 20
11.7177358449
 30
0.0
 10
10.1533199356
 20
11.7156112029
 30
0.0
 10
10.1043668151
 20
11.7142082982
 30
0.0
 10
10.0551833615
 20
11.7135317607
 30
0.0
 10
10.0059307415
 20
11.7135838267
 30
0.0
 10
9.9567703301
 20
11.7143643172
 30
0.0
 10
9.9078632363
 20
11.7158706708
 30
0.0
 10
9.8593697866
 20
11.7180978866
 30
0.0
 10
9.8272120608
 20
11.720071299
 30
0.0
 10
9.8112311026
 20
11.7211795822
 30
0.0
  0
SPLINE
  5
394
100
AcDbEntity
  8
0
100
AcDbSpline
 62
7
  6
CONTINUOUS
 70
0
 71
3
 72
36
 73
32
 74
0
 42
0.0000001
 43
0.0000001
 44
0.0000000001
 40
0.0
 40
0.0
 40
0.0
 40
0.0
 40
0.0162143048
 40
0.0334273363
 40
0.0516716556
 40
0.0709707163
 40
0.0913401979
 40
0.1127892156
 40
0.13532147
 40
0.1589357362
 40
0.1836268569
 40
0.2093859311
 40
0.236200954
 40
0.2640570993
 40
0.2929369
 40
0.3228207324
 40
0.3536866939
 40
0.3855111001
 40
0.4182683916
 40
0.4519313784
 40
0.4864713931
 40
0.5218582276
 40
0.5580604815
 40
0.5950453717
 40
0.6327790535
 40
0.6712265605
 40
0.7103518611
 40
0.7501180517
 40
0.8314202535
 40
0.9148215003
 40
1.0
 40
1.0
 40
1.0
 40
1.0
 10
13.3229515792
 20
9.3400860868
 30
0.0
 10
13.321209546
 20
9.3422280063
 30
0.0
 10
13.3177647983
 20
9.3467644219
 30
0.0
 10
13.312852229
 20
9.354068375
 30
0.0
 10
13.308047623
 20
9.36206303
 30
0.0
 10
13.303355963
 20
9.3707399456
 30
0.0
 10
13.2987817841
 20
9.3800904404
 30
0.0
 10
13.2943296947
 20
9.3901049261
 30
0.0
 10
13.2900043261
 20
9.4007731477
 30
0.0
 10
13.2858100823
 20
9.4120840653
 30
0.0
 10
13.2817514203
 20
9.4240259665
 30
0.0
 10
13.2778325527
 20
9.436586413
 30
0.0
 10
13.274057624
 20
9.4497523018
 30
0.0
 10
13.2704306432
 20
9.4635098672
 30
0.0
 10
13.2669553976
 20
9.4778446956
 30
0.0
 10
13.2636356334
 20
9.4927417579
 30
0.0
 10
13.2604748044
 20
9.5081854116
 30
0.0
 10
13.2574763096
 20
9.5241594324
 30
0.0
 10
13.2546433072
 20
9.5406470264
 30
0.0
 10
13.2519787938
 20
9.5576308522
 30
0.0
 10
13.24948563
 20
9.5750930384
 30
0.0
 10
13.2471664092
 20
9.5930152069
 30
0.0
 10
13.2450236467
 20
9.6113784862
 30
0.0
 10
13.2430595693
 20
9.630163541
 30
0.0
 10
13.2412762851
 20
9.6493505874
 30
0.0
 10
13.2396756902
 20
9.6689194078
 30
0.0
 10
13.2382594422
 20
9.6888494042
 30
0.0
 10
13.236606882
 20
9.7160766437
 30
0.0
 10
13.2350222405
 20
9.7508590338
 30
0.0
 10
13.2338886662
 20
9.7933947495
 30
0.0
 10
13.2336415268
 20
9.822100348
 30
0.0
 10
13.2336415268
 20
9.8366040988
 30
0.0
  0
SPLINE
  5
395
100
AcDbEntity
  8
0
100
AcDbSpline
 62
7
  6
CONTINUOUS
 70
0
 71
3
 72
35
 73
31
 74
0
 42
0.0000001
 43
0.0000001
 44
0.0000000001
 40
0.0
 40
0.0
 40
0.0
 40
0.0
 40
0.0162143111
 40
0.0334273662
 40
0.0516716855
 40
0.0709707842
 40
0.0913402599
 40
0.1127893229
 40
0.1353215779
 40
0.1589358742
 40
0.1836270239
 40
0.209386099
 40
0.2362011871
 40
0.264057313
 40
0.2929371952
 40
0.3228210131
 40
0.3536870391
 40
0.3855114635
 40
0.4182687869
 40
0.45193183
 40
0.4864718499
 40
0.5218587619
 40
0.5580610152
 40
0.5950459771
 40
0.6327796835
 40
0.6712272462
 40
0.7501177592
 40
0.8314200507
 40
0.91482146
 40
1.0
 40
1.0
 40
1.0
 40
1.0
 10
13.3413242293
 20
7.1194623675
 30
0.0
 10
13.3399306033
 20
7.1211759018
 30
0.0
 10
13.3371747986
 20
7.1248050291
 30
0.0
 10
13.3332447526
 20
7.1306481945
 30
0.0
 10
13.3294010523
 20
7.1370439107
 30
0.0
 10
13.3256477411
 20
7.1439854486
 30
0.0
 10
13.3219883772
 20
7.1514658369
 30
0.0
 10
13.3184267235
 20
7.1594774303
 30
0.0
 10
13.3149664135
 20
7.1680120027
 30
0.0
 10
13.3116110227
 20
7.1770607374
 30
0.0
 10
13.3083640972
 20
7.1866142578
 30
0.0
 10
13.3052289856
 20
7.1966626127
 30
0.0
 10
13.3022090673
 20
7.2071953263
 30
0.0
 10
13.2993074505
 20
7.2182013767
 30
0.0
 10
13.2965272855
 20
7.2296692421
 30
0.0
 10
13.293871445
 20
7.2415868916
 30
0.0
 10
13.2913428009
 20
7.2539418156
 30
0.0
 10
13.288943995
 20
7.2667210333
 30
0.0
 10
13.2866775899
 20
7.2799111098
 30
0.0
 10
13.2845459914
 20
7.2934981716
 30
0.0
 10
13.282551439
 20
7.3074679229
 30
0.0
 10
13.2806960866
 20
7.3218056579
 30
0.0
 10
13.2789818503
 20
7.3364962849
 30
0.0
 10
13.2774106112
 20
7.3515243269
 30
0.0
 10
13.275983959
 20
7.3668739779
 30
0.0
 10
13.2742619529
 20
7.3879278629
 30
0.0
 10
13.2724910818
 20
7.4149307079
 30
0.0
 10
13.2709807149
 20
7.4480806776
 30
0.0
 10
13.2700738803
 20
7.4821093435
 30
0.0
 10
13.2698761632
 20
7.505073808
 30
0.0
 10
13.2698761632
 20
7.516676803
 30
0.0
  0
SPLINE
  5
396
100
AcDbEntity
  8
0
100
AcDbSpline
 62
7
  6
CONTINUOUS
 70
0
 71
3
 72
59
 73
55
 74
0
 42
0.0000001
 43
0.0000001
 44
0.0000000001
 40
0.0
 40
0.0
 40
0.0
 40
0.0
 40
0.00958252
 40
0.0187370766
 40
0.0274868698
 40
0.0358596266
 40
0.0438878131
 40
0.0516092145
 40
0.0590669903
 40
0.0663096944
 40
0.0733908466
 40
0.0803680557
 40
0.0873017972
 40
0.0942537722
 40
0.1012851559
 40
0.1084549199
 40
0.115818383
 40
0.1234261952
 40
0.1313237878
 40
0.1395510793
 40
0.1481427504
 40
0.1571283447
 40
0.1665329206
 40
0.1763773297
 40
0.1866788099
 40
0.1974514056
 40
0.208706278
 40
0.2204522524
 40
0.232695852
 40
0.2454418662
 40
0.2586932895
 40
0.2724517291
 40
0.2867174561
 40
0.3014895308
 40
0.3167660541
 40
0.3325440332
 40
0.3488197633
 40
0.3655885947
 40
0.3828452625
 40
0.4005837623
 40
0.4187974675
 40
0.4374792226
 40
0.4762145294
 40
0.5167226316
 40
0.5589283288
 40
0.6027499175
 40
0.6480998455
 40
0.6948852733
 40
0.743008606
 40
0.7923678857
 40
0.8428575127
 40
0.8943677513
 40
0.9467874598
 40
1.0
 40
1.0
 40
1.0
 40
1.0
 10
13.4165244595
 20
10.689373461
 30
0.0
 10
13.417964394
 20
10.6907136073
 30
0.0
 10
13.4208429549
 20
10.6932676165
 30
0.0
 10
13.4252595586
 20
10.6967836766
 30
0.0
 10
13.4296716106
 20
10.6998928184
 30
0.0
 10
13.4340766293
 20
10.7025929736
 30
0.0
 10
13.4384724611
 20
10.704882095
 30
0.0
 10
13.4428567144
 20
10.706758382
 30
0.0
 10
13.4472269614
 20
10.7082199891
 30
0.0
 10
13.4515805105
 20
10.7092652286
 30
0.0
 10
13.4559143682
 20
10.7098927355
 30
0.0
 10
13.4602252522
 20
10.7101013085
 30
0.0
 10
13.464509615
 20
10.7098905933
 30
0.0
 10
13.4687638173
 20
10.7092605218
 30
0.0
 10
13.472984349
 20
10.7082120213
 30
0.0
 10
13.4771679321
 20
10.7067463068
 30
0.0
 10
13.4813116694
 20
10.7048651507
 30
0.0
 10
13.485413026
 20
10.7025705351
 30
0.0
 10
13.4894696752
 20
10.6998644831
 30
0.0
 10
13.4934796071
 20
10.6967492593
 30
0.0
 10
13.497440726
 20
10.6932269737
 30
0.0
 10
13.5013511758
 20
10.6893000452
 30
0.0
 10
13.5052089052
 20
10.6849708268
 30
0.0
 10
13.5090119857
 20
10.6802419577
 30
0.0
 10
13.5127583949
 20
10.6751161971
 30
0.0
 10
13.5164460774
 20
10.669596514
 30
0.0
 10
13.5200730616
 20
10.6636861402
 30
0.0
 10
13.5236372154
 20
10.6573884626
 30
0.0
 10
13.5271366083
 20
10.650707185
 30
0.0
 10
13.5305691282
 20
10.6436461659
 30
0.0
 10
13.5339328505
 20
10.6362095589
 30
0.0
 10
13.5372257674
 20
10.6284017094
 30
0.0
 10
13.5404459429
 20
10.6202272076
 30
0.0
 10
13.543591509
 20
10.6116908718
 30
0.0
 10
13.5466605402
 20
10.6027977254
 30
0.0
 10
13.5496512935
 20
10.5935530341
 30
0.0
 10
13.5525619086
 20
10.5839622527
 30
0.0
 10
13.5553907238
 20
10.5740310689
 30
0.0
 10
13.5581360053
 20
10.5637653596
 30
0.0
 10
13.5607961319
 20
10.553171218
 30
0.0
 10
13.5633695466
 20
10.5422549153
 30
0.0
 10
13.5667234847
 20
10.5270957722
 30
0.0
 10
13.5706759645
 20
10.5073839262
 30
0.0
 10
13.574994578
 20
10.4828278951
 30
0.0
 10
13.5789337123
 20
10.4571514417
 30
0.0
 10
13.582483885
 20
10.4304155777
 30
0.0
 10
13.5856365195
 20
10.4026836989
 30
0.0
 10
13.5883840118
 20
10.3740216651
 30
0.0
 10
13.5907197274
 20
10.3444975764
 30
0.0
 10
13.5926380379
 20
10.3141815747
 30
0.0
 10
13.5941342842
 20
10.2831458122
 30
0.0
 10
13.5952048879
 20
10.2514638987
 30
0.0
 10
13.5958471898
 20
10.2192114525
 30
0.0
 10
13.5959878909
 20
10.1975271916
 30
0.0
 10
13.5959878909
 20
10.1866038307
 30
0.0
  0
SPLINE
  5
397
100
AcDbEntity
  8
0
100
AcDbSpline
 62
7
  6
CONTINUOUS
 70
0
 71
3
 72
23
 73
19
 74
0
 42
0.0000001
 43
0.0000001
 44
0.0000000001
 40
0.0
 40
0.0
 40
0.0
 40
0.0
 40
0.063775992
 40
0.1273452426
 40
0.190702051
 40
0.2538559967
 40
0.3168132418
 40
0.3795820857
 40
0.4421733813
 40
0.504599339
 40
0.5668738627
 40
0.6290123824
 40
0.6910316504
 40
0.7529496423
 40
0.8147853556
 40
0.8765586046
 40
0.9382898526
 40
1.0
 40
1.0
 40
1.0
 40
1.0
 10
8.4731995203
 20
6.3971478846
 30
0.0
 10
8.4731995203
 20
6.4014832888
 30
0.0
 10
8.4734070669
 20
6.4101415112
 30
0.0
 10
8.4743436324
 20
6.4230761481
 30
0.0
 10
8.475903098
 20
6.4359083101
 30
0.0
 10
8.4780817232
 20
6.4486077272
 30
0.0
 10
8.4808745638
 20
6.4611454731
 30
0.0
 10
8.4842751952
 20
6.4734925646
 30
0.0
 10
8.4882758357
 20
6.4856205193
 30
0.0
 10
8.4928672891
 20
6.4975013808
 30
0.0
 10
8.4980389432
 20
6.5091077659
 30
0.0
 10
8.503778942
 20
6.5204128857
 30
0.0
 10
8.5100740826
 20
6.531390648
 30
0.0
 10
8.5169098104
 20
6.5420157676
 30
0.0
 10
8.5242703805
 20
6.552263695
 30
0.0
 10
8.5321389478
 20
6.5621108367
 30
0.0
 10
8.5404969965
 20
6.5715342151
 30
0.0
 10
8.5463836251
 20
6.5775205607
 30
0.0
 10
8.5494008769
 20
6.5804350027
 30
0.0
  0
SPLINE
  5
398
100
AcDbEntity
  8
0
100
AcDbSpline
 62
7
  6
CONTINUOUS
 70
0
 71
3
 72
67
 73
63
 74
0
 42
0.0000001
 43
0.0000001
 44
0.0000000001
 40
0.0
 40
0.0
 40
0.0
 40
0.0
 40
0.0452100989
 40
0.0910008364
 40
0.1371883692
 40
0.183585715
 40
0.2300053249
 40
0.2762593961
 40
0.3221610018
 40
0.3675250301
 40
0.4121691589
 40
0.4559148351
 40
0.4985882708
 40
0.5194704045
 40
0.5400220161
 40
0.5602231578
 40
0.5800544325
 40
0.5994969435
 40
0.6185323721
 40
0.6371430433
 40
0.6553118814
 40
0.6730225883
 40
0.6902595554
 40
0.7070080243
 40
0.7232541088
 40
0.7389848235
 40
0.754188278
 40
0.7688536093
 40
0.782971248
 40
0.796532929
 40
0.809531877
 40
0.8219630437
 40
0.8338231942
 40
0.8451113554
 40
0.8558289813
 40
0.8659804821
 40
0.8755737161
 40
0.884620568
 40
0.8931378811
 40
0.9011482533
 40
0.9086813189
 40
0.9157749243
 40
0.9224764257
 40
0.9288438133
 40
0.9319246608
 40
0.9349487983
 40
0.9379264824
 40
0.9408684995
 40
0.943786083
 40
0.9466907733
 40
0.9495942751
 40
0.9525083127
 40
0.9554444684
 40
0.9584140433
 40
0.9614279368
 40
0.9644965161
 40
0.9676295467
 40
0.9708361557
 40
0.977501043
 40
0.9845526509
 40
0.9920393771
 40
1.0
 40
1.0
 40
1.0
 40
1.0
 10
13.5959878909
 20
10.1866038307
 30
0.0
 10
13.5959878909
 20
10.1716792861
 30
0.0
 10
13.5957217207
 20
10.1416379149
 30
0.0
 10
13.5945480447
 20
10.096363118
 30
0.0
 10
13.5926018745
 20
10.0507225637
 30
0.0
 10
13.5898915142
 20
10.0049131127
 30
0.0
 10
13.586428653
 20
9.9591323569
 30
0.0
 10
13.5822282243
 20
9.9135776982
 30
0.0
 10
13.5773083858
 20
9.8684455722
 30
0.0
 10
13.5716904312
 20
9.8239305846
 30
0.0
 10
13.565398705
 20
9.7802246064
 30
0.0
 10
13.5584604614
 20
9.7375161594
 30
0.0
 10
13.5521202168
 20
9.702663924
 30
0.0
 10
13.5467392089
 20
9.6754248668
 30
0.0
 10
13.5425903503
 20
9.65550534
 30
0.0
 10
13.538303841
 20
9.6359699898
 30
0.0
 10
13.5338843334
 20
9.6168398614
 30
0.0
 10
13.5293365937
 20
9.5981355881
 30
0.0
 10
13.5246655311
 20
9.5798773336
 30
0.0
 10
13.5198762309
 20
9.5620847763
 30
0.0
 10
13.5149738232
 20
9.5447770956
 30
0.0
 10
13.5099636647
 20
9.5279729323
 30
0.0
 10
13.5048511342
 20
9.5116903896
 30
0.0
 10
13.4996417789
 20
9.4959469946
 30
0.0
 10
13.4943412477
 20
9.4807596857
 30
0.0
 10
13.4889552306
 20
9.4661448022
 30
0.0
 10
13.4834896102
 20
9.4521180363
 30
0.0
 10
13.4779502316
 20
9.4386944566
 30
0.0
 10
13.4723431191
 20
9.4258884435
 30
0.0
 10
13.466674305
 20
9.4137137044
 30
0.0
 10
13.4609498655
 20
9.40218325
 30
0.0
 10
13.4551759977
 20
9.391309343
 30
0.0
 10
13.4493587951
 20
9.381103554
 30
0.0
 10
13.4435045043
 20
9.3715766431
 30
0.0
 10
13.4376192351
 20
9.3627386488
 30
0.0
 10
13.431709105
 20
9.3545988121
 30
0.0
 10
13.4257801692
 20
9.347165572
 30
0.0
 10
13.4198382366
 20
9.3404466757
 30
0.0
 10
13.4138890847
 20
9.3344490323
 30
0.0
 10
13.4079380487
 20
9.3291790304
 30
0.0
 10
13.4019903802
 20
9.3246424687
 30
0.0
 10
13.3960507661
 20
9.3208448307
 30
0.0
 10
13.3901246711
 20
9.3177918141
 30
0.0
 10
13.3851463491
 20
9.3158514924
 30
0.0
 10
13.3811930068
 20
9.3146937656
 30
0.0
 10
13.3782686793
 20
9.3140232435
 30
0.0
 10
13.3753538197
 20
9.3135414634
 30
0.0
 10
13.3724492174
 20
9.3132486778
 30
0.0
 10
13.3695558026
 20
9.3131450283
 30
0.0
 10
13.3666744864
 20
9.3132305494
 30
0.0
 10
13.3638061946
 20
9.3135052721
 30
0.0
 10
13.360951857
 20
9.3139691251
 30
0.0
 10
13.3581123693
 20
9.3146218582
 30
0.0
 10
13.3552886049
 20
9.3154632129
 30
0.0
 10
13.3524814229
 20
9.316492914
 30
0.0
 10
13.3496916331
 20
9.317710505
 30
0.0
 10
13.3469199348
 20
9.3191155587
 30
0.0
 10
13.3432020809
 20
9.3212657099
 30
0.0
 10
13.338595874
 20
9.3244450165
 30
0.0
 10
13.3332284588
 20
9.3289515007
 30
0.0
 10
13.3279542716
 20
9.3341915912
 30
0.0
 10
13.3246097162
 20
9.338047322
 30
0.0
 10
13.3229515792
 20
9.3400860868
 30
0.0
  0
SPLINE
  5
399
100
AcDbEntity
  8
0
100
AcDbSpline
 62
7
  6
CONTINUOUS
 70
0
 71
3
 72
59
 73
55
 74
0
 42
0.0000001
 43
0.0000001
 44
0.0000000001
 40
0.0
 40
0.0
 40
0.0
 40
0.0
 40
0.0095824434
 40
0.0187368646
 40
0.0274866011
 40
0.0358592488
 40
0.0438873718
 40
0.0516087099
 40
0.0590664201
 40
0.0663090922
 40
0.0733902006
 40
0.080367392
 40
0.0873011217
 40
0.0942530966
 40
0.1012844872
 40
0.1084542773
 40
0.1158177585
 40
0.1234256141
 40
0.1313232404
 40
0.1395505759
 40
0.1481422974
 40
0.1571279355
 40
0.1665325659
 40
0.1763770274
 40
0.1866785529
 40
0.1974512078
 40
0.2087061243
 40
0.2204521482
 40
0.2326958051
 40
0.2454418452
 40
0.2586933352
 40
0.2724517912
 40
0.2867175742
 40
0.301489685
 40
0.3167662275
 40
0.3325442669
 40
0.348819986
 40
0.3655888796
 40
0.382845544
 40
0.400584074
 40
0.4187978078
 40
0.4374795486
 40
0.4762148746
 40
0.5167230038
 40
0.5589287165
 40
0.6027502991
 40
0.6481001945
 40
0.6948855833
 40
0.743008873
 40
0.7923681136
 40
0.8428577352
 40
0.8943677663
 40
0.9467877454
 40
1.0
 40
1.0
 40
1.0
 40
1.0
 10
13.4161832654
 20
8.1988929867
 30
0.0
 10
13.4173352071
 20
8.1999650869
 30
0.0
 10
13.4196380319
 20
8.202008261
 30
0.0
 10
13.4231713418
 20
8.2048209877
 30
0.0
 10
13.4267009312
 20
8.2073082737
 30
0.0
 10
13.4302249626
 20
8.2094682844
 30
0.0
 10
13.4337416005
 20
8.2112995291
 30
0.0
 10
13.4372489883
 20
8.2128004984
 30
0.0
 10
13.4407451827
 20
8.2139696799
 30
0.0
 10
13.4442279939
 20
8.2148058627
 30
0.0
 10
13.4476950757
 20
8.2153077399
 30
0.0
 10
13.4511437628
 20
8.2154745902
 30
0.0
 10
13.4545712384
 20
8.2153059257
 30
0.0
 10
13.4579745825
 20
8.2148018192
 30
0.0
 10
13.4613509984
 20
8.2139629819
 30
0.0
 10
13.4646978361
 20
8.2127903273
 30
0.0
 10
13.4680128247
 20
8.2112853841
 30
0.0
 10
13.4712938787
 20
8.2094496186
 30
0.0
 10
13.4745391908
 20
8.2072847467
 30
0.0
 10
13.4777471173
 20
8.2047925217
 30
0.0
 10
13.4809159926
 20
8.2019746507
 30
0.0
 10
13.4840443413
 20
8.1988330755
 30
0.0
 10
13.4871305044
 20
8.1953696623
 30
0.0
 10
13.4901729514
 20
8.1915865343
 30
0.0
 10
13.4931700681
 20
8.1874858992
 30
0.0
 10
13.4961201902
 20
8.1830701207
 30
0.0
 10
13.4990217668
 20
8.1783417995
 30
0.0
 10
13.5018730743
 20
8.1733036338
 30
0.0
 10
13.5046725633
 20
8.1679585883
 30
0.0
 10
13.5074185808
 20
8.1623097609
 30
0.0
 10
13.5101095216
 20
8.1563604539
 30
0.0
 10
13.5127438607
 20
8.1501141674
 30
0.0
 10
13.5153199719
 20
8.1435745508
 30
0.0
 10
13.5178364115
 20
8.1367454743
 30
0.0
 10
13.520291633
 20
8.1296309523
 30
0.0
 10
13.5226841985
 20
8.1222351927
 30
0.0
 10
13.5250127059
 20
8.1145625706
 30
0.0
 10
13.5272757158
 20
8.1066176211
 30
0.0
 10
13.5294719484
 20
8.0984050591
 30
0.0
 10
13.5316000276
 20
8.0899297496
 30
0.0
 10
13.5336587418
 20
8.0811967151
 30
0.0
 10
13.5363418901
 20
8.0690694211
 30
0.0
 10
13.5395038478
 20
8.0532999678
 30
0.0
 10
13.5429587144
 20
8.0336551709
 30
0.0
 10
13.5461099973
 20
8.0131140422
 30
0.0
 10
13.5489501156
 20
7.9917253977
 30
0.0
 10
13.5514722099
 20
7.969539953
 30
0.0
 10
13.5536701936
 20
7.9466103922
 30
0.0
 10
13.5555387544
 20
7.92299119
 30
0.0
 10
13.5570733913
 20
7.8987384531
 30
0.0
 10
13.5582703746
 20
7.8739099359
 30
0.0
 10
13.5591268588
 20
7.8485644487
 30
0.0
 10
13.5596406903
 20
7.8227625821
 30
0.0
 10
13.5597532544
 20
7.805415212
 30
0.0
 10
13.5597532544
 20
7.7966765885
 30
0.0
  0
SPLINE
  5
39A
100
AcDbEntity
  8
0
100
AcDbSpline
 62
7
  6
CONTINUOUS
 70
0
 71
3
 72
58
 73
54
 74
0
 42
0.0000001
 43
0.0000001
 44
0.0000000001
 40
0.0
 40
0.0
 40
0.0
 40
0.0
 40
0.0414402715
 40
0.0833367342
 40
0.1255652605
 40
0.1680001769
 40
0.2105151651
 40
0.2529835401
 40
0.2952788166
 40
0.337275168
 40
0.3788479236
 40
0.4198740573
 40
0.4602326839
 40
0.4998055622
 40
0.5384776081
 40
0.5761374243
 40
0.6126778504
 40
0.6304963547
 40
0.6479970419
 40
0.6651680091
 40
0.6819976694
 40
0.6984749153
 40
0.7145889933
 40
0.7303296919
 40
0.7456872009
 40
0.7606523228
 40
0.775216323
 40
0.7893711612
 40
0.8031093422
 40
0.8164241639
 40
0.82930958
 40
0.8417604635
 40
0.8537724942
 40
0.8653424394
 40
0.8764680839
 40
0.8871485323
 40
0.8973842036
 40
0.9071771682
 40
0.9165312336
 40
0.9254523369
 40
0.9339487549
 40
0.9420315775
 40
0.9497150732
 40
0.9570172582
 40
0.963960412
 40
0.9705716931
 40
0.9768836793
 40
0.9829348042
 40
0.9887695487
 40
0.9916222058
 40
0.9944400804
 40
0.9972302449
 40
1.0
 40
1.0
 40
1.0
 40
1.0
 10
10.2501878408
 20
12.0852918536
 30
0.0
 10
10.2348936327
 20
12.0863525106
 30
0.0
 10
10.2041196229
 20
12.0882442361
 30
0.0
 10
10.1577143132
 20
12.090389556
 30
0.0
 10
10.1109143001
 20
12.0918540664
 30
0.0
 10
10.0638690586
 20
12.0926330426
 30
0.0
 10
10.0167287241
 20
12.0927239886
 30
0.0
 10
9.9696437483
 20
12.092126608
 30
0.0
 10
9.9227644079
 20
12.0908428231
 30
0.0
 10
9.8762403167
 20
12.0888767598
 30
0.0
 10
9.8302199479
 20
12.0862347395
 30
0.0
 10
9.7848501561
 20
12.0829252576
 30
0.0
 10
9.7402757001
 20
12.0789589588
 30
0.0
 10
9.6966387922
 20
12.0743486018
 30
0.0
 10
9.6540785753
 20
12.0691090294
 30
0.0
 10
9.6127308967
 20
12.0632570909
 30
0.0
 10
9.5791193227
 20
12.0578416218
 30
0.0
 10
9.5529412115
 20
12.0532077523
 30
0.0
 10
9.53385615
 20
12.0496204975
 30
0.0
 10
9.5151704168
 20
12.0458952788
 30
0.0
 10
9.4968989009
 20
12.0420349932
 30
0.0
 10
9.4790561797
 20
12.0380428066
 30
0.0
 10
9.461656483
 20
12.0339218383
 30
0.0
 10
9.4447136808
 20
12.0296754671
 30
0.0
 10
9.428241282
 20
12.025307009
 30
0.0
 10
9.4122524064
 20
12.0208200472
 30
0.0
 10
9.3967597963
 20
12.016218083
 30
0.0
 10
9.3817757767
 20
12.0115048907
 30
0.0
 10
9.3673122804
 20
12.0066841461
 30
0.0
 10
9.3533807939
 20
12.0017597981
 30
0.0
 10
9.3399923989
 20
11.9967356843
 30
0.0
 10
9.3271577017
 20
11.9916159095
 30
0.0
 10
9.3148868928
 20
11.9864044575
 30
0.0
 10
9.3031896579
 20
11.9811055659
 30
0.0
 10
9.2920752573
 20
11.9757233438
 30
0.0
 10
9.2815524191
 20
11.9702621308
 30
0.0
 10
9.2716294376
 20
11.9647261317
 30
0.0
 10
9.2623140517
 20
11.959119745
 30
0.0
 10
9.2536135626
 20
11.9534472262
 30
0.0
 10
9.245534705
 20
11.94771297
 30
0.0
 10
9.2380837829
 20
11.9419212157
 30
0.0
 10
9.231266553
 20
11.9360762682
 30
0.0
 10
9.225088378
 20
11.9301822623
 30
0.0
 10
9.219554155
 20
11.9242433259
 30
0.0
 10
9.214668481
 20
11.9182634221
 30
0.0
 10
9.2104356714
 20
11.9122465457
 30
0.0
 10
9.2068598619
 20
11.9061965145
 30
0.0
 10
9.2039452086
 20
11.9001179778
 30
0.0
 10
9.2020562482
 20
11.8949929504
 30
0.0
 10
9.2008904726
 20
11.8908976659
 30
0.0
 10
9.200189209
 20
11.8878456519
 30
0.0
 10
9.1996548139
 20
11.8847912897
 30
0.0
 10
9.1994091569
 20
11.8827479132
 30
0.0
 10
9.1993145337
 20
11.881727613
 30
0.0
  0
SPLINE
  5
39B
100
AcDbEntity
  8
0
100
AcDbSpline
 62
7
  6
CONTINUOUS
 70
0
 71
3
 72
55
 73
51
 74
0
 42
0.0000001
 43
0.0000001
 44
0.0000000001
 40
0.0
 40
0.0
 40
0.0
 40
0.0
 40
0.0404000695
 40
0.0812324805
 40
0.1223851511
 40
0.1637450173
 40
0.2051981811
 40
0.2466304537
 40
0.2879277054
 40
0.3289762917
 40
0.3696634525
 40
0.4098777235
 40
0.449509347
 40
0.4884506895
 40
0.5265966653
 40
0.5638451714
 40
0.6000975371
 40
0.6352589949
 40
0.6524024329
 40
0.6692396463
 40
0.6857601119
 40
0.7019536632
 40
0.7178104933
 40
0.7333211878
 40
0.748476745
 40
0.7632685977
 40
0.7776886544
 40
0.7917293095
 40
0.8053835093
 40
0.8186447521
 40
0.8315071823
 40
0.8439655837
 40
0.8560155069
 40
0.8676532613
 40
0.8788760822
 40
0.8896821293
 40
0.9000707037
 40
0.9100422668
 40
0.9195987184
 40
0.9287434558
 40
0.9374817317
 40
0.9458207769
 40
0.9537702576
 40
0.9613424892
 40
0.9685530006
 40
0.9754208446
 40
0.9819692325
 40
0.9882258689
 40
0.9942234935
 40
1.0
 40
1.0
 40
1.0
 40
1.0
 10
10.2447526453
 20
12.0449081708
 30
0.0
 10
10.230419052
 20
12.0459022089
 30
0.0
 10
10.2015829683
 20
12.0476835622
 30
0.0
 10
10.1581042584
 20
12.0497316016
 30
0.0
 10
10.1142593908
 20
12.051166228
 30
0.0
 10
10.0701779113
 20
12.0519831764
 30
0.0
 10
10.0259898645
 20
12.0521800184
 30
0.0
 10
9.9818256814
 20
12.0517561706
 30
0.0
 10
9.937815699
 20
12.0507128914
 30
0.0
 10
9.8940898039
 20
12.0490532808
 30
0.0
 10
9.8507770369
 20
12.0467822697
 30
0.0
 10
9.808005212
 20
12.0439066068
 30
0.0
 10
9.7659005365
 20
12.0404348392
 30
0.0
 10
9.7245872304
 20
12.0363772883
 30
0.0
 10
9.6841871714
 20
12.0317460187
 30
0.0
 10
9.6448194719
 20
12.0265548124
 30
0.0
 10
9.6066003264
 20
12.0208190968
 30
0.0
 10
9.5755460446
 20
12.0155565489
 30
0.0
 10
9.5513669315
 20
12.0110783919
 30
0.0
 10
9.5337417228
 20
12.0076229153
 30
0.0
 10
9.5164858453
 20
12.0040448911
 30
0.0
 10
9.4996120126
 20
12.0003469531
 30
0.0
 10
9.4831326729
 20
11.9965318418
 30
0.0
 10
9.4670599774
 20
11.9926023772
 30
0.0
 10
9.4514057744
 20
11.9885614734
 30
0.0
 10
9.4361816026
 20
11.9844121114
 30
0.0
 10
9.4213986772
 20
11.9801573747
 30
0.0
 10
9.4070678881
 20
11.975800394
 30
0.0
 10
9.393199782
 20
11.9713444132
 30
0.0
 10
9.3798045658
 20
11.9667927012
 30
0.0
 10
9.3668920833
 20
11.9621486518
 30
0.0
 10
9.3544718263
 20
11.9574156592
 30
0.0
 10
9.3425529015
 20
11.9525972546
 30
0.0
 10
9.3311440549
 20
11.9476969419
 30
0.0
 10
9.3202536233
 20
11.942718374
 30
0.0
 10
9.309889578
 20
11.9376651452
 30
0.0
 10
9.3000594542
 20
11.9325410087
 30
0.0
 10
9.2907704233
 20
11.9273496223
 30
0.0
 10
9.2820291911
 20
11.9220948098
 30
0.0
 10
9.2738421111
 20
11.9167802551
 30
0.0
 10
9.2662150424
 20
11.9114098075
 30
0.0
 10
9.2591535221
 20
11.9059871241
 30
0.0
 10
9.2526625722
 20
11.9005160177
 30
0.0
 10
9.2467469575
 20
11.8950000509
 30
0.0
 10
9.2414109353
 20
11.8894429346
 30
0.0
 10
9.2366586243
 20
11.8838480752
 30
0.0
 10
9.23249371
 20
11.8782191176
 30
0.0
 10
9.2289198497
 20
11.8725592214
 30
0.0
 10
9.2259406167
 20
11.8668727819
 30
0.0
 10
9.2243262936
 20
11.8630016603
 30
0.0
 10
9.2236267347
 20
11.8610700596
 30
0.0
  0
SPLINE
  5
39C
100
AcDbEntity
  8
0
100
AcDbSpline
 62
7
  6
CONTINUOUS
 70
0
 71
3
 72
23
 73
19
 74
0
 42
0.0000001
 43
0.0000001
 44
0.0000000001
 40
0.0
 40
0.0
 40
0.0
 40
0.0
 40
0.0635608666
 40
0.1277998777
 40
0.1925421144
 40
0.2576112089
 40
0.3228294401
 40
0.388018646
 40
0.4530007355
 40
0.517598358
 40
0.5816355185
 40
0.6449382144
 40
0.7073350709
 40
0.7686579867
 40
0.8287427892
 40
0.8874299067
 40
0.9445650622
 40
1.0
 40
1.0
 40
1.0
 40
1.0
 10
10.2447526453
 20
11.778672982
 30
0.0
 10
10.230478753
 20
11.7796628798
 30
0.0
 10
10.2017633017
 20
11.7814376848
 30
0.0
 10
10.1584669472
 20
11.7834810619
 30
0.0
 10
10.1148063949
 20
11.7849161245
 30
0.0
 10
10.0709095873
 20
11.7857386435
 30
0.0
 10
10.0269049491
 20
11.7859461929
 30
0.0
 10
9.9829212998
 20
11.7855381635
 30
0.0
 10
9.9390873708
 20
11.7845157562
 30
0.0
 10
9.8955314612
 20
11.7828819839
 30
0.0
 10
9.8523810487
 20
11.7806416603
 30
0.0
 10
9.8097624171
 20
11.7778013876
 30
0.0
 10
9.7678002841
 20
11.7743695375
 30
0.0
 10
9.7266174264
 20
11.7703562268
 30
0.0
 10
9.6863343414
 20
11.7657732932
 30
0.0
 10
9.6470687947
 20
11.7606342459
 30
0.0
 10
9.6089358091
 20
11.7549542851
 30
0.0
 10
9.5839442676
 20
11.750751125
 30
0.0
 10
9.5716598228
 20
11.7485564506
 30
0.0
  0
SPLINE
  5
39D
100
AcDbEntity
  8
0
100
AcDbSpline
 62
7
  6
CONTINUOUS
 70
0
 71
3
 72
61
 73
57
 74
0
 42
0.0000001
 43
0.0000001
 44
0.0000000001
 40
0.0
 40
0.0
 40
0.0
 40
0.0
 40
0.0027758433
 40
0.0055595941
 40
0.0083590873
 40
0.0111820092
 40
0.0140358402
 40
0.0169278032
 40
0.0228516385
 40
0.0290063602
 40
0.0354367082
 40
0.0387681006
 40
0.0421822872
 40
0.0492730731
 40
0.0567370731
 40
0.064596108
 40
0.072867737
 40
0.081565694
 40
0.09070057
 40
0.1002800962
 40
0.110309688
 40
0.1207926208
 40
0.131730418
 40
0.1431229861
 40
0.1549688512
 40
0.1672653029
 40
0.1800084954
 40
0.1931936241
 40
0.2068149163
 40
0.2208658417
 40
0.235339028
 40
0.2502264837
 40
0.2655194851
 40
0.2812087772
 40
0.2972844765
 40
0.3137362206
 40
0.3305531169
 40
0.3477238252
 40
0.3652365653
 40
0.3830791312
 40
0.4012389558
 40
0.4197030683
 40
0.4574902793
 40
0.4963311237
 40
0.5361109391
 40
0.5767111052
 40
0.6180096092
 40
0.6598815936
 40
0.7021998921
 40
0.7448355581
 40
0.7876583843
 40
0.8305374341
 40
0.8733415137
 40
0.9159398405
 40
0.9582021223
 40
1.0
 40
1.0
 40
1.0
 40
1.0
 10
9.1730741335
 20
11.9364296446
 30
0.0
 10
9.1730741356
 20
11.9374935068
 30
0.0
 10
9.1731331573
 20
11.9396247304
 30
0.0
 10
9.173398634
 20
11.9428189354
 30
0.0
 10
9.1738410232
 20
11.9460117718
 30
0.0
 10
9.1744601359
 20
11.9492023728
 30
0.0
 10
9.1752558397
 20
11.9523901409
 30
0.0
 10
9.176562147
 20
11.9566693309
 30
0.0
 10
9.1786526417
 20
11.9620232684
 30
0.0
 10
9.1818442548
 20
11.9683685849
 30
0.0
 10
9.1850482432
 20
11.9735682508
 30
0.0
 10
9.1879436278
 20
11.9777066629
 30
0.0
 10
9.1911448303
 20
11.9819357129
 30
0.0
 10
9.1955956624
 20
11.9871985603
 30
0.0
 10
9.2015561646
 20
11.9933915366
 30
0.0
 10
9.2081971136
 20
11.9995359589
 30
0.0
 10
9.2155129818
 20
12.0056270648
 30
0.0
 10
9.2234978986
 20
12.0116605469
 30
0.0
 10
9.2321455548
 20
12.0176317009
 30
0.0
 10
9.2414490087
 20
12.0235360213
 30
0.0
 10
9.2514008709
 20
12.0293687756
 30
0.0
 10
9.2619931322
 20
12.0351253982
 30
0.0
 10
9.273217292
 20
12.0408012173
 30
0.0
 10
9.2850642816
 20
12.0463916758
 30
0.0
 10
9.2975245168
 20
12.0518922287
 30
0.0
 10
9.3105878943
 20
12.0572983777
 30
0.0
 10
9.3242437905
 20
12.0626057419
 30
0.0
 10
9.3384811005
 20
12.0678099239
 30
0.0
 10
9.3532882101
 20
12.0729067245
 30
0.0
 10
9.3686530506
 20
12.0778918863
 30
0.0
 10
9.3845630663
 20
12.0827613968
 30
0.0
 10
9.4010052666
 20
12.0875111764
 30
0.0
 10
9.4179662025
 20
12.0921373972
 30
0.0
 10
9.4354320068
 20
12.0966361917
 30
0.0
 10
9.4533883857
 20
12.1010039157
 30
0.0
 10
9.4718206445
 20
12.1052369401
 30
0.0
 10
9.4907136929
 20
12.109331809
 30
0.0
 10
9.51005206
 20
12.1132851487
 30
0.0
 10
9.5298199101
 20
12.1170937031
 30
0.0
 10
9.550001046
 20
12.1207543592
 30
0.0
 10
9.5705789537
 20
12.1242640935
 30
0.0
 10
9.5987392384
 20
12.1287733061
 30
0.0
 10
9.6348095629
 20
12.1340011971
 30
0.0
 10
9.6790755812
 20
12.1395825816
 30
0.0
 10
9.7245046805
 20
12.1445005634
 30
0.0
 10
9.7709479678
 20
12.1487389147
 30
0.0
 10
9.8182533683
 20
12.1522836254
 30
0.0
 10
9.8662659096
 20
12.1551229898
 30
0.0
 10
9.9148282973
 20
12.1572476318
 30
0.0
 10
9.9637814178
 20
12.1586505365
 30
0.0
 10
10.0129648715
 20
12.159327074
 30
0.0
 10
10.0622174915
 20
12.159275008
 30
0.0
 10
10.1113779028
 20
12.1584945175
 30
0.0
 10
10.1602849967
 20
12.1569881639
 30
0.0
 10
10.2087784463
 20
12.154760948
 30
0.0
 10
10.2409361722
 20
12.1527875357
 30
0.0
 10
10.2569171304
 20
12.1516792525
 30
0.0
  0
SPLINE
  5
39E
100
AcDbEntity
  8
0
100
AcDbSpline
 62
7
  6
CONTINUOUS
 70
0
 71
3
 72
54
 73
50
 74
0
 42
0.0000001
 43
0.0000001
 44
0.0000000001
 40
0.0
 40
0.0
 40
0.0
 40
0.0
 40
0.0398033734
 40
0.0800254056
 40
0.120560708
 40
0.1613030477
 40
0.2021453548
 40
0.2429802772
 40
0.2837004667
 40
0.3241989715
 40
0.3643695906
 40
0.404107244
 40
0.4433083399
 40
0.4818711486
 40
0.5196961804
 40
0.5566865734
 40
0.5927484924
 40
0.6277915442
 40
0.661729217
 40
0.6782579103
 40
0.6944798197
 40
0.7103854633
 40
0.7259656533
 40
0.7412116136
 40
0.7561148929
 40
0.7706675075
 40
0.7848618374
 40
0.7986907952
 40
0.8121477074
 40
0.8252265103
 40
0.8379216217
 40
0.8502281642
 40
0.8621418335
 40
0.8736591506
 40
0.8847773371
 40
0.8954945982
 40
0.9058100181
 40
0.915723879
 40
0.9252375938
 40
0.9343540703
 40
0.9430777036
 40
0.951414797
 40
0.9593736415
 40
0.9669650058
 40
0.974202323
 40
0.9811022498
 40
0.9876849501
 40
0.993974666
 40
1.0
 40
1.0
 40
1.0
 40
1.0
 10
10.2569171304
 20
12.0917918487
 30
0.0
 10
10.2421087753
 20
12.0928188116
 30
0.0
 10
10.2123206712
 20
12.0946642161
 30
0.0
 10
10.1674092658
 20
12.0968025129
 30
0.0
 10
10.1221222272
 20
12.098321831
 30
0.0
 10
10.076587255
 20
12.0992178636
 30
0.0
 10
10.0309325327
 20
12.0994880682
 30
0.0
 10
9.9852866637
 20
12.0991316815
 30
0.0
 10
9.9397781986
 20
12.0981497121
 30
0.0
 10
9.894535308
 20
12.0965449439
 30
0.0
 10
9.8496854069
 20
12.0943219253
 30
0.0
 10
9.8053547981
 20
12.0914869583
 30
0.0
 10
9.7616683114
 20
12.088048081
 30
0.0
 10
9.7187489512
 20
12.0840150456
 30
0.0
 10
9.6767175409
 20
12.0793992924
 30
0.0
 10
9.635692395
 20
12.0742139168
 30
0.0
 10
9.5957889183
 20
12.0684736414
 30
0.0
 10
9.5571194926
 20
12.0621947478
 30
0.0
 10
9.5257443448
 20
12.0564793608
 30
0.0
 10
9.5013488088
 20
12.0516418623
 30
0.0
 10
9.4835883016
 20
12.0479223642
 30
0.0
 10
9.4662155532
 20
12.0440823203
 30
0.0
 10
9.4492427763
 20
12.0401243741
 30
0.0
 10
9.4326819159
 20
12.0360513796
 30
0.0
 10
9.4165446251
 20
12.0318661526
 30
0.0
 10
9.4008422502
 20
12.0275717124
 30
0.0
 10
9.3855858372
 20
12.0231710225
 30
0.0
 10
9.3707861027
 20
12.0186672627
 30
0.0
 10
9.3564534532
 20
12.0140635333
 30
0.0
 10
9.3425979424
 20
12.0093631653
 30
0.0
 10
9.329229306
 20
12.0045693855
 30
0.0
 10
9.316356903
 20
11.999685664
 30
0.0
 10
9.3039897691
 20
11.9947153424
 30
0.0
 10
9.2921365367
 20
11.9896620157
 30
0.0
 10
9.2808055136
 20
11.9845291261
 30
0.0
 10
9.2700045756
 20
11.9793203755
 30
0.0
 10
9.2597412763
 20
11.974039288
 30
0.0
 10
9.2500227072
 20
11.9686896476
 30
0.0
 10
9.2408556452
 20
11.9632750351
 30
0.0
 10
9.2322463752
 20
11.9577992819
 30
0.0
 10
9.2242008842
 20
11.9522659887
 30
0.0
 10
9.2167246428
 20
11.9466789854
 30
0.0
 10
9.2098228563
 20
11.9410418409
 30
0.0
 10
9.2035002087
 20
11.9353583225
 30
0.0
 10
9.1977611752
 20
11.9296318981
 30
0.0
 10
9.192609769
 20
11.9238662546
 30
0.0
 10
9.188049808
 20
11.9180645971
 30
0.0
 10
9.1840850809
 20
11.9122310513
 30
0.0
 10
9.1817954095
 20
11.9082432613
 30
0.0
 10
9.1807591891
 20
11.9062494168
 30
0.0
  0
SPLINE
  5
39F
100
AcDbEntity
  8
0
100
AcDbSpline
 62
7
  6
CONTINUOUS
 70
0
 71
3
 72
65
 73
61
 74
0
 42
0.0000001
 43
0.0000001
 44
0.0000000001
 40
0.0
 40
0.0
 40
0.0
 40
0.0
 40
0.0452102046
 40
0.0910011012
 40
0.1371887729
 40
0.1835862478
 40
0.2300059957
 40
0.2762602
 40
0.3221619419
 40
0.3675261063
 40
0.4121703681
 40
0.4559161707
 40
0.4985897261
 40
0.540023038
 40
0.5602242517
 40
0.580055574
 40
0.5994981522
 40
0.618533631
 40
0.6371443596
 40
0.6553132518
 40
0.6730240109
 40
0.6902610298
 40
0.7070095499
 40
0.7232556814
 40
0.7389864445
 40
0.7541899479
 40
0.7688553168
 40
0.7829730115
 40
0.7965347161
 40
0.8095337227
 40
0.8219649096
 40
0.8338251088
 40
0.8451133035
 40
0.8558309545
 40
0.8659825062
 40
0.8755757442
 40
0.8846226524
 40
0.8931399687
 40
0.901150382
 40
0.908683466
 40
0.9157770899
 40
0.9224786225
 40
0.9288460182
 40
0.9319268803
 40
0.9349510321
 40
0.9379287203
 40
0.9408707454
 40
0.9437883397
 40
0.9466930384
 40
0.9495965492
 40
0.9525105945
 40
0.9554467562
 40
0.9584163423
 40
0.9614302457
 40
0.9644988292
 40
0.9708360818
 40
0.977500981
 40
0.9845526122
 40
0.9920393536
 40
1.0
 40
1.0
 40
1.0
 40
1.0
 10
13.5597532544
 20
7.7966765885
 30
0.0
 10
13.5597532544
 20
7.7847369608
 30
0.0
 10
13.5595403184
 20
7.7607038662
 30
0.0
 10
13.5586013792
 20
7.724484031
 30
0.0
 10
13.5570444425
 20
7.6879715847
 30
0.0
 10
13.5548761521
 20
7.6513240273
 30
0.0
 10
13.552105862
 20
7.6146994277
 30
0.0
 10
13.5487455188
 20
7.5782557028
 30
0.0
 10
13.5448096518
 20
7.5421500057
 30
0.0
 10
13.5403152932
 20
7.5065380094
 30
0.0
 10
13.5352819106
 20
7.4715732527
 30
0.0
 10
13.5297313298
 20
7.4374064109
 30
0.0
 10
13.5236876179
 20
7.4041848374
 30
0.0
 10
13.5182171155
 20
7.377184419
 30
0.0
 10
13.5136060392
 20
7.356169558
 30
0.0
 10
13.5100704072
 20
7.3408654482
 30
0.0
 10
13.5064322316
 20
7.3259020314
 30
0.0
 10
13.5026953727
 20
7.3112954284
 30
0.0
 10
13.4988639375
 20
7.2970613832
 30
0.0
 10
13.4949420106
 20
7.2832152388
 30
0.0
 10
13.4909338845
 20
7.2697719084
 30
0.0
 10
13.4868438605
 20
7.2567458742
 30
0.0
 10
13.482676378
 20
7.244151158
 30
0.0
 10
13.4784359522
 20
7.2320013111
 30
0.0
 10
13.4741271389
 20
7.2203094036
 30
0.0
 10
13.4697546475
 20
7.2090879895
 30
0.0
 10
13.4653231352
 20
7.1983491269
 30
0.0
 10
13.4608374627
 20
7.1881043115
 30
0.0
 10
13.4563023895
 20
7.1783645259
 30
0.0
 10
13.4517228631
 20
7.1691401543
 30
0.0
 10
13.4471037468
 20
7.1604410357
 30
0.0
 10
13.44245
 20
7.1522763976
 30
0.0
 10
13.4377665664
 20
7.1446548672
 30
0.0
 10
13.4330583375
 20
7.1375844775
 30
0.0
 10
13.4283302634
 20
7.1310725891
 30
0.0
 10
13.4235870743
 20
7.125126022
 30
0.0
 10
13.4188335736
 20
7.1197508707
 30
0.0
 10
13.4140742123
 20
7.1149527864
 30
0.0
 10
13.4093134119
 20
7.1107367582
 30
0.0
 10
13.4045552665
 20
7.1071075156
 30
0.0
 10
13.3998035699
 20
7.1040694154
 30
0.0
 10
13.3950627118
 20
7.1016269653
 30
0.0
 10
13.3910800368
 20
7.1000747482
 30
0.0
 10
13.3879173698
 20
7.0991485483
 30
0.0
 10
13.3855779118
 20
7.0986121029
 30
0.0
 10
13.3832460189
 20
7.0982267077
 30
0.0
 10
13.3809223385
 20
7.0979924848
 30
0.0
 10
13.3786076076
 20
7.097909538
 30
0.0
 10
13.376302553
 20
7.0979779506
 30
0.0
 10
13.3740079228
 20
7.0981977583
 30
0.0
 10
13.3717244525
 20
7.0985688233
 30
0.0
 10
13.3694528552
 20
7.0990909924
 30
0.0
 10
13.3671938578
 20
7.0997640875
 30
0.0
 10
13.36494808
 20
7.1005878783
 30
0.0
 10
13.3619404168
 20
7.1019004717
 30
0.0
 10
13.3582053566
 20
7.1039360304
 30
0.0
 10
13.3538399394
 20
7.10694938
 30
0.0
 10
13.3495456559
 20
7.1105547489
 30
0.0
 10
13.3453264047
 20
7.1147467572
 30
0.0
 10
13.3426507392
 20
7.117831356
 30
0.0
 10
13.3413242293
 20
7.1194623675
 30
0.0
  0
SPLINE
  5
3A0
100
AcDbEntity
  8
0
100
AcDbSpline
 62
7
  6
CONTINUOUS
 70
0
 71
3
 72
49
 73
45
 74
0
 42
0.0000001
 43
0.0000001
 44
0.0000000001
 40
0.0
 40
0.0
 40
0.0
 40
0.0
 40
0.0452815664
 40
0.0900934916
 40
0.1343764452
 40
0.1780778156
 40
0.2211437761
 40
0.2635215776
 40
0.3051600111
 40
0.3460090596
 40
0.3860201398
 40
0.4251461855
 40
0.4633418347
 40
0.5005635451
 40
0.5367696648
 40
0.5719206903
 40
0.6059794313
 40
0.6389111097
 40
0.6706836833
 40
0.7012681201
 40
0.7306385835
 40
0.7587728829
 40
0.7856529568
 40
0.7986186113
 40
0.8112660877
 40
0.8235944712
 40
0.835603312
 40
0.8472925624
 40
0.8586625372
 40
0.8697141245
 40
0.8804487193
 40
0.8908682143
 40
0.9009752246
 40
0.910773026
 40
0.9202655834
 40
0.9294577897
 40
0.9383554191
 40
0.9469651977
 40
0.9552950545
 40
0.9633540956
 40
0.9711527135
 40
0.9787028343
 40
0.9860179023
 40
1.0
 40
1.0
 40
1.0
 40
1.0
 10
10.2569171304
 20
12.0917918487
 30
0.0
 10
10.267045506
 20
12.0910894434
 30
0.0
 10
10.2871903218
 20
12.0895902996
 30
0.0
 10
10.3172119714
 20
12.0870441283
 30
0.0
 10
10.3468524072
 20
12.0842146585
 30
0.0
 10
10.3760712091
 20
12.081105799
 30
0.0
 10
10.4048293816
 20
12.0777217233
 30
0.0
 10
10.4330881183
 20
12.0740670112
 30
0.0
 10
10.4608093366
 20
12.0701465934
 30
0.0
 10
10.4879557358
 20
12.065965781
 30
0.0
 10
10.5144907647
 20
12.0615302413
 30
0.0
 10
10.5403786984
 20
12.0568459503
 30
0.0
 10
10.565584701
 20
12.0519192552
 30
0.0
 10
10.590074863
 20
12.0467568399
 30
0.0
 10
10.6138162388
 20
12.0413656648
 30
0.0
 10
10.6367769111
 20
12.0357530299
 30
0.0
 10
10.6589260342
 20
12.0299265528
 30
0.0
 10
10.6802338582
 20
12.0238940931
 30
0.0
 10
10.7006717983
 20
12.0176638063
 30
0.0
 10
10.7202124636
 20
12.0112441431
 30
0.0
 10
10.7388297416
 20
12.0046437479
 30
0.0
 10
10.7564986115
 20
11.9978715182
 30
0.0
 10
10.7705770043
 20
11.9920243346
 30
0.0
 10
10.7813398139
 20
11.987260274
 30
0.0
 10
10.7890631189
 20
11.9836929568
 30
0.0
 10
10.7965321832
 20
11.98008957
 30
0.0
 10
10.8037445245
 20
11.9764513243
 30
0.0
 10
10.8106977378
 20
11.9727794666
 30
0.0
 10
10.817389473
 20
11.9690751751
 30
0.0
 10
10.8238175076
 20
11.9653397148
 30
0.0
 10
10.8299797082
 20
11.9615743494
 30
0.0
 10
10.8358739881
 20
11.9577802778
 30
0.0
 10
10.8414984029
 20
11.9539587897
 30
0.0
 10
10.8468510923
 20
11.9501111607
 30
0.0
 10
10.8519302361
 20
11.9462385994
 30
0.0
 10
10.8567341711
 20
11.9423424089
 30
0.0
 10
10.8612613082
 20
11.9384238641
 30
0.0
 10
10.8655100893
 20
11.9344841698
 30
0.0
 10
10.8694791212
 20
11.930524638
 30
0.0
 10
10.8731670907
 20
11.9265464989
 30
0.0
 10
10.8765726151
 20
11.9225510581
 30
0.0
 10
10.8796947847
 20
11.9185392389
 30
0.0
 10
10.8834213808
 20
11.9132511392
 30
0.0
 10
10.885879304
 20
11.9091432243
 30
0.0
 10
10.887329467
 20
11.9063638312
 30
0.0
  0
SPLINE
  5
3A1
100
AcDbEntity
  8
0
100
AcDbSpline
 62
7
  6
CONTINUOUS
 70
0
 71
3
 72
54
 73
50
 74
0
 42
0.0000001
 43
0.0000001
 44
0.0000000001
 40
0.0
 40
0.0
 40
0.0
 40
0.0
 40
0.0476755643
 40
0.0948035029
 40
0.1413105796
 40
0.1871303663
 40
0.2321952114
 40
0.2764395567
 40
0.3197996841
 40
0.3622136003
 40
0.4036214605
 40
0.443965691
 40
0.4831911402
 40
0.5212453112
 40
0.5580786713
 40
0.5936448614
 40
0.6279009647
 40
0.660807902
 40
0.6923308943
 40
0.7075641742
 40
0.7224406167
 40
0.7369572781
 40
0.7511116813
 40
0.7649016442
 40
0.7783254858
 40
0.7913820263
 40
0.8040704929
 40
0.8163907811
 40
0.8283433533
 40
0.8399292739
 40
0.8511504567
 40
0.8620095274
 40
0.8725100023
 40
0.8826564649
 40
0.8924544799
 40
0.9019108907
 40
0.9110339098
 40
0.9198331545
 40
0.9283200011
 40
0.9365076151
 40
0.9444111214
 40
0.9520479116
 40
0.9594376359
 40
0.9666024071
 40
0.9735669077
 40
0.9803582746
 40
0.9870060946
 40
0.9935421425
 40
1.0
 40
1.0
 40
1.0
 40
1.0
 10
10.2501878408
 20
12.0852918536
 30
0.0
 10
10.2609247793
 20
12.0845472444
 30
0.0
 10
10.2822673685
 20
12.082948905
 30
0.0
 10
10.3140507257
 20
12.0802066878
 30
0.0
 10
10.3453832545
 20
12.0771367687
 30
0.0
 10
10.3762140058
 20
12.0737442277
 30
0.0
 10
10.4064936745
 20
12.0700344768
 30
0.0
 10
10.4361733932
 20
12.0660135501
 30
0.0
 10
10.4652053785
 20
12.0616879628
 30
0.0
 10
10.4935428978
 20
12.0570646939
 30
0.0
 10
10.5211403333
 20
12.0521512363
 30
0.0
 10
10.5479532846
 20
12.046955558
 30
0.0
 10
10.5739386167
 20
12.0414860701
 30
0.0
 10
10.5990545385
 20
12.0357516134
 30
0.0
 10
10.6232606969
 20
12.029761492
 30
0.0
 10
10.6465182144
 20
12.0235254146
 30
0.0
 10
10.6687898081
 20
12.0170534683
 30
0.0
 10
10.6900396483
 20
12.010356117
 30
0.0
 10
10.7070566121
 20
12.0045317921
 30
0.0
 10
10.7201267103
 20
11.9997600163
 30
0.0
 10
10.7295410327
 20
11.9961724277
 30
0.0
 10
10.7386752403
 20
11.9925366933
 30
0.0
 10
10.7475256942
 20
11.9888543119
 30
0.0
 10
10.756088827
 20
11.9851267241
 30
0.0
 10
10.7643612072
 20
11.9813554325
 30
0.0
 10
10.7723395359
 20
11.9775419914
 30
0.0
 10
10.7800205954
 20
11.9736878684
 30
0.0
 10
10.7874013298
 20
11.9697946462
 30
0.0
 10
10.7944787975
 20
11.9658638909
 30
0.0
 10
10.8012501454
 20
11.9618971109
 30
0.0
 10
10.8077127066
 20
11.9578959453
 30
0.0
 10
10.8138638976
 20
11.9538619509
 30
0.0
 10
10.819701252
 20
11.9497966855
 30
0.0
 10
10.8252224914
 20
11.9457018057
 30
0.0
 10
10.8304253873
 20
11.9415788462
 30
0.0
 10
10.8353078742
 20
11.9374294076
 30
0.0
 10
10.8398680446
 20
11.9332551209
 30
0.0
 10
10.8441040103
 20
11.9290574937
 30
0.0
 10
10.8480140993
 20
11.9248381479
 30
0.0
 10
10.8515967215
 20
11.9205986558
 30
0.0
 10
10.8548503005
 20
11.9163405186
 30
0.0
 10
10.8577735027
 20
11.9120653657
 30
0.0
 10
10.8603649659
 20
11.9077747369
 30
0.0
 10
10.8626233924
 20
11.9034702143
 30
0.0
 10
10.864547708
 20
11.899153489
 30
0.0
 10
10.866136733
 20
11.8948262565
 30
0.0
 10
10.8673895142
 20
11.8904902492
 30
0.0
 10
10.8683052548
 20
11.8861477432
 30
0.0
 10
10.8686922384
 20
11.8832366031
 30
0.0
 10
10.8688283302
 20
11.8817851121
 30
0.0
  0
SPLINE
  5
3A2
100
AcDbEntity
  8
0
100
AcDbSpline
 62
7
  6
CONTINUOUS
 70
0
 71
3
 72
50
 73
46
 74
0
 42
0.0000001
 43
0.0000001
 44
0.0000000001
 40
0.0
 40
0.0
 40
0.0
 40
0.0
 40
0.0461558267
 40
0.0918143428
 40
0.1369111716
 40
0.1813889563
 40
0.2251890572
 40
0.2682542074
 40
0.3105288172
 40
0.3519586522
 40
0.3924911667
 40
0.4320755631
 40
0.4706629685
 40
0.5082066558
 40
0.5446621138
 40
0.5799872674
 40
0.6141427892
 40
0.6470922259
 40
0.678802274
 40
0.709243238
 40
0.7383893172
 40
0.7662190323
 40
0.7927159385
 40
0.8054614736
 40
0.8178702801
 40
0.8299420431
 40
0.8416769836
 40
0.8530757429
 40
0.8641395922
 40
0.8748704598
 40
0.8852708599
 40
0.895344137
 40
0.9050944757
 40
0.9145268872
 40
0.9236474839
 40
0.9324634853
 40
0.94098327
 40
0.9492166701
 40
0.9571749795
 40
0.9648710636
 40
0.9723196366
 40
0.9795372547
 40
0.9865424271
 40
0.9933557882
 40
1.0
 40
1.0
 40
1.0
 40
1.0
 10
10.2447526453
 20
12.0449081708
 30
0.0
 10
10.2546545389
 20
12.0442214722
 30
0.0
 10
10.2743446809
 20
12.0427527649
 30
0.0
 10
10.303680925
 20
12.0402489808
 30
0.0
 10
10.3326288784
 20
12.0374589719
 30
0.0
 10
10.3611463437
 20
12.0343868637
 30
0.0
 10
10.389192592
 20
12.0310370598
 30
0.0
 10
10.4167271387
 20
12.0274144182
 30
0.0
 10
10.4437103016
 20
12.0235241733
 30
0.0
 10
10.470103241
 20
12.0193719505
 30
0.0
 10
10.4958679495
 20
12.0149637789
 30
0.0
 10
10.5209673289
 20
12.010306025
 30
0.0
 10
10.545365252
 20
12.005405422
 30
0.0
 10
10.5690266196
 20
12.0002690897
 30
0.0
 10
10.5919173967
 20
11.9949044574
 30
0.0
 10
10.6140046701
 20
11.989319272
 30
0.0
 10
10.6352567178
 20
11.9835216466
 30
0.0
 10
10.655643034
 20
11.9775199742
 30
0.0
 10
10.6751343819
 20
11.9713229075
 30
0.0
 10
10.6937028492
 20
11.9649394297
 30
0.0
 10
10.7113219575
 20
11.9583787573
 30
0.0
 10
10.7279664014
 20
11.9516503296
 30
0.0
 10
10.7411704984
 20
11.9458388097
 30
0.0
 10
10.7512193033
 20
11.941105114
 30
0.0
 10
10.7583998563
 20
11.9375649324
 30
0.0
 10
10.7653195273
 20
11.9339901294
 30
0.0
 10
10.7719758729
 20
11.9303820048
 30
0.0
 10
10.7783664904
 20
11.9267418102
 30
0.0
 10
10.7844890985
 20
11.9230708448
 30
0.0
 10
10.7903415368
 20
11.9193704532
 30
0.0
 10
10.7959216903
 20
11.9156418946
 30
0.0
 10
10.80122758
 20
11.9118864992
 30
0.0
 10
10.8062573429
 20
11.9081056181
 30
0.0
 10
10.8110091487
 20
11.9043005128
 30
0.0
 10
10.8154813241
 20
11.9004725297
 30
0.0
 10
10.8196722971
 20
11.896623009
 30
0.0
 10
10.8235805115
 20
11.8927532034
 30
0.0
 10
10.827204589
 20
11.8888644604
 30
0.0
 10
10.8305432236
 20
11.8849580956
 30
0.0
 10
10.8335951029
 20
11.8810353543
 30
0.0
 10
10.8363591133
 20
11.8770975797
 30
0.0
 10
10.8388341596
 20
11.873146097
 30
0.0
 10
10.8410191555
 20
11.8691821183
 30
0.0
 10
10.8429131251
 20
11.8652072807
 30
0.0
 10
10.8439936137
 20
11.8625200105
 30
0.0
 10
10.8444825201
 20
11.8611774411
 30
0.0
  0
SPLINE
  5
3A3
100
AcDbEntity
  8
0
100
AcDbSpline
 62
7
  6
CONTINUOUS
 70
0
 71
3
 72
15
 73
11
 74
0
 42
0.0000001
 43
0.0000001
 44
0.0000000001
 40
0.0
 40
0.0
 40
0.0
 40
0.0
 40
0.1322285991
 40
0.2628226728
 40
0.3915550757
 40
0.5182156063
 40
0.642592113
 40
0.7644798976
 40
0.8836800241
 40
1.0
 40
1.0
 40
1.0
 40
1.0
 10
10.2447526453
 20
11.778672982
 30
0.0
 10
10.2559040988
 20
11.7778996261
 30
0.0
 10
10.2780603736
 20
11.7762323337
 30
0.0
 10
10.3110364046
 20
11.773349946
 30
0.0
 10
10.3435058439
 20
11.7701054597
 30
0.0
 10
10.3754088691
 20
11.7665049592
 30
0.0
 10
10.4066874234
 20
11.7625549801
 30
0.0
 10
10.4372842104
 20
11.7582628143
 30
0.0
 10
10.4671432076
 20
11.7536363711
 30
0.0
 10
10.4867715232
 20
11.7502922262
 30
0.0
 10
10.4964516545
 20
11.7485630182
 30
0.0
  0
SPLINE
  5
3A4
100
AcDbEntity
  8
0
100
AcDbSpline
 62
7
  6
CONTINUOUS
 70
0
 71
3
 72
51
 73
47
 74
0
 42
0.0000001
 43
0.0000001
 44
0.0000000001
 40
0.0
 40
0.0
 40
0.0
 40
0.0
 40
0.0389775668
 40
0.0783772819
 40
0.1180993476
 40
0.1580455949
 40
0.1981155805
 40
0.238209089
 40
0.2782256308
 40
0.3180650098
 40
0.3576275862
 40
0.3968146069
 40
0.4355285267
 40
0.4736733304
 40
0.5111548614
 40
0.5478811538
 40
0.5837627774
 40
0.6187131985
 40
0.6526491426
 40
0.6854909834
 40
0.7171631617
 40
0.7475946482
 40
0.7623245478
 40
0.7767200104
 40
0.7907736159
 40
0.8044784683
 40
0.8178279892
 40
0.8308161167
 40
0.843437266
 40
0.8556863233
 40
0.8675588416
 40
0.8790508527
 40
0.8901591967
 40
0.9008813344
 40
0.9112156022
 40
0.921161233
 40
0.9307184076
 40
0.9398885495
 40
0.9486742251
 40
0.9570796006
 40
0.9651104022
 40
0.9727743357
 40
0.9800813179
 40
0.9870437581
 40
0.9936770955
 40
1.0
 40
1.0
 40
1.0
 40
1.0
 10
13.4269731202
 20
10.161348089
 30
0.0
 10
13.4269731202
 20
10.1519340248
 30
0.0
 10
13.4268412698
 20
10.133003696
 30
0.0
 10
13.4262573702
 20
10.1044849004
 30
0.0
 10
13.4252875899
 20
10.075742486
 30
0.0
 10
13.4239345698
 20
10.0468535253
 30
0.0
 10
13.4222018659
 20
10.0178949788
 30
0.0
 10
13.4200941265
 20
9.988944291
 30
0.0
 10
13.4176169711
 20
9.9600787667
 30
0.0
 10
13.4147770261
 20
9.9313755212
 30
0.0
 10
13.4115818931
 20
9.9029112228
 30
0.0
 10
13.4080401288
 20
9.8747618991
 30
0.0
 10
13.4041612214
 20
9.8470027309
 30
0.0
 10
13.3999555656
 20
9.8197078507
 30
0.0
 10
13.3954344356
 20
9.7929501442
 30
0.0
 10
13.3906099553
 20
9.7668010526
 30
0.0
 10
13.3854950667
 20
9.7413303785
 30
0.0
 10
13.3801035015
 20
9.7166060889
 30
0.0
 10
13.3744497367
 20
9.6926941449
 30
0.0
 10
13.368548964
 20
9.6696582705
 30
0.0
 10
13.3624170254
 20
9.6475599558
 30
0.0
 10
13.3570718765
 20
9.6297873729
 30
0.0
 10
13.352685501
 20
9.6160876812
 30
0.0
 10
13.3493840092
 20
9.6061949535
 30
0.0
 10
13.3460372547
 20
9.5965792022
 30
0.0
 10
13.3426475218
 20
9.5872468212
 30
0.0
 10
13.3392170384
 20
9.5782040393
 30
0.0
 10
13.3357481141
 20
9.5694568788
 30
0.0
 10
13.3322430856
 20
9.5610111597
 30
0.0
 10
13.3287042473
 20
9.552872514
 30
0.0
 10
13.3251340341
 20
9.5450463352
 30
0.0
 10
13.3215347478
 20
9.5375378439
 30
0.0
 10
13.3179088612
 20
9.5303520006
 30
0.0
 10
13.3142587366
 20
9.5234935807
 30
0.0
 10
13.3105868141
 20
9.5169671171
 30
0.0
 10
13.3068955474
 20
9.5107769067
 30
0.0
 10
13.303187311
 20
9.5049270539
 30
0.0
 10
13.2994646233
 20
9.4994213601
 30
0.0
 10
13.2957298132
 20
9.4942634803
 30
0.0
 10
13.2919853766
 20
9.4894567369
 30
0.0
 10
13.2882336456
 20
9.4850042949
 30
0.0
 10
13.2844769871
 20
9.4809090452
 30
0.0
 10
13.2807177658
 20
9.4771736509
 30
0.0
 10
13.2769581036
 20
9.4738005936
 30
0.0
 10
13.2732005648
 20
9.4707922275
 30
0.0
 10
13.2706393275
 20
9.4689897764
 30
0.0
 10
13.2693606181
 20
9.4681548746
 30
0.0
  0
SPLINE
  5
3A5
100
AcDbEntity
  8
0
100
AcDbSpline
 62
7
  6
CONTINUOUS
 70
0
 71
3
 72
39
 73
35
 74
0
 42
0.0000001
 43
0.0000001
 44
0.0000000001
 40
0.0
 40
0.0
 40
0.0
 40
0.0
 40
0.0299424718
 40
0.0599093198
 40
0.0899243266
 40
0.120010106
 40
0.1501875647
 40
0.1804754164
 40
0.2108897604
 40
0.2414437366
 40
0.2721472601
 40
0.3030068419
 40
0.3340254933
 40
0.365202712
 40
0.3965345466
 40
0.4280137318
 40
0.4596298892
 40
0.491369784
 40
0.5232176323
 40
0.5551554498
 40
0.5871634345
 40
0.6192203774
 40
0.651304093
 40
0.6833918636
 40
0.7154608911
 40
0.7474887497
 40
0.7794538335
 40
0.8113357936
 40
0.8431159524
 40
0.8747777124
 40
0.906306864
 40
0.9376920822
 40
0.9689247084
 40
1.0
 40
1.0
 40
1.0
 40
1.0
 10
12.8035520443
 20
5.9082652169
 30
0.0
 10
12.7988903478
 20
5.9037623631
 30
0.0
 10
12.7892003952
 20
5.8951200547
 30
0.0
 10
12.7736755807
 20
5.88334644
 30
0.0
 10
12.7572402343
 20
5.8728215953
 30
0.0
 10
12.7399861895
 20
5.863604562
 30
0.0
 10
12.7220083082
 20
5.8557456948
 30
0.0
 10
12.7034058083
 20
5.8492881935
 30
0.0
 10
12.6842812008
 20
5.8442673896
 30
0.0
 10
12.6647398485
 20
5.8407106945
 30
0.0
 10
12.6448893425
 20
5.8386374277
 30
0.0
 10
12.6248389161
 20
5.8380587356
 30
0.0
 10
12.6046988415
 20
5.8389775416
 30
0.0
 10
12.5845798272
 20
5.8413885446
 30
0.0
 10
12.5645924151
 20
5.8452782588
 30
0.0
 10
12.5448463801
 20
5.850625098
 30
0.0
 10
12.5254501354
 20
5.8573995
 30
0.0
 10
12.5065101459
 20
5.8655640946
 30
0.0
 10
12.4881303515
 20
5.875073911
 30
0.0
 10
12.4704116047
 20
5.8858766249
 30
0.0
 10
12.4534511245
 20
5.8979128468
 30
0.0
 10
12.4373419696
 20
5.9111164462
 30
0.0
 10
12.4221725346
 20
5.9254149124
 30
0.0
 10
12.4080260698
 20
5.9407297493
 30
0.0
 10
12.3949802292
 20
5.9569769017
 30
0.0
 10
12.3831066491
 20
5.9740672122
 30
0.0
 10
12.3724705571
 20
5.9919069045
 30
0.0
 10
12.3631304194
 20
6.0103980951
 30
0.0
 10
12.355137614
 20
6.0294393114
 30
0.0
 10
12.3485361702
 20
6.0489260854
 30
0.0
 10
12.3433624735
 20
6.0687513614
 30
0.0
 10
12.3396451778
 20
6.0888066608
 30
0.0
 10
12.3374048377
 20
6.1089804116
 30
0.0
 10
12.3369030544
 20
6.1224726376
 30
0.0
 10
12.3369030544
 20
6.1291991344
 30
0.0
  0
SPLINE
  5
3A6
100
AcDbEntity
  8
0
100
AcDbSpline
 62
7
  6
CONTINUOUS
 70
0
 71
3
 72
55
 73
51
 74
0
 42
0.0000001
 43
0.0000001
 44
0.0000000001
 40
0.0
 40
0.0
 40
0.0
 40
0.0
 40
0.0481975415
 40
0.0958290817
 40
0.142818713
 40
0.1890963521
 40
0.2345910715
 40
0.279234315
 40
0.3229593385
 40
0.3657013756
 40
0.4073979227
 40
0.4479889149
 40
0.4874169784
 40
0.525627636
 40
0.5625695632
 40
0.5981948995
 40
0.6324596307
 40
0.6653239472
 40
0.681220104
 40
0.69675341
 40
0.7119202568
 40
0.7267175098
 40
0.7411423279
 40
0.7551923488
 40
0.7688656914
 40
0.782160877
 40
0.7950770786
 40
0.8076139743
 40
0.8197718786
 40
0.8315518771
 40
0.8429557109
 40
0.8539860605
 40
0.8646465134
 40
0.8749416424
 40
0.8848772785
 40
0.8944604376
 40
0.9036996141
 40
0.912604918
 40
0.921188144
 40
0.9294631376
 40
0.9374458256
 40
0.9451544636
 40
0.952609859
 40
0.9598353745
 40
0.966857131
 40
0.9737039172
 40
0.9804070573
 40
0.9870002114
 40
0.9935188976
 40
1.0
 40
1.0
 40
1.0
 40
1.0
 10
10.2569171304
 20
12.1516792525
 30
0.0
 10
10.2681963587
 20
12.1508970353
 30
0.0
 10
10.2906138484
 20
12.1492158708
 30
0.0
 10
10.3239924668
 20
12.1463251894
 30
0.0
 10
10.3568864162
 20
12.1430839387
 30
0.0
 10
10.3892402813
 20
12.1394976745
 30
0.0
 10
10.4210002695
 20
12.1355723405
 30
0.0
 10
10.4521131758
 20
12.1313145613
 30
0.0
 10
10.482527022
 20
12.1267314962
 30
0.0
 10
10.5121909833
 20
12.1218308454
 30
0.0
 10
10.541055487
 20
12.1166208426
 30
0.0
 10
10.5690723201
 20
12.1111102431
 30
0.0
 10
10.596194707
 20
12.1053083239
 30
0.0
 10
10.6223773891
 20
12.0992248437
 30
0.0
 10
10.64757668
 20
12.0928700301
 30
0.0
 10
10.6717506167
 20
12.0862545602
 30
0.0
 10
10.6948588257
 20
12.0793895628
 30
0.0
 10
10.7133954822
 20
12.073406006
 30
0.0
 10
10.7276561786
 20
12.068495068
 30
0.0
 10
10.7379428909
 20
12.0647975776
 30
0.0
 10
10.7479352855
 20
12.0610464521
 30
0.0
 10
10.7576292218
 20
12.057243299
 30
0.0
 10
10.7670206471
 20
12.0533896703
 30
0.0
 10
10.7761056511
 20
12.0494871795
 30
0.0
 10
10.7848804642
 20
12.0455374917
 30
0.0
 10
10.7933414158
 20
12.0415421911
 30
0.0
 10
10.8014850093
 20
12.0375029969
 30
0.0
 10
10.8093078586
 20
12.0334215676
 30
0.0
 10
10.8168067067
 20
12.0292995687
 30
0.0
 10
10.8239784745
 20
12.0251387661
 30
0.0
 10
10.8308201655
 20
12.0209408093
 30
0.0
 10
10.8373289698
 20
12.0167074589
 30
0.0
 10
10.8435022115
 20
12.0124404578
 30
0.0
 10
10.8493373087
 20
12.0081414805
 30
0.0
 10
10.8548319027
 20
12.0038123351
 30
0.0
 10
10.8599836957
 20
11.9994547013
 30
0.0
 10
10.8647905555
 20
11.9950703096
 30
0.0
 10
10.8692505252
 20
11.9906609258
 30
0.0
 10
10.8733616648
 20
11.9862281844
 30
0.0
 10
10.8771222808
 20
11.9817738523
 30
0.0
 10
10.8805307141
 20
11.9772996019
 30
0.0
 10
10.8835853766
 20
11.9728071013
 30
0.0
 10
10.8862849028
 20
11.9682981223
 30
0.0
 10
10.8886278308
 20
11.9637743434
 30
0.0
 10
10.8906129255
 20
11.9592376007
 30
0.0
 10
10.8922390294
 20
11.9546897719
 30
0.0
 10
10.8935049718
 20
11.9501328433
 30
0.0
 10
10.8944099738
 20
11.9455688674
 30
0.0
 10
10.8949532489
 20
11.9410004352
 30
0.0
 10
10.8950741024
 20
11.9379495459
 30
0.0
 10
10.8950740994
 20
11.9364291901
 30
0.0
  0
SPLINE
  5
3A7
100
AcDbEntity
  8
0
100
AcDbSpline
 62
7
  6
CONTINUOUS
 70
0
 71
3
 72
39
 73
35
 74
0
 42
0.0000001
 43
0.0000001
 44
0.0000000001
 40
0.0
 40
0.0
 40
0.0
 40
0.0
 40
0.0299424718
 40
0.0599093198
 40
0.0899243266
 40
0.120010106
 40
0.1501875647
 40
0.1804754164
 40
0.2108897604
 40
0.2414437366
 40
0.2721472601
 40
0.3030068419
 40
0.3340254933
 40
0.365202712
 40
0.3965345466
 40
0.4280137318
 40
0.4596298892
 40
0.491369784
 40
0.5232176323
 40
0.5551554498
 40
0.5871634345
 40
0.6192203774
 40
0.651304093
 40
0.6833918636
 40
0.7154608911
 40
0.7474887497
 40
0.7794538335
 40
0.8113357936
 40
0.8431159524
 40
0.8747777124
 40
0.906306864
 40
0.9376920822
 40
0.9689247084
 40
1.0
 40
1.0
 40
1.0
 40
1.0
 10
8.9398485102
 20
6.1762139671
 30
0.0
 10
8.9351868138
 20
6.1717111133
 30
0.0
 10
8.9254968611
 20
6.1630688049
 30
0.0
 10
8.9099720466
 20
6.1512951901
 30
0.0
 10
8.8935367002
 20
6.1407703454
 30
0.0
 10
8.8762826554
 20
6.1315533122
 30
0.0
 10
8.8583047741
 20
6.123694445
 30
0.0
 10
8.8397022742
 20
6.1172369437
 30
0.0
 10
8.8205776667
 20
6.1122161398
 30
0.0
 10
8.8010363144
 20
6.1086594446
 30
0.0
 10
8.7811858084
 20
6.1065861779
 30
0.0
 10
8.761135382
 20
6.1060074858
 30
0.0
 10
8.7409953074
 20
6.1069262918
 30
0.0
 10
8.7208762931
 20
6.1093372947
 30
0.0
 10
8.700888881
 20
6.113227009
 30
0.0
 10
8.681142846
 20
6.1185738481
 30
0.0
 10
8.6617466014
 20
6.1253482501
 30
0.0
 10
8.6428066118
 20
6.1335128447
 30
0.0
 10
8.6244268174
 20
6.1430226612
 30
0.0
 10
8.6067080707
 20
6.1538253751
 30
0.0
 10
8.5897475904
 20
6.165861597
 30
0.0
 10
8.5736384355
 20
6.1790651963
 30
0.0
 10
8.5584690005
 20
6.1933636626
 30
0.0
 10
8.5443225357
 20
6.2086784995
 30
0.0
 10
8.5312766951
 20
6.2249256518
 30
0.0
 10
8.519403115
 20
6.2420159624
 30
0.0
 10
8.508767023
 20
6.2598556546
 30
0.0
 10
8.4994268853
 20
6.2783468452
 30
0.0
 10
8.4914340799
 20
6.2973880616
 30
0.0
 10
8.4848326361
 20
6.3168748355
 30
0.0
 10
8.4796589394
 20
6.3367001116
 30
0.0
 10
8.4759416437
 20
6.3567554109
 30
0.0
 10
8.4737013036
 20
6.3769291618
 30
0.0
 10
8.4731995203
 20
6.3904213877
 30
0.0
 10
8.4731995203
 20
6.3971478846
 30
0.0
  0
SPLINE
  5
3A8
100
AcDbEntity
  8
0
100
AcDbSpline
 62
7
  6
CONTINUOUS
 70
0
 71
3
 72
23
 73
19
 74
0
 42
0.0000001
 43
0.0000001
 44
0.0000000001
 40
0.0
 40
0.0
 40
0.0
 40
0.0
 40
0.063775992
 40
0.1273452426
 40
0.190702051
 40
0.2538559967
 40
0.3168132418
 40
0.3795820857
 40
0.4421733813
 40
0.504599339
 40
0.5668738627
 40
0.6290123824
 40
0.6910316504
 40
0.7529496423
 40
0.8147853556
 40
0.8765586046
 40
0.9382898526
 40
1.0
 40
1.0
 40
1.0
 40
1.0
 10
12.3369030544
 20
6.1291991344
 30
0.0
 10
12.3369030544
 20
6.1335345386
 30
0.0
 10
12.3371106009
 20
6.142192761
 30
0.0
 10
12.3380471665
 20
6.1551273979
 30
0.0
 10
12.3396066321
 20
6.1679595599
 30
0.0
 10
12.3417852573
 20
6.180658977
 30
0.0
 10
12.3445780979
 20
6.1931967229
 30
0.0
 10
12.3479787293
 20
6.2055438144
 30
0.0
 10
12.3519793697
 20
6.2176717691
 30
0.0
 10
12.3565708231
 20
6.2295526306
 30
0.0
 10
12.3617424772
 20
6.2411590157
 30
0.0
 10
12.3674824761
 20
6.2524641355
 30
0.0
 10
12.3737776167
 20
6.2634418978
 30
0.0
 10
12.3806133445
 20
6.2740670174
 30
0.0
 10
12.3879739146
 20
6.2843149448
 30
0.0
 10
12.3958424819
 20
6.2941620865
 30
0.0
 10
12.4042005306
 20
6.303585465
 30
0.0
 10
12.4100871591
 20
6.3095718106
 30
0.0
 10
12.413104411
 20
6.3124862526
 30
0.0
  0
SPLINE
  5
3A9
100
AcDbEntity
  8
0
100
AcDbSpline
 62
7
  6
CONTINUOUS
 70
0
 71
3
 72
37
 73
33
 74
0
 42
0.0000001
 43
0.0000001
 44
0.0000000001
 40
0.0
 40
0.0
 40
0.0
 40
0.0
 40
0.0882618366
 40
0.1745219287
 40
0.2583981723
 40
0.2993266371
 40
0.3395218782
 40
0.3789405372
 40
0.4175403938
 40
0.4552806718
 40
0.4921220745
 40
0.5280267606
 40
0.5629587469
 40
0.5968836714
 40
0.6297693119
 40
0.6615854461
 40
0.6923041858
 40
0.7219002289
 40
0.7503508732
 40
0.7776366946
 40
0.8037414472
 40
0.8286529085
 40
0.8523631182
 40
0.8748691214
 40
0.8961739142
 40
0.9162871513
 40
0.9352268855
 40
0.9530207386
 40
0.9697083082
 40
0.9776547496
 40
0.9853462509
 40
1.0
 40
1.0
 40
1.0
 40
1.0
 10
13.4269731202
 20
10.161348089
 30
0.0
 10
13.4269731202
 20
10.1738220733
 30
0.0
 10
13.4267456817
 20
10.1984878519
 30
0.0
 10
13.4257010801
 20
10.2349943555
 30
0.0
 10
13.4242401416
 20
10.2647906613
 30
0.0
 10
13.4227162414
 20
10.2880605488
 30
0.0
 10
13.4214117638
 20
10.305047089
 30
0.0
 10
13.4199381226
 20
10.321689432
 30
0.0
 10
13.4182970646
 20
10.3379674515
 30
0.0
 10
13.4164906054
 20
10.3538614404
 30
0.0
 10
13.4145209676
 20
10.3693521683
 30
0.0
 10
13.4123905098
 20
10.3844208981
 30
0.0
 10
13.4101018912
 20
10.3990494045
 30
0.0
 10
13.4076578413
 20
10.4132200051
 30
0.0
 10
13.4050613923
 20
10.4269155778
 30
0.0
 10
13.4023156852
 20
10.4401195853
 30
0.0
 10
13.3994240618
 20
10.4528160954
 30
0.0
 10
13.3963900848
 20
10.4649898072
 30
0.0
 10
13.3932173824
 20
10.4766260613
 30
0.0
 10
13.3899098898
 20
10.4877108833
 30
0.0
 10
13.3864715453
 20
10.4982309747
 30
0.0
 10
13.3829065552
 20
10.508173767
 30
0.0
 10
13.3792191899
 20
10.5175274208
 30
0.0
 10
13.3754138194
 20
10.5262808422
 30
0.0
 10
13.3714949904
 20
10.5344237524
 30
0.0
 10
13.3674671547
 20
10.5419465802
 30
0.0
 10
13.3633349117
 20
10.5488407243
 30
0.0
 10
13.3591028028
 20
10.5550979583
 30
0.0
 10
13.3554387344
 20
10.5598507114
 30
0.0
 10
13.3524576029
 20
10.5633139637
 30
0.0
 10
13.3495434782
 20
10.5664509457
 30
0.0
 10
13.3472564772
 20
10.5686361733
 30
0.0
 10
13.3456931906
 20
10.5699945522
 30
0.0
  0
SPLINE
  5
3AA
100
AcDbEntity
  8
0
100
AcDbSpline
 62
4
  6
CONTINUOUS
 70
0
 71
3
 72
403
 73
399
 74
0
 42
0.0000001
 43
0.0000001
 44
0.0000000001
 40
0.0
 40
0.0
 40
0.0
 40
0.0
 40
0.015625
 40
0.0234375
 40
0.03125
 40
0.0390625
 40
0.04296875
 40
0.046875
 40
0.05078125
 40
0.0546875
 40
0.056640625
 40
0.05859375
 40
0.0595703125
 40
0.060546875
 40
0.0615234375
 40
0.0620117188
 40
0.0622558594
 40
0.0625
 40
0.0627441406
 40
0.0629882812
 40
0.0634765625
 40
0.064453125
 40
0.0654296875
 40
0.06640625
 40
0.068359375
 40
0.0703125
 40
0.07421875
 40
0.078125
 40
0.08203125
 40
0.0859375
 40
0.09375
 40
0.1015625
 40
0.10546875
 40
0.109375
 40
0.11328125
 40
0.1171875
 40
0.119140625
 40
0.12109375
 40
0.1220703125
 40
0.123046875
 40
0.1240234375
 40
0.1245117188
 40
0.1247558594
 40
0.125
 40
0.1252441406
 40
0.1254882812
 40
0.1259765625
 40
0.126953125
 40
0.1279296875
 40
0.12890625
 40
0.130859375
 40
0.1328125
 40
0.13671875
 40
0.140625
 40
0.14453125
 40
0.1484375
 40
0.15625
 40
0.1640625
 40
0.16796875
 40
0.171875
 40
0.17578125
 40
0.1796875
 40
0.181640625
 40
0.18359375
 40
0.1845703125
 40
0.185546875
 40
0.1865234375
 40
0.1870117188
 40
0.1872558594
 40
0.1875
 40
0.1877441406
 40
0.1879882812
 40
0.1884765625
 40
0.189453125
 40
0.1904296875
 40
0.19140625
 40
0.193359375
 40
0.1953125
 40
0.19921875
 40
0.203125
 40
0.20703125
 40
0.2109375
 40
0.21875
 40
0.2265625
 40
0.23046875
 40
0.234375
 40
0.23828125
 40
0.2421875
 40
0.244140625
 40
0.24609375
 40
0.2470703125
 40
0.248046875
 40
0.2490234375
 40
0.2495117188
 40
0.2497558594
 40
0.25
 40
0.2502441406
 40
0.2504882812
 40
0.2509765625
 40
0.251953125
 40
0.2529296875
 40
0.25390625
 40
0.255859375
 40
0.2578125
 40
0.26171875
 40
0.265625
 40
0.26953125
 40
0.2734375
 40
0.28125
 40
0.2890625
 40
0.29296875
 40
0.296875
 40
0.30078125
 40
0.3046875
 40
0.306640625
 40
0.30859375
 40
0.3095703125
 40
0.310546875
 40
0.3115234375
 40
0.3120117188
 40
0.3122558594
 40
0.3125
 40
0.3127441406
 40
0.3129882812
 40
0.3134765625
 40
0.314453125
 40
0.3154296875
 40
0.31640625
 40
0.318359375
 40
0.3203125
 40
0.32421875
 40
0.328125
 40
0.33203125
 40
0.3359375
 40
0.34375
 40
0.3515625
 40
0.35546875
 40
0.359375
 40
0.36328125
 40
0.3671875
 40
0.369140625
 40
0.37109375
 40
0.3720703125
 40
0.373046875
 40
0.3740234375
 40
0.3745117188
 40
0.3747558594
 40
0.375
 40
0.3752441406
 40
0.3754882812
 40
0.3759765625
 40
0.376953125
 40
0.3779296875
 40
0.37890625
 40
0.380859375
 40
0.3828125
 40
0.38671875
 40
0.390625
 40
0.39453125
 40
0.3984375
 40
0.40625
 40
0.4140625
 40
0.41796875
 40
0.421875
 40
0.42578125
 40
0.4296875
 40
0.431640625
 40
0.43359375
 40
0.4345703125
 40
0.435546875
 40
0.4365234375
 40
0.4370117188
 40
0.4372558594
 40
0.4375
 40
0.4377441406
 40
0.4379882812
 40
0.4384765625
 40
0.439453125
 40
0.4404296875
 40
0.44140625
 40
0.443359375
 40
0.4453125
 40
0.44921875
 40
0.453125
 40
0.45703125
 40
0.4609375
 40
0.46875
 40
0.4765625
 40
0.48046875
 40
0.484375
 40
0.48828125
 40
0.4921875
 40
0.494140625
 40
0.49609375
 40
0.4970703125
 40
0.498046875
 40
0.4990234375
 40
0.4995117188
 40
0.4997558594
 40
0.5
 40
0.5002441406
 40
0.5004882812
 40
0.5009765625
 40
0.501953125
 40
0.5029296875
 40
0.50390625
 40
0.505859375
 40
0.5078125
 40
0.51171875
 40
0.515625
 40
0.51953125
 40
0.5234375
 40
0.53125
 40
0.5390625
 40
0.54296875
 40
0.546875
 40
0.55078125
 40
0.5546875
 40
0.556640625
 40
0.55859375
 40
0.5595703125
 40
0.560546875
 40
0.5615234375
 40
0.5620117188
 40
0.5622558594
 40
0.5625
 40
0.5627441406
 40
0.5629882812
 40
0.5634765625
 40
0.564453125
 40
0.5654296875
 40
0.56640625
 40
0.568359375
 40
0.5703125
 40
0.57421875
 40
0.578125
 40
0.58203125
 40
0.5859375
 40
0.59375
 40
0.6015625
 40
0.60546875
 40
0.609375
 40
0.61328125
 40
0.6171875
 40
0.619140625
 40
0.62109375
 40
0.6220703125
 40
0.623046875
 40
0.6240234375
 40
0.6245117188
 40
0.6247558594
 40
0.625
 40
0.6252441406
 40
0.6254882812
 40
0.6259765625
 40
0.626953125
 40
0.6279296875
 40
0.62890625
 40
0.630859375
 40
0.6328125
 40
0.63671875
 40
0.640625
 40
0.64453125
 40
0.6484375
 40
0.65625
 40
0.6640625
 40
0.66796875
 40
0.671875
 40
0.67578125
 40
0.6796875
 40
0.681640625
 40
0.68359375
 40
0.6845703125
 40
0.685546875
 40
0.6865234375
 40
0.6870117188
 40
0.6872558594
 40
0.6875
 40
0.6877441406
 40
0.6879882812
 40
0.6884765625
 40
0.689453125
 40
0.6904296875
 40
0.69140625
 40
0.693359375
 40
0.6953125
 40
0.69921875
 40
0.703125
 40
0.70703125
 40
0.7109375
 40
0.71875
 40
0.7265625
 40
0.73046875
 40
0.734375
 40
0.73828125
 40
0.7421875
 40
0.744140625
 40
0.74609375
 40
0.7470703125
 40
0.748046875
 40
0.7490234375
 40
0.7495117188
 40
0.7497558594
 40
0.75
 40
0.7502441406
 40
0.7504882812
 40
0.7509765625
 40
0.751953125
 40
0.7529296875
 40
0.75390625
 40
0.755859375
 40
0.7578125
 40
0.76171875
 40
0.765625
 40
0.76953125
 40
0.7734375
 40
0.78125
 40
0.7890625
 40
0.79296875
 40
0.796875
 40
0.80078125
 40
0.8046875
 40
0.806640625
 40
0.80859375
 40
0.8095703125
 40
0.810546875
 40
0.8115234375
 40
0.8120117188
 40
0.8122558594
 40
0.8125
 40
0.8127441406
 40
0.8129882812
 40
0.8134765625
 40
0.814453125
 40
0.8154296875
 40
0.81640625
 40
0.818359375
 40
0.8203125
 40
0.82421875
 40
0.828125
 40
0.83203125
 40
0.8359375
 40
0.84375
 40
0.8515625
 40
0.85546875
 40
0.859375
 40
0.86328125
 40
0.8671875
 40
0.869140625
 40
0.87109375
 40
0.8720703125
 40
0.873046875
 40
0.8740234375
 40
0.8745117188
 40
0.8747558594
 40
0.875
 40
0.8752441406
 40
0.8754882812
 40
0.8759765625
 40
0.876953125
 40
0.8779296875
 40
0.87890625
 40
0.880859375
 40
0.8828125
 40
0.88671875
 40
0.890625
 40
0.89453125
 40
0.8984375
 40
0.90625
 40
0.9140625
 40
0.91796875
 40
0.921875
 40
0.92578125
 40
0.9296875
 40
0.931640625
 40
0.93359375
 40
0.9345703125
 40
0.935546875
 40
0.9365234375
 40
0.9370117188
 40
0.9372558594
 40
0.9375
 40
0.9377441406
 40
0.9379882812
 40
0.9384765625
 40
0.939453125
 40
0.9404296875
 40
0.94140625
 40
0.943359375
 40
0.9453125
 40
0.94921875
 40
0.953125
 40
0.95703125
 40
0.9609375
 40
0.96875
 40
0.9765625
 40
0.984375
 40
1.0
 40
1.0
 40
1.0
 40
1.0
 10
9.8256889614
 20
9.5882731593
 30
0.0
 10
9.8194225876
 20
9.5880933105
 30
0.0
 10
9.8100230268
 20
9.5878235372
 30
0.0
 10
9.7974902792
 20
9.5874638396
 30
0.0
 10
9.7880907184
 20
9.5871940663
 30
0.0
 10
9.7802577511
 20
9.5869692556
 30
0.0
 10
9.7739913774
 20
9.5867894061
 30
0.0
 10
9.7692915966
 20
9.5866545215
 30
0.0
 10
9.7645918177
 20
9.5865196274
 30
0.0
 10
9.7606753295
 20
9.5864072451
 30
0.0
 10
9.7575421518
 20
9.5863172733
 30
0.0
 10
9.7555838865
 20
9.5862611911
 30
0.0
 10
9.7540173413
 20
9.5862159814
 30
0.0
 10
9.7528422486
 20
9.5861830159
 30
0.0
 10
9.7518635897
 20
9.5861525487
 30
0.0
 10
9.7511773802
 20
9.5861371011
 30
0.0
 10
9.7507870535
 20
9.5861190937
 30
0.0
 10
9.7504892574
 20
9.5861314487
 30
0.0
 10
9.7502107693
 20
9.5860449518
 30
0.0
 10
9.749832717
 20
9.5859641033
 30
0.0
 10
9.7491742634
 20
9.5858065532
 30
0.0
 10
9.7482319748
 20
9.5855898807
 30
0.0
 10
9.7471019307
 20
9.5853262786
 30
0.0
 10
9.7455949599
 20
9.5849760648
 30
0.0
 10
9.7437113305
 20
9.5845378676
 30
0.0
 10
9.7406974764
 20
9.5838369925
 30
0.0
 10
9.7369301749
 20
9.5829608161
 30
0.0
 10
9.7324094063
 20
9.5819094397
 30
0.0
 10
9.7278886395
 20
9.5808580539
 30
0.0
 10
9.7218609497
 20
9.5794562095
 30
0.0
 10
9.7143263378
 20
9.5777039027
 30
0.0
 10
9.7067917257
 20
9.5759515967
 30
0.0
 10
9.7007640363
 20
9.574549751
 30
0.0
 10
9.6962432684
 20
9.5734983691
 30
0.0
 10
9.691722504
 20
9.5724469781
 30
0.0
 10
9.6879551891
 20
9.5715708472
 30
0.0
 10
9.6849413625
 20
9.5708698793
 30
0.0
 10
9.6830576633
 20
9.570431918
 30
0.0
 10
9.6815508357
 20
9.5700812201
 30
0.0
 10
9.6804203541
 20
9.5698190972
 30
0.0
 10
9.6794794342
 20
9.5695977965
 30
0.0
 10
9.6788185373
 20
9.5694485085
 30
0.0
 10
9.6784443998
 20
9.569354422
 30
0.0
 10
9.6781538867
 20
9.5693085877
 30
0.0
 10
9.6779012543
 20
9.5691682209
 30
0.0
 10
9.677551198
 20
9.5690140392
 30
0.0
 10
9.6769447556
 20
9.5687288579
 30
0.0
 10
9.6760751908
 20
9.5683294882
 30
0.0
 10
9.6750330907
 20
9.5678468066
 30
0.0
 10
9.6736431428
 20
9.5672044319
 30
0.0
 10
9.6719058725
 20
9.5664010524
 30
0.0
 10
9.6691261481
 20
9.5651158749
 30
0.0
 10
9.6656515242
 20
9.5635093242
 30
0.0
 10
9.6614819619
 20
9.5615814973
 30
0.0
 10
9.6573124033
 20
9.5596536612
 30
0.0
 10
9.6517529905
 20
9.5570832163
 30
0.0
 10
9.6448037249
 20
9.553870159
 30
0.0
 10
9.6378544591
 20
9.5506571025
 30
0.0
 10
9.6322950468
 20
9.5480866564
 30
0.0
 10
9.6281254865
 20
9.5461588241
 30
0.0
 10
9.6239559307
 20
9.544230983
 30
0.0
 10
9.6204812865
 20
9.5426244763
 30
0.0
 10
9.6177016035
 20
9.5413392092
 30
0.0
 10
9.6159642278
 20
9.5405360579
 30
0.0
 10
9.6145744962
 20
9.5398932147
 30
0.0
 10
9.613531735
 20
9.5394119644
 30
0.0
 10
9.6126642389
 20
9.5390081163
 30
0.0
 10
9.6120541036
 20
9.5387309298
 30
0.0
 10
9.6117099642
 20
9.5385639384
 30
0.0
 10
9.6114391567
 20
9.5384629186
 30
0.0
 10
9.6112169066
 20
9.5382693036
 30
0.0
 10
9.6109036359
 20
9.5380434484
 30
0.0
 10
9.6103633035
 20
9.5376331536
 30
0.0
 10
9.6095872743
 20
9.5370548855
 30
0.0
 10
9.6086578053
 20
9.5363575963
 30
0.0
 10
9.6074178965
 20
9.5354290535
 30
0.0
 10
9.6058682216
 20
9.5342679723
 30
0.0
 10
9.6033886238
 20
9.5324104675
 30
0.0
 10
9.600289167
 20
9.5300885093
 30
0.0
 10
9.5965698015
 20
9.5273021925
 30
0.0
 10
9.5928504407
 20
9.5245158669
 30
0.0
 10
9.5878912912
 20
9.5208007692
 30
0.0
 10
9.5816923551
 20
9.5161568959
 30
0.0
 10
9.5754934184
 20
9.5115130233
 30
0.0
 10
9.5705342699
 20
9.5077979244
 30
0.0
 10
9.5668149065
 20
9.5050116021
 30
0.0
 10
9.5630955505
 20
9.502225273
 30
0.0
 10
9.559996064
 20
9.4999033531
 30
0.0
 10
9.5575165268
 20
9.4980457701
 30
0.0
 10
9.5559666977
 20
9.496884888
 30
0.0
 10
9.5547271054
 20
9.4959559366
 30
0.0
 10
9.5537966693
 20
9.495259896
 30
0.0
 10
9.5530236659
 20
9.4946777214
 30
0.0
 10
9.5524779321
 20
9.4942744003
 30
0.0
 10
9.5521733157
 20
9.4940373713
 30
0.0
 10
9.5519244821
 20
9.4938780787
 30
0.0
 10
9.5517535182
 20
9.4936481496
 30
0.0
 10
9.5514984044
 20
9.4933662163
 30
0.0
 10
9.5510646105
 20
9.4928613534
 30
0.0
 10
9.5504382887
 20
9.4921461224
 30
0.0
 10
9.5496895345
 20
9.4912852762
 30
0.0
 10
9.5486902064
 20
9.4901383786
 30
0.0
 10
9.547441385
 20
9.4887044494
 30
0.0
 10
9.5454430814
 20
9.4864103343
 30
0.0
 10
9.5429452669
 20
9.4835426315
 30
0.0
 10
9.5399478616
 20
9.4801014135
 30
0.0
 10
9.5369504637
 20
9.4766601887
 30
0.0
 10
9.5329539307
 20
9.4720718913
 30
0.0
 10
9.5279582654
 20
9.4663365187
 30
0.0
 10
9.5229625993
 20
9.4606011466
 30
0.0
 10
9.5189660674
 20
9.4560128483
 30
0.0
 10
9.5159686663
 20
9.4525716262
 30
0.0
 10
9.5129712731
 20
9.4491303982
 30
0.0
 10
9.5104734209
 20
9.4462627263
 30
0.0
 10
9.5084751942
 20
9.4439685482
 30
0.0
 10
9.507226177
 20
9.4425347795
 30
0.0
 10
9.5062272507
 20
9.4413875522
 30
0.0
 10
9.505477269
 20
9.4405277132
 30
0.0
 10
9.5048547878
 20
9.4398093311
 30
0.0
 10
9.5044141378
 20
9.4393100934
 30
0.0
 10
9.5041700092
 20
9.4390191472
 30
0.0
 10
9.5039653025
 20
9.4388169029
 30
0.0
 10
9.5038432008
 20
9.4385536308
 30
0.0
 10
9.5036515849
 20
9.4382238886
 30
0.0
 10
9.5033296819
 20
9.4376369216
 30
0.0
 10
9.5028628018
 20
9.4368035826
 30
0.0
 10
9.5023055499
 20
9.4358013564
 30
0.0
 10
9.5015614981
 20
9.4344658299
 30
0.0
 10
9.5006317926
 20
9.4327961564
 30
0.0
 10
9.499144063
 20
9.4301248271
 30
0.0
 10
9.4972844698
 20
9.4267856146
 30
0.0
 10
9.4950529286
 20
9.4227785815
 30
0.0
 10
9.4928213952
 20
9.4187715425
 30
0.0
 10
9.4898460146
 20
9.4134288259
 30
0.0
 10
9.4861267899
 20
9.4067504293
 30
0.0
 10
9.4824075644
 20
9.4000720332
 30
0.0
 10
9.479432185
 20
9.3947293159
 30
0.0
 10
9.4772006481
 20
9.390722279
 30
0.0
 10
9.47496912
 20
9.3867152379
 30
0.0
 10
9.4731094859
 20
9.3833760502
 30
0.0
 10
9.4716218399
 20
9.3807046703
 30
0.0
 10
9.4706919217
 20
9.3790351256
 30
0.0
 10
9.4699483064
 20
9.3776993348
 30
0.0
 10
9.4693897207
 20
9.3766979162
 30
0.0
 10
9.4689270139
 20
9.3758620501
 30
0.0
 10
9.4685976609
 20
9.3752795945
 30
0.0
 10
9.4684179818
 20
9.374942624
 30
0.0
 10
9.468259214
 20
9.3747015548
 30
0.0
 10
9.4681922188
 20
9.37441592
 30
0.0
 10
9.4680708806
 20
9.3740506186
 30
0.0
 10
9.4678734535
 20
9.3734040984
 30
0.0
 10
9.4675836171
 20
9.3724842847
 30
0.0
 10
9.467239151
 20
9.3713788875
 30
0.0
 10
9.4667786972
 20
9.3699055906
 30
0.0
 10
9.466203529
 20
9.3680637757
 30
0.0
 10
9.4652830369
 20
9.3651169802
 30
0.0
 10
9.4641324983
 20
9.3614334486
 30
0.0
 10
9.4627518192
 20
9.3570132266
 30
0.0
 10
9.4613711488
 20
9.3525930004
 30
0.0
 10
9.459530252
 20
9.3466993669
 30
0.0
 10
9.457229132
 20
9.3393323245
 30
0.0
 10
9.4549280113
 20
9.3319652825
 30
0.0
 10
9.4530871157
 20
9.3260716485
 30
0.0
 10
9.4517064415
 20
9.3216514238
 30
0.0
 10
9.4503257767
 20
9.3172311958
 30
0.0
 10
9.4491751936
 20
9.3135476831
 30
0.0
 10
9.4482547922
 20
9.3106008492
 30
0.0
 10
9.4476793933
 20
9.3087591319
 30
0.0
 10
9.4472194131
 20
9.3072856346
 30
0.0
 10
9.4468734998
 20
9.3061808499
 30
0.0
 10
9.4465881915
 20
9.3052591197
 30
0.0
 10
9.446382681
 20
9.3046160208
 30
0.0
 10
9.4462742943
 20
9.3042452376
 30
0.0
 10
9.4461675161
 20
9.3039764411
 30
0.0
 10
9.4461581669
 20
9.3036721298
 30
0.0
 10
9.4461117169
 20
9.3032787693
 30
0.0
 10
9.4460462633
 20
9.3025846167
 30
0.0
 10
9.44594448
 20
9.3015959877
 30
0.0
 10
9.4458258834
 20
9.3004083413
 30
0.0
 10
9.445666517
 20
9.2988252639
 30
0.0
 10
9.4454677328
 20
9.2968462627
 30
0.0
 10
9.4451494412
 20
9.293679947
 30
0.0
 10
9.4447516579
 20
9.2897220229
 30
0.0
 10
9.4442742832
 20
9.2849725265
 30
0.0
 10
9.4437969177
 20
9.2802230268
 30
0.0
 10
9.4431604272
 20
9.2738903617
 30
0.0
 10
9.4423648153
 20
9.26597453
 30
0.0
 10
9.4415692026
 20
9.2580586983
 30
0.0
 10
9.4409327134
 20
9.251726033
 30
0.0
 10
9.4404553439
 20
9.246976534
 30
0.0
 10
9.4399779842
 20
9.2422270351
 30
0.0
 10
9.4395801542
 20
9.2382691188
 30
0.0
 10
9.4392619578
 20
9.2351027871
 30
0.0
 10
9.4390629313
 20
9.2331238268
 30
0.0
 10
9.4389040622
 20
9.2315406653
 30
0.0
 10
9.4387839463
 20
9.2303532759
 30
0.0
 10
9.4386869165
 20
9.2293638428
 30
0.0
 10
9.4386129772
 20
9.2286711257
 30
0.0
 10
9.4385801235
 20
9.2282754652
 30
0.0
 10
9.4385290108
 20
9.2279782187
 30
0.0
 10
9.4385790891
 20
9.2276828879
 30
0.0
 10
9.4386105637
 20
9.2272884453
 30
0.0
 10
9.4386820895
 20
9.2265984819
 30
0.0
 10
9.4387756714
 20
9.2256126573
 30
0.0
 10
9.4388916498
 20
9.2244297374
 30
0.0
 10
9.4390450022
 20
9.2228524866
 30
0.0
 10
9.439237133
 20
9.2208809313
 30
0.0
 10
9.4395442961
 20
9.2177264383
 30
0.0
 10
9.4399283345
 20
9.2137833236
 30
0.0
 10
9.4403891443
 20
9.2090515853
 30
0.0
 10
9.4408499639
 20
9.2043198471
 30
0.0
 10
9.4414643865
 20
9.1980108629
 30
0.0
 10
9.4422324161
 20
9.1901246326
 30
0.0
 10
9.4430004448
 20
9.1822384022
 30
0.0
 10
9.4436148688
 20
9.1759294181
 30
0.0
 10
9.4440756844
 20
9.1711976797
 30
0.0
 10
9.4445365092
 20
9.1664659424
 30
0.0
 10
9.4449205009
 20
9.1625228243
 30
0.0
 10
9.4452277593
 20
9.1593683382
 30
0.0
 10
9.4454196476
 20
9.1573967653
 30
0.0
 10
9.4455734976
 20
9.1558195507
 30
0.0
 10
9.4456879561
 20
9.1546365202
 30
0.0
 10
9.4457862934
 20
9.1536510417
 30
0.0
 10
9.4458493299
 20
9.1529604605
 30
0.0
 10
9.4458944065
 20
9.1525670078
 30
0.0
 10
9.4459027037
 20
9.1522686362
 30
0.0
 10
9.4460085138
 20
9.1519828102
 30
0.0
 10
9.4461155804
 20
9.1515973328
 30
0.0
 10
9.4463187944
 20
9.1509247862
 30
0.0
 10
9.4466008149
 20
9.1499629394
 30
0.0
 10
9.4469427858
 20
9.1488091796
 30
0.0
 10
9.4473975083
 20
9.1472706737
 30
0.0
 10
9.4479663357
 20
9.1453475959
 30
0.0
 10
9.4488762223
 20
9.142270641
 30
0.0
 10
9.450013662
 20
9.1384244579
 30
0.0
 10
9.4513785547
 20
9.1338090336
 30
0.0
 10
9.4527434567
 20
9.1291936105
 30
0.0
 10
9.4545633229
 20
9.1230397126
 30
0.0
 10
9.4568381568
 20
9.1153473404
 30
0.0
 10
9.4591129899
 20
9.1076549681
 30
0.0
 10
9.4609328573
 20
9.1015010705
 30
0.0
 10
9.4622977555
 20
9.0968856465
 30
0.0
 10
9.4636626625
 20
9.0922702255
 30
0.0
 10
9.4648000577
 20
9.088424032
 30
0.0
 10
9.4657100351
 20
9.0853470982
 30
0.0
 10
9.4662786314
 20
9.0834239667
 30
0.0
 10
9.4667338282
 20
9.0818855712
 30
0.0
 10
9.4670743502
 20
9.0807314743
 30
0.0
 10
9.4673609039
 20
9.0797706818
 30
0.0
 10
9.4675560253
 20
9.0790962532
 30
0.0
 10
9.4676760583
 20
9.0787137913
 30
0.0
 10
9.4677420398
 20
9.0784187024
 30
0.0
 10
9.4678999267
 20
9.0781551206
 30
0.0
 10
9.4680783849
 20
9.0777926881
 30
0.0
 10
9.468405623
 20
9.0771635517
 30
0.0
 10
9.4688652973
 20
9.0762621084
 30
0.0
 10
9.4694202488
 20
9.0751815223
 30
0.0
 10
9.4701590167
 20
9.0737403406
 30
0.0
 10
9.4710828763
 20
9.0719390005
 30
0.0
 10
9.4725608283
 20
9.0690567797
 30
0.0
 10
9.474408345
 20
9.0654540301
 30
0.0
 10
9.4766253321
 20
9.0611307192
 30
0.0
 10
9.478842328
 20
9.0568074114
 30
0.0
 10
9.4817983195
 20
9.0510429999
 30
0.0
 10
9.48549331
 20
9.0438374859
 30
0.0
 10
9.4891882997
 20
9.0366319716
 30
0.0
 10
9.4921442924
 20
9.0308675606
 30
0.0
 10
9.4943612847
 20
9.0265442513
 30
0.0
 10
9.4965782855
 20
9.022220946
 30
0.0
 10
9.4984257596
 20
9.018618179
 30
0.0
 10
9.4999037984
 20
9.0157359937
 30
0.0
 10
9.5008274371
 20
9.0139345635
 30
0.0
 10
9.5015666585
 20
9.0124935667
 30
0.0
 10
9.5021202245
 20
9.0114124155
 30
0.0
 10
9.5025842337
 20
9.0105127402
 30
0.0
 10
9.5029037332
 20
9.0098804476
 30
0.0
 10
9.5030945907
 20
9.0095230722
 30
0.0
 10
9.5032143911
 20
9.0092439565
 30
0.0
 10
9.5034234192
 20
9.0090072103
 30
0.0
 10
9.5036709998
 20
9.0086767698
 30
0.0
 10
9.5041187668
 20
9.0081053847
 30
0.0
 10
9.5047508527
 20
9.0072855202
 30
0.0
 10
9.5055126008
 20
9.0063032238
 30
0.0
 10
9.5065271315
 20
9.004992957
 30
0.0
 10
9.507795683
 20
9.0033553078
 30
0.0
 10
9.5098251485
 20
9.000734966
 30
0.0
 10
9.5123620548
 20
8.9974595742
 30
0.0
 10
9.5154063104
 20
8.9935290889
 30
0.0
 10
9.5184505746
 20
8.9895986076
 30
0.0
 10
9.5225095905
 20
8.9843579644
 30
0.0
 10
9.5275833615
 20
8.9778071611
 30
0.0
 10
9.5326571318
 20
8.9712563572
 30
0.0
 10
9.5367161488
 20
8.9660157149
 30
0.0
 10
9.5397604099
 20
8.9620852313
 30
0.0
 10
9.5428046772
 20
8.9581547547
 30
0.0
 10
9.5453415471
 20
8.9548793357
 30
0.0
 10
9.5473710867
 20
8.9522590494
 30
0.0
 10
9.5486394497
 20
8.950621259
 30
0.0
 10
9.5496543672
 20
8.949311282
 30
0.0
 10
9.5504149338
 20
8.9483281004
 30
0.0
 10
9.5510507164
 20
8.9475110053
 30
0.0
 10
9.5514918842
 20
8.9469346764
 30
0.0
 10
9.5517500384
 20
8.946612157
 30
0.0
 10
9.5519265877
 20
8.9463510796
 30
0.0
 10
9.5521683732
 20
8.9461633478
 30
0.0
 10
9.5524679986
 20
8.945887455
 30
0.0
 10
9.5530029453
 20
8.9454165624
 30
0.0
 10
9.5537616119
 20
8.9447376269
 30
0.0
 10
9.5546743843
 20
8.9439255717
 30
0.0
 10
9.5558905856
 20
8.9428418997
 30
0.0
 10
9.5574111209
 20
8.9414876288
 30
0.0
 10
9.5598438188
 20
8.9393206171
 30
0.0
 10
9.5628847455
 20
8.9366119135
 30
0.0
 10
9.5665338344
 20
8.9333614431
 30
0.0
 10
9.5701829294
 20
8.9301109797
 30
0.0
 10
9.5750483873
 20
8.9257770259
 30
0.0
 10
9.5811302105
 20
8.9203595847
 30
0.0
 10
9.5872120332
 20
8.9149421429
 30
0.0
 10
9.5920774919
 20
8.9106081902
 30
0.0
 10
9.5957265845
 20
8.9073577237
 30
0.0
 10
9.5993756825
 20
8.9041072648
 30
0.0
 10
9.6024165809
 20
8.9013985255
 30
0.0
 10
9.6048493366
 20
8.8992315866
 30
0.0
 10
9.6063697249
 20
8.8978771302
 30
0.0
 10
9.6075862279
 20
8.8967938391
 30
0.0
 10
9.6084980784
 20
8.8959806203
 30
0.0
 10
9.6092596297
 20
8.8953053253
 30
0.0
 10
9.6097894266
 20
8.8948279339
 30
0.0
 10
9.6100973032
 20
8.8945624539
 30
0.0
 10
9.6103137439
 20
8.894342737
 30
0.0
 10
9.6105854837
 20
8.89420179
 30
0.0
 10
9.6109285146
 20
8.8939863849
 30
0.0
 10
9.6115378056
 20
8.8936222274
 30
0.0
 10
9.6124035229
 20
8.8930953096
 30
0.0
 10
9.6134443947
 20
8.892465873
 30
0.0
 10
9.6148315213
 20
8.8916256236
 30
0.0
 10
9.6165656701
 20
8.8905756545
 30
0.0
 10
9.6193401738
 20
8.8888955124
 30
0.0
 10
9.6228083495
 20
8.8867954005
 30
0.0
 10
9.6269701406
 20
8.884275238
 30
0.0
 10
9.6311319369
 20
8.8817550831
 30
0.0
 10
9.6366809969
 20
8.8783948739
 30
0.0
 10
9.6436173225
 20
8.8741946133
 30
0.0
 10
9.6505536478
 20
8.8699943521
 30
0.0
 10
9.6561027084
 20
8.866634144
 30
0.0
 10
9.6602645029
 20
8.8641139857
 30
0.0
 10
9.664426301
 20
8.8615938359
 30
0.0
 10
9.6678944547
 20
8.8594936845
 30
0.0
 10
9.6706690032
 20
8.8578136229
 30
0.0
 10
9.672403038
 20
8.856763449
 30
0.0
 10
9.6737903987
 20
8.85592362
 30
0.0
 10
9.6748305553
 20
8.8552928991
 30
0.0
 10
9.6756985102
 20
8.8547699994
 30
0.0
 10
9.6763038066
 20
8.854398669
 30
0.0
 10
9.6766532379
 20
8.8541947567
 30
0.0
 10
9.6769053176
 20
8.8540185072
 30
0.0
 10
9.6771955986
 20
8.853931381
 30
0.0
 10
9.6775693148
 20
8.8537841254
 30
0.0
 10
9.6782295266
 20
8.8535409124
 30
0.0
 10
9.6791694406
 20
8.8531858928
 30
0.0
 10
9.6802987266
 20
8.8527631105
 30
0.0
 10
9.681803956
 20
8.8521982686
 30
0.0
 10
9.683685659
 20
8.8514926039
 30
0.0
 10
9.6866962909
 20
8.8503633238
 30
0.0
 10
9.6904596126
 20
8.8489517979
 30
0.0
 10
9.694975585
 20
8.8472579351
 30
0.0
 10
9.699491561
 20
8.8455640807
 30
0.0
 10
9.7055128611
 20
8.8433056052
 30
0.0
 10
9.7130394867
 20
8.840482512
 30
0.0
 10
9.720566112
 20
8.8376594181
 30
0.0
 10
9.7265874126
 20
8.8354009439
 30
0.0
 10
9.7311033873
 20
8.8337070858
 30
0.0
 10
9.7356193647
 20
8.8320132369
 30
0.0
 10
9.7393826707
 20
8.8306016676
 30
0.0
 10
9.7423933346
 20
8.8294724759
 30
0.0
 10
9.7442749559
 20
8.8287665861
 30
0.0
 10
9.745780353
 20
8.8282022064
 30
0.0
 10
9.7469091269
 20
8.8277780123
 30
0.0
 10
9.7478506433
 20
8.8274274096
 30
0.0
 10
9.7485079944
 20
8.8271763116
 30
0.0
 10
9.7488862943
 20
8.8270416898
 30
0.0
 10
9.7491624957
 20
8.826915757
 30
0.0
 10
9.7494674556
 20
8.8268852587
 30
0.0
 10
9.7498640376
 20
8.8268113056
 30
0.0
 10
9.7505627297
 20
8.8266973976
 30
0.0
 10
9.7515584178
 20
8.8265265631
 30
0.0
 10
9.7527542895
 20
8.8263250325
 30
0.0
 10
9.7543484197
 20
8.8260551128
 30
0.0
 10
9.7563412075
 20
8.8257181283
 30
0.0
 10
9.7595295982
 20
8.825178721
 30
0.0
 10
9.7635151105
 20
8.8245045415
 30
0.0
 10
9.768297715
 20
8.823695492
 30
0.0
 10
9.7730803222
 20
8.8228864517
 30
0.0
 10
9.7794571309
 20
8.821807728
 30
0.0
 10
9.7874281421
 20
8.8204593245
 30
0.0
 10
9.7969933553
 20
8.8188412398
 30
0.0
 10
9.8097469731
 20
8.8166837937
 30
0.0
 10
9.8193121864
 20
8.8150657091
 30
0.0
 10
9.8256889953
 20
8.813986986
 30
0.0
  0
SPLINE
  5
3AB
100
AcDbEntity
  8
0
100
AcDbSpline
 62
4
  6
CONTINUOUS
 70
0
 71
3
 72
403
 73
399
 74
0
 42
0.0000001
 43
0.0000001
 44
0.0000000001
 40
0.0
 40
0.0
 40
0.0
 40
0.0
 40
0.015625
 40
0.0234375
 40
0.03125
 40
0.0390625
 40
0.04296875
 40
0.046875
 40
0.05078125
 40
0.0546875
 40
0.056640625
 40
0.05859375
 40
0.0595703125
 40
0.060546875
 40
0.0615234375
 40
0.0620117188
 40
0.0622558594
 40
0.0625
 40
0.0627441406
 40
0.0629882812
 40
0.0634765625
 40
0.064453125
 40
0.0654296875
 40
0.06640625
 40
0.068359375
 40
0.0703125
 40
0.07421875
 40
0.078125
 40
0.08203125
 40
0.0859375
 40
0.09375
 40
0.1015625
 40
0.10546875
 40
0.109375
 40
0.11328125
 40
0.1171875
 40
0.119140625
 40
0.12109375
 40
0.1220703125
 40
0.123046875
 40
0.1240234375
 40
0.1245117188
 40
0.1247558594
 40
0.125
 40
0.1252441406
 40
0.1254882812
 40
0.1259765625
 40
0.126953125
 40
0.1279296875
 40
0.12890625
 40
0.130859375
 40
0.1328125
 40
0.13671875
 40
0.140625
 40
0.14453125
 40
0.1484375
 40
0.15625
 40
0.1640625
 40
0.16796875
 40
0.171875
 40
0.17578125
 40
0.1796875
 40
0.181640625
 40
0.18359375
 40
0.1845703125
 40
0.185546875
 40
0.1865234375
 40
0.1870117188
 40
0.1872558594
 40
0.1875
 40
0.1877441406
 40
0.1879882812
 40
0.1884765625
 40
0.189453125
 40
0.1904296875
 40
0.19140625
 40
0.193359375
 40
0.1953125
 40
0.19921875
 40
0.203125
 40
0.20703125
 40
0.2109375
 40
0.21875
 40
0.2265625
 40
0.23046875
 40
0.234375
 40
0.23828125
 40
0.2421875
 40
0.244140625
 40
0.24609375
 40
0.2470703125
 40
0.248046875
 40
0.2490234375
 40
0.2495117188
 40
0.2497558594
 40
0.25
 40
0.2502441406
 40
0.2504882812
 40
0.2509765625
 40
0.251953125
 40
0.2529296875
 40
0.25390625
 40
0.255859375
 40
0.2578125
 40
0.26171875
 40
0.265625
 40
0.26953125
 40
0.2734375
 40
0.28125
 40
0.2890625
 40
0.29296875
 40
0.296875
 40
0.30078125
 40
0.3046875
 40
0.306640625
 40
0.30859375
 40
0.3095703125
 40
0.310546875
 40
0.3115234375
 40
0.3120117188
 40
0.3122558594
 40
0.3125
 40
0.3127441406
 40
0.3129882812
 40
0.3134765625
 40
0.314453125
 40
0.3154296875
 40
0.31640625
 40
0.318359375
 40
0.3203125
 40
0.32421875
 40
0.328125
 40
0.33203125
 40
0.3359375
 40
0.34375
 40
0.3515625
 40
0.35546875
 40
0.359375
 40
0.36328125
 40
0.3671875
 40
0.369140625
 40
0.37109375
 40
0.3720703125
 40
0.373046875
 40
0.3740234375
 40
0.3745117188
 40
0.3747558594
 40
0.375
 40
0.3752441406
 40
0.3754882812
 40
0.3759765625
 40
0.376953125
 40
0.3779296875
 40
0.37890625
 40
0.380859375
 40
0.3828125
 40
0.38671875
 40
0.390625
 40
0.39453125
 40
0.3984375
 40
0.40625
 40
0.4140625
 40
0.41796875
 40
0.421875
 40
0.42578125
 40
0.4296875
 40
0.431640625
 40
0.43359375
 40
0.4345703125
 40
0.435546875
 40
0.4365234375
 40
0.4370117188
 40
0.4372558594
 40
0.4375
 40
0.4377441406
 40
0.4379882812
 40
0.4384765625
 40
0.439453125
 40
0.4404296875
 40
0.44140625
 40
0.443359375
 40
0.4453125
 40
0.44921875
 40
0.453125
 40
0.45703125
 40
0.4609375
 40
0.46875
 40
0.4765625
 40
0.48046875
 40
0.484375
 40
0.48828125
 40
0.4921875
 40
0.494140625
 40
0.49609375
 40
0.4970703125
 40
0.498046875
 40
0.4990234375
 40
0.4995117188
 40
0.4997558594
 40
0.5
 40
0.5002441406
 40
0.5004882812
 40
0.5009765625
 40
0.501953125
 40
0.5029296875
 40
0.50390625
 40
0.505859375
 40
0.5078125
 40
0.51171875
 40
0.515625
 40
0.51953125
 40
0.5234375
 40
0.53125
 40
0.5390625
 40
0.54296875
 40
0.546875
 40
0.55078125
 40
0.5546875
 40
0.556640625
 40
0.55859375
 40
0.5595703125
 40
0.560546875
 40
0.5615234375
 40
0.5620117188
 40
0.5622558594
 40
0.5625
 40
0.5627441406
 40
0.5629882812
 40
0.5634765625
 40
0.564453125
 40
0.5654296875
 40
0.56640625
 40
0.568359375
 40
0.5703125
 40
0.57421875
 40
0.578125
 40
0.58203125
 40
0.5859375
 40
0.59375
 40
0.6015625
 40
0.60546875
 40
0.609375
 40
0.61328125
 40
0.6171875
 40
0.619140625
 40
0.62109375
 40
0.6220703125
 40
0.623046875
 40
0.6240234375
 40
0.6245117188
 40
0.6247558594
 40
0.625
 40
0.6252441406
 40
0.6254882812
 40
0.6259765625
 40
0.626953125
 40
0.6279296875
 40
0.62890625
 40
0.630859375
 40
0.6328125
 40
0.63671875
 40
0.640625
 40
0.64453125
 40
0.6484375
 40
0.65625
 40
0.6640625
 40
0.66796875
 40
0.671875
 40
0.67578125
 40
0.6796875
 40
0.681640625
 40
0.68359375
 40
0.6845703125
 40
0.685546875
 40
0.6865234375
 40
0.6870117188
 40
0.6872558594
 40
0.6875
 40
0.6877441406
 40
0.6879882812
 40
0.6884765625
 40
0.689453125
 40
0.6904296875
 40
0.69140625
 40
0.693359375
 40
0.6953125
 40
0.69921875
 40
0.703125
 40
0.70703125
 40
0.7109375
 40
0.71875
 40
0.7265625
 40
0.73046875
 40
0.734375
 40
0.73828125
 40
0.7421875
 40
0.744140625
 40
0.74609375
 40
0.7470703125
 40
0.748046875
 40
0.7490234375
 40
0.7495117188
 40
0.7497558594
 40
0.75
 40
0.7502441406
 40
0.7504882812
 40
0.7509765625
 40
0.751953125
 40
0.7529296875
 40
0.75390625
 40
0.755859375
 40
0.7578125
 40
0.76171875
 40
0.765625
 40
0.76953125
 40
0.7734375
 40
0.78125
 40
0.7890625
 40
0.79296875
 40
0.796875
 40
0.80078125
 40
0.8046875
 40
0.806640625
 40
0.80859375
 40
0.8095703125
 40
0.810546875
 40
0.8115234375
 40
0.8120117188
 40
0.8122558594
 40
0.8125
 40
0.8127441406
 40
0.8129882812
 40
0.8134765625
 40
0.814453125
 40
0.8154296875
 40
0.81640625
 40
0.818359375
 40
0.8203125
 40
0.82421875
 40
0.828125
 40
0.83203125
 40
0.8359375
 40
0.84375
 40
0.8515625
 40
0.85546875
 40
0.859375
 40
0.86328125
 40
0.8671875
 40
0.869140625
 40
0.87109375
 40
0.8720703125
 40
0.873046875
 40
0.8740234375
 40
0.8745117188
 40
0.8747558594
 40
0.875
 40
0.8752441406
 40
0.8754882812
 40
0.8759765625
 40
0.876953125
 40
0.8779296875
 40
0.87890625
 40
0.880859375
 40
0.8828125
 40
0.88671875
 40
0.890625
 40
0.89453125
 40
0.8984375
 40
0.90625
 40
0.9140625
 40
0.91796875
 40
0.921875
 40
0.92578125
 40
0.9296875
 40
0.931640625
 40
0.93359375
 40
0.9345703125
 40
0.935546875
 40
0.9365234375
 40
0.9370117188
 40
0.9372558594
 40
0.9375
 40
0.9377441406
 40
0.9379882812
 40
0.9384765625
 40
0.939453125
 40
0.9404296875
 40
0.94140625
 40
0.943359375
 40
0.9453125
 40
0.94921875
 40
0.953125
 40
0.95703125
 40
0.9609375
 40
0.96875
 40
0.9765625
 40
0.984375
 40
1.0
 40
1.0
 40
1.0
 40
1.0
 10
9.8256889614
 20
8.8139869884
 30
0.0
 10
9.8319553353
 20
8.8141668372
 30
0.0
 10
9.841354896
 20
8.8144366105
 30
0.0
 10
9.8538876437
 20
8.8147963081
 30
0.0
 10
9.8632872044
 20
8.8150660814
 30
0.0
 10
9.8711201718
 20
8.8152908921
 30
0.0
 10
9.8773865455
 20
8.8154707416
 30
0.0
 10
9.8820863263
 20
8.8156056262
 30
0.0
 10
9.8867861052
 20
8.8157405203
 30
0.0
 10
9.8907025934
 20
8.8158529026
 30
0.0
 10
9.893835771
 20
8.8159428744
 30
0.0
 10
9.8957940364
 20
8.8159989566
 30
0.0
 10
9.8973605815
 20
8.8160441663
 30
0.0
 10
9.8985356743
 20
8.8160771318
 30
0.0
 10
9.8995143331
 20
8.8161075989
 30
0.0
 10
9.9002005427
 20
8.8161230466
 30
0.0
 10
9.9005908693
 20
8.8161410539
 30
0.0
 10
9.9008886655
 20
8.816128699
 30
0.0
 10
9.9011671536
 20
8.8162151959
 30
0.0
 10
9.9015452059
 20
8.8162960444
 30
0.0
 10
9.9022036595
 20
8.8164535945
 30
0.0
 10
9.9031459481
 20
8.816670267
 30
0.0
 10
9.9042759922
 20
8.8169338691
 30
0.0
 10
9.905782963
 20
8.8172840829
 30
0.0
 10
9.9076665924
 20
8.81772228
 30
0.0
 10
9.9106804465
 20
8.8184231552
 30
0.0
 10
9.9144477479
 20
8.8192993316
 30
0.0
 10
9.9189685166
 20
8.820350708
 30
0.0
 10
9.9234892834
 20
8.8214020938
 30
0.0
 10
9.9295169731
 20
8.8228039382
 30
0.0
 10
9.937051585
 20
8.824556245
 30
0.0
 10
9.9445861972
 20
8.826308551
 30
0.0
 10
9.9506138865
 20
8.8277103967
 30
0.0
 10
9.9551346545
 20
8.8287617786
 30
0.0
 10
9.9596554188
 20
8.8298131696
 30
0.0
 10
9.9634227337
 20
8.8306893005
 30
0.0
 10
9.9664365604
 20
8.8313902684
 30
0.0
 10
9.9683202596
 20
8.8318282297
 30
0.0
 10
9.9698270872
 20
8.8321789276
 30
0.0
 10
9.9709575687
 20
8.8324410505
 30
0.0
 10
9.9718984886
 20
8.8326623512
 30
0.0
 10
9.9725593856
 20
8.8328116392
 30
0.0
 10
9.9729335231
 20
8.8329057257
 30
0.0
 10
9.9732240362
 20
8.83295156
 30
0.0
 10
9.9734766685
 20
8.8330919268
 30
0.0
 10
9.9738267249
 20
8.8332461085
 30
0.0
 10
9.9744331672
 20
8.8335312898
 30
0.0
 10
9.975302732
 20
8.8339306595
 30
0.0
 10
9.9763448321
 20
8.8344133411
 30
0.0
 10
9.9777347801
 20
8.8350557158
 30
0.0
 10
9.9794720503
 20
8.8358590953
 30
0.0
 10
9.9822517747
 20
8.8371442728
 30
0.0
 10
9.9857263987
 20
8.8387508234
 30
0.0
 10
9.989895961
 20
8.8406786504
 30
0.0
 10
9.9940655196
 20
8.8426064865
 30
0.0
 10
9.9996249324
 20
8.8451769314
 30
0.0
 10
10.0065741979
 20
8.8483899886
 30
0.0
 10
10.0135234638
 20
8.8516030452
 30
0.0
 10
10.019082876
 20
8.8541734913
 30
0.0
 10
10.0232524364
 20
8.8561013236
 30
0.0
 10
10.0274219921
 20
8.8580291647
 30
0.0
 10
10.0308966364
 20
8.8596356714
 30
0.0
 10
10.0336763194
 20
8.8609209385
 30
0.0
 10
10.0354136951
 20
8.8617240898
 30
0.0
 10
10.0368034266
 20
8.862366933
 30
0.0
 10
10.0378461879
 20
8.8628481833
 30
0.0
 10
10.038713684
 20
8.8632520314
 30
0.0
 10
10.0393238193
 20
8.8635292179
 30
0.0
 10
10.0396679586
 20
8.8636962092
 30
0.0
 10
10.0399387662
 20
8.863797229
 30
0.0
 10
10.0401610162
 20
8.8639908441
 30
0.0
 10
10.040474287
 20
8.8642166993
 30
0.0
 10
10.0410146194
 20
8.8646269941
 30
0.0
 10
10.0417906485
 20
8.8652052622
 30
0.0
 10
10.0427201175
 20
8.8659025514
 30
0.0
 10
10.0439600264
 20
8.8668310942
 30
0.0
 10
10.0455097013
 20
8.8679921754
 30
0.0
 10
10.0479892991
 20
8.8698496802
 30
0.0
 10
10.0510887558
 20
8.8721716384
 30
0.0
 10
10.0548081213
 20
8.8749579552
 30
0.0
 10
10.0585274822
 20
8.8777442808
 30
0.0
 10
10.0634866316
 20
8.8814593785
 30
0.0
 10
10.0696855678
 20
8.8861032518
 30
0.0
 10
10.0758845044
 20
8.8907471244
 30
0.0
 10
10.080843653
 20
8.8944622232
 30
0.0
 10
10.0845630164
 20
8.8972485456
 30
0.0
 10
10.0882823723
 20
8.9000348747
 30
0.0
 10
10.0913818588
 20
8.9023567945
 30
0.0
 10
10.0938613961
 20
8.9042143776
 30
0.0
 10
10.0954112251
 20
8.9053752596
 30
0.0
 10
10.0966508174
 20
8.9063042111
 30
0.0
 10
10.0975812535
 20
8.9070002517
 30
0.0
 10
10.098354257
 20
8.9075824263
 30
0.0
 10
10.0988999908
 20
8.9079857474
 30
0.0
 10
10.0992046071
 20
8.9082227764
 30
0.0
 10
10.0994534407
 20
8.908382069
 30
0.0
 10
10.0996244047
 20
8.9086119981
 30
0.0
 10
10.0998795184
 20
8.9088939313
 30
0.0
 10
10.1003133123
 20
8.9093987943
 30
0.0
 10
10.1009396341
 20
8.9101140253
 30
0.0
 10
10.1016883884
 20
8.9109748715
 30
0.0
 10
10.1026877165
 20
8.9121217691
 30
0.0
 10
10.1039365379
 20
8.9135556983
 30
0.0
 10
10.1059348415
 20
8.9158498134
 30
0.0
 10
10.108432656
 20
8.9187175161
 30
0.0
 10
10.1114300613
 20
8.9221587342
 30
0.0
 10
10.1144274591
 20
8.925599959
 30
0.0
 10
10.1184239922
 20
8.9301882564
 30
0.0
 10
10.1234196575
 20
8.935923629
 30
0.0
 10
10.1284153235
 20
8.9416590011
 30
0.0
 10
10.1324118555
 20
8.9462472994
 30
0.0
 10
10.1354092566
 20
8.9496885215
 30
0.0
 10
10.1384066497
 20
8.9531297495
 30
0.0
 10
10.140904502
 20
8.9559974214
 30
0.0
 10
10.1429027286
 20
8.9582915995
 30
0.0
 10
10.1441517458
 20
8.9597253682
 30
0.0
 10
10.1451506721
 20
8.9608725954
 30
0.0
 10
10.1459006538
 20
8.9617324345
 30
0.0
 10
10.1465231351
 20
8.9624508166
 30
0.0
 10
10.146963785
 20
8.9629500543
 30
0.0
 10
10.1472079137
 20
8.9632410005
 30
0.0
 10
10.1474126203
 20
8.9634432448
 30
0.0
 10
10.1475347221
 20
8.9637065168
 30
0.0
 10
10.147726338
 20
8.9640362591
 30
0.0
 10
10.148048241
 20
8.9646232261
 30
0.0
 10
10.1485151211
 20
8.9654565651
 30
0.0
 10
10.1490723729
 20
8.9664587913
 30
0.0
 10
10.1498164248
 20
8.9677943178
 30
0.0
 10
10.1507461303
 20
8.9694639913
 30
0.0
 10
10.1522338599
 20
8.9721353206
 30
0.0
 10
10.154093453
 20
8.975474533
 30
0.0
 10
10.1563249943
 20
8.9794815662
 30
0.0
 10
10.1585565277
 20
8.9834886052
 30
0.0
 10
10.1615319083
 20
8.9888313218
 30
0.0
 10
10.165251133
 20
8.9955097184
 30
0.0
 10
10.1689703584
 20
9.0021881145
 30
0.0
 10
10.1719457378
 20
9.0075308318
 30
0.0
 10
10.1741772747
 20
9.0115378687
 30
0.0
 10
10.1764088028
 20
9.0155449098
 30
0.0
 10
10.1782684369
 20
9.0188840975
 30
0.0
 10
10.179756083
 20
9.0215554773
 30
0.0
 10
10.1806860012
 20
9.0232250221
 30
0.0
 10
10.1814296164
 20
9.0245608129
 30
0.0
 10
10.1819882022
 20
9.0255622315
 30
0.0
 10
10.1824509089
 20
9.0263980976
 30
0.0
 10
10.182780262
 20
9.0269805532
 30
0.0
 10
10.1829599411
 20
9.0273175237
 30
0.0
 10
10.1831187089
 20
9.0275585928
 30
0.0
 10
10.183185704
 20
9.0278442277
 30
0.0
 10
10.1833070422
 20
9.0282095291
 30
0.0
 10
10.1835044694
 20
9.0288560493
 30
0.0
 10
10.1837943058
 20
9.029775863
 30
0.0
 10
10.1841387718
 20
9.0308812602
 30
0.0
 10
10.1845992257
 20
9.0323545571
 30
0.0
 10
10.1851743938
 20
9.034196372
 30
0.0
 10
10.1860948859
 20
9.0371431675
 30
0.0
 10
10.1872454245
 20
9.0408266991
 30
0.0
 10
10.1886261037
 20
9.0452469211
 30
0.0
 10
10.190006774
 20
9.0496671473
 30
0.0
 10
10.1918476709
 20
9.0555607808
 30
0.0
 10
10.1941487908
 20
9.0629278232
 30
0.0
 10
10.1964499116
 20
9.0702948652
 30
0.0
 10
10.1982908072
 20
9.0761884992
 30
0.0
 10
10.1996714813
 20
9.0806087238
 30
0.0
 10
10.2010521462
 20
9.0850289519
 30
0.0
 10
10.2022027292
 20
9.0887124646
 30
0.0
 10
10.2031231307
 20
9.0916592985
 30
0.0
 10
10.2036985296
 20
9.0935010158
 30
0.0
 10
10.2041585097
 20
9.0949745131
 30
0.0
 10
10.204504423
 20
9.0960792978
 30
0.0
 10
10.2047897313
 20
9.097001028
 30
0.0
 10
10.2049952419
 20
9.0976441269
 30
0.0
 10
10.2051036285
 20
9.0980149101
 30
0.0
 10
10.2052104067
 20
9.0982837066
 30
0.0
 10
10.205219756
 20
9.0985880179
 30
0.0
 10
10.205266206
 20
9.0989813784
 30
0.0
 10
10.2053316596
 20
9.099675531
 30
0.0
 10
10.2054334428
 20
9.1006641599
 30
0.0
 10
10.2055520394
 20
9.1018518064
 30
0.0
 10
10.2057114058
 20
9.1034348838
 30
0.0
 10
10.2059101901
 20
9.105413885
 30
0.0
 10
10.2062284817
 20
9.1085802006
 30
0.0
 10
10.2066262649
 20
9.1125381248
 30
0.0
 10
10.2071036397
 20
9.1172876211
 30
0.0
 10
10.2075810051
 20
9.1220371209
 30
0.0
 10
10.2082174956
 20
9.128369786
 30
0.0
 10
10.2090131076
 20
9.1362856177
 30
0.0
 10
10.2098087203
 20
9.1442014494
 30
0.0
 10
10.2104452095
 20
9.1505341147
 30
0.0
 10
10.2109225789
 20
9.1552836137
 30
0.0
 10
10.2113999387
 20
9.1600331126
 30
0.0
 10
10.2117977686
 20
9.1639910289
 30
0.0
 10
10.212115965
 20
9.1671573606
 30
0.0
 10
10.2123149916
 20
9.1691363209
 30
0.0
 10
10.2124738607
 20
9.1707194824
 30
0.0
 10
10.2125939765
 20
9.1719068718
 30
0.0
 10
10.2126910063
 20
9.1728963049
 30
0.0
 10
10.2127649457
 20
9.173589022
 30
0.0
 10
10.2127977994
 20
9.1739846825
 30
0.0
 10
10.2128489121
 20
9.174281929
 30
0.0
 10
10.2127988337
 20
9.1745772598
 30
0.0
 10
10.2127673592
 20
9.1749717024
 30
0.0
 10
10.2126958334
 20
9.1756616657
 30
0.0
 10
10.2126022515
 20
9.1766474904
 30
0.0
 10
10.2124862731
 20
9.1778304103
 30
0.0
 10
10.2123329206
 20
9.1794076611
 30
0.0
 10
10.2121407899
 20
9.1813792164
 30
0.0
 10
10.2118336267
 20
9.1845337094
 30
0.0
 10
10.2114495884
 20
9.1884768241
 30
0.0
 10
10.2109887785
 20
9.1932085624
 30
0.0
 10
10.210527959
 20
9.1979403006
 30
0.0
 10
10.2099135363
 20
9.2042492848
 30
0.0
 10
10.2091455068
 20
9.2121355151
 30
0.0
 10
10.208377478
 20
9.2200217454
 30
0.0
 10
10.207763054
 20
9.2263307296
 30
0.0
 10
10.2073022385
 20
9.231062468
 30
0.0
 10
10.2068414136
 20
9.2357942053
 30
0.0
 10
10.206457422
 20
9.2397373234
 30
0.0
 10
10.2061501636
 20
9.2428918095
 30
0.0
 10
10.2059582752
 20
9.2448633823
 30
0.0
 10
10.2058044253
 20
9.246440597
 30
0.0
 10
10.2056899668
 20
9.2476236275
 30
0.0
 10
10.2055916294
 20
9.248609106
 30
0.0
 10
10.2055285929
 20
9.2492996872
 30
0.0
 10
10.2054835164
 20
9.2496931399
 30
0.0
 10
10.2054752191
 20
9.2499915115
 30
0.0
 10
10.205369409
 20
9.2502773375
 30
0.0
 10
10.2052623425
 20
9.2506628149
 30
0.0
 10
10.2050591284
 20
9.2513353615
 30
0.0
 10
10.204777108
 20
9.2522972083
 30
0.0
 10
10.2044351371
 20
9.2534509681
 30
0.0
 10
10.2039804145
 20
9.254989474
 30
0.0
 10
10.2034115872
 20
9.2569125517
 30
0.0
 10
10.2025017006
 20
9.2599895067
 30
0.0
 10
10.2013642609
 20
9.2638356898
 30
0.0
 10
10.1999993682
 20
9.2684511141
 30
0.0
 10
10.1986344661
 20
9.2730665372
 30
0.0
 10
10.1968146
 20
9.2792204351
 30
0.0
 10
10.1945397661
 20
9.2869128073
 30
0.0
 10
10.192264933
 20
9.2946051796
 30
0.0
 10
10.1904450656
 20
9.3007590772
 30
0.0
 10
10.1890801674
 20
9.3053745012
 30
0.0
 10
10.1877152603
 20
9.3099899222
 30
0.0
 10
10.1865778652
 20
9.3138361157
 30
0.0
 10
10.1856678877
 20
9.3169130495
 30
0.0
 10
10.1850992915
 20
9.318836181
 30
0.0
 10
10.1846440947
 20
9.3203745765
 30
0.0
 10
10.1843035727
 20
9.3215286734
 30
0.0
 10
10.1840170189
 20
9.3224894659
 30
0.0
 10
10.1838218975
 20
9.3231638945
 30
0.0
 10
10.1837018646
 20
9.3235463564
 30
0.0
 10
10.1836358831
 20
9.3238414452
 30
0.0
 10
10.1834779962
 20
9.3241050271
 30
0.0
 10
10.183299538
 20
9.3244674596
 30
0.0
 10
10.1829722998
 20
9.325096596
 30
0.0
 10
10.1825126256
 20
9.3259980393
 30
0.0
 10
10.1819576741
 20
9.3270786254
 30
0.0
 10
10.1812189061
 20
9.3285198071
 30
0.0
 10
10.1802950465
 20
9.3303211472
 30
0.0
 10
10.1788170945
 20
9.3332033679
 30
0.0
 10
10.1769695779
 20
9.3368061176
 30
0.0
 10
10.1747525907
 20
9.3411294285
 30
0.0
 10
10.1725355948
 20
9.3454527363
 30
0.0
 10
10.1695796034
 20
9.3512171478
 30
0.0
 10
10.1658846129
 20
9.3584226618
 30
0.0
 10
10.1621896231
 20
9.3656281761
 30
0.0
 10
10.1592336305
 20
9.3713925871
 30
0.0
 10
10.1570166382
 20
9.3757158964
 30
0.0
 10
10.1547996374
 20
9.3800392017
 30
0.0
 10
10.1529521633
 20
9.3836419687
 30
0.0
 10
10.1514741245
 20
9.386524154
 30
0.0
 10
10.1505504858
 20
9.3883255842
 30
0.0
 10
10.1498112644
 20
9.389766581
 30
0.0
 10
10.1492576984
 20
9.3908477322
 30
0.0
 10
10.1487936892
 20
9.3917474074
 30
0.0
 10
10.1484741897
 20
9.3923797001
 30
0.0
 10
10.1482833322
 20
9.3927370754
 30
0.0
 10
10.1481635318
 20
9.3930161912
 30
0.0
 10
10.1479545037
 20
9.3932529374
 30
0.0
 10
10.1477069231
 20
9.3935833779
 30
0.0
 10
10.147259156
 20
9.394154763
 30
0.0
 10
10.1466270702
 20
9.3949746275
 30
0.0
 10
10.145865322
 20
9.3959569239
 30
0.0
 10
10.1448507913
 20
9.3972671907
 30
0.0
 10
10.1435822398
 20
9.3989048399
 30
0.0
 10
10.1415527743
 20
9.4015251817
 30
0.0
 10
10.1390158681
 20
9.4048005735
 30
0.0
 10
10.1359716124
 20
9.4087310588
 30
0.0
 10
10.1329273482
 20
9.4126615401
 30
0.0
 10
10.1288683323
 20
9.4179021832
 30
0.0
 10
10.1237945613
 20
9.4244529866
 30
0.0
 10
10.118720791
 20
9.4310037904
 30
0.0
 10
10.1146617741
 20
9.4362444328
 30
0.0
 10
10.111617513
 20
9.4401749164
 30
0.0
 10
10.1085732457
 20
9.444105393
 30
0.0
 10
10.1060363757
 20
9.447380812
 30
0.0
 10
10.1040068362
 20
9.4500010983
 30
0.0
 10
10.1027384731
 20
9.4516388886
 30
0.0
 10
10.1017235556
 20
9.4529488657
 30
0.0
 10
10.1009629891
 20
9.4539320473
 30
0.0
 10
10.1003272065
 20
9.4547491424
 30
0.0
 10
10.0998860387
 20
9.4553254713
 30
0.0
 10
10.0996278845
 20
9.4556479907
 30
0.0
 10
10.0994513351
 20
9.455909068
 30
0.0
 10
10.0992095497
 20
9.4560967999
 30
0.0
 10
10.0989099242
 20
9.4563726927
 30
0.0
 10
10.0983749776
 20
9.4568435853
 30
0.0
 10
10.097616311
 20
9.4575225208
 30
0.0
 10
10.0967035386
 20
9.458334576
 30
0.0
 10
10.0954873373
 20
9.4594182479
 30
0.0
 10
10.093966802
 20
9.4607725189
 30
0.0
 10
10.0915341041
 20
9.4629395306
 30
0.0
 10
10.0884931773
 20
9.4656482341
 30
0.0
 10
10.0848440885
 20
9.4688987046
 30
0.0
 10
10.0811949934
 20
9.472149168
 30
0.0
 10
10.0763295355
 20
9.4764831217
 30
0.0
 10
10.0702477123
 20
9.4819005629
 30
0.0
 10
10.0641658897
 20
9.4873180048
 30
0.0
 10
10.059300431
 20
9.4916519575
 30
0.0
 10
10.0556513383
 20
9.494902424
 30
0.0
 10
10.0520022404
 20
9.4981528829
 30
0.0
 10
10.0489613419
 20
9.5008616222
 30
0.0
 10
10.0465285863
 20
9.503028561
 30
0.0
 10
10.045008198
 20
9.5043830175
 30
0.0
 10
10.043791695
 20
9.5054663086
 30
0.0
 10
10.0428798445
 20
9.5062795273
 30
0.0
 10
10.0421182932
 20
9.5069548224
 30
0.0
 10
10.0415884963
 20
9.5074322138
 30
0.0
 10
10.0412806197
 20
9.5076976938
 30
0.0
 10
10.041064179
 20
9.5079174107
 30
0.0
 10
10.0407924391
 20
9.5080583577
 30
0.0
 10
10.0404494083
 20
9.5082737628
 30
0.0
 10
10.0398401172
 20
9.5086379203
 30
0.0
 10
10.0389744
 20
9.5091648381
 30
0.0
 10
10.0379335282
 20
9.5097942747
 30
0.0
 10
10.0365464016
 20
9.5106345241
 30
0.0
 10
10.0348122528
 20
9.5116844932
 30
0.0
 10
10.0320377491
 20
9.5133646353
 30
0.0
 10
10.0285695734
 20
9.5154647472
 30
0.0
 10
10.0244077823
 20
9.5179849097
 30
0.0
 10
10.0202459859
 20
9.5205050646
 30
0.0
 10
10.014696926
 20
9.5238652738
 30
0.0
 10
10.0077606003
 20
9.5280655343
 30
0.0
 10
10.0008242751
 20
9.5322657956
 30
0.0
 10
9.9952752145
 20
9.5356260037
 30
0.0
 10
9.99111342
 20
9.538146162
 30
0.0
 10
9.9869516219
 20
9.5406663118
 30
0.0
 10
9.9834834681
 20
9.5427664631
 30
0.0
 10
9.9807089196
 20
9.5444465248
 30
0.0
 10
9.9789748849
 20
9.5454966987
 30
0.0
 10
9.9775875242
 20
9.5463365277
 30
0.0
 10
9.9765473676
 20
9.5469672486
 30
0.0
 10
9.9756794126
 20
9.5474901482
 30
0.0
 10
9.9750741162
 20
9.5478614787
 30
0.0
 10
9.9747246849
 20
9.5480653909
 30
0.0
 10
9.9744726052
 20
9.5482416405
 30
0.0
 10
9.9741823243
 20
9.5483287667
 30
0.0
 10
9.973808608
 20
9.5484760222
 30
0.0
 10
9.9731483962
 20
9.5487192353
 30
0.0
 10
9.9722084823
 20
9.5490742549
 30
0.0
 10
9.9710791963
 20
9.5494970372
 30
0.0
 10
9.9695739668
 20
9.5500618791
 30
0.0
 10
9.9676922639
 20
9.5507675438
 30
0.0
 10
9.964681632
 20
9.5518968239
 30
0.0
 10
9.9609183103
 20
9.5533083498
 30
0.0
 10
9.9564023379
 20
9.5550022126
 30
0.0
 10
9.9518863619
 20
9.556696067
 30
0.0
 10
9.9458650618
 20
9.5589545424
 30
0.0
 10
9.9383384362
 20
9.5617776356
 30
0.0
 10
9.9308118108
 20
9.5646007296
 30
0.0
 10
9.9247905103
 20
9.5668592038
 30
0.0
 10
9.9202745356
 20
9.5685530619
 30
0.0
 10
9.9157585581
 20
9.5702469108
 30
0.0
 10
9.9119952522
 20
9.57165848
 30
0.0
 10
9.9089845882
 20
9.5727876717
 30
0.0
 10
9.9071029669
 20
9.5734935615
 30
0.0
 10
9.9055975698
 20
9.5740579413
 30
0.0
 10
9.904468796
 20
9.5744821353
 30
0.0
 10
9.9035272796
 20
9.5748327381
 30
0.0
 10
9.9028699285
 20
9.575083836
 30
0.0
 10
9.9024916286
 20
9.5752184579
 30
0.0
 10
9.9022154271
 20
9.5753443907
 30
0.0
 10
9.9019104672
 20
9.575374889
 30
0.0
 10
9.9015138853
 20
9.5754488421
 30
0.0
 10
9.9008151932
 20
9.5755627501
 30
0.0
 10
9.899819505
 20
9.5757335846
 30
0.0
 10
9.8986236334
 20
9.5759351151
 30
0.0
 10
9.8970295032
 20
9.5762050348
 30
0.0
 10
9.8950367153
 20
9.5765420194
 30
0.0
 10
9.8918483247
 20
9.5770814267
 30
0.0
 10
9.8878628124
 20
9.5777556061
 30
0.0
 10
9.8830802079
 20
9.5785646557
 30
0.0
 10
9.8782976007
 20
9.579373696
 30
0.0
 10
9.871920792
 20
9.5804524197
 30
0.0
 10
9.8639497808
 20
9.5818008232
 30
0.0
 10
9.8543845675
 20
9.5834189079
 30
0.0
 10
9.8416309498
 20
9.585576354
 30
0.0
 10
9.8320657365
 20
9.5871944386
 30
0.0
 10
9.8256889276
 20
9.5882731617
 30
0.0
  0
ENDSEC
  0
SECTION
  2
OBJECTS
  0
DICTIONARY
  5
C
100
AcDbDictionary
280
0
281
1
  3
ACAD_GROUP
350
D
  3
ACAD_MLINESTYLE
350
17
  3
ACAD_LAYOUT
350
1A
  3
ACAD_PLOTSETTINGS
350
19
  3
ACAD_PLOTSTYLENAME
350
E
  3
ACAD_IMAGE_DICT
350
       3AD
  3
ACAD_IMAGE_VARS
350
       3AE
  3
ACAD_TABLESTYLE
350
       3AF
  0
IMAGEDEF_REACTOR
  5
3AC
100
AcDbRasterImageDefReactor
 90
2
330
288
  0
DICTIONARY
  5
D
102
{ACAD_REACTORS
330
C
102
}
100
AcDbDictionary
280
0
281
1
  0
ACDBDICTIONARYWDFLT
  5
E
102
{ACAD_REACTORS
330
C
102
}
100
AcDbDictionary
281
1
  3
Normal
350
F
100
AcDbDictionaryWithDefault
340
F
  0
DICTIONARY
  5
3AD
330
C
100
AcDbDictionary
281
1
  3
X5H_assy_2_img_1
350
       3B2
  0
RASTERVARIABLES
  5
3AE
330
C
100
AcDbRasterVariables
 90
0
 70
0
 71
1
 72
5
  0
DICTIONARY
  5
17
102
{ACAD_REACTORS
330
C
102
}
100
AcDbDictionary
280
0
281
1
  3
Standard
350
18
  0
DICTIONARY
  5
3AF
330
C
100
AcDbDictionary
281
1
  3
Standard
350
       3B3
  3
Standard1
350
       3B4
  0
DICTIONARY
  5
19
102
{ACAD_REACTORS
330
C
102
}
100
AcDbDictionary
281
1
  0
DICTIONARY
  5
1A
102
{ACAD_REACTORS
330
C
102
}
100
AcDbDictionary
281
1
  3
Model
350
3B0
  3
Layout1
350
3B1
  0
ACDBPLACEHOLDER
  5
F
102
{ACAD_REACTORS
330
E
102
}
  0
MLINESTYLE
  5
18
102
{ACAD_REACTORS
330
17
102
}
100
AcDbMlineStyle
  2
STANDARD
 70
0
  3

 62
256
 51
90.0
 52
90.0
 71
2
 49
0.5
 62
256
  6
BYLAYER
 49
-0.5
 62
256
  6
BYLAYER
  0
LAYOUT
  5
3B0
102
{ACAD_REACTORS
330
1A
102
}
100
AcDbPlotSettings
  1

  2
none_device
  4
ANSI_C_(22.00_x_17.00_Inches)
  6

 40
0.0
 41
0.0
 42
0.0
 43
0.0
 44
558.8
 45
431.8
 46
0.0
 47
0.0
 48
0.0
 49
0.0
140
0.0
141
0.0
142
1.0
143
1.0
 70
1024
 72
0
 73
0
 74
0
  7

 75
0
147
1.0
148
0.0
149
0.0
100
AcDbLayout
  1
Model
 70
0
 71
0
 10
0.0
 20
0.0
 11
22.0
 21
17.0
 12
0.0
 22
0.0
 32
0.0
 14
0.0
 24
0.0
 34
0.0
 15
0.0
 25
0.0
 35
0.0
146
0.0
 13
0.0
 23
0.0
 33
0.0
 16
1.0
 26
0.0
 36
0.0
 17
0.0
 27
1.0
 37
0.0
 76
0
330
20C
345
0
346
0
  0
LAYOUT
  5
3B1
102
{ACAD_REACTORS
330
1A
102
}
100
AcDbPlotSettings
  1

  2
none_device
  4
ANSI_C_(22.00_x_17.00_Inches)
  6

 40
0.0
 41
0.0
 42
0.0
 43
0.0
 44
558.8
 45
431.8
 46
0.0
 47
0.0
 48
0.0
 49
0.0
140
0.0
141
0.0
142
1.0
143
1.0
 70
0
 72
0
 73
0
 74
0
  7

 75
0
147
1.0
148
0.0
149
0.0
100
AcDbLayout
  1
Layout1
 70
0
 71
1
 10
0.0
 20
0.0
 11
22.0
 21
17.0
 12
0.0
 22
0.0
 32
0.0
 14
0.0
 24
0.0
 34
0.0
 15
0.0
 25
0.0
 35
0.0
146
0.0
 13
0.0
 23
0.0
 33
0.0
 16
1.0
 26
0.0
 36
0.0
 17
0.0
 27
1.0
 37
0.0
 76
0
330
20D
345
0
346
0
  0
IMAGEDEF
  5
3B2
102
{ACAD_REACTORS
330
3AD
330
3AC
102
}
100
AcDbRasterImageDef
 90
0
  1
X5H_assy_2_img_1.png
 10
369.0
 20
92.0
 11
0.0066666667
 21
0.0066666667
280
1
281
0
  0
TABLESTYLE
  5
3B3
102
{ACAD_REACTORS
330
3AF
330
28B
330
28C
102
}
330
3AF
100
AcDbTableStyle
  3
Standard
 70
0
 71
0
 40
0.06
 41
0.06
280
1
281
1
  7
Standard
140
0.18
170
1
 62
0
 63
7
283
0
  7
Standard
140
0.18
170
1
 62
0
 63
7
283
0
  7
Standard
140
0.18
170
1
 62
0
 63
7
283
0
  0
TABLESTYLE
  5
3B4
102
{ACAD_REACTORS
330
3AF
330
28A
102
}
330
3AF
100
AcDbTableStyle
  3
Standard1
 70
1
 71
0
 40
0.06
 41
0.06
280
1
281
1
  7
Standard
140
0.18
170
1
 62
0
 63
7
283
0
  7
Standard
140
0.18
170
1
 62
0
 63
7
283
0
  7
Standard
140
0.18
170
1
 62
0
 63
7
283
0
  0
ENDSEC
  0
EOF
