999
DXF file: X2V_assy_2.dxf
999
Pro/ENGINEER 2014200 by Parametric Technology Corporation
  0
SECTION
  2
HEADER
  9
$ACADVER
  1
AC1021
  9
$DWGCODEPAGE
  3
ANSI_1252
  9
$EXTMAX
 10
22.0
 20
17.0
 30
0.0
  9
$EXTMIN
 10
0.0
 20
0.0
 30
0.0
  9
$LIMMIN
 10
0.0
 20
0.0
  9
$LIMMAX
 10
22.0
 20
17.0
  9
$VIEWCTR
 10
11.0
 20
8.5
  9
$VIEWSIZE
 40
17.0
  9
$CLAYER
  8
0
  9
$LTSCALE
 40
1.21
  9
$CELTYPE
  6
BYLAYER
  9
$DIMSCALE
 40
1.0
  9
$DIMASZ
 40
0.1875
  9
$DIMEXO
 40
0.0625
  9
$DIMDLI
 40
0.836
  9
$DIMEXE
 40
0.125
  9
$DIMCEN
 40
0.198
  9
$DIMLFAC
 40
1.0
  9
$DIMBLK
  1
_FILLED
  9
$DIMTXT
 40
0.1
  9
$DIMTOL
 70
0
  9
$DIMLIM
 70
0
  9
$DIMTFAC
 40
1.0
  9
$DIMGAP
 40
0.09
  9
$DIMDSEP
 70
46
  9
$AUNITS
 70
0
  9
$PDMODE
 70
3
  9
$PDSIZE
 40
0.3125
  9
$HANDSEED
  5
328
  9
$TILEMODE
 70
1
  9
$MEASUREMENT
 70
0
  9
$INSUNITS
 70
1
  0
ENDSEC
  0
SECTION
  2
CLASSES
  0
CLASS
  1
ACDBDICTIONARYWDFLT
  2
AcDbDictionaryWithDefault
  3
AutoCAD 2000
 90
0
 91
1
280
0
281
0
  0
CLASS
  1
ACDBPLACEHOLDER
  2
AcDbPlaceHolder
  3
AutoCAD 2000
 90
0
 91
1
280
0
281
0
  0
CLASS
  1
LAYOUT
  2
AcDbLayout
  3
AutoCAD 2000
 90
0
 91
0
280
0
281
0
  0
CLASS
  1
RASTERVARIABLES
  2
AcDbRasterVariables
  3
ISM
 90
0
 91
1
280
0
281
0
  0
CLASS
  1
IMAGEDEF
  2
AcDbRasterImageDef
  3
ISM
 90
0
 91
1
280
0
281
0
  0
CLASS
  1
IMAGEDEF_REACTOR
  2
AcDbRasterImageDefReactor
  3
ISM
 90
0
 91
1
280
0
281
0
  0
CLASS
  1
IMAGE
  2
AcDbRasterImage
  3
ISM
 90
127
 91
1
280
0
281
1
  0
CLASS
  1
TABLESTYLE
  2
AcDbTableStyle
  3
ObjectDBX Classes
 90
2047
 91
1
280
0
281
0
  0
CLASS
  1
ACAD_TABLE
  2
AcDbTable
  3
ObjectDBX Classes
 90
1025
 91
3
280
0
281
1
  0
ENDSEC
  0
SECTION
  2
TABLES
  0
TABLE
  2
VPORT
  5
8
100
AcDbSymbolTable
 70
2
  0
VPORT
  5
1F4
100
AcDbSymbolTableRecord
100
AcDbViewportTableRecord
  2
*ACTIVE
 70
0
 10
0.0
 20
0.0
 11
1.0
 21
1.0
 12
11.0
 22
8.5
 13
0.0
 23
0.0
 14
1.0
 24
1.0
 15
0.0
 25
0.0
 16
0.0
 26
0.0
 36
1.0
 17
0.0
 27
0.0
 37
0.0
 40
17.0
 41
1.2941176471
 42
50.0
 43
0.0
 44
0.0
 50
0.0
 51
0.0
 71
0
 72
100
 73
1
 74
1
 75
0
 76
0
 77
0
 78
0
  0
ENDTAB
  0
TABLE
  2
LTYPE
  5
5
100
AcDbSymbolTable
 70
6
  0
LTYPE
  5
14
100
AcDbSymbolTableRecord
100
AcDbLinetypeTableRecord
  2
BYBLOCK
 70
0
  3

 72
65
 73
0
 40
0.0
  0
LTYPE
  5
15
100
AcDbSymbolTableRecord
100
AcDbLinetypeTableRecord
  2
BYLAYER
 70
0
  3

 72
65
 73
0
 40
0.0
  0
LTYPE
  5
16
100
AcDbSymbolTableRecord
100
AcDbLinetypeTableRecord
  2
CONTINUOUS
 70
64
  3
Solid line
 72
65
 73
0
 40
0.0
  0
LTYPE
  5
1F5
100
AcDbSymbolTableRecord
100
AcDbLinetypeTableRecord
  2
CENTER
 70
64
  3
____ _ ____ _ ____ _ ____ _ ____ _ ____ _ ____
 72
65
 73
4
 40
0.6
 49
0.375
 74
0
 49
-0.075
 74
0
 49
0.075
 74
0
 49
-0.075
 74
0
  0
LTYPE
  5
1F6
100
AcDbSymbolTableRecord
100
AcDbLinetypeTableRecord
  2
HIDDEN
 70
64
  3
- - - - - - - - - - - - - - - - - - - -
 72
65
 73
2
 40
0.2
 49
0.1
 74
0
 49
-0.1
 74
0
  0
LTYPE
  5
1F7
100
AcDbSymbolTableRecord
100
AcDbLinetypeTableRecord
  2
PHANTOM
 70
64
  3
_____ _ _ _____ _ _ _____ _ _ _____
 72
65
 73
6
 40
0.8
 49
0.45
 74
0
 49
-0.05
 74
0
 49
0.1
 74
0
 49
-0.05
 74
0
 49
0.1
 74
0
 49
-0.05
 74
0
  0
LTYPE
  5
1F8
100
AcDbSymbolTableRecord
100
AcDbLinetypeTableRecord
  2
DOT
 70
64
  3
. . . . . . . . . . . . . . . . . . . .
 72
65
 73
2
 40
0.2
 49
0.1
 74
0
 49
-0.1
 74
0
  0
LTYPE
  5
1F9
100
AcDbSymbolTableRecord
100
AcDbLinetypeTableRecord
  2
DASHED
 70
64
  3
- - - - - - - - - - - - - - - - - - - -
 72
65
 73
2
 40
0.2
 49
0.1
 74
0
 49
-0.1
 74
0
  0
ENDTAB
  0
TABLE
  2
LAYER
  5
2
100
AcDbSymbolTable
 70
36
  0
LAYER
  5
10
100
AcDbSymbolTableRecord
100
AcDbLayerTableRecord
  2
0
 70
0
 62
7
  6
CONTINUOUS
370
-3
390
F
  0
LAYER
  5
1FA
100
AcDbSymbolTableRecord
100
AcDbLayerTableRecord
  2
DEFAULT_1
 70
0
 62
7
  6
CENTER
370
-3
390
F
  0
LAYER
  5
1FB
100
AcDbSymbolTableRecord
100
AcDbLayerTableRecord
  2
DEFAULT_2
 70
0
 62
8
  6
HIDDEN
370
-3
390
F
  0
LAYER
  5
1FC
100
AcDbSymbolTableRecord
100
AcDbLayerTableRecord
  2
DEFAULT_3
 70
0
 62
7
  6
PHANTOM
370
-3
390
F
  0
LAYER
  5
1FD
100
AcDbSymbolTableRecord
100
AcDbLayerTableRecord
  2
DATUM_PLANES
 70
0
 62
7
  6
CONTINUOUS
370
-3
390
F
  0
LAYER
  5
1FE
100
AcDbSymbolTableRecord
100
AcDbLayerTableRecord
  2
DIMENSIONS
 70
0
 62
7
  6
CONTINUOUS
370
-3
390
F
  0
LAYER
  5
1FF
100
AcDbSymbolTableRecord
100
AcDbLayerTableRecord
  2
DTM_500001
 70
0
 62
7
  6
CONTINUOUS
370
-3
390
F
  0
LAYER
  5
200
100
AcDbSymbolTableRecord
100
AcDbLayerTableRecord
  2
PARAMETERDIMENSIONS
 70
0
 62
7
  6
CONTINUOUS
370
-3
390
F
  0
LAYER
  5
201
100
AcDbSymbolTableRecord
100
AcDbLayerTableRecord
  2
PLANE
 70
0
 62
7
  6
CONTINUOUS
370
-3
390
F
  0
LAYER
  5
202
100
AcDbSymbolTableRecord
100
AcDbLayerTableRecord
  2
PORT_AREAS
 70
0
 62
7
  6
CONTINUOUS
370
-3
390
F
  0
LAYER
  5
203
100
AcDbSymbolTableRecord
100
AcDbLayerTableRecord
  2
SUNNBOMCOSMETIC
 70
0
 62
7
  6
CONTINUOUS
370
-3
390
F
  0
LAYER
  5
204
100
AcDbSymbolTableRecord
100
AcDbLayerTableRecord
  2
SUNNBOMSTAMPING
 70
0
 62
7
  6
CONTINUOUS
370
-3
390
F
  0
LAYER
  5
205
100
AcDbSymbolTableRecord
100
AcDbLayerTableRecord
  2
THREADS
 70
0
 62
7
  6
CONTINUOUS
370
-3
390
F
  0
ENDTAB
  0
TABLE
  2
STYLE
  5
3
100
AcDbSymbolTable
 70
1
  0
STYLE
  5
11
100
AcDbSymbolTableRecord
100
AcDbTextStyleTableRecord
  2
STANDARD
 70
0
 40
0.0
 41
0.8
 50
0.0
 71
0
 42
0.2
  3
txt
  4

  0
STYLE
  5
206
100
AcDbSymbolTableRecord
100
AcDbTextStyleTableRecord
  2
TEXTSTYLE_1
 70
0
 40
0.0
 41
0.8
 50
0.0
 71
0
 42
0.2
  3
gdt
  4

  0
ENDTAB
  0
TABLE
  2
VIEW
  5
6
100
AcDbSymbolTable
 70
0
  0
ENDTAB
  0
TABLE
  2
UCS
  5
7
100
AcDbSymbolTable
 70
0
  0
ENDTAB
  0
TABLE
  2
APPID
  5
9
100
AcDbSymbolTable
 70
1
  0
APPID
  5
207
100
AcDbSymbolTableRecord
100
AcDbRegAppTableRecord
  2
ACAD
 70
0
  0
ENDTAB
  0
TABLE
  2
BLOCK_RECORD
  5
1
100
AcDbSymbolTable
 70
0
  0
BLOCK_RECORD
  5
208
100
AcDbSymbolTableRecord
100
AcDbBlockTableRecord
  2
*Model_Space
  0
BLOCK_RECORD
  5
209
100
AcDbSymbolTableRecord
100
AcDbBlockTableRecord
  2
*Paper_Space
  0
BLOCK_RECORD
  5
20A
100
AcDbSymbolTableRecord
100
AcDbBlockTableRecord
  2
SUN_FIRST_THIRD_ANGLE_BL0
  0
BLOCK_RECORD
  5
20B
100
AcDbSymbolTableRecord
100
AcDbBlockTableRecord
  2
*T1
  0
BLOCK_RECORD
  5
20C
100
AcDbSymbolTableRecord
100
AcDbBlockTableRecord
  2
*T2
  0
BLOCK_RECORD
  5
20D
100
AcDbSymbolTableRecord
100
AcDbBlockTableRecord
  2
*T3
  0
ENDTAB
  0
TABLE
  2
DIMSTYLE
  5
A
100
AcDbSymbolTable
 70
1
100
AcDbDimStyleTable
 71
0
  0
DIMSTYLE
105
20E
100
AcDbSymbolTableRecord
100
AcDbDimStyleTableRecord
  2
STANDARD
 70
0
  3

  4

 40
1.0
 41
0.1875
 42
0.0625
 43
0.38
 44
0.125
 45
0.0
 46
0.0
 47
0.001
 48
0.001
140
0.1
141
0.09
142
0.0
143
25.4
144
1.0
145
0.0
146
1.0
147
0.09
 71
0.0
 72
0.0
 73
1
 74
1
 75
0
 76
0
 77
0
 78
4
170
0
171
2
172
0
173
0
174
0
175
0
176
0
177
0
178
0
270
2
271
3
272
3
273
2
274
2
275
0
280
0
281
0
282
0
283
1
284
4
285
0
286
0
287
3
288
0
340
11
278
46
  0
ENDTAB
  0
ENDSEC
  0
SECTION
  2
BLOCKS
  0
BLOCK
  5
20
100
AcDbEntity
  8
0
100
AcDbBlockBegin
  2
*Model_Space
 70
0
 10
0.0
 20
0.0
 30
0.0
  3
*Model_Space
  1

  0
ENDBLK
  5
21
100
AcDbEntity
  8
0
100
AcDbBlockEnd
  0
BLOCK
  5
1C
100
AcDbEntity
  8
0
100
AcDbBlockBegin
  2
*Paper_Space
 70
0
 10
0.0
 20
0.0
 30
0.0
  3
*Paper_Space
  1

  0
ENDBLK
  5
1D
100
AcDbEntity
  8
0
100
AcDbBlockEnd
  0
BLOCK
  5
20F
100
AcDbEntity
  8
0
100
AcDbBlockBegin
 62
2
  6
CONTINUOUS
  2
SUN_FIRST_THIRD_ANGLE_BL0
 70
64
 10
20.4816717061
 20
1.2289683772
  3
SUN_FIRST_THIRD_ANGLE_BL0
  1

  0
TEXT
  5
210
100
AcDbEntity
  8
0
100
AcDbText
 62
2
  6
CONTINUOUS
 10
19.4750896608
 20
1.4136269581
  7
STANDARD
 40
0.08
  1
FIRST ANGLE
 41
0.8
 72
0
100
AcDbText
  0
TEXT
  5
211
100
AcDbEntity
  8
0
100
AcDbText
 62
2
  6
CONTINUOUS
 10
20.7842537513
 20
1.4047600029
  7
STANDARD
 40
0.08
  1
THIRD ANGLE
 41
0.8
 72
0
100
AcDbText
  0
LINE
  5
212
100
AcDbEntity
  8
0
100
AcDbLine
 62
7
  6
CONTINUOUS
 10
19.4767170086
 20
1.1727031207
 11
19.6334271527
 21
1.1717972817
  0
LINE
  5
213
100
AcDbEntity
  8
0
100
AcDbLine
 62
7
  6
CONTINUOUS
 10
19.6596964832
 20
1.1717972817
 11
19.6950230232
 21
1.171593082
  0
LINE
  5
214
100
AcDbEntity
  8
0
100
AcDbLine
 62
7
  6
CONTINUOUS
 10
19.7194818561
 20
1.1708914427
 11
19.8852396156
 21
1.1699333054
  0
LINE
  5
215
100
AcDbEntity
  8
0
100
AcDbLine
 62
7
  6
CONTINUOUS
 10
19.4758111696
 20
1.2723454088
 11
19.88525039
 21
1.3511534004
  0
LINE
  5
216
100
AcDbEntity
  8
0
100
AcDbLine
 62
7
  6
CONTINUOUS
 10
19.88525039
 20
1.3511534004
 11
19.8831348489
 21
0.9851647912
  0
LINE
  5
217
100
AcDbEntity
  8
0
100
AcDbLine
 62
7
  6
CONTINUOUS
 10
19.8831348489
 20
0.9851647912
 11
19.4767170086
 21
1.0658141206
  0
LINE
  5
218
100
AcDbEntity
  8
0
100
AcDbLine
 62
7
  6
CONTINUOUS
 10
19.4767170086
 20
1.0658141206
 11
19.4779056764
 21
1.2714536432
  0
CIRCLE
  5
219
100
AcDbEntity
  8
0
100
AcDbCircle
 62
7
  6
CONTINUOUS
 10
20.2068232291
 20
1.1717972817
 40
0.175742101
  0
CIRCLE
  5
21A
100
AcDbEntity
  8
0
100
AcDbCircle
 62
7
  6
CONTINUOUS
 10
20.2068232291
 20
1.1717972817
 40
0.1005522074
  0
LINE
  5
21B
100
AcDbEntity
  8
0
100
AcDbLine
 62
7
  6
CONTINUOUS
 10
20.2077290681
 20
1.3756110529
 11
20.2071171714
 21
1.2379342989
  0
LINE
  5
21C
100
AcDbEntity
  8
0
100
AcDbLine
 62
7
  6
CONTINUOUS
 10
20.2077290681
 20
1.2016899681
 11
20.2074674401
 21
1.1428236749
  0
LINE
  5
21D
100
AcDbEntity
  8
0
100
AcDbLine
 62
7
  6
CONTINUOUS
 10
20.208634907
 20
1.101141841
 11
20.2080230104
 21
0.963465087
  0
LINE
  5
21E
100
AcDbEntity
  8
0
100
AcDbLine
 62
7
  6
CONTINUOUS
 10
20.0066328138
 20
1.1745147986
 11
20.1443095678
 21
1.1739029019
  0
LINE
  5
21F
100
AcDbEntity
  8
0
100
AcDbLine
 62
7
  6
CONTINUOUS
 10
20.1832714155
 20
1.1727031207
 11
20.238153505
 21
1.172335442
  0
LINE
  5
220
100
AcDbEntity
  8
0
100
AcDbLine
 62
7
  6
CONTINUOUS
 10
20.2756669918
 20
1.1717972817
 11
20.407916871
 21
1.1712095044
  0
CIRCLE
  5
221
100
AcDbEntity
  8
0
100
AcDbCircle
 62
7
  6
CONTINUOUS
 10
20.7509457401
 20
1.1693297793
 40
0.1722024983
  0
CIRCLE
  5
222
100
AcDbEntity
  8
0
100
AcDbCircle
 62
7
  6
CONTINUOUS
 10
20.7509457401
 20
1.1693297793
 40
0.0985164967
  0
LINE
  5
223
100
AcDbEntity
  8
0
100
AcDbLine
 62
7
  6
CONTINUOUS
 10
20.7169767782
 20
1.170462078
 11
20.7825395137
 21
1.1682766535
  0
LINE
  5
224
100
AcDbEntity
  8
0
100
AcDbLine
 62
7
  6
CONTINUOUS
 10
20.8177513651
 20
1.1693297793
 11
20.947965719
 21
1.1693297793
  0
LINE
  5
225
100
AcDbEntity
  8
0
100
AcDbLine
 62
7
  6
CONTINUOUS
 10
20.6875370113
 20
1.170462078
 11
20.5573226574
 21
1.170462078
  0
LINE
  5
226
100
AcDbEntity
  8
0
100
AcDbLine
 62
7
  6
CONTINUOUS
 10
20.7486811426
 20
1.1987695462
 11
20.7486811426
 21
1.1432869085
  0
LINE
  5
227
100
AcDbEntity
  8
0
100
AcDbLine
 62
7
  6
CONTINUOUS
 10
20.7498134414
 20
1.1059210505
 11
20.7498134414
 21
0.9757066966
  0
LINE
  5
228
100
AcDbEntity
  8
0
100
AcDbLine
 62
7
  6
CONTINUOUS
 10
20.7486811426
 20
1.2338708068
 11
20.7486811426
 21
1.3640851607
  0
LINE
  5
229
100
AcDbEntity
  8
0
100
AcDbLine
 62
7
  6
CONTINUOUS
 10
21.0702539817
 20
1.2701043662
 11
21.4790138229
 21
1.3448360823
  0
LINE
  5
22A
100
AcDbEntity
  8
0
100
AcDbLine
 62
7
  6
CONTINUOUS
 10
21.4790138229
 20
1.3448360823
 11
21.4790138229
 21
0.9779712941
  0
LINE
  5
22B
100
AcDbEntity
  8
0
100
AcDbLine
 62
7
  6
CONTINUOUS
 10
21.4790138229
 20
0.9779712941
 11
21.069121683
 21
1.0617614
  0
LINE
  5
22C
100
AcDbEntity
  8
0
100
AcDbLine
 62
7
  6
CONTINUOUS
 10
21.0702539817
 20
1.2701043662
 11
21.069121683
 21
1.0617614
  0
LINE
  5
22D
100
AcDbEntity
  8
0
100
AcDbLine
 62
7
  6
CONTINUOUS
 10
21.4790138229
 20
1.1693297793
 11
21.3159628059
 21
1.1693297793
  0
LINE
  5
22E
100
AcDbEntity
  8
0
100
AcDbLine
 62
7
  6
CONTINUOUS
 10
21.2876553377
 20
1.1693297793
 11
21.2502894796
 21
1.1693297793
  0
LINE
  5
22F
100
AcDbEntity
  8
0
100
AcDbLine
 62
7
  6
CONTINUOUS
 10
21.2208497126
 20
1.1659328831
 11
21.0713862804
 21
1.1659328831
  0
LINE
  5
230
100
AcDbEntity
  8
0
100
AcDbLine
 62
7
  6
CONTINUOUS
 10
20.4796138713
 20
1.5284908897
 11
20.4766766948
 21
0.9294458646
  0
ENDBLK
  5
231
100
AcDbEntity
  8
0
  6
BYBLOCK
 62
0
100
AcDbBlockEnd
  0
BLOCK
  5
232
100
AcDbEntity
  8
0
100
AcDbBlockBegin
  2
*T1
 70
1
 10
0.0
 20
0.0
  3
*T1
  1

  0
LINE
  5
233
100
AcDbEntity
  8
0
100
AcDbLine
 62
2
  6
CONTINUOUS
 10
9.275
 20
0.0
 11
-0.0
 21
0.0
  0
LINE
  5
234
100
AcDbEntity
  8
0
100
AcDbLine
 62
2
  6
CONTINUOUS
 10
9.275
 20
0.0
 11
9.275
 21
1.25
  0
LINE
  5
235
100
AcDbEntity
  8
0
100
AcDbLine
 62
2
  6
CONTINUOUS
 10
9.275
 20
0.625
 11
-0.0
 21
0.625
  0
LINE
  5
236
100
AcDbEntity
  8
0
100
AcDbLine
 62
2
  6
CONTINUOUS
 10
9.275
 20
1.25
 11
-0.0
 21
1.25
  0
LINE
  5
237
100
AcDbEntity
  8
0
100
AcDbLine
 62
2
  6
CONTINUOUS
 10
6.8
 20
0.0
 11
6.8
 21
1.25
  0
LINE
  5
238
100
AcDbEntity
  8
0
100
AcDbLine
 62
2
  6
CONTINUOUS
 10
6.4
 20
0.0
 11
6.4
 21
0.625
  0
LINE
  5
239
100
AcDbEntity
  8
0
100
AcDbLine
 62
2
  6
CONTINUOUS
 10
5.9
 20
0.0
 11
5.9
 21
0.625
  0
LINE
  5
23A
100
AcDbEntity
  8
0
100
AcDbLine
 62
2
  6
CONTINUOUS
 10
5.2
 20
0.0
 11
5.2
 21
0.625
  0
LINE
  5
23B
100
AcDbEntity
  8
0
100
AcDbLine
 62
2
  6
CONTINUOUS
 10
4.1
 20
0.0
 11
4.1
 21
1.25
  0
LINE
  5
23C
100
AcDbEntity
  8
0
100
AcDbLine
 62
2
  6
CONTINUOUS
 10
-0.0
 20
0.0
 11
-0.0
 21
1.25
  0
MTEXT
  5
23D
100
AcDbEntity
  8
0
100
AcDbMText
 62
2
  6
CONTINUOUS
  7
STANDARD
 71
2
 72
1
 10
6.6
 20
0.325
 30
0.0
 11
1.0
 21
0.0
 31
0.0
 44
0.9
  1
2
 40
0.125
 41
0.2
  0
MTEXT
  5
23E
100
AcDbEntity
  8
0
100
AcDbMText
 62
2
  6
CONTINUOUS
  7
STANDARD
 71
2
 72
1
 10
6.15
 20
0.325
 30
0.0
 11
1.0
 21
0.0
 31
0.0
 44
0.9
  1
C
 40
0.125
 41
0.2
  0
MTEXT
  5
23F
100
AcDbEntity
  8
0
100
AcDbMText
 62
2
  6
CONTINUOUS
  7
STANDARD
 71
2
 72
1
 10
5.55
 20
0.325
 30
0.0
 11
1.0
 21
0.0
 31
0.0
 44
0.9
  1
2.000
 40
0.125
 41
1.0
  0
MTEXT
  5
240
100
AcDbEntity
  8
0
100
AcDbMText
 62
2
  6
CONTINUOUS
  7
STANDARD
 71
2
 72
1
 10
4.65
 20
0.325
 30
0.0
 11
1.0
 21
0.0
 31
0.0
 44
0.9
  1
May-27-20
 40
0.125
 41
1.8
  0
MTEXT
  5
241
100
AcDbEntity
  8
0
100
AcDbMText
 62
2
  6
CONTINUOUS
  7
STANDARD
 71
2
 72
1
 10
2.05
 20
0.4625
 30
0.0
 11
1.0
 21
0.0
 31
0.0
 44
0.9
  1
T-11A Sandwich ISO 03 - 40mm\POn P, port 3 to T
 40
0.125
 41
5.6
  0
MTEXT
  5
242
100
AcDbEntity
  8
0
100
AcDbMText
 62
2
  6
CONTINUOUS
  7
STANDARD
 71
1
 72
1
 10
6.45
 20
0.5625
 30
0.0
 11
1.0
 21
0.0
 31
0.0
 44
0.9
  1
SHEET
 40
0.06
 41
0.48
  0
MTEXT
  5
243
100
AcDbEntity
  8
0
100
AcDbMText
 62
2
  6
CONTINUOUS
  7
STANDARD
 71
1
 72
1
 10
5.95
 20
0.5625
 30
0.0
 11
1.0
 21
0.0
 31
0.0
 44
0.9
  1
DWG SIZE
 40
0.06
 41
0.768
  0
MTEXT
  5
244
100
AcDbEntity
  8
0
100
AcDbMText
 62
2
  6
CONTINUOUS
  7
STANDARD
 71
1
 72
1
 10
5.25
 20
0.5625
 30
0.0
 11
1.0
 21
0.0
 31
0.0
 44
0.9
  1
SCALE
 40
0.06
 41
0.48
  0
MTEXT
  5
245
100
AcDbEntity
  8
0
100
AcDbMText
 62
2
  6
CONTINUOUS
  7
STANDARD
 71
1
 72
1
 10
4.15
 20
0.5625
 30
0.0
 11
1.0
 21
0.0
 31
0.0
 44
0.9
  1
DATE
 40
0.06
 41
0.384
  0
MTEXT
  5
246
100
AcDbEntity
  8
0
100
AcDbMText
 62
2
  6
CONTINUOUS
  7
STANDARD
 71
1
 72
1
 10
0.05
 20
0.5625
 30
0.0
 11
1.0
 21
0.0
 31
0.0
 44
0.9
  1
DESCRIPTION
 40
0.06
 41
1.056
  0
MTEXT
  5
247
100
AcDbEntity
  8
0
100
AcDbMText
 62
2
  6
CONTINUOUS
  7
STANDARD
 71
2
 72
1
 10
5.45
 20
1.0375
 30
0.0
 11
1.0
 21
0.0
 31
0.0
 44
0.9
  1
ALL DIMENSIONS IN INCH\PVIEWS ARE THIRD ANGLE
 40
0.12
 41
4.224
  0
MTEXT
  5
248
100
AcDbEntity
  8
0
100
AcDbMText
 62
2
  6
CONTINUOUS
  7
STANDARD
 71
2
 72
1
 10
2.05
 20
0.95
 30
0.0
 11
1.0
 21
0.0
 31
0.0
 44
0.9
  1
X2V
 40
0.125
 41
0.6
  0
MTEXT
  5
249
100
AcDbEntity
  8
0
100
AcDbMText
 62
2
  6
CONTINUOUS
  7
STANDARD
 71
1
 72
1
 10
0.05
 20
1.1875
 30
0.0
 11
1.0
 21
0.0
 31
0.0
 44
0.9
  1
MODEL
 40
0.06
 41
0.48
  0
ENDBLK
  5
24A
100
AcDbEntity
  8
0
  6
BYBLOCK
 62
0
100
AcDbBlockEnd
  0
BLOCK
  5
24B
100
AcDbEntity
  8
0
100
AcDbBlockBegin
  2
*T2
 70
1
 10
0.0
 20
0.0
  3
*T2
  1

  0
LINE
  5
24C
100
AcDbEntity
  8
0
100
AcDbLine
 62
2
  6
CONTINUOUS
 10
0.0
 20
0.0
 11
9.055
 21
0.0
  0
LINE
  5
24D
100
AcDbEntity
  8
0
100
AcDbLine
 62
2
  6
CONTINUOUS
 10
0.0
 20
0.0
 11
0.0
 21
-2.344
  0
LINE
  5
24E
100
AcDbEntity
  8
0
100
AcDbLine
 62
2
  6
CONTINUOUS
 10
0.0
 20
-0.344
 11
9.055
 21
-0.344
  0
LINE
  5
24F
100
AcDbEntity
  8
0
100
AcDbLine
 62
2
  6
CONTINUOUS
 10
0.0
 20
-0.594
 11
9.055
 21
-0.594
  0
LINE
  5
250
100
AcDbEntity
  8
0
100
AcDbLine
 62
2
  6
CONTINUOUS
 10
0.0
 20
-0.844
 11
9.055
 21
-0.844
  0
LINE
  5
251
100
AcDbEntity
  8
0
100
AcDbLine
 62
2
  6
CONTINUOUS
 10
0.0
 20
-1.094
 11
9.055
 21
-1.094
  0
LINE
  5
252
100
AcDbEntity
  8
0
100
AcDbLine
 62
2
  6
CONTINUOUS
 10
0.0
 20
-1.344
 11
9.055
 21
-1.344
  0
LINE
  5
253
100
AcDbEntity
  8
0
100
AcDbLine
 62
2
  6
CONTINUOUS
 10
0.0
 20
-1.594
 11
9.055
 21
-1.594
  0
LINE
  5
254
100
AcDbEntity
  8
0
100
AcDbLine
 62
2
  6
CONTINUOUS
 10
0.0
 20
-1.844
 11
9.055
 21
-1.844
  0
LINE
  5
255
100
AcDbEntity
  8
0
100
AcDbLine
 62
2
  6
CONTINUOUS
 10
0.0
 20
-2.094
 11
9.055
 21
-2.094
  0
LINE
  5
256
100
AcDbEntity
  8
0
100
AcDbLine
 62
2
  6
CONTINUOUS
 10
0.0
 20
-2.344
 11
9.055
 21
-2.344
  0
LINE
  5
257
100
AcDbEntity
  8
0
100
AcDbLine
 62
2
  6
CONTINUOUS
 10
3.055
 20
0.0
 11
3.055
 21
-2.344
  0
LINE
  5
258
100
AcDbEntity
  8
0
100
AcDbLine
 62
2
  6
CONTINUOUS
 10
9.055
 20
0.0
 11
9.055
 21
-2.344
  0
MTEXT
  5
259
100
AcDbEntity
  8
0
100
AcDbMText
 62
2
  6
CONTINUOUS
  7
STANDARD
 71
2
 72
1
 10
1.5275
 20
-0.0995
 30
0.0
 11
1.0
 21
0.0
 31
0.0
 44
0.9
  1
Technical Data
 40
0.145
 41
3.248
  0
MTEXT
  5
25A
100
AcDbEntity
  8
0
100
AcDbMText
 62
2
  6
CONTINUOUS
  7
STANDARD
 71
2
 72
1
 10
4.555
 20
-0.0995
 30
0.0
 11
1.0
 21
0.0
 31
0.0
 44
0.9
  1
U.S. Units
 40
0.145
 41
2.32
  0
MTEXT
  5
25B
100
AcDbEntity
  8
0
100
AcDbMText
 62
2
  6
CONTINUOUS
  7
STANDARD
 71
2
 72
1
 10
7.555
 20
-0.0995
 30
0.0
 11
1.0
 21
0.0
 31
0.0
 44
0.9
  1
Metric Units
 40
0.145
 41
2.784
  0
MTEXT
  5
25C
100
AcDbEntity
  8
0
100
AcDbMText
 62
2
  6
CONTINUOUS
  7
STANDARD
 71
2
 72
1
 10
1.5275
 20
-0.4065
 30
0.0
 11
1.0
 21
0.0
 31
0.0
 44
0.9
  1
Cavity
 40
0.125
 41
1.2
  0
MTEXT
  5
25D
100
AcDbEntity
  8
0
100
AcDbMText
 62
2
  6
CONTINUOUS
  7
STANDARD
 71
2
 72
1
 10
6.055
 20
-0.4065
 30
0.0
 11
1.0
 21
0.0
 31
0.0
 44
0.9
  1
T-11A
 40
0.125
 41
1.0
  0
MTEXT
  5
25E
100
AcDbEntity
  8
0
100
AcDbMText
 62
2
  6
CONTINUOUS
  7
STANDARD
 71
2
 72
1
 10
1.5275
 20
-0.6565
 30
0.0
 11
1.0
 21
0.0
 31
0.0
 44
0.9
  1
Body Features
 40
0.125
 41
2.6
  0
MTEXT
  5
25F
100
AcDbEntity
  8
0
100
AcDbMText
 62
2
  6
CONTINUOUS
  7
STANDARD
 71
2
 72
1
 10
6.055
 20
-0.6565
 30
0.0
 11
1.0
 21
0.0
 31
0.0
 44
0.9
  1
On P, port 3 to T
 40
0.125
 41
3.4
  0
MTEXT
  5
260
100
AcDbEntity
  8
0
100
AcDbMText
 62
2
  6
CONTINUOUS
  7
STANDARD
 71
2
 72
1
 10
1.5275
 20
-0.9065
 30
0.0
 11
1.0
 21
0.0
 31
0.0
 44
0.9
  1
Body Type
 40
0.125
 41
1.8
  0
MTEXT
  5
261
100
AcDbEntity
  8
0
100
AcDbMText
 62
2
  6
CONTINUOUS
  7
STANDARD
 71
2
 72
1
 10
6.055
 20
-0.9065
 30
0.0
 11
1.0
 21
0.0
 31
0.0
 44
0.9
  1
Sandwich
 40
0.125
 41
1.6
  0
MTEXT
  5
262
100
AcDbEntity
  8
0
100
AcDbMText
 62
2
  6
CONTINUOUS
  7
STANDARD
 71
2
 72
1
 10
1.5275
 20
-1.1565
 30
0.0
 11
1.0
 21
0.0
 31
0.0
 44
0.9
  1
Interface
 40
0.125
 41
1.8
  0
MTEXT
  5
263
100
AcDbEntity
  8
0
100
AcDbMText
 62
2
  6
CONTINUOUS
  7
STANDARD
 71
2
 72
1
 10
6.055
 20
-1.1565
 30
0.0
 11
1.0
 21
0.0
 31
0.0
 44
0.9
  1
ISO 03 - 40mm
 40
0.125
 41
2.6
  0
MTEXT
  5
264
100
AcDbEntity
  8
0
100
AcDbMText
 62
2
  6
CONTINUOUS
  7
STANDARD
 71
2
 72
1
 10
1.5275
 20
-1.4065
 30
0.0
 11
1.0
 21
0.0
 31
0.0
 44
0.9
  1
Open Cavity Quantity
 40
0.125
 41
4.0
  0
MTEXT
  5
265
100
AcDbEntity
  8
0
100
AcDbMText
 62
2
  6
CONTINUOUS
  7
STANDARD
 71
2
 72
1
 10
6.055
 20
-1.4065
 30
0.0
 11
1.0
 21
0.0
 31
0.0
 44
0.9
  1
1
 40
0.125
 41
0.2
  0
MTEXT
  5
266
100
AcDbEntity
  8
0
100
AcDbMText
 62
2
  6
CONTINUOUS
  7
STANDARD
 71
2
 72
1
 10
1.5275
 20
-1.6565
 30
0.0
 11
1.0
 21
0.0
 31
0.0
 44
0.9
  1
Stack Height
 40
0.125
 41
2.4
  0
MTEXT
  5
267
100
AcDbEntity
  8
0
100
AcDbMText
 62
2
  6
CONTINUOUS
  7
STANDARD
 71
2
 72
1
 10
4.555
 20
-1.6565
 30
0.0
 11
1.0
 21
0.0
 31
0.0
 44
0.9
  1
1.58 in.
 40
0.125
 41
1.6
  0
MTEXT
  5
268
100
AcDbEntity
  8
0
100
AcDbMText
 62
2
  6
CONTINUOUS
  7
STANDARD
 71
2
 72
1
 10
7.555
 20
-1.6565
 30
0.0
 11
1.0
 21
0.0
 31
0.0
 44
0.9
  1
40 mm
 40
0.125
 41
1.0
  0
MTEXT
  5
269
100
AcDbEntity
  8
0
100
AcDbMText
 62
2
  6
CONTINUOUS
  7
STANDARD
 71
2
 72
1
 10
1.5275
 20
-1.9065
 30
0.0
 11
1.0
 21
0.0
 31
0.0
 44
0.9
  1
Weight
 40
0.125
 41
1.2
  0
MTEXT
  5
26A
100
AcDbEntity
  8
0
100
AcDbMText
 62
2
  6
CONTINUOUS
  7
STANDARD
 71
2
 72
1
 10
4.555
 20
-1.9065
 30
0.0
 11
1.0
 21
0.0
 31
0.0
 44
0.9
  1
0.755 lb.
 40
0.125
 41
1.8
  0
MTEXT
  5
26B
100
AcDbEntity
  8
0
100
AcDbMText
 62
2
  6
CONTINUOUS
  7
STANDARD
 71
2
 72
1
 10
7.555
 20
-1.9065
 30
0.0
 11
1.0
 21
0.0
 31
0.0
 44
0.9
  1
0,343 kg.
 40
0.125
 41
1.8
  0
MTEXT
  5
26C
100
AcDbEntity
  8
0
100
AcDbMText
 62
2
  6
CONTINUOUS
  7
STANDARD
 71
2
 72
1
 10
1.5275
 20
-2.1565
 30
0.0
 11
1.0
 21
0.0
 31
0.0
 44
0.9
  1
Seal Plate Included (see notes)
 40
0.125
 41
6.2
  0
MTEXT
  5
26D
100
AcDbEntity
  8
0
100
AcDbMText
 62
2
  6
CONTINUOUS
  7
STANDARD
 71
2
 72
1
 10
6.055
 20
-2.1565
 30
0.0
 11
1.0
 21
0.0
 31
0.0
 44
0.9
  1
No
 40
0.125
 41
0.4
  0
ENDBLK
  5
26E
100
AcDbEntity
  8
0
  6
BYBLOCK
 62
0
100
AcDbBlockEnd
  0
BLOCK
  5
26F
100
AcDbEntity
  8
0
100
AcDbBlockBegin
  2
*T3
 70
1
 10
0.0
 20
0.0
  3
*T3
  1

  0
LINE
  5
270
100
AcDbEntity
  8
0
100
AcDbLine
 62
2
  6
CONTINUOUS
 10
0.0
 20
0.0
 11
4.6
 21
0.0
  0
LINE
  5
271
100
AcDbEntity
  8
0
100
AcDbLine
 62
2
  6
CONTINUOUS
 10
0.0
 20
0.0
 11
0.0
 21
-0.93775
  0
LINE
  5
272
100
AcDbEntity
  8
0
100
AcDbLine
 62
2
  6
CONTINUOUS
 10
0.0
 20
-0.34375
 11
4.6
 21
-0.34375
  0
LINE
  5
273
100
AcDbEntity
  8
0
100
AcDbLine
 62
2
  6
CONTINUOUS
 10
0.0
 20
-0.68775
 11
4.6
 21
-0.68775
  0
LINE
  5
274
100
AcDbEntity
  8
0
100
AcDbLine
 62
2
  6
CONTINUOUS
 10
0.0
 20
-0.93775
 11
4.6
 21
-0.93775
  0
LINE
  5
275
100
AcDbEntity
  8
0
100
AcDbLine
 62
2
  6
CONTINUOUS
 10
1.3
 20
-0.34375
 11
1.3
 21
-0.93775
  0
LINE
  5
276
100
AcDbEntity
  8
0
100
AcDbLine
 62
2
  6
CONTINUOUS
 10
3.3
 20
-0.34375
 11
3.3
 21
-0.93775
  0
LINE
  5
277
100
AcDbEntity
  8
0
100
AcDbLine
 62
2
  6
CONTINUOUS
 10
4.6
 20
0.0
 11
4.6
 21
-0.93775
  0
MTEXT
  5
278
100
AcDbEntity
  8
0
100
AcDbMText
 62
2
  6
CONTINUOUS
  7
STANDARD
 71
2
 72
1
 10
2.3
 20
-0.099375
 30
0.0
 11
1.0
 21
0.0
 31
0.0
 44
0.9
  1
Port Headings
 40
0.145
 41
3.016
  0
MTEXT
  5
279
100
AcDbEntity
  8
0
100
AcDbMText
 62
2
  6
CONTINUOUS
  7
STANDARD
 71
2
 72
1
 10
0.65
 20
-0.44325
 30
0.0
 11
1.0
 21
0.0
 31
0.0
 44
0.9
  1
Product
 40
0.145
 41
1.624
  0
MTEXT
  5
27A
100
AcDbEntity
  8
0
100
AcDbMText
 62
2
  6
CONTINUOUS
  7
STANDARD
 71
2
 72
1
 10
2.3
 20
-0.44325
 30
0.0
 11
1.0
 21
0.0
 31
0.0
 44
0.9
  1
Port
 40
0.145
 41
0.928
  0
MTEXT
  5
27B
100
AcDbEntity
  8
0
100
AcDbMText
 62
2
  6
CONTINUOUS
  7
STANDARD
 71
2
 72
1
 10
3.95
 20
-0.44325
 30
0.0
 11
1.0
 21
0.0
 31
0.0
 44
0.9
  1
Size
 40
0.145
 41
0.928
  0
MTEXT
  5
27C
100
AcDbEntity
  8
0
100
AcDbMText
 62
2
  6
CONTINUOUS
  7
STANDARD
 71
2
 72
1
 10
0.65
 20
-0.75025
 30
0.0
 11
1.0
 21
0.0
 31
0.0
 44
0.9
  1
X2V
 40
0.125
 41
0.6
  0
MTEXT
  5
27D
100
AcDbEntity
  8
0
100
AcDbMText
 62
2
  6
CONTINUOUS
  7
STANDARD
 71
2
 72
1
 10
2.3
 20
-0.75025
 30
0.0
 11
1.0
 21
0.0
 31
0.0
 44
0.9
  1
Gage Port (Plugged)
 40
0.125
 41
3.8
  0
MTEXT
  5
27E
100
AcDbEntity
  8
0
100
AcDbMText
 62
2
  6
CONTINUOUS
  7
STANDARD
 71
2
 72
1
 10
3.95
 20
-0.75025
 30
0.0
 11
1.0
 21
0.0
 31
0.0
 44
0.9
  1
SAE 4
 40
0.125
 41
1.0
  0
ENDBLK
  5
27F
100
AcDbEntity
  8
0
  6
BYBLOCK
 62
0
100
AcDbBlockEnd
  0
ENDSEC
  0
SECTION
  2
ENTITIES
  0
IMAGE
  5
280
100
AcDbEntity
  8
0
100
AcDbRasterImage
 62
7
  6
CONTINUOUS
 10
19.2297077316
 20
0.3094318264
 30
0.0
 11
0.0066666667
 21
0.0
 31
0.0
 12
0.0
 22
0.0066666667
 32
0.0
 13
369.0
 23
92.0
340
       325
 70
9
280
0
281
50
282
50
283
0
360
       31F
 71
1
 91
2
 14
-0.5
 24
-0.5
 14
368.5
 24
91.5
  0
INSERT
  5
281
100
AcDbEntity
  8
0
100
AcDbBlockReference
 62
2
  6
CONTINUOUS
  2
SUN_FIRST_THIRD_ANGLE_BL0
 10
20.4816717061
 20
1.2289683772
  0
ACAD_TABLE
  5
282
100
AcDbEntity
  8
0
 62
2
  6
CONTINUOUS
100
AcDbBlockReference
  2
*T1
 10
12.42375
 20
0.30125
 30
0.0
100
AcDbTable
342
       327
343
20B
 11
1.0
 21
0.0
 31
0.0
 90
6
 91
4
 92
6
 93
20
 94
0
 95
0
 96
0
 70
1
 41
0.0
141
0.525
141
0.1
141
0.525
141
0.1
142
4.1
142
1.1
142
0.7
142
0.5
142
0.4
142
2.475
171
1
172
0
173
0
174
0
175
1
176
1
 91
33
178
0
145
0.0
301
CELL_VALUE
 90
4
  1
T-11A Sandwich ISO 03 - 40mm\POn P, port 3 to T
304
ACVALUE_END
170
2
140
0.125
171
1
172
0
173
0
174
0
175
1
176
1
 91
33
178
0
145
0.0
301
CELL_VALUE
 90
4
  1
May-27-20
304
ACVALUE_END
170
5
140
0.125
171
1
172
0
173
0
174
0
175
1
176
1
 91
33
178
0
145
0.0
301
CELL_VALUE
 90
4
  1
2.000
304
ACVALUE_END
170
5
140
0.125
171
1
172
0
173
0
174
0
175
1
176
1
 91
33
178
0
145
0.0
301
CELL_VALUE
 90
4
  1
C
304
ACVALUE_END
170
5
140
0.125
171
1
172
0
173
0
174
0
175
1
176
1
 91
33
178
0
145
0.0
301
CELL_VALUE
 90
4
  1
2
304
ACVALUE_END
170
5
140
0.125
171
1
172
0
173
0
174
0
175
1
176
1
 91
33
178
0
145
0.0
301
CELL_VALUE
 90
4
  1
 
304
ACVALUE_END
170
1
140
0.125
171
1
172
0
173
0
174
0
175
1
176
1
 91
33
178
0
145
0.0
301
CELL_VALUE
 90
4
  1
DESCRIPTION
304
ACVALUE_END
170
1
140
0.06
171
1
172
0
173
0
174
0
175
1
176
1
 91
33
178
0
145
0.0
301
CELL_VALUE
 90
4
  1
DATE
304
ACVALUE_END
170
1
140
0.06
171
1
172
0
173
0
174
0
175
1
176
1
 91
33
178
0
145
0.0
301
CELL_VALUE
 90
4
  1
SCALE
304
ACVALUE_END
170
1
140
0.06
171
1
172
0
173
0
174
0
175
1
176
1
 91
33
178
0
145
0.0
301
CELL_VALUE
 90
4
  1
DWG SIZE
304
ACVALUE_END
170
1
140
0.06
171
1
172
0
173
0
174
0
175
1
176
1
 91
33
178
0
145
0.0
301
CELL_VALUE
 90
4
  1
SHEET
304
ACVALUE_END
170
1
140
0.06
171
1
172
0
173
0
174
0
175
1
176
1
 91
33
178
0
145
0.0
301
CELL_VALUE
 90
4
  1
 
304
ACVALUE_END
170
1
140
0.125
171
1
172
0
173
0
174
0
175
1
176
1
 91
33
178
0
145
0.0
301
CELL_VALUE
 90
4
  1
X2V
304
ACVALUE_END
170
5
140
0.125
171
1
172
0
173
0
174
0
175
4
176
1
 91
33
178
0
145
0.0
301
CELL_VALUE
 90
4
  1
ALL DIMENSIONS IN INCH\PVIEWS ARE THIRD ANGLE
304
ACVALUE_END
170
5
140
0.12
171
1
172
0
173
1
174
0
175
1
176
1
 91
1
178
0
145
0.0
170
1
171
1
172
0
173
1
174
0
175
1
176
1
 91
1
178
0
145
0.0
170
1
171
1
172
0
173
1
174
0
175
1
176
1
 91
1
178
0
145
0.0
170
5
171
1
172
0
173
0
174
0
175
1
176
1
 91
33
178
0
145
0.0
301
CELL_VALUE
 90
4
  1
 
304
ACVALUE_END
170
1
140
0.125
171
1
172
0
173
0
174
0
175
1
176
1
 91
33
178
0
145
0.0
301
CELL_VALUE
 90
4
  1
MODEL
304
ACVALUE_END
170
1
140
0.06
171
1
172
0
173
0
174
0
175
1
176
1
 91
33
178
0
145
0.0
301
CELL_VALUE
 90
4
  1
 
304
ACVALUE_END
170
1
140
0.125
171
1
172
0
173
0
174
0
175
1
176
1
 91
33
178
0
145
0.0
301
CELL_VALUE
 90
4
  1
 
304
ACVALUE_END
170
1
140
0.125
171
1
172
0
173
0
174
0
175
1
176
1
 91
33
178
0
145
0.0
301
CELL_VALUE
 90
4
  1
 
304
ACVALUE_END
170
1
140
0.125
171
1
172
0
173
0
174
0
175
1
176
1
 91
33
178
0
145
0.0
301
CELL_VALUE
 90
4
  1
 
304
ACVALUE_END
170
1
140
0.125
171
1
172
0
173
0
174
0
175
1
176
1
 91
33
178
0
145
0.0
301
CELL_VALUE
 90
4
  1
 
304
ACVALUE_END
170
1
140
0.125
  0
ACAD_TABLE
  5
283
100
AcDbEntity
  8
0
 62
2
  6
CONTINUOUS
100
AcDbBlockReference
  2
*T2
 10
12.4237499994
 20
16.47875
 30
0.0
100
AcDbTable
342
       326
343
20C
 11
1.0
 21
0.0
 31
0.0
 90
22
 91
9
 92
3
 93
16
 94
0
 95
0
 96
0
 41
0.028
141
0.344
141
0.25
141
0.25
141
0.25
141
0.25
141
0.25
141
0.25
141
0.25
141
0.25
142
3.055
142
3.0
142
3.0
171
1
172
0
173
0
174
0
175
1
176
1
 91
33
178
0
145
0.0
301
CELL_VALUE
 90
4
  1
Technical Data
304
ACVALUE_END
170
5
140
0.145
171
1
172
0
173
0
174
0
175
1
176
1
 91
33
178
0
145
0.0
301
CELL_VALUE
 90
4
  1
U.S. Units
304
ACVALUE_END
170
5
140
0.145
171
1
172
0
173
0
174
0
175
1
176
1
 91
33
178
0
145
0.0
301
CELL_VALUE
 90
4
  1
Metric Units
304
ACVALUE_END
170
5
140
0.145
171
1
172
0
173
0
174
0
175
1
176
1
 91
33
178
0
145
0.0
301
CELL_VALUE
 90
4
  1
Cavity
304
ACVALUE_END
170
5
140
0.125
171
1
172
0
173
0
174
0
175
2
176
1
 91
33
178
0
145
0.0
301
CELL_VALUE
 90
4
  1
T-11A
304
ACVALUE_END
170
5
140
0.125
171
1
172
0
173
1
174
0
175
1
176
1
 91
1
178
0
145
0.0
170
1
171
1
172
0
173
0
174
0
175
1
176
1
 91
33
178
0
145
0.0
301
CELL_VALUE
 90
4
  1
Body Features
304
ACVALUE_END
170
5
140
0.125
171
1
172
0
173
0
174
0
175
2
176
1
 91
33
178
0
145
0.0
301
CELL_VALUE
 90
4
  1
On P, port 3 to T
304
ACVALUE_END
170
5
140
0.125
171
1
172
0
173
1
174
0
175
1
176
1
 91
1
178
0
145
0.0
170
1
171
1
172
0
173
0
174
0
175
1
176
1
 91
33
178
0
145
0.0
301
CELL_VALUE
 90
4
  1
Body Type
304
ACVALUE_END
170
5
140
0.125
171
1
172
0
173
0
174
0
175
2
176
1
 91
33
178
0
145
0.0
301
CELL_VALUE
 90
4
  1
Sandwich
304
ACVALUE_END
170
5
140
0.125
171
1
172
0
173
1
174
0
175
1
176
1
 91
1
178
0
145
0.0
170
1
171
1
172
0
173
0
174
0
175
1
176
1
 91
33
178
0
145
0.0
301
CELL_VALUE
 90
4
  1
Interface
304
ACVALUE_END
170
5
140
0.125
171
1
172
0
173
0
174
0
175
2
176
1
 91
33
178
0
145
0.0
301
CELL_VALUE
 90
4
  1
ISO 03 - 40mm
304
ACVALUE_END
170
5
140
0.125
171
1
172
0
173
1
174
0
175
1
176
1
 91
1
178
0
145
0.0
170
1
171
1
172
0
173
0
174
0
175
1
176
1
 91
33
178
0
145
0.0
301
CELL_VALUE
 90
4
  1
Open Cavity Quantity
304
ACVALUE_END
170
5
140
0.125
171
1
172
0
173
0
174
0
175
2
176
1
 91
33
178
0
145
0.0
301
CELL_VALUE
 90
4
  1
1
304
ACVALUE_END
170
5
140
0.125
171
1
172
0
173
1
174
0
175
1
176
1
 91
1
178
0
145
0.0
170
1
171
1
172
0
173
0
174
0
175
1
176
1
 91
33
178
0
145
0.0
301
CELL_VALUE
 90
4
  1
Stack Height
304
ACVALUE_END
170
5
140
0.125
171
1
172
0
173
0
174
0
175
1
176
1
 91
33
178
0
145
0.0
301
CELL_VALUE
 90
4
  1
1.58 in.
304
ACVALUE_END
170
5
140
0.125
171
1
172
0
173
0
174
0
175
1
176
1
 91
33
178
0
145
0.0
301
CELL_VALUE
 90
4
  1
40 mm
304
ACVALUE_END
170
5
140
0.125
171
1
172
0
173
0
174
0
175
1
176
1
 91
33
178
0
145
0.0
301
CELL_VALUE
 90
4
  1
Weight
304
ACVALUE_END
170
5
140
0.125
171
1
172
0
173
0
174
0
175
1
176
1
 91
33
178
0
145
0.0
301
CELL_VALUE
 90
4
  1
0.755 lb.
304
ACVALUE_END
170
5
140
0.125
171
1
172
0
173
0
174
0
175
1
176
1
 91
33
178
0
145
0.0
301
CELL_VALUE
 90
4
  1
0,343 kg.
304
ACVALUE_END
170
5
140
0.125
171
1
172
0
173
0
174
0
175
1
176
1
 91
33
178
0
145
0.0
301
CELL_VALUE
 90
4
  1
Seal Plate Included (see notes)
304
ACVALUE_END
170
5
140
0.125
171
1
172
0
173
0
174
0
175
2
176
1
 91
33
178
0
145
0.0
301
CELL_VALUE
 90
4
  1
No
304
ACVALUE_END
170
5
140
0.125
171
1
172
0
173
1
174
0
175
1
176
1
 91
1
178
0
145
0.0
170
1
  0
ACAD_TABLE
  5
284
100
AcDbEntity
  8
0
 62
2
  6
CONTINUOUS
100
AcDbBlockReference
  2
*T3
 10
0.52125
 20
1.459
 30
0.0
100
AcDbTable
342
       326
343
20D
 11
1.0
 21
0.0
 31
0.0
 90
22
 91
3
 92
3
 93
16
 94
0
 95
0
 96
0
 41
0.05
141
0.34375
141
0.344
141
0.25
142
1.3
142
2.0
142
1.3
171
1
172
0
173
0
174
0
175
3
176
1
 91
33
178
0
145
0.0
301
CELL_VALUE
 90
4
  1
Port Headings
304
ACVALUE_END
170
5
140
0.145
171
1
172
0
173
1
174
0
175
1
176
1
 91
1
178
0
145
0.0
170
1
171
1
172
0
173
1
174
0
175
1
176
1
 91
1
178
0
145
0.0
170
1
171
1
172
0
173
0
174
0
175
1
176
1
 91
33
178
0
145
0.0
301
CELL_VALUE
 90
4
  1
Product
304
ACVALUE_END
170
5
140
0.145
171
1
172
0
173
0
174
0
175
1
176
1
 91
33
178
0
145
0.0
301
CELL_VALUE
 90
4
  1
Port
304
ACVALUE_END
170
5
140
0.145
171
1
172
0
173
0
174
0
175
1
176
1
 91
33
178
0
145
0.0
301
CELL_VALUE
 90
4
  1
Size
304
ACVALUE_END
170
5
140
0.145
171
1
172
0
173
0
174
0
175
1
176
1
 91
33
178
0
145
0.0
301
CELL_VALUE
 90
4
  1
X2V
304
ACVALUE_END
170
5
140
0.125
171
1
172
0
173
0
174
0
175
1
176
1
 91
33
178
0
145
0.0
301
CELL_VALUE
 90
4
  1
Gage Port (Plugged)
304
ACVALUE_END
170
5
140
0.125
171
1
172
0
173
0
174
0
175
1
176
1
 91
33
178
0
145
0.0
301
CELL_VALUE
 90
4
  1
SAE 4
304
ACVALUE_END
170
5
140
0.125
  0
MTEXT
  5
285
100
AcDbEntity
  8
0
100
AcDbMText
 62
2
  6
CONTINUOUS
  7
STANDARD
 71
1
 72
1
 10
0.52125
 20
5.75995
 30
0.0
 11
1.0
 21
0.0
 31
0.0
 44
0.6
  3
Notes\P \P1. Important: Carefully consider\P   the maximum system pressure. The\P   pressure rating of the manifold is\P   dependent on the manifold material,\P   with the port type/size a secondary\P   consideration. Manifolds\P   constructed of alu
  1
minum are not\P   rated for pressures higher than\P   3000 psi (210 bar), regardless of\P   the port type/size specified.\P2. Items without balloons are\P   shipped loose.
 40
0.1
 41
3.04
  0
LINE
  5
286
100
AcDbEntity
  8
0
100
AcDbLine
 62
7
  6
CONTINUOUS
 10
0.30125
 20
0.30125
 11
0.30125
 21
16.69875
  0
LINE
  5
287
100
AcDbEntity
  8
0
100
AcDbLine
 62
7
  6
CONTINUOUS
 10
0.30125
 20
0.30125
 11
21.69875
 21
0.30125
  0
LINE
  5
288
100
AcDbEntity
  8
0
100
AcDbLine
 62
7
  6
CONTINUOUS
 10
0.30125
 20
16.69875
 11
21.69875
 21
16.69875
  0
LINE
  5
289
100
AcDbEntity
  8
0
100
AcDbLine
 62
7
  6
CONTINUOUS
 10
21.69875
 20
0.30125
 11
21.69875
 21
16.69875
  0
LINE
  5
28A
100
AcDbEntity
  8
0
100
AcDbLine
 62
7
  6
CONTINUOUS
 10
7.1462514205
 20
6.5666011575
 11
7.1462514205
 21
9.9473417498
  0
LINE
  5
28B
100
AcDbEntity
  8
0
100
AcDbLine
 62
7
  6
CONTINUOUS
 10
7.9615307644
 20
10.7348411704
 11
7.1462514205
 21
9.9473417498
  0
LINE
  5
28C
100
AcDbEntity
  8
0
100
AcDbLine
 62
7
  6
CONTINUOUS
 10
7.1462514205
 20
6.5666011575
 11
11.4929176661
 21
6.2651588296
  0
LINE
  5
28D
100
AcDbEntity
  8
0
100
AcDbLine
 62
7
  6
CONTINUOUS
 10
14.0871272006
 20
6.9551921026
 11
14.0111930282
 21
6.9438453201
  0
LINE
  5
28E
100
AcDbEntity
  8
0
100
AcDbLine
 62
7
  6
CONTINUOUS
 10
11.6439435739
 20
6.5571749615
 11
14.1534191022
 21
6.3831422425
  0
LINE
  5
28F
100
AcDbEntity
  8
0
100
AcDbLine
 62
7
  6
CONTINUOUS
 10
14.0111930282
 20
6.9438453201
 11
11.5017174999
 21
7.117878039
  0
LINE
  5
290
100
AcDbEntity
  8
0
100
AcDbLine
 62
7
  6
CONTINUOUS
 10
8.3815602159
 20
7.0435942374
 11
8.3063662202
 21
6.9709624107
  0
LINE
  5
291
100
AcDbEntity
  8
0
100
AcDbLine
 62
7
  6
CONTINUOUS
 10
8.5549838054
 20
6.8635264936
 11
8.4800528732
 21
6.7911487667
  0
LINE
  5
292
100
AcDbEntity
  8
0
100
AcDbLine
 62
7
  6
CONTINUOUS
 10
12.30819701
 20
10.4333988425
 11
11.4929176661
 21
9.6458994219
  0
LINE
  5
293
100
AcDbEntity
  8
0
100
AcDbLine
 62
7
  6
CONTINUOUS
 10
11.6958316236
 20
9.7201926042
 11
12.1063182903
 21
10.1166923005
  0
LINE
  5
294
100
AcDbEntity
  8
0
100
AcDbLine
 62
7
  6
CONTINUOUS
 10
14.0871272006
 20
8.6455623987
 11
14.0111930282
 21
8.6342156162
  0
LINE
  5
295
100
AcDbEntity
  8
0
100
AcDbLine
 62
7
  6
CONTINUOUS
 10
11.4929176661
 20
6.2651588296
 11
11.4929176661
 21
9.6458994219
  0
LINE
  5
296
100
AcDbEntity
  8
0
100
AcDbLine
 62
7
  6
CONTINUOUS
 10
11.5017174999
 20
7.117878039
 11
11.5017174999
 21
8.8082483352
  0
LINE
  5
297
100
AcDbEntity
  8
0
100
AcDbLine
 62
7
  6
CONTINUOUS
 10
14.0111930282
 20
8.6342156162
 11
11.5017174999
 21
8.8082483352
  0
LINE
  5
298
100
AcDbEntity
  8
0
100
AcDbLine
 62
7
  6
CONTINUOUS
 10
7.1462514205
 20
9.9473417498
 11
11.4929176661
 21
9.6458994219
  0
LINE
  5
299
100
AcDbEntity
  8
0
100
AcDbLine
 62
7
  6
CONTINUOUS
 10
12.30819701
 20
10.1300489335
 11
12.30819701
 21
10.4333988425
  0
LINE
  5
29A
100
AcDbEntity
  8
0
100
AcDbLine
 62
7
  6
CONTINUOUS
 10
14.2053071519
 20
9.5461598852
 11
14.6157938186
 21
9.9426595815
  0
LINE
  5
29B
100
AcDbEntity
  8
0
100
AcDbLine
 62
7
  6
CONTINUOUS
 10
14.2053071519
 20
9.5461598852
 11
11.6958316236
 21
9.7201926042
  0
LINE
  5
29C
100
AcDbEntity
  8
0
100
AcDbLine
 62
7
  6
CONTINUOUS
 10
14.2651945566
 20
9.4821192748
 11
14.6756812234
 21
9.8786189711
  0
LINE
  5
29D
100
AcDbEntity
  8
0
100
AcDbLine
 62
7
  6
CONTINUOUS
 10
14.6157938186
 20
9.9426595815
 11
12.1063182903
 21
10.1166923005
  0
LINE
  5
29E
100
AcDbEntity
  8
0
100
AcDbLine
 62
7
  6
CONTINUOUS
 10
12.15820634
 20
10.1404508217
 11
14.6676818683
 21
9.9664181028
  0
LINE
  5
29F
100
AcDbEntity
  8
0
100
AcDbLine
 62
7
  6
CONTINUOUS
 10
11.7851004071
 20
6.5473857019
 11
11.4929176661
 21
6.2651588296
  0
LINE
  5
2A0
100
AcDbEntity
  8
0
100
AcDbLine
 62
7
  6
CONTINUOUS
 10
14.503825518
 20
8.9862428327
 11
14.5061139798
 21
8.9884127778
  0
LINE
  5
2A1
100
AcDbEntity
  8
0
100
AcDbLine
 62
7
  6
CONTINUOUS
 10
12.30819701
 20
10.4333988425
 11
7.9615307644
 21
10.7348411704
  0
LINE
  5
2A2
100
AcDbEntity
  8
0
100
AcDbLine
 62
7
  6
CONTINUOUS
 10
14.0111930282
 20
6.9438453201
 11
14.0111930282
 21
8.6342156162
  0
LINE
  5
2A3
100
AcDbEntity
  8
0
100
AcDbLine
 62
7
  6
CONTINUOUS
 10
14.0871272006
 20
6.9551921026
 11
14.0871272006
 21
8.6455623987
  0
LINE
  5
2A4
100
AcDbEntity
  8
0
100
AcDbLine
 62
7
  6
CONTINUOUS
 10
14.2651945566
 20
9.4821192748
 11
14.2053071519
 21
9.5461598852
  0
LINE
  5
2A5
100
AcDbEntity
  8
0
100
AcDbLine
 62
7
  6
CONTINUOUS
 10
14.8537485795
 20
9.3860618315
 11
14.8537485795
 21
7.6956915353
  0
LINE
  5
2A6
100
AcDbEntity
  8
0
100
AcDbLine
 62
7
  6
CONTINUOUS
 10
14.6756812234
 20
6.8591346592
 11
14.2651945566
 21
6.4626349629
  0
LINE
  5
2A7
100
AcDbEntity
  8
0
100
AcDbLine
 62
7
  6
CONTINUOUS
 10
14.2651945566
 20
6.4626349629
 11
14.2635120408
 21
6.4610396704
  0
LINE
  5
2A8
100
AcDbEntity
  8
0
100
AcDbLine
 62
7
  6
CONTINUOUS
 10
14.2034747457
 20
6.4051630738
 11
14.2635136294
 21
6.461040922
  0
LINE
  5
2A9
100
AcDbEntity
  8
0
100
AcDbLine
 62
7
  6
CONTINUOUS
 10
14.6756812234
 20
9.8786189711
 11
14.6157938186
 21
9.9426595815
  0
LINE
  5
2AA
100
AcDbEntity
  8
0
100
AcDbLine
 62
7
  6
CONTINUOUS
 10
14.7142186553
 20
9.9376985637
 11
14.7659696069
 21
9.8740680641
  0
ARC
  5
2AB
100
AcDbEntity
  8
0
100
AcDbCircle
 62
7
  6
CONTINUOUS
 10
8.6375697396
 20
8.2230526269
 40
0.435570926
100
AcDbArc
 50
136.1491272704
 51
138.6433392724
  0
ARC
  5
2AC
100
AcDbEntity
  8
0
100
AcDbCircle
 62
7
  6
CONTINUOUS
 10
9.300195231
 20
7.3850401754
 40
0.4355709259
100
AcDbArc
 50
136.1491272703
 51
138.6433392724
  0
ARC
  5
2AD
100
AcDbEntity
  8
0
100
AcDbCircle
 62
7
  6
CONTINUOUS
 10
9.300195231
 20
8.9672268413
 40
0.4355709259
100
AcDbArc
 50
136.1491272704
 51
138.6433392724
  0
ARC
  5
2AE
100
AcDbEntity
  8
0
100
AcDbCircle
 62
7
  6
CONTINUOUS
 10
10.0581731683
 20
8.0380234088
 40
0.435519879
100
AcDbArc
 50
309.3819572518
 51
311.7297978908
  0
ARC
  5
2AF
100
AcDbEntity
  8
0
100
AcDbCircle
 62
7
  6
CONTINUOUS
 10
9.9685619886
 20
8.13079391
 40
0.4354976796
100
AcDbArc
 50
136.0365876126
 51
138.6331153453
  0
ARC
  5
2B0
100
AcDbEntity
  8
0
100
AcDbCircle
 62
7
  6
CONTINUOUS
 10
8.7271545831
 20
8.1303006416
 40
0.435478336
100
AcDbArc
 50
309.3779618934
 51
311.6641323971
  0
ARC
  5
2B1
100
AcDbEntity
  8
0
100
AcDbCircle
 62
7
  6
CONTINUOUS
 10
9.3897800745
 20
7.2922881901
 40
0.435478336
100
AcDbArc
 50
309.3779618934
 51
311.6641323971
  0
ARC
  5
2B2
100
AcDbEntity
  8
0
100
AcDbCircle
 62
7
  6
CONTINUOUS
 10
9.3897800745
 20
8.8744748559
 40
0.435478336
100
AcDbArc
 50
309.3779618933
 51
311.6641323971
  0
ARC
  5
2B3
100
AcDbEntity
  8
0
100
AcDbCircle
 62
7
  6
CONTINUOUS
 10
8.4557873035
 20
6.9188813086
 40
0.1137311029
100
AcDbArc
 50
296.9624316774
 51
313.9863865026
  0
ARC
  5
2B4
100
AcDbEntity
  8
0
100
AcDbCircle
 62
7
  6
CONTINUOUS
 10
8.4331710566
 20
6.9422934054
 40
0.1137179931
100
AcDbArc
 50
134.0256870623
 51
150.8745713197
  0
SPLINE
  5
2B5
100
AcDbEntity
  8
0
100
AcDbSpline
 62
7
  6
CONTINUOUS
 70
0
 71
3
 72
39
 73
35
 74
0
 42
0.0000001
 43
0.0000001
 44
0.0000000001
 40
0.0
 40
0.0
 40
0.0
 40
0.0
 40
0.0299422331
 40
0.0599092575
 40
0.0899241853
 40
0.1200100237
 40
0.1501875599
 40
0.1804752385
 40
0.2108897545
 40
0.2414436546
 40
0.2721471403
 40
0.3030068828
 40
0.334025345
 40
0.3652026833
 40
0.3965345645
 40
0.4280135898
 40
0.4596299292
 40
0.4913697388
 40
0.5232175329
 40
0.5551555029
 40
0.587163356
 40
0.6192204168
 40
0.6513042093
 40
0.6833916162
 40
0.7154605923
 40
0.7474887634
 40
0.7794547541
 40
0.8113371941
 40
0.843114759
 40
0.8747724449
 40
0.9063035463
 40
0.9377027577
 40
0.968947027
 40
1.0
 40
1.0
 40
1.0
 40
1.0
 10
8.4800528478
 20
6.7911487929
 30
0.0
 10
8.4779792357
 20
6.7891456863
 30
0.0
 10
8.4736683927
 20
6.7853016545
 30
0.0
 10
8.4667623534
 20
6.7800643902
 30
0.0
 10
8.4594517016
 20
6.7753817768
 30
0.0
 10
8.4517759334
 20
6.7712825894
 30
0.0
 10
8.4437789612
 20
6.7677860907
 30
0.0
 10
8.4355038194
 20
6.7649134683
 30
0.0
 10
8.426996301
 20
6.7626807276
 30
0.0
 10
8.4183037256
 20
6.7610975614
 30
0.0
 10
8.409473337
 20
6.7601760243
 30
0.0
 10
8.4005541757
 20
6.7599185909
 30
0.0
 10
8.3915950165
 20
6.7603265951
 30
0.0
 10
8.3826454176
 20
6.7614000962
 30
0.0
 10
8.3737541273
 20
6.7631296848
 30
0.0
 10
8.3649703014
 20
6.7655082577
 30
0.0
 10
8.3563423294
 20
6.7685223326
 30
0.0
 10
8.347916685
 20
6.7721533563
 30
0.0
 10
8.3397409823
 20
6.7763844126
 30
0.0
 10
8.3318589555
 20
6.7811897388
 30
0.0
 10
8.3243139019
 20
6.786543469
 30
0.0
 10
8.317148538
 20
6.7924176952
 30
0.0
 10
8.3104000762
 20
6.7987776167
 30
0.0
 10
8.3041072838
 20
6.8055903512
 30
0.0
 10
8.2983043468
 20
6.8128179546
 30
0.0
 10
8.293021693
 20
6.8204199721
 30
0.0
 10
8.2882911998
 20
6.8283564854
 30
0.0
 10
8.2841362689
 20
6.8365818688
 30
0.0
 10
8.2805802115
 20
6.8450512911
 30
0.0
 10
8.2776441527
 20
6.8537194551
 30
0.0
 10
8.2753416838
 20
6.8625394377
 30
0.0
 10
8.273688957
 20
6.8714637234
 30
0.0
 10
8.2726931103
 20
6.8804381334
 30
0.0
 10
8.2724688112
 20
6.8864389286
 30
0.0
 10
8.2724688112
 20
6.8894289871
 30
0.0
  0
SPLINE
  5
2B6
100
AcDbEntity
  8
0
100
AcDbSpline
 62
7
  6
CONTINUOUS
 70
0
 71
3
 72
15
 73
11
 74
0
 42
0.0000001
 43
0.0000001
 44
0.0000000001
 40
0.0
 40
0.0
 40
0.0
 40
0.0
 40
0.1234389364
 40
0.2470473381
 40
0.370987441
 40
0.4953935886
 40
0.620395394
 40
0.7461421851
 40
0.8727199755
 40
1.0
 40
1.0
 40
1.0
 40
1.0
 10
8.3063662456
 20
6.9709623845
 30
0.0
 10
8.3036824007
 20
6.9683697938
 30
0.0
 10
8.2985746074
 20
6.9629000882
 30
0.0
 10
8.2917893968
 20
6.9539469829
 30
0.0
 10
8.2859413805
 20
6.9443200488
 30
0.0
 10
8.2810804846
 20
6.9341128289
 30
0.0
 10
8.2772554357
 20
6.923416225
 30
0.0
 10
8.2744977833
 20
6.9123284384
 30
0.0
 10
8.2728381401
 20
6.9009559674
 30
0.0
 10
8.2724688112
 20
6.8932766646
 30
0.0
 10
8.2724688112
 20
6.8894289871
 30
0.0
  0
SPLINE
  5
2B7
100
AcDbEntity
  8
0
100
AcDbSpline
 62
7
  6
CONTINUOUS
 70
0
 71
3
 72
39
 73
35
 74
0
 42
0.0000001
 43
0.0000001
 44
0.0000000001
 40
0.0
 40
0.0
 40
0.0
 40
0.0
 40
0.031052973
 40
0.0622972423
 40
0.0936964537
 40
0.1252275551
 40
0.156885241
 40
0.1886628059
 40
0.2205452459
 40
0.2525112366
 40
0.2845394077
 40
0.3166083838
 40
0.3486957907
 40
0.3807795832
 40
0.412836644
 40
0.4448444971
 40
0.4767824671
 40
0.5086302612
 40
0.5403700708
 40
0.5719864102
 40
0.6034654355
 40
0.6347973167
 40
0.665974655
 40
0.6969931172
 40
0.7278528597
 40
0.7585563454
 40
0.7891102455
 40
0.8195247615
 40
0.8498124401
 40
0.8799899763
 40
0.9100758147
 40
0.9400907425
 40
0.9700577669
 40
1.0
 40
1.0
 40
1.0
 40
1.0
 10
8.5139502821
 20
6.8726821902
 30
0.0
 10
8.5139502821
 20
6.8756722487
 30
0.0
 10
8.513725983
 20
6.881673044
 30
0.0
 10
8.5127301364
 20
6.8906474539
 30
0.0
 10
8.5110774096
 20
6.8995717397
 30
0.0
 10
8.5087749406
 20
6.9083917223
 30
0.0
 10
8.5058388819
 20
6.9170598862
 30
0.0
 10
8.5022828245
 20
6.9255293085
 30
0.0
 10
8.4981278935
 20
6.933754692
 30
0.0
 10
8.4933974004
 20
6.9416912053
 30
0.0
 10
8.4881147466
 20
6.9492932228
 30
0.0
 10
8.4823118096
 20
6.9565208261
 30
0.0
 10
8.4760190172
 20
6.9633335606
 30
0.0
 10
8.4692705554
 20
6.9696934822
 30
0.0
 10
8.4621051915
 20
6.9755677083
 30
0.0
 10
8.4545601378
 20
6.9809214386
 30
0.0
 10
8.4466781111
 20
6.9857267648
 30
0.0
 10
8.4385024084
 20
6.9899578211
 30
0.0
 10
8.430076764
 20
6.9935888447
 30
0.0
 10
8.4214487919
 20
6.9966029196
 30
0.0
 10
8.4126649661
 20
6.9989814926
 30
0.0
 10
8.4037736758
 20
7.0007110812
 30
0.0
 10
8.3948240769
 20
7.0017845823
 30
0.0
 10
8.3858649176
 20
7.0021925865
 30
0.0
 10
8.3769457563
 20
7.0019351531
 30
0.0
 10
8.3681153677
 20
7.0010136159
 30
0.0
 10
8.3594227924
 20
6.9994304498
 30
0.0
 10
8.350915274
 20
6.9971977091
 30
0.0
 10
8.3426401322
 20
6.9943250867
 30
0.0
 10
8.3346431599
 20
6.990828588
 30
0.0
 10
8.3269673918
 20
6.9867294006
 30
0.0
 10
8.3196567399
 20
6.9820467872
 30
0.0
 10
8.3127507006
 20
6.9768095229
 30
0.0
 10
8.3084398576
 20
6.9729654911
 30
0.0
 10
8.3063662456
 20
6.9709623845
 30
0.0
  0
SPLINE
  5
2B8
100
AcDbEntity
  8
0
100
AcDbSpline
 62
7
  6
CONTINUOUS
 70
0
 71
3
 72
53
 73
49
 74
0
 42
0.0000001
 43
0.0000001
 44
0.0000000001
 40
0.0
 40
0.0
 40
0.0
 40
0.0
 40
0.0313041153
 40
0.0470567589
 40
0.0628625042
 40
0.0945982077
 40
0.1264996374
 40
0.1585539205
 40
0.1907323133
 40
0.2068600129
 40
0.2230041193
 40
0.2391599002
 40
0.2553223468
 40
0.2714864126
 40
0.2876472596
 40
0.3038000459
 40
0.319939713
 40
0.3360612399
 40
0.3521599324
 40
0.3842632888
 40
0.4162252851
 40
0.4480185945
 40
0.4796216269
 40
0.5110196976
 40
0.5422062894
 40
0.5731821078
 40
0.6039571965
 40
0.6192792312
 40
0.6345582438
 40
0.6649908279
 40
0.6801620739
 40
0.6953058919
 40
0.7104271196
 40
0.7255305534
 40
0.7406211915
 40
0.755704483
 40
0.770786026
 40
0.7858711759
 40
0.800965253
 40
0.816073731
 40
0.8463431443
 40
0.8615227459
 40
0.8767341965
 40
0.907262381
 40
0.922599162
 40
0.9379872792
 40
0.9689083072
 40
1.0
 40
1.0
 40
1.0
 40
1.0
 10
8.4840249248
 20
6.8661831542
 30
0.0
 10
8.4840249248
 20
6.8694337791
 30
0.0
 10
8.4837826622
 20
6.8743243462
 30
0.0
 10
8.4829900794
 20
6.8808054466
 30
0.0
 10
8.4818800844
 20
6.8872858596
 30
0.0
 10
8.4799020162
 20
6.89530846
 30
0.0
 10
8.4766198773
 20
6.9047025967
 30
0.0
 10
8.4724547257
 20
6.9137903278
 30
0.0
 10
8.4682855322
 20
6.9210336484
 30
0.0
 10
8.464553896
 20
6.9265915853
 30
0.0
 10
8.4615601782
 20
6.9306344173
 30
0.0
 10
8.4583821929
 20
6.9345385517
 30
0.0
 10
8.4550276371
 20
6.9382948752
 30
0.0
 10
8.4515043842
 20
6.9418941878
 30
0.0
 10
8.4478202437
 20
6.9453271734
 30
0.0
 10
8.4439846627
 20
6.9485861693
 30
0.0
 10
8.4400071458
 20
6.9516636234
 30
0.0
 10
8.4358970628
 20
6.954552123
 30
0.0
 10
8.4302589855
 20
6.9581371
 30
0.0
 10
8.4229306391
 20
6.9621126213
 30
0.0
 10
8.4137649719
 20
6.9660313073
 30
0.0
 10
8.4043198994
 20
6.9690537405
 30
0.0
 10
8.3946878972
 20
6.9711549418
 30
0.0
 10
8.3849603385
 20
6.9723092107
 30
0.0
 10
8.3752313125
 20
6.9725106442
 30
0.0
 10
8.3655948765
 20
6.9717514645
 30
0.0
 10
8.3577046227
 20
6.9703256695
 30
0.0
 10
8.3515354223
 20
6.9687157868
 30
0.0
 10
8.3454908731
 20
6.9668032479
 30
0.0
 10
8.3396150846
 20
6.9644339236
 30
0.0
 10
8.3339644001
 20
6.9616252411
 30
0.0
 10
8.3298528182
 20
6.9593064027
 30
0.0
 10
8.3258739096
 20
6.9567800777
 30
0.0
 10
8.3220369675
 20
6.9540523663
 30
0.0
 10
8.3183515304
 20
6.9511295048
 30
0.0
 10
8.3148270652
 20
6.948017858
 30
0.0
 10
8.311471416
 20
6.9447256819
 30
0.0
 10
8.308292471
 20
6.94126112
 30
0.0
 10
8.3052979043
 20
6.9376321358
 30
0.0
 10
8.3015604121
 20
6.9325833839
 30
0.0
 10
8.2982203172
 20
6.927239441
 30
0.0
 10
8.2953060371
 20
6.9216526021
 30
0.0
 10
8.2926740788
 20
6.9158976923
 30
0.0
 10
8.2904867681
 20
6.9099305237
 30
0.0
 10
8.288759136
 20
6.9038069038
 30
0.0
 10
8.2873357574
 20
6.8975632187
 30
0.0
 10
8.2861468115
 20
6.8896002591
 30
0.0
 10
8.2858297634
 20
6.8831566023
 30
0.0
 10
8.2858297634
 20
6.8799280354
 30
0.0
  0
SPLINE
  5
2B9
100
AcDbEntity
  8
0
100
AcDbSpline
 62
7
  6
CONTINUOUS
 70
0
 71
3
 72
15
 73
11
 74
0
 42
0.0000001
 43
0.0000001
 44
0.0000000001
 40
0.0
 40
0.0
 40
0.0
 40
0.0
 40
0.1272800245
 40
0.2538578149
 40
0.379604606
 40
0.5046064114
 40
0.629012559
 40
0.7529526619
 40
0.8765610636
 40
1.0
 40
1.0
 40
1.0
 40
1.0
 10
8.5139502821
 20
6.8726821902
 30
0.0
 10
8.5139502821
 20
6.8688345128
 30
0.0
 10
8.5135809533
 20
6.8611552099
 30
0.0
 10
8.5119213101
 20
6.849782739
 30
0.0
 10
8.5091636577
 20
6.8386949523
 30
0.0
 10
8.5053386087
 20
6.8279983485
 30
0.0
 10
8.5004777129
 20
6.8177911285
 30
0.0
 10
8.4946296965
 20
6.8081641944
 30
0.0
 10
8.487844486
 20
6.7992110892
 30
0.0
 10
8.4827366927
 20
6.7937413836
 30
0.0
 10
8.4800528478
 20
6.7911487929
 30
0.0
  0
SPLINE
  5
2BA
100
AcDbEntity
  8
0
100
AcDbSpline
 62
7
  6
CONTINUOUS
 70
0
 71
3
 72
53
 73
49
 74
0
 42
0.0000001
 43
0.0000001
 44
0.0000000001
 40
0.0
 40
0.0
 40
0.0
 40
0.0
 40
0.0310916928
 40
0.0620127208
 40
0.077400838
 40
0.092737619
 40
0.1232658035
 40
0.1384772541
 40
0.1536568557
 40
0.183926269
 40
0.199034747
 40
0.2141288241
 40
0.229213974
 40
0.244295517
 40
0.2593788085
 40
0.2744694466
 40
0.2895728804
 40
0.3046941081
 40
0.3198379261
 40
0.3350091721
 40
0.3654417562
 40
0.3807207688
 40
0.3960428035
 40
0.4268178922
 40
0.4577937106
 40
0.4889803024
 40
0.5203783731
 40
0.5519814055
 40
0.5837747149
 40
0.6157367112
 40
0.6478400676
 40
0.6639387601
 40
0.680060287
 40
0.6961999541
 40
0.7123527404
 40
0.7285135874
 40
0.7446776532
 40
0.7608400998
 40
0.7769958807
 40
0.7931399871
 40
0.8092676867
 40
0.8414460795
 40
0.8735003626
 40
0.9054017923
 40
0.9371374958
 40
0.9529432411
 40
0.9686958847
 40
1.0
 40
1.0
 40
1.0
 40
1.0
 10
8.4840249248
 20
6.8661831542
 30
0.0
 10
8.4840249248
 20
6.8629545873
 30
0.0
 10
8.4837078767
 20
6.8565109305
 30
0.0
 10
8.4825189308
 20
6.848547971
 30
0.0
 10
8.4810955521
 20
6.8423042858
 30
0.0
 10
8.47936792
 20
6.8361806659
 30
0.0
 10
8.4771806094
 20
6.8302134973
 30
0.0
 10
8.474548651
 20
6.8244585875
 30
0.0
 10
8.471634371
 20
6.8188717486
 30
0.0
 10
8.468294276
 20
6.8135278057
 30
0.0
 10
8.4645567839
 20
6.8084790538
 30
0.0
 10
8.4615622172
 20
6.8048500697
 30
0.0
 10
8.4583832721
 20
6.8013855077
 30
0.0
 10
8.4550276229
 20
6.7980933317
 30
0.0
 10
8.4515031578
 20
6.7949816849
 30
0.0
 10
8.4478177207
 20
6.7920588233
 30
0.0
 10
8.4439807786
 20
6.7893311119
 30
0.0
 10
8.4400018699
 20
6.7868047869
 30
0.0
 10
8.4358902881
 20
6.7844859486
 30
0.0
 10
8.4302396035
 20
6.781677266
 30
0.0
 10
8.4243638151
 20
6.7793079417
 30
0.0
 10
8.4183192659
 20
6.7773954029
 30
0.0
 10
8.4121500654
 20
6.7757855201
 30
0.0
 10
8.4042598116
 20
6.7743597251
 30
0.0
 10
8.3946233757
 20
6.7736005454
 30
0.0
 10
8.3848943497
 20
6.7738019789
 30
0.0
 10
8.375166791
 20
6.7749562478
 30
0.0
 10
8.3655347888
 20
6.7770574491
 30
0.0
 10
8.3560897162
 20
6.7800798823
 30
0.0
 10
8.3469240491
 20
6.7839985683
 30
0.0
 10
8.3395957027
 20
6.7879740896
 30
0.0
 10
8.3339576254
 20
6.7915590666
 30
0.0
 10
8.3298475424
 20
6.7944475662
 30
0.0
 10
8.3258700255
 20
6.7975250203
 30
0.0
 10
8.3220344445
 20
6.8007840162
 30
0.0
 10
8.318350304
 20
6.8042170019
 30
0.0
 10
8.314827051
 20
6.8078163144
 30
0.0
 10
8.3114724953
 20
6.8115726379
 30
0.0
 10
8.3082945099
 20
6.8154767723
 30
0.0
 10
8.3053007922
 20
6.8195196043
 30
0.0
 10
8.301569156
 20
6.8250775413
 30
0.0
 10
8.2973999625
 20
6.8323208618
 30
0.0
 10
8.2932348109
 20
6.8414085929
 30
0.0
 10
8.289952672
 20
6.8508027296
 30
0.0
 10
8.2879746038
 20
6.85882533
 30
0.0
 10
8.2868646087
 20
6.865305743
 30
0.0
 10
8.2860720259
 20
6.8717868435
 30
0.0
 10
8.2858297634
 20
6.8766774105
 30
0.0
 10
8.2858297634
 20
6.8799280354
 30
0.0
  0
SPLINE
  5
2BB
100
AcDbEntity
  8
0
100
AcDbSpline
 62
7
  6
CONTINUOUS
 70
0
 71
3
 72
69
 73
65
 74
0
 42
0.0000001
 43
0.0000001
 44
0.0000000001
 40
0.0
 40
0.0
 40
0.0
 40
0.0
 40
0.0312903904
 40
0.0470006528
 40
0.0627445756
 40
0.0785223279
 40
0.0943340764
 40
0.110178696
 40
0.1260536366
 40
0.1419560695
 40
0.1578832983
 40
0.1738324715
 40
0.1898005575
 40
0.2217715317
 40
0.2377758121
 40
0.2537849262
 40
0.2697951068
 40
0.2858026717
 40
0.3018039038
 40
0.3177951149
 40
0.3337728137
 40
0.3497335585
 40
0.3656740791
 40
0.3815913812
 40
0.3974825997
 40
0.4133451737
 40
0.4291768584
 40
0.4449756206
 40
0.4607398374
 40
0.4764681958
 40
0.4921596776
 40
0.5078137322
 40
0.5234300822
 40
0.5390088225
 40
0.5545505019
 40
0.5700558957
 40
0.585526204
 40
0.6009629954
 40
0.616368028
 40
0.6317434933
 40
0.6470918197
 40
0.6624156028
 40
0.6777178217
 40
0.6930015504
 40
0.7082700017
 40
0.7235266723
 40
0.7387750315
 40
0.7540186351
 40
0.7692612099
 40
0.784506353
 40
0.7997576804
 40
0.8150188192
 40
0.8302931417
 40
0.8455840027
 40
0.860894753
 40
0.8762284425
 40
0.8915878651
 40
0.9069752245
 40
0.9223923275
 40
0.9378418307
 40
0.9533270851
 40
0.9688506846
 40
0.9844102313
 40
1.0
 40
1.0
 40
1.0
 40
1.0
 10
9.7851337772
 20
7.294262291
 30
0.0
 10
9.7851335849
 20
7.3092892626
 30
0.0
 10
9.784019967
 20
7.3318807937
 30
0.0
 10
9.7803581909
 20
7.3617978169
 30
0.0
 10
9.7765179181
 20
7.3841628453
 30
0.0
 10
9.7716013025
 20
7.4063649085
 30
0.0
 10
9.7656196506
 20
7.4283543729
 30
0.0
 10
9.7585884897
 20
7.4500799562
 30
0.0
 10
9.7505270974
 20
7.4714911898
 30
0.0
 10
9.7414531554
 20
7.4925365659
 30
0.0
 10
9.7313901183
 20
7.5131666978
 30
0.0
 10
9.7203629227
 20
7.533334676
 30
0.0
 10
9.7044046808
 20
7.5595494739
 30
0.0
 10
9.6866258925
 20
7.5846520623
 30
0.0
 10
9.6671689173
 20
7.6084456456
 30
0.0
 10
9.6517575589
 20
7.6256151295
 30
0.0
 10
9.6355715125
 20
7.6420575969
 30
0.0
 10
9.6186474583
 20
7.6577340973
 30
0.0
 10
9.6010268572
 20
7.6726091833
 30
0.0
 10
9.582749853
 20
7.6866465138
 30
0.0
 10
9.5638591278
 20
7.6998123807
 30
0.0
 10
9.5443999689
 20
7.7120770446
 30
0.0
 10
9.5244166775
 20
7.7234092328
 30
0.0
 10
9.503956455
 20
7.7337821481
 30
0.0
 10
9.4830677001
 20
7.7431717904
 30
0.0
 10
9.4617983467
 20
7.7515528318
 30
0.0
 10
9.4401990066
 20
7.7589059947
 30
0.0
 10
9.4183204539
 20
7.7652132058
 30
0.0
 10
9.3962136501
 20
7.7704560474
 30
0.0
 10
9.3739314131
 20
7.7746230564
 30
0.0
 10
9.3515262758
 20
7.7777023011
 30
0.0
 10
9.3290513925
 20
7.7796833526
 30
0.0
 10
9.3065606136
 20
7.7805625014
 30
0.0
 10
9.2841076547
 20
7.7803343863
 30
0.0
 10
9.2617466934
 20
7.7789974791
 30
0.0
 10
9.2395315799
 20
7.7765556312
 30
0.0
 10
9.2175165043
 20
7.7730106771
 30
0.0
 10
9.1957551992
 20
7.7683705622
 30
0.0
 10
9.1743006032
 20
7.7626464551
 30
0.0
 10
9.1532063431
 20
7.7558481877
 30
0.0
 10
9.1325240563
 20
7.7479932161
 30
0.0
 10
9.1123049141
 20
7.7390997625
 30
0.0
 10
9.0926004097
 20
7.7291865154
 30
0.0
 10
9.0734585312
 20
7.7182797364
 30
0.0
 10
9.0549277474
 20
7.7064045491
 30
0.0
 10
9.0370553449
 20
7.6935889348
 30
0.0
 10
9.019884487
 20
7.679866676
 30
0.0
 10
9.0034596924
 20
7.665269769
 30
0.0
 10
8.9878219308
 20
7.6498349306
 30
0.0
 10
8.9730087439
 20
7.6336020353
 30
0.0
 10
8.9590591743
 20
7.6166097146
 30
0.0
 10
8.9460062624
 20
7.5989019788
 30
0.0
 10
8.9338814297
 20
7.5805235509
 30
0.0
 10
8.9227164586
 20
7.5615190992
 30
0.0
 10
8.9125358408
 20
7.541937617
 30
0.0
 10
8.9033645706
 20
7.5218273963
 30
0.0
 10
8.8952256912
 20
7.5012381947
 30
0.0
 10
8.8881352273
 20
7.4802226526
 30
0.0
 10
8.8821108622
 20
7.4588321484
 30
0.0
 10
8.8771661409
 20
7.4371184781
 30
0.0
 10
8.8733097399
 20
7.415133538
 30
0.0
 10
8.8705523944
 20
7.3929305728
 30
0.0
 10
8.8688971859
 20
7.3705687372
 30
0.0
 10
8.8685294808
 20
7.3556068908
 30
0.0
 10
8.8685293921
 20
7.3481200231
 30
0.0
  0
SPLINE
  5
2BC
100
AcDbEntity
  8
0
100
AcDbSpline
 62
7
  6
CONTINUOUS
 70
0
 71
3
 72
65
 73
61
 74
0
 42
0.0000001
 43
0.0000001
 44
0.0000000001
 40
0.0
 40
0.0
 40
0.0
 40
0.0
 40
0.0310480611
 40
0.0464649297
 40
0.061800731
 40
0.0922348386
 40
0.1223994853
 40
0.1373982455
 40
0.1523450299
 40
0.1672467782
 40
0.1821108888
 40
0.1969449792
 40
0.2117572313
 40
0.2265559693
 40
0.2413496102
 40
0.2561467317
 40
0.2709558122
 40
0.285785298
 40
0.3006433284
 40
0.3155375101
 40
0.3304753132
 40
0.3454636469
 40
0.3605084676
 40
0.375615484
 40
0.3907897569
 40
0.4060350815
 40
0.4213548945
 40
0.4367520193
 40
0.4522278892
 40
0.4677834893
 40
0.4834192846
 40
0.4991344067
 40
0.5149274953
 40
0.5307967742
 40
0.5467393053
 40
0.5627516644
 40
0.578830121
 40
0.6111574611
 40
0.6274047431
 40
0.643697115
 40
0.6600282616
 40
0.6763917887
 40
0.7091799725
 40
0.7255990827
 40
0.7420225216
 40
0.7584429775
 40
0.774853285
 40
0.7912463688
 40
0.8076151028
 40
0.8239526467
 40
0.8402526445
 40
0.8565088447
 40
0.8727152748
 40
0.8888661881
 40
0.9049558805
 40
0.9369254242
 40
0.952810249
 40
0.9686226856
 40
0.9843555469
 40
1.0
 40
1.0
 40
1.0
 40
1.0
 10
9.0085294017
 20
7.3481197632
 30
0.0
 10
9.0085296176
 20
7.3584786274
 30
0.0
 10
9.0092894795
 20
7.3739958529
 30
0.0
 10
9.0118337501
 20
7.3944637637
 30
0.0
 10
9.0153681522
 20
7.4145777236
 30
0.0
 10
9.021635625
 20
7.4391725986
 30
0.0
 10
9.0303496465
 20
7.4628927825
 30
0.0
 10
9.0387094215
 20
7.4811308358
 30
0.0
 10
9.0456476574
 20
7.4943958144
 30
0.0
 10
9.0532465474
 20
7.5072411189
 30
0.0
 10
9.0614874574
 20
7.5196393359
 30
0.0
 10
9.0703522594
 20
7.5315622468
 30
0.0
 10
9.0798196359
 20
7.5429842226
 30
0.0
 10
9.0898674813
 20
7.5538807349
 30
0.0
 10
9.1004743626
 20
7.5642266646
 30
0.0
 10
9.1116162078
 20
7.5739993236
 30
0.0
 10
9.1232677663
 20
7.583177629
 30
0.0
 10
9.1354043199
 20
7.5917396128
 30
0.0
 10
9.1479990106
 20
7.5996655263
 30
0.0
 10
9.1610234631
 20
7.6069378006
 30
0.0
 10
9.1744496099
 20
7.6135377691
 30
0.0
 10
9.1882476305
 20
7.6194487862
 30
0.0
 10
9.2023860216
 20
7.6246572323
 30
0.0
 10
9.2168333448
 20
7.6291482906
 30
0.0
 10
9.2315567553
 20
7.6329089317
 30
0.0
 10
9.2465218611
 20
7.6359301091
 30
0.0
 10
9.2616941137
 20
7.6382016114
 30
0.0
 10
9.277037878
 20
7.639714746
 30
0.0
 10
9.2925164521
 20
7.640465699
 30
0.0
 10
9.3080928286
 20
7.640449641
 30
0.0
 10
9.3237291889
 20
7.6396629769
 30
0.0
 10
9.3393874208
 20
7.6381076294
 30
0.0
 10
9.355029034
 20
7.635784725
 30
0.0
 10
9.3706149969
 20
7.6326963502
 30
0.0
 10
9.3861067093
 20
7.6288504973
 30
0.0
 10
9.401465946
 20
7.6242542515
 30
0.0
 10
9.4217479667
 20
7.6171252309
 30
0.0
 10
9.4415795975
 20
7.6085445509
 30
0.0
 10
9.4608017585
 20
7.5985875487
 30
0.0
 10
9.4749238594
 20
7.5904251455
 30
0.0
 10
9.4886883947
 20
7.5816012026
 30
0.0
 10
9.5065249567
 20
7.5689746465
 30
0.0
 10
9.5235012034
 20
7.5551179091
 30
0.0
 10
9.5394821797
 20
7.5401400806
 30
0.0
 10
9.5509550816
 20
7.5283622783
 30
0.0
 10
9.5618779419
 20
7.5160771812
 30
0.0
 10
9.5722223257
 20
7.5033140368
 30
0.0
 10
9.5819639365
 20
7.4901065896
 30
0.0
 10
9.591078792
 20
7.4764881954
 30
0.0
 10
9.599542774
 20
7.4624922635
 30
0.0
 10
9.6073369913
 20
7.4481553175
 30
0.0
 10
9.614442842
 20
7.4335135196
 30
0.0
 10
9.6208414483
 20
7.4186033505
 30
0.0
 10
9.6265199858
 20
7.4034630953
 30
0.0
 10
9.6330991425
 20
7.383069233
 30
0.0
 10
9.6382099423
 20
7.3623166189
 30
0.0
 10
9.6418002905
 20
7.3413742283
 30
0.0
 10
9.6437212737
 20
7.3256600226
 30
0.0
 10
9.6448751236
 20
7.3099522323
 30
0.0
 10
9.6451336482
 20
7.2994817415
 30
0.0
 10
9.6451337661
 20
7.2942621317
 30
0.0
  0
SPLINE
  5
2BD
100
AcDbEntity
  8
0
100
AcDbSpline
 62
7
  6
CONTINUOUS
 70
0
 71
3
 72
69
 73
65
 74
0
 42
0.0000001
 43
0.0000001
 44
0.0000000001
 40
0.0
 40
0.0
 40
0.0
 40
0.0
 40
0.0312903911
 40
0.0470006543
 40
0.0627445771
 40
0.0785223289
 40
0.0943340764
 40
0.1101786947
 40
0.126053634
 40
0.1419560655
 40
0.157883293
 40
0.1738324649
 40
0.1898005499
 40
0.2217715222
 40
0.2377758016
 40
0.253784915
 40
0.2697950952
 40
0.2858026601
 40
0.3018038922
 40
0.3177951034
 40
0.333772802
 40
0.3497335464
 40
0.3656740664
 40
0.3815913678
 40
0.3974825851
 40
0.4133451574
 40
0.4291768396
 40
0.4449755982
 40
0.4607398103
 40
0.4764681644
 40
0.4921596439
 40
0.5078136996
 40
0.5234300536
 40
0.5390088005
 40
0.5545504881
 40
0.5700558896
 40
0.5855262037
 40
0.6009629988
 40
0.6163680341
 40
0.631743502
 40
0.6470918309
 40
0.6624156163
 40
0.6777178363
 40
0.6930015641
 40
0.7082700105
 40
0.7235266729
 40
0.7387750246
 40
0.7540186258
 40
0.7692612029
 40
0.7845063491
 40
0.7997576767
 40
0.8150188128
 40
0.8302931311
 40
0.8455839876
 40
0.8608947335
 40
0.876228419
 40
0.8915878381
 40
0.906975194
 40
0.9223922944
 40
0.9378417982
 40
0.9533270585
 40
0.9688506682
 40
0.9844102238
 40
1.0
 40
1.0
 40
1.0
 40
1.0
 10
8.8685293943
 20
7.3481198267
 30
0.0
 10
8.8685295866
 20
7.3330928547
 30
0.0
 10
8.8696432047
 20
7.310501323
 30
0.0
 10
8.8733049807
 20
7.2805842991
 30
0.0
 10
8.8771452537
 20
7.2582192706
 30
0.0
 10
8.8820618692
 20
7.2360172081
 30
0.0
 10
8.8880435208
 20
7.214027745
 30
0.0
 10
8.8950746809
 20
7.1923021633
 30
0.0
 10
8.9031360725
 20
7.1708909315
 30
0.0
 10
8.9122100137
 20
7.1498455571
 30
0.0
 10
8.9222730493
 20
7.1292154268
 30
0.0
 10
8.9333002439
 20
7.10904745
 30
0.0
 10
8.9492584844
 20
7.0828326536
 30
0.0
 10
8.9670372708
 20
7.0577300661
 30
0.0
 10
8.9864942443
 20
7.0339364837
 30
0.0
 10
9.001905601
 20
7.0167669996
 30
0.0
 10
9.0180916471
 20
7.0003245326
 30
0.0
 10
9.0350157005
 20
6.9846480318
 30
0.0
 10
9.0526363007
 20
6.9697729447
 30
0.0
 10
9.0709133049
 20
6.9557356142
 30
0.0
 10
9.0898040291
 20
6.9425697465
 30
0.0
 10
9.1092631869
 20
6.9303050819
 30
0.0
 10
9.1292464776
 20
6.918972894
 30
0.0
 10
9.1497066982
 20
6.9085999779
 30
0.0
 10
9.1705954512
 20
6.8992103353
 30
0.0
 10
9.1918648021
 20
6.8908292947
 30
0.0
 10
9.2134641379
 20
6.8834761308
 30
0.0
 10
9.2353426854
 20
6.8771689205
 30
0.0
 10
9.2574494829
 20
6.8719260785
 30
0.0
 10
9.2797317138
 20
6.8677590667
 30
0.0
 10
9.3021368486
 20
6.8646798227
 30
0.0
 10
9.3246117329
 20
6.8626987686
 30
0.0
 10
9.3471025172
 20
6.8618196154
 30
0.0
 10
9.3695554851
 20
6.862047731
 30
0.0
 10
9.3919164573
 20
6.8633846376
 30
0.0
 10
9.4141315813
 20
6.8658264848
 30
0.0
 10
9.4361466652
 20
6.8693714398
 30
0.0
 10
9.457907976
 20
6.8740115563
 30
0.0
 10
9.4793625761
 20
6.8797356647
 30
0.0
 10
9.5004568397
 20
6.8865339336
 30
0.0
 10
9.5211391293
 20
6.8943889077
 30
0.0
 10
9.541358274
 20
6.9032823626
 30
0.0
 10
9.5610627788
 20
6.9131956114
 30
0.0
 10
9.5802046542
 20
6.9241023911
 30
0.0
 10
9.598735433
 20
6.9359775739
 30
0.0
 10
9.6166078281
 20
6.9487931816
 30
0.0
 10
9.6337786789
 20
6.9625154354
 30
0.0
 10
9.6502034694
 20
6.9771123415
 30
0.0
 10
9.6658412325
 20
6.9925471803
 30
0.0
 10
9.6806544224
 20
7.0087800763
 30
0.0
 10
9.694603993
 20
7.0257723967
 30
0.0
 10
9.7076569036
 20
7.0434801294
 30
0.0
 10
9.7197817329
 20
7.061858553
 30
0.0
 10
9.7309467016
 20
7.0808629986
 30
0.0
 10
9.7411273189
 20
7.1004444741
 30
0.0
 10
9.7502985863
 20
7.1205546898
 30
0.0
 10
9.7584374662
 20
7.1411438855
 30
0.0
 10
9.7655279324
 20
7.162159422
 30
0.0
 10
9.771552297
 20
7.1835499236
 30
0.0
 10
9.7764970224
 20
7.2052635948
 30
0.0
 10
9.7803534269
 20
7.2272485425
 30
0.0
 10
9.7831107721
 20
7.2494515198
 30
0.0
 10
9.7847659841
 20
7.2718133679
 30
0.0
 10
9.7851336905
 20
7.2867752222
 30
0.0
 10
9.7851337794
 20
7.2942620935
 30
0.0
  0
SPLINE
  5
2BE
100
AcDbEntity
  8
0
100
AcDbSpline
 62
7
  6
CONTINUOUS
 70
0
 71
3
 72
65
 73
61
 74
0
 42
0.0000001
 43
0.0000001
 44
0.0000000001
 40
0.0
 40
0.0
 40
0.0
 40
0.0
 40
0.0310480609
 40
0.0464649293
 40
0.0618007306
 40
0.0922348384
 40
0.1223994854
 40
0.1373982457
 40
0.1523450303
 40
0.1672467788
 40
0.1821108896
 40
0.1969449801
 40
0.2117572324
 40
0.2265559705
 40
0.2413496115
 40
0.2561467331
 40
0.2709558136
 40
0.2857852993
 40
0.3006433297
 40
0.3155375112
 40
0.3304753141
 40
0.3454636475
 40
0.3605084679
 40
0.3756154841
 40
0.3907897567
 40
0.4060350812
 40
0.4213548941
 40
0.4367520191
 40
0.4522278894
 40
0.4677834902
 40
0.4834192865
 40
0.4991344099
 40
0.5149274995
 40
0.5307967793
 40
0.5467393109
 40
0.5627516699
 40
0.5788301256
 40
0.6111574632
 40
0.6274047439
 40
0.6436971146
 40
0.6600282604
 40
0.676391787
 40
0.7091799709
 40
0.7255990813
 40
0.7420225206
 40
0.7584429769
 40
0.7748532848
 40
0.7912463688
 40
0.8076151029
 40
0.8239526465
 40
0.8402526437
 40
0.8565088432
 40
0.8727152724
 40
0.8888661846
 40
0.9049558761
 40
0.9369254192
 40
0.9528102449
 40
0.9686226826
 40
0.984355545
 40
1.0
 40
1.0
 40
1.0
 40
1.0
 10
9.6451337698
 20
7.2942623543
 30
0.0
 10
9.6451335538
 20
7.2839034902
 30
0.0
 10
9.644373692
 20
7.2683862648
 30
0.0
 10
9.6418294214
 20
7.2479183542
 30
0.0
 10
9.6382950193
 20
7.2278043943
 30
0.0
 10
9.6320275466
 20
7.2032095191
 30
0.0
 10
9.6233135249
 20
7.179489335
 30
0.0
 10
9.6149537499
 20
7.1612512816
 30
0.0
 10
9.6080155139
 20
7.1479863028
 30
0.0
 10
9.6004166237
 20
7.1351409981
 30
0.0
 10
9.5921757136
 20
7.122742781
 30
0.0
 10
9.5833109115
 20
7.11081987
 30
0.0
 10
9.5738435349
 20
7.0993978941
 30
0.0
 10
9.5637956893
 20
7.0885013819
 30
0.0
 10
9.553188808
 20
7.0781554521
 30
0.0
 10
9.5420469627
 20
7.0683827931
 30
0.0
 10
9.5303954041
 20
7.0592044878
 30
0.0
 10
9.5182588505
 20
7.050642504
 30
0.0
 10
9.5056641599
 20
7.0427165907
 30
0.0
 10
9.4926397074
 20
7.0354443165
 30
0.0
 10
9.4792135608
 20
7.0288443481
 30
0.0
 10
9.4654155405
 20
7.0229333312
 30
0.0
 10
9.4512771497
 20
7.0177248852
 30
0.0
 10
9.4368298268
 20
7.013233827
 30
0.0
 10
9.4221064164
 20
7.0094731859
 30
0.0
 10
9.4071413108
 20
7.0064520085
 30
0.0
 10
9.3919690581
 20
7.0041805062
 30
0.0
 10
9.3766252937
 20
7.0026673716
 30
0.0
 10
9.3611467192
 20
7.0019164185
 30
0.0
 10
9.345570342
 20
7.0019324766
 30
0.0
 10
9.3299339807
 20
7.0027191408
 30
0.0
 10
9.3142757477
 20
7.0042744886
 30
0.0
 10
9.2986341335
 20
7.0065973931
 30
0.0
 10
9.2830481699
 20
7.0096857684
 30
0.0
 10
9.2675564571
 20
7.0135316218
 30
0.0
 10
9.2521972206
 20
7.0181278676
 30
0.0
 10
9.2319152011
 20
7.0252568879
 30
0.0
 10
9.2120835719
 20
7.0338375677
 30
0.0
 10
9.1928614124
 20
7.0437945691
 30
0.0
 10
9.1787393124
 20
7.0519569717
 30
0.0
 10
9.1649747778
 20
7.0607809142
 30
0.0
 10
9.1471382161
 20
7.0734074701
 30
0.0
 10
9.1301619694
 20
7.0872642072
 30
0.0
 10
9.1141809929
 20
7.1022420359
 30
0.0
 10
9.1027080907
 20
7.1140198384
 30
0.0
 10
9.0917852301
 20
7.1263049357
 30
0.0
 10
9.081440846
 20
7.1390680804
 30
0.0
 10
9.0716992351
 20
7.1522755277
 30
0.0
 10
9.0625843796
 20
7.1658939219
 30
0.0
 10
9.0541203977
 20
7.1798898536
 30
0.0
 10
9.0463261806
 20
7.1942267991
 30
0.0
 10
9.0392203302
 20
7.2088685963
 30
0.0
 10
9.0328217242
 20
7.2237787645
 30
0.0
 10
9.0271431867
 20
7.2389190187
 30
0.0
 10
9.0205640302
 20
7.2593128802
 30
0.0
 10
9.01545323
 20
7.280065494
 30
0.0
 10
9.0118628816
 20
7.301007885
 30
0.0
 10
9.0099418983
 20
7.3167220917
 30
0.0
 10
9.0087880481
 20
7.3324298833
 30
0.0
 10
9.0085295233
 20
7.3429003751
 30
0.0
 10
9.0085294053
 20
7.3481199856
 30
0.0
  0
SPLINE
  5
2BF
100
AcDbEntity
  8
0
100
AcDbSpline
 62
7
  6
CONTINUOUS
 70
0
 71
3
 72
69
 73
65
 74
0
 42
0.0000001
 43
0.0000001
 44
0.0000000001
 40
0.0
 40
0.0
 40
0.0
 40
0.0
 40
0.0312903904
 40
0.0470006528
 40
0.0627445756
 40
0.0785223279
 40
0.0943340764
 40
0.110178696
 40
0.1260536366
 40
0.1419560695
 40
0.1578832983
 40
0.1738324715
 40
0.1898005575
 40
0.2217715317
 40
0.2377758121
 40
0.2537849262
 40
0.2697951068
 40
0.2858026717
 40
0.3018039038
 40
0.3177951149
 40
0.3337728137
 40
0.3497335585
 40
0.3656740791
 40
0.3815913812
 40
0.3974825997
 40
0.4133451737
 40
0.4291768584
 40
0.4449756206
 40
0.4607398374
 40
0.4764681958
 40
0.4921596776
 40
0.5078137322
 40
0.5234300822
 40
0.5390088225
 40
0.5545505019
 40
0.5700558957
 40
0.585526204
 40
0.6009629954
 40
0.616368028
 40
0.6317434933
 40
0.6470918197
 40
0.6624156028
 40
0.6777178217
 40
0.6930015504
 40
0.7082700017
 40
0.7235266723
 40
0.7387750315
 40
0.7540186351
 40
0.7692612099
 40
0.784506353
 40
0.7997576804
 40
0.8150188192
 40
0.8302931417
 40
0.8455840027
 40
0.860894753
 40
0.8762284425
 40
0.8915878651
 40
0.9069752245
 40
0.9223923275
 40
0.9378418307
 40
0.9533270851
 40
0.9688506846
 40
0.9844102313
 40
1.0
 40
1.0
 40
1.0
 40
1.0
 10
9.1225082858
 20
8.1322747425
 30
0.0
 10
9.1225080935
 20
8.1473017141
 30
0.0
 10
9.1213944756
 20
8.1698932452
 30
0.0
 10
9.1177326995
 20
8.1998102684
 30
0.0
 10
9.1138924267
 20
8.2221752968
 30
0.0
 10
9.1089758111
 20
8.24437736
 30
0.0
 10
9.1029941592
 20
8.2663668244
 30
0.0
 10
9.0959629983
 20
8.2880924077
 30
0.0
 10
9.087901606
 20
8.3095036413
 30
0.0
 10
9.078827664
 20
8.3305490174
 30
0.0
 10
9.0687646269
 20
8.3511791492
 30
0.0
 10
9.0577374313
 20
8.3713471275
 30
0.0
 10
9.0417791894
 20
8.3975619253
 30
0.0
 10
9.0240004011
 20
8.4226645138
 30
0.0
 10
9.0045434259
 20
8.4464580971
 30
0.0
 10
8.9891320675
 20
8.463627581
 30
0.0
 10
8.9729460211
 20
8.4800700484
 30
0.0
 10
8.9560219669
 20
8.4957465487
 30
0.0
 10
8.9384013658
 20
8.5106216347
 30
0.0
 10
8.9201243615
 20
8.5246589653
 30
0.0
 10
8.9012336364
 20
8.5378248321
 30
0.0
 10
8.8817744775
 20
8.5500894961
 30
0.0
 10
8.8617911861
 20
8.5614216843
 30
0.0
 10
8.8413309636
 20
8.5717945996
 30
0.0
 10
8.8204422087
 20
8.5811842419
 30
0.0
 10
8.7991728553
 20
8.5895652833
 30
0.0
 10
8.7775735152
 20
8.5969184462
 30
0.0
 10
8.7556949625
 20
8.6032256573
 30
0.0
 10
8.7335881587
 20
8.6084684989
 30
0.0
 10
8.7113059217
 20
8.6126355079
 30
0.0
 10
8.6889007843
 20
8.6157147526
 30
0.0
 10
8.6664259011
 20
8.6176958041
 30
0.0
 10
8.6439351222
 20
8.6185749529
 30
0.0
 10
8.6214821633
 20
8.6183468378
 30
0.0
 10
8.599121202
 20
8.6170099306
 30
0.0
 10
8.5769060885
 20
8.6145680827
 30
0.0
 10
8.5548910129
 20
8.6110231286
 30
0.0
 10
8.5331297078
 20
8.6063830136
 30
0.0
 10
8.5116751118
 20
8.6006589066
 30
0.0
 10
8.4905808517
 20
8.5938606392
 30
0.0
 10
8.4698985649
 20
8.5860056676
 30
0.0
 10
8.4496794227
 20
8.577112214
 30
0.0
 10
8.4299749182
 20
8.5671989669
 30
0.0
 10
8.4108330398
 20
8.5562921879
 30
0.0
 10
8.392302256
 20
8.5444170005
 30
0.0
 10
8.3744298535
 20
8.5316013862
 30
0.0
 10
8.3572589956
 20
8.5178791274
 30
0.0
 10
8.340834201
 20
8.5032822204
 30
0.0
 10
8.3251964394
 20
8.4878473821
 30
0.0
 10
8.3103832525
 20
8.4716144868
 30
0.0
 10
8.2964336829
 20
8.4546221661
 30
0.0
 10
8.2833807709
 20
8.4369144303
 30
0.0
 10
8.2712559383
 20
8.4185360024
 30
0.0
 10
8.2600909672
 20
8.3995315507
 30
0.0
 10
8.2499103494
 20
8.3799500685
 30
0.0
 10
8.2407390792
 20
8.3598398478
 30
0.0
 10
8.2326001998
 20
8.3392506462
 30
0.0
 10
8.2255097359
 20
8.3182351041
 30
0.0
 10
8.2194853708
 20
8.2968445999
 30
0.0
 10
8.2145406495
 20
8.2751309296
 30
0.0
 10
8.2106842485
 20
8.2531459895
 30
0.0
 10
8.207926903
 20
8.2309430243
 30
0.0
 10
8.2062716945
 20
8.2085811887
 30
0.0
 10
8.2059039894
 20
8.1936193422
 30
0.0
 10
8.2059039007
 20
8.1861324746
 30
0.0
  0
SPLINE
  5
2C0
100
AcDbEntity
  8
0
100
AcDbSpline
 62
7
  6
CONTINUOUS
 70
0
 71
3
 72
65
 73
61
 74
0
 42
0.0000001
 43
0.0000001
 44
0.0000000001
 40
0.0
 40
0.0
 40
0.0
 40
0.0
 40
0.0310480611
 40
0.0464649297
 40
0.061800731
 40
0.0922348386
 40
0.1223994853
 40
0.1373982455
 40
0.1523450299
 40
0.1672467782
 40
0.1821108888
 40
0.1969449792
 40
0.2117572313
 40
0.2265559693
 40
0.2413496102
 40
0.2561467317
 40
0.2709558122
 40
0.285785298
 40
0.3006433284
 40
0.3155375101
 40
0.3304753132
 40
0.3454636469
 40
0.3605084676
 40
0.375615484
 40
0.3907897569
 40
0.4060350815
 40
0.4213548945
 40
0.4367520193
 40
0.4522278892
 40
0.4677834893
 40
0.4834192846
 40
0.4991344067
 40
0.5149274953
 40
0.5307967742
 40
0.5467393053
 40
0.5627516644
 40
0.578830121
 40
0.6111574611
 40
0.6274047431
 40
0.643697115
 40
0.6600282616
 40
0.6763917887
 40
0.7091799725
 40
0.7255990827
 40
0.7420225216
 40
0.7584429775
 40
0.774853285
 40
0.7912463688
 40
0.8076151028
 40
0.8239526467
 40
0.8402526445
 40
0.8565088447
 40
0.8727152748
 40
0.8888661881
 40
0.9049558805
 40
0.9369254242
 40
0.952810249
 40
0.9686226856
 40
0.9843555469
 40
1.0
 40
1.0
 40
1.0
 40
1.0
 10
8.3459039102
 20
8.1861322147
 30
0.0
 10
8.3459041262
 20
8.1964910789
 30
0.0
 10
8.3466639881
 20
8.2120083044
 30
0.0
 10
8.3492082587
 20
8.2324762151
 30
0.0
 10
8.3527426608
 20
8.2525901751
 30
0.0
 10
8.3590101336
 20
8.2771850501
 30
0.0
 10
8.3677241551
 20
8.300905234
 30
0.0
 10
8.3760839301
 20
8.3191432873
 30
0.0
 10
8.383022166
 20
8.3324082659
 30
0.0
 10
8.390621056
 20
8.3452535704
 30
0.0
 10
8.398861966
 20
8.3576517874
 30
0.0
 10
8.407726768
 20
8.3695746983
 30
0.0
 10
8.4171941445
 20
8.3809966741
 30
0.0
 10
8.4272419899
 20
8.3918931864
 30
0.0
 10
8.4378488712
 20
8.4022391161
 30
0.0
 10
8.4489907164
 20
8.4120117751
 30
0.0
 10
8.4606422749
 20
8.4211900805
 30
0.0
 10
8.4727788285
 20
8.4297520643
 30
0.0
 10
8.4853735191
 20
8.4376779777
 30
0.0
 10
8.4983979717
 20
8.4449502521
 30
0.0
 10
8.5118241185
 20
8.4515502206
 30
0.0
 10
8.5256221391
 20
8.4574612376
 30
0.0
 10
8.5397605302
 20
8.4626696838
 30
0.0
 10
8.5542078533
 20
8.467160742
 30
0.0
 10
8.5689312639
 20
8.4709213832
 30
0.0
 10
8.5838963697
 20
8.4739425606
 30
0.0
 10
8.5990686223
 20
8.4762140629
 30
0.0
 10
8.6144123866
 20
8.4777271974
 30
0.0
 10
8.6298909607
 20
8.4784781505
 30
0.0
 10
8.6454673372
 20
8.4784620925
 30
0.0
 10
8.6611036975
 20
8.4776754284
 30
0.0
 10
8.6767619294
 20
8.4761200809
 30
0.0
 10
8.6924035426
 20
8.4737971765
 30
0.0
 10
8.7079895054
 20
8.4707088017
 30
0.0
 10
8.7234812179
 20
8.4668629488
 30
0.0
 10
8.7388404546
 20
8.462266703
 30
0.0
 10
8.7591224753
 20
8.4551376823
 30
0.0
 10
8.7789541061
 20
8.4465570024
 30
0.0
 10
8.7981762671
 20
8.4366000002
 30
0.0
 10
8.812298368
 20
8.428437597
 30
0.0
 10
8.8260629033
 20
8.4196136541
 30
0.0
 10
8.8438994653
 20
8.406987098
 30
0.0
 10
8.860875712
 20
8.3931303606
 30
0.0
 10
8.8768566883
 20
8.3781525321
 30
0.0
 10
8.8883295902
 20
8.3663747298
 30
0.0
 10
8.8992524505
 20
8.3540896327
 30
0.0
 10
8.9095968343
 20
8.3413264883
 30
0.0
 10
8.9193384451
 20
8.3281190411
 30
0.0
 10
8.9284533006
 20
8.3145006469
 30
0.0
 10
8.9369172826
 20
8.300504715
 30
0.0
 10
8.9447114999
 20
8.286167769
 30
0.0
 10
8.9518173506
 20
8.2715259711
 30
0.0
 10
8.9582159569
 20
8.256615802
 30
0.0
 10
8.9638944944
 20
8.2414755468
 30
0.0
 10
8.9704736511
 20
8.2210816844
 30
0.0
 10
8.9755844509
 20
8.2003290703
 30
0.0
 10
8.9791747991
 20
8.1793866797
 30
0.0
 10
8.9810957823
 20
8.1636724741
 30
0.0
 10
8.9822496322
 20
8.1479646838
 30
0.0
 10
8.9825081568
 20
8.137494193
 30
0.0
 10
8.9825082747
 20
8.1322745831
 30
0.0
  0
SPLINE
  5
2C1
100
AcDbEntity
  8
0
100
AcDbSpline
 62
7
  6
CONTINUOUS
 70
0
 71
3
 72
69
 73
65
 74
0
 42
0.0000001
 43
0.0000001
 44
0.0000000001
 40
0.0
 40
0.0
 40
0.0
 40
0.0
 40
0.0312903911
 40
0.0470006543
 40
0.0627445771
 40
0.0785223289
 40
0.0943340764
 40
0.1101786947
 40
0.126053634
 40
0.1419560655
 40
0.157883293
 40
0.1738324649
 40
0.1898005499
 40
0.2217715222
 40
0.2377758016
 40
0.253784915
 40
0.2697950952
 40
0.2858026601
 40
0.3018038922
 40
0.3177951034
 40
0.333772802
 40
0.3497335464
 40
0.3656740664
 40
0.3815913678
 40
0.3974825851
 40
0.4133451574
 40
0.4291768396
 40
0.4449755982
 40
0.4607398103
 40
0.4764681644
 40
0.4921596439
 40
0.5078136996
 40
0.5234300536
 40
0.5390088005
 40
0.5545504881
 40
0.5700558896
 40
0.5855262037
 40
0.6009629988
 40
0.6163680341
 40
0.631743502
 40
0.6470918309
 40
0.6624156163
 40
0.6777178363
 40
0.6930015641
 40
0.7082700105
 40
0.7235266729
 40
0.7387750246
 40
0.7540186258
 40
0.7692612029
 40
0.7845063491
 40
0.7997576767
 40
0.8150188128
 40
0.8302931311
 40
0.8455839876
 40
0.8608947335
 40
0.876228419
 40
0.8915878381
 40
0.906975194
 40
0.9223922944
 40
0.9378417982
 40
0.9533270585
 40
0.9688506682
 40
0.9844102238
 40
1.0
 40
1.0
 40
1.0
 40
1.0
 10
8.2059039029
 20
8.1861322782
 30
0.0
 10
8.2059040952
 20
8.1711053062
 30
0.0
 10
8.2070177133
 20
8.1485137745
 30
0.0
 10
8.2106794893
 20
8.1185967505
 30
0.0
 10
8.2145197622
 20
8.096231722
 30
0.0
 10
8.2194363778
 20
8.0740296596
 30
0.0
 10
8.2254180294
 20
8.0520401965
 30
0.0
 10
8.2324491895
 20
8.0303146148
 30
0.0
 10
8.2405105811
 20
8.0089033829
 30
0.0
 10
8.2495845223
 20
7.9878580086
 30
0.0
 10
8.2596475579
 20
7.9672278783
 30
0.0
 10
8.2706747525
 20
7.9470599015
 30
0.0
 10
8.2866329929
 20
7.9208451051
 30
0.0
 10
8.3044117794
 20
7.8957425176
 30
0.0
 10
8.3238687529
 20
7.8719489352
 30
0.0
 10
8.3392801096
 20
7.8547794511
 30
0.0
 10
8.3554661557
 20
7.8383369841
 30
0.0
 10
8.3723902091
 20
7.8226604832
 30
0.0
 10
8.3900108093
 20
7.8077853962
 30
0.0
 10
8.4082878135
 20
7.7937480656
 30
0.0
 10
8.4271785377
 20
7.780582198
 30
0.0
 10
8.4466376955
 20
7.7683175334
 30
0.0
 10
8.4666209862
 20
7.7569853455
 30
0.0
 10
8.4870812068
 20
7.7466124294
 30
0.0
 10
8.5079699598
 20
7.7372227868
 30
0.0
 10
8.5292393107
 20
7.7288417462
 30
0.0
 10
8.5508386465
 20
7.7214885823
 30
0.0
 10
8.572717194
 20
7.7151813719
 30
0.0
 10
8.5948239915
 20
7.70993853
 30
0.0
 10
8.6171062224
 20
7.7057715182
 30
0.0
 10
8.6395113572
 20
7.7026922742
 30
0.0
 10
8.6619862415
 20
7.7007112201
 30
0.0
 10
8.6844770258
 20
7.6998320669
 30
0.0
 10
8.7069299937
 20
7.7000601825
 30
0.0
 10
8.7292909659
 20
7.7013970891
 30
0.0
 10
8.7515060899
 20
7.7038389363
 30
0.0
 10
8.7735211738
 20
7.7073838913
 30
0.0
 10
8.7952824846
 20
7.7120240078
 30
0.0
 10
8.8167370847
 20
7.7177481162
 30
0.0
 10
8.8378313483
 20
7.7245463851
 30
0.0
 10
8.8585136379
 20
7.7324013592
 30
0.0
 10
8.8787327826
 20
7.741294814
 30
0.0
 10
8.8984372874
 20
7.7512080629
 30
0.0
 10
8.9175791628
 20
7.7621148426
 30
0.0
 10
8.9361099416
 20
7.7739900254
 30
0.0
 10
8.9539823367
 20
7.7868056331
 30
0.0
 10
8.9711531875
 20
7.8005278869
 30
0.0
 10
8.987577978
 20
7.815124793
 30
0.0
 10
9.0032157411
 20
7.8305596318
 30
0.0
 10
9.018028931
 20
7.8467925278
 30
0.0
 10
9.0319785016
 20
7.8637848482
 30
0.0
 10
9.0450314122
 20
7.8814925809
 30
0.0
 10
9.0571562415
 20
7.8998710045
 30
0.0
 10
9.0683212102
 20
7.9188754501
 30
0.0
 10
9.0785018275
 20
7.9384569256
 30
0.0
 10
9.0876730949
 20
7.9585671412
 30
0.0
 10
9.0958119748
 20
7.979156337
 30
0.0
 10
9.102902441
 20
8.0001718735
 30
0.0
 10
9.1089268056
 20
8.0215623751
 30
0.0
 10
9.113871531
 20
8.0432760463
 30
0.0
 10
9.1177279355
 20
8.065260994
 30
0.0
 10
9.1204852807
 20
8.0874639713
 30
0.0
 10
9.1221404927
 20
8.1098258194
 30
0.0
 10
9.1225081991
 20
8.1247876737
 30
0.0
 10
9.122508288
 20
8.132274545
 30
0.0
  0
SPLINE
  5
2C2
100
AcDbEntity
  8
0
100
AcDbSpline
 62
7
  6
CONTINUOUS
 70
0
 71
3
 72
65
 73
61
 74
0
 42
0.0000001
 43
0.0000001
 44
0.0000000001
 40
0.0
 40
0.0
 40
0.0
 40
0.0
 40
0.0310480609
 40
0.0464649293
 40
0.0618007306
 40
0.0922348384
 40
0.1223994854
 40
0.1373982457
 40
0.1523450303
 40
0.1672467788
 40
0.1821108896
 40
0.1969449801
 40
0.2117572324
 40
0.2265559705
 40
0.2413496115
 40
0.2561467331
 40
0.2709558136
 40
0.2857852993
 40
0.3006433297
 40
0.3155375112
 40
0.3304753141
 40
0.3454636475
 40
0.3605084679
 40
0.3756154841
 40
0.3907897567
 40
0.4060350812
 40
0.4213548941
 40
0.4367520191
 40
0.4522278894
 40
0.4677834902
 40
0.4834192865
 40
0.4991344099
 40
0.5149274995
 40
0.5307967793
 40
0.5467393109
 40
0.5627516699
 40
0.5788301256
 40
0.6111574632
 40
0.6274047439
 40
0.6436971146
 40
0.6600282604
 40
0.676391787
 40
0.7091799709
 40
0.7255990813
 40
0.7420225206
 40
0.7584429769
 40
0.7748532848
 40
0.7912463688
 40
0.8076151029
 40
0.8239526465
 40
0.8402526437
 40
0.8565088432
 40
0.8727152724
 40
0.8888661846
 40
0.9049558761
 40
0.9369254192
 40
0.9528102449
 40
0.9686226826
 40
0.984355545
 40
1.0
 40
1.0
 40
1.0
 40
1.0
 10
8.9825082784
 20
8.1322748058
 30
0.0
 10
8.9825080624
 20
8.1219159417
 30
0.0
 10
8.9817482006
 20
8.1063987163
 30
0.0
 10
8.97920393
 20
8.0859308057
 30
0.0
 10
8.9756695279
 20
8.0658168458
 30
0.0
 10
8.9694020552
 20
8.0412219706
 30
0.0
 10
8.9606880335
 20
8.0175017865
 30
0.0
 10
8.9523282584
 20
7.9992637331
 30
0.0
 10
8.9453900225
 20
7.9859987543
 30
0.0
 10
8.9377911323
 20
7.9731534496
 30
0.0
 10
8.9295502222
 20
7.9607552325
 30
0.0
 10
8.9206854201
 20
7.9488323215
 30
0.0
 10
8.9112180435
 20
7.9374103456
 30
0.0
 10
8.9011701979
 20
7.9265138333
 30
0.0
 10
8.8905633166
 20
7.9161679035
 30
0.0
 10
8.8794214713
 20
7.9063952446
 30
0.0
 10
8.8677699127
 20
7.8972169393
 30
0.0
 10
8.8556333591
 20
7.8886549555
 30
0.0
 10
8.8430386685
 20
7.8807290422
 30
0.0
 10
8.830014216
 20
7.873456768
 30
0.0
 10
8.8165880694
 20
7.8668567996
 30
0.0
 10
8.8027900491
 20
7.8609457827
 30
0.0
 10
8.7886516583
 20
7.8557373367
 30
0.0
 10
8.7742043353
 20
7.8512462785
 30
0.0
 10
8.759480925
 20
7.8474856374
 30
0.0
 10
8.7445158194
 20
7.84446446
 30
0.0
 10
8.7293435667
 20
7.8421929577
 30
0.0
 10
8.7139998023
 20
7.8406798231
 30
0.0
 10
8.6985212278
 20
7.83992887
 30
0.0
 10
8.6829448506
 20
7.839944928
 30
0.0
 10
8.6673084893
 20
7.8407315923
 30
0.0
 10
8.6516502563
 20
7.8422869401
 30
0.0
 10
8.6360086421
 20
7.8446098446
 30
0.0
 10
8.6204226785
 20
7.8476982199
 30
0.0
 10
8.6049309657
 20
7.8515440733
 30
0.0
 10
8.5895717292
 20
7.8561403191
 30
0.0
 10
8.5692897097
 20
7.8632693394
 30
0.0
 10
8.5494580805
 20
7.8718500192
 30
0.0
 10
8.530235921
 20
7.8818070206
 30
0.0
 10
8.5161138209
 20
7.8899694232
 30
0.0
 10
8.5023492864
 20
7.8987933657
 30
0.0
 10
8.4845127247
 20
7.9114199216
 30
0.0
 10
8.467536478
 20
7.9252766587
 30
0.0
 10
8.4515555015
 20
7.9402544874
 30
0.0
 10
8.4400825993
 20
7.9520322899
 30
0.0
 10
8.4291597387
 20
7.9643173872
 30
0.0
 10
8.4188153546
 20
7.9770805319
 30
0.0
 10
8.4090737437
 20
7.9902879792
 30
0.0
 10
8.3999588882
 20
8.0039063734
 30
0.0
 10
8.3914949063
 20
8.0179023051
 30
0.0
 10
8.3837006892
 20
8.0322392505
 30
0.0
 10
8.3765948388
 20
8.0468810478
 30
0.0
 10
8.3701962328
 20
8.061791216
 30
0.0
 10
8.3645176953
 20
8.0769314701
 30
0.0
 10
8.3579385388
 20
8.0973253317
 30
0.0
 10
8.3528277386
 20
8.1180779455
 30
0.0
 10
8.3492373902
 20
8.1390203365
 30
0.0
 10
8.3473164069
 20
8.1547345432
 30
0.0
 10
8.3461625566
 20
8.1704423348
 30
0.0
 10
8.3459040319
 20
8.1809128266
 30
0.0
 10
8.3459039139
 20
8.1861324371
 30
0.0
  0
SPLINE
  5
2C3
100
AcDbEntity
  8
0
100
AcDbSpline
 62
7
  6
CONTINUOUS
 70
0
 71
3
 72
69
 73
65
 74
0
 42
0.0000001
 43
0.0000001
 44
0.0000000001
 40
0.0
 40
0.0
 40
0.0
 40
0.0
 40
0.0312903904
 40
0.0470006528
 40
0.0627445756
 40
0.0785223279
 40
0.0943340764
 40
0.110178696
 40
0.1260536366
 40
0.1419560695
 40
0.1578832983
 40
0.1738324715
 40
0.1898005575
 40
0.2217715317
 40
0.2377758121
 40
0.2537849262
 40
0.2697951068
 40
0.2858026717
 40
0.3018039038
 40
0.3177951149
 40
0.3337728137
 40
0.3497335585
 40
0.3656740791
 40
0.3815913812
 40
0.3974825997
 40
0.4133451737
 40
0.4291768584
 40
0.4449756206
 40
0.4607398374
 40
0.4764681958
 40
0.4921596776
 40
0.5078137322
 40
0.5234300822
 40
0.5390088225
 40
0.5545505019
 40
0.5700558957
 40
0.585526204
 40
0.6009629954
 40
0.616368028
 40
0.6317434933
 40
0.6470918197
 40
0.6624156028
 40
0.6777178217
 40
0.6930015504
 40
0.7082700017
 40
0.7235266723
 40
0.7387750315
 40
0.7540186351
 40
0.7692612099
 40
0.784506353
 40
0.7997576804
 40
0.8150188192
 40
0.8302931417
 40
0.8455840027
 40
0.860894753
 40
0.8762284425
 40
0.8915878651
 40
0.9069752245
 40
0.9223923275
 40
0.9378418307
 40
0.9533270851
 40
0.9688506846
 40
0.9844102313
 40
1.0
 40
1.0
 40
1.0
 40
1.0
 10
10.4535544038
 20
8.0399663807
 30
0.0
 10
10.4535542116
 20
8.0549933523
 30
0.0
 10
10.4524405937
 20
8.0775848833
 30
0.0
 10
10.4487788175
 20
8.1075019066
 30
0.0
 10
10.4449385447
 20
8.129866935
 30
0.0
 10
10.4400219292
 20
8.1520689982
 30
0.0
 10
10.4340402772
 20
8.1740584626
 30
0.0
 10
10.4270091164
 20
8.1957840459
 30
0.0
 10
10.418947724
 20
8.2171952795
 30
0.0
 10
10.409873782
 20
8.2382406556
 30
0.0
 10
10.399810745
 20
8.2588707874
 30
0.0
 10
10.3887835494
 20
8.2790387657
 30
0.0
 10
10.3728253074
 20
8.3052535635
 30
0.0
 10
10.3550465191
 20
8.330356152
 30
0.0
 10
10.335589544
 20
8.3541497353
 30
0.0
 10
10.3201781856
 20
8.3713192191
 30
0.0
 10
10.3039921391
 20
8.3877616866
 30
0.0
 10
10.2870680849
 20
8.4034381869
 30
0.0
 10
10.2694474838
 20
8.4183132729
 30
0.0
 10
10.2511704796
 20
8.4323506035
 30
0.0
 10
10.2322797545
 20
8.4455164703
 30
0.0
 10
10.2128205956
 20
8.4577811343
 30
0.0
 10
10.1928373042
 20
8.4691133225
 30
0.0
 10
10.1723770817
 20
8.4794862377
 30
0.0
 10
10.1514883267
 20
8.4888758801
 30
0.0
 10
10.1302189733
 20
8.4972569215
 30
0.0
 10
10.1086196332
 20
8.5046100844
 30
0.0
 10
10.0867410806
 20
8.5109172955
 30
0.0
 10
10.0646342767
 20
8.5161601371
 30
0.0
 10
10.0423520398
 20
8.5203271461
 30
0.0
 10
10.0199469024
 20
8.5234063908
 30
0.0
 10
9.9974720192
 20
8.5253874423
 30
0.0
 10
9.9749812403
 20
8.5262665911
 30
0.0
 10
9.9525282814
 20
8.526038476
 30
0.0
 10
9.93016732
 20
8.5247015688
 30
0.0
 10
9.9079522066
 20
8.5222597208
 30
0.0
 10
9.885937131
 20
8.5187147668
 30
0.0
 10
9.8641758258
 20
8.5140746518
 30
0.0
 10
9.8427212298
 20
8.5083505448
 30
0.0
 10
9.8216269697
 20
8.5015522774
 30
0.0
 10
9.8009446829
 20
8.4936973058
 30
0.0
 10
9.7807255407
 20
8.4848038522
 30
0.0
 10
9.7610210363
 20
8.4748906051
 30
0.0
 10
9.7418791579
 20
8.4639838261
 30
0.0
 10
9.723348374
 20
8.4521086387
 30
0.0
 10
9.7054759716
 20
8.4392930244
 30
0.0
 10
9.6883051136
 20
8.4255707656
 30
0.0
 10
9.671880319
 20
8.4109738586
 30
0.0
 10
9.6562425574
 20
8.3955390203
 30
0.0
 10
9.6414293706
 20
8.379306125
 30
0.0
 10
9.6274798009
 20
8.3623138042
 30
0.0
 10
9.614426889
 20
8.3446060685
 30
0.0
 10
9.6023020563
 20
8.3262276405
 30
0.0
 10
9.5911370853
 20
8.3072231889
 30
0.0
 10
9.5809564675
 20
8.2876417067
 30
0.0
 10
9.5717851973
 20
8.267531486
 30
0.0
 10
9.5636463179
 20
8.2469422843
 30
0.0
 10
9.5565558539
 20
8.2259267423
 30
0.0
 10
9.5505314889
 20
8.2045362381
 30
0.0
 10
9.5455867676
 20
8.1828225678
 30
0.0
 10
9.5417303666
 20
8.1608376277
 30
0.0
 10
9.5389730211
 20
8.1386346625
 30
0.0
 10
9.5373178125
 20
8.1162728269
 30
0.0
 10
9.5369501075
 20
8.1013109804
 30
0.0
 10
9.5369500187
 20
8.0938241128
 30
0.0
  0
SPLINE
  5
2C4
100
AcDbEntity
  8
0
100
AcDbSpline
 62
7
  6
CONTINUOUS
 70
0
 71
3
 72
65
 73
61
 74
0
 42
0.0000001
 43
0.0000001
 44
0.0000000001
 40
0.0
 40
0.0
 40
0.0
 40
0.0
 40
0.0310480611
 40
0.0464649297
 40
0.061800731
 40
0.0922348386
 40
0.1223994853
 40
0.1373982455
 40
0.1523450299
 40
0.1672467782
 40
0.1821108888
 40
0.1969449792
 40
0.2117572313
 40
0.2265559693
 40
0.2413496102
 40
0.2561467317
 40
0.2709558122
 40
0.285785298
 40
0.3006433284
 40
0.3155375101
 40
0.3304753132
 40
0.3454636469
 40
0.3605084676
 40
0.375615484
 40
0.3907897569
 40
0.4060350815
 40
0.4213548945
 40
0.4367520193
 40
0.4522278892
 40
0.4677834893
 40
0.4834192846
 40
0.4991344067
 40
0.5149274953
 40
0.5307967742
 40
0.5467393053
 40
0.5627516644
 40
0.578830121
 40
0.6111574611
 40
0.6274047431
 40
0.643697115
 40
0.6600282616
 40
0.6763917887
 40
0.7091799725
 40
0.7255990827
 40
0.7420225216
 40
0.7584429775
 40
0.774853285
 40
0.7912463688
 40
0.8076151028
 40
0.8239526467
 40
0.8402526445
 40
0.8565088447
 40
0.8727152748
 40
0.8888661881
 40
0.9049558805
 40
0.9369254242
 40
0.952810249
 40
0.9686226856
 40
0.9843555469
 40
1.0
 40
1.0
 40
1.0
 40
1.0
 10
9.6769500283
 20
8.0938238529
 30
0.0
 10
9.6769502443
 20
8.1041827171
 30
0.0
 10
9.6777101062
 20
8.1196999426
 30
0.0
 10
9.6802543767
 20
8.1401678533
 30
0.0
 10
9.6837887788
 20
8.1602818133
 30
0.0
 10
9.6900562516
 20
8.1848766883
 30
0.0
 10
9.6987702732
 20
8.2085968722
 30
0.0
 10
9.7071300482
 20
8.2268349255
 30
0.0
 10
9.714068284
 20
8.2400999041
 30
0.0
 10
9.7216671741
 20
8.2529452086
 30
0.0
 10
9.729908084
 20
8.2653434256
 30
0.0
 10
9.738772886
 20
8.2772663365
 30
0.0
 10
9.7482402625
 20
8.2886883123
 30
0.0
 10
9.758288108
 20
8.2995848245
 30
0.0
 10
9.7688949892
 20
8.3099307543
 30
0.0
 10
9.7800368344
 20
8.3197034133
 30
0.0
 10
9.7916883929
 20
8.3288817187
 30
0.0
 10
9.8038249466
 20
8.3374437025
 30
0.0
 10
9.8164196372
 20
8.3453696159
 30
0.0
 10
9.8294440898
 20
8.3526418902
 30
0.0
 10
9.8428702366
 20
8.3592418588
 30
0.0
 10
9.8566682572
 20
8.3651528758
 30
0.0
 10
9.8708066482
 20
8.370361322
 30
0.0
 10
9.8852539714
 20
8.3748523802
 30
0.0
 10
9.899977382
 20
8.3786130213
 30
0.0
 10
9.9149424877
 20
8.3816341988
 30
0.0
 10
9.9301147404
 20
8.3839057011
 30
0.0
 10
9.9454585047
 20
8.3854188356
 30
0.0
 10
9.9609370787
 20
8.3861697887
 30
0.0
 10
9.9765134552
 20
8.3861537307
 30
0.0
 10
9.9921498155
 20
8.3853670666
 30
0.0
 10
10.0078080475
 20
8.3838117191
 30
0.0
 10
10.0234496607
 20
8.3814888147
 30
0.0
 10
10.0390356235
 20
8.3784004399
 30
0.0
 10
10.054527336
 20
8.374554587
 30
0.0
 10
10.0698865727
 20
8.3699583411
 30
0.0
 10
10.0901685933
 20
8.3628293205
 30
0.0
 10
10.1100002241
 20
8.3542486406
 30
0.0
 10
10.1292223851
 20
8.3442916383
 30
0.0
 10
10.1433444861
 20
8.3361292352
 30
0.0
 10
10.1571090214
 20
8.3273052923
 30
0.0
 10
10.1749455834
 20
8.3146787362
 30
0.0
 10
10.19192183
 20
8.3008219988
 30
0.0
 10
10.2079028064
 20
8.2858441703
 30
0.0
 10
10.2193757082
 20
8.274066368
 30
0.0
 10
10.2302985685
 20
8.2617812709
 30
0.0
 10
10.2406429524
 20
8.2490181265
 30
0.0
 10
10.2503845631
 20
8.2358106793
 30
0.0
 10
10.2594994186
 20
8.2221922851
 30
0.0
 10
10.2679634006
 20
8.2081963532
 30
0.0
 10
10.275757618
 20
8.1938594072
 30
0.0
 10
10.2828634687
 20
8.1792176093
 30
0.0
 10
10.2892620749
 20
8.1643074402
 30
0.0
 10
10.2949406125
 20
8.149167185
 30
0.0
 10
10.3015197692
 20
8.1287733226
 30
0.0
 10
10.3066305689
 20
8.1080207085
 30
0.0
 10
10.3102209171
 20
8.0870783179
 30
0.0
 10
10.3121419004
 20
8.0713641123
 30
0.0
 10
10.3132957502
 20
8.055656322
 30
0.0
 10
10.3135542749
 20
8.0451858312
 30
0.0
 10
10.3135543928
 20
8.0399662213
 30
0.0
  0
SPLINE
  5
2C5
100
AcDbEntity
  8
0
100
AcDbSpline
 62
7
  6
CONTINUOUS
 70
0
 71
3
 72
69
 73
65
 74
0
 42
0.0000001
 43
0.0000001
 44
0.0000000001
 40
0.0
 40
0.0
 40
0.0
 40
0.0
 40
0.0312903911
 40
0.0470006543
 40
0.0627445771
 40
0.0785223289
 40
0.0943340764
 40
0.1101786947
 40
0.126053634
 40
0.1419560655
 40
0.157883293
 40
0.1738324649
 40
0.1898005499
 40
0.2217715222
 40
0.2377758016
 40
0.253784915
 40
0.2697950952
 40
0.2858026601
 40
0.3018038922
 40
0.3177951034
 40
0.333772802
 40
0.3497335464
 40
0.3656740664
 40
0.3815913678
 40
0.3974825851
 40
0.4133451574
 40
0.4291768396
 40
0.4449755982
 40
0.4607398103
 40
0.4764681644
 40
0.4921596439
 40
0.5078136996
 40
0.5234300536
 40
0.5390088005
 40
0.5545504881
 40
0.5700558896
 40
0.5855262037
 40
0.6009629988
 40
0.6163680341
 40
0.631743502
 40
0.6470918309
 40
0.6624156163
 40
0.6777178363
 40
0.6930015641
 40
0.7082700105
 40
0.7235266729
 40
0.7387750246
 40
0.7540186258
 40
0.7692612029
 40
0.7845063491
 40
0.7997576767
 40
0.8150188128
 40
0.8302931311
 40
0.8455839876
 40
0.8608947335
 40
0.876228419
 40
0.8915878381
 40
0.906975194
 40
0.9223922944
 40
0.9378417982
 40
0.9533270585
 40
0.9688506682
 40
0.9844102238
 40
1.0
 40
1.0
 40
1.0
 40
1.0
 10
9.5369500209
 20
8.0938239163
 30
0.0
 10
9.5369502132
 20
8.0787969444
 30
0.0
 10
9.5380638314
 20
8.0562054127
 30
0.0
 10
9.5417256074
 20
8.0262883887
 30
0.0
 10
9.5455658803
 20
8.0039233602
 30
0.0
 10
9.5504824959
 20
7.9817212978
 30
0.0
 10
9.5564641474
 20
7.9597318347
 30
0.0
 10
9.5634953076
 20
7.938006253
 30
0.0
 10
9.5715566992
 20
7.9165950211
 30
0.0
 10
9.5806306403
 20
7.8955496468
 30
0.0
 10
9.590693676
 20
7.8749195165
 30
0.0
 10
9.6017208705
 20
7.8547515397
 30
0.0
 10
9.617679111
 20
7.8285367433
 30
0.0
 10
9.6354578974
 20
7.8034341558
 30
0.0
 10
9.654914871
 20
7.7796405734
 30
0.0
 10
9.6703262277
 20
7.7624710893
 30
0.0
 10
9.6865122737
 20
7.7460286223
 30
0.0
 10
9.7034363271
 20
7.7303521214
 30
0.0
 10
9.7210569274
 20
7.7154770344
 30
0.0
 10
9.7393339315
 20
7.7014397038
 30
0.0
 10
9.7582246557
 20
7.6882738362
 30
0.0
 10
9.7776838136
 20
7.6760091715
 30
0.0
 10
9.7976671042
 20
7.6646769837
 30
0.0
 10
9.8181273249
 20
7.6543040676
 30
0.0
 10
9.8390160778
 20
7.644914425
 30
0.0
 10
9.8602854288
 20
7.6365333844
 30
0.0
 10
9.8818847646
 20
7.6291802205
 30
0.0
 10
9.9037633121
 20
7.6228730101
 30
0.0
 10
9.9258701095
 20
7.6176301682
 30
0.0
 10
9.9481523404
 20
7.6134631564
 30
0.0
 10
9.9705574752
 20
7.6103839124
 30
0.0
 10
9.9930323595
 20
7.6084028582
 30
0.0
 10
10.0155231439
 20
7.6075237051
 30
0.0
 10
10.0379761118
 20
7.6077518207
 30
0.0
 10
10.060337084
 20
7.6090887272
 30
0.0
 10
10.082552208
 20
7.6115305745
 30
0.0
 10
10.1045672919
 20
7.6150755295
 30
0.0
 10
10.1263286027
 20
7.619715646
 30
0.0
 10
10.1477832027
 20
7.6254397544
 30
0.0
 10
10.1688774663
 20
7.6322380233
 30
0.0
 10
10.1895597559
 20
7.6400929974
 30
0.0
 10
10.2097789006
 20
7.6489864522
 30
0.0
 10
10.2294834055
 20
7.6588997011
 30
0.0
 10
10.2486252809
 20
7.6698064808
 30
0.0
 10
10.2671560596
 20
7.6816816636
 30
0.0
 10
10.2850284547
 20
7.6944972713
 30
0.0
 10
10.3021993055
 20
7.7082195251
 30
0.0
 10
10.318624096
 20
7.7228164312
 30
0.0
 10
10.3342618591
 20
7.73825127
 30
0.0
 10
10.3490750491
 20
7.754484166
 30
0.0
 10
10.3630246196
 20
7.7714764864
 30
0.0
 10
10.3760775303
 20
7.7891842191
 30
0.0
 10
10.3882023596
 20
7.8075626427
 30
0.0
 10
10.3993673283
 20
7.8265670883
 30
0.0
 10
10.4095479455
 20
7.8461485638
 30
0.0
 10
10.418719213
 20
7.8662587794
 30
0.0
 10
10.4268580929
 20
7.8868479752
 30
0.0
 10
10.433948559
 20
7.9078635117
 30
0.0
 10
10.4399729236
 20
7.9292540133
 30
0.0
 10
10.444917649
 20
7.9509676845
 30
0.0
 10
10.4487740535
 20
7.9729526322
 30
0.0
 10
10.4515313987
 20
7.9951556095
 30
0.0
 10
10.4531866108
 20
8.0175174576
 30
0.0
 10
10.4535543172
 20
8.0324793119
 30
0.0
 10
10.453554406
 20
8.0399661832
 30
0.0
  0
SPLINE
  5
2C6
100
AcDbEntity
  8
0
100
AcDbSpline
 62
7
  6
CONTINUOUS
 70
0
 71
3
 72
65
 73
61
 74
0
 42
0.0000001
 43
0.0000001
 44
0.0000000001
 40
0.0
 40
0.0
 40
0.0
 40
0.0
 40
0.0310480609
 40
0.0464649293
 40
0.0618007306
 40
0.0922348384
 40
0.1223994854
 40
0.1373982457
 40
0.1523450303
 40
0.1672467788
 40
0.1821108896
 40
0.1969449801
 40
0.2117572324
 40
0.2265559705
 40
0.2413496115
 40
0.2561467331
 40
0.2709558136
 40
0.2857852993
 40
0.3006433297
 40
0.3155375112
 40
0.3304753141
 40
0.3454636475
 40
0.3605084679
 40
0.3756154841
 40
0.3907897567
 40
0.4060350812
 40
0.4213548941
 40
0.4367520191
 40
0.4522278894
 40
0.4677834902
 40
0.4834192865
 40
0.4991344099
 40
0.5149274995
 40
0.5307967793
 40
0.5467393109
 40
0.5627516699
 40
0.5788301256
 40
0.6111574632
 40
0.6274047439
 40
0.6436971146
 40
0.6600282604
 40
0.676391787
 40
0.7091799709
 40
0.7255990813
 40
0.7420225206
 40
0.7584429769
 40
0.7748532848
 40
0.7912463688
 40
0.8076151029
 40
0.8239526465
 40
0.8402526437
 40
0.8565088432
 40
0.8727152724
 40
0.8888661846
 40
0.9049558761
 40
0.9369254192
 40
0.9528102449
 40
0.9686226826
 40
0.984355545
 40
1.0
 40
1.0
 40
1.0
 40
1.0
 10
10.3135543965
 20
8.039966444
 30
0.0
 10
10.3135541805
 20
8.0296075799
 30
0.0
 10
10.3127943186
 20
8.0140903545
 30
0.0
 10
10.3102500481
 20
7.9936224439
 30
0.0
 10
10.3067156459
 20
7.9735084839
 30
0.0
 10
10.3004481732
 20
7.9489136088
 30
0.0
 10
10.2917341516
 20
7.9251934247
 30
0.0
 10
10.2833743765
 20
7.9069553712
 30
0.0
 10
10.2764361405
 20
7.8936903925
 30
0.0
 10
10.2688372504
 20
7.8808450878
 30
0.0
 10
10.2605963403
 20
7.8684468707
 30
0.0
 10
10.2517315382
 20
7.8565239597
 30
0.0
 10
10.2422641615
 20
7.8451019838
 30
0.0
 10
10.232216316
 20
7.8342054715
 30
0.0
 10
10.2216094346
 20
7.8238595417
 30
0.0
 10
10.2104675893
 20
7.8140868828
 30
0.0
 10
10.1988160308
 20
7.8049085774
 30
0.0
 10
10.1866794771
 20
7.7963465936
 30
0.0
 10
10.1740847865
 20
7.7884206804
 30
0.0
 10
10.1610603341
 20
7.7811484062
 30
0.0
 10
10.1476341875
 20
7.7745484378
 30
0.0
 10
10.1338361671
 20
7.7686374209
 30
0.0
 10
10.1196977763
 20
7.7634289749
 30
0.0
 10
10.1052504534
 20
7.7589379167
 30
0.0
 10
10.090527043
 20
7.7551772756
 30
0.0
 10
10.0755619374
 20
7.7521560981
 30
0.0
 10
10.0603896848
 20
7.7498845959
 30
0.0
 10
10.0450459203
 20
7.7483714613
 30
0.0
 10
10.0295673458
 20
7.7476205082
 30
0.0
 10
10.0139909687
 20
7.7476365662
 30
0.0
 10
9.9983546074
 20
7.7484232305
 30
0.0
 10
9.9826963744
 20
7.7499785783
 30
0.0
 10
9.9670547601
 20
7.7523014828
 30
0.0
 10
9.9514687965
 20
7.755389858
 30
0.0
 10
9.9359770838
 20
7.7592357115
 30
0.0
 10
9.9206178473
 20
7.7638319573
 30
0.0
 10
9.9003358277
 20
7.7709609776
 30
0.0
 10
9.8805041986
 20
7.7795416574
 30
0.0
 10
9.861282039
 20
7.7894986588
 30
0.0
 10
9.847159939
 20
7.7976610614
 30
0.0
 10
9.8333954044
 20
7.8064850039
 30
0.0
 10
9.8155588428
 20
7.8191115598
 30
0.0
 10
9.798582596
 20
7.8329682969
 30
0.0
 10
9.7826016195
 20
7.8479461256
 30
0.0
 10
9.7711287173
 20
7.8597239281
 30
0.0
 10
9.7602058568
 20
7.8720090254
 30
0.0
 10
9.7498614727
 20
7.8847721701
 30
0.0
 10
9.7401198618
 20
7.8979796174
 30
0.0
 10
9.7310050063
 20
7.9115980116
 30
0.0
 10
9.7225410244
 20
7.9255939433
 30
0.0
 10
9.7147468072
 20
7.9399308887
 30
0.0
 10
9.7076409569
 20
7.954572686
 30
0.0
 10
9.7012423509
 20
7.9694828542
 30
0.0
 10
9.6955638134
 20
7.9846231083
 30
0.0
 10
9.6889846568
 20
8.0050169699
 30
0.0
 10
9.6838738567
 20
8.0257695837
 30
0.0
 10
9.6802835083
 20
8.0467119747
 30
0.0
 10
9.678362525
 20
8.0624261813
 30
0.0
 10
9.6772086747
 20
8.078133973
 30
0.0
 10
9.6769501499
 20
8.0886044648
 30
0.0
 10
9.676950032
 20
8.0938240753
 30
0.0
  0
SPLINE
  5
2C7
100
AcDbEntity
  8
0
100
AcDbSpline
 62
7
  6
CONTINUOUS
 70
0
 71
3
 72
69
 73
65
 74
0
 42
0.0000001
 43
0.0000001
 44
0.0000000001
 40
0.0
 40
0.0
 40
0.0
 40
0.0
 40
0.0312903904
 40
0.0470006528
 40
0.0627445756
 40
0.0785223279
 40
0.0943340764
 40
0.110178696
 40
0.1260536366
 40
0.1419560695
 40
0.1578832983
 40
0.1738324715
 40
0.1898005575
 40
0.2217715317
 40
0.2377758121
 40
0.2537849262
 40
0.2697951068
 40
0.2858026717
 40
0.3018039038
 40
0.3177951149
 40
0.3337728137
 40
0.3497335585
 40
0.3656740791
 40
0.3815913812
 40
0.3974825997
 40
0.4133451737
 40
0.4291768584
 40
0.4449756206
 40
0.4607398374
 40
0.4764681958
 40
0.4921596776
 40
0.5078137322
 40
0.5234300822
 40
0.5390088225
 40
0.5545505019
 40
0.5700558957
 40
0.585526204
 40
0.6009629954
 40
0.616368028
 40
0.6317434933
 40
0.6470918197
 40
0.6624156028
 40
0.6777178217
 40
0.6930015504
 40
0.7082700017
 40
0.7235266723
 40
0.7387750315
 40
0.7540186351
 40
0.7692612099
 40
0.784506353
 40
0.7997576804
 40
0.8150188192
 40
0.8302931417
 40
0.8455840027
 40
0.860894753
 40
0.8762284425
 40
0.8915878651
 40
0.9069752245
 40
0.9223923275
 40
0.9378418307
 40
0.9533270851
 40
0.9688506846
 40
0.9844102313
 40
1.0
 40
1.0
 40
1.0
 40
1.0
 10
9.7851337772
 20
8.8764489568
 30
0.0
 10
9.7851335849
 20
8.8914759285
 30
0.0
 10
9.784019967
 20
8.9140674595
 30
0.0
 10
9.7803581909
 20
8.9439844827
 30
0.0
 10
9.7765179181
 20
8.9663495111
 30
0.0
 10
9.7716013025
 20
8.9885515743
 30
0.0
 10
9.7656196506
 20
9.0105410387
 30
0.0
 10
9.7585884897
 20
9.032266622
 30
0.0
 10
9.7505270974
 20
9.0536778556
 30
0.0
 10
9.7414531554
 20
9.0747232318
 30
0.0
 10
9.7313901183
 20
9.0953533636
 30
0.0
 10
9.7203629227
 20
9.1155213418
 30
0.0
 10
9.7044046808
 20
9.1417361397
 30
0.0
 10
9.6866258925
 20
9.1668387282
 30
0.0
 10
9.6671689173
 20
9.1906323115
 30
0.0
 10
9.6517575589
 20
9.2078017953
 30
0.0
 10
9.6355715125
 20
9.2242442627
 30
0.0
 10
9.6186474583
 20
9.2399207631
 30
0.0
 10
9.6010268572
 20
9.2547958491
 30
0.0
 10
9.582749853
 20
9.2688331797
 30
0.0
 10
9.5638591278
 20
9.2819990465
 30
0.0
 10
9.5443999689
 20
9.2942637104
 30
0.0
 10
9.5244166775
 20
9.3055958987
 30
0.0
 10
9.503956455
 20
9.3159688139
 30
0.0
 10
9.4830677001
 20
9.3253584563
 30
0.0
 10
9.4617983467
 20
9.3337394976
 30
0.0
 10
9.4401990066
 20
9.3410926605
 30
0.0
 10
9.4183204539
 20
9.3473998716
 30
0.0
 10
9.3962136501
 20
9.3526427132
 30
0.0
 10
9.3739314131
 20
9.3568097222
 30
0.0
 10
9.3515262758
 20
9.359888967
 30
0.0
 10
9.3290513925
 20
9.3618700184
 30
0.0
 10
9.3065606136
 20
9.3627491673
 30
0.0
 10
9.2841076547
 20
9.3625210521
 30
0.0
 10
9.2617466934
 20
9.3611841449
 30
0.0
 10
9.2395315799
 20
9.358742297
 30
0.0
 10
9.2175165043
 20
9.355197343
 30
0.0
 10
9.1957551992
 20
9.350557228
 30
0.0
 10
9.1743006032
 20
9.344833121
 30
0.0
 10
9.1532063431
 20
9.3380348536
 30
0.0
 10
9.1325240563
 20
9.330179882
 30
0.0
 10
9.1123049141
 20
9.3212864283
 30
0.0
 10
9.0926004097
 20
9.3113731813
 30
0.0
 10
9.0734585312
 20
9.3004664022
 30
0.0
 10
9.0549277474
 20
9.2885912149
 30
0.0
 10
9.0370553449
 20
9.2757756006
 30
0.0
 10
9.019884487
 20
9.2620533418
 30
0.0
 10
9.0034596924
 20
9.2474564348
 30
0.0
 10
8.9878219308
 20
9.2320215964
 30
0.0
 10
8.9730087439
 20
9.2157887012
 30
0.0
 10
8.9590591743
 20
9.1987963804
 30
0.0
 10
8.9460062624
 20
9.1810886447
 30
0.0
 10
8.9338814297
 20
9.1627102167
 30
0.0
 10
8.9227164586
 20
9.1437057651
 30
0.0
 10
8.9125358408
 20
9.1241242828
 30
0.0
 10
8.9033645706
 20
9.1040140622
 30
0.0
 10
8.8952256912
 20
9.0834248605
 30
0.0
 10
8.8881352273
 20
9.0624093184
 30
0.0
 10
8.8821108622
 20
9.0410188142
 30
0.0
 10
8.8771661409
 20
9.0193051439
 30
0.0
 10
8.8733097399
 20
8.9973202038
 30
0.0
 10
8.8705523944
 20
8.9751172386
 30
0.0
 10
8.8688971859
 20
8.952755403
 30
0.0
 10
8.8685294808
 20
8.9377935566
 30
0.0
 10
8.8685293921
 20
8.9303066889
 30
0.0
  0
SPLINE
  5
2C8
100
AcDbEntity
  8
0
100
AcDbSpline
 62
7
  6
CONTINUOUS
 70
0
 71
3
 72
65
 73
61
 74
0
 42
0.0000001
 43
0.0000001
 44
0.0000000001
 40
0.0
 40
0.0
 40
0.0
 40
0.0
 40
0.0310480611
 40
0.0464649297
 40
0.061800731
 40
0.0922348386
 40
0.1223994853
 40
0.1373982455
 40
0.1523450299
 40
0.1672467782
 40
0.1821108888
 40
0.1969449792
 40
0.2117572313
 40
0.2265559693
 40
0.2413496102
 40
0.2561467317
 40
0.2709558122
 40
0.285785298
 40
0.3006433284
 40
0.3155375101
 40
0.3304753132
 40
0.3454636469
 40
0.3605084676
 40
0.375615484
 40
0.3907897569
 40
0.4060350815
 40
0.4213548945
 40
0.4367520193
 40
0.4522278892
 40
0.4677834893
 40
0.4834192846
 40
0.4991344067
 40
0.5149274953
 40
0.5307967742
 40
0.5467393053
 40
0.5627516644
 40
0.578830121
 40
0.6111574611
 40
0.6274047431
 40
0.643697115
 40
0.6600282616
 40
0.6763917887
 40
0.7091799725
 40
0.7255990827
 40
0.7420225216
 40
0.7584429775
 40
0.774853285
 40
0.7912463688
 40
0.8076151028
 40
0.8239526467
 40
0.8402526445
 40
0.8565088447
 40
0.8727152748
 40
0.8888661881
 40
0.9049558805
 40
0.9369254242
 40
0.952810249
 40
0.9686226856
 40
0.9843555469
 40
1.0
 40
1.0
 40
1.0
 40
1.0
 10
9.0085294017
 20
8.9303064291
 30
0.0
 10
9.0085296176
 20
8.9406652932
 30
0.0
 10
9.0092894795
 20
8.9561825187
 30
0.0
 10
9.0118337501
 20
8.9766504295
 30
0.0
 10
9.0153681522
 20
8.9967643895
 30
0.0
 10
9.021635625
 20
9.0213592644
 30
0.0
 10
9.0303496465
 20
9.0450794484
 30
0.0
 10
9.0387094215
 20
9.0633175016
 30
0.0
 10
9.0456476574
 20
9.0765824802
 30
0.0
 10
9.0532465474
 20
9.0894277848
 30
0.0
 10
9.0614874574
 20
9.1018260018
 30
0.0
 10
9.0703522594
 20
9.1137489127
 30
0.0
 10
9.0798196359
 20
9.1251708885
 30
0.0
 10
9.0898674813
 20
9.1360674007
 30
0.0
 10
9.1004743626
 20
9.1464133305
 30
0.0
 10
9.1116162078
 20
9.1561859895
 30
0.0
 10
9.1232677663
 20
9.1653642949
 30
0.0
 10
9.1354043199
 20
9.1739262787
 30
0.0
 10
9.1479990106
 20
9.1818521921
 30
0.0
 10
9.1610234631
 20
9.1891244664
 30
0.0
 10
9.1744496099
 20
9.195724435
 30
0.0
 10
9.1882476305
 20
9.201635452
 30
0.0
 10
9.2023860216
 20
9.2068438981
 30
0.0
 10
9.2168333448
 20
9.2113349564
 30
0.0
 10
9.2315567553
 20
9.2150955975
 30
0.0
 10
9.2465218611
 20
9.218116775
 30
0.0
 10
9.2616941137
 20
9.2203882773
 30
0.0
 10
9.277037878
 20
9.2219014118
 30
0.0
 10
9.2925164521
 20
9.2226523648
 30
0.0
 10
9.3080928286
 20
9.2226363068
 30
0.0
 10
9.3237291889
 20
9.2218496428
 30
0.0
 10
9.3393874208
 20
9.2202942953
 30
0.0
 10
9.355029034
 20
9.2179713909
 30
0.0
 10
9.3706149969
 20
9.214883016
 30
0.0
 10
9.3861067093
 20
9.2110371631
 30
0.0
 10
9.401465946
 20
9.2064409173
 30
0.0
 10
9.4217479667
 20
9.1993118967
 30
0.0
 10
9.4415795975
 20
9.1907312167
 30
0.0
 10
9.4608017585
 20
9.1807742145
 30
0.0
 10
9.4749238594
 20
9.1726118114
 30
0.0
 10
9.4886883947
 20
9.1637878685
 30
0.0
 10
9.5065249567
 20
9.1511613123
 30
0.0
 10
9.5235012034
 20
9.137304575
 30
0.0
 10
9.5394821797
 20
9.1223267465
 30
0.0
 10
9.5509550816
 20
9.1105489441
 30
0.0
 10
9.5618779419
 20
9.098263847
 30
0.0
 10
9.5722223257
 20
9.0855007027
 30
0.0
 10
9.5819639365
 20
9.0722932555
 30
0.0
 10
9.591078792
 20
9.0586748613
 30
0.0
 10
9.599542774
 20
9.0446789293
 30
0.0
 10
9.6073369913
 20
9.0303419834
 30
0.0
 10
9.614442842
 20
9.0157001854
 30
0.0
 10
9.6208414483
 20
9.0007900163
 30
0.0
 10
9.6265199858
 20
8.9856497611
 30
0.0
 10
9.6330991425
 20
8.9652558988
 30
0.0
 10
9.6382099423
 20
8.9445032847
 30
0.0
 10
9.6418002905
 20
8.9235608941
 30
0.0
 10
9.6437212737
 20
8.9078466884
 30
0.0
 10
9.6448751236
 20
8.8921388981
 30
0.0
 10
9.6451336482
 20
8.8816684073
 30
0.0
 10
9.6451337661
 20
8.8764487975
 30
0.0
  0
SPLINE
  5
2C9
100
AcDbEntity
  8
0
100
AcDbSpline
 62
7
  6
CONTINUOUS
 70
0
 71
3
 72
69
 73
65
 74
0
 42
0.0000001
 43
0.0000001
 44
0.0000000001
 40
0.0
 40
0.0
 40
0.0
 40
0.0
 40
0.0312903911
 40
0.0470006543
 40
0.0627445771
 40
0.0785223289
 40
0.0943340764
 40
0.1101786947
 40
0.126053634
 40
0.1419560655
 40
0.157883293
 40
0.1738324649
 40
0.1898005499
 40
0.2217715222
 40
0.2377758016
 40
0.253784915
 40
0.2697950952
 40
0.2858026601
 40
0.3018038922
 40
0.3177951034
 40
0.333772802
 40
0.3497335464
 40
0.3656740664
 40
0.3815913678
 40
0.3974825851
 40
0.4133451574
 40
0.4291768396
 40
0.4449755982
 40
0.4607398103
 40
0.4764681644
 40
0.4921596439
 40
0.5078136996
 40
0.5234300536
 40
0.5390088005
 40
0.5545504881
 40
0.5700558896
 40
0.5855262037
 40
0.6009629988
 40
0.6163680341
 40
0.631743502
 40
0.6470918309
 40
0.6624156163
 40
0.6777178363
 40
0.6930015641
 40
0.7082700105
 40
0.7235266729
 40
0.7387750246
 40
0.7540186258
 40
0.7692612029
 40
0.7845063491
 40
0.7997576767
 40
0.8150188128
 40
0.8302931311
 40
0.8455839876
 40
0.8608947335
 40
0.876228419
 40
0.8915878381
 40
0.906975194
 40
0.9223922944
 40
0.9378417982
 40
0.9533270585
 40
0.9688506682
 40
0.9844102238
 40
1.0
 40
1.0
 40
1.0
 40
1.0
 10
8.8685293943
 20
8.9303064925
 30
0.0
 10
8.8685295866
 20
8.9152795205
 30
0.0
 10
8.8696432047
 20
8.8926879888
 30
0.0
 10
8.8733049807
 20
8.8627709649
 30
0.0
 10
8.8771452537
 20
8.8404059364
 30
0.0
 10
8.8820618692
 20
8.818203874
 30
0.0
 10
8.8880435208
 20
8.7962144108
 30
0.0
 10
8.8950746809
 20
8.7744888291
 30
0.0
 10
8.9031360725
 20
8.7530775973
 30
0.0
 10
8.9122100137
 20
8.732032223
 30
0.0
 10
8.9222730493
 20
8.7114020926
 30
0.0
 10
8.9333002439
 20
8.6912341158
 30
0.0
 10
8.9492584844
 20
8.6650193195
 30
0.0
 10
8.9670372708
 20
8.6399167319
 30
0.0
 10
8.9864942443
 20
8.6161231495
 30
0.0
 10
9.001905601
 20
8.5989536655
 30
0.0
 10
9.0180916471
 20
8.5825111985
 30
0.0
 10
9.0350157005
 20
8.5668346976
 30
0.0
 10
9.0526363007
 20
8.5519596105
 30
0.0
 10
9.0709133049
 20
8.53792228
 30
0.0
 10
9.0898040291
 20
8.5247564123
 30
0.0
 10
9.1092631869
 20
8.5124917477
 30
0.0
 10
9.1292464776
 20
8.5011595599
 30
0.0
 10
9.1497066982
 20
8.4907866437
 30
0.0
 10
9.1705954512
 20
8.4813970012
 30
0.0
 10
9.1918648021
 20
8.4730159605
 30
0.0
 10
9.2134641379
 20
8.4656627967
 30
0.0
 10
9.2353426854
 20
8.4593555863
 30
0.0
 10
9.2574494829
 20
8.4541127443
 30
0.0
 10
9.2797317138
 20
8.4499457325
 30
0.0
 10
9.3021368486
 20
8.4468664886
 30
0.0
 10
9.3246117329
 20
8.4448854344
 30
0.0
 10
9.3471025172
 20
8.4440062812
 30
0.0
 10
9.3695554851
 20
8.4442343969
 30
0.0
 10
9.3919164573
 20
8.4455713034
 30
0.0
 10
9.4141315813
 20
8.4480131507
 30
0.0
 10
9.4361466652
 20
8.4515581057
 30
0.0
 10
9.457907976
 20
8.4561982221
 30
0.0
 10
9.4793625761
 20
8.4619223305
 30
0.0
 10
9.5004568397
 20
8.4687205994
 30
0.0
 10
9.5211391293
 20
8.4765755735
 30
0.0
 10
9.541358274
 20
8.4854690284
 30
0.0
 10
9.5610627788
 20
8.4953822772
 30
0.0
 10
9.5802046542
 20
8.506289057
 30
0.0
 10
9.598735433
 20
8.5181642397
 30
0.0
 10
9.6166078281
 20
8.5309798474
 30
0.0
 10
9.6337786789
 20
8.5447021013
 30
0.0
 10
9.6502034694
 20
8.5592990073
 30
0.0
 10
9.6658412325
 20
8.5747338461
 30
0.0
 10
9.6806544224
 20
8.5909667422
 30
0.0
 10
9.694603993
 20
8.6079590626
 30
0.0
 10
9.7076569036
 20
8.6256667953
 30
0.0
 10
9.7197817329
 20
8.6440452189
 30
0.0
 10
9.7309467016
 20
8.6630496645
 30
0.0
 10
9.7411273189
 20
8.68263114
 30
0.0
 10
9.7502985863
 20
8.7027413556
 30
0.0
 10
9.7584374662
 20
8.7233305513
 30
0.0
 10
9.7655279324
 20
8.7443460878
 30
0.0
 10
9.771552297
 20
8.7657365895
 30
0.0
 10
9.7764970224
 20
8.7874502607
 30
0.0
 10
9.7803534269
 20
8.8094352084
 30
0.0
 10
9.7831107721
 20
8.8316381856
 30
0.0
 10
9.7847659841
 20
8.8540000337
 30
0.0
 10
9.7851336905
 20
8.8689618881
 30
0.0
 10
9.7851337794
 20
8.8764487593
 30
0.0
  0
SPLINE
  5
2CA
100
AcDbEntity
  8
0
100
AcDbSpline
 62
7
  6
CONTINUOUS
 70
0
 71
3
 72
65
 73
61
 74
0
 42
0.0000001
 43
0.0000001
 44
0.0000000001
 40
0.0
 40
0.0
 40
0.0
 40
0.0
 40
0.0310480609
 40
0.0464649293
 40
0.0618007306
 40
0.0922348384
 40
0.1223994854
 40
0.1373982457
 40
0.1523450303
 40
0.1672467788
 40
0.1821108896
 40
0.1969449801
 40
0.2117572324
 40
0.2265559705
 40
0.2413496115
 40
0.2561467331
 40
0.2709558136
 40
0.2857852993
 40
0.3006433297
 40
0.3155375112
 40
0.3304753141
 40
0.3454636475
 40
0.3605084679
 40
0.3756154841
 40
0.3907897567
 40
0.4060350812
 40
0.4213548941
 40
0.4367520191
 40
0.4522278894
 40
0.4677834902
 40
0.4834192865
 40
0.4991344099
 40
0.5149274995
 40
0.5307967793
 40
0.5467393109
 40
0.5627516699
 40
0.5788301256
 40
0.6111574632
 40
0.6274047439
 40
0.6436971146
 40
0.6600282604
 40
0.676391787
 40
0.7091799709
 40
0.7255990813
 40
0.7420225206
 40
0.7584429769
 40
0.7748532848
 40
0.7912463688
 40
0.8076151029
 40
0.8239526465
 40
0.8402526437
 40
0.8565088432
 40
0.8727152724
 40
0.8888661846
 40
0.9049558761
 40
0.9369254192
 40
0.9528102449
 40
0.9686226826
 40
0.984355545
 40
1.0
 40
1.0
 40
1.0
 40
1.0
 10
9.6451337698
 20
8.8764490201
 30
0.0
 10
9.6451335538
 20
8.866090156
 30
0.0
 10
9.644373692
 20
8.8505729306
 30
0.0
 10
9.6418294214
 20
8.83010502
 30
0.0
 10
9.6382950193
 20
8.8099910601
 30
0.0
 10
9.6320275466
 20
8.785396185
 30
0.0
 10
9.6233135249
 20
8.7616760008
 30
0.0
 10
9.6149537499
 20
8.7434379474
 30
0.0
 10
9.6080155139
 20
8.7301729686
 30
0.0
 10
9.6004166237
 20
8.717327664
 30
0.0
 10
9.5921757136
 20
8.7049294468
 30
0.0
 10
9.5833109115
 20
8.6930065358
 30
0.0
 10
9.5738435349
 20
8.68158456
 30
0.0
 10
9.5637956893
 20
8.6706880477
 30
0.0
 10
9.553188808
 20
8.6603421179
 30
0.0
 10
9.5420469627
 20
8.6505694589
 30
0.0
 10
9.5303954041
 20
8.6413911536
 30
0.0
 10
9.5182588505
 20
8.6328291698
 30
0.0
 10
9.5056641599
 20
8.6249032565
 30
0.0
 10
9.4926397074
 20
8.6176309824
 30
0.0
 10
9.4792135608
 20
8.6110310139
 30
0.0
 10
9.4654155405
 20
8.605119997
 30
0.0
 10
9.4512771497
 20
8.599911551
 30
0.0
 10
9.4368298268
 20
8.5954204929
 30
0.0
 10
9.4221064164
 20
8.5916598518
 30
0.0
 10
9.4071413108
 20
8.5886386743
 30
0.0
 10
9.3919690581
 20
8.586367172
 30
0.0
 10
9.3766252937
 20
8.5848540374
 30
0.0
 10
9.3611467192
 20
8.5841030844
 30
0.0
 10
9.345570342
 20
8.5841191424
 30
0.0
 10
9.3299339807
 20
8.5849058067
 30
0.0
 10
9.3142757477
 20
8.5864611545
 30
0.0
 10
9.2986341335
 20
8.588784059
 30
0.0
 10
9.2830481699
 20
8.5918724342
 30
0.0
 10
9.2675564571
 20
8.5957182877
 30
0.0
 10
9.2521972206
 20
8.6003145334
 30
0.0
 10
9.2319152011
 20
8.6074435538
 30
0.0
 10
9.2120835719
 20
8.6160242336
 30
0.0
 10
9.1928614124
 20
8.625981235
 30
0.0
 10
9.1787393124
 20
8.6341436376
 30
0.0
 10
9.1649747778
 20
8.6429675801
 30
0.0
 10
9.1471382161
 20
8.6555941359
 30
0.0
 10
9.1301619694
 20
8.6694508731
 30
0.0
 10
9.1141809929
 20
8.6844287017
 30
0.0
 10
9.1027080907
 20
8.6962065042
 30
0.0
 10
9.0917852301
 20
8.7084916016
 30
0.0
 10
9.081440846
 20
8.7212547462
 30
0.0
 10
9.0716992351
 20
8.7344621936
 30
0.0
 10
9.0625843796
 20
8.7480805878
 30
0.0
 10
9.0541203977
 20
8.7620765194
 30
0.0
 10
9.0463261806
 20
8.7764134649
 30
0.0
 10
9.0392203302
 20
8.7910552622
 30
0.0
 10
9.0328217242
 20
8.8059654303
 30
0.0
 10
9.0271431867
 20
8.8211056845
 30
0.0
 10
9.0205640302
 20
8.841499546
 30
0.0
 10
9.01545323
 20
8.8622521598
 30
0.0
 10
9.0118628816
 20
8.8831945508
 30
0.0
 10
9.0099418983
 20
8.8989087575
 30
0.0
 10
9.0087880481
 20
8.9146165492
 30
0.0
 10
9.0085295233
 20
8.925087041
 30
0.0
 10
9.0085294053
 20
8.9303066514
 30
0.0
  0
SPLINE
  5
2CB
100
AcDbEntity
  8
0
100
AcDbSpline
 62
7
  6
CONTINUOUS
 70
0
 71
3
 72
24
 73
20
 74
0
 42
0.0000001
 43
0.0000001
 44
0.0000000001
 40
0.0
 40
0.0
 40
0.0
 40
0.0
 40
0.0637767223
 40
0.1273442464
 40
0.1907009953
 40
0.2538548358
 40
0.3168115815
 40
0.3795801539
 40
0.4421711312
 40
0.5045967629
 40
0.566870977
 40
0.6290091758
 40
0.6910281284
 40
0.7529458055
 40
0.8147811999
 40
0.8765541364
 40
0.9074261033
 40
0.938290172
 40
1.0
 40
1.0
 40
1.0
 40
1.0
 10
9.8025476002
 20
8.8628841362
 30
0.0
 10
9.8025476002
 20
8.8551697711
 30
0.0
 10
9.8021783539
 20
8.8397637313
 30
0.0
 10
9.8005117937
 20
8.8167483922
 30
0.0
 10
9.7977369452
 20
8.7939154929
 30
0.0
 10
9.7938604532
 20
8.7713186318
 30
0.0
 10
9.7888909818
 20
8.7490094791
 30
0.0
 10
9.7828400056
 20
8.7270396053
 30
0.0
 10
9.7757214397
 20
8.7054596223
 30
0.0
 10
9.767551644
 20
8.6843192947
 30
0.0
 10
9.7583494084
 20
8.663667382
 30
0.0
 10
9.7481358764
 20
8.6435515287
 30
0.0
 10
9.7369346093
 20
8.6240181469
 30
0.0
 10
9.7247713588
 20
8.6051122193
 30
0.0
 10
9.7116743846
 20
8.5868776307
 30
0.0
 10
9.700004215
 20
8.5722729068
 30
0.0
 10
9.6902343736
 20
8.560968767
 30
0.0
 10
9.6801826328
 20
8.5499252808
 30
0.0
 10
9.6723269259
 20
8.5419364901
 30
0.0
 10
9.6669581556
 20
8.5367506525
 30
0.0
  0
SPLINE
  5
2CC
100
AcDbEntity
  8
0
100
AcDbSpline
 62
7
  6
CONTINUOUS
 70
0
 71
3
 72
24
 73
20
 74
0
 42
0.0000001
 43
0.0000001
 44
0.0000000001
 40
0.0
 40
0.0
 40
0.0
 40
0.0
 40
0.0637767223
 40
0.1273442464
 40
0.1907009953
 40
0.2538548358
 40
0.3168115815
 40
0.3795801539
 40
0.4421711312
 40
0.5045967629
 40
0.566870977
 40
0.6290091758
 40
0.6910281284
 40
0.7529458055
 40
0.8147811999
 40
0.8765541364
 40
0.9074261033
 40
0.938290172
 40
1.0
 40
1.0
 40
1.0
 40
1.0
 10
9.8025476002
 20
7.2806974704
 30
0.0
 10
9.8025476002
 20
7.2729831053
 30
0.0
 10
9.8021783539
 20
7.2575770655
 30
0.0
 10
9.8005117937
 20
7.2345617264
 30
0.0
 10
9.7977369452
 20
7.2117288271
 30
0.0
 10
9.7938604532
 20
7.1891319659
 30
0.0
 10
9.7888909818
 20
7.1668228133
 30
0.0
 10
9.7828400056
 20
7.1448529395
 30
0.0
 10
9.7757214397
 20
7.1232729565
 30
0.0
 10
9.767551644
 20
7.1021326289
 30
0.0
 10
9.7583494084
 20
7.0814807162
 30
0.0
 10
9.7481358764
 20
7.0613648629
 30
0.0
 10
9.7369346093
 20
7.0418314811
 30
0.0
 10
9.7247713588
 20
7.0229255534
 30
0.0
 10
9.7116743846
 20
7.0046909648
 30
0.0
 10
9.700004215
 20
6.990086241
 30
0.0
 10
9.6902343736
 20
6.9787821012
 30
0.0
 10
9.6801826328
 20
6.9677386149
 30
0.0
 10
9.6723269259
 20
6.9597498243
 30
0.0
 10
9.6669581556
 20
6.9545639866
 30
0.0
  0
SPLINE
  5
2CD
100
AcDbEntity
  8
0
100
AcDbSpline
 62
7
  6
CONTINUOUS
 70
0
 71
3
 72
24
 73
20
 74
0
 42
0.0000001
 43
0.0000001
 44
0.0000000001
 40
0.0
 40
0.0
 40
0.0
 40
0.0
 40
0.0637767223
 40
0.1273442464
 40
0.1907009953
 40
0.2538548358
 40
0.3168115815
 40
0.3795801539
 40
0.4421711312
 40
0.5045967629
 40
0.566870977
 40
0.6290091758
 40
0.6910281284
 40
0.7529458055
 40
0.8147811999
 40
0.8765541364
 40
0.9074261033
 40
0.938290172
 40
1.0
 40
1.0
 40
1.0
 40
1.0
 10
9.1399221088
 20
8.1187099219
 30
0.0
 10
9.1399221088
 20
8.1109955567
 30
0.0
 10
9.1395528624
 20
8.095589517
 30
0.0
 10
9.1378863023
 20
8.0725741778
 30
0.0
 10
9.1351114538
 20
8.0497412785
 30
0.0
 10
9.1312349618
 20
8.0271444174
 30
0.0
 10
9.1262654904
 20
8.0048352648
 30
0.0
 10
9.1202145142
 20
7.982865391
 30
0.0
 10
9.1130959483
 20
7.961285408
 30
0.0
 10
9.1049261526
 20
7.9401450804
 30
0.0
 10
9.095723917
 20
7.9194931677
 30
0.0
 10
9.085510385
 20
7.8993773143
 30
0.0
 10
9.0743091179
 20
7.8798439326
 30
0.0
 10
9.0621458674
 20
7.8609380049
 30
0.0
 10
9.0490488932
 20
7.8427034163
 30
0.0
 10
9.0373787236
 20
7.8280986925
 30
0.0
 10
9.0276088822
 20
7.8167945527
 30
0.0
 10
9.0175571414
 20
7.8057510664
 30
0.0
 10
9.0097014345
 20
7.7977622757
 30
0.0
 10
9.0043326642
 20
7.7925764381
 30
0.0
  0
SPLINE
  5
2CE
100
AcDbEntity
  8
0
100
AcDbSpline
 62
7
  6
CONTINUOUS
 70
0
 71
3
 72
23
 73
19
 74
0
 42
0.0000001
 43
0.0000001
 44
0.0000000001
 40
0.0
 40
0.0
 40
0.0
 40
0.0
 40
0.063776909
 40
0.1273449468
 40
0.1907019575
 40
0.2538561145
 40
0.3168131979
 40
0.3795820804
 40
0.4421733815
 40
0.5045993354
 40
0.5668738682
 40
0.6290123838
 40
0.6910316538
 40
0.75294965
 40
0.8147853622
 40
0.8765586114
 40
0.9382898593
 40
1.0
 40
1.0
 40
1.0
 40
1.0
 10
10.4709682269
 20
8.02640156
 30
0.0
 10
10.4709682269
 20
8.018687245
 30
0.0
 10
10.4705989769
 20
8.0032812659
 30
0.0
 10
10.4689324416
 20
7.9802660262
 30
0.0
 10
10.4661576128
 20
7.9574332097
 30
0.0
 10
10.4622811592
 20
7.9348364486
 30
0.0
 10
10.4573117228
 20
7.9125273892
 30
0.0
 10
10.4512607969
 20
7.8905576025
 30
0.0
 10
10.4441423004
 20
7.8689777003
 30
0.0
 10
10.4359725828
 20
7.8478374462
 30
0.0
 10
10.4267704103
 20
7.8271856105
 30
0.0
 10
10.4165569613
 20
7.8070698284
 30
0.0
 10
10.4053557885
 20
7.7875364892
 30
0.0
 10
10.3931926832
 20
7.7686306414
 30
0.0
 10
10.3800956889
 20
7.750395957
 30
0.0
 10
10.3660948339
 20
7.7328743716
 30
0.0
 10
10.3512229793
 20
7.7161068391
 30
0.0
 10
10.340748653
 20
7.7054549834
 30
0.0
 10
10.3353799154
 20
7.7002691587
 30
0.0
  0
SPLINE
  5
2CF
100
AcDbEntity
  8
0
100
AcDbSpline
 62
7
  6
CONTINUOUS
 70
0
 71
3
 72
21
 73
17
 74
0
 42
0.0000001
 43
0.0000001
 44
0.0000000001
 40
0.0
 40
0.0
 40
0.0
 40
0.0
 40
0.1273176253
 40
0.2537997538
 40
0.3167617031
 40
0.3795356349
 40
0.4421315552
 40
0.5045621127
 40
0.5668413504
 40
0.6289845238
 40
0.6910084429
 40
0.7529310808
 40
0.8147714271
 40
0.8765493234
 40
0.9382852026
 40
1.0
 40
1.0
 40
1.0
 40
1.0
 10
8.5700260402
 20
6.9218472164
 30
0.0
 10
8.5700260402
 20
6.9178434263
 30
0.0
 10
8.5696438579
 20
6.9098569657
 30
0.0
 10
8.5682004188
 20
6.8999839803
 30
0.0
 10
8.5664752111
 20
6.8922394768
 30
0.0
 10
8.5649019076
 20
6.8865271267
 30
0.0
 10
8.563051046
 20
6.8809162718
 30
0.0
 10
8.5609267995
 20
6.8754197323
 30
0.0
 10
8.5585341936
 20
6.8700501565
 30
0.0
 10
8.5558785558
 20
6.8648200008
 30
0.0
 10
8.5529661917
 20
6.8597412411
 30
0.0
 10
8.5498036255
 20
6.8548256931
 30
0.0
 10
8.5463983155
 20
6.8500846073
 30
0.0
 10
8.5427579478
 20
6.8455289713
 30
0.0
 10
8.5388911461
 20
6.8411693715
 30
0.0
 10
8.5361677109
 20
6.8383998951
 30
0.0
 10
8.534771802
 20
6.8370515658
 30
0.0
  0
SPLINE
  5
2D0
100
AcDbEntity
  8
0
100
AcDbSpline
 62
7
  6
CONTINUOUS
 70
0
 71
3
 72
23
 73
19
 74
0
 42
0.0000001
 43
0.0000001
 44
0.0000000001
 40
0.0
 40
0.0
 40
0.0
 40
0.0
 40
0.0637748419
 40
0.1273454053
 40
0.1907023746
 40
0.2538558225
 40
0.3168132293
 40
0.3795821318
 40
0.4421733557
 40
0.5045993383
 40
0.566873869
 40
0.6290123749
 40
0.6910316549
 40
0.7529496458
 40
0.8147853539
 40
0.8765586087
 40
0.9382898542
 40
1.0
 40
1.0
 40
1.0
 40
1.0
 10
11.1596733818
 20
6.8002100898
 30
0.0
 10
11.1596733818
 20
6.7969238885
 30
0.0
 10
11.1595160346
 20
6.7903609001
 30
0.0
 10
11.1588061539
 20
6.7805563541
 30
0.0
 10
11.1576240694
 20
6.7708294516
 30
0.0
 10
11.1559726173
 20
6.76120324
 30
0.0
 10
11.1538556916
 20
6.7516995595
 30
0.0
 10
11.1512779678
 20
6.742340393
 30
0.0
 10
11.1482454493
 20
6.7331473402
 30
0.0
 10
11.1447651616
 20
6.7241415594
 30
0.0
 10
11.1408449793
 20
6.7153438703
 30
0.0
 10
11.1364940422
 20
6.7067745208
 30
0.0
 10
11.1317223328
 20
6.6984532904
 30
0.0
 10
11.1265407828
 20
6.6903994092
 30
0.0
 10
11.120961457
 20
6.6826314046
 30
0.0
 10
11.1149970568
 20
6.675167201
 30
0.0
 10
11.1086616022
 20
6.6680242343
 30
0.0
 10
11.104199526
 20
6.6634865305
 30
0.0
 10
11.1019124342
 20
6.6612773654
 30
0.0
  0
SPLINE
  5
2D1
100
AcDbEntity
  8
0
100
AcDbSpline
 62
7
  6
CONTINUOUS
 70
0
 71
3
 72
23
 73
19
 74
0
 42
0.0000001
 43
0.0000001
 44
0.0000000001
 40
0.0
 40
0.0
 40
0.0
 40
0.0
 40
0.0637748419
 40
0.1273454053
 40
0.1907023746
 40
0.2538558225
 40
0.3168132293
 40
0.3795821318
 40
0.4421733557
 40
0.5045993383
 40
0.566873869
 40
0.6290123749
 40
0.6910316549
 40
0.7529496458
 40
0.8147853539
 40
0.8765586087
 40
0.9382898542
 40
1.0
 40
1.0
 40
1.0
 40
1.0
 10
11.1596733818
 20
9.1570693009
 30
0.0
 10
11.1596733818
 20
9.1537830995
 30
0.0
 10
11.1595160346
 20
9.1472201112
 30
0.0
 10
11.1588061539
 20
9.1374155652
 30
0.0
 10
11.1576240694
 20
9.1276886627
 30
0.0
 10
11.1559726173
 20
9.118062451
 30
0.0
 10
11.1538556916
 20
9.1085587706
 30
0.0
 10
11.1512779678
 20
9.0991996041
 30
0.0
 10
11.1482454493
 20
9.0900065513
 30
0.0
 10
11.1447651616
 20
9.0810007704
 30
0.0
 10
11.1408449793
 20
9.0722030814
 30
0.0
 10
11.1364940422
 20
9.0636337319
 30
0.0
 10
11.1317223328
 20
9.0553125015
 30
0.0
 10
11.1265407828
 20
9.0472586203
 30
0.0
 10
11.120961457
 20
9.0394906157
 30
0.0
 10
11.1149970568
 20
9.0320264121
 30
0.0
 10
11.1086616022
 20
9.0248834454
 30
0.0
 10
11.104199526
 20
9.0203457416
 30
0.0
 10
11.1019124342
 20
9.0181365764
 30
0.0
  0
SPLINE
  5
2D2
100
AcDbEntity
  8
0
100
AcDbSpline
 62
7
  6
CONTINUOUS
 70
0
 71
3
 72
23
 73
19
 74
0
 42
0.0000001
 43
0.0000001
 44
0.0000000001
 40
0.0
 40
0.0
 40
0.0
 40
0.0
 40
0.0637748419
 40
0.1273454053
 40
0.1907023746
 40
0.2538558225
 40
0.3168132293
 40
0.3795821318
 40
0.4421733557
 40
0.5045993383
 40
0.566873869
 40
0.6290123749
 40
0.6910316549
 40
0.7529496458
 40
0.8147853539
 40
0.8765586087
 40
0.9382898542
 40
1.0
 40
1.0
 40
1.0
 40
1.0
 10
8.0803014698
 20
9.428579966
 30
0.0
 10
8.0803014698
 20
9.4252937647
 30
0.0
 10
8.0801441226
 20
9.4187307764
 30
0.0
 10
8.0794342419
 20
9.4089262303
 30
0.0
 10
8.0782521574
 20
9.3991993279
 30
0.0
 10
8.0766007053
 20
9.3895731162
 30
0.0
 10
8.0744837796
 20
9.3800694357
 30
0.0
 10
8.0719060559
 20
9.3707102692
 30
0.0
 10
8.0688735373
 20
9.3615172165
 30
0.0
 10
8.0653932497
 20
9.3525114356
 30
0.0
 10
8.0614730674
 20
9.3437137466
 30
0.0
 10
8.0571221302
 20
9.3351443971
 30
0.0
 10
8.0523504208
 20
9.3268231667
 30
0.0
 10
8.0471688709
 20
9.3187692855
 30
0.0
 10
8.0415895451
 20
9.3110012809
 30
0.0
 10
8.0356251449
 20
9.3035370773
 30
0.0
 10
8.0292896902
 20
9.2963941105
 30
0.0
 10
8.0248276141
 20
9.2918564068
 30
0.0
 10
8.0225405222
 20
9.2896472416
 30
0.0
  0
SPLINE
  5
2D3
100
AcDbEntity
  8
0
100
AcDbSpline
 62
7
  6
CONTINUOUS
 70
0
 71
3
 72
23
 73
19
 74
0
 42
0.0000001
 43
0.0000001
 44
0.0000000001
 40
0.0
 40
0.0
 40
0.0
 40
0.0
 40
0.0637748419
 40
0.1273454053
 40
0.1907023746
 40
0.2538558225
 40
0.3168132293
 40
0.3795821318
 40
0.4421733557
 40
0.5045993383
 40
0.566873869
 40
0.6290123749
 40
0.6910316549
 40
0.7529496458
 40
0.8147853539
 40
0.8765586087
 40
0.9382898542
 40
1.0
 40
1.0
 40
1.0
 40
1.0
 10
8.0803014698
 20
6.9558097307
 30
0.0
 10
8.0803014698
 20
6.9525235294
 30
0.0
 10
8.0801441226
 20
6.945960541
 30
0.0
 10
8.0794342419
 20
6.936155995
 30
0.0
 10
8.0782521574
 20
6.9264290925
 30
0.0
 10
8.0766007053
 20
6.9168028809
 30
0.0
 10
8.0744837796
 20
6.9072992004
 30
0.0
 10
8.0719060559
 20
6.8979400339
 30
0.0
 10
8.0688735373
 20
6.8887469811
 30
0.0
 10
8.0653932497
 20
6.8797412003
 30
0.0
 10
8.0614730674
 20
6.8709435112
 30
0.0
 10
8.0571221302
 20
6.8623741617
 30
0.0
 10
8.0523504208
 20
6.8540529313
 30
0.0
 10
8.0471688709
 20
6.8459990501
 30
0.0
 10
8.0415895451
 20
6.8382310455
 30
0.0
 10
8.0356251449
 20
6.8307668419
 30
0.0
 10
8.0292896902
 20
6.8236238752
 30
0.0
 10
8.0248276141
 20
6.8190861714
 30
0.0
 10
8.0225405222
 20
6.8168770063
 30
0.0
  0
SPLINE
  5
2D4
100
AcDbEntity
  8
0
100
AcDbSpline
 62
7
  6
CONTINUOUS
 70
0
 71
3
 72
49
 73
45
 74
0
 42
0.0000001
 43
0.0000001
 44
0.0000000001
 40
0.0
 40
0.0
 40
0.0
 40
0.0
 40
0.0378126678
 40
0.0760191833
 40
0.1145315913
 40
0.1532645855
 40
0.1921302441
 40
0.2310409693
 40
0.2699088596
 40
0.3086461551
 40
0.347165484
 40
0.3853800912
 40
0.4232041003
 40
0.4605527681
 40
0.4973427527
 40
0.5334923658
 40
0.5689218342
 40
0.6035535685
 40
0.6373124477
 40
0.670126132
 40
0.7019253617
 40
0.732644284
 40
0.7622208174
 40
0.7905970638
 40
0.8043185081
 40
0.8177203466
 40
0.830796754
 40
0.8435422278
 40
0.8559517607
 40
0.8680206388
 40
0.8797447099
 40
0.8911202558
 40
0.9021440611
 40
0.9128135739
 40
0.9231267422
 40
0.9330823447
 40
0.9426798516
 40
0.9519195606
 40
0.9608027573
 40
0.9693317075
 40
0.9775101973
 40
0.9853433366
 40
0.9928373965
 40
1.0
 40
1.0
 40
1.0
 40
1.0
 10
14.8537485795
 20
7.6956915353
 30
0.0
 10
14.8537485795
 20
7.6847529438
 30
0.0
 10
14.8536031828
 20
7.6627615736
 30
0.0
 10
14.8529587893
 20
7.6296348628
 30
0.0
 10
14.8518882406
 20
7.5962527723
 30
0.0
 10
14.8503941947
 20
7.5626961152
 30
0.0
 10
14.8484801712
 20
7.5290453822
 30
0.0
 10
14.8461507973
 20
7.495381735
 30
0.0
 10
14.8434116748
 20
7.4617862017
 30
0.0
 10
14.8402694119
 20
7.4283396879
 30
0.0
 10
14.8367315877
 20
7.3951227313
 30
0.0
 10
14.8328067365
 20
7.3622153143
 30
0.0
 10
14.8285043266
 20
7.3296966742
 30
0.0
 10
14.8238347441
 20
7.2976451054
 30
0.0
 10
14.8188092748
 20
7.2661377673
 30
0.0
 10
14.813440063
 20
7.2352504994
 30
0.0
 10
14.8077400858
 20
7.2050576411
 30
0.0
 10
14.8017231221
 20
7.1756318508
 30
0.0
 10
14.7954037185
 20
7.1470439244
 30
0.0
 10
14.7887971711
 20
7.119362609
 30
0.0
 10
14.7819194721
 20
7.0926544525
 30
0.0
 10
14.7747872753
 20
7.0669835833
 30
0.0
 10
14.7674178435
 20
7.0424117621
 30
0.0
 10
14.761024452
 20
7.0226857417
 30
0.0
 10
14.7557963458
 20
7.0075053273
 30
0.0
 10
14.7518709958
 20
6.9965583745
 30
0.0
 10
14.7478998998
 20
6.9859288029
 30
0.0
 10
14.7438853776
 20
6.9756230023
 30
0.0
 10
14.7398299322
 20
6.9656471473
 30
0.0
 10
14.7357359288
 20
6.9560072427
 30
0.0
 10
14.731605884
 20
6.9467090593
 30
0.0
 10
14.7274422781
 20
6.9377581698
 30
0.0
 10
14.7232475713
 20
6.929159951
 30
0.0
 10
14.719024366
 20
6.9209195214
 30
0.0
 10
14.7147751044
 20
6.9130418344
 30
0.0
 10
14.7105023951
 20
6.9055315605
 30
0.0
 10
14.706208759
 20
6.8983931787
 30
0.0
 10
14.7018967281
 20
6.8916309606
 30
0.0
 10
14.6975689616
 20
6.8852488899
 30
0.0
 10
14.6932278914
 20
6.8792507703
 30
0.0
 10
14.6888760752
 20
6.8736400467
 30
0.0
 10
14.6845159012
 20
6.868420007
 30
0.0
 10
14.6801501789
 20
6.8635940306
 30
0.0
 10
14.6771715369
 20
6.8605741916
 30
0.0
 10
14.6756812234
 20
6.8591346592
 30
0.0
  0
SPLINE
  5
2D5
100
AcDbEntity
  8
0
100
AcDbSpline
 62
7
  6
CONTINUOUS
 70
0
 71
3
 72
49
 73
45
 74
0
 42
0.0000001
 43
0.0000001
 44
0.0000000001
 40
0.0
 40
0.0
 40
0.0
 40
0.0
 40
0.0258123659
 40
0.0392883486
 40
0.0531136323
 40
0.0817175619
 40
0.111442776
 40
0.126669606
 40
0.1421051872
 40
0.1577254465
 40
0.1735063493
 40
0.1894244864
 40
0.2054574011
 40
0.2215837576
 40
0.2377839173
 40
0.2540399745
 40
0.2703361721
 40
0.2866590602
 40
0.3029972808
 40
0.3193420752
 40
0.3356865092
 40
0.3520258543
 40
0.3683571829
 40
0.4009843475
 40
0.4335774757
 40
0.4661515449
 40
0.4987270054
 40
0.531323434
 40
0.5639537713
 40
0.5802845981
 40
0.5966230993
 40
0.6293087168
 40
0.6619787012
 40
0.6945744352
 40
0.7270149638
 40
0.7592023102
 40
0.7910321063
 40
0.8224085565
 40
0.8532604398
 40
0.883554119
 40
0.9133004713
 40
0.9425550307
 40
0.9714128099
 40
1.0
 40
1.0
 40
1.0
 40
1.0
 10
9.2303191237
 20
9.0601538394
 30
0.0
 10
9.229047983
 20
9.0558669855
 30
0.0
 10
9.2273249737
 20
9.0492766093
 30
0.0
 10
9.2254326239
 20
9.0402714614
 30
0.0
 10
9.2237619024
 20
9.0307307619
 30
0.0
 10
9.2222548581
 20
9.0183118141
 30
0.0
 10
9.2216514507
 20
9.0055712588
 30
0.0
 10
9.2217611804
 20
8.9951089137
 30
0.0
 10
9.2221647495
 20
8.9870995007
 30
0.0
 10
9.222903726
 20
8.9790176423
 30
0.0
 10
9.2239901773
 20
8.9708906325
 30
0.0
 10
9.2254331408
 20
8.9627465883
 30
0.0
 10
9.2272390584
 20
8.9546138592
 30
0.0
 10
9.2294108851
 20
8.9465204513
 30
0.0
 10
9.2319484015
 20
8.9384935412
 30
0.0
 10
9.2348488414
 20
8.9305591585
 30
0.0
 10
9.2381061301
 20
8.9227414394
 30
0.0
 10
9.241712005
 20
8.9150625433
 30
0.0
 10
9.2456563548
 20
8.907542429
 30
0.0
 10
9.2499268496
 20
8.9001983448
 30
0.0
 10
9.2545105283
 20
8.8930454286
 30
0.0
 10
9.2593932351
 20
8.8860959842
 30
0.0
 10
9.2662795427
 20
8.8771191324
 30
0.0
 10
9.2755639343
 20
8.8664494537
 30
0.0
 10
9.2876696581
 20
8.8545758095
 30
0.0
 10
9.3006275336
 20
8.8436538718
 30
0.0
 10
9.3143343367
 20
8.8336896233
 30
0.0
 10
9.3286956273
 20
8.8246788915
 30
0.0
 10
9.3411342344
 20
8.8179583832
 30
0.0
 10
9.3513267873
 20
8.8130496172
 30
0.0
 10
9.3616725768
 20
8.8084489251
 30
0.0
 10
9.3748553016
 20
8.8032788986
 30
0.0
 10
9.3909901477
 20
8.7979999545
 30
0.0
 10
9.4073545141
 20
8.7936449727
 30
0.0
 10
9.4238524329
 20
8.790218108
 30
0.0
 10
9.440383066
 20
8.787726083
 30
0.0
 10
9.456843621
 20
8.7861769331
 30
0.0
 10
9.4731349912
 20
8.7855785401
 30
0.0
 10
9.4891677964
 20
8.7859377929
 30
0.0
 10
9.5048673553
 20
8.7872606218
 30
0.0
 10
9.5201759603
 20
8.7895527346
 30
0.0
 10
9.5350528032
 20
8.7928210326
 30
0.0
 10
9.549469375
 20
8.7970739757
 30
0.0
 10
9.5587919216
 20
8.800585033
 30
0.0
 10
9.5633568695
 20
8.8025043239
 30
0.0
  0
SPLINE
  5
2D6
100
AcDbEntity
  8
0
100
AcDbSpline
 62
7
  6
CONTINUOUS
 70
0
 71
3
 72
23
 73
19
 74
0
 42
0.0000001
 43
0.0000001
 44
0.0000000001
 40
0.0
 40
0.0
 40
0.0
 40
0.0
 40
0.0637754757
 40
0.1273453426
 40
0.1907021752
 40
0.2538559149
 40
0.3168132477
 40
0.3795821059
 40
0.4421733695
 40
0.5045993382
 40
0.566873869
 40
0.6290123778
 40
0.6910316472
 40
0.7529496469
 40
0.8147853527
 40
0.8765585998
 40
0.9382898568
 40
1.0
 40
1.0
 40
1.0
 40
1.0
 10
9.5864303742
 20
8.9041309137
 30
0.0
 10
9.5864303742
 20
8.9002738212
 30
0.0
 10
9.5862457105
 20
8.8925707658
 30
0.0
 10
9.5854124858
 20
8.8810630656
 30
0.0
 10
9.5840250609
 20
8.8696465166
 30
0.0
 10
9.5820867515
 20
8.8583481065
 30
0.0
 10
9.5796020425
 20
8.8471935222
 30
0.0
 10
9.5765765653
 20
8.8362085534
 30
0.0
 10
9.5730172433
 20
8.8254185623
 30
0.0
 10
9.5689323455
 20
8.8148483846
 30
0.0
 10
9.5643312238
 20
8.8045224119
 30
0.0
 10
9.5592244225
 20
8.7944644895
 30
0.0
 10
9.5536237918
 20
8.7846977733
 30
0.0
 10
9.5475421761
 20
8.775244814
 30
0.0
 10
9.5409935806
 20
8.7661274656
 30
0.0
 10
9.5339931038
 20
8.7573666329
 30
0.0
 10
9.5265571098
 20
8.7489828387
 30
0.0
 10
9.5213198637
 20
8.7436569332
 30
0.0
 10
9.5186354736
 20
8.7410640125
 30
0.0
  0
SPLINE
  5
2D7
100
AcDbEntity
  8
0
100
AcDbSpline
 62
7
  6
CONTINUOUS
 70
0
 71
3
 72
89
 73
85
 74
0
 42
0.0000001
 43
0.0000001
 44
0.0000000001
 40
0.0
 40
0.0
 40
0.0
 40
0.0
 40
0.0036898867
 40
0.0075219883
 40
0.0114998014
 40
0.015626225
 40
0.0199035929
 40
0.0243338042
 40
0.0289182925
 40
0.0336581154
 40
0.0385540083
 40
0.0436063471
 40
0.0488152652
 40
0.0541806195
 40
0.0597020146
 40
0.0653788788
 40
0.0712103936
 40
0.0771955816
 40
0.0833333003
 40
0.0896222116
 40
0.1026474068
 40
0.1162580889
 40
0.1304388906
 40
0.145172662
 40
0.1604406325
 40
0.1762225503
 40
0.1924968288
 40
0.2092406591
 40
0.226430105
 40
0.2440401812
 40
0.2620449542
 40
0.2804176244
 40
0.2991305982
 40
0.3181555499
 40
0.3374634989
 40
0.3570248844
 40
0.3768096286
 40
0.396787196
 40
0.4169266608
 40
0.4371967765
 40
0.4575660377
 40
0.4780027399
 40
0.498475044
 40
0.518951043
 40
0.5393988222
 40
0.5597865207
 40
0.5800823977
 40
0.6002548965
 40
0.6202727045
 40
0.6401048151
 40
0.6597205976
 40
0.6790898634
 40
0.6981829252
 40
0.716970661
 40
0.7354245879
 40
0.7535169383
 40
0.7712207215
 40
0.7885097947
 40
0.8053589456
 40
0.8217439905
 40
0.8376418502
 40
0.8530306436
 40
0.867889798
 40
0.8822001911
 40
0.895944284
 40
0.9091062774
 40
0.9154647044
 40
0.9216725991
 40
0.9277285534
 40
0.9336313475
 40
0.9393799251
 40
0.9449733789
 40
0.9504110411
 40
0.9556924137
 40
0.9608172407
 40
0.9657855391
 40
0.9705975527
 40
0.9752538532
 40
0.9797553155
 40
0.9841031959
 40
0.988299257
 40
0.9923456669
 40
0.9962449359
 40
1.0
 40
1.0
 40
1.0
 40
1.0
 10
14.3809912477
 20
7.1842209228
 30
0.0
 10
14.3795448643
 20
7.185999328
 30
0.0
 10
14.3766713443
 20
7.1896862228
 30
0.0
 10
14.3724944508
 20
7.1954839909
 30
0.0
 10
14.368372334
 20
7.2016498195
 30
0.0
 10
14.3643067506
 20
7.2081810753
 30
0.0
 10
14.3602992232
 20
7.2150750932
 30
0.0
 10
14.3563514513
 20
7.2223290833
 30
0.0
 10
14.3524649852
 20
7.2299400551
 30
0.0
 10
14.3486414015
 20
7.2379048869
 30
0.0
 10
14.3448823232
 20
7.2462203282
 30
0.0
 10
14.3411892207
 20
7.2548829326
 30
0.0
 10
14.3375636692
 20
7.2638891496
 30
0.0
 10
14.3340071602
 20
7.2732352609
 30
0.0
 10
14.3305211248
 20
7.2829173992
 30
0.0
 10
14.3271070759
 20
7.2929315791
 30
0.0
 10
14.3237663714
 20
7.3032736457
 30
0.0
 10
14.3205004234
 20
7.3139393199
 30
0.0
 10
14.3173105948
 20
7.3249242019
 30
0.0
 10
14.3131116135
 20
7.3401687285
 30
0.0
 10
14.3080744499
 20
7.3599956394
 30
0.0
 10
14.302422287
 20
7.3847170402
 30
0.0
 10
14.2971036275
 20
7.4105967722
 30
0.0
 10
14.2921273824
 20
7.4375918939
 30
0.0
 10
14.2875019151
 20
7.4656577556
 30
0.0
 10
14.2832349754
 20
7.4947478279
 30
0.0
 10
14.2793337263
 20
7.5248138696
 30
0.0
 10
14.2758047204
 20
7.5558060001
 30
0.0
 10
14.2726538934
 20
7.5876727806
 30
0.0
 10
14.2698865244
 20
7.6203612961
 30
0.0
 10
14.2675072571
 20
7.6538172537
 30
0.0
 10
14.2655200899
 20
7.6879850829
 30
0.0
 10
14.2639283739
 20
7.7228080228
 30
0.0
 10
14.2627347823
 20
7.758228212
 30
0.0
 10
14.2619413207
 20
7.7941867893
 30
0.0
 10
14.2615493333
 20
7.8306239987
 30
0.0
 10
14.2615595014
 20
7.8674792871
 30
0.0
 10
14.2619718272
 20
7.9046914006
 30
0.0
 10
14.2627856308
 20
7.9421984884
 30
0.0
 10
14.2639995709
 20
7.9799382097
 30
0.0
 10
14.2656116441
 20
8.0178478368
 30
0.0
 10
14.2676191845
 20
8.0558643571
 30
0.0
 10
14.2700188489
 20
8.0939245802
 30
0.0
 10
14.2728066481
 20
8.131965243
 30
0.0
 10
14.2759779498
 20
8.1699231151
 30
0.0
 10
14.2795274893
 20
8.2077351024
 30
0.0
 10
14.2834493528
 20
8.2453383564
 30
0.0
 10
14.2877370087
 20
8.2826703778
 30
0.0
 10
14.2923833202
 20
8.3196691177
 30
0.0
 10
14.2973805603
 20
8.3562730802
 30
0.0
 10
14.3027204037
 20
8.3924214315
 30
0.0
 10
14.3083939483
 20
8.4280541016
 30
0.0
 10
14.3143917413
 20
8.4631118785
 30
0.0
 10
14.3207037951
 20
8.4975365047
 30
0.0
 10
14.3273195931
 20
8.5312707838
 30
0.0
 10
14.3342280967
 20
8.5642586802
 30
0.0
 10
14.3414177859
 20
8.5964454044
 30
0.0
 10
14.3488766742
 20
8.6277775004
 30
0.0
 10
14.3565923294
 20
8.6582029449
 30
0.0
 10
14.3645518687
 20
8.6876712463
 30
0.0
 10
14.3727420085
 20
8.7161335211
 30
0.0
 10
14.3811490821
 20
8.743542574
 30
0.0
 10
14.3897590714
 20
8.7698529679
 30
0.0
 10
14.3985576026
 20
8.7950211922
 30
0.0
 10
14.4075299917
 20
8.8190054912
 30
0.0
 10
14.4152252494
 20
8.8381872209
 30
0.0
 10
14.421465519
 20
8.8529027636
 30
0.0
 10
14.426125967
 20
8.8634919453
 30
0.0
 10
14.4308186425
 20
8.873756454
 30
0.0
 10
14.4355415983
 20
8.8836920543
 30
0.0
 10
14.4402928458
 20
8.8932946399
 30
0.0
 10
14.445070473
 20
8.9025602168
 30
0.0
 10
14.4498724353
 20
8.9114849779
 30
0.0
 10
14.4546967787
 20
8.9200652256
 30
0.0
 10
14.4595415231
 20
8.9282974152
 30
0.0
 10
14.4644046221
 20
8.9361781831
 30
0.0
 10
14.469284144
 20
8.9437042471
 30
0.0
 10
14.4741780205
 20
8.9508725267
 30
0.0
 10
14.4790842353
 20
8.957680074
 30
0.0
 10
14.4840008653
 20
8.9641240953
 30
0.0
 10
14.488925909
 20
8.9702020432
 30
0.0
 10
14.4938574898
 20
8.9759114084
 30
0.0
 10
14.4987933366
 20
8.9812496204
 30
0.0
 10
14.5021476299
 20
8.9846221171
 30
0.0
 10
14.503825518
 20
8.9862428327
 30
0.0
  0
SPLINE
  5
2D8
100
AcDbEntity
  8
0
100
AcDbSpline
 62
7
  6
CONTINUOUS
 70
0
 71
3
 72
11
 73
7
 74
0
 42
0.0000001
 43
0.0000001
 44
0.0000000001
 40
0.0
 40
0.0
 40
0.0
 40
0.0
 40
0.2442753872
 40
0.4908820183
 40
0.7420807773
 40
1.0
 40
1.0
 40
1.0
 40
1.0
 10
14.3718135508
 20
7.2282232371
 30
0.0
 10
14.3699989516
 20
7.2283490727
 30
0.0
 10
14.3663626806
 20
7.2287878269
 30
0.0
 10
14.3609625118
 20
7.2299999673
 30
0.0
 10
14.3556104399
 20
7.2317655246
 30
0.0
 10
14.352131229
 20
7.2332864919
 30
0.0
 10
14.3504063776
 20
7.2341311303
 30
0.0
  0
SPLINE
  5
2D9
100
AcDbEntity
  8
0
100
AcDbSpline
 62
7
  6
CONTINUOUS
 70
0
 71
3
 72
11
 73
7
 74
0
 42
0.0000001
 43
0.0000001
 44
0.0000000001
 40
0.0
 40
0.0
 40
0.0
 40
0.0
 40
0.2443850895
 40
0.4910558441
 40
0.7422306486
 40
1.0
 40
1.0
 40
1.0
 40
1.0
 10
14.4909485125
 20
8.9460971684
 30
0.0
 10
14.489152259
 20
8.9462217318
 30
0.0
 10
14.4855277843
 20
8.9462903072
 30
0.0
 10
14.4800685886
 20
8.9458482429
 30
0.0
 10
14.4745810869
 20
8.9448625617
 30
0.0
 10
14.4709618684
 20
8.9438593613
 30
0.0
 10
14.469155161
 20
8.9432739641
 30
0.0
  0
SPLINE
  5
2DA
100
AcDbEntity
  8
0
100
AcDbSpline
 62
7
  6
CONTINUOUS
 70
0
 71
3
 72
21
 73
17
 74
0
 42
0.0000001
 43
0.0000001
 44
0.0000000001
 40
0.0
 40
0.0
 40
0.0
 40
0.0
 40
0.0544271759
 40
0.1090711766
 40
0.1641460228
 40
0.2198602232
 40
0.276414708
 40
0.3340008262
 40
0.4529310134
 40
0.5146428948
 40
0.5780320546
 40
0.6432279045
 40
0.7103479887
 40
0.7794982902
 40
0.8507729571
 40
1.0
 40
1.0
 40
1.0
 40
1.0
 10
14.667681867
 20
9.9664180833
 30
0.0
 10
14.6687000644
 20
9.9663474759
 30
0.0
 10
14.6707365113
 20
9.9661391907
 30
0.0
 10
14.6737738047
 20
9.9656269361
 30
0.0
 10
14.676795443
 20
9.9649148456
 30
0.0
 10
14.6798003194
 20
9.9640032745
 30
0.0
 10
14.6827877037
 20
9.9628924669
 30
0.0
 10
14.6867885104
 20
9.9611278054
 30
0.0
 10
14.6907138674
 20
9.9589727152
 30
0.0
 10
14.6945444594
 20
9.9564668199
 30
0.0
 10
14.6974319104
 20
9.9543673183
 30
0.0
 10
14.7002969874
 20
9.952071921
 30
0.0
 10
14.7031391806
 20
9.9495811736
 30
0.0
 10
14.7059577662
 20
9.9468957117
 30
0.0
 10
14.7097411944
 20
9.9429970132
 30
0.0
 10
14.7124529766
 20
9.9398695647
 30
0.0
 10
14.7142186546
 20
9.9376985587
 30
0.0
  0
SPLINE
  5
2DB
100
AcDbEntity
  8
0
100
AcDbSpline
 62
7
  6
CONTINUOUS
 70
0
 71
3
 72
35
 73
31
 74
0
 42
0.0000001
 43
0.0000001
 44
0.0000000001
 40
0.0
 40
0.0
 40
0.0
 40
0.0
 40
0.0162144409
 40
0.0334275327
 40
0.0516719875
 40
0.0709711135
 40
0.091340711
 40
0.1127898042
 40
0.1353221518
 40
0.1589364893
 40
0.1836276936
 40
0.2093868207
 40
0.236201926
 40
0.264058106
 40
0.2929379774
 40
0.3228218401
 40
0.3536878396
 40
0.3855122911
 40
0.4182695809
 40
0.4519326284
 40
0.4864726132
 40
0.521859505
 40
0.5580617218
 40
0.5950466408
 40
0.6327803091
 40
0.6712278106
 40
0.7501182067
 40
0.831420351
 40
0.9148216555
 40
1.0
 40
1.0
 40
1.0
 40
1.0
 10
14.7659701468
 20
9.8740673894
 30
0.0
 10
14.7676823179
 20
9.8719621704
 30
0.0
 10
14.7710679506
 20
9.8675034541
 30
0.0
 10
14.7758963267
 20
9.8603246911
 30
0.0
 10
14.7806184951
 20
9.8524670225
 30
0.0
 10
14.7852297325
 20
9.84393883
 30
0.0
 10
14.7897254433
 20
9.8347485878
 30
0.0
 10
14.7941011993
 20
9.8249057562
 30
0.0
 10
14.7983523804
 20
9.8144203948
 30
0.0
 10
14.8024747047
 20
9.8033033644
 30
0.0
 10
14.8064637531
 20
9.7915661704
 30
0.0
 10
14.8103154274
 20
9.7792210429
 30
0.0
 10
14.8140256019
 20
9.7662808542
 30
0.0
 10
14.8175903982
 20
9.7527591404
 30
0.0
 10
14.8210060301
 20
9.7386700625
 30
0.0
 10
14.82426887
 20
9.7240283962
 30
0.0
 10
14.827375493
 20
9.708849513
 30
0.0
 10
14.8303225524
 20
9.6931493599
 30
0.0
 10
14.8331069922
 20
9.6769444415
 30
0.0
 10
14.8357257782
 20
9.660251804
 30
0.0
 10
14.8381762206
 20
9.6430890081
 30
0.0
 10
14.8404556305
 20
9.6254741237
 30
0.0
 10
14.8425616773
 20
9.6074256895
 30
0.0
 10
14.8444920446
 20
9.5889627211
 30
0.0
 10
14.8462447704
 20
9.5701046375
 30
0.0
 10
14.8483603683
 20
9.5442385219
 30
0.0
 10
14.8505359895
 20
9.5110637157
 30
0.0
 10
14.8523915708
 20
9.4703367504
 30
0.0
 10
14.8535056713
 20
9.4285302593
 30
0.0
 10
14.8537485795
 20
9.4003168792
 30
0.0
 10
14.8537485795
 20
9.3860618315
 30
0.0
  0
SPLINE
  5
2DC
100
AcDbEntity
  8
0
100
AcDbSpline
 62
7
  6
CONTINUOUS
 70
0
 71
3
 72
21
 73
17
 74
0
 42
0.0000001
 43
0.0000001
 44
0.0000000001
 40
0.0
 40
0.0
 40
0.0
 40
0.0
 40
0.1492273264
 40
0.2205054241
 40
0.2896566861
 40
0.3567763202
 40
0.4219711029
 40
0.4853590664
 40
0.547070309
 40
0.6660006247
 40
0.7235864601
 40
0.7801407198
 40
0.8358547365
 40
0.8909292965
 40
0.9455730257
 40
1.0
 40
1.0
 40
1.0
 40
1.0
 10
14.2034747458
 20
6.405163087
 30
0.0
 10
14.2014262706
 20
6.4032566068
 30
0.0
 10
14.1983086938
 20
6.4005333786
 30
0.0
 10
14.194023282
 20
6.3971941583
 30
0.0
 10
14.1908609054
 20
6.3949234567
 30
0.0
 10
14.1877021152
 20
6.3928488849
 30
0.0
 10
14.1845476649
 20
6.3909709632
 30
0.0
 10
14.1813980769
 20
6.3892901908
 30
0.0
 10
14.1772582566
 20
6.3873371096
 30
0.0
 10
14.1730730385
 20
6.385744417
 30
0.0
 10
14.1688669309
 20
6.3845489687
 30
0.0
 10
14.1657548258
 20
6.3838611679
 30
0.0
 10
14.1626529019
 20
6.3833730757
 30
0.0
 10
14.159561906
 20
6.3830849115
 30
0.0
 10
14.1564829917
 20
6.3829968647
 30
0.0
 10
14.1544372973
 20
6.3830716549
 30
0.0
 10
14.1534191035
 20
6.383142262
 30
0.0
  0
SPLINE
  5
2DD
100
AcDbEntity
  8
0
100
AcDbSpline
 62
7
  6
CONTINUOUS
 70
0
 71
3
 72
41
 73
37
 74
0
 42
0.0000001
 43
0.0000001
 44
0.0000000001
 40
0.0
 40
0.0
 40
0.0
 40
0.0
 40
0.0299421172
 40
0.04492376
 40
0.059914511
 40
0.089929166
 40
0.1200145972
 40
0.135093366
 40
0.1501974852
 40
0.1804849961
 40
0.2108989984
 40
0.2414526287
 40
0.272155802
 40
0.3030150309
 40
0.334033329
 40
0.3652101953
 40
0.3965416763
 40
0.4280205023
 40
0.459636293
 40
0.4913758157
 40
0.5232232898
 40
0.5551607336
 40
0.5871683456
 40
0.6192249134
 40
0.6513082489
 40
0.6833956359
 40
0.7154642792
 40
0.7474917569
 40
0.7794564628
 40
0.8113380448
 40
0.8431178358
 40
0.8747791645
 40
0.9063081103
 40
0.9376924636
 40
0.9689257188
 40
1.0
 40
1.0
 40
1.0
 40
1.0
 10
8.3541395487
 20
7.0240595357
 30
0.0
 10
8.3562962076
 20
7.0261426846
 30
0.0
 10
8.3596583545
 20
7.0291411393
 30
0.0
 10
8.3643668942
 20
7.0328616455
 30
0.0
 10
8.3692254428
 20
7.0363969272
 30
0.0
 10
8.3755649865
 20
7.0404566466
 30
0.0
 10
8.3822127749
 20
7.0440077096
 30
0.0
 10
8.3876954795
 20
7.0465339251
 30
0.0
 10
8.3932914301
 20
7.0488516193
 30
0.0
 10
8.4004707909
 20
7.0513437648
 30
0.0
 10
8.4093182588
 20
7.0536663751
 30
0.0
 10
8.4183587754
 20
7.0553117538
 30
0.0
 10
8.4275422388
 20
7.056270831
 30
0.0
 10
8.4368182042
 20
7.0565384883
 30
0.0
 10
8.4461356345
 20
7.0561133607
 30
0.0
 10
8.4554433196
 20
7.0549978968
 30
0.0
 10
8.4646901147
 20
7.053198325
 30
0.0
 10
8.4738252354
 20
7.0507246432
 30
0.0
 10
8.4827985285
 20
7.0475905348
 30
0.0
 10
8.4915607428
 20
7.0438132915
 30
0.0
 10
8.5000637946
 20
7.0394137169
 30
0.0
 10
8.5082610261
 20
7.0344160137
 30
0.0
 10
8.516107456
 20
7.028847649
 30
0.0
 10
8.5235600284
 20
7.0227392144
 30
0.0
 10
8.5305778558
 20
7.0161242653
 30
0.0
 10
8.5371224281
 20
7.0090391193
 30
0.0
 10
8.5431578231
 20
7.0015226629
 30
0.0
 10
8.5486508991
 20
6.9936161404
 30
0.0
 10
8.5535714761
 20
6.9853629322
 30
0.0
 10
8.5578924989
 20
6.9768083173
 30
0.0
 10
8.561590187
 20
6.9679992453
 30
0.0
 10
8.564644223
 20
6.9589840396
 30
0.0
 10
8.5670376743
 20
6.94981227
 30
0.0
 10
8.5687574879
 20
6.9405340051
 30
0.0
 10
8.5697938644
 20
6.9312009999
 30
0.0
 10
8.5700260402
 20
6.9249590404
 30
0.0
 10
8.5700260402
 20
6.9218472164
 30
0.0
  0
SPLINE
  5
2DE
100
AcDbEntity
  8
0
100
AcDbSpline
 62
7
  6
CONTINUOUS
 70
0
 71
3
 72
39
 73
35
 74
0
 42
0.0000001
 43
0.0000001
 44
0.0000000001
 40
0.0
 40
0.0
 40
0.0
 40
0.0
 40
0.0299424732
 40
0.0599093222
 40
0.0899243296
 40
0.1200101094
 40
0.1501875682
 40
0.1804754198
 40
0.2108897635
 40
0.2414437392
 40
0.2721472619
 40
0.3030068428
 40
0.334025493
 40
0.3652027101
 40
0.3965345427
 40
0.4280137258
 40
0.4596298807
 40
0.4913697729
 40
0.5232176187
 40
0.5551554339
 40
0.5871634169
 40
0.6192203588
 40
0.6513040742
 40
0.6833918453
 40
0.7154608739
 40
0.7474887339
 40
0.77945382
 40
0.811335781
 40
0.8431159463
 40
0.874777695
 40
0.9063068895
 40
0.9376919983
 40
0.9689248659
 40
1.0
 40
1.0
 40
1.0
 40
1.0
 10
10.8059499031
 20
6.9676793561
 30
0.0
 10
10.8094835017
 20
6.9710925565
 30
0.0
 10
10.816828544
 20
6.9776435092
 30
0.0
 10
10.8285964582
 20
6.9865680169
 30
0.0
 10
10.8410545623
 20
6.99454595
 30
0.0
 10
10.8541332485
 20
7.0015325515
 30
0.0
 10
10.8677606102
 20
7.0074896525
 30
0.0
 10
10.8818614396
 20
7.0123845066
 30
0.0
 10
10.8963580324
 20
7.016190332
 30
0.0
 10
10.9111705224
 20
7.0188863506
 30
0.0
 10
10.9262173546
 20
7.0204579178
 30
0.0
 10
10.941415729
 20
7.0208965848
 30
0.0
 10
10.9566820584
 20
7.0202001355
 30
0.0
 10
10.9719324244
 20
7.0183725885
 30
0.0
 10
10.9870830356
 20
7.0154241664
 30
0.0
 10
11.0020506816
 20
7.0113712321
 30
0.0
 10
11.0167531845
 20
7.0062361943
 30
0.0
 10
11.0311098434
 20
7.0000473802
 30
0.0
 10
11.0450418714
 20
6.9928388785
 30
0.0
 10
11.0584728215
 20
6.9846503507
 30
0.0
 10
11.0713290009
 20
6.975526814
 30
0.0
 10
11.0835398699
 20
6.9655183953
 30
0.0
 10
11.0950384245
 20
6.9546800579
 30
0.0
 10
11.1057615602
 20
6.9430713024
 30
0.0
 10
11.115650414
 20
6.9307558432
 30
0.0
 10
11.1246506851
 20
6.9178012623
 30
0.0
 10
11.1327129293
 20
6.9042786428
 30
0.0
 10
11.1397928314
 20
6.8902621816
 30
0.0
 10
11.1458514386
 20
6.8758287961
 30
0.0
 10
11.1508553954
 20
6.8610576708
 30
0.0
 10
11.1547770796
 20
6.8460299703
 30
0.0
 10
11.1575948494
 20
6.8308278777
 30
0.0
 10
11.1592930137
 20
6.8155360219
 30
0.0
 10
11.1596733818
 20
6.8053087996
 30
0.0
 10
11.1596733818
 20
6.8002100898
 30
0.0
  0
SPLINE
  5
2DF
100
AcDbEntity
  8
0
100
AcDbSpline
 62
7
  6
CONTINUOUS
 70
0
 71
3
 72
48
 73
44
 74
0
 42
0.0000001
 43
0.0000001
 44
0.0000000001
 40
0.0
 40
0.0
 40
0.0
 40
0.0
 40
0.0149718897
 40
0.0299468369
 40
0.0449278839
 40
0.0599180336
 40
0.0749202322
 40
0.0899373568
 40
0.1049721887
 40
0.1200274064
 40
0.1351055645
 40
0.1502090774
 40
0.1653402142
 40
0.180501073
 40
0.1956935825
 40
0.2109194836
 40
0.2261803205
 40
0.2414774416
 40
0.2568119786
 40
0.2721848576
 40
0.3030428416
 40
0.3340598877
 40
0.365235493
 40
0.3965657058
 40
0.4280432614
 40
0.4596577825
 40
0.4913960356
 40
0.5232422374
 40
0.5551784039
 40
0.5871847345
 40
0.6192400218
 40
0.6513220815
 40
0.6834081967
 40
0.7154755701
 40
0.7475017768
 40
0.7794652126
 40
0.8113455287
 40
0.8431240501
 40
0.8747841728
 40
0.9063117021
 40
0.9376953081
 40
0.9689262526
 40
1.0
 40
1.0
 40
1.0
 40
1.0
 10
9.6406306548
 20
8.419521149
 30
0.0
 10
9.6447784653
 20
8.4235276435
 30
0.0
 10
9.6532351585
 20
8.431377468
 30
0.0
 10
9.6663795371
 20
8.4426400171
 30
0.0
 10
9.6799664461
 20
8.4533763453
 30
0.0
 10
9.6939770456
 20
8.46357128
 30
0.0
 10
9.7083920119
 20
8.4732110094
 30
0.0
 10
9.7231915588
 20
8.4822821529
 30
0.0
 10
9.7383553
 20
8.4907722656
 30
0.0
 10
9.7538623353
 20
8.4986697316
 30
0.0
 10
9.7696913877
 20
8.5059635585
 30
0.0
 10
9.7858205974
 20
8.5126438859
 30
0.0
 10
9.8022278299
 20
8.5187013877
 30
0.0
 10
9.8188904738
 20
8.5241278212
 30
0.0
 10
9.8357856034
 20
8.5289157468
 30
0.0
 10
9.8528899919
 20
8.5330584857
 30
0.0
 10
9.8701800924
 20
8.5365505158
 30
0.0
 10
9.8876320684
 20
8.5393868757
 30
0.0
 10
9.9052222071
 20
8.5415638037
 30
0.0
 10
9.9288541067
 20
8.5435855115
 30
0.0
 10
9.9586262124
 20
8.54444509
 30
0.0
 10
9.9944618622
 20
8.5428101844
 30
0.0
 10
10.0302611088
 20
8.5385202346
 30
0.0
 10
10.0658259054
 20
8.5315990929
 30
0.0
 10
10.1009612893
 20
8.5220852114
 30
0.0
 10
10.135474255
 20
8.5100311748
 30
0.0
 10
10.1691753829
 20
8.4955034642
 30
0.0
 10
10.2018797186
 20
8.4785821048
 30
0.0
 10
10.2334078174
 20
8.4593602139
 30
0.0
 10
10.2635866935
 20
8.4379434688
 30
0.0
 10
10.2922507602
 20
8.4144495357
 30
0.0
 10
10.3192427241
 20
8.3890074278
 30
0.0
 10
10.3444144393
 20
8.3617568083
 30
0.0
 10
10.3676277421
 20
8.3328472562
 30
0.0
 10
10.3887551728
 20
8.3024374197
 30
0.0
 10
10.407680668
 20
8.2706941611
 30
0.0
 10
10.4243001929
 20
8.2377916478
 30
0.0
 10
10.4385223052
 20
8.2039104298
 30
0.0
 10
10.4502686701
 20
8.1692363974
 30
0.0
 10
10.4594745523
 20
8.133960044
 30
0.0
 10
10.4660889667
 20
8.0982744221
 30
0.0
 10
10.4700753744
 20
8.0623780139
 30
0.0
 10
10.4709682269
 20
8.0383704583
 30
0.0
 10
10.4709682269
 20
8.02640156
 30
0.0
  0
SPLINE
  5
2E0
100
AcDbEntity
  8
0
100
AcDbSpline
 62
7
  6
CONTINUOUS
 70
0
 71
3
 72
39
 73
35
 74
0
 42
0.0000001
 43
0.0000001
 44
0.0000000001
 40
0.0
 40
0.0
 40
0.0
 40
0.0
 40
0.0299424732
 40
0.0599093222
 40
0.0899243296
 40
0.1200101094
 40
0.1501875682
 40
0.1804754198
 40
0.2108897635
 40
0.2414437392
 40
0.2721472619
 40
0.3030068428
 40
0.334025493
 40
0.3652027101
 40
0.3965345427
 40
0.4280137258
 40
0.4596298807
 40
0.4913697729
 40
0.5232176187
 40
0.5551554339
 40
0.5871634169
 40
0.6192203588
 40
0.6513040742
 40
0.6833918453
 40
0.7154608739
 40
0.7474887339
 40
0.77945382
 40
0.811335781
 40
0.8431159463
 40
0.874777695
 40
0.9063068895
 40
0.9376919983
 40
0.9689248659
 40
1.0
 40
1.0
 40
1.0
 40
1.0
 10
10.8059499031
 20
9.3245385672
 30
0.0
 10
10.8094835017
 20
9.3279517676
 30
0.0
 10
10.816828544
 20
9.3345027203
 30
0.0
 10
10.8285964582
 20
9.3434272279
 30
0.0
 10
10.8410545623
 20
9.3514051611
 30
0.0
 10
10.8541332485
 20
9.3583917625
 30
0.0
 10
10.8677606102
 20
9.3643488635
 30
0.0
 10
10.8818614396
 20
9.3692437176
 30
0.0
 10
10.8963580324
 20
9.3730495431
 30
0.0
 10
10.9111705224
 20
9.3757455617
 30
0.0
 10
10.9262173546
 20
9.3773171289
 30
0.0
 10
10.941415729
 20
9.3777557958
 30
0.0
 10
10.9566820584
 20
9.3770593465
 30
0.0
 10
10.9719324244
 20
9.3752317996
 30
0.0
 10
10.9870830356
 20
9.3722833774
 30
0.0
 10
11.0020506816
 20
9.3682304432
 30
0.0
 10
11.0167531845
 20
9.3630954053
 30
0.0
 10
11.0311098434
 20
9.3569065913
 30
0.0
 10
11.0450418714
 20
9.3496980896
 30
0.0
 10
11.0584728215
 20
9.3415095617
 30
0.0
 10
11.0713290009
 20
9.332386025
 30
0.0
 10
11.0835398699
 20
9.3223776063
 30
0.0
 10
11.0950384245
 20
9.311539269
 30
0.0
 10
11.1057615602
 20
9.2999305135
 30
0.0
 10
11.115650414
 20
9.2876150543
 30
0.0
 10
11.1246506851
 20
9.2746604734
 30
0.0
 10
11.1327129293
 20
9.2611378539
 30
0.0
 10
11.1397928314
 20
9.2471213927
 30
0.0
 10
11.1458514386
 20
9.2326880072
 30
0.0
 10
11.1508553954
 20
9.2179168819
 30
0.0
 10
11.1547770796
 20
9.2028891813
 30
0.0
 10
11.1575948494
 20
9.1876870887
 30
0.0
 10
11.1592930137
 20
9.172395233
 30
0.0
 10
11.1596733818
 20
9.1621680107
 30
0.0
 10
11.1596733818
 20
9.1570693009
 30
0.0
  0
SPLINE
  5
2E1
100
AcDbEntity
  8
0
100
AcDbSpline
 62
7
  6
CONTINUOUS
 70
0
 71
3
 72
39
 73
35
 74
0
 42
0.0000001
 43
0.0000001
 44
0.0000000001
 40
0.0
 40
0.0
 40
0.0
 40
0.0
 40
0.0299424732
 40
0.0599093222
 40
0.0899243296
 40
0.1200101094
 40
0.1501875682
 40
0.1804754198
 40
0.2108897635
 40
0.2414437392
 40
0.2721472619
 40
0.3030068428
 40
0.334025493
 40
0.3652027101
 40
0.3965345427
 40
0.4280137258
 40
0.4596298807
 40
0.4913697729
 40
0.5232176187
 40
0.5551554339
 40
0.5871634169
 40
0.6192203588
 40
0.6513040742
 40
0.6833918453
 40
0.7154608739
 40
0.7474887339
 40
0.77945382
 40
0.811335781
 40
0.8431159463
 40
0.874777695
 40
0.9063068895
 40
0.9376919983
 40
0.9689248659
 40
1.0
 40
1.0
 40
1.0
 40
1.0
 10
7.7265779911
 20
9.5960492323
 30
0.0
 10
7.7301115897
 20
9.5994624327
 30
0.0
 10
7.737456632
 20
9.6060133854
 30
0.0
 10
7.7492245463
 20
9.6149378931
 30
0.0
 10
7.7616826503
 20
9.6229158263
 30
0.0
 10
7.7747613365
 20
9.6299024277
 30
0.0
 10
7.7883886983
 20
9.6358595287
 30
0.0
 10
7.8024895277
 20
9.6407543828
 30
0.0
 10
7.8169861204
 20
9.6445602083
 30
0.0
 10
7.8317986104
 20
9.6472562269
 30
0.0
 10
7.8468454426
 20
9.6488277941
 30
0.0
 10
7.8620438171
 20
9.649266461
 30
0.0
 10
7.8773101464
 20
9.6485700117
 30
0.0
 10
7.8925605125
 20
9.6467424648
 30
0.0
 10
7.9077111236
 20
9.6437940426
 30
0.0
 10
7.9226787696
 20
9.6397411083
 30
0.0
 10
7.9373812725
 20
9.6346060705
 30
0.0
 10
7.9517379315
 20
9.6284172565
 30
0.0
 10
7.9656699594
 20
9.6212087547
 30
0.0
 10
7.9791009095
 20
9.6130202269
 30
0.0
 10
7.9919570889
 20
9.6038966902
 30
0.0
 10
8.0041679579
 20
9.5938882715
 30
0.0
 10
8.0156665126
 20
9.5830499341
 30
0.0
 10
8.0263896482
 20
9.5714411787
 30
0.0
 10
8.036278502
 20
9.5591257195
 30
0.0
 10
8.0452787732
 20
9.5461711385
 30
0.0
 10
8.0533410174
 20
9.532648519
 30
0.0
 10
8.0604209195
 20
9.5186320578
 30
0.0
 10
8.0664795266
 20
9.5041986724
 30
0.0
 10
8.0714834835
 20
9.489427547
 30
0.0
 10
8.0754051676
 20
9.4743998465
 30
0.0
 10
8.0782229374
 20
9.4591977539
 30
0.0
 10
8.0799211018
 20
9.4439058981
 30
0.0
 10
8.0803014698
 20
9.4336786758
 30
0.0
 10
8.0803014698
 20
9.428579966
 30
0.0
  0
SPLINE
  5
2E2
100
AcDbEntity
  8
0
100
AcDbSpline
 62
7
  6
CONTINUOUS
 70
0
 71
3
 72
51
 73
47
 74
0
 42
0.0000001
 43
0.0000001
 44
0.0000000001
 40
0.0
 40
0.0
 40
0.0
 40
0.0
 40
0.0149716492
 40
0.0299463581
 40
0.0449271651
 40
0.0599170757
 40
0.074919036
 40
0.0899359202
 40
0.1049705142
 40
0.1200254919
 40
0.13510341
 40
0.1502066844
 40
0.1653375793
 40
0.1804981992
 40
0.1956904672
 40
0.2109161263
 40
0.226176723
 40
0.2414735994
 40
0.2568078954
 40
0.2721805298
 40
0.2875922109
 40
0.3030434256
 40
0.3185344373
 40
0.3340652966
 40
0.3496358272
 40
0.3652456427
 40
0.3965753582
 40
0.4280524147
 40
0.4596664333
 40
0.4914041802
 40
0.5232498735
 40
0.5551855304
 40
0.5871913501
 40
0.6192461249
 40
0.6513276709
 40
0.6834132722
 40
0.7154801318
 40
0.7475058251
 40
0.7794687481
 40
0.8113485526
 40
0.8431265648
 40
0.874786179
 40
0.9063132055
 40
0.9376963031
 40
0.9689267482
 40
1.0
 40
1.0
 40
1.0
 40
1.0
 10
8.3095856699
 20
8.5118305931
 30
0.0
 10
8.3137334815
 20
8.5158370743
 30
0.0
 10
8.3221901879
 20
8.5236868612
 30
0.0
 10
8.3353345842
 20
8.5349493536
 30
0.0
 10
8.348921538
 20
8.5456855856
 30
0.0
 10
8.3629321122
 20
8.5558805159
 30
0.0
 10
8.3773471313
 20
8.5655201248
 30
0.0
 10
8.3921466604
 20
8.5745912519
 30
0.0
 10
8.4073104162
 20
8.5830812944
 30
0.0
 10
8.4228174717
 20
8.5909786681
 30
0.0
 10
8.4386464967
 20
8.5982725031
 30
0.0
 10
8.4547757369
 20
8.6049526976
 30
0.0
 10
8.4711829432
 20
8.6110102046
 30
0.0
 10
8.4878455907
 20
8.6164365603
 30
0.0
 10
8.5047407178
 20
8.6212244049
 30
0.0
 10
8.5218450846
 20
8.6253671601
 30
0.0
 10
8.5391351755
 20
8.6288590534
 30
0.0
 10
8.5565871775
 20
8.6316954387
 30
0.0
 10
8.5741771074
 20
8.6338722848
 30
0.0
 10
8.5918807554
 20
8.6353867009
 30
0.0
 10
8.6096737769
 20
8.6362366224
 30
0.0
 10
8.6275316958
 20
8.6364208005
 30
0.0
 10
8.6454299748
 20
8.6359391386
 30
0.0
 10
8.6633439188
 20
8.6347921899
 30
0.0
 10
8.6812491936
 20
8.6329815603
 30
0.0
 10
8.7051043589
 20
8.6296823827
 30
0.0
 10
8.7347813849
 20
8.6239071768
 30
0.0
 10
8.7699158833
 20
8.6143933135
 30
0.0
 10
8.8044289971
 20
8.6023391905
 30
0.0
 10
8.8381300001
 20
8.5878114605
 30
0.0
 10
8.8708342936
 20
8.5708900955
 30
0.0
 10
8.9023623189
 20
8.551668187
 30
0.0
 10
8.9325411166
 20
8.5302514172
 30
0.0
 10
8.961205105
 20
8.5067574704
 30
0.0
 10
8.9881970021
 20
8.4813153687
 30
0.0
 10
9.0133686711
 20
8.4540647782
 30
0.0
 10
9.0365819169
 20
8.4251552473
 30
0.0
 10
9.0577092832
 20
8.3947454306
 30
0.0
 10
9.0766347192
 20
8.3630021989
 30
0.0
 10
9.0932541962
 20
8.3300997213
 30
0.0
 10
9.1074762813
 20
8.2962185496
 30
0.0
 10
9.1192226183
 20
8.261544562
 30
0.0
 10
9.128428468
 20
8.2262682555
 30
0.0
 10
9.1350428625
 20
8.1905826835
 30
0.0
 10
9.1390292576
 20
8.1546863266
 30
0.0
 10
9.1399221088
 20
8.1306788039
 30
0.0
 10
9.1399221088
 20
8.1187099219
 30
0.0
  0
SPLINE
  5
2E3
100
AcDbEntity
  8
0
100
AcDbSpline
 62
7
  6
CONTINUOUS
 70
0
 71
3
 72
39
 73
35
 74
0
 42
0.0000001
 43
0.0000001
 44
0.0000000001
 40
0.0
 40
0.0
 40
0.0
 40
0.0
 40
0.0299424732
 40
0.0599093222
 40
0.0899243296
 40
0.1200101094
 40
0.1501875682
 40
0.1804754198
 40
0.2108897635
 40
0.2414437392
 40
0.2721472619
 40
0.3030068428
 40
0.334025493
 40
0.3652027101
 40
0.3965345427
 40
0.4280137258
 40
0.4596298807
 40
0.4913697729
 40
0.5232176187
 40
0.5551554339
 40
0.5871634169
 40
0.6192203588
 40
0.6513040742
 40
0.6833918453
 40
0.7154608739
 40
0.7474887339
 40
0.77945382
 40
0.811335781
 40
0.8431159463
 40
0.874777695
 40
0.9063068895
 40
0.9376919983
 40
0.9689248659
 40
1.0
 40
1.0
 40
1.0
 40
1.0
 10
7.7265779911
 20
7.123278997
 30
0.0
 10
7.7301115897
 20
7.1266921974
 30
0.0
 10
7.737456632
 20
7.1332431501
 30
0.0
 10
7.7492245463
 20
7.1421676578
 30
0.0
 10
7.7616826503
 20
7.1501455909
 30
0.0
 10
7.7747613365
 20
7.1571321924
 30
0.0
 10
7.7883886983
 20
7.1630892934
 30
0.0
 10
7.8024895277
 20
7.1679841475
 30
0.0
 10
7.8169861204
 20
7.1717899729
 30
0.0
 10
7.8317986104
 20
7.1744859915
 30
0.0
 10
7.8468454426
 20
7.1760575587
 30
0.0
 10
7.8620438171
 20
7.1764962257
 30
0.0
 10
7.8773101464
 20
7.1757997764
 30
0.0
 10
7.8925605125
 20
7.1739722294
 30
0.0
 10
7.9077111236
 20
7.1710238073
 30
0.0
 10
7.9226787696
 20
7.166970873
 30
0.0
 10
7.9373812725
 20
7.1618358352
 30
0.0
 10
7.9517379315
 20
7.1556470211
 30
0.0
 10
7.9656699594
 20
7.1484385194
 30
0.0
 10
7.9791009095
 20
7.1402499916
 30
0.0
 10
7.9919570889
 20
7.1311264549
 30
0.0
 10
8.0041679579
 20
7.1211180362
 30
0.0
 10
8.0156665126
 20
7.1102796988
 30
0.0
 10
8.0263896482
 20
7.0986709433
 30
0.0
 10
8.036278502
 20
7.0863554841
 30
0.0
 10
8.0452787732
 20
7.0734009032
 30
0.0
 10
8.0533410174
 20
7.0598782837
 30
0.0
 10
8.0604209195
 20
7.0458618225
 30
0.0
 10
8.0664795266
 20
7.031428437
 30
0.0
 10
8.0714834835
 20
7.0166573117
 30
0.0
 10
8.0754051676
 20
7.0016296112
 30
0.0
 10
8.0782229374
 20
6.9864275186
 30
0.0
 10
8.0799211018
 20
6.9711356628
 30
0.0
 10
8.0803014698
 20
6.9609084405
 30
0.0
 10
8.0803014698
 20
6.9558097307
 30
0.0
  0
SPLINE
  5
2E4
100
AcDbEntity
  8
0
100
AcDbSpline
 62
7
  6
CONTINUOUS
 70
0
 71
3
 72
51
 73
47
 74
0
 42
0.0000001
 43
0.0000001
 44
0.0000000001
 40
0.0
 40
0.0
 40
0.0
 40
0.0
 40
0.0149716492
 40
0.0299463581
 40
0.0449271651
 40
0.0599170757
 40
0.074919036
 40
0.0899359202
 40
0.1049705142
 40
0.1200254919
 40
0.13510341
 40
0.1502066844
 40
0.1653375793
 40
0.1804981992
 40
0.1956904672
 40
0.2109161263
 40
0.226176723
 40
0.2414735994
 40
0.2568078954
 40
0.2721805298
 40
0.2875922109
 40
0.3030434256
 40
0.3185344373
 40
0.3340652966
 40
0.3496358272
 40
0.3652456427
 40
0.3965753582
 40
0.4280524147
 40
0.4596664333
 40
0.4914041802
 40
0.5232498735
 40
0.5551855304
 40
0.5871913501
 40
0.6192461249
 40
0.6513276709
 40
0.6834132722
 40
0.7154801318
 40
0.7475058251
 40
0.7794687481
 40
0.8113485526
 40
0.8431265648
 40
0.874786179
 40
0.9063132055
 40
0.9376963031
 40
0.9689267482
 40
1.0
 40
1.0
 40
1.0
 40
1.0
 10
8.9722111613
 20
7.6738181416
 30
0.0
 10
8.9763589729
 20
7.6778246229
 30
0.0
 10
8.9848156793
 20
7.6856744097
 30
0.0
 10
8.9979600756
 20
7.6969369022
 30
0.0
 10
9.0115470294
 20
7.7076731341
 30
0.0
 10
9.0255576036
 20
7.7178680644
 30
0.0
 10
9.0399726227
 20
7.7275076733
 30
0.0
 10
9.0547721518
 20
7.7365788004
 30
0.0
 10
9.0699359076
 20
7.7450688429
 30
0.0
 10
9.0854429631
 20
7.7529662167
 30
0.0
 10
9.1012719881
 20
7.7602600516
 30
0.0
 10
9.1174012283
 20
7.7669402461
 30
0.0
 10
9.1338084347
 20
7.7729977531
 30
0.0
 10
9.1504710821
 20
7.7784241088
 30
0.0
 10
9.1673662092
 20
7.7832119534
 30
0.0
 10
9.184470576
 20
7.7873547086
 30
0.0
 10
9.2017606669
 20
7.7908466019
 30
0.0
 10
9.219212669
 20
7.7936829872
 30
0.0
 10
9.2368025988
 20
7.7958598333
 30
0.0
 10
9.2545062468
 20
7.7973742494
 30
0.0
 10
9.2722992683
 20
7.7982241709
 30
0.0
 10
9.2901571872
 20
7.7984083491
 30
0.0
 10
9.3080554662
 20
7.7979266871
 30
0.0
 10
9.3259694102
 20
7.7967797384
 30
0.0
 10
9.343874685
 20
7.7949691088
 30
0.0
 10
9.3677298503
 20
7.7916699313
 30
0.0
 10
9.3974068763
 20
7.7858947253
 30
0.0
 10
9.4325413747
 20
7.776380862
 30
0.0
 10
9.4670544886
 20
7.764326739
 30
0.0
 10
9.5007554915
 20
7.749799009
 30
0.0
 10
9.533459785
 20
7.732877644
 30
0.0
 10
9.5649878103
 20
7.7136557355
 30
0.0
 10
9.595166608
 20
7.6922389657
 30
0.0
 10
9.6238305964
 20
7.668745019
 30
0.0
 10
9.6508224935
 20
7.6433029172
 30
0.0
 10
9.6759941625
 20
7.6160523267
 30
0.0
 10
9.6992074083
 20
7.5871427958
 30
0.0
 10
9.7203347746
 20
7.5567329791
 30
0.0
 10
9.7392602106
 20
7.5249897474
 30
0.0
 10
9.7558796876
 20
7.4920872698
 30
0.0
 10
9.7701017727
 20
7.4582060981
 30
0.0
 10
9.7818481098
 20
7.4235321105
 30
0.0
 10
9.7910539594
 20
7.388255804
 30
0.0
 10
9.7976683539
 20
7.352570232
 30
0.0
 10
9.801654749
 20
7.3166738751
 30
0.0
 10
9.8025476002
 20
7.2926663525
 30
0.0
 10
9.8025476002
 20
7.2806974704
 30
0.0
  0
SPLINE
  5
2E5
100
AcDbEntity
  8
0
100
AcDbSpline
 62
7
  6
CONTINUOUS
 70
0
 71
3
 72
39
 73
35
 74
0
 42
0.0000001
 43
0.0000001
 44
0.0000000001
 40
0.0
 40
0.0
 40
0.0
 40
0.0
 40
0.0299424699
 40
0.0599093164
 40
0.0899243219
 40
0.1200101003
 40
0.1501875584
 40
0.1804754099
 40
0.210889754
 40
0.2414437305
 40
0.2721472545
 40
0.3030068369
 40
0.3340254888
 40
0.3652027079
 40
0.3965345426
 40
0.4280137277
 40
0.4596298846
 40
0.4913697788
 40
0.5232176263
 40
0.5551554431
 40
0.5871634274
 40
0.6192203703
 40
0.6513040862
 40
0.6833918576
 40
0.715460886
 40
0.7474887457
 40
0.7794538306
 40
0.8113357916
 40
0.8431159521
 40
0.8747777094
 40
0.9063068732
 40
0.9376920545
 40
0.96892477
 40
1.0
 40
1.0
 40
1.0
 40
1.0
 10
9.1712623329
 20
9.1006914086
 30
0.0
 10
9.1754097496
 20
9.104697504
 30
0.0
 10
9.1840307069
 20
9.1123863826
 30
0.0
 10
9.1978428191
 20
9.1228611213
 30
0.0
 10
9.2124650129
 20
9.1322248547
 30
0.0
 10
9.2278155851
 20
9.1404250556
 30
0.0
 10
9.2438101398
 20
9.1474169241
 30
0.0
 10
9.2603604046
 20
9.1531620258
 30
0.0
 10
9.2773751778
 20
9.1576289267
 30
0.0
 10
9.2947607202
 20
9.1607932395
 30
0.0
 10
9.3124213099
 20
9.1626377757
 30
0.0
 10
9.3302597642
 20
9.163152619
 30
0.0
 10
9.3481779762
 20
9.1623351684
 30
0.0
 10
9.3660774505
 20
9.1601901406
 30
0.0
 10
9.3838598404
 20
9.1567295339
 30
0.0
 10
9.4014274814
 20
9.1519725537
 30
0.0
 10
9.4186839208
 20
9.1459455011
 30
0.0
 10
9.4355344395
 20
9.1386816243
 30
0.0
 10
9.4518865645
 20
9.1302209332
 30
0.0
 10
9.4676505698
 20
9.120609979
 30
0.0
 10
9.4827399615
 20
9.1099015987
 30
0.0
 10
9.4970719467
 20
9.0981546268
 30
0.0
 10
9.5105678827
 20
9.0854335741
 30
0.0
 10
9.5231537029
 20
9.0718082769
 30
0.0
 10
9.53476032
 20
9.0573535173
 30
0.0
 10
9.5453240005
 20
9.0421486167
 30
0.0
 10
9.5547867124
 20
9.0262770063
 30
0.0
 10
9.56309644
 20
9.0098257709
 30
0.0
 10
9.5702074714
 20
8.9928851892
 30
0.0
 10
9.5760806408
 20
8.9755482029
 30
0.0
 10
9.5806835625
 20
8.9579100637
 30
0.0
 10
9.5839907737
 20
8.9400672635
 30
0.0
 10
9.585983943
 20
8.9221190904
 30
0.0
 10
9.5864303742
 20
8.9101153283
 30
0.0
 10
9.5864303742
 20
8.9041309137
 30
0.0
  0
SPLINE
  5
2E6
100
AcDbEntity
  8
0
100
AcDbSpline
 62
7
  6
CONTINUOUS
 70
0
 71
3
 72
51
 73
47
 74
0
 42
0.0000001
 43
0.0000001
 44
0.0000000001
 40
0.0
 40
0.0
 40
0.0
 40
0.0
 40
0.0149716492
 40
0.0299463581
 40
0.0449271651
 40
0.0599170757
 40
0.074919036
 40
0.0899359202
 40
0.1049705142
 40
0.1200254919
 40
0.13510341
 40
0.1502066844
 40
0.1653375793
 40
0.1804981992
 40
0.1956904672
 40
0.2109161263
 40
0.226176723
 40
0.2414735994
 40
0.2568078954
 40
0.2721805298
 40
0.2875922109
 40
0.3030434256
 40
0.3185344373
 40
0.3340652966
 40
0.3496358272
 40
0.3652456427
 40
0.3965753582
 40
0.4280524147
 40
0.4596664333
 40
0.4914041802
 40
0.5232498735
 40
0.5551855304
 40
0.5871913501
 40
0.6192461249
 40
0.6513276709
 40
0.6834132722
 40
0.7154801318
 40
0.7475058251
 40
0.7794687481
 40
0.8113485526
 40
0.8431265648
 40
0.874786179
 40
0.9063132055
 40
0.9376963031
 40
0.9689267482
 40
1.0
 40
1.0
 40
1.0
 40
1.0
 10
8.9722111613
 20
9.2560048075
 30
0.0
 10
8.9763589729
 20
9.2600112887
 30
0.0
 10
8.9848156793
 20
9.2678610755
 30
0.0
 10
8.9979600756
 20
9.279123568
 30
0.0
 10
9.0115470294
 20
9.2898598
 30
0.0
 10
9.0255576036
 20
9.3000547302
 30
0.0
 10
9.0399726227
 20
9.3096943392
 30
0.0
 10
9.0547721518
 20
9.3187654662
 30
0.0
 10
9.0699359076
 20
9.3272555088
 30
0.0
 10
9.0854429631
 20
9.3351528825
 30
0.0
 10
9.1012719881
 20
9.3424467174
 30
0.0
 10
9.1174012283
 20
9.349126912
 30
0.0
 10
9.1338084347
 20
9.3551844189
 30
0.0
 10
9.1504710821
 20
9.3606107747
 30
0.0
 10
9.1673662092
 20
9.3653986193
 30
0.0
 10
9.184470576
 20
9.3695413744
 30
0.0
 10
9.2017606669
 20
9.3730332678
 30
0.0
 10
9.219212669
 20
9.3758696531
 30
0.0
 10
9.2368025988
 20
9.3780464991
 30
0.0
 10
9.2545062468
 20
9.3795609152
 30
0.0
 10
9.2722992683
 20
9.3804108367
 30
0.0
 10
9.2901571872
 20
9.3805950149
 30
0.0
 10
9.3080554662
 20
9.380113353
 30
0.0
 10
9.3259694102
 20
9.3789664043
 30
0.0
 10
9.343874685
 20
9.3771557747
 30
0.0
 10
9.3677298503
 20
9.3738565971
 30
0.0
 10
9.3974068763
 20
9.3680813911
 30
0.0
 10
9.4325413747
 20
9.3585675278
 30
0.0
 10
9.4670544886
 20
9.3465134048
 30
0.0
 10
9.5007554915
 20
9.3319856748
 30
0.0
 10
9.533459785
 20
9.3150643098
 30
0.0
 10
9.5649878103
 20
9.2958424014
 30
0.0
 10
9.595166608
 20
9.2744256315
 30
0.0
 10
9.6238305964
 20
9.2509316848
 30
0.0
 10
9.6508224935
 20
9.225489583
 30
0.0
 10
9.6759941625
 20
9.1982389926
 30
0.0
 10
9.6992074083
 20
9.1693294616
 30
0.0
 10
9.7203347746
 20
9.138919645
 30
0.0
 10
9.7392602106
 20
9.1071764132
 30
0.0
 10
9.7558796876
 20
9.0742739357
 30
0.0
 10
9.7701017727
 20
9.040392764
 30
0.0
 10
9.7818481098
 20
9.0057187764
 30
0.0
 10
9.7910539594
 20
8.9704424699
 30
0.0
 10
9.7976683539
 20
8.9347568979
 30
0.0
 10
9.801654749
 20
8.8988605409
 30
0.0
 10
9.8025476002
 20
8.8748530183
 30
0.0
 10
9.8025476002
 20
8.8628841362
 30
0.0
  0
SPLINE
  5
2E7
100
AcDbEntity
  8
0
100
AcDbSpline
 62
7
  6
CONTINUOUS
 70
0
 71
3
 72
32
 73
28
 74
0
 42
0.0000001
 43
0.0000001
 44
0.0000000001
 40
0.0
 40
0.0
 40
0.0
 40
0.0
 40
0.0148216797
 40
0.0299139728
 40
0.0454752361
 40
0.0616850097
 40
0.078696441
 40
0.0966395541
 40
0.1156221667
 40
0.1357284514
 40
0.1570261916
 40
0.179568236
 40
0.2033919776
 40
0.2285258548
 40
0.2549891547
 40
0.2827915502
 40
0.3119381969
 40
0.3424283809
 40
0.3742554123
 40
0.4074104423
 40
0.4776447396
 40
0.5530001236
 40
0.6333077198
 40
0.7183748931
 40
0.8079920087
 40
0.9019479913
 40
1.0
 40
1.0
 40
1.0
 40
1.0
 10
9.2707331431
 20
9.1204856369
 30
0.0
 10
9.2703595363
 20
9.1205115478
 30
0.0
 10
9.2696017201
 20
9.1205194624
 30
0.0
 10
9.2684566479
 20
9.1203997446
 30
0.0
 10
9.2672971026
 20
9.1201491623
 30
0.0
 10
9.2661227761
 20
9.1197684834
 30
0.0
 10
9.2649330462
 20
9.1192585548
 30
0.0
 10
9.2637274488
 20
9.1186201218
 30
0.0
 10
9.2625056282
 20
9.1178539339
 30
0.0
 10
9.2612674808
 20
9.1169606394
 30
0.0
 10
9.2600131312
 20
9.1159409351
 30
0.0
 10
9.2587429118
 20
9.114795594
 30
0.0
 10
9.2574575004
 20
9.1135253288
 30
0.0
 10
9.2561577426
 20
9.1121310214
 30
0.0
 10
9.2548446965
 20
9.1106136311
 30
0.0
 10
9.2535197743
 20
9.1089740829
 30
0.0
 10
9.2521844734
 20
9.1072135034
 30
0.0
 10
9.2508405252
 20
9.1053330609
 30
0.0
 10
9.249489968
 20
9.1033339068
 30
0.0
 10
9.2476476636
 20
9.100456278
 30
0.0
 10
9.24534797
 20
9.0965673081
 30
0.0
 10
9.2426508227
 20
9.0915352506
 30
0.0
 10
9.2399891919
 20
9.086064225
 30
0.0
 10
9.2373889493
 20
9.0801676831
 30
0.0
 10
9.2348780679
 20
9.073859711
 30
0.0
 10
9.2324868522
 20
9.0671560312
 30
0.0
 10
9.2310234459
 20
9.0625291285
 30
0.0
 10
9.2303191237
 20
9.0601538394
 30
0.0
  0
SPLINE
  5
2E8
100
AcDbEntity
  8
0
100
AcDbSpline
 62
7
  6
CONTINUOUS
 70
0
 71
3
 72
24
 73
20
 74
0
 42
0.0000001
 43
0.0000001
 44
0.0000000001
 40
0.0
 40
0.0
 40
0.0
 40
0.0
 40
0.0637767223
 40
0.1273442464
 40
0.1907009953
 40
0.2538548358
 40
0.3168115815
 40
0.3795801539
 40
0.4421711312
 40
0.5045967629
 40
0.566870977
 40
0.6290091758
 40
0.6910281284
 40
0.7529458055
 40
0.8147811999
 40
0.8765541364
 40
0.9074261033
 40
0.938290172
 40
1.0
 40
1.0
 40
1.0
 40
1.0
 10
8.8366217167
 20
7.3476846579
 30
0.0
 10
8.8366217167
 20
7.355399023
 30
0.0
 10
8.836990963
 20
7.3708050628
 30
0.0
 10
8.8386575232
 20
7.3938204019
 30
0.0
 10
8.8414323717
 20
7.4166533012
 30
0.0
 10
8.8453088637
 20
7.4392501623
 30
0.0
 10
8.8502783351
 20
7.461559315
 30
0.0
 10
8.8563293113
 20
7.4835291888
 30
0.0
 10
8.8634478772
 20
7.5051091718
 30
0.0
 10
8.8716176729
 20
7.5262494994
 30
0.0
 10
8.8808199085
 20
7.5469014121
 30
0.0
 10
8.8910334405
 20
7.5670172654
 30
0.0
 10
8.9022347076
 20
7.5865506472
 30
0.0
 10
8.9143979581
 20
7.6054565749
 30
0.0
 10
8.9274949323
 20
7.6236911634
 30
0.0
 10
8.9391651019
 20
7.6382958873
 30
0.0
 10
8.9489349433
 20
7.6496000271
 30
0.0
 10
8.9589866841
 20
7.6606435133
 30
0.0
 10
8.966842391
 20
7.668632304
 30
0.0
 10
8.9722111613
 20
7.6738181416
 30
0.0
  0
SPLINE
  5
2E9
100
AcDbEntity
  8
0
100
AcDbSpline
 62
7
  6
CONTINUOUS
 70
0
 71
3
 72
24
 73
20
 74
0
 42
0.0000001
 43
0.0000001
 44
0.0000000001
 40
0.0
 40
0.0
 40
0.0
 40
0.0
 40
0.0653425927
 40
0.1314293094
 40
0.1980134412
 40
0.2648370744
 40
0.3316394553
 40
0.3981598316
 40
0.464142349
 40
0.5293404725
 40
0.59352161
 40
0.6564718524
 40
0.7180008989
 40
0.7779472057
 40
0.83618337
 40
0.8926217366
 40
0.920157737
 40
0.9472326547
 40
1.0
 40
1.0
 40
1.0
 40
1.0
 10
9.4210760488
 20
7.443002818
 30
0.0
 10
9.4215551428
 20
7.4361182292
 30
0.0
 10
9.422941638
 20
7.4222967141
 30
0.0
 10
9.4262538907
 20
7.4016358518
 30
0.0
 10
9.4307893243
 20
7.3810478571
 30
0.0
 10
9.4365155467
 20
7.3606806199
 30
0.0
 10
9.4433916153
 20
7.3406793287
 30
0.0
 10
9.4513684869
 20
7.3211868392
 30
0.0
 10
9.4603892795
 20
7.3023423015
 30
0.0
 10
9.4703897258
 20
7.2842802434
 30
0.0
 10
9.4812986401
 20
7.267129582
 30
0.0
 10
9.4930384978
 20
7.2510127081
 30
0.0
 10
9.5055259376
 20
7.2360446982
 30
0.0
 10
9.5186727123
 20
7.2223323068
 30
0.0
 10
9.5323852282
 20
7.2099741171
 30
0.0
 10
9.5443015999
 20
7.2008023334
 30
0.0
 10
9.5540278909
 20
7.1942419742
 30
0.0
 10
9.5636946015
 20
7.1883072493
 30
0.0
 10
9.5711694769
 20
7.1843705875
 30
0.0
 10
9.5762199393
 20
7.182014289
 30
0.0
  0
SPLINE
  5
2EA
100
AcDbEntity
  8
0
100
AcDbSpline
 62
7
  6
CONTINUOUS
 70
0
 71
3
 72
14
 73
10
 74
0
 42
0.0000001
 43
0.0000001
 44
0.0000000001
 40
0.0
 40
0.0
 40
0.0
 40
0.0
 40
0.1331148245
 40
0.2643606222
 40
0.3934755715
 40
0.5202297185
 40
0.6444192627
 40
0.7658760708
 40
1.0
 40
1.0
 40
1.0
 40
1.0
 10
9.4210760488
 20
7.443002818
 30
0.0
 10
9.4207044773
 20
7.4483423059
 30
0.0
 10
9.4202174852
 20
7.4589656654
 30
0.0
 10
9.420266022
 20
7.4747929858
 30
0.0
 10
9.4210981154
 20
7.4903431709
 30
0.0
 10
9.422710047
 20
7.505546599
 30
0.0
 10
9.4250953811
 20
7.5203380011
 30
0.0
 10
9.429240298
 20
7.5391845081
 30
0.0
 10
9.4335376917
 20
7.5528719211
 30
0.0
 10
9.4369532542
 20
7.5616443101
 30
0.0
  0
SPLINE
  5
2EB
100
AcDbEntity
  8
0
100
AcDbSpline
 62
7
  6
CONTINUOUS
 70
0
 71
3
 72
23
 73
19
 74
0
 42
0.0000001
 43
0.0000001
 44
0.0000000001
 40
0.0
 40
0.0
 40
0.0
 40
0.0
 40
0.0637748419
 40
0.1273454053
 40
0.1907023746
 40
0.2538558225
 40
0.3168132293
 40
0.3795821318
 40
0.4421733557
 40
0.5045993383
 40
0.566873869
 40
0.6290123749
 40
0.6910316549
 40
0.7529496458
 40
0.8147853539
 40
0.8765586087
 40
0.9382898542
 40
1.0
 40
1.0
 40
1.0
 40
1.0
 10
10.7481889554
 20
6.8287466317
 30
0.0
 10
10.7481889554
 20
6.832032833
 30
0.0
 10
10.7483463027
 20
6.8385958213
 30
0.0
 10
10.7490561834
 20
6.8484003674
 30
0.0
 10
10.7502382679
 20
6.8581272698
 30
0.0
 10
10.75188972
 20
6.8677534815
 30
0.0
 10
10.7540066457
 20
6.877257162
 30
0.0
 10
10.7565843694
 20
6.8866163285
 30
0.0
 10
10.759616888
 20
6.8958093812
 30
0.0
 10
10.7630971756
 20
6.9048151621
 30
0.0
 10
10.7670173579
 20
6.9136128511
 30
0.0
 10
10.7713682951
 20
6.9221822006
 30
0.0
 10
10.7761400045
 20
6.930503431
 30
0.0
 10
10.7813215544
 20
6.9385573122
 30
0.0
 10
10.7869008802
 20
6.9463253169
 30
0.0
 10
10.7928652804
 20
6.9537895205
 30
0.0
 10
10.7992007351
 20
6.9609324872
 30
0.0
 10
10.8036628112
 20
6.9654701909
 30
0.0
 10
10.8059499031
 20
6.9676793561
 30
0.0
  0
SPLINE
  5
2EC
100
AcDbEntity
  8
0
100
AcDbSpline
 62
7
  6
CONTINUOUS
 70
0
 71
3
 72
63
 73
59
 74
0
 42
0.0000001
 43
0.0000001
 44
0.0000000001
 40
0.0
 40
0.0
 40
0.0
 40
0.0
 40
0.0709288995
 40
0.1067550874
 40
0.1428442861
 40
0.1792178308
 40
0.2159026932
 40
0.2529339331
 40
0.2903586725
 40
0.3092381492
 40
0.3282426899
 40
0.3473854111
 40
0.36668263
 40
0.3861549796
 40
0.4058289524
 40
0.4257389185
 40
0.4357958839
 40
0.4459291205
 40
0.4561451487
 40
0.4664494401
 40
0.4768430601
 40
0.487313287
 40
0.4978057466
 40
0.5030153078
 40
0.5081438777
 40
0.5131174828
 40
0.5178122615
 40
0.5220846807
 40
0.5258063142
 40
0.5289617489
 40
0.5316535575
 40
0.5340502059
 40
0.5363093908
 40
0.5385394365
 40
0.5408007463
 40
0.5455087476
 40
0.5505052978
 40
0.5557630535
 40
0.5612416439
 40
0.5669045313
 40
0.5786672408
 40
0.5908779825
 40
0.603421819
 40
0.6162208686
 40
0.6292202228
 40
0.6423797336
 40
0.6556691355
 40
0.6690650105
 40
0.6961050071
 40
0.7233910221
 40
0.7508482049
 40
0.7784231584
 40
0.8060765232
 40
0.8337784372
 40
0.8615058337
 40
0.8892405852
 40
0.944675241
 40
1.0
 40
1.0
 40
1.0
 40
1.0
 10
9.564642714
 20
7.1698729443
 30
0.0
 10
9.5632271086
 20
7.1702753843
 30
0.0
 10
9.5611014711
 20
7.1708987944
 30
0.0
 10
9.5582664987
 20
7.1717633755
 30
0.0
 10
9.5561216177
 20
7.1724327213
 30
0.0
 10
9.5539635832
 20
7.173119581
 30
0.0
 10
9.5517901439
 20
7.1738223976
 30
0.0
 10
9.5495982844
 20
7.1745390861
 30
0.0
 10
9.5477584613
 20
7.1751436612
 30
0.0
 10
9.5462735767
 20
7.175630243
 30
0.0
 10
9.5451486345
 20
7.1759970838
 30
0.0
 10
9.5440145273
 20
7.1763637689
 30
0.0
 10
9.5428697533
 20
7.1767289921
 30
0.0
 10
9.5417123885
 20
7.1770909701
 30
0.0
 10
9.5405399239
 20
7.1774471458
 30
0.0
 10
9.5395509151
 20
7.1777349583
 30
0.0
 10
9.5387490739
 20
7.1779571154
 30
0.0
 10
9.5381393007
 20
7.1781190589
 30
0.0
 10
9.5375224424
 20
7.1782741333
 30
0.0
 10
9.5368977764
 20
7.1784199892
 30
0.0
 10
9.5362648488
 20
7.178553131
 30
0.0
 10
9.5356243491
 20
7.1786679976
 30
0.0
 10
9.5350859679
 20
7.1787412505
 30
0.0
 10
9.5346552658
 20
7.1787784673
 30
0.0
 10
9.5343377469
 20
7.1787923841
 30
0.0
 10
9.5340305373
 20
7.1787887846
 30
0.0
 10
9.5337420119
 20
7.1787637
 30
0.0
 10
9.5334827864
 20
7.1787141901
 30
0.0
 10
9.533262968
 20
7.1786388973
 30
0.0
 10
9.5330890769
 20
7.178540012
 30
0.0
 10
9.5329629222
 20
7.1784218255
 30
0.0
 10
9.5328812699
 20
7.1782911006
 30
0.0
 10
9.5328369792
 20
7.1781539636
 30
0.0
 10
9.5328222666
 20
7.1780138722
 30
0.0
 10
9.5328335953
 20
7.1778226904
 30
0.0
 10
9.5328957425
 20
7.1775802921
 30
0.0
 10
9.5330184804
 20
7.1772944697
 30
0.0
 10
9.5331777357
 20
7.177009005
 30
0.0
 10
9.5333650235
 20
7.1767246667
 30
0.0
 10
9.5336481095
 20
7.1763427172
 30
0.0
 10
9.5340458356
 20
7.1758729688
 30
0.0
 10
9.5345676171
 20
7.1753232265
 30
0.0
 10
9.5351275887
 20
7.1747811231
 30
0.0
 10
9.5357172845
 20
7.1742469364
 30
0.0
 10
9.5363309867
 20
7.1737207122
 30
0.0
 10
9.5369645561
 20
7.1732023984
 30
0.0
 10
9.537614918
 20
7.1726919017
 30
0.0
 10
9.5385040693
 20
7.1720194685
 30
0.0
 10
9.5396453697
 20
7.1711993711
 30
0.0
 10
9.5410504359
 20
7.1702475745
 30
0.0
 10
9.5424878411
 20
7.1693246883
 30
0.0
 10
9.5439521213
 20
7.1684304037
 30
0.0
 10
9.5454392009
 20
7.1675644602
 30
0.0
 10
9.5469459098
 20
7.1667266381
 30
0.0
 10
9.5484697281
 20
7.1659167566
 30
0.0
 10
9.5505211081
 20
7.1648742159
 30
0.0
 10
9.5531172261
 20
7.1636408116
 30
0.0
 10
9.5552259039
 20
7.162725826
 30
0.0
 10
9.5562864343
 20
7.1622864887
 30
0.0
  0
SPLINE
  5
2ED
100
AcDbEntity
  8
0
100
AcDbSpline
 62
7
  6
CONTINUOUS
 70
0
 71
3
 72
49
 73
45
 74
0
 42
0.0000001
 43
0.0000001
 44
0.0000000001
 40
0.0
 40
0.0
 40
0.0
 40
0.0
 40
0.0378126678
 40
0.0760191833
 40
0.1145315913
 40
0.1532645855
 40
0.1921302441
 40
0.2310409693
 40
0.2699088596
 40
0.3086461551
 40
0.347165484
 40
0.3853800912
 40
0.4232041003
 40
0.4605527681
 40
0.4973427527
 40
0.5334923658
 40
0.5689218342
 40
0.6035535685
 40
0.6373124477
 40
0.670126132
 40
0.7019253617
 40
0.732644284
 40
0.7622208174
 40
0.7905970638
 40
0.8043185081
 40
0.8177203466
 40
0.830796754
 40
0.8435422278
 40
0.8559517607
 40
0.8680206388
 40
0.8797447099
 40
0.8911202558
 40
0.9021440611
 40
0.9128135739
 40
0.9231267422
 40
0.9330823447
 40
0.9426798516
 40
0.9519195606
 40
0.9608027573
 40
0.9693317075
 40
0.9775101973
 40
0.9853433366
 40
0.9928373965
 40
1.0
 40
1.0
 40
1.0
 40
1.0
 10
14.0871272006
 20
8.6455623987
 30
0.0
 10
14.0871272006
 20
8.6565009903
 30
0.0
 10
14.0872725973
 20
8.6784923604
 30
0.0
 10
14.0879169908
 20
8.7116190712
 30
0.0
 10
14.0889875394
 20
8.7450011617
 30
0.0
 10
14.0904815854
 20
8.7785578189
 30
0.0
 10
14.0923956088
 20
8.8122085519
 30
0.0
 10
14.0947249828
 20
8.845872199
 30
0.0
 10
14.0974641053
 20
8.8794677323
 30
0.0
 10
14.1006063682
 20
8.9129142462
 30
0.0
 10
14.1041441923
 20
8.9461312027
 30
0.0
 10
14.1080690436
 20
8.9790386197
 30
0.0
 10
14.1123714534
 20
9.0115572598
 30
0.0
 10
14.1170410359
 20
9.0436088286
 30
0.0
 10
14.1220665052
 20
9.0751161668
 30
0.0
 10
14.127435717
 20
9.1060034346
 30
0.0
 10
14.1331356943
 20
9.1361962929
 30
0.0
 10
14.1391526579
 20
9.1656220832
 30
0.0
 10
14.1454720616
 20
9.1942100097
 30
0.0
 10
14.1520786089
 20
9.2218913251
 30
0.0
 10
14.1589563079
 20
9.2485994815
 30
0.0
 10
14.1660885047
 20
9.2742703507
 30
0.0
 10
14.1734579365
 20
9.298842172
 30
0.0
 10
14.179851328
 20
9.3185681923
 30
0.0
 10
14.1850794342
 20
9.3337486068
 30
0.0
 10
14.1890047842
 20
9.3446955596
 30
0.0
 10
14.1929758802
 20
9.3553251311
 30
0.0
 10
14.1969904024
 20
9.3656309317
 30
0.0
 10
14.2010458479
 20
9.3756067867
 30
0.0
 10
14.2051398513
 20
9.3852466913
 30
0.0
 10
14.209269896
 20
9.3945448748
 30
0.0
 10
14.2134335019
 20
9.4034957643
 30
0.0
 10
14.2176282087
 20
9.412093983
 30
0.0
 10
14.221851414
 20
9.4203344126
 30
0.0
 10
14.2261006756
 20
9.4282120996
 30
0.0
 10
14.230373385
 20
9.4357223736
 30
0.0
 10
14.2346670211
 20
9.4428607553
 30
0.0
 10
14.238979052
 20
9.4496229734
 30
0.0
 10
14.2433068185
 20
9.4560050442
 30
0.0
 10
14.2476478887
 20
9.4620031637
 30
0.0
 10
14.2519997049
 20
9.4676138874
 30
0.0
 10
14.2563598788
 20
9.472833927
 30
0.0
 10
14.2607256012
 20
9.4776599035
 30
0.0
 10
14.2637042431
 20
9.4806797425
 30
0.0
 10
14.2651945566
 20
9.4821192748
 30
0.0
  0
SPLINE
  5
2EE
100
AcDbEntity
  8
0
100
AcDbSpline
 62
7
  6
CONTINUOUS
 70
0
 71
3
 72
23
 73
19
 74
0
 42
0.0000001
 43
0.0000001
 44
0.0000000001
 40
0.0
 40
0.0
 40
0.0
 40
0.0
 40
0.0637748419
 40
0.1273454053
 40
0.1907023746
 40
0.2538558225
 40
0.3168132293
 40
0.3795821318
 40
0.4421733557
 40
0.5045993383
 40
0.566873869
 40
0.6290123749
 40
0.6910316549
 40
0.7529496458
 40
0.8147853539
 40
0.8765586087
 40
0.9382898542
 40
1.0
 40
1.0
 40
1.0
 40
1.0
 10
10.7481889554
 20
9.1856058428
 30
0.0
 10
10.7481889554
 20
9.1888920441
 30
0.0
 10
10.7483463027
 20
9.1954550324
 30
0.0
 10
10.7490561834
 20
9.2052595784
 30
0.0
 10
10.7502382679
 20
9.2149864809
 30
0.0
 10
10.75188972
 20
9.2246126926
 30
0.0
 10
10.7540066457
 20
9.2341163731
 30
0.0
 10
10.7565843694
 20
9.2434755395
 30
0.0
 10
10.759616888
 20
9.2526685923
 30
0.0
 10
10.7630971756
 20
9.2616743732
 30
0.0
 10
10.7670173579
 20
9.2704720622
 30
0.0
 10
10.7713682951
 20
9.2790414117
 30
0.0
 10
10.7761400045
 20
9.2873626421
 30
0.0
 10
10.7813215544
 20
9.2954165233
 30
0.0
 10
10.7869008802
 20
9.3031845279
 30
0.0
 10
10.7928652804
 20
9.3106487315
 30
0.0
 10
10.7992007351
 20
9.3177916982
 30
0.0
 10
10.8036628112
 20
9.322329402
 30
0.0
 10
10.8059499031
 20
9.3245385672
 30
0.0
  0
SPLINE
  5
2EF
100
AcDbEntity
  8
0
100
AcDbSpline
 62
7
  6
CONTINUOUS
 70
0
 71
3
 72
23
 73
19
 74
0
 42
0.0000001
 43
0.0000001
 44
0.0000000001
 40
0.0
 40
0.0
 40
0.0
 40
0.0
 40
0.0637748419
 40
0.1273454053
 40
0.1907023746
 40
0.2538558225
 40
0.3168132293
 40
0.3795821318
 40
0.4421733557
 40
0.5045993383
 40
0.566873869
 40
0.6290123749
 40
0.6910316549
 40
0.7529496458
 40
0.8147853539
 40
0.8765586087
 40
0.9382898542
 40
1.0
 40
1.0
 40
1.0
 40
1.0
 10
7.6688170435
 20
9.4571165079
 30
0.0
 10
7.6688170435
 20
9.4604027093
 30
0.0
 10
7.6689743907
 20
9.4669656976
 30
0.0
 10
7.6696842714
 20
9.4767702436
 30
0.0
 10
7.6708663559
 20
9.4864971461
 30
0.0
 10
7.672517808
 20
9.4961233578
 30
0.0
 10
7.6746347337
 20
9.5056270382
 30
0.0
 10
7.6772124574
 20
9.5149862047
 30
0.0
 10
7.680244976
 20
9.5241792575
 30
0.0
 10
7.6837252637
 20
9.5331850383
 30
0.0
 10
7.687645446
 20
9.5419827274
 30
0.0
 10
7.6919963831
 20
9.5505520769
 30
0.0
 10
7.6967680925
 20
9.5588733073
 30
0.0
 10
7.7019496425
 20
9.5669271885
 30
0.0
 10
7.7075289682
 20
9.5746951931
 30
0.0
 10
7.7134933685
 20
9.5821593967
 30
0.0
 10
7.7198288231
 20
9.5893023634
 30
0.0
 10
7.7242908992
 20
9.5938400672
 30
0.0
 10
7.7265779911
 20
9.5960492323
 30
0.0
  0
SPLINE
  5
2F0
100
AcDbEntity
  8
0
100
AcDbSpline
 62
7
  6
CONTINUOUS
 70
0
 71
3
 72
49
 73
45
 74
0
 42
0.0000001
 43
0.0000001
 44
0.0000000001
 40
0.0
 40
0.0
 40
0.0
 40
0.0
 40
0.0378127845
 40
0.0760191223
 40
0.114531607
 40
0.1532645858
 40
0.1921302413
 40
0.2310409706
 40
0.2699088597
 40
0.3086461572
 40
0.3471654842
 40
0.3853800876
 40
0.4232040959
 40
0.4605527702
 40
0.4973427611
 40
0.533492372
 40
0.5689218309
 40
0.6035535573
 40
0.637312442
 40
0.6701261391
 40
0.7019253763
 40
0.7326442909
 40
0.7622208088
 40
0.7905970516
 40
0.80431852
 40
0.8177203446
 40
0.8307967508
 40
0.843542237
 40
0.8559517495
 40
0.8680206515
 40
0.8797447052
 40
0.8911202579
 40
0.9021440651
 40
0.9128135674
 40
0.9231267538
 40
0.9330823402
 40
0.9426798495
 40
0.9519195568
 40
0.960802764
 40
0.9693317342
 40
0.977510198
 40
0.9853432953
 40
0.992837349
 40
1.0
 40
1.0
 40
1.0
 40
1.0
 10
14.0111930282
 20
8.6342156162
 30
0.0
 10
14.0111930282
 20
8.6461399898
 30
0.0
 10
14.0113515235
 20
8.6701131211
 30
0.0
 10
14.0120539938
 20
8.7062250927
 30
0.0
 10
14.0132210104
 20
8.7426154165
 30
0.0
 10
14.0148496997
 20
8.779196093
 30
0.0
 10
14.0169362093
 20
8.8158793002
 30
0.0
 10
14.019475493
 20
8.8525765902
 30
0.0
 10
14.0224614516
 20
8.8891996298
 30
0.0
 10
14.0258868844
 20
8.9256602187
 30
0.0
 10
14.0297435282
 20
8.9618705622
 30
0.0
 10
14.0340220771
 20
8.9977434706
 30
0.0
 10
14.0387122036
 20
9.0331925701
 30
0.0
 10
14.0438025843
 20
9.068132512
 30
0.0
 10
14.049280926
 20
9.1024791783
 30
0.0
 10
14.0551339943
 20
9.1361498896
 30
0.0
 10
14.0613476383
 20
9.1690636086
 30
0.0
 10
14.067906833
 20
9.2011411368
 30
0.0
 10
14.0747957133
 20
9.2323053051
 30
0.0
 10
14.0819976124
 20
9.2624811674
 30
0.0
 10
14.0894951006
 20
9.2915961687
 30
0.0
 10
14.0972700293
 20
9.3195803946
 30
0.0
 10
14.10530357
 20
9.3463665274
 30
0.0
 10
14.1122731239
 20
9.3678701801
 30
0.0
 10
14.1179723413
 20
9.3844186083
 30
0.0
 10
14.1222514439
 20
9.3963520577
 30
0.0
 10
14.1265804025
 20
9.4079395248
 30
0.0
 10
14.1309566803
 20
9.4191740499
 30
0.0
 10
14.1353776163
 20
9.4300488854
 30
0.0
 10
14.139840525
 20
9.4405575107
 30
0.0
 10
14.1443427777
 20
9.4506936061
 30
0.0
 10
14.1488815813
 20
9.4604511184
 30
0.0
 10
14.1534542952
 20
9.4698241783
 30
0.0
 10
14.1580580984
 20
9.4788071986
 30
0.0
 10
14.1626902651
 20
9.4873948026
 30
0.0
 10
14.1673480346
 20
9.495581865
 30
0.0
 10
14.1720285795
 20
9.503363536
 30
0.0
 10
14.1767292004
 20
9.5107351409
 30
0.0
 10
14.1814469832
 20
9.5176923412
 30
0.0
 10
14.1861792474
 20
9.524230996
 30
0.0
 10
14.1909232306
 20
9.5303473198
 30
0.0
 10
14.1956763014
 20
9.536037761
 30
0.0
 10
14.200435448
 20
9.5412986351
 30
0.0
 10
14.2036825261
 20
9.5445906171
 30
0.0
 10
14.2053071519
 20
9.5461598852
 30
0.0
  0
SPLINE
  5
2F1
100
AcDbEntity
  8
0
100
AcDbSpline
 62
7
  6
CONTINUOUS
 70
0
 71
3
 72
23
 73
19
 74
0
 42
0.0000001
 43
0.0000001
 44
0.0000000001
 40
0.0
 40
0.0
 40
0.0
 40
0.0
 40
0.0637748419
 40
0.1273454053
 40
0.1907023746
 40
0.2538558225
 40
0.3168132293
 40
0.3795821318
 40
0.4421733557
 40
0.5045993383
 40
0.566873869
 40
0.6290123749
 40
0.6910316549
 40
0.7529496458
 40
0.8147853539
 40
0.8765586087
 40
0.9382898542
 40
1.0
 40
1.0
 40
1.0
 40
1.0
 10
7.6688170435
 20
6.9843462726
 30
0.0
 10
7.6688170435
 20
6.9876324739
 30
0.0
 10
7.6689743907
 20
6.9941954622
 30
0.0
 10
7.6696842714
 20
7.0040000083
 30
0.0
 10
7.6708663559
 20
7.0137269107
 30
0.0
 10
7.672517808
 20
7.0233531224
 30
0.0
 10
7.6746347337
 20
7.0328568029
 30
0.0
 10
7.6772124574
 20
7.0422159694
 30
0.0
 10
7.680244976
 20
7.0514090221
 30
0.0
 10
7.6837252637
 20
7.060414803
 30
0.0
 10
7.687645446
 20
7.069212492
 30
0.0
 10
7.6919963831
 20
7.0777818415
 30
0.0
 10
7.6967680925
 20
7.0861030719
 30
0.0
 10
7.7019496425
 20
7.0941569531
 30
0.0
 10
7.7075289682
 20
7.1019249578
 30
0.0
 10
7.7134933685
 20
7.1093891614
 30
0.0
 10
7.7198288231
 20
7.1165321281
 30
0.0
 10
7.7242908992
 20
7.1210698318
 30
0.0
 10
7.7265779911
 20
7.123278997
 30
0.0
  0
SPLINE
  5
2F2
100
AcDbEntity
  8
0
100
AcDbSpline
 62
7
  6
CONTINUOUS
 70
0
 71
3
 72
22
 73
18
 74
0
 42
0.0000001
 43
0.0000001
 44
0.0000000001
 40
0.0
 40
0.0
 40
0.0
 40
0.0
 40
0.0764234266
 40
0.1504697767
 40
0.2222093971
 40
0.2917226928
 40
0.3591048967
 40
0.4244647586
 40
0.549574461
 40
0.6096452591
 40
0.6682571153
 40
0.7255853992
 40
0.7818195857
 40
0.8371613921
 40
0.8918233766
 40
0.9460270623
 40
1.0
 40
1.0
 40
1.0
 40
1.0
 10
14.4313810316
 20
7.255498017
 30
0.0
 10
14.4301445557
 20
7.2543036729
 30
0.0
 10
14.4276720644
 20
7.2519910193
 30
0.0
 10
14.4239043757
 20
7.248704734
 30
0.0
 10
14.420138339
 20
7.245657807
 30
0.0
 10
14.4163751714
 20
7.2428514079
 30
0.0
 10
14.4126156943
 20
7.2402862556
 30
0.0
 10
14.4076822084
 20
7.237233691
 30
0.0
 10
14.4026834612
 20
7.2346062213
 30
0.0
 10
14.397637051
 20
7.2324537791
 30
0.0
 10
14.393911916
 20
7.2311057828
 30
0.0
 10
14.3901968252
 20
7.2300031247
 30
0.0
 10
14.3864927842
 20
7.2291461489
 30
0.0
 10
14.3828009697
 20
7.2285352771
 30
0.0
 10
14.3791224875
 20
7.2281709054
 30
0.0
 10
14.3754587908
 20
7.2280531635
 30
0.0
 10
14.3730247368
 20
7.2281392459
 30
0.0
 10
14.3718135508
 20
7.2282232371
 30
0.0
  0
SPLINE
  5
2F3
100
AcDbEntity
  8
0
100
AcDbSpline
 62
7
  6
CONTINUOUS
 70
0
 71
3
 72
105
 73
101
 74
0
 42
0.0000001
 43
0.0000001
 44
0.0000000001
 40
0.0
 40
0.0
 40
0.0
 40
0.0
 40
0.0039487962
 40
0.0077208638
 40
0.0113255553
 40
0.0147744494
 40
0.0180811238
 40
0.0212612681
 40
0.0243327811
 40
0.0273158475
 40
0.0302326961
 40
0.0331072615
 40
0.035964634
 40
0.0388304009
 40
0.0417299062
 40
0.0446875523
 40
0.0477261973
 40
0.0508667625
 40
0.0541279536
 40
0.0575262431
 40
0.0610758534
 40
0.0647889647
 40
0.0686758218
 40
0.072744997
 40
0.077003534
 40
0.081457164
 40
0.0861104624
 40
0.0909669773
 40
0.0960293993
 40
0.1012996024
 40
0.1067788241
 40
0.1124676412
 40
0.1183661474
 40
0.1244738986
 40
0.1307900651
 40
0.1373133835
 40
0.1440422611
 40
0.1509747613
 40
0.1581086488
 40
0.1654414202
 40
0.1729702909
 40
0.180692269
 40
0.1886040954
 40
0.1967023473
 40
0.2049833535
 40
0.2134433037
 40
0.2308835407
 40
0.2489892805
 40
0.2677240585
 40
0.2870492312
 40
0.3069241878
 40
0.3273065425
 40
0.348152314
 40
0.3694160961
 40
0.3910512204
 40
0.413009914
 40
0.4352434532
 40
0.4577023149
 40
0.4803363252
 40
0.5030948077
 40
0.5259267305
 40
0.5487808521
 40
0.5716058679
 40
0.5943505558
 40
0.6169639229
 40
0.6393953517
 40
0.6615947473
 40
0.6835126854
 40
0.7051005617
 40
0.7263107433
 40
0.747096723
 40
0.7674132771
 40
0.7872166297
 40
0.8064646228
 40
0.8251168984
 40
0.8431350926
 40
0.8518951315
 40
0.8604832956
 40
0.8688954309
 40
0.8771275904
 40
0.8851759776
 40
0.8930370052
 40
0.900707281
 40
0.9081836217
 40
0.9154630917
 40
0.9225429706
 40
0.9294208419
 40
0.9360945249
 40
0.9425622017
 40
0.9488223342
 40
0.9548738026
 40
0.9607158444
 40
0.9663481876
 40
0.9717710347
 40
0.9769851375
 40
0.9819918577
 40
0.986793307
 40
0.9913925153
 40
0.9957932479
 40
1.0
 40
1.0
 40
1.0
 40
1.0
 10
14.5061139803
 20
8.9884129636
 30
0.0
 10
14.508045061
 20
8.9902101433
 30
0.0
 10
14.5119055319
 20
8.9936347222
 30
0.0
 10
14.51782905
 20
8.9983478785
 30
0.0
 10
14.5237464251
 20
9.0025135942
 30
0.0
 10
14.5296542649
 20
9.006129005
 30
0.0
 10
14.5355497102
 20
9.00919146
 30
0.0
 10
14.5414295562
 20
9.011698585
 30
0.0
 10
14.5472905534
 20
9.0136477431
 30
0.0
 10
14.5531289925
 20
9.0150368263
 30
0.0
 10
14.558940879
 20
9.0158637662
 30
0.0
 10
14.5647217299
 20
9.0161272402
 30
0.0
 10
14.5704667635
 20
9.015826497
 30
0.0
 10
14.5761710607
 20
9.0149617229
 30
0.0
 10
14.5818298777
 20
9.013534034
 30
0.0
 10
14.5874387967
 20
9.0115451574
 30
0.0
 10
14.5929939716
 20
9.0089975719
 30
0.0
 10
14.5984918957
 20
9.0058937972
 30
0.0
 10
14.6039296148
 20
9.0022368264
 30
0.0
 10
14.6093042043
 20
8.9980294304
 30
0.0
 10
14.6146131004
 20
8.9932747596
 30
0.0
 10
14.6198535483
 20
8.9879758279
 30
0.0
 10
14.6250229986
 20
8.9821360205
 30
0.0
 10
14.630118699
 20
8.9757587859
 30
0.0
 10
14.6351379877
 20
8.9688479213
 30
0.0
 10
14.6400781141
 20
8.9614074545
 30
0.0
 10
14.6449363137
 20
8.9534417207
 30
0.0
 10
14.6497098807
 20
8.9449553864
 30
0.0
 10
14.6543960037
 20
8.9359533886
 30
0.0
 10
14.6589920538
 20
8.9264410382
 30
0.0
 10
14.6634952357
 20
8.9164238978
 30
0.0
 10
14.6679030072
 20
8.905907906
 30
0.0
 10
14.672212649
 20
8.8948992523
 30
0.0
 10
14.6764217002
 20
8.8834044804
 30
0.0
 10
14.6805275665
 20
8.8714303945
 30
0.0
 10
14.6845278613
 20
8.8589841223
 30
0.0
 10
14.6884201476
 20
8.8460730622
 30
0.0
 10
14.6922021141
 20
8.8327049075
 30
0.0
 10
14.6958714964
 20
8.8188876259
 30
0.0
 10
14.6994260681
 20
8.8046294591
 30
0.0
 10
14.7028637401
 20
8.7899389183
 30
0.0
 10
14.7061823876
 20
8.7748247746
 30
0.0
 10
14.7093800908
 20
8.7592960568
 30
0.0
 10
14.712454845
 20
8.7433620481
 30
0.0
 10
14.715404903
 20
8.7270322569
 30
0.0
 10
14.7192080679
 20
8.7045161674
 30
0.0
 10
14.7236247454
 20
8.6754494239
 30
0.0
 10
14.7283485103
 20
8.6394941519
 30
0.0
 10
14.7325367053
 20
8.6022052613
 30
0.0
 10
14.7361791856
 20
8.5636719741
 30
0.0
 10
14.7392670979
 20
8.5239863491
 30
0.0
 10
14.7417929415
 20
8.4832432878
 30
0.0
 10
14.7437505746
 20
8.4415402339
 30
0.0
 10
14.7451352292
 20
8.3989769527
 30
0.0
 10
14.7459435213
 20
8.3556552826
 30
0.0
 10
14.7461734573
 20
8.3116788894
 30
0.0
 10
14.7458244384
 20
8.2671530152
 30
0.0
 10
14.7448972607
 20
8.2221842245
 30
0.0
 10
14.7433941131
 20
8.1768801474
 30
0.0
 10
14.7413185712
 20
8.1313492201
 30
0.0
 10
14.7386755884
 20
8.0857004247
 30
0.0
 10
14.7354714839
 20
8.0400430268
 30
0.0
 10
14.7317139273
 20
7.9944863126
 30
0.0
 10
14.7274119199
 20
7.9491393267
 30
0.0
 10
14.7225757744
 20
7.9041106087
 30
0.0
 10
14.7172170896
 20
7.8595079329
 30
0.0
 10
14.7113487227
 20
7.8154380481
 30
0.0
 10
14.7049847586
 20
7.772006421
 30
0.0
 10
14.6981404768
 20
7.7293169815
 30
0.0
 10
14.6908323156
 20
7.6874718719
 30
0.0
 10
14.6830778326
 20
7.6465712006
 30
0.0
 10
14.6748956644
 20
7.6067127942
 30
0.0
 10
14.6663054809
 20
7.567991976
 30
0.0
 10
14.6573279445
 20
7.5305012722
 30
0.0
 10
14.6479846392
 20
7.4943303965
 30
0.0
 10
14.6398380765
 20
7.4650922715
 30
0.0
 10
14.633145983
 20
7.4424330719
 30
0.0
 10
14.6280966881
 20
7.4259810362
 30
0.0
 10
14.6229731125
 20
7.4099217492
 30
0.0
 10
14.6177783558
 20
7.3942647961
 30
0.0
 10
14.6125155031
 20
7.3790195426
 30
0.0
 10
14.6071877252
 20
7.3641950973
 30
0.0
 10
14.601798218
 20
7.3498003156
 30
0.0
 10
14.5963501892
 20
7.335843799
 30
0.0
 10
14.5908469452
 20
7.3223338703
 30
0.0
 10
14.5852917214
 20
7.3092786031
 30
0.0
 10
14.5796879203
 20
7.2966857647
 30
0.0
 10
14.5740388067
 20
7.2845628796
 30
0.0
 10
14.5683478505
 20
7.2729171395
 30
0.0
 10
14.5626183566
 20
7.2617554969
 30
0.0
 10
14.5568538286
 20
7.2510845555
 30
0.0
 10
14.5510576247
 20
7.2409106652
 30
0.0
 10
14.5452332323
 20
7.2312398253
 30
0.0
 10
14.5393840577
 20
7.2220777633
 30
0.0
 10
14.5335135696
 20
7.2134298966
 30
0.0
 10
14.5276252386
 20
7.205301291
 30
0.0
 10
14.521722397
 20
7.1976967064
 30
0.0
 10
14.5158083715
 20
7.1906204691
 30
0.0
 10
14.5098867795
 20
7.184077121
 30
0.0
 10
14.5058468423
 20
7.1799819379
 30
0.0
 10
14.503825518
 20
7.1780294884
 30
0.0
  0
SPLINE
  5
2F4
100
AcDbEntity
  8
0
100
AcDbSpline
 62
7
  6
CONTINUOUS
 70
0
 71
3
 72
29
 73
25
 74
0
 42
0.0000001
 43
0.0000001
 44
0.0000000001
 40
0.0
 40
0.0
 40
0.0
 40
0.0
 40
0.0755836755
 40
0.1466143562
 40
0.2134286572
 40
0.2764666867
 40
0.3362686904
 40
0.3651658039
 40
0.3935045519
 40
0.4213816903
 40
0.4488992609
 40
0.4761636692
 40
0.503284649
 40
0.5303738152
 40
0.5575431712
 40
0.5849037119
 40
0.6125638739
 40
0.6406282505
 40
0.6691966684
 40
0.7281925824
 40
0.7902529585
 40
0.8559465767
 40
0.925738346
 40
1.0
 40
1.0
 40
1.0
 40
1.0
 10
14.6756812234
 20
9.8786189711
 30
0.0
 10
14.6775933775
 20
9.8804659702
 30
0.0
 10
14.681415152
 20
9.8839352015
 30
0.0
 10
14.6873296815
 20
9.8885698599
 30
0.0
 10
14.6932374311
 20
9.8924623469
 30
0.0
 10
14.6991322868
 20
9.8956066382
 30
0.0
 10
14.7040871292
 20
9.8976216061
 30
0.0
 10
14.7080225171
 20
9.8988365557
 30
0.0
 10
14.7109324017
 20
9.899548011
 30
0.0
 10
14.7138329676
 20
9.9000696524
 30
0.0
 10
14.7167234119
 20
9.9004012866
 30
0.0
 10
14.7196028077
 20
9.9005426678
 30
0.0
 10
14.7224702196
 20
9.9004936941
 30
0.0
 10
14.7253247021
 20
9.9002544204
 30
0.0
 10
14.7281653168
 20
9.8998249236
 30
0.0
 10
14.7309911271
 20
9.8992053032
 30
0.0
 10
14.7338012172
 20
9.8983958867
 30
0.0
 10
14.7365948101
 20
9.8973969873
 30
0.0
 10
14.7403358839
 20
9.8957962212
 30
0.0
 10
14.7449821257
 20
9.8932984801
 30
0.0
 10
14.7504116749
 20
9.8895825518
 30
0.0
 10
14.755751751
 20
9.8851220515
 30
0.0
 10
14.7609974232
 20
9.8799238668
 30
0.0
 10
14.7643220506
 20
9.8760938244
 30
0.0
 10
14.7659701468
 20
9.8740673894
 30
0.0
  0
SPLINE
  5
2F5
100
AcDbEntity
  8
0
100
AcDbSpline
 62
7
  6
CONTINUOUS
 70
0
 71
3
 72
18
 73
14
 74
0
 42
0.0000001
 43
0.0000001
 44
0.0000000001
 40
0.0
 40
0.0
 40
0.0
 40
0.0
 40
0.1504654274
 40
0.2917102685
 40
0.4244367914
 40
0.5495623274
 40
0.6682139347
 40
0.7255498045
 40
0.781791271
 40
0.8371402644
 40
0.8918093774
 40
0.9460200616
 40
1.0
 40
1.0
 40
1.0
 40
1.0
 10
14.6157938186
 20
9.9426595815
 30
0.0
 10
14.6179141201
 20
9.9447076356
 30
0.0
 10
14.6221517975
 20
9.9485503481
 30
0.0
 10
14.6287137574
 20
9.9536714879
 30
0.0
 10
14.6352680715
 20
9.9579545171
 30
0.0
 10
14.6418078546
 20
9.9613924085
 30
0.0
 10
14.6473044496
 20
9.9635724253
 30
0.0
 10
14.651668517
 20
9.9648676666
 30
0.0
 10
14.6548950937
 20
9.9656141672
 30
0.0
 10
14.6581109463
 20
9.9661462715
 30
0.0
 10
14.6613151989
 20
9.9664637082
 30
0.0
 10
14.664506573
 20
9.9665662447
 30
0.0
 10
14.666626827
 20
9.9664912456
 30
0.0
 10
14.667681867
 20
9.9664180833
 30
0.0
  0
SPLINE
  5
2F6
100
AcDbEntity
  8
0
100
AcDbSpline
 62
7
  6
CONTINUOUS
 70
0
 71
3
 72
18
 73
14
 74
0
 42
0.0000001
 43
0.0000001
 44
0.0000000001
 40
0.0
 40
0.0
 40
0.0
 40
0.0
 40
0.1504655604
 40
0.2917104522
 40
0.4244369587
 40
0.5495624319
 40
0.6682139564
 40
0.7255497878
 40
0.7817912235
 40
0.8371401983
 40
0.8918093099
 40
0.9460200145
 40
1.0
 40
1.0
 40
1.0
 40
1.0
 10
12.1063182903
 20
10.1166923005
 30
0.0
 10
12.1084386089
 20
10.1187403711
 30
0.0
 10
12.1126763204
 20
10.1225831126
 30
0.0
 10
12.1192383351
 20
10.1277042851
 30
0.0
 10
12.1257927037
 20
10.1319873331
 30
0.0
 10
12.1323325412
 20
10.135425229
 30
0.0
 10
12.1378291817
 20
10.1376052374
 30
0.0
 10
12.1421932845
 20
10.1389004643
 30
0.0
 10
12.1454198872
 20
10.1396469506
 30
0.0
 10
12.1486357655
 20
10.140179037
 30
0.0
 10
12.1518400436
 20
10.1404964523
 30
0.0
 10
12.1550314427
 20
10.1405989637
 30
0.0
 10
12.1571517127
 20
10.1405239454
 30
0.0
 10
12.1582067605
 20
10.1404507731
 30
0.0
  0
SPLINE
  5
2F7
100
AcDbEntity
  8
0
100
AcDbSpline
 62
7
  6
CONTINUOUS
 70
0
 71
3
 72
37
 73
33
 74
0
 42
0.0000001
 43
0.0000001
 44
0.0000000001
 40
0.0
 40
0.0
 40
0.0
 40
0.0
 40
0.0383799316
 40
0.0755864993
 40
0.1116536672
 40
0.1466202329
 40
0.1805321205
 40
0.2134415524
 40
0.2764721239
 40
0.3067469416
 40
0.3362890322
 40
0.3651823401
 40
0.3935175256
 40
0.4213911761
 40
0.4489052635
 40
0.4761662652
 40
0.5032838421
 40
0.5303695732
 40
0.5575354826
 40
0.5848924978
 40
0.6125491028
 40
0.6406099147
 40
0.6691746447
 40
0.6983374284
 40
0.7281860205
 40
0.7902383007
 40
0.8226041137
 40
0.8559400336
 40
0.8903011139
 40
0.9257366231
 40
0.9622900452
 40
1.0
 40
1.0
 40
1.0
 40
1.0
 10
14.503825518
 20
7.1780294884
 30
0.0
 10
14.5025044083
 20
7.1767533943
 30
0.0
 10
14.4998626697
 20
7.1742810693
 30
0.0
 10
14.4958381918
 20
7.1707642921
 30
0.0
 10
14.4918154321
 20
7.1674987144
 30
0.0
 10
14.4877956429
 20
7.1644855389
 30
0.0
 10
14.4837796787
 20
7.1617254973
 30
0.0
 10
14.4785083438
 20
7.1584318703
 30
0.0
 10
14.4731683264
 20
7.1555838529
 30
0.0
 10
14.4677770746
 20
7.1532329322
 30
0.0
 10
14.4637966059
 20
7.1517499073
 30
0.0
 10
14.4598265111
 20
7.1505242461
 30
0.0
 10
14.4558678191
 20
7.1495563167
 30
0.0
 10
14.4519217112
 20
7.1488465887
 30
0.0
 10
14.4479893808
 20
7.1483954569
 30
0.0
 10
14.4440720853
 20
7.1482030874
 30
0.0
 10
14.4401710892
 20
7.1482696223
 30
0.0
 10
14.4362876863
 20
7.1485951523
 30
0.0
 10
14.4324231592
 20
7.1491794845
 30
0.0
 10
14.4285787585
 20
7.1500223652
 30
0.0
 10
14.4247557301
 20
7.1511235174
 30
0.0
 10
14.4209552358
 20
7.1524824387
 30
0.0
 10
14.4171784137
 20
7.1540985316
 30
0.0
 10
14.4134262475
 20
7.1559713278
 30
0.0
 10
14.4083933031
 20
7.158846406
 30
0.0
 10
14.4034752294
 20
7.162211878
 30
0.0
 10
14.398685512
 20
7.1660140445
 30
0.0
 10
14.395071766
 20
7.1691588252
 30
0.0
 10
14.3914887184
 20
7.1725553063
 30
0.0
 10
14.3879370597
 20
7.1762027322
 30
0.0
 10
14.3844177714
 20
7.1800999281
 30
0.0
 10
14.3821299639
 20
7.1828208108
 30
0.0
 10
14.3809912477
 20
7.1842209228
 30
0.0
  0
SPLINE
  5
2F8
100
AcDbEntity
  8
0
100
AcDbSpline
 62
7
  6
CONTINUOUS
 70
0
 71
3
 72
49
 73
45
 74
0
 42
0.0000001
 43
0.0000001
 44
0.0000000001
 40
0.0
 40
0.0
 40
0.0
 40
0.0
 40
0.0378127845
 40
0.0760191223
 40
0.114531607
 40
0.1532645858
 40
0.1921302413
 40
0.2310409706
 40
0.2699088597
 40
0.3086461572
 40
0.3471654842
 40
0.3853800876
 40
0.4232040959
 40
0.4605527702
 40
0.4973427611
 40
0.533492372
 40
0.5689218309
 40
0.6035535573
 40
0.637312442
 40
0.6701261391
 40
0.7019253763
 40
0.7326442909
 40
0.7622208088
 40
0.7905970516
 40
0.80431852
 40
0.8177203446
 40
0.8307967508
 40
0.843542237
 40
0.8559517495
 40
0.8680206515
 40
0.8797447052
 40
0.8911202579
 40
0.9021440651
 40
0.9128135674
 40
0.9231267538
 40
0.9330823402
 40
0.9426798495
 40
0.9519195568
 40
0.960802764
 40
0.9693317342
 40
0.977510198
 40
0.9853432953
 40
0.992837349
 40
1.0
 40
1.0
 40
1.0
 40
1.0
 10
11.5017174999
 20
8.8082483352
 30
0.0
 10
11.5017174999
 20
8.8201727087
 30
0.0
 10
11.5018759952
 20
8.8441458401
 30
0.0
 10
11.5025784655
 20
8.8802578117
 30
0.0
 10
11.5037454821
 20
8.9166481355
 30
0.0
 10
11.5053741714
 20
8.9532288119
 30
0.0
 10
11.507460681
 20
8.9899120191
 30
0.0
 10
11.5099999647
 20
9.0266093092
 30
0.0
 10
11.5129859233
 20
9.0632323487
 30
0.0
 10
11.5164113561
 20
9.0996929376
 30
0.0
 10
11.5202679999
 20
9.1359032812
 30
0.0
 10
11.5245465488
 20
9.1717761896
 30
0.0
 10
11.5292366753
 20
9.2072252891
 30
0.0
 10
11.534327056
 20
9.242165231
 30
0.0
 10
11.5398053977
 20
9.2765118973
 30
0.0
 10
11.545658466
 20
9.3101826086
 30
0.0
 10
11.55187211
 20
9.3430963276
 30
0.0
 10
11.5584313047
 20
9.3751738558
 30
0.0
 10
11.565320185
 20
9.4063380241
 30
0.0
 10
11.5725220841
 20
9.4365138864
 30
0.0
 10
11.5800195723
 20
9.4656288876
 30
0.0
 10
11.587794501
 20
9.4936131136
 30
0.0
 10
11.5958280417
 20
9.5203992463
 30
0.0
 10
11.6027975956
 20
9.5419028991
 30
0.0
 10
11.608496813
 20
9.5584513273
 30
0.0
 10
11.6127759156
 20
9.5703847767
 30
0.0
 10
11.6171048742
 20
9.5819722437
 30
0.0
 10
11.621481152
 20
9.5932067689
 30
0.0
 10
11.625902088
 20
9.6040816044
 30
0.0
 10
11.6303649967
 20
9.6145902297
 30
0.0
 10
11.6348672494
 20
9.6247263251
 30
0.0
 10
11.639406053
 20
9.6344838373
 30
0.0
 10
11.6439787669
 20
9.6438568973
 30
0.0
 10
11.6485825701
 20
9.6528399175
 30
0.0
 10
11.6532147368
 20
9.6614275216
 30
0.0
 10
11.6578725063
 20
9.669614584
 30
0.0
 10
11.6625530512
 20
9.677396255
 30
0.0
 10
11.6672536721
 20
9.6847678598
 30
0.0
 10
11.6719714549
 20
9.6917250602
 30
0.0
 10
11.6767037191
 20
9.698263715
 30
0.0
 10
11.6814477023
 20
9.7043800388
 30
0.0
 10
11.6862007731
 20
9.7100704799
 30
0.0
 10
11.6909599197
 20
9.715331354
 30
0.0
 10
11.6942069978
 20
9.7186233361
 30
0.0
 10
11.6958316236
 20
9.7201926042
 30
0.0
  0
SPLINE
  5
2F9
100
AcDbEntity
  8
0
100
AcDbSpline
 62
7
  6
CONTINUOUS
 70
0
 71
3
 72
24
 73
20
 74
0
 42
0.0000001
 43
0.0000001
 44
0.0000000001
 40
0.0
 40
0.0
 40
0.0
 40
0.0
 40
0.0637767223
 40
0.1273442464
 40
0.1907009953
 40
0.2538548358
 40
0.3168115815
 40
0.3795801539
 40
0.4421711312
 40
0.5045967629
 40
0.566870977
 40
0.6290091758
 40
0.6910281284
 40
0.7529458055
 40
0.8147811999
 40
0.8765541364
 40
0.9074261033
 40
0.938290172
 40
1.0
 40
1.0
 40
1.0
 40
1.0
 10
8.1739962253
 20
8.1856971094
 30
0.0
 10
8.1739962253
 20
8.1934114745
 30
0.0
 10
8.1743654716
 20
8.2088175143
 30
0.0
 10
8.1760320317
 20
8.2318328534
 30
0.0
 10
8.1788068803
 20
8.2546657527
 30
0.0
 10
8.1826833723
 20
8.2772626138
 30
0.0
 10
8.1876528437
 20
8.2995717665
 30
0.0
 10
8.1937038199
 20
8.3215416403
 30
0.0
 10
8.2008223858
 20
8.3431216233
 30
0.0
 10
8.2089921815
 20
8.3642619509
 30
0.0
 10
8.2181944171
 20
8.3849138636
 30
0.0
 10
8.2284079491
 20
8.4050297169
 30
0.0
 10
8.2396092162
 20
8.4245630987
 30
0.0
 10
8.2517724667
 20
8.4434690263
 30
0.0
 10
8.2648694409
 20
8.4617036149
 30
0.0
 10
8.2765396105
 20
8.4763083388
 30
0.0
 10
8.2863094519
 20
8.4876124786
 30
0.0
 10
8.2963611927
 20
8.4986559648
 30
0.0
 10
8.3042168996
 20
8.5066447555
 30
0.0
 10
8.3095856699
 20
8.5118305931
 30
0.0
  0
SPLINE
  5
2FA
100
AcDbEntity
  8
0
100
AcDbSpline
 62
7
  6
CONTINUOUS
 70
0
 71
3
 72
52
 73
48
 74
0
 42
0.0000001
 43
0.0000001
 44
0.0000000001
 40
0.0
 40
0.0
 40
0.0
 40
0.0
 40
0.0063158506
 40
0.012670616
 40
0.0191024252
 40
0.0256479434
 40
0.0323418101
 40
0.0392161333
 40
0.0536139289
 40
0.0611946268
 40
0.0690563599
 40
0.0772174726
 40
0.0856938309
 40
0.094499206
 40
0.1036453186
 40
0.113142051
 40
0.1229977955
 40
0.1332194103
 40
0.1438124593
 40
0.1547814684
 40
0.1661298053
 40
0.1778599425
 40
0.1899736103
 40
0.2024716404
 40
0.2153542475
 40
0.2286210835
 40
0.242271087
 40
0.2563027691
 40
0.2707141808
 40
0.3006650281
 40
0.3321001672
 40
0.3649893235
 40
0.3992970443
 40
0.434983364
 40
0.4720041716
 40
0.510311536
 40
0.5498541761
 40
0.5905777153
 40
0.6324248233
 40
0.6753355799
 40
0.719247678
 40
0.7640964962
 40
0.8098155734
 40
0.8563363002
 40
0.903588112
 40
0.9515018181
 40
1.0
 40
1.0
 40
1.0
 40
1.0
 10
11.6439431534
 20
6.5571750102
 30
0.0
 10
11.6426755151
 20
6.5572629267
 30
0.0
 10
11.6401384172
 20
6.5575430527
 30
0.0
 10
11.6363612154
 20
6.5582732689
 30
0.0
 10
11.6326092545
 20
6.5593133756
 30
0.0
 10
11.6288847302
 20
6.5606625898
 30
0.0
 10
11.6251891315
 20
6.5623201851
 30
0.0
 10
11.6202269014
 20
6.5649802161
 30
0.0
 10
11.6153994567
 20
6.5682365364
 30
0.0
 10
11.6107276971
 20
6.5720100558
 30
0.0
 10
11.6071989483
 20
6.5751915885
 30
0.0
 10
11.6037078983
 20
6.5786737919
 30
0.0
 10
11.6002553754
 20
6.582455385
 30
0.0
 10
11.5968428387
 20
6.5865347795
 30
0.0
 10
11.593471536
 20
6.590910307
 30
0.0
 10
11.5901427178
 20
6.5955801473
 30
0.0
 10
11.5868577444
 20
6.6005424546
 30
0.0
 10
11.5836178743
 20
6.6057951928
 30
0.0
 10
11.5804243611
 20
6.6113362179
 30
0.0
 10
11.5772785514
 20
6.6171633172
 30
0.0
 10
11.574181663
 20
6.6232740949
 30
0.0
 10
11.5711349382
 20
6.6296660602
 30
0.0
 10
11.5681396774
 20
6.636336632
 30
0.0
 10
11.5651970454
 20
6.6432830607
 30
0.0
 10
11.5623082537
 20
6.6505025094
 30
0.0
 10
11.559474534
 20
6.6579920385
 30
0.0
 10
11.556696997
 20
6.6657485545
 30
0.0
 10
11.5539767866
 20
6.6737688936
 30
0.0
 10
11.5503816445
 20
6.6849539824
 30
0.0
 10
11.5460497071
 20
6.6995778623
 30
0.0
 10
11.5411619308
 20
6.7179065749
 30
0.0
 10
11.5365282993
 20
6.737203696
 30
0.0
 10
11.5321564945
 20
6.7574374643
 30
0.0
 10
11.5280538128
 20
6.7785747348
 30
0.0
 10
11.5242271016
 20
6.8005807719
 30
0.0
 10
11.5206827086
 20
6.8234193794
 30
0.0
 10
11.5174265463
 20
6.8470529687
 30
0.0
 10
11.5144640663
 20
6.8714426243
 30
0.0
 10
11.5118001812
 20
6.8965481581
 30
0.0
 10
11.5094393261
 20
6.9223281899
 30
0.0
 10
11.5073854607
 20
6.9487402157
 30
0.0
 10
11.5056419942
 20
6.9757407034
 30
0.0
 10
11.504211831
 20
7.0032851062
 30
0.0
 10
11.503097371
 20
7.0313278954
 30
0.0
 10
11.5023004495
 20
7.0598231949
 30
0.0
 10
11.5018224705
 20
7.0887234656
 30
0.0
 10
11.5017174999
 20
7.1081207102
 30
0.0
 10
11.5017174999
 20
7.117878039
 30
0.0
  0
SPLINE
  5
2FB
100
AcDbEntity
  8
0
100
AcDbSpline
 62
7
  6
CONTINUOUS
 70
0
 71
3
 72
52
 73
48
 74
0
 42
0.0000001
 43
0.0000001
 44
0.0000000001
 40
0.0
 40
0.0
 40
0.0
 40
0.0
 40
0.006315855
 40
0.0126706206
 40
0.0191024263
 40
0.0256479374
 40
0.0323417941
 40
0.0392161045
 40
0.0536138683
 40
0.0611945479
 40
0.0690562617
 40
0.0772173543
 40
0.085693692
 40
0.0944990462
 40
0.103645138
 40
0.1131418498
 40
0.1229975739
 40
0.1332191689
 40
0.1438121987
 40
0.1547811893
 40
0.1661295086
 40
0.177859629
 40
0.1899732811
 40
0.2024712964
 40
0.2153538898
 40
0.2286207133
 40
0.2422707053
 40
0.2563023772
 40
0.2707137798
 40
0.3006646127
 40
0.3320997422
 40
0.3649888938
 40
0.3992966149
 40
0.4349829397
 40
0.4720037572
 40
0.5103111361
 40
0.549853795
 40
0.5905773573
 40
0.6324244925
 40
0.67533528
 40
0.7192474126
 40
0.7640962686
 40
0.8098153865
 40
0.8563361567
 40
0.9035880144
 40
0.9515017685
 40
1.0
 40
1.0
 40
1.0
 40
1.0
 10
14.1534191035
 20
6.383142262
 30
0.0
 10
14.1521514627
 20
6.3832301671
 30
0.0
 10
14.1496143595
 20
6.3835102707
 30
0.0
 10
14.1458371485
 20
6.3842404545
 30
0.0
 10
14.1420851782
 20
6.3852805301
 30
0.0
 10
14.1383606445
 20
6.3866297143
 30
0.0
 10
14.1346650363
 20
6.3882872807
 30
0.0
 10
14.1297027938
 20
6.3909472739
 30
0.0
 10
14.124875336
 20
6.3942035598
 30
0.0
 10
14.1202035635
 20
6.3979770477
 30
0.0
 10
14.1166748051
 20
6.4011585575
 30
0.0
 10
14.1131837455
 20
6.4046407391
 30
0.0
 10
14.1097312131
 20
6.4084223116
 30
0.0
 10
14.1063186669
 20
6.4125016866
 30
0.0
 10
14.1029473546
 20
6.4168771959
 30
0.0
 10
14.0996185269
 20
6.4215470191
 30
0.0
 10
14.0963335441
 20
6.4265093105
 30
0.0
 10
14.0930936646
 20
6.431762034
 30
0.0
 10
14.0899001421
 20
6.4373030456
 30
0.0
 10
14.0867543231
 20
6.4431301325
 30
0.0
 10
14.0836574255
 20
6.449240899
 30
0.0
 10
14.0806106916
 20
6.4556328543
 30
0.0
 10
14.0776154218
 20
6.4623034172
 30
0.0
 10
14.0746727809
 20
6.4692498382
 30
0.0
 10
14.0717839804
 20
6.4764692803
 30
0.0
 10
14.068950252
 20
6.483958804
 30
0.0
 10
14.0661727064
 20
6.4917153158
 30
0.0
 10
14.0634524875
 20
6.4997356518
 30
0.0
 10
14.0598573339
 20
6.5109207383
 30
0.0
 10
14.0555253827
 20
6.5255446184
 30
0.0
 10
14.0506375907
 20
6.5438733346
 30
0.0
 10
14.0460039443
 20
6.5631704635
 30
0.0
 10
14.0416321253
 20
6.5834042438
 30
0.0
 10
14.0375294301
 20
6.6045415302
 30
0.0
 10
14.0337027063
 20
6.6265475869
 30
0.0
 10
14.0301583015
 20
6.6493862178
 30
0.0
 10
14.0269021282
 20
6.6730198339
 30
0.0
 10
14.0239396383
 20
6.6974095197
 30
0.0
 10
14.0212757441
 20
6.7225150867
 30
0.0
 10
14.0189148809
 20
6.7482951547
 30
0.0
 10
14.0168610085
 20
6.7747072193
 30
0.0
 10
14.015117536
 20
6.8017077484
 30
0.0
 10
14.0136873679
 20
6.8292521949
 30
0.0
 10
14.012572904
 20
6.8572950297
 30
0.0
 10
14.0117759799
 20
6.8857903768
 30
0.0
 10
14.0112979992
 20
6.9146906966
 30
0.0
 10
14.0111930282
 20
6.9340879744
 30
0.0
 10
14.0111930282
 20
6.9438453201
 30
0.0
  0
SPLINE
  5
2FC
100
AcDbEntity
  8
0
100
AcDbSpline
 62
7
  6
CONTINUOUS
 70
0
 71
3
 72
60
 73
56
 74
0
 42
0.0000001
 43
0.0000001
 44
0.0000000001
 40
0.0
 40
0.0
 40
0.0
 40
0.0
 40
0.0095821394
 40
0.0187369571
 40
0.0274867207
 40
0.0358591662
 40
0.0438870666
 40
0.0516082808
 40
0.0590659586
 40
0.0663085496
 40
0.0733896054
 40
0.080366749
 40
0.0873004549
 40
0.0942524187
 40
0.1012838273
 40
0.1084536228
 40
0.1158171423
 40
0.1234250419
 40
0.1313226947
 40
0.1395501171
 40
0.1481418633
 40
0.1571275843
 40
0.1665322732
 40
0.1763767759
 40
0.1866784016
 40
0.1974510773
 40
0.208706086
 40
0.2204521528
 40
0.23269585
 40
0.2454419727
 40
0.2586934711
 40
0.2724520077
 40
0.2867178092
 40
0.301489951
 40
0.316766546
 40
0.3325445796
 40
0.3488203557
 40
0.3655892438
 40
0.382845925
 40
0.4005844746
 40
0.4187981881
 40
0.4374799569
 40
0.4566219821
 40
0.4762160124
 40
0.5167240963
 40
0.5589297637
 40
0.602751289
 40
0.6481011065
 40
0.6948863988
 40
0.7430095683
 40
0.7923686923
 40
0.8428581937
 40
0.8943680299
 40
0.9467879921
 40
1.0
 40
1.0
 40
1.0
 40
1.0
 10
14.2635120403
 20
6.4610394562
 30
0.0
 10
14.2620968158
 20
6.4597223803
 30
0.0
 10
14.2592675529
 20
6.4572122685
 30
0.0
 10
14.2549266366
 20
6.4537566004
 30
0.0
 10
14.2505901698
 20
6.45070089
 30
0.0
 10
14.2462606848
 20
6.4480472729
 30
0.0
 10
14.2419402933
 20
6.4457976159
 30
0.0
 10
14.2376312337
 20
6.4439537545
 30
0.0
 10
14.233335962
 20
6.4425173445
 30
0.0
 10
14.2290570712
 20
6.4414902439
 30
0.0
 10
14.2247975548
 20
6.4408736977
 30
0.0
 10
14.2205606186
 20
6.440668841
 30
0.0
 10
14.2163497561
 20
6.4408762019
 30
0.0
 10
14.2121685155
 20
6.4414955462
 30
0.0
 10
14.2080204025
 20
6.4425263173
 30
0.0
 10
14.2039085751
 20
6.4439670173
 30
0.0
 10
14.199835919
 20
6.4458160763
 30
0.0
 10
14.1958049486
 20
6.4480715346
 30
0.0
 10
14.1918178438
 20
6.4507312686
 30
0.0
 10
14.1878767609
 20
6.4537932829
 30
0.0
 10
14.1839835468
 20
6.4572552537
 30
0.0
 10
14.1801402126
 20
6.4611150044
 30
0.0
 10
14.1763486633
 20
6.4653701075
 30
0.0
 10
14.1726108033
 20
6.4700179925
 30
0.0
 10
14.1689287081
 20
6.4750559974
 30
0.0
 10
14.1653042489
 20
6.4804811178
 30
0.0
 10
14.161739525
 20
6.4862902643
 30
0.0
 10
14.1582365006
 20
6.4924800412
 30
0.0
 10
14.1547971458
 20
6.4990468436
 30
0.0
 10
14.1514235275
 20
6.5059868742
 30
0.0
 10
14.1481175005
 20
6.5132960383
 30
0.0
 10
14.1448810924
 20
6.5209700823
 30
0.0
 10
14.1417161603
 20
6.5290044807
 30
0.0
 10
14.138624561
 20
6.5373945036
 30
0.0
 10
14.1356081907
 20
6.5461352158
 30
0.0
 10
14.1326687487
 20
6.555221437
 30
0.0
 10
14.1298080677
 20
6.5646478092
 30
0.0
 10
14.1270278006
 20
6.5744087426
 30
0.0
 10
14.1243296034
 20
6.5844984561
 30
0.0
 10
14.1217151341
 20
6.5949109719
 30
0.0
 10
14.1191858742
 20
6.605640107
 30
0.0
 10
14.1167434156
 20
6.6166794968
 30
0.0
 10
14.1143891446
 20
6.6280225936
 30
0.0
 10
14.1113357998
 20
6.6437168285
 30
0.0
 10
14.1077603103
 20
6.6640482476
 30
0.0
 10
14.1038887522
 20
6.6892843191
 30
0.0
 10
14.1003995048
 20
6.7155617438
 30
0.0
 10
14.0973009607
 20
6.7428180448
 30
0.0
 10
14.0946006064
 20
6.7709885407
 30
0.0
 10
14.0923049636
 20
6.8000062974
 30
0.0
 10
14.0904195713
 20
6.8298023912
 30
0.0
 10
14.0889490084
 20
6.8603058553
 30
0.0
 10
14.0878967638
 20
6.8914444727
 30
0.0
 10
14.0872654944
 20
6.9231437581
 30
0.0
 10
14.0871272006
 20
6.9444561489
 30
0.0
 10
14.0871272006
 20
6.9551921026
 30
0.0
  0
SPLINE
  5
2FD
100
AcDbEntity
  8
0
100
AcDbSpline
 62
7
  6
CONTINUOUS
 70
0
 71
3
 72
38
 73
34
 74
0
 42
0.0000001
 43
0.0000001
 44
0.0000000001
 40
0.0
 40
0.0
 40
0.0
 40
0.0
 40
0.0324900886
 40
0.0648834421
 40
0.0971677086
 40
0.1293362851
 40
0.1613902266
 40
0.1933396427
 40
0.225203879
 40
0.2570105377
 40
0.2887939312
 40
0.3205931645
 40
0.3524488538
 40
0.3844005008
 40
0.4164843296
 40
0.4487303255
 40
0.5137690918
 40
0.5465861899
 40
0.5795782248
 40
0.6459126499
 40
0.7122341352
 40
0.7451134168
 40
0.7776002903
 40
0.809513639
 40
0.8406542734
 40
0.8708124679
 40
0.899777562
 40
0.9273481234
 40
0.953341255
 40
0.9656958737
 40
0.9776005259
 40
0.9890401171
 40
1.0
 40
1.0
 40
1.0
 40
1.0
 10
9.5839433092
 20
8.8697761756
 30
0.0
 10
9.5797874872
 20
8.8692276626
 30
0.0
 10
9.5714555708
 20
8.8683643552
 30
0.0
 10
9.5589256817
 20
8.867786703
 30
0.0
 10
9.5464242801
 20
8.8679382708
 30
0.0
 10
9.5339972013
 20
8.8688231946
 30
0.0
 10
9.5216873364
 20
8.8704385732
 30
0.0
 10
9.5095337327
 20
8.8727745343
 30
0.0
 10
9.497570108
 20
8.8758152093
 30
0.0
 10
9.4858242152
 20
8.879539902
 30
0.0
 10
9.4743176546
 20
8.8839243899
 30
0.0
 10
9.463066347
 20
8.8889422805
 30
0.0
 10
9.4520815704
 20
8.8945664993
 30
0.0
 10
9.4413711727
 20
8.9007697423
 30
0.0
 10
9.4309403407
 20
8.9075252452
 30
0.0
 10
9.4173752516
 20
8.9172589917
 30
0.0
 10
9.4044212905
 20
8.9279741986
 30
0.0
 10
9.3921074248
 20
8.9395275339
 30
0.0
 10
9.3801464679
 20
8.9516827985
 30
0.0
 10
9.3660396887
 20
8.967764811
 30
0.0
 10
9.3530926625
 20
8.9847706289
 30
0.0
 10
9.3434472928
 20
8.9987601901
 30
0.0
 10
9.3366301747
 20
9.0093005732
 30
0.0
 10
9.3302231016
 20
9.0198329495
 30
0.0
 10
9.3242354808
 20
9.0302639973
 30
0.0
 10
9.3186708931
 20
9.040495411
 30
0.0
 10
9.3135254319
 20
9.0504275669
 30
0.0
 10
9.3087866786
 20
9.0599632446
 30
0.0
 10
9.3050995377
 20
9.0676273577
 30
0.0
 10
9.3023237668
 20
9.0734866754
 30
0.0
 10
9.3003619896
 20
9.0776538566
 30
0.0
 10
9.2984801597
 20
9.081659776
 30
0.0
 10
9.297248776
 20
9.0842742866
 30
0.0
 10
9.2966442607
 20
9.085552596
 30
0.0
  0
SPLINE
  5
2FE
100
AcDbEntity
  8
0
100
AcDbSpline
 62
7
  6
CONTINUOUS
 70
0
 71
3
 72
39
 73
35
 74
0
 42
0.0000001
 43
0.0000001
 44
0.0000000001
 40
0.0
 40
0.0
 40
0.0
 40
0.0
 40
0.0299424699
 40
0.0599093164
 40
0.0899243219
 40
0.1200101003
 40
0.1501875584
 40
0.1804754099
 40
0.210889754
 40
0.2414437305
 40
0.2721472545
 40
0.3030068369
 40
0.3340254888
 40
0.3652027079
 40
0.3965345426
 40
0.4280137277
 40
0.4596298846
 40
0.4913697788
 40
0.5232176263
 40
0.5551554431
 40
0.5871634274
 40
0.6192203703
 40
0.6513040862
 40
0.6833918576
 40
0.715460886
 40
0.7474887457
 40
0.7794538306
 40
0.8113357916
 40
0.8431159521
 40
0.8747777094
 40
0.9063068732
 40
0.9376920545
 40
0.96892477
 40
1.0
 40
1.0
 40
1.0
 40
1.0
 10
9.5186354736
 20
8.7410640125
 30
0.0
 10
9.5144880569
 20
8.7370579171
 30
0.0
 10
9.5058670997
 20
8.7293690386
 30
0.0
 10
9.4920549874
 20
8.7188942998
 30
0.0
 10
9.4774327936
 20
8.7095305664
 30
0.0
 10
9.4620822214
 20
8.7013303655
 30
0.0
 10
9.4460876668
 20
8.694338497
 30
0.0
 10
9.4295374019
 20
8.6885933954
 30
0.0
 10
9.4125226287
 20
8.6841264944
 30
0.0
 10
9.3951370864
 20
8.6809621817
 30
0.0
 10
9.3774764967
 20
8.6791176454
 30
0.0
 10
9.3596380423
 20
8.6786028022
 30
0.0
 10
9.3417198304
 20
8.6794202528
 30
0.0
 10
9.323820356
 20
8.6815652805
 30
0.0
 10
9.3060379661
 20
8.6850258873
 30
0.0
 10
9.2884703251
 20
8.6897828675
 30
0.0
 10
9.2712138857
 20
8.69580992
 30
0.0
 10
9.2543633671
 20
8.7030737968
 30
0.0
 10
9.238011242
 20
8.7115344879
 30
0.0
 10
9.2222472367
 20
8.7211454422
 30
0.0
 10
9.2071578451
 20
8.7318538224
 30
0.0
 10
9.1928258598
 20
8.7436007944
 30
0.0
 10
9.1793299239
 20
8.7563218471
 30
0.0
 10
9.1667441036
 20
8.7699471443
 30
0.0
 10
9.1551374865
 20
8.7844019038
 30
0.0
 10
9.1445738061
 20
8.7996068044
 30
0.0
 10
9.1351110942
 20
8.8154784149
 30
0.0
 10
9.1268013665
 20
8.8319296502
 30
0.0
 10
9.1196903351
 20
8.848870232
 30
0.0
 10
9.1138171658
 20
8.8662072182
 30
0.0
 10
9.109214244
 20
8.8838453574
 30
0.0
 10
9.1059070329
 20
8.9016881576
 30
0.0
 10
9.1039138635
 20
8.9196363308
 30
0.0
 10
9.1034674324
 20
8.9316400928
 30
0.0
 10
9.1034674324
 20
8.9376245075
 30
0.0
  0
SPLINE
  5
2FF
100
AcDbEntity
  8
0
100
AcDbSpline
 62
7
  6
CONTINUOUS
 70
0
 71
3
 72
24
 73
20
 74
0
 42
0.0000001
 43
0.0000001
 44
0.0000000001
 40
0.0
 40
0.0
 40
0.0
 40
0.0
 40
0.0637767223
 40
0.1273442464
 40
0.1907009953
 40
0.2538548358
 40
0.3168115815
 40
0.3795801539
 40
0.4421711312
 40
0.5045967629
 40
0.566870977
 40
0.6290091758
 40
0.6910281284
 40
0.7529458055
 40
0.8147811999
 40
0.8765541364
 40
0.9074261033
 40
0.938290172
 40
1.0
 40
1.0
 40
1.0
 40
1.0
 10
8.8366217167
 20
8.9298713237
 30
0.0
 10
8.8366217167
 20
8.9375856889
 30
0.0
 10
8.836990963
 20
8.9529917286
 30
0.0
 10
8.8386575232
 20
8.9760070678
 30
0.0
 10
8.8414323717
 20
8.9988399671
 30
0.0
 10
8.8453088637
 20
9.0214368282
 30
0.0
 10
8.8502783351
 20
9.0437459808
 30
0.0
 10
8.8563293113
 20
9.0657158546
 30
0.0
 10
8.8634478772
 20
9.0872958376
 30
0.0
 10
8.8716176729
 20
9.1084361652
 30
0.0
 10
8.8808199085
 20
9.1290880779
 30
0.0
 10
8.8910334405
 20
9.1492039313
 30
0.0
 10
8.9022347076
 20
9.168737313
 30
0.0
 10
8.9143979581
 20
9.1876432407
 30
0.0
 10
8.9274949323
 20
9.2058778293
 30
0.0
 10
8.9391651019
 20
9.2204825531
 30
0.0
 10
8.9489349433
 20
9.2317866929
 30
0.0
 10
8.9589866841
 20
9.2428301792
 30
0.0
 10
8.966842391
 20
9.2508189699
 30
0.0
 10
8.9722111613
 20
9.2560048075
 30
0.0
  0
SPLINE
  5
300
100
AcDbEntity
  8
0
100
AcDbSpline
 62
7
  6
CONTINUOUS
 70
0
 71
3
 72
97
 73
93
 74
0
 42
0.0000001
 43
0.0000001
 44
0.0000000001
 40
0.0
 40
0.0
 40
0.0
 40
0.0
 40
0.0039883932
 40
0.0081453487
 40
0.0124745325
 40
0.0169790376
 40
0.0216614567
 40
0.0265237887
 40
0.0315673504
 40
0.0367930107
 40
0.0422011889
 40
0.0477919261
 40
0.0535649385
 40
0.0595195627
 40
0.0656548979
 40
0.0719697345
 40
0.0784626296
 40
0.0851319314
 40
0.0919757305
 40
0.0989919746
 40
0.1061783796
 40
0.1135325117
 40
0.1287331619
 40
0.1445715972
 40
0.1610229888
 40
0.1780605176
 40
0.1956555613
 40
0.2137778568
 40
0.2323956443
 40
0.2514757937
 40
0.2709839379
 40
0.2908845916
 40
0.3111412636
 40
0.3317165625
 40
0.3525722983
 40
0.3736695875
 40
0.3949689579
 40
0.4164304483
 40
0.4380137061
 40
0.4596780844
 40
0.4813827413
 40
0.5030867398
 40
0.5247491455
 40
0.5463291224
 40
0.5677860305
 40
0.5890795265
 40
0.6101696637
 40
0.631016989
 40
0.6515826418
 40
0.6718284544
 40
0.6917170587
 40
0.7112119946
 40
0.7302778137
 40
0.7488801898
 40
0.7669860357
 40
0.7845636295
 40
0.8015827583
 40
0.8180148582
 40
0.8338331753
 40
0.8490129512
 40
0.8563563774
 40
0.8635319266
 40
0.8705371465
 40
0.8773697992
 40
0.8840278176
 40
0.890509316
 40
0.8968126656
 40
0.9029364114
 40
0.9088793969
 40
0.9146407088
 40
0.9202197226
 40
0.9256161734
 40
0.9308300975
 40
0.9358619816
 40
0.9407127138
 40
0.945383679
 40
0.9498768374
 40
0.9541947199
 40
0.9583406129
 40
0.96231855
 40
0.9661334775
 40
0.9697913638
 40
0.9732992779
 40
0.9766656051
 40
0.9799000909
 40
0.983014025
 40
0.9860203102
 40
0.9889334895
 40
0.9917697616
 40
0.9945468066
 40
0.9972835907
 40
1.0
 40
1.0
 40
1.0
 40
1.0
 10
14.4313810316
 20
7.255498017
 30
0.0
 10
14.4330821312
 20
7.2571411531
 30
0.0
 10
14.4364824671
 20
7.2605739221
 30
0.0
 10
14.4414763291
 20
7.266033432
 30
0.0
 10
14.4464649051
 20
7.2719054637
 30
0.0
 10
14.451445499
 20
7.278186829
 30
0.0
 10
14.4564158117
 20
7.2848744459
 30
0.0
 10
14.461373399
 20
7.2919650975
 30
0.0
 10
14.4663159239
 20
7.299455248
 30
0.0
 10
14.4712408458
 20
7.3073412062
 30
0.0
 10
14.4761457402
 20
7.3156190262
 30
0.0
 10
14.4810281868
 20
7.324284583
 30
0.0
 10
14.4858856914
 20
7.3333335844
 30
0.0
 10
14.4907159029
 20
7.3427614855
 30
0.0
 10
14.4955163247
 20
7.3525636006
 30
0.0
 10
14.5002845902
 20
7.3627350104
 30
0.0
 10
14.505018305
 20
7.3732706251
 30
0.0
 10
14.5097150477
 20
7.3841651779
 30
0.0
 10
14.514372525
 20
7.3954131919
 30
0.0
 10
14.5189883169
 20
7.4070090411
 30
0.0
 10
14.5235601743
 20
7.4189469044
 30
0.0
 10
14.5296615067
 20
7.4354946006
 30
0.0
 10
14.5371508775
 20
7.4569967116
 30
0.0
 10
14.5458307303
 20
7.4837892844
 30
0.0
 10
14.5542817252
 20
7.5117945768
 30
0.0
 10
14.5624867857
 20
7.5409563184
 30
0.0
 10
14.5704293299
 20
7.5712160549
 30
0.0
 10
14.5780933082
 20
7.6025130446
 30
0.0
 10
14.585463233
 20
7.634784446
 30
0.0
 10
14.5925242252
 20
7.6679654262
 30
0.0
 10
14.5992620316
 20
7.7019893062
 30
0.0
 10
14.6056630526
 20
7.7367877016
 30
0.0
 10
14.6117143703
 20
7.7722906634
 30
0.0
 10
14.6174037714
 20
7.8084268161
 30
0.0
 10
14.6227197809
 20
7.8451235
 30
0.0
 10
14.6276516847
 20
7.8823069198
 30
0.0
 10
14.6321895418
 20
7.9199022986
 30
0.0
 10
14.6363242065
 20
7.9578340294
 30
0.0
 10
14.6400473455
 20
7.9960258262
 30
0.0
 10
14.6433514561
 20
8.0344008761
 30
0.0
 10
14.6462298927
 20
8.0728819948
 30
0.0
 10
14.6486768661
 20
8.111391785
 30
0.0
 10
14.6506874569
 20
8.1498527925
 30
0.0
 10
14.6522576255
 20
8.1881876606
 30
0.0
 10
14.6533842181
 20
8.2263192864
 30
0.0
 10
14.6540649864
 20
8.2641709778
 30
0.0
 10
14.6542985846
 20
8.3016666098
 30
0.0
 10
14.6540845678
 20
8.338730777
 30
0.0
 10
14.6534233946
 20
8.3752889436
 30
0.0
 10
14.6523164248
 20
8.4112675945
 30
0.0
 10
14.650765924
 20
8.4465943884
 30
0.0
 10
14.6487750641
 20
8.4811983066
 30
0.0
 10
14.6463479059
 20
8.5150097954
 30
0.0
 10
14.6434893936
 20
8.5479609045
 30
0.0
 10
14.6402053447
 20
8.5799854242
 30
0.0
 10
14.6365024393
 20
8.6110190336
 30
0.0
 10
14.6323882189
 20
8.6409994211
 30
0.0
 10
14.627871069
 20
8.6698664788
 30
0.0
 10
14.6229601575
 20
8.697562198
 30
0.0
 10
14.6185002106
 20
8.719858961
 30
0.0
 10
14.6147333048
 20
8.7370629139
 30
0.0
 10
14.6118472195
 20
8.7494963911
 30
0.0
 10
14.6088704601
 20
8.7615967931
 30
0.0
 10
14.60580454
 20
8.7733580628
 30
0.0
 10
14.6026510164
 20
8.7847742999
 30
0.0
 10
14.5994114293
 20
8.795839775
 30
0.0
 10
14.5960874833
 20
8.8065489543
 30
0.0
 10
14.5926807742
 20
8.8168964646
 30
0.0
 10
14.5891930675
 20
8.8268771381
 30
0.0
 10
14.5856261027
 20
8.8364859872
 30
0.0
 10
14.5819816291
 20
8.8457182047
 30
0.0
 10
14.5782615435
 20
8.8545692083
 30
0.0
 10
14.5744676097
 20
8.8630345679
 30
0.0
 10
14.5706017855
 20
8.8711100998
 30
0.0
 10
14.5666659491
 20
8.878791793
 30
0.0
 10
14.5626620095
 20
8.8860758351
 30
0.0
 10
14.5585919902
 20
8.8929586634
 30
0.0
 10
14.5544577532
 20
8.899436839
 30
0.0
 10
14.5502613644
 20
8.905507221
 30
0.0
 10
14.546004738
 20
8.9111667938
 30
0.0
 10
14.5416898377
 20
8.9164127532
 30
0.0
 10
14.5373186777
 20
8.9212425324
 30
0.0
 10
14.5328930985
 20
8.9256535998
 30
0.0
 10
14.5284151363
 20
8.9296437452
 30
0.0
 10
14.5238866466
 20
8.933210721
 30
0.0
 10
14.5193096124
 20
8.9363524617
 30
0.0
 10
14.5146860923
 20
8.9390670233
 30
0.0
 10
14.5100181582
 20
8.9413523673
 30
0.0
 10
14.5053082693
 20
8.9432068348
 30
0.0
 10
14.5005588092
 20
8.9446286691
 30
0.0
 10
14.4957731865
 20
8.9456165382
 30
0.0
 10
14.4925554635
 20
8.9459857324
 30
0.0
 10
14.4909485125
 20
8.9460971684
 30
0.0
  0
SPLINE
  5
301
100
AcDbEntity
  8
0
100
AcDbSpline
 62
7
  6
CONTINUOUS
 70
0
 71
3
 72
23
 73
19
 74
0
 42
0.0000001
 43
0.0000001
 44
0.0000000001
 40
0.0
 40
0.0
 40
0.0
 40
0.0
 40
0.063776909
 40
0.1273449468
 40
0.1907019575
 40
0.2538561145
 40
0.3168131979
 40
0.3795820804
 40
0.4421733815
 40
0.5045993354
 40
0.5668738682
 40
0.6290123838
 40
0.6910316538
 40
0.75294965
 40
0.8147853622
 40
0.8765586114
 40
0.9382898593
 40
1.0
 40
1.0
 40
1.0
 40
1.0
 10
9.5050423433
 20
8.0933887476
 30
0.0
 10
9.5050423433
 20
8.1011030626
 30
0.0
 10
9.5054115933
 20
8.1165090417
 30
0.0
 10
9.5070781286
 20
8.1395242814
 30
0.0
 10
9.5098529574
 20
8.162357098
 30
0.0
 10
9.513729411
 20
8.184953859
 30
0.0
 10
9.5186988474
 20
8.2072629185
 30
0.0
 10
9.5247497733
 20
8.2292327052
 30
0.0
 10
9.5318682698
 20
8.2508126073
 30
0.0
 10
9.5400379874
 20
8.2719528614
 30
0.0
 10
9.5492401599
 20
8.2926046971
 30
0.0
 10
9.5594536089
 20
8.3127204792
 30
0.0
 10
9.5706547817
 20
8.3322538184
 30
0.0
 10
9.582817887
 20
8.3511596662
 30
0.0
 10
9.5959148812
 20
8.3693943507
 30
0.0
 10
9.6099157363
 20
8.386915936
 30
0.0
 10
9.6247875909
 20
8.4036834685
 30
0.0
 10
9.6352619171
 20
8.4143353243
 30
0.0
 10
9.6406306548
 20
8.419521149
 30
0.0
  0
SPLINE
  5
302
100
AcDbEntity
  8
0
100
AcDbSpline
 62
7
  6
CONTINUOUS
 70
0
 71
3
 72
17
 73
13
 74
0
 42
0.0000001
 43
0.0000001
 44
0.0000000001
 40
0.0
 40
0.0
 40
0.0
 40
0.0
 40
0.1622809398
 40
0.3112979783
 40
0.44788924
 40
0.5732332878
 40
0.6888928199
 40
0.7968533296
 40
0.848733977
 40
0.8996418448
 40
0.949938599
 40
1.0
 40
1.0
 40
1.0
 40
1.0
 10
9.2830572377
 20
9.1110949488
 30
0.0
 10
9.2825633482
 20
9.1118064435
 30
0.0
 10
9.2815842583
 20
9.1131498645
 30
0.0
 10
9.2800623075
 20
9.1149954171
 30
0.0
 10
9.2785432666
 20
9.1165809457
 30
0.0
 10
9.2770192847
 20
9.1179048649
 30
0.0
 10
9.27548262
 20
9.1189649545
 30
0.0
 10
9.2741676298
 20
9.1196351518
 30
0.0
 10
9.2731124756
 20
9.120027687
 30
0.0
 10
9.2723256663
 20
9.1202512617
 30
0.0
 10
9.271532745
 20
9.1204076768
 30
0.0
 10
9.2709996866
 20
9.1204671513
 30
0.0
 10
9.2707331431
 20
9.1204856369
 30
0.0
  0
SPLINE
  5
303
100
AcDbEntity
  8
0
100
AcDbSpline
 62
7
  6
CONTINUOUS
 70
0
 71
3
 72
15
 73
11
 74
0
 42
0.0000001
 43
0.0000001
 44
0.0000000001
 40
0.0
 40
0.0
 40
0.0
 40
0.0
 40
0.1533030369
 40
0.2986111283
 40
0.4358035963
 40
0.5648352078
 40
0.6856990096
 40
0.7984359553
 40
0.9031517934
 40
1.0
 40
1.0
 40
1.0
 40
1.0
 10
9.2966442607
 20
9.085552596
 30
0.0
 10
9.2960116005
 20
9.0868904206
 30
0.0
 10
9.2947750122
 20
9.0894942934
 30
0.0
 10
9.2929467377
 20
9.0932832283
 30
0.0
 10
9.2911862988
 20
9.0968445944
 30
0.0
 10
9.2894856288
 20
9.1001719828
 30
0.0
 10
9.287836561
 20
9.103260084
 30
0.0
 10
9.2862308101
 20
9.1061043819
 30
0.0
 10
9.2846602607
 20
9.1087008826
 30
0.0
 10
9.2835903535
 20
9.110326945
 30
0.0
 10
9.2830572377
 20
9.1110949488
 30
0.0
  0
SPLINE
  5
304
100
AcDbEntity
  8
0
100
AcDbSpline
 62
7
  6
CONTINUOUS
 70
0
 71
3
 72
39
 73
35
 74
0
 42
0.0000001
 43
0.0000001
 44
0.0000000001
 40
0.0
 40
0.0
 40
0.0
 40
0.0
 40
0.0299424732
 40
0.0599093222
 40
0.0899243296
 40
0.1200101094
 40
0.1501875682
 40
0.1804754198
 40
0.2108897635
 40
0.2414437392
 40
0.2721472619
 40
0.3030068428
 40
0.334025493
 40
0.3652027101
 40
0.3965345427
 40
0.4280137258
 40
0.4596298807
 40
0.4913697729
 40
0.5232176187
 40
0.5551554339
 40
0.5871634169
 40
0.6192203588
 40
0.6513040742
 40
0.6833918453
 40
0.7154608739
 40
0.7474887339
 40
0.77945382
 40
0.811335781
 40
0.8431159463
 40
0.874777695
 40
0.9063068895
 40
0.9376919983
 40
0.9689248659
 40
1.0
 40
1.0
 40
1.0
 40
1.0
 10
11.1019124342
 20
6.6612773654
 30
0.0
 10
11.0983788356
 20
6.657864165
 30
0.0
 10
11.0910337932
 20
6.6513132123
 30
0.0
 10
11.079265879
 20
6.6423887046
 30
0.0
 10
11.066807775
 20
6.6344107714
 30
0.0
 10
11.0537290887
 20
6.62742417
 30
0.0
 10
11.040101727
 20
6.621467069
 30
0.0
 10
11.0260008976
 20
6.6165722149
 30
0.0
 10
11.0115043049
 20
6.6127663894
 30
0.0
 10
10.9966918149
 20
6.6100703708
 30
0.0
 10
10.9816449826
 20
6.6084988036
 30
0.0
 10
10.9664466082
 20
6.6080601367
 30
0.0
 10
10.9511802789
 20
6.608756586
 30
0.0
 10
10.9359299128
 20
6.6105841329
 30
0.0
 10
10.9207793016
 20
6.6135325551
 30
0.0
 10
10.9058116557
 20
6.6175854894
 30
0.0
 10
10.8911091528
 20
6.6227205272
 30
0.0
 10
10.8767524938
 20
6.6289093412
 30
0.0
 10
10.8628204658
 20
6.636117843
 30
0.0
 10
10.8493895157
 20
6.6443063708
 30
0.0
 10
10.8365333364
 20
6.6534299075
 30
0.0
 10
10.8243224674
 20
6.6634383262
 30
0.0
 10
10.8128239127
 20
6.6742766636
 30
0.0
 10
10.8021007771
 20
6.685885419
 30
0.0
 10
10.7922119233
 20
6.6982008782
 30
0.0
 10
10.7832116521
 20
6.7111554592
 30
0.0
 10
10.7751494079
 20
6.7246780787
 30
0.0
 10
10.7680695058
 20
6.7386945399
 30
0.0
 10
10.7620108987
 20
6.7531279254
 30
0.0
 10
10.7570069418
 20
6.7678990507
 30
0.0
 10
10.7530852577
 20
6.7829267512
 30
0.0
 10
10.7502674879
 20
6.7981288438
 30
0.0
 10
10.7485693235
 20
6.8134206996
 30
0.0
 10
10.7481889554
 20
6.8236479219
 30
0.0
 10
10.7481889554
 20
6.8287466317
 30
0.0
  0
SPLINE
  5
305
100
AcDbEntity
  8
0
100
AcDbSpline
 62
7
  6
CONTINUOUS
 70
0
 71
3
 72
23
 73
19
 74
0
 42
0.0000001
 43
0.0000001
 44
0.0000000001
 40
0.0
 40
0.0
 40
0.0
 40
0.0
 40
0.0616662222
 40
0.1233790206
 40
0.1851548208
 40
0.2470095351
 40
0.308958412
 40
0.3710159285
 40
0.4331956853
 40
0.4955102766
 40
0.5579712239
 40
0.6205888462
 40
0.6833721981
 40
0.746329325
 40
0.8094661801
 40
0.87278738
 40
0.9363004604
 40
1.0
 40
1.0
 40
1.0
 40
1.0
 10
9.6417239571
 20
8.4186048378
 30
0.0
 10
9.637271841
 20
8.4135490559
 30
0.0
 10
9.6285974616
 20
8.4032255267
 30
0.0
 10
9.6163121738
 20
8.3871482218
 30
0.0
 10
9.6047709339
 20
8.3705031401
 30
0.0
 10
9.5939958192
 20
8.3533218893
 30
0.0
 10
9.5840069588
 20
8.335636576
 30
0.0
 10
9.5748230105
 20
8.31748046
 30
0.0
 10
9.5664612117
 20
8.2988875689
 30
0.0
 10
9.5589372766
 20
8.2798927627
 30
0.0
 10
9.552265197
 20
8.2605317088
 30
0.0
 10
9.5464574871
 20
8.2408407089
 30
0.0
 10
9.5415250597
 20
8.2208566574
 30
0.0
 10
9.537477081
 20
8.2006170597
 30
0.0
 10
9.5343210943
 20
8.1801599689
 30
0.0
 10
9.5320629718
 20
8.1595232596
 30
0.0
 10
9.5307071138
 20
8.1387465613
 30
0.0
 10
9.5304065882
 20
8.1248474912
 30
0.0
 10
9.5304065882
 20
8.1178887282
 30
0.0
  0
SPLINE
  5
306
100
AcDbEntity
  8
0
100
AcDbSpline
 62
7
  6
CONTINUOUS
 70
0
 71
3
 72
37
 73
33
 74
0
 42
0.0000001
 43
0.0000001
 44
0.0000000001
 40
0.0
 40
0.0
 40
0.0
 40
0.0
 40
0.0304764946
 40
0.0609692107
 40
0.0914829953
 40
0.122022578
 40
0.1525925766
 40
0.1831974468
 40
0.2138414882
 40
0.2445287992
 40
0.2752632794
 40
0.3060485948
 40
0.3368881738
 40
0.3677851851
 40
0.3987425251
 40
0.4297628117
 40
0.4608483609
 40
0.4920011979
 40
0.523223023
 40
0.5545152387
 40
0.5858789073
 40
0.6173147909
 40
0.648823304
 40
0.6804045627
 40
0.7120583358
 40
0.7437840999
 40
0.8074393815
 40
0.8713685406
 40
0.9034354126
 40
0.9355647058
 40
0.9677538396
 40
1.0
 40
1.0
 40
1.0
 40
1.0
 10
10.3345049324
 20
7.7013955413
 30
0.0
 10
10.33050353
 20
7.6981108429
 30
0.0
 10
10.3223807588
 20
7.6916817546
 30
0.0
 10
10.3098576972
 20
7.6824754271
 30
0.0
 10
10.2970062346
 20
7.6737139874
 30
0.0
 10
10.2838408413
 20
7.6654072484
 30
0.0
 10
10.2703760239
 20
7.6575643979
 30
0.0
 10
10.2566267191
 20
7.6501941167
 30
0.0
 10
10.2426081582
 20
7.6433045466
 30
0.0
 10
10.2283358508
 20
7.636903352
 30
0.0
 10
10.2138256329
 20
7.6309975496
 30
0.0
 10
10.1990935384
 20
7.6255937656
 30
0.0
 10
10.1841559253
 20
7.6206978583
 30
0.0
 10
10.16902929
 20
7.6163153857
 30
0.0
 10
10.1537304308
 20
7.6124510251
 30
0.0
 10
10.1382762422
 20
7.6091092366
 30
0.0
 10
10.1226838797
 20
7.6062935038
 30
0.0
 10
10.1069705685
 20
7.6040071603
 30
0.0
 10
10.0911537387
 20
7.6022524917
 30
0.0
 10
10.0752508757
 20
7.6010316784
 30
0.0
 10
10.0592796014
 20
7.6003458122
 30
0.0
 10
10.0432575904
 20
7.6001958954
 30
0.0
 10
10.0272025648
 20
7.6005818399
 30
0.0
 10
10.0111323556
 20
7.6015034395
 30
0.0
 10
9.9950645391
 20
7.6029594814
 30
0.0
 10
9.9736462825
 20
7.6056141394
 30
0.0
 10
9.9469665182
 20
7.610263924
 30
0.0
 10
9.920589338
 20
7.6166509192
 30
0.0
 10
9.8997054536
 20
7.6227889429
 30
0.0
 10
9.8841507756
 20
7.627908545
 30
0.0
 10
9.8687394887
 20
7.6335332614
 30
0.0
 10
9.8585803081
 20
7.6376124613
 30
0.0
 10
9.8535302528
 20
7.6397338271
 30
0.0
  0
SPLINE
  5
307
100
AcDbEntity
  8
0
100
AcDbSpline
 62
7
  6
CONTINUOUS
 70
0
 71
3
 72
15
 73
11
 74
0
 42
0.0000001
 43
0.0000001
 44
0.0000000001
 40
0.0
 40
0.0
 40
0.0
 40
0.0
 40
0.1262868568
 40
0.2522461237
 40
0.3778534202
 40
0.5030877842
 40
0.6279319664
 40
0.7523699123
 40
0.8763979391
 40
1.0
 40
1.0
 40
1.0
 40
1.0
 10
9.5676608175
 20
7.9293026107
 30
0.0
 10
9.5646008635
 20
7.9368471943
 30
0.0
 10
9.5588422312
 20
7.9520629458
 30
0.0
 10
9.5513038914
 20
7.9752359034
 30
0.0
 10
9.5448932503
 20
7.9986761384
 30
0.0
 10
9.5396262626
 20
8.022325843
 30
0.0
 10
9.5355158543
 20
8.0461273296
 30
0.0
 10
9.5325718701
 20
8.0700229387
 30
0.0
 10
9.5308018945
 20
8.0939532646
 30
0.0
 10
9.5304065882
 20
8.1099203102
 30
0.0
 10
9.5304065882
 20
8.1178887282
 30
0.0
  0
SPLINE
  5
308
100
AcDbEntity
  8
0
100
AcDbSpline
 62
7
  6
CONTINUOUS
 70
0
 71
3
 72
39
 73
35
 74
0
 42
0.0000001
 43
0.0000001
 44
0.0000000001
 40
0.0
 40
0.0
 40
0.0
 40
0.0
 40
0.0299424732
 40
0.0599093222
 40
0.0899243296
 40
0.1200101094
 40
0.1501875682
 40
0.1804754198
 40
0.2108897635
 40
0.2414437392
 40
0.2721472619
 40
0.3030068428
 40
0.334025493
 40
0.3652027101
 40
0.3965345427
 40
0.4280137258
 40
0.4596298807
 40
0.4913697729
 40
0.5232176187
 40
0.5551554339
 40
0.5871634169
 40
0.6192203588
 40
0.6513040742
 40
0.6833918453
 40
0.7154608739
 40
0.7474887339
 40
0.77945382
 40
0.811335781
 40
0.8431159463
 40
0.874777695
 40
0.9063068895
 40
0.9376919983
 40
0.9689248659
 40
1.0
 40
1.0
 40
1.0
 40
1.0
 10
11.1019124342
 20
9.0181365764
 30
0.0
 10
11.0983788356
 20
9.014723376
 30
0.0
 10
11.0910337932
 20
9.0081724233
 30
0.0
 10
11.079265879
 20
8.9992479157
 30
0.0
 10
11.066807775
 20
8.9912699825
 30
0.0
 10
11.0537290887
 20
8.9842833811
 30
0.0
 10
11.040101727
 20
8.9783262801
 30
0.0
 10
11.0260008976
 20
8.973431426
 30
0.0
 10
11.0115043049
 20
8.9696256005
 30
0.0
 10
10.9966918149
 20
8.9669295819
 30
0.0
 10
10.9816449826
 20
8.9653580147
 30
0.0
 10
10.9664466082
 20
8.9649193478
 30
0.0
 10
10.9511802789
 20
8.9656157971
 30
0.0
 10
10.9359299128
 20
8.967443344
 30
0.0
 10
10.9207793016
 20
8.9703917662
 30
0.0
 10
10.9058116557
 20
8.9744447005
 30
0.0
 10
10.8911091528
 20
8.9795797383
 30
0.0
 10
10.8767524938
 20
8.9857685523
 30
0.0
 10
10.8628204658
 20
8.992977054
 30
0.0
 10
10.8493895157
 20
9.0011655819
 30
0.0
 10
10.8365333364
 20
9.0102891186
 30
0.0
 10
10.8243224674
 20
9.0202975373
 30
0.0
 10
10.8128239127
 20
9.0311358746
 30
0.0
 10
10.8021007771
 20
9.0427446301
 30
0.0
 10
10.7922119233
 20
9.0550600893
 30
0.0
 10
10.7832116521
 20
9.0680146702
 30
0.0
 10
10.7751494079
 20
9.0815372897
 30
0.0
 10
10.7680695058
 20
9.0955537509
 30
0.0
 10
10.7620108987
 20
9.1099871364
 30
0.0
 10
10.7570069418
 20
9.1247582617
 30
0.0
 10
10.7530852577
 20
9.1397859623
 30
0.0
 10
10.7502674879
 20
9.1549880549
 30
0.0
 10
10.7485693235
 20
9.1702799107
 30
0.0
 10
10.7481889554
 20
9.180507133
 30
0.0
 10
10.7481889554
 20
9.1856058428
 30
0.0
  0
SPLINE
  5
309
100
AcDbEntity
  8
0
100
AcDbSpline
 62
7
  6
CONTINUOUS
 70
0
 71
3
 72
48
 73
44
 74
0
 42
0.0000001
 43
0.0000001
 44
0.0000000001
 40
0.0
 40
0.0
 40
0.0
 40
0.0
 40
0.0149718897
 40
0.0299468369
 40
0.0449278839
 40
0.0599180336
 40
0.0749202322
 40
0.0899373568
 40
0.1049721887
 40
0.1200274064
 40
0.1351055645
 40
0.1502090774
 40
0.1653402142
 40
0.180501073
 40
0.1956935825
 40
0.2109194836
 40
0.2261803205
 40
0.2414774416
 40
0.2568119786
 40
0.2721848576
 40
0.3030428416
 40
0.3340598877
 40
0.365235493
 40
0.3965657058
 40
0.4280432614
 40
0.4596577825
 40
0.4913960356
 40
0.5232422374
 40
0.5551784039
 40
0.5871847345
 40
0.6192400218
 40
0.6513220815
 40
0.6834081967
 40
0.7154755701
 40
0.7475017768
 40
0.7794652126
 40
0.8113455287
 40
0.8431240501
 40
0.8747841728
 40
0.9063117021
 40
0.9376953081
 40
0.9689262526
 40
1.0
 40
1.0
 40
1.0
 40
1.0
 10
10.3353799154
 20
7.7002691587
 30
0.0
 10
10.3312321049
 20
7.6962626641
 30
0.0
 10
10.3227754117
 20
7.6884128397
 30
0.0
 10
10.3096310331
 20
7.6771502905
 30
0.0
 10
10.296044124
 20
7.6664139624
 30
0.0
 10
10.2820335246
 20
7.6562190277
 30
0.0
 10
10.2676185583
 20
7.6465792982
 30
0.0
 10
10.2528190114
 20
7.6375081547
 30
0.0
 10
10.2376552702
 20
7.629018042
 30
0.0
 10
10.2221482349
 20
7.621120576
 30
0.0
 10
10.2063191825
 20
7.6138267491
 30
0.0
 10
10.1901899728
 20
7.6071464218
 30
0.0
 10
10.1737827403
 20
7.6010889199
 30
0.0
 10
10.1571200964
 20
7.5956624864
 30
0.0
 10
10.1402249668
 20
7.5908745608
 30
0.0
 10
10.1231205783
 20
7.5867318219
 30
0.0
 10
10.1058304778
 20
7.5832397918
 30
0.0
 10
10.0883785018
 20
7.5804034319
 30
0.0
 10
10.0707883631
 20
7.578226504
 30
0.0
 10
10.0471564634
 20
7.5762047961
 30
0.0
 10
10.0173843578
 20
7.5753452176
 30
0.0
 10
9.981548708
 20
7.5769801232
 30
0.0
 10
9.9457494614
 20
7.581270073
 30
0.0
 10
9.9101846648
 20
7.5881912147
 30
0.0
 10
9.8750492809
 20
7.5977050963
 30
0.0
 10
9.8405363152
 20
7.6097591328
 30
0.0
 10
9.8068351873
 20
7.6242868434
 30
0.0
 10
9.7741308516
 20
7.6412082028
 30
0.0
 10
9.7426027528
 20
7.6604300937
 30
0.0
 10
9.7124238767
 20
7.6818468389
 30
0.0
 10
9.68375981
 20
7.7053407719
 30
0.0
 10
9.6567678461
 20
7.7307828799
 30
0.0
 10
9.6315961309
 20
7.7580334993
 30
0.0
 10
9.6083828281
 20
7.7869430514
 30
0.0
 10
9.5872553974
 20
7.817352888
 30
0.0
 10
9.5683299022
 20
7.8490961466
 30
0.0
 10
9.5517103773
 20
7.8819986598
 30
0.0
 10
9.537488265
 20
7.9158798778
 30
0.0
 10
9.5257419001
 20
7.9505539103
 30
0.0
 10
9.5165360179
 20
7.9858302636
 30
0.0
 10
9.5099216035
 20
8.0215158855
 30
0.0
 10
9.5059351958
 20
8.0574122937
 30
0.0
 10
9.5050423433
 20
8.0814198494
 30
0.0
 10
9.5050423433
 20
8.0933887476
 30
0.0
  0
SPLINE
  5
30A
100
AcDbEntity
  8
0
100
AcDbSpline
 62
7
  6
CONTINUOUS
 70
0
 71
3
 72
39
 73
35
 74
0
 42
0.0000001
 43
0.0000001
 44
0.0000000001
 40
0.0
 40
0.0
 40
0.0
 40
0.0
 40
0.0299424732
 40
0.0599093222
 40
0.0899243296
 40
0.1200101094
 40
0.1501875682
 40
0.1804754198
 40
0.2108897635
 40
0.2414437392
 40
0.2721472619
 40
0.3030068428
 40
0.334025493
 40
0.3652027101
 40
0.3965345427
 40
0.4280137258
 40
0.4596298807
 40
0.4913697729
 40
0.5232176187
 40
0.5551554339
 40
0.5871634169
 40
0.6192203588
 40
0.6513040742
 40
0.6833918453
 40
0.7154608739
 40
0.7474887339
 40
0.77945382
 40
0.811335781
 40
0.8431159463
 40
0.874777695
 40
0.9063068895
 40
0.9376919983
 40
0.9689248659
 40
1.0
 40
1.0
 40
1.0
 40
1.0
 10
8.0225405222
 20
9.2896472416
 30
0.0
 10
8.0190069236
 20
9.2862340412
 30
0.0
 10
8.0116618813
 20
9.2796830885
 30
0.0
 10
7.9998939671
 20
9.2707585808
 30
0.0
 10
7.987435863
 20
9.2627806477
 30
0.0
 10
7.9743571768
 20
9.2557940462
 30
0.0
 10
7.960729815
 20
9.2498369452
 30
0.0
 10
7.9466289857
 20
9.2449420911
 30
0.0
 10
7.9321323929
 20
9.2411362657
 30
0.0
 10
7.9173199029
 20
9.2384402471
 30
0.0
 10
7.9022730707
 20
9.2368686799
 30
0.0
 10
7.8870746962
 20
9.236430013
 30
0.0
 10
7.8718083669
 20
9.2371264622
 30
0.0
 10
7.8565580008
 20
9.2389540092
 30
0.0
 10
7.8414073897
 20
9.2419024313
 30
0.0
 10
7.8264397437
 20
9.2459553656
 30
0.0
 10
7.8117372408
 20
9.2510904035
 30
0.0
 10
7.7973805819
 20
9.2572792175
 30
0.0
 10
7.7834485539
 20
9.2644877192
 30
0.0
 10
7.7700176038
 20
9.272676247
 30
0.0
 10
7.7571614244
 20
9.2817997837
 30
0.0
 10
7.7449505554
 20
9.2918082024
 30
0.0
 10
7.7334520008
 20
9.3026465398
 30
0.0
 10
7.7227288651
 20
9.3142552953
 30
0.0
 10
7.7128400113
 20
9.3265707545
 30
0.0
 10
7.7038397401
 20
9.3395253354
 30
0.0
 10
7.695777496
 20
9.3530479549
 30
0.0
 10
7.6886975938
 20
9.3670644161
 30
0.0
 10
7.6826389867
 20
9.3814978016
 30
0.0
 10
7.6776350299
 20
9.3962689269
 30
0.0
 10
7.6737133457
 20
9.4112966274
 30
0.0
 10
7.6708955759
 20
9.42649872
 30
0.0
 10
7.6691974116
 20
9.4417905758
 30
0.0
 10
7.6688170435
 20
9.4520177981
 30
0.0
 10
7.6688170435
 20
9.4571165079
 30
0.0
  0
LINE
  5
30B
100
AcDbEntity
  8
0
100
AcDbLine
 62
7
  6
CONTINUOUS
 10
8.3106253765
 20
8.5108536258
 11
8.3101940695
 21
8.510362919
  0
SPLINE
  5
30C
100
AcDbEntity
  8
0
100
AcDbSpline
 62
7
  6
CONTINUOUS
 70
0
 71
3
 72
23
 73
19
 74
0
 42
0.0000001
 43
0.0000001
 44
0.0000000001
 40
0.0
 40
0.0
 40
0.0
 40
0.0
 40
0.0616656658
 40
0.1233783633
 40
0.1851544346
 40
0.2470096964
 40
0.3089593041
 40
0.3710176548
 40
0.4331982634
 40
0.4955136374
 40
0.5579752285
 40
0.6205933001
 40
0.683376825
 40
0.7463337792
 40
0.8094701885
 40
0.8727904929
 40
0.93630205
 40
1.0
 40
1.0
 40
1.0
 40
1.0
 10
8.3101940695
 20
8.510362919
 30
0.0
 10
8.3057604198
 20
8.5053110318
 30
0.0
 10
8.2971223127
 20
8.4949965401
 30
0.0
 10
8.2848889025
 20
8.4789366339
 30
0.0
 10
8.2733969009
 20
8.4623124698
 30
0.0
 10
8.2626682012
 20
8.445155476
 30
0.0
 10
8.2527226757
 20
8.4274976159
 30
0.0
 10
8.2435788672
 20
8.409371914
 30
0.0
 10
8.2352538906
 20
8.3908121766
 30
0.0
 10
8.2277632483
 20
8.371853076
 30
0.0
 10
8.2211208427
 20
8.3525300325
 30
0.0
 10
8.2153391054
 20
8.3328791061
 30
0.0
 10
8.2104287988
 20
8.3129369677
 30
0.0
 10
8.206399023
 20
8.2927408595
 30
0.0
 10
8.2032572864
 20
8.2723285812
 30
0.0
 10
8.2010093661
 20
8.2517377789
 30
0.0
 10
8.1996596311
 20
8.2310077831
 30
0.0
 10
8.1993604701
 20
8.2171401264
 30
0.0
 10
8.1993604701
 20
8.21019709
 30
0.0
  0
SPLINE
  5
30D
100
AcDbEntity
  8
0
100
AcDbSpline
 62
7
  6
CONTINUOUS
 70
0
 71
3
 72
39
 73
35
 74
0
 42
0.0000001
 43
0.0000001
 44
0.0000000001
 40
0.0
 40
0.0
 40
0.0
 40
0.0
 40
0.0299424732
 40
0.0599093222
 40
0.0899243296
 40
0.1200101094
 40
0.1501875682
 40
0.1804754198
 40
0.2108897635
 40
0.2414437392
 40
0.2721472619
 40
0.3030068428
 40
0.334025493
 40
0.3652027101
 40
0.3965345427
 40
0.4280137258
 40
0.4596298807
 40
0.4913697729
 40
0.5232176187
 40
0.5551554339
 40
0.5871634169
 40
0.6192203588
 40
0.6513040742
 40
0.6833918453
 40
0.7154608739
 40
0.7474887339
 40
0.77945382
 40
0.811335781
 40
0.8431159463
 40
0.874777695
 40
0.9063068895
 40
0.9376919983
 40
0.9689248659
 40
1.0
 40
1.0
 40
1.0
 40
1.0
 10
8.0225405222
 20
6.8168770063
 30
0.0
 10
8.0190069236
 20
6.8134638059
 30
0.0
 10
8.0116618813
 20
6.8069128532
 30
0.0
 10
7.9998939671
 20
6.7979883455
 30
0.0
 10
7.987435863
 20
6.7900104123
 30
0.0
 10
7.9743571768
 20
6.7830238109
 30
0.0
 10
7.960729815
 20
6.7770667099
 30
0.0
 10
7.9466289857
 20
6.7721718558
 30
0.0
 10
7.9321323929
 20
6.7683660303
 30
0.0
 10
7.9173199029
 20
6.7656700117
 30
0.0
 10
7.9022730707
 20
6.7640984445
 30
0.0
 10
7.8870746962
 20
6.7636597776
 30
0.0
 10
7.8718083669
 20
6.7643562269
 30
0.0
 10
7.8565580008
 20
6.7661837738
 30
0.0
 10
7.8414073897
 20
6.769132196
 30
0.0
 10
7.8264397437
 20
6.7731851303
 30
0.0
 10
7.8117372408
 20
6.7783201681
 30
0.0
 10
7.7973805819
 20
6.7845089821
 30
0.0
 10
7.7834485539
 20
6.7917174839
 30
0.0
 10
7.7700176038
 20
6.7999060117
 30
0.0
 10
7.7571614244
 20
6.8090295484
 30
0.0
 10
7.7449505554
 20
6.8190379671
 30
0.0
 10
7.7334520008
 20
6.8298763045
 30
0.0
 10
7.7227288651
 20
6.8414850599
 30
0.0
 10
7.7128400113
 20
6.8538005191
 30
0.0
 10
7.7038397401
 20
6.8667551001
 30
0.0
 10
7.695777496
 20
6.8802777196
 30
0.0
 10
7.6886975938
 20
6.8942941808
 30
0.0
 10
7.6826389867
 20
6.9087275663
 30
0.0
 10
7.6776350299
 20
6.9234986916
 30
0.0
 10
7.6737133457
 20
6.9385263921
 30
0.0
 10
7.6708955759
 20
6.9537284847
 30
0.0
 10
7.6691974116
 20
6.9690203405
 30
0.0
 10
7.6688170435
 20
6.9792475628
 30
0.0
 10
7.6688170435
 20
6.9843462726
 30
0.0
  0
SPLINE
  5
30E
100
AcDbEntity
  8
0
100
AcDbSpline
 62
7
  6
CONTINUOUS
 70
0
 71
3
 72
32
 73
28
 74
0
 42
0.0000001
 43
0.0000001
 44
0.0000000001
 40
0.0
 40
0.0
 40
0.0
 40
0.0
 40
0.0304787911
 40
0.0609737966
 40
0.0914898454
 40
0.1220316687
 40
0.1526038634
 40
0.1832108903
 40
0.2138570275
 40
0.2445463801
 40
0.2752828284
 40
0.3060700447
 40
0.3678009105
 40
0.4297725848
 40
0.4920047863
 40
0.5545124183
 40
0.6173053594
 40
0.6488148722
 40
0.6803970517
 40
0.7120516985
 40
0.7437782714
 40
0.8074350779
 40
0.8713656627
 40
0.903433233
 40
0.9355632256
 40
0.9677530853
 40
1.0
 40
1.0
 40
1.0
 40
1.0
 10
9.0034365165
 20
7.7936856175
 30
0.0
 10
8.999438918
 20
7.7904044757
 30
0.0
 10
8.9913240253
 20
7.7839821983
 30
0.0
 10
8.9788133847
 20
7.7747853404
 30
0.0
 10
8.96597509
 20
7.7660323471
 30
0.0
 10
8.9528233987
 20
7.7577332531
 30
0.0
 10
8.9393729184
 20
7.7498969861
 30
0.0
 10
8.9256384259
 20
7.7425324065
 30
0.0
 10
8.9116351775
 20
7.7356474651
 30
0.0
 10
8.8973786391
 20
7.7292499388
 30
0.0
 10
8.8828843911
 20
7.7233467033
 30
0.0
 10
8.8632481591
 20
7.7161379762
 30
0.0
 10
8.8381794811
 20
7.7083950385
 30
0.0
 10
8.8074400267
 20
7.7011830481
 30
0.0
 10
8.7761480257
 20
7.6960722478
 30
0.0
 10
8.7444436931
 20
7.6930853243
 30
0.0
 10
8.7178234349
 20
7.6923776838
 30
0.0
 10
8.696465657
 20
7.6928779605
 30
0.0
 10
8.6804115642
 20
7.6937879637
 30
0.0
 10
8.6643597083
 20
7.6952315782
 30
0.0
 10
8.642962116
 20
7.6978680463
 30
0.0
 10
8.6163070428
 20
7.7024927282
 30
0.0
 10
8.5899525454
 20
7.7088513988
 30
0.0
 10
8.5690854734
 20
7.7149649758
 30
0.0
 10
8.5535426956
 20
7.7200653267
 30
0.0
 10
8.538142539
 20
7.7256699475
 30
0.0
 10
8.5279902304
 20
7.729735209
 30
0.0
 10
8.5229434775
 20
7.731849498
 30
0.0
  0
SPLINE
  5
30F
100
AcDbEntity
  8
0
100
AcDbSpline
 62
7
  6
CONTINUOUS
 70
0
 71
3
 72
15
 73
11
 74
0
 42
0.0000001
 43
0.0000001
 44
0.0000000001
 40
0.0
 40
0.0
 40
0.0
 40
0.0
 40
0.126282767
 40
0.2522385941
 40
0.377843431
 40
0.5030765242
 40
0.6279209278
 40
0.7523608532
 40
0.8763921982
 40
1.0
 40
1.0
 40
1.0
 40
1.0
 10
8.2362823608
 20
8.0224324112
 30
0.0
 10
8.2332493344
 20
8.0299473785
 30
0.0
 10
8.2275415533
 20
8.0451020933
 30
0.0
 10
8.2200701825
 20
8.0681786844
 30
0.0
 10
8.213716788
 20
8.0915186006
 30
0.0
 10
8.2084970351
 20
8.1150648012
 30
0.0
 10
8.2044236021
 20
8.1387603717
 30
0.0
 10
8.2015061777
 20
8.1625484081
 30
0.0
 10
8.1997521878
 20
8.1863703345
 30
0.0
 10
8.1993604701
 20
8.2022648021
 30
0.0
 10
8.1993604701
 20
8.21019709
 30
0.0
  0
SPLINE
  5
310
100
AcDbEntity
  8
0
100
AcDbSpline
 62
7
  6
CONTINUOUS
 70
0
 71
3
 72
51
 73
47
 74
0
 42
0.0000001
 43
0.0000001
 44
0.0000000001
 40
0.0
 40
0.0
 40
0.0
 40
0.0
 40
0.0149716492
 40
0.0299463581
 40
0.0449271651
 40
0.0599170757
 40
0.074919036
 40
0.0899359202
 40
0.1049705142
 40
0.1200254919
 40
0.13510341
 40
0.1502066844
 40
0.1653375793
 40
0.1804981992
 40
0.1956904672
 40
0.2109161263
 40
0.226176723
 40
0.2414735994
 40
0.2568078954
 40
0.2721805298
 40
0.2875922109
 40
0.3030434256
 40
0.3185344373
 40
0.3340652966
 40
0.3496358272
 40
0.3652456427
 40
0.3965753582
 40
0.4280524147
 40
0.4596664333
 40
0.4914041802
 40
0.5232498735
 40
0.5551855304
 40
0.5871913501
 40
0.6192461249
 40
0.6513276709
 40
0.6834132722
 40
0.7154801318
 40
0.7475058251
 40
0.7794687481
 40
0.8113485526
 40
0.8431265648
 40
0.874786179
 40
0.9063132055
 40
0.9376963031
 40
0.9689267482
 40
1.0
 40
1.0
 40
1.0
 40
1.0
 10
9.0043326642
 20
7.7925764381
 30
0.0
 10
9.0001848525
 20
7.7885699569
 30
0.0
 10
8.9917281462
 20
7.7807201701
 30
0.0
 10
8.9785837499
 20
7.7694576776
 30
0.0
 10
8.9649967961
 20
7.7587214456
 30
0.0
 10
8.9509862219
 20
7.7485265154
 30
0.0
 10
8.9365712028
 20
7.7388869064
 30
0.0
 10
8.9217716737
 20
7.7298157794
 30
0.0
 10
8.9066079179
 20
7.7213257368
 30
0.0
 10
8.8911008624
 20
7.7134283631
 30
0.0
 10
8.8752718374
 20
7.7061345282
 30
0.0
 10
8.8591425972
 20
7.6994543336
 30
0.0
 10
8.8427353908
 20
7.6933968267
 30
0.0
 10
8.8260727434
 20
7.6879704709
 30
0.0
 10
8.8091776163
 20
7.6831826263
 30
0.0
 10
8.7920732495
 20
7.6790398712
 30
0.0
 10
8.7747831586
 20
7.6755479778
 30
0.0
 10
8.7573311565
 20
7.6727115925
 30
0.0
 10
8.7397412267
 20
7.6705347465
 30
0.0
 10
8.7220375787
 20
7.6690203304
 30
0.0
 10
8.7042445572
 20
7.6681704089
 30
0.0
 10
8.6863866383
 20
7.6679862307
 30
0.0
 10
8.6684883593
 20
7.6684678926
 30
0.0
 10
8.6505744153
 20
7.6696148413
 30
0.0
 10
8.6326691405
 20
7.6714254709
 30
0.0
 10
8.6088139752
 20
7.6747246485
 30
0.0
 10
8.5791369492
 20
7.6804998545
 30
0.0
 10
8.5440024508
 20
7.6900137178
 30
0.0
 10
8.5094893369
 20
7.7020678408
 30
0.0
 10
8.475788334
 20
7.7165955708
 30
0.0
 10
8.4430840405
 20
7.7335169358
 30
0.0
 10
8.4115560152
 20
7.7527388442
 30
0.0
 10
8.3813772175
 20
7.7741556141
 30
0.0
 10
8.3527132291
 20
7.7976495608
 30
0.0
 10
8.3257213319
 20
7.8230916626
 30
0.0
 10
8.300549663
 20
7.850342253
 30
0.0
 10
8.2773364172
 20
7.879251784
 30
0.0
 10
8.2562090509
 20
7.9096616006
 30
0.0
 10
8.2372836149
 20
7.9414048324
 30
0.0
 10
8.2206641378
 20
7.9743073099
 30
0.0
 10
8.2064420528
 20
8.0081884816
 30
0.0
 10
8.1946957157
 20
8.0428624692
 30
0.0
 10
8.1854898661
 20
8.0781387757
 30
0.0
 10
8.1788754715
 20
8.1138243477
 30
0.0
 10
8.1748890765
 20
8.1497207047
 30
0.0
 10
8.1739962253
 20
8.1737282273
 30
0.0
 10
8.1739962253
 20
8.1856971094
 30
0.0
  0
LINE
  5
311
100
AcDbEntity
  8
0
100
AcDbLine
 62
7
  6
CONTINUOUS
 10
8.9732508679
 20
7.6728411743
 11
8.9728195609
 21
7.6723504675
  0
SPLINE
  5
312
100
AcDbEntity
  8
0
100
AcDbSpline
 62
7
  6
CONTINUOUS
 70
0
 71
3
 72
23
 73
19
 74
0
 42
0.0000001
 43
0.0000001
 44
0.0000000001
 40
0.0
 40
0.0
 40
0.0
 40
0.0
 40
0.0616656658
 40
0.1233783633
 40
0.1851544346
 40
0.2470096964
 40
0.3089593041
 40
0.3710176548
 40
0.4331982634
 40
0.4955136374
 40
0.5579752285
 40
0.6205933001
 40
0.683376825
 40
0.7463337792
 40
0.8094701885
 40
0.8727904929
 40
0.93630205
 40
1.0
 40
1.0
 40
1.0
 40
1.0
 10
8.9728195609
 20
7.6723504675
 30
0.0
 10
8.9683859112
 20
7.6672985803
 30
0.0
 10
8.9597478041
 20
7.6569840886
 30
0.0
 10
8.947514394
 20
7.6409241825
 30
0.0
 10
8.9360223923
 20
7.6243000183
 30
0.0
 10
8.9252936926
 20
7.6071430245
 30
0.0
 10
8.9153481671
 20
7.5894851644
 30
0.0
 10
8.9062043586
 20
7.5713594625
 30
0.0
 10
8.897879382
 20
7.5527997251
 30
0.0
 10
8.8903887397
 20
7.5338406245
 30
0.0
 10
8.8837463341
 20
7.514517581
 30
0.0
 10
8.8779645968
 20
7.4948666546
 30
0.0
 10
8.8730542902
 20
7.4749245163
 30
0.0
 10
8.8690245144
 20
7.4547284081
 30
0.0
 10
8.8658827778
 20
7.4343161297
 30
0.0
 10
8.8636348575
 20
7.4137253274
 30
0.0
 10
8.8622851225
 20
7.3929953316
 30
0.0
 10
8.8619859615
 20
7.3791276749
 30
0.0
 10
8.8619859615
 20
7.3721846385
 30
0.0
  0
SPLINE
  5
313
100
AcDbEntity
  8
0
100
AcDbSpline
 62
7
  6
CONTINUOUS
 70
0
 71
3
 72
32
 73
28
 74
0
 42
0.0000001
 43
0.0000001
 44
0.0000000001
 40
0.0
 40
0.0
 40
0.0
 40
0.0
 40
0.0304787911
 40
0.0609737966
 40
0.0914898454
 40
0.1220316687
 40
0.1526038634
 40
0.1832108903
 40
0.2138570275
 40
0.2445463801
 40
0.2752828284
 40
0.3060700447
 40
0.3678009105
 40
0.4297725848
 40
0.4920047863
 40
0.5545124183
 40
0.6173053594
 40
0.6488148722
 40
0.6803970517
 40
0.7120516985
 40
0.7437782714
 40
0.8074350779
 40
0.8713656627
 40
0.903433233
 40
0.9355632256
 40
0.9677530853
 40
1.0
 40
1.0
 40
1.0
 40
1.0
 10
9.6660620079
 20
6.955673166
 30
0.0
 10
9.6620644094
 20
6.9523920242
 30
0.0
 10
9.6539495167
 20
6.9459697469
 30
0.0
 10
9.6414388761
 20
6.9367728889
 30
0.0
 10
9.6286005814
 20
6.9280198957
 30
0.0
 10
9.6154488901
 20
6.9197208016
 30
0.0
 10
9.6019984098
 20
6.9118845347
 30
0.0
 10
9.5882639173
 20
6.904519955
 30
0.0
 10
9.5742606689
 20
6.8976350136
 30
0.0
 10
9.5600041305
 20
6.8912374873
 30
0.0
 10
9.5455098825
 20
6.8853342518
 30
0.0
 10
9.5258736505
 20
6.8781255247
 30
0.0
 10
9.5008049725
 20
6.870382587
 30
0.0
 10
9.4700655181
 20
6.8631705966
 30
0.0
 10
9.4387735171
 20
6.8580597964
 30
0.0
 10
9.4070691845
 20
6.8550728729
 30
0.0
 10
9.3804489263
 20
6.8543652324
 30
0.0
 10
9.3590911484
 20
6.854865509
 30
0.0
 10
9.3430370556
 20
6.8557755122
 30
0.0
 10
9.3269851997
 20
6.8572191267
 30
0.0
 10
9.3055876074
 20
6.8598555948
 30
0.0
 10
9.2789325342
 20
6.8644802767
 30
0.0
 10
9.2525780368
 20
6.8708389473
 30
0.0
 10
9.2317109648
 20
6.8769525244
 30
0.0
 10
9.216168187
 20
6.8820528752
 30
0.0
 10
9.2007680304
 20
6.887657496
 30
0.0
 10
9.1906157218
 20
6.8917227575
 30
0.0
 10
9.1855689689
 20
6.8938370465
 30
0.0
  0
SPLINE
  5
314
100
AcDbEntity
  8
0
100
AcDbSpline
 62
7
  6
CONTINUOUS
 70
0
 71
3
 72
15
 73
11
 74
0
 42
0.0000001
 43
0.0000001
 44
0.0000000001
 40
0.0
 40
0.0
 40
0.0
 40
0.0
 40
0.126282767
 40
0.2522385941
 40
0.377843431
 40
0.5030765242
 40
0.6279209278
 40
0.7523608532
 40
0.8763921982
 40
1.0
 40
1.0
 40
1.0
 40
1.0
 10
8.8989078522
 20
7.1844199597
 30
0.0
 10
8.8958748259
 20
7.191934927
 30
0.0
 10
8.8901670447
 20
7.2070896419
 30
0.0
 10
8.8826956739
 20
7.2301662329
 30
0.0
 10
8.8763422794
 20
7.2535061491
 30
0.0
 10
8.8711225265
 20
7.2770523497
 30
0.0
 10
8.8670490935
 20
7.3007479202
 30
0.0
 10
8.8641316691
 20
7.3245359567
 30
0.0
 10
8.8623776792
 20
7.3483578831
 30
0.0
 10
8.8619859615
 20
7.3642523506
 30
0.0
 10
8.8619859615
 20
7.3721846385
 30
0.0
  0
SPLINE
  5
315
100
AcDbEntity
  8
0
100
AcDbSpline
 62
7
  6
CONTINUOUS
 70
0
 71
3
 72
51
 73
47
 74
0
 42
0.0000001
 43
0.0000001
 44
0.0000000001
 40
0.0
 40
0.0
 40
0.0
 40
0.0
 40
0.0149716492
 40
0.0299463581
 40
0.0449271651
 40
0.0599170757
 40
0.074919036
 40
0.0899359202
 40
0.1049705142
 40
0.1200254919
 40
0.13510341
 40
0.1502066844
 40
0.1653375793
 40
0.1804981992
 40
0.1956904672
 40
0.2109161263
 40
0.226176723
 40
0.2414735994
 40
0.2568078954
 40
0.2721805298
 40
0.2875922109
 40
0.3030434256
 40
0.3185344373
 40
0.3340652966
 40
0.3496358272
 40
0.3652456427
 40
0.3965753582
 40
0.4280524147
 40
0.4596664333
 40
0.4914041802
 40
0.5232498735
 40
0.5551855304
 40
0.5871913501
 40
0.6192461249
 40
0.6513276709
 40
0.6834132722
 40
0.7154801318
 40
0.7475058251
 40
0.7794687481
 40
0.8113485526
 40
0.8431265648
 40
0.874786179
 40
0.9063132055
 40
0.9376963031
 40
0.9689267482
 40
1.0
 40
1.0
 40
1.0
 40
1.0
 10
9.6669581556
 20
6.9545639866
 30
0.0
 10
9.662810344
 20
6.9505575054
 30
0.0
 10
9.6543536376
 20
6.9427077186
 30
0.0
 10
9.6412092413
 20
6.9314452261
 30
0.0
 10
9.6276222875
 20
6.9207089941
 30
0.0
 10
9.6136117133
 20
6.9105140639
 30
0.0
 10
9.5991966942
 20
6.900874455
 30
0.0
 10
9.5843971651
 20
6.8918033279
 30
0.0
 10
9.5692334093
 20
6.8833132853
 30
0.0
 10
9.5537263538
 20
6.8754159116
 30
0.0
 10
9.5378973288
 20
6.8681220767
 30
0.0
 10
9.5217680886
 20
6.8614418822
 30
0.0
 10
9.5053608822
 20
6.8553843752
 30
0.0
 10
9.4886982348
 20
6.8499580194
 30
0.0
 10
9.4718031077
 20
6.8451701749
 30
0.0
 10
9.4546987409
 20
6.8410274197
 30
0.0
 10
9.43740865
 20
6.8375355263
 30
0.0
 10
9.4199566479
 20
6.834699141
 30
0.0
 10
9.4023667181
 20
6.832522295
 30
0.0
 10
9.3846630701
 20
6.8310078789
 30
0.0
 10
9.3668700486
 20
6.8301579574
 30
0.0
 10
9.3490121297
 20
6.8299737792
 30
0.0
 10
9.3311138507
 20
6.8304554412
 30
0.0
 10
9.3131999067
 20
6.8316023898
 30
0.0
 10
9.2952946319
 20
6.8334130194
 30
0.0
 10
9.2714394666
 20
6.836712197
 30
0.0
 10
9.2417624406
 20
6.842487403
 30
0.0
 10
9.2066279422
 20
6.8520012663
 30
0.0
 10
9.1721148283
 20
6.8640553893
 30
0.0
 10
9.1384138254
 20
6.8785831193
 30
0.0
 10
9.1057095319
 20
6.8955044843
 30
0.0
 10
9.0741815066
 20
6.9147263927
 30
0.0
 10
9.0440027089
 20
6.9361431626
 30
0.0
 10
9.0153387205
 20
6.9596371093
 30
0.0
 10
8.9883468233
 20
6.9850792111
 30
0.0
 10
8.9631751544
 20
7.0123298016
 30
0.0
 10
8.9399619086
 20
7.0412393325
 30
0.0
 10
8.9188345423
 20
7.0716491491
 30
0.0
 10
8.8999091063
 20
7.1033923809
 30
0.0
 10
8.8832896292
 20
7.1362948584
 30
0.0
 10
8.8690675442
 20
7.1701760301
 30
0.0
 10
8.8573212071
 20
7.2048500178
 30
0.0
 10
8.8481153575
 20
7.2401263243
 30
0.0
 10
8.841500963
 20
7.2758118962
 30
0.0
 10
8.8375145679
 20
7.3117082532
 30
0.0
 10
8.8366217167
 20
7.3357157758
 30
0.0
 10
8.8366217167
 20
7.3476846579
 30
0.0
  0
LINE
  5
316
100
AcDbEntity
  8
0
100
AcDbLine
 62
7
  6
CONTINUOUS
 10
8.9732508679
 20
9.2550278402
 11
8.9728195609
 21
9.2545371334
  0
SPLINE
  5
317
100
AcDbEntity
  8
0
100
AcDbSpline
 62
7
  6
CONTINUOUS
 70
0
 71
3
 72
23
 73
19
 74
0
 42
0.0000001
 43
0.0000001
 44
0.0000000001
 40
0.0
 40
0.0
 40
0.0
 40
0.0
 40
0.0616656658
 40
0.1233783633
 40
0.1851544346
 40
0.2470096964
 40
0.3089593041
 40
0.3710176548
 40
0.4331982634
 40
0.4955136374
 40
0.5579752285
 40
0.6205933001
 40
0.683376825
 40
0.7463337792
 40
0.8094701885
 40
0.8727904929
 40
0.93630205
 40
1.0
 40
1.0
 40
1.0
 40
1.0
 10
8.9728195609
 20
9.2545371334
 30
0.0
 10
8.9683859112
 20
9.2494852461
 30
0.0
 10
8.9597478041
 20
9.2391707544
 30
0.0
 10
8.947514394
 20
9.2231108483
 30
0.0
 10
8.9360223923
 20
9.2064866841
 30
0.0
 10
8.9252936926
 20
9.1893296903
 30
0.0
 10
8.9153481671
 20
9.1716718302
 30
0.0
 10
8.9062043586
 20
9.1535461284
 30
0.0
 10
8.897879382
 20
9.1349863909
 30
0.0
 10
8.8903887397
 20
9.1160272903
 30
0.0
 10
8.8837463341
 20
9.0967042469
 30
0.0
 10
8.8779645968
 20
9.0770533204
 30
0.0
 10
8.8730542902
 20
9.0571111821
 30
0.0
 10
8.8690245144
 20
9.0369150739
 30
0.0
 10
8.8658827778
 20
9.0165027956
 30
0.0
 10
8.8636348575
 20
8.9959119932
 30
0.0
 10
8.8622851225
 20
8.9751819974
 30
0.0
 10
8.8619859615
 20
8.9613143408
 30
0.0
 10
8.8619859615
 20
8.9543713043
 30
0.0
  0
SPLINE
  5
318
100
AcDbEntity
  8
0
100
AcDbSpline
 62
7
  6
CONTINUOUS
 70
0
 71
3
 72
32
 73
28
 74
0
 42
0.0000001
 43
0.0000001
 44
0.0000000001
 40
0.0
 40
0.0
 40
0.0
 40
0.0
 40
0.0304787911
 40
0.0609737966
 40
0.0914898454
 40
0.1220316687
 40
0.1526038634
 40
0.1832108903
 40
0.2138570275
 40
0.2445463801
 40
0.2752828284
 40
0.3060700447
 40
0.3678009105
 40
0.4297725848
 40
0.4920047863
 40
0.5545124183
 40
0.6173053594
 40
0.6488148722
 40
0.6803970517
 40
0.7120516985
 40
0.7437782714
 40
0.8074350779
 40
0.8713656627
 40
0.903433233
 40
0.9355632256
 40
0.9677530853
 40
1.0
 40
1.0
 40
1.0
 40
1.0
 10
9.6660620079
 20
8.5378598319
 30
0.0
 10
9.6620644094
 20
8.53457869
 30
0.0
 10
9.6539495167
 20
8.5281564127
 30
0.0
 10
9.6414388761
 20
8.5189595547
 30
0.0
 10
9.6286005814
 20
8.5102065615
 30
0.0
 10
9.6154488901
 20
8.5019074674
 30
0.0
 10
9.6019984098
 20
8.4940712005
 30
0.0
 10
9.5882639173
 20
8.4867066209
 30
0.0
 10
9.5742606689
 20
8.4798216794
 30
0.0
 10
9.5600041305
 20
8.4734241532
 30
0.0
 10
9.5455098825
 20
8.4675209176
 30
0.0
 10
9.5258736505
 20
8.4603121905
 30
0.0
 10
9.5008049725
 20
8.4525692528
 30
0.0
 10
9.4700655181
 20
8.4453572624
 30
0.0
 10
9.4387735171
 20
8.4402464622
 30
0.0
 10
9.4070691845
 20
8.4372595387
 30
0.0
 10
9.3804489263
 20
8.4365518982
 30
0.0
 10
9.3590911484
 20
8.4370521749
 30
0.0
 10
9.3430370556
 20
8.4379621781
 30
0.0
 10
9.3269851997
 20
8.4394057926
 30
0.0
 10
9.3055876074
 20
8.4420422607
 30
0.0
 10
9.2789325342
 20
8.4466669426
 30
0.0
 10
9.2525780368
 20
8.4530256132
 30
0.0
 10
9.2317109648
 20
8.4591391902
 30
0.0
 10
9.216168187
 20
8.4642395411
 30
0.0
 10
9.2007680304
 20
8.4698441618
 30
0.0
 10
9.1906157218
 20
8.4739094233
 30
0.0
 10
9.1855689689
 20
8.4760237123
 30
0.0
  0
SPLINE
  5
319
100
AcDbEntity
  8
0
100
AcDbSpline
 62
7
  6
CONTINUOUS
 70
0
 71
3
 72
15
 73
11
 74
0
 42
0.0000001
 43
0.0000001
 44
0.0000000001
 40
0.0
 40
0.0
 40
0.0
 40
0.0
 40
0.126282767
 40
0.2522385941
 40
0.377843431
 40
0.5030765242
 40
0.6279209278
 40
0.7523608532
 40
0.8763921982
 40
1.0
 40
1.0
 40
1.0
 40
1.0
 10
8.8989078522
 20
8.7666066256
 30
0.0
 10
8.8958748259
 20
8.7741215928
 30
0.0
 10
8.8901670447
 20
8.7892763077
 30
0.0
 10
8.8826956739
 20
8.8123528987
 30
0.0
 10
8.8763422794
 20
8.835692815
 30
0.0
 10
8.8711225265
 20
8.8592390156
 30
0.0
 10
8.8670490935
 20
8.882934586
 30
0.0
 10
8.8641316691
 20
8.9067226225
 30
0.0
 10
8.8623776792
 20
8.9305445489
 30
0.0
 10
8.8619859615
 20
8.9464390164
 30
0.0
 10
8.8619859615
 20
8.9543713043
 30
0.0
  0
SPLINE
  5
31A
100
AcDbEntity
  8
0
100
AcDbSpline
 62
7
  6
CONTINUOUS
 70
0
 71
3
 72
51
 73
47
 74
0
 42
0.0000001
 43
0.0000001
 44
0.0000000001
 40
0.0
 40
0.0
 40
0.0
 40
0.0
 40
0.0149716492
 40
0.0299463581
 40
0.0449271651
 40
0.0599170757
 40
0.074919036
 40
0.0899359202
 40
0.1049705142
 40
0.1200254919
 40
0.13510341
 40
0.1502066844
 40
0.1653375793
 40
0.1804981992
 40
0.1956904672
 40
0.2109161263
 40
0.226176723
 40
0.2414735994
 40
0.2568078954
 40
0.2721805298
 40
0.2875922109
 40
0.3030434256
 40
0.3185344373
 40
0.3340652966
 40
0.3496358272
 40
0.3652456427
 40
0.3965753582
 40
0.4280524147
 40
0.4596664333
 40
0.4914041802
 40
0.5232498735
 40
0.5551855304
 40
0.5871913501
 40
0.6192461249
 40
0.6513276709
 40
0.6834132722
 40
0.7154801318
 40
0.7475058251
 40
0.7794687481
 40
0.8113485526
 40
0.8431265648
 40
0.874786179
 40
0.9063132055
 40
0.9376963031
 40
0.9689267482
 40
1.0
 40
1.0
 40
1.0
 40
1.0
 10
9.6669581556
 20
8.5367506525
 30
0.0
 10
9.662810344
 20
8.5327441713
 30
0.0
 10
9.6543536376
 20
8.5248943844
 30
0.0
 10
9.6412092413
 20
8.5136318919
 30
0.0
 10
9.6276222875
 20
8.50289566
 30
0.0
 10
9.6136117133
 20
8.4927007297
 30
0.0
 10
9.5991966942
 20
8.4830611208
 30
0.0
 10
9.5843971651
 20
8.4739899937
 30
0.0
 10
9.5692334093
 20
8.4654999512
 30
0.0
 10
9.5537263538
 20
8.4576025775
 30
0.0
 10
9.5378973288
 20
8.4503087425
 30
0.0
 10
9.5217680886
 20
8.443628548
 30
0.0
 10
9.5053608822
 20
8.437571041
 30
0.0
 10
9.4886982348
 20
8.4321446853
 30
0.0
 10
9.4718031077
 20
8.4273568407
 30
0.0
 10
9.4546987409
 20
8.4232140855
 30
0.0
 10
9.43740865
 20
8.4197221922
 30
0.0
 10
9.4199566479
 20
8.4168858069
 30
0.0
 10
9.4023667181
 20
8.4147089608
 30
0.0
 10
9.3846630701
 20
8.4131945447
 30
0.0
 10
9.3668700486
 20
8.4123446232
 30
0.0
 10
9.3490121297
 20
8.4121604451
 30
0.0
 10
9.3311138507
 20
8.412642107
 30
0.0
 10
9.3131999067
 20
8.4137890557
 30
0.0
 10
9.2952946319
 20
8.4155996853
 30
0.0
 10
9.2714394666
 20
8.4188988629
 30
0.0
 10
9.2417624406
 20
8.4246740688
 30
0.0
 10
9.2066279422
 20
8.4341879321
 30
0.0
 10
9.1721148283
 20
8.4462420551
 30
0.0
 10
9.1384138254
 20
8.4607697851
 30
0.0
 10
9.1057095319
 20
8.4776911501
 30
0.0
 10
9.0741815066
 20
8.4969130586
 30
0.0
 10
9.0440027089
 20
8.5183298284
 30
0.0
 10
9.0153387205
 20
8.5418237752
 30
0.0
 10
8.9883468233
 20
8.5672658769
 30
0.0
 10
8.9631751544
 20
8.5945164674
 30
0.0
 10
8.9399619086
 20
8.6234259983
 30
0.0
 10
8.9188345423
 20
8.653835815
 30
0.0
 10
8.8999091063
 20
8.6855790467
 30
0.0
 10
8.8832896292
 20
8.7184815243
 30
0.0
 10
8.8690675442
 20
8.752362696
 30
0.0
 10
8.8573212071
 20
8.7870366836
 30
0.0
 10
8.8481153575
 20
8.8223129901
 30
0.0
 10
8.841500963
 20
8.8579985621
 30
0.0
 10
8.8375145679
 20
8.893894919
 30
0.0
 10
8.8366217167
 20
8.9179024417
 30
0.0
 10
8.8366217167
 20
8.9298713237
 30
0.0
  0
SPLINE
  5
31B
100
AcDbEntity
  8
0
100
AcDbSpline
 62
7
  6
CONTINUOUS
 70
0
 71
3
 72
23
 73
19
 74
0
 42
0.0000001
 43
0.0000001
 44
0.0000000001
 40
0.0
 40
0.0
 40
0.0
 40
0.0
 40
0.0637754757
 40
0.1273453426
 40
0.1907021752
 40
0.2538559149
 40
0.3168132477
 40
0.3795821059
 40
0.4421733695
 40
0.5045993382
 40
0.566873869
 40
0.6290123778
 40
0.6910316472
 40
0.7529496469
 40
0.8147853527
 40
0.8765585998
 40
0.9382898568
 40
1.0
 40
1.0
 40
1.0
 40
1.0
 10
9.1034674324
 20
8.9376245075
 30
0.0
 10
9.1034674324
 20
8.9414815999
 30
0.0
 10
9.1036520961
 20
8.9491846554
 30
0.0
 10
9.1044853208
 20
8.9606923555
 30
0.0
 10
9.1058727457
 20
8.9721089046
 30
0.0
 10
9.107811055
 20
8.9834073146
 30
0.0
 10
9.110295764
 20
8.994561899
 30
0.0
 10
9.1133212412
 20
9.0055468677
 30
0.0
 10
9.1168805633
 20
9.0163368589
 30
0.0
 10
9.120965461
 20
9.0269070365
 30
0.0
 10
9.1255665827
 20
9.0372330092
 30
0.0
 10
9.1306733841
 20
9.0472909316
 30
0.0
 10
9.1362740147
 20
9.0570576479
 30
0.0
 10
9.1423556304
 20
9.0665106071
 30
0.0
 10
9.1489042259
 20
9.0756279555
 30
0.0
 10
9.1559047027
 20
9.0843887883
 30
0.0
 10
9.1633406968
 20
9.0927725824
 30
0.0
 10
9.1685779428
 20
9.0980984879
 30
0.0
 10
9.1712623329
 20
9.1006914086
 30
0.0
  0
ELLIPSE
  5
31C
100
AcDbEntity
  8
0
100
AcDbEllipse
 62
7
  6
CONTINUOUS
 10
10.0131040009
 20
8.0850637365
 30
0.0
 11
0.2999956505
 21
-0.0783884617
 31
0.0
 40
0.7697003615
 41
0.6365101557
 42
6.2458172474
  0
ELLIPSE
  5
31D
100
AcDbEntity
  8
0
100
AcDbEllipse
 62
7
  6
CONTINUOUS
 10
8.6823234119
 20
8.1773228573
 30
0.0
 11
-0.0322142133
 21
0.310185349
 31
0.0
 40
0.7715486847
 41
0.2023890384
 42
5.5444496192
  0
ELLIPSE
  5
31E
100
AcDbEntity
  8
0
100
AcDbEllipse
 62
7
  6
CONTINUOUS
 10
9.3511716947
 20
7.3362763131
 30
0.0
 11
0.2745414518
 21
-0.0556916543
 31
0.0
 40
0.858041026
 41
0.0
 42
6.2831853072
  0
ENDSEC
  0
SECTION
  2
OBJECTS
  0
DICTIONARY
  5
C
100
AcDbDictionary
280
0
281
1
  3
ACAD_GROUP
350
D
  3
ACAD_MLINESTYLE
350
17
  3
ACAD_LAYOUT
350
1A
  3
ACAD_PLOTSETTINGS
350
19
  3
ACAD_PLOTSTYLENAME
350
E
  3
ACAD_IMAGE_DICT
350
       320
  3
ACAD_IMAGE_VARS
350
       321
  3
ACAD_TABLESTYLE
350
       322
  0
IMAGEDEF_REACTOR
  5
31F
100
AcDbRasterImageDefReactor
 90
2
330
280
  0
DICTIONARY
  5
D
102
{ACAD_REACTORS
330
C
102
}
100
AcDbDictionary
280
0
281
1
  0
ACDBDICTIONARYWDFLT
  5
E
102
{ACAD_REACTORS
330
C
102
}
100
AcDbDictionary
281
1
  3
Normal
350
F
100
AcDbDictionaryWithDefault
340
F
  0
DICTIONARY
  5
320
330
C
100
AcDbDictionary
281
1
  3
X2V_assy_2_img_1
350
       325
  0
RASTERVARIABLES
  5
321
330
C
100
AcDbRasterVariables
 90
0
 70
0
 71
1
 72
5
  0
DICTIONARY
  5
17
102
{ACAD_REACTORS
330
C
102
}
100
AcDbDictionary
280
0
281
1
  3
Standard
350
18
  0
DICTIONARY
  5
322
330
C
100
AcDbDictionary
281
1
  3
Standard
350
       326
  3
Standard1
350
       327
  0
DICTIONARY
  5
19
102
{ACAD_REACTORS
330
C
102
}
100
AcDbDictionary
281
1
  0
DICTIONARY
  5
1A
102
{ACAD_REACTORS
330
C
102
}
100
AcDbDictionary
281
1
  3
Model
350
323
  3
Layout1
350
324
  0
ACDBPLACEHOLDER
  5
F
102
{ACAD_REACTORS
330
E
102
}
  0
MLINESTYLE
  5
18
102
{ACAD_REACTORS
330
17
102
}
100
AcDbMlineStyle
  2
STANDARD
 70
0
  3

 62
256
 51
90.0
 52
90.0
 71
2
 49
0.5
 62
256
  6
BYLAYER
 49
-0.5
 62
256
  6
BYLAYER
  0
LAYOUT
  5
323
102
{ACAD_REACTORS
330
1A
102
}
100
AcDbPlotSettings
  1

  2
none_device
  4
ANSI_C_(22.00_x_17.00_Inches)
  6

 40
0.0
 41
0.0
 42
0.0
 43
0.0
 44
558.8
 45
431.8
 46
0.0
 47
0.0
 48
0.0
 49
0.0
140
0.0
141
0.0
142
1.0
143
1.0
 70
1024
 72
0
 73
0
 74
0
  7

 75
0
147
1.0
148
0.0
149
0.0
100
AcDbLayout
  1
Model
 70
0
 71
0
 10
0.0
 20
0.0
 11
22.0
 21
17.0
 12
0.0
 22
0.0
 32
0.0
 14
0.0
 24
0.0
 34
0.0
 15
0.0
 25
0.0
 35
0.0
146
0.0
 13
0.0
 23
0.0
 33
0.0
 16
1.0
 26
0.0
 36
0.0
 17
0.0
 27
1.0
 37
0.0
 76
0
330
208
345
0
346
0
  0
LAYOUT
  5
324
102
{ACAD_REACTORS
330
1A
102
}
100
AcDbPlotSettings
  1

  2
none_device
  4
ANSI_C_(22.00_x_17.00_Inches)
  6

 40
0.0
 41
0.0
 42
0.0
 43
0.0
 44
558.8
 45
431.8
 46
0.0
 47
0.0
 48
0.0
 49
0.0
140
0.0
141
0.0
142
1.0
143
1.0
 70
0
 72
0
 73
0
 74
0
  7

 75
0
147
1.0
148
0.0
149
0.0
100
AcDbLayout
  1
Layout1
 70
0
 71
1
 10
0.0
 20
0.0
 11
22.0
 21
17.0
 12
0.0
 22
0.0
 32
0.0
 14
0.0
 24
0.0
 34
0.0
 15
0.0
 25
0.0
 35
0.0
146
0.0
 13
0.0
 23
0.0
 33
0.0
 16
1.0
 26
0.0
 36
0.0
 17
0.0
 27
1.0
 37
0.0
 76
0
330
209
345
0
346
0
  0
IMAGEDEF
  5
325
102
{ACAD_REACTORS
330
320
330
31F
102
}
100
AcDbRasterImageDef
 90
0
  1
X2V_assy_2_img_1.png
 10
369.0
 20
92.0
 11
0.0066666667
 21
0.0066666667
280
1
281
0
  0
TABLESTYLE
  5
326
102
{ACAD_REACTORS
330
322
330
283
330
284
102
}
330
322
100
AcDbTableStyle
  3
Standard
 70
0
 71
0
 40
0.06
 41
0.06
280
1
281
1
  7
Standard
140
0.18
170
1
 62
0
 63
7
283
0
  7
Standard
140
0.18
170
1
 62
0
 63
7
283
0
  7
Standard
140
0.18
170
1
 62
0
 63
7
283
0
  0
TABLESTYLE
  5
327
102
{ACAD_REACTORS
330
322
330
282
102
}
330
322
100
AcDbTableStyle
  3
Standard1
 70
1
 71
0
 40
0.06
 41
0.06
280
1
281
1
  7
Standard
140
0.18
170
1
 62
0
 63
7
283
0
  7
Standard
140
0.18
170
1
 62
0
 63
7
283
0
  7
Standard
140
0.18
170
1
 62
0
 63
7
283
0
  0
ENDSEC
  0
EOF
