999
DXF file: X2Q_assy_2.dxf
999
Pro/ENGINEER 2014200 by Parametric Technology Corporation
  0
SECTION
  2
HEADER
  9
$ACADVER
  1
AC1021
  9
$DWGCODEPAGE
  3
ANSI_1252
  9
$EXTMAX
 10
22.0
 20
17.0
 30
0.0
  9
$EXTMIN
 10
0.0
 20
0.0
 30
0.0
  9
$LIMMIN
 10
0.0
 20
0.0
  9
$LIMMAX
 10
22.0
 20
17.0
  9
$VIEWCTR
 10
11.0
 20
8.5
  9
$VIEWSIZE
 40
17.0
  9
$CLAYER
  8
0
  9
$LTSCALE
 40
1.21
  9
$CELTYPE
  6
BYLAYER
  9
$DIMSCALE
 40
1.0
  9
$DIMASZ
 40
0.1875
  9
$DIMEXO
 40
0.0625
  9
$DIMDLI
 40
0.836
  9
$DIMEXE
 40
0.125
  9
$DIMCEN
 40
0.198
  9
$DIMLFAC
 40
1.0
  9
$DIMBLK
  1
_FILLED
  9
$DIMTXT
 40
0.1
  9
$DIMTOL
 70
0
  9
$DIMLIM
 70
0
  9
$DIMTFAC
 40
1.0
  9
$DIMGAP
 40
0.09
  9
$DIMDSEP
 70
46
  9
$AUNITS
 70
0
  9
$PDMODE
 70
3
  9
$PDSIZE
 40
0.3125
  9
$HANDSEED
  5
354
  9
$TILEMODE
 70
1
  9
$MEASUREMENT
 70
0
  9
$INSUNITS
 70
1
  0
ENDSEC
  0
SECTION
  2
CLASSES
  0
CLASS
  1
ACDBDICTIONARYWDFLT
  2
AcDbDictionaryWithDefault
  3
AutoCAD 2000
 90
0
 91
1
280
0
281
0
  0
CLASS
  1
ACDBPLACEHOLDER
  2
AcDbPlaceHolder
  3
AutoCAD 2000
 90
0
 91
1
280
0
281
0
  0
CLASS
  1
LAYOUT
  2
AcDbLayout
  3
AutoCAD 2000
 90
0
 91
0
280
0
281
0
  0
CLASS
  1
RASTERVARIABLES
  2
AcDbRasterVariables
  3
ISM
 90
0
 91
1
280
0
281
0
  0
CLASS
  1
IMAGEDEF
  2
AcDbRasterImageDef
  3
ISM
 90
0
 91
1
280
0
281
0
  0
CLASS
  1
IMAGEDEF_REACTOR
  2
AcDbRasterImageDefReactor
  3
ISM
 90
0
 91
1
280
0
281
0
  0
CLASS
  1
IMAGE
  2
AcDbRasterImage
  3
ISM
 90
127
 91
1
280
0
281
1
  0
CLASS
  1
TABLESTYLE
  2
AcDbTableStyle
  3
ObjectDBX Classes
 90
2047
 91
1
280
0
281
0
  0
CLASS
  1
ACAD_TABLE
  2
AcDbTable
  3
ObjectDBX Classes
 90
1025
 91
3
280
0
281
1
  0
ENDSEC
  0
SECTION
  2
TABLES
  0
TABLE
  2
VPORT
  5
8
100
AcDbSymbolTable
 70
2
  0
VPORT
  5
1F4
100
AcDbSymbolTableRecord
100
AcDbViewportTableRecord
  2
*ACTIVE
 70
0
 10
0.0
 20
0.0
 11
1.0
 21
1.0
 12
11.0
 22
8.5
 13
0.0
 23
0.0
 14
1.0
 24
1.0
 15
0.0
 25
0.0
 16
0.0
 26
0.0
 36
1.0
 17
0.0
 27
0.0
 37
0.0
 40
17.0
 41
1.2941176471
 42
50.0
 43
0.0
 44
0.0
 50
0.0
 51
0.0
 71
0
 72
100
 73
1
 74
1
 75
0
 76
0
 77
0
 78
0
  0
ENDTAB
  0
TABLE
  2
LTYPE
  5
5
100
AcDbSymbolTable
 70
6
  0
LTYPE
  5
14
100
AcDbSymbolTableRecord
100
AcDbLinetypeTableRecord
  2
BYBLOCK
 70
0
  3

 72
65
 73
0
 40
0.0
  0
LTYPE
  5
15
100
AcDbSymbolTableRecord
100
AcDbLinetypeTableRecord
  2
BYLAYER
 70
0
  3

 72
65
 73
0
 40
0.0
  0
LTYPE
  5
16
100
AcDbSymbolTableRecord
100
AcDbLinetypeTableRecord
  2
CONTINUOUS
 70
64
  3
Solid line
 72
65
 73
0
 40
0.0
  0
LTYPE
  5
1F5
100
AcDbSymbolTableRecord
100
AcDbLinetypeTableRecord
  2
CENTER
 70
64
  3
____ _ ____ _ ____ _ ____ _ ____ _ ____ _ ____
 72
65
 73
4
 40
0.6
 49
0.375
 74
0
 49
-0.075
 74
0
 49
0.075
 74
0
 49
-0.075
 74
0
  0
LTYPE
  5
1F6
100
AcDbSymbolTableRecord
100
AcDbLinetypeTableRecord
  2
HIDDEN
 70
64
  3
- - - - - - - - - - - - - - - - - - - -
 72
65
 73
2
 40
0.2
 49
0.1
 74
0
 49
-0.1
 74
0
  0
LTYPE
  5
1F7
100
AcDbSymbolTableRecord
100
AcDbLinetypeTableRecord
  2
PHANTOM
 70
64
  3
_____ _ _ _____ _ _ _____ _ _ _____
 72
65
 73
6
 40
0.8
 49
0.45
 74
0
 49
-0.05
 74
0
 49
0.1
 74
0
 49
-0.05
 74
0
 49
0.1
 74
0
 49
-0.05
 74
0
  0
LTYPE
  5
1F8
100
AcDbSymbolTableRecord
100
AcDbLinetypeTableRecord
  2
DOT
 70
64
  3
. . . . . . . . . . . . . . . . . . . .
 72
65
 73
2
 40
0.2
 49
0.1
 74
0
 49
-0.1
 74
0
  0
LTYPE
  5
1F9
100
AcDbSymbolTableRecord
100
AcDbLinetypeTableRecord
  2
DASHED
 70
64
  3
- - - - - - - - - - - - - - - - - - - -
 72
65
 73
2
 40
0.2
 49
0.1
 74
0
 49
-0.1
 74
0
  0
ENDTAB
  0
TABLE
  2
LAYER
  5
2
100
AcDbSymbolTable
 70
36
  0
LAYER
  5
10
100
AcDbSymbolTableRecord
100
AcDbLayerTableRecord
  2
0
 70
0
 62
7
  6
CONTINUOUS
370
-3
390
F
  0
LAYER
  5
1FA
100
AcDbSymbolTableRecord
100
AcDbLayerTableRecord
  2
DEFAULT_1
 70
0
 62
7
  6
CENTER
370
-3
390
F
  0
LAYER
  5
1FB
100
AcDbSymbolTableRecord
100
AcDbLayerTableRecord
  2
DEFAULT_2
 70
0
 62
8
  6
HIDDEN
370
-3
390
F
  0
LAYER
  5
1FC
100
AcDbSymbolTableRecord
100
AcDbLayerTableRecord
  2
DEFAULT_3
 70
0
 62
7
  6
PHANTOM
370
-3
390
F
  0
LAYER
  5
1FD
100
AcDbSymbolTableRecord
100
AcDbLayerTableRecord
  2
DATUM_PLANES
 70
0
 62
7
  6
CONTINUOUS
370
-3
390
F
  0
LAYER
  5
1FE
100
AcDbSymbolTableRecord
100
AcDbLayerTableRecord
  2
DIMENSIONS
 70
0
 62
7
  6
CONTINUOUS
370
-3
390
F
  0
LAYER
  5
1FF
100
AcDbSymbolTableRecord
100
AcDbLayerTableRecord
  2
DTM_500001
 70
0
 62
7
  6
CONTINUOUS
370
-3
390
F
  0
LAYER
  5
200
100
AcDbSymbolTableRecord
100
AcDbLayerTableRecord
  2
PARAMETERDIMENSIONS
 70
0
 62
7
  6
CONTINUOUS
370
-3
390
F
  0
LAYER
  5
201
100
AcDbSymbolTableRecord
100
AcDbLayerTableRecord
  2
PLANE
 70
0
 62
7
  6
CONTINUOUS
370
-3
390
F
  0
LAYER
  5
202
100
AcDbSymbolTableRecord
100
AcDbLayerTableRecord
  2
PORT_AREAS
 70
0
 62
7
  6
CONTINUOUS
370
-3
390
F
  0
LAYER
  5
203
100
AcDbSymbolTableRecord
100
AcDbLayerTableRecord
  2
SUNNBOMCOSMETIC
 70
0
 62
7
  6
CONTINUOUS
370
-3
390
F
  0
LAYER
  5
204
100
AcDbSymbolTableRecord
100
AcDbLayerTableRecord
  2
SUNNBOMSTAMPING
 70
0
 62
7
  6
CONTINUOUS
370
-3
390
F
  0
LAYER
  5
205
100
AcDbSymbolTableRecord
100
AcDbLayerTableRecord
  2
THREADS
 70
0
 62
7
  6
CONTINUOUS
370
-3
390
F
  0
ENDTAB
  0
TABLE
  2
STYLE
  5
3
100
AcDbSymbolTable
 70
1
  0
STYLE
  5
11
100
AcDbSymbolTableRecord
100
AcDbTextStyleTableRecord
  2
STANDARD
 70
0
 40
0.0
 41
0.8
 50
0.0
 71
0
 42
0.2
  3
txt
  4

  0
STYLE
  5
206
100
AcDbSymbolTableRecord
100
AcDbTextStyleTableRecord
  2
TEXTSTYLE_1
 70
0
 40
0.0
 41
0.8
 50
0.0
 71
0
 42
0.2
  3
gdt
  4

  0
ENDTAB
  0
TABLE
  2
VIEW
  5
6
100
AcDbSymbolTable
 70
0
  0
ENDTAB
  0
TABLE
  2
UCS
  5
7
100
AcDbSymbolTable
 70
0
  0
ENDTAB
  0
TABLE
  2
APPID
  5
9
100
AcDbSymbolTable
 70
1
  0
APPID
  5
207
100
AcDbSymbolTableRecord
100
AcDbRegAppTableRecord
  2
ACAD
 70
0
  0
ENDTAB
  0
TABLE
  2
BLOCK_RECORD
  5
1
100
AcDbSymbolTable
 70
0
  0
BLOCK_RECORD
  5
208
100
AcDbSymbolTableRecord
100
AcDbBlockTableRecord
  2
*Model_Space
  0
BLOCK_RECORD
  5
209
100
AcDbSymbolTableRecord
100
AcDbBlockTableRecord
  2
*Paper_Space
  0
BLOCK_RECORD
  5
20A
100
AcDbSymbolTableRecord
100
AcDbBlockTableRecord
  2
SUN_FIRST_THIRD_ANGLE_BL0
  0
BLOCK_RECORD
  5
20B
100
AcDbSymbolTableRecord
100
AcDbBlockTableRecord
  2
*T1
  0
BLOCK_RECORD
  5
20C
100
AcDbSymbolTableRecord
100
AcDbBlockTableRecord
  2
*T2
  0
BLOCK_RECORD
  5
20D
100
AcDbSymbolTableRecord
100
AcDbBlockTableRecord
  2
*T3
  0
ENDTAB
  0
TABLE
  2
DIMSTYLE
  5
A
100
AcDbSymbolTable
 70
1
100
AcDbDimStyleTable
 71
0
  0
DIMSTYLE
105
20E
100
AcDbSymbolTableRecord
100
AcDbDimStyleTableRecord
  2
STANDARD
 70
0
  3

  4

 40
1.0
 41
0.1875
 42
0.0625
 43
0.38
 44
0.125
 45
0.0
 46
0.0
 47
0.001
 48
0.001
140
0.1
141
0.09
142
0.0
143
25.4
144
1.0
145
0.0
146
1.0
147
0.09
 71
0.0
 72
0.0
 73
1
 74
1
 75
0
 76
0
 77
0
 78
4
170
0
171
2
172
0
173
0
174
0
175
0
176
0
177
0
178
0
270
2
271
3
272
3
273
2
274
2
275
0
280
0
281
0
282
0
283
1
284
4
285
0
286
0
287
3
288
0
340
11
278
46
  0
ENDTAB
  0
ENDSEC
  0
SECTION
  2
BLOCKS
  0
BLOCK
  5
20
100
AcDbEntity
  8
0
100
AcDbBlockBegin
  2
*Model_Space
 70
0
 10
0.0
 20
0.0
 30
0.0
  3
*Model_Space
  1

  0
ENDBLK
  5
21
100
AcDbEntity
  8
0
100
AcDbBlockEnd
  0
BLOCK
  5
1C
100
AcDbEntity
  8
0
100
AcDbBlockBegin
  2
*Paper_Space
 70
0
 10
0.0
 20
0.0
 30
0.0
  3
*Paper_Space
  1

  0
ENDBLK
  5
1D
100
AcDbEntity
  8
0
100
AcDbBlockEnd
  0
BLOCK
  5
20F
100
AcDbEntity
  8
0
100
AcDbBlockBegin
 62
2
  6
CONTINUOUS
  2
SUN_FIRST_THIRD_ANGLE_BL0
 70
64
 10
20.4816717061
 20
1.2289683772
  3
SUN_FIRST_THIRD_ANGLE_BL0
  1

  0
TEXT
  5
210
100
AcDbEntity
  8
0
100
AcDbText
 62
2
  6
CONTINUOUS
 10
19.4750896608
 20
1.4136269581
  7
STANDARD
 40
0.08
  1
FIRST ANGLE
 41
0.8
 72
0
100
AcDbText
  0
TEXT
  5
211
100
AcDbEntity
  8
0
100
AcDbText
 62
2
  6
CONTINUOUS
 10
20.7842537513
 20
1.4047600029
  7
STANDARD
 40
0.08
  1
THIRD ANGLE
 41
0.8
 72
0
100
AcDbText
  0
LINE
  5
212
100
AcDbEntity
  8
0
100
AcDbLine
 62
7
  6
CONTINUOUS
 10
19.4767170086
 20
1.1727031207
 11
19.6334271527
 21
1.1717972817
  0
LINE
  5
213
100
AcDbEntity
  8
0
100
AcDbLine
 62
7
  6
CONTINUOUS
 10
19.6596964832
 20
1.1717972817
 11
19.6950230232
 21
1.171593082
  0
LINE
  5
214
100
AcDbEntity
  8
0
100
AcDbLine
 62
7
  6
CONTINUOUS
 10
19.7194818561
 20
1.1708914427
 11
19.8852396156
 21
1.1699333054
  0
LINE
  5
215
100
AcDbEntity
  8
0
100
AcDbLine
 62
7
  6
CONTINUOUS
 10
19.4758111696
 20
1.2723454088
 11
19.88525039
 21
1.3511534004
  0
LINE
  5
216
100
AcDbEntity
  8
0
100
AcDbLine
 62
7
  6
CONTINUOUS
 10
19.88525039
 20
1.3511534004
 11
19.8831348489
 21
0.9851647912
  0
LINE
  5
217
100
AcDbEntity
  8
0
100
AcDbLine
 62
7
  6
CONTINUOUS
 10
19.8831348489
 20
0.9851647912
 11
19.4767170086
 21
1.0658141206
  0
LINE
  5
218
100
AcDbEntity
  8
0
100
AcDbLine
 62
7
  6
CONTINUOUS
 10
19.4767170086
 20
1.0658141206
 11
19.4779056764
 21
1.2714536432
  0
CIRCLE
  5
219
100
AcDbEntity
  8
0
100
AcDbCircle
 62
7
  6
CONTINUOUS
 10
20.2068232291
 20
1.1717972817
 40
0.175742101
  0
CIRCLE
  5
21A
100
AcDbEntity
  8
0
100
AcDbCircle
 62
7
  6
CONTINUOUS
 10
20.2068232291
 20
1.1717972817
 40
0.1005522074
  0
LINE
  5
21B
100
AcDbEntity
  8
0
100
AcDbLine
 62
7
  6
CONTINUOUS
 10
20.2077290681
 20
1.3756110529
 11
20.2071171714
 21
1.2379342989
  0
LINE
  5
21C
100
AcDbEntity
  8
0
100
AcDbLine
 62
7
  6
CONTINUOUS
 10
20.2077290681
 20
1.2016899681
 11
20.2074674401
 21
1.1428236749
  0
LINE
  5
21D
100
AcDbEntity
  8
0
100
AcDbLine
 62
7
  6
CONTINUOUS
 10
20.208634907
 20
1.101141841
 11
20.2080230104
 21
0.963465087
  0
LINE
  5
21E
100
AcDbEntity
  8
0
100
AcDbLine
 62
7
  6
CONTINUOUS
 10
20.0066328138
 20
1.1745147986
 11
20.1443095678
 21
1.1739029019
  0
LINE
  5
21F
100
AcDbEntity
  8
0
100
AcDbLine
 62
7
  6
CONTINUOUS
 10
20.1832714155
 20
1.1727031207
 11
20.238153505
 21
1.172335442
  0
LINE
  5
220
100
AcDbEntity
  8
0
100
AcDbLine
 62
7
  6
CONTINUOUS
 10
20.2756669918
 20
1.1717972817
 11
20.407916871
 21
1.1712095044
  0
CIRCLE
  5
221
100
AcDbEntity
  8
0
100
AcDbCircle
 62
7
  6
CONTINUOUS
 10
20.7509457401
 20
1.1693297793
 40
0.1722024983
  0
CIRCLE
  5
222
100
AcDbEntity
  8
0
100
AcDbCircle
 62
7
  6
CONTINUOUS
 10
20.7509457401
 20
1.1693297793
 40
0.0985164967
  0
LINE
  5
223
100
AcDbEntity
  8
0
100
AcDbLine
 62
7
  6
CONTINUOUS
 10
20.7169767782
 20
1.170462078
 11
20.7825395137
 21
1.1682766535
  0
LINE
  5
224
100
AcDbEntity
  8
0
100
AcDbLine
 62
7
  6
CONTINUOUS
 10
20.8177513651
 20
1.1693297793
 11
20.947965719
 21
1.1693297793
  0
LINE
  5
225
100
AcDbEntity
  8
0
100
AcDbLine
 62
7
  6
CONTINUOUS
 10
20.6875370113
 20
1.170462078
 11
20.5573226574
 21
1.170462078
  0
LINE
  5
226
100
AcDbEntity
  8
0
100
AcDbLine
 62
7
  6
CONTINUOUS
 10
20.7486811426
 20
1.1987695462
 11
20.7486811426
 21
1.1432869085
  0
LINE
  5
227
100
AcDbEntity
  8
0
100
AcDbLine
 62
7
  6
CONTINUOUS
 10
20.7498134414
 20
1.1059210505
 11
20.7498134414
 21
0.9757066966
  0
LINE
  5
228
100
AcDbEntity
  8
0
100
AcDbLine
 62
7
  6
CONTINUOUS
 10
20.7486811426
 20
1.2338708068
 11
20.7486811426
 21
1.3640851607
  0
LINE
  5
229
100
AcDbEntity
  8
0
100
AcDbLine
 62
7
  6
CONTINUOUS
 10
21.0702539817
 20
1.2701043662
 11
21.4790138229
 21
1.3448360823
  0
LINE
  5
22A
100
AcDbEntity
  8
0
100
AcDbLine
 62
7
  6
CONTINUOUS
 10
21.4790138229
 20
1.3448360823
 11
21.4790138229
 21
0.9779712941
  0
LINE
  5
22B
100
AcDbEntity
  8
0
100
AcDbLine
 62
7
  6
CONTINUOUS
 10
21.4790138229
 20
0.9779712941
 11
21.069121683
 21
1.0617614
  0
LINE
  5
22C
100
AcDbEntity
  8
0
100
AcDbLine
 62
7
  6
CONTINUOUS
 10
21.0702539817
 20
1.2701043662
 11
21.069121683
 21
1.0617614
  0
LINE
  5
22D
100
AcDbEntity
  8
0
100
AcDbLine
 62
7
  6
CONTINUOUS
 10
21.4790138229
 20
1.1693297793
 11
21.3159628059
 21
1.1693297793
  0
LINE
  5
22E
100
AcDbEntity
  8
0
100
AcDbLine
 62
7
  6
CONTINUOUS
 10
21.2876553377
 20
1.1693297793
 11
21.2502894796
 21
1.1693297793
  0
LINE
  5
22F
100
AcDbEntity
  8
0
100
AcDbLine
 62
7
  6
CONTINUOUS
 10
21.2208497126
 20
1.1659328831
 11
21.0713862804
 21
1.1659328831
  0
LINE
  5
230
100
AcDbEntity
  8
0
100
AcDbLine
 62
7
  6
CONTINUOUS
 10
20.4796138713
 20
1.5284908897
 11
20.4766766948
 21
0.9294458646
  0
ENDBLK
  5
231
100
AcDbEntity
  8
0
  6
BYBLOCK
 62
0
100
AcDbBlockEnd
  0
BLOCK
  5
232
100
AcDbEntity
  8
0
100
AcDbBlockBegin
  2
*T1
 70
1
 10
0.0
 20
0.0
  3
*T1
  1

  0
LINE
  5
233
100
AcDbEntity
  8
0
100
AcDbLine
 62
2
  6
CONTINUOUS
 10
9.275
 20
0.0
 11
-0.0
 21
0.0
  0
LINE
  5
234
100
AcDbEntity
  8
0
100
AcDbLine
 62
2
  6
CONTINUOUS
 10
9.275
 20
0.0
 11
9.275
 21
1.25
  0
LINE
  5
235
100
AcDbEntity
  8
0
100
AcDbLine
 62
2
  6
CONTINUOUS
 10
9.275
 20
0.625
 11
-0.0
 21
0.625
  0
LINE
  5
236
100
AcDbEntity
  8
0
100
AcDbLine
 62
2
  6
CONTINUOUS
 10
9.275
 20
1.25
 11
-0.0
 21
1.25
  0
LINE
  5
237
100
AcDbEntity
  8
0
100
AcDbLine
 62
2
  6
CONTINUOUS
 10
6.8
 20
0.0
 11
6.8
 21
1.25
  0
LINE
  5
238
100
AcDbEntity
  8
0
100
AcDbLine
 62
2
  6
CONTINUOUS
 10
6.4
 20
0.0
 11
6.4
 21
0.625
  0
LINE
  5
239
100
AcDbEntity
  8
0
100
AcDbLine
 62
2
  6
CONTINUOUS
 10
5.9
 20
0.0
 11
5.9
 21
0.625
  0
LINE
  5
23A
100
AcDbEntity
  8
0
100
AcDbLine
 62
2
  6
CONTINUOUS
 10
5.2
 20
0.0
 11
5.2
 21
0.625
  0
LINE
  5
23B
100
AcDbEntity
  8
0
100
AcDbLine
 62
2
  6
CONTINUOUS
 10
4.1
 20
0.0
 11
4.1
 21
1.25
  0
LINE
  5
23C
100
AcDbEntity
  8
0
100
AcDbLine
 62
2
  6
CONTINUOUS
 10
-0.0
 20
0.0
 11
-0.0
 21
1.25
  0
MTEXT
  5
23D
100
AcDbEntity
  8
0
100
AcDbMText
 62
2
  6
CONTINUOUS
  7
STANDARD
 71
2
 72
1
 10
6.6
 20
0.325
 30
0.0
 11
1.0
 21
0.0
 31
0.0
 44
0.9
  1
2
 40
0.125
 41
0.2
  0
MTEXT
  5
23E
100
AcDbEntity
  8
0
100
AcDbMText
 62
2
  6
CONTINUOUS
  7
STANDARD
 71
2
 72
1
 10
6.15
 20
0.325
 30
0.0
 11
1.0
 21
0.0
 31
0.0
 44
0.9
  1
C
 40
0.125
 41
0.2
  0
MTEXT
  5
23F
100
AcDbEntity
  8
0
100
AcDbMText
 62
2
  6
CONTINUOUS
  7
STANDARD
 71
2
 72
1
 10
5.55
 20
0.325
 30
0.0
 11
1.0
 21
0.0
 31
0.0
 44
0.9
  1
2.000
 40
0.125
 41
1.0
  0
MTEXT
  5
240
100
AcDbEntity
  8
0
100
AcDbMText
 62
2
  6
CONTINUOUS
  7
STANDARD
 71
2
 72
1
 10
4.65
 20
0.325
 30
0.0
 11
1.0
 21
0.0
 31
0.0
 44
0.9
  1
Feb-13-20
 40
0.125
 41
1.8
  0
MTEXT
  5
241
100
AcDbEntity
  8
0
100
AcDbMText
 62
2
  6
CONTINUOUS
  7
STANDARD
 71
2
 72
1
 10
2.05
 20
0.4625
 30
0.0
 11
1.0
 21
0.0
 31
0.0
 44
0.9
  1
T-11A Sandwich ISO 03 - 40mm\POn P, port 3 to T - Mirror
 40
0.125
 41
5.6
  0
MTEXT
  5
242
100
AcDbEntity
  8
0
100
AcDbMText
 62
2
  6
CONTINUOUS
  7
STANDARD
 71
1
 72
1
 10
6.45
 20
0.5625
 30
0.0
 11
1.0
 21
0.0
 31
0.0
 44
0.9
  1
SHEET
 40
0.06
 41
0.48
  0
MTEXT
  5
243
100
AcDbEntity
  8
0
100
AcDbMText
 62
2
  6
CONTINUOUS
  7
STANDARD
 71
1
 72
1
 10
5.95
 20
0.5625
 30
0.0
 11
1.0
 21
0.0
 31
0.0
 44
0.9
  1
DWG SIZE
 40
0.06
 41
0.768
  0
MTEXT
  5
244
100
AcDbEntity
  8
0
100
AcDbMText
 62
2
  6
CONTINUOUS
  7
STANDARD
 71
1
 72
1
 10
5.25
 20
0.5625
 30
0.0
 11
1.0
 21
0.0
 31
0.0
 44
0.9
  1
SCALE
 40
0.06
 41
0.48
  0
MTEXT
  5
245
100
AcDbEntity
  8
0
100
AcDbMText
 62
2
  6
CONTINUOUS
  7
STANDARD
 71
1
 72
1
 10
4.15
 20
0.5625
 30
0.0
 11
1.0
 21
0.0
 31
0.0
 44
0.9
  1
DATE
 40
0.06
 41
0.384
  0
MTEXT
  5
246
100
AcDbEntity
  8
0
100
AcDbMText
 62
2
  6
CONTINUOUS
  7
STANDARD
 71
1
 72
1
 10
0.05
 20
0.5625
 30
0.0
 11
1.0
 21
0.0
 31
0.0
 44
0.9
  1
DESCRIPTION
 40
0.06
 41
1.056
  0
MTEXT
  5
247
100
AcDbEntity
  8
0
100
AcDbMText
 62
2
  6
CONTINUOUS
  7
STANDARD
 71
2
 72
1
 10
5.45
 20
1.0375
 30
0.0
 11
1.0
 21
0.0
 31
0.0
 44
0.9
  1
ALL DIMENSIONS IN INCH\PVIEWS ARE THIRD ANGLE
 40
0.12
 41
4.224
  0
MTEXT
  5
248
100
AcDbEntity
  8
0
100
AcDbMText
 62
2
  6
CONTINUOUS
  7
STANDARD
 71
2
 72
1
 10
2.05
 20
0.95
 30
0.0
 11
1.0
 21
0.0
 31
0.0
 44
0.9
  1
X2Q
 40
0.125
 41
0.6
  0
MTEXT
  5
249
100
AcDbEntity
  8
0
100
AcDbMText
 62
2
  6
CONTINUOUS
  7
STANDARD
 71
1
 72
1
 10
0.05
 20
1.1875
 30
0.0
 11
1.0
 21
0.0
 31
0.0
 44
0.9
  1
MODEL
 40
0.06
 41
0.48
  0
ENDBLK
  5
24A
100
AcDbEntity
  8
0
  6
BYBLOCK
 62
0
100
AcDbBlockEnd
  0
BLOCK
  5
24B
100
AcDbEntity
  8
0
100
AcDbBlockBegin
  2
*T2
 70
1
 10
0.0
 20
0.0
  3
*T2
  1

  0
LINE
  5
24C
100
AcDbEntity
  8
0
100
AcDbLine
 62
2
  6
CONTINUOUS
 10
0.0
 20
0.0
 11
9.055
 21
0.0
  0
LINE
  5
24D
100
AcDbEntity
  8
0
100
AcDbLine
 62
2
  6
CONTINUOUS
 10
0.0
 20
0.0
 11
0.0
 21
-2.594
  0
LINE
  5
24E
100
AcDbEntity
  8
0
100
AcDbLine
 62
2
  6
CONTINUOUS
 10
0.0
 20
-0.344
 11
9.055
 21
-0.344
  0
LINE
  5
24F
100
AcDbEntity
  8
0
100
AcDbLine
 62
2
  6
CONTINUOUS
 10
0.0
 20
-0.594
 11
9.055
 21
-0.594
  0
LINE
  5
250
100
AcDbEntity
  8
0
100
AcDbLine
 62
2
  6
CONTINUOUS
 10
0.0
 20
-0.844
 11
9.055
 21
-0.844
  0
LINE
  5
251
100
AcDbEntity
  8
0
100
AcDbLine
 62
2
  6
CONTINUOUS
 10
0.0
 20
-1.094
 11
9.055
 21
-1.094
  0
LINE
  5
252
100
AcDbEntity
  8
0
100
AcDbLine
 62
2
  6
CONTINUOUS
 10
0.0
 20
-1.344
 11
9.055
 21
-1.344
  0
LINE
  5
253
100
AcDbEntity
  8
0
100
AcDbLine
 62
2
  6
CONTINUOUS
 10
0.0
 20
-1.594
 11
9.055
 21
-1.594
  0
LINE
  5
254
100
AcDbEntity
  8
0
100
AcDbLine
 62
2
  6
CONTINUOUS
 10
0.0
 20
-1.844
 11
9.055
 21
-1.844
  0
LINE
  5
255
100
AcDbEntity
  8
0
100
AcDbLine
 62
2
  6
CONTINUOUS
 10
0.0
 20
-2.094
 11
9.055
 21
-2.094
  0
LINE
  5
256
100
AcDbEntity
  8
0
100
AcDbLine
 62
2
  6
CONTINUOUS
 10
0.0
 20
-2.344
 11
9.055
 21
-2.344
  0
LINE
  5
257
100
AcDbEntity
  8
0
100
AcDbLine
 62
2
  6
CONTINUOUS
 10
0.0
 20
-2.594
 11
9.055
 21
-2.594
  0
LINE
  5
258
100
AcDbEntity
  8
0
100
AcDbLine
 62
2
  6
CONTINUOUS
 10
3.055
 20
0.0
 11
3.055
 21
-2.594
  0
LINE
  5
259
100
AcDbEntity
  8
0
100
AcDbLine
 62
2
  6
CONTINUOUS
 10
9.055
 20
0.0
 11
9.055
 21
-2.594
  0
MTEXT
  5
25A
100
AcDbEntity
  8
0
100
AcDbMText
 62
2
  6
CONTINUOUS
  7
STANDARD
 71
2
 72
1
 10
1.5275
 20
-0.0995
 30
0.0
 11
1.0
 21
0.0
 31
0.0
 44
0.9
  1
Technical Data
 40
0.145
 41
3.248
  0
MTEXT
  5
25B
100
AcDbEntity
  8
0
100
AcDbMText
 62
2
  6
CONTINUOUS
  7
STANDARD
 71
2
 72
1
 10
4.555
 20
-0.0995
 30
0.0
 11
1.0
 21
0.0
 31
0.0
 44
0.9
  1
U.S. Units
 40
0.145
 41
2.32
  0
MTEXT
  5
25C
100
AcDbEntity
  8
0
100
AcDbMText
 62
2
  6
CONTINUOUS
  7
STANDARD
 71
2
 72
1
 10
7.555
 20
-0.0995
 30
0.0
 11
1.0
 21
0.0
 31
0.0
 44
0.9
  1
Metric Units
 40
0.145
 41
2.784
  0
MTEXT
  5
25D
100
AcDbEntity
  8
0
100
AcDbMText
 62
2
  6
CONTINUOUS
  7
STANDARD
 71
2
 72
1
 10
1.5275
 20
-0.4065
 30
0.0
 11
1.0
 21
0.0
 31
0.0
 44
0.9
  1
Cavity
 40
0.125
 41
1.2
  0
MTEXT
  5
25E
100
AcDbEntity
  8
0
100
AcDbMText
 62
2
  6
CONTINUOUS
  7
STANDARD
 71
2
 72
1
 10
6.055
 20
-0.4065
 30
0.0
 11
1.0
 21
0.0
 31
0.0
 44
0.9
  1
T-11A
 40
0.125
 41
1.0
  0
MTEXT
  5
25F
100
AcDbEntity
  8
0
100
AcDbMText
 62
2
  6
CONTINUOUS
  7
STANDARD
 71
2
 72
1
 10
1.5275
 20
-0.6565
 30
0.0
 11
1.0
 21
0.0
 31
0.0
 44
0.9
  1
Body Features
 40
0.125
 41
2.6
  0
MTEXT
  5
260
100
AcDbEntity
  8
0
100
AcDbMText
 62
2
  6
CONTINUOUS
  7
STANDARD
 71
2
 72
1
 10
6.055
 20
-0.6565
 30
0.0
 11
1.0
 21
0.0
 31
0.0
 44
0.9
  1
On P, port 3 to T - Mirror
 40
0.125
 41
5.2
  0
MTEXT
  5
261
100
AcDbEntity
  8
0
100
AcDbMText
 62
2
  6
CONTINUOUS
  7
STANDARD
 71
2
 72
1
 10
1.5275
 20
-0.9065
 30
0.0
 11
1.0
 21
0.0
 31
0.0
 44
0.9
  1
Body Type
 40
0.125
 41
1.8
  0
MTEXT
  5
262
100
AcDbEntity
  8
0
100
AcDbMText
 62
2
  6
CONTINUOUS
  7
STANDARD
 71
2
 72
1
 10
6.055
 20
-0.9065
 30
0.0
 11
1.0
 21
0.0
 31
0.0
 44
0.9
  1
Sandwich
 40
0.125
 41
1.6
  0
MTEXT
  5
263
100
AcDbEntity
  8
0
100
AcDbMText
 62
2
  6
CONTINUOUS
  7
STANDARD
 71
2
 72
1
 10
1.5275
 20
-1.1565
 30
0.0
 11
1.0
 21
0.0
 31
0.0
 44
0.9
  1
Interface
 40
0.125
 41
1.8
  0
MTEXT
  5
264
100
AcDbEntity
  8
0
100
AcDbMText
 62
2
  6
CONTINUOUS
  7
STANDARD
 71
2
 72
1
 10
6.055
 20
-1.1565
 30
0.0
 11
1.0
 21
0.0
 31
0.0
 44
0.9
  1
ISO 03 - 40mm
 40
0.125
 41
2.6
  0
MTEXT
  5
265
100
AcDbEntity
  8
0
100
AcDbMText
 62
2
  6
CONTINUOUS
  7
STANDARD
 71
2
 72
1
 10
1.5275
 20
-1.4065
 30
0.0
 11
1.0
 21
0.0
 31
0.0
 44
0.9
  1
Open Cavity Quantity
 40
0.125
 41
4.0
  0
MTEXT
  5
266
100
AcDbEntity
  8
0
100
AcDbMText
 62
2
  6
CONTINUOUS
  7
STANDARD
 71
2
 72
1
 10
6.055
 20
-1.4065
 30
0.0
 11
1.0
 21
0.0
 31
0.0
 44
0.9
  1
1
 40
0.125
 41
0.2
  0
MTEXT
  5
267
100
AcDbEntity
  8
0
100
AcDbMText
 62
2
  6
CONTINUOUS
  7
STANDARD
 71
2
 72
1
 10
1.5275
 20
-1.6565
 30
0.0
 11
1.0
 21
0.0
 31
0.0
 44
0.9
  1
Weight
 40
0.125
 41
1.2
  0
MTEXT
  5
268
100
AcDbEntity
  8
0
100
AcDbMText
 62
2
  6
CONTINUOUS
  7
STANDARD
 71
2
 72
1
 10
4.555
 20
-1.6565
 30
0.0
 11
1.0
 21
0.0
 31
0.0
 44
0.9
  1
0.768 lb.
 40
0.125
 41
1.8
  0
MTEXT
  5
269
100
AcDbEntity
  8
0
100
AcDbMText
 62
2
  6
CONTINUOUS
  7
STANDARD
 71
2
 72
1
 10
7.555
 20
-1.6565
 30
0.0
 11
1.0
 21
0.0
 31
0.0
 44
0.9
  1
0,348 kg.
 40
0.125
 41
1.8
  0
MTEXT
  5
26A
100
AcDbEntity
  8
0
100
AcDbMText
 62
2
  6
CONTINUOUS
  7
STANDARD
 71
2
 72
1
 10
1.5275
 20
-1.9065
 30
0.0
 11
1.0
 21
0.0
 31
0.0
 44
0.9
  1
Mounting Hole Diameter
 40
0.125
 41
4.4
  0
MTEXT
  5
26B
100
AcDbEntity
  8
0
100
AcDbMText
 62
2
  6
CONTINUOUS
  7
STANDARD
 71
2
 72
1
 10
4.555
 20
-1.9065
 30
0.0
 11
1.0
 21
0.0
 31
0.0
 44
0.9
  1
.21 in.
 40
0.125
 41
1.4
  0
MTEXT
  5
26C
100
AcDbEntity
  8
0
100
AcDbMText
 62
2
  6
CONTINUOUS
  7
STANDARD
 71
2
 72
1
 10
7.555
 20
-1.9065
 30
0.0
 11
1.0
 21
0.0
 31
0.0
 44
0.9
  1
5,4 mm
 40
0.125
 41
1.2
  0
MTEXT
  5
26D
100
AcDbEntity
  8
0
100
AcDbMText
 62
2
  6
CONTINUOUS
  7
STANDARD
 71
2
 72
1
 10
1.5275
 20
-2.1565
 30
0.0
 11
1.0
 21
0.0
 31
0.0
 44
0.9
  1
Mounting Hole Depth
 40
0.125
 41
3.8
  0
MTEXT
  5
26E
100
AcDbEntity
  8
0
100
AcDbMText
 62
2
  6
CONTINUOUS
  7
STANDARD
 71
2
 72
1
 10
6.055
 20
-2.1565
 30
0.0
 11
1.0
 21
0.0
 31
0.0
 44
0.9
  1
Through
 40
0.125
 41
1.4
  0
MTEXT
  5
26F
100
AcDbEntity
  8
0
100
AcDbMText
 62
2
  6
CONTINUOUS
  7
STANDARD
 71
2
 72
1
 10
1.5275
 20
-2.4065
 30
0.0
 11
1.0
 21
0.0
 31
0.0
 44
0.9
  1
Mounting Hole Quantity
 40
0.125
 41
4.4
  0
MTEXT
  5
270
100
AcDbEntity
  8
0
100
AcDbMText
 62
2
  6
CONTINUOUS
  7
STANDARD
 71
2
 72
1
 10
6.055
 20
-2.4065
 30
0.0
 11
1.0
 21
0.0
 31
0.0
 44
0.9
  1
4
 40
0.125
 41
0.2
  0
ENDBLK
  5
271
100
AcDbEntity
  8
0
  6
BYBLOCK
 62
0
100
AcDbBlockEnd
  0
BLOCK
  5
272
100
AcDbEntity
  8
0
100
AcDbBlockBegin
  2
*T3
 70
1
 10
0.0
 20
0.0
  3
*T3
  1

  0
LINE
  5
273
100
AcDbEntity
  8
0
100
AcDbLine
 62
2
  6
CONTINUOUS
 10
0.0
 20
0.0
 11
4.6
 21
0.0
  0
LINE
  5
274
100
AcDbEntity
  8
0
100
AcDbLine
 62
2
  6
CONTINUOUS
 10
0.0
 20
0.0
 11
0.0
 21
-0.93775
  0
LINE
  5
275
100
AcDbEntity
  8
0
100
AcDbLine
 62
2
  6
CONTINUOUS
 10
0.0
 20
-0.34375
 11
4.6
 21
-0.34375
  0
LINE
  5
276
100
AcDbEntity
  8
0
100
AcDbLine
 62
2
  6
CONTINUOUS
 10
0.0
 20
-0.68775
 11
4.6
 21
-0.68775
  0
LINE
  5
277
100
AcDbEntity
  8
0
100
AcDbLine
 62
2
  6
CONTINUOUS
 10
0.0
 20
-0.93775
 11
4.6
 21
-0.93775
  0
LINE
  5
278
100
AcDbEntity
  8
0
100
AcDbLine
 62
2
  6
CONTINUOUS
 10
1.3
 20
-0.34375
 11
1.3
 21
-0.93775
  0
LINE
  5
279
100
AcDbEntity
  8
0
100
AcDbLine
 62
2
  6
CONTINUOUS
 10
3.3
 20
-0.34375
 11
3.3
 21
-0.93775
  0
LINE
  5
27A
100
AcDbEntity
  8
0
100
AcDbLine
 62
2
  6
CONTINUOUS
 10
4.6
 20
0.0
 11
4.6
 21
-0.93775
  0
MTEXT
  5
27B
100
AcDbEntity
  8
0
100
AcDbMText
 62
2
  6
CONTINUOUS
  7
STANDARD
 71
2
 72
1
 10
2.3
 20
-0.099375
 30
0.0
 11
1.0
 21
0.0
 31
0.0
 44
0.9
  1
Port Headings
 40
0.145
 41
3.016
  0
MTEXT
  5
27C
100
AcDbEntity
  8
0
100
AcDbMText
 62
2
  6
CONTINUOUS
  7
STANDARD
 71
2
 72
1
 10
0.65
 20
-0.44325
 30
0.0
 11
1.0
 21
0.0
 31
0.0
 44
0.9
  1
Product
 40
0.145
 41
1.624
  0
MTEXT
  5
27D
100
AcDbEntity
  8
0
100
AcDbMText
 62
2
  6
CONTINUOUS
  7
STANDARD
 71
2
 72
1
 10
2.3
 20
-0.44325
 30
0.0
 11
1.0
 21
0.0
 31
0.0
 44
0.9
  1
Port
 40
0.145
 41
0.928
  0
MTEXT
  5
27E
100
AcDbEntity
  8
0
100
AcDbMText
 62
2
  6
CONTINUOUS
  7
STANDARD
 71
2
 72
1
 10
3.95
 20
-0.44325
 30
0.0
 11
1.0
 21
0.0
 31
0.0
 44
0.9
  1
Size
 40
0.145
 41
0.928
  0
MTEXT
  5
27F
100
AcDbEntity
  8
0
100
AcDbMText
 62
2
  6
CONTINUOUS
  7
STANDARD
 71
2
 72
1
 10
0.65
 20
-0.75025
 30
0.0
 11
1.0
 21
0.0
 31
0.0
 44
0.9
  1
X2Q
 40
0.125
 41
0.6
  0
MTEXT
  5
280
100
AcDbEntity
  8
0
100
AcDbMText
 62
2
  6
CONTINUOUS
  7
STANDARD
 71
2
 72
1
 10
2.3
 20
-0.75025
 30
0.0
 11
1.0
 21
0.0
 31
0.0
 44
0.9
  1
Gage Port (Plugged)
 40
0.125
 41
3.8
  0
MTEXT
  5
281
100
AcDbEntity
  8
0
100
AcDbMText
 62
2
  6
CONTINUOUS
  7
STANDARD
 71
2
 72
1
 10
3.95
 20
-0.75025
 30
0.0
 11
1.0
 21
0.0
 31
0.0
 44
0.9
  1
SAE 4
 40
0.125
 41
1.0
  0
ENDBLK
  5
282
100
AcDbEntity
  8
0
  6
BYBLOCK
 62
0
100
AcDbBlockEnd
  0
ENDSEC
  0
SECTION
  2
ENTITIES
  0
IMAGE
  5
283
100
AcDbEntity
  8
0
100
AcDbRasterImage
 62
7
  6
CONTINUOUS
 10
19.2297077316
 20
0.3094318264
 30
0.0
 11
0.0066666667
 21
0.0
 31
0.0
 12
0.0
 22
0.0066666667
 32
0.0
 13
369.0
 23
92.0
340
       351
 70
9
280
0
281
50
282
50
283
0
360
       34B
 71
1
 91
2
 14
-0.5
 24
-0.5
 14
368.5
 24
91.5
  0
INSERT
  5
284
100
AcDbEntity
  8
0
100
AcDbBlockReference
 62
2
  6
CONTINUOUS
  2
SUN_FIRST_THIRD_ANGLE_BL0
 10
20.4816717061
 20
1.2289683772
  0
ACAD_TABLE
  5
285
100
AcDbEntity
  8
0
 62
2
  6
CONTINUOUS
100
AcDbBlockReference
  2
*T1
 10
12.42375
 20
0.30125
 30
0.0
100
AcDbTable
342
       353
343
20B
 11
1.0
 21
0.0
 31
0.0
 90
6
 91
4
 92
6
 93
20
 94
0
 95
0
 96
0
 70
1
 41
0.0
141
0.525
141
0.1
141
0.525
141
0.1
142
4.1
142
1.1
142
0.7
142
0.5
142
0.4
142
2.475
171
1
172
0
173
0
174
0
175
1
176
1
 91
33
178
0
145
0.0
301
CELL_VALUE
 90
4
  1
T-11A Sandwich ISO 03 - 40mm\POn P, port 3 to T - Mirror
304
ACVALUE_END
170
2
140
0.125
171
1
172
0
173
0
174
0
175
1
176
1
 91
33
178
0
145
0.0
301
CELL_VALUE
 90
4
  1
Feb-13-20
304
ACVALUE_END
170
5
140
0.125
171
1
172
0
173
0
174
0
175
1
176
1
 91
33
178
0
145
0.0
301
CELL_VALUE
 90
4
  1
2.000
304
ACVALUE_END
170
5
140
0.125
171
1
172
0
173
0
174
0
175
1
176
1
 91
33
178
0
145
0.0
301
CELL_VALUE
 90
4
  1
C
304
ACVALUE_END
170
5
140
0.125
171
1
172
0
173
0
174
0
175
1
176
1
 91
33
178
0
145
0.0
301
CELL_VALUE
 90
4
  1
2
304
ACVALUE_END
170
5
140
0.125
171
1
172
0
173
0
174
0
175
1
176
1
 91
33
178
0
145
0.0
301
CELL_VALUE
 90
4
  1
 
304
ACVALUE_END
170
1
140
0.125
171
1
172
0
173
0
174
0
175
1
176
1
 91
33
178
0
145
0.0
301
CELL_VALUE
 90
4
  1
DESCRIPTION
304
ACVALUE_END
170
1
140
0.06
171
1
172
0
173
0
174
0
175
1
176
1
 91
33
178
0
145
0.0
301
CELL_VALUE
 90
4
  1
DATE
304
ACVALUE_END
170
1
140
0.06
171
1
172
0
173
0
174
0
175
1
176
1
 91
33
178
0
145
0.0
301
CELL_VALUE
 90
4
  1
SCALE
304
ACVALUE_END
170
1
140
0.06
171
1
172
0
173
0
174
0
175
1
176
1
 91
33
178
0
145
0.0
301
CELL_VALUE
 90
4
  1
DWG SIZE
304
ACVALUE_END
170
1
140
0.06
171
1
172
0
173
0
174
0
175
1
176
1
 91
33
178
0
145
0.0
301
CELL_VALUE
 90
4
  1
SHEET
304
ACVALUE_END
170
1
140
0.06
171
1
172
0
173
0
174
0
175
1
176
1
 91
33
178
0
145
0.0
301
CELL_VALUE
 90
4
  1
 
304
ACVALUE_END
170
1
140
0.125
171
1
172
0
173
0
174
0
175
1
176
1
 91
33
178
0
145
0.0
301
CELL_VALUE
 90
4
  1
X2Q
304
ACVALUE_END
170
5
140
0.125
171
1
172
0
173
0
174
0
175
4
176
1
 91
33
178
0
145
0.0
301
CELL_VALUE
 90
4
  1
ALL DIMENSIONS IN INCH\PVIEWS ARE THIRD ANGLE
304
ACVALUE_END
170
5
140
0.12
171
1
172
0
173
1
174
0
175
1
176
1
 91
1
178
0
145
0.0
170
1
171
1
172
0
173
1
174
0
175
1
176
1
 91
1
178
0
145
0.0
170
1
171
1
172
0
173
1
174
0
175
1
176
1
 91
1
178
0
145
0.0
170
5
171
1
172
0
173
0
174
0
175
1
176
1
 91
33
178
0
145
0.0
301
CELL_VALUE
 90
4
  1
 
304
ACVALUE_END
170
1
140
0.125
171
1
172
0
173
0
174
0
175
1
176
1
 91
33
178
0
145
0.0
301
CELL_VALUE
 90
4
  1
MODEL
304
ACVALUE_END
170
1
140
0.06
171
1
172
0
173
0
174
0
175
1
176
1
 91
33
178
0
145
0.0
301
CELL_VALUE
 90
4
  1
 
304
ACVALUE_END
170
1
140
0.125
171
1
172
0
173
0
174
0
175
1
176
1
 91
33
178
0
145
0.0
301
CELL_VALUE
 90
4
  1
 
304
ACVALUE_END
170
1
140
0.125
171
1
172
0
173
0
174
0
175
1
176
1
 91
33
178
0
145
0.0
301
CELL_VALUE
 90
4
  1
 
304
ACVALUE_END
170
1
140
0.125
171
1
172
0
173
0
174
0
175
1
176
1
 91
33
178
0
145
0.0
301
CELL_VALUE
 90
4
  1
 
304
ACVALUE_END
170
1
140
0.125
171
1
172
0
173
0
174
0
175
1
176
1
 91
33
178
0
145
0.0
301
CELL_VALUE
 90
4
  1
 
304
ACVALUE_END
170
1
140
0.125
  0
ACAD_TABLE
  5
286
100
AcDbEntity
  8
0
 62
2
  6
CONTINUOUS
100
AcDbBlockReference
  2
*T2
 10
12.4237499994
 20
16.47875
 30
0.0
100
AcDbTable
342
       352
343
20C
 11
1.0
 21
0.0
 31
0.0
 90
22
 91
10
 92
3
 93
16
 94
0
 95
0
 96
0
 41
0.028
141
0.344
141
0.25
141
0.25
141
0.25
141
0.25
141
0.25
141
0.25
141
0.25
141
0.25
141
0.25
142
3.055
142
3.0
142
3.0
171
1
172
0
173
0
174
0
175
1
176
1
 91
33
178
0
145
0.0
301
CELL_VALUE
 90
4
  1
Technical Data
304
ACVALUE_END
170
5
140
0.145
171
1
172
0
173
0
174
0
175
1
176
1
 91
33
178
0
145
0.0
301
CELL_VALUE
 90
4
  1
U.S. Units
304
ACVALUE_END
170
5
140
0.145
171
1
172
0
173
0
174
0
175
1
176
1
 91
33
178
0
145
0.0
301
CELL_VALUE
 90
4
  1
Metric Units
304
ACVALUE_END
170
5
140
0.145
171
1
172
0
173
0
174
0
175
1
176
1
 91
33
178
0
145
0.0
301
CELL_VALUE
 90
4
  1
Cavity
304
ACVALUE_END
170
5
140
0.125
171
1
172
0
173
0
174
0
175
2
176
1
 91
33
178
0
145
0.0
301
CELL_VALUE
 90
4
  1
T-11A
304
ACVALUE_END
170
5
140
0.125
171
1
172
0
173
1
174
0
175
1
176
1
 91
1
178
0
145
0.0
170
1
171
1
172
0
173
0
174
0
175
1
176
1
 91
33
178
0
145
0.0
301
CELL_VALUE
 90
4
  1
Body Features
304
ACVALUE_END
170
5
140
0.125
171
1
172
0
173
0
174
0
175
2
176
1
 91
33
178
0
145
0.0
301
CELL_VALUE
 90
4
  1
On P, port 3 to T - Mirror
304
ACVALUE_END
170
5
140
0.125
171
1
172
0
173
1
174
0
175
1
176
1
 91
1
178
0
145
0.0
170
1
171
1
172
0
173
0
174
0
175
1
176
1
 91
33
178
0
145
0.0
301
CELL_VALUE
 90
4
  1
Body Type
304
ACVALUE_END
170
5
140
0.125
171
1
172
0
173
0
174
0
175
2
176
1
 91
33
178
0
145
0.0
301
CELL_VALUE
 90
4
  1
Sandwich
304
ACVALUE_END
170
5
140
0.125
171
1
172
0
173
1
174
0
175
1
176
1
 91
1
178
0
145
0.0
170
1
171
1
172
0
173
0
174
0
175
1
176
1
 91
33
178
0
145
0.0
301
CELL_VALUE
 90
4
  1
Interface
304
ACVALUE_END
170
5
140
0.125
171
1
172
0
173
0
174
0
175
2
176
1
 91
33
178
0
145
0.0
301
CELL_VALUE
 90
4
  1
ISO 03 - 40mm
304
ACVALUE_END
170
5
140
0.125
171
1
172
0
173
1
174
0
175
1
176
1
 91
1
178
0
145
0.0
170
1
171
1
172
0
173
0
174
0
175
1
176
1
 91
33
178
0
145
0.0
301
CELL_VALUE
 90
4
  1
Open Cavity Quantity
304
ACVALUE_END
170
5
140
0.125
171
1
172
0
173
0
174
0
175
2
176
1
 91
33
178
0
145
0.0
301
CELL_VALUE
 90
4
  1
1
304
ACVALUE_END
170
5
140
0.125
171
1
172
0
173
1
174
0
175
1
176
1
 91
1
178
0
145
0.0
170
1
171
1
172
0
173
0
174
0
175
1
176
1
 91
33
178
0
145
0.0
301
CELL_VALUE
 90
4
  1
Weight
304
ACVALUE_END
170
5
140
0.125
171
1
172
0
173
0
174
0
175
1
176
1
 91
33
178
0
145
0.0
301
CELL_VALUE
 90
4
  1
0.768 lb.
304
ACVALUE_END
170
5
140
0.125
171
1
172
0
173
0
174
0
175
1
176
1
 91
33
178
0
145
0.0
301
CELL_VALUE
 90
4
  1
0,348 kg.
304
ACVALUE_END
170
5
140
0.125
171
1
172
0
173
0
174
0
175
1
176
1
 91
33
178
0
145
0.0
301
CELL_VALUE
 90
4
  1
Mounting Hole Diameter
304
ACVALUE_END
170
5
140
0.125
171
1
172
0
173
0
174
0
175
1
176
1
 91
33
178
0
145
0.0
301
CELL_VALUE
 90
4
  1
.21 in.
304
ACVALUE_END
170
5
140
0.125
171
1
172
0
173
0
174
0
175
1
176
1
 91
33
178
0
145
0.0
301
CELL_VALUE
 90
4
  1
5,4 mm
304
ACVALUE_END
170
5
140
0.125
171
1
172
0
173
0
174
0
175
1
176
1
 91
33
178
0
145
0.0
301
CELL_VALUE
 90
4
  1
Mounting Hole Depth
304
ACVALUE_END
170
5
140
0.125
171
1
172
0
173
0
174
0
175
2
176
1
 91
33
178
0
145
0.0
301
CELL_VALUE
 90
4
  1
Through
304
ACVALUE_END
170
5
140
0.125
171
1
172
0
173
1
174
0
175
1
176
1
 91
1
178
0
145
0.0
170
1
171
1
172
0
173
0
174
0
175
1
176
1
 91
33
178
0
145
0.0
301
CELL_VALUE
 90
4
  1
Mounting Hole Quantity
304
ACVALUE_END
170
5
140
0.125
171
1
172
0
173
0
174
0
175
2
176
1
 91
33
178
0
145
0.0
301
CELL_VALUE
 90
4
  1
4
304
ACVALUE_END
170
5
140
0.125
171
1
172
0
173
1
174
0
175
1
176
1
 91
1
178
0
145
0.0
170
1
  0
ACAD_TABLE
  5
287
100
AcDbEntity
  8
0
 62
2
  6
CONTINUOUS
100
AcDbBlockReference
  2
*T3
 10
0.52125
 20
1.459
 30
0.0
100
AcDbTable
342
       352
343
20D
 11
1.0
 21
0.0
 31
0.0
 90
22
 91
3
 92
3
 93
16
 94
0
 95
0
 96
0
 41
0.05
141
0.34375
141
0.344
141
0.25
142
1.3
142
2.0
142
1.3
171
1
172
0
173
0
174
0
175
3
176
1
 91
33
178
0
145
0.0
301
CELL_VALUE
 90
4
  1
Port Headings
304
ACVALUE_END
170
5
140
0.145
171
1
172
0
173
1
174
0
175
1
176
1
 91
1
178
0
145
0.0
170
1
171
1
172
0
173
1
174
0
175
1
176
1
 91
1
178
0
145
0.0
170
1
171
1
172
0
173
0
174
0
175
1
176
1
 91
33
178
0
145
0.0
301
CELL_VALUE
 90
4
  1
Product
304
ACVALUE_END
170
5
140
0.145
171
1
172
0
173
0
174
0
175
1
176
1
 91
33
178
0
145
0.0
301
CELL_VALUE
 90
4
  1
Port
304
ACVALUE_END
170
5
140
0.145
171
1
172
0
173
0
174
0
175
1
176
1
 91
33
178
0
145
0.0
301
CELL_VALUE
 90
4
  1
Size
304
ACVALUE_END
170
5
140
0.145
171
1
172
0
173
0
174
0
175
1
176
1
 91
33
178
0
145
0.0
301
CELL_VALUE
 90
4
  1
X2Q
304
ACVALUE_END
170
5
140
0.125
171
1
172
0
173
0
174
0
175
1
176
1
 91
33
178
0
145
0.0
301
CELL_VALUE
 90
4
  1
Gage Port (Plugged)
304
ACVALUE_END
170
5
140
0.125
171
1
172
0
173
0
174
0
175
1
176
1
 91
33
178
0
145
0.0
301
CELL_VALUE
 90
4
  1
SAE 4
304
ACVALUE_END
170
5
140
0.125
  0
MTEXT
  5
288
100
AcDbEntity
  8
0
100
AcDbMText
 62
2
  6
CONTINUOUS
  7
STANDARD
 71
1
 72
1
 10
0.52125
 20
5.75995
 30
0.0
 11
1.0
 21
0.0
 31
0.0
 44
0.6
  3
Notes\P \P1. Important: Carefully consider\P   the maximum system pressure. The\P   pressure rating of the manifold is\P   dependent on the manifold material,\P   with the port type/size a secondary\P   consideration. Manifolds\P   constructed of alu
  1
minum are not\P   rated for pressures higher than\P   3000 psi (210 bar), regardless of\P   the port type/size specified.
 40
0.1
 41
3.04
  0
LINE
  5
289
100
AcDbEntity
  8
0
100
AcDbLine
 62
7
  6
CONTINUOUS
 10
0.30125
 20
0.30125
 11
0.30125
 21
16.69875
  0
LINE
  5
28A
100
AcDbEntity
  8
0
100
AcDbLine
 62
7
  6
CONTINUOUS
 10
0.30125
 20
0.30125
 11
21.69875
 21
0.30125
  0
LINE
  5
28B
100
AcDbEntity
  8
0
100
AcDbLine
 62
7
  6
CONTINUOUS
 10
0.30125
 20
16.69875
 11
21.69875
 21
16.69875
  0
LINE
  5
28C
100
AcDbEntity
  8
0
100
AcDbLine
 62
7
  6
CONTINUOUS
 10
21.69875
 20
0.30125
 11
21.69875
 21
16.69875
  0
LINE
  5
28D
100
AcDbEntity
  8
0
100
AcDbLine
 62
7
  6
CONTINUOUS
 10
7.103302301
 20
9.3113372768
 11
7.103302301
 21
7.6209669806
  0
LINE
  5
28E
100
AcDbEntity
  8
0
100
AcDbLine
 62
7
  6
CONTINUOUS
 10
7.1471429382
 20
9.291684083
 11
7.1471429382
 21
7.6013137869
  0
LINE
  5
28F
100
AcDbEntity
  8
0
100
AcDbLine
 62
7
  6
CONTINUOUS
 10
7.6918563238
 20
10.5443938492
 11
7.281369657
 21
10.1478941529
  0
LINE
  5
290
100
AcDbEntity
  8
0
100
AcDbLine
 62
7
  6
CONTINUOUS
 10
7.7517437286
 20
10.6001280483
 11
7.3412570618
 21
10.203628352
  0
LINE
  5
291
100
AcDbEntity
  8
0
100
AcDbLine
 62
7
  6
CONTINUOUS
 10
7.7535761347
 20
10.6018657383
 11
7.7517437286
 21
10.6001280483
  0
LINE
  5
292
100
AcDbEntity
  8
0
100
AcDbLine
 62
7
  6
CONTINUOUS
 10
7.6935388397
 20
10.5459891417
 11
7.6918563238
 21
10.5443938492
  0
LINE
  5
293
100
AcDbEntity
  8
0
100
AcDbLine
 62
7
  6
CONTINUOUS
 10
7.6918563238
 20
10.5443938492
 11
7.7517276301
 21
10.6001453456
  0
LINE
  5
294
100
AcDbEntity
  8
0
100
AcDbLine
 62
7
  6
CONTINUOUS
 10
7.281369657
 20
10.1478941529
 11
7.3412570618
 21
10.203628352
  0
LINE
  5
295
100
AcDbEntity
  8
0
100
AcDbLine
 62
7
  6
CONTINUOUS
 10
7.2428322252
 20
7.0693302484
 11
7.1910812736
 21
7.132960748
  0
LINE
  5
296
100
AcDbEntity
  8
0
100
AcDbLine
 62
7
  6
CONTINUOUS
 10
7.103302301
 20
7.6209669806
 11
7.1471429382
 21
7.6013137869
  0
LINE
  5
297
100
AcDbEntity
  8
0
100
AcDbLine
 62
7
  6
CONTINUOUS
 10
10.5500312232
 20
10.7348411784
 11
9.7347518793
 21
9.9473417578
  0
LINE
  5
298
100
AcDbEntity
  8
0
100
AcDbLine
 62
7
  6
CONTINUOUS
 10
9.7347518793
 20
6.5666011655
 11
14.0814183551
 21
6.2651588216
  0
LINE
  5
299
100
AcDbEntity
  8
0
100
AcDbLine
 62
7
  6
CONTINUOUS
 10
9.7347518793
 20
6.8710228315
 11
7.2893690121
 21
7.0406107093
  0
LINE
  5
29A
100
AcDbEntity
  8
0
100
AcDbLine
 62
7
  6
CONTINUOUS
 10
9.7347518793
 20
6.5666011655
 11
9.7347518793
 21
9.9473417578
  0
LINE
  5
29B
100
AcDbEntity
  8
0
100
AcDbLine
 62
7
  6
CONTINUOUS
 10
7.1471429382
 20
7.6013137869
 11
9.7347518793
 21
7.4218624973
  0
LINE
  5
29C
100
AcDbEntity
  8
0
100
AcDbLine
 62
7
  6
CONTINUOUS
 10
14.6231331927
 20
7.6206867918
 11
14.4627894961
 21
7.631806665
  0
LINE
  5
29D
100
AcDbEntity
  8
0
100
AcDbLine
 62
7
  6
CONTINUOUS
 10
7.103302301
 20
9.3113372768
 11
7.1471429382
 21
9.291684083
  0
LINE
  5
29E
100
AcDbEntity
  8
0
100
AcDbLine
 62
7
  6
CONTINUOUS
 10
14.739800388
 20
8.1224791527
 11
14.6366028204
 21
8.1296359284
  0
LINE
  5
29F
100
AcDbEntity
  8
0
100
AcDbLine
 62
7
  6
CONTINUOUS
 10
11.9815949914
 20
9.1550972762
 11
11.9591715139
 21
9.134227873
  0
LINE
  5
2A0
100
AcDbEntity
  8
0
100
AcDbLine
 62
7
  6
CONTINUOUS
 10
14.739800388
 20
8.3321659186
 11
14.6651431812
 21
8.3373434135
  0
LINE
  5
2A1
100
AcDbEntity
  8
0
100
AcDbLine
 62
7
  6
CONTINUOUS
 10
14.7010344513
 20
8.7439887966
 11
14.5406907547
 21
8.7551086697
  0
LINE
  5
2A2
100
AcDbEntity
  8
0
100
AcDbLine
 62
7
  6
CONTINUOUS
 10
7.1471429382
 20
9.291684083
 11
9.7347518793
 21
9.1122327935
  0
LINE
  5
2A3
100
AcDbEntity
  8
0
100
AcDbLine
 62
4
  6
CONTINUOUS
 10
14.5007048614
 20
9.2974769145
 11
14.516233991
 21
9.2979880147
  0
LINE
  5
2A4
100
AcDbEntity
  8
0
100
AcDbLine
 62
7
  6
CONTINUOUS
 10
10.9739245587
 20
7.0433262841
 11
10.898730563
 21
6.9706944574
  0
LINE
  5
2A5
100
AcDbEntity
  8
0
100
AcDbLine
 62
7
  6
CONTINUOUS
 10
11.1473481482
 20
6.8632585403
 11
11.072417216
 21
6.7908808134
  0
LINE
  5
2A6
100
AcDbEntity
  8
0
100
AcDbLine
 62
7
  6
CONTINUOUS
 10
14.0814183551
 20
9.6458994139
 11
14.896697699
 21
10.4333988345
  0
LINE
  5
2A7
100
AcDbEntity
  8
0
100
AcDbLine
 62
7
  6
CONTINUOUS
 10
9.7347518793
 20
9.9473417578
 11
14.0814183551
 21
9.6458994139
  0
LINE
  5
2A8
100
AcDbEntity
  8
0
100
AcDbLine
 62
7
  6
CONTINUOUS
 10
7.3412570618
 20
10.203628352
 11
9.821972248
 21
10.0315901696
  0
LINE
  5
2A9
100
AcDbEntity
  8
0
100
AcDbLine
 62
4
  6
CONTINUOUS
 10
14.5007048614
 20
9.1525880352
 11
14.4799993557
 21
9.1325880513
  0
LINE
  5
2AA
100
AcDbEntity
  8
0
100
AcDbLine
 62
7
  6
CONTINUOUS
 10
7.7517437286
 20
10.6001280483
 11
10.2324589148
 21
10.4280898658
  0
LINE
  5
2AB
100
AcDbEntity
  8
0
100
AcDbLine
 62
7
  6
CONTINUOUS
 10
10.2588837199
 20
10.4536142691
 11
7.8036317783
 21
10.6238865696
  0
LINE
  5
2AC
100
AcDbEntity
  8
0
100
AcDbLine
 62
7
  6
CONTINUOUS
 10
14.4278558813
 20
7.6533654657
 11
14.4011457128
 21
7.6862070138
  0
LINE
  5
2AD
100
AcDbEntity
  8
0
100
AcDbLine
 62
7
  6
CONTINUOUS
 10
14.5031156516
 20
8.7385783657
 11
14.4721278406
 21
8.709738186
  0
LINE
  5
2AE
100
AcDbEntity
  8
0
100
AcDbLine
 62
7
  6
CONTINUOUS
 10
14.896697699
 20
10.4333988345
 11
10.5500312232
 21
10.7348411784
  0
LINE
  5
2AF
100
AcDbEntity
  8
0
100
AcDbLine
 62
4
  6
CONTINUOUS
 10
14.4851757319
 20
9.2679880384
 11
14.5007048614
 21
9.2974769145
  0
LINE
  5
2B0
100
AcDbEntity
  8
0
100
AcDbLine
 62
7
  6
CONTINUOUS
 10
14.0814183551
 20
6.2651588216
 11
14.0814183551
 21
9.6458994139
  0
LINE
  5
2B1
100
AcDbEntity
  8
0
100
AcDbLine
 62
4
  6
CONTINUOUS
 10
14.4696466024
 20
9.1950324985
 11
14.474822979
 21
9.2290102706
  0
LINE
  5
2B2
100
AcDbEntity
  8
0
100
AcDbLine
 62
4
  6
CONTINUOUS
 10
14.474822979
 20
9.2290102706
 11
14.4851757319
 21
9.2679880384
  0
LINE
  5
2B3
100
AcDbEntity
  8
0
100
AcDbLine
 62
4
  6
CONTINUOUS
 10
14.5265867453
 20
9.1920769046
 11
14.5214103663
 21
9.1725880182
  0
LINE
  5
2B4
100
AcDbEntity
  8
0
100
AcDbLine
 62
7
  6
CONTINUOUS
 10
14.6916961068
 20
7.6660572756
 11
14.6607082958
 21
7.6372170959
  0
LINE
  5
2B5
100
AcDbEntity
  8
0
100
AcDbLine
 62
7
  6
CONTINUOUS
 10
14.7626782346
 20
8.6895884477
 11
14.7359680661
 21
8.7224299959
  0
LINE
  5
2B6
100
AcDbEntity
  8
0
100
AcDbLine
 62
4
  6
CONTINUOUS
 10
14.4696466024
 20
9.1660547226
 11
14.4696466024
 21
9.1950324985
  0
LINE
  5
2B7
100
AcDbEntity
  8
0
100
AcDbLine
 62
4
  6
CONTINUOUS
 10
14.5007048614
 20
9.2105435869
 11
14.5007048614
 21
9.1525880352
  0
LINE
  5
2B8
100
AcDbEntity
  8
0
100
AcDbLine
 62
4
  6
CONTINUOUS
 10
14.5317631205
 20
9.2550324512
 11
14.5317631205
 21
9.2260546753
  0
LINE
  5
2B9
100
AcDbEntity
  8
0
100
AcDbLine
 62
4
  6
CONTINUOUS
 10
14.5317631205
 20
9.2260546753
 11
14.5265867453
 21
9.1920769046
  0
LINE
  5
2BA
100
AcDbEntity
  8
0
100
AcDbLine
 62
4
  6
CONTINUOUS
 10
14.4799993557
 20
9.1325880513
 11
14.474822979
 21
9.142076943
  0
LINE
  5
2BB
100
AcDbEntity
  8
0
100
AcDbLine
 62
4
  6
CONTINUOUS
 10
14.516233991
 20
9.2979880147
 11
14.5265867453
 21
9.2790102322
  0
LINE
  5
2BC
100
AcDbEntity
  8
0
100
AcDbLine
 62
4
  6
CONTINUOUS
 10
14.474822979
 20
9.142076943
 11
14.4696466024
 21
9.1660547226
  0
LINE
  5
2BD
100
AcDbEntity
  8
0
100
AcDbLine
 62
4
  6
CONTINUOUS
 10
14.5265867453
 20
9.2790102322
 11
14.5317631205
 21
9.2550324512
  0
LINE
  5
2BE
100
AcDbEntity
  8
0
100
AcDbLine
 62
7
  6
CONTINUOUS
 10
14.896697699
 20
7.0526582422
 11
14.896697699
 21
10.4333988345
  0
LINE
  5
2BF
100
AcDbEntity
  8
0
100
AcDbLine
 62
7
  6
CONTINUOUS
 10
14.0814183551
 20
6.2651588216
 11
14.896697699
 21
7.0526582422
  0
ARC
  5
2C0
100
AcDbEntity
  8
0
100
AcDbCircle
 62
7
  6
CONTINUOUS
 10
11.8925593435
 20
8.9669589039
 40
0.4355709259
100
AcDbArc
 50
136.1491272703
 51
138.6433392725
  0
ARC
  5
2C1
100
AcDbEntity
  8
0
100
AcDbCircle
 62
7
  6
CONTINUOUS
 10
12.6466737422
 20
8.0380234088
 40
0.435519879
100
AcDbArc
 50
309.3819572519
 51
311.7297978908
  0
ARC
  5
2C2
100
AcDbEntity
  8
0
100
AcDbCircle
 62
7
  6
CONTINUOUS
 10
11.3175596813
 20
8.130197782
 40
0.435519879
100
AcDbArc
 50
309.3819572518
 51
311.7297978908
  0
ARC
  5
2C3
100
AcDbEntity
  8
0
100
AcDbCircle
 62
7
  6
CONTINUOUS
 10
11.9821166542
 20
7.2920513818
 40
0.435519879
100
AcDbArc
 50
309.3819572518
 51
311.7297978908
  0
ARC
  5
2C4
100
AcDbEntity
  8
0
100
AcDbCircle
 62
7
  6
CONTINUOUS
 10
12.5570625625
 20
8.13079391
 40
0.4354976796
100
AcDbArc
 50
136.0365876126
 51
138.6331153453
  0
ARC
  5
2C5
100
AcDbEntity
  8
0
100
AcDbCircle
 62
7
  6
CONTINUOUS
 10
11.2279485016
 20
8.2229682832
 40
0.4354976796
100
AcDbArc
 50
136.0365876125
 51
138.6331153453
  0
ARC
  5
2C6
100
AcDbEntity
  8
0
100
AcDbCircle
 62
7
  6
CONTINUOUS
 10
11.8925054745
 20
7.384821883
 40
0.4354976796
100
AcDbArc
 50
136.0365876126
 51
138.6331153453
  0
ARC
  5
2C7
100
AcDbEntity
  8
0
100
AcDbCircle
 62
7
  6
CONTINUOUS
 10
11.982144187
 20
8.8742069186
 40
0.435478336
100
AcDbArc
 50
309.3779618933
 51
311.6641323971
  0
ARC
  5
2C8
100
AcDbEntity
  8
0
100
AcDbCircle
 62
7
  6
CONTINUOUS
 10
11.0481516463
 20
6.9186133554
 40
0.1137311029
100
AcDbArc
 50
296.9624316774
 51
313.9863865026
  0
ARC
  5
2C9
100
AcDbEntity
  8
0
100
AcDbCircle
 62
7
  6
CONTINUOUS
 10
11.0255353994
 20
6.9420254521
 40
0.1137179931
100
AcDbArc
 50
134.0256870622
 51
150.8745713197
  0
ARC
  5
2CA
100
AcDbEntity
  8
0
100
AcDbCircle
 62
7
  6
CONTINUOUS
 10
14.7265028245
 20
8.3573328433
 40
0.0480259175
100
AcDbArc
 50
136.7320372907
 51
137.5790758468
  0
SPLINE
  5
2CB
100
AcDbEntity
  8
0
100
AcDbSpline
 62
7
  6
CONTINUOUS
 70
0
 71
3
 72
39
 73
35
 74
0
 42
0.0000001
 43
0.0000001
 44
0.0000000001
 40
0.0
 40
0.0
 40
0.0
 40
0.0
 40
0.0299422331
 40
0.0599092575
 40
0.0899241853
 40
0.1200100237
 40
0.1501875599
 40
0.1804752385
 40
0.2108897545
 40
0.2414436546
 40
0.2721471403
 40
0.3030068828
 40
0.334025345
 40
0.3652026833
 40
0.3965345645
 40
0.4280135898
 40
0.4596299292
 40
0.4913697388
 40
0.5232175329
 40
0.5551555029
 40
0.587163356
 40
0.6192204168
 40
0.6513042093
 40
0.6833916162
 40
0.7154605923
 40
0.7474887634
 40
0.7794547541
 40
0.8113371941
 40
0.843114759
 40
0.8747724449
 40
0.9063035463
 40
0.9377027577
 40
0.968947027
 40
1.0
 40
1.0
 40
1.0
 40
1.0
 10
11.0724171906
 20
6.7908808396
 30
0.0
 10
11.0703435786
 20
6.788877733
 30
0.0
 10
11.0660327355
 20
6.7850337012
 30
0.0
 10
11.0591266963
 20
6.7797964369
 30
0.0
 10
11.0518160444
 20
6.7751138235
 30
0.0
 10
11.0441402762
 20
6.7710146361
 30
0.0
 10
11.036143304
 20
6.7675181374
 30
0.0
 10
11.0278681622
 20
6.764645515
 30
0.0
 10
11.0193606438
 20
6.7624127743
 30
0.0
 10
11.0106680685
 20
6.7608296082
 30
0.0
 10
11.0018376798
 20
6.759908071
 30
0.0
 10
10.9929185185
 20
6.7596506376
 30
0.0
 10
10.9839593593
 20
6.7600586418
 30
0.0
 10
10.9750097604
 20
6.7611321429
 30
0.0
 10
10.9661184701
 20
6.7628617315
 30
0.0
 10
10.9573346443
 20
6.7652403044
 30
0.0
 10
10.9487066722
 20
6.7682543794
 30
0.0
 10
10.9402810278
 20
6.771885403
 30
0.0
 10
10.9321053251
 20
6.7761164593
 30
0.0
 10
10.9242232984
 20
6.7809217855
 30
0.0
 10
10.9166782447
 20
6.7862755158
 30
0.0
 10
10.9095128808
 20
6.7921497419
 30
0.0
 10
10.902764419
 20
6.7985096634
 30
0.0
 10
10.8964716266
 20
6.8053223979
 30
0.0
 10
10.8906686896
 20
6.8125500013
 30
0.0
 10
10.8853860358
 20
6.8201520188
 30
0.0
 10
10.8806555427
 20
6.8280885321
 30
0.0
 10
10.8765006117
 20
6.8363139156
 30
0.0
 10
10.8729445543
 20
6.8447833378
 30
0.0
 10
10.8700084956
 20
6.8534515018
 30
0.0
 10
10.8677060266
 20
6.8622714844
 30
0.0
 10
10.8660532998
 20
6.8711957701
 30
0.0
 10
10.8650574532
 20
6.8801701801
 30
0.0
 10
10.8648331541
 20
6.8861709753
 30
0.0
 10
10.8648331541
 20
6.8891610338
 30
0.0
  0
SPLINE
  5
2CC
100
AcDbEntity
  8
0
100
AcDbSpline
 62
7
  6
CONTINUOUS
 70
0
 71
3
 72
15
 73
11
 74
0
 42
0.0000001
 43
0.0000001
 44
0.0000000001
 40
0.0
 40
0.0
 40
0.0
 40
0.0
 40
0.1234389364
 40
0.2470473381
 40
0.370987441
 40
0.4953935886
 40
0.620395394
 40
0.7461421851
 40
0.8727199755
 40
1.0
 40
1.0
 40
1.0
 40
1.0
 10
10.8987305884
 20
6.9706944312
 30
0.0
 10
10.8960467435
 20
6.9681018405
 30
0.0
 10
10.8909389502
 20
6.9626321349
 30
0.0
 10
10.8841537397
 20
6.9536790296
 30
0.0
 10
10.8783057233
 20
6.9440520955
 30
0.0
 10
10.8734448275
 20
6.9338448756
 30
0.0
 10
10.8696197785
 20
6.9231482717
 30
0.0
 10
10.8668621261
 20
6.9120604851
 30
0.0
 10
10.8652024829
 20
6.9006880142
 30
0.0
 10
10.8648331541
 20
6.8930087113
 30
0.0
 10
10.8648331541
 20
6.8891610338
 30
0.0
  0
SPLINE
  5
2CD
100
AcDbEntity
  8
0
100
AcDbSpline
 62
7
  6
CONTINUOUS
 70
0
 71
3
 72
39
 73
35
 74
0
 42
0.0000001
 43
0.0000001
 44
0.0000000001
 40
0.0
 40
0.0
 40
0.0
 40
0.0
 40
0.031052973
 40
0.0622972423
 40
0.0936964537
 40
0.1252275551
 40
0.156885241
 40
0.1886628059
 40
0.2205452459
 40
0.2525112366
 40
0.2845394077
 40
0.3166083838
 40
0.3486957907
 40
0.3807795832
 40
0.412836644
 40
0.4448444971
 40
0.4767824671
 40
0.5086302612
 40
0.5403700708
 40
0.5719864102
 40
0.6034654355
 40
0.6347973167
 40
0.665974655
 40
0.6969931172
 40
0.7278528597
 40
0.7585563454
 40
0.7891102455
 40
0.8195247615
 40
0.8498124401
 40
0.8799899763
 40
0.9100758147
 40
0.9400907425
 40
0.9700577669
 40
1.0
 40
1.0
 40
1.0
 40
1.0
 10
11.1063146249
 20
6.872414237
 30
0.0
 10
11.1063146249
 20
6.8754042955
 30
0.0
 10
11.1060903258
 20
6.8814050907
 30
0.0
 10
11.1050944792
 20
6.8903795007
 30
0.0
 10
11.1034417524
 20
6.8993037864
 30
0.0
 10
11.1011392834
 20
6.908123769
 30
0.0
 10
11.0982032247
 20
6.916791933
 30
0.0
 10
11.0946471673
 20
6.9252613552
 30
0.0
 10
11.0904922364
 20
6.9334867387
 30
0.0
 10
11.0857617432
 20
6.941423252
 30
0.0
 10
11.0804790894
 20
6.9490252695
 30
0.0
 10
11.0746761524
 20
6.9562528729
 30
0.0
 10
11.06838336
 20
6.9630656074
 30
0.0
 10
11.0616348982
 20
6.9694255289
 30
0.0
 10
11.0544695343
 20
6.975299755
 30
0.0
 10
11.0469244807
 20
6.9806534853
 30
0.0
 10
11.0390424539
 20
6.9854588115
 30
0.0
 10
11.0308667512
 20
6.9896898678
 30
0.0
 10
11.0224411068
 20
6.9933208914
 30
0.0
 10
11.0138131348
 20
6.9963349664
 30
0.0
 10
11.0050293089
 20
6.9987135393
 30
0.0
 10
10.9961380186
 20
7.0004431279
 30
0.0
 10
10.9871884197
 20
7.001516629
 30
0.0
 10
10.9782292605
 20
7.0019246332
 30
0.0
 10
10.9693100992
 20
7.0016671998
 30
0.0
 10
10.9604797105
 20
7.0007456626
 30
0.0
 10
10.9517871352
 20
6.9991624965
 30
0.0
 10
10.9432796168
 20
6.9969297558
 30
0.0
 10
10.935004475
 20
6.9940571334
 30
0.0
 10
10.9270075028
 20
6.9905606347
 30
0.0
 10
10.9193317346
 20
6.9864614473
 30
0.0
 10
10.9120210828
 20
6.9817788339
 30
0.0
 10
10.9051150435
 20
6.9765415696
 30
0.0
 10
10.9008042004
 20
6.9726975378
 30
0.0
 10
10.8987305884
 20
6.9706944312
 30
0.0
  0
SPLINE
  5
2CE
100
AcDbEntity
  8
0
100
AcDbSpline
 62
7
  6
CONTINUOUS
 70
0
 71
3
 72
53
 73
49
 74
0
 42
0.0000001
 43
0.0000001
 44
0.0000000001
 40
0.0
 40
0.0
 40
0.0
 40
0.0
 40
0.0313041153
 40
0.0470567589
 40
0.0628625042
 40
0.0945982077
 40
0.1264996374
 40
0.1585539205
 40
0.1907323133
 40
0.2068600129
 40
0.2230041193
 40
0.2391599002
 40
0.2553223468
 40
0.2714864126
 40
0.2876472596
 40
0.3038000459
 40
0.319939713
 40
0.3360612399
 40
0.3521599324
 40
0.3842632888
 40
0.4162252851
 40
0.4480185945
 40
0.4796216269
 40
0.5110196976
 40
0.5422062894
 40
0.5731821078
 40
0.6039571965
 40
0.6192792312
 40
0.6345582438
 40
0.6649908279
 40
0.6801620739
 40
0.6953058919
 40
0.7104271196
 40
0.7255305534
 40
0.7406211915
 40
0.755704483
 40
0.770786026
 40
0.7858711759
 40
0.800965253
 40
0.816073731
 40
0.8463431443
 40
0.8615227459
 40
0.8767341965
 40
0.907262381
 40
0.922599162
 40
0.9379872792
 40
0.9689083072
 40
1.0
 40
1.0
 40
1.0
 40
1.0
 10
11.0763892676
 20
6.865915201
 30
0.0
 10
11.0763892676
 20
6.8691658259
 30
0.0
 10
11.076147005
 20
6.8740563929
 30
0.0
 10
11.0753544223
 20
6.8805374933
 30
0.0
 10
11.0742444272
 20
6.8870179063
 30
0.0
 10
11.072266359
 20
6.8950405067
 30
0.0
 10
11.0689842201
 20
6.9044346434
 30
0.0
 10
11.0648190685
 20
6.9135223745
 30
0.0
 10
11.060649875
 20
6.9207656951
 30
0.0
 10
11.0569182388
 20
6.926323632
 30
0.0
 10
11.0539245211
 20
6.930366464
 30
0.0
 10
11.0507465357
 20
6.9342705984
 30
0.0
 10
11.0473919799
 20
6.9380269219
 30
0.0
 10
11.043868727
 20
6.9416262345
 30
0.0
 10
11.0401845865
 20
6.9450592201
 30
0.0
 10
11.0363490055
 20
6.948318216
 30
0.0
 10
11.0323714886
 20
6.9513956701
 30
0.0
 10
11.0282614056
 20
6.9542841697
 30
0.0
 10
11.0226233283
 20
6.9578691467
 30
0.0
 10
11.0152949819
 20
6.961844668
 30
0.0
 10
11.0061293148
 20
6.965763354
 30
0.0
 10
10.9966842422
 20
6.9687857872
 30
0.0
 10
10.98705224
 20
6.9708869885
 30
0.0
 10
10.9773246813
 20
6.9720412575
 30
0.0
 10
10.9675956553
 20
6.972242691
 30
0.0
 10
10.9579592194
 20
6.9714835112
 30
0.0
 10
10.9500689656
 20
6.9700577162
 30
0.0
 10
10.9438997651
 20
6.9684478335
 30
0.0
 10
10.9378552159
 20
6.9665352946
 30
0.0
 10
10.9319794275
 20
6.9641659704
 30
0.0
 10
10.9263287429
 20
6.9613572878
 30
0.0
 10
10.922217161
 20
6.9590384494
 30
0.0
 10
10.9182382524
 20
6.9565121244
 30
0.0
 10
10.9144013103
 20
6.953784413
 30
0.0
 10
10.9107158732
 20
6.9508615515
 30
0.0
 10
10.907191408
 20
6.9477499047
 30
0.0
 10
10.9038357588
 20
6.9444577286
 30
0.0
 10
10.9006568138
 20
6.9409931667
 30
0.0
 10
10.8976622471
 20
6.9373641826
 30
0.0
 10
10.893924755
 20
6.9323154306
 30
0.0
 10
10.89058466
 20
6.9269714877
 30
0.0
 10
10.8876703799
 20
6.9213846488
 30
0.0
 10
10.8850384216
 20
6.915629739
 30
0.0
 10
10.8828511109
 20
6.9096625704
 30
0.0
 10
10.8811234788
 20
6.9035389505
 30
0.0
 10
10.8797001002
 20
6.8972952654
 30
0.0
 10
10.8785111543
 20
6.8893323058
 30
0.0
 10
10.8781941062
 20
6.882888649
 30
0.0
 10
10.8781941062
 20
6.8796600821
 30
0.0
  0
SPLINE
  5
2CF
100
AcDbEntity
  8
0
100
AcDbSpline
 62
7
  6
CONTINUOUS
 70
0
 71
3
 72
15
 73
11
 74
0
 42
0.0000001
 43
0.0000001
 44
0.0000000001
 40
0.0
 40
0.0
 40
0.0
 40
0.0
 40
0.1272800245
 40
0.2538578149
 40
0.379604606
 40
0.5046064114
 40
0.629012559
 40
0.7529526619
 40
0.8765610636
 40
1.0
 40
1.0
 40
1.0
 40
1.0
 10
11.1063146249
 20
6.872414237
 30
0.0
 10
11.1063146249
 20
6.8685665595
 30
0.0
 10
11.1059452961
 20
6.8608872566
 30
0.0
 10
11.1042856529
 20
6.8495147857
 30
0.0
 10
11.1015280005
 20
6.8384269991
 30
0.0
 10
11.0977029516
 20
6.8277303952
 30
0.0
 10
11.0928420557
 20
6.8175231753
 30
0.0
 10
11.0869940393
 20
6.8078962412
 30
0.0
 10
11.0802088288
 20
6.7989431359
 30
0.0
 10
11.0751010355
 20
6.7934734303
 30
0.0
 10
11.0724171906
 20
6.7908808396
 30
0.0
  0
SPLINE
  5
2D0
100
AcDbEntity
  8
0
100
AcDbSpline
 62
7
  6
CONTINUOUS
 70
0
 71
3
 72
53
 73
49
 74
0
 42
0.0000001
 43
0.0000001
 44
0.0000000001
 40
0.0
 40
0.0
 40
0.0
 40
0.0
 40
0.0310916928
 40
0.0620127208
 40
0.077400838
 40
0.092737619
 40
0.1232658035
 40
0.1384772541
 40
0.1536568557
 40
0.183926269
 40
0.199034747
 40
0.2141288241
 40
0.229213974
 40
0.244295517
 40
0.2593788085
 40
0.2744694466
 40
0.2895728804
 40
0.3046941081
 40
0.3198379261
 40
0.3350091721
 40
0.3654417562
 40
0.3807207688
 40
0.3960428035
 40
0.4268178922
 40
0.4577937106
 40
0.4889803024
 40
0.5203783731
 40
0.5519814055
 40
0.5837747149
 40
0.6157367112
 40
0.6478400676
 40
0.6639387601
 40
0.680060287
 40
0.6961999541
 40
0.7123527404
 40
0.7285135874
 40
0.7446776532
 40
0.7608400998
 40
0.7769958807
 40
0.7931399871
 40
0.8092676867
 40
0.8414460795
 40
0.8735003626
 40
0.9054017923
 40
0.9371374958
 40
0.9529432411
 40
0.9686958847
 40
1.0
 40
1.0
 40
1.0
 40
1.0
 10
11.0763892676
 20
6.865915201
 30
0.0
 10
11.0763892676
 20
6.8626866341
 30
0.0
 10
11.0760722195
 20
6.8562429772
 30
0.0
 10
11.0748832736
 20
6.8482800177
 30
0.0
 10
11.073459895
 20
6.8420363326
 30
0.0
 10
11.0717322629
 20
6.8359127126
 30
0.0
 10
11.0695449522
 20
6.829945544
 30
0.0
 10
11.0669129938
 20
6.8241906342
 30
0.0
 10
11.0639987138
 20
6.8186037953
 30
0.0
 10
11.0606586188
 20
6.8132598524
 30
0.0
 10
11.0569211267
 20
6.8082111005
 30
0.0
 10
11.05392656
 20
6.8045821164
 30
0.0
 10
11.050747615
 20
6.8011175544
 30
0.0
 10
11.0473919658
 20
6.7978253784
 30
0.0
 10
11.0438675006
 20
6.7947137316
 30
0.0
 10
11.0401820635
 20
6.79179087
 30
0.0
 10
11.0363451214
 20
6.7890631587
 30
0.0
 10
11.0323662127
 20
6.7865368336
 30
0.0
 10
11.0282546309
 20
6.7842179953
 30
0.0
 10
11.0226039463
 20
6.7814093127
 30
0.0
 10
11.0167281579
 20
6.7790399885
 30
0.0
 10
11.0106836087
 20
6.7771274496
 30
0.0
 10
11.0045144082
 20
6.7755175668
 30
0.0
 10
10.9966241544
 20
6.7740917718
 30
0.0
 10
10.9869877185
 20
6.7733325921
 30
0.0
 10
10.9772586925
 20
6.7735340256
 30
0.0
 10
10.9675311338
 20
6.7746882945
 30
0.0
 10
10.9578991316
 20
6.7767894959
 30
0.0
 10
10.948454059
 20
6.779811929
 30
0.0
 10
10.9392883919
 20
6.783730615
 30
0.0
 10
10.9319600455
 20
6.7877061363
 30
0.0
 10
10.9263219682
 20
6.7912911133
 30
0.0
 10
10.9222118852
 20
6.7941796129
 30
0.0
 10
10.9182343683
 20
6.797257067
 30
0.0
 10
10.9143987873
 20
6.8005160629
 30
0.0
 10
10.9107146468
 20
6.8039490486
 30
0.0
 10
10.9071913939
 20
6.8075483611
 30
0.0
 10
10.9038368381
 20
6.8113046847
 30
0.0
 10
10.9006588527
 20
6.815208819
 30
0.0
 10
10.897665135
 20
6.8192516511
 30
0.0
 10
10.8939334988
 20
6.824809588
 30
0.0
 10
10.8897643053
 20
6.8320529085
 30
0.0
 10
10.8855991537
 20
6.8411406396
 30
0.0
 10
10.8823170148
 20
6.8505347763
 30
0.0
 10
10.8803389466
 20
6.8585573768
 30
0.0
 10
10.8792289515
 20
6.8650377897
 30
0.0
 10
10.8784363688
 20
6.8715188902
 30
0.0
 10
10.8781941062
 20
6.8764094572
 30
0.0
 10
10.8781941062
 20
6.8796600821
 30
0.0
  0
SPLINE
  5
2D1
100
AcDbEntity
  8
0
100
AcDbSpline
 62
7
  6
CONTINUOUS
 70
0
 71
3
 72
35
 73
31
 74
0
 42
0.0000001
 43
0.0000001
 44
0.0000000001
 40
0.0
 40
0.0
 40
0.0
 40
0.0
 40
0.0379237658
 40
0.0762666701
 40
0.1537948435
 40
0.2318288405
 40
0.3096806286
 40
0.3866382824
 40
0.4245616369
 40
0.4619996143
 40
0.4988672762
 40
0.5350825448
 40
0.5705646051
 40
0.6052337767
 40
0.6390149664
 40
0.671835283
 40
0.7036234095
 40
0.7343139579
 40
0.7638447836
 40
0.7921560443
 40
0.8191955036
 40
0.844915786
 40
0.8692732406
 40
0.8922342286
 40
0.9137728837
 40
0.9338703622
 40
0.9525226072
 40
0.9697398775
 40
0.985548122
 40
1.0
 40
1.0
 40
1.0
 40
1.0
 10
11.9103155125
 20
8.9064165046
 30
0.0
 10
11.9103155125
 20
8.9094062797
 30
0.0
 10
11.9103556173
 20
8.9154189515
 30
0.0
 10
11.9105928149
 20
8.9275415291
 30
0.0
 10
11.9111830296
 20
8.9428186739
 30
0.0
 10
11.9123480316
 20
8.9611851116
 30
0.0
 10
11.9139608679
 20
8.9794725078
 30
0.0
 10
11.915672868
 20
8.994571921
 30
0.0
 10
11.9172577348
 20
9.006475454
 30
0.0
 10
11.9185412961
 20
9.0152298687
 30
0.0
 10
11.9199227002
 20
9.0238330204
 30
0.0
 10
11.9213983373
 20
9.032264029
 30
0.0
 10
11.9229645069
 20
9.0405023484
 30
0.0
 10
11.9246177116
 20
9.0485278397
 30
0.0
 10
11.9263536725
 20
9.0563210143
 30
0.0
 10
11.9281680176
 20
9.0638629291
 30
0.0
 10
11.9300566593
 20
9.0711351518
 30
0.0
 10
11.9320147447
 20
9.0781200667
 30
0.0
 10
11.9340373199
 20
9.0848007478
 30
0.0
 10
11.9361198166
 20
9.0911608609
 30
0.0
 10
11.9382569107
 20
9.09718507
 30
0.0
 10
11.9404431699
 20
9.1028588901
 30
0.0
 10
11.942673679
 20
9.1081684773
 30
0.0
 10
11.9449427868
 20
9.1131011769
 30
0.0
 10
11.9472447373
 20
9.1176453658
 30
0.0
 10
11.9495745056
 20
9.1217900766
 30
0.0
 10
11.9519263634
 20
9.1255257047
 30
0.0
 10
11.9542947612
 20
9.1288440638
 30
0.0
 10
11.9566747669
 20
9.131736943
 30
0.0
 10
11.9583383265
 20
9.1334522276
 30
0.0
 10
11.9591723536
 20
9.1342284251
 30
0.0
  0
SPLINE
  5
2D2
100
AcDbEntity
  8
0
100
AcDbSpline
 62
7
  6
CONTINUOUS
 70
0
 71
3
 72
22
 73
18
 74
0
 42
0.0000001
 43
0.0000001
 44
0.0000000001
 40
0.0
 40
0.0
 40
0.0
 40
0.0
 40
0.0429570945
 40
0.0889791207
 40
0.1380158046
 40
0.1899949324
 40
0.2448334901
 40
0.3024289667
 40
0.3626657569
 40
0.4254219092
 40
0.4905579339
 40
0.5579246011
 40
0.6273699385
 40
0.6987379854
 40
0.8465951681
 40
0.9227134313
 40
1.0
 40
1.0
 40
1.0
 40
1.0
 10
11.9256308188
 20
8.7893712075
 30
0.0
 10
11.9250063331
 20
8.7909506652
 30
0.0
 10
11.9237942305
 20
8.7942548251
 30
0.0
 10
11.9221299328
 20
8.7994530129
 30
0.0
 10
11.9205604935
 20
8.8050519373
 30
0.0
 10
11.9190898149
 20
8.8110369902
 30
0.0
 10
11.9177222602
 20
8.8173928976
 30
0.0
 10
11.916461199
 20
8.824103168
 30
0.0
 10
11.9153097918
 20
8.8311504245
 30
0.0
 10
11.9142715535
 20
8.8385163783
 30
0.0
 10
11.9133489322
 20
8.8461816581
 30
0.0
 10
11.9125442522
 20
8.8541260396
 30
0.0
 10
11.9118599939
 20
8.8623289655
 30
0.0
 10
11.9111014292
 20
8.8737175562
 30
0.0
 10
11.9106056209
 20
8.8853864504
 30
0.0
 10
11.9103568523
 20
8.8972953482
 30
0.0
 10
11.9103155125
 20
8.9033607596
 30
0.0
 10
11.9103155125
 20
8.9064165046
 30
0.0
  0
SPLINE
  5
2D3
100
AcDbEntity
  8
0
100
AcDbSpline
 62
7
  6
CONTINUOUS
 70
0
 71
3
 72
32
 73
28
 74
0
 42
0.0000001
 43
0.0000001
 44
0.0000000001
 40
0.0
 40
0.0
 40
0.0
 40
0.0
 40
0.0168093338
 40
0.034910689
 40
0.0543091956
 40
0.0750001855
 40
0.0969714846
 40
0.1202004049
 40
0.1446586463
 40
0.1703141444
 40
0.1971274101
 40
0.2250549091
 40
0.2540510839
 40
0.2840649115
 40
0.3150419845
 40
0.3469267563
 40
0.3796597566
 40
0.4131785651
 40
0.4823169127
 40
0.5538092881
 40
0.5902657191
 40
0.6270998594
 40
0.7016100971
 40
0.7767481906
 40
0.8519192504
 40
0.9265486567
 40
1.0
 40
1.0
 40
1.0
 40
1.0
 10
11.9830930047
 20
9.1552589912
 30
0.0
 10
11.9821981434
 20
9.15406366
 30
0.0
 10
11.9804191589
 20
9.15152101
 30
0.0
 10
11.977866563
 20
9.1474252135
 30
0.0
 10
11.9753363135
 20
9.142915828
 30
0.0
 10
11.9728338131
 20
9.1380021925
 30
0.0
 10
11.9703646286
 20
9.1326941397
 30
0.0
 10
11.9679335776
 20
9.1270028924
 30
0.0
 10
11.9655457675
 20
9.1209403121
 30
0.0
 10
11.963206636
 20
9.1145189249
 30
0.0
 10
11.9609208598
 20
9.1077523201
 30
0.0
 10
11.9586932004
 20
9.1006547649
 30
0.0
 10
11.956528734
 20
9.0932410813
 30
0.0
 10
11.954431866
 20
9.0855269572
 30
0.0
 10
11.9524069015
 20
9.0775287211
 30
0.0
 10
11.9504584493
 20
9.0692631698
 30
0.0
 10
11.9485905211
 20
9.0607477661
 30
0.0
 10
11.9461876176
 20
9.0489630974
 30
0.0
 10
11.9434220797
 20
9.0337403907
 30
0.0
 10
11.9410152101
 20
9.0181930906
 30
0.0
 10
11.9392823206
 20
9.005448946
 30
0.0
 10
11.9376708076
 20
8.9924187138
 30
0.0
 10
11.9359317652
 20
8.9759432436
 30
0.0
 10
11.9342946808
 20
8.9560379186
 30
0.0
 10
11.9331138072
 20
8.9360896234
 30
0.0
 10
11.9323994892
 20
8.9162692201
 30
0.0
 10
11.9322358311
 20
8.9031146309
 30
0.0
 10
11.9322358311
 20
8.8965899077
 30
0.0
  0
SPLINE
  5
2D4
100
AcDbEntity
  8
0
100
AcDbSpline
 62
7
  6
CONTINUOUS
 70
0
 71
3
 72
30
 73
26
 74
0
 42
0.0000001
 43
0.0000001
 44
0.0000000001
 40
0.0
 40
0.0
 40
0.0
 40
0.0
 40
0.0851520629
 40
0.168577058
 40
0.2498910225
 40
0.3287779119
 40
0.4049539435
 40
0.4781412995
 40
0.5480688635
 40
0.6144875948
 40
0.6771766893
 40
0.7070600333
 40
0.7359399449
 40
0.7637969413
 40
0.790612775
 40
0.8163715454
 40
0.8410623707
 40
0.864677167
 40
0.8872103002
 40
0.908659354
 40
0.9290283141
 40
0.9483275138
 40
0.9665726611
 40
0.9837861383
 40
1.0
 40
1.0
 40
1.0
 40
1.0
 10
11.9322358311
 20
8.8965899077
 30
0.0
 10
11.9322358311
 20
8.8920744719
 30
0.0
 10
11.9323130101
 20
8.8831349682
 30
0.0
 10
11.9326657438
 20
8.8698877487
 30
0.0
 10
11.9332537838
 20
8.856981349
 30
0.0
 10
11.9340741198
 20
8.8444727652
 30
0.0
 10
11.935123401
 20
8.8324137098
 30
0.0
 10
11.9363968616
 20
8.8208540046
 30
0.0
 10
11.9378890577
 20
8.8098422283
 30
0.0
 10
11.9395938787
 20
8.7994249729
 30
0.0
 10
11.9412097781
 20
8.7911485963
 30
0.0
 10
11.9426107624
 20
8.7848621407
 30
0.0
 10
11.943693079
 20
8.7803978862
 30
0.0
 10
11.9448225817
 20
8.7761133266
 30
0.0
 10
11.9459981296
 20
8.7720130396
 30
0.0
 10
11.9472186391
 20
8.768101407
 30
0.0
 10
11.9484826748
 20
8.7643824211
 30
0.0
 10
11.9497888602
 20
8.760859848
 30
0.0
 10
11.9511358223
 20
8.7575373814
 30
0.0
 10
11.9525223361
 20
8.7544185992
 30
0.0
 10
11.9539469489
 20
8.7515066845
 30
0.0
 10
11.9554080766
 20
8.748804461
 30
0.0
 10
11.9569042944
 20
8.7463146005
 30
0.0
 10
11.9584341528
 20
8.7440398788
 30
0.0
 10
11.9595070094
 20
8.7426271776
 30
0.0
 10
11.960049537
 20
8.741960171
 30
0.0
  0
SPLINE
  5
2D5
100
AcDbEntity
  8
0
100
AcDbSpline
 62
7
  6
CONTINUOUS
 70
0
 71
3
 72
69
 73
65
 74
0
 42
0.0000001
 43
0.0000001
 44
0.0000000001
 40
0.0
 40
0.0
 40
0.0
 40
0.0
 40
0.0312903904
 40
0.0470006528
 40
0.0627445756
 40
0.0785223279
 40
0.0943340764
 40
0.110178696
 40
0.1260536366
 40
0.1419560695
 40
0.1578832983
 40
0.1738324715
 40
0.1898005575
 40
0.2217715317
 40
0.2377758121
 40
0.2537849262
 40
0.2697951068
 40
0.2858026717
 40
0.3018039038
 40
0.3177951149
 40
0.3337728137
 40
0.3497335585
 40
0.3656740791
 40
0.3815913812
 40
0.3974825997
 40
0.4133451737
 40
0.4291768584
 40
0.4449756206
 40
0.4607398374
 40
0.4764681958
 40
0.4921596776
 40
0.5078137322
 40
0.5234300822
 40
0.5390088225
 40
0.5545505019
 40
0.5700558957
 40
0.585526204
 40
0.6009629954
 40
0.616368028
 40
0.6317434933
 40
0.6470918197
 40
0.6624156028
 40
0.6777178217
 40
0.6930015504
 40
0.7082700017
 40
0.7235266723
 40
0.7387750315
 40
0.7540186351
 40
0.7692612099
 40
0.784506353
 40
0.7997576804
 40
0.8150188192
 40
0.8302931417
 40
0.8455840027
 40
0.860894753
 40
0.8762284425
 40
0.8915878651
 40
0.9069752245
 40
0.9223923275
 40
0.9378418307
 40
0.9533270851
 40
0.9688506846
 40
0.9844102313
 40
1.0
 40
1.0
 40
1.0
 40
1.0
 10
12.3774978897
 20
7.2939943537
 30
0.0
 10
12.3774976974
 20
7.3090213253
 30
0.0
 10
12.3763840796
 20
7.3316128564
 30
0.0
 10
12.3727223034
 20
7.3615298796
 30
0.0
 10
12.3688820306
 20
7.383894908
 30
0.0
 10
12.363965415
 20
7.4060969712
 30
0.0
 10
12.3579837631
 20
7.4280864356
 30
0.0
 10
12.3509526023
 20
7.4498120189
 30
0.0
 10
12.3428912099
 20
7.4712232525
 30
0.0
 10
12.3338172679
 20
7.4922686286
 30
0.0
 10
12.3237542308
 20
7.5128987604
 30
0.0
 10
12.3127270352
 20
7.5330667387
 30
0.0
 10
12.2967687933
 20
7.5592815365
 30
0.0
 10
12.278990005
 20
7.584384125
 30
0.0
 10
12.2595330298
 20
7.6081777083
 30
0.0
 10
12.2441216714
 20
7.6253471922
 30
0.0
 10
12.227935625
 20
7.6417896596
 30
0.0
 10
12.2110115708
 20
7.6574661599
 30
0.0
 10
12.1933909697
 20
7.6723412459
 30
0.0
 10
12.1751139655
 20
7.6863785765
 30
0.0
 10
12.1562232403
 20
7.6995444433
 30
0.0
 10
12.1367640814
 20
7.7118091073
 30
0.0
 10
12.11678079
 20
7.7231412955
 30
0.0
 10
12.0963205675
 20
7.7335142108
 30
0.0
 10
12.0754318126
 20
7.7429038531
 30
0.0
 10
12.0541624592
 20
7.7512848945
 30
0.0
 10
12.0325631191
 20
7.7586380574
 30
0.0
 10
12.0106845664
 20
7.7649452685
 30
0.0
 10
11.9885777626
 20
7.7701881101
 30
0.0
 10
11.9662955256
 20
7.7743551191
 30
0.0
 10
11.9438903883
 20
7.7774343638
 30
0.0
 10
11.9214155051
 20
7.7794154153
 30
0.0
 10
11.8989247261
 20
7.7802945641
 30
0.0
 10
11.8764717673
 20
7.780066449
 30
0.0
 10
11.8541108059
 20
7.7787295418
 30
0.0
 10
11.8318956924
 20
7.7762876938
 30
0.0
 10
11.8098806168
 20
7.7727427398
 30
0.0
 10
11.7881193117
 20
7.7681026248
 30
0.0
 10
11.7666647157
 20
7.7623785178
 30
0.0
 10
11.7455704556
 20
7.7555802504
 30
0.0
 10
11.7248881688
 20
7.7477252788
 30
0.0
 10
11.7046690266
 20
7.7388318252
 30
0.0
 10
11.6849645222
 20
7.7289185781
 30
0.0
 10
11.6658226438
 20
7.7180117991
 30
0.0
 10
11.6472918599
 20
7.7061366117
 30
0.0
 10
11.6294194574
 20
7.6933209974
 30
0.0
 10
11.6122485995
 20
7.6795987386
 30
0.0
 10
11.5958238049
 20
7.6650018316
 30
0.0
 10
11.5801860433
 20
7.6495669933
 30
0.0
 10
11.5653728564
 20
7.633334098
 30
0.0
 10
11.5514232868
 20
7.6163417773
 30
0.0
 10
11.5383703749
 20
7.5986340415
 30
0.0
 10
11.5262455422
 20
7.5802556136
 30
0.0
 10
11.5150805711
 20
7.5612511619
 30
0.0
 10
11.5048999533
 20
7.5416696797
 30
0.0
 10
11.4957286831
 20
7.521559459
 30
0.0
 10
11.4875898038
 20
7.5009702573
 30
0.0
 10
11.4804993398
 20
7.4799547153
 30
0.0
 10
11.4744749748
 20
7.4585642111
 30
0.0
 10
11.4695302535
 20
7.4368505408
 30
0.0
 10
11.4656738524
 20
7.4148656007
 30
0.0
 10
11.4629165069
 20
7.3926626355
 30
0.0
 10
11.4612612984
 20
7.3703007999
 30
0.0
 10
11.4608935934
 20
7.3553389534
 30
0.0
 10
11.4608935046
 20
7.3478520858
 30
0.0
  0
SPLINE
  5
2D6
100
AcDbEntity
  8
0
100
AcDbSpline
 62
7
  6
CONTINUOUS
 70
0
 71
3
 72
65
 73
61
 74
0
 42
0.0000001
 43
0.0000001
 44
0.0000000001
 40
0.0
 40
0.0
 40
0.0
 40
0.0
 40
0.0310480611
 40
0.0464649297
 40
0.061800731
 40
0.0922348386
 40
0.1223994853
 40
0.1373982455
 40
0.1523450299
 40
0.1672467782
 40
0.1821108888
 40
0.1969449792
 40
0.2117572313
 40
0.2265559693
 40
0.2413496102
 40
0.2561467317
 40
0.2709558122
 40
0.285785298
 40
0.3006433284
 40
0.3155375101
 40
0.3304753132
 40
0.3454636469
 40
0.3605084676
 40
0.375615484
 40
0.3907897569
 40
0.4060350815
 40
0.4213548945
 40
0.4367520193
 40
0.4522278892
 40
0.4677834893
 40
0.4834192846
 40
0.4991344067
 40
0.5149274953
 40
0.5307967742
 40
0.5467393053
 40
0.5627516644
 40
0.578830121
 40
0.6111574611
 40
0.6274047431
 40
0.643697115
 40
0.6600282616
 40
0.6763917887
 40
0.7091799725
 40
0.7255990827
 40
0.7420225216
 40
0.7584429775
 40
0.774853285
 40
0.7912463688
 40
0.8076151028
 40
0.8239526467
 40
0.8402526445
 40
0.8565088447
 40
0.8727152748
 40
0.8888661881
 40
0.9049558805
 40
0.9369254242
 40
0.952810249
 40
0.9686226856
 40
0.9843555469
 40
1.0
 40
1.0
 40
1.0
 40
1.0
 10
11.6008935142
 20
7.3478518259
 30
0.0
 10
11.6008937302
 20
7.3582106901
 30
0.0
 10
11.6016535921
 20
7.3737279156
 30
0.0
 10
11.6041978626
 20
7.3941958263
 30
0.0
 10
11.6077322647
 20
7.4143097863
 30
0.0
 10
11.6139997375
 20
7.4389046613
 30
0.0
 10
11.622713759
 20
7.4626248452
 30
0.0
 10
11.631073534
 20
7.4808628985
 30
0.0
 10
11.6380117699
 20
7.4941278771
 30
0.0
 10
11.64561066
 20
7.5069731816
 30
0.0
 10
11.6538515699
 20
7.5193713986
 30
0.0
 10
11.6627163719
 20
7.5312943095
 30
0.0
 10
11.6721837484
 20
7.5427162853
 30
0.0
 10
11.6822315938
 20
7.5536127976
 30
0.0
 10
11.6928384751
 20
7.5639587273
 30
0.0
 10
11.7039803203
 20
7.5737313863
 30
0.0
 10
11.7156318788
 20
7.5829096917
 30
0.0
 10
11.7277684324
 20
7.5914716755
 30
0.0
 10
11.7403631231
 20
7.5993975889
 30
0.0
 10
11.7533875756
 20
7.6066698633
 30
0.0
 10
11.7668137224
 20
7.6132698318
 30
0.0
 10
11.780611743
 20
7.6191808488
 30
0.0
 10
11.7947501341
 20
7.624389295
 30
0.0
 10
11.8091974573
 20
7.6288803532
 30
0.0
 10
11.8239208679
 20
7.6326409944
 30
0.0
 10
11.8388859736
 20
7.6356621718
 30
0.0
 10
11.8540582262
 20
7.6379336741
 30
0.0
 10
11.8694019906
 20
7.6394468086
 30
0.0
 10
11.8848805646
 20
7.6401977617
 30
0.0
 10
11.9004569411
 20
7.6401817037
 30
0.0
 10
11.9160933014
 20
7.6393950396
 30
0.0
 10
11.9317515333
 20
7.6378396921
 30
0.0
 10
11.9473931465
 20
7.6355167877
 30
0.0
 10
11.9629791094
 20
7.6324284129
 30
0.0
 10
11.9784708219
 20
7.62858256
 30
0.0
 10
11.9938300586
 20
7.6239863142
 30
0.0
 10
12.0141120792
 20
7.6168572935
 30
0.0
 10
12.03394371
 20
7.6082766136
 30
0.0
 10
12.053165871
 20
7.5983196114
 30
0.0
 10
12.067287972
 20
7.5901572082
 30
0.0
 10
12.0810525073
 20
7.5813332653
 30
0.0
 10
12.0988890692
 20
7.5687067092
 30
0.0
 10
12.1158653159
 20
7.5548499718
 30
0.0
 10
12.1318462922
 20
7.5398721433
 30
0.0
 10
12.1433191941
 20
7.528094341
 30
0.0
 10
12.1542420544
 20
7.5158092439
 30
0.0
 10
12.1645864382
 20
7.5030460995
 30
0.0
 10
12.174328049
 20
7.4898386523
 30
0.0
 10
12.1834429045
 20
7.4762202581
 30
0.0
 10
12.1919068865
 20
7.4622243262
 30
0.0
 10
12.1997011039
 20
7.4478873802
 30
0.0
 10
12.2068069545
 20
7.4332455823
 30
0.0
 10
12.2132055608
 20
7.4183354132
 30
0.0
 10
12.2188840983
 20
7.403195158
 30
0.0
 10
12.2254632551
 20
7.3828012956
 30
0.0
 10
12.2305740548
 20
7.3620486815
 30
0.0
 10
12.234164403
 20
7.3411062909
 30
0.0
 10
12.2360853863
 20
7.3253920853
 30
0.0
 10
12.2372392361
 20
7.309684295
 30
0.0
 10
12.2374977607
 20
7.2992138042
 30
0.0
 10
12.2374978786
 20
7.2939941943
 30
0.0
  0
SPLINE
  5
2D7
100
AcDbEntity
  8
0
100
AcDbSpline
 62
7
  6
CONTINUOUS
 70
0
 71
3
 72
69
 73
65
 74
0
 42
0.0000001
 43
0.0000001
 44
0.0000000001
 40
0.0
 40
0.0
 40
0.0
 40
0.0
 40
0.0312903911
 40
0.0470006543
 40
0.0627445771
 40
0.0785223289
 40
0.0943340764
 40
0.1101786947
 40
0.126053634
 40
0.1419560655
 40
0.157883293
 40
0.1738324649
 40
0.1898005499
 40
0.2217715222
 40
0.2377758016
 40
0.253784915
 40
0.2697950952
 40
0.2858026601
 40
0.3018038922
 40
0.3177951034
 40
0.333772802
 40
0.3497335464
 40
0.3656740664
 40
0.3815913678
 40
0.3974825851
 40
0.4133451574
 40
0.4291768396
 40
0.4449755982
 40
0.4607398103
 40
0.4764681644
 40
0.4921596439
 40
0.5078136996
 40
0.5234300536
 40
0.5390088005
 40
0.5545504881
 40
0.5700558896
 40
0.5855262037
 40
0.6009629988
 40
0.6163680341
 40
0.631743502
 40
0.6470918309
 40
0.6624156163
 40
0.6777178363
 40
0.6930015641
 40
0.7082700105
 40
0.7235266729
 40
0.7387750246
 40
0.7540186258
 40
0.7692612029
 40
0.7845063491
 40
0.7997576767
 40
0.8150188128
 40
0.8302931311
 40
0.8455839876
 40
0.8608947335
 40
0.876228419
 40
0.8915878381
 40
0.906975194
 40
0.9223922944
 40
0.9378417982
 40
0.9533270585
 40
0.9688506682
 40
0.9844102238
 40
1.0
 40
1.0
 40
1.0
 40
1.0
 10
11.4608935068
 20
7.3478518894
 30
0.0
 10
11.4608936991
 20
7.3328249174
 30
0.0
 10
11.4620073173
 20
7.3102333857
 30
0.0
 10
11.4656690933
 20
7.2803163617
 30
0.0
 10
11.4695093662
 20
7.2579513332
 30
0.0
 10
11.4744259817
 20
7.2357492708
 30
0.0
 10
11.4804076333
 20
7.2137598077
 30
0.0
 10
11.4874387934
 20
7.192034226
 30
0.0
 10
11.495500185
 20
7.1706229941
 30
0.0
 10
11.5045741262
 20
7.1495776198
 30
0.0
 10
11.5146371618
 20
7.1289474895
 30
0.0
 10
11.5256643564
 20
7.1087795127
 30
0.0
 10
11.5416225969
 20
7.0825647163
 30
0.0
 10
11.5594013833
 20
7.0574621288
 30
0.0
 10
11.5788583568
 20
7.0336685464
 30
0.0
 10
11.5942697136
 20
7.0164990623
 30
0.0
 10
11.6104557596
 20
7.0000565953
 30
0.0
 10
11.627379813
 20
6.9843800944
 30
0.0
 10
11.6450004132
 20
6.9695050074
 30
0.0
 10
11.6632774174
 20
6.9554676768
 30
0.0
 10
11.6821681416
 20
6.9423018092
 30
0.0
 10
11.7016272994
 20
6.9300371446
 30
0.0
 10
11.7216105901
 20
6.9187049567
 30
0.0
 10
11.7420708108
 20
6.9083320406
 30
0.0
 10
11.7629595637
 20
6.898942398
 30
0.0
 10
11.7842289146
 20
6.8905613574
 30
0.0
 10
11.8058282505
 20
6.8832081935
 30
0.0
 10
11.8277067979
 20
6.8769009831
 30
0.0
 10
11.8498135954
 20
6.8716581412
 30
0.0
 10
11.8720958263
 20
6.8674911294
 30
0.0
 10
11.8945009611
 20
6.8644118854
 30
0.0
 10
11.9169758454
 20
6.8624308313
 30
0.0
 10
11.9394666298
 20
6.8615516781
 30
0.0
 10
11.9619195976
 20
6.8617797937
 30
0.0
 10
11.9842805698
 20
6.8631167003
 30
0.0
 10
12.0064956939
 20
6.8655585475
 30
0.0
 10
12.0285107777
 20
6.8691035025
 30
0.0
 10
12.0502720885
 20
6.873743619
 30
0.0
 10
12.0717266886
 20
6.8794677274
 30
0.0
 10
12.0928209522
 20
6.8862659963
 30
0.0
 10
12.1135032418
 20
6.8941209704
 30
0.0
 10
12.1337223865
 20
6.9030144252
 30
0.0
 10
12.1534268913
 20
6.9129276741
 30
0.0
 10
12.1725687667
 20
6.9238344538
 30
0.0
 10
12.1910995455
 20
6.9357096366
 30
0.0
 10
12.2089719406
 20
6.9485252443
 30
0.0
 10
12.2261427914
 20
6.9622474981
 30
0.0
 10
12.2425675819
 20
6.9768444042
 30
0.0
 10
12.258205345
 20
6.992279243
 30
0.0
 10
12.273018535
 20
7.008512139
 30
0.0
 10
12.2869681055
 20
7.0255044594
 30
0.0
 10
12.3000210161
 20
7.0432121921
 30
0.0
 10
12.3121458455
 20
7.0615906157
 30
0.0
 10
12.3233108141
 20
7.0805950613
 30
0.0
 10
12.3334914314
 20
7.1001765368
 30
0.0
 10
12.3426626988
 20
7.1202867524
 30
0.0
 10
12.3508015787
 20
7.1408759482
 30
0.0
 10
12.3578920449
 20
7.1618914847
 30
0.0
 10
12.3639164095
 20
7.1832819863
 30
0.0
 10
12.3688611349
 20
7.2049956575
 30
0.0
 10
12.3727175394
 20
7.2269806052
 30
0.0
 10
12.3754748846
 20
7.2491835825
 30
0.0
 10
12.3771300967
 20
7.2715454306
 30
0.0
 10
12.377497803
 20
7.2865072849
 30
0.0
 10
12.3774978919
 20
7.2939941562
 30
0.0
  0
SPLINE
  5
2D8
100
AcDbEntity
  8
0
100
AcDbSpline
 62
7
  6
CONTINUOUS
 70
0
 71
3
 72
65
 73
61
 74
0
 42
0.0000001
 43
0.0000001
 44
0.0000000001
 40
0.0
 40
0.0
 40
0.0
 40
0.0
 40
0.0310480609
 40
0.0464649293
 40
0.0618007306
 40
0.0922348384
 40
0.1223994854
 40
0.1373982457
 40
0.1523450303
 40
0.1672467788
 40
0.1821108896
 40
0.1969449801
 40
0.2117572324
 40
0.2265559705
 40
0.2413496115
 40
0.2561467331
 40
0.2709558136
 40
0.2857852993
 40
0.3006433297
 40
0.3155375112
 40
0.3304753141
 40
0.3454636475
 40
0.3605084679
 40
0.3756154841
 40
0.3907897567
 40
0.4060350812
 40
0.4213548941
 40
0.4367520191
 40
0.4522278894
 40
0.4677834902
 40
0.4834192865
 40
0.4991344099
 40
0.5149274995
 40
0.5307967793
 40
0.5467393109
 40
0.5627516699
 40
0.5788301256
 40
0.6111574632
 40
0.6274047439
 40
0.6436971146
 40
0.6600282604
 40
0.676391787
 40
0.7091799709
 40
0.7255990813
 40
0.7420225206
 40
0.7584429769
 40
0.7748532848
 40
0.7912463688
 40
0.8076151029
 40
0.8239526465
 40
0.8402526437
 40
0.8565088432
 40
0.8727152724
 40
0.8888661846
 40
0.9049558761
 40
0.9369254192
 40
0.9528102449
 40
0.9686226826
 40
0.984355545
 40
1.0
 40
1.0
 40
1.0
 40
1.0
 10
12.2374978823
 20
7.293994417
 30
0.0
 10
12.2374976663
 20
7.2836355529
 30
0.0
 10
12.2367378045
 20
7.2681183275
 30
0.0
 10
12.2341935339
 20
7.2476504169
 30
0.0
 10
12.2306591318
 20
7.227536457
 30
0.0
 10
12.2243916591
 20
7.2029415818
 30
0.0
 10
12.2156776375
 20
7.1792213977
 30
0.0
 10
12.2073178624
 20
7.1609833443
 30
0.0
 10
12.2003796264
 20
7.1477183655
 30
0.0
 10
12.1927807362
 20
7.1348730608
 30
0.0
 10
12.1845398262
 20
7.1224748437
 30
0.0
 10
12.1756750241
 20
7.1105519327
 30
0.0
 10
12.1662076474
 20
7.0991299568
 30
0.0
 10
12.1561598018
 20
7.0882334445
 30
0.0
 10
12.1455529205
 20
7.0778875147
 30
0.0
 10
12.1344110752
 20
7.0681148558
 30
0.0
 10
12.1227595166
 20
7.0589365505
 30
0.0
 10
12.110622963
 20
7.0503745666
 30
0.0
 10
12.0980282724
 20
7.0424486534
 30
0.0
 10
12.08500382
 20
7.0351763792
 30
0.0
 10
12.0715776734
 20
7.0285764108
 30
0.0
 10
12.057779653
 20
7.0226653939
 30
0.0
 10
12.0436412622
 20
7.0174569479
 30
0.0
 10
12.0291939393
 20
7.0129658897
 30
0.0
 10
12.0144705289
 20
7.0092052486
 30
0.0
 10
11.9995054233
 20
7.0061840712
 30
0.0
 10
11.9843331707
 20
7.0039125689
 30
0.0
 10
11.9689894062
 20
7.0023994343
 30
0.0
 10
11.9535108317
 20
7.0016484812
 30
0.0
 10
11.9379344545
 20
7.0016645392
 30
0.0
 10
11.9222980932
 20
7.0024512035
 30
0.0
 10
11.9066398602
 20
7.0040065513
 30
0.0
 10
11.890998246
 20
7.0063294558
 30
0.0
 10
11.8754122824
 20
7.0094178311
 30
0.0
 10
11.8599205697
 20
7.0132636845
 30
0.0
 10
11.8445613331
 20
7.0178599303
 30
0.0
 10
11.8242793136
 20
7.0249889506
 30
0.0
 10
11.8044476845
 20
7.0335696304
 30
0.0
 10
11.7852255249
 20
7.0435266318
 30
0.0
 10
11.7711034249
 20
7.0516890344
 30
0.0
 10
11.7573388903
 20
7.0605129769
 30
0.0
 10
11.7395023286
 20
7.0731395328
 30
0.0
 10
11.7225260819
 20
7.0869962699
 30
0.0
 10
11.7065451054
 20
7.1019740986
 30
0.0
 10
11.6950722032
 20
7.1137519011
 30
0.0
 10
11.6841493426
 20
7.1260369984
 30
0.0
 10
11.6738049586
 20
7.1388001431
 30
0.0
 10
11.6640633476
 20
7.1520075904
 30
0.0
 10
11.6549484921
 20
7.1656259846
 30
0.0
 10
11.6464845102
 20
7.1796219163
 30
0.0
 10
11.6386902931
 20
7.1939588617
 30
0.0
 10
11.6315844428
 20
7.208600659
 30
0.0
 10
11.6251858367
 20
7.2235108272
 30
0.0
 10
11.6195072992
 20
7.2386510813
 30
0.0
 10
11.6129281427
 20
7.2590449429
 30
0.0
 10
11.6078173425
 20
7.2797975567
 30
0.0
 10
11.6042269941
 20
7.3007399477
 30
0.0
 10
11.6023060109
 20
7.3164541544
 30
0.0
 10
11.6011521606
 20
7.332161946
 30
0.0
 10
11.6008936358
 20
7.3426324378
 30
0.0
 10
11.6008935179
 20
7.3478520483
 30
0.0
  0
SPLINE
  5
2D9
100
AcDbEntity
  8
0
100
AcDbSpline
 62
7
  6
CONTINUOUS
 70
0
 71
3
 72
69
 73
65
 74
0
 42
0.0000001
 43
0.0000001
 44
0.0000000001
 40
0.0
 40
0.0
 40
0.0
 40
0.0
 40
0.0312903904
 40
0.0470006528
 40
0.0627445756
 40
0.0785223279
 40
0.0943340764
 40
0.110178696
 40
0.1260536366
 40
0.1419560695
 40
0.1578832983
 40
0.1738324715
 40
0.1898005575
 40
0.2217715317
 40
0.2377758121
 40
0.2537849262
 40
0.2697951068
 40
0.2858026717
 40
0.3018039038
 40
0.3177951149
 40
0.3337728137
 40
0.3497335585
 40
0.3656740791
 40
0.3815913812
 40
0.3974825997
 40
0.4133451737
 40
0.4291768584
 40
0.4449756206
 40
0.4607398374
 40
0.4764681958
 40
0.4921596776
 40
0.5078137322
 40
0.5234300822
 40
0.5390088225
 40
0.5545505019
 40
0.5700558957
 40
0.585526204
 40
0.6009629954
 40
0.616368028
 40
0.6317434933
 40
0.6470918197
 40
0.6624156028
 40
0.6777178217
 40
0.6930015504
 40
0.7082700017
 40
0.7235266723
 40
0.7387750315
 40
0.7540186351
 40
0.7692612099
 40
0.784506353
 40
0.7997576804
 40
0.8150188192
 40
0.8302931417
 40
0.8455840027
 40
0.860894753
 40
0.8762284425
 40
0.8915878651
 40
0.9069752245
 40
0.9223923275
 40
0.9378418307
 40
0.9533270851
 40
0.9688506846
 40
0.9844102313
 40
1.0
 40
1.0
 40
1.0
 40
1.0
 10
11.7129409169
 20
8.1321407539
 30
0.0
 10
11.7129407246
 20
8.1471677255
 30
0.0
 10
11.7118271067
 20
8.1697592565
 30
0.0
 10
11.7081653305
 20
8.1996762798
 30
0.0
 10
11.7043250577
 20
8.2220413082
 30
0.0
 10
11.6994084422
 20
8.2442433714
 30
0.0
 10
11.6934267902
 20
8.2662328358
 30
0.0
 10
11.6863956294
 20
8.287958419
 30
0.0
 10
11.678334237
 20
8.3093696527
 30
0.0
 10
11.6692602951
 20
8.3304150288
 30
0.0
 10
11.659197258
 20
8.3510451606
 30
0.0
 10
11.6481700624
 20
8.3712131388
 30
0.0
 10
11.6322118205
 20
8.3974279367
 30
0.0
 10
11.6144330321
 20
8.4225305252
 30
0.0
 10
11.594976057
 20
8.4463241085
 30
0.0
 10
11.5795646986
 20
8.4634935923
 30
0.0
 10
11.5633786521
 20
8.4799360598
 30
0.0
 10
11.5464545979
 20
8.4956125601
 30
0.0
 10
11.5288339968
 20
8.5104876461
 30
0.0
 10
11.5105569926
 20
8.5245249767
 30
0.0
 10
11.4916662675
 20
8.5376908435
 30
0.0
 10
11.4722071086
 20
8.5499555075
 30
0.0
 10
11.4522238172
 20
8.5612876957
 30
0.0
 10
11.4317635947
 20
8.5716606109
 30
0.0
 10
11.4108748398
 20
8.5810502533
 30
0.0
 10
11.3896054863
 20
8.5894312947
 30
0.0
 10
11.3680061462
 20
8.5967844576
 30
0.0
 10
11.3461275936
 20
8.6030916687
 30
0.0
 10
11.3240207897
 20
8.6083345102
 30
0.0
 10
11.3017385528
 20
8.6125015193
 30
0.0
 10
11.2793334154
 20
8.615580764
 30
0.0
 10
11.2568585322
 20
8.6175618155
 30
0.0
 10
11.2343677533
 20
8.6184409643
 30
0.0
 10
11.2119147944
 20
8.6182128492
 30
0.0
 10
11.189553833
 20
8.616875942
 30
0.0
 10
11.1673387196
 20
8.614434094
 30
0.0
 10
11.145323644
 20
8.61088914
 30
0.0
 10
11.1235623388
 20
8.606249025
 30
0.0
 10
11.1021077428
 20
8.600524918
 30
0.0
 10
11.0810134827
 20
8.5937266506
 30
0.0
 10
11.0603311959
 20
8.585871679
 30
0.0
 10
11.0401120538
 20
8.5769782253
 30
0.0
 10
11.0204075493
 20
8.5670649783
 30
0.0
 10
11.0012656709
 20
8.5561581993
 30
0.0
 10
10.9827348871
 20
8.5442830119
 30
0.0
 10
10.9648624846
 20
8.5314673976
 30
0.0
 10
10.9476916266
 20
8.5177451388
 30
0.0
 10
10.9312668321
 20
8.5031482318
 30
0.0
 10
10.9156290704
 20
8.4877133935
 30
0.0
 10
10.9008158836
 20
8.4714804982
 30
0.0
 10
10.8868663139
 20
8.4544881774
 30
0.0
 10
10.873813402
 20
8.4367804417
 30
0.0
 10
10.8616885693
 20
8.4184020137
 30
0.0
 10
10.8505235983
 20
8.3993975621
 30
0.0
 10
10.8403429805
 20
8.3798160799
 30
0.0
 10
10.8311717103
 20
8.3597058592
 30
0.0
 10
10.8230328309
 20
8.3391166575
 30
0.0
 10
10.815942367
 20
8.3181011154
 30
0.0
 10
10.8099180019
 20
8.2967106113
 30
0.0
 10
10.8049732806
 20
8.2749969409
 30
0.0
 10
10.8011168796
 20
8.2530120009
 30
0.0
 10
10.7983595341
 20
8.2308090356
 30
0.0
 10
10.7967043255
 20
8.2084472001
 30
0.0
 10
10.7963366205
 20
8.1934853536
 30
0.0
 10
10.7963365318
 20
8.185998486
 30
0.0
  0
SPLINE
  5
2DA
100
AcDbEntity
  8
0
100
AcDbSpline
 62
7
  6
CONTINUOUS
 70
0
 71
3
 72
65
 73
61
 74
0
 42
0.0000001
 43
0.0000001
 44
0.0000000001
 40
0.0
 40
0.0
 40
0.0
 40
0.0
 40
0.0310480611
 40
0.0464649297
 40
0.061800731
 40
0.0922348386
 40
0.1223994853
 40
0.1373982455
 40
0.1523450299
 40
0.1672467782
 40
0.1821108888
 40
0.1969449792
 40
0.2117572313
 40
0.2265559693
 40
0.2413496102
 40
0.2561467317
 40
0.2709558122
 40
0.285785298
 40
0.3006433284
 40
0.3155375101
 40
0.3304753132
 40
0.3454636469
 40
0.3605084676
 40
0.375615484
 40
0.3907897569
 40
0.4060350815
 40
0.4213548945
 40
0.4367520193
 40
0.4522278892
 40
0.4677834893
 40
0.4834192846
 40
0.4991344067
 40
0.5149274953
 40
0.5307967742
 40
0.5467393053
 40
0.5627516644
 40
0.578830121
 40
0.6111574611
 40
0.6274047431
 40
0.643697115
 40
0.6600282616
 40
0.6763917887
 40
0.7091799725
 40
0.7255990827
 40
0.7420225216
 40
0.7584429775
 40
0.774853285
 40
0.7912463688
 40
0.8076151028
 40
0.8239526467
 40
0.8402526445
 40
0.8565088447
 40
0.8727152748
 40
0.8888661881
 40
0.9049558805
 40
0.9369254242
 40
0.952810249
 40
0.9686226856
 40
0.9843555469
 40
1.0
 40
1.0
 40
1.0
 40
1.0
 10
10.9363365413
 20
8.1859982261
 30
0.0
 10
10.9363367573
 20
8.1963570903
 30
0.0
 10
10.9370966192
 20
8.2118743158
 30
0.0
 10
10.9396408898
 20
8.2323422265
 30
0.0
 10
10.9431752919
 20
8.2524561865
 30
0.0
 10
10.9494427646
 20
8.2770510615
 30
0.0
 10
10.9581567862
 20
8.3007712454
 30
0.0
 10
10.9665165612
 20
8.3190092986
 30
0.0
 10
10.9734547971
 20
8.3322742773
 30
0.0
 10
10.9810536871
 20
8.3451195818
 30
0.0
 10
10.989294597
 20
8.3575177988
 30
0.0
 10
10.998159399
 20
8.3694407097
 30
0.0
 10
11.0076267756
 20
8.3808626855
 30
0.0
 10
11.017674621
 20
8.3917591977
 30
0.0
 10
11.0282815023
 20
8.4021051275
 30
0.0
 10
11.0394233475
 20
8.4118777865
 30
0.0
 10
11.0510749059
 20
8.4210560919
 30
0.0
 10
11.0632114596
 20
8.4296180757
 30
0.0
 10
11.0758061502
 20
8.4375439891
 30
0.0
 10
11.0888306028
 20
8.4448162634
 30
0.0
 10
11.1022567496
 20
8.451416232
 30
0.0
 10
11.1160547702
 20
8.457327249
 30
0.0
 10
11.1301931613
 20
8.4625356952
 30
0.0
 10
11.1446404844
 20
8.4670267534
 30
0.0
 10
11.159363895
 20
8.4707873945
 30
0.0
 10
11.1743290007
 20
8.473808572
 30
0.0
 10
11.1895012534
 20
8.4760800743
 30
0.0
 10
11.2048450177
 20
8.4775932088
 30
0.0
 10
11.2203235918
 20
8.4783441619
 30
0.0
 10
11.2358999682
 20
8.4783281039
 30
0.0
 10
11.2515363286
 20
8.4775414398
 30
0.0
 10
11.2671945605
 20
8.4759860923
 30
0.0
 10
11.2828361737
 20
8.4736631879
 30
0.0
 10
11.2984221365
 20
8.470574813
 30
0.0
 10
11.313913849
 20
8.4667289601
 30
0.0
 10
11.3292730857
 20
8.4621327143
 30
0.0
 10
11.3495551063
 20
8.4550036937
 30
0.0
 10
11.3693867371
 20
8.4464230138
 30
0.0
 10
11.3886088981
 20
8.4364660115
 30
0.0
 10
11.4027309991
 20
8.4283036084
 30
0.0
 10
11.4164955344
 20
8.4194796655
 30
0.0
 10
11.4343320964
 20
8.4068531093
 30
0.0
 10
11.451308343
 20
8.392996372
 30
0.0
 10
11.4672893194
 20
8.3780185435
 30
0.0
 10
11.4787622212
 20
8.3662407412
 30
0.0
 10
11.4896850815
 20
8.3539556441
 30
0.0
 10
11.5000294654
 20
8.3411924997
 30
0.0
 10
11.5097710762
 20
8.3279850525
 30
0.0
 10
11.5188859316
 20
8.3143666583
 30
0.0
 10
11.5273499137
 20
8.3003707263
 30
0.0
 10
11.535144131
 20
8.2860337804
 30
0.0
 10
11.5422499817
 20
8.2713919825
 30
0.0
 10
11.5486485879
 20
8.2564818134
 30
0.0
 10
11.5543271255
 20
8.2413415582
 30
0.0
 10
11.5609062822
 20
8.2209476958
 30
0.0
 10
11.566017082
 20
8.2001950817
 30
0.0
 10
11.5696074302
 20
8.1792526911
 30
0.0
 10
11.5715284134
 20
8.1635384854
 30
0.0
 10
11.5726822632
 20
8.1478306951
 30
0.0
 10
11.5729407879
 20
8.1373602043
 30
0.0
 10
11.5729409058
 20
8.1321405945
 30
0.0
  0
SPLINE
  5
2DB
100
AcDbEntity
  8
0
100
AcDbSpline
 62
7
  6
CONTINUOUS
 70
0
 71
3
 72
69
 73
65
 74
0
 42
0.0000001
 43
0.0000001
 44
0.0000000001
 40
0.0
 40
0.0
 40
0.0
 40
0.0
 40
0.0312903911
 40
0.0470006543
 40
0.0627445771
 40
0.0785223289
 40
0.0943340764
 40
0.1101786947
 40
0.126053634
 40
0.1419560655
 40
0.157883293
 40
0.1738324649
 40
0.1898005499
 40
0.2217715222
 40
0.2377758016
 40
0.253784915
 40
0.2697950952
 40
0.2858026601
 40
0.3018038922
 40
0.3177951034
 40
0.333772802
 40
0.3497335464
 40
0.3656740664
 40
0.3815913678
 40
0.3974825851
 40
0.4133451574
 40
0.4291768396
 40
0.4449755982
 40
0.4607398103
 40
0.4764681644
 40
0.4921596439
 40
0.5078136996
 40
0.5234300536
 40
0.5390088005
 40
0.5545504881
 40
0.5700558896
 40
0.5855262037
 40
0.6009629988
 40
0.6163680341
 40
0.631743502
 40
0.6470918309
 40
0.6624156163
 40
0.6777178363
 40
0.6930015641
 40
0.7082700105
 40
0.7235266729
 40
0.7387750246
 40
0.7540186258
 40
0.7692612029
 40
0.7845063491
 40
0.7997576767
 40
0.8150188128
 40
0.8302931311
 40
0.8455839876
 40
0.8608947335
 40
0.876228419
 40
0.8915878381
 40
0.906975194
 40
0.9223922944
 40
0.9378417982
 40
0.9533270585
 40
0.9688506682
 40
0.9844102238
 40
1.0
 40
1.0
 40
1.0
 40
1.0
 10
10.7963365339
 20
8.1859982895
 30
0.0
 10
10.7963367262
 20
8.1709713176
 30
0.0
 10
10.7974503444
 20
8.1483797859
 30
0.0
 10
10.8011121204
 20
8.1184627619
 30
0.0
 10
10.8049523933
 20
8.0960977334
 30
0.0
 10
10.8098690089
 20
8.073895671
 30
0.0
 10
10.8158506605
 20
8.0519062079
 30
0.0
 10
10.8228818206
 20
8.0301806262
 30
0.0
 10
10.8309432122
 20
8.0087693943
 30
0.0
 10
10.8400171533
 20
7.98772402
 30
0.0
 10
10.850080189
 20
7.9670938896
 30
0.0
 10
10.8611073835
 20
7.9469259128
 30
0.0
 10
10.877065624
 20
7.9207111165
 30
0.0
 10
10.8948444104
 20
7.8956085289
 30
0.0
 10
10.914301384
 20
7.8718149465
 30
0.0
 10
10.9297127407
 20
7.8546454625
 30
0.0
 10
10.9458987867
 20
7.8382029955
 30
0.0
 10
10.9628228401
 20
7.8225264946
 30
0.0
 10
10.9804434404
 20
7.8076514076
 30
0.0
 10
10.9987204445
 20
7.793614077
 30
0.0
 10
11.0176111687
 20
7.7804482094
 30
0.0
 10
11.0370703266
 20
7.7681835447
 30
0.0
 10
11.0570536173
 20
7.7568513569
 30
0.0
 10
11.0775138379
 20
7.7464784407
 30
0.0
 10
11.0984025909
 20
7.7370887982
 30
0.0
 10
11.1196719418
 20
7.7287077576
 30
0.0
 10
11.1412712776
 20
7.7213545937
 30
0.0
 10
11.1631498251
 20
7.7150473833
 30
0.0
 10
11.1852566225
 20
7.7098045414
 30
0.0
 10
11.2075388534
 20
7.7056375296
 30
0.0
 10
11.2299439883
 20
7.7025582856
 30
0.0
 10
11.2524188725
 20
7.7005772314
 30
0.0
 10
11.2749096569
 20
7.6996980782
 30
0.0
 10
11.2973626248
 20
7.6999261939
 30
0.0
 10
11.319723597
 20
7.7012631004
 30
0.0
 10
11.341938721
 20
7.7037049477
 30
0.0
 10
11.3639538049
 20
7.7072499027
 30
0.0
 10
11.3857151157
 20
7.7118900191
 30
0.0
 10
11.4071697158
 20
7.7176141276
 30
0.0
 10
11.4282639793
 20
7.7244123965
 30
0.0
 10
11.4489462689
 20
7.7322673705
 30
0.0
 10
11.4691654137
 20
7.7411608254
 30
0.0
 10
11.4888699185
 20
7.7510740743
 30
0.0
 10
11.5080117939
 20
7.761980854
 30
0.0
 10
11.5265425726
 20
7.7738560367
 30
0.0
 10
11.5444149678
 20
7.7866716444
 30
0.0
 10
11.5615858186
 20
7.8003938983
 30
0.0
 10
11.5780106091
 20
7.8149908044
 30
0.0
 10
11.5936483721
 20
7.8304256432
 30
0.0
 10
11.6084615621
 20
7.8466585392
 30
0.0
 10
11.6224111326
 20
7.8636508596
 30
0.0
 10
11.6354640433
 20
7.8813585923
 30
0.0
 10
11.6475888726
 20
7.8997370159
 30
0.0
 10
11.6587538413
 20
7.9187414615
 30
0.0
 10
11.6689344585
 20
7.938322937
 30
0.0
 10
11.678105726
 20
7.9584331526
 30
0.0
 10
11.6862446059
 20
7.9790223484
 30
0.0
 10
11.693335072
 20
8.0000378849
 30
0.0
 10
11.6993594367
 20
8.0214283865
 30
0.0
 10
11.7043041621
 20
8.0431420577
 30
0.0
 10
11.7081605665
 20
8.0651270054
 30
0.0
 10
11.7109179117
 20
8.0873299827
 30
0.0
 10
11.7125731238
 20
8.1096918307
 30
0.0
 10
11.7129408302
 20
8.1246536851
 30
0.0
 10
11.712940919
 20
8.1321405564
 30
0.0
  0
SPLINE
  5
2DC
100
AcDbEntity
  8
0
100
AcDbSpline
 62
7
  6
CONTINUOUS
 70
0
 71
3
 72
65
 73
61
 74
0
 42
0.0000001
 43
0.0000001
 44
0.0000000001
 40
0.0
 40
0.0
 40
0.0
 40
0.0
 40
0.0310480609
 40
0.0464649293
 40
0.0618007306
 40
0.0922348384
 40
0.1223994854
 40
0.1373982457
 40
0.1523450303
 40
0.1672467788
 40
0.1821108896
 40
0.1969449801
 40
0.2117572324
 40
0.2265559705
 40
0.2413496115
 40
0.2561467331
 40
0.2709558136
 40
0.2857852993
 40
0.3006433297
 40
0.3155375112
 40
0.3304753141
 40
0.3454636475
 40
0.3605084679
 40
0.3756154841
 40
0.3907897567
 40
0.4060350812
 40
0.4213548941
 40
0.4367520191
 40
0.4522278894
 40
0.4677834902
 40
0.4834192865
 40
0.4991344099
 40
0.5149274995
 40
0.5307967793
 40
0.5467393109
 40
0.5627516699
 40
0.5788301256
 40
0.6111574632
 40
0.6274047439
 40
0.6436971146
 40
0.6600282604
 40
0.676391787
 40
0.7091799709
 40
0.7255990813
 40
0.7420225206
 40
0.7584429769
 40
0.7748532848
 40
0.7912463688
 40
0.8076151029
 40
0.8239526465
 40
0.8402526437
 40
0.8565088432
 40
0.8727152724
 40
0.8888661846
 40
0.9049558761
 40
0.9369254192
 40
0.9528102449
 40
0.9686226826
 40
0.984355545
 40
1.0
 40
1.0
 40
1.0
 40
1.0
 10
11.5729409095
 20
8.1321408172
 30
0.0
 10
11.5729406935
 20
8.121781953
 30
0.0
 10
11.5721808317
 20
8.1062647276
 30
0.0
 10
11.5696365611
 20
8.0857968171
 30
0.0
 10
11.566102159
 20
8.0656828571
 30
0.0
 10
11.5598346862
 20
8.041087982
 30
0.0
 10
11.5511206646
 20
8.0173677979
 30
0.0
 10
11.5427608895
 20
7.9991297444
 30
0.0
 10
11.5358226535
 20
7.9858647657
 30
0.0
 10
11.5282237634
 20
7.973019461
 30
0.0
 10
11.5199828533
 20
7.9606212439
 30
0.0
 10
11.5111180512
 20
7.9486983328
 30
0.0
 10
11.5016506745
 20
7.937276357
 30
0.0
 10
11.491602829
 20
7.9263798447
 30
0.0
 10
11.4809959476
 20
7.9160339149
 30
0.0
 10
11.4698541023
 20
7.906261256
 30
0.0
 10
11.4582025438
 20
7.8970829506
 30
0.0
 10
11.4460659902
 20
7.8885209668
 30
0.0
 10
11.4334712996
 20
7.8805950536
 30
0.0
 10
11.4204468471
 20
7.8733227794
 30
0.0
 10
11.4070207005
 20
7.8667228109
 30
0.0
 10
11.3932226801
 20
7.860811794
 30
0.0
 10
11.3790842893
 20
7.855603348
 30
0.0
 10
11.3646369664
 20
7.8511122899
 30
0.0
 10
11.349913556
 20
7.8473516488
 30
0.0
 10
11.3349484505
 20
7.8443304713
 30
0.0
 10
11.3197761978
 20
7.8420589691
 30
0.0
 10
11.3044324333
 20
7.8405458345
 30
0.0
 10
11.2889538588
 20
7.8397948814
 30
0.0
 10
11.2733774817
 20
7.8398109394
 30
0.0
 10
11.2577411204
 20
7.8405976037
 30
0.0
 10
11.2420828874
 20
7.8421529515
 30
0.0
 10
11.2264412731
 20
7.844475856
 30
0.0
 10
11.2108553096
 20
7.8475642312
 30
0.0
 10
11.1953635968
 20
7.8514100847
 30
0.0
 10
11.1800043603
 20
7.8560063305
 30
0.0
 10
11.1597223407
 20
7.8631353508
 30
0.0
 10
11.1398907116
 20
7.8717160306
 30
0.0
 10
11.120668552
 20
7.881673032
 30
0.0
 10
11.106546452
 20
7.8898354346
 30
0.0
 10
11.0927819174
 20
7.8986593771
 30
0.0
 10
11.0749453558
 20
7.9112859329
 30
0.0
 10
11.0579691091
 20
7.9251426701
 30
0.0
 10
11.0419881325
 20
7.9401204988
 30
0.0
 10
11.0305152304
 20
7.9518983012
 30
0.0
 10
11.0195923698
 20
7.9641833986
 30
0.0
 10
11.0092479857
 20
7.9769465433
 30
0.0
 10
10.9995063748
 20
7.9901539906
 30
0.0
 10
10.9903915193
 20
8.0037723848
 30
0.0
 10
10.9819275374
 20
8.0177683165
 30
0.0
 10
10.9741333202
 20
8.0321052619
 30
0.0
 10
10.9670274699
 20
8.0467470592
 30
0.0
 10
10.9606288639
 20
8.0616572274
 30
0.0
 10
10.9549503264
 20
8.0767974815
 30
0.0
 10
10.9483711698
 20
8.0971913431
 30
0.0
 10
10.9432603697
 20
8.1179439568
 30
0.0
 10
10.9396700213
 20
8.1388863479
 30
0.0
 10
10.937749038
 20
8.1546005545
 30
0.0
 10
10.9365951877
 20
8.1703083462
 30
0.0
 10
10.9363366629
 20
8.180778838
 30
0.0
 10
10.936336545
 20
8.1859984485
 30
0.0
  0
SPLINE
  5
2DD
100
AcDbEntity
  8
0
100
AcDbSpline
 62
7
  6
CONTINUOUS
 70
0
 71
3
 72
69
 73
65
 74
0
 42
0.0000001
 43
0.0000001
 44
0.0000000001
 40
0.0
 40
0.0
 40
0.0
 40
0.0
 40
0.0312903904
 40
0.0470006528
 40
0.0627445756
 40
0.0785223279
 40
0.0943340764
 40
0.110178696
 40
0.1260536366
 40
0.1419560695
 40
0.1578832983
 40
0.1738324715
 40
0.1898005575
 40
0.2217715317
 40
0.2377758121
 40
0.2537849262
 40
0.2697951068
 40
0.2858026717
 40
0.3018039038
 40
0.3177951149
 40
0.3337728137
 40
0.3497335585
 40
0.3656740791
 40
0.3815913812
 40
0.3974825997
 40
0.4133451737
 40
0.4291768584
 40
0.4449756206
 40
0.4607398374
 40
0.4764681958
 40
0.4921596776
 40
0.5078137322
 40
0.5234300822
 40
0.5390088225
 40
0.5545505019
 40
0.5700558957
 40
0.585526204
 40
0.6009629954
 40
0.616368028
 40
0.6317434933
 40
0.6470918197
 40
0.6624156028
 40
0.6777178217
 40
0.6930015504
 40
0.7082700017
 40
0.7235266723
 40
0.7387750315
 40
0.7540186351
 40
0.7692612099
 40
0.784506353
 40
0.7997576804
 40
0.8150188192
 40
0.8302931417
 40
0.8455840027
 40
0.860894753
 40
0.8762284425
 40
0.8915878651
 40
0.9069752245
 40
0.9223923275
 40
0.9378418307
 40
0.9533270851
 40
0.9688506846
 40
0.9844102313
 40
1.0
 40
1.0
 40
1.0
 40
1.0
 10
13.0420549777
 20
8.0399663807
 30
0.0
 10
13.0420547854
 20
8.0549933523
 30
0.0
 10
13.0409411676
 20
8.0775848833
 30
0.0
 10
13.0372793914
 20
8.1075019066
 30
0.0
 10
13.0334391186
 20
8.129866935
 30
0.0
 10
13.028522503
 20
8.1520689982
 30
0.0
 10
13.0225408511
 20
8.1740584626
 30
0.0
 10
13.0155096903
 20
8.1957840459
 30
0.0
 10
13.0074482979
 20
8.2171952795
 30
0.0
 10
12.9983743559
 20
8.2382406556
 30
0.0
 10
12.9883113189
 20
8.2588707874
 30
0.0
 10
12.9772841232
 20
8.2790387657
 30
0.0
 10
12.9613258813
 20
8.3052535635
 30
0.0
 10
12.943547093
 20
8.330356152
 30
0.0
 10
12.9240901178
 20
8.3541497353
 30
0.0
 10
12.9086787594
 20
8.3713192191
 30
0.0
 10
12.892492713
 20
8.3877616866
 30
0.0
 10
12.8755686588
 20
8.4034381869
 30
0.0
 10
12.8579480577
 20
8.4183132729
 30
0.0
 10
12.8396710535
 20
8.4323506035
 30
0.0
 10
12.8207803284
 20
8.4455164703
 30
0.0
 10
12.8013211694
 20
8.4577811343
 30
0.0
 10
12.781337878
 20
8.4691133225
 30
0.0
 10
12.7608776555
 20
8.4794862377
 30
0.0
 10
12.7399889006
 20
8.4888758801
 30
0.0
 10
12.7187195472
 20
8.4972569215
 30
0.0
 10
12.6971202071
 20
8.5046100844
 30
0.0
 10
12.6752416545
 20
8.5109172955
 30
0.0
 10
12.6531348506
 20
8.5161601371
 30
0.0
 10
12.6308526137
 20
8.5203271461
 30
0.0
 10
12.6084474763
 20
8.5234063908
 30
0.0
 10
12.5859725931
 20
8.5253874423
 30
0.0
 10
12.5634818142
 20
8.5262665911
 30
0.0
 10
12.5410288553
 20
8.526038476
 30
0.0
 10
12.5186678939
 20
8.5247015688
 30
0.0
 10
12.4964527804
 20
8.5222597208
 30
0.0
 10
12.4744377048
 20
8.5187147668
 30
0.0
 10
12.4526763997
 20
8.5140746518
 30
0.0
 10
12.4312218037
 20
8.5083505448
 30
0.0
 10
12.4101275436
 20
8.5015522774
 30
0.0
 10
12.3894452568
 20
8.4936973058
 30
0.0
 10
12.3692261146
 20
8.4848038522
 30
0.0
 10
12.3495216102
 20
8.4748906051
 30
0.0
 10
12.3303797318
 20
8.4639838261
 30
0.0
 10
12.3118489479
 20
8.4521086387
 30
0.0
 10
12.2939765454
 20
8.4392930244
 30
0.0
 10
12.2768056875
 20
8.4255707656
 30
0.0
 10
12.2603808929
 20
8.4109738586
 30
0.0
 10
12.2447431313
 20
8.3955390203
 30
0.0
 10
12.2299299444
 20
8.379306125
 30
0.0
 10
12.2159803748
 20
8.3623138042
 30
0.0
 10
12.2029274629
 20
8.3446060685
 30
0.0
 10
12.1908026302
 20
8.3262276405
 30
0.0
 10
12.1796376591
 20
8.3072231889
 30
0.0
 10
12.1694570414
 20
8.2876417067
 30
0.0
 10
12.1602857712
 20
8.267531486
 30
0.0
 10
12.1521468918
 20
8.2469422843
 30
0.0
 10
12.1450564278
 20
8.2259267423
 30
0.0
 10
12.1390320628
 20
8.2045362381
 30
0.0
 10
12.1340873415
 20
8.1828225678
 30
0.0
 10
12.1302309404
 20
8.1608376277
 30
0.0
 10
12.1274735949
 20
8.1386346625
 30
0.0
 10
12.1258183864
 20
8.1162728269
 30
0.0
 10
12.1254506814
 20
8.1013109804
 30
0.0
 10
12.1254505926
 20
8.0938241128
 30
0.0
  0
SPLINE
  5
2DE
100
AcDbEntity
  8
0
100
AcDbSpline
 62
7
  6
CONTINUOUS
 70
0
 71
3
 72
65
 73
61
 74
0
 42
0.0000001
 43
0.0000001
 44
0.0000000001
 40
0.0
 40
0.0
 40
0.0
 40
0.0
 40
0.0310480611
 40
0.0464649297
 40
0.061800731
 40
0.0922348386
 40
0.1223994853
 40
0.1373982455
 40
0.1523450299
 40
0.1672467782
 40
0.1821108888
 40
0.1969449792
 40
0.2117572313
 40
0.2265559693
 40
0.2413496102
 40
0.2561467317
 40
0.2709558122
 40
0.285785298
 40
0.3006433284
 40
0.3155375101
 40
0.3304753132
 40
0.3454636469
 40
0.3605084676
 40
0.375615484
 40
0.3907897569
 40
0.4060350815
 40
0.4213548945
 40
0.4367520193
 40
0.4522278892
 40
0.4677834893
 40
0.4834192846
 40
0.4991344067
 40
0.5149274953
 40
0.5307967742
 40
0.5467393053
 40
0.5627516644
 40
0.578830121
 40
0.6111574611
 40
0.6274047431
 40
0.643697115
 40
0.6600282616
 40
0.6763917887
 40
0.7091799725
 40
0.7255990827
 40
0.7420225216
 40
0.7584429775
 40
0.774853285
 40
0.7912463688
 40
0.8076151028
 40
0.8239526467
 40
0.8402526445
 40
0.8565088447
 40
0.8727152748
 40
0.8888661881
 40
0.9049558805
 40
0.9369254242
 40
0.952810249
 40
0.9686226856
 40
0.9843555469
 40
1.0
 40
1.0
 40
1.0
 40
1.0
 10
12.2654506022
 20
8.0938238529
 30
0.0
 10
12.2654508182
 20
8.1041827171
 30
0.0
 10
12.2662106801
 20
8.1196999426
 30
0.0
 10
12.2687549506
 20
8.1401678533
 30
0.0
 10
12.2722893527
 20
8.1602818133
 30
0.0
 10
12.2785568255
 20
8.1848766883
 30
0.0
 10
12.287270847
 20
8.2085968722
 30
0.0
 10
12.295630622
 20
8.2268349255
 30
0.0
 10
12.3025688579
 20
8.2400999041
 30
0.0
 10
12.310167748
 20
8.2529452086
 30
0.0
 10
12.3184086579
 20
8.2653434256
 30
0.0
 10
12.3272734599
 20
8.2772663365
 30
0.0
 10
12.3367408364
 20
8.2886883123
 30
0.0
 10
12.3467886818
 20
8.2995848245
 30
0.0
 10
12.3573955631
 20
8.3099307543
 30
0.0
 10
12.3685374083
 20
8.3197034133
 30
0.0
 10
12.3801889668
 20
8.3288817187
 30
0.0
 10
12.3923255204
 20
8.3374437025
 30
0.0
 10
12.4049202111
 20
8.3453696159
 30
0.0
 10
12.4179446636
 20
8.3526418902
 30
0.0
 10
12.4313708104
 20
8.3592418588
 30
0.0
 10
12.4451688311
 20
8.3651528758
 30
0.0
 10
12.4593072221
 20
8.370361322
 30
0.0
 10
12.4737545453
 20
8.3748523802
 30
0.0
 10
12.4884779559
 20
8.3786130213
 30
0.0
 10
12.5034430616
 20
8.3816341988
 30
0.0
 10
12.5186153142
 20
8.3839057011
 30
0.0
 10
12.5339590786
 20
8.3854188356
 30
0.0
 10
12.5494376526
 20
8.3861697887
 30
0.0
 10
12.5650140291
 20
8.3861537307
 30
0.0
 10
12.5806503894
 20
8.3853670666
 30
0.0
 10
12.5963086213
 20
8.3838117191
 30
0.0
 10
12.6119502345
 20
8.3814888147
 30
0.0
 10
12.6275361974
 20
8.3784004399
 30
0.0
 10
12.6430279099
 20
8.374554587
 30
0.0
 10
12.6583871466
 20
8.3699583411
 30
0.0
 10
12.6786691672
 20
8.3628293205
 30
0.0
 10
12.698500798
 20
8.3542486406
 30
0.0
 10
12.717722959
 20
8.3442916383
 30
0.0
 10
12.73184506
 20
8.3361292352
 30
0.0
 10
12.7456095953
 20
8.3273052923
 30
0.0
 10
12.7634461572
 20
8.3146787362
 30
0.0
 10
12.7804224039
 20
8.3008219988
 30
0.0
 10
12.7964033803
 20
8.2858441703
 30
0.0
 10
12.8078762821
 20
8.274066368
 30
0.0
 10
12.8187991424
 20
8.2617812709
 30
0.0
 10
12.8291435262
 20
8.2490181265
 30
0.0
 10
12.838885137
 20
8.2358106793
 30
0.0
 10
12.8479999925
 20
8.2221922851
 30
0.0
 10
12.8564639745
 20
8.2081963532
 30
0.0
 10
12.8642581919
 20
8.1938594072
 30
0.0
 10
12.8713640425
 20
8.1792176093
 30
0.0
 10
12.8777626488
 20
8.1643074402
 30
0.0
 10
12.8834411864
 20
8.149167185
 30
0.0
 10
12.8900203431
 20
8.1287733226
 30
0.0
 10
12.8951311428
 20
8.1080207085
 30
0.0
 10
12.898721491
 20
8.0870783179
 30
0.0
 10
12.9006424743
 20
8.0713641123
 30
0.0
 10
12.9017963241
 20
8.055656322
 30
0.0
 10
12.9020548487
 20
8.0451858312
 30
0.0
 10
12.9020549667
 20
8.0399662213
 30
0.0
  0
SPLINE
  5
2DF
100
AcDbEntity
  8
0
100
AcDbSpline
 62
7
  6
CONTINUOUS
 70
0
 71
3
 72
69
 73
65
 74
0
 42
0.0000001
 43
0.0000001
 44
0.0000000001
 40
0.0
 40
0.0
 40
0.0
 40
0.0
 40
0.0312903911
 40
0.0470006543
 40
0.0627445771
 40
0.0785223289
 40
0.0943340764
 40
0.1101786947
 40
0.126053634
 40
0.1419560655
 40
0.157883293
 40
0.1738324649
 40
0.1898005499
 40
0.2217715222
 40
0.2377758016
 40
0.253784915
 40
0.2697950952
 40
0.2858026601
 40
0.3018038922
 40
0.3177951034
 40
0.333772802
 40
0.3497335464
 40
0.3656740664
 40
0.3815913678
 40
0.3974825851
 40
0.4133451574
 40
0.4291768396
 40
0.4449755982
 40
0.4607398103
 40
0.4764681644
 40
0.4921596439
 40
0.5078136996
 40
0.5234300536
 40
0.5390088005
 40
0.5545504881
 40
0.5700558896
 40
0.5855262037
 40
0.6009629988
 40
0.6163680341
 40
0.631743502
 40
0.6470918309
 40
0.6624156163
 40
0.6777178363
 40
0.6930015641
 40
0.7082700105
 40
0.7235266729
 40
0.7387750246
 40
0.7540186258
 40
0.7692612029
 40
0.7845063491
 40
0.7997576767
 40
0.8150188128
 40
0.8302931311
 40
0.8455839876
 40
0.8608947335
 40
0.876228419
 40
0.8915878381
 40
0.906975194
 40
0.9223922944
 40
0.9378417982
 40
0.9533270585
 40
0.9688506682
 40
0.9844102238
 40
1.0
 40
1.0
 40
1.0
 40
1.0
 10
12.1254505948
 20
8.0938239163
 30
0.0
 10
12.1254507871
 20
8.0787969444
 30
0.0
 10
12.1265644053
 20
8.0562054127
 30
0.0
 10
12.1302261813
 20
8.0262883887
 30
0.0
 10
12.1340664542
 20
8.0039233602
 30
0.0
 10
12.1389830697
 20
7.9817212978
 30
0.0
 10
12.1449647213
 20
7.9597318347
 30
0.0
 10
12.1519958815
 20
7.938006253
 30
0.0
 10
12.160057273
 20
7.9165950211
 30
0.0
 10
12.1691312142
 20
7.8955496468
 30
0.0
 10
12.1791942499
 20
7.8749195165
 30
0.0
 10
12.1902214444
 20
7.8547515397
 30
0.0
 10
12.2061796849
 20
7.8285367433
 30
0.0
 10
12.2239584713
 20
7.8034341558
 30
0.0
 10
12.2434154448
 20
7.7796405734
 30
0.0
 10
12.2588268016
 20
7.7624710893
 30
0.0
 10
12.2750128476
 20
7.7460286223
 30
0.0
 10
12.291936901
 20
7.7303521214
 30
0.0
 10
12.3095575012
 20
7.7154770344
 30
0.0
 10
12.3278345054
 20
7.7014397038
 30
0.0
 10
12.3467252296
 20
7.6882738362
 30
0.0
 10
12.3661843874
 20
7.6760091715
 30
0.0
 10
12.3861676781
 20
7.6646769837
 30
0.0
 10
12.4066278988
 20
7.6543040676
 30
0.0
 10
12.4275166517
 20
7.644914425
 30
0.0
 10
12.4487860026
 20
7.6365333844
 30
0.0
 10
12.4703853385
 20
7.6291802205
 30
0.0
 10
12.4922638859
 20
7.6228730101
 30
0.0
 10
12.5143706834
 20
7.6176301682
 30
0.0
 10
12.5366529143
 20
7.6134631564
 30
0.0
 10
12.5590580491
 20
7.6103839124
 30
0.0
 10
12.5815329334
 20
7.6084028582
 30
0.0
 10
12.6040237178
 20
7.6075237051
 30
0.0
 10
12.6264766857
 20
7.6077518207
 30
0.0
 10
12.6488376578
 20
7.6090887272
 30
0.0
 10
12.6710527819
 20
7.6115305745
 30
0.0
 10
12.6930678657
 20
7.6150755295
 30
0.0
 10
12.7148291765
 20
7.619715646
 30
0.0
 10
12.7362837766
 20
7.6254397544
 30
0.0
 10
12.7573780402
 20
7.6322380233
 30
0.0
 10
12.7780603298
 20
7.6400929974
 30
0.0
 10
12.7982794745
 20
7.6489864522
 30
0.0
 10
12.8179839793
 20
7.6588997011
 30
0.0
 10
12.8371258548
 20
7.6698064808
 30
0.0
 10
12.8556566335
 20
7.6816816636
 30
0.0
 10
12.8735290286
 20
7.6944972713
 30
0.0
 10
12.8906998794
 20
7.7082195251
 30
0.0
 10
12.9071246699
 20
7.7228164312
 30
0.0
 10
12.922762433
 20
7.73825127
 30
0.0
 10
12.937575623
 20
7.754484166
 30
0.0
 10
12.9515251935
 20
7.7714764864
 30
0.0
 10
12.9645781042
 20
7.7891842191
 30
0.0
 10
12.9767029335
 20
7.8075626427
 30
0.0
 10
12.9878679022
 20
7.8265670883
 30
0.0
 10
12.9980485194
 20
7.8461485638
 30
0.0
 10
13.0072197868
 20
7.8662587794
 30
0.0
 10
13.0153586668
 20
7.8868479752
 30
0.0
 10
13.0224491329
 20
7.9078635117
 30
0.0
 10
13.0284734975
 20
7.9292540133
 30
0.0
 10
13.0334182229
 20
7.9509676845
 30
0.0
 10
13.0372746274
 20
7.9729526322
 30
0.0
 10
13.0400319726
 20
7.9951556095
 30
0.0
 10
13.0416871847
 20
8.0175174576
 30
0.0
 10
13.042054891
 20
8.0324793119
 30
0.0
 10
13.0420549799
 20
8.0399661832
 30
0.0
  0
SPLINE
  5
2E0
100
AcDbEntity
  8
0
100
AcDbSpline
 62
7
  6
CONTINUOUS
 70
0
 71
3
 72
65
 73
61
 74
0
 42
0.0000001
 43
0.0000001
 44
0.0000000001
 40
0.0
 40
0.0
 40
0.0
 40
0.0
 40
0.0310480609
 40
0.0464649293
 40
0.0618007306
 40
0.0922348384
 40
0.1223994854
 40
0.1373982457
 40
0.1523450303
 40
0.1672467788
 40
0.1821108896
 40
0.1969449801
 40
0.2117572324
 40
0.2265559705
 40
0.2413496115
 40
0.2561467331
 40
0.2709558136
 40
0.2857852993
 40
0.3006433297
 40
0.3155375112
 40
0.3304753141
 40
0.3454636475
 40
0.3605084679
 40
0.3756154841
 40
0.3907897567
 40
0.4060350812
 40
0.4213548941
 40
0.4367520191
 40
0.4522278894
 40
0.4677834902
 40
0.4834192865
 40
0.4991344099
 40
0.5149274995
 40
0.5307967793
 40
0.5467393109
 40
0.5627516699
 40
0.5788301256
 40
0.6111574632
 40
0.6274047439
 40
0.6436971146
 40
0.6600282604
 40
0.676391787
 40
0.7091799709
 40
0.7255990813
 40
0.7420225206
 40
0.7584429769
 40
0.7748532848
 40
0.7912463688
 40
0.8076151029
 40
0.8239526465
 40
0.8402526437
 40
0.8565088432
 40
0.8727152724
 40
0.8888661846
 40
0.9049558761
 40
0.9369254192
 40
0.9528102449
 40
0.9686226826
 40
0.984355545
 40
1.0
 40
1.0
 40
1.0
 40
1.0
 10
12.9020549703
 20
8.039966444
 30
0.0
 10
12.9020547544
 20
8.0296075799
 30
0.0
 10
12.9012948925
 20
8.0140903545
 30
0.0
 10
12.8987506219
 20
7.9936224439
 30
0.0
 10
12.8952162198
 20
7.9735084839
 30
0.0
 10
12.8889487471
 20
7.9489136088
 30
0.0
 10
12.8802347255
 20
7.9251934247
 30
0.0
 10
12.8718749504
 20
7.9069553712
 30
0.0
 10
12.8649367144
 20
7.8936903925
 30
0.0
 10
12.8573378242
 20
7.8808450878
 30
0.0
 10
12.8490969142
 20
7.8684468707
 30
0.0
 10
12.8402321121
 20
7.8565239597
 30
0.0
 10
12.8307647354
 20
7.8451019838
 30
0.0
 10
12.8207168899
 20
7.8342054715
 30
0.0
 10
12.8101100085
 20
7.8238595417
 30
0.0
 10
12.7989681632
 20
7.8140868828
 30
0.0
 10
12.7873166046
 20
7.8049085774
 30
0.0
 10
12.775180051
 20
7.7963465936
 30
0.0
 10
12.7625853604
 20
7.7884206804
 30
0.0
 10
12.749560908
 20
7.7811484062
 30
0.0
 10
12.7361347614
 20
7.7745484378
 30
0.0
 10
12.722336741
 20
7.7686374209
 30
0.0
 10
12.7081983502
 20
7.7634289749
 30
0.0
 10
12.6937510273
 20
7.7589379167
 30
0.0
 10
12.6790276169
 20
7.7551772756
 30
0.0
 10
12.6640625113
 20
7.7521560981
 30
0.0
 10
12.6488902587
 20
7.7498845959
 30
0.0
 10
12.6335464942
 20
7.7483714613
 30
0.0
 10
12.6180679197
 20
7.7476205082
 30
0.0
 10
12.6024915426
 20
7.7476365662
 30
0.0
 10
12.5868551812
 20
7.7484232305
 30
0.0
 10
12.5711969482
 20
7.7499785783
 30
0.0
 10
12.555555334
 20
7.7523014828
 30
0.0
 10
12.5399693704
 20
7.755389858
 30
0.0
 10
12.5244776577
 20
7.7592357115
 30
0.0
 10
12.5091184211
 20
7.7638319573
 30
0.0
 10
12.4888364016
 20
7.7709609776
 30
0.0
 10
12.4690047725
 20
7.7795416574
 30
0.0
 10
12.4497826129
 20
7.7894986588
 30
0.0
 10
12.4356605129
 20
7.7976610614
 30
0.0
 10
12.4218959783
 20
7.8064850039
 30
0.0
 10
12.4040594166
 20
7.8191115598
 30
0.0
 10
12.3870831699
 20
7.8329682969
 30
0.0
 10
12.3711021934
 20
7.8479461256
 30
0.0
 10
12.3596292912
 20
7.8597239281
 30
0.0
 10
12.3487064306
 20
7.8720090254
 30
0.0
 10
12.3383620466
 20
7.8847721701
 30
0.0
 10
12.3286204357
 20
7.8979796174
 30
0.0
 10
12.3195055802
 20
7.9115980116
 30
0.0
 10
12.3110415982
 20
7.9255939433
 30
0.0
 10
12.3032473811
 20
7.9399308887
 30
0.0
 10
12.2961415308
 20
7.954572686
 30
0.0
 10
12.2897429248
 20
7.9694828542
 30
0.0
 10
12.2840643872
 20
7.9846231083
 30
0.0
 10
12.2774852307
 20
8.0050169699
 30
0.0
 10
12.2723744306
 20
8.0257695837
 30
0.0
 10
12.2687840822
 20
8.0467119747
 30
0.0
 10
12.2668630989
 20
8.0624261813
 30
0.0
 10
12.2657092486
 20
8.078133973
 30
0.0
 10
12.2654507238
 20
8.0886044648
 30
0.0
 10
12.2654506059
 20
8.0938240753
 30
0.0
  0
SPLINE
  5
2E1
100
AcDbEntity
  8
0
100
AcDbSpline
 62
7
  6
CONTINUOUS
 70
0
 71
3
 72
69
 73
65
 74
0
 42
0.0000001
 43
0.0000001
 44
0.0000000001
 40
0.0
 40
0.0
 40
0.0
 40
0.0
 40
0.0312903904
 40
0.0470006528
 40
0.0627445756
 40
0.0785223279
 40
0.0943340764
 40
0.110178696
 40
0.1260536366
 40
0.1419560695
 40
0.1578832983
 40
0.1738324715
 40
0.1898005575
 40
0.2217715317
 40
0.2377758121
 40
0.2537849262
 40
0.2697951068
 40
0.2858026717
 40
0.3018039038
 40
0.3177951149
 40
0.3337728137
 40
0.3497335585
 40
0.3656740791
 40
0.3815913812
 40
0.3974825997
 40
0.4133451737
 40
0.4291768584
 40
0.4449756206
 40
0.4607398374
 40
0.4764681958
 40
0.4921596776
 40
0.5078137322
 40
0.5234300822
 40
0.5390088225
 40
0.5545505019
 40
0.5700558957
 40
0.585526204
 40
0.6009629954
 40
0.616368028
 40
0.6317434933
 40
0.6470918197
 40
0.6624156028
 40
0.6777178217
 40
0.6930015504
 40
0.7082700017
 40
0.7235266723
 40
0.7387750315
 40
0.7540186351
 40
0.7692612099
 40
0.784506353
 40
0.7997576804
 40
0.8150188192
 40
0.8302931417
 40
0.8455840027
 40
0.860894753
 40
0.8762284425
 40
0.8915878651
 40
0.9069752245
 40
0.9223923275
 40
0.9378418307
 40
0.9533270851
 40
0.9688506846
 40
0.9844102313
 40
1.0
 40
1.0
 40
1.0
 40
1.0
 10
12.3774978897
 20
8.8761810195
 30
0.0
 10
12.3774976974
 20
8.8912079912
 30
0.0
 10
12.3763840796
 20
8.9137995222
 30
0.0
 10
12.3727223034
 20
8.9437165454
 30
0.0
 10
12.3688820306
 20
8.9660815738
 30
0.0
 10
12.363965415
 20
8.988283637
 30
0.0
 10
12.3579837631
 20
9.0102731014
 30
0.0
 10
12.3509526023
 20
9.0319986847
 30
0.0
 10
12.3428912099
 20
9.0534099183
 30
0.0
 10
12.3338172679
 20
9.0744552945
 30
0.0
 10
12.3237542308
 20
9.0950854263
 30
0.0
 10
12.3127270352
 20
9.1152534045
 30
0.0
 10
12.2967687933
 20
9.1414682024
 30
0.0
 10
12.278990005
 20
9.1665707908
 30
0.0
 10
12.2595330298
 20
9.1903643742
 30
0.0
 10
12.2441216714
 20
9.207533858
 30
0.0
 10
12.227935625
 20
9.2239763254
 30
0.0
 10
12.2110115708
 20
9.2396528258
 30
0.0
 10
12.1933909697
 20
9.2545279118
 30
0.0
 10
12.1751139655
 20
9.2685652424
 30
0.0
 10
12.1562232403
 20
9.2817311092
 30
0.0
 10
12.1367640814
 20
9.2939957731
 30
0.0
 10
12.11678079
 20
9.3053279614
 30
0.0
 10
12.0963205675
 20
9.3157008766
 30
0.0
 10
12.0754318126
 20
9.325090519
 30
0.0
 10
12.0541624592
 20
9.3334715603
 30
0.0
 10
12.0325631191
 20
9.3408247232
 30
0.0
 10
12.0106845664
 20
9.3471319343
 30
0.0
 10
11.9885777626
 20
9.3523747759
 30
0.0
 10
11.9662955256
 20
9.3565417849
 30
0.0
 10
11.9438903883
 20
9.3596210297
 30
0.0
 10
11.9214155051
 20
9.3616020811
 30
0.0
 10
11.8989247261
 20
9.36248123
 30
0.0
 10
11.8764717673
 20
9.3622531148
 30
0.0
 10
11.8541108059
 20
9.3609162076
 30
0.0
 10
11.8318956924
 20
9.3584743597
 30
0.0
 10
11.8098806168
 20
9.3549294056
 30
0.0
 10
11.7881193117
 20
9.3502892907
 30
0.0
 10
11.7666647157
 20
9.3445651837
 30
0.0
 10
11.7455704556
 20
9.3377669163
 30
0.0
 10
11.7248881688
 20
9.3299119447
 30
0.0
 10
11.7046690266
 20
9.321018491
 30
0.0
 10
11.6849645222
 20
9.311105244
 30
0.0
 10
11.6658226438
 20
9.3001984649
 30
0.0
 10
11.6472918599
 20
9.2883232776
 30
0.0
 10
11.6294194574
 20
9.2755076633
 30
0.0
 10
11.6122485995
 20
9.2617854045
 30
0.0
 10
11.5958238049
 20
9.2471884975
 30
0.0
 10
11.5801860433
 20
9.2317536591
 30
0.0
 10
11.5653728564
 20
9.2155207639
 30
0.0
 10
11.5514232868
 20
9.1985284431
 30
0.0
 10
11.5383703749
 20
9.1808207073
 30
0.0
 10
11.5262455422
 20
9.1624422794
 30
0.0
 10
11.5150805711
 20
9.1434378277
 30
0.0
 10
11.5048999533
 20
9.1238563455
 30
0.0
 10
11.4957286831
 20
9.1037461248
 30
0.0
 10
11.4875898038
 20
9.0831569232
 30
0.0
 10
11.4804993398
 20
9.0621413811
 30
0.0
 10
11.4744749748
 20
9.0407508769
 30
0.0
 10
11.4695302535
 20
9.0190372066
 30
0.0
 10
11.4656738524
 20
8.9970522665
 30
0.0
 10
11.4629165069
 20
8.9748493013
 30
0.0
 10
11.4612612984
 20
8.9524874657
 30
0.0
 10
11.4608935934
 20
8.9375256193
 30
0.0
 10
11.4608935046
 20
8.9300387516
 30
0.0
  0
SPLINE
  5
2E2
100
AcDbEntity
  8
0
100
AcDbSpline
 62
7
  6
CONTINUOUS
 70
0
 71
3
 72
65
 73
61
 74
0
 42
0.0000001
 43
0.0000001
 44
0.0000000001
 40
0.0
 40
0.0
 40
0.0
 40
0.0
 40
0.0310480611
 40
0.0464649297
 40
0.061800731
 40
0.0922348386
 40
0.1223994853
 40
0.1373982455
 40
0.1523450299
 40
0.1672467782
 40
0.1821108888
 40
0.1969449792
 40
0.2117572313
 40
0.2265559693
 40
0.2413496102
 40
0.2561467317
 40
0.2709558122
 40
0.285785298
 40
0.3006433284
 40
0.3155375101
 40
0.3304753132
 40
0.3454636469
 40
0.3605084676
 40
0.375615484
 40
0.3907897569
 40
0.4060350815
 40
0.4213548945
 40
0.4367520193
 40
0.4522278892
 40
0.4677834893
 40
0.4834192846
 40
0.4991344067
 40
0.5149274953
 40
0.5307967742
 40
0.5467393053
 40
0.5627516644
 40
0.578830121
 40
0.6111574611
 40
0.6274047431
 40
0.643697115
 40
0.6600282616
 40
0.6763917887
 40
0.7091799725
 40
0.7255990827
 40
0.7420225216
 40
0.7584429775
 40
0.774853285
 40
0.7912463688
 40
0.8076151028
 40
0.8239526467
 40
0.8402526445
 40
0.8565088447
 40
0.8727152748
 40
0.8888661881
 40
0.9049558805
 40
0.9369254242
 40
0.952810249
 40
0.9686226856
 40
0.9843555469
 40
1.0
 40
1.0
 40
1.0
 40
1.0
 10
11.6008935142
 20
8.9300384918
 30
0.0
 10
11.6008937302
 20
8.9403973559
 30
0.0
 10
11.6016535921
 20
8.9559145814
 30
0.0
 10
11.6041978626
 20
8.9763824922
 30
0.0
 10
11.6077322647
 20
8.9964964521
 30
0.0
 10
11.6139997375
 20
9.0210913271
 30
0.0
 10
11.622713759
 20
9.0448115111
 30
0.0
 10
11.631073534
 20
9.0630495643
 30
0.0
 10
11.6380117699
 20
9.0763145429
 30
0.0
 10
11.64561066
 20
9.0891598475
 30
0.0
 10
11.6538515699
 20
9.1015580645
 30
0.0
 10
11.6627163719
 20
9.1134809754
 30
0.0
 10
11.6721837484
 20
9.1249029512
 30
0.0
 10
11.6822315938
 20
9.1357994634
 30
0.0
 10
11.6928384751
 20
9.1461453931
 30
0.0
 10
11.7039803203
 20
9.1559180521
 30
0.0
 10
11.7156318788
 20
9.1650963575
 30
0.0
 10
11.7277684324
 20
9.1736583414
 30
0.0
 10
11.7403631231
 20
9.1815842548
 30
0.0
 10
11.7533875756
 20
9.1888565291
 30
0.0
 10
11.7668137224
 20
9.1954564976
 30
0.0
 10
11.780611743
 20
9.2013675147
 30
0.0
 10
11.7947501341
 20
9.2065759608
 30
0.0
 10
11.8091974573
 20
9.2110670191
 30
0.0
 10
11.8239208679
 20
9.2148276602
 30
0.0
 10
11.8388859736
 20
9.2178488377
 30
0.0
 10
11.8540582262
 20
9.2201203399
 30
0.0
 10
11.8694019906
 20
9.2216334745
 30
0.0
 10
11.8848805646
 20
9.2223844275
 30
0.0
 10
11.9004569411
 20
9.2223683695
 30
0.0
 10
11.9160933014
 20
9.2215817055
 30
0.0
 10
11.9317515333
 20
9.2200263579
 30
0.0
 10
11.9473931465
 20
9.2177034535
 30
0.0
 10
11.9629791094
 20
9.2146150787
 30
0.0
 10
11.9784708219
 20
9.2107692258
 30
0.0
 10
11.9938300586
 20
9.20617298
 30
0.0
 10
12.0141120792
 20
9.1990439594
 30
0.0
 10
12.03394371
 20
9.1904632794
 30
0.0
 10
12.053165871
 20
9.1805062772
 30
0.0
 10
12.067287972
 20
9.172343874
 30
0.0
 10
12.0810525073
 20
9.1635199312
 30
0.0
 10
12.0988890692
 20
9.150893375
 30
0.0
 10
12.1158653159
 20
9.1370366377
 30
0.0
 10
12.1318462922
 20
9.1220588092
 30
0.0
 10
12.1433191941
 20
9.1102810068
 30
0.0
 10
12.1542420544
 20
9.0979959097
 30
0.0
 10
12.1645864382
 20
9.0852327653
 30
0.0
 10
12.174328049
 20
9.0720253182
 30
0.0
 10
12.1834429045
 20
9.0584069239
 30
0.0
 10
12.1919068865
 20
9.044410992
 30
0.0
 10
12.1997011039
 20
9.030074046
 30
0.0
 10
12.2068069545
 20
9.0154322481
 30
0.0
 10
12.2132055608
 20
9.000522079
 30
0.0
 10
12.2188840983
 20
8.9853818238
 30
0.0
 10
12.2254632551
 20
8.9649879615
 30
0.0
 10
12.2305740548
 20
8.9442353474
 30
0.0
 10
12.234164403
 20
8.9232929568
 30
0.0
 10
12.2360853863
 20
8.9075787511
 30
0.0
 10
12.2372392361
 20
8.8918709608
 30
0.0
 10
12.2374977607
 20
8.88140047
 30
0.0
 10
12.2374978786
 20
8.8761808602
 30
0.0
  0
SPLINE
  5
2E3
100
AcDbEntity
  8
0
100
AcDbSpline
 62
7
  6
CONTINUOUS
 70
0
 71
3
 72
69
 73
65
 74
0
 42
0.0000001
 43
0.0000001
 44
0.0000000001
 40
0.0
 40
0.0
 40
0.0
 40
0.0
 40
0.0312903911
 40
0.0470006543
 40
0.0627445771
 40
0.0785223289
 40
0.0943340764
 40
0.1101786947
 40
0.126053634
 40
0.1419560655
 40
0.157883293
 40
0.1738324649
 40
0.1898005499
 40
0.2217715222
 40
0.2377758016
 40
0.253784915
 40
0.2697950952
 40
0.2858026601
 40
0.3018038922
 40
0.3177951034
 40
0.333772802
 40
0.3497335464
 40
0.3656740664
 40
0.3815913678
 40
0.3974825851
 40
0.4133451574
 40
0.4291768396
 40
0.4449755982
 40
0.4607398103
 40
0.4764681644
 40
0.4921596439
 40
0.5078136996
 40
0.5234300536
 40
0.5390088005
 40
0.5545504881
 40
0.5700558896
 40
0.5855262037
 40
0.6009629988
 40
0.6163680341
 40
0.631743502
 40
0.6470918309
 40
0.6624156163
 40
0.6777178363
 40
0.6930015641
 40
0.7082700105
 40
0.7235266729
 40
0.7387750246
 40
0.7540186258
 40
0.7692612029
 40
0.7845063491
 40
0.7997576767
 40
0.8150188128
 40
0.8302931311
 40
0.8455839876
 40
0.8608947335
 40
0.876228419
 40
0.8915878381
 40
0.906975194
 40
0.9223922944
 40
0.9378417982
 40
0.9533270585
 40
0.9688506682
 40
0.9844102238
 40
1.0
 40
1.0
 40
1.0
 40
1.0
 10
11.4608935068
 20
8.9300385552
 30
0.0
 10
11.4608936991
 20
8.9150115832
 30
0.0
 10
11.4620073173
 20
8.8924200515
 30
0.0
 10
11.4656690933
 20
8.8625030276
 30
0.0
 10
11.4695093662
 20
8.8401379991
 30
0.0
 10
11.4744259817
 20
8.8179359366
 30
0.0
 10
11.4804076333
 20
8.7959464735
 30
0.0
 10
11.4874387934
 20
8.7742208918
 30
0.0
 10
11.495500185
 20
8.75280966
 30
0.0
 10
11.5045741262
 20
8.7317642857
 30
0.0
 10
11.5146371618
 20
8.7111341553
 30
0.0
 10
11.5256643564
 20
8.6909661785
 30
0.0
 10
11.5416225969
 20
8.6647513821
 30
0.0
 10
11.5594013833
 20
8.6396487946
 30
0.0
 10
11.5788583568
 20
8.6158552122
 30
0.0
 10
11.5942697136
 20
8.5986857282
 30
0.0
 10
11.6104557596
 20
8.5822432612
 30
0.0
 10
11.627379813
 20
8.5665667603
 30
0.0
 10
11.6450004132
 20
8.5516916732
 30
0.0
 10
11.6632774174
 20
8.5376543427
 30
0.0
 10
11.6821681416
 20
8.524488475
 30
0.0
 10
11.7016272994
 20
8.5122238104
 30
0.0
 10
11.7216105901
 20
8.5008916225
 30
0.0
 10
11.7420708108
 20
8.4905187064
 30
0.0
 10
11.7629595637
 20
8.4811290639
 30
0.0
 10
11.7842289146
 20
8.4727480232
 30
0.0
 10
11.8058282505
 20
8.4653948594
 30
0.0
 10
11.8277067979
 20
8.459087649
 30
0.0
 10
11.8498135954
 20
8.453844807
 30
0.0
 10
11.8720958263
 20
8.4496777952
 30
0.0
 10
11.8945009611
 20
8.4465985512
 30
0.0
 10
11.9169758454
 20
8.4446174971
 30
0.0
 10
11.9394666298
 20
8.4437383439
 30
0.0
 10
11.9619195976
 20
8.4439664596
 30
0.0
 10
11.9842805698
 20
8.4453033661
 30
0.0
 10
12.0064956939
 20
8.4477452134
 30
0.0
 10
12.0285107777
 20
8.4512901684
 30
0.0
 10
12.0502720885
 20
8.4559302848
 30
0.0
 10
12.0717266886
 20
8.4616543932
 30
0.0
 10
12.0928209522
 20
8.4684526621
 30
0.0
 10
12.1135032418
 20
8.4763076362
 30
0.0
 10
12.1337223865
 20
8.4852010911
 30
0.0
 10
12.1534268913
 20
8.4951143399
 30
0.0
 10
12.1725687667
 20
8.5060211196
 30
0.0
 10
12.1910995455
 20
8.5178963024
 30
0.0
 10
12.2089719406
 20
8.5307119101
 30
0.0
 10
12.2261427914
 20
8.544434164
 30
0.0
 10
12.2425675819
 20
8.55903107
 30
0.0
 10
12.258205345
 20
8.5744659088
 30
0.0
 10
12.273018535
 20
8.5906988049
 30
0.0
 10
12.2869681055
 20
8.6076911252
 30
0.0
 10
12.3000210161
 20
8.6253988579
 30
0.0
 10
12.3121458455
 20
8.6437772815
 30
0.0
 10
12.3233108141
 20
8.6627817272
 30
0.0
 10
12.3334914314
 20
8.6823632027
 30
0.0
 10
12.3426626988
 20
8.7024734183
 30
0.0
 10
12.3508015787
 20
8.723062614
 30
0.0
 10
12.3578920449
 20
8.7440781505
 30
0.0
 10
12.3639164095
 20
8.7654686521
 30
0.0
 10
12.3688611349
 20
8.7871823233
 30
0.0
 10
12.3727175394
 20
8.809167271
 30
0.0
 10
12.3754748846
 20
8.8313702483
 30
0.0
 10
12.3771300967
 20
8.8537320964
 30
0.0
 10
12.377497803
 20
8.8686939507
 30
0.0
 10
12.3774978919
 20
8.876180822
 30
0.0
  0
SPLINE
  5
2E4
100
AcDbEntity
  8
0
100
AcDbSpline
 62
7
  6
CONTINUOUS
 70
0
 71
3
 72
65
 73
61
 74
0
 42
0.0000001
 43
0.0000001
 44
0.0000000001
 40
0.0
 40
0.0
 40
0.0
 40
0.0
 40
0.0310480609
 40
0.0464649293
 40
0.0618007306
 40
0.0922348384
 40
0.1223994854
 40
0.1373982457
 40
0.1523450303
 40
0.1672467788
 40
0.1821108896
 40
0.1969449801
 40
0.2117572324
 40
0.2265559705
 40
0.2413496115
 40
0.2561467331
 40
0.2709558136
 40
0.2857852993
 40
0.3006433297
 40
0.3155375112
 40
0.3304753141
 40
0.3454636475
 40
0.3605084679
 40
0.3756154841
 40
0.3907897567
 40
0.4060350812
 40
0.4213548941
 40
0.4367520191
 40
0.4522278894
 40
0.4677834902
 40
0.4834192865
 40
0.4991344099
 40
0.5149274995
 40
0.5307967793
 40
0.5467393109
 40
0.5627516699
 40
0.5788301256
 40
0.6111574632
 40
0.6274047439
 40
0.6436971146
 40
0.6600282604
 40
0.676391787
 40
0.7091799709
 40
0.7255990813
 40
0.7420225206
 40
0.7584429769
 40
0.7748532848
 40
0.7912463688
 40
0.8076151029
 40
0.8239526465
 40
0.8402526437
 40
0.8565088432
 40
0.8727152724
 40
0.8888661846
 40
0.9049558761
 40
0.9369254192
 40
0.9528102449
 40
0.9686226826
 40
0.984355545
 40
1.0
 40
1.0
 40
1.0
 40
1.0
 10
12.2374978823
 20
8.8761810828
 30
0.0
 10
12.2374976663
 20
8.8658222187
 30
0.0
 10
12.2367378045
 20
8.8503049933
 30
0.0
 10
12.2341935339
 20
8.8298370827
 30
0.0
 10
12.2306591318
 20
8.8097231228
 30
0.0
 10
12.2243916591
 20
8.7851282477
 30
0.0
 10
12.2156776375
 20
8.7614080635
 30
0.0
 10
12.2073178624
 20
8.7431700101
 30
0.0
 10
12.2003796264
 20
8.7299050313
 30
0.0
 10
12.1927807362
 20
8.7170597266
 30
0.0
 10
12.1845398262
 20
8.7046615095
 30
0.0
 10
12.1756750241
 20
8.6927385985
 30
0.0
 10
12.1662076474
 20
8.6813166227
 30
0.0
 10
12.1561598018
 20
8.6704201104
 30
0.0
 10
12.1455529205
 20
8.6600741806
 30
0.0
 10
12.1344110752
 20
8.6503015216
 30
0.0
 10
12.1227595166
 20
8.6411232163
 30
0.0
 10
12.110622963
 20
8.6325612325
 30
0.0
 10
12.0980282724
 20
8.6246353192
 30
0.0
 10
12.08500382
 20
8.6173630451
 30
0.0
 10
12.0715776734
 20
8.6107630766
 30
0.0
 10
12.057779653
 20
8.6048520597
 30
0.0
 10
12.0436412622
 20
8.5996436137
 30
0.0
 10
12.0291939393
 20
8.5951525555
 30
0.0
 10
12.0144705289
 20
8.5913919145
 30
0.0
 10
11.9995054233
 20
8.588370737
 30
0.0
 10
11.9843331707
 20
8.5860992347
 30
0.0
 10
11.9689894062
 20
8.5845861001
 30
0.0
 10
11.9535108317
 20
8.5838351471
 30
0.0
 10
11.9379344545
 20
8.5838512051
 30
0.0
 10
11.9222980932
 20
8.5846378693
 30
0.0
 10
11.9066398602
 20
8.5861932172
 30
0.0
 10
11.890998246
 20
8.5885161217
 30
0.0
 10
11.8754122824
 20
8.5916044969
 30
0.0
 10
11.8599205697
 20
8.5954503503
 30
0.0
 10
11.8445613331
 20
8.6000465961
 30
0.0
 10
11.8242793136
 20
8.6071756165
 30
0.0
 10
11.8044476845
 20
8.6157562963
 30
0.0
 10
11.7852255249
 20
8.6257132977
 30
0.0
 10
11.7711034249
 20
8.6338757003
 30
0.0
 10
11.7573388903
 20
8.6426996428
 30
0.0
 10
11.7395023286
 20
8.6553261986
 30
0.0
 10
11.7225260819
 20
8.6691829358
 30
0.0
 10
11.7065451054
 20
8.6841607644
 30
0.0
 10
11.6950722032
 20
8.6959385669
 30
0.0
 10
11.6841493426
 20
8.7082236643
 30
0.0
 10
11.6738049586
 20
8.7209868089
 30
0.0
 10
11.6640633476
 20
8.7341942562
 30
0.0
 10
11.6549484921
 20
8.7478126504
 30
0.0
 10
11.6464845102
 20
8.7618085821
 30
0.0
 10
11.6386902931
 20
8.7761455276
 30
0.0
 10
11.6315844428
 20
8.7907873248
 30
0.0
 10
11.6251858367
 20
8.805697493
 30
0.0
 10
11.6195072992
 20
8.8208377472
 30
0.0
 10
11.6129281427
 20
8.8412316087
 30
0.0
 10
11.6078173425
 20
8.8619842225
 30
0.0
 10
11.6042269941
 20
8.8829266135
 30
0.0
 10
11.6023060109
 20
8.8986408202
 30
0.0
 10
11.6011521606
 20
8.9143486118
 30
0.0
 10
11.6008936358
 20
8.9248191037
 30
0.0
 10
11.6008935179
 20
8.9300387141
 30
0.0
  0
SPLINE
  5
2E5
100
AcDbEntity
  8
0
100
AcDbSpline
 62
7
  6
CONTINUOUS
 70
0
 71
3
 72
27
 73
23
 74
0
 42
0.0000001
 43
0.0000001
 44
0.0000000001
 40
0.0
 40
0.0
 40
0.0
 40
0.0
 40
0.0851306039
 40
0.1685599813
 40
0.2498975838
 40
0.3287945614
 40
0.4049691243
 40
0.4781496266
 40
0.5480763689
 40
0.6145007515
 40
0.6771892636
 40
0.7359512885
 40
0.7906202023
 40
0.8410642035
 40
0.8646789622
 40
0.8872124537
 40
0.9086619935
 40
0.9290300908
 40
0.9483276599
 40
0.9665715463
 40
0.9837851357
 40
1.0
 40
1.0
 40
1.0
 40
1.0
 10
14.6363121262
 20
8.1254442462
 30
0.0
 10
14.6363121262
 20
8.1209092051
 30
0.0
 10
14.6363897607
 20
8.1119295338
 30
0.0
 10
14.6367442463
 20
8.098621101
 30
0.0
 10
14.6373346202
 20
8.0856533457
 30
0.0
 10
14.6381591184
 20
8.073085587
 30
0.0
 10
14.6392130299
 20
8.0609710124
 30
0.0
 10
14.6404925821
 20
8.0493586949
 30
0.0
 10
14.6419919694
 20
8.0382965036
 30
0.0
 10
14.6437041239
 20
8.0278309914
 30
0.0
 10
14.6456229916
 20
8.0180064892
 30
0.0
 10
14.6477391712
 20
8.0088638756
 30
0.0
 10
14.6500437323
 20
8.0004411047
 30
0.0
 10
14.652157682
 20
7.9939140955
 30
0.0
 10
14.653946858
 20
7.9890888595
 30
0.0
 10
14.6553000897
 20
7.9857511009
 30
0.0
 10
14.6566929264
 20
7.98261797
 30
0.0
 10
14.6581241926
 20
7.9796928426
 30
0.0
 10
14.6595921903
 20
7.9769785135
 30
0.0
 10
14.6610954419
 20
7.9744774811
 30
0.0
 10
14.6626323882
 20
7.9721923636
 30
0.0
 10
14.6637100975
 20
7.9707730373
 30
0.0
 10
14.664255147
 20
7.9701029205
 30
0.0
  0
SPLINE
  5
2E6
100
AcDbEntity
  8
0
100
AcDbSpline
 62
7
  6
CONTINUOUS
 70
0
 71
3
 72
39
 73
35
 74
0
 42
0.0000001
 43
0.0000001
 44
0.0000000001
 40
0.0
 40
0.0
 40
0.0
 40
0.0
 40
0.0379233736
 40
0.0762658814
 40
0.1537932529
 40
0.2318264428
 40
0.3096774258
 40
0.3866342837
 40
0.424557246
 40
0.4619948362
 40
0.4988621168
 40
0.5350770108
 40
0.5705587041
 40
0.6052275172
 40
0.6390083575
 40
0.6718283347
 40
0.7036161324
 40
0.7343063634
 40
0.7638368837
 40
0.7921478516
 40
0.8191870313
 40
0.8449070476
 40
0.8692642503
 40
0.8922250009
 40
0.9137634332
 40
0.9338607038
 40
0.9433678409
 40
0.9525144592
 40
0.9613022213
 40
0.9697337196
 40
0.977812665
 40
0.9855446091
 40
0.9929372448
 40
1.0
 40
1.0
 40
1.0
 40
1.0
 10
14.8304262498
 20
8.3129441025
 30
0.0
 10
14.8304262498
 20
8.3044544203
 30
0.0
 10
14.8303123692
 20
8.2873810046
 30
0.0
 10
14.8296388297
 20
8.2529580702
 30
0.0
 10
14.8279628723
 20
8.2095775148
 30
0.0
 10
14.8246547651
 20
8.1574246891
 30
0.0
 10
14.8200749999
 20
8.1054963073
 30
0.0
 10
14.815213652
 20
8.0626204334
 30
0.0
 10
14.8107133084
 20
8.0288194921
 30
0.0
 10
14.8070685434
 20
8.0039606995
 30
0.0
 10
14.8031459468
 20
7.9795314292
 30
0.0
 10
14.7989557685
 20
7.9555909717
 30
0.0
 10
14.7945085171
 20
7.932197669
 30
0.0
 10
14.7898141229
 20
7.909408707
 30
0.0
 10
14.7848847367
 20
7.8872794251
 30
0.0
 10
14.7797327728
 20
7.8658636136
 30
0.0
 10
14.7743698383
 20
7.8452136123
 30
0.0
 10
14.7688097133
 20
7.825379442
 30
0.0
 10
14.7630664652
 20
7.806409166
 30
0.0
 10
14.7571530654
 20
7.7883491651
 30
0.0
 10
14.7510846325
 20
7.77124299
 30
0.0
 10
14.7448765911
 20
7.7551317631
 30
0.0
 10
14.7385429016
 20
7.7400548247
 30
0.0
 10
14.7320995988
 20
7.7260480072
 30
0.0
 10
14.7255630696
 20
7.7131446613
 30
0.0
 10
14.7199509489
 20
7.7031601111
 30
0.0
 10
14.7154148034
 20
7.6957645956
 30
0.0
 10
14.7120622692
 20
7.6906158906
 30
0.0
 10
14.708698165
 20
7.6857649672
 30
0.0
 10
14.7053244535
 20
7.6812148675
 30
0.0
 10
14.7019430043
 20
7.6769686026
 30
0.0
 10
14.6985556913
 20
7.6730287489
 30
0.0
 10
14.6951647587
 20
7.6693974589
 30
0.0
 10
14.6928511329
 20
7.6671328661
 30
0.0
 10
14.6916937223
 20
7.6660557079
 30
0.0
  0
LINE
  5
2E7
100
AcDbEntity
  8
0
100
AcDbLine
 62
7
  6
CONTINUOUS
 10
14.6935262227
 20
8.3922372251
 11
14.6915324586
 21
8.3902503502
  0
SPLINE
  5
2E8
100
AcDbEntity
  8
0
100
AcDbSpline
 62
7
  6
CONTINUOUS
 70
0
 71
3
 72
29
 73
25
 74
0
 42
0.0000001
 43
0.0000001
 44
0.0000000001
 40
0.0
 40
0.0
 40
0.0
 40
0.0
 40
0.0153961612
 40
0.0321338407
 40
0.0502431313
 40
0.0697377527
 40
0.0906131295
 40
0.112855041
 40
0.13644312
 40
0.1613475223
 40
0.1875289604
 40
0.2149449222
 40
0.2435498138
 40
0.2732899955
 40
0.3359407492
 40
0.4024095232
 40
0.4721485755
 40
0.5445779027
 40
0.6190833102
 40
0.6950254016
 40
0.7717428315
 40
0.8485903493
 40
0.9249221215
 40
1.0
 40
1.0
 40
1.0
 40
1.0
 10
14.6910496581
 20
8.3897297837
 30
0.0
 10
14.6901028985
 20
8.3886938906
 30
0.0
 10
14.6882179374
 20
8.3864477227
 30
0.0
 10
14.6855181698
 20
8.3827450795
 30
0.0
 10
14.6828356326
 20
8.3785781846
 30
0.0
 10
14.6801768852
 20
8.373956031
 30
0.0
 10
14.6775470583
 20
8.3688892177
 30
0.0
 10
14.6749521121
 20
8.3633891453
 30
0.0
 10
14.6723984049
 20
8.3574678081
 30
0.0
 10
14.669891833
 20
8.3511386198
 30
0.0
 10
14.6674377229
 20
8.3444163298
 30
0.0
 10
14.6650418696
 20
8.3373162184
 30
0.0
 10
14.6627102553
 20
8.3298542508
 30
0.0
 10
14.6596404582
 20
8.3192606143
 30
0.0
 10
14.6560185653
 20
8.305237168
 30
0.0
 10
14.6520798077
 20
8.2875412983
 30
0.0
 10
14.6485118845
 20
8.2688589217
 30
0.0
 10
14.6453492355
 20
8.2493615264
 30
0.0
 10
14.6426207435
 20
8.2292281061
 30
0.0
 10
14.6403520107
 20
8.208644554
 30
0.0
 10
14.6385638601
 20
8.1877994966
 30
0.0
 10
14.6372726184
 20
8.166882139
 30
0.0
 10
14.6364916848
 20
8.1460891847
 30
0.0
 10
14.6363121262
 20
8.1322876099
 30
0.0
 10
14.6363121262
 20
8.1254442462
 30
0.0
  0
SPLINE
  5
2E9
100
AcDbEntity
  8
0
100
AcDbSpline
 62
7
  6
CONTINUOUS
 70
0
 71
3
 72
30
 73
26
 74
0
 42
0.0000001
 43
0.0000001
 44
0.0000000001
 40
0.0
 40
0.0
 40
0.0
 40
0.0
 40
0.070920016
 40
0.1429441645
 40
0.2155294296
 40
0.2881982846
 40
0.3604671242
 40
0.4318399236
 40
0.5018343134
 40
0.5699803593
 40
0.6358256605
 40
0.6677492601
 40
0.6989377086
 40
0.7293407262
 40
0.7589092561
 40
0.7875983689
 40
0.8153649603
 40
0.8421668689
 40
0.8679656253
 40
0.892727364
 40
0.9164199368
 40
0.9390139122
 40
0.9604867491
 40
0.9808202821
 40
1.0
 40
1.0
 40
1.0
 40
1.0
 10
14.3333976976
 20
8.0628513591
 30
0.0
 10
14.3333976976
 20
8.077548588
 30
0.0
 10
14.3337389178
 20
8.1071728206
 30
0.0
 10
14.3352300688
 20
8.1518168168
 30
0.0
 10
14.3376986035
 20
8.1967806006
 30
0.0
 10
14.341124967
 20
8.2417323125
 30
0.0
 10
14.3454839268
 20
8.2863508229
 30
0.0
 10
14.3507450989
 20
8.330313918
 30
0.0
 10
14.3568687246
 20
8.3733026253
 30
0.0
 10
14.3638118312
 20
8.415005876
 30
0.0
 10
14.3703014751
 20
8.4487758991
 30
0.0
 10
14.3758802089
 20
8.4749125846
 30
0.0
 10
14.3801924478
 20
8.4938071933
 30
0.0
 10
14.3846681191
 20
8.512161806
 30
0.0
 10
14.3892997821
 20
8.5299430097
 30
0.0
 10
14.3940784855
 20
8.5471188673
 30
0.0
 10
14.398995269
 20
8.5636585072
 30
0.0
 10
14.4040416563
 20
8.5795317492
 30
0.0
 10
14.4092086834
 20
8.5947098727
 30
0.0
 10
14.4144863045
 20
8.6091659128
 30
0.0
 10
14.419864946
 20
8.6228737958
 30
0.0
 10
14.4253356431
 20
8.6358084339
 30
0.0
 10
14.4308879415
 20
8.6479470802
 30
0.0
 10
14.43651134
 20
8.6592681558
 30
0.0
 10
14.4404160438
 20
8.6664685484
 30
0.0
 10
14.4423834577
 20
8.6699222203
 30
0.0
  0
SPLINE
  5
2EA
100
AcDbEntity
  8
0
100
AcDbSpline
 62
7
  6
CONTINUOUS
 70
0
 71
3
 72
15
 73
11
 74
0
 42
0.0000001
 43
0.0000001
 44
0.0000000001
 40
0.0
 40
0.0
 40
0.0
 40
0.0
 40
0.1453943557
 40
0.2848678849
 40
0.4184408859
 40
0.5461503842
 40
0.6680535771
 40
0.7842370116
 40
0.8948306434
 40
1.0
 40
1.0
 40
1.0
 40
1.0
 10
14.4423834577
 20
8.6699222203
 30
0.0
 10
14.4435800864
 20
8.672022827
 30
0.0
 10
14.4459771831
 20
8.6761088884
 30
0.0
 10
14.4496658718
 20
8.6820093159
 30
0.0
 10
14.4533702278
 20
8.6875496919
 30
0.0
 10
14.4570875416
 20
8.6927258656
 30
0.0
 10
14.4608152154
 20
8.6975338066
 30
0.0
 10
14.4645509111
 20
8.701969786
 30
0.0
 10
14.4682916126
 20
8.7060307772
 30
0.0
 10
14.4708501277
 20
8.7085484155
 30
0.0
 10
14.4721302251
 20
8.7097397537
 30
0.0
  0
SPLINE
  5
2EB
100
AcDbEntity
  8
0
100
AcDbSpline
 62
7
  6
CONTINUOUS
 70
0
 71
3
 72
16
 73
12
 74
0
 42
0.0000001
 43
0.0000001
 44
0.0000000001
 40
0.0
 40
0.0
 40
0.0
 40
0.0
 40
0.1492653245
 40
0.2896981726
 40
0.4220061339
 40
0.4854062587
 40
0.5471300334
 40
0.666087288
 40
0.7802054342
 40
0.8909635604
 40
1.0
 40
1.0
 40
1.0
 40
1.0
 10
14.5031156498
 20
8.7385776733
 30
0.0
 10
14.5046533957
 20
8.7400088946
 30
0.0
 10
14.5077268072
 20
8.7426937813
 30
0.0
 10
14.5124791618
 20
8.7462653277
 30
0.0
 10
14.5164900722
 20
8.7487868311
 30
0.0
 10
14.5196877428
 20
8.750492991
 30
0.0
 10
14.5227956022
 20
8.7519590118
 30
0.0
 10
14.5266813654
 20
8.7534379777
 30
0.0
 10
14.5313819646
 20
8.7546344414
 30
0.0
 10
14.5360561391
 20
8.7552258925
 30
0.0
 10
14.539159849
 20
8.7552144398
 30
0.0
 10
14.5406907174
 20
8.7551081327
 30
0.0
  0
SPLINE
  5
2EC
100
AcDbEntity
  8
0
100
AcDbSpline
 62
7
  6
CONTINUOUS
 70
0
 71
3
 72
14
 73
10
 74
0
 42
0.0000001
 43
0.0000001
 44
0.0000000001
 40
0.0
 40
0.0
 40
0.0
 40
0.0
 40
0.2742944299
 40
0.4063086261
 40
0.5344256801
 40
0.658272761
 40
0.7774240123
 40
0.8914638195
 40
1.0
 40
1.0
 40
1.0
 40
1.0
 10
14.6911424477
 20
7.9706358058
 30
0.0
 10
14.687653466
 20
7.9721158107
 30
0.0
 10
14.6825074237
 20
7.9743614962
 30
0.0
 10
14.67580314
 20
7.977456858
 30
0.0
 10
14.6710222072
 20
7.9797574699
 30
0.0
 10
14.6664428429
 20
7.9820652457
 30
0.0
 10
14.6620853018
 20
7.9843787775
 30
0.0
 10
14.6579708062
 20
7.9866960074
 30
0.0
 10
14.6553359067
 20
7.9882830608
 30
0.0
 10
14.6540651321
 20
7.9890793299
 30
0.0
  0
SPLINE
  5
2ED
100
AcDbEntity
  8
0
100
AcDbSpline
 62
7
  6
CONTINUOUS
 70
0
 71
3
 72
31
 73
27
 74
0
 42
0.0000001
 43
0.0000001
 44
0.0000000001
 40
0.0
 40
0.0
 40
0.0
 40
0.0
 40
0.0162145762
 40
0.0334276502
 40
0.0516711967
 40
0.0709690551
 40
0.091338328
 40
0.112787873
 40
0.1353200303
 40
0.158933443
 40
0.1836238074
 40
0.2093834516
 40
0.2361991558
 40
0.2640551423
 40
0.2929341733
 40
0.3228177478
 40
0.3536843463
 40
0.3855091141
 40
0.451927567
 40
0.5218564284
 40
0.5950425779
 40
0.6712177805
 40
0.7501060356
 40
0.8314247465
 40
0.9148515974
 40
1.0
 40
1.0
 40
1.0
 40
1.0
 10
14.4011487509
 20
7.6862033118
 30
0.0
 10
14.3998272248
 20
7.6878281131
 30
0.0
 10
14.3972141653
 20
7.6912694112
 30
0.0
 10
14.3934875618
 20
7.6968098964
 30
0.0
 10
14.3898426922
 20
7.7028740195
 30
0.0
 10
14.3862833464
 20
7.7094555964
 30
0.0
 10
14.3828134438
 20
7.7165485099
 30
0.0
 10
14.3794362967
 20
7.724145325
 30
0.0
 10
14.3761550509
 20
7.7322378601
 30
0.0
 10
14.3729731434
 20
7.740817711
 30
0.0
 10
14.3698940536
 20
7.7498763051
 30
0.0
 10
14.3669213881
 20
7.7594044473
 30
0.0
 10
14.3640578325
 20
7.7693919139
 30
0.0
 10
14.3613063318
 20
7.7798279855
 30
0.0
 10
14.358669817
 20
7.7907018081
 30
0.0
 10
14.3561514023
 20
7.8020022702
 30
0.0
 10
14.3537537494
 20
7.8137175736
 30
0.0
 10
14.3506770717
 20
7.8301085648
 30
0.0
 10
14.3471682498
 20
7.8515489264
 30
0.0
 10
14.3435337707
 20
7.8783714108
 30
0.0
 10
14.3404313837
 20
7.9065286345
 30
0.0
 10
14.337875677
 20
7.9359021925
 30
0.0
 10
14.3358772447
 20
7.9663714766
 30
0.0
 10
14.3344449869
 20
7.9978101316
 30
0.0
 10
14.3335857518
 20
8.0300783032
 30
0.0
 10
14.3333976976
 20
8.0518530594
 30
0.0
 10
14.3333976976
 20
8.0628513591
 30
0.0
  0
SPLINE
  5
2EE
100
AcDbEntity
  8
0
100
AcDbSpline
 62
7
  6
CONTINUOUS
 70
0
 71
3
 72
31
 73
27
 74
0
 42
0.0000001
 43
0.0000001
 44
0.0000000001
 40
0.0
 40
0.0
 40
0.0
 40
0.0
 40
0.0162145762
 40
0.0334276502
 40
0.0516711967
 40
0.0709690551
 40
0.091338328
 40
0.112787873
 40
0.1353200303
 40
0.158933443
 40
0.1836238074
 40
0.2093834516
 40
0.2361991558
 40
0.2640551423
 40
0.2929341733
 40
0.3228177478
 40
0.3536843463
 40
0.3855091141
 40
0.451927567
 40
0.5218564284
 40
0.5950425779
 40
0.6712177805
 40
0.7501060356
 40
0.8314247465
 40
0.9148515974
 40
1.0
 40
1.0
 40
1.0
 40
1.0
 10
14.7626751965
 20
8.6895921498
 30
0.0
 10
14.7639967227
 20
8.6879673485
 30
0.0
 10
14.7666097822
 20
8.6845260504
 30
0.0
 10
14.7703363856
 20
8.6789855652
 30
0.0
 10
14.7739812552
 20
8.6729214421
 30
0.0
 10
14.777540601
 20
8.6663398652
 30
0.0
 10
14.7810105036
 20
8.6592469517
 30
0.0
 10
14.7843876507
 20
8.6516501366
 30
0.0
 10
14.7876688965
 20
8.6435576015
 30
0.0
 10
14.790850804
 20
8.6349777506
 30
0.0
 10
14.7939298938
 20
8.6259191565
 30
0.0
 10
14.7969025593
 20
8.6163910142
 30
0.0
 10
14.7997661149
 20
8.6064035477
 30
0.0
 10
14.8025176156
 20
8.5959674761
 30
0.0
 10
14.8051541304
 20
8.5850936535
 30
0.0
 10
14.8076725451
 20
8.5737931914
 30
0.0
 10
14.810070198
 20
8.562077888
 30
0.0
 10
14.8131468757
 20
8.5456868968
 30
0.0
 10
14.8166556976
 20
8.5242465352
 30
0.0
 10
14.8202901767
 20
8.4974240508
 30
0.0
 10
14.8233925638
 20
8.4692668271
 30
0.0
 10
14.8259482704
 20
8.4398932691
 30
0.0
 10
14.8279467027
 20
8.409423985
 30
0.0
 10
14.8293789605
 20
8.37798533
 30
0.0
 10
14.8302381956
 20
8.3457171584
 30
0.0
 10
14.8304262498
 20
8.3239424022
 30
0.0
 10
14.8304262498
 20
8.3129441025
 30
0.0
  0
SPLINE
  5
2EF
100
AcDbEntity
  8
0
100
AcDbSpline
 62
7
  6
CONTINUOUS
 70
0
 71
3
 72
16
 73
12
 74
0
 42
0.0000001
 43
0.0000001
 44
0.0000000001
 40
0.0
 40
0.0
 40
0.0
 40
0.0
 40
0.1492653245
 40
0.2896981726
 40
0.4220061339
 40
0.4854062587
 40
0.5471300334
 40
0.666087288
 40
0.7802054342
 40
0.8909635604
 40
1.0
 40
1.0
 40
1.0
 40
1.0
 10
14.6607082976
 20
7.6372177883
 30
0.0
 10
14.6591705518
 20
7.635786567
 30
0.0
 10
14.6560971402
 20
7.6331016803
 30
0.0
 10
14.6513447856
 20
7.6295301339
 30
0.0
 10
14.6473338752
 20
7.6270086305
 30
0.0
 10
14.6441362046
 20
7.6253024706
 30
0.0
 10
14.6410283452
 20
7.6238364497
 30
0.0
 10
14.637142582
 20
7.6223574839
 30
0.0
 10
14.6324419828
 20
7.6211610202
 30
0.0
 10
14.6277678083
 20
7.6205695691
 30
0.0
 10
14.6246640984
 20
7.6205810218
 30
0.0
 10
14.62313323
 20
7.6206873289
 30
0.0
  0
SPLINE
  5
2F0
100
AcDbEntity
  8
0
100
AcDbSpline
 62
7
  6
CONTINUOUS
 70
0
 71
3
 72
15
 73
11
 74
0
 42
0.0000001
 43
0.0000001
 44
0.0000000001
 40
0.0
 40
0.0
 40
0.0
 40
0.0
 40
0.1090430419
 40
0.2198054539
 40
0.3339231994
 40
0.452887223
 40
0.5779880059
 40
0.7103070969
 40
0.8507361486
 40
1.0
 40
1.0
 40
1.0
 40
1.0
 10
14.4627895333
 20
7.6318072021
 30
0.0
 10
14.4612586491
 20
7.6319135103
 30
0.0
 10
14.4581831704
 20
7.6323311975
 30
0.0
 10
14.4536354339
 20
7.633561643
 30
0.0
 10
14.449144459
 20
7.6353944706
 30
0.0
 10
14.4447173751
 20
7.6378257505
 30
0.0
 10
14.4403578807
 20
7.6408494464
 30
0.0
 10
14.4360691939
 20
7.6444601129
 30
0.0
 10
14.4318546751
 20
7.6486528271
 30
0.0
 10
14.4291812563
 20
7.6517357972
 30
0.0
 10
14.4278558855
 20
7.6533654961
 30
0.0
  0
SPLINE
  5
2F1
100
AcDbEntity
  8
0
100
AcDbSpline
 62
7
  6
CONTINUOUS
 70
0
 71
3
 72
15
 73
11
 74
0
 42
0.0000001
 43
0.0000001
 44
0.0000000001
 40
0.0
 40
0.0
 40
0.0
 40
0.0
 40
0.1090430419
 40
0.2198054539
 40
0.3339231994
 40
0.452887223
 40
0.5779880059
 40
0.7103070969
 40
0.8507361486
 40
1.0
 40
1.0
 40
1.0
 40
1.0
 10
14.7010344141
 20
8.7439882595
 30
0.0
 10
14.7025652983
 20
8.7438819513
 30
0.0
 10
14.7056407771
 20
8.7434642641
 30
0.0
 10
14.7101885135
 20
8.7422338186
 30
0.0
 10
14.7146794884
 20
8.740400991
 30
0.0
 10
14.7191065723
 20
8.7379697111
 30
0.0
 10
14.7234660667
 20
8.7349460152
 30
0.0
 10
14.7277547535
 20
8.7313353487
 30
0.0
 10
14.7319692723
 20
8.7271426345
 30
0.0
 10
14.7346426911
 20
8.7240596644
 30
0.0
 10
14.7359680619
 20
8.7224299655
 30
0.0
  0
SPLINE
  5
2F2
100
AcDbEntity
  8
0
100
AcDbSpline
 62
7
  6
CONTINUOUS
 70
0
 71
3
 72
39
 73
35
 74
0
 42
0.0000001
 43
0.0000001
 44
0.0000000001
 40
0.0
 40
0.0
 40
0.0
 40
0.0
 40
0.1056048876
 40
0.2076550574
 40
0.3051451647
 40
0.3972766379
 40
0.4411018072
 40
0.4833141804
 40
0.5238281002
 40
0.5625660745
 40
0.5994638872
 40
0.634462159
 40
0.6675073463
 40
0.6985617175
 40
0.727601089
 40
0.7546118913
 40
0.7795989754
 40
0.8025973931
 40
0.8236694623
 40
0.8429132064
 40
0.8604822596
 40
0.8765980346
 40
0.891557841
 40
0.8987280033
 40
0.9057598101
 40
0.9127124112
 40
0.9196469316
 40
0.9266249271
 40
0.933706783
 40
0.9409502591
 40
0.9484092627
 40
0.9641510678
 40
0.9812676588
 40
1.0
 40
1.0
 40
1.0
 40
1.0
 10
14.7496747744
 20
8.2349441623
 30
0.0
 10
14.7496747744
 20
8.2417258236
 30
0.0
 10
14.749502852
 20
8.2550616222
 30
0.0
 10
14.7487107328
 20
8.2746438225
 30
0.0
 10
14.7473930312
 20
8.2933307447
 30
0.0
 10
14.7458450741
 20
8.3082454248
 30
0.0
 10
14.7443388087
 20
8.3195880294
 30
0.0
 10
14.7431065048
 20
8.327621466
 30
0.0
 10
14.7417554866
 20
8.3353043648
 30
0.0
 10
14.7402886301
 20
8.3426183155
 30
0.0
 10
14.738710043
 20
8.3495462515
 30
0.0
 10
14.7370236048
 20
8.3560719481
 30
0.0
 10
14.7352327629
 20
8.362179858
 30
0.0
 10
14.7333420061
 20
8.3678558359
 30
0.0
 10
14.7313562323
 20
8.3730870403
 30
0.0
 10
14.7292798736
 20
8.3778613243
 30
0.0
 10
14.7271169178
 20
8.382167538
 30
0.0
 10
14.7248726905
 20
8.3859966398
 30
0.0
 10
14.7225517029
 20
8.3893407085
 30
0.0
 10
14.7201570539
 20
8.3921919339
 30
0.0
 10
14.7176913919
 20
8.3945435334
 30
0.0
 10
14.7151583251
 20
8.3963891471
 30
0.0
 10
14.7129604147
 20
8.3975138836
 30
0.0
 10
14.7111906534
 20
8.3981333772
 30
0.0
 10
14.709870113
 20
8.3984610519
 30
0.0
 10
14.7085391112
 20
8.3986578043
 30
0.0
 10
14.7071986836
 20
8.3987235504
 30
0.0
 10
14.7058499644
 20
8.398658251
 30
0.0
 10
14.7044940549
 20
8.3984620092
 30
0.0
 10
14.7031319152
 20
8.3981349842
 30
0.0
 10
14.7012759
 20
8.3975139082
 30
0.0
 10
14.6989318877
 20
8.3963883194
 30
0.0
 10
14.6961665715
 20
8.3945489323
 30
0.0
 10
14.6944067639
 20
8.3930568061
 30
0.0
 10
14.6935262227
 20
8.3922372251
 30
0.0
  0
SPLINE
  5
2F3
100
AcDbEntity
  8
0
100
AcDbSpline
 62
7
  6
CONTINUOUS
 70
0
 71
3
 72
26
 73
22
 74
0
 42
0.0000001
 43
0.0000001
 44
0.0000000001
 40
0.0
 40
0.0
 40
0.0
 40
0.0
 40
0.0715321817
 40
0.142054482
 40
0.2114030638
 40
0.2794000574
 40
0.3459025742
 40
0.3785606993
 40
0.4108049301
 40
0.4740359832
 40
0.5356657283
 40
0.5958541106
 40
0.6254999411
 40
0.6548868976
 40
0.7130307483
 40
0.7418864534
 40
0.7706364162
 40
0.8279410522
 40
0.8851839879
 40
0.9425056917
 40
1.0
 40
1.0
 40
1.0
 40
1.0
 10
14.739800388
 20
8.1224791527
 30
0.0
 10
14.7368318001
 20
8.1196832421
 30
0.0
 10
14.731023467
 20
8.114037315
 30
0.0
 10
14.7227035809
 20
8.1053135999
 30
0.0
 10
14.7149118094
 20
8.0963789785
 30
0.0
 10
14.7077401856
 20
8.0872270878
 30
0.0
 10
14.702333489
 20
8.0793704035
 30
0.0
 10
14.6984246184
 20
8.0729779723
 30
0.0
 10
14.694853975
 20
8.0666037359
 30
0.0
 10
14.6909588647
 20
8.0585255658
 30
0.0
 10
14.6872423598
 20
8.0486364819
 30
0.0
 10
14.6850034036
 20
8.0402811421
 30
0.0
 10
14.6837367504
 20
8.0336011264
 30
0.0
 10
14.682818543
 20
8.0269821674
 30
0.0
 10
14.6823924035
 20
8.0203487954
 30
0.0
 10
14.6824277314
 20
8.0137485124
 30
0.0
 10
14.6827547185
 20
8.0072038332
 30
0.0
 10
14.6836838342
 20
7.9990778332
 30
0.0
 10
14.6855341275
 20
7.9894479495
 30
0.0
 10
14.6880241103
 20
7.9799540028
 30
0.0
 10
14.6900511001
 20
7.9737264456
 30
0.0
 10
14.6911424477
 20
7.9706358058
 30
0.0
  0
SPLINE
  5
2F4
100
AcDbEntity
  8
0
100
AcDbSpline
 62
7
  6
CONTINUOUS
 70
0
 71
3
 72
15
 73
11
 74
0
 42
0.0000001
 43
0.0000001
 44
0.0000000001
 40
0.0
 40
0.0
 40
0.0
 40
0.0
 40
0.1025819678
 40
0.2112939229
 40
0.326328885
 40
0.4478321784
 40
0.5759100453
 40
0.7106222177
 40
0.8519869752
 40
1.0
 40
1.0
 40
1.0
 40
1.0
 10
14.4278558855
 20
7.6533654961
 30
0.0
 10
14.4264971672
 20
7.6550361997
 30
0.0
 10
14.4238095078
 20
7.6585687291
 30
0.0
 10
14.4199706966
 20
7.6642461004
 30
0.0
 10
14.4162132908
 20
7.6704469304
 30
0.0
 10
14.4125409657
 20
7.6771652229
 30
0.0
 10
14.4089574927
 20
7.6843951074
 30
0.0
 10
14.4054662361
 20
7.6921295588
 30
0.0
 10
14.4020702013
 20
7.7003605978
 30
0.0
 10
14.3999210792
 20
7.7060435339
 30
0.0
 10
14.3988607979
 20
7.7089641999
 30
0.0
  0
SPLINE
  5
2F5
100
AcDbEntity
  8
0
100
AcDbSpline
 62
7
  6
CONTINUOUS
 70
0
 71
3
 72
22
 73
18
 74
0
 42
0.0000001
 43
0.0000001
 44
0.0000000001
 40
0.0
 40
0.0
 40
0.0
 40
0.0
 40
0.044209984
 40
0.0913072233
 40
0.1412320891
 40
0.1939136553
 40
0.2492688889
 40
0.3071967968
 40
0.3675898979
 40
0.4303323096
 40
0.4952917997
 40
0.5623313373
 40
0.6313113344
 40
0.7020886339
 40
0.8484403156
 40
0.9236694242
 40
1.0
 40
1.0
 40
1.0
 40
1.0
 10
14.3988607979
 20
7.7089641999
 30
0.0
 10
14.397111479
 20
7.7137828988
 30
0.0
 10
14.3937164501
 20
7.7238149594
 30
0.0
 10
14.3890465563
 20
7.7395148842
 30
0.0
 10
14.3846464707
 20
7.7563099187
 30
0.0
 10
14.380527636
 20
7.7741597931
 30
0.0
 10
14.3767008992
 20
7.7930221449
 30
0.0
 10
14.3731743638
 20
7.8128515376
 30
0.0
 10
14.3699571193
 20
7.8336005197
 30
0.0
 10
14.3670579085
 20
7.8552190868
 30
0.0
 10
14.3644826185
 20
7.8776544201
 30
0.0
 10
14.3622378282
 20
7.9008518751
 30
0.0
 10
14.3603297743
 20
7.9247562328
 30
0.0
 10
14.358216373
 20
7.9578659038
 30
0.0
 10
14.356833908
 20
7.9917440818
 30
0.0
 10
14.3561403718
 20
8.0262822961
 30
0.0
 10
14.3560251232
 20
8.0438568094
 30
0.0
 10
14.3560251232
 20
8.0527077752
 30
0.0
  0
SPLINE
  5
2F6
100
AcDbEntity
  8
0
100
AcDbSpline
 62
7
  6
CONTINUOUS
 70
0
 71
3
 72
15
 73
11
 74
0
 42
0.0000001
 43
0.0000001
 44
0.0000000001
 40
0.0
 40
0.0
 40
0.0
 40
0.0
 40
0.2522223007
 40
0.3779771302
 40
0.5033635498
 40
0.6283278155
 40
0.7527978979
 40
0.8148447641
 40
0.8767465063
 40
1.0
 40
1.0
 40
1.0
 40
1.0
 10
14.739800388
 20
8.1224791527
 30
0.0
 10
14.7357265869
 20
8.1309092741
 30
0.0
 10
14.7300317942
 20
8.143752961
 30
0.0
 10
14.723597125
 20
8.1613016969
 30
0.0
 10
14.7194522399
 20
8.1746411219
 30
0.0
 10
14.7160868585
 20
8.1881501678
 30
0.0
 10
14.7140046142
 20
8.1995332695
 30
0.0
 10
14.7128215138
 20
8.2086805734
 30
0.0
 10
14.7119708729
 20
8.2178188684
 30
0.0
 10
14.7117076882
 20
8.2246954304
 30
0.0
 10
14.7117076882
 20
8.229270771
 30
0.0
  0
SPLINE
  5
2F7
100
AcDbEntity
  8
0
100
AcDbSpline
 62
7
  6
CONTINUOUS
 70
0
 71
3
 72
16
 73
12
 74
0
 42
0.0000001
 43
0.0000001
 44
0.0000000001
 40
0.0
 40
0.0
 40
0.0
 40
0.0
 40
0.1267784113
 40
0.1899659232
 40
0.2529913354
 40
0.3785521313
 40
0.5035808761
 40
0.6281607074
 40
0.7523931327
 40
0.8763223173
 40
1.0
 40
1.0
 40
1.0
 40
1.0
 10
14.7117076882
 20
8.229270771
 30
0.0
 10
14.7117076882
 20
8.2338222688
 30
0.0
 10
14.7119675879
 20
8.2406458266
 30
0.0
 10
14.7128196467
 20
8.2496898986
 30
0.0
 10
14.7139993155
 20
8.2586534976
 30
0.0
 10
14.7160746442
 20
8.269729941
 30
0.0
 10
14.7194390116
 20
8.2827813386
 30
0.0
 10
14.7235841032
 20
8.2955545776
 30
0.0
 10
14.7284069927
 20
8.3080434553
 30
0.0
 10
14.7338144823
 20
8.3202535432
 30
0.0
 10
14.7377582326
 20
8.3282232317
 30
0.0
 10
14.739800388
 20
8.3321659186
 30
0.0
  0
SPLINE
  5
2F8
100
AcDbEntity
  8
0
100
AcDbSpline
 62
7
  6
CONTINUOUS
 70
0
 71
3
 72
50
 73
46
 74
0
 42
0.0000001
 43
0.0000001
 44
0.0000000001
 40
0.0
 40
0.0
 40
0.0
 40
0.0
 40
0.00958268
 40
0.0187374817
 40
0.0358506905
 40
0.0438784783
 40
0.0515997483
 40
0.0590576449
 40
0.0663005423
 40
0.0733817658
 40
0.080358979
 40
0.0872928255
 40
0.0942449845
 40
0.1012765197
 40
0.1084463425
 40
0.115809932
 40
0.1234182319
 40
0.1313164663
 40
0.139544297
 40
0.1481361762
 40
0.1571217605
 40
0.1665264083
 40
0.1763714818
 40
0.1866738918
 40
0.1974472002
 40
0.2087024028
 40
0.2204483256
 40
0.2454357689
 40
0.2724452114
 40
0.3014816346
 40
0.3325352709
 40
0.3655805456
 40
0.4005752351
 40
0.4374700783
 40
0.4762068619
 40
0.5167156114
 40
0.5589223779
 40
0.6027468792
 40
0.6480979463
 40
0.6948815197
 40
0.7430017575
 40
0.7923604037
 40
0.8943844144
 40
0.9468120723
 40
1.0
 40
1.0
 40
1.0
 40
1.0
 10
14.6916937223
 20
7.6660557079
 30
0.0
 10
14.6906014248
 20
7.665039148
 30
0.0
 10
14.6884176576
 20
7.6631016059
 30
0.0
 10
14.6840492139
 20
7.6596237616
 30
0.0
 10
14.6795872422
 20
7.6566574312
 30
0.0
 10
14.6750448812
 20
7.6542926621
 30
0.0
 10
14.6717190655
 20
7.6528696836
 30
0.0
 10
14.6684040247
 20
7.6517610037
 30
0.0
 10
14.6651016278
 20
7.6509679511
 30
0.0
 10
14.6618141293
 20
7.6504920004
 30
0.0
 10
14.6585440527
 20
7.6503343224
 30
0.0
 10
14.6552941501
 20
7.6504947749
 30
0.0
 10
14.6520671217
 20
7.6509730199
 30
0.0
 10
14.6488656041
 20
7.6517684044
 30
0.0
 10
14.6456920485
 20
7.6528800576
 30
0.0
 10
14.6425486985
 20
7.6543070073
 30
0.0
 10
14.6394376872
 20
7.6560481127
 30
0.0
 10
14.6363605723
 20
7.6581013122
 30
0.0
 10
14.6333188743
 20
7.6604647345
 30
0.0
 10
14.6303140853
 20
7.6631366173
 30
0.0
 10
14.6273477039
 20
7.6661153189
 30
0.0
 10
14.624421276
 20
7.6693992553
 30
0.0
 10
14.6215365412
 20
7.6729867334
 30
0.0
 10
14.6186948039
 20
7.6768753788
 30
0.0
 10
14.6158975354
 20
7.6810626897
 30
0.0
 10
14.6131462158
 20
7.6855461472
 30
0.0
 10
14.6094650636
 20
7.6920504622
 30
0.0
 10
14.605008135
 20
7.700926645
 30
0.0
 10
14.5999739065
 20
7.7125024333
 30
0.0
 10
14.5951587554
 20
7.7251862111
 30
0.0
 10
14.5905749719
 20
7.7389489248
 30
0.0
 10
14.5862337366
 20
7.7537589384
 30
0.0
 10
14.5821441498
 20
7.7695812039
 30
0.0
 10
14.5783167713
 20
7.7863788126
 30
0.0
 10
14.5747613283
 20
7.8041123484
 30
0.0
 10
14.5714852524
 20
7.8227397979
 30
0.0
 10
14.5684970023
 20
7.8422172897
 30
0.0
 10
14.5658044263
 20
7.8624985777
 30
0.0
 10
14.5634129038
 20
7.8835348579
 30
0.0
 10
14.5613285394
 20
7.9052757445
 30
0.0
 10
14.5595569733
 20
7.9276703586
 30
0.0
 10
14.5575950982
 20
7.958674556
 30
0.0
 10
14.5563115469
 20
7.9903898467
 30
0.0
 10
14.5556676501
 20
8.0227162411
 30
0.0
 10
14.5555606508
 20
8.0391622493
 30
0.0
 10
14.5555606508
 20
8.0474443059
 30
0.0
  0
SPLINE
  5
2F9
100
AcDbEntity
  8
0
100
AcDbSpline
 62
7
  6
CONTINUOUS
 70
0
 71
3
 72
56
 73
52
 74
0
 42
0.0000001
 43
0.0000001
 44
0.0000000001
 40
0.0
 40
0.0
 40
0.0
 40
0.0
 40
0.0451949717
 40
0.0909988269
 40
0.1371948446
 40
0.183590874
 40
0.2300081501
 40
0.2762630835
 40
0.322166476
 40
0.3675313007
 40
0.4121762185
 40
0.4559223028
 40
0.4985968833
 40
0.5400307761
 40
0.5800634812
 40
0.6185417485
 40
0.6553210427
 40
0.6902692251
 40
0.707017814
 40
0.7232641036
 40
0.7389954797
 40
0.7541997904
 40
0.7688655244
 40
0.7829832159
 40
0.79654529
 40
0.8095450846
 40
0.8219770131
 40
0.8338373012
 40
0.8451255964
 40
0.8558438314
 40
0.8659962266
 40
0.8755899139
 40
0.8846368109
 40
0.8931544179
 40
0.9011654941
 40
0.9086992368
 40
0.9157929895
 40
0.9191903904
 40
0.922496631
 40
0.9288643503
 40
0.9349670577
 40
0.9408840023
 40
0.946703253
 40
0.9525177634
 40
0.9584204636
 40
0.9644999898
 40
0.9708372161
 40
0.9775022
 40
0.9845536184
 40
0.9920398034
 40
1.0
 40
1.0
 40
1.0
 40
1.0
 10
14.5555606508
 20
8.0474443059
 30
0.0
 10
14.5555606508
 20
8.0587615261
 30
0.0
 10
14.5557631198
 20
8.0815488872
 30
0.0
 10
14.5566527083
 20
8.1158937051
 30
0.0
 10
14.5581291014
 20
8.1505194155
 30
0.0
 10
14.5601851411
 20
8.1852693649
 30
0.0
 10
14.5628119693
 20
8.219995637
 30
0.0
 10
14.565998377
 20
8.2545511673
 30
0.0
 10
14.5697298775
 20
8.2887870427
 30
0.0
 10
14.5739918795
 20
8.3225546626
 30
0.0
 10
14.5787640343
 20
8.3557083666
 30
0.0
 10
14.5840275035
 20
8.3881054255
 30
0.0
 10
14.5897577653
 20
8.4196063929
 30
0.0
 10
14.5959311969
 20
8.4500755206
 30
0.0
 10
14.6025203959
 20
8.4793815562
 30
0.0
 10
14.6094964692
 20
8.5073985898
 30
0.0
 10
14.616830133
 20
8.5340058848
 30
0.0
 10
14.6232996386
 20
8.5551990696
 30
0.0
 10
14.6286445073
 20
8.571351912
 30
0.0
 10
14.6326653891
 20
8.5828724588
 30
0.0
 10
14.6367509394
 20
8.5939590316
 30
0.0
 10
14.6408967618
 20
8.604599595
 30
0.0
 10
14.6450987002
 20
8.6147823857
 30
0.0
 10
14.6493521908
 20
8.6244965196
 30
0.0
 10
14.6536523596
 20
8.6337319755
 30
0.0
 10
14.6579945695
 20
8.6424789853
 30
0.0
 10
14.6623742227
 20
8.6507279413
 30
0.0
 10
14.6667870636
 20
8.6584697244
 30
0.0
 10
14.6712280209
 20
8.6656965008
 30
0.0
 10
14.6756923335
 20
8.6724010154
 30
0.0
 10
14.6801753199
 20
8.678576193
 30
0.0
 10
14.6846727551
 20
8.684215095
 30
0.0
 10
14.6891802679
 20
8.6893117539
 30
0.0
 10
14.6936931176
 20
8.6938614752
 30
0.0
 10
14.698207295
 20
8.6978597138
 30
0.0
 10
14.7027185986
 20
8.70130162
 30
0.0
 10
14.7065268251
 20
8.703736453
 30
0.0
 10
14.7095633401
 20
8.7053873091
 30
0.0
 10
14.7125134675
 20
8.7068076846
 30
0.0
 10
14.7162020219
 20
8.7082457926
 30
0.0
 10
14.7206652001
 20
8.7094202213
 30
0.0
 10
14.7251044054
 20
8.7100169385
 30
0.0
 10
14.7295119224
 20
8.7100324927
 30
0.0
 10
14.7338794939
 20
8.7094673514
 30
0.0
 10
14.7381991424
 20
8.7083233611
 30
0.0
 10
14.742463961
 20
8.7066038376
 30
0.0
 10
14.746668044
 20
8.7043124855
 30
0.0
 10
14.7508074967
 20
8.7014551111
 30
0.0
 10
14.7548793274
 20
8.698037
 30
0.0
 10
14.7588802973
 20
8.6940629022
 30
0.0
 10
14.7614174458
 20
8.6911385399
 30
0.0
 10
14.7626751965
 20
8.6895921498
 30
0.0
  0
SPLINE
  5
2FA
100
AcDbEntity
  8
0
100
AcDbSpline
 62
7
  6
CONTINUOUS
 70
0
 71
3
 72
48
 73
44
 74
0
 42
0.0000001
 43
0.0000001
 44
0.0000000001
 40
0.0
 40
0.0
 40
0.0
 40
0.0
 40
0.0417573925
 40
0.0840299968
 40
0.1695096773
 40
0.2553463439
 40
0.2980763572
 40
0.3405016049
 40
0.3824895576
 40
0.4239116184
 40
0.4646402801
 40
0.5045517031
 40
0.5435250656
 40
0.5814420045
 40
0.6181913476
 40
0.653664829
 40
0.687760596
 40
0.7203849164
 40
0.7514481818
 40
0.7808726242
 40
0.8085884187
 40
0.8217866651
 40
0.8345368879
 40
0.846834093
 40
0.8586738929
 40
0.8700526297
 40
0.8809680811
 40
0.8914202613
 40
0.9014105008
 40
0.9109415223
 40
0.9200177434
 40
0.9286459727
 40
0.9368367223
 40
0.9446036573
 40
0.9519638749
 40
0.9589386128
 40
0.9655541802
 40
0.9718434614
 40
0.9778458298
 40
0.9836071794
 40
0.9891800298
 40
0.9946230719
 40
1.0
 40
1.0
 40
1.0
 40
1.0
 10
14.5163688199
 20
8.041587902
 30
0.0
 10
14.5163688199
 20
8.0520868988
 30
0.0
 10
14.5165331243
 20
8.0732147946
 30
0.0
 10
14.5175022077
 20
8.1158245787
 30
0.0
 10
14.519909114
 20
8.1694810488
 30
0.0
 10
14.5238613933
 20
8.2231609452
 30
0.0
 10
14.5279456707
 20
8.2659600129
 30
0.0
 10
14.5314467916
 20
8.2977363439
 30
0.0
 10
14.535379616
 20
8.329130711
 30
0.0
 10
14.5397296287
 20
8.3600393431
 30
0.0
 10
14.5444835131
 20
8.3903601368
 30
0.0
 10
14.5496251579
 20
8.4199929827
 30
0.0
 10
14.5551367252
 20
8.4488399412
 30
0.0
 10
14.5610014004
 20
8.4768054696
 30
0.0
 10
14.5671981537
 20
8.503797319
 30
0.0
 10
14.5737070235
 20
8.5297263398
 30
0.0
 10
14.5805068341
 20
8.5545069164
 30
0.0
 10
14.5875734045
 20
8.5780575972
 30
0.0
 10
14.5948849873
 20
8.6003006955
 30
0.0
 10
14.6024160497
 20
8.6211631252
 30
0.0
 10
14.6089558881
 20
8.6375988254
 30
0.0
 10
14.6142936363
 20
8.649991633
 30
0.0
 10
14.6182708425
 20
8.6587473926
 30
0.0
 10
14.6222840173
 20
8.6671094723
 30
0.0
 10
14.6263298754
 20
8.6750709303
 30
0.0
 10
14.6304052007
 20
8.6826249295
 30
0.0
 10
14.6345068753
 20
8.6897651023
 30
0.0
 10
14.6386312498
 20
8.6964859693
 30
0.0
 10
14.6427749423
 20
8.7027823561
 30
0.0
 10
14.6469346035
 20
8.7086491494
 30
0.0
 10
14.6511069728
 20
8.7140813252
 30
0.0
 10
14.6552891183
 20
8.7190741145
 30
0.0
 10
14.6594775262
 20
8.7236238672
 30
0.0
 10
14.6636689951
 20
8.7277272965
 30
0.0
 10
14.6678604959
 20
8.7313811017
 30
0.0
 10
14.6720491101
 20
8.7345819572
 30
0.0
 10
14.676232337
 20
8.7373262798
 30
0.0
 10
14.6804071341
 20
8.7396115785
 30
0.0
 10
14.6845705291
 20
8.7414356411
 30
0.0
 10
14.6887193738
 20
8.7427958698
 30
0.0
 10
14.6928502937
 20
8.7436894787
 30
0.0
 10
14.6969583807
 20
8.7441134249
 30
0.0
 10
14.6996857493
 20
8.744081914
 30
0.0
 10
14.7010344141
 20
8.7439882595
 30
0.0
  0
SPLINE
  5
2FB
100
AcDbEntity
  8
0
100
AcDbSpline
 62
7
  6
CONTINUOUS
 70
0
 71
3
 72
38
 73
34
 74
0
 42
0.0000001
 43
0.0000001
 44
0.0000000001
 40
0.0
 40
0.0
 40
0.0
 40
0.0
 40
0.0063160871
 40
0.0126710653
 40
0.0191030043
 40
0.0256485671
 40
0.0323424912
 40
0.0392171351
 40
0.0536159155
 40
0.0690530543
 40
0.0856857371
 40
0.1036345266
 40
0.1229853816
 40
0.1437978868
 40
0.1661133312
 40
0.1899571413
 40
0.2153376819
 40
0.2422535033
 40
0.270696436
 40
0.3006492344
 40
0.3320853983
 40
0.364974673
 40
0.3992835825
 40
0.4349714903
 40
0.4719931346
 40
0.5103016783
 40
0.5498473562
 40
0.590573429
 40
0.6324209139
 40
0.7192378794
 40
0.8098088668
 40
0.9036121454
 40
1.0
 40
1.0
 40
1.0
 40
1.0
 10
14.62313323
 20
7.6206873289
 30
0.0
 10
14.6221816577
 20
7.6207534083
 30
0.0
 10
14.6202771575
 20
7.6209638233
 30
0.0
 10
14.6174417373
 20
7.6215118946
 30
0.0
 10
14.6146252395
 20
7.6222924164
 30
0.0
 10
14.611829308
 20
7.6233049046
 30
0.0
 10
14.6090550827
 20
7.6245489286
 30
0.0
 10
14.6053300228
 20
7.6265460467
 30
0.0
 10
14.6007207874
 20
7.629655868
 30
0.0
 10
14.5953891405
 20
7.634239018
 30
0.0
 10
14.5901758649
 20
7.63972081
 30
0.0
 10
14.5850881414
 20
7.6460922423
 30
0.0
 10
14.5801307114
 20
7.6533424748
 30
0.0
 10
14.5753096351
 20
7.6614598923
 30
0.0
 10
14.5706321639
 20
7.6704325515
 30
0.0
 10
14.5661061238
 20
7.6802469205
 30
0.0
 10
14.561737574
 20
7.6908868463
 30
0.0
 10
14.5575334809
 20
7.7023352557
 30
0.0
 10
14.5535013412
 20
7.7145742116
 30
0.0
 10
14.5496478868
 20
7.727583912
 30
0.0
 10
14.5459787368
 20
7.7413427101
 30
0.0
 10
14.5425001
 20
7.7558281761
 30
0.0
 10
14.5392184857
 20
7.7710169561
 30
0.0
 10
14.5361389235
 20
7.7868840452
 30
0.0
 10
14.5332661714
 20
7.8034032031
 30
0.0
 10
14.5306052816
 20
7.8205475449
 30
0.0
 10
14.5281612916
 20
7.8382889625
 30
0.0
 10
14.5259375259
 20
7.856597783
 30
0.0
 10
14.5232379697
 20
7.8820373477
 30
0.0
 10
14.5204628298
 20
7.9150346919
 30
0.0
 10
14.5180979173
 20
7.9559262047
 30
0.0
 10
14.516678044
 20
7.9983072651
 30
0.0
 10
14.5163688199
 20
8.0270312806
 30
0.0
 10
14.5163688199
 20
8.041587902
 30
0.0
  0
SPLINE
  5
2FC
100
AcDbEntity
  8
0
100
AcDbSpline
 62
7
  6
CONTINUOUS
 70
0
 71
3
 72
39
 73
35
 74
0
 42
0.0000001
 43
0.0000001
 44
0.0000000001
 40
0.0
 40
0.0
 40
0.0
 40
0.0
 40
0.0379231384
 40
0.076265405
 40
0.1537922874
 40
0.2318249948
 40
0.3096755213
 40
0.3866319696
 40
0.4245547504
 40
0.4619921777
 40
0.4988593162
 40
0.5350740909
 40
0.5705556898
 40
0.6052244352
 40
0.639005236
 40
0.6718252035
 40
0.703613023
 40
0.7343033077
 40
0.7638339149
 40
0.7921450038
 40
0.819184338
 40
0.8449045431
 40
0.8692619683
 40
0.8922229732
 40
0.9137616908
 40
0.9338592751
 40
0.9433665779
 40
0.9525133675
 40
0.9613013056
 40
0.969732984
 40
0.9778121127
 40
0.9855442414
 40
0.9929370617
 40
1.0
 40
1.0
 40
1.0
 40
1.0
 10
14.3560251232
 20
8.0527077752
 30
0.0
 10
14.3560251232
 20
8.0617089772
 30
0.0
 10
14.3561458641
 20
8.0798110984
 30
0.0
 10
14.3568599779
 20
8.1163080785
 30
0.0
 10
14.3586368958
 20
8.1623023944
 30
0.0
 10
14.3621442857
 20
8.2175975356
 30
0.0
 10
14.3669999404
 20
8.2726547298
 30
0.0
 10
14.3721541412
 20
8.3181139991
 30
0.0
 10
14.3769255912
 20
8.3539515646
 30
0.0
 10
14.380789923
 20
8.3803082031
 30
0.0
 10
14.3849488243
 20
8.4062094533
 30
0.0
 10
14.3893914282
 20
8.4315924532
 30
0.0
 10
14.3941065929
 20
8.4563953471
 30
0.0
 10
14.3990837904
 20
8.4805575042
 30
0.0
 10
14.4043101382
 20
8.5040202521
 30
0.0
 10
14.4097724743
 20
8.5267265604
 30
0.0
 10
14.4154584925
 20
8.5486209364
 30
0.0
 10
14.4213535833
 20
8.5696503464
 30
0.0
 10
14.4274428318
 20
8.5897638317
 30
0.0
 10
14.4337124852
 20
8.6089122176
 30
0.0
 10
14.4401465151
 20
8.6270493297
 30
0.0
 10
14.4467285675
 20
8.6441315682
 30
0.0
 10
14.4534438411
 20
8.6601172229
 30
0.0
 10
14.4602753361
 20
8.6749683021
 30
0.0
 10
14.4672056782
 20
8.6886494458
 30
0.0
 10
14.473155918
 20
8.6992358909
 30
0.0
 10
14.4779653593
 20
8.7070772582
 30
0.0
 10
14.481519882
 20
8.7125363813
 30
0.0
 10
14.4850866731
 20
8.7176797865
 30
0.0
 10
14.4886636516
 20
8.7225042483
 30
0.0
 10
14.492248835
 20
8.7270065742
 30
0.0
 10
14.4958402371
 20
8.7311840322
 30
0.0
 10
14.4994354782
 20
8.7350343398
 30
0.0
 10
14.5018885032
 20
8.737435535
 30
0.0
 10
14.5031156498
 20
8.7385776733
 30
0.0
  0
SPLINE
  5
2FD
100
AcDbEntity
  8
0
100
AcDbSpline
 62
7
  6
CONTINUOUS
 70
0
 71
3
 72
30
 73
26
 74
0
 42
0.0000001
 43
0.0000001
 44
0.0000000001
 40
0.0
 40
0.0
 40
0.0
 40
0.0
 40
0.0175881939
 40
0.0349323999
 40
0.0521708268
 40
0.0694641234
 40
0.0869876087
 40
0.1049284816
 40
0.1234803229
 40
0.1428364329
 40
0.1631699924
 40
0.1846268531
 40
0.2313792085
 40
0.2569029798
 40
0.2839259921
 40
0.3124722371
 40
0.3425530867
 40
0.4072932898
 40
0.4779304523
 40
0.5540581268
 40
0.6352080423
 40
0.7208763052
 40
0.8105373978
 40
0.9037272898
 40
1.0
 40
1.0
 40
1.0
 40
1.0
 10
14.6835123192
 20
8.3800237775
 30
0.0
 10
14.6833373905
 20
8.3795906696
 30
0.0
 10
14.6830254711
 20
8.3787154908
 30
0.0
 10
14.6826805479
 20
8.3773715317
 30
0.0
 10
14.6824693984
 20
8.3760077514
 30
0.0
 10
14.6823983477
 20
8.3746246488
 30
0.0
 10
14.682472526
 20
8.3732229472
 30
0.0
 10
14.6826970974
 20
8.3718035252
 30
0.0
 10
14.6830768856
 20
8.3703672113
 30
0.0
 10
14.6836167911
 20
8.3689153088
 30
0.0
 10
14.6843189753
 20
8.3674487787
 30
0.0
 10
14.6855067126
 20
8.3654167982
 30
0.0
 10
14.6870059777
 20
8.363418146
 30
0.0
 10
14.6887678802
 20
8.3614551052
 30
0.0
 10
14.6902903735
 20
8.3599303903
 30
0.0
 10
14.6919718617
 20
8.3583974717
 30
0.0
 10
14.6944835437
 20
8.3562924335
 30
0.0
 10
14.6980094464
 20
8.3536639893
 30
0.0
 10
14.7027006954
 20
8.3505706664
 30
0.0
 10
14.7079029382
 20
8.347473063
 30
0.0
 10
14.7135661576
 20
8.3443791977
 30
0.0
 10
14.7196395558
 20
8.3412935496
 30
0.0
 10
14.7260750128
 20
8.338219845
 30
0.0
 10
14.7328281424
 20
8.3351617778
 30
0.0
 10
14.7374466296
 20
8.3331643687
 30
0.0
 10
14.739800388
 20
8.3321659186
 30
0.0
  0
SPLINE
  5
2FE
100
AcDbEntity
  8
0
100
AcDbSpline
 62
7
  6
CONTINUOUS
 70
0
 71
3
 72
49
 73
45
 74
0
 42
0.0000001
 43
0.0000001
 44
0.0000000001
 40
0.0
 40
0.0
 40
0.0
 40
0.0
 40
0.0079600536
 40
0.0154459561
 40
0.022497158
 40
0.0291621342
 40
0.035499614
 40
0.0415793153
 40
0.0474819403
 40
0.0532964665
 40
0.059115846
 40
0.0650327178
 40
0.0711352196
 40
0.0775033286
 40
0.084205743
 40
0.0912999387
 40
0.098833139
 40
0.1068436157
 40
0.1153618401
 40
0.1244100387
 40
0.134004217
 40
0.1441560305
 40
0.1548736751
 40
0.1661625172
 40
0.178024098
 40
0.1904564535
 40
0.2170156165
 40
0.2457986227
 40
0.2767335768
 40
0.3097274658
 40
0.3446765048
 40
0.381456596
 40
0.4199348193
 40
0.4599689212
 40
0.5014030114
 40
0.5440775969
 40
0.5878247493
 40
0.632470267
 40
0.6778372689
 40
0.723740636
 40
0.8164057079
 40
0.9090087897
 40
0.9548141127
 40
1.0
 40
1.0
 40
1.0
 40
1.0
 10
14.664255147
 20
7.9701029205
 30
0.0
 10
14.6647738689
 20
7.9694651725
 30
0.0
 10
14.6658202575
 20
7.9682591675
 30
0.0
 10
14.6674704132
 20
7.9666203227
 30
0.0
 10
14.6691497885
 20
7.9652107747
 30
0.0
 10
14.6708570428
 20
7.9640324106
 30
0.0
 10
14.6725908567
 20
7.96308726
 30
0.0
 10
14.6743497229
 20
7.9623778626
 30
0.0
 10
14.6761313462
 20
7.961906341
 30
0.0
 10
14.677932683
 20
7.9616736469
 30
0.0
 10
14.6797504319
 20
7.9616802933
 30
0.0
 10
14.6815812561
 20
7.9619260217
 30
0.0
 10
14.6834221571
 20
7.9624100523
 30
0.0
 10
14.6852705315
 20
7.9631310804
 30
0.0
 10
14.6871245914
 20
7.9640867062
 30
0.0
 10
14.6889827728
 20
7.9652749759
 30
0.0
 10
14.6908435787
 20
7.966694197
 30
0.0
 10
14.6927054683
 20
7.9683428891
 30
0.0
 10
14.6945665987
 20
7.9702195784
 30
0.0
 10
14.6964254439
 20
7.9723220126
 30
0.0
 10
14.6982803109
 20
7.9746477518
 30
0.0
 10
14.7001293428
 20
7.9771943328
 30
0.0
 10
14.7019706563
 20
7.9799592612
 30
0.0
 10
14.7038021559
 20
7.9829399255
 30
0.0
 10
14.7056219829
 20
7.9861331608
 30
0.0
 10
14.7080849263
 20
7.990772368
 30
0.0
 10
14.7111084164
 20
7.9970886749
 30
0.0
 10
14.7145841643
 20
8.0052957059
 30
0.0
 10
14.7179685794
 20
8.0142546778
 30
0.0
 10
14.7212475879
 20
8.0239272854
 30
0.0
 10
14.7244056347
 20
8.0342726877
 30
0.0
 10
14.7274301428
 20
8.0452463636
 30
0.0
 10
14.7303075205
 20
8.0568013474
 30
0.0
 10
14.7330247417
 20
8.0688880415
 30
0.0
 10
14.7355710333
 20
8.0814542979
 30
0.0
 10
14.7379343814
 20
8.0944461171
 30
0.0
 10
14.7401048801
 20
8.1078075959
 30
0.0
 10
14.7420735105
 20
8.1214812391
 30
0.0
 10
14.7438307744
 20
8.1354081247
 30
0.0
 10
14.7458893652
 20
8.1542927803
 30
0.0
 10
14.7478836798
 20
8.1780879645
 30
0.0
 10
14.7491000856
 20
8.2019254921
 30
0.0
 10
14.7495911958
 20
8.2208803849
 30
0.0
 10
14.7496747744
 20
8.2302776295
 30
0.0
 10
14.7496747744
 20
8.2349441623
 30
0.0
  0
SPLINE
  5
2FF
100
AcDbEntity
  8
0
100
AcDbSpline
 62
7
  6
CONTINUOUS
 70
0
 71
3
 72
22
 73
18
 74
0
 42
0.0000001
 43
0.0000001
 44
0.0000000001
 40
0.0
 40
0.0
 40
0.0
 40
0.0
 40
0.0764234912
 40
0.1504698875
 40
0.2222095369
 40
0.291722846
 40
0.3591050492
 40
0.4244648984
 40
0.5495745482
 40
0.6096453126
 40
0.6682571342
 40
0.7255853859
 40
0.7818195466
 40
0.8371613374
 40
0.8918233206
 40
0.9460270232
 40
1.0
 40
1.0
 40
1.0
 40
1.0
 10
14.5017401254
 20
8.992278373
 30
0.0
 10
14.5029277823
 20
8.9934255616
 30
0.0
 10
14.5053026537
 20
8.9956469055
 30
0.0
 10
14.5089215853
 20
8.9988034384
 30
0.0
 10
14.5125389303
 20
9.0017300618
 30
0.0
 10
14.5161535193
 20
9.0044256523
 30
0.0
 10
14.5197645635
 20
9.0068895193
 30
0.0
 10
14.5245032635
 20
9.0098215498
 30
0.0
 10
14.5293046485
 20
9.0123452661
 30
0.0
 10
14.5341518144
 20
9.0144127064
 30
0.0
 10
14.5377298721
 20
9.0157074653
 30
0.0
 10
14.5412982818
 20
9.0167665708
 30
0.0
 10
14.544856078
 20
9.0175896924
 30
0.0
 10
14.5484021302
 20
9.018176425
 30
0.0
 10
14.5519353763
 20
9.0185263883
 30
0.0
 10
14.5554544205
 20
9.0186394576
 30
0.0
 10
14.5577923708
 20
9.018556757
 30
0.0
 10
14.5589557356
 20
9.0184760732
 30
0.0
  0
SPLINE
  5
300
100
AcDbEntity
  8
0
100
AcDbSpline
 62
7
  6
CONTINUOUS
 70
0
 71
3
 72
24
 73
20
 74
0
 42
0.0000001
 43
0.0000001
 44
0.0000000001
 40
0.0
 40
0.0
 40
0.0
 40
0.0
 40
0.0637767223
 40
0.1273442464
 40
0.1907009953
 40
0.2538548358
 40
0.3168115815
 40
0.3795801539
 40
0.4421711312
 40
0.5045967629
 40
0.566870977
 40
0.6290091758
 40
0.6910281284
 40
0.7529458055
 40
0.8147811999
 40
0.8765541364
 40
0.9074261033
 40
0.938290172
 40
1.0
 40
1.0
 40
1.0
 40
1.0
 10
12.3949117127
 20
8.8626161989
 30
0.0
 10
12.3949117127
 20
8.8549018338
 30
0.0
 10
12.3945424664
 20
8.839495794
 30
0.0
 10
12.3928759063
 20
8.8164804549
 30
0.0
 10
12.3901010577
 20
8.7936475556
 30
0.0
 10
12.3862245657
 20
8.7710506945
 30
0.0
 10
12.3812550943
 20
8.7487415418
 30
0.0
 10
12.3752041181
 20
8.726771668
 30
0.0
 10
12.3680855522
 20
8.705191685
 30
0.0
 10
12.3599157565
 20
8.6840513574
 30
0.0
 10
12.3507135209
 20
8.6633994447
 30
0.0
 10
12.3404999889
 20
8.6432835914
 30
0.0
 10
12.3292987218
 20
8.6237502096
 30
0.0
 10
12.3171354713
 20
8.6048442819
 30
0.0
 10
12.3040384971
 20
8.5866096934
 30
0.0
 10
12.2923683275
 20
8.5720049695
 30
0.0
 10
12.2825984862
 20
8.5607008297
 30
0.0
 10
12.2725467453
 20
8.5496573435
 30
0.0
 10
12.2646910384
 20
8.5416685528
 30
0.0
 10
12.2593222681
 20
8.5364827152
 30
0.0
  0
SPLINE
  5
301
100
AcDbEntity
  8
0
100
AcDbSpline
 62
7
  6
CONTINUOUS
 70
0
 71
3
 72
23
 73
19
 74
0
 42
0.0000001
 43
0.0000001
 44
0.0000000001
 40
0.0
 40
0.0
 40
0.0
 40
0.0
 40
0.063776909
 40
0.1273449468
 40
0.1907019575
 40
0.2538561145
 40
0.3168131979
 40
0.3795820804
 40
0.4421733815
 40
0.5045993354
 40
0.5668738682
 40
0.6290123838
 40
0.6910316538
 40
0.75294965
 40
0.8147853622
 40
0.8765586114
 40
0.9382898593
 40
1.0
 40
1.0
 40
1.0
 40
1.0
 10
12.3949117127
 20
7.2804295331
 30
0.0
 10
12.3949117127
 20
7.272715218
 30
0.0
 10
12.3945424628
 20
7.2573092389
 30
0.0
 10
12.3928759274
 20
7.2342939992
 30
0.0
 10
12.3901010987
 20
7.2114611827
 30
0.0
 10
12.3862246451
 20
7.1888644216
 30
0.0
 10
12.3812552087
 20
7.1665553622
 30
0.0
 10
12.3752042828
 20
7.1445855755
 30
0.0
 10
12.3680857862
 20
7.1230056733
 30
0.0
 10
12.3599160687
 20
7.1018654192
 30
0.0
 10
12.3507138962
 20
7.0812135835
 30
0.0
 10
12.3405004472
 20
7.0610978014
 30
0.0
 10
12.3292992744
 20
7.0415644622
 30
0.0
 10
12.3171361691
 20
7.0226586144
 30
0.0
 10
12.3040391748
 20
7.00442393
 30
0.0
 10
12.2900383197
 20
6.9869023446
 30
0.0
 10
12.2751664652
 20
6.9701348121
 30
0.0
 10
12.2646921389
 20
6.9594829564
 30
0.0
 10
12.2593234013
 20
6.9542971317
 30
0.0
  0
SPLINE
  5
302
100
AcDbEntity
  8
0
100
AcDbSpline
 62
7
  6
CONTINUOUS
 70
0
 71
3
 72
23
 73
19
 74
0
 42
0.0000001
 43
0.0000001
 44
0.0000000001
 40
0.0
 40
0.0
 40
0.0
 40
0.0
 40
0.063776909
 40
0.1273449468
 40
0.1907019575
 40
0.2538561145
 40
0.3168131979
 40
0.3795820804
 40
0.4421733815
 40
0.5045993354
 40
0.5668738682
 40
0.6290123838
 40
0.6910316538
 40
0.75294965
 40
0.8147853622
 40
0.8765586114
 40
0.9382898593
 40
1.0
 40
1.0
 40
1.0
 40
1.0
 10
11.7303547399
 20
8.1185759332
 30
0.0
 10
11.7303547399
 20
8.1108616182
 30
0.0
 10
11.7299854899
 20
8.0954556391
 30
0.0
 10
11.7283189546
 20
8.0724403994
 30
0.0
 10
11.7255441259
 20
8.0496075828
 30
0.0
 10
11.7216676722
 20
8.0270108218
 30
0.0
 10
11.7166982358
 20
8.0047017624
 30
0.0
 10
11.7106473099
 20
7.9827319757
 30
0.0
 10
11.7035288134
 20
7.9611520735
 30
0.0
 10
11.6953590958
 20
7.9400118194
 30
0.0
 10
11.6861569233
 20
7.9193599837
 30
0.0
 10
11.6759434743
 20
7.8992442016
 30
0.0
 10
11.6647423015
 20
7.8797108624
 30
0.0
 10
11.6525791962
 20
7.8608050146
 30
0.0
 10
11.639482202
 20
7.8425703302
 30
0.0
 10
11.6254813469
 20
7.8250487448
 30
0.0
 10
11.6106094923
 20
7.8082812123
 30
0.0
 10
11.6001351661
 20
7.7976293565
 30
0.0
 10
11.5947664284
 20
7.7924435318
 30
0.0
  0
SPLINE
  5
303
100
AcDbEntity
  8
0
100
AcDbSpline
 62
7
  6
CONTINUOUS
 70
0
 71
3
 72
23
 73
19
 74
0
 42
0.0000001
 43
0.0000001
 44
0.0000000001
 40
0.0
 40
0.0
 40
0.0
 40
0.0
 40
0.063776909
 40
0.1273449468
 40
0.1907019575
 40
0.2538561145
 40
0.3168131979
 40
0.3795820804
 40
0.4421733815
 40
0.5045993354
 40
0.5668738682
 40
0.6290123838
 40
0.6910316538
 40
0.75294965
 40
0.8147853622
 40
0.8765586114
 40
0.9382898593
 40
1.0
 40
1.0
 40
1.0
 40
1.0
 10
13.0594688007
 20
8.02640156
 30
0.0
 10
13.0594688007
 20
8.018687245
 30
0.0
 10
13.0590995508
 20
8.0032812659
 30
0.0
 10
13.0574330154
 20
7.9802660262
 30
0.0
 10
13.0546581867
 20
7.9574332097
 30
0.0
 10
13.0507817331
 20
7.9348364486
 30
0.0
 10
13.0458122967
 20
7.9125273892
 30
0.0
 10
13.0397613708
 20
7.8905576025
 30
0.0
 10
13.0326428742
 20
7.8689777003
 30
0.0
 10
13.0244731567
 20
7.8478374462
 30
0.0
 10
13.0152709842
 20
7.8271856105
 30
0.0
 10
13.0050575352
 20
7.8070698284
 30
0.0
 10
12.9938563624
 20
7.7875364892
 30
0.0
 10
12.9816932571
 20
7.7686306414
 30
0.0
 10
12.9685962628
 20
7.750395957
 30
0.0
 10
12.9545954077
 20
7.7328743716
 30
0.0
 10
12.9397235532
 20
7.7161068391
 30
0.0
 10
12.9292492269
 20
7.7054549834
 30
0.0
 10
12.9238804893
 20
7.7002691587
 30
0.0
  0
SPLINE
  5
304
100
AcDbEntity
  8
0
100
AcDbSpline
 62
7
  6
CONTINUOUS
 70
0
 71
3
 72
21
 73
17
 74
0
 42
0.0000001
 43
0.0000001
 44
0.0000000001
 40
0.0
 40
0.0
 40
0.0
 40
0.0
 40
0.1273176253
 40
0.2537997538
 40
0.3167617031
 40
0.3795356349
 40
0.4421315552
 40
0.5045621127
 40
0.5668413504
 40
0.6289845238
 40
0.6910084429
 40
0.7529310808
 40
0.8147714271
 40
0.8765493234
 40
0.9382852026
 40
1.0
 40
1.0
 40
1.0
 40
1.0
 10
11.162390383
 20
6.9215792631
 30
0.0
 10
11.162390383
 20
6.917575473
 30
0.0
 10
11.1620082007
 20
6.9095890124
 30
0.0
 10
11.1605647616
 20
6.899716027
 30
0.0
 10
11.1588395539
 20
6.8919715235
 30
0.0
 10
11.1572662505
 20
6.8862591734
 30
0.0
 10
11.1554153888
 20
6.8806483185
 30
0.0
 10
11.1532911423
 20
6.875151779
 30
0.0
 10
11.1508985365
 20
6.8697822032
 30
0.0
 10
11.1482428986
 20
6.8645520475
 30
0.0
 10
11.1453305345
 20
6.8594732878
 30
0.0
 10
11.1421679684
 20
6.8545577398
 30
0.0
 10
11.1387626583
 20
6.849816654
 30
0.0
 10
11.1351222906
 20
6.845261018
 30
0.0
 10
11.1312554889
 20
6.8409014182
 30
0.0
 10
11.1285320537
 20
6.8381319418
 30
0.0
 10
11.1271361448
 20
6.8367836125
 30
0.0
  0
SPLINE
  5
305
100
AcDbEntity
  8
0
100
AcDbSpline
 62
7
  6
CONTINUOUS
 70
0
 71
3
 72
23
 73
19
 74
0
 42
0.0000001
 43
0.0000001
 44
0.0000000001
 40
0.0
 40
0.0
 40
0.0
 40
0.0
 40
0.0637748419
 40
0.1273454053
 40
0.1907023746
 40
0.2538558225
 40
0.3168132293
 40
0.3795821318
 40
0.4421733557
 40
0.5045993383
 40
0.566873869
 40
0.6290123749
 40
0.6910316549
 40
0.7529496458
 40
0.8147853539
 40
0.8765586087
 40
0.9382898542
 40
1.0
 40
1.0
 40
1.0
 40
1.0
 10
13.7481738981
 20
6.8002100938
 30
0.0
 10
13.7481738981
 20
6.7969238924
 30
0.0
 10
13.7480165509
 20
6.7903609041
 30
0.0
 10
13.7473066702
 20
6.7805563581
 30
0.0
 10
13.7461245857
 20
6.7708294556
 30
0.0
 10
13.7444731336
 20
6.7612032439
 30
0.0
 10
13.7423562079
 20
6.7516995635
 30
0.0
 10
13.7397784841
 20
6.742340397
 30
0.0
 10
13.7367459656
 20
6.7331473442
 30
0.0
 10
13.7332656779
 20
6.7241415634
 30
0.0
 10
13.7293454956
 20
6.7153438743
 30
0.0
 10
13.7249945585
 20
6.7067745248
 30
0.0
 10
13.7202228491
 20
6.6984532944
 30
0.0
 10
13.7150412991
 20
6.6903994132
 30
0.0
 10
13.7094619733
 20
6.6826314086
 30
0.0
 10
13.7034975731
 20
6.675167205
 30
0.0
 10
13.6971621185
 20
6.6680242383
 30
0.0
 10
13.6927000423
 20
6.6634865345
 30
0.0
 10
13.6904129505
 20
6.6612773694
 30
0.0
  0
SPLINE
  5
306
100
AcDbEntity
  8
0
100
AcDbSpline
 62
7
  6
CONTINUOUS
 70
0
 71
3
 72
23
 73
19
 74
0
 42
0.0000001
 43
0.0000001
 44
0.0000000001
 40
0.0
 40
0.0
 40
0.0
 40
0.0
 40
0.0637748419
 40
0.1273454053
 40
0.1907023746
 40
0.2538558225
 40
0.3168132293
 40
0.3795821318
 40
0.4421733557
 40
0.5045993383
 40
0.566873869
 40
0.6290123749
 40
0.6910316549
 40
0.7529496458
 40
0.8147853539
 40
0.8765586087
 40
0.9382898542
 40
1.0
 40
1.0
 40
1.0
 40
1.0
 10
13.7481738981
 20
9.1570693049
 30
0.0
 10
13.7481738981
 20
9.1537831035
 30
0.0
 10
13.7480165509
 20
9.1472201152
 30
0.0
 10
13.7473066702
 20
9.1374155692
 30
0.0
 10
13.7461245857
 20
9.1276886667
 30
0.0
 10
13.7444731336
 20
9.118062455
 30
0.0
 10
13.7423562079
 20
9.1085587746
 30
0.0
 10
13.7397784841
 20
9.0991996081
 30
0.0
 10
13.7367459656
 20
9.0900065553
 30
0.0
 10
13.7332656779
 20
9.0810007744
 30
0.0
 10
13.7293454956
 20
9.0722030854
 30
0.0
 10
13.7249945585
 20
9.0636337359
 30
0.0
 10
13.7202228491
 20
9.0553125055
 30
0.0
 10
13.7150412991
 20
9.0472586243
 30
0.0
 10
13.7094619733
 20
9.0394906197
 30
0.0
 10
13.7034975731
 20
9.0320264161
 30
0.0
 10
13.6971621185
 20
9.0248834494
 30
0.0
 10
13.6927000423
 20
9.0203457456
 30
0.0
 10
13.6904129505
 20
9.0181365804
 30
0.0
  0
SPLINE
  5
307
100
AcDbEntity
  8
0
100
AcDbSpline
 62
7
  6
CONTINUOUS
 70
0
 71
3
 72
23
 73
19
 74
0
 42
0.0000001
 43
0.0000001
 44
0.0000000001
 40
0.0
 40
0.0
 40
0.0
 40
0.0
 40
0.0637748419
 40
0.1273454053
 40
0.1907023746
 40
0.2538558225
 40
0.3168132293
 40
0.3795821318
 40
0.4421733557
 40
0.5045993383
 40
0.566873869
 40
0.6290123749
 40
0.6910316549
 40
0.7529496458
 40
0.8147853539
 40
0.8765586087
 40
0.9382898542
 40
1.0
 40
1.0
 40
1.0
 40
1.0
 10
10.6688021589
 20
9.428579958
 30
0.0
 10
10.6688021589
 20
9.4252937567
 30
0.0
 10
10.6686448116
 20
9.4187307684
 30
0.0
 10
10.6679349309
 20
9.4089262223
 30
0.0
 10
10.6667528464
 20
9.3991993199
 30
0.0
 10
10.6651013943
 20
9.3895731082
 30
0.0
 10
10.6629844686
 20
9.3800694277
 30
0.0
 10
10.6604067449
 20
9.3707102613
 30
0.0
 10
10.6573742263
 20
9.3615172085
 30
0.0
 10
10.6538939387
 20
9.3525114276
 30
0.0
 10
10.6499737564
 20
9.3437137386
 30
0.0
 10
10.6456228192
 20
9.3351443891
 30
0.0
 10
10.6408511098
 20
9.3268231587
 30
0.0
 10
10.6356695599
 20
9.3187692775
 30
0.0
 10
10.6300902341
 20
9.3110012729
 30
0.0
 10
10.6241258339
 20
9.3035370693
 30
0.0
 10
10.6177903792
 20
9.2963941026
 30
0.0
 10
10.6133283031
 20
9.2918563988
 30
0.0
 10
10.6110412112
 20
9.2896472336
 30
0.0
  0
SPLINE
  5
308
100
AcDbEntity
  8
0
100
AcDbSpline
 62
7
  6
CONTINUOUS
 70
0
 71
3
 72
23
 73
19
 74
0
 42
0.0000001
 43
0.0000001
 44
0.0000000001
 40
0.0
 40
0.0
 40
0.0
 40
0.0
 40
0.0637748419
 40
0.1273454053
 40
0.1907023746
 40
0.2538558225
 40
0.3168132293
 40
0.3795821318
 40
0.4421733557
 40
0.5045993383
 40
0.566873869
 40
0.6290123749
 40
0.6910316549
 40
0.7529496458
 40
0.8147853539
 40
0.8765586087
 40
0.9382898542
 40
1.0
 40
1.0
 40
1.0
 40
1.0
 10
10.6688021589
 20
6.9558097227
 30
0.0
 10
10.6688021589
 20
6.9525235214
 30
0.0
 10
10.6686448116
 20
6.9459605331
 30
0.0
 10
10.6679349309
 20
6.936155987
 30
0.0
 10
10.6667528464
 20
6.9264290846
 30
0.0
 10
10.6651013943
 20
6.9168028729
 30
0.0
 10
10.6629844686
 20
6.9072991924
 30
0.0
 10
10.6604067449
 20
6.8979400259
 30
0.0
 10
10.6573742263
 20
6.8887469732
 30
0.0
 10
10.6538939387
 20
6.8797411923
 30
0.0
 10
10.6499737564
 20
6.8709435033
 30
0.0
 10
10.6456228192
 20
6.8623741538
 30
0.0
 10
10.6408511098
 20
6.8540529234
 30
0.0
 10
10.6356695599
 20
6.8459990422
 30
0.0
 10
10.6300902341
 20
6.8382310375
 30
0.0
 10
10.6241258339
 20
6.8307668339
 30
0.0
 10
10.6177903792
 20
6.8236238672
 30
0.0
 10
10.6133283031
 20
6.8190861635
 30
0.0
 10
10.6110412112
 20
6.8168769983
 30
0.0
  0
SPLINE
  5
309
100
AcDbEntity
  8
0
100
AcDbSpline
 62
7
  6
CONTINUOUS
 70
0
 71
3
 72
11
 73
7
 74
0
 42
0.0000001
 43
0.0000001
 44
0.0000000001
 40
0.0
 40
0.0
 40
0.0
 40
0.0
 40
0.2498315956
 40
0.5008405382
 40
0.7515708361
 40
1.0
 40
1.0
 40
1.0
 40
1.0
 10
11.851340966
 20
8.8052974103
 30
0.0
 10
11.8572949302
 20
8.803273898
 30
0.0
 10
11.8693637418
 20
8.7995985742
 30
0.0
 10
11.887766895
 20
8.7951742716
 30
0.0
 10
11.9063524698
 20
8.7917898395
 30
0.0
 10
11.9188210927
 20
8.7901913744
 30
0.0
 10
11.9250416923
 20
8.7895544178
 30
0.0
  0
LINE
  5
30A
100
AcDbEntity
  8
0
100
AcDbLine
 62
7
  6
CONTINUOUS
 10
11.9250416923
 20
8.7895544178
 11
11.9257459932
 21
8.7897724127
  0
SPLINE
  5
30B
100
AcDbEntity
  8
0
100
AcDbSpline
 62
7
  6
CONTINUOUS
 70
0
 71
3
 72
35
 73
31
 74
0
 42
0.0000001
 43
0.0000001
 44
0.0000000001
 40
0.0
 40
0.0
 40
0.0
 40
0.0
 40
0.0851783445
 40
0.168579649
 40
0.2498817933
 40
0.3287721894
 40
0.3672196909
 40
0.4049533592
 40
0.4419382782
 40
0.478140495
 40
0.5135273868
 40
0.5480673716
 40
0.5817304191
 40
0.6144877089
 40
0.6463121604
 40
0.6771781599
 40
0.7070620226
 40
0.735941894
 40
0.763798074
 40
0.7906131793
 40
0.8163723064
 40
0.8410635107
 40
0.8646778482
 40
0.8872101958
 40
0.908659289
 40
0.9290288865
 40
0.9483280125
 40
0.9665724673
 40
0.9837855591
 40
1.0
 40
1.0
 40
1.0
 40
1.0
 10
7.103302301
 20
7.6209669806
 30
0.0
 10
7.103302301
 20
7.6067119329
 30
0.0
 10
7.1035452092
 20
7.5784985528
 30
0.0
 10
7.1046593097
 20
7.5366920617
 30
0.0
 10
7.1065148909
 20
7.4959650964
 30
0.0
 10
7.1086905122
 20
7.4627902902
 30
0.0
 10
7.1108061101
 20
7.4369241746
 30
0.0
 10
7.1125588358
 20
7.418066091
 30
0.0
 10
7.1144892032
 20
7.3996031226
 30
0.0
 10
7.11659525
 20
7.3815546884
 30
0.0
 10
7.1188746598
 20
7.363939804
 30
0.0
 10
7.1213251022
 20
7.3467770081
 30
0.0
 10
7.1239438882
 20
7.3300843706
 30
0.0
 10
7.126728328
 20
7.3138794522
 30
0.0
 10
7.1296753875
 20
7.2981792991
 30
0.0
 10
7.1327820105
 20
7.2830004159
 30
0.0
 10
7.1360448503
 20
7.2683587496
 30
0.0
 10
7.1394604822
 20
7.2542696717
 30
0.0
 10
7.1430252786
 20
7.2407479579
 30
0.0
 10
7.1467354531
 20
7.2278077692
 30
0.0
 10
7.1505871274
 20
7.2154626417
 30
0.0
 10
7.1545761758
 20
7.2037254477
 30
0.0
 10
7.1586985
 20
7.1926084173
 30
0.0
 10
7.1629496812
 20
7.1821230559
 30
0.0
 10
7.1673254371
 20
7.1722802243
 30
0.0
 10
7.1718211479
 20
7.1630899821
 30
0.0
 10
7.1764323854
 20
7.1545617896
 30
0.0
 10
7.1811545537
 20
7.146704121
 30
0.0
 10
7.1859829298
 20
7.139525358
 30
0.0
 10
7.1893685626
 20
7.1350666417
 30
0.0
 10
7.1910807336
 20
7.1329614228
 30
0.0
  0
SPLINE
  5
30C
100
AcDbEntity
  8
0
100
AcDbSpline
 62
7
  6
CONTINUOUS
 70
0
 71
3
 72
49
 73
45
 74
0
 42
0.0000001
 43
0.0000001
 44
0.0000000001
 40
0.0
 40
0.0
 40
0.0
 40
0.0
 40
0.0071626035
 40
0.0146566634
 40
0.0224898027
 40
0.0306682925
 40
0.0391972427
 40
0.0480804394
 40
0.0573201484
 40
0.0669176553
 40
0.0768732578
 40
0.0871864261
 40
0.0978559389
 40
0.1088797442
 40
0.1202552901
 40
0.1319793612
 40
0.1440482393
 40
0.1564577722
 40
0.169203246
 40
0.1822796534
 40
0.1956814919
 40
0.2094029362
 40
0.2377791826
 40
0.267355716
 40
0.2980746383
 40
0.329873868
 40
0.3626875523
 40
0.3964464315
 40
0.4310781658
 40
0.4665076342
 40
0.5026572473
 40
0.5394472319
 40
0.5767958997
 40
0.6146199088
 40
0.652834516
 40
0.6913538449
 40
0.7300911404
 40
0.7689590307
 40
0.8078697559
 40
0.8467354145
 40
0.8854684087
 40
0.9239808167
 40
0.9621873322
 40
1.0
 40
1.0
 40
1.0
 40
1.0
 10
7.281369657
 20
10.1478941529
 30
0.0
 10
7.2798793436
 20
10.1464546205
 30
0.0
 10
7.2769007016
 20
10.1434347815
 30
0.0
 10
7.2725349792
 20
10.1386088051
 30
0.0
 10
7.2681748053
 20
10.1333887654
 30
0.0
 10
7.2638229891
 20
10.1277780418
 30
0.0
 10
7.2594819189
 20
10.1217799222
 30
0.0
 10
7.2551541524
 20
10.1153978515
 30
0.0
 10
7.2508421215
 20
10.1086356334
 30
0.0
 10
7.2465484854
 20
10.1014972516
 30
0.0
 10
7.242275776
 20
10.0939869777
 30
0.0
 10
7.2380265144
 20
10.0861092907
 30
0.0
 10
7.2338033091
 20
10.0778688611
 30
0.0
 10
7.2296086023
 20
10.0692706424
 30
0.0
 10
7.2254449965
 20
10.0603197528
 30
0.0
 10
7.2213149517
 20
10.0510215694
 30
0.0
 10
7.2172209483
 20
10.0413816648
 30
0.0
 10
7.2131655028
 20
10.0314058098
 30
0.0
 10
7.2091509807
 20
10.0211000092
 30
0.0
 10
7.2051798847
 20
10.0104704376
 30
0.0
 10
7.2012545346
 20
9.9995234849
 30
0.0
 10
7.1960264284
 20
9.9843430704
 30
0.0
 10
7.1896330369
 20
9.96461705
 30
0.0
 10
7.1822636051
 20
9.9400452288
 30
0.0
 10
7.1751314083
 20
9.9143743596
 30
0.0
 10
7.1682537093
 20
9.8876662032
 30
0.0
 10
7.161647162
 20
9.8599848877
 30
0.0
 10
7.1553277583
 20
9.8313969613
 30
0.0
 10
7.1493107947
 20
9.801971171
 30
0.0
 10
7.1436108174
 20
9.7717783127
 30
0.0
 10
7.1382416056
 20
9.7408910448
 30
0.0
 10
7.1332161363
 20
9.7093837067
 30
0.0
 10
7.1285465538
 20
9.6773321379
 30
0.0
 10
7.124244144
 20
9.6448134978
 30
0.0
 10
7.1203192927
 20
9.6119060808
 30
0.0
 10
7.1167814686
 20
9.5786891242
 30
0.0
 10
7.1136392057
 20
9.5452426104
 30
0.0
 10
7.1109000832
 20
9.5116470771
 30
0.0
 10
7.1085707092
 20
9.4779834299
 30
0.0
 10
7.1066566858
 20
9.4443326969
 30
0.0
 10
7.1051626398
 20
9.4107760398
 30
0.0
 10
7.1040920912
 20
9.3773939493
 30
0.0
 10
7.1034476977
 20
9.3442672385
 30
0.0
 10
7.103302301
 20
9.3222758684
 30
0.0
 10
7.103302301
 20
9.3113372768
 30
0.0
  0
SPLINE
  5
30D
100
AcDbEntity
  8
0
100
AcDbSpline
 62
7
  6
CONTINUOUS
 70
0
 71
3
 72
96
 73
92
 74
0
 42
0.0000001
 43
0.0000001
 44
0.0000000001
 40
0.0
 40
0.0
 40
0.0
 40
0.0
 40
0.0027164098
 40
0.005453196
 40
0.0082302447
 40
0.011066522
 40
0.0139797077
 40
0.0169860006
 40
0.0200999433
 40
0.0233344386
 40
0.0267007761
 40
0.030208701
 40
0.0338665986
 40
0.0376815378
 40
0.0416594868
 40
0.0458053919
 40
0.0501232867
 40
0.0546164575
 40
0.0592874351
 40
0.0641381797
 40
0.0691700761
 40
0.0743840124
 40
0.0797804753
 40
0.085359501
 40
0.0911208246
 40
0.0970638216
 40
0.1031875788
 40
0.1094909395
 40
0.1159724488
 40
0.1226304778
 40
0.1294631407
 40
0.1364683707
 40
0.1436439297
 40
0.1509873654
 40
0.1661671594
 40
0.1819854932
 40
0.1984176087
 40
0.2154367517
 40
0.2330143585
 40
0.251120216
 40
0.2697226026
 40
0.2887884308
 40
0.3082833745
 40
0.3281719854
 40
0.3484178035
 40
0.3689834605
 40
0.3898307889
 40
0.4109209281
 40
0.4322144251
 40
0.4536713332
 40
0.4752513091
 40
0.4969137129
 40
0.5186177088
 40
0.5403223621
 40
0.5619867363
 40
0.5835699892
 40
0.6050314742
 40
0.6263308386
 40
0.6474281213
 40
0.6682838504
 40
0.6888591421
 40
0.7091158066
 40
0.7290164528
 40
0.7485245891
 40
0.7676047308
 40
0.7862225103
 40
0.8043447981
 40
0.8219398341
 40
0.8389773554
 40
0.8554287397
 40
0.8712671681
 40
0.8864678116
 40
0.9010080585
 40
0.9080242996
 40
0.9148680958
 40
0.9215373949
 40
0.9280302874
 40
0.9343451215
 40
0.9404804543
 40
0.9464350763
 40
0.9522080867
 40
0.9577988219
 40
0.9632069984
 40
0.968432657
 40
0.9734762172
 40
0.9783385478
 40
0.9830209658
 40
0.9875254698
 40
0.9918546527
 40
0.9960116074
 40
1.0
 40
1.0
 40
1.0
 40
1.0
 10
14.4445245151
 20
7.3684392615
 30
0.0
 10
14.4429810223
 20
7.3685463085
 30
0.0
 10
14.4398903666
 20
7.3689009469
 30
0.0
 10
14.435293729
 20
7.3698498399
 30
0.0
 10
14.4307318263
 20
7.3712155607
 30
0.0
 10
14.4262079322
 20
7.3729968298
 30
0.0
 10
14.4217243362
 20
7.37519196
 30
0.0
 10
14.4172834006
 20
7.3777993576
 30
0.0
 10
14.4128871153
 20
7.3808170647
 30
0.0
 10
14.4085374575
 20
7.3842432142
 30
0.0
 10
14.4042363321
 20
7.3880758221
 30
0.0
 10
14.3999855212
 20
7.3923127295
 30
0.0
 10
14.3957869806
 20
7.3969518135
 30
0.0
 10
14.3916424782
 20
7.4019906425
 30
0.0
 10
14.3875539486
 20
7.407426751
 30
0.0
 10
14.3835232779
 20
7.4132574455
 30
0.0
 10
14.3795523047
 20
7.4194798296
 30
0.0
 10
14.3756430134
 20
7.4260908863
 30
0.0
 10
14.3717971925
 20
7.4330873125
 30
0.0
 10
14.3680167855
 20
7.4404656863
 30
0.0
 10
14.364303626
 20
7.4482223456
 30
0.0
 10
14.3606595181
 20
7.456353438
 30
0.0
 10
14.3570863422
 20
7.464854945
 30
0.0
 10
14.3535857925
 20
7.4737226114
 30
0.0
 10
14.3501596909
 20
7.4829520357
 30
0.0
 10
14.3468097175
 20
7.4925386007
 30
0.0
 10
14.3435375434
 20
7.5024775158
 30
0.0
 10
14.340344864
 20
7.512763817
 30
0.0
 10
14.3372332124
 20
7.5233923436
 30
0.0
 10
14.3342042256
 20
7.5343577801
 30
0.0
 10
14.331259383
 20
7.5456546234
 30
0.0
 10
14.3284001802
 20
7.5572772062
 30
0.0
 10
14.3256280708
 20
7.5692197107
 30
0.0
 10
14.3220099263
 20
7.5857443123
 30
0.0
 10
14.3177261105
 20
7.6071606161
 30
0.0
 10
14.3130091403
 20
7.6337626776
 30
0.0
 10
14.3086703822
 20
7.6614898196
 30
0.0
 10
14.3047186421
 20
7.690286324
 30
0.0
 10
14.3011619743
 20
7.7200944568
 30
0.0
 10
14.2980076224
 20
7.7508543668
 30
0.0
 10
14.2952620027
 20
7.7825042733
 30
0.0
 10
14.2929307031
 20
7.8149805812
 30
0.0
 10
14.2910184724
 20
7.8482180236
 30
0.0
 10
14.2895292108
 20
7.8821497933
 30
0.0
 10
14.2884659653
 20
7.9167076764
 30
0.0
 10
14.2878309118
 20
7.9518221883
 30
0.0
 10
14.2876253565
 20
7.9874227171
 30
0.0
 10
14.2878497397
 20
8.0234376703
 30
0.0
 10
14.2885036341
 20
8.0597946205
 30
0.0
 10
14.2895857471
 20
8.0964204488
 30
0.0
 10
14.2910939191
 20
8.1332414917
 30
0.0
 10
14.2930251209
 20
8.1701836913
 30
0.0
 10
14.2953754724
 20
8.2071727458
 30
0.0
 10
14.2981402484
 20
8.2441342595
 30
0.0
 10
14.3013138884
 20
8.2809938918
 30
0.0
 10
14.304890009
 20
8.3176775063
 30
0.0
 10
14.308861404
 20
8.3541113237
 30
0.0
 10
14.3132200692
 20
8.3902220704
 30
0.0
 10
14.3179572198
 20
8.4259371254
 30
0.0
 10
14.3230633076
 20
8.4611846648
 30
0.0
 10
14.3285280415
 20
8.4958938074
 30
0.0
 10
14.3343403997
 20
8.529994763
 30
0.0
 10
14.3404886512
 20
8.5634189748
 30
0.0
 10
14.3469603882
 20
8.5960992562
 30
0.0
 10
14.3537425482
 20
8.6279699234
 30
0.0
 10
14.3608214408
 20
8.6589669302
 30
0.0
 10
14.3681827745
 20
8.6890280054
 30
0.0
 10
14.3758116733
 20
8.718092785
 30
0.0
 10
14.3836927215
 20
8.7461029403
 30
0.0
 10
14.391809992
 20
8.7730022753
 30
0.0
 10
14.4001470821
 20
8.7987369183
 30
0.0
 10
14.4086871451
 20
8.8232551918
 30
0.0
 10
14.4160433607
 20
8.8428588129
 30
0.0
 10
14.4220259184
 20
8.8578884214
 30
0.0
 10
14.4264994887
 20
8.868692258
 30
0.0
 10
14.4310107556
 20
8.8791565844
 30
0.0
 10
14.4355575392
 20
8.889276149
 30
0.0
 10
14.4401375079
 20
8.8990458907
 30
0.0
 10
14.4447483633
 20
8.9084609214
 30
0.0
 10
14.4493878319
 20
8.9175165158
 30
0.0
 10
14.4540535158
 20
8.9262081732
 30
0.0
 10
14.4587431566
 20
8.9345315284
 30
0.0
 10
14.4634543589
 20
8.9424824586
 30
0.0
 10
14.4681847977
 20
8.9500570016
 30
0.0
 10
14.4729321444
 20
8.9572513674
 30
0.0
 10
14.4776939586
 20
8.9640620108
 30
0.0
 10
14.4824679957
 20
8.9704855352
 30
0.0
 10
14.487251908
 20
8.976518851
 30
0.0
 10
14.4920434872
 20
8.9821589979
 30
0.0
 10
14.4968401436
 20
8.9874029136
 30
0.0
 10
14.5001062016
 20
8.9907001237
 30
0.0
 10
14.5017401254
 20
8.992278373
 30
0.0
  0
SPLINE
  5
30E
100
AcDbEntity
  8
0
100
AcDbSpline
 62
7
  6
CONTINUOUS
 70
0
 71
3
 72
76
 73
72
 74
0
 42
0.0000001
 43
0.0000001
 44
0.0000000001
 40
0.0
 40
0.0
 40
0.0
 40
0.0
 40
0.0034004621
 40
0.006935756
 40
0.0106113603
 40
0.0144318932
 40
0.0184012838
 40
0.0225227746
 40
0.026798974
 40
0.0312320198
 40
0.0358235653
 40
0.0405747884
 40
0.0454865446
 40
0.0505593467
 40
0.0611879122
 40
0.0724593418
 40
0.0843680049
 40
0.0969050863
 40
0.1100590509
 40
0.1238158629
 40
0.138159398
 40
0.1530716415
 40
0.1685327865
 40
0.1845215242
 40
0.2010151148
 40
0.2179894678
 40
0.2354193572
 40
0.253278434
 40
0.2715393238
 40
0.2901737819
 40
0.3091526898
 40
0.3284461712
 40
0.3480236991
 40
0.3678541011
 40
0.408145695
 40
0.4490628839
 40
0.490341758
 40
0.5317154187
 40
0.5729161949
 40
0.6136778306
 40
0.6537376961
 40
0.6734242641
 40
0.6928396833
 40
0.7119531506
 40
0.7307345191
 40
0.7491543307
 40
0.7671839759
 40
0.7847957154
 40
0.8019627431
 40
0.8186593699
 40
0.8348610231
 40
0.8505443668
 40
0.8656875017
 40
0.8802699741
 40
0.894272987
 40
0.9076796262
 40
0.9204749445
 40
0.9326463238
 40
0.9441837833
 40
0.9497126752
 40
0.9550807665
 40
0.9602877253
 40
0.9653334733
 40
0.9702182632
 40
0.9749426059
 40
0.9795073762
 40
0.983913966
 40
0.9881641597
 40
0.9922601243
 40
0.9962043896
 40
1.0
 40
1.0
 40
1.0
 40
1.0
 10
14.381092753
 20
7.7216191107
 30
0.0
 10
14.3802995443
 20
7.7224029628
 30
0.0
 10
14.378722139
 20
7.7240431362
 30
0.0
 10
14.3764276377
 20
7.7266609299
 30
0.0
 10
14.3741607975
 20
7.7294817178
 30
0.0
 10
14.3719225598
 20
7.7325041782
 30
0.0
 10
14.3697138432
 20
7.7357270865
 30
0.0
 10
14.3675355595
 20
7.7391490701
 30
0.0
 10
14.3653885588
 20
7.7427686521
 30
0.0
 10
14.3632737711
 20
7.7465843215
 30
0.0
 10
14.3611920961
 20
7.750594465
 30
0.0
 10
14.3591443714
 20
7.7547973492
 30
0.0
 10
14.3571314702
 20
7.7591912078
 30
0.0
 10
14.3544535332
 20
7.7653986741
 30
0.0
 10
14.3512085208
 20
7.7736303413
 30
0.0
 10
14.3475250737
 20
7.7840903037
 30
0.0
 10
14.3440002283
 20
7.7952627122
 30
0.0
 10
14.3406400739
 20
7.8071284387
 30
0.0
 10
14.3374504732
 20
7.8196673247
 30
0.0
 10
14.3344369217
 20
7.8328579092
 30
0.0
 10
14.3316046757
 20
7.8466775958
 30
0.0
 10
14.3289587009
 20
7.8611026654
 30
0.0
 10
14.3265035641
 20
7.8761083196
 30
0.0
 10
14.324243568
 20
7.8916687451
 30
0.0
 10
14.3221826688
 20
7.9077571544
 30
0.0
 10
14.3203244213
 20
7.9243458322
 30
0.0
 10
14.3186720955
 20
7.941406193
 30
0.0
 10
14.3172285738
 20
7.9589088289
 30
0.0
 10
14.3159963444
 20
7.9768235604
 30
0.0
 10
14.3149775915
 20
7.9951194924
 30
0.0
 10
14.3141740812
 20
8.01376507
 30
0.0
 10
14.3135872038
 20
8.0327281217
 30
0.0
 10
14.3132180044
 20
8.0519759592
 30
0.0
 10
14.3130158407
 20
8.0781128366
 30
0.0
 10
14.3133170524
 20
8.1112498384
 30
0.0
 10
14.314544535
 20
8.1514034082
 30
0.0
 10
14.3166318438
 20
8.1918768491
 30
0.0
 10
14.3195646051
 20
8.2323910084
 30
0.0
 10
14.3233225874
 20
8.2726666871
 30
0.0
 10
14.3278798215
 20
8.3124261026
 30
0.0
 10
14.3323425491
 20
8.3450868695
 30
0.0
 10
14.3362955108
 20
8.3707455029
 30
0.0
 10
14.3394216822
 20
8.3895798418
 30
0.0
 10
14.3427209219
 20
8.4080831708
 30
0.0
 10
14.3461875297
 20
8.426223597
 30
0.0
 10
14.3498155351
 20
8.4439698214
 30
0.0
 10
14.3535986315
 20
8.4612912475
 30
0.0
 10
14.357530264
 20
8.4781580101
 30
0.0
 10
14.3616036576
 20
8.4945410293
 30
0.0
 10
14.3658117201
 20
8.5104120814
 30
0.0
 10
14.3701471693
 20
8.5257438266
 30
0.0
 10
14.3746025204
 20
8.5405098634
 30
0.0
 10
14.3791700118
 20
8.5546847979
 30
0.0
 10
14.3838417506
 20
8.5682442591
 30
0.0
 10
14.3886096616
 20
8.5811649652
 30
0.0
 10
14.3934654469
 20
8.5934247706
 30
0.0
 10
14.3984007503
 20
8.605002735
 30
0.0
 10
14.403407047
 20
8.6158789726
 30
0.0
 10
14.4076895305
 20
8.6244601251
 30
0.0
 10
14.4111503099
 20
8.6309530555
 30
0.0
 10
14.4137213539
 20
8.6355665901
 30
0.0
 10
14.4163036693
 20
8.6399913217
 30
0.0
 10
14.4188961917
 20
8.6442253415
 30
0.0
 10
14.4214977524
 20
8.6482668583
 30
0.0
 10
14.4241072478
 20
8.6521141339
 30
0.0
 10
14.426723613
 20
8.6557655184
 30
0.0
 10
14.4293457409
 20
8.6592195239
 30
0.0
 10
14.4319725712
 20
8.6624747049
 30
0.0
 10
14.4346030299
 20
8.6655296176
 30
0.0
 10
14.4372357773
 20
8.6683828345
 30
0.0
 10
14.4390255698
 20
8.6701837393
 30
0.0
 10
14.4399208674
 20
8.6710485304
 30
0.0
  0
SPLINE
  5
30F
100
AcDbEntity
  8
0
100
AcDbSpline
 62
7
  6
CONTINUOUS
 70
0
 71
3
 72
9
 73
5
 74
0
 42
0.0000001
 43
0.0000001
 44
0.0000000001
 40
0.0
 40
0.0
 40
0.0
 40
0.0
 40
0.4853005641
 40
1.0
 40
1.0
 40
1.0
 40
1.0
 10
14.4478971085
 20
8.6778159582
 30
0.0
 10
14.4465300838
 20
8.676817004
 30
0.0
 10
14.4437938327
 20
8.674646864
 30
0.0
 10
14.4412124259
 20
8.6722960802
 30
0.0
 10
14.4399208674
 20
8.6710485304
 30
0.0
  0
SPLINE
  5
310
100
AcDbEntity
  8
0
100
AcDbSpline
 62
7
  6
CONTINUOUS
 70
0
 71
3
 72
39
 73
35
 74
0
 42
0.0000001
 43
0.0000001
 44
0.0000000001
 40
0.0
 40
0.0
 40
0.0
 40
0.0
 40
0.0299424732
 40
0.0599093222
 40
0.0899243296
 40
0.1200101094
 40
0.1501875682
 40
0.1804754198
 40
0.2108897635
 40
0.2414437392
 40
0.2721472619
 40
0.3030068428
 40
0.334025493
 40
0.3652027101
 40
0.3965345427
 40
0.4280137258
 40
0.4596298807
 40
0.4913697729
 40
0.5232176187
 40
0.5551554339
 40
0.5871634169
 40
0.6192203588
 40
0.6513040742
 40
0.6833918453
 40
0.7154608739
 40
0.7474887339
 40
0.77945382
 40
0.811335781
 40
0.8431159463
 40
0.874777695
 40
0.9063068895
 40
0.9376919983
 40
0.9689248659
 40
1.0
 40
1.0
 40
1.0
 40
1.0
 10
13.3944504194
 20
6.9676793601
 30
0.0
 10
13.397984018
 20
6.9710925605
 30
0.0
 10
13.4053290603
 20
6.9776435132
 30
0.0
 10
13.4170969745
 20
6.9865680209
 30
0.0
 10
13.4295550786
 20
6.994545954
 30
0.0
 10
13.4426337648
 20
7.0015325555
 30
0.0
 10
13.4562611265
 20
7.0074896565
 30
0.0
 10
13.4703619559
 20
7.0123845106
 30
0.0
 10
13.4848585487
 20
7.016190336
 30
0.0
 10
13.4996710387
 20
7.0188863546
 30
0.0
 10
13.5147178709
 20
7.0204579218
 30
0.0
 10
13.5299162454
 20
7.0208965888
 30
0.0
 10
13.5451825747
 20
7.0202001395
 30
0.0
 10
13.5604329407
 20
7.0183725925
 30
0.0
 10
13.5755835519
 20
7.0154241704
 30
0.0
 10
13.5905511979
 20
7.0113712361
 30
0.0
 10
13.6052537008
 20
7.0062361983
 30
0.0
 10
13.6196103597
 20
7.0000473842
 30
0.0
 10
13.6335423877
 20
6.9928388825
 30
0.0
 10
13.6469733378
 20
6.9846503547
 30
0.0
 10
13.6598295172
 20
6.975526818
 30
0.0
 10
13.6720403862
 20
6.9655183993
 30
0.0
 10
13.6835389408
 20
6.9546800619
 30
0.0
 10
13.6942620765
 20
6.9430713064
 30
0.0
 10
13.7041509303
 20
6.9307558472
 30
0.0
 10
13.7131512014
 20
6.9178012663
 30
0.0
 10
13.7212134456
 20
6.9042786468
 30
0.0
 10
13.7282933478
 20
6.8902621856
 30
0.0
 10
13.7343519549
 20
6.8758288001
 30
0.0
 10
13.7393559117
 20
6.8610576748
 30
0.0
 10
13.7432775959
 20
6.8460299743
 30
0.0
 10
13.7460953657
 20
6.8308278817
 30
0.0
 10
13.74779353
 20
6.8155360259
 30
0.0
 10
13.7481738981
 20
6.8053088036
 30
0.0
 10
13.7481738981
 20
6.8002100938
 30
0.0
  0
SPLINE
  5
311
100
AcDbEntity
  8
0
100
AcDbSpline
 62
7
  6
CONTINUOUS
 70
0
 71
3
 72
39
 73
35
 74
0
 42
0.0000001
 43
0.0000001
 44
0.0000000001
 40
0.0
 40
0.0
 40
0.0
 40
0.0
 40
0.0299424732
 40
0.0599093222
 40
0.0899243296
 40
0.1200101094
 40
0.1501875682
 40
0.1804754198
 40
0.2108897635
 40
0.2414437392
 40
0.2721472619
 40
0.3030068428
 40
0.334025493
 40
0.3652027101
 40
0.3965345427
 40
0.4280137258
 40
0.4596298807
 40
0.4913697729
 40
0.5232176187
 40
0.5551554339
 40
0.5871634169
 40
0.6192203588
 40
0.6513040742
 40
0.6833918453
 40
0.7154608739
 40
0.7474887339
 40
0.77945382
 40
0.811335781
 40
0.8431159463
 40
0.874777695
 40
0.9063068895
 40
0.9376919983
 40
0.9689248659
 40
1.0
 40
1.0
 40
1.0
 40
1.0
 10
13.3944504194
 20
9.3245385712
 30
0.0
 10
13.397984018
 20
9.3279517716
 30
0.0
 10
13.4053290603
 20
9.3345027243
 30
0.0
 10
13.4170969745
 20
9.3434272319
 30
0.0
 10
13.4295550786
 20
9.3514051651
 30
0.0
 10
13.4426337648
 20
9.3583917665
 30
0.0
 10
13.4562611265
 20
9.3643488675
 30
0.0
 10
13.4703619559
 20
9.3692437216
 30
0.0
 10
13.4848585487
 20
9.3730495471
 30
0.0
 10
13.4996710387
 20
9.3757455657
 30
0.0
 10
13.5147178709
 20
9.3773171329
 30
0.0
 10
13.5299162454
 20
9.3777557998
 30
0.0
 10
13.5451825747
 20
9.3770593505
 30
0.0
 10
13.5604329407
 20
9.3752318036
 30
0.0
 10
13.5755835519
 20
9.3722833814
 30
0.0
 10
13.5905511979
 20
9.3682304472
 30
0.0
 10
13.6052537008
 20
9.3630954093
 30
0.0
 10
13.6196103597
 20
9.3569065953
 30
0.0
 10
13.6335423877
 20
9.3496980936
 30
0.0
 10
13.6469733378
 20
9.3415095657
 30
0.0
 10
13.6598295172
 20
9.332386029
 30
0.0
 10
13.6720403862
 20
9.3223776103
 30
0.0
 10
13.6835389408
 20
9.311539273
 30
0.0
 10
13.6942620765
 20
9.2999305175
 30
0.0
 10
13.7041509303
 20
9.2876150583
 30
0.0
 10
13.7131512014
 20
9.2746604774
 30
0.0
 10
13.7212134456
 20
9.2611378579
 30
0.0
 10
13.7282933478
 20
9.2471213967
 30
0.0
 10
13.7343519549
 20
9.2326880112
 30
0.0
 10
13.7393559117
 20
9.2179168859
 30
0.0
 10
13.7432775959
 20
9.2028891853
 30
0.0
 10
13.7460953657
 20
9.1876870927
 30
0.0
 10
13.74779353
 20
9.172395237
 30
0.0
 10
13.7481738981
 20
9.1621680147
 30
0.0
 10
13.7481738981
 20
9.1570693049
 30
0.0
  0
SPLINE
  5
312
100
AcDbEntity
  8
0
100
AcDbSpline
 62
7
  6
CONTINUOUS
 70
0
 71
3
 72
39
 73
35
 74
0
 42
0.0000001
 43
0.0000001
 44
0.0000000001
 40
0.0
 40
0.0
 40
0.0
 40
0.0
 40
0.0299424732
 40
0.0599093222
 40
0.0899243296
 40
0.1200101094
 40
0.1501875682
 40
0.1804754198
 40
0.2108897635
 40
0.2414437392
 40
0.2721472619
 40
0.3030068428
 40
0.334025493
 40
0.3652027101
 40
0.3965345427
 40
0.4280137258
 40
0.4596298807
 40
0.4913697729
 40
0.5232176187
 40
0.5551554339
 40
0.5871634169
 40
0.6192203588
 40
0.6513040742
 40
0.6833918453
 40
0.7154608739
 40
0.7474887339
 40
0.77945382
 40
0.811335781
 40
0.8431159463
 40
0.874777695
 40
0.9063068895
 40
0.9376919983
 40
0.9689248659
 40
1.0
 40
1.0
 40
1.0
 40
1.0
 10
10.3150786801
 20
9.5960492243
 30
0.0
 10
10.3186122787
 20
9.5994624248
 30
0.0
 10
10.3259573211
 20
9.6060133774
 30
0.0
 10
10.3377252353
 20
9.6149378851
 30
0.0
 10
10.3501833393
 20
9.6229158183
 30
0.0
 10
10.3632620256
 20
9.6299024197
 30
0.0
 10
10.3768893873
 20
9.6358595207
 30
0.0
 10
10.3909902167
 20
9.6407543748
 30
0.0
 10
10.4054868094
 20
9.6445602003
 30
0.0
 10
10.4202992994
 20
9.6472562189
 30
0.0
 10
10.4353461317
 20
9.6488277861
 30
0.0
 10
10.4505445061
 20
9.649266453
 30
0.0
 10
10.4658108354
 20
9.6485700037
 30
0.0
 10
10.4810612015
 20
9.6467424568
 30
0.0
 10
10.4962118127
 20
9.6437940346
 30
0.0
 10
10.5111794587
 20
9.6397411003
 30
0.0
 10
10.5258819615
 20
9.6346060625
 30
0.0
 10
10.5402386205
 20
9.6284172485
 30
0.0
 10
10.5541706485
 20
9.6212087468
 30
0.0
 10
10.5676015986
 20
9.6130202189
 30
0.0
 10
10.5804577779
 20
9.6038966822
 30
0.0
 10
10.5926686469
 20
9.5938882635
 30
0.0
 10
10.6041672016
 20
9.5830499261
 30
0.0
 10
10.6148903373
 20
9.5714411707
 30
0.0
 10
10.624779191
 20
9.5591257115
 30
0.0
 10
10.6337794622
 20
9.5461711305
 30
0.0
 10
10.6418417064
 20
9.532648511
 30
0.0
 10
10.6489216085
 20
9.5186320499
 30
0.0
 10
10.6549802156
 20
9.5041986644
 30
0.0
 10
10.6599841725
 20
9.489427539
 30
0.0
 10
10.6639058566
 20
9.4743998385
 30
0.0
 10
10.6667236265
 20
9.4591977459
 30
0.0
 10
10.6684217908
 20
9.4439058901
 30
0.0
 10
10.6688021589
 20
9.4336786678
 30
0.0
 10
10.6688021589
 20
9.428579958
 30
0.0
  0
SPLINE
  5
313
100
AcDbEntity
  8
0
100
AcDbSpline
 62
7
  6
CONTINUOUS
 70
0
 71
3
 72
39
 73
35
 74
0
 42
0.0000001
 43
0.0000001
 44
0.0000000001
 40
0.0
 40
0.0
 40
0.0
 40
0.0
 40
0.0299424732
 40
0.0599093222
 40
0.0899243296
 40
0.1200101094
 40
0.1501875682
 40
0.1804754198
 40
0.2108897635
 40
0.2414437392
 40
0.2721472619
 40
0.3030068428
 40
0.334025493
 40
0.3652027101
 40
0.3965345427
 40
0.4280137258
 40
0.4596298807
 40
0.4913697729
 40
0.5232176187
 40
0.5551554339
 40
0.5871634169
 40
0.6192203588
 40
0.6513040742
 40
0.6833918453
 40
0.7154608739
 40
0.7474887339
 40
0.77945382
 40
0.811335781
 40
0.8431159463
 40
0.874777695
 40
0.9063068895
 40
0.9376919983
 40
0.9689248659
 40
1.0
 40
1.0
 40
1.0
 40
1.0
 10
10.3150786801
 20
7.123278989
 30
0.0
 10
10.3186122787
 20
7.1266921894
 30
0.0
 10
10.3259573211
 20
7.1332431421
 30
0.0
 10
10.3377252353
 20
7.1421676498
 30
0.0
 10
10.3501833393
 20
7.150145583
 30
0.0
 10
10.3632620256
 20
7.1571321844
 30
0.0
 10
10.3768893873
 20
7.1630892854
 30
0.0
 10
10.3909902167
 20
7.1679841395
 30
0.0
 10
10.4054868094
 20
7.1717899649
 30
0.0
 10
10.4202992994
 20
7.1744859835
 30
0.0
 10
10.4353461317
 20
7.1760575507
 30
0.0
 10
10.4505445061
 20
7.1764962177
 30
0.0
 10
10.4658108354
 20
7.1757997684
 30
0.0
 10
10.4810612015
 20
7.1739722214
 30
0.0
 10
10.4962118127
 20
7.1710237993
 30
0.0
 10
10.5111794587
 20
7.166970865
 30
0.0
 10
10.5258819615
 20
7.1618358272
 30
0.0
 10
10.5402386205
 20
7.1556470132
 30
0.0
 10
10.5541706485
 20
7.1484385114
 30
0.0
 10
10.5676015986
 20
7.1402499836
 30
0.0
 10
10.5804577779
 20
7.1311264469
 30
0.0
 10
10.5926686469
 20
7.1211180282
 30
0.0
 10
10.6041672016
 20
7.1102796908
 30
0.0
 10
10.6148903373
 20
7.0986709353
 30
0.0
 10
10.624779191
 20
7.0863554761
 30
0.0
 10
10.6337794622
 20
7.0734008952
 30
0.0
 10
10.6418417064
 20
7.0598782757
 30
0.0
 10
10.6489216085
 20
7.0458618145
 30
0.0
 10
10.6549802156
 20
7.031428429
 30
0.0
 10
10.6599841725
 20
7.0166573037
 30
0.0
 10
10.6639058566
 20
7.0016296032
 30
0.0
 10
10.6667236265
 20
6.9864275106
 30
0.0
 10
10.6684217908
 20
6.9711356548
 30
0.0
 10
10.6688021589
 20
6.9609084325
 30
0.0
 10
10.6688021589
 20
6.9558097227
 30
0.0
  0
SPLINE
  5
314
100
AcDbEntity
  8
0
100
AcDbSpline
 62
7
  6
CONTINUOUS
 70
0
 71
3
 72
41
 73
37
 74
0
 42
0.0000001
 43
0.0000001
 44
0.0000000001
 40
0.0
 40
0.0
 40
0.0
 40
0.0
 40
0.0299421172
 40
0.04492376
 40
0.059914511
 40
0.089929166
 40
0.1200145972
 40
0.135093366
 40
0.1501974852
 40
0.1804849961
 40
0.2108989984
 40
0.2414526287
 40
0.272155802
 40
0.3030150309
 40
0.334033329
 40
0.3652101953
 40
0.3965416763
 40
0.4280205023
 40
0.459636293
 40
0.4913758157
 40
0.5232232898
 40
0.5551607336
 40
0.5871683456
 40
0.6192249134
 40
0.6513082489
 40
0.6833956359
 40
0.7154642792
 40
0.7474917569
 40
0.7794564628
 40
0.8113380448
 40
0.8431178358
 40
0.8747791645
 40
0.9063081103
 40
0.9376924636
 40
0.9689257188
 40
1.0
 40
1.0
 40
1.0
 40
1.0
 10
10.9465038915
 20
7.0237915824
 30
0.0
 10
10.9486605504
 20
7.0258747313
 30
0.0
 10
10.9520226973
 20
7.028873186
 30
0.0
 10
10.956731237
 20
7.0325936922
 30
0.0
 10
10.9615897857
 20
7.036128974
 30
0.0
 10
10.9679293294
 20
7.0401886933
 30
0.0
 10
10.9745771177
 20
7.0437397563
 30
0.0
 10
10.9800598223
 20
7.0462659719
 30
0.0
 10
10.9856557729
 20
7.048583666
 30
0.0
 10
10.9928351338
 20
7.0510758116
 30
0.0
 10
11.0016826016
 20
7.0533984218
 30
0.0
 10
11.0107231183
 20
7.0550438005
 30
0.0
 10
11.0199065816
 20
7.0560028777
 30
0.0
 10
11.029182547
 20
7.0562705351
 30
0.0
 10
11.0384999774
 20
7.0558454074
 30
0.0
 10
11.0478076624
 20
7.0547299435
 30
0.0
 10
11.0570544575
 20
7.0529303717
 30
0.0
 10
11.0661895782
 20
7.0504566899
 30
0.0
 10
11.0751628713
 20
7.0473225815
 30
0.0
 10
11.0839250857
 20
7.0435453382
 30
0.0
 10
11.0924281374
 20
7.0391457636
 30
0.0
 10
11.100625369
 20
7.0341480604
 30
0.0
 10
11.1084717988
 20
7.0285796957
 30
0.0
 10
11.1159243712
 20
7.0224712611
 30
0.0
 10
11.1229421986
 20
7.015856312
 30
0.0
 10
11.1294867709
 20
7.008771166
 30
0.0
 10
11.1355221659
 20
7.0012547096
 30
0.0
 10
11.1410152419
 20
6.9933481871
 30
0.0
 10
11.1459358189
 20
6.9850949789
 30
0.0
 10
11.1502568417
 20
6.976540364
 30
0.0
 10
11.1539545298
 20
6.967731292
 30
0.0
 10
11.1570085658
 20
6.9587160863
 30
0.0
 10
11.1594020171
 20
6.9495443167
 30
0.0
 10
11.1611218307
 20
6.9402660518
 30
0.0
 10
11.1621582072
 20
6.9309330466
 30
0.0
 10
11.162390383
 20
6.9246910871
 30
0.0
 10
11.162390383
 20
6.9215792631
 30
0.0
  0
SPLINE
  5
315
100
AcDbEntity
  8
0
100
AcDbSpline
 62
7
  6
CONTINUOUS
 70
0
 71
3
 72
48
 73
44
 74
0
 42
0.0000001
 43
0.0000001
 44
0.0000000001
 40
0.0
 40
0.0
 40
0.0
 40
0.0
 40
0.0149718897
 40
0.0299468369
 40
0.0449278839
 40
0.0599180336
 40
0.0749202322
 40
0.0899373568
 40
0.1049721887
 40
0.1200274064
 40
0.1351055645
 40
0.1502090774
 40
0.1653402142
 40
0.180501073
 40
0.1956935825
 40
0.2109194836
 40
0.2261803205
 40
0.2414774416
 40
0.2568119786
 40
0.2721848576
 40
0.3030428416
 40
0.3340598877
 40
0.365235493
 40
0.3965657058
 40
0.4280432614
 40
0.4596577825
 40
0.4913960356
 40
0.5232422374
 40
0.5551784039
 40
0.5871847345
 40
0.6192400218
 40
0.6513220815
 40
0.6834081967
 40
0.7154755701
 40
0.7475017768
 40
0.7794652126
 40
0.8113455287
 40
0.8431240501
 40
0.8747841728
 40
0.9063117021
 40
0.9376953081
 40
0.9689262526
 40
1.0
 40
1.0
 40
1.0
 40
1.0
 10
12.2291312287
 20
8.419521149
 30
0.0
 10
12.2332790391
 20
8.4235276435
 30
0.0
 10
12.2417357324
 20
8.431377468
 30
0.0
 10
12.254880111
 20
8.4426400171
 30
0.0
 10
12.26846702
 20
8.4533763453
 30
0.0
 10
12.2824776195
 20
8.46357128
 30
0.0
 10
12.2968925857
 20
8.4732110094
 30
0.0
 10
12.3116921327
 20
8.4822821529
 30
0.0
 10
12.3268558738
 20
8.4907722656
 30
0.0
 10
12.3423629091
 20
8.4986697316
 30
0.0
 10
12.3581919616
 20
8.5059635585
 30
0.0
 10
12.3743211712
 20
8.5126438859
 30
0.0
 10
12.3907284038
 20
8.5187013877
 30
0.0
 10
12.4073910477
 20
8.5241278212
 30
0.0
 10
12.4242861773
 20
8.5289157468
 30
0.0
 10
12.4413905658
 20
8.5330584857
 30
0.0
 10
12.4586806662
 20
8.5365505158
 30
0.0
 10
12.4761326423
 20
8.5393868757
 30
0.0
 10
12.493722781
 20
8.5415638037
 30
0.0
 10
12.5173546806
 20
8.5435855115
 30
0.0
 10
12.5471267863
 20
8.54444509
 30
0.0
 10
12.582962436
 20
8.5428101844
 30
0.0
 10
12.6187616827
 20
8.5385202346
 30
0.0
 10
12.6543264793
 20
8.5315990929
 30
0.0
 10
12.6894618631
 20
8.5220852114
 30
0.0
 10
12.7239748289
 20
8.5100311748
 30
0.0
 10
12.7576759568
 20
8.4955034642
 30
0.0
 10
12.7903802925
 20
8.4785821048
 30
0.0
 10
12.8219083913
 20
8.4593602139
 30
0.0
 10
12.8520872674
 20
8.4379434688
 30
0.0
 10
12.8807513341
 20
8.4144495357
 30
0.0
 10
12.907743298
 20
8.3890074278
 30
0.0
 10
12.9329150131
 20
8.3617568083
 30
0.0
 10
12.956128316
 20
8.3328472562
 30
0.0
 10
12.9772557466
 20
8.3024374197
 30
0.0
 10
12.9961812419
 20
8.2706941611
 30
0.0
 10
13.0128007668
 20
8.2377916478
 30
0.0
 10
13.0270228791
 20
8.2039104298
 30
0.0
 10
13.0387692439
 20
8.1692363974
 30
0.0
 10
13.0479751262
 20
8.133960044
 30
0.0
 10
13.0545895405
 20
8.0982744221
 30
0.0
 10
13.0585759483
 20
8.0623780139
 30
0.0
 10
13.0594688007
 20
8.0383704583
 30
0.0
 10
13.0594688007
 20
8.02640156
 30
0.0
  0
SPLINE
  5
316
100
AcDbEntity
  8
0
100
AcDbSpline
 62
7
  6
CONTINUOUS
 70
0
 71
3
 72
48
 73
44
 74
0
 42
0.0000001
 43
0.0000001
 44
0.0000000001
 40
0.0
 40
0.0
 40
0.0
 40
0.0
 40
0.0149718897
 40
0.0299468369
 40
0.0449278839
 40
0.0599180336
 40
0.0749202322
 40
0.0899373568
 40
0.1049721887
 40
0.1200274064
 40
0.1351055645
 40
0.1502090774
 40
0.1653402142
 40
0.180501073
 40
0.1956935825
 40
0.2109194836
 40
0.2261803205
 40
0.2414774416
 40
0.2568119786
 40
0.2721848576
 40
0.3030428416
 40
0.3340598877
 40
0.365235493
 40
0.3965657058
 40
0.4280432614
 40
0.4596577825
 40
0.4913960356
 40
0.5232422374
 40
0.5551784039
 40
0.5871847345
 40
0.6192400218
 40
0.6513220815
 40
0.6834081967
 40
0.7154755701
 40
0.7475017768
 40
0.7794652126
 40
0.8113455287
 40
0.8431240501
 40
0.8747841728
 40
0.9063117021
 40
0.9376953081
 40
0.9689262526
 40
1.0
 40
1.0
 40
1.0
 40
1.0
 10
10.9000171678
 20
8.5116955222
 30
0.0
 10
10.9041649783
 20
8.5157020167
 30
0.0
 10
10.9126216715
 20
8.5235518412
 30
0.0
 10
10.9257660501
 20
8.5348143903
 30
0.0
 10
10.9393529592
 20
8.5455507185
 30
0.0
 10
10.9533635586
 20
8.5557456532
 30
0.0
 10
10.9677785249
 20
8.5653853826
 30
0.0
 10
10.9825780718
 20
8.5744565261
 30
0.0
 10
10.997741813
 20
8.5829466388
 30
0.0
 10
11.0132488483
 20
8.5908441048
 30
0.0
 10
11.0290779007
 20
8.5981379317
 30
0.0
 10
11.0452071104
 20
8.6048182591
 30
0.0
 10
11.0616143429
 20
8.6108757609
 30
0.0
 10
11.0782769868
 20
8.6163021944
 30
0.0
 10
11.0951721164
 20
8.62109012
 30
0.0
 10
11.1122765049
 20
8.6252328589
 30
0.0
 10
11.1295666054
 20
8.628724889
 30
0.0
 10
11.1470185814
 20
8.6315612489
 30
0.0
 10
11.1646087201
 20
8.6337381769
 30
0.0
 10
11.1882406198
 20
8.6357598847
 30
0.0
 10
11.2180127254
 20
8.6366194632
 30
0.0
 10
11.2538483752
 20
8.6349845576
 30
0.0
 10
11.2896476218
 20
8.6306946078
 30
0.0
 10
11.3252124185
 20
8.6237734661
 30
0.0
 10
11.3603478023
 20
8.6142595845
 30
0.0
 10
11.394860768
 20
8.602205548
 30
0.0
 10
11.4285618959
 20
8.5876778374
 30
0.0
 10
11.4612662316
 20
8.570756478
 30
0.0
 10
11.4927943304
 20
8.5515345871
 30
0.0
 10
11.5229732065
 20
8.530117842
 30
0.0
 10
11.5516372732
 20
8.5066239089
 30
0.0
 10
11.5786292371
 20
8.481181801
 30
0.0
 10
11.6038009523
 20
8.4539311815
 30
0.0
 10
11.6270142551
 20
8.4250216294
 30
0.0
 10
11.6481416858
 20
8.3946117928
 30
0.0
 10
11.667067181
 20
8.3628685343
 30
0.0
 10
11.6836867059
 20
8.329966021
 30
0.0
 10
11.6979088182
 20
8.296084803
 30
0.0
 10
11.7096551831
 20
8.2614107706
 30
0.0
 10
11.7188610653
 20
8.2261344172
 30
0.0
 10
11.7254754797
 20
8.1904487953
 30
0.0
 10
11.7294618874
 20
8.1545523871
 30
0.0
 10
11.7303547399
 20
8.1305448315
 30
0.0
 10
11.7303547399
 20
8.1185759332
 30
0.0
  0
SPLINE
  5
317
100
AcDbEntity
  8
0
100
AcDbSpline
 62
7
  6
CONTINUOUS
 70
0
 71
3
 72
48
 73
44
 74
0
 42
0.0000001
 43
0.0000001
 44
0.0000000001
 40
0.0
 40
0.0
 40
0.0
 40
0.0
 40
0.0149718897
 40
0.0299468369
 40
0.0449278839
 40
0.0599180336
 40
0.0749202322
 40
0.0899373568
 40
0.1049721887
 40
0.1200274064
 40
0.1351055645
 40
0.1502090774
 40
0.1653402142
 40
0.180501073
 40
0.1956935825
 40
0.2109194836
 40
0.2261803205
 40
0.2414774416
 40
0.2568119786
 40
0.2721848576
 40
0.3030428416
 40
0.3340598877
 40
0.365235493
 40
0.3965657058
 40
0.4280432614
 40
0.4596577825
 40
0.4913960356
 40
0.5232422374
 40
0.5551784039
 40
0.5871847345
 40
0.6192400218
 40
0.6513220815
 40
0.6834081967
 40
0.7154755701
 40
0.7475017768
 40
0.7794652126
 40
0.8113455287
 40
0.8431240501
 40
0.8747841728
 40
0.9063117021
 40
0.9376953081
 40
0.9689262526
 40
1.0
 40
1.0
 40
1.0
 40
1.0
 10
11.5645741407
 20
7.673549122
 30
0.0
 10
11.5687219511
 20
7.6775556165
 30
0.0
 10
11.5771786443
 20
7.685405441
 30
0.0
 10
11.590323023
 20
7.6966679901
 30
0.0
 10
11.603909932
 20
7.7074043183
 30
0.0
 10
11.6179205315
 20
7.717599253
 30
0.0
 10
11.6323354977
 20
7.7272389825
 30
0.0
 10
11.6471350447
 20
7.7363101259
 30
0.0
 10
11.6622987858
 20
7.7448002386
 30
0.0
 10
11.6778058211
 20
7.7526977046
 30
0.0
 10
11.6936348736
 20
7.7599915316
 30
0.0
 10
11.7097640832
 20
7.7666718589
 30
0.0
 10
11.7261713158
 20
7.7727293608
 30
0.0
 10
11.7428339597
 20
7.7781557942
 30
0.0
 10
11.7597290893
 20
7.7829437198
 30
0.0
 10
11.7768334778
 20
7.7870864587
 30
0.0
 10
11.7941235782
 20
7.7905784888
 30
0.0
 10
11.8115755543
 20
7.7934148487
 30
0.0
 10
11.829165693
 20
7.7955917767
 30
0.0
 10
11.8527975926
 20
7.7976134845
 30
0.0
 10
11.8825696983
 20
7.798473063
 30
0.0
 10
11.918405348
 20
7.7968381574
 30
0.0
 10
11.9542045947
 20
7.7925482076
 30
0.0
 10
11.9897693913
 20
7.7856270659
 30
0.0
 10
12.0249047751
 20
7.7761131844
 30
0.0
 10
12.0594177409
 20
7.7640591478
 30
0.0
 10
12.0931188688
 20
7.7495314373
 30
0.0
 10
12.1258232045
 20
7.7326100778
 30
0.0
 10
12.1573513033
 20
7.7133881869
 30
0.0
 10
12.1875301794
 20
7.6919714418
 30
0.0
 10
12.2161942461
 20
7.6684775087
 30
0.0
 10
12.24318621
 20
7.6430354008
 30
0.0
 10
12.2683579251
 20
7.6157847813
 30
0.0
 10
12.291571228
 20
7.5868752292
 30
0.0
 10
12.3126986586
 20
7.5564653927
 30
0.0
 10
12.3316241539
 20
7.5247221341
 30
0.0
 10
12.3482436788
 20
7.4918196208
 30
0.0
 10
12.362465791
 20
7.4579384028
 30
0.0
 10
12.3742121559
 20
7.4232643704
 30
0.0
 10
12.3834180381
 20
7.387988017
 30
0.0
 10
12.3900324525
 20
7.3523023951
 30
0.0
 10
12.3940188603
 20
7.3164059869
 30
0.0
 10
12.3949117127
 20
7.2923984313
 30
0.0
 10
12.3949117127
 20
7.2804295331
 30
0.0
  0
SPLINE
  5
318
100
AcDbEntity
  8
0
100
AcDbSpline
 62
7
  6
CONTINUOUS
 70
0
 71
3
 72
23
 73
19
 74
0
 42
0.0000001
 43
0.0000001
 44
0.0000000001
 40
0.0
 40
0.0
 40
0.0
 40
0.0
 40
0.0632749605
 40
0.1268548254
 40
0.1904867924
 40
0.253972702
 40
0.3171735144
 40
0.3800097015
 40
0.4424572842
 40
0.5045412635
 40
0.5663270156
 40
0.6279111225
 40
0.6894119262
 40
0.7509597174
 40
0.8126867645
 40
0.8747137587
 40
0.9371362486
 40
1.0
 40
1.0
 40
1.0
 40
1.0
 10
11.6921643717
 20
8.9858427963
 30
0.0
 10
11.6931631503
 20
8.9806014986
 30
0.0
 10
11.6954774195
 20
8.9701500079
 30
0.0
 10
11.6999232254
 20
8.9547039687
 30
0.0
 10
11.7053724633
 20
8.9395622524
 30
0.0
 10
11.7118187818
 20
8.9248516638
 30
0.0
 10
11.7192380014
 20
8.9106820495
 30
0.0
 10
11.7275919569
 20
8.8971450829
 30
0.0
 10
11.7368329395
 20
8.8843132132
 30
0.0
 10
11.7469078716
 20
8.8722404987
 30
0.0
 10
11.7577618708
 20
8.8609643691
 30
0.0
 10
11.7693409604
 20
8.8505080757
 30
0.0
 10
11.7815937622
 20
8.8408833774
 30
0.0
 10
11.7944721653
 20
8.8320931327
 30
0.0
 10
11.8079307523
 20
8.8241338443
 30
0.0
 10
11.8219253013
 20
8.8169974321
 30
0.0
 10
11.8364085715
 20
8.8106735776
 30
0.0
 10
11.8463219681
 20
8.8070031652
 30
0.0
 10
11.851340966
 20
8.8052974103
 30
0.0
  0
SPLINE
  5
319
100
AcDbEntity
  8
0
100
AcDbSpline
 62
7
  6
CONTINUOUS
 70
0
 71
3
 72
50
 73
46
 74
0
 42
0.0000001
 43
0.0000001
 44
0.0000000001
 40
0.0
 40
0.0
 40
0.0
 40
0.0
 40
0.0149717276
 40
0.0299465149
 40
0.0449274004
 40
0.0599173895
 40
0.0749194283
 40
0.0899363912
 40
0.1049710639
 40
0.1200261204
 40
0.1351041175
 40
0.150207471
 40
0.1653384451
 40
0.1804991444
 40
0.1956914919
 40
0.2109172308
 40
0.2261779074
 40
0.2414748638
 40
0.2568092401
 40
0.2721819551
 40
0.2875937169
 40
0.3030450124
 40
0.3185361053
 40
0.334067046
 40
0.3652423188
 40
0.3965721984
 40
0.4280494197
 40
0.4596636038
 40
0.491401517
 40
0.523247377
 40
0.5551832011
 40
0.5871891885
 40
0.6192441311
 40
0.6513258451
 40
0.6834116144
 40
0.7154786419
 40
0.7475045029
 40
0.7794675932
 40
0.8113475647
 40
0.8431257434
 40
0.8747855233
 40
0.906312715
 40
0.9376959769
 40
0.9689265854
 40
1.0
 40
1.0
 40
1.0
 40
1.0
 10
11.5645752738
 20
9.2557368702
 30
0.0
 10
11.5687230855
 20
9.2597433514
 30
0.0
 10
11.5771797919
 20
9.2675931382
 30
0.0
 10
11.5903241881
 20
9.2788556307
 30
0.0
 10
11.6039111419
 20
9.2895918626
 30
0.0
 10
11.6179217161
 20
9.2997867929
 30
0.0
 10
11.6323367352
 20
9.3094264018
 30
0.0
 10
11.6471362644
 20
9.3184975289
 30
0.0
 10
11.6623000201
 20
9.3269875715
 30
0.0
 10
11.6778070756
 20
9.3348849452
 30
0.0
 10
11.6936361006
 20
9.3421787801
 30
0.0
 10
11.7097653408
 20
9.3488589746
 30
0.0
 10
11.7261725472
 20
9.3549164816
 30
0.0
 10
11.7428351946
 20
9.3603428373
 30
0.0
 10
11.7597303217
 20
9.3651306819
 30
0.0
 10
11.7768346885
 20
9.3692734371
 30
0.0
 10
11.7941247795
 20
9.3727653305
 30
0.0
 10
11.8115767813
 20
9.3756017158
 30
0.0
 10
11.8291667121
 20
9.3777785617
 30
0.0
 10
11.8468703566
 20
9.3792929783
 30
0.0
 10
11.8646633907
 20
9.3801428978
 30
0.0
 10
11.8825212626
 20
9.3803270834
 30
0.0
 10
11.9004197179
 20
9.3798453937
 30
0.0
 10
11.924332461
 20
9.3783144518
 30
0.0
 10
11.9542062043
 20
9.3747347066
 30
0.0
 10
11.9897701845
 20
9.3678135354
 30
0.0
 10
12.0249057042
 20
9.3582995685
 30
0.0
 10
12.0594185426
 20
9.3462454734
 30
0.0
 10
12.0931196197
 20
9.3317177359
 30
0.0
 10
12.1258238933
 20
9.314796373
 30
0.0
 10
12.157351924
 20
9.2955744639
 30
0.0
 10
12.1875307202
 20
9.2741576942
 30
0.0
 10
12.216194709
 20
9.2506637475
 30
0.0
 10
12.243186606
 20
9.2252216457
 30
0.0
 10
12.268358275
 20
9.1979710552
 30
0.0
 10
12.2915715208
 20
9.1690615243
 30
0.0
 10
12.3126988871
 20
9.1386517077
 30
0.0
 10
12.3316243231
 20
9.1069084759
 30
0.0
 10
12.3482438002
 20
9.0740059983
 30
0.0
 10
12.3624658852
 20
9.0401248267
 30
0.0
 10
12.3742122223
 20
9.005450839
 30
0.0
 10
12.3834180719
 20
8.9701745325
 30
0.0
 10
12.3900324665
 20
8.9344889606
 30
0.0
 10
12.3940188616
 20
8.8985926036
 30
0.0
 10
12.3949117127
 20
8.874585081
 30
0.0
 10
12.3949117127
 20
8.8626161989
 30
0.0
  0
SPLINE
  5
31A
100
AcDbEntity
  8
0
100
AcDbSpline
 62
7
  6
CONTINUOUS
 70
0
 71
3
 72
21
 73
17
 74
0
 42
0.0000001
 43
0.0000001
 44
0.0000000001
 40
0.0
 40
0.0
 40
0.0
 40
0.0
 40
0.1492270429
 40
0.2205017098
 40
0.2896520113
 40
0.3567720955
 40
0.4219679454
 40
0.4853571052
 40
0.5470689866
 40
0.6659991738
 40
0.723585292
 40
0.7801397768
 40
0.8358539772
 40
0.8909288234
 40
0.9455728241
 40
1.0
 40
1.0
 40
1.0
 40
1.0
 10
7.2428322259
 20
7.0693302534
 30
0.0
 10
7.2445979039
 20
7.0671592474
 30
0.0
 10
7.247309686
 20
7.0640317989
 30
0.0
 10
7.2510931142
 20
7.0601331004
 30
0.0
 10
7.2539116998
 20
7.0574476385
 30
0.0
 10
7.2567538931
 20
7.0549568911
 30
0.0
 10
7.2596189701
 20
7.0526614938
 30
0.0
 10
7.262506421
 20
7.0505619922
 30
0.0
 10
7.2663370131
 20
7.0480560969
 30
0.0
 10
7.2702623701
 20
7.0459010067
 30
0.0
 10
7.2742631768
 20
7.0441363452
 30
0.0
 10
7.277250561
 20
7.0430255376
 30
0.0
 10
7.2802554375
 20
7.0421139665
 30
0.0
 10
7.2832770758
 20
7.041401876
 30
0.0
 10
7.2863143691
 20
7.0408896214
 30
0.0
 10
7.288350816
 20
7.0406813362
 30
0.0
 10
7.2893690135
 20
7.0406107288
 30
0.0
  0
SPLINE
  5
31B
100
AcDbEntity
  8
0
100
AcDbSpline
 62
7
  6
CONTINUOUS
 70
0
 71
3
 72
21
 73
17
 74
0
 42
0.0000001
 43
0.0000001
 44
0.0000000001
 40
0.0
 40
0.0
 40
0.0
 40
0.0
 40
0.0544269743
 40
0.1090707035
 40
0.1641452635
 40
0.2198592802
 40
0.2764135399
 40
0.3339993753
 40
0.452929691
 40
0.5146409336
 40
0.5780288971
 40
0.6432236798
 40
0.7103433139
 40
0.7794945759
 40
0.8507726736
 40
1.0
 40
1.0
 40
1.0
 40
1.0
 10
7.8036317769
 20
10.6238865501
 30
0.0
 10
7.8026135832
 20
10.6239571573
 30
0.0
 10
7.8005678887
 20
10.6240319474
 30
0.0
 10
7.7974889745
 20
10.6239439006
 30
0.0
 10
7.7943979785
 20
10.6236557364
 30
0.0
 10
7.7912960547
 20
10.6231676442
 30
0.0
 10
7.7881839496
 20
10.6224798434
 30
0.0
 10
7.783977842
 20
10.6212843951
 30
0.0
 10
7.7797926238
 20
10.6196917025
 30
0.0
 10
7.7756528035
 20
10.6177386213
 30
0.0
 10
7.7725032155
 20
10.6160578489
 30
0.0
 10
7.7693487652
 20
10.6141799272
 30
0.0
 10
7.766189975
 20
10.6121053554
 30
0.0
 10
7.7630275984
 20
10.6098346538
 30
0.0
 10
7.7587421866
 20
10.6064954335
 30
0.0
 10
7.7556246099
 20
10.6037722053
 30
0.0
 10
7.7535761347
 20
10.6018657251
 30
0.0
  0
SPLINE
  5
31C
100
AcDbEntity
  8
0
100
AcDbSpline
 62
7
  6
CONTINUOUS
 70
0
 71
3
 72
23
 73
19
 74
0
 42
0.0000001
 43
0.0000001
 44
0.0000000001
 40
0.0
 40
0.0
 40
0.0
 40
0.0
 40
0.0637748419
 40
0.1273454053
 40
0.1907023746
 40
0.2538558225
 40
0.3168132293
 40
0.3795821318
 40
0.4421733557
 40
0.5045993383
 40
0.566873869
 40
0.6290123749
 40
0.6910316549
 40
0.7529496458
 40
0.8147853539
 40
0.8765586087
 40
0.9382898542
 40
1.0
 40
1.0
 40
1.0
 40
1.0
 10
13.3366894717
 20
9.1856058467
 30
0.0
 10
13.3366894717
 20
9.1888920481
 30
0.0
 10
13.336846819
 20
9.1954550364
 30
0.0
 10
13.3375566997
 20
9.2052595824
 30
0.0
 10
13.3387387842
 20
9.2149864849
 30
0.0
 10
13.3403902363
 20
9.2246126966
 30
0.0
 10
13.342507162
 20
9.234116377
 30
0.0
 10
13.3450848857
 20
9.2434755435
 30
0.0
 10
13.3481174043
 20
9.2526685963
 30
0.0
 10
13.3515976919
 20
9.2616743772
 30
0.0
 10
13.3555178742
 20
9.2704720662
 30
0.0
 10
13.3598688114
 20
9.2790414157
 30
0.0
 10
13.3646405208
 20
9.2873626461
 30
0.0
 10
13.3698220707
 20
9.2954165273
 30
0.0
 10
13.3754013965
 20
9.3031845319
 30
0.0
 10
13.3813657967
 20
9.3106487355
 30
0.0
 10
13.3877012514
 20
9.3177917022
 30
0.0
 10
13.3921633275
 20
9.322329406
 30
0.0
 10
13.3944504194
 20
9.3245385712
 30
0.0
  0
SPLINE
  5
31D
100
AcDbEntity
  8
0
100
AcDbSpline
 62
7
  6
CONTINUOUS
 70
0
 71
3
 72
21
 73
17
 74
0
 42
0.0000001
 43
0.0000001
 44
0.0000000001
 40
0.0
 40
0.0
 40
0.0
 40
0.0
 40
0.1288280753
 40
0.2566232737
 40
0.32012434
 40
0.3833410942
 40
0.4462691992
 40
0.5089065133
 40
0.5712528318
 40
0.6333103726
 40
0.6950836068
 40
0.7565792949
 40
0.8178064807
 40
0.8787763724
 40
0.9395023951
 40
1.0
 40
1.0
 40
1.0
 40
1.0
 10
12.0023029583
 20
7.4419909108
 30
0.0
 10
12.0008335895
 20
7.4490056488
 30
0.0
 10
11.9973295795
 20
7.4628650125
 30
0.0
 10
11.991524699
 20
7.479725146
 30
0.0
 10
11.9860654468
 20
7.492793517
 30
0.0
 10
11.981581901
 20
7.5023476191
 30
0.0
 10
11.9767099207
 20
7.5116552837
 30
0.0
 10
11.9714588701
 20
7.5206986251
 30
0.0
 10
11.9658388735
 20
7.5294599816
 30
0.0
 10
11.9598609271
 20
7.5379224005
 30
0.0
 10
11.9535365221
 20
7.5460693566
 30
0.0
 10
11.9468779734
 20
7.5538850486
 30
0.0
 10
11.9398982308
 20
7.5613542799
 30
0.0
 10
11.9326106956
 20
7.56846249
 30
0.0
 10
11.9250298554
 20
7.5751957713
 30
0.0
 10
11.91978019
 20
7.5794338888
 30
0.0
 10
11.9171120188
 20
7.5814852774
 30
0.0
  0
SPLINE
  5
31E
100
AcDbEntity
  8
0
100
AcDbSpline
 62
7
  6
CONTINUOUS
 70
0
 71
3
 72
40
 73
36
 74
0
 42
0.0000001
 43
0.0000001
 44
0.0000000001
 40
0.0
 40
0.0
 40
0.0
 40
0.0
 40
0.0317020176
 40
0.0635387994
 40
0.0954924979
 40
0.12754895
 40
0.159690115
 40
0.1918978344
 40
0.2241530661
 40
0.2564362081
 40
0.2887273806
 40
0.3210065947
 40
0.3532539972
 40
0.3854500956
 40
0.4175759756
 40
0.4496135123
 40
0.4815455804
 40
0.5133562693
 40
0.5450310789
 40
0.5765571003
 40
0.6079231853
 40
0.6391201127
 40
0.6701407373
 40
0.7009801066
 40
0.7316355555
 40
0.7621067805
 40
0.7923958975
 40
0.8225074565
 40
0.8524484171
 40
0.8673594306
 40
0.8822314846
 40
0.9118614522
 40
0.9413554357
 40
0.9707291309
 40
1.0
 40
1.0
 40
1.0
 40
1.0
 10
12.0023029583
 20
7.4419909108
 30
0.0
 10
12.0032600588
 20
7.437421732
 30
0.0
 10
12.0049329949
 20
7.4282106452
 30
0.0
 10
12.0067096579
 20
7.4142551312
 30
0.0
 10
12.0077536254
 20
7.4001730862
 30
0.0
 10
12.0080616545
 20
7.3860110989
 30
0.0
 10
12.0076326512
 20
7.3718148553
 30
0.0
 10
12.0064680733
 20
7.3576306358
 30
0.0
 10
12.0045717443
 20
7.3435045231
 30
0.0
 10
12.0019498406
 20
7.3294824434
 30
0.0
 10
11.9986108908
 20
7.3156099828
 30
0.0
 10
11.9945657204
 20
7.3019322495
 30
0.0
 10
11.9898274893
 20
7.288493712
 30
0.0
 10
11.9844116065
 20
7.2753380588
 30
0.0
 10
11.9783356614
 20
7.2625080668
 30
0.0
 10
11.9716193722
 20
7.2500454668
 30
0.0
 10
11.9642845296
 20
7.2379908081
 30
0.0
 10
11.9563549738
 20
7.2263832947
 30
0.0
 10
11.9478564574
 20
7.2152606909
 30
0.0
 10
11.9388165727
 20
7.2046591994
 30
0.0
 10
11.929264656
 20
7.1946133551
 30
0.0
 10
11.9192317295
 20
7.1851558827
 30
0.0
 10
11.9087503982
 20
7.1763175822
 30
0.0
 10
11.8978547143
 20
7.1681272669
 30
0.0
 10
11.8865800722
 20
7.160611661
 30
0.0
 10
11.8749631262
 20
7.153795334
 30
0.0
 10
11.8630415833
 20
7.147700515
 30
0.0
 10
11.8508545179
 20
7.1423472202
 30
0.0
 10
11.840495227
 20
7.1385130935
 30
0.0
 10
11.8321168476
 20
7.1358351603
 30
0.0
 10
11.8237055202
 20
7.1334238684
 30
0.0
 10
11.8130982097
 20
7.1308987062
 30
0.0
 10
11.8002514755
 20
7.1286615966
 30
0.0
 10
11.7873438113
 20
7.12722838
 30
0.0
 10
11.7787114064
 20
7.1268113559
 30
0.0
 10
11.7744016795
 20
7.1267386394
 30
0.0
  0
SPLINE
  5
31F
100
AcDbEntity
  8
0
100
AcDbSpline
 62
7
  6
CONTINUOUS
 70
0
 71
3
 72
23
 73
19
 74
0
 42
0.0000001
 43
0.0000001
 44
0.0000000001
 40
0.0
 40
0.0
 40
0.0
 40
0.0
 40
0.0637748419
 40
0.1273454053
 40
0.1907023746
 40
0.2538558225
 40
0.3168132293
 40
0.3795821318
 40
0.4421733557
 40
0.5045993383
 40
0.566873869
 40
0.6290123749
 40
0.6910316549
 40
0.7529496458
 40
0.8147853539
 40
0.8765586087
 40
0.9382898542
 40
1.0
 40
1.0
 40
1.0
 40
1.0
 10
10.2573177325
 20
9.4571164999
 30
0.0
 10
10.2573177325
 20
9.4604027013
 30
0.0
 10
10.2574750797
 20
9.4669656896
 30
0.0
 10
10.2581849604
 20
9.4767702356
 30
0.0
 10
10.2593670449
 20
9.4864971381
 30
0.0
 10
10.261018497
 20
9.4961233498
 30
0.0
 10
10.2631354227
 20
9.5056270302
 30
0.0
 10
10.2657131465
 20
9.5149861967
 30
0.0
 10
10.2687456651
 20
9.5241792495
 30
0.0
 10
10.2722259527
 20
9.5331850303
 30
0.0
 10
10.276146135
 20
9.5419827194
 30
0.0
 10
10.2804970721
 20
9.5505520689
 30
0.0
 10
10.2852687815
 20
9.5588732993
 30
0.0
 10
10.2904503315
 20
9.5669271805
 30
0.0
 10
10.2960296573
 20
9.5746951851
 30
0.0
 10
10.3019940575
 20
9.5821593887
 30
0.0
 10
10.3083295121
 20
9.5893023554
 30
0.0
 10
10.3127915883
 20
9.5938400592
 30
0.0
 10
10.3150786801
 20
9.5960492243
 30
0.0
  0
SPLINE
  5
320
100
AcDbEntity
  8
0
100
AcDbSpline
 62
7
  6
CONTINUOUS
 70
0
 71
3
 72
24
 73
20
 74
0
 42
0.0000001
 43
0.0000001
 44
0.0000000001
 40
0.0
 40
0.0
 40
0.0
 40
0.0
 40
0.0637767223
 40
0.1273442464
 40
0.1907009953
 40
0.2538548358
 40
0.3168115815
 40
0.3795801539
 40
0.4421711312
 40
0.5045967629
 40
0.566870977
 40
0.6290091758
 40
0.6910281284
 40
0.7529458055
 40
0.8147811999
 40
0.8765541364
 40
0.9074261033
 40
0.938290172
 40
1.0
 40
1.0
 40
1.0
 40
1.0
 10
11.4289858292
 20
8.9296033864
 30
0.0
 10
11.4289858292
 20
8.9373177515
 30
0.0
 10
11.4293550756
 20
8.9527237913
 30
0.0
 10
11.4310216357
 20
8.9757391304
 30
0.0
 10
11.4337964842
 20
8.9985720297
 30
0.0
 10
11.4376729762
 20
9.0211688909
 30
0.0
 10
11.4426424476
 20
9.0434780435
 30
0.0
 10
11.4486934238
 20
9.0654479173
 30
0.0
 10
11.4558119897
 20
9.0870279003
 30
0.0
 10
11.4639817854
 20
9.1081682279
 30
0.0
 10
11.473184021
 20
9.1288201406
 30
0.0
 10
11.483397553
 20
9.1489359939
 30
0.0
 10
11.4945988201
 20
9.1684693757
 30
0.0
 10
11.5067620706
 20
9.1873753034
 30
0.0
 10
11.5198590448
 20
9.205609892
 30
0.0
 10
11.5315292144
 20
9.2202146158
 30
0.0
 10
11.5412990558
 20
9.2315187556
 30
0.0
 10
11.5513507966
 20
9.2425622419
 30
0.0
 10
11.5592065035
 20
9.2505510325
 30
0.0
 10
11.5645752738
 20
9.2557368702
 30
0.0
  0
SPLINE
  5
321
100
AcDbEntity
  8
0
100
AcDbSpline
 62
7
  6
CONTINUOUS
 70
0
 71
3
 72
22
 73
18
 74
0
 42
0.0000001
 43
0.0000001
 44
0.0000000001
 40
0.0
 40
0.0
 40
0.0
 40
0.0
 40
0.0764234912
 40
0.1504698875
 40
0.2222095369
 40
0.291722846
 40
0.3591050492
 40
0.4244648984
 40
0.5495745482
 40
0.6096453126
 40
0.6682571342
 40
0.7255853859
 40
0.7818195466
 40
0.8371613374
 40
0.8918233206
 40
0.9460270232
 40
1.0
 40
1.0
 40
1.0
 40
1.0
 10
14.5017401254
 20
7.3946369617
 30
0.0
 10
14.5005524684
 20
7.3934897731
 30
0.0
 10
14.4981775971
 20
7.3912684292
 30
0.0
 10
14.4945586654
 20
7.3881118963
 30
0.0
 10
14.4909413205
 20
7.3851852729
 30
0.0
 10
14.4873267314
 20
7.3824896824
 30
0.0
 10
14.4837156873
 20
7.3800258155
 30
0.0
 10
14.4789769872
 20
7.3770937849
 30
0.0
 10
14.4741756023
 20
7.3745700686
 30
0.0
 10
14.4693284363
 20
7.3725026283
 30
0.0
 10
14.4657503787
 20
7.3712078695
 30
0.0
 10
14.4621819689
 20
7.3701487639
 30
0.0
 10
14.4586241728
 20
7.3693256423
 30
0.0
 10
14.4550781206
 20
7.3687389097
 30
0.0
 10
14.4515448745
 20
7.3683889464
 30
0.0
 10
14.4480258302
 20
7.3682758771
 30
0.0
 10
14.4456878799
 20
7.3683585777
 30
0.0
 10
14.4445245151
 20
7.3684392615
 30
0.0
  0
SPLINE
  5
322
100
AcDbEntity
  8
0
100
AcDbSpline
 62
7
  6
CONTINUOUS
 70
0
 71
3
 72
23
 73
19
 74
0
 42
0.0000001
 43
0.0000001
 44
0.0000000001
 40
0.0
 40
0.0
 40
0.0
 40
0.0
 40
0.0637748419
 40
0.1273454053
 40
0.1907023746
 40
0.2538558225
 40
0.3168132293
 40
0.3795821318
 40
0.4421733557
 40
0.5045993383
 40
0.566873869
 40
0.6290123749
 40
0.6910316549
 40
0.7529496458
 40
0.8147853539
 40
0.8765586087
 40
0.9382898542
 40
1.0
 40
1.0
 40
1.0
 40
1.0
 10
10.2573177325
 20
6.9843462646
 30
0.0
 10
10.2573177325
 20
6.9876324659
 30
0.0
 10
10.2574750797
 20
6.9941954543
 30
0.0
 10
10.2581849604
 20
7.0040000003
 30
0.0
 10
10.2593670449
 20
7.0137269027
 30
0.0
 10
10.261018497
 20
7.0233531144
 30
0.0
 10
10.2631354227
 20
7.0328567949
 30
0.0
 10
10.2657131465
 20
7.0422159614
 30
0.0
 10
10.2687456651
 20
7.0514090141
 30
0.0
 10
10.2722259527
 20
7.060414795
 30
0.0
 10
10.276146135
 20
7.069212484
 30
0.0
 10
10.2804970721
 20
7.0777818336
 30
0.0
 10
10.2852687815
 20
7.0861030639
 30
0.0
 10
10.2904503315
 20
7.0941569452
 30
0.0
 10
10.2960296573
 20
7.1019249498
 30
0.0
 10
10.3019940575
 20
7.1093891534
 30
0.0
 10
10.3083295121
 20
7.1165321201
 30
0.0
 10
10.3127915883
 20
7.1210698238
 30
0.0
 10
10.3150786801
 20
7.123278989
 30
0.0
  0
SPLINE
  5
323
100
AcDbEntity
  8
0
100
AcDbSpline
 62
7
  6
CONTINUOUS
 70
0
 71
3
 72
23
 73
19
 74
0
 42
0.0000001
 43
0.0000001
 44
0.0000000001
 40
0.0
 40
0.0
 40
0.0
 40
0.0
 40
0.063776909
 40
0.1273449468
 40
0.1907019575
 40
0.2538561145
 40
0.3168131979
 40
0.3795820804
 40
0.4421733815
 40
0.5045993354
 40
0.5668738682
 40
0.6290123838
 40
0.6910316538
 40
0.75294965
 40
0.8147853622
 40
0.8765586114
 40
0.9382898593
 40
1.0
 40
1.0
 40
1.0
 40
1.0
 10
11.4289858292
 20
7.3474167206
 30
0.0
 10
11.4289858292
 20
7.3551310356
 30
0.0
 10
11.4293550791
 20
7.3705370147
 30
0.0
 10
11.4310216145
 20
7.3935522544
 30
0.0
 10
11.4337964432
 20
7.416385071
 30
0.0
 10
11.4376728968
 20
7.438981832
 30
0.0
 10
11.4426423333
 20
7.4612908915
 30
0.0
 10
11.4486932592
 20
7.4832606782
 30
0.0
 10
11.4558117557
 20
7.5048405804
 30
0.0
 10
11.4639814732
 20
7.5259808344
 30
0.0
 10
11.4731836458
 20
7.5466326701
 30
0.0
 10
11.4833970948
 20
7.5667484522
 30
0.0
 10
11.4945982676
 20
7.5862817914
 30
0.0
 10
11.5067613729
 20
7.6051876392
 30
0.0
 10
11.5198583671
 20
7.6234223237
 30
0.0
 10
11.5338592222
 20
7.640943909
 30
0.0
 10
11.5487310768
 20
7.6577114415
 30
0.0
 10
11.559205403
 20
7.6683632973
 30
0.0
 10
11.5645741407
 20
7.673549122
 30
0.0
  0
SPLINE
  5
324
100
AcDbEntity
  8
0
100
AcDbSpline
 62
7
  6
CONTINUOUS
 70
0
 71
3
 72
26
 73
22
 74
0
 42
0.0000001
 43
0.0000001
 44
0.0000000001
 40
0.0
 40
0.0
 40
0.0
 40
0.0
 40
0.0309685298
 40
0.0617485724
 40
0.1228180235
 40
0.1531678793
 40
0.1834269388
 40
0.2136246138
 40
0.2437883791
 40
0.3041176782
 40
0.3646295246
 40
0.4255082645
 40
0.4869107459
 40
0.5489626028
 40
0.6117520697
 40
0.6753192775
 40
0.7396393497
 40
0.8045964387
 40
0.8699486304
 40
0.9352870015
 40
1.0
 40
1.0
 40
1.0
 40
1.0
 10
11.9120097116
 20
8.8613849159
 30
0.0
 10
11.9092088269
 20
8.8619293366
 30
0.0
 10
11.9036453466
 20
8.8631280274
 30
0.0
 10
11.8926837907
 20
8.865946105
 30
0.0
 10
11.8819454872
 20
8.869370997
 30
0.0
 10
11.8714611593
 20
8.873345802
 30
0.0
 10
11.8637430401
 20
8.8765797165
 30
0.0
 10
11.8561528647
 20
8.8800620456
 30
0.0
 10
11.8461989637
 20
8.885022665
 30
0.0
 10
11.8340433209
 20
8.8918103482
 30
0.0
 10
11.8199255769
 20
8.9008278041
 30
0.0
 10
11.8062597094
 20
8.9106858845
 30
0.0
 10
11.7930418991
 20
8.9213634978
 30
0.0
 10
11.7802807803
 20
8.9328475355
 30
0.0
 10
11.7680001025
 20
8.9451276445
 30
0.0
 10
11.7562407385
 20
8.9581906159
 30
0.0
 10
11.7450631072
 20
8.9720129301
 30
0.0
 10
11.7345493673
 20
8.9865506763
 30
0.0
 10
11.7248041594
 20
9.0017269644
 30
0.0
 10
11.7159528985
 20
9.017415574
 30
0.0
 10
11.7106908292
 20
9.0281904359
 30
0.0
 10
11.7082428773
 20
9.0336271096
 30
0.0
  0
SPLINE
  5
325
100
AcDbEntity
  8
0
100
AcDbSpline
 62
7
  6
CONTINUOUS
 70
0
 71
3
 72
27
 73
23
 74
0
 42
0.0000001
 43
0.0000001
 44
0.0000000001
 40
0.0
 40
0.0
 40
0.0
 40
0.0
 40
0.0204252619
 40
0.0415129451
 40
0.0632749439
 40
0.0857214763
 40
0.1088616472
 40
0.1327033841
 40
0.1572533447
 40
0.1825165742
 40
0.2351935263
 40
0.2907537046
 40
0.3491986496
 40
0.4105171067
 40
0.474686633
 40
0.5416747092
 40
0.6114405345
 40
0.6839353369
 40
0.7591034078
 40
0.8368829647
 40
0.9172061225
 40
1.0
 40
1.0
 40
1.0
 40
1.0
 10
14.4399208674
 20
7.3989241418
 30
0.0
 10
14.4411695217
 20
7.4001302493
 30
0.0
 10
14.4436660917
 20
7.4026245922
 30
0.0
 10
14.4473508983
 20
7.406542974
 30
0.0
 10
14.4510335413
 20
7.4106959479
 30
0.0
 10
14.4547127157
 20
7.4150821548
 30
0.0
 10
14.4583873459
 20
7.4197002506
 30
0.0
 10
14.4620564036
 20
7.4245488774
 30
0.0
 10
14.4657188623
 20
7.4296266879
 30
0.0
 10
14.4706608771
 20
7.4368009496
 30
0.0
 10
14.4768063325
 20
7.4463432562
 30
0.0
 10
14.4840378798
 20
7.4585288331
 30
0.0
 10
14.4912174529
 20
7.4715896339
 30
0.0
 10
14.4983365842
 20
7.4855102905
 30
0.0
 10
14.5053868731
 20
7.5002746215
 30
0.0
 10
14.5123600512
 20
7.5158652863
 30
0.0
 10
14.5192478019
 20
7.5322639911
 30
0.0
 10
14.5260419767
 20
7.5494514215
 30
0.0
 10
14.5327345237
 20
7.5674073036
 30
0.0
 10
14.5393174366
 20
7.5861104657
 30
0.0
 10
14.5457829334
 20
7.6055387319
 30
0.0
 10
14.5499481031
 20
7.6187630555
 30
0.0
 10
14.5520117569
 20
7.6254907076
 30
0.0
  0
SPLINE
  5
326
100
AcDbEntity
  8
0
100
AcDbSpline
 62
7
  6
CONTINUOUS
 70
0
 71
3
 72
33
 73
29
 74
0
 42
0.0000001
 43
0.0000001
 44
0.0000000001
 40
0.0
 40
0.0
 40
0.0
 40
0.0
 40
0.0893245039
 40
0.1753675158
 40
0.2580143843
 40
0.337161332
 40
0.4127165613
 40
0.4491231306
 40
0.4846036434
 40
0.5191505688
 40
0.5527577916
 40
0.5854201302
 40
0.6171337266
 40
0.6478963079
 40
0.6777068189
 40
0.7065661291
 40
0.7344769055
 40
0.7614436522
 40
0.7874734565
 40
0.8125756786
 40
0.8367625204
 40
0.8600495266
 40
0.8824554865
 40
0.9040033863
 40
0.924720631
 40
0.9446394238
 40
0.9637977773
 40
1.0
 40
1.0
 40
1.0
 40
1.0
 10
14.6299156566
 20
8.7491421242
 30
0.0
 10
14.6285604894
 20
8.75758143
 30
0.0
 10
14.6257490033
 20
8.774126294
 30
0.0
 10
14.6211286417
 20
8.7983810948
 30
0.0
 10
14.6161902184
 20
8.8215786724
 30
0.0
 10
14.6109425272
 20
8.8436781376
 30
0.0
 10
14.6062635814
 20
8.8613590669
 30
0.0
 10
14.6023631854
 20
8.8749183456
 30
0.0
 10
14.5994026133
 20
8.8846635863
 30
0.0
 10
14.5963718464
 20
8.8941062968
 30
0.0
 10
14.5932722609
 20
8.9032423614
 30
0.0
 10
14.5901051962
 20
8.9120677676
 30
0.0
 10
14.5868720208
 20
8.9205786441
 30
0.0
 10
14.5835742153
 20
8.9287712852
 30
0.0
 10
14.580213156
 20
8.9366420917
 30
0.0
 10
14.5767903433
 20
8.9441876387
 30
0.0
 10
14.5733072923
 20
8.9514046497
 30
0.0
 10
14.5697654408
 20
8.9582899563
 30
0.0
 10
14.5661663918
 20
8.9648406002
 30
0.0
 10
14.5625116539
 20
8.9710537313
 30
0.0
 10
14.5588027521
 20
8.9769266417
 30
0.0
 10
14.5550413201
 20
8.9824568377
 30
0.0
 10
14.551228855
 20
8.9876418746
 30
0.0
 10
14.5473669202
 20
8.9924795567
 30
0.0
 10
14.543457241
 20
8.9969676898
 30
0.0
 10
14.5395008255
 20
9.001104632
 30
0.0
 10
14.5342658877
 20
9.0060551234
 30
0.0
 10
14.5301265081
 20
9.0093862595
 30
0.0
 10
14.5272923347
 20
9.0113782324
 30
0.0
  0
SPLINE
  5
327
100
AcDbEntity
  8
0
100
AcDbSpline
 62
7
  6
CONTINUOUS
 70
0
 71
3
 72
23
 73
19
 74
0
 42
0.0000001
 43
0.0000001
 44
0.0000000001
 40
0.0
 40
0.0
 40
0.0
 40
0.0
 40
0.063776909
 40
0.1273449468
 40
0.1907019575
 40
0.2538561145
 40
0.3168131979
 40
0.3795820804
 40
0.4421733815
 40
0.5045993354
 40
0.5668738682
 40
0.6290123838
 40
0.6910316538
 40
0.75294965
 40
0.8147853622
 40
0.8765586114
 40
0.9382898593
 40
1.0
 40
1.0
 40
1.0
 40
1.0
 10
10.7644288563
 20
8.1855631208
 30
0.0
 10
10.7644288563
 20
8.1932774358
 30
0.0
 10
10.7647981063
 20
8.2086834149
 30
0.0
 10
10.7664646416
 20
8.2316986546
 30
0.0
 10
10.7692394704
 20
8.2545314712
 30
0.0
 10
10.773115924
 20
8.2771282322
 30
0.0
 10
10.7780853604
 20
8.2994372916
 30
0.0
 10
10.7841362863
 20
8.3214070783
 30
0.0
 10
10.7912547828
 20
8.3429869805
 30
0.0
 10
10.7994245004
 20
8.3641272346
 30
0.0
 10
10.8086266729
 20
8.3847790703
 30
0.0
 10
10.8188401219
 20
8.4048948524
 30
0.0
 10
10.8300412947
 20
8.4244281916
 30
0.0
 10
10.8422044
 20
8.4433340394
 30
0.0
 10
10.8553013943
 20
8.4615687239
 30
0.0
 10
10.8693022493
 20
8.4790903092
 30
0.0
 10
10.8841741039
 20
8.4958578417
 30
0.0
 10
10.8946484302
 20
8.5065096975
 30
0.0
 10
10.9000171678
 20
8.5116955222
 30
0.0
  0
SPLINE
  5
328
100
AcDbEntity
  8
0
100
AcDbSpline
 62
7
  6
CONTINUOUS
 70
0
 71
3
 72
11
 73
7
 74
0
 42
0.0000001
 43
0.0000001
 44
0.0000000001
 40
0.0
 40
0.0
 40
0.0
 40
0.0
 40
0.2711092245
 40
0.5274781102
 40
0.7700408991
 40
1.0
 40
1.0
 40
1.0
 40
1.0
 10
14.4399208674
 20
7.3989241418
 30
0.0
 10
14.4378473611
 20
7.3969212884
 30
0.0
 10
14.4337027249
 20
7.393136132
 30
0.0
 10
14.4273089997
 20
7.3880106848
 30
0.0
 10
14.4209226878
 20
7.3836064852
 30
0.0
 10
14.4165643956
 20
7.3810916825
 30
0.0
 10
14.4143927804
 20
7.3799676302
 30
0.0
  0
SPLINE
  5
329
100
AcDbEntity
  8
0
100
AcDbSpline
 62
7
  6
CONTINUOUS
 70
0
 71
3
 72
40
 73
36
 74
0
 42
0.0000001
 43
0.0000001
 44
0.0000000001
 40
0.0
 40
0.0
 40
0.0
 40
0.0
 40
0.0166223254
 40
0.0334077873
 40
0.0505144525
 40
0.0680908685
 40
0.0862729247
 40
0.1051819365
 40
0.1149444608
 40
0.1249272566
 40
0.1455936574
 40
0.167261609
 40
0.1899958395
 40
0.2138495557
 40
0.2388663445
 40
0.265080832
 40
0.2925204793
 40
0.3212058929
 40
0.3511523247
 40
0.3823697956
 40
0.4148642073
 40
0.4486374636
 40
0.483688158
 40
0.5200118245
 40
0.5576012095
 40
0.596446715
 40
0.6365363023
 40
0.6778561251
 40
0.7203901524
 40
0.7641209284
 40
0.809029038
 40
0.8550938873
 40
0.9022931565
 40
0.950603476
 40
1.0
 40
1.0
 40
1.0
 40
1.0
 10
14.5589557356
 20
9.0184760732
 30
0.0
 10
14.5607234223
 20
9.0183534775
 30
0.0
 10
14.5642660715
 20
9.0179233782
 30
0.0
 10
14.5695260833
 20
9.0167308734
 30
0.0
 10
14.5747387567
 20
9.0149913997
 30
0.0
 10
14.5798992592
 20
9.0127075111
 30
0.0
 10
14.585004046
 20
9.0098820507
 30
0.0
 10
14.5891643716
 20
9.0071083911
 30
0.0
 10
14.5924593703
 20
9.0046329363
 30
0.0
 10
14.5958079764
 20
9.0019214841
 30
0.0
 10
14.59995497
 20
8.9981857719
 30
0.0
 10
14.6048081341
 20
8.9932244472
 30
0.0
 10
14.6095918012
 20
8.9877371252
 30
0.0
 10
14.6143031971
 20
8.9817276698
 30
0.0
 10
14.6189395123
 20
8.9751998422
 30
0.0
 10
14.623498092
 20
8.9681579194
 30
0.0
 10
14.6279760214
 20
8.960606343
 30
0.0
 10
14.6323706294
 20
8.9525500136
 30
0.0
 10
14.6366790276
 20
8.9439940706
 30
0.0
 10
14.6408985478
 20
8.9349440694
 30
0.0
 10
14.6450263976
 20
8.9254058484
 30
0.0
 10
14.6490599398
 20
8.9153856163
 30
0.0
 10
14.6529965183
 20
8.9048898909
 30
0.0
 10
14.6568335517
 20
8.8939255224
 30
0.0
 10
14.6605685406
 20
8.8824996805
 30
0.0
 10
14.6641989831
 20
8.8706198409
 30
0.0
 10
14.6677225432
 20
8.8582937963
 30
0.0
 10
14.6711368223
 20
8.8455296281
 30
0.0
 10
14.6744396457
 20
8.8323357237
 30
0.0
 10
14.6776287422
 20
8.8187207485
 30
0.0
 10
14.6807020909
 20
8.8046936572
 30
0.0
 10
14.6836575728
 20
8.7902636762
 30
0.0
 10
14.6864933106
 20
8.7754402952
 30
0.0
 10
14.6892073579
 20
8.7602332976
 30
0.0
 10
14.6909157482
 20
8.7499585748
 30
0.0
 10
14.6917502467
 20
8.7447594723
 30
0.0
  0
SPLINE
  5
32A
100
AcDbEntity
  8
0
100
AcDbSpline
 62
7
  6
CONTINUOUS
 70
0
 71
3
 72
27
 73
23
 74
0
 42
0.0000001
 43
0.0000001
 44
0.0000000001
 40
0.0
 40
0.0
 40
0.0
 40
0.0
 40
0.0827972796
 40
0.1631237404
 40
0.2409062704
 40
0.316077027
 40
0.3885741467
 40
0.4583417686
 40
0.5253311982
 40
0.5895014777
 40
0.6508200642
 40
0.7092645201
 40
0.7648234574
 40
0.8174984831
 40
0.8427604779
 40
0.8673090468
 40
0.891149169
 40
0.9142875042
 40
0.9367320012
 40
0.9584918105
 40
0.9795771745
 40
1.0
 40
1.0
 40
1.0
 40
1.0
 10
14.6138685521
 20
7.6213259135
 30
0.0
 10
14.6118043945
 20
7.6145944181
 30
0.0
 10
14.6076381476
 20
7.6013625385
 30
0.0
 10
14.6011709163
 20
7.5819231485
 30
0.0
 10
14.5945861115
 20
7.5632092916
 30
0.0
 10
14.5878915659
 20
7.5452431641
 30
0.0
 10
14.5810952873
 20
7.5280459665
 30
0.0
 10
14.5742053087
 20
7.5116380082
 30
0.0
 10
14.567229831
 20
7.4960386156
 30
0.0
 10
14.5601771455
 20
7.4812661156
 30
0.0
 10
14.5530555385
 20
7.4673378709
 30
0.0
 10
14.5458734357
 20
7.4542700771
 30
0.0
 10
14.5386392854
 20
7.4420781338
 30
0.0
 10
14.53249158
 20
7.4325309427
 30
0.0
 10
14.5275477225
 20
7.4253531095
 30
0.0
 10
14.5238839146
 20
7.4202728413
 30
0.0
 10
14.5202134992
 20
7.4154219299
 30
0.0
 10
14.5165375093
 20
7.4108017256
 30
0.0
 10
14.5128569757
 20
7.4064135798
 30
0.0
 10
14.5091729652
 20
7.4022588374
 30
0.0
 10
14.5054867797
 20
7.3983388558
 30
0.0
 10
14.5029892575
 20
7.3958435308
 30
0.0
 10
14.5017401254
 20
7.3946369617
 30
0.0
  0
SPLINE
  5
32B
100
AcDbEntity
  8
0
100
AcDbSpline
 62
7
  6
CONTINUOUS
 70
0
 71
3
 72
23
 73
19
 74
0
 42
0.0000001
 43
0.0000001
 44
0.0000000001
 40
0.0
 40
0.0
 40
0.0
 40
0.0
 40
0.063776909
 40
0.1273449468
 40
0.1907019575
 40
0.2538561145
 40
0.3168131979
 40
0.3795820804
 40
0.4421733815
 40
0.5045993354
 40
0.5668738682
 40
0.6290123838
 40
0.6910316538
 40
0.75294965
 40
0.8147853622
 40
0.8765586114
 40
0.9382898593
 40
1.0
 40
1.0
 40
1.0
 40
1.0
 10
12.0935429172
 20
8.0933887476
 30
0.0
 10
12.0935429172
 20
8.1011030626
 30
0.0
 10
12.0939121672
 20
8.1165090417
 30
0.0
 10
12.0955787025
 20
8.1395242814
 30
0.0
 10
12.0983535312
 20
8.162357098
 30
0.0
 10
12.1022299848
 20
8.184953859
 30
0.0
 10
12.1071994213
 20
8.2072629185
 30
0.0
 10
12.1132503472
 20
8.2292327052
 30
0.0
 10
12.1203688437
 20
8.2508126073
 30
0.0
 10
12.1285385612
 20
8.2719528614
 30
0.0
 10
12.1377407338
 20
8.2926046971
 30
0.0
 10
12.1479541828
 20
8.3127204792
 30
0.0
 10
12.1591553556
 20
8.3322538184
 30
0.0
 10
12.1713184609
 20
8.3511596662
 30
0.0
 10
12.1844154551
 20
8.3693943507
 30
0.0
 10
12.1984163102
 20
8.386915936
 30
0.0
 10
12.2132881648
 20
8.4036834685
 30
0.0
 10
12.223762491
 20
8.4143353243
 30
0.0
 10
12.2291312287
 20
8.419521149
 30
0.0
  0
SPLINE
  5
32C
100
AcDbEntity
  8
0
100
AcDbSpline
 62
7
  6
CONTINUOUS
 70
0
 71
3
 72
39
 73
35
 74
0
 42
0.0000001
 43
0.0000001
 44
0.0000000001
 40
0.0
 40
0.0
 40
0.0
 40
0.0
 40
0.0272510462
 40
0.0555481793
 40
0.0848450078
 40
0.1150888426
 40
0.1462163825
 40
0.1781575727
 40
0.2108356505
 40
0.2441682738
 40
0.2780683502
 40
0.3124447981
 40
0.3472032857
 40
0.382246923
 40
0.417476939
 40
0.4527933556
 40
0.4880956427
 40
0.5232833616
 40
0.5582568091
 40
0.5929176718
 40
0.6271697069
 40
0.660919424
 40
0.6940767894
 40
0.7265559659
 40
0.7582760991
 40
0.7891621839
 40
0.8191460009
 40
0.8481671231
 40
0.8761740591
 40
0.9031255493
 40
0.9289920562
 40
0.9537574982
 40
0.9774211848
 40
1.0
 40
1.0
 40
1.0
 40
1.0
 10
11.8907142957
 20
7.5315826953
 30
0.0
 10
11.891325436
 20
7.5276966723
 30
0.0
 10
11.892360309
 20
7.5197410867
 30
0.0
 10
11.8933524157
 20
7.5075295057
 30
0.0
 10
11.8938106376
 20
7.4948540261
 30
0.0
 10
11.8937334063
 20
7.4817623782
 30
0.0
 10
11.8931209418
 20
7.4683029764
 30
0.0
 10
11.8919755603
 20
7.4545260401
 30
0.0
 10
11.8903015001
 20
7.4404828911
 30
0.0
 10
11.8881050037
 20
7.4262259159
 30
0.0
 10
11.8853942527
 20
7.4118083191
 30
0.0
 10
11.8821793484
 20
7.397283926
 30
0.0
 10
11.8784722776
 20
7.3827069775
 30
0.0
 10
11.8742868647
 20
7.3681319264
 30
0.0
 10
11.8696387414
 20
7.3536132242
 30
0.0
 10
11.8645452752
 20
7.3392051145
 30
0.0
 10
11.8590254969
 20
7.3249614291
 30
0.0
 10
11.8531000306
 20
7.3109353843
 30
0.0
 10
11.8467910151
 20
7.2971793821
 30
0.0
 10
11.8401220215
 20
7.2837448098
 30
0.0
 10
11.8331179788
 20
7.2706818349
 30
0.0
 10
11.8258050579
 20
7.2580392234
 30
0.0
 10
11.8182105719
 20
7.2458641566
 30
0.0
 10
11.8103628704
 20
7.2342020539
 30
0.0
 10
11.8022912242
 20
7.2230964026
 30
0.0
 10
11.7940257174
 20
7.212588583
 30
0.0
 10
11.7855971257
 20
7.2027177089
 30
0.0
 10
11.7770367708
 20
7.1935204945
 30
0.0
 10
11.7683763981
 20
7.1850311293
 30
0.0
 10
11.7596480076
 20
7.1772811492
 30
0.0
 10
11.7508838048
 20
7.1702993934
 30
0.0
 10
11.7421157099
 20
7.1641117372
 30
0.0
 10
11.7333764567
 20
7.1587416793
 30
0.0
 10
11.7274530582
 20
7.1556484585
 30
0.0
 10
11.7245069511
 20
7.1542542924
 30
0.0
  0
SPLINE
  5
32D
100
AcDbEntity
  8
0
100
AcDbSpline
 62
7
  6
CONTINUOUS
 70
0
 71
3
 72
14
 73
10
 74
0
 42
0.0000001
 43
0.0000001
 44
0.0000000001
 40
0.0
 40
0.0
 40
0.0
 40
0.0
 40
0.1360489518
 40
0.2689720004
 40
0.3987196733
 40
0.5252822581
 40
0.6486691006
 40
0.7689000126
 40
1.0
 40
1.0
 40
1.0
 40
1.0
 10
11.8907142957
 20
7.5315826953
 30
0.0
 10
11.890382951
 20
7.5336895974
 30
0.0
 10
11.8896675497
 20
7.5378458086
 30
0.0
 10
11.8884190145
 20
7.5439714464
 30
0.0
 10
11.8870086731
 20
7.5499092707
 30
0.0
 10
11.8854383492
 20
7.5556519687
 30
0.0
 10
11.8837096481
 20
7.5611932415
 30
0.0
 10
11.8812294164
 20
7.5682108181
 30
0.0
 10
11.8790919793
 20
7.5732958698
 30
0.0
 10
11.8775399169
 20
7.5765694592
 30
0.0
  0
SPLINE
  5
32E
100
AcDbEntity
  8
0
100
AcDbSpline
 62
7
  6
CONTINUOUS
 70
0
 71
3
 72
36
 73
32
 74
0
 42
0.0000001
 43
0.0000001
 44
0.0000000001
 40
0.0
 40
0.0
 40
0.0
 40
0.0
 40
0.0851784539
 40
0.1685797221
 40
0.2498819146
 40
0.2896481023
 40
0.3287733825
 40
0.3672208992
 40
0.4049545595
 40
0.4419394685
 40
0.478141692
 40
0.5135285455
 40
0.5480685466
 40
0.5817315304
 40
0.6144888397
 40
0.6463132122
 40
0.6771792164
 40
0.7070630016
 40
0.7359428439
 40
0.7637989648
 40
0.790613997
 40
0.8163730895
 40
0.8410641782
 40
0.8646784984
 40
0.8872107022
 40
0.9086597752
 40
0.9290292269
 40
0.9483283084
 40
0.9665726389
 40
0.983785652
 40
1.0
 40
1.0
 40
1.0
 40
1.0
 10
7.1471429382
 20
7.6013137869
 30
0.0
 10
7.1471429382
 20
7.5857740643
 30
0.0
 10
7.1474077304
 20
7.5550180745
 30
0.0
 10
7.1486222719
 20
7.5094441057
 30
0.0
 10
7.1503201028
 20
7.4721772625
 30
0.0
 10
7.1520907011
 20
7.44300523
 30
0.0
 10
7.1536081141
 20
7.4216516682
 30
0.0
 10
7.1553230242
 20
7.4006850825
 30
0.0
 10
7.1572337021
 20
7.3801275359
 30
0.0
 10
7.1593380485
 20
7.3600006979
 30
0.0
 10
7.1616338864
 20
7.3403257596
 30
0.0
 10
7.1641187462
 20
7.321123441
 30
0.0
 10
7.1667900013
 20
7.302413959
 30
0.0
 10
7.169644837
 20
7.2842170053
 30
0.0
 10
7.1726801797
 20
7.2665517288
 30
0.0
 10
7.1758928782
 20
7.2494367089
 30
0.0
 10
7.179279443
 20
7.2328899386
 30
0.0
 10
7.1828363701
 20
7.2169288041
 30
0.0
 10
7.1865598114
 20
7.2015700585
 30
0.0
 10
7.1904458824
 20
7.1868298121
 30
0.0
 10
7.1944904411
 20
7.1727235022
 30
0.0
 10
7.1986892113
 20
7.1592658782
 30
0.0
 10
7.2030378084
 20
7.1464709892
 30
0.0
 10
7.2075315912
 20
7.1343521374
 30
0.0
 10
7.2121659662
 20
7.1229219114
 30
0.0
 10
7.2169360089
 20
7.1121920885
 30
0.0
 10
7.2218369496
 20
7.1021737099
 30
0.0
 10
7.2268637086
 20
7.0928770063
 30
0.0
 10
7.2320114924
 20
7.084311297
 30
0.0
 10
7.2372749822
 20
7.0764856424
 30
0.0
 10
7.2409657643
 20
7.0716251788
 30
0.0
 10
7.2428322259
 20
7.0693302534
 30
0.0
  0
SPLINE
  5
32F
100
AcDbEntity
  8
0
100
AcDbSpline
 62
7
  6
CONTINUOUS
 70
0
 71
3
 72
39
 73
35
 74
0
 42
0.0000001
 43
0.0000001
 44
0.0000000001
 40
0.0
 40
0.0
 40
0.0
 40
0.0
 40
0.0299424732
 40
0.0599093222
 40
0.0899243296
 40
0.1200101094
 40
0.1501875682
 40
0.1804754198
 40
0.2108897635
 40
0.2414437392
 40
0.2721472619
 40
0.3030068428
 40
0.334025493
 40
0.3652027101
 40
0.3965345427
 40
0.4280137258
 40
0.4596298807
 40
0.4913697729
 40
0.5232176187
 40
0.5551554339
 40
0.5871634169
 40
0.6192203588
 40
0.6513040742
 40
0.6833918453
 40
0.7154608739
 40
0.7474887339
 40
0.77945382
 40
0.811335781
 40
0.8431159463
 40
0.874777695
 40
0.9063068895
 40
0.9376919983
 40
0.9689248659
 40
1.0
 40
1.0
 40
1.0
 40
1.0
 10
13.6904129505
 20
6.6612773694
 30
0.0
 10
13.6868793519
 20
6.657864169
 30
0.0
 10
13.6795343095
 20
6.6513132163
 30
0.0
 10
13.6677663953
 20
6.6423887086
 30
0.0
 10
13.6553082913
 20
6.6344107754
 30
0.0
 10
13.642229605
 20
6.627424174
 30
0.0
 10
13.6286022433
 20
6.621467073
 30
0.0
 10
13.6145014139
 20
6.6165722189
 30
0.0
 10
13.6000048212
 20
6.6127663934
 30
0.0
 10
13.5851923312
 20
6.6100703748
 30
0.0
 10
13.570145499
 20
6.6084988076
 30
0.0
 10
13.5549471245
 20
6.6080601407
 30
0.0
 10
13.5396807952
 20
6.60875659
 30
0.0
 10
13.5244304291
 20
6.6105841369
 30
0.0
 10
13.5092798179
 20
6.6135325591
 30
0.0
 10
13.494312172
 20
6.6175854934
 30
0.0
 10
13.4796096691
 20
6.6227205312
 30
0.0
 10
13.4652530101
 20
6.6289093452
 30
0.0
 10
13.4513209822
 20
6.636117847
 30
0.0
 10
13.437890032
 20
6.6443063748
 30
0.0
 10
13.4250338527
 20
6.6534299115
 30
0.0
 10
13.4128229837
 20
6.6634383302
 30
0.0
 10
13.401324429
 20
6.6742766676
 30
0.0
 10
13.3906012934
 20
6.685885423
 30
0.0
 10
13.3807124396
 20
6.6982008822
 30
0.0
 10
13.3717121684
 20
6.7111554632
 30
0.0
 10
13.3636499242
 20
6.7246780827
 30
0.0
 10
13.3565700221
 20
6.7386945439
 30
0.0
 10
13.350511415
 20
6.7531279294
 30
0.0
 10
13.3455074581
 20
6.7678990547
 30
0.0
 10
13.341585774
 20
6.7829267552
 30
0.0
 10
13.3387680042
 20
6.7981288478
 30
0.0
 10
13.3370698398
 20
6.8134207036
 30
0.0
 10
13.3366894717
 20
6.8236479259
 30
0.0
 10
13.3366894717
 20
6.8287466357
 30
0.0
  0
SPLINE
  5
330
100
AcDbEntity
  8
0
100
AcDbSpline
 62
7
  6
CONTINUOUS
 70
0
 71
3
 72
39
 73
35
 74
0
 42
0.0000001
 43
0.0000001
 44
0.0000000001
 40
0.0
 40
0.0
 40
0.0
 40
0.0
 40
0.0299424732
 40
0.0599093222
 40
0.0899243296
 40
0.1200101094
 40
0.1501875682
 40
0.1804754198
 40
0.2108897635
 40
0.2414437392
 40
0.2721472619
 40
0.3030068428
 40
0.334025493
 40
0.3652027101
 40
0.3965345427
 40
0.4280137258
 40
0.4596298807
 40
0.4913697729
 40
0.5232176187
 40
0.5551554339
 40
0.5871634169
 40
0.6192203588
 40
0.6513040742
 40
0.6833918453
 40
0.7154608739
 40
0.7474887339
 40
0.77945382
 40
0.811335781
 40
0.8431159463
 40
0.874777695
 40
0.9063068895
 40
0.9376919983
 40
0.9689248659
 40
1.0
 40
1.0
 40
1.0
 40
1.0
 10
13.6904129505
 20
9.0181365804
 30
0.0
 10
13.6868793519
 20
9.01472338
 30
0.0
 10
13.6795343095
 20
9.0081724273
 30
0.0
 10
13.6677663953
 20
8.9992479197
 30
0.0
 10
13.6553082913
 20
8.9912699865
 30
0.0
 10
13.642229605
 20
8.9842833851
 30
0.0
 10
13.6286022433
 20
8.9783262841
 30
0.0
 10
13.6145014139
 20
8.97343143
 30
0.0
 10
13.6000048212
 20
8.9696256045
 30
0.0
 10
13.5851923312
 20
8.9669295859
 30
0.0
 10
13.570145499
 20
8.9653580187
 30
0.0
 10
13.5549471245
 20
8.9649193518
 30
0.0
 10
13.5396807952
 20
8.9656158011
 30
0.0
 10
13.5244304291
 20
8.967443348
 30
0.0
 10
13.5092798179
 20
8.9703917702
 30
0.0
 10
13.494312172
 20
8.9744447044
 30
0.0
 10
13.4796096691
 20
8.9795797423
 30
0.0
 10
13.4652530101
 20
8.9857685563
 30
0.0
 10
13.4513209822
 20
8.992977058
 30
0.0
 10
13.437890032
 20
9.0011655859
 30
0.0
 10
13.4250338527
 20
9.0102891226
 30
0.0
 10
13.4128229837
 20
9.0202975413
 30
0.0
 10
13.401324429
 20
9.0311358786
 30
0.0
 10
13.3906012934
 20
9.0427446341
 30
0.0
 10
13.3807124396
 20
9.0550600933
 30
0.0
 10
13.3717121684
 20
9.0680146742
 30
0.0
 10
13.3636499242
 20
9.0815372937
 30
0.0
 10
13.3565700221
 20
9.0955537549
 30
0.0
 10
13.350511415
 20
9.1099871404
 30
0.0
 10
13.3455074581
 20
9.1247582657
 30
0.0
 10
13.341585774
 20
9.1397859663
 30
0.0
 10
13.3387680042
 20
9.1549880589
 30
0.0
 10
13.3370698398
 20
9.1702799146
 30
0.0
 10
13.3366894717
 20
9.1805071369
 30
0.0
 10
13.3366894717
 20
9.1856058467
 30
0.0
  0
SPLINE
  5
331
100
AcDbEntity
  8
0
100
AcDbSpline
 62
7
  6
CONTINUOUS
 70
0
 71
3
 72
39
 73
35
 74
0
 42
0.0000001
 43
0.0000001
 44
0.0000000001
 40
0.0
 40
0.0
 40
0.0
 40
0.0
 40
0.0299424732
 40
0.0599093222
 40
0.0899243296
 40
0.1200101094
 40
0.1501875682
 40
0.1804754198
 40
0.2108897635
 40
0.2414437392
 40
0.2721472619
 40
0.3030068428
 40
0.334025493
 40
0.3652027101
 40
0.3965345427
 40
0.4280137258
 40
0.4596298807
 40
0.4913697729
 40
0.5232176187
 40
0.5551554339
 40
0.5871634169
 40
0.6192203588
 40
0.6513040742
 40
0.6833918453
 40
0.7154608739
 40
0.7474887339
 40
0.77945382
 40
0.811335781
 40
0.8431159463
 40
0.874777695
 40
0.9063068895
 40
0.9376919983
 40
0.9689248659
 40
1.0
 40
1.0
 40
1.0
 40
1.0
 10
10.6110412112
 20
9.2896472336
 30
0.0
 10
10.6075076126
 20
9.2862340332
 30
0.0
 10
10.6001625703
 20
9.2796830805
 30
0.0
 10
10.5883946561
 20
9.2707585728
 30
0.0
 10
10.575936552
 20
9.2627806397
 30
0.0
 10
10.5628578658
 20
9.2557940382
 30
0.0
 10
10.5492305041
 20
9.2498369372
 30
0.0
 10
10.5351296747
 20
9.2449420832
 30
0.0
 10
10.5206330819
 20
9.2411362577
 30
0.0
 10
10.5058205919
 20
9.2384402391
 30
0.0
 10
10.4907737597
 20
9.2368686719
 30
0.0
 10
10.4755753853
 20
9.236430005
 30
0.0
 10
10.4603090559
 20
9.2371264543
 30
0.0
 10
10.4450586899
 20
9.2389540012
 30
0.0
 10
10.4299080787
 20
9.2419024233
 30
0.0
 10
10.4149404327
 20
9.2459553576
 30
0.0
 10
10.4002379298
 20
9.2510903955
 30
0.0
 10
10.3858812709
 20
9.2572792095
 30
0.0
 10
10.3719492429
 20
9.2644877112
 30
0.0
 10
10.3585182928
 20
9.272676239
 30
0.0
 10
10.3456621134
 20
9.2817997758
 30
0.0
 10
10.3334512445
 20
9.2918081945
 30
0.0
 10
10.3219526898
 20
9.3026465318
 30
0.0
 10
10.3112295541
 20
9.3142552873
 30
0.0
 10
10.3013407003
 20
9.3265707465
 30
0.0
 10
10.2923404292
 20
9.3395253274
 30
0.0
 10
10.284278185
 20
9.3530479469
 30
0.0
 10
10.2771982829
 20
9.3670644081
 30
0.0
 10
10.2711396757
 20
9.3814977936
 30
0.0
 10
10.2661357189
 20
9.3962689189
 30
0.0
 10
10.2622140347
 20
9.4112966194
 30
0.0
 10
10.2593962649
 20
9.4264987121
 30
0.0
 10
10.2576981006
 20
9.4417905678
 30
0.0
 10
10.2573177325
 20
9.4520177901
 30
0.0
 10
10.2573177325
 20
9.4571164999
 30
0.0
  0
SPLINE
  5
332
100
AcDbEntity
  8
0
100
AcDbSpline
 62
7
  6
CONTINUOUS
 70
0
 71
3
 72
39
 73
35
 74
0
 42
0.0000001
 43
0.0000001
 44
0.0000000001
 40
0.0
 40
0.0
 40
0.0
 40
0.0
 40
0.0299424732
 40
0.0599093222
 40
0.0899243296
 40
0.1200101094
 40
0.1501875682
 40
0.1804754198
 40
0.2108897635
 40
0.2414437392
 40
0.2721472619
 40
0.3030068428
 40
0.334025493
 40
0.3652027101
 40
0.3965345427
 40
0.4280137258
 40
0.4596298807
 40
0.4913697729
 40
0.5232176187
 40
0.5551554339
 40
0.5871634169
 40
0.6192203588
 40
0.6513040742
 40
0.6833918453
 40
0.7154608739
 40
0.7474887339
 40
0.77945382
 40
0.811335781
 40
0.8431159463
 40
0.874777695
 40
0.9063068895
 40
0.9376919983
 40
0.9689248659
 40
1.0
 40
1.0
 40
1.0
 40
1.0
 10
10.6110412112
 20
6.8168769983
 30
0.0
 10
10.6075076126
 20
6.8134637979
 30
0.0
 10
10.6001625703
 20
6.8069128452
 30
0.0
 10
10.5883946561
 20
6.7979883375
 30
0.0
 10
10.575936552
 20
6.7900104044
 30
0.0
 10
10.5628578658
 20
6.7830238029
 30
0.0
 10
10.5492305041
 20
6.7770667019
 30
0.0
 10
10.5351296747
 20
6.7721718478
 30
0.0
 10
10.5206330819
 20
6.7683660224
 30
0.0
 10
10.5058205919
 20
6.7656700038
 30
0.0
 10
10.4907737597
 20
6.7640984366
 30
0.0
 10
10.4755753853
 20
6.7636597696
 30
0.0
 10
10.4603090559
 20
6.7643562189
 30
0.0
 10
10.4450586899
 20
6.7661837659
 30
0.0
 10
10.4299080787
 20
6.769132188
 30
0.0
 10
10.4149404327
 20
6.7731851223
 30
0.0
 10
10.4002379298
 20
6.7783201601
 30
0.0
 10
10.3858812709
 20
6.7845089742
 30
0.0
 10
10.3719492429
 20
6.7917174759
 30
0.0
 10
10.3585182928
 20
6.7999060037
 30
0.0
 10
10.3456621134
 20
6.8090295404
 30
0.0
 10
10.3334512445
 20
6.8190379591
 30
0.0
 10
10.3219526898
 20
6.8298762965
 30
0.0
 10
10.3112295541
 20
6.841485052
 30
0.0
 10
10.3013407003
 20
6.8538005112
 30
0.0
 10
10.2923404292
 20
6.8667550921
 30
0.0
 10
10.284278185
 20
6.8802777116
 30
0.0
 10
10.2771982829
 20
6.8942941728
 30
0.0
 10
10.2711396757
 20
6.9087275583
 30
0.0
 10
10.2661357189
 20
6.9234986836
 30
0.0
 10
10.2622140347
 20
6.9385263841
 30
0.0
 10
10.2593962649
 20
6.9537284767
 30
0.0
 10
10.2576981006
 20
6.9690203325
 30
0.0
 10
10.2573177325
 20
6.9792475548
 30
0.0
 10
10.2573177325
 20
6.9843462646
 30
0.0
  0
SPLINE
  5
333
100
AcDbEntity
  8
0
100
AcDbSpline
 62
7
  6
CONTINUOUS
 70
0
 71
3
 72
23
 73
19
 74
0
 42
0.0000001
 43
0.0000001
 44
0.0000000001
 40
0.0
 40
0.0
 40
0.0
 40
0.0
 40
0.0637748419
 40
0.1273454053
 40
0.1907023746
 40
0.2538558225
 40
0.3168132293
 40
0.3795821318
 40
0.4421733557
 40
0.5045993383
 40
0.566873869
 40
0.6290123749
 40
0.6910316549
 40
0.7529496458
 40
0.8147853539
 40
0.8765586087
 40
0.9382898542
 40
1.0
 40
1.0
 40
1.0
 40
1.0
 10
13.3366894717
 20
6.8287466357
 30
0.0
 10
13.3366894717
 20
6.832032837
 30
0.0
 10
13.336846819
 20
6.8385958253
 30
0.0
 10
13.3375566997
 20
6.8484003714
 30
0.0
 10
13.3387387842
 20
6.8581272738
 30
0.0
 10
13.3403902363
 20
6.8677534855
 30
0.0
 10
13.342507162
 20
6.877257166
 30
0.0
 10
13.3450848857
 20
6.8866163325
 30
0.0
 10
13.3481174043
 20
6.8958093852
 30
0.0
 10
13.3515976919
 20
6.9048151661
 30
0.0
 10
13.3555178742
 20
6.9136128551
 30
0.0
 10
13.3598688114
 20
6.9221822046
 30
0.0
 10
13.3646405208
 20
6.930503435
 30
0.0
 10
13.3698220707
 20
6.9385573162
 30
0.0
 10
13.3754013965
 20
6.9463253209
 30
0.0
 10
13.3813657967
 20
6.9537895244
 30
0.0
 10
13.3877012514
 20
6.9609324912
 30
0.0
 10
13.3921633275
 20
6.9654701949
 30
0.0
 10
13.3944504194
 20
6.9676793601
 30
0.0
  0
SPLINE
  5
334
100
AcDbEntity
  8
0
100
AcDbSpline
 62
7
  6
CONTINUOUS
 70
0
 71
3
 72
49
 73
45
 74
0
 42
0.0000001
 43
0.0000001
 44
0.0000000001
 40
0.0
 40
0.0
 40
0.0
 40
0.0
 40
0.007162651
 40
0.0146567047
 40
0.022489802
 40
0.0306682658
 40
0.039197236
 40
0.0480804432
 40
0.0573201505
 40
0.0669176598
 40
0.0768732462
 40
0.0871864326
 40
0.0978559349
 40
0.1088797421
 40
0.1202552948
 40
0.1319793485
 40
0.1440482505
 40
0.156457763
 40
0.1692032492
 40
0.1822796554
 40
0.19568148
 40
0.2094029484
 40
0.2377791912
 40
0.2673557091
 40
0.2980746237
 40
0.3298738609
 40
0.362687558
 40
0.3964464427
 40
0.4310781691
 40
0.466507628
 40
0.5026572389
 40
0.5394472298
 40
0.5767959041
 40
0.6146199124
 40
0.6528345158
 40
0.6913538428
 40
0.7300911403
 40
0.7689590294
 40
0.8078697587
 40
0.8467354142
 40
0.885468393
 40
0.9239808777
 40
0.9621872155
 40
1.0
 40
1.0
 40
1.0
 40
1.0
 10
7.3412570618
 20
10.203628352
 30
0.0
 10
7.3396324361
 20
10.202059084
 30
0.0
 10
7.336385358
 20
10.1987671019
 30
0.0
 10
7.3316262114
 20
10.1935062278
 30
0.0
 10
7.3268731406
 20
10.1878157866
 30
0.0
 10
7.3221291573
 20
10.1816994628
 30
0.0
 10
7.3173968932
 20
10.175160808
 30
0.0
 10
7.3126791103
 20
10.1682036077
 30
0.0
 10
7.3079784894
 20
10.1608320028
 30
0.0
 10
7.3032979446
 20
10.1530503319
 30
0.0
 10
7.2986401751
 20
10.1448632694
 30
0.0
 10
7.2940080084
 20
10.1362756654
 30
0.0
 10
7.2894042052
 20
10.1272926451
 30
0.0
 10
7.2848314913
 20
10.1179195852
 30
0.0
 10
7.2802926877
 20
10.1081620729
 30
0.0
 10
7.275790435
 20
10.0980259775
 30
0.0
 10
7.2713275263
 20
10.0875173522
 30
0.0
 10
7.2669065903
 20
10.0766425167
 30
0.0
 10
7.2625303125
 20
10.0654079916
 30
0.0
 10
7.2582013538
 20
10.0538205245
 30
0.0
 10
7.2539222513
 20
10.0418870751
 30
0.0
 10
7.2482230339
 20
10.0253386469
 30
0.0
 10
7.2412534799
 20
10.0038349942
 30
0.0
 10
7.2332199393
 20
9.9770488614
 30
0.0
 10
7.2254450106
 20
9.9490646355
 30
0.0
 10
7.2179475224
 20
9.9199496342
 30
0.0
 10
7.2107456233
 20
9.8897737719
 30
0.0
 10
7.2038567429
 20
9.8586096036
 30
0.0
 10
7.1972975483
 20
9.8265320754
 30
0.0
 10
7.1910839043
 20
9.7936183564
 30
0.0
 10
7.185230836
 20
9.7599476451
 30
0.0
 10
7.1797524942
 20
9.7256009788
 30
0.0
 10
7.1746621136
 20
9.690661037
 30
0.0
 10
7.169971987
 20
9.6552119374
 30
0.0
 10
7.1656934382
 20
9.619339029
 30
0.0
 10
7.1618367944
 20
9.5831286855
 30
0.0
 10
7.1584113616
 20
9.5466680966
 30
0.0
 10
7.155425403
 20
9.510045057
 30
0.0
 10
7.1528861193
 20
9.473347767
 30
0.0
 10
7.1507996097
 20
9.4366645598
 30
0.0
 10
7.1491709204
 20
9.4000838833
 30
0.0
 10
7.1480039037
 20
9.3636935595
 30
0.0
 10
7.1473014334
 20
9.327581588
 30
0.0
 10
7.1471429382
 20
9.3036084566
 30
0.0
 10
7.1471429382
 20
9.291684083
 30
0.0
  0
SPLINE
  5
335
100
AcDbEntity
  8
0
100
AcDbSpline
 62
7
  6
CONTINUOUS
 70
0
 71
3
 72
23
 73
19
 74
0
 42
0.0000001
 43
0.0000001
 44
0.0000000001
 40
0.0
 40
0.0
 40
0.0
 40
0.0
 40
0.0616662222
 40
0.1233790206
 40
0.1851548208
 40
0.2470095351
 40
0.308958412
 40
0.3710159285
 40
0.4331956853
 40
0.4955102766
 40
0.5579712239
 40
0.6205888462
 40
0.6833721981
 40
0.746329325
 40
0.8094661801
 40
0.87278738
 40
0.9363004604
 40
1.0
 40
1.0
 40
1.0
 40
1.0
 10
12.230224531
 20
8.4186048378
 30
0.0
 10
12.2257724149
 20
8.4135490559
 30
0.0
 10
12.2170980355
 20
8.4032255267
 30
0.0
 10
12.2048127477
 20
8.3871482218
 30
0.0
 10
12.1932715078
 20
8.3705031401
 30
0.0
 10
12.1824963931
 20
8.3533218893
 30
0.0
 10
12.1725075327
 20
8.335636576
 30
0.0
 10
12.1633235843
 20
8.31748046
 30
0.0
 10
12.1549617856
 20
8.2988875689
 30
0.0
 10
12.1474378505
 20
8.2798927627
 30
0.0
 10
12.1407657708
 20
8.2605317088
 30
0.0
 10
12.1349580609
 20
8.2408407089
 30
0.0
 10
12.1300256336
 20
8.2208566574
 30
0.0
 10
12.1259776549
 20
8.2006170597
 30
0.0
 10
12.1228216681
 20
8.1801599689
 30
0.0
 10
12.1205635456
 20
8.1595232596
 30
0.0
 10
12.1192076877
 20
8.1387465613
 30
0.0
 10
12.118907162
 20
8.1248474912
 30
0.0
 10
12.118907162
 20
8.1178887282
 30
0.0
  0
SPLINE
  5
336
100
AcDbEntity
  8
0
100
AcDbSpline
 62
7
  6
CONTINUOUS
 70
0
 71
3
 72
33
 73
29
 74
0
 42
0.0000001
 43
0.0000001
 44
0.0000000001
 40
0.0
 40
0.0
 40
0.0
 40
0.0
 40
0.06096189
 40
0.1220079793
 40
0.1831756317
 40
0.2444998464
 40
0.2752355044
 40
0.3060219997
 40
0.3368627606
 40
0.367760956
 40
0.3987194825
 40
0.4297409578
 40
0.4608276984
 40
0.4919817292
 40
0.523204751
 40
0.5544981659
 40
0.5858630365
 40
0.6173001249
 40
0.6488098454
 40
0.6803923145
 40
0.7120473007
 40
0.7437742806
 40
0.8074320017
 40
0.871363611
 40
0.9034317119
 40
0.9355622364
 40
0.9677526038
 40
1.0
 40
1.0
 40
1.0
 40
1.0
 10
12.9230055063
 20
7.7013955413
 30
0.0
 10
12.9150018396
 20
7.694825437
 30
0.0
 10
12.8985085783
 20
7.6822428006
 30
0.0
 10
12.8724714154
 20
7.6651632083
 30
0.0
 10
12.8452357651
 20
7.6499400211
 30
0.0
 10
12.8216566626
 20
7.6388651547
 30
0.0
 10
12.8023263172
 20
7.6309976099
 30
0.0
 10
12.7875940827
 20
7.6255937494
 30
0.0
 10
12.7726565071
 20
7.6206978627
 30
0.0
 10
12.7575298618
 20
7.6163153845
 30
0.0
 10
12.7422310052
 20
7.6124510254
 30
0.0
 10
12.7267768159
 20
7.6091092365
 30
0.0
 10
12.7111844536
 20
7.6062935038
 30
0.0
 10
12.6954711424
 20
7.6040071603
 30
0.0
 10
12.6796543126
 20
7.6022524917
 30
0.0
 10
12.6637514496
 20
7.6010316784
 30
0.0
 10
12.6477801752
 20
7.6003458122
 30
0.0
 10
12.6317581643
 20
7.6001958954
 30
0.0
 10
12.6157031387
 20
7.6005818399
 30
0.0
 10
12.5996329294
 20
7.6015034395
 30
0.0
 10
12.583565113
 20
7.6029594814
 30
0.0
 10
12.5621468564
 20
7.6056141394
 30
0.0
 10
12.5354670921
 20
7.610263924
 30
0.0
 10
12.5090899119
 20
7.6166509192
 30
0.0
 10
12.4882060275
 20
7.6227889429
 30
0.0
 10
12.4726513494
 20
7.627908545
 30
0.0
 10
12.4572400626
 20
7.6335332614
 30
0.0
 10
12.447080882
 20
7.6376124613
 30
0.0
 10
12.4420308267
 20
7.6397338271
 30
0.0
  0
SPLINE
  5
337
100
AcDbEntity
  8
0
100
AcDbSpline
 62
7
  6
CONTINUOUS
 70
0
 71
3
 72
15
 73
11
 74
0
 42
0.0000001
 43
0.0000001
 44
0.0000000001
 40
0.0
 40
0.0
 40
0.0
 40
0.0
 40
0.1262868568
 40
0.2522461237
 40
0.3778534202
 40
0.5030877842
 40
0.6279319664
 40
0.7523699123
 40
0.8763979391
 40
1.0
 40
1.0
 40
1.0
 40
1.0
 10
12.1561613914
 20
7.9293026107
 30
0.0
 10
12.1531014374
 20
7.9368471943
 30
0.0
 10
12.1473428051
 20
7.9520629458
 30
0.0
 10
12.1398044653
 20
7.9752359034
 30
0.0
 10
12.1333938242
 20
7.9986761384
 30
0.0
 10
12.1281268365
 20
8.022325843
 30
0.0
 10
12.1240164282
 20
8.0461273296
 30
0.0
 10
12.121072444
 20
8.0700229387
 30
0.0
 10
12.1193024684
 20
8.0939532646
 30
0.0
 10
12.118907162
 20
8.1099203102
 30
0.0
 10
12.118907162
 20
8.1178887282
 30
0.0
  0
SPLINE
  5
338
100
AcDbEntity
  8
0
100
AcDbSpline
 62
7
  6
CONTINUOUS
 70
0
 71
3
 72
48
 73
44
 74
0
 42
0.0000001
 43
0.0000001
 44
0.0000000001
 40
0.0
 40
0.0
 40
0.0
 40
0.0
 40
0.0149718897
 40
0.0299468369
 40
0.0449278839
 40
0.0599180336
 40
0.0749202322
 40
0.0899373568
 40
0.1049721887
 40
0.1200274064
 40
0.1351055645
 40
0.1502090774
 40
0.1653402142
 40
0.180501073
 40
0.1956935825
 40
0.2109194836
 40
0.2261803205
 40
0.2414774416
 40
0.2568119786
 40
0.2721848576
 40
0.3030428416
 40
0.3340598877
 40
0.365235493
 40
0.3965657058
 40
0.4280432614
 40
0.4596577825
 40
0.4913960356
 40
0.5232422374
 40
0.5551784039
 40
0.5871847345
 40
0.6192400218
 40
0.6513220815
 40
0.6834081967
 40
0.7154755701
 40
0.7475017768
 40
0.7794652126
 40
0.8113455287
 40
0.8431240501
 40
0.8747841728
 40
0.9063117021
 40
0.9376953081
 40
0.9689262526
 40
1.0
 40
1.0
 40
1.0
 40
1.0
 10
12.9238804893
 20
7.7002691587
 30
0.0
 10
12.9197326788
 20
7.6962626641
 30
0.0
 10
12.9112759856
 20
7.6884128397
 30
0.0
 10
12.8981316069
 20
7.6771502905
 30
0.0
 10
12.8845446979
 20
7.6664139624
 30
0.0
 10
12.8705340984
 20
7.6562190277
 30
0.0
 10
12.8561191322
 20
7.6465792982
 30
0.0
 10
12.8413195853
 20
7.6375081547
 30
0.0
 10
12.8261558441
 20
7.629018042
 30
0.0
 10
12.8106488088
 20
7.621120576
 30
0.0
 10
12.7948197564
 20
7.6138267491
 30
0.0
 10
12.7786905467
 20
7.6071464218
 30
0.0
 10
12.7622833141
 20
7.6010889199
 30
0.0
 10
12.7456206703
 20
7.5956624864
 30
0.0
 10
12.7287255407
 20
7.5908745608
 30
0.0
 10
12.7116211522
 20
7.5867318219
 30
0.0
 10
12.6943310517
 20
7.5832397918
 30
0.0
 10
12.6768790757
 20
7.5804034319
 30
0.0
 10
12.659288937
 20
7.578226504
 30
0.0
 10
12.6356570373
 20
7.5762047961
 30
0.0
 10
12.6058849317
 20
7.5753452176
 30
0.0
 10
12.5700492819
 20
7.5769801232
 30
0.0
 10
12.5342500353
 20
7.581270073
 30
0.0
 10
12.4986852386
 20
7.5881912147
 30
0.0
 10
12.4635498548
 20
7.5977050963
 30
0.0
 10
12.429036889
 20
7.6097591328
 30
0.0
 10
12.3953357611
 20
7.6242868434
 30
0.0
 10
12.3626314255
 20
7.6412082028
 30
0.0
 10
12.3311033266
 20
7.6604300937
 30
0.0
 10
12.3009244506
 20
7.6818468389
 30
0.0
 10
12.2722603839
 20
7.7053407719
 30
0.0
 10
12.24526842
 20
7.7307828799
 30
0.0
 10
12.2200967048
 20
7.7580334993
 30
0.0
 10
12.196883402
 20
7.7869430514
 30
0.0
 10
12.1757559713
 20
7.817352888
 30
0.0
 10
12.1568304761
 20
7.8490961466
 30
0.0
 10
12.1402109512
 20
7.8819986598
 30
0.0
 10
12.1259888389
 20
7.9158798778
 30
0.0
 10
12.114242474
 20
7.9505539103
 30
0.0
 10
12.1050365918
 20
7.9858302636
 30
0.0
 10
12.0984221774
 20
8.0215158855
 30
0.0
 10
12.0944357697
 20
8.0574122937
 30
0.0
 10
12.0935429172
 20
8.0814198494
 30
0.0
 10
12.0935429172
 20
8.0933887476
 30
0.0
  0
SPLINE
  5
339
100
AcDbEntity
  8
0
100
AcDbSpline
 62
7
  6
CONTINUOUS
 70
0
 71
3
 72
23
 73
19
 74
0
 42
0.0000001
 43
0.0000001
 44
0.0000000001
 40
0.0
 40
0.0
 40
0.0
 40
0.0
 40
0.0616662222
 40
0.1233790206
 40
0.1851548208
 40
0.2470095351
 40
0.308958412
 40
0.3710159285
 40
0.4331956853
 40
0.4955102766
 40
0.5579712239
 40
0.6205888462
 40
0.6833721981
 40
0.746329325
 40
0.8094661801
 40
0.87278738
 40
0.9363004604
 40
1.0
 40
1.0
 40
1.0
 40
1.0
 10
10.9011104702
 20
8.5107792109
 30
0.0
 10
10.896658354
 20
8.5057234291
 30
0.0
 10
10.8879839746
 20
8.4953998999
 30
0.0
 10
10.8756986869
 20
8.479322595
 30
0.0
 10
10.8641574469
 20
8.4626775133
 30
0.0
 10
10.8533823322
 20
8.4454962625
 30
0.0
 10
10.8433934718
 20
8.4278109492
 30
0.0
 10
10.8342095235
 20
8.4096548332
 30
0.0
 10
10.8258477247
 20
8.3910619421
 30
0.0
 10
10.8183237896
 20
8.3720671359
 30
0.0
 10
10.81165171
 20
8.3527060819
 30
0.0
 10
10.8058440001
 20
8.3330150821
 30
0.0
 10
10.8009115727
 20
8.3130310306
 30
0.0
 10
10.796863594
 20
8.2927914329
 30
0.0
 10
10.7937076073
 20
8.2723343421
 30
0.0
 10
10.7914494848
 20
8.2516976328
 30
0.0
 10
10.7900936268
 20
8.2309209344
 30
0.0
 10
10.7897931012
 20
8.2170218644
 30
0.0
 10
10.7897931012
 20
8.2100631014
 30
0.0
  0
SPLINE
  5
33A
100
AcDbEntity
  8
0
100
AcDbSpline
 62
7
  6
CONTINUOUS
 70
0
 71
3
 72
33
 73
29
 74
0
 42
0.0000001
 43
0.0000001
 44
0.0000000001
 40
0.0
 40
0.0
 40
0.0
 40
0.0
 40
0.06096189
 40
0.1220079793
 40
0.1831756317
 40
0.2444998464
 40
0.2752355044
 40
0.3060219997
 40
0.3368627606
 40
0.367760956
 40
0.3987194825
 40
0.4297409578
 40
0.4608276984
 40
0.4919817292
 40
0.523204751
 40
0.5544981659
 40
0.5858630365
 40
0.6173001249
 40
0.6488098454
 40
0.6803923145
 40
0.7120473007
 40
0.7437742806
 40
0.8074320017
 40
0.871363611
 40
0.9034317119
 40
0.9355622364
 40
0.9677526038
 40
1.0
 40
1.0
 40
1.0
 40
1.0
 10
11.5938914454
 20
7.7935699145
 30
0.0
 10
11.5858877788
 20
7.7869998102
 30
0.0
 10
11.5693945174
 20
7.7744171737
 30
0.0
 10
11.5433573545
 20
7.7573375815
 30
0.0
 10
11.5161217042
 20
7.7421143943
 30
0.0
 10
11.4925426018
 20
7.7310395279
 30
0.0
 10
11.4732122563
 20
7.7231719831
 30
0.0
 10
11.4584800218
 20
7.7177681226
 30
0.0
 10
11.4435424463
 20
7.7128722359
 30
0.0
 10
11.4284158009
 20
7.7084897577
 30
0.0
 10
11.4131169444
 20
7.7046253986
 30
0.0
 10
11.397662755
 20
7.7012836097
 30
0.0
 10
11.3820703927
 20
7.698467877
 30
0.0
 10
11.3663570815
 20
7.6961815335
 30
0.0
 10
11.3505402517
 20
7.6944268649
 30
0.0
 10
11.3346373887
 20
7.6932060516
 30
0.0
 10
11.3186661144
 20
7.6925201854
 30
0.0
 10
11.3026441034
 20
7.6923702686
 30
0.0
 10
11.2865890778
 20
7.6927562131
 30
0.0
 10
11.2705188686
 20
7.6936778127
 30
0.0
 10
11.2544510521
 20
7.6951338545
 30
0.0
 10
11.2330327956
 20
7.6977885126
 30
0.0
 10
11.2063530312
 20
7.7024382972
 30
0.0
 10
11.179975851
 20
7.7088252924
 30
0.0
 10
11.1590919667
 20
7.7149633161
 30
0.0
 10
11.1435372886
 20
7.7200829182
 30
0.0
 10
11.1281260017
 20
7.7257076346
 30
0.0
 10
11.1179668211
 20
7.7297868345
 30
0.0
 10
11.1129167658
 20
7.7319082003
 30
0.0
  0
SPLINE
  5
33B
100
AcDbEntity
  8
0
100
AcDbSpline
 62
7
  6
CONTINUOUS
 70
0
 71
3
 72
15
 73
11
 74
0
 42
0.0000001
 43
0.0000001
 44
0.0000000001
 40
0.0
 40
0.0
 40
0.0
 40
0.0
 40
0.1262868568
 40
0.2522461237
 40
0.3778534202
 40
0.5030877842
 40
0.6279319664
 40
0.7523699123
 40
0.8763979391
 40
1.0
 40
1.0
 40
1.0
 40
1.0
 10
10.8270473305
 20
8.0214769839
 30
0.0
 10
10.8239873765
 20
8.0290215675
 30
0.0
 10
10.8182287442
 20
8.044237319
 30
0.0
 10
10.8106904044
 20
8.0674102766
 30
0.0
 10
10.8042797633
 20
8.0908505115
 30
0.0
 10
10.7990127757
 20
8.1145002162
 30
0.0
 10
10.7949023673
 20
8.1383017027
 30
0.0
 10
10.7919583832
 20
8.1621973119
 30
0.0
 10
10.7901884076
 20
8.1861276378
 30
0.0
 10
10.7897931012
 20
8.2020946834
 30
0.0
 10
10.7897931012
 20
8.2100631014
 30
0.0
  0
SPLINE
  5
33C
100
AcDbEntity
  8
0
100
AcDbSpline
 62
7
  6
CONTINUOUS
 70
0
 71
3
 72
48
 73
44
 74
0
 42
0.0000001
 43
0.0000001
 44
0.0000000001
 40
0.0
 40
0.0
 40
0.0
 40
0.0
 40
0.0149718897
 40
0.0299468369
 40
0.0449278839
 40
0.0599180336
 40
0.0749202322
 40
0.0899373568
 40
0.1049721887
 40
0.1200274064
 40
0.1351055645
 40
0.1502090774
 40
0.1653402142
 40
0.180501073
 40
0.1956935825
 40
0.2109194836
 40
0.2261803205
 40
0.2414774416
 40
0.2568119786
 40
0.2721848576
 40
0.3030428416
 40
0.3340598877
 40
0.365235493
 40
0.3965657058
 40
0.4280432614
 40
0.4596577825
 40
0.4913960356
 40
0.5232422374
 40
0.5551784039
 40
0.5871847345
 40
0.6192400218
 40
0.6513220815
 40
0.6834081967
 40
0.7154755701
 40
0.7475017768
 40
0.7794652126
 40
0.8113455287
 40
0.8431240501
 40
0.8747841728
 40
0.9063117021
 40
0.9376953081
 40
0.9689262526
 40
1.0
 40
1.0
 40
1.0
 40
1.0
 10
11.5947664284
 20
7.7924435318
 30
0.0
 10
11.5906186179
 20
7.7884370373
 30
0.0
 10
11.5821619247
 20
7.7805872129
 30
0.0
 10
11.5690175461
 20
7.7693246637
 30
0.0
 10
11.5554306371
 20
7.7585883356
 30
0.0
 10
11.5414200376
 20
7.7483934008
 30
0.0
 10
11.5270050713
 20
7.7387536714
 30
0.0
 10
11.5122055244
 20
7.7296825279
 30
0.0
 10
11.4970417832
 20
7.7211924152
 30
0.0
 10
11.4815347479
 20
7.7132949492
 30
0.0
 10
11.4657056955
 20
7.7060011223
 30
0.0
 10
11.4495764858
 20
7.699320795
 30
0.0
 10
11.4331692533
 20
7.6932632931
 30
0.0
 10
11.4165066094
 20
7.6878368596
 30
0.0
 10
11.3996114798
 20
7.683048934
 30
0.0
 10
11.3825070913
 20
7.6789061951
 30
0.0
 10
11.3652169909
 20
7.675414165
 30
0.0
 10
11.3477650148
 20
7.6725778051
 30
0.0
 10
11.3301748761
 20
7.6704008771
 30
0.0
 10
11.3065429765
 20
7.6683791693
 30
0.0
 10
11.2767708708
 20
7.6675195908
 30
0.0
 10
11.2409352211
 20
7.6691544964
 30
0.0
 10
11.2051359744
 20
7.6734444462
 30
0.0
 10
11.1695711778
 20
7.6803655879
 30
0.0
 10
11.1344357939
 20
7.6898794695
 30
0.0
 10
11.0999228282
 20
7.701933506
 30
0.0
 10
11.0662217003
 20
7.7164612166
 30
0.0
 10
11.0335173646
 20
7.733382576
 30
0.0
 10
11.0019892658
 20
7.7526044669
 30
0.0
 10
10.9718103897
 20
7.774021212
 30
0.0
 10
10.943146323
 20
7.7975151451
 30
0.0
 10
10.9161543591
 20
7.822957253
 30
0.0
 10
10.8909826439
 20
7.8502078725
 30
0.0
 10
10.8677693411
 20
7.8791174246
 30
0.0
 10
10.8466419104
 20
7.9095272612
 30
0.0
 10
10.8277164152
 20
7.9412705197
 30
0.0
 10
10.8110968903
 20
7.974173033
 30
0.0
 10
10.796874778
 20
8.008054251
 30
0.0
 10
10.7851284132
 20
8.0427282834
 30
0.0
 10
10.7759225309
 20
8.0780046368
 30
0.0
 10
10.7693081166
 20
8.1136902587
 30
0.0
 10
10.7653217088
 20
8.1495866669
 30
0.0
 10
10.7644288563
 20
8.1735942225
 30
0.0
 10
10.7644288563
 20
8.1855631208
 30
0.0
  0
SPLINE
  5
33D
100
AcDbEntity
  8
0
100
AcDbSpline
 62
7
  6
CONTINUOUS
 70
0
 71
3
 72
23
 73
19
 74
0
 42
0.0000001
 43
0.0000001
 44
0.0000000001
 40
0.0
 40
0.0
 40
0.0
 40
0.0
 40
0.0616662222
 40
0.1233790206
 40
0.1851548208
 40
0.2470095351
 40
0.308958412
 40
0.3710159285
 40
0.4331956853
 40
0.4955102766
 40
0.5579712239
 40
0.6205888462
 40
0.6833721981
 40
0.746329325
 40
0.8094661801
 40
0.87278738
 40
0.9363004604
 40
1.0
 40
1.0
 40
1.0
 40
1.0
 10
11.565667443
 20
7.6726328108
 30
0.0
 10
11.5612153269
 20
7.6675770289
 30
0.0
 10
11.5525409475
 20
7.6572534997
 30
0.0
 10
11.5402556597
 20
7.6411761948
 30
0.0
 10
11.5287144198
 20
7.6245311131
 30
0.0
 10
11.5179393051
 20
7.6073498623
 30
0.0
 10
11.5079504447
 20
7.589664549
 30
0.0
 10
11.4987664963
 20
7.571508433
 30
0.0
 10
11.4904046976
 20
7.5529155419
 30
0.0
 10
11.4828807625
 20
7.5339207357
 30
0.0
 10
11.4762086828
 20
7.5145596818
 30
0.0
 10
11.4704009729
 20
7.4948686819
 30
0.0
 10
11.4654685455
 20
7.4748846304
 30
0.0
 10
11.4614205669
 20
7.4546450327
 30
0.0
 10
11.4582645801
 20
7.4341879419
 30
0.0
 10
11.4560064576
 20
7.4135512326
 30
0.0
 10
11.4546505997
 20
7.3927745343
 30
0.0
 10
11.454350074
 20
7.3788754642
 30
0.0
 10
11.454350074
 20
7.3719167012
 30
0.0
  0
SPLINE
  5
33E
100
AcDbEntity
  8
0
100
AcDbSpline
 62
7
  6
CONTINUOUS
 70
0
 71
3
 72
33
 73
29
 74
0
 42
0.0000001
 43
0.0000001
 44
0.0000000001
 40
0.0
 40
0.0
 40
0.0
 40
0.0
 40
0.06096189
 40
0.1220079793
 40
0.1831756317
 40
0.2444998464
 40
0.2752355044
 40
0.3060219997
 40
0.3368627606
 40
0.367760956
 40
0.3987194825
 40
0.4297409578
 40
0.4608276984
 40
0.4919817292
 40
0.523204751
 40
0.5544981659
 40
0.5858630365
 40
0.6173001249
 40
0.6488098454
 40
0.6803923145
 40
0.7120473007
 40
0.7437742806
 40
0.8074320017
 40
0.871363611
 40
0.9034317119
 40
0.9355622364
 40
0.9677526038
 40
1.0
 40
1.0
 40
1.0
 40
1.0
 10
12.2584484183
 20
6.9554235143
 30
0.0
 10
12.2504447516
 20
6.94885341
 30
0.0
 10
12.2339514903
 20
6.9362707736
 30
0.0
 10
12.2079143274
 20
6.9191911813
 30
0.0
 10
12.1806786771
 20
6.9039679941
 30
0.0
 10
12.1570995746
 20
6.8928931277
 30
0.0
 10
12.1377692292
 20
6.885025583
 30
0.0
 10
12.1230369947
 20
6.8796217224
 30
0.0
 10
12.1080994191
 20
6.8747258357
 30
0.0
 10
12.0929727738
 20
6.8703433575
 30
0.0
 10
12.0776739172
 20
6.8664789984
 30
0.0
 10
12.0622197279
 20
6.8631372095
 30
0.0
 10
12.0466273656
 20
6.8603214768
 30
0.0
 10
12.0309140544
 20
6.8580351333
 30
0.0
 10
12.0150972246
 20
6.8562804647
 30
0.0
 10
11.9991943616
 20
6.8550596514
 30
0.0
 10
11.9832230872
 20
6.8543737853
 30
0.0
 10
11.9672010762
 20
6.8542238684
 30
0.0
 10
11.9511460507
 20
6.8546098129
 30
0.0
 10
11.9350758414
 20
6.8555314125
 30
0.0
 10
11.919008025
 20
6.8569874544
 30
0.0
 10
11.8975897684
 20
6.8596421124
 30
0.0
 10
11.8709100041
 20
6.864291897
 30
0.0
 10
11.8445328239
 20
6.8706788923
 30
0.0
 10
11.8236489395
 20
6.8768169159
 30
0.0
 10
11.8080942614
 20
6.881936518
 30
0.0
 10
11.7926829746
 20
6.8875612344
 30
0.0
 10
11.782523794
 20
6.8916404344
 30
0.0
 10
11.7774737387
 20
6.8937618001
 30
0.0
  0
SPLINE
  5
33F
100
AcDbEntity
  8
0
100
AcDbSpline
 62
7
  6
CONTINUOUS
 70
0
 71
3
 72
15
 73
11
 74
0
 42
0.0000001
 43
0.0000001
 44
0.0000000001
 40
0.0
 40
0.0
 40
0.0
 40
0.0
 40
0.1262868568
 40
0.2522461237
 40
0.3778534202
 40
0.5030877842
 40
0.6279319664
 40
0.7523699123
 40
0.8763979391
 40
1.0
 40
1.0
 40
1.0
 40
1.0
 10
11.4916043034
 20
7.1833305838
 30
0.0
 10
11.4885443494
 20
7.1908751673
 30
0.0
 10
11.482785717
 20
7.2060909189
 30
0.0
 10
11.4752473773
 20
7.2292638764
 30
0.0
 10
11.4688367362
 20
7.2527041114
 30
0.0
 10
11.4635697485
 20
7.276353816
 30
0.0
 10
11.4594593402
 20
7.3001553026
 30
0.0
 10
11.456515356
 20
7.3240509118
 30
0.0
 10
11.4547453804
 20
7.3479812376
 30
0.0
 10
11.454350074
 20
7.3639482832
 30
0.0
 10
11.454350074
 20
7.3719167012
 30
0.0
  0
SPLINE
  5
340
100
AcDbEntity
  8
0
100
AcDbSpline
 62
7
  6
CONTINUOUS
 70
0
 71
3
 72
48
 73
44
 74
0
 42
0.0000001
 43
0.0000001
 44
0.0000000001
 40
0.0
 40
0.0
 40
0.0
 40
0.0
 40
0.0149718897
 40
0.0299468369
 40
0.0449278839
 40
0.0599180336
 40
0.0749202322
 40
0.0899373568
 40
0.1049721887
 40
0.1200274064
 40
0.1351055645
 40
0.1502090774
 40
0.1653402142
 40
0.180501073
 40
0.1956935825
 40
0.2109194836
 40
0.2261803205
 40
0.2414774416
 40
0.2568119786
 40
0.2721848576
 40
0.3030428416
 40
0.3340598877
 40
0.365235493
 40
0.3965657058
 40
0.4280432614
 40
0.4596577825
 40
0.4913960356
 40
0.5232422374
 40
0.5551784039
 40
0.5871847345
 40
0.6192400218
 40
0.6513220815
 40
0.6834081967
 40
0.7154755701
 40
0.7475017768
 40
0.7794652126
 40
0.8113455287
 40
0.8431240501
 40
0.8747841728
 40
0.9063117021
 40
0.9376953081
 40
0.9689262526
 40
1.0
 40
1.0
 40
1.0
 40
1.0
 10
12.2593234013
 20
6.9542971317
 30
0.0
 10
12.2551755908
 20
6.9502906371
 30
0.0
 10
12.2467188976
 20
6.9424408127
 30
0.0
 10
12.2335745189
 20
6.9311782635
 30
0.0
 10
12.2199876099
 20
6.9204419354
 30
0.0
 10
12.2059770104
 20
6.9102470007
 30
0.0
 10
12.1915620442
 20
6.9006072712
 30
0.0
 10
12.1767624973
 20
6.8915361277
 30
0.0
 10
12.1615987561
 20
6.8830460151
 30
0.0
 10
12.1460917208
 20
6.8751485491
 30
0.0
 10
12.1302626683
 20
6.8678547221
 30
0.0
 10
12.1141334587
 20
6.8611743948
 30
0.0
 10
12.0977262261
 20
6.8551168929
 30
0.0
 10
12.0810635823
 20
6.8496904594
 30
0.0
 10
12.0641684527
 20
6.8449025338
 30
0.0
 10
12.0470640642
 20
6.8407597949
 30
0.0
 10
12.0297739637
 20
6.8372677648
 30
0.0
 10
12.0123219877
 20
6.8344314049
 30
0.0
 10
11.994731849
 20
6.832254477
 30
0.0
 10
11.9710999493
 20
6.8302327691
 30
0.0
 10
11.9413278436
 20
6.8293731906
 30
0.0
 10
11.9054921939
 20
6.8310080962
 30
0.0
 10
11.8696929473
 20
6.835298046
 30
0.0
 10
11.8341281506
 20
6.8422191877
 30
0.0
 10
11.7989927668
 20
6.8517330693
 30
0.0
 10
11.764479801
 20
6.8637871058
 30
0.0
 10
11.7307786731
 20
6.8783148164
 30
0.0
 10
11.6980743375
 20
6.8952361759
 30
0.0
 10
11.6665462386
 20
6.9144580667
 30
0.0
 10
11.6363673626
 20
6.9358748119
 30
0.0
 10
11.6077032959
 20
6.9593687449
 30
0.0
 10
11.580711332
 20
6.9848108529
 30
0.0
 10
11.5555396168
 20
7.0120614723
 30
0.0
 10
11.532326314
 20
7.0409710245
 30
0.0
 10
11.5111988833
 20
7.071380861
 30
0.0
 10
11.4922733881
 20
7.1031241196
 30
0.0
 10
11.4756538632
 20
7.1360266328
 30
0.0
 10
11.4614317509
 20
7.1699078509
 30
0.0
 10
11.449685386
 20
7.2045818833
 30
0.0
 10
11.4404795038
 20
7.2398582366
 30
0.0
 10
11.4338650894
 20
7.2755438585
 30
0.0
 10
11.4298786817
 20
7.3114402667
 30
0.0
 10
11.4289858292
 20
7.3354478224
 30
0.0
 10
11.4289858292
 20
7.3474167206
 30
0.0
  0
LINE
  5
341
100
AcDbEntity
  8
0
100
AcDbLine
 62
7
  6
CONTINUOUS
 10
11.5656149804
 20
9.2547599028
 11
11.5651836734
 21
9.254269196
  0
SPLINE
  5
342
100
AcDbEntity
  8
0
100
AcDbSpline
 62
7
  6
CONTINUOUS
 70
0
 71
3
 72
23
 73
19
 74
0
 42
0.0000001
 43
0.0000001
 44
0.0000000001
 40
0.0
 40
0.0
 40
0.0
 40
0.0
 40
0.0616656658
 40
0.1233783633
 40
0.1851544346
 40
0.2470096964
 40
0.3089593041
 40
0.3710176548
 40
0.4331982634
 40
0.4955136374
 40
0.5579752285
 40
0.6205933001
 40
0.683376825
 40
0.7463337792
 40
0.8094701885
 40
0.8727904929
 40
0.93630205
 40
1.0
 40
1.0
 40
1.0
 40
1.0
 10
11.5651836734
 20
9.254269196
 30
0.0
 10
11.5607500237
 20
9.2492173088
 30
0.0
 10
11.5521119166
 20
9.2389028171
 30
0.0
 10
11.5398785065
 20
9.222842911
 30
0.0
 10
11.5283865048
 20
9.2062187468
 30
0.0
 10
11.5176578052
 20
9.189061753
 30
0.0
 10
11.5077122796
 20
9.1714038929
 30
0.0
 10
11.4985684711
 20
9.1532781911
 30
0.0
 10
11.4902434945
 20
9.1347184536
 30
0.0
 10
11.4827528522
 20
9.115759353
 30
0.0
 10
11.4761104466
 20
9.0964363095
 30
0.0
 10
11.4703287093
 20
9.0767853831
 30
0.0
 10
11.4654184027
 20
9.0568432448
 30
0.0
 10
11.461388627
 20
9.0366471366
 30
0.0
 10
11.4582468904
 20
9.0162348582
 30
0.0
 10
11.45599897
 20
8.9956440559
 30
0.0
 10
11.454649235
 20
8.9749140601
 30
0.0
 10
11.454350074
 20
8.9610464035
 30
0.0
 10
11.454350074
 20
8.954103367
 30
0.0
  0
SPLINE
  5
343
100
AcDbEntity
  8
0
100
AcDbSpline
 62
7
  6
CONTINUOUS
 70
0
 71
3
 72
32
 73
28
 74
0
 42
0.0000001
 43
0.0000001
 44
0.0000000001
 40
0.0
 40
0.0
 40
0.0
 40
0.0
 40
0.0304787911
 40
0.0609737966
 40
0.0914898454
 40
0.1220316687
 40
0.1526038634
 40
0.1832108903
 40
0.2138570275
 40
0.2445463801
 40
0.2752828284
 40
0.3060700447
 40
0.3678009105
 40
0.4297725848
 40
0.4920047863
 40
0.5545124183
 40
0.6173053594
 40
0.6488148722
 40
0.6803970517
 40
0.7120516985
 40
0.7437782714
 40
0.8074350779
 40
0.8713656627
 40
0.903433233
 40
0.9355632256
 40
0.9677530853
 40
1.0
 40
1.0
 40
1.0
 40
1.0
 10
12.2584261204
 20
8.5375918945
 30
0.0
 10
12.2544285219
 20
8.5343107527
 30
0.0
 10
12.2463136293
 20
8.5278884754
 30
0.0
 10
12.2338029886
 20
8.5186916174
 30
0.0
 10
12.2209646939
 20
8.5099386242
 30
0.0
 10
12.2078130026
 20
8.5016395301
 30
0.0
 10
12.1943625223
 20
8.4938032632
 30
0.0
 10
12.1806280298
 20
8.4864386836
 30
0.0
 10
12.1666247814
 20
8.4795537421
 30
0.0
 10
12.152368243
 20
8.4731562159
 30
0.0
 10
12.137873995
 20
8.4672529803
 30
0.0
 10
12.1182377631
 20
8.4600442532
 30
0.0
 10
12.093169085
 20
8.4523013155
 30
0.0
 10
12.0624296306
 20
8.4450893251
 30
0.0
 10
12.0311376296
 20
8.4399785249
 30
0.0
 10
11.9994332971
 20
8.4369916014
 30
0.0
 10
11.9728130388
 20
8.4362839609
 30
0.0
 10
11.9514552609
 20
8.4367842376
 30
0.0
 10
11.9354011682
 20
8.4376942407
 30
0.0
 10
11.9193493122
 20
8.4391378553
 30
0.0
 10
11.8979517199
 20
8.4417743234
 30
0.0
 10
11.8712966467
 20
8.4463990053
 30
0.0
 10
11.8449421493
 20
8.4527576759
 30
0.0
 10
11.8240750773
 20
8.4588712529
 30
0.0
 10
11.8085322995
 20
8.4639716038
 30
0.0
 10
11.793132143
 20
8.4695762245
 30
0.0
 10
11.7829798343
 20
8.473641486
 30
0.0
 10
11.7779330814
 20
8.475755775
 30
0.0
  0
SPLINE
  5
344
100
AcDbEntity
  8
0
100
AcDbSpline
 62
7
  6
CONTINUOUS
 70
0
 71
3
 72
15
 73
11
 74
0
 42
0.0000001
 43
0.0000001
 44
0.0000000001
 40
0.0
 40
0.0
 40
0.0
 40
0.0
 40
0.126282767
 40
0.2522385941
 40
0.377843431
 40
0.5030765242
 40
0.6279209278
 40
0.7523608532
 40
0.8763921982
 40
1.0
 40
1.0
 40
1.0
 40
1.0
 10
11.4912719647
 20
8.7663386883
 30
0.0
 10
11.4882389384
 20
8.7738536555
 30
0.0
 10
11.4825311573
 20
8.7890083704
 30
0.0
 10
11.4750597864
 20
8.8120849614
 30
0.0
 10
11.4687063919
 20
8.8354248777
 30
0.0
 10
11.463486639
 20
8.8589710783
 30
0.0
 10
11.459413206
 20
8.8826666487
 30
0.0
 10
11.4564957816
 20
8.9064546852
 30
0.0
 10
11.4547417918
 20
8.9302766116
 30
0.0
 10
11.454350074
 20
8.9461710791
 30
0.0
 10
11.454350074
 20
8.954103367
 30
0.0
  0
SPLINE
  5
345
100
AcDbEntity
  8
0
100
AcDbSpline
 62
7
  6
CONTINUOUS
 70
0
 71
3
 72
50
 73
46
 74
0
 42
0.0000001
 43
0.0000001
 44
0.0000000001
 40
0.0
 40
0.0
 40
0.0
 40
0.0
 40
0.0149717276
 40
0.0299465149
 40
0.0449274004
 40
0.0599173895
 40
0.0749194283
 40
0.0899363912
 40
0.1049710639
 40
0.1200261204
 40
0.1351041175
 40
0.150207471
 40
0.1653384451
 40
0.1804991444
 40
0.1956914919
 40
0.2109172308
 40
0.2261779074
 40
0.2414748638
 40
0.2568092401
 40
0.2721819551
 40
0.2875937169
 40
0.3030450124
 40
0.3185361053
 40
0.334067046
 40
0.3652423188
 40
0.3965721984
 40
0.4280494197
 40
0.4596636038
 40
0.491401517
 40
0.523247377
 40
0.5551832011
 40
0.5871891885
 40
0.6192441311
 40
0.6513258451
 40
0.6834116144
 40
0.7154786419
 40
0.7475045029
 40
0.7794675932
 40
0.8113475647
 40
0.8431257434
 40
0.8747855233
 40
0.906312715
 40
0.9376959769
 40
0.9689265854
 40
1.0
 40
1.0
 40
1.0
 40
1.0
 10
12.2593222681
 20
8.5364827152
 30
0.0
 10
12.2551744565
 20
8.5324762339
 30
0.0
 10
12.2467177501
 20
8.5246264471
 30
0.0
 10
12.2335733538
 20
8.5133639546
 30
0.0
 10
12.2199864001
 20
8.5026277227
 30
0.0
 10
12.2059758258
 20
8.4924327924
 30
0.0
 10
12.1915608067
 20
8.4827931835
 30
0.0
 10
12.1767612776
 20
8.4737220564
 30
0.0
 10
12.1615975218
 20
8.4652320139
 30
0.0
 10
12.1460904664
 20
8.4573346401
 30
0.0
 10
12.1302614413
 20
8.4500408052
 30
0.0
 10
12.1141322011
 20
8.4433606107
 30
0.0
 10
12.0977249948
 20
8.4373031037
 30
0.0
 10
12.0810623473
 20
8.431876748
 30
0.0
 10
12.0641672202
 20
8.4270889034
 30
0.0
 10
12.0470628534
 20
8.4229461482
 30
0.0
 10
12.0297727624
 20
8.4194542549
 30
0.0
 10
12.0123207607
 20
8.4166178695
 30
0.0
 10
11.9947308299
 20
8.4144410236
 30
0.0
 10
11.9770271853
 20
8.412926607
 30
0.0
 10
11.9592341512
 20
8.4120766875
 30
0.0
 10
11.9413762794
 20
8.4118925019
 30
0.0
 10
11.923477824
 20
8.4123741916
 30
0.0
 10
11.8995650809
 20
8.4139051336
 30
0.0
 10
11.8696913376
 20
8.4174848787
 30
0.0
 10
11.8341273574
 20
8.42440605
 30
0.0
 10
11.7989918377
 20
8.4339200168
 30
0.0
 10
11.7644789994
 20
8.4459741119
 30
0.0
 10
11.7307779222
 20
8.4605018494
 30
0.0
 10
11.6980736486
 20
8.4774232124
 30
0.0
 10
11.666545618
 20
8.4966451214
 30
0.0
 10
11.6363668217
 20
8.5180618911
 30
0.0
 10
11.607702833
 20
8.5415558378
 30
0.0
 10
11.5807109359
 20
8.5669979396
 30
0.0
 10
11.5555392669
 20
8.5942485301
 30
0.0
 10
11.5323260211
 20
8.623158061
 30
0.0
 10
11.5111986548
 20
8.6535678777
 30
0.0
 10
11.4922732188
 20
8.6853111094
 30
0.0
 10
11.4756537418
 20
8.718213587
 30
0.0
 10
11.4614316568
 20
8.7520947587
 30
0.0
 10
11.4496853197
 20
8.7867687463
 30
0.0
 10
11.4404794701
 20
8.8220450528
 30
0.0
 10
11.4338650755
 20
8.8577306248
 30
0.0
 10
11.4298786804
 20
8.8936269817
 30
0.0
 10
11.4289858292
 20
8.9176345043
 30
0.0
 10
11.4289858292
 20
8.9296033864
 30
0.0
  0
SPLINE
  5
346
100
AcDbEntity
  8
0
100
AcDbSpline
 62
7
  6
CONTINUOUS
 70
0
 71
3
 72
41
 73
37
 74
0
 42
0.0000001
 43
0.0000001
 44
0.0000000001
 40
0.0
 40
0.0
 40
0.0
 40
0.0
 40
0.0267517264
 40
0.0542763474
 40
0.0826080633
 40
0.1117608158
 40
0.141729658
 40
0.1724923664
 40
0.2040111618
 40
0.2362344583
 40
0.2690985906
 40
0.3025294957
 40
0.336444339
 40
0.3707530868
 40
0.4053600287
 40
0.4401652607
 40
0.4750661373
 40
0.5099587038
 40
0.544739119
 40
0.5793050784
 40
0.6135572492
 40
0.6474007267
 40
0.6807465228
 40
0.7135130962
 40
0.7456279326
 40
0.7770291806
 40
0.8076673409
 40
0.8226908734
 40
0.8375116487
 40
0.8665332262
 40
0.8947346863
 40
0.9221331202
 40
0.9487660654
 40
0.974692372
 40
0.9874185595
 40
1.0
 40
1.0
 40
1.0
 40
1.0
 10
11.8923354964
 20
7.5789651594
 30
0.0
 10
11.8954629913
 20
7.5753527951
 30
0.0
 10
11.901475636
 20
7.567729443
 30
0.0
 10
11.9096003337
 20
7.5553942267
 30
0.0
 10
11.9169124787
 20
7.5420694982
 30
0.0
 10
11.9233710828
 20
7.527831775
 30
0.0
 10
11.9289411543
 20
7.5127608633
 30
0.0
 10
11.9335921258
 20
7.4969415184
 30
0.0
 10
11.9372985227
 20
7.4804624848
 30
0.0
 10
11.9400399927
 20
7.4634162093
 30
0.0
 10
11.9418014858
 20
7.4458983133
 30
0.0
 10
11.9425733563
 20
7.4280070884
 30
0.0
 10
11.9423514441
 20
7.4098429509
 30
0.0
 10
11.9411371172
 20
7.3915078811
 30
0.0
 10
11.9389372793
 20
7.3731048479
 30
0.0
 10
11.9357643422
 20
7.3547372263
 30
0.0
 10
11.9316361623
 20
7.3365082094
 30
0.0
 10
11.926575944
 20
7.3185202229
 30
0.0
 10
11.9206121085
 20
7.3008743421
 30
0.0
 10
11.9137781314
 20
7.2836697194
 30
0.0
 10
11.9061123472
 20
7.2670030215
 30
0.0
 10
11.8976577279
 20
7.2509678885
 30
0.0
 10
11.8884616163
 20
7.2356543956
 30
0.0
 10
11.8785754941
 20
7.2211486015
 30
0.0
 10
11.8680544977
 20
7.2075319048
 30
0.0
 10
11.8569577378
 20
7.1948812332
 30
0.0
 10
11.8472181557
 20
7.1851393647
 30
0.0
 10
11.8391932742
 20
7.1779044669
 30
0.0
 10
11.8311394007
 20
7.1711429722
 30
0.0
 10
11.8208417787
 20
7.1634055438
 30
0.0
 10
11.808085068
 20
7.1552709927
 30
0.0
 10
11.7950852074
 20
7.1483978931
 30
0.0
 10
11.7819158796
 20
7.1428266977
 30
0.0
 10
11.7707898644
 20
7.1392739769
 30
0.0
 10
11.7618913041
 20
7.1371276
 30
0.0
 10
11.7574481547
 20
7.1362842646
 30
0.0
 10
11.7552305345
 20
7.1359210575
 30
0.0
  0
ELLIPSE
  5
347
100
AcDbEntity
  8
0
100
AcDbEllipse
 62
7
  6
CONTINUOUS
 10
12.6018701038
 20
8.0838484066
 30
0.0
 11
-0.034037961
 21
0.305745397
 31
0.0
 40
0.7819268308
 41
0.1083629016
 42
5.6127097732
  0
ELLIPSE
  5
348
100
AcDbEntity
  8
0
100
AcDbEllipse
 62
7
  6
CONTINUOUS
 10
11.9370628436
 20
8.9206271228
 30
0.0
 11
0.214501472
 21
-0.1389102547
 31
0.0
 40
0.9244097329
 41
0.0
 42
6.2831853072
  0
ELLIPSE
  5
349
100
AcDbEntity
  8
0
100
AcDbEllipse
 62
7
  6
CONTINUOUS
 10
11.2721523872
 20
8.1758830979
 30
0.0
 11
0.279633328
 21
-0.0118669502
 31
0.0
 40
0.8684458223
 41
0.0
 42
6.2831853072
  0
ELLIPSE
  5
34A
100
AcDbEntity
  8
0
100
AcDbEllipse
 62
7
  6
CONTINUOUS
 10
11.9379617515
 20
7.3386562938
 30
0.0
 11
0.3167557906
 21
0.0153599052
 31
0.0
 40
0.7682784145
 41
0.842871599
 42
5.8907091619
  0
ENDSEC
  0
SECTION
  2
OBJECTS
  0
DICTIONARY
  5
C
100
AcDbDictionary
280
0
281
1
  3
ACAD_GROUP
350
D
  3
ACAD_MLINESTYLE
350
17
  3
ACAD_LAYOUT
350
1A
  3
ACAD_PLOTSETTINGS
350
19
  3
ACAD_PLOTSTYLENAME
350
E
  3
ACAD_IMAGE_DICT
350
       34C
  3
ACAD_IMAGE_VARS
350
       34D
  3
ACAD_TABLESTYLE
350
       34E
  0
IMAGEDEF_REACTOR
  5
34B
100
AcDbRasterImageDefReactor
 90
2
330
283
  0
DICTIONARY
  5
D
102
{ACAD_REACTORS
330
C
102
}
100
AcDbDictionary
280
0
281
1
  0
ACDBDICTIONARYWDFLT
  5
E
102
{ACAD_REACTORS
330
C
102
}
100
AcDbDictionary
281
1
  3
Normal
350
F
100
AcDbDictionaryWithDefault
340
F
  0
DICTIONARY
  5
34C
330
C
100
AcDbDictionary
281
1
  3
X2Q_assy_2_img_1
350
       351
  0
RASTERVARIABLES
  5
34D
330
C
100
AcDbRasterVariables
 90
0
 70
0
 71
1
 72
5
  0
DICTIONARY
  5
17
102
{ACAD_REACTORS
330
C
102
}
100
AcDbDictionary
280
0
281
1
  3
Standard
350
18
  0
DICTIONARY
  5
34E
330
C
100
AcDbDictionary
281
1
  3
Standard
350
       352
  3
Standard1
350
       353
  0
DICTIONARY
  5
19
102
{ACAD_REACTORS
330
C
102
}
100
AcDbDictionary
281
1
  0
DICTIONARY
  5
1A
102
{ACAD_REACTORS
330
C
102
}
100
AcDbDictionary
281
1
  3
Model
350
34F
  3
Layout1
350
350
  0
ACDBPLACEHOLDER
  5
F
102
{ACAD_REACTORS
330
E
102
}
  0
MLINESTYLE
  5
18
102
{ACAD_REACTORS
330
17
102
}
100
AcDbMlineStyle
  2
STANDARD
 70
0
  3

 62
256
 51
90.0
 52
90.0
 71
2
 49
0.5
 62
256
  6
BYLAYER
 49
-0.5
 62
256
  6
BYLAYER
  0
LAYOUT
  5
34F
102
{ACAD_REACTORS
330
1A
102
}
100
AcDbPlotSettings
  1

  2
none_device
  4
ANSI_C_(22.00_x_17.00_Inches)
  6

 40
0.0
 41
0.0
 42
0.0
 43
0.0
 44
558.8
 45
431.8
 46
0.0
 47
0.0
 48
0.0
 49
0.0
140
0.0
141
0.0
142
1.0
143
1.0
 70
1024
 72
0
 73
0
 74
0
  7

 75
0
147
1.0
148
0.0
149
0.0
100
AcDbLayout
  1
Model
 70
0
 71
0
 10
0.0
 20
0.0
 11
22.0
 21
17.0
 12
0.0
 22
0.0
 32
0.0
 14
0.0
 24
0.0
 34
0.0
 15
0.0
 25
0.0
 35
0.0
146
0.0
 13
0.0
 23
0.0
 33
0.0
 16
1.0
 26
0.0
 36
0.0
 17
0.0
 27
1.0
 37
0.0
 76
0
330
208
345
0
346
0
  0
LAYOUT
  5
350
102
{ACAD_REACTORS
330
1A
102
}
100
AcDbPlotSettings
  1

  2
none_device
  4
ANSI_C_(22.00_x_17.00_Inches)
  6

 40
0.0
 41
0.0
 42
0.0
 43
0.0
 44
558.8
 45
431.8
 46
0.0
 47
0.0
 48
0.0
 49
0.0
140
0.0
141
0.0
142
1.0
143
1.0
 70
0
 72
0
 73
0
 74
0
  7

 75
0
147
1.0
148
0.0
149
0.0
100
AcDbLayout
  1
Layout1
 70
0
 71
1
 10
0.0
 20
0.0
 11
22.0
 21
17.0
 12
0.0
 22
0.0
 32
0.0
 14
0.0
 24
0.0
 34
0.0
 15
0.0
 25
0.0
 35
0.0
146
0.0
 13
0.0
 23
0.0
 33
0.0
 16
1.0
 26
0.0
 36
0.0
 17
0.0
 27
1.0
 37
0.0
 76
0
330
209
345
0
346
0
  0
IMAGEDEF
  5
351
102
{ACAD_REACTORS
330
34C
330
34B
102
}
100
AcDbRasterImageDef
 90
0
  1
X2Q_assy_2_img_1.png
 10
369.0
 20
92.0
 11
0.0066666667
 21
0.0066666667
280
1
281
0
  0
TABLESTYLE
  5
352
102
{ACAD_REACTORS
330
34E
330
286
330
287
102
}
330
34E
100
AcDbTableStyle
  3
Standard
 70
0
 71
0
 40
0.06
 41
0.06
280
1
281
1
  7
Standard
140
0.18
170
1
 62
0
 63
7
283
0
  7
Standard
140
0.18
170
1
 62
0
 63
7
283
0
  7
Standard
140
0.18
170
1
 62
0
 63
7
283
0
  0
TABLESTYLE
  5
353
102
{ACAD_REACTORS
330
34E
330
285
102
}
330
34E
100
AcDbTableStyle
  3
Standard1
 70
1
 71
0
 40
0.06
 41
0.06
280
1
281
1
  7
Standard
140
0.18
170
1
 62
0
 63
7
283
0
  7
Standard
140
0.18
170
1
 62
0
 63
7
283
0
  7
Standard
140
0.18
170
1
 62
0
 63
7
283
0
  0
ENDSEC
  0
EOF
