999
DXF file: WVU_assy_2.dxf
999
Pro/ENGINEER 2014200 by Parametric Technology Corporation
  0
SECTION
  2
HEADER
  9
$ACADVER
  1
AC1021
  9
$DWGCODEPAGE
  3
ANSI_1252
  9
$EXTMAX
 10
22.0
 20
17.0
 30
0.0
  9
$EXTMIN
 10
0.0
 20
0.0
 30
0.0
  9
$LIMMIN
 10
0.0
 20
0.0
  9
$LIMMAX
 10
22.0
 20
17.0
  9
$VIEWCTR
 10
11.0
 20
8.5
  9
$VIEWSIZE
 40
17.0
  9
$CLAYER
  8
0
  9
$LTSCALE
 40
1.21
  9
$CELTYPE
  6
BYLAYER
  9
$DIMSCALE
 40
1.0
  9
$DIMASZ
 40
0.1875
  9
$DIMEXO
 40
0.0625
  9
$DIMDLI
 40
0.836
  9
$DIMEXE
 40
0.125
  9
$DIMCEN
 40
0.198
  9
$DIMLFAC
 40
1.0
  9
$DIMBLK
  1
_FILLED
  9
$DIMTXT
 40
0.1
  9
$DIMTOL
 70
0
  9
$DIMLIM
 70
0
  9
$DIMTFAC
 40
1.0
  9
$DIMGAP
 40
0.09
  9
$DIMDSEP
 70
46
  9
$AUNITS
 70
0
  9
$PDMODE
 70
3
  9
$PDSIZE
 40
0.3125
  9
$HANDSEED
  5
37B
  9
$TILEMODE
 70
1
  9
$MEASUREMENT
 70
0
  9
$INSUNITS
 70
1
  0
ENDSEC
  0
SECTION
  2
CLASSES
  0
CLASS
  1
ACDBDICTIONARYWDFLT
  2
AcDbDictionaryWithDefault
  3
AutoCAD 2000
 90
0
 91
1
280
0
281
0
  0
CLASS
  1
ACDBPLACEHOLDER
  2
AcDbPlaceHolder
  3
AutoCAD 2000
 90
0
 91
1
280
0
281
0
  0
CLASS
  1
LAYOUT
  2
AcDbLayout
  3
AutoCAD 2000
 90
0
 91
0
280
0
281
0
  0
CLASS
  1
RASTERVARIABLES
  2
AcDbRasterVariables
  3
ISM
 90
0
 91
1
280
0
281
0
  0
CLASS
  1
IMAGEDEF
  2
AcDbRasterImageDef
  3
ISM
 90
0
 91
1
280
0
281
0
  0
CLASS
  1
IMAGEDEF_REACTOR
  2
AcDbRasterImageDefReactor
  3
ISM
 90
0
 91
1
280
0
281
0
  0
CLASS
  1
IMAGE
  2
AcDbRasterImage
  3
ISM
 90
127
 91
1
280
0
281
1
  0
CLASS
  1
TABLESTYLE
  2
AcDbTableStyle
  3
ObjectDBX Classes
 90
2047
 91
1
280
0
281
0
  0
CLASS
  1
ACAD_TABLE
  2
AcDbTable
  3
ObjectDBX Classes
 90
1025
 91
3
280
0
281
1
  0
ENDSEC
  0
SECTION
  2
TABLES
  0
TABLE
  2
VPORT
  5
8
100
AcDbSymbolTable
 70
2
  0
VPORT
  5
1F4
100
AcDbSymbolTableRecord
100
AcDbViewportTableRecord
  2
*ACTIVE
 70
0
 10
0.0
 20
0.0
 11
1.0
 21
1.0
 12
11.0
 22
8.5
 13
0.0
 23
0.0
 14
1.0
 24
1.0
 15
0.0
 25
0.0
 16
0.0
 26
0.0
 36
1.0
 17
0.0
 27
0.0
 37
0.0
 40
17.0
 41
1.2941176471
 42
50.0
 43
0.0
 44
0.0
 50
0.0
 51
0.0
 71
0
 72
100
 73
1
 74
1
 75
0
 76
0
 77
0
 78
0
  0
ENDTAB
  0
TABLE
  2
LTYPE
  5
5
100
AcDbSymbolTable
 70
6
  0
LTYPE
  5
14
100
AcDbSymbolTableRecord
100
AcDbLinetypeTableRecord
  2
BYBLOCK
 70
0
  3

 72
65
 73
0
 40
0.0
  0
LTYPE
  5
15
100
AcDbSymbolTableRecord
100
AcDbLinetypeTableRecord
  2
BYLAYER
 70
0
  3

 72
65
 73
0
 40
0.0
  0
LTYPE
  5
16
100
AcDbSymbolTableRecord
100
AcDbLinetypeTableRecord
  2
CONTINUOUS
 70
64
  3
Solid line
 72
65
 73
0
 40
0.0
  0
LTYPE
  5
1F5
100
AcDbSymbolTableRecord
100
AcDbLinetypeTableRecord
  2
CENTER
 70
64
  3
____ _ ____ _ ____ _ ____ _ ____ _ ____ _ ____
 72
65
 73
4
 40
0.6
 49
0.375
 74
0
 49
-0.075
 74
0
 49
0.075
 74
0
 49
-0.075
 74
0
  0
LTYPE
  5
1F6
100
AcDbSymbolTableRecord
100
AcDbLinetypeTableRecord
  2
HIDDEN
 70
64
  3
- - - - - - - - - - - - - - - - - - - -
 72
65
 73
2
 40
0.2
 49
0.1
 74
0
 49
-0.1
 74
0
  0
LTYPE
  5
1F7
100
AcDbSymbolTableRecord
100
AcDbLinetypeTableRecord
  2
PHANTOM
 70
64
  3
_____ _ _ _____ _ _ _____ _ _ _____
 72
65
 73
6
 40
0.8
 49
0.45
 74
0
 49
-0.05
 74
0
 49
0.1
 74
0
 49
-0.05
 74
0
 49
0.1
 74
0
 49
-0.05
 74
0
  0
LTYPE
  5
1F8
100
AcDbSymbolTableRecord
100
AcDbLinetypeTableRecord
  2
DOT
 70
64
  3
. . . . . . . . . . . . . . . . . . . .
 72
65
 73
2
 40
0.2
 49
0.1
 74
0
 49
-0.1
 74
0
  0
LTYPE
  5
1F9
100
AcDbSymbolTableRecord
100
AcDbLinetypeTableRecord
  2
DASHED
 70
64
  3
- - - - - - - - - - - - - - - - - - - -
 72
65
 73
2
 40
0.2
 49
0.1
 74
0
 49
-0.1
 74
0
  0
ENDTAB
  0
TABLE
  2
LAYER
  5
2
100
AcDbSymbolTable
 70
36
  0
LAYER
  5
10
100
AcDbSymbolTableRecord
100
AcDbLayerTableRecord
  2
0
 70
0
 62
7
  6
CONTINUOUS
370
-3
390
F
  0
LAYER
  5
1FA
100
AcDbSymbolTableRecord
100
AcDbLayerTableRecord
  2
DEFAULT_1
 70
0
 62
7
  6
CENTER
370
-3
390
F
  0
LAYER
  5
1FB
100
AcDbSymbolTableRecord
100
AcDbLayerTableRecord
  2
DEFAULT_2
 70
0
 62
8
  6
HIDDEN
370
-3
390
F
  0
LAYER
  5
1FC
100
AcDbSymbolTableRecord
100
AcDbLayerTableRecord
  2
DEFAULT_3
 70
0
 62
7
  6
PHANTOM
370
-3
390
F
  0
LAYER
  5
1FD
100
AcDbSymbolTableRecord
100
AcDbLayerTableRecord
  2
01___PRT_ALL_DTM_PLN
 70
0
 62
7
  6
CONTINUOUS
370
-3
390
F
  0
LAYER
  5
1FE
100
AcDbSymbolTableRecord
100
AcDbLayerTableRecord
  2
01___PRT_DEF_DTM_PLN
 70
0
 62
7
  6
CONTINUOUS
370
-3
390
F
  0
LAYER
  5
1FF
100
AcDbSymbolTableRecord
100
AcDbLayerTableRecord
  2
02___PRT_ALL_AXES
 70
0
 62
7
  6
CONTINUOUS
370
-3
390
F
  0
LAYER
  5
200
100
AcDbSymbolTableRecord
100
AcDbLayerTableRecord
  2
03___PRT_ALL_CURVES
 70
0
 62
7
  6
CONTINUOUS
370
-3
390
F
  0
LAYER
  5
201
100
AcDbSymbolTableRecord
100
AcDbLayerTableRecord
  2
04___PRT_ALL_DTM_PNT
 70
0
 62
7
  6
CONTINUOUS
370
-3
390
F
  0
LAYER
  5
202
100
AcDbSymbolTableRecord
100
AcDbLayerTableRecord
  2
05___PRT_ALL_DTM_CSYS
 70
0
 62
7
  6
CONTINUOUS
370
-3
390
F
  0
LAYER
  5
203
100
AcDbSymbolTableRecord
100
AcDbLayerTableRecord
  2
05___PRT_DEF_DTM_CSYS
 70
0
 62
7
  6
CONTINUOUS
370
-3
390
F
  0
LAYER
  5
204
100
AcDbSymbolTableRecord
100
AcDbLayerTableRecord
  2
06___PRT_ALL_SURFS
 70
0
 62
7
  6
CONTINUOUS
370
-3
390
F
  0
LAYER
  5
205
100
AcDbSymbolTableRecord
100
AcDbLayerTableRecord
  2
DATUM_PLANES
 70
0
 62
7
  6
CONTINUOUS
370
-3
390
F
  0
LAYER
  5
206
100
AcDbSymbolTableRecord
100
AcDbLayerTableRecord
  2
DIMENSIONS
 70
0
 62
7
  6
CONTINUOUS
370
-3
390
F
  0
LAYER
  5
207
100
AcDbSymbolTableRecord
100
AcDbLayerTableRecord
  2
DTM_500001
 70
0
 62
7
  6
CONTINUOUS
370
-3
390
F
  0
LAYER
  5
208
100
AcDbSymbolTableRecord
100
AcDbLayerTableRecord
  2
PARAMETERDIMENSIONS
 70
0
 62
7
  6
CONTINUOUS
370
-3
390
F
  0
LAYER
  5
209
100
AcDbSymbolTableRecord
100
AcDbLayerTableRecord
  2
PORT_AREAS
 70
0
 62
7
  6
CONTINUOUS
370
-3
390
F
  0
LAYER
  5
20A
100
AcDbSymbolTableRecord
100
AcDbLayerTableRecord
  2
SUNNBOMCOSMETIC
 70
0
 62
7
  6
CONTINUOUS
370
-3
390
F
  0
LAYER
  5
20B
100
AcDbSymbolTableRecord
100
AcDbLayerTableRecord
  2
SUNNBOMSTAMPING
 70
0
 62
7
  6
CONTINUOUS
370
-3
390
F
  0
LAYER
  5
20C
100
AcDbSymbolTableRecord
100
AcDbLayerTableRecord
  2
THREADS
 70
0
 62
7
  6
CONTINUOUS
370
-3
390
F
  0
ENDTAB
  0
TABLE
  2
STYLE
  5
3
100
AcDbSymbolTable
 70
1
  0
STYLE
  5
11
100
AcDbSymbolTableRecord
100
AcDbTextStyleTableRecord
  2
STANDARD
 70
0
 40
0.0
 41
0.8
 50
0.0
 71
0
 42
0.2
  3
txt
  4

  0
STYLE
  5
20D
100
AcDbSymbolTableRecord
100
AcDbTextStyleTableRecord
  2
TEXTSTYLE_1
 70
0
 40
0.0
 41
0.8
 50
0.0
 71
0
 42
0.2
  3
gdt
  4

  0
ENDTAB
  0
TABLE
  2
VIEW
  5
6
100
AcDbSymbolTable
 70
0
  0
ENDTAB
  0
TABLE
  2
UCS
  5
7
100
AcDbSymbolTable
 70
0
  0
ENDTAB
  0
TABLE
  2
APPID
  5
9
100
AcDbSymbolTable
 70
1
  0
APPID
  5
20E
100
AcDbSymbolTableRecord
100
AcDbRegAppTableRecord
  2
ACAD
 70
0
  0
ENDTAB
  0
TABLE
  2
BLOCK_RECORD
  5
1
100
AcDbSymbolTable
 70
0
  0
BLOCK_RECORD
  5
20F
100
AcDbSymbolTableRecord
100
AcDbBlockTableRecord
  2
*Model_Space
  0
BLOCK_RECORD
  5
210
100
AcDbSymbolTableRecord
100
AcDbBlockTableRecord
  2
*Paper_Space
  0
BLOCK_RECORD
  5
211
100
AcDbSymbolTableRecord
100
AcDbBlockTableRecord
  2
SUN_FIRST_THIRD_ANGLE_BL0
  0
BLOCK_RECORD
  5
212
100
AcDbSymbolTableRecord
100
AcDbBlockTableRecord
  2
*T1
  0
BLOCK_RECORD
  5
213
100
AcDbSymbolTableRecord
100
AcDbBlockTableRecord
  2
*T2
  0
BLOCK_RECORD
  5
214
100
AcDbSymbolTableRecord
100
AcDbBlockTableRecord
  2
*T3
  0
ENDTAB
  0
TABLE
  2
DIMSTYLE
  5
A
100
AcDbSymbolTable
 70
1
100
AcDbDimStyleTable
 71
0
  0
DIMSTYLE
105
215
100
AcDbSymbolTableRecord
100
AcDbDimStyleTableRecord
  2
STANDARD
 70
0
  3

  4

 40
1.0
 41
0.1875
 42
0.0625
 43
0.38
 44
0.125
 45
0.0
 46
0.0
 47
0.001
 48
0.001
140
0.1
141
0.09
142
0.0
143
25.4
144
1.0
145
0.0
146
1.0
147
0.09
 71
0.0
 72
0.0
 73
1
 74
1
 75
0
 76
0
 77
0
 78
4
170
0
171
2
172
0
173
0
174
0
175
0
176
0
177
0
178
0
270
2
271
3
272
3
273
2
274
2
275
0
280
0
281
0
282
0
283
1
284
4
285
0
286
0
287
3
288
0
340
11
278
46
  0
ENDTAB
  0
ENDSEC
  0
SECTION
  2
BLOCKS
  0
BLOCK
  5
20
100
AcDbEntity
  8
0
100
AcDbBlockBegin
  2
*Model_Space
 70
0
 10
0.0
 20
0.0
 30
0.0
  3
*Model_Space
  1

  0
ENDBLK
  5
21
100
AcDbEntity
  8
0
100
AcDbBlockEnd
  0
BLOCK
  5
1C
100
AcDbEntity
  8
0
100
AcDbBlockBegin
  2
*Paper_Space
 70
0
 10
0.0
 20
0.0
 30
0.0
  3
*Paper_Space
  1

  0
ENDBLK
  5
1D
100
AcDbEntity
  8
0
100
AcDbBlockEnd
  0
BLOCK
  5
216
100
AcDbEntity
  8
0
100
AcDbBlockBegin
 62
2
  6
CONTINUOUS
  2
SUN_FIRST_THIRD_ANGLE_BL0
 70
64
 10
20.4816717061
 20
1.2289683772
  3
SUN_FIRST_THIRD_ANGLE_BL0
  1

  0
TEXT
  5
217
100
AcDbEntity
  8
0
100
AcDbText
 62
2
  6
CONTINUOUS
 10
19.4750896608
 20
1.4136269581
  7
STANDARD
 40
0.08
  1
FIRST ANGLE
 41
0.8
 72
0
100
AcDbText
  0
TEXT
  5
218
100
AcDbEntity
  8
0
100
AcDbText
 62
2
  6
CONTINUOUS
 10
20.7842537513
 20
1.4047600029
  7
STANDARD
 40
0.08
  1
THIRD ANGLE
 41
0.8
 72
0
100
AcDbText
  0
LINE
  5
219
100
AcDbEntity
  8
0
100
AcDbLine
 62
7
  6
CONTINUOUS
 10
19.4767170086
 20
1.1727031207
 11
19.6334271527
 21
1.1717972817
  0
LINE
  5
21A
100
AcDbEntity
  8
0
100
AcDbLine
 62
7
  6
CONTINUOUS
 10
19.6596964832
 20
1.1717972817
 11
19.6950230232
 21
1.171593082
  0
LINE
  5
21B
100
AcDbEntity
  8
0
100
AcDbLine
 62
7
  6
CONTINUOUS
 10
19.7194818561
 20
1.1708914427
 11
19.8852396156
 21
1.1699333054
  0
LINE
  5
21C
100
AcDbEntity
  8
0
100
AcDbLine
 62
7
  6
CONTINUOUS
 10
19.4758111696
 20
1.2723454088
 11
19.88525039
 21
1.3511534004
  0
LINE
  5
21D
100
AcDbEntity
  8
0
100
AcDbLine
 62
7
  6
CONTINUOUS
 10
19.88525039
 20
1.3511534004
 11
19.8831348489
 21
0.9851647912
  0
LINE
  5
21E
100
AcDbEntity
  8
0
100
AcDbLine
 62
7
  6
CONTINUOUS
 10
19.8831348489
 20
0.9851647912
 11
19.4767170086
 21
1.0658141206
  0
LINE
  5
21F
100
AcDbEntity
  8
0
100
AcDbLine
 62
7
  6
CONTINUOUS
 10
19.4767170086
 20
1.0658141206
 11
19.4779056764
 21
1.2714536432
  0
CIRCLE
  5
220
100
AcDbEntity
  8
0
100
AcDbCircle
 62
7
  6
CONTINUOUS
 10
20.2068232291
 20
1.1717972817
 40
0.175742101
  0
CIRCLE
  5
221
100
AcDbEntity
  8
0
100
AcDbCircle
 62
7
  6
CONTINUOUS
 10
20.2068232291
 20
1.1717972817
 40
0.1005522074
  0
LINE
  5
222
100
AcDbEntity
  8
0
100
AcDbLine
 62
7
  6
CONTINUOUS
 10
20.2077290681
 20
1.3756110529
 11
20.2071171714
 21
1.2379342989
  0
LINE
  5
223
100
AcDbEntity
  8
0
100
AcDbLine
 62
7
  6
CONTINUOUS
 10
20.2077290681
 20
1.2016899681
 11
20.2074674401
 21
1.1428236749
  0
LINE
  5
224
100
AcDbEntity
  8
0
100
AcDbLine
 62
7
  6
CONTINUOUS
 10
20.208634907
 20
1.101141841
 11
20.2080230104
 21
0.963465087
  0
LINE
  5
225
100
AcDbEntity
  8
0
100
AcDbLine
 62
7
  6
CONTINUOUS
 10
20.0066328138
 20
1.1745147986
 11
20.1443095678
 21
1.1739029019
  0
LINE
  5
226
100
AcDbEntity
  8
0
100
AcDbLine
 62
7
  6
CONTINUOUS
 10
20.1832714155
 20
1.1727031207
 11
20.238153505
 21
1.172335442
  0
LINE
  5
227
100
AcDbEntity
  8
0
100
AcDbLine
 62
7
  6
CONTINUOUS
 10
20.2756669918
 20
1.1717972817
 11
20.407916871
 21
1.1712095044
  0
CIRCLE
  5
228
100
AcDbEntity
  8
0
100
AcDbCircle
 62
7
  6
CONTINUOUS
 10
20.7509457401
 20
1.1693297793
 40
0.1722024983
  0
CIRCLE
  5
229
100
AcDbEntity
  8
0
100
AcDbCircle
 62
7
  6
CONTINUOUS
 10
20.7509457401
 20
1.1693297793
 40
0.0985164967
  0
LINE
  5
22A
100
AcDbEntity
  8
0
100
AcDbLine
 62
7
  6
CONTINUOUS
 10
20.7169767782
 20
1.170462078
 11
20.7825395137
 21
1.1682766535
  0
LINE
  5
22B
100
AcDbEntity
  8
0
100
AcDbLine
 62
7
  6
CONTINUOUS
 10
20.8177513651
 20
1.1693297793
 11
20.947965719
 21
1.1693297793
  0
LINE
  5
22C
100
AcDbEntity
  8
0
100
AcDbLine
 62
7
  6
CONTINUOUS
 10
20.6875370113
 20
1.170462078
 11
20.5573226574
 21
1.170462078
  0
LINE
  5
22D
100
AcDbEntity
  8
0
100
AcDbLine
 62
7
  6
CONTINUOUS
 10
20.7486811426
 20
1.1987695462
 11
20.7486811426
 21
1.1432869085
  0
LINE
  5
22E
100
AcDbEntity
  8
0
100
AcDbLine
 62
7
  6
CONTINUOUS
 10
20.7498134414
 20
1.1059210505
 11
20.7498134414
 21
0.9757066966
  0
LINE
  5
22F
100
AcDbEntity
  8
0
100
AcDbLine
 62
7
  6
CONTINUOUS
 10
20.7486811426
 20
1.2338708068
 11
20.7486811426
 21
1.3640851607
  0
LINE
  5
230
100
AcDbEntity
  8
0
100
AcDbLine
 62
7
  6
CONTINUOUS
 10
21.0702539817
 20
1.2701043662
 11
21.4790138229
 21
1.3448360823
  0
LINE
  5
231
100
AcDbEntity
  8
0
100
AcDbLine
 62
7
  6
CONTINUOUS
 10
21.4790138229
 20
1.3448360823
 11
21.4790138229
 21
0.9779712941
  0
LINE
  5
232
100
AcDbEntity
  8
0
100
AcDbLine
 62
7
  6
CONTINUOUS
 10
21.4790138229
 20
0.9779712941
 11
21.069121683
 21
1.0617614
  0
LINE
  5
233
100
AcDbEntity
  8
0
100
AcDbLine
 62
7
  6
CONTINUOUS
 10
21.0702539817
 20
1.2701043662
 11
21.069121683
 21
1.0617614
  0
LINE
  5
234
100
AcDbEntity
  8
0
100
AcDbLine
 62
7
  6
CONTINUOUS
 10
21.4790138229
 20
1.1693297793
 11
21.3159628059
 21
1.1693297793
  0
LINE
  5
235
100
AcDbEntity
  8
0
100
AcDbLine
 62
7
  6
CONTINUOUS
 10
21.2876553377
 20
1.1693297793
 11
21.2502894796
 21
1.1693297793
  0
LINE
  5
236
100
AcDbEntity
  8
0
100
AcDbLine
 62
7
  6
CONTINUOUS
 10
21.2208497126
 20
1.1659328831
 11
21.0713862804
 21
1.1659328831
  0
LINE
  5
237
100
AcDbEntity
  8
0
100
AcDbLine
 62
7
  6
CONTINUOUS
 10
20.4796138713
 20
1.5284908897
 11
20.4766766948
 21
0.9294458646
  0
ENDBLK
  5
238
100
AcDbEntity
  8
0
  6
BYBLOCK
 62
0
100
AcDbBlockEnd
  0
BLOCK
  5
239
100
AcDbEntity
  8
0
100
AcDbBlockBegin
  2
*T1
 70
1
 10
0.0
 20
0.0
  3
*T1
  1

  0
LINE
  5
23A
100
AcDbEntity
  8
0
100
AcDbLine
 62
2
  6
CONTINUOUS
 10
9.275
 20
0.0
 11
-0.0
 21
0.0
  0
LINE
  5
23B
100
AcDbEntity
  8
0
100
AcDbLine
 62
2
  6
CONTINUOUS
 10
9.275
 20
0.0
 11
9.275
 21
1.25
  0
LINE
  5
23C
100
AcDbEntity
  8
0
100
AcDbLine
 62
2
  6
CONTINUOUS
 10
9.275
 20
0.625
 11
-0.0
 21
0.625
  0
LINE
  5
23D
100
AcDbEntity
  8
0
100
AcDbLine
 62
2
  6
CONTINUOUS
 10
9.275
 20
1.25
 11
-0.0
 21
1.25
  0
LINE
  5
23E
100
AcDbEntity
  8
0
100
AcDbLine
 62
2
  6
CONTINUOUS
 10
6.8
 20
0.0
 11
6.8
 21
1.25
  0
LINE
  5
23F
100
AcDbEntity
  8
0
100
AcDbLine
 62
2
  6
CONTINUOUS
 10
6.4
 20
0.0
 11
6.4
 21
0.625
  0
LINE
  5
240
100
AcDbEntity
  8
0
100
AcDbLine
 62
2
  6
CONTINUOUS
 10
5.9
 20
0.0
 11
5.9
 21
0.625
  0
LINE
  5
241
100
AcDbEntity
  8
0
100
AcDbLine
 62
2
  6
CONTINUOUS
 10
5.2
 20
0.0
 11
5.2
 21
0.625
  0
LINE
  5
242
100
AcDbEntity
  8
0
100
AcDbLine
 62
2
  6
CONTINUOUS
 10
4.1
 20
0.0
 11
4.1
 21
1.25
  0
LINE
  5
243
100
AcDbEntity
  8
0
100
AcDbLine
 62
2
  6
CONTINUOUS
 10
-0.0
 20
0.0
 11
-0.0
 21
1.25
  0
MTEXT
  5
244
100
AcDbEntity
  8
0
100
AcDbMText
 62
2
  6
CONTINUOUS
  7
STANDARD
 71
2
 72
1
 10
6.6
 20
0.325
 30
0.0
 11
1.0
 21
0.0
 31
0.0
 44
0.9
  1
2
 40
0.125
 41
0.2
  0
MTEXT
  5
245
100
AcDbEntity
  8
0
100
AcDbMText
 62
2
  6
CONTINUOUS
  7
STANDARD
 71
2
 72
1
 10
6.15
 20
0.325
 30
0.0
 11
1.0
 21
0.0
 31
0.0
 44
0.9
  1
C
 40
0.125
 41
0.2
  0
MTEXT
  5
246
100
AcDbEntity
  8
0
100
AcDbMText
 62
2
  6
CONTINUOUS
  7
STANDARD
 71
2
 72
1
 10
5.55
 20
0.325
 30
0.0
 11
1.0
 21
0.0
 31
0.0
 44
0.9
  1
1.000
 40
0.125
 41
1.0
  0
MTEXT
  5
247
100
AcDbEntity
  8
0
100
AcDbMText
 62
2
  6
CONTINUOUS
  7
STANDARD
 71
2
 72
1
 10
4.65
 20
0.325
 30
0.0
 11
1.0
 21
0.0
 31
0.0
 44
0.9
  1
Aug-07-20
 40
0.125
 41
1.8
  0
MTEXT
  5
248
100
AcDbEntity
  8
0
100
AcDbMText
 62
2
  6
CONTINUOUS
  7
STANDARD
 71
2
 72
1
 10
2.05
 20
0.4625
 30
0.0
 11
1.0
 21
0.0
 31
0.0
 44
0.9
  1
T-10A Motor mount Danfoss OMP\PA to B
 40
0.125
 41
5.8
  0
MTEXT
  5
249
100
AcDbEntity
  8
0
100
AcDbMText
 62
2
  6
CONTINUOUS
  7
STANDARD
 71
1
 72
1
 10
6.45
 20
0.5625
 30
0.0
 11
1.0
 21
0.0
 31
0.0
 44
0.9
  1
SHEET
 40
0.06
 41
0.48
  0
MTEXT
  5
24A
100
AcDbEntity
  8
0
100
AcDbMText
 62
2
  6
CONTINUOUS
  7
STANDARD
 71
1
 72
1
 10
5.95
 20
0.5625
 30
0.0
 11
1.0
 21
0.0
 31
0.0
 44
0.9
  1
DWG SIZE
 40
0.06
 41
0.768
  0
MTEXT
  5
24B
100
AcDbEntity
  8
0
100
AcDbMText
 62
2
  6
CONTINUOUS
  7
STANDARD
 71
1
 72
1
 10
5.25
 20
0.5625
 30
0.0
 11
1.0
 21
0.0
 31
0.0
 44
0.9
  1
SCALE
 40
0.06
 41
0.48
  0
MTEXT
  5
24C
100
AcDbEntity
  8
0
100
AcDbMText
 62
2
  6
CONTINUOUS
  7
STANDARD
 71
1
 72
1
 10
4.15
 20
0.5625
 30
0.0
 11
1.0
 21
0.0
 31
0.0
 44
0.9
  1
DATE
 40
0.06
 41
0.384
  0
MTEXT
  5
24D
100
AcDbEntity
  8
0
100
AcDbMText
 62
2
  6
CONTINUOUS
  7
STANDARD
 71
1
 72
1
 10
0.05
 20
0.5625
 30
0.0
 11
1.0
 21
0.0
 31
0.0
 44
0.9
  1
DESCRIPTION
 40
0.06
 41
1.056
  0
MTEXT
  5
24E
100
AcDbEntity
  8
0
100
AcDbMText
 62
2
  6
CONTINUOUS
  7
STANDARD
 71
2
 72
1
 10
5.45
 20
1.0375
 30
0.0
 11
1.0
 21
0.0
 31
0.0
 44
0.9
  1
ALL DIMENSIONS IN INCH\PVIEWS ARE THIRD ANGLE
 40
0.12
 41
4.224
  0
MTEXT
  5
24F
100
AcDbEntity
  8
0
100
AcDbMText
 62
2
  6
CONTINUOUS
  7
STANDARD
 71
2
 72
1
 10
2.05
 20
0.95
 30
0.0
 11
1.0
 21
0.0
 31
0.0
 44
0.9
  1
WVU
 40
0.125
 41
0.6
  0
MTEXT
  5
250
100
AcDbEntity
  8
0
100
AcDbMText
 62
2
  6
CONTINUOUS
  7
STANDARD
 71
1
 72
1
 10
0.05
 20
1.1875
 30
0.0
 11
1.0
 21
0.0
 31
0.0
 44
0.9
  1
MODEL
 40
0.06
 41
0.48
  0
ENDBLK
  5
251
100
AcDbEntity
  8
0
  6
BYBLOCK
 62
0
100
AcDbBlockEnd
  0
BLOCK
  5
252
100
AcDbEntity
  8
0
100
AcDbBlockBegin
  2
*T2
 70
1
 10
0.0
 20
0.0
  3
*T2
  1

  0
LINE
  5
253
100
AcDbEntity
  8
0
100
AcDbLine
 62
2
  6
CONTINUOUS
 10
0.0
 20
0.0
 11
9.055
 21
0.0
  0
LINE
  5
254
100
AcDbEntity
  8
0
100
AcDbLine
 62
2
  6
CONTINUOUS
 10
0.0
 20
0.0
 11
0.0
 21
-1.844
  0
LINE
  5
255
100
AcDbEntity
  8
0
100
AcDbLine
 62
2
  6
CONTINUOUS
 10
0.0
 20
-0.344
 11
9.055
 21
-0.344
  0
LINE
  5
256
100
AcDbEntity
  8
0
100
AcDbLine
 62
2
  6
CONTINUOUS
 10
0.0
 20
-0.594
 11
9.055
 21
-0.594
  0
LINE
  5
257
100
AcDbEntity
  8
0
100
AcDbLine
 62
2
  6
CONTINUOUS
 10
0.0
 20
-0.844
 11
9.055
 21
-0.844
  0
LINE
  5
258
100
AcDbEntity
  8
0
100
AcDbLine
 62
2
  6
CONTINUOUS
 10
0.0
 20
-1.094
 11
9.055
 21
-1.094
  0
LINE
  5
259
100
AcDbEntity
  8
0
100
AcDbLine
 62
2
  6
CONTINUOUS
 10
0.0
 20
-1.344
 11
9.055
 21
-1.344
  0
LINE
  5
25A
100
AcDbEntity
  8
0
100
AcDbLine
 62
2
  6
CONTINUOUS
 10
0.0
 20
-1.594
 11
9.055
 21
-1.594
  0
LINE
  5
25B
100
AcDbEntity
  8
0
100
AcDbLine
 62
2
  6
CONTINUOUS
 10
0.0
 20
-1.844
 11
9.055
 21
-1.844
  0
LINE
  5
25C
100
AcDbEntity
  8
0
100
AcDbLine
 62
2
  6
CONTINUOUS
 10
3.055
 20
0.0
 11
3.055
 21
-1.844
  0
LINE
  5
25D
100
AcDbEntity
  8
0
100
AcDbLine
 62
2
  6
CONTINUOUS
 10
9.055
 20
0.0
 11
9.055
 21
-1.844
  0
MTEXT
  5
25E
100
AcDbEntity
  8
0
100
AcDbMText
 62
2
  6
CONTINUOUS
  7
STANDARD
 71
2
 72
1
 10
1.5275
 20
-0.0995
 30
0.0
 11
1.0
 21
0.0
 31
0.0
 44
0.9
  1
Technical Data
 40
0.145
 41
3.248
  0
MTEXT
  5
25F
100
AcDbEntity
  8
0
100
AcDbMText
 62
2
  6
CONTINUOUS
  7
STANDARD
 71
2
 72
1
 10
4.555
 20
-0.0995
 30
0.0
 11
1.0
 21
0.0
 31
0.0
 44
0.9
  1
U.S. Units
 40
0.145
 41
2.32
  0
MTEXT
  5
260
100
AcDbEntity
  8
0
100
AcDbMText
 62
2
  6
CONTINUOUS
  7
STANDARD
 71
2
 72
1
 10
7.555
 20
-0.0995
 30
0.0
 11
1.0
 21
0.0
 31
0.0
 44
0.9
  1
Metric Units
 40
0.145
 41
2.784
  0
MTEXT
  5
261
100
AcDbEntity
  8
0
100
AcDbMText
 62
2
  6
CONTINUOUS
  7
STANDARD
 71
2
 72
1
 10
1.5275
 20
-0.4065
 30
0.0
 11
1.0
 21
0.0
 31
0.0
 44
0.9
  1
Cavity
 40
0.125
 41
1.2
  0
MTEXT
  5
262
100
AcDbEntity
  8
0
100
AcDbMText
 62
2
  6
CONTINUOUS
  7
STANDARD
 71
2
 72
1
 10
6.055
 20
-0.4065
 30
0.0
 11
1.0
 21
0.0
 31
0.0
 44
0.9
  1
T-10A
 40
0.125
 41
1.0
  0
MTEXT
  5
263
100
AcDbEntity
  8
0
100
AcDbMText
 62
2
  6
CONTINUOUS
  7
STANDARD
 71
2
 72
1
 10
1.5275
 20
-0.6565
 30
0.0
 11
1.0
 21
0.0
 31
0.0
 44
0.9
  1
Body Features
 40
0.125
 41
2.6
  0
MTEXT
  5
264
100
AcDbEntity
  8
0
100
AcDbMText
 62
2
  6
CONTINUOUS
  7
STANDARD
 71
2
 72
1
 10
6.055
 20
-0.6565
 30
0.0
 11
1.0
 21
0.0
 31
0.0
 44
0.9
  1
A to B
 40
0.125
 41
1.2
  0
MTEXT
  5
265
100
AcDbEntity
  8
0
100
AcDbMText
 62
2
  6
CONTINUOUS
  7
STANDARD
 71
2
 72
1
 10
1.5275
 20
-0.9065
 30
0.0
 11
1.0
 21
0.0
 31
0.0
 44
0.9
  1
Body Type
 40
0.125
 41
1.8
  0
MTEXT
  5
266
100
AcDbEntity
  8
0
100
AcDbMText
 62
2
  6
CONTINUOUS
  7
STANDARD
 71
2
 72
1
 10
6.055
 20
-0.9065
 30
0.0
 11
1.0
 21
0.0
 31
0.0
 44
0.9
  1
Motor mount
 40
0.125
 41
2.2
  0
MTEXT
  5
267
100
AcDbEntity
  8
0
100
AcDbMText
 62
2
  6
CONTINUOUS
  7
STANDARD
 71
2
 72
1
 10
1.5275
 20
-1.1565
 30
0.0
 11
1.0
 21
0.0
 31
0.0
 44
0.9
  1
Interface
 40
0.125
 41
1.8
  0
MTEXT
  5
268
100
AcDbEntity
  8
0
100
AcDbMText
 62
2
  6
CONTINUOUS
  7
STANDARD
 71
2
 72
1
 10
6.055
 20
-1.1565
 30
0.0
 11
1.0
 21
0.0
 31
0.0
 44
0.9
  1
Danfoss OMP
 40
0.125
 41
2.2
  0
MTEXT
  5
269
100
AcDbEntity
  8
0
100
AcDbMText
 62
2
  6
CONTINUOUS
  7
STANDARD
 71
2
 72
1
 10
1.5275
 20
-1.4065
 30
0.0
 11
1.0
 21
0.0
 31
0.0
 44
0.9
  1
Open Cavity Quantity
 40
0.125
 41
4.0
  0
MTEXT
  5
26A
100
AcDbEntity
  8
0
100
AcDbMText
 62
2
  6
CONTINUOUS
  7
STANDARD
 71
2
 72
1
 10
6.055
 20
-1.4065
 30
0.0
 11
1.0
 21
0.0
 31
0.0
 44
0.9
  1
1
 40
0.125
 41
0.2
  0
MTEXT
  5
26B
100
AcDbEntity
  8
0
100
AcDbMText
 62
2
  6
CONTINUOUS
  7
STANDARD
 71
2
 72
1
 10
1.5275
 20
-1.6565
 30
0.0
 11
1.0
 21
0.0
 31
0.0
 44
0.9
  1
Weight
 40
0.125
 41
1.2
  0
MTEXT
  5
26C
100
AcDbEntity
  8
0
100
AcDbMText
 62
2
  6
CONTINUOUS
  7
STANDARD
 71
2
 72
1
 10
4.555
 20
-1.6565
 30
0.0
 11
1.0
 21
0.0
 31
0.0
 44
0.9
  1
2.152 lb.
 40
0.125
 41
1.8
  0
MTEXT
  5
26D
100
AcDbEntity
  8
0
100
AcDbMText
 62
2
  6
CONTINUOUS
  7
STANDARD
 71
2
 72
1
 10
7.555
 20
-1.6565
 30
0.0
 11
1.0
 21
0.0
 31
0.0
 44
0.9
  1
0,976 kg.
 40
0.125
 41
1.8
  0
ENDBLK
  5
26E
100
AcDbEntity
  8
0
  6
BYBLOCK
 62
0
100
AcDbBlockEnd
  0
BLOCK
  5
26F
100
AcDbEntity
  8
0
100
AcDbBlockBegin
  2
*T3
 70
1
 10
0.0
 20
0.0
  3
*T3
  1

  0
LINE
  5
270
100
AcDbEntity
  8
0
100
AcDbLine
 62
2
  6
CONTINUOUS
 10
0.0
 20
0.0
 11
4.6
 21
0.0
  0
LINE
  5
271
100
AcDbEntity
  8
0
100
AcDbLine
 62
2
  6
CONTINUOUS
 10
0.0
 20
0.0
 11
0.0
 21
-1.18775
  0
LINE
  5
272
100
AcDbEntity
  8
0
100
AcDbLine
 62
2
  6
CONTINUOUS
 10
0.0
 20
-0.34375
 11
4.6
 21
-0.34375
  0
LINE
  5
273
100
AcDbEntity
  8
0
100
AcDbLine
 62
2
  6
CONTINUOUS
 10
0.0
 20
-0.68775
 11
4.6
 21
-0.68775
  0
LINE
  5
274
100
AcDbEntity
  8
0
100
AcDbLine
 62
2
  6
CONTINUOUS
 10
0.0
 20
-0.93775
 11
4.6
 21
-0.93775
  0
LINE
  5
275
100
AcDbEntity
  8
0
100
AcDbLine
 62
2
  6
CONTINUOUS
 10
0.0
 20
-1.18775
 11
4.6
 21
-1.18775
  0
LINE
  5
276
100
AcDbEntity
  8
0
100
AcDbLine
 62
2
  6
CONTINUOUS
 10
1.3
 20
-0.34375
 11
1.3
 21
-1.18775
  0
LINE
  5
277
100
AcDbEntity
  8
0
100
AcDbLine
 62
2
  6
CONTINUOUS
 10
3.3
 20
-0.34375
 11
3.3
 21
-1.18775
  0
LINE
  5
278
100
AcDbEntity
  8
0
100
AcDbLine
 62
2
  6
CONTINUOUS
 10
4.6
 20
0.0
 11
4.6
 21
-1.18775
  0
MTEXT
  5
279
100
AcDbEntity
  8
0
100
AcDbMText
 62
2
  6
CONTINUOUS
  7
STANDARD
 71
2
 72
1
 10
2.3
 20
-0.099375
 30
0.0
 11
1.0
 21
0.0
 31
0.0
 44
0.9
  1
Port Headings
 40
0.145
 41
3.016
  0
MTEXT
  5
27A
100
AcDbEntity
  8
0
100
AcDbMText
 62
2
  6
CONTINUOUS
  7
STANDARD
 71
2
 72
1
 10
0.65
 20
-0.44325
 30
0.0
 11
1.0
 21
0.0
 31
0.0
 44
0.9
  1
Product
 40
0.145
 41
1.624
  0
MTEXT
  5
27B
100
AcDbEntity
  8
0
100
AcDbMText
 62
2
  6
CONTINUOUS
  7
STANDARD
 71
2
 72
1
 10
2.3
 20
-0.44325
 30
0.0
 11
1.0
 21
0.0
 31
0.0
 44
0.9
  1
Port
 40
0.145
 41
0.928
  0
MTEXT
  5
27C
100
AcDbEntity
  8
0
100
AcDbMText
 62
2
  6
CONTINUOUS
  7
STANDARD
 71
2
 72
1
 10
3.95
 20
-0.44325
 30
0.0
 11
1.0
 21
0.0
 31
0.0
 44
0.9
  1
Size
 40
0.145
 41
0.928
  0
MTEXT
  5
27D
100
AcDbEntity
  8
0
100
AcDbMText
 62
2
  6
CONTINUOUS
  7
STANDARD
 71
2
 72
1
 10
0.65
 20
-0.75025
 30
0.0
 11
1.0
 21
0.0
 31
0.0
 44
0.9
  1
WVU
 40
0.125
 41
0.6
  0
MTEXT
  5
27E
100
AcDbEntity
  8
0
100
AcDbMText
 62
2
  6
CONTINUOUS
  7
STANDARD
 71
2
 72
1
 10
2.3
 20
-0.75025
 30
0.0
 11
1.0
 21
0.0
 31
0.0
 44
0.9
  1
Ports V1 & V2
 40
0.125
 41
2.6
  0
MTEXT
  5
27F
100
AcDbEntity
  8
0
100
AcDbMText
 62
2
  6
CONTINUOUS
  7
STANDARD
 71
2
 72
1
 10
3.95
 20
-0.75025
 30
0.0
 11
1.0
 21
0.0
 31
0.0
 44
0.9
  1
1/2" NPTF
 40
0.125
 41
1.8
  0
MTEXT
  5
280
100
AcDbEntity
  8
0
100
AcDbMText
 62
2
  6
CONTINUOUS
  7
STANDARD
 71
2
 72
1
 10
0.65
 20
-1.00025
 30
0.0
 11
1.0
 21
0.0
 31
0.0
 44
0.9
  1
WVU
 40
0.125
 41
0.6
  0
MTEXT
  5
281
100
AcDbEntity
  8
0
100
AcDbMText
 62
2
  6
CONTINUOUS
  7
STANDARD
 71
2
 72
1
 10
2.3
 20
-1.00025
 30
0.0
 11
1.0
 21
0.0
 31
0.0
 44
0.9
  1
Gage Port
 40
0.125
 41
1.8
  0
MTEXT
  5
282
100
AcDbEntity
  8
0
100
AcDbMText
 62
2
  6
CONTINUOUS
  7
STANDARD
 71
2
 72
1
 10
3.95
 20
-1.00025
 30
0.0
 11
1.0
 21
0.0
 31
0.0
 44
0.9
  1
1/4" NPTF
 40
0.125
 41
1.8
  0
ENDBLK
  5
283
100
AcDbEntity
  8
0
  6
BYBLOCK
 62
0
100
AcDbBlockEnd
  0
ENDSEC
  0
SECTION
  2
ENTITIES
  0
IMAGE
  5
284
100
AcDbEntity
  8
0
100
AcDbRasterImage
 62
7
  6
CONTINUOUS
 10
19.2297077316
 20
0.3094318264
 30
0.0
 11
0.0066666667
 21
0.0
 31
0.0
 12
0.0
 22
0.0066666667
 32
0.0
 13
369.0
 23
92.0
340
       378
 70
9
280
0
281
50
282
50
283
0
360
       372
 71
1
 91
2
 14
-0.5
 24
-0.5
 14
368.5
 24
91.5
  0
INSERT
  5
285
100
AcDbEntity
  8
0
100
AcDbBlockReference
 62
2
  6
CONTINUOUS
  2
SUN_FIRST_THIRD_ANGLE_BL0
 10
20.4816717061
 20
1.2289683772
  0
ACAD_TABLE
  5
286
100
AcDbEntity
  8
0
 62
2
  6
CONTINUOUS
100
AcDbBlockReference
  2
*T1
 10
12.42375
 20
0.30125
 30
0.0
100
AcDbTable
342
       37A
343
212
 11
1.0
 21
0.0
 31
0.0
 90
6
 91
4
 92
6
 93
20
 94
0
 95
0
 96
0
 70
1
 41
0.0
141
0.525
141
0.1
141
0.525
141
0.1
142
4.1
142
1.1
142
0.7
142
0.5
142
0.4
142
2.475
171
1
172
0
173
0
174
0
175
1
176
1
 91
33
178
0
145
0.0
301
CELL_VALUE
 90
4
  1
T-10A Motor mount Danfoss OMP\PA to B
304
ACVALUE_END
170
2
140
0.125
171
1
172
0
173
0
174
0
175
1
176
1
 91
33
178
0
145
0.0
301
CELL_VALUE
 90
4
  1
Aug-07-20
304
ACVALUE_END
170
5
140
0.125
171
1
172
0
173
0
174
0
175
1
176
1
 91
33
178
0
145
0.0
301
CELL_VALUE
 90
4
  1
1.000
304
ACVALUE_END
170
5
140
0.125
171
1
172
0
173
0
174
0
175
1
176
1
 91
33
178
0
145
0.0
301
CELL_VALUE
 90
4
  1
C
304
ACVALUE_END
170
5
140
0.125
171
1
172
0
173
0
174
0
175
1
176
1
 91
33
178
0
145
0.0
301
CELL_VALUE
 90
4
  1
2
304
ACVALUE_END
170
5
140
0.125
171
1
172
0
173
0
174
0
175
1
176
1
 91
33
178
0
145
0.0
301
CELL_VALUE
 90
4
  1
 
304
ACVALUE_END
170
1
140
0.125
171
1
172
0
173
0
174
0
175
1
176
1
 91
33
178
0
145
0.0
301
CELL_VALUE
 90
4
  1
DESCRIPTION
304
ACVALUE_END
170
1
140
0.06
171
1
172
0
173
0
174
0
175
1
176
1
 91
33
178
0
145
0.0
301
CELL_VALUE
 90
4
  1
DATE
304
ACVALUE_END
170
1
140
0.06
171
1
172
0
173
0
174
0
175
1
176
1
 91
33
178
0
145
0.0
301
CELL_VALUE
 90
4
  1
SCALE
304
ACVALUE_END
170
1
140
0.06
171
1
172
0
173
0
174
0
175
1
176
1
 91
33
178
0
145
0.0
301
CELL_VALUE
 90
4
  1
DWG SIZE
304
ACVALUE_END
170
1
140
0.06
171
1
172
0
173
0
174
0
175
1
176
1
 91
33
178
0
145
0.0
301
CELL_VALUE
 90
4
  1
SHEET
304
ACVALUE_END
170
1
140
0.06
171
1
172
0
173
0
174
0
175
1
176
1
 91
33
178
0
145
0.0
301
CELL_VALUE
 90
4
  1
 
304
ACVALUE_END
170
1
140
0.125
171
1
172
0
173
0
174
0
175
1
176
1
 91
33
178
0
145
0.0
301
CELL_VALUE
 90
4
  1
WVU
304
ACVALUE_END
170
5
140
0.125
171
1
172
0
173
0
174
0
175
4
176
1
 91
33
178
0
145
0.0
301
CELL_VALUE
 90
4
  1
ALL DIMENSIONS IN INCH\PVIEWS ARE THIRD ANGLE
304
ACVALUE_END
170
5
140
0.12
171
1
172
0
173
1
174
0
175
1
176
1
 91
1
178
0
145
0.0
170
1
171
1
172
0
173
1
174
0
175
1
176
1
 91
1
178
0
145
0.0
170
1
171
1
172
0
173
1
174
0
175
1
176
1
 91
1
178
0
145
0.0
170
5
171
1
172
0
173
0
174
0
175
1
176
1
 91
33
178
0
145
0.0
301
CELL_VALUE
 90
4
  1
 
304
ACVALUE_END
170
1
140
0.125
171
1
172
0
173
0
174
0
175
1
176
1
 91
33
178
0
145
0.0
301
CELL_VALUE
 90
4
  1
MODEL
304
ACVALUE_END
170
1
140
0.06
171
1
172
0
173
0
174
0
175
1
176
1
 91
33
178
0
145
0.0
301
CELL_VALUE
 90
4
  1
 
304
ACVALUE_END
170
1
140
0.125
171
1
172
0
173
0
174
0
175
1
176
1
 91
33
178
0
145
0.0
301
CELL_VALUE
 90
4
  1
 
304
ACVALUE_END
170
1
140
0.125
171
1
172
0
173
0
174
0
175
1
176
1
 91
33
178
0
145
0.0
301
CELL_VALUE
 90
4
  1
 
304
ACVALUE_END
170
1
140
0.125
171
1
172
0
173
0
174
0
175
1
176
1
 91
33
178
0
145
0.0
301
CELL_VALUE
 90
4
  1
 
304
ACVALUE_END
170
1
140
0.125
171
1
172
0
173
0
174
0
175
1
176
1
 91
33
178
0
145
0.0
301
CELL_VALUE
 90
4
  1
 
304
ACVALUE_END
170
1
140
0.125
  0
ACAD_TABLE
  5
287
100
AcDbEntity
  8
0
 62
2
  6
CONTINUOUS
100
AcDbBlockReference
  2
*T2
 10
12.4237499994
 20
16.47875
 30
0.0
100
AcDbTable
342
       379
343
213
 11
1.0
 21
0.0
 31
0.0
 90
22
 91
7
 92
3
 93
16
 94
0
 95
0
 96
0
 41
0.028
141
0.344
141
0.25
141
0.25
141
0.25
141
0.25
141
0.25
141
0.25
142
3.055
142
3.0
142
3.0
171
1
172
0
173
0
174
0
175
1
176
1
 91
33
178
0
145
0.0
301
CELL_VALUE
 90
4
  1
Technical Data
304
ACVALUE_END
170
5
140
0.145
171
1
172
0
173
0
174
0
175
1
176
1
 91
33
178
0
145
0.0
301
CELL_VALUE
 90
4
  1
U.S. Units
304
ACVALUE_END
170
5
140
0.145
171
1
172
0
173
0
174
0
175
1
176
1
 91
33
178
0
145
0.0
301
CELL_VALUE
 90
4
  1
Metric Units
304
ACVALUE_END
170
5
140
0.145
171
1
172
0
173
0
174
0
175
1
176
1
 91
33
178
0
145
0.0
301
CELL_VALUE
 90
4
  1
Cavity
304
ACVALUE_END
170
5
140
0.125
171
1
172
0
173
0
174
0
175
2
176
1
 91
33
178
0
145
0.0
301
CELL_VALUE
 90
4
  1
T-10A
304
ACVALUE_END
170
5
140
0.125
171
1
172
0
173
1
174
0
175
1
176
1
 91
1
178
0
145
0.0
170
1
171
1
172
0
173
0
174
0
175
1
176
1
 91
33
178
0
145
0.0
301
CELL_VALUE
 90
4
  1
Body Features
304
ACVALUE_END
170
5
140
0.125
171
1
172
0
173
0
174
0
175
2
176
1
 91
33
178
0
145
0.0
301
CELL_VALUE
 90
4
  1
A to B
304
ACVALUE_END
170
5
140
0.125
171
1
172
0
173
1
174
0
175
1
176
1
 91
1
178
0
145
0.0
170
1
171
1
172
0
173
0
174
0
175
1
176
1
 91
33
178
0
145
0.0
301
CELL_VALUE
 90
4
  1
Body Type
304
ACVALUE_END
170
5
140
0.125
171
1
172
0
173
0
174
0
175
2
176
1
 91
33
178
0
145
0.0
301
CELL_VALUE
 90
4
  1
Motor mount
304
ACVALUE_END
170
5
140
0.125
171
1
172
0
173
1
174
0
175
1
176
1
 91
1
178
0
145
0.0
170
1
171
1
172
0
173
0
174
0
175
1
176
1
 91
33
178
0
145
0.0
301
CELL_VALUE
 90
4
  1
Interface
304
ACVALUE_END
170
5
140
0.125
171
1
172
0
173
0
174
0
175
2
176
1
 91
33
178
0
145
0.0
301
CELL_VALUE
 90
4
  1
Danfoss OMP
304
ACVALUE_END
170
5
140
0.125
171
1
172
0
173
1
174
0
175
1
176
1
 91
1
178
0
145
0.0
170
1
171
1
172
0
173
0
174
0
175
1
176
1
 91
33
178
0
145
0.0
301
CELL_VALUE
 90
4
  1
Open Cavity Quantity
304
ACVALUE_END
170
5
140
0.125
171
1
172
0
173
0
174
0
175
2
176
1
 91
33
178
0
145
0.0
301
CELL_VALUE
 90
4
  1
1
304
ACVALUE_END
170
5
140
0.125
171
1
172
0
173
1
174
0
175
1
176
1
 91
1
178
0
145
0.0
170
1
171
1
172
0
173
0
174
0
175
1
176
1
 91
33
178
0
145
0.0
301
CELL_VALUE
 90
4
  1
Weight
304
ACVALUE_END
170
5
140
0.125
171
1
172
0
173
0
174
0
175
1
176
1
 91
33
178
0
145
0.0
301
CELL_VALUE
 90
4
  1
2.152 lb.
304
ACVALUE_END
170
5
140
0.125
171
1
172
0
173
0
174
0
175
1
176
1
 91
33
178
0
145
0.0
301
CELL_VALUE
 90
4
  1
0,976 kg.
304
ACVALUE_END
170
5
140
0.125
  0
ACAD_TABLE
  5
288
100
AcDbEntity
  8
0
 62
2
  6
CONTINUOUS
100
AcDbBlockReference
  2
*T3
 10
0.52125
 20
1.709
 30
0.0
100
AcDbTable
342
       379
343
214
 11
1.0
 21
0.0
 31
0.0
 90
22
 91
4
 92
3
 93
16
 94
0
 95
0
 96
0
 41
0.05
141
0.34375
141
0.344
141
0.25
141
0.25
142
1.3
142
2.0
142
1.3
171
1
172
0
173
0
174
0
175
3
176
1
 91
33
178
0
145
0.0
301
CELL_VALUE
 90
4
  1
Port Headings
304
ACVALUE_END
170
5
140
0.145
171
1
172
0
173
1
174
0
175
1
176
1
 91
1
178
0
145
0.0
170
1
171
1
172
0
173
1
174
0
175
1
176
1
 91
1
178
0
145
0.0
170
1
171
1
172
0
173
0
174
0
175
1
176
1
 91
33
178
0
145
0.0
301
CELL_VALUE
 90
4
  1
Product
304
ACVALUE_END
170
5
140
0.145
171
1
172
0
173
0
174
0
175
1
176
1
 91
33
178
0
145
0.0
301
CELL_VALUE
 90
4
  1
Port
304
ACVALUE_END
170
5
140
0.145
171
1
172
0
173
0
174
0
175
1
176
1
 91
33
178
0
145
0.0
301
CELL_VALUE
 90
4
  1
Size
304
ACVALUE_END
170
5
140
0.145
171
1
172
0
173
0
174
0
175
1
176
1
 91
33
178
0
145
0.0
301
CELL_VALUE
 90
4
  1
WVU
304
ACVALUE_END
170
5
140
0.125
171
1
172
0
173
0
174
0
175
1
176
1
 91
33
178
0
145
0.0
301
CELL_VALUE
 90
4
  1
Ports V1 & V2
304
ACVALUE_END
170
5
140
0.125
171
1
172
0
173
0
174
0
175
1
176
1
 91
33
178
0
145
0.0
301
CELL_VALUE
 90
4
  1
1/2" NPTF
304
ACVALUE_END
170
5
140
0.125
171
1
172
0
173
0
174
0
175
1
176
1
 91
33
178
0
145
0.0
301
CELL_VALUE
 90
4
  1
WVU
304
ACVALUE_END
170
5
140
0.125
171
1
172
0
173
0
174
0
175
1
176
1
 91
33
178
0
145
0.0
301
CELL_VALUE
 90
4
  1
Gage Port
304
ACVALUE_END
170
5
140
0.125
171
1
172
0
173
0
174
0
175
1
176
1
 91
33
178
0
145
0.0
301
CELL_VALUE
 90
4
  1
1/4" NPTF
304
ACVALUE_END
170
5
140
0.125
  0
MTEXT
  5
289
100
AcDbEntity
  8
0
100
AcDbMText
 62
2
  6
CONTINUOUS
  7
STANDARD
 71
1
 72
1
 10
0.52125
 20
5.75995
 30
0.0
 11
1.0
 21
0.0
 31
0.0
 44
0.6
  3
Notes\P \P1. Important: Carefully consider\P   the maximum system pressure. The\P   pressure rating of the manifold is\P   dependent on the manifold material,\P   with the port type/size a secondary\P   consideration. Manifolds\P   constructed of alu
  1
minum are not\P   rated for pressures higher than\P   3000 psi (210 bar), regardless of\P   the port type/size specified.
 40
0.1
 41
3.04
  0
LINE
  5
28A
100
AcDbEntity
  8
0
100
AcDbLine
 62
7
  6
CONTINUOUS
 10
0.30125
 20
0.30125
 11
0.30125
 21
16.69875
  0
LINE
  5
28B
100
AcDbEntity
  8
0
100
AcDbLine
 62
7
  6
CONTINUOUS
 10
0.30125
 20
0.30125
 11
21.69875
 21
0.30125
  0
LINE
  5
28C
100
AcDbEntity
  8
0
100
AcDbLine
 62
7
  6
CONTINUOUS
 10
0.30125
 20
16.69875
 11
21.69875
 21
16.69875
  0
LINE
  5
28D
100
AcDbEntity
  8
0
100
AcDbLine
 62
7
  6
CONTINUOUS
 10
21.69875
 20
0.30125
 11
21.69875
 21
16.69875
  0
LINE
  5
28E
100
AcDbEntity
  8
0
100
AcDbLine
 62
7
  6
CONTINUOUS
 10
9.5604251469
 20
10.6705884197
 11
9.0588342608
 21
10.1860887999
  0
LINE
  5
28F
100
AcDbEntity
  8
0
100
AcDbLine
 62
7
  6
CONTINUOUS
 10
9.0588342608
 20
10.1860887999
 11
9.0588342608
 21
6.5638667367
  0
LINE
  5
290
100
AcDbEntity
  8
0
100
AcDbLine
 62
7
  6
CONTINUOUS
 10
9.0588342608
 20
6.5638667367
 11
12.4395748531
 21
6.3294115803
  0
LINE
  5
291
100
AcDbEntity
  8
0
100
AcDbLine
 62
4
  6
CONTINUOUS
 10
9.6770268088
 20
9.7809947948
 11
9.7132490287
 21
9.8943938787
  0
LINE
  5
292
100
AcDbEntity
  8
0
100
AcDbLine
 62
4
  6
CONTINUOUS
 10
9.7929379123
 20
9.8888674359
 11
9.7929379123
 21
9.7729563324
  0
LINE
  5
293
100
AcDbEntity
  8
0
100
AcDbLine
 62
4
  6
CONTINUOUS
 10
12.6261832189
 20
7.5149142948
 11
12.5951249598
 21
7.509752414
  0
LINE
  5
294
100
AcDbEntity
  8
0
100
AcDbLine
 62
4
  6
CONTINUOUS
 10
12.6945113889
 20
7.3518518166
 11
12.6634531298
 21
7.3549692964
  0
LINE
  5
295
100
AcDbEntity
  8
0
100
AcDbLine
 62
4
  6
CONTINUOUS
 10
12.1015007907
 20
7.5602644506
 11
12.1594563424
 21
7.5562452194
  0
LINE
  5
296
100
AcDbEntity
  8
0
100
AcDbLine
 62
4
  6
CONTINUOUS
 10
12.5435090912
 20
7.4378170185
 11
12.5139297962
 21
7.4423630542
  0
LINE
  5
297
100
AcDbEntity
  8
0
100
AcDbLine
 62
4
  6
CONTINUOUS
 10
12.6261832189
 20
7.4652381089
 11
12.6039987476
 21
7.4686476477
  0
LINE
  5
298
100
AcDbEntity
  8
0
100
AcDbLine
 62
4
  6
CONTINUOUS
 10
9.640804589
 20
9.8994179177
 11
9.6770268088
 21
9.7809947948
  0
LINE
  5
299
100
AcDbEntity
  8
0
100
AcDbLine
 62
4
  6
CONTINUOUS
 10
12.1232341225
 20
7.6746683423
 11
12.1377230105
 21
7.6736635345
  0
LINE
  5
29A
100
AcDbEntity
  8
0
100
AcDbLine
 62
4
  6
CONTINUOUS
 10
12.6261832189
 20
7.6308254052
 11
12.5951249598
 21
7.633942885
  0
LINE
  5
29B
100
AcDbEntity
  8
0
100
AcDbLine
 62
4
  6
CONTINUOUS
 10
12.5050560085
 20
7.8560392161
 11
12.5072744563
 21
7.8554222947
  0
LINE
  5
29C
100
AcDbEntity
  8
0
100
AcDbLine
 62
7
  6
CONTINUOUS
 10
12.9411657392
 20
10.4361332633
 11
12.4395748531
 21
9.9516336435
  0
LINE
  5
29D
100
AcDbEntity
  8
0
100
AcDbLine
 62
4
  6
CONTINUOUS
 10
12.1377230105
 20
7.6736635345
 11
12.1522118984
 21
7.6629994704
  0
LINE
  5
29E
100
AcDbEntity
  8
0
100
AcDbLine
 62
4
  6
CONTINUOUS
 10
12.1522118984
 20
7.6629994704
 11
12.1594563424
 21
7.6528378033
  0
LINE
  5
29F
100
AcDbEntity
  8
0
100
AcDbLine
 62
4
  6
CONTINUOUS
 10
11.9783452433
 20
7.6847164202
 11
12.0145674631
 21
7.5662932973
  0
LINE
  5
2A0
100
AcDbEntity
  8
0
100
AcDbLine
 62
4
  6
CONTINUOUS
 10
12.5094929024
 20
6.9413154875
 11
12.5050560085
 21
6.9535885067
  0
LINE
  5
2A1
100
AcDbEntity
  8
0
100
AcDbLine
 62
4
  6
CONTINUOUS
 10
12.5361142676
 20
7.0084265769
 11
12.5316773732
 21
7.0206995938
  0
LINE
  5
2A2
100
AcDbEntity
  8
0
100
AcDbLine
 62
4
  6
CONTINUOUS
 10
12.5361142676
 20
7.0994995916
 11
12.5316773732
 21
7.1117726017
  0
LINE
  5
2A3
100
AcDbEntity
  8
0
100
AcDbLine
 62
4
  6
CONTINUOUS
 10
12.1594563424
 20
7.6528378033
 11
12.1594563424
 21
7.6335192907
  0
LINE
  5
2A4
100
AcDbEntity
  8
0
100
AcDbLine
 62
4
  6
CONTINUOUS
 10
12.6900744945
 20
7.3006497059
 11
12.6945113889
 21
7.2883766889
  0
LINE
  5
2A5
100
AcDbEntity
  8
0
100
AcDbLine
 62
4
  6
CONTINUOUS
 10
12.1087452346
 20
7.5887398225
 11
12.1015007907
 21
7.5602644506
  0
LINE
  5
2A6
100
AcDbEntity
  8
0
100
AcDbLine
 62
4
  6
CONTINUOUS
 10
12.0145674631
 20
7.5662932973
 11
12.0507896829
 21
7.6796923813
  0
LINE
  5
2A7
100
AcDbEntity
  8
0
100
AcDbLine
 62
4
  6
CONTINUOUS
 10
12.1087452346
 20
7.6660138938
 11
12.1232341225
 21
7.6746683423
  0
LINE
  5
2A8
100
AcDbEntity
  8
0
100
AcDbLine
 62
4
  6
CONTINUOUS
 10
12.1522118984
 20
7.6243624313
 11
12.1232341225
 21
7.6070535308
  0
LINE
  5
2A9
100
AcDbEntity
  8
0
100
AcDbLine
 62
4
  6
CONTINUOUS
 10
12.8971665385
 20
7.788048225
 11
12.894578349
 21
7.7927926697
  0
LINE
  5
2AA
100
AcDbEntity
  8
0
100
AcDbLine
 62
4
  6
CONTINUOUS
 10
12.9152838557
 20
7.8055482106
 11
12.910107479
 21
7.8150371023
  0
LINE
  5
2AB
100
AcDbEntity
  8
0
100
AcDbLine
 62
4
  6
CONTINUOUS
 10
12.5161482441
 20
7.9081503242
 11
12.5139297962
 21
7.9142868009
  0
LINE
  5
2AC
100
AcDbEntity
  8
0
100
AcDbLine
 62
4
  6
CONTINUOUS
 10
12.5161482441
 20
7.9826646523
 11
12.5139297962
 21
7.9888011291
  0
LINE
  5
2AD
100
AcDbEntity
  8
0
100
AcDbLine
 62
4
  6
CONTINUOUS
 10
12.6261832189
 20
7.7356973565
 11
12.6217463245
 21
7.7479703666
  0
LINE
  5
2AE
100
AcDbEntity
  8
0
100
AcDbLine
 62
4
  6
CONTINUOUS
 10
12.5361142676
 20
8.0433471264
 11
12.5338958204
 21
8.0494836038
  0
LINE
  5
2AF
100
AcDbEntity
  8
0
100
AcDbLine
 62
4
  6
CONTINUOUS
 10
12.6678900237
 20
7.6987089844
 11
12.6634531298
 21
7.710981995
  0
LINE
  5
2B0
100
AcDbEntity
  8
0
100
AcDbLine
 62
4
  6
CONTINUOUS
 10
12.6678900237
 20
7.7953015338
 11
12.6634531298
 21
7.8075745443
  0
LINE
  5
2B1
100
AcDbEntity
  8
0
100
AcDbLine
 62
4
  6
CONTINUOUS
 10
12.6900744945
 20
7.8746856401
 11
12.6945113889
 21
7.86241263
  0
LINE
  5
2B2
100
AcDbEntity
  8
0
100
AcDbLine
 62
4
  6
CONTINUOUS
 10
12.5161482441
 20
7.4665842422
 11
12.5139297962
 21
7.4810001071
  0
LINE
  5
2B3
100
AcDbEntity
  8
0
100
AcDbLine
 62
4
  6
CONTINUOUS
 10
12.5272404788
 20
7.6346064528
 11
12.5250220319
 21
7.6490223186
  0
LINE
  5
2B4
100
AcDbEntity
  8
0
100
AcDbLine
 62
7
  6
CONTINUOUS
 10
12.4395748531
 20
6.3294115803
 11
12.4395748531
 21
9.9516336435
  0
LINE
  5
2B5
100
AcDbEntity
  8
0
100
AcDbLine
 62
4
  6
CONTINUOUS
 10
12.5050560085
 20
6.9535885067
 11
12.5050560085
 21
6.9867059646
  0
LINE
  5
2B6
100
AcDbEntity
  8
0
100
AcDbLine
 62
4
  6
CONTINUOUS
 10
12.5050560085
 20
7.8532794385
 11
12.5050560085
 21
7.8560392161
  0
LINE
  5
2B7
100
AcDbEntity
  8
0
100
AcDbLine
 62
4
  6
CONTINUOUS
 10
12.5139297962
 20
7.6631461505
 11
12.5139297962
 21
7.62174932
  0
LINE
  5
2B8
100
AcDbEntity
  8
0
100
AcDbLine
 62
4
  6
CONTINUOUS
 10
12.5139297962
 20
7.3098932296
 11
12.5139297962
 21
7.3512900602
  0
LINE
  5
2B9
100
AcDbEntity
  8
0
100
AcDbLine
 62
4
  6
CONTINUOUS
 10
12.5139297962
 20
7.4810001071
 11
12.5139297962
 21
7.5141175495
  0
LINE
  5
2BA
100
AcDbEntity
  8
0
100
AcDbLine
 62
4
  6
CONTINUOUS
 10
12.5139297962
 20
7.5472350471
 11
12.5139297962
 21
7.5803524894
  0
LINE
  5
2BB
100
AcDbEntity
  8
0
100
AcDbLine
 62
4
  6
CONTINUOUS
 10
12.5139297962
 20
7.9142868009
 11
12.5139297962
 21
7.9474043538
  0
LINE
  5
2BC
100
AcDbEntity
  8
0
100
AcDbLine
 62
4
  6
CONTINUOUS
 10
12.5139297962
 20
7.9888011291
 11
12.5139297962
 21
8.0219185714
  0
LINE
  5
2BD
100
AcDbEntity
  8
0
100
AcDbLine
 62
4
  6
CONTINUOUS
 10
12.5250220319
 20
7.6490223186
 11
12.5250220319
 21
7.682139761
  0
LINE
  5
2BE
100
AcDbEntity
  8
0
100
AcDbLine
 62
4
  6
CONTINUOUS
 10
12.5361142676
 20
7.9688329088
 11
12.5361142676
 21
7.935715356
  0
LINE
  5
2BF
100
AcDbEntity
  8
0
100
AcDbLine
 62
4
  6
CONTINUOUS
 10
12.5361142676
 20
7.8336032513
 11
12.5361142676
 21
7.8170445302
  0
LINE
  5
2C0
100
AcDbEntity
  8
0
100
AcDbLine
 62
4
  6
CONTINUOUS
 10
12.5361142676
 20
7.6928540385
 11
12.5361142676
 21
7.6597365962
  0
LINE
  5
2C1
100
AcDbEntity
  8
0
100
AcDbLine
 62
4
  6
CONTINUOUS
 10
12.5361142676
 20
7.5355461045
 11
12.5361142676
 21
7.5024286622
  0
LINE
  5
2C2
100
AcDbEntity
  8
0
100
AcDbLine
 62
4
  6
CONTINUOUS
 10
12.5361142676
 20
6.9753091181
 11
12.5361142676
 21
7.0084265769
  0
LINE
  5
2C3
100
AcDbEntity
  8
0
100
AcDbLine
 62
4
  6
CONTINUOUS
 10
12.5361142676
 20
7.0746614892
 11
12.5361142676
 21
7.0994995916
  0
LINE
  5
2C4
100
AcDbEntity
  8
0
100
AcDbLine
 62
4
  6
CONTINUOUS
 10
12.5361142676
 20
7.7342508691
 11
12.5361142676
 21
7.7756476996
  0
LINE
  5
2C5
100
AcDbEntity
  8
0
100
AcDbLine
 62
4
  6
CONTINUOUS
 10
12.5361142676
 20
8.0102296841
 11
12.5361142676
 21
8.0433471264
  0
LINE
  5
2C6
100
AcDbEntity
  8
0
100
AcDbLine
 62
4
  6
CONTINUOUS
 10
12.5435090912
 20
7.4212582973
 11
12.5435090912
 21
7.4378170185
  0
LINE
  5
2C7
100
AcDbEntity
  8
0
100
AcDbLine
 62
4
  6
CONTINUOUS
 10
12.5257615142
 20
8.033347134
 11
12.5242825496
 21
7.9988011215
  0
LINE
  5
2C8
100
AcDbEntity
  8
0
100
AcDbLine
 62
4
  6
CONTINUOUS
 10
12.5272404788
 20
8.0430550372
 11
12.5257615142
 21
8.033347134
  0
LINE
  5
2C9
100
AcDbEntity
  8
0
100
AcDbLine
 62
4
  6
CONTINUOUS
 10
12.1015007907
 20
7.6568570345
 11
12.1087452346
 21
7.6660138938
  0
LINE
  5
2CA
100
AcDbEntity
  8
0
100
AcDbLine
 62
4
  6
CONTINUOUS
 10
12.1232341225
 20
7.6070535308
 11
12.1087452346
 21
7.5887398225
  0
LINE
  5
2CB
100
AcDbEntity
  8
0
100
AcDbLine
 62
4
  6
CONTINUOUS
 10
12.1594563424
 20
7.6335192907
 11
12.1522118984
 21
7.6243624313
  0
LINE
  5
2CC
100
AcDbEntity
  8
0
100
AcDbLine
 62
4
  6
CONTINUOUS
 10
12.5338958204
 20
8.0494836038
 11
12.5272404788
 21
8.0430550372
  0
LINE
  5
2CD
100
AcDbEntity
  8
0
100
AcDbLine
 62
4
  6
CONTINUOUS
 10
12.522803585
 20
7.9890932183
 11
12.5161482441
 21
7.9826646523
  0
LINE
  5
2CE
100
AcDbEntity
  8
0
100
AcDbLine
 62
4
  6
CONTINUOUS
 10
12.5338958204
 20
7.9252931675
 11
12.5161482441
 21
7.9081503242
  0
LINE
  5
2CF
100
AcDbEntity
  8
0
100
AcDbLine
 62
4
  6
CONTINUOUS
 10
12.5361142676
 20
7.8832794148
 11
12.5139297962
 21
7.8618508598
  0
LINE
  5
2D0
100
AcDbEntity
  8
0
100
AcDbLine
 62
4
  6
CONTINUOUS
 10
12.5072744563
 20
7.8554222947
 11
12.5050560085
 21
7.8532794385
  0
LINE
  5
2D1
100
AcDbEntity
  8
0
100
AcDbLine
 62
4
  6
CONTINUOUS
 10
12.6945113889
 20
8.0169607864
 11
12.6634531298
 21
7.98696081
  0
LINE
  5
2D2
100
AcDbEntity
  8
0
100
AcDbLine
 62
4
  6
CONTINUOUS
 10
12.6678900237
 20
7.9443300796
 11
12.6900744945
 21
7.9657586342
  0
LINE
  5
2D3
100
AcDbEntity
  8
0
100
AcDbLine
 62
4
  6
CONTINUOUS
 10
12.5338958204
 20
7.8066222864
 11
12.5050560085
 21
7.7787651656
  0
LINE
  5
2D4
100
AcDbEntity
  8
0
100
AcDbLine
 62
7
  6
CONTINUOUS
 10
12.4395748531
 20
9.9516336435
 11
9.0588342608
 21
10.1860887999
  0
LINE
  5
2D5
100
AcDbEntity
  8
0
100
AcDbLine
 62
4
  6
CONTINUOUS
 10
12.6900744945
 20
7.9657586342
 11
12.6945113889
 21
7.9534856241
  0
LINE
  5
2D6
100
AcDbEntity
  8
0
100
AcDbLine
 62
4
  6
CONTINUOUS
 10
12.6752848468
 20
7.20633015
 11
12.6812007063
 21
7.1678878201
  0
LINE
  5
2D7
100
AcDbEntity
  8
0
100
AcDbLine
 62
4
  6
CONTINUOUS
 10
12.6261832189
 20
7.7108592471
 11
12.6261832189
 21
7.7356973565
  0
LINE
  5
2D8
100
AcDbEntity
  8
0
100
AcDbLine
 62
4
  6
CONTINUOUS
 10
12.6634531298
 20
7.2169798958
 11
12.6634531298
 21
7.2583767126
  0
LINE
  5
2D9
100
AcDbEntity
  8
0
100
AcDbLine
 62
4
  6
CONTINUOUS
 10
12.6634531298
 20
7.4212042087
 11
12.6634531298
 21
7.487439121
  0
LINE
  5
2DA
100
AcDbEntity
  8
0
100
AcDbLine
 62
4
  6
CONTINUOUS
 10
12.6634531298
 20
7.520556591
 11
12.6634531298
 21
7.5702327821
  0
LINE
  5
2DB
100
AcDbEntity
  8
0
100
AcDbLine
 62
4
  6
CONTINUOUS
 10
12.6634531298
 20
7.710981995
 11
12.6634531298
 21
7.7440994373
  0
LINE
  5
2DC
100
AcDbEntity
  8
0
100
AcDbLine
 62
4
  6
CONTINUOUS
 10
12.6634531298
 20
7.8075745443
 11
12.6634531298
 21
7.8324126537
  0
LINE
  5
2DD
100
AcDbEntity
  8
0
100
AcDbLine
 62
4
  6
CONTINUOUS
 10
12.6634531298
 20
7.8820888172
 11
12.6634531298
 21
7.9234856477
  0
LINE
  5
2DE
100
AcDbEntity
  8
0
100
AcDbLine
 62
4
  6
CONTINUOUS
 10
12.6634531298
 20
7.98696081
 11
12.6634531298
 21
8.0366369735
  0
LINE
  5
2DF
100
AcDbEntity
  8
0
100
AcDbLine
 62
4
  6
CONTINUOUS
 10
12.6767638115
 20
8.0329353843
 11
12.6767638115
 21
7.999817942
  0
LINE
  5
2E0
100
AcDbEntity
  8
0
100
AcDbLine
 62
4
  6
CONTINUOUS
 10
12.6767638115
 20
7.5665311929
 11
12.6767638115
 21
7.533413723
  0
LINE
  5
2E1
100
AcDbEntity
  8
0
100
AcDbLine
 62
4
  6
CONTINUOUS
 10
12.6856376002
 20
7.3543195465
 11
12.6856376002
 21
7.3984761547
  0
LINE
  5
2E2
100
AcDbEntity
  8
0
100
AcDbLine
 62
4
  6
CONTINUOUS
 10
12.6945113889
 20
7.9534856241
 11
12.6945113889
 21
7.9120887935
  0
LINE
  5
2E3
100
AcDbEntity
  8
0
100
AcDbLine
 62
4
  6
CONTINUOUS
 10
12.6945113889
 20
7.86241263
 11
12.6945113889
 21
7.8375745207
  0
LINE
  5
2E4
100
AcDbEntity
  8
0
100
AcDbLine
 62
4
  6
CONTINUOUS
 10
12.6945113889
 20
7.7740994136
 11
12.6945113889
 21
7.7409819713
  0
LINE
  5
2E5
100
AcDbEntity
  8
0
100
AcDbLine
 62
4
  6
CONTINUOUS
 10
12.6945113889
 20
7.2883766889
 11
12.6945113889
 21
7.2469798722
  0
LINE
  5
2E6
100
AcDbEntity
  8
0
100
AcDbLine
 62
4
  6
CONTINUOUS
 10
12.6945113889
 20
7.5505565674
 11
12.6945113889
 21
7.6002327585
  0
LINE
  5
2E7
100
AcDbEntity
  8
0
100
AcDbLine
 62
4
  6
CONTINUOUS
 10
12.6945113889
 20
8.0169607864
 11
12.6945113889
 21
8.0666369499
  0
LINE
  5
2E8
100
AcDbEntity
  8
0
100
AcDbLine
 62
4
  6
CONTINUOUS
 10
12.5361142676
 20
7.6597365962
 11
12.5338958204
 21
7.6410350195
  0
LINE
  5
2E9
100
AcDbEntity
  8
0
100
AcDbLine
 62
4
  6
CONTINUOUS
 10
12.5361142676
 20
7.5024286622
 11
12.5338958204
 21
7.4837270855
  0
LINE
  5
2EA
100
AcDbEntity
  8
0
100
AcDbLine
 62
4
  6
CONTINUOUS
 10
12.6752848468
 20
8.0811829776
 11
12.6812007063
 21
8.1310538676
  0
LINE
  5
2EB
100
AcDbEntity
  8
0
100
AcDbLine
 62
4
  6
CONTINUOUS
 10
12.5242825496
 20
7.9988011215
 11
12.522803585
 21
7.9890932183
  0
LINE
  5
2EC
100
AcDbEntity
  8
0
100
AcDbLine
 62
4
  6
CONTINUOUS
 10
12.5139297962
 20
8.0219185714
 11
12.5161482441
 21
8.0323407606
  0
LINE
  5
2ED
100
AcDbEntity
  8
0
100
AcDbLine
 62
4
  6
CONTINUOUS
 10
12.5338958204
 20
7.9998074956
 11
12.5361142676
 21
8.0102296841
  0
LINE
  5
2EE
100
AcDbEntity
  8
0
100
AcDbLine
 62
4
  6
CONTINUOUS
 10
12.5361142676
 20
7.935715356
 11
12.5338958204
 21
7.9252931675
  0
LINE
  5
2EF
100
AcDbEntity
  8
0
100
AcDbLine
 62
4
  6
CONTINUOUS
 10
12.5361142676
 20
7.8170445302
 11
12.5338958204
 21
7.8066222864
  0
LINE
  5
2F0
100
AcDbEntity
  8
0
100
AcDbLine
 62
4
  6
CONTINUOUS
 10
12.5338958204
 20
7.7238286253
 11
12.5361142676
 21
7.7342508691
  0
LINE
  5
2F1
100
AcDbEntity
  8
0
100
AcDbLine
 62
4
  6
CONTINUOUS
 10
12.5139297962
 20
7.3512900602
 11
12.5161482441
 21
7.361712277
  0
LINE
  5
2F2
100
AcDbEntity
  8
0
100
AcDbLine
 62
4
  6
CONTINUOUS
 10
12.6634531298
 20
7.9234856477
 11
12.6678900237
 21
7.9443300796
  0
LINE
  5
2F3
100
AcDbEntity
  8
0
100
AcDbLine
 62
4
  6
CONTINUOUS
 10
12.6217463245
 20
7.6900148149
 11
12.6261832189
 21
7.7108592471
  0
LINE
  5
2F4
100
AcDbEntity
  8
0
100
AcDbLine
 62
4
  6
CONTINUOUS
 10
12.6634531298
 20
7.8324126537
 11
12.6678900237
 21
7.8532570855
  0
LINE
  5
2F5
100
AcDbEntity
  8
0
100
AcDbLine
 62
4
  6
CONTINUOUS
 10
12.5139297962
 20
7.5803524894
 11
12.5161482441
 21
7.5880149009
  0
LINE
  5
2F6
100
AcDbEntity
  8
0
100
AcDbLine
 62
4
  6
CONTINUOUS
 10
12.5183666901
 20
7.6757111941
 11
12.5139297962
 21
7.6631461505
  0
LINE
  5
2F7
100
AcDbEntity
  8
0
100
AcDbLine
 62
4
  6
CONTINUOUS
 10
12.5361142676
 20
7.7756476996
 11
12.5139297962
 21
7.7542191446
  0
LINE
  5
2F8
100
AcDbEntity
  8
0
100
AcDbLine
 62
4
  6
CONTINUOUS
 10
12.6945113889
 20
7.9120887935
 11
12.6634531298
 21
7.8820888172
  0
LINE
  5
2F9
100
AcDbEntity
  8
0
100
AcDbLine
 62
4
  6
CONTINUOUS
 10
12.5139297962
 20
7.7045429258
 11
12.5338958204
 21
7.7238286253
  0
LINE
  5
2FA
100
AcDbEntity
  8
0
100
AcDbLine
 62
4
  6
CONTINUOUS
 10
12.6678900237
 20
7.8532570855
 11
12.6900744945
 21
7.8746856401
  0
LINE
  5
2FB
100
AcDbEntity
  8
0
100
AcDbLine
 62
4
  6
CONTINUOUS
 10
12.5361142676
 20
7.6928540385
 11
12.5183666901
 21
7.6757111941
  0
LINE
  5
2FC
100
AcDbEntity
  8
0
100
AcDbLine
 62
4
  6
CONTINUOUS
 10
12.6900744945
 20
7.8167300884
 11
12.6678900237
 21
7.7953015338
  0
LINE
  5
2FD
100
AcDbEntity
  8
0
100
AcDbLine
 62
4
  6
CONTINUOUS
 10
12.6217463245
 20
7.7479703666
 11
12.5951249598
 21
7.7222561013
  0
LINE
  5
2FE
100
AcDbEntity
  8
0
100
AcDbLine
 62
4
  6
CONTINUOUS
 10
12.5338958204
 20
7.6410350195
 11
12.5272404788
 21
7.6346064528
  0
LINE
  5
2FF
100
AcDbEntity
  8
0
100
AcDbLine
 62
4
  6
CONTINUOUS
 10
12.5161482441
 20
7.5880149009
 11
12.520585138
 21
7.5923006116
  0
LINE
  5
300
100
AcDbEntity
  8
0
100
AcDbLine
 62
4
  6
CONTINUOUS
 10
12.5951249598
 20
7.6643005496
 11
12.6217463245
 21
7.6900148149
  0
LINE
  5
301
100
AcDbEntity
  8
0
100
AcDbLine
 62
4
  6
CONTINUOUS
 10
12.6900744945
 20
7.720137539
 11
12.6678900237
 21
7.6987089844
  0
LINE
  5
302
100
AcDbEntity
  8
0
100
AcDbLine
 62
4
  6
CONTINUOUS
 10
12.5361142676
 20
7.5686636021
 11
12.5139297962
 21
7.5472350471
  0
LINE
  5
303
100
AcDbEntity
  8
0
100
AcDbLine
 62
4
  6
CONTINUOUS
 10
12.5050560085
 20
7.5055461282
 11
12.5361142676
 21
7.5355461045
  0
LINE
  5
304
100
AcDbEntity
  8
0
100
AcDbLine
 62
4
  6
CONTINUOUS
 10
12.6812007063
 20
8.1310538676
 11
12.6871165653
 21
8.0926115407
  0
LINE
  5
305
100
AcDbEntity
  8
0
100
AcDbLine
 62
4
  6
CONTINUOUS
 10
12.8842255966
 20
7.7755482343
 11
12.8842255966
 21
7.7248371265
  0
LINE
  5
306
100
AcDbEntity
  8
0
100
AcDbLine
 62
4
  6
CONTINUOUS
 10
12.8971665385
 20
7.7373371172
 11
12.8971665385
 21
7.788048225
  0
LINE
  5
307
100
AcDbEntity
  8
0
100
AcDbLine
 62
4
  6
CONTINUOUS
 10
12.9152838557
 20
7.7548371028
 11
12.9152838557
 21
7.8055482106
  0
LINE
  5
308
100
AcDbEntity
  8
0
100
AcDbLine
 62
7
  6
CONTINUOUS
 10
12.9411657392
 20
6.8139112001
 11
12.9411657392
 21
10.4361332633
  0
LINE
  5
309
100
AcDbEntity
  8
0
100
AcDbLine
 62
4
  6
CONTINUOUS
 10
12.6812007063
 20
7.1678878201
 11
12.6871165653
 21
7.2177587131
  0
LINE
  5
30A
100
AcDbEntity
  8
0
100
AcDbLine
 62
4
  6
CONTINUOUS
 10
12.5272404788
 20
7.0164138827
 11
12.5139297962
 21
6.9456011982
  0
LINE
  5
30B
100
AcDbEntity
  8
0
100
AcDbLine
 62
4
  6
CONTINUOUS
 10
12.5050560085
 20
6.9867059646
 11
12.5072744563
 21
6.9971281848
  0
LINE
  5
30C
100
AcDbEntity
  8
0
100
AcDbLine
 62
4
  6
CONTINUOUS
 10
12.6945113889
 20
7.8375745207
 11
12.6900744945
 21
7.8167300884
  0
LINE
  5
30D
100
AcDbEntity
  8
0
100
AcDbLine
 62
4
  6
CONTINUOUS
 10
12.5316773732
 20
7.05381705
 11
12.5361142676
 21
7.0746614892
  0
LINE
  5
30E
100
AcDbEntity
  8
0
100
AcDbLine
 62
4
  6
CONTINUOUS
 10
12.6945113889
 20
7.7409819713
 11
12.6900744945
 21
7.720137539
  0
LINE
  5
30F
100
AcDbEntity
  8
0
100
AcDbLine
 62
4
  6
CONTINUOUS
 10
12.5338958204
 20
6.9648868977
 11
12.5361142676
 21
6.9753091181
  0
LINE
  5
310
100
AcDbEntity
  8
0
100
AcDbLine
 62
4
  6
CONTINUOUS
 10
12.6634531298
 20
7.2583767126
 11
12.6678900237
 21
7.2792211513
  0
LINE
  5
311
100
AcDbEntity
  8
0
100
AcDbLine
 62
4
  6
CONTINUOUS
 10
12.5050560085
 20
7.1191757926
 11
12.5361142676
 21
7.2071313207
  0
LINE
  5
312
100
AcDbEntity
  8
0
100
AcDbLine
 62
4
  6
CONTINUOUS
 10
12.5139297962
 20
7.3926868907
 11
12.5361142676
 21
7.4389535552
  0
LINE
  5
313
100
AcDbEntity
  8
0
100
AcDbLine
 62
4
  6
CONTINUOUS
 10
12.6039987476
 20
7.4686476477
 11
12.6261832189
 21
7.5149142948
  0
LINE
  5
314
100
AcDbEntity
  8
0
100
AcDbLine
 62
4
  6
CONTINUOUS
 10
12.5951249598
 20
7.5677079588
 11
12.6261832189
 21
7.6308254052
  0
LINE
  5
315
100
AcDbEntity
  8
0
100
AcDbLine
 62
4
  6
CONTINUOUS
 10
12.5951249598
 20
7.4104000387
 11
12.6261832189
 21
7.4652381089
  0
LINE
  5
316
100
AcDbEntity
  8
0
100
AcDbLine
 62
4
  6
CONTINUOUS
 10
12.5338958204
 20
7.4837270855
 11
12.5161482441
 21
7.4665842422
  0
LINE
  5
317
100
AcDbEntity
  8
0
100
AcDbLine
 62
4
  6
CONTINUOUS
 10
12.910107479
 20
7.8150371023
 11
12.9023429147
 21
7.8075371087
  0
LINE
  5
318
100
AcDbEntity
  8
0
100
AcDbLine
 62
4
  6
CONTINUOUS
 10
12.894578349
 20
7.7927926697
 11
12.8868137842
 21
7.7852926756
  0
LINE
  5
319
100
AcDbEntity
  8
0
100
AcDbLine
 62
4
  6
CONTINUOUS
 10
12.6945113889
 20
7.5505565674
 11
12.6634531298
 21
7.520556591
  0
LINE
  5
31A
100
AcDbEntity
  8
0
100
AcDbLine
 62
4
  6
CONTINUOUS
 10
12.8842255966
 20
7.7248371265
 11
12.9152838557
 21
7.7548371028
  0
LINE
  5
31B
100
AcDbEntity
  8
0
100
AcDbLine
 62
4
  6
CONTINUOUS
 10
12.5161482441
 20
7.361712277
 11
12.5361142676
 21
7.3809979758
  0
LINE
  5
31C
100
AcDbEntity
  8
0
100
AcDbLine
 62
4
  6
CONTINUOUS
 10
12.6945113889
 20
7.4843216551
 11
12.6634531298
 21
7.4543216787
  0
LINE
  5
31D
100
AcDbEntity
  8
0
100
AcDbLine
 62
4
  6
CONTINUOUS
 10
12.5361142676
 20
7.3313217847
 11
12.5050560085
 21
7.3013218083
  0
LINE
  5
31E
100
AcDbEntity
  8
0
100
AcDbLine
 62
4
  6
CONTINUOUS
 10
12.8868137842
 20
7.7852926756
 11
12.8842255966
 21
7.7755482343
  0
LINE
  5
31F
100
AcDbEntity
  8
0
100
AcDbLine
 62
4
  6
CONTINUOUS
 10
12.9023429147
 20
7.8075371087
 11
12.8971665385
 21
7.788048225
  0
LINE
  5
320
100
AcDbEntity
  8
0
100
AcDbLine
 62
4
  6
CONTINUOUS
 10
12.6634531298
 20
7.3549692964
 11
12.6945113889
 21
7.4180867428
  0
LINE
  5
321
100
AcDbEntity
  8
0
100
AcDbLine
 62
4
  6
CONTINUOUS
 10
12.5361142676
 20
7.2071313207
 11
12.5050560085
 21
7.1771313443
  0
LINE
  5
322
100
AcDbEntity
  8
0
100
AcDbLine
 62
4
  6
CONTINUOUS
 10
12.6678900237
 20
7.2792211513
 11
12.6900744945
 21
7.3006497059
  0
LINE
  5
323
100
AcDbEntity
  8
0
100
AcDbLine
 62
4
  6
CONTINUOUS
 10
12.5361142676
 20
7.149175769
 11
12.5050560085
 21
7.1191757926
  0
LINE
  5
324
100
AcDbEntity
  8
0
100
AcDbLine
 62
4
  6
CONTINUOUS
 10
12.5316773732
 20
7.1117726017
 11
12.5050560085
 21
7.0860583365
  0
LINE
  5
325
100
AcDbEntity
  8
0
100
AcDbLine
 62
4
  6
CONTINUOUS
 10
12.6945113889
 20
7.2469798722
 11
12.6634531298
 21
7.2169798958
  0
LINE
  5
326
100
AcDbEntity
  8
0
100
AcDbLine
 62
4
  6
CONTINUOUS
 10
12.5050560085
 20
7.0281027847
 11
12.5316773732
 21
7.05381705
  0
LINE
  5
327
100
AcDbEntity
  8
0
100
AcDbLine
 62
4
  6
CONTINUOUS
 10
12.5316773732
 20
7.0206995938
 11
12.5272404788
 21
7.0164138827
  0
LINE
  5
328
100
AcDbEntity
  8
0
100
AcDbLine
 62
7
  6
CONTINUOUS
 10
12.9411657392
 20
10.4361332633
 11
9.5604251469
 21
10.6705884197
  0
LINE
  5
329
100
AcDbEntity
  8
0
100
AcDbLine
 62
4
  6
CONTINUOUS
 10
12.5139297962
 20
6.9456011982
 11
12.5094929024
 21
6.9413154875
  0
LINE
  5
32A
100
AcDbEntity
  8
0
100
AcDbLine
 62
7
  6
CONTINUOUS
 10
12.9411657392
 20
6.8139112001
 11
12.4395748531
 21
6.3294115803
  0
ARC
  5
32B
100
AcDbEntity
  8
0
100
AcDbCircle
 62
7
  6
CONTINUOUS
 10
12.6437500778
 20
8.8902241674
 40
0.07859903
100
AcDbArc
 50
313.3145159562
 51
314.0100066903
  0
SPLINE
  5
32C
100
AcDbEntity
  8
0
100
AcDbSpline
 62
7
  6
CONTINUOUS
 70
0
 71
3
 72
23
 73
19
 74
0
 42
0.0000001
 43
0.0000001
 44
0.0000000001
 40
0.0
 40
0.0
 40
0.0
 40
0.0
 40
0.0637766017
 40
0.1273450758
 40
0.1907019811
 40
0.2538560972
 40
0.3168132288
 40
0.3795820869
 40
0.442173391
 40
0.5045993435
 40
0.5668738649
 40
0.6290123754
 40
0.6910316459
 40
0.7529496407
 40
0.8147853465
 40
0.8765585942
 40
0.9382898499
 40
1.0
 40
1.0
 40
1.0
 40
1.0
 10
10.6434356727
 20
9.7101104011
 30
0.0
 10
10.6434356727
 20
9.7060140761
 30
0.0
 10
10.6432395884
 20
9.6978334065
 30
0.0
 10
10.6423546512
 20
9.6856121831
 30
0.0
 10
10.6408811842
 20
9.673487812
 30
0.0
 10
10.6388227397
 20
9.6614888155
 30
0.0
 10
10.636183908
 20
9.6496425877
 30
0.0
 10
10.6329708008
 20
9.6379765144
 30
0.0
 10
10.6291908121
 20
9.6265174751
 30
0.0
 10
10.6248525912
 20
9.6152919026
 30
0.0
 10
10.6199661233
 20
9.6043256909
 30
0.0
 10
10.6145426808
 20
9.593644121
 30
0.0
 10
10.6085947495
 20
9.583271834
 30
0.0
 10
10.6021359946
 20
9.5732327723
 30
0.0
 10
10.5951813392
 20
9.5635501091
 30
0.0
 10
10.5877467482
 20
9.5542460961
 30
0.0
 10
10.5798496596
 20
9.5453424829
 30
0.0
 10
10.5742876506
 20
9.5396863682
 30
0.0
 10
10.5714368081
 20
9.5369326783
 30
0.0
  0
SPLINE
  5
32D
100
AcDbEntity
  8
0
100
AcDbSpline
 62
7
  6
CONTINUOUS
 70
0
 71
3
 72
23
 73
19
 74
0
 42
0.0000001
 43
0.0000001
 44
0.0000000001
 40
0.0
 40
0.0
 40
0.0
 40
0.0
 40
0.0637766017
 40
0.1273450758
 40
0.1907019811
 40
0.2538560972
 40
0.3168132288
 40
0.3795820869
 40
0.442173391
 40
0.5045993435
 40
0.5668738649
 40
0.6290123754
 40
0.6910316459
 40
0.7529496407
 40
0.8147853465
 40
0.8765585942
 40
0.9382898499
 40
1.0
 40
1.0
 40
1.0
 40
1.0
 10
10.6434356727
 20
8.189743117
 30
0.0
 10
10.6434356727
 20
8.1856467921
 30
0.0
 10
10.6432395884
 20
8.1774661225
 30
0.0
 10
10.6423546512
 20
8.1652448991
 30
0.0
 10
10.6408811842
 20
8.153120528
 30
0.0
 10
10.6388227397
 20
8.1411215314
 30
0.0
 10
10.636183908
 20
8.1292753037
 30
0.0
 10
10.6329708008
 20
8.1176092304
 30
0.0
 10
10.6291908121
 20
8.1061501911
 30
0.0
 10
10.6248525912
 20
8.0949246186
 30
0.0
 10
10.6199661233
 20
8.0839584069
 30
0.0
 10
10.6145426808
 20
8.073276837
 30
0.0
 10
10.6085947495
 20
8.06290455
 30
0.0
 10
10.6021359946
 20
8.0528654883
 30
0.0
 10
10.5951813392
 20
8.043182825
 30
0.0
 10
10.5877467482
 20
8.0338788121
 30
0.0
 10
10.5798496596
 20
8.0249751989
 30
0.0
 10
10.5742876506
 20
8.0193190842
 30
0.0
 10
10.5714368081
 20
8.0165653942
 30
0.0
  0
SPLINE
  5
32E
100
AcDbEntity
  8
0
100
AcDbSpline
 62
7
  6
CONTINUOUS
 70
0
 71
3
 72
23
 73
19
 74
0
 42
0.0000001
 43
0.0000001
 44
0.0000000001
 40
0.0
 40
0.0
 40
0.0
 40
0.0
 40
0.0637766017
 40
0.1273450758
 40
0.1907019811
 40
0.2538560972
 40
0.3168132288
 40
0.3795820869
 40
0.442173391
 40
0.5045993435
 40
0.5668738649
 40
0.6290123754
 40
0.6910316459
 40
0.7529496407
 40
0.8147853465
 40
0.8765585942
 40
0.9382898499
 40
1.0
 40
1.0
 40
1.0
 40
1.0
 10
12.0121527031
 20
8.2474385508
 30
0.0
 10
12.0121527031
 20
8.2433422259
 30
0.0
 10
12.0119566188
 20
8.2351615563
 30
0.0
 10
12.0110716816
 20
8.2229403328
 30
0.0
 10
12.0095982146
 20
8.2108159618
 30
0.0
 10
12.00753977
 20
8.1988169652
 30
0.0
 10
12.0049009383
 20
8.1869707375
 30
0.0
 10
12.0016878311
 20
8.1753046642
 30
0.0
 10
11.9979078425
 20
8.1638456249
 30
0.0
 10
11.9935696216
 20
8.1526200524
 30
0.0
 10
11.9886831537
 20
8.1416538407
 30
0.0
 10
11.9832597112
 20
8.1309722708
 30
0.0
 10
11.9773117799
 20
8.1205999838
 30
0.0
 10
11.970853025
 20
8.1105609221
 30
0.0
 10
11.9638983696
 20
8.1008782588
 30
0.0
 10
11.9564637786
 20
8.0915742459
 30
0.0
 10
11.94856669
 20
8.0826706327
 30
0.0
 10
11.943004681
 20
8.077014518
 30
0.0
 10
11.9401538385
 20
8.074260828
 30
0.0
  0
SPLINE
  5
32F
100
AcDbEntity
  8
0
100
AcDbSpline
 62
7
  6
CONTINUOUS
 70
0
 71
3
 72
23
 73
19
 74
0
 42
0.0000001
 43
0.0000001
 44
0.0000000001
 40
0.0
 40
0.0
 40
0.0
 40
0.0
 40
0.0637766017
 40
0.1273450758
 40
0.1907019811
 40
0.2538560972
 40
0.3168132288
 40
0.3795820869
 40
0.442173391
 40
0.5045993435
 40
0.5668738649
 40
0.6290123754
 40
0.6910316459
 40
0.7529496407
 40
0.8147853465
 40
0.8765585942
 40
0.9382898499
 40
1.0
 40
1.0
 40
1.0
 40
1.0
 10
12.0121527031
 20
6.7261053534
 30
0.0
 10
12.0121527031
 20
6.7220090284
 30
0.0
 10
12.0119566188
 20
6.7138283588
 30
0.0
 10
12.0110716816
 20
6.7016071354
 30
0.0
 10
12.0095982146
 20
6.6894827643
 30
0.0
 10
12.00753977
 20
6.6774837678
 30
0.0
 10
12.0049009383
 20
6.66563754
 30
0.0
 10
12.0016878311
 20
6.6539714667
 30
0.0
 10
11.9979078425
 20
6.6425124274
 30
0.0
 10
11.9935696216
 20
6.6312868549
 30
0.0
 10
11.9886831537
 20
6.6203206432
 30
0.0
 10
11.9832597112
 20
6.6096390733
 30
0.0
 10
11.9773117799
 20
6.5992667863
 30
0.0
 10
11.970853025
 20
6.5892277246
 30
0.0
 10
11.9638983696
 20
6.5795450614
 30
0.0
 10
11.9564637786
 20
6.5702410484
 30
0.0
 10
11.94856669
 20
6.5613374352
 30
0.0
 10
11.943004681
 20
6.5556813205
 30
0.0
 10
11.9401538385
 20
6.5529276306
 30
0.0
  0
SPLINE
  5
330
100
AcDbEntity
  8
0
100
AcDbSpline
 62
7
  6
CONTINUOUS
 70
0
 71
3
 72
18
 73
14
 74
0
 42
0.0000001
 43
0.0000001
 44
0.0000000001
 40
0.0
 40
0.0
 40
0.0
 40
0.0
 40
0.1504686872
 40
0.2917143508
 40
0.4244422581
 40
0.4879097286
 40
0.549609416
 40
0.6682625881
 40
0.7817882869
 40
0.8371380068
 40
0.8918078217
 40
0.9460192903
 40
1.0
 40
1.0
 40
1.0
 40
1.0
 10
12.7957095619
 20
9.7257370733
 30
0.0
 10
12.7971231164
 20
9.7271024621
 30
0.0
 10
12.7999482914
 20
9.7296643228
 30
0.0
 10
12.8043227853
 20
9.7330782988
 30
0.0
 10
12.8080177751
 20
9.7354928505
 30
0.0
 10
12.8109642164
 20
9.737127904
 30
0.0
 10
12.8138239713
 20
9.738531662
 30
0.0
 10
12.8173995757
 20
9.7399500993
 30
0.0
 10
12.8210387791
 20
9.7409180553
 30
0.0
 10
12.8239211374
 20
9.7413948844
 30
0.0
 10
12.8260573652
 20
9.7416064952
 30
0.0
 10
12.8281849493
 20
9.7416748497
 30
0.0
 10
12.8295984649
 20
9.7416248507
 30
0.0
 10
12.8303018293
 20
9.7415760697
 30
0.0
  0
SPLINE
  5
331
100
AcDbEntity
  8
0
100
AcDbSpline
 62
7
  6
CONTINUOUS
 70
0
 71
3
 72
10
 73
6
 74
0
 42
0.0000001
 43
0.0000001
 44
0.0000000001
 40
0.0
 40
0.0
 40
0.0
 40
0.0
 40
0.2504191163
 40
0.5006516125
 40
1.0
 40
1.0
 40
1.0
 40
1.0
 10
11.5143729348
 20
7.7163496108
 30
0.0
 10
11.5124281775
 20
7.719680286
 30
0.0
 10
11.5087243927
 20
7.7264489964
 30
0.0
 10
11.5020665153
 20
7.7403425291
 30
0.0
 10
11.4978948362
 20
7.7511353329
 30
0.0
 10
11.4954770833
 20
7.758436217
 30
0.0
  0
SPLINE
  5
332
100
AcDbEntity
  8
0
100
AcDbSpline
 62
7
  6
CONTINUOUS
 70
0
 71
3
 72
15
 73
11
 74
0
 42
0.0000001
 43
0.0000001
 44
0.0000000001
 40
0.0
 40
0.0
 40
0.0
 40
0.0
 40
0.1258055939
 40
0.2512989532
 40
0.3765176569
 40
0.5015023665
 40
0.6262965036
 40
0.7509457392
 40
0.875497413
 40
1.0
 40
1.0
 40
1.0
 40
1.0
 10
10.6397765012
 20
9.7529813104
 30
0.0
 10
10.6387838361
 20
9.7503784235
 30
0.0
 10
10.6366603758
 20
9.7452314565
 30
0.0
 10
10.6330658148
 20
9.7377044638
 30
0.0
 10
10.6290751959
 20
9.7304001394
 30
0.0
 10
10.6246991957
 20
9.723338222
 30
0.0
 10
10.6199494611
 20
9.7165374129
 30
0.0
 10
10.6148385619
 20
9.7100157547
 30
0.0
 10
10.6093802847
 20
9.7037908477
 30
0.0
 10
10.6055186843
 20
9.699848948
 30
0.0
 10
10.6035357729
 20
9.6979336033
 30
0.0
  0
SPLINE
  5
333
100
AcDbEntity
  8
0
100
AcDbSpline
 62
7
  6
CONTINUOUS
 70
0
 71
3
 72
15
 73
11
 74
0
 42
0.0000001
 43
0.0000001
 44
0.0000000001
 40
0.0
 40
0.0
 40
0.0
 40
0.0
 40
0.1258055939
 40
0.2512989532
 40
0.3765176569
 40
0.5015023665
 40
0.6262965036
 40
0.7509457392
 40
0.875497413
 40
1.0
 40
1.0
 40
1.0
 40
1.0
 10
10.6397765012
 20
8.2326140264
 30
0.0
 10
10.6387838361
 20
8.2300111394
 30
0.0
 10
10.6366603758
 20
8.2248641725
 30
0.0
 10
10.6330658148
 20
8.2173371798
 30
0.0
 10
10.6290751959
 20
8.2100328554
 30
0.0
 10
10.6246991957
 20
8.202970938
 30
0.0
 10
10.6199494611
 20
8.1961701289
 30
0.0
 10
10.6148385619
 20
8.1896484707
 30
0.0
 10
10.6093802847
 20
8.1834235637
 30
0.0
 10
10.6055186843
 20
8.1794816639
 30
0.0
 10
10.6035357729
 20
8.1775663193
 30
0.0
  0
SPLINE
  5
334
100
AcDbEntity
  8
0
100
AcDbSpline
 62
7
  6
CONTINUOUS
 70
0
 71
3
 72
15
 73
11
 74
0
 42
0.0000001
 43
0.0000001
 44
0.0000000001
 40
0.0
 40
0.0
 40
0.0
 40
0.0
 40
0.1258055939
 40
0.2512989532
 40
0.3765176569
 40
0.5015023665
 40
0.6262965036
 40
0.7509457392
 40
0.875497413
 40
1.0
 40
1.0
 40
1.0
 40
1.0
 10
12.0084935316
 20
8.2903094602
 30
0.0
 10
12.0075008665
 20
8.2877065732
 30
0.0
 10
12.0053774062
 20
8.2825596062
 30
0.0
 10
12.0017828452
 20
8.2750326136
 30
0.0
 10
11.9977922263
 20
8.2677282892
 30
0.0
 10
11.9934162261
 20
8.2606663717
 30
0.0
 10
11.9886664915
 20
8.2538655627
 30
0.0
 10
11.9835555923
 20
8.2473439044
 30
0.0
 10
11.9780973151
 20
8.2411189974
 30
0.0
 10
11.9742357147
 20
8.2371770977
 30
0.0
 10
11.9722528032
 20
8.235261753
 30
0.0
  0
SPLINE
  5
335
100
AcDbEntity
  8
0
100
AcDbSpline
 62
7
  6
CONTINUOUS
 70
0
 71
3
 72
15
 73
11
 74
0
 42
0.0000001
 43
0.0000001
 44
0.0000000001
 40
0.0
 40
0.0
 40
0.0
 40
0.0
 40
0.1258055939
 40
0.2512989532
 40
0.3765176569
 40
0.5015023665
 40
0.6262965036
 40
0.7509457392
 40
0.875497413
 40
1.0
 40
1.0
 40
1.0
 40
1.0
 10
12.0084935316
 20
6.7689762627
 30
0.0
 10
12.0075008665
 20
6.7663733758
 30
0.0
 10
12.0053774062
 20
6.7612264088
 30
0.0
 10
12.0017828452
 20
6.7536994161
 30
0.0
 10
11.9977922263
 20
6.7463950917
 30
0.0
 10
11.9934162261
 20
6.7393331743
 30
0.0
 10
11.9886664915
 20
6.7325323652
 30
0.0
 10
11.9835555923
 20
6.726010707
 30
0.0
 10
11.9780973151
 20
6.7197858
 30
0.0
 10
11.9742357147
 20
6.7158439003
 30
0.0
 10
11.9722528032
 20
6.7139285556
 30
0.0
  0
SPLINE
  5
336
100
AcDbEntity
  8
0
100
AcDbSpline
 62
7
  6
CONTINUOUS
 70
0
 71
3
 72
15
 73
11
 74
0
 42
0.0000001
 43
0.0000001
 44
0.0000000001
 40
0.0
 40
0.0
 40
0.0
 40
0.0
 40
0.1244989985
 40
0.2490474516
 40
0.3736941949
 40
0.4984869056
 40
0.6234715674
 40
0.7486918895
 40
0.8741887889
 40
1.0
 40
1.0
 40
1.0
 40
1.0
 10
10.364543052
 20
9.9453572518
 30
0.0
 10
10.3665334078
 20
9.947279787
 30
0.0
 10
10.3706224713
 20
9.9510160315
 30
0.0
 10
10.3770585436
 20
9.9562730156
 30
0.0
 10
10.3837811642
 20
9.9611697506
 30
0.0
 10
10.390772052
 20
9.9656929294
 30
0.0
 10
10.3980125184
 20
9.9698304987
 30
0.0
 10
10.4054832433
 20
9.9735713608
 30
0.0
 10
10.413163895
 20
9.9769054275
 30
0.0
 10
10.4184042776
 20
9.9788486926
 30
0.0
 10
10.4210515552
 20
9.9797497211
 30
0.0
  0
SPLINE
  5
337
100
AcDbEntity
  8
0
100
AcDbSpline
 62
7
  6
CONTINUOUS
 70
0
 71
3
 72
15
 73
11
 74
0
 42
0.0000001
 43
0.0000001
 44
0.0000000001
 40
0.0
 40
0.0
 40
0.0
 40
0.0
 40
0.1244989985
 40
0.2490474516
 40
0.3736941949
 40
0.4984869056
 40
0.6234715674
 40
0.7486918895
 40
0.8741887889
 40
1.0
 40
1.0
 40
1.0
 40
1.0
 10
10.364543052
 20
8.4249899678
 30
0.0
 10
10.3665334078
 20
8.426912503
 30
0.0
 10
10.3706224713
 20
8.4306487475
 30
0.0
 10
10.3770585436
 20
8.4359057316
 30
0.0
 10
10.3837811642
 20
8.4408024666
 30
0.0
 10
10.390772052
 20
8.4453256454
 30
0.0
 10
10.3980125184
 20
8.4494632147
 30
0.0
 10
10.4054832433
 20
8.4532040768
 30
0.0
 10
10.413163895
 20
8.4565381434
 30
0.0
 10
10.4184042776
 20
8.4584814086
 30
0.0
 10
10.4210515552
 20
8.4593824371
 30
0.0
  0
SPLINE
  5
338
100
AcDbEntity
  8
0
100
AcDbSpline
 62
7
  6
CONTINUOUS
 70
0
 71
3
 72
15
 73
11
 74
0
 42
0.0000001
 43
0.0000001
 44
0.0000000001
 40
0.0
 40
0.0
 40
0.0
 40
0.0
 40
0.1244989985
 40
0.2490474516
 40
0.3736941949
 40
0.4984869056
 40
0.6234715674
 40
0.7486918895
 40
0.8741887889
 40
1.0
 40
1.0
 40
1.0
 40
1.0
 10
11.7332600824
 20
8.4826854015
 30
0.0
 10
11.7352504382
 20
8.4846079368
 30
0.0
 10
11.7393395017
 20
8.4883441812
 30
0.0
 10
11.745775574
 20
8.4936011654
 30
0.0
 10
11.7524981945
 20
8.4984979004
 30
0.0
 10
11.7594890824
 20
8.5030210792
 30
0.0
 10
11.7667295488
 20
8.5071586485
 30
0.0
 10
11.7742002737
 20
8.5108995106
 30
0.0
 10
11.7818809254
 20
8.5142335772
 30
0.0
 10
11.787121308
 20
8.5161768424
 30
0.0
 10
11.7897685856
 20
8.5170778709
 30
0.0
  0
SPLINE
  5
339
100
AcDbEntity
  8
0
100
AcDbSpline
 62
7
  6
CONTINUOUS
 70
0
 71
3
 72
15
 73
11
 74
0
 42
0.0000001
 43
0.0000001
 44
0.0000000001
 40
0.0
 40
0.0
 40
0.0
 40
0.0
 40
0.1244989985
 40
0.2490474516
 40
0.3736941949
 40
0.4984869056
 40
0.6234715674
 40
0.7486918895
 40
0.8741887889
 40
1.0
 40
1.0
 40
1.0
 40
1.0
 10
11.7332600824
 20
6.9613522041
 30
0.0
 10
11.7352504382
 20
6.9632747393
 30
0.0
 10
11.7393395017
 20
6.9670109838
 30
0.0
 10
11.745775574
 20
6.9722679679
 30
0.0
 10
11.7524981945
 20
6.9771647029
 30
0.0
 10
11.7594890824
 20
6.9816878817
 30
0.0
 10
11.7667295488
 20
6.985825451
 30
0.0
 10
11.7742002737
 20
6.9895663131
 30
0.0
 10
11.7818809254
 20
6.9929003798
 30
0.0
 10
11.787121308
 20
6.9948436449
 30
0.0
 10
11.7897685856
 20
6.9957446734
 30
0.0
  0
SPLINE
  5
33A
100
AcDbEntity
  8
0
100
AcDbSpline
 62
7
  6
CONTINUOUS
 70
0
 71
3
 72
39
 73
35
 74
0
 42
0.0000001
 43
0.0000001
 44
0.0000000001
 40
0.0
 40
0.0
 40
0.0
 40
0.0
 40
0.0299424695
 40
0.0599093169
 40
0.0899243245
 40
0.1200101059
 40
0.1501875675
 40
0.1804754226
 40
0.2108897705
 40
0.2414437509
 40
0.2721472792
 40
0.3030068663
 40
0.3340255229
 40
0.3652027461
 40
0.3965345839
 40
0.428013771
 40
0.4596299292
 40
0.4913698241
 40
0.5232176721
 40
0.555155489
 40
0.5871634725
 40
0.6192204135
 40
0.6513041268
 40
0.6833918949
 40
0.7154609201
 40
0.7474887765
 40
0.7794538578
 40
0.8113358145
 40
0.8431159703
 40
0.8747777248
 40
0.9063068724
 40
0.9376921006
 40
0.9689246636
 40
1.0
 40
1.0
 40
1.0
 40
1.0
 10
10.2025278932
 20
9.9188583204
 30
0.0
 10
10.2069324517
 20
9.923112778
 30
0.0
 10
10.2160879363
 20
9.9312783082
 30
0.0
 10
10.2307564146
 20
9.9424024135
 30
0.0
 10
10.2462852027
 20
9.9523466202
 30
0.0
 10
10.262587521
 20
9.9610551565
 30
0.0
 10
10.2795737415
 20
9.9684804464
 30
0.0
 10
10.2971501184
 20
9.9745816755
 30
0.0
 10
10.3152197964
 20
9.9793254619
 30
0.0
 10
10.3336832255
 20
9.9826859056
 30
0.0
 10
10.3524387506
 20
9.9846447507
 30
0.0
 10
10.3713831643
 20
9.9851914608
 30
0.0
 10
10.3904122762
 20
9.9843232743
 30
0.0
 10
10.4094214847
 20
9.9820452059
 30
0.0
 10
10.4283063462
 20
9.9783700002
 30
0.0
 10
10.4469631424
 20
9.9733180544
 30
0.0
 10
10.4652894415
 20
9.9669173001
 30
0.0
 10
10.4831846522
 20
9.9592030448
 30
0.0
 10
10.5005505677
 20
9.950217776
 30
0.0
 10
10.5172918964
 20
9.9400109271
 30
0.0
 10
10.5333167843
 20
9.9286386158
 30
0.0
 10
10.5485373076
 20
9.9161633264
 30
0.0
 10
10.5628699495
 20
9.9026535707
 30
0.0
 10
10.5762360529
 20
9.8881835143
 30
0.0
 10
10.5885622466
 20
9.8728325743
 30
0.0
 10
10.5997808447
 20
9.8566849882
 30
0.0
 10
10.6098302131
 20
9.8398293569
 30
0.0
 10
10.6186551111
 20
9.8223581651
 30
0.0
 10
10.6262069981
 20
9.8043672906
 30
0.0
 10
10.6324442777
 20
9.7859554395
 30
0.0
 10
10.6373325742
 20
9.7672237588
 30
0.0
 10
10.6408448055
 20
9.748274756
 30
0.0
 10
10.6429615719
 20
9.7292138283
 30
0.0
 10
10.6434356727
 20
9.7164658614
 30
0.0
 10
10.6434356727
 20
9.7101104011
 30
0.0
  0
SPLINE
  5
33B
100
AcDbEntity
  8
0
100
AcDbSpline
 62
7
  6
CONTINUOUS
 70
0
 71
3
 72
39
 73
35
 74
0
 42
0.0000001
 43
0.0000001
 44
0.0000000001
 40
0.0
 40
0.0
 40
0.0
 40
0.0
 40
0.0299424695
 40
0.0599093169
 40
0.0899243245
 40
0.1200101059
 40
0.1501875675
 40
0.1804754226
 40
0.2108897705
 40
0.2414437509
 40
0.2721472792
 40
0.3030068663
 40
0.3340255229
 40
0.3652027461
 40
0.3965345839
 40
0.428013771
 40
0.4596299292
 40
0.4913698241
 40
0.5232176721
 40
0.555155489
 40
0.5871634725
 40
0.6192204135
 40
0.6513041268
 40
0.6833918949
 40
0.7154609201
 40
0.7474887765
 40
0.7794538578
 40
0.8113358145
 40
0.8431159703
 40
0.8747777248
 40
0.9063068724
 40
0.9376921006
 40
0.9689246636
 40
1.0
 40
1.0
 40
1.0
 40
1.0
 10
10.2025278932
 20
8.3984910364
 30
0.0
 10
10.2069324517
 20
8.402745494
 30
0.0
 10
10.2160879363
 20
8.4109110242
 30
0.0
 10
10.2307564146
 20
8.4220351295
 30
0.0
 10
10.2462852027
 20
8.4319793362
 30
0.0
 10
10.262587521
 20
8.4406878725
 30
0.0
 10
10.2795737415
 20
8.4481131624
 30
0.0
 10
10.2971501184
 20
8.4542143915
 30
0.0
 10
10.3152197964
 20
8.4589581779
 30
0.0
 10
10.3336832255
 20
8.4623186216
 30
0.0
 10
10.3524387506
 20
8.4642774666
 30
0.0
 10
10.3713831643
 20
8.4648241767
 30
0.0
 10
10.3904122762
 20
8.4639559903
 30
0.0
 10
10.4094214847
 20
8.4616779219
 30
0.0
 10
10.4283063462
 20
8.4580027161
 30
0.0
 10
10.4469631424
 20
8.4529507704
 30
0.0
 10
10.4652894415
 20
8.4465500161
 30
0.0
 10
10.4831846522
 20
8.4388357608
 30
0.0
 10
10.5005505677
 20
8.429850492
 30
0.0
 10
10.5172918964
 20
8.4196436431
 30
0.0
 10
10.5333167843
 20
8.4082713318
 30
0.0
 10
10.5485373076
 20
8.3957960424
 30
0.0
 10
10.5628699495
 20
8.3822862867
 30
0.0
 10
10.5762360529
 20
8.3678162303
 30
0.0
 10
10.5885622466
 20
8.3524652903
 30
0.0
 10
10.5997808447
 20
8.3363177042
 30
0.0
 10
10.6098302131
 20
8.3194620729
 30
0.0
 10
10.6186551111
 20
8.3019908811
 30
0.0
 10
10.6262069981
 20
8.2840000066
 30
0.0
 10
10.6324442777
 20
8.2655881555
 30
0.0
 10
10.6373325742
 20
8.2468564748
 30
0.0
 10
10.6408448055
 20
8.227907472
 30
0.0
 10
10.6429615719
 20
8.2088465443
 30
0.0
 10
10.6434356727
 20
8.1960985774
 30
0.0
 10
10.6434356727
 20
8.189743117
 30
0.0
  0
SPLINE
  5
33C
100
AcDbEntity
  8
0
100
AcDbSpline
 62
7
  6
CONTINUOUS
 70
0
 71
3
 72
39
 73
35
 74
0
 42
0.0000001
 43
0.0000001
 44
0.0000000001
 40
0.0
 40
0.0
 40
0.0
 40
0.0
 40
0.0299424695
 40
0.0599093169
 40
0.0899243245
 40
0.1200101059
 40
0.1501875675
 40
0.1804754226
 40
0.2108897705
 40
0.2414437509
 40
0.2721472792
 40
0.3030068663
 40
0.3340255229
 40
0.3652027461
 40
0.3965345839
 40
0.428013771
 40
0.4596299292
 40
0.4913698241
 40
0.5232176721
 40
0.555155489
 40
0.5871634725
 40
0.6192204135
 40
0.6513041268
 40
0.6833918949
 40
0.7154609201
 40
0.7474887765
 40
0.7794538578
 40
0.8113358145
 40
0.8431159703
 40
0.8747777248
 40
0.9063068724
 40
0.9376921006
 40
0.9689246636
 40
1.0
 40
1.0
 40
1.0
 40
1.0
 10
11.5712449236
 20
8.4561864702
 30
0.0
 10
11.5756494821
 20
8.4604409278
 30
0.0
 10
11.5848049667
 20
8.468606458
 30
0.0
 10
11.599473445
 20
8.4797305632
 30
0.0
 10
11.6150022331
 20
8.48967477
 30
0.0
 10
11.6313045514
 20
8.4983833063
 30
0.0
 10
11.6482907718
 20
8.5058085961
 30
0.0
 10
11.6658671488
 20
8.5119098252
 30
0.0
 10
11.6839368267
 20
8.5166536117
 30
0.0
 10
11.7024002559
 20
8.5200140554
 30
0.0
 10
11.721155781
 20
8.5219729004
 30
0.0
 10
11.7401001947
 20
8.5225196105
 30
0.0
 10
11.7591293066
 20
8.5216514241
 30
0.0
 10
11.7781385151
 20
8.5193733557
 30
0.0
 10
11.7970233766
 20
8.5156981499
 30
0.0
 10
11.8156801728
 20
8.5106462042
 30
0.0
 10
11.8340064719
 20
8.5042454499
 30
0.0
 10
11.8519016826
 20
8.4965311946
 30
0.0
 10
11.8692675981
 20
8.4875459257
 30
0.0
 10
11.8860089268
 20
8.4773390769
 30
0.0
 10
11.9020338146
 20
8.4659667655
 30
0.0
 10
11.917254338
 20
8.4534914762
 30
0.0
 10
11.9315869799
 20
8.4399817205
 30
0.0
 10
11.9449530833
 20
8.4255116641
 30
0.0
 10
11.957279277
 20
8.4101607241
 30
0.0
 10
11.9684978751
 20
8.394013138
 30
0.0
 10
11.9785472435
 20
8.3771575066
 30
0.0
 10
11.9873721414
 20
8.3596863149
 30
0.0
 10
11.9949240284
 20
8.3416954404
 30
0.0
 10
12.0011613081
 20
8.3232835893
 30
0.0
 10
12.0060496046
 20
8.3045519086
 30
0.0
 10
12.0095618359
 20
8.2856029058
 30
0.0
 10
12.0116786023
 20
8.2665419781
 30
0.0
 10
12.0121527031
 20
8.2537940111
 30
0.0
 10
12.0121527031
 20
8.2474385508
 30
0.0
  0
SPLINE
  5
33D
100
AcDbEntity
  8
0
100
AcDbSpline
 62
7
  6
CONTINUOUS
 70
0
 71
3
 72
39
 73
35
 74
0
 42
0.0000001
 43
0.0000001
 44
0.0000000001
 40
0.0
 40
0.0
 40
0.0
 40
0.0
 40
0.0299424695
 40
0.0599093169
 40
0.0899243245
 40
0.1200101059
 40
0.1501875675
 40
0.1804754226
 40
0.2108897705
 40
0.2414437509
 40
0.2721472792
 40
0.3030068663
 40
0.3340255229
 40
0.3652027461
 40
0.3965345839
 40
0.428013771
 40
0.4596299292
 40
0.4913698241
 40
0.5232176721
 40
0.555155489
 40
0.5871634725
 40
0.6192204135
 40
0.6513041268
 40
0.6833918949
 40
0.7154609201
 40
0.7474887765
 40
0.7794538578
 40
0.8113358145
 40
0.8431159703
 40
0.8747777248
 40
0.9063068724
 40
0.9376921006
 40
0.9689246636
 40
1.0
 40
1.0
 40
1.0
 40
1.0
 10
11.5712449236
 20
6.9348532727
 30
0.0
 10
11.5756494821
 20
6.9391077303
 30
0.0
 10
11.5848049667
 20
6.9472732605
 30
0.0
 10
11.599473445
 20
6.9583973658
 30
0.0
 10
11.6150022331
 20
6.9683415725
 30
0.0
 10
11.6313045514
 20
6.9770501088
 30
0.0
 10
11.6482907718
 20
6.9844753987
 30
0.0
 10
11.6658671488
 20
6.9905766278
 30
0.0
 10
11.6839368267
 20
6.9953204142
 30
0.0
 10
11.7024002559
 20
6.9986808579
 30
0.0
 10
11.721155781
 20
7.000639703
 30
0.0
 10
11.7401001947
 20
7.0011864131
 30
0.0
 10
11.7591293066
 20
7.0003182266
 30
0.0
 10
11.7781385151
 20
6.9980401583
 30
0.0
 10
11.7970233766
 20
6.9943649525
 30
0.0
 10
11.8156801728
 20
6.9893130067
 30
0.0
 10
11.8340064719
 20
6.9829122524
 30
0.0
 10
11.8519016826
 20
6.9751979971
 30
0.0
 10
11.8692675981
 20
6.9662127283
 30
0.0
 10
11.8860089268
 20
6.9560058795
 30
0.0
 10
11.9020338146
 20
6.9446335681
 30
0.0
 10
11.917254338
 20
6.9321582787
 30
0.0
 10
11.9315869799
 20
6.918648523
 30
0.0
 10
11.9449530833
 20
6.9041784666
 30
0.0
 10
11.957279277
 20
6.8888275266
 30
0.0
 10
11.9684978751
 20
6.8726799405
 30
0.0
 10
11.9785472435
 20
6.8558243092
 30
0.0
 10
11.9873721414
 20
6.8383531174
 30
0.0
 10
11.9949240284
 20
6.8203622429
 30
0.0
 10
12.0011613081
 20
6.8019503918
 30
0.0
 10
12.0060496046
 20
6.7832187111
 30
0.0
 10
12.0095618359
 20
6.7642697083
 30
0.0
 10
12.0116786023
 20
6.7452087806
 30
0.0
 10
12.0121527031
 20
6.7324608137
 30
0.0
 10
12.0121527031
 20
6.7261053534
 30
0.0
  0
SPLINE
  5
33E
100
AcDbEntity
  8
0
100
AcDbSpline
 62
7
  6
CONTINUOUS
 70
0
 71
3
 72
39
 73
35
 74
0
 42
0.0000001
 43
0.0000001
 44
0.0000000001
 40
0.0
 40
0.0
 40
0.0
 40
0.0
 40
0.0299424709
 40
0.0599093182
 40
0.0899243246
 40
0.1200101041
 40
0.1501875631
 40
0.1804754147
 40
0.2108897588
 40
0.2414437357
 40
0.2721472607
 40
0.3030068436
 40
0.3340254953
 40
0.365202714
 40
0.396534549
 40
0.4280137348
 40
0.4596298919
 40
0.4913697857
 40
0.5232176329
 40
0.5551554498
 40
0.5871634342
 40
0.6192203769
 40
0.6513040925
 40
0.6833918636
 40
0.7154608917
 40
0.7474887507
 40
0.779453835
 40
0.8113357953
 40
0.8431159565
 40
0.8747777115
 40
0.90630687
 40
0.9376920898
 40
0.9689246468
 40
1.0
 40
1.0
 40
1.0
 40
1.0
 10
9.62024588
 20
9.2778015854
 30
0.0
 10
9.6260771498
 20
9.2834341562
 30
0.0
 10
9.638198208
 20
9.2942447327
 30
0.0
 10
9.6576180313
 20
9.3089722332
 30
0.0
 10
9.6781768339
 20
9.3221376557
 30
0.0
 10
9.6997597441
 20
9.3336671395
 30
0.0
 10
9.7222480908
 20
9.3434977121
 30
0.0
 10
9.7455177635
 20
9.3515753382
 30
0.0
 10
9.7694405347
 20
9.3578558198
 30
0.0
 10
9.7938846112
 20
9.3623048519
 30
0.0
 10
9.8187154059
 20
9.364898267
 30
0.0
 10
9.8437962775
 20
9.3656221394
 30
0.0
 10
9.8689892885
 20
9.3644728146
 30
0.0
 10
9.894155956
 20
9.3614569208
 30
0.0
 10
9.919158002
 20
9.35659131
 30
0.0
 10
9.943858109
 20
9.3499029897
 30
0.0
 10
9.9681206678
 20
9.3414289537
 30
0.0
 10
9.991812505
 20
9.33121595
 30
0.0
 10
10.0148036034
 20
9.3193202283
 30
0.0
 10
10.0369677991
 20
9.3058072239
 30
0.0
 10
10.0581834842
 20
9.2907512334
 30
0.0
 10
10.0783342595
 20
9.2742349885
 30
0.0
 10
10.0973095546
 20
9.2563491917
 30
0.0
 10
10.1150052298
 20
9.2371920282
 30
0.0
 10
10.1313241339
 20
9.2168686305
 30
0.0
 10
10.1461766654
 20
9.1954905327
 30
0.0
 10
10.1594812404
 20
9.1731750448
 30
0.0
 10
10.171164727
 20
9.1500446077
 30
0.0
 10
10.1811628478
 20
9.1262261493
 30
0.0
 10
10.1894205186
 20
9.1018503417
 30
0.0
 10
10.1958922276
 20
9.0770511042
 30
0.0
 10
10.2005421446
 20
9.0519641534
 30
0.0
 10
10.2033445789
 20
9.026729021
 30
0.0
 10
10.203972253
 20
9.0098517369
 30
0.0
 10
10.203972253
 20
9.0014376149
 30
0.0
  0
SPLINE
  5
33F
100
AcDbEntity
  8
0
100
AcDbSpline
 62
7
  6
CONTINUOUS
 70
0
 71
3
 72
23
 73
19
 74
0
 42
0.0000001
 43
0.0000001
 44
0.0000000001
 40
0.0
 40
0.0
 40
0.0
 40
0.0
 40
0.0617101431
 40
0.1234413951
 40
0.1852146465
 40
0.2470503561
 40
0.3089683487
 40
0.3709876173
 40
0.4331261326
 40
0.4954006638
 40
0.5578266135
 40
0.6204179097
 40
0.6831868019
 40
0.7461438686
 40
0.8092980312
 40
0.8726551034
 40
0.9362229519
 40
1.0
 40
1.0
 40
1.0
 40
1.0
 10
10.1086527299
 20
8.7721656373
 30
0.0
 10
10.1124269808
 20
8.7758112815
 30
0.0
 10
10.1197905197
 20
8.7832995253
 30
0.0
 10
10.1302455335
 20
8.7950871217
 30
0.0
 10
10.1400882178
 20
8.8074048331
 30
0.0
 10
10.149295489
 20
8.8202238543
 30
0.0
 10
10.1578462442
 20
8.8335147009
 30
0.0
 10
10.165720753
 20
8.8472466829
 30
0.0
 10
10.1729008753
 20
8.8613881341
 30
0.0
 10
10.1793700574
 20
8.8759064383
 30
0.0
 10
10.1851134325
 20
8.8907680983
 30
0.0
 10
10.1901177922
 20
8.9059388369
 30
0.0
 10
10.1943716351
 20
8.9213836693
 30
0.0
 10
10.197865179
 20
8.9370670153
 30
0.0
 10
10.2005903572
 20
8.9529526207
 30
0.0
 10
10.2025410788
 20
8.9690041614
 30
0.0
 10
10.2037126724
 20
8.9851839575
 30
0.0
 10
10.203972253
 20
8.996014412
 30
0.0
 10
10.203972253
 20
9.0014376149
 30
0.0
  0
SPLINE
  5
340
100
AcDbEntity
  8
0
100
AcDbSpline
 62
7
  6
CONTINUOUS
 70
0
 71
3
 72
39
 73
35
 74
0
 42
0.0000001
 43
0.0000001
 44
0.0000000001
 40
0.0
 40
0.0
 40
0.0
 40
0.0
 40
0.0299424709
 40
0.0599093182
 40
0.0899243246
 40
0.1200101041
 40
0.1501875631
 40
0.1804754147
 40
0.2108897588
 40
0.2414437357
 40
0.2721472607
 40
0.3030068436
 40
0.3340254953
 40
0.365202714
 40
0.396534549
 40
0.4280137348
 40
0.4596298919
 40
0.4913697857
 40
0.5232176329
 40
0.5551554498
 40
0.5871634342
 40
0.6192203769
 40
0.6513040925
 40
0.6833918636
 40
0.7154608917
 40
0.7474887507
 40
0.779453835
 40
0.8113357953
 40
0.8431159565
 40
0.8747777115
 40
0.90630687
 40
0.9376920898
 40
0.9689246468
 40
1.0
 40
1.0
 40
1.0
 40
1.0
 10
10.9889628528
 20
7.8141638258
 30
0.0
 10
10.9947941226
 20
7.8197963965
 30
0.0
 10
11.0069151808
 20
7.830606973
 30
0.0
 10
11.0263350041
 20
7.8453344735
 30
0.0
 10
11.0468938067
 20
7.8584998961
 30
0.0
 10
11.0684767169
 20
7.8700293798
 30
0.0
 10
11.0909650636
 20
7.8798599524
 30
0.0
 10
11.1142347363
 20
7.8879375785
 30
0.0
 10
11.1381575075
 20
7.8942180601
 30
0.0
 10
11.162601584
 20
7.8986670922
 30
0.0
 10
11.1874323787
 20
7.9012605073
 30
0.0
 10
11.2125132503
 20
7.9019843797
 30
0.0
 10
11.2377062613
 20
7.9008350549
 30
0.0
 10
11.2628729288
 20
7.8978191611
 30
0.0
 10
11.2878749749
 20
7.8929535503
 30
0.0
 10
11.3125750818
 20
7.88626523
 30
0.0
 10
11.3368376406
 20
7.8777911941
 30
0.0
 10
11.3605294778
 20
7.8675781903
 30
0.0
 10
11.3835205762
 20
7.8556824686
 30
0.0
 10
11.4056847719
 20
7.8421694642
 30
0.0
 10
11.426900457
 20
7.8271134737
 30
0.0
 10
11.4470512323
 20
7.8105972288
 30
0.0
 10
11.4660265274
 20
7.792711432
 30
0.0
 10
11.4837222026
 20
7.7735542685
 30
0.0
 10
11.5000411067
 20
7.7532308708
 30
0.0
 10
11.5148936382
 20
7.731852773
 30
0.0
 10
11.5281982132
 20
7.7095372851
 30
0.0
 10
11.5398816998
 20
7.6864068481
 30
0.0
 10
11.5498798206
 20
7.6625883896
 30
0.0
 10
11.5581374914
 20
7.638212582
 30
0.0
 10
11.5646092004
 20
7.6134133445
 30
0.0
 10
11.5692591174
 20
7.5883263937
 30
0.0
 10
11.5720615518
 20
7.5630912613
 30
0.0
 10
11.5726892258
 20
7.5462139772
 30
0.0
 10
11.5726892258
 20
7.5377998552
 30
0.0
  0
SPLINE
  5
341
100
AcDbEntity
  8
0
100
AcDbSpline
 62
7
  6
CONTINUOUS
 70
0
 71
3
 72
23
 73
19
 74
0
 42
0.0000001
 43
0.0000001
 44
0.0000000001
 40
0.0
 40
0.0
 40
0.0
 40
0.0
 40
0.0617101431
 40
0.1234413951
 40
0.1852146465
 40
0.2470503561
 40
0.3089683487
 40
0.3709876173
 40
0.4331261326
 40
0.4954006638
 40
0.5578266135
 40
0.6204179097
 40
0.6831868019
 40
0.7461438686
 40
0.8092980312
 40
0.8726551034
 40
0.9362229519
 40
1.0
 40
1.0
 40
1.0
 40
1.0
 10
11.4773697027
 20
7.3085278776
 30
0.0
 10
11.4811439536
 20
7.3121735218
 30
0.0
 10
11.4885074925
 20
7.3196617656
 30
0.0
 10
11.4989625063
 20
7.331449362
 30
0.0
 10
11.5088051906
 20
7.3437670734
 30
0.0
 10
11.5180124618
 20
7.3565860946
 30
0.0
 10
11.526563217
 20
7.3698769412
 30
0.0
 10
11.5344377258
 20
7.3836089232
 30
0.0
 10
11.5416178481
 20
7.3977503744
 30
0.0
 10
11.5480870302
 20
7.4122686786
 30
0.0
 10
11.5538304053
 20
7.4271303386
 30
0.0
 10
11.558834765
 20
7.4423010772
 30
0.0
 10
11.5630886079
 20
7.4577459096
 30
0.0
 10
11.5665821518
 20
7.4734292556
 30
0.0
 10
11.56930733
 20
7.489314861
 30
0.0
 10
11.5712580516
 20
7.5053664017
 30
0.0
 10
11.5724296452
 20
7.5215461978
 30
0.0
 10
11.5726892258
 20
7.5323766523
 30
0.0
 10
11.5726892258
 20
7.5377998552
 30
0.0
  0
SPLINE
  5
342
100
AcDbEntity
  8
0
100
AcDbSpline
 62
7
  6
CONTINUOUS
 70
0
 71
3
 72
84
 73
80
 74
0
 42
0.0000001
 43
0.0000001
 44
0.0000000001
 40
0.0
 40
0.0
 40
0.0
 40
0.0
 40
0.0027164264
 40
0.0054532293
 40
0.008230295
 40
0.0110665896
 40
0.0139797932
 40
0.0169861044
 40
0.0201000661
 40
0.0233345812
 40
0.0267009392
 40
0.0302088856
 40
0.0338668056
 40
0.037681768
 40
0.0416597414
 40
0.0458056718
 40
0.050123593
 40
0.0546167913
 40
0.0592877975
 40
0.0641385717
 40
0.0691704988
 40
0.074384467
 40
0.0797809628
 40
0.0853600226
 40
0.0911213815
 40
0.0970644148
 40
0.1094911534
 40
0.122630387
 40
0.136468035
 40
0.1509868331
 40
0.1661667198
 40
0.1819851503
 40
0.1984173662
 40
0.2154366132
 40
0.2330143274
 40
0.2511202956
 40
0.2697227959
 40
0.2887887406
 40
0.3082838034
 40
0.3281725359
 40
0.3484184777
 40
0.3689842604
 40
0.3898317162
 40
0.4109219843
 40
0.4536719359
 40
0.4969138893
 40
0.5403221212
 40
0.5835693222
 40
0.6263297187
 40
0.6474271304
 40
0.6682829869
 40
0.6888584043
 40
0.7091151927
 40
0.7290159604
 40
0.748524216
 40
0.7676044742
 40
0.7862223676
 40
0.8043447661
 40
0.8219399096
 40
0.838977535
 40
0.8554290199
 40
0.8712675451
 40
0.8864682815
 40
0.9010086172
 40
0.9148684112
 40
0.9280303001
 40
0.9404800906
 40
0.946434749
 40
0.9522077946
 40
0.957798564
 40
0.9632067735
 40
0.9684324641
 40
0.9734760551
 40
0.9783384155
 40
0.983020862
 40
0.9875253935
 40
0.9918546029
 40
0.9960115831
 40
1.0
 40
1.0
 40
1.0
 40
1.0
 10
12.7611172946
 20
8.7439721932
 30
0.0
 10
12.7601841067
 20
8.7440369133
 30
0.0
 10
12.7583155119
 20
8.7442513259
 30
0.0
 10
12.7555364082
 20
8.7448250218
 30
0.0
 10
12.7527783049
 20
8.7456507297
 30
0.0
 10
12.7500431815
 20
8.7467276759
 30
0.0
 10
12.7473324222
 20
8.7480548404
 30
0.0
 10
12.7446474551
 20
8.7496312598
 30
0.0
 10
12.7419894833
 20
8.7514557502
 30
0.0
 10
12.7393597023
 20
8.7535271828
 30
0.0
 10
12.7367592637
 20
8.7558443581
 30
0.0
 10
12.7341892451
 20
8.7584059707
 30
0.0
 10
12.7316508287
 20
8.7612107374
 30
0.0
 10
12.7291450836
 20
8.7642571878
 30
0.0
 10
12.7266731794
 20
8.7675438314
 30
0.0
 10
12.7242362563
 20
8.7710690397
 30
0.0
 10
12.7218354261
 20
8.7748310615
 30
0.0
 10
12.7194718885
 20
8.7788280728
 30
0.0
 10
12.7171467247
 20
8.7830580766
 30
0.0
 10
12.7148611098
 20
8.7875190039
 30
0.0
 10
12.7126161524
 20
8.7922086407
 30
0.0
 10
12.7104129434
 20
8.7971246578
 30
0.0
 10
12.7082526185
 20
8.8022646262
 30
0.0
 10
12.7061362076
 20
8.8076259708
 30
0.0
 10
12.7040647897
 20
8.8132060394
 30
0.0
 10
12.7013234408
 20
8.8210511013
 30
0.0
 10
12.6980268371
 20
8.83139112
 30
0.0
 10
12.6943228156
 20
8.8444469052
 30
0.0
 10
12.6908216091
 20
8.8583026818
 30
0.0
 10
12.6875303121
 20
8.8729307191
 30
0.0
 10
12.6844556157
 20
8.8883018744
 30
0.0
 10
12.6816037689
 20
8.9043853938
 30
0.0
 10
12.6789805752
 20
8.9211490694
 30
0.0
 10
12.6765913739
 20
8.9385592936
 30
0.0
 10
12.6744410304
 20
8.9565811382
 30
0.0
 10
12.6725339253
 20
8.9751784239
 30
0.0
 10
12.6708739376
 20
8.9943137965
 30
0.0
 10
12.6694644457
 20
9.0139488073
 30
0.0
 10
12.6683083207
 20
9.0340439963
 30
0.0
 10
12.667407921
 20
9.0545589716
 30
0.0
 10
12.6667650871
 20
9.0754524937
 30
0.0
 10
12.6663811409
 20
9.0966825435
 30
0.0
 10
12.6662568484
 20
9.1182064641
 30
0.0
 10
12.6664386181
 20
9.1473695486
 30
0.0
 10
12.6673205437
 20
9.1842374596
 30
0.0
 10
12.6693990093
 20
9.2287528902
 30
0.0
 10
12.6724859745
 20
9.2733815515
 30
0.0
 10
12.6765566316
 20
9.317764599
 30
0.0
 10
12.6807596287
 20
9.3544106809
 30
0.0
 10
12.6845953367
 20
9.3833300157
 30
0.0
 10
12.687682469
 20
9.4046405185
 30
0.0
 10
12.6909864148
 20
9.4256254848
 30
0.0
 10
12.6945005382
 20
9.4462427506
 30
0.0
 10
12.6982177395
 20
9.466450859
 30
0.0
 10
12.7021305189
 20
9.4862091913
 30
0.0
 10
12.7062309784
 20
9.5054780348
 30
0.0
 10
12.7105108409
 20
9.5242186677
 30
0.0
 10
12.7149614659
 20
9.542393441
 30
0.0
 10
12.7195738594
 20
9.5599658595
 30
0.0
 10
12.724338701
 20
9.5769006558
 30
0.0
 10
12.7292463617
 20
9.5931638619
 30
0.0
 10
12.7342869235
 20
9.6087228796
 30
0.0
 10
12.7394502043
 20
9.6235465619
 30
0.0
 10
12.7447257718
 20
9.637605267
 30
0.0
 10
12.7501029806
 20
9.6508710067
 30
0.0
 10
12.7555709875
 20
9.6633172379
 30
0.0
 10
12.7602611638
 20
9.6731261353
 30
0.0
 10
12.7640576185
 20
9.6805364316
 30
0.0
 10
12.7668784832
 20
9.6857913666
 30
0.0
 10
12.7697138122
 20
9.6908236241
 30
0.0
 10
12.7725621822
 20
9.6956307163
 30
0.0
 10
12.7754221812
 20
9.7002102465
 30
0.0
 10
12.778292403
 20
9.7045599236
 30
0.0
 10
12.7811713716
 20
9.7086776039
 30
0.0
 10
12.7840577302
 20
9.7125612342
 30
0.0
 10
12.7869500593
 20
9.7162089463
 30
0.0
 10
12.7898470237
 20
9.7196189504
 30
0.0
 10
12.7927470578
 20
9.7227893952
 30
0.0
 10
12.7947216999
 20
9.7247828717
 30
0.0
 10
12.7957095619
 20
9.7257370733
 30
0.0
  0
SPLINE
  5
343
100
AcDbEntity
  8
0
100
AcDbSpline
 62
7
  6
CONTINUOUS
 70
0
 71
3
 72
11
 73
7
 74
0
 42
0.0000001
 43
0.0000001
 44
0.0000000001
 40
0.0
 40
0.0
 40
0.0
 40
0.0
 40
0.2498596663
 40
0.4998747111
 40
0.7499553602
 40
1.0
 40
1.0
 40
1.0
 40
1.0
 10
11.5427918889
 20
7.6787132588
 30
0.0
 10
11.5400533402
 20
7.6815414381
 30
0.0
 10
11.5347516997
 20
7.6873740837
 30
0.0
 10
11.5273552388
 20
7.6965981726
 30
0.0
 10
11.5205271136
 20
7.7062537449
 30
0.0
 10
11.5163594535
 20
7.7129474136
 30
0.0
 10
11.5143729348
 20
7.7163496108
 30
0.0
  0
SPLINE
  5
344
100
AcDbEntity
  8
0
100
AcDbSpline
 62
7
  6
CONTINUOUS
 70
0
 71
3
 72
18
 73
14
 74
0
 42
0.0000001
 43
0.0000001
 44
0.0000000001
 40
0.0
 40
0.0
 40
0.0
 40
0.0
 40
0.1504686872
 40
0.2917143508
 40
0.4244422581
 40
0.4879097286
 40
0.549609416
 40
0.6682625881
 40
0.7817882869
 40
0.8371380068
 40
0.8918078217
 40
0.9460192903
 40
1.0
 40
1.0
 40
1.0
 40
1.0
 10
12.7957095619
 20
8.7598111897
 30
0.0
 10
12.7942960075
 20
8.7584458009
 30
0.0
 10
12.7914708325
 20
8.7558839402
 30
0.0
 10
12.7870963386
 20
8.7524699641
 30
0.0
 10
12.7834013488
 20
8.7500554125
 30
0.0
 10
12.7804549075
 20
8.7484203589
 30
0.0
 10
12.7775951526
 20
8.747016601
 30
0.0
 10
12.7740195482
 20
8.7455981637
 30
0.0
 10
12.7703803448
 20
8.7446302077
 30
0.0
 10
12.7674979865
 20
8.7441533786
 30
0.0
 10
12.7653617587
 20
8.7439417678
 30
0.0
 10
12.7632341746
 20
8.7438734133
 30
0.0
 10
12.761820659
 20
8.7439234123
 30
0.0
 10
12.7611172946
 20
8.7439721932
 30
0.0
  0
SPLINE
  5
345
100
AcDbEntity
  8
0
100
AcDbSpline
 62
7
  6
CONTINUOUS
 70
0
 71
3
 72
42
 73
38
 74
0
 42
0.0000001
 43
0.0000001
 44
0.0000000001
 40
0.0
 40
0.0
 40
0.0
 40
0.0
 40
0.0299419644
 40
0.0449235317
 40
0.0599142035
 40
0.0899287023
 40
0.1200139727
 40
0.1350926544
 40
0.1501966973
 40
0.1804840373
 40
0.210897868
 40
0.2414513286
 40
0.2721543342
 40
0.3030133956
 40
0.3340315238
 40
0.3652082165
 40
0.3965395222
 40
0.4280181758
 40
0.459633799
 40
0.4913731572
 40
0.5232204671
 40
0.5551577446
 40
0.5871651885
 40
0.6192215901
 40
0.6513047644
 40
0.683391994
 40
0.715460481
 40
0.7474877999
 40
0.7794523452
 40
0.8113337678
 40
0.8431133918
 40
0.8747746145
 40
0.906303246
 40
0.9376878974
 40
0.9533257627
 40
0.9689252947
 40
1.0
 40
1.0
 40
1.0
 40
1.0
 10
10.6035357729
 20
9.6979336033
 30
0.0
 10
10.6006823502
 20
9.6951774097
 30
0.0
 10
10.5962340269
 20
9.6912101231
 30
0.0
 10
10.5900042734
 20
9.6862875435
 30
0.0
 10
10.5835760788
 20
9.6816099848
 30
0.0
 10
10.5751883878
 20
9.6762385623
 30
0.0
 10
10.5663928453
 20
9.6715401678
 30
0.0
 10
10.5591388345
 20
9.6681976489
 30
0.0
 10
10.55173493
 20
9.6651311553
 30
0.0
 10
10.5422360914
 20
9.6618337218
 30
0.0
 10
10.5305301917
 20
9.658760617
 30
0.0
 10
10.5185688673
 20
9.6565835366
 30
0.0
 10
10.5064184008
 20
9.6553145046
 30
0.0
 10
10.494145539
 20
9.65496029
 30
0.0
 10
10.4818178106
 20
9.6555226967
 30
0.0
 10
10.4695029719
 20
9.6569984756
 30
0.0
 10
10.4572686877
 20
9.6593793731
 30
0.0
 10
10.4451821507
 20
9.6626521755
 30
0.0
 10
10.4333097204
 20
9.6667987877
 30
0.0
 10
10.4217165635
 20
9.6717963349
 30
0.0
 10
10.4104663015
 20
9.6776172904
 30
0.0
 10
10.3996206659
 20
9.6842296269
 30
0.0
 10
10.3892391644
 20
9.6915969925
 30
0.0
 10
10.3793787586
 20
9.6996789092
 30
0.0
 10
10.3700935546
 20
9.7084309934
 30
0.0
 10
10.3614345103
 20
9.7178051979
 30
0.0
 10
10.3534491577
 20
9.7277500724
 30
0.0
 10
10.3461813455
 20
9.7382110443
 30
0.0
 10
10.3396709999
 20
9.7491307112
 30
0.0
 10
10.3339539067
 20
9.7604491652
 30
0.0
 10
10.3290615192
 20
9.7721042703
 30
0.0
 10
10.3250207708
 20
9.784032173
 30
0.0
 10
10.3218539902
 20
9.7961670045
 30
0.0
 10
10.3199554299
 20
9.8064101152
 30
0.0
 10
10.3188903974
 20
9.8146403384
 30
0.0
 10
10.3181303094
 20
9.8228626841
 30
0.0
 10
10.3179001605
 20
9.8290499465
 30
0.0
 10
10.3179001605
 20
9.8331672238
 30
0.0
  0
SPLINE
  5
346
100
AcDbEntity
  8
0
100
AcDbSpline
 62
7
  6
CONTINUOUS
 70
0
 71
3
 72
42
 73
38
 74
0
 42
0.0000001
 43
0.0000001
 44
0.0000000001
 40
0.0
 40
0.0
 40
0.0
 40
0.0
 40
0.0309021651
 40
0.0464078252
 40
0.0619473254
 40
0.0931236682
 40
0.1244295491
 40
0.1558569766
 40
0.1873960402
 40
0.2190350052
 40
0.2507605482
 40
0.282557972
 40
0.3144114497
 40
0.3463042777
 40
0.3782191398
 40
0.4101383778
 40
0.4420442655
 40
0.473919284
 40
0.505746394
 40
0.5375093037
 40
0.5691927278
 40
0.6007826357
 40
0.6322664842
 40
0.6636334327
 40
0.6948745374
 40
0.7259829188
 40
0.7569539019
 40
0.7877851229
 40
0.818476601
 40
0.8490307698
 40
0.8642599328
 40
0.8794567788
 40
0.9097531965
 40
0.939933776
 40
0.9549863848
 40
0.9700145281
 40
1.0
 40
1.0
 40
1.0
 40
1.0
 10
11.5963031208
 20
8.3767586756
 30
0.0
 10
11.5963031208
 20
8.3711437156
 30
0.0
 10
11.5965803097
 20
8.3627080358
 30
0.0
 10
11.5974969145
 20
8.3514881296
 30
0.0
 10
11.5987813511
 20
8.3402538139
 30
0.0
 10
11.6010720957
 20
8.3262527968
 30
0.0
 10
11.6048984174
 20
8.3096123181
 30
0.0
 10
11.6097888469
 20
8.2931839298
 30
0.0
 10
11.615722259
 20
8.277038526
 30
0.0
 10
11.6226731397
 20
8.2612452274
 30
0.0
 10
11.6306116029
 20
8.2458717854
 30
0.0
 10
11.6395035483
 20
8.2309841069
 30
0.0
 10
11.6493107979
 20
8.2166460248
 30
0.0
 10
11.6599912622
 20
8.2029190135
 30
0.0
 10
11.6714991187
 20
8.1898619316
 30
0.0
 10
11.6837850072
 20
8.1775307701
 30
0.0
 10
11.6967962402
 20
8.1659784152
 30
0.0
 10
11.7104770268
 20
8.1552544227
 30
0.0
 10
11.7247687102
 20
8.1454048072
 30
0.0
 10
11.7396100164
 20
8.1364718462
 30
0.0
 10
11.7549373151
 20
8.1284938991
 30
0.0
 10
11.7706848894
 20
8.1215052439
 30
0.0
 10
11.7867852146
 20
8.1155359298
 30
0.0
 10
11.8031692456
 20
8.1106116485
 30
0.0
 10
11.8197667055
 20
8.1067536222
 30
0.0
 10
11.8365063992
 20
8.1039785136
 30
0.0
 10
11.8533164594
 20
8.1022983419
 30
0.0
 10
11.8701248579
 20
8.1017204665
 30
0.0
 10
11.8868589504
 20
8.1022474084
 30
0.0
 10
11.9006991121
 20
8.1036072242
 30
0.0
 10
11.9116595024
 20
8.1052443168
 30
0.0
 10
11.9225125402
 20
8.1072408961
 30
0.0
 10
11.9359032469
 20
8.1104127332
 30
0.0
 10
11.9490218784
 20
8.1144817278
 30
0.0
 10
11.9593008213
 20
8.1182605714
 30
0.0
 10
11.9694102988
 20
8.1223775254
 30
0.0
 10
11.9768232293
 20
8.1258540258
 30
0.0
 10
11.9816726214
 20
8.1283376547
 30
0.0
  0
SPLINE
  5
347
100
AcDbEntity
  8
0
100
AcDbSpline
 62
7
  6
CONTINUOUS
 70
0
 71
3
 72
15
 73
11
 74
0
 42
0.0000001
 43
0.0000001
 44
0.0000000001
 40
0.0
 40
0.0
 40
0.0
 40
0.0
 40
0.1267267029
 40
0.2529167639
 40
0.3785796106
 40
0.5037379337
 40
0.6284193322
 40
0.7526602922
 40
0.8765039341
 40
1.0
 40
1.0
 40
1.0
 40
1.0
 10
11.5963031208
 20
8.3767586756
 30
0.0
 10
11.5963031208
 20
8.3820136549
 30
0.0
 10
11.5966256877
 20
8.3925043113
 30
0.0
 10
11.5980826618
 20
8.4081448773
 30
0.0
 10
11.6005063883
 20
8.423599965
 30
0.0
 10
11.6038876679
 20
8.4388100591
 30
0.0
 10
11.6082137988
 20
8.4537175836
 30
0.0
 10
11.613468507
 20
8.4682660202
 30
0.0
 10
11.6196315173
 20
8.4823993312
 30
0.0
 10
11.6243370926
 20
8.4915222985
 30
0.0
 10
11.6268321693
 20
8.4959943653
 30
0.0
  0
SPLINE
  5
348
100
AcDbEntity
  8
0
100
AcDbSpline
 62
7
  6
CONTINUOUS
 70
0
 71
3
 72
19
 73
15
 74
0
 42
0.0000001
 43
0.0000001
 44
0.0000000001
 40
0.0
 40
0.0
 40
0.0
 40
0.0
 40
0.12732766
 40
0.2538196711
 40
0.3795264658
 40
0.5045235362
 40
0.5668075958
 40
0.6289556124
 40
0.6909843715
 40
0.7529118454
 40
0.8147570127
 40
0.8765397119
 40
0.9382804145
 40
1.0
 40
1.0
 40
1.0
 40
1.0
 10
11.6866171909
 20
8.3704953736
 30
0.0
 10
11.6866171909
 20
8.3757926312
 30
0.0
 10
11.6871229624
 20
8.3863596674
 30
0.0
 10
11.6894103761
 20
8.4020071911
 30
0.0
 10
11.6932028884
 20
8.4172608114
 30
0.0
 10
11.6975962053
 20
8.4295439358
 30
0.0
 10
11.7018213735
 20
8.4390259054
 30
0.0
 10
11.7053348944
 20
8.4459459047
 30
0.0
 10
11.7091881172
 20
8.4526653658
 30
0.0
 10
11.7133722717
 20
8.4591690124
 30
0.0
 10
11.7178777047
 20
8.4654417452
 30
0.0
 10
11.7226940329
 20
8.4714691989
 30
0.0
 10
11.7278099967
 20
8.4772372491
 30
0.0
 10
11.731413222
 20
8.4809014721
 30
0.0
 10
11.7332600824
 20
8.4826854015
 30
0.0
  0
SPLINE
  5
349
100
AcDbEntity
  8
0
100
AcDbSpline
 62
7
  6
CONTINUOUS
 70
0
 71
3
 72
42
 73
38
 74
0
 42
0.0000001
 43
0.0000001
 44
0.0000000001
 40
0.0
 40
0.0
 40
0.0
 40
0.0
 40
0.0299419644
 40
0.0449235317
 40
0.0599142035
 40
0.0899287023
 40
0.1200139727
 40
0.1350926544
 40
0.1501966973
 40
0.1804840373
 40
0.210897868
 40
0.2414513286
 40
0.2721543342
 40
0.3030133956
 40
0.3340315238
 40
0.3652082165
 40
0.3965395222
 40
0.4280181758
 40
0.459633799
 40
0.4913731572
 40
0.5232204671
 40
0.5551577446
 40
0.5871651885
 40
0.6192215901
 40
0.6513047644
 40
0.683391994
 40
0.715460481
 40
0.7474877999
 40
0.7794523452
 40
0.8113337678
 40
0.8431133918
 40
0.8747746145
 40
0.906303246
 40
0.9376878974
 40
0.9533257627
 40
0.9689252947
 40
1.0
 40
1.0
 40
1.0
 40
1.0
 10
10.6035357729
 20
8.1775663193
 30
0.0
 10
10.6006823502
 20
8.1748101256
 30
0.0
 10
10.5962340269
 20
8.1708428391
 30
0.0
 10
10.5900042734
 20
8.1659202595
 30
0.0
 10
10.5835760788
 20
8.1612427007
 30
0.0
 10
10.5751883878
 20
8.1558712783
 30
0.0
 10
10.5663928453
 20
8.1511728838
 30
0.0
 10
10.5591388345
 20
8.1478303649
 30
0.0
 10
10.55173493
 20
8.1447638713
 30
0.0
 10
10.5422360914
 20
8.1414664377
 30
0.0
 10
10.5305301917
 20
8.138393333
 30
0.0
 10
10.5185688673
 20
8.1362162526
 30
0.0
 10
10.5064184008
 20
8.1349472206
 30
0.0
 10
10.494145539
 20
8.134593006
 30
0.0
 10
10.4818178106
 20
8.1351554127
 30
0.0
 10
10.4695029719
 20
8.1366311916
 30
0.0
 10
10.4572686877
 20
8.1390120891
 30
0.0
 10
10.4451821507
 20
8.1422848915
 30
0.0
 10
10.4333097204
 20
8.1464315036
 30
0.0
 10
10.4217165635
 20
8.1514290509
 30
0.0
 10
10.4104663015
 20
8.1572500064
 30
0.0
 10
10.3996206659
 20
8.1638623429
 30
0.0
 10
10.3892391644
 20
8.1712297085
 30
0.0
 10
10.3793787586
 20
8.1793116252
 30
0.0
 10
10.3700935546
 20
8.1880637094
 30
0.0
 10
10.3614345103
 20
8.1974379139
 30
0.0
 10
10.3534491577
 20
8.2073827884
 30
0.0
 10
10.3461813455
 20
8.2178437603
 30
0.0
 10
10.3396709999
 20
8.2287634272
 30
0.0
 10
10.3339539067
 20
8.2400818812
 30
0.0
 10
10.3290615192
 20
8.2517369863
 30
0.0
 10
10.3250207708
 20
8.263664889
 30
0.0
 10
10.3218539902
 20
8.2757997205
 30
0.0
 10
10.3199554299
 20
8.2860428311
 30
0.0
 10
10.3188903974
 20
8.2942730544
 30
0.0
 10
10.3181303094
 20
8.3024954001
 30
0.0
 10
10.3179001605
 20
8.3086826625
 30
0.0
 10
10.3179001605
 20
8.3127999398
 30
0.0
  0
SPLINE
  5
34A
100
AcDbEntity
  8
0
100
AcDbSpline
 62
7
  6
CONTINUOUS
 70
0
 71
3
 72
69
 73
65
 74
0
 42
0.0000001
 43
0.0000001
 44
0.0000000001
 40
0.0
 40
0.0
 40
0.0
 40
0.0
 40
0.0155845211
 40
0.0311164602
 40
0.0465960436
 40
0.0620249357
 40
0.0774047624
 40
0.0927378572
 40
0.1080269573
 40
0.1232752669
 40
0.1384864072
 40
0.1536643854
 40
0.1688135559
 40
0.1839385757
 40
0.1990443575
 40
0.214136018
 40
0.2292188243
 40
0.244298138
 40
0.2593793583
 40
0.2744678642
 40
0.2895689568
 40
0.304687803
 40
0.3198293807
 40
0.3349984272
 40
0.3501993899
 40
0.3654363821
 40
0.3807131424
 40
0.3960329993
 40
0.41139884
 40
0.4268130849
 40
0.4422776679
 40
0.4577940212
 40
0.4733630667
 40
0.4889852122
 40
0.5046603531
 40
0.5203878778
 40
0.536166679
 40
0.5519951685
 40
0.5678712963
 40
0.5837925739
 40
0.5997561013
 40
0.6157585961
 40
0.6317964263
 40
0.6478656441
 40
0.6639620234
 40
0.6800810982
 40
0.7123600125
 40
0.7446719578
 40
0.7608320192
 40
0.7769852785
 40
0.7931267714
 40
0.8092516366
 40
0.8253551583
 40
0.8414328081
 40
0.8574802855
 40
0.8734935573
 40
0.8894688943
 40
0.9054029069
 40
0.9212925827
 40
0.9371352947
 40
0.9529289165
 40
0.9686715601
 40
0.984362356
 40
1.0
 40
1.0
 40
1.0
 40
1.0
 10
9.4287838968
 20
9.034163117
 30
0.0
 10
9.4287838968
 20
9.0409469425
 30
0.0
 10
9.4291158842
 20
9.0544941105
 30
0.0
 10
9.4306144983
 20
9.0747295204
 30
0.0
 10
9.4331094814
 20
9.0947986984
 30
0.0
 10
9.4365947198
 20
9.114652518
 30
0.0
 10
9.4410619729
 20
9.1342434038
 30
0.0
 10
9.4465004675
 20
9.1535240409
 30
0.0
 10
9.4528971697
 20
9.1724479697
 30
0.0
 10
9.4602367004
 20
9.1909695489
 30
0.0
 10
9.4685014036
 20
9.2090441128
 30
0.0
 10
9.4776713848
 20
9.2266280672
 30
0.0
 10
9.4877245623
 20
9.2436789968
 30
0.0
 10
9.4986367196
 20
9.2601557678
 30
0.0
 10
9.5103815629
 20
9.2760186287
 30
0.0
 10
9.522930784
 20
9.2912293069
 30
0.0
 10
9.5362541298
 20
9.3057511016
 30
0.0
 10
9.5503194663
 20
9.3195489824
 30
0.0
 10
9.5650928644
 20
9.3325896707
 30
0.0
 10
9.5805386851
 20
9.3448417177
 30
0.0
 10
9.5966196661
 20
9.3562755821
 30
0.0
 10
9.6132970126
 20
9.3668637005
 30
0.0
 10
9.6305304918
 20
9.3765805555
 30
0.0
 10
9.6482785321
 20
9.385402734
 30
0.0
 10
9.6664983192
 20
9.393308995
 30
0.0
 10
9.6851459049
 20
9.4002803156
 30
0.0
 10
9.7041763164
 20
9.4062999306
 30
0.0
 10
9.7235436649
 20
9.4113533732
 30
0.0
 10
9.7432012571
 20
9.4154285082
 30
0.0
 10
9.7631017073
 20
9.4185155601
 30
0.0
 10
9.7831970523
 20
9.4206071339
 30
0.0
 10
9.8034388652
 20
9.421698241
 30
0.0
 10
9.8237783745
 20
9.4217863089
 30
0.0
 10
9.8441665816
 20
9.4208711776
 30
0.0
 10
9.8645543784
 20
9.4189551013
 30
0.0
 10
9.8848926643
 20
9.4160427409
 30
0.0
 10
9.9051324638
 20
9.4121411527
 30
0.0
 10
9.9252250428
 20
9.4072597692
 30
0.0
 10
9.9451220268
 20
9.4014103834
 30
0.0
 10
9.9647755179
 20
9.394607122
 30
0.0
 10
9.98413821
 20
9.3868663982
 30
0.0
 10
10.0031634905
 20
9.3782068852
 30
0.0
 10
10.0218055965
 20
9.3686494311
 30
0.0
 10
10.0400195528
 20
9.3582171552
 30
0.0
 10
10.0577619195
 20
9.346934847
 30
0.0
 10
10.0807393493
 20
9.3307902331
 30
0.0
 10
10.1080657324
 20
9.3086259142
 30
0.0
 10
10.1332611455
 20
9.2840410267
 30
0.0
 10
10.1520052076
 20
9.2630536673
 30
0.0
 10
10.1653247476
 20
9.2466894203
 30
0.0
 10
10.1778704698
 20
9.2297441972
 30
0.0
 10
10.1896125562
 20
9.212258425
 30
0.0
 10
10.2005226294
 20
9.1942742861
 30
0.0
 10
10.2105744406
 20
9.1758350385
 30
0.0
 10
10.2197437668
 20
9.1569850676
 30
0.0
 10
10.2280085128
 20
9.1377697393
 30
0.0
 10
10.2353487521
 20
9.1182353024
 30
0.0
 10
10.241746782
 20
9.0984287744
 30
0.0
 10
10.2471871629
 20
9.078397842
 30
0.0
 10
10.2516567874
 20
9.0581907004
 30
0.0
 10
10.2551447994
 20
9.0378560903
 30
0.0
 10
10.2576428641
 20
9.0174426924
 30
0.0
 10
10.2591447714
 20
8.9970004389
 30
0.0
 10
10.2594801566
 20
8.9833610852
 30
0.0
 10
10.2594801566
 20
8.9765541357
 30
0.0
  0
SPLINE
  5
34B
100
AcDbEntity
  8
0
100
AcDbSpline
 62
7
  6
CONTINUOUS
 70
0
 71
3
 72
42
 73
38
 74
0
 42
0.0000001
 43
0.0000001
 44
0.0000000001
 40
0.0
 40
0.0
 40
0.0
 40
0.0
 40
0.0299419644
 40
0.0449235317
 40
0.0599142035
 40
0.0899287023
 40
0.1200139727
 40
0.1350926544
 40
0.1501966973
 40
0.1804840373
 40
0.210897868
 40
0.2414513286
 40
0.2721543342
 40
0.3030133956
 40
0.3340315238
 40
0.3652082165
 40
0.3965395222
 40
0.4280181758
 40
0.459633799
 40
0.4913731572
 40
0.5232204671
 40
0.5551577446
 40
0.5871651885
 40
0.6192215901
 40
0.6513047644
 40
0.683391994
 40
0.715460481
 40
0.7474877999
 40
0.7794523452
 40
0.8113337678
 40
0.8431133918
 40
0.8747746145
 40
0.906303246
 40
0.9376878974
 40
0.9533257627
 40
0.9689252947
 40
1.0
 40
1.0
 40
1.0
 40
1.0
 10
11.9722528032
 20
8.235261753
 30
0.0
 10
11.9693993805
 20
8.2325055594
 30
0.0
 10
11.9649510573
 20
8.2285382729
 30
0.0
 10
11.9587213038
 20
8.2236156932
 30
0.0
 10
11.9522931092
 20
8.2189381345
 30
0.0
 10
11.9439054182
 20
8.2135667121
 30
0.0
 10
11.9351098757
 20
8.2088683176
 30
0.0
 10
11.9278558649
 20
8.2055257987
 30
0.0
 10
11.9204519604
 20
8.2024593051
 30
0.0
 10
11.9109531218
 20
8.1991618715
 30
0.0
 10
11.8992472221
 20
8.1960887667
 30
0.0
 10
11.8872858977
 20
8.1939116863
 30
0.0
 10
11.8751354312
 20
8.1926426544
 30
0.0
 10
11.8628625694
 20
8.1922884398
 30
0.0
 10
11.850534841
 20
8.1928508465
 30
0.0
 10
11.8382200023
 20
8.1943266254
 30
0.0
 10
11.8259857181
 20
8.1967075229
 30
0.0
 10
11.8138991811
 20
8.1999803253
 30
0.0
 10
11.8020267508
 20
8.2041269374
 30
0.0
 10
11.7904335939
 20
8.2091244847
 30
0.0
 10
11.7791833319
 20
8.2149454401
 30
0.0
 10
11.7683376963
 20
8.2215577766
 30
0.0
 10
11.7579561948
 20
8.2289251423
 30
0.0
 10
11.7480957889
 20
8.237007059
 30
0.0
 10
11.738810585
 20
8.2457591432
 30
0.0
 10
11.7301515407
 20
8.2551333477
 30
0.0
 10
11.7221661881
 20
8.2650782222
 30
0.0
 10
11.7148983759
 20
8.2755391941
 30
0.0
 10
11.7083880303
 20
8.286458861
 30
0.0
 10
11.7026709371
 20
8.297777315
 30
0.0
 10
11.6977785496
 20
8.3094324201
 30
0.0
 10
11.6937378011
 20
8.3213603228
 30
0.0
 10
11.6905710206
 20
8.3334951543
 30
0.0
 10
11.6886724603
 20
8.3437382649
 30
0.0
 10
11.6876074278
 20
8.3519684882
 30
0.0
 10
11.6868473398
 20
8.3601908339
 30
0.0
 10
11.6866171909
 20
8.3663780963
 30
0.0
 10
11.6866171909
 20
8.3704953736
 30
0.0
  0
SPLINE
  5
34C
100
AcDbEntity
  8
0
100
AcDbSpline
 62
7
  6
CONTINUOUS
 70
0
 71
3
 72
42
 73
38
 74
0
 42
0.0000001
 43
0.0000001
 44
0.0000000001
 40
0.0
 40
0.0
 40
0.0
 40
0.0
 40
0.0309021651
 40
0.0464078252
 40
0.0619473254
 40
0.0931236682
 40
0.1244295491
 40
0.1558569766
 40
0.1873960402
 40
0.2190350052
 40
0.2507605482
 40
0.282557972
 40
0.3144114497
 40
0.3463042777
 40
0.3782191398
 40
0.4101383778
 40
0.4420442655
 40
0.473919284
 40
0.505746394
 40
0.5375093037
 40
0.5691927278
 40
0.6007826357
 40
0.6322664842
 40
0.6636334327
 40
0.6948745374
 40
0.7259829188
 40
0.7569539019
 40
0.7877851229
 40
0.818476601
 40
0.8490307698
 40
0.8642599328
 40
0.8794567788
 40
0.9097531965
 40
0.939933776
 40
0.9549863848
 40
0.9700145281
 40
1.0
 40
1.0
 40
1.0
 40
1.0
 10
11.5963031208
 20
6.8554254781
 30
0.0
 10
11.5963031208
 20
6.8498105182
 30
0.0
 10
11.5965803097
 20
6.8413748384
 30
0.0
 10
11.5974969145
 20
6.8301549322
 30
0.0
 10
11.5987813511
 20
6.8189206164
 30
0.0
 10
11.6010720957
 20
6.8049195993
 30
0.0
 10
11.6048984174
 20
6.7882791206
 30
0.0
 10
11.6097888469
 20
6.7718507324
 30
0.0
 10
11.615722259
 20
6.7557053285
 30
0.0
 10
11.6226731397
 20
6.7399120299
 30
0.0
 10
11.6306116029
 20
6.7245385879
 30
0.0
 10
11.6395035483
 20
6.7096509094
 30
0.0
 10
11.6493107979
 20
6.6953128273
 30
0.0
 10
11.6599912622
 20
6.6815858161
 30
0.0
 10
11.6714991187
 20
6.6685287341
 30
0.0
 10
11.6837850072
 20
6.6561975726
 30
0.0
 10
11.6967962402
 20
6.6446452177
 30
0.0
 10
11.7104770268
 20
6.6339212252
 30
0.0
 10
11.7247687102
 20
6.6240716098
 30
0.0
 10
11.7396100164
 20
6.6151386487
 30
0.0
 10
11.7549373151
 20
6.6071607016
 30
0.0
 10
11.7706848894
 20
6.6001720464
 30
0.0
 10
11.7867852146
 20
6.5942027323
 30
0.0
 10
11.8031692456
 20
6.5892784511
 30
0.0
 10
11.8197667055
 20
6.5854204248
 30
0.0
 10
11.8365063992
 20
6.5826453162
 30
0.0
 10
11.8533164594
 20
6.5809651444
 30
0.0
 10
11.8701248579
 20
6.580387269
 30
0.0
 10
11.8868589504
 20
6.580914211
 30
0.0
 10
11.9006991121
 20
6.5822740268
 30
0.0
 10
11.9116595024
 20
6.5839111193
 30
0.0
 10
11.9225125402
 20
6.5859076986
 30
0.0
 10
11.9359032469
 20
6.5890795358
 30
0.0
 10
11.9490218784
 20
6.5931485303
 30
0.0
 10
11.9593008213
 20
6.5969273739
 30
0.0
 10
11.9694102988
 20
6.601044328
 30
0.0
 10
11.9768232293
 20
6.6045208284
 30
0.0
 10
11.9816726214
 20
6.6070044572
 30
0.0
  0
SPLINE
  5
34D
100
AcDbEntity
  8
0
100
AcDbSpline
 62
7
  6
CONTINUOUS
 70
0
 71
3
 72
15
 73
11
 74
0
 42
0.0000001
 43
0.0000001
 44
0.0000000001
 40
0.0
 40
0.0
 40
0.0
 40
0.0
 40
0.1267267029
 40
0.2529167639
 40
0.3785796106
 40
0.5037379337
 40
0.6284193322
 40
0.7526602922
 40
0.8765039341
 40
1.0
 40
1.0
 40
1.0
 40
1.0
 10
11.5963031208
 20
6.8554254781
 30
0.0
 10
11.5963031208
 20
6.8606804575
 30
0.0
 10
11.5966256877
 20
6.8711711138
 30
0.0
 10
11.5980826618
 20
6.8868116799
 30
0.0
 10
11.6005063883
 20
6.9022667675
 30
0.0
 10
11.6038876679
 20
6.9174768616
 30
0.0
 10
11.6082137988
 20
6.9323843861
 30
0.0
 10
11.613468507
 20
6.9469328227
 30
0.0
 10
11.6196315173
 20
6.9610661337
 30
0.0
 10
11.6243370926
 20
6.9701891011
 30
0.0
 10
11.6268321693
 20
6.9746611678
 30
0.0
  0
SPLINE
  5
34E
100
AcDbEntity
  8
0
100
AcDbSpline
 62
7
  6
CONTINUOUS
 70
0
 71
3
 72
19
 73
15
 74
0
 42
0.0000001
 43
0.0000001
 44
0.0000000001
 40
0.0
 40
0.0
 40
0.0
 40
0.0
 40
0.12732766
 40
0.2538196711
 40
0.3795264658
 40
0.5045235362
 40
0.5668075958
 40
0.6289556124
 40
0.6909843715
 40
0.7529118454
 40
0.8147570127
 40
0.8765397119
 40
0.9382804145
 40
1.0
 40
1.0
 40
1.0
 40
1.0
 10
11.6866171909
 20
6.8491621761
 30
0.0
 10
11.6866171909
 20
6.8544594337
 30
0.0
 10
11.6871229624
 20
6.86502647
 30
0.0
 10
11.6894103761
 20
6.8806739937
 30
0.0
 10
11.6932028884
 20
6.8959276139
 30
0.0
 10
11.6975962053
 20
6.9082107383
 30
0.0
 10
11.7018213735
 20
6.9176927079
 30
0.0
 10
11.7053348944
 20
6.9246127073
 30
0.0
 10
11.7091881172
 20
6.9313321683
 30
0.0
 10
11.7133722717
 20
6.9378358149
 30
0.0
 10
11.7178777047
 20
6.9441085478
 30
0.0
 10
11.7226940329
 20
6.9501360015
 30
0.0
 10
11.7278099967
 20
6.9559040516
 30
0.0
 10
11.731413222
 20
6.9595682746
 30
0.0
 10
11.7332600824
 20
6.9613522041
 30
0.0
  0
SPLINE
  5
34F
100
AcDbEntity
  8
0
100
AcDbSpline
 62
7
  6
CONTINUOUS
 70
0
 71
3
 72
42
 73
38
 74
0
 42
0.0000001
 43
0.0000001
 44
0.0000000001
 40
0.0
 40
0.0
 40
0.0
 40
0.0
 40
0.0299419644
 40
0.0449235317
 40
0.0599142035
 40
0.0899287023
 40
0.1200139727
 40
0.1350926544
 40
0.1501966973
 40
0.1804840373
 40
0.210897868
 40
0.2414513286
 40
0.2721543342
 40
0.3030133956
 40
0.3340315238
 40
0.3652082165
 40
0.3965395222
 40
0.4280181758
 40
0.459633799
 40
0.4913731572
 40
0.5232204671
 40
0.5551577446
 40
0.5871651885
 40
0.6192215901
 40
0.6513047644
 40
0.683391994
 40
0.715460481
 40
0.7474877999
 40
0.7794523452
 40
0.8113337678
 40
0.8431133918
 40
0.8747746145
 40
0.906303246
 40
0.9376878974
 40
0.9533257627
 40
0.9689252947
 40
1.0
 40
1.0
 40
1.0
 40
1.0
 10
11.9722528032
 20
6.7139285556
 30
0.0
 10
11.9693993805
 20
6.711172362
 30
0.0
 10
11.9649510573
 20
6.7072050755
 30
0.0
 10
11.9587213038
 20
6.7022824958
 30
0.0
 10
11.9522931092
 20
6.6976049371
 30
0.0
 10
11.9439054182
 20
6.6922335146
 30
0.0
 10
11.9351098757
 20
6.6875351201
 30
0.0
 10
11.9278558649
 20
6.6841926012
 30
0.0
 10
11.9204519604
 20
6.6811261076
 30
0.0
 10
11.9109531218
 20
6.6778286741
 30
0.0
 10
11.8992472221
 20
6.6747555693
 30
0.0
 10
11.8872858977
 20
6.6725784889
 30
0.0
 10
11.8751354312
 20
6.6713094569
 30
0.0
 10
11.8628625694
 20
6.6709552423
 30
0.0
 10
11.850534841
 20
6.671517649
 30
0.0
 10
11.8382200023
 20
6.6729934279
 30
0.0
 10
11.8259857181
 20
6.6753743254
 30
0.0
 10
11.8138991811
 20
6.6786471278
 30
0.0
 10
11.8020267508
 20
6.68279374
 30
0.0
 10
11.7904335939
 20
6.6877912872
 30
0.0
 10
11.7791833319
 20
6.6936122427
 30
0.0
 10
11.7683376963
 20
6.7002245792
 30
0.0
 10
11.7579561948
 20
6.7075919448
 30
0.0
 10
11.7480957889
 20
6.7156738615
 30
0.0
 10
11.738810585
 20
6.7244259458
 30
0.0
 10
11.7301515407
 20
6.7338001502
 30
0.0
 10
11.7221661881
 20
6.7437450247
 30
0.0
 10
11.7148983759
 20
6.7542059966
 30
0.0
 10
11.7083880303
 20
6.7651256635
 30
0.0
 10
11.7026709371
 20
6.7764441175
 30
0.0
 10
11.6977785496
 20
6.7880992226
 30
0.0
 10
11.6937378011
 20
6.8000271253
 30
0.0
 10
11.6905710206
 20
6.8121619568
 30
0.0
 10
11.6886724603
 20
6.8224050675
 30
0.0
 10
11.6876074278
 20
6.8306352907
 30
0.0
 10
11.6868473398
 20
6.8388576364
 30
0.0
 10
11.6866171909
 20
6.8450448988
 30
0.0
 10
11.6866171909
 20
6.8491621761
 30
0.0
  0
SPLINE
  5
350
100
AcDbEntity
  8
0
100
AcDbSpline
 62
7
  6
CONTINUOUS
 70
0
 71
3
 72
69
 73
65
 74
0
 42
0.0000001
 43
0.0000001
 44
0.0000000001
 40
0.0
 40
0.0
 40
0.0
 40
0.0
 40
0.0155845211
 40
0.0311164602
 40
0.0465960436
 40
0.0620249357
 40
0.0774047624
 40
0.0927378572
 40
0.1080269573
 40
0.1232752669
 40
0.1384864072
 40
0.1536643854
 40
0.1688135559
 40
0.1839385757
 40
0.1990443575
 40
0.214136018
 40
0.2292188243
 40
0.244298138
 40
0.2593793583
 40
0.2744678642
 40
0.2895689568
 40
0.304687803
 40
0.3198293807
 40
0.3349984272
 40
0.3501993899
 40
0.3654363821
 40
0.3807131424
 40
0.3960329993
 40
0.41139884
 40
0.4268130849
 40
0.4422776679
 40
0.4577940212
 40
0.4733630667
 40
0.4889852122
 40
0.5046603531
 40
0.5203878778
 40
0.536166679
 40
0.5519951685
 40
0.5678712963
 40
0.5837925739
 40
0.5997561013
 40
0.6157585961
 40
0.6317964263
 40
0.6478656441
 40
0.6639620234
 40
0.6800810982
 40
0.7123600125
 40
0.7446719578
 40
0.7608320192
 40
0.7769852785
 40
0.7931267714
 40
0.8092516366
 40
0.8253551583
 40
0.8414328081
 40
0.8574802855
 40
0.8734935573
 40
0.8894688943
 40
0.9054029069
 40
0.9212925827
 40
0.9371352947
 40
0.9529289165
 40
0.9686715601
 40
0.984362356
 40
1.0
 40
1.0
 40
1.0
 40
1.0
 10
10.2594801566
 20
8.9765541357
 30
0.0
 10
10.2594801566
 20
8.9697703103
 30
0.0
 10
10.2591481691
 20
8.9562231423
 30
0.0
 10
10.2576495551
 20
8.9359877324
 30
0.0
 10
10.2551545719
 20
8.9159185544
 30
0.0
 10
10.2516693336
 20
8.8960647347
 30
0.0
 10
10.2472020805
 20
8.876473849
 30
0.0
 10
10.2417635858
 20
8.8571932118
 30
0.0
 10
10.2353668837
 20
8.8382692831
 30
0.0
 10
10.2280273529
 20
8.8197477039
 30
0.0
 10
10.2197626497
 20
8.80167314
 30
0.0
 10
10.2105926686
 20
8.7840891856
 30
0.0
 10
10.200539491
 20
8.767038256
 30
0.0
 10
10.1896273337
 20
8.7505614849
 30
0.0
 10
10.1778824904
 20
8.7346986241
 30
0.0
 10
10.1653332693
 20
8.7194879459
 30
0.0
 10
10.1520099235
 20
8.7049661512
 30
0.0
 10
10.137944587
 20
8.6911682704
 30
0.0
 10
10.123171189
 20
8.6781275821
 30
0.0
 10
10.1077253682
 20
8.665875535
 30
0.0
 10
10.0916443872
 20
8.6544416707
 30
0.0
 10
10.0749670408
 20
8.6438535522
 30
0.0
 10
10.0577335616
 20
8.6341366973
 30
0.0
 10
10.0399855213
 20
8.6253145188
 30
0.0
 10
10.0217657341
 20
8.6174082578
 30
0.0
 10
10.0031181484
 20
8.6104369372
 30
0.0
 10
9.984087737
 20
8.6044173222
 30
0.0
 10
9.9647203884
 20
8.5993638795
 30
0.0
 10
9.9450627963
 20
8.5952887446
 30
0.0
 10
9.925162346
 20
8.5922016927
 30
0.0
 10
9.9050670011
 20
8.5901101189
 30
0.0
 10
9.8848251881
 20
8.5890190118
 30
0.0
 10
9.8644856788
 20
8.5889309439
 30
0.0
 10
9.8440974717
 20
8.5898460752
 30
0.0
 10
9.823709675
 20
8.5917621514
 30
0.0
 10
9.8033713891
 20
8.5946745119
 30
0.0
 10
9.7831315895
 20
8.5985761001
 30
0.0
 10
9.7630390105
 20
8.6034574836
 30
0.0
 10
9.7431420265
 20
8.6093068693
 30
0.0
 10
9.7234885355
 20
8.6161101308
 30
0.0
 10
9.7041258433
 20
8.6238508546
 30
0.0
 10
9.6851005628
 20
8.6325103676
 30
0.0
 10
9.6664584569
 20
8.6420678216
 30
0.0
 10
9.6482445005
 20
8.6525000976
 30
0.0
 10
9.6305021339
 20
8.6637824057
 30
0.0
 10
9.607524704
 20
8.6799270196
 30
0.0
 10
9.580198321
 20
8.7020913385
 30
0.0
 10
9.5550029078
 20
8.7266762261
 30
0.0
 10
9.5362588458
 20
8.7476635855
 30
0.0
 10
9.5229393058
 20
8.7640278325
 30
0.0
 10
9.5103935836
 20
8.7809730556
 30
0.0
 10
9.4986514971
 20
8.7984588278
 30
0.0
 10
9.487741424
 20
8.8164429667
 30
0.0
 10
9.4776896128
 20
8.8348822143
 30
0.0
 10
9.4685202866
 20
8.8537321851
 30
0.0
 10
9.4602555405
 20
8.8729475135
 30
0.0
 10
9.4529153013
 20
8.8924819504
 30
0.0
 10
9.4465172713
 20
8.9122884784
 30
0.0
 10
9.4410768904
 20
8.9323194107
 30
0.0
 10
9.436607266
 20
8.9525265524
 30
0.0
 10
9.4331192539
 20
8.9728611625
 30
0.0
 10
9.4306211892
 20
8.9932745604
 30
0.0
 10
9.4291192819
 20
9.0137168139
 30
0.0
 10
9.4287838968
 20
9.0273561676
 30
0.0
 10
9.4287838968
 20
9.034163117
 30
0.0
  0
SPLINE
  5
351
100
AcDbEntity
  8
0
100
AcDbSpline
 62
7
  6
CONTINUOUS
 70
0
 71
3
 72
69
 73
65
 74
0
 42
0.0000001
 43
0.0000001
 44
0.0000000001
 40
0.0
 40
0.0
 40
0.0
 40
0.0
 40
0.0155845211
 40
0.0311164602
 40
0.0465960436
 40
0.0620249357
 40
0.0774047624
 40
0.0927378572
 40
0.1080269573
 40
0.1232752669
 40
0.1384864072
 40
0.1536643854
 40
0.1688135559
 40
0.1839385757
 40
0.1990443575
 40
0.214136018
 40
0.2292188243
 40
0.244298138
 40
0.2593793583
 40
0.2744678642
 40
0.2895689568
 40
0.304687803
 40
0.3198293807
 40
0.3349984272
 40
0.3501993899
 40
0.3654363821
 40
0.3807131424
 40
0.3960329993
 40
0.41139884
 40
0.4268130849
 40
0.4422776679
 40
0.4577940212
 40
0.4733630667
 40
0.4889852122
 40
0.5046603531
 40
0.5203878778
 40
0.536166679
 40
0.5519951685
 40
0.5678712963
 40
0.5837925739
 40
0.5997561013
 40
0.6157585961
 40
0.6317964263
 40
0.6478656441
 40
0.6639620234
 40
0.6800810982
 40
0.7123600125
 40
0.7446719578
 40
0.7608320192
 40
0.7769852785
 40
0.7931267714
 40
0.8092516366
 40
0.8253551583
 40
0.8414328081
 40
0.8574802855
 40
0.8734935573
 40
0.8894688943
 40
0.9054029069
 40
0.9212925827
 40
0.9371352947
 40
0.9529289165
 40
0.9686715601
 40
0.984362356
 40
1.0
 40
1.0
 40
1.0
 40
1.0
 10
10.7975008696
 20
7.5705253573
 30
0.0
 10
10.7975008696
 20
7.5773091828
 30
0.0
 10
10.797832857
 20
7.5908563508
 30
0.0
 10
10.7993314711
 20
7.6110917607
 30
0.0
 10
10.8018264542
 20
7.6311609387
 30
0.0
 10
10.8053116926
 20
7.6510147583
 30
0.0
 10
10.8097789457
 20
7.6706056441
 30
0.0
 10
10.8152174403
 20
7.6898862813
 30
0.0
 10
10.8216141425
 20
7.70881021
 30
0.0
 10
10.8289536732
 20
7.7273317892
 30
0.0
 10
10.8372183764
 20
7.7454063531
 30
0.0
 10
10.8463883576
 20
7.7629903075
 30
0.0
 10
10.8564415351
 20
7.7800412371
 30
0.0
 10
10.8673536924
 20
7.7965180082
 30
0.0
 10
10.8790985357
 20
7.812380869
 30
0.0
 10
10.8916477568
 20
7.8275915472
 30
0.0
 10
10.9049711026
 20
7.8421133419
 30
0.0
 10
10.9190364391
 20
7.8559112227
 30
0.0
 10
10.9338098372
 20
7.868951911
 30
0.0
 10
10.9492556579
 20
7.8812039581
 30
0.0
 10
10.9653366389
 20
7.8926378224
 30
0.0
 10
10.9820139854
 20
7.9032259409
 30
0.0
 10
10.9992474646
 20
7.9129427958
 30
0.0
 10
11.0169955049
 20
7.9217649743
 30
0.0
 10
11.035215292
 20
7.9296712353
 30
0.0
 10
11.0538628777
 20
7.9366425559
 30
0.0
 10
11.0728932892
 20
7.9426621709
 30
0.0
 10
11.0922606377
 20
7.9477156135
 30
0.0
 10
11.1119182299
 20
7.9517907485
 30
0.0
 10
11.1318186801
 20
7.9548778004
 30
0.0
 10
11.1519140251
 20
7.9569693742
 30
0.0
 10
11.172155838
 20
7.9580604813
 30
0.0
 10
11.1924953473
 20
7.9581485492
 30
0.0
 10
11.2128835544
 20
7.9572334179
 30
0.0
 10
11.2332713512
 20
7.9553173416
 30
0.0
 10
11.2536096371
 20
7.9524049812
 30
0.0
 10
11.2738494366
 20
7.948503393
 30
0.0
 10
11.2939420156
 20
7.9436220095
 30
0.0
 10
11.3138389996
 20
7.9377726237
 30
0.0
 10
11.3334924907
 20
7.9309693623
 30
0.0
 10
11.3528551828
 20
7.9232286385
 30
0.0
 10
11.3718804633
 20
7.9145691255
 30
0.0
 10
11.3905225693
 20
7.9050116715
 30
0.0
 10
11.4087365256
 20
7.8945793955
 30
0.0
 10
11.4264788923
 20
7.8832970873
 30
0.0
 10
11.4494563221
 20
7.8671524734
 30
0.0
 10
11.4767827052
 20
7.8449881545
 30
0.0
 10
11.5019781184
 20
7.820403267
 30
0.0
 10
11.5207221804
 20
7.7994159076
 30
0.0
 10
11.5340417204
 20
7.7830516606
 30
0.0
 10
11.5465874426
 20
7.7661064375
 30
0.0
 10
11.558329529
 20
7.7486206653
 30
0.0
 10
11.5692396022
 20
7.7306365264
 30
0.0
 10
11.5792914134
 20
7.7121972788
 30
0.0
 10
11.5884607396
 20
7.6933473079
 30
0.0
 10
11.5967254856
 20
7.6741319796
 30
0.0
 10
11.6040657249
 20
7.6545975427
 30
0.0
 10
11.6104637548
 20
7.6347910147
 30
0.0
 10
11.6159041357
 20
7.6147600823
 30
0.0
 10
11.6203737602
 20
7.5945529407
 30
0.0
 10
11.6238617722
 20
7.5742183306
 30
0.0
 10
11.6263598369
 20
7.5538049327
 30
0.0
 10
11.6278617442
 20
7.5333626792
 30
0.0
 10
11.6281971294
 20
7.5197233255
 30
0.0
 10
11.6281971294
 20
7.5129163761
 30
0.0
  0
SPLINE
  5
352
100
AcDbEntity
  8
0
100
AcDbSpline
 62
7
  6
CONTINUOUS
 70
0
 71
3
 72
23
 73
19
 74
0
 42
0.0000001
 43
0.0000001
 44
0.0000000001
 40
0.0
 40
0.0
 40
0.0
 40
0.0
 40
0.0637770481
 40
0.1273448966
 40
0.1907019688
 40
0.2538561314
 40
0.3168131981
 40
0.3795820903
 40
0.4421733865
 40
0.5045993362
 40
0.5668738674
 40
0.6290123827
 40
0.6910316513
 40
0.7529496439
 40
0.8147853535
 40
0.8765586049
 40
0.9382898569
 40
1.0
 40
1.0
 40
1.0
 40
1.0
 10
9.5249263569
 20
9.0485296078
 30
0.0
 10
9.5249263569
 20
9.0539528107
 30
0.0
 10
9.5251859375
 20
9.0647832652
 30
0.0
 10
9.5263575311
 20
9.0809630613
 30
0.0
 10
9.5283082527
 20
9.097014602
 30
0.0
 10
9.5310334309
 20
9.1129002074
 30
0.0
 10
9.5345269748
 20
9.1285835534
 30
0.0
 10
9.5387808177
 20
9.1440283858
 30
0.0
 10
9.5437851774
 20
9.1591991244
 30
0.0
 10
9.5495285525
 20
9.1740607844
 30
0.0
 10
9.5559977345
 20
9.1885790886
 30
0.0
 10
9.5631778569
 20
9.2027205398
 30
0.0
 10
9.5710523657
 20
9.2164525218
 30
0.0
 10
9.5796031209
 20
9.2297433685
 30
0.0
 10
9.5888103921
 20
9.2425623896
 30
0.0
 10
9.5986530764
 20
9.254880101
 30
0.0
 10
9.6091080902
 20
9.2666676974
 30
0.0
 10
9.616471629
 20
9.2741559412
 30
0.0
 10
9.62024588
 20
9.2778015854
 30
0.0
  0
SPLINE
  5
353
100
AcDbEntity
  8
0
100
AcDbSpline
 62
7
  6
CONTINUOUS
 70
0
 71
3
 72
69
 73
65
 74
0
 42
0.0000001
 43
0.0000001
 44
0.0000000001
 40
0.0
 40
0.0
 40
0.0
 40
0.0
 40
0.0155845211
 40
0.0311164602
 40
0.0465960436
 40
0.0620249357
 40
0.0774047624
 40
0.0927378572
 40
0.1080269573
 40
0.1232752669
 40
0.1384864072
 40
0.1536643854
 40
0.1688135559
 40
0.1839385757
 40
0.1990443575
 40
0.214136018
 40
0.2292188243
 40
0.244298138
 40
0.2593793583
 40
0.2744678642
 40
0.2895689568
 40
0.304687803
 40
0.3198293807
 40
0.3349984272
 40
0.3501993899
 40
0.3654363821
 40
0.3807131424
 40
0.3960329993
 40
0.41139884
 40
0.4268130849
 40
0.4422776679
 40
0.4577940212
 40
0.4733630667
 40
0.4889852122
 40
0.5046603531
 40
0.5203878778
 40
0.536166679
 40
0.5519951685
 40
0.5678712963
 40
0.5837925739
 40
0.5997561013
 40
0.6157585961
 40
0.6317964263
 40
0.6478656441
 40
0.6639620234
 40
0.6800810982
 40
0.7123600125
 40
0.7446719578
 40
0.7608320192
 40
0.7769852785
 40
0.7931267714
 40
0.8092516366
 40
0.8253551583
 40
0.8414328081
 40
0.8574802855
 40
0.8734935573
 40
0.8894688943
 40
0.9054029069
 40
0.9212925827
 40
0.9371352947
 40
0.9529289165
 40
0.9686715601
 40
0.984362356
 40
1.0
 40
1.0
 40
1.0
 40
1.0
 10
11.6281971294
 20
7.5129163761
 30
0.0
 10
11.6281971294
 20
7.5061325506
 30
0.0
 10
11.627865142
 20
7.4925853826
 30
0.0
 10
11.6263665279
 20
7.4723499727
 30
0.0
 10
11.6238715448
 20
7.4522807947
 30
0.0
 10
11.6203863064
 20
7.4324269751
 30
0.0
 10
11.6159190533
 20
7.4128360893
 30
0.0
 10
11.6104805586
 20
7.3935554521
 30
0.0
 10
11.6040838565
 20
7.3746315234
 30
0.0
 10
11.5967443257
 20
7.3561099442
 30
0.0
 10
11.5884796225
 20
7.3380353803
 30
0.0
 10
11.5793096414
 20
7.3204514259
 30
0.0
 10
11.5692564639
 20
7.3034004963
 30
0.0
 10
11.5583443065
 20
7.2869237252
 30
0.0
 10
11.5465994632
 20
7.2710608644
 30
0.0
 10
11.5340502421
 20
7.2558501862
 30
0.0
 10
11.5207268963
 20
7.2413283915
 30
0.0
 10
11.5066615599
 20
7.2275305107
 30
0.0
 10
11.4918881618
 20
7.2144898224
 30
0.0
 10
11.476442341
 20
7.2022377753
 30
0.0
 10
11.46036136
 20
7.190803911
 30
0.0
 10
11.4436840136
 20
7.1802157925
 30
0.0
 10
11.4264505344
 20
7.1704989376
 30
0.0
 10
11.4087024941
 20
7.1616767591
 30
0.0
 10
11.3904827069
 20
7.1537704981
 30
0.0
 10
11.3718351212
 20
7.1467991775
 30
0.0
 10
11.3528047098
 20
7.1407795625
 30
0.0
 10
11.3334373613
 20
7.1357261199
 30
0.0
 10
11.3137797691
 20
7.1316509849
 30
0.0
 10
11.2938793188
 20
7.128563933
 30
0.0
 10
11.2737839739
 20
7.1264723592
 30
0.0
 10
11.2535421609
 20
7.1253812521
 30
0.0
 10
11.2332026516
 20
7.1252931842
 30
0.0
 10
11.2128144445
 20
7.1262083155
 30
0.0
 10
11.1924266478
 20
7.1281243918
 30
0.0
 10
11.1720883619
 20
7.1310367522
 30
0.0
 10
11.1518485623
 20
7.1349383404
 30
0.0
 10
11.1317559833
 20
7.1398197239
 30
0.0
 10
11.1118589993
 20
7.1456691096
 30
0.0
 10
11.0922055083
 20
7.1524723711
 30
0.0
 10
11.0728428161
 20
7.1602130949
 30
0.0
 10
11.0538175356
 20
7.1688726079
 30
0.0
 10
11.0351754297
 20
7.1784300619
 30
0.0
 10
11.0169614733
 20
7.1888623379
 30
0.0
 10
10.9992191067
 20
7.200144646
 30
0.0
 10
10.9762416768
 20
7.21628926
 30
0.0
 10
10.9489152938
 20
7.2384535789
 30
0.0
 10
10.9237198806
 20
7.2630384664
 30
0.0
 10
10.9049758186
 20
7.2840258258
 30
0.0
 10
10.8916562786
 20
7.3003900728
 30
0.0
 10
10.8791105564
 20
7.3173352959
 30
0.0
 10
10.8673684699
 20
7.3348210681
 30
0.0
 10
10.8564583968
 20
7.352805207
 30
0.0
 10
10.8464065856
 20
7.3712444546
 30
0.0
 10
10.8372372594
 20
7.3900944255
 30
0.0
 10
10.8289725133
 20
7.4093097538
 30
0.0
 10
10.8216322741
 20
7.4288441907
 30
0.0
 10
10.8152342441
 20
7.4486507187
 30
0.0
 10
10.8097938632
 20
7.468681651
 30
0.0
 10
10.8053242388
 20
7.4888887927
 30
0.0
 10
10.8018362267
 20
7.5092234028
 30
0.0
 10
10.799338162
 20
7.5296368007
 30
0.0
 10
10.7978362547
 20
7.5500790542
 30
0.0
 10
10.7975008696
 20
7.5637184079
 30
0.0
 10
10.7975008696
 20
7.5705253573
 30
0.0
  0
SPLINE
  5
354
100
AcDbEntity
  8
0
100
AcDbSpline
 62
7
  6
CONTINUOUS
 70
0
 71
3
 72
39
 73
35
 74
0
 42
0.0000001
 43
0.0000001
 44
0.0000000001
 40
0.0
 40
0.0
 40
0.0
 40
0.0
 40
0.0310753532
 40
0.0623079102
 40
0.09369313
 40
0.1252222885
 40
0.1568840435
 40
0.1886642047
 40
0.220546165
 40
0.2525112493
 40
0.2845391083
 40
0.3166081364
 40
0.3486959075
 40
0.3807796231
 40
0.4128365658
 40
0.4448445502
 40
0.4767823671
 40
0.5086302143
 40
0.5403701081
 40
0.5719862652
 40
0.603465451
 40
0.634797286
 40
0.6659745047
 40
0.6969931564
 40
0.7278527393
 40
0.7585562643
 40
0.7891102412
 40
0.8195245853
 40
0.8498124369
 40
0.8799898959
 40
0.9100756754
 40
0.9400906818
 40
0.9700575291
 40
1.0
 40
1.0
 40
1.0
 40
1.0
 10
9.5249263569
 20
9.0485296078
 30
0.0
 10
9.5249263569
 20
9.0401154858
 30
0.0
 10
9.5255540309
 20
9.0232382018
 30
0.0
 10
9.5283564652
 20
8.9980030693
 30
0.0
 10
9.5330063823
 20
8.9729161185
 30
0.0
 10
9.5394780913
 20
8.948116881
 30
0.0
 10
9.5477357621
 20
8.9237410734
 30
0.0
 10
9.5577338829
 20
8.899922615
 30
0.0
 10
9.5694173695
 20
8.8767921779
 30
0.0
 10
9.5827219445
 20
8.85447669
 30
0.0
 10
9.597574476
 20
8.8330985922
 30
0.0
 10
9.6138933801
 20
8.8127751945
 30
0.0
 10
9.6315890552
 20
8.793618031
 30
0.0
 10
9.6505643504
 20
8.7757322342
 30
0.0
 10
9.6707151257
 20
8.7592159893
 30
0.0
 10
9.6919308107
 20
8.7441599989
 30
0.0
 10
9.7140950065
 20
8.7306469944
 30
0.0
 10
9.7370861049
 20
8.7187512727
 30
0.0
 10
9.7607779421
 20
8.708538269
 30
0.0
 10
9.7850405009
 20
8.700064233
 30
0.0
 10
9.8097406078
 20
8.6933759127
 30
0.0
 10
9.8347426539
 20
8.6885103019
 30
0.0
 10
9.8599093214
 20
8.6854944082
 30
0.0
 10
9.8851023324
 20
8.6843450833
 30
0.0
 10
9.9101832039
 20
8.6850689557
 30
0.0
 10
9.9350139987
 20
8.6876623709
 30
0.0
 10
9.9594580752
 20
8.6921114029
 30
0.0
 10
9.9833808464
 20
8.6983918845
 30
0.0
 10
10.0066505191
 20
8.7064695106
 30
0.0
 10
10.0291388658
 20
8.7163000832
 30
0.0
 10
10.050721776
 20
8.727829567
 30
0.0
 10
10.0712805786
 20
8.7409949895
 30
0.0
 10
10.0907004019
 20
8.75572249
 30
0.0
 10
10.1028214601
 20
8.7665330665
 30
0.0
 10
10.1086527299
 20
8.7721656373
 30
0.0
  0
SPLINE
  5
355
100
AcDbEntity
  8
0
100
AcDbSpline
 62
7
  6
CONTINUOUS
 70
0
 71
3
 72
15
 73
11
 74
0
 42
0.0000001
 43
0.0000001
 44
0.0000000001
 40
0.0
 40
0.0
 40
0.0
 40
0.0
 40
0.118985991
 40
0.2395914046
 40
0.361917265
 40
0.4860289081
 40
0.6119484689
 40
0.7396448297
 40
0.8690428337
 40
1.0
 40
1.0
 40
1.0
 40
1.0
 10
11.3358038216
 20
7.8777173203
 30
0.0
 10
11.3345666266
 20
7.874232464
 30
0.0
 10
11.3322636696
 20
7.8671470837
 30
0.0
 10
11.3293319063
 20
7.8562834534
 30
0.0
 10
11.32688814
 20
7.8451367526
 30
0.0
 10
11.3249182694
 20
7.833729527
 30
0.0
 10
11.3234072098
 20
7.8220845731
 30
0.0
 10
11.3223406502
 20
7.8102258638
 30
0.0
 10
11.3217069582
 20
7.7981797829
 30
0.0
 10
11.3215685116
 20
7.7900874794
 30
0.0
 10
11.3215685116
 20
7.7860174728
 30
0.0
  0
SPLINE
  5
356
100
AcDbEntity
  8
0
100
AcDbSpline
 62
7
  6
CONTINUOUS
 70
0
 71
3
 72
29
 73
25
 74
0
 42
0.0000001
 43
0.0000001
 44
0.0000000001
 40
0.0
 40
0.0
 40
0.0
 40
0.0
 40
0.0307217859
 40
0.0615357773
 40
0.0924390799
 40
0.123428479
 40
0.1545001686
 40
0.1856496257
 40
0.2481466773
 40
0.3108870842
 40
0.373816564
 40
0.4368752532
 40
0.4999995103
 40
0.56312378
 40
0.6261825084
 40
0.6891120511
 40
0.7518525449
 40
0.8143497023
 40
0.8454992207
 40
0.8765709683
 40
0.9075604504
 40
0.9384638024
 40
0.9692778216
 40
1.0
 40
1.0
 40
1.0
 40
1.0
 10
9.8810974697
 20
9.3627878934
 30
0.0
 10
9.8815252306
 20
9.3576862371
 30
0.0
 10
9.8826093743
 20
9.3474852392
 30
0.0
 10
9.8849121491
 20
9.3322492718
 30
0.0
 10
9.8878894764
 20
9.3170848941
 30
0.0
 10
9.8915352222
 20
9.3020232123
 30
0.0
 10
9.895842165
 20
9.2870941358
 30
0.0
 10
9.9024607688
 20
9.2673872284
 30
0.0
 10
9.9123457197
 20
9.2432364383
 30
0.0
 10
9.9266653741
 20
9.2152992391
 30
0.0
 10
9.9433429786
 20
9.1885908819
 30
0.0
 10
9.9622436217
 20
9.1633274216
 30
0.0
 10
9.9832154102
 20
9.1397115849
 30
0.0
 10
10.0060895808
 20
9.1179332383
 30
0.0
 10
10.0306822335
 20
9.0981676271
 30
0.0
 10
10.0567960374
 20
9.0805735928
 30
0.0
 10
10.084219739
 20
9.0652934465
 30
0.0
 10
10.1080131451
 20
9.054576687
 30
0.0
 10
10.1274786356
 20
9.047278444
 30
0.0
 10
10.1422493577
 20
9.0424562142
 30
0.0
 10
10.1571755408
 20
9.0382901891
 30
0.0
 10
10.1722275371
 20
9.0347886117
 30
0.0
 10
10.1873745267
 20
9.031958663
 30
0.0
 10
10.1975318506
 20
9.0305213267
 30
0.0
 10
10.2026156624
 20
9.02991684
 30
0.0
  0
SPLINE
  5
357
100
AcDbEntity
  8
0
100
AcDbSpline
 62
7
  6
CONTINUOUS
 70
0
 71
3
 72
39
 73
35
 74
0
 42
0.0000001
 43
0.0000001
 44
0.0000000001
 40
0.0
 40
0.0
 40
0.0
 40
0.0
 40
0.0299424695
 40
0.0599093169
 40
0.0899243245
 40
0.1200101059
 40
0.1501875675
 40
0.1804754226
 40
0.2108897705
 40
0.2414437509
 40
0.2721472792
 40
0.3030068663
 40
0.3340255229
 40
0.3652027461
 40
0.3965345839
 40
0.428013771
 40
0.4596299292
 40
0.4913698241
 40
0.5232176721
 40
0.555155489
 40
0.5871634725
 40
0.6192204135
 40
0.6513041268
 40
0.6833918949
 40
0.7154609201
 40
0.7474887765
 40
0.7794538578
 40
0.8113358145
 40
0.8431159703
 40
0.8747777248
 40
0.9063068724
 40
0.9376921006
 40
0.9689246636
 40
1.0
 40
1.0
 40
1.0
 40
1.0
 10
10.5714368081
 20
9.5369326783
 30
0.0
 10
10.5670322496
 20
9.5326782207
 30
0.0
 10
10.557876765
 20
9.5245126905
 30
0.0
 10
10.5432082866
 20
9.5133885852
 30
0.0
 10
10.5276794986
 20
9.5034443785
 30
0.0
 10
10.5113771803
 20
9.4947358422
 30
0.0
 10
10.4943909598
 20
9.4873105523
 30
0.0
 10
10.4768145829
 20
9.4812093232
 30
0.0
 10
10.4587449049
 20
9.4764655368
 30
0.0
 10
10.4402814758
 20
9.4731050931
 30
0.0
 10
10.4215259507
 20
9.471146248
 30
0.0
 10
10.402581537
 20
9.4705995379
 30
0.0
 10
10.383552425
 20
9.4714677244
 30
0.0
 10
10.3645432166
 20
9.4737457927
 30
0.0
 10
10.3456583551
 20
9.4774209985
 30
0.0
 10
10.3270015589
 20
9.4824729443
 30
0.0
 10
10.3086752598
 20
9.4888736986
 30
0.0
 10
10.2907800491
 20
9.4965879539
 30
0.0
 10
10.2734141336
 20
9.5055732227
 30
0.0
 10
10.2566728048
 20
9.5157800715
 30
0.0
 10
10.240647917
 20
9.5271523829
 30
0.0
 10
10.2254273937
 20
9.5396276723
 30
0.0
 10
10.2110947518
 20
9.553137428
 30
0.0
 10
10.1977286484
 20
9.5676074844
 30
0.0
 10
10.1854024547
 20
9.5829584244
 30
0.0
 10
10.1741838566
 20
9.5991060105
 30
0.0
 10
10.1641344881
 20
9.6159616418
 30
0.0
 10
10.1553095902
 20
9.6334328336
 30
0.0
 10
10.1477577032
 20
9.6514237081
 30
0.0
 10
10.1415204235
 20
9.6698355592
 30
0.0
 10
10.1366321271
 20
9.6885672399
 30
0.0
 10
10.1331198958
 20
9.7075162427
 30
0.0
 10
10.1310031293
 20
9.7265771704
 30
0.0
 10
10.1305290286
 20
9.7393251373
 30
0.0
 10
10.1305290286
 20
9.7456805976
 30
0.0
  0
SPLINE
  5
358
100
AcDbEntity
  8
0
100
AcDbSpline
 62
7
  6
CONTINUOUS
 70
0
 71
3
 72
23
 73
19
 74
0
 42
0.0000001
 43
0.0000001
 44
0.0000000001
 40
0.0
 40
0.0
 40
0.0
 40
0.0
 40
0.0637770481
 40
0.1273448966
 40
0.1907019688
 40
0.2538561314
 40
0.3168131981
 40
0.3795820903
 40
0.4421733865
 40
0.5045993362
 40
0.5668738674
 40
0.6290123827
 40
0.6910316513
 40
0.7529496439
 40
0.8147853535
 40
0.8765586049
 40
0.9382898569
 40
1.0
 40
1.0
 40
1.0
 40
1.0
 10
10.8936433297
 20
7.5848918481
 30
0.0
 10
10.8936433297
 20
7.590315051
 30
0.0
 10
10.8939029103
 20
7.6011455055
 30
0.0
 10
10.8950745039
 20
7.6173253017
 30
0.0
 10
10.8970252255
 20
7.6333768423
 30
0.0
 10
10.8997504037
 20
7.6492624477
 30
0.0
 10
10.9032439476
 20
7.6649457937
 30
0.0
 10
10.9074977905
 20
7.6803906261
 30
0.0
 10
10.9125021502
 20
7.6955613647
 30
0.0
 10
10.9182455253
 20
7.7104230247
 30
0.0
 10
10.9247147074
 20
7.7249413289
 30
0.0
 10
10.9318948297
 20
7.7390827801
 30
0.0
 10
10.9397693385
 20
7.7528147621
 30
0.0
 10
10.9483200937
 20
7.7661056088
 30
0.0
 10
10.9575273649
 20
7.7789246299
 30
0.0
 10
10.9673700492
 20
7.7912423413
 30
0.0
 10
10.977825063
 20
7.8030299377
 30
0.0
 10
10.9851886019
 20
7.8105181815
 30
0.0
 10
10.9889628528
 20
7.8141638258
 30
0.0
  0
SPLINE
  5
359
100
AcDbEntity
  8
0
100
AcDbSpline
 62
7
  6
CONTINUOUS
 70
0
 71
3
 72
39
 73
35
 74
0
 42
0.0000001
 43
0.0000001
 44
0.0000000001
 40
0.0
 40
0.0
 40
0.0
 40
0.0
 40
0.0299424695
 40
0.0599093169
 40
0.0899243245
 40
0.1200101059
 40
0.1501875675
 40
0.1804754226
 40
0.2108897705
 40
0.2414437509
 40
0.2721472792
 40
0.3030068663
 40
0.3340255229
 40
0.3652027461
 40
0.3965345839
 40
0.428013771
 40
0.4596299292
 40
0.4913698241
 40
0.5232176721
 40
0.555155489
 40
0.5871634725
 40
0.6192204135
 40
0.6513041268
 40
0.6833918949
 40
0.7154609201
 40
0.7474887765
 40
0.7794538578
 40
0.8113358145
 40
0.8431159703
 40
0.8747777248
 40
0.9063068724
 40
0.9376921006
 40
0.9689246636
 40
1.0
 40
1.0
 40
1.0
 40
1.0
 10
10.5714368081
 20
8.0165653942
 30
0.0
 10
10.5670322496
 20
8.0123109367
 30
0.0
 10
10.557876765
 20
8.0041454064
 30
0.0
 10
10.5432082866
 20
7.9930213012
 30
0.0
 10
10.5276794986
 20
7.9830770945
 30
0.0
 10
10.5113771803
 20
7.9743685582
 30
0.0
 10
10.4943909598
 20
7.9669432683
 30
0.0
 10
10.4768145829
 20
7.9608420392
 30
0.0
 10
10.4587449049
 20
7.9560982528
 30
0.0
 10
10.4402814758
 20
7.9527378091
 30
0.0
 10
10.4215259507
 20
7.950778964
 30
0.0
 10
10.402581537
 20
7.9502322539
 30
0.0
 10
10.383552425
 20
7.9511004404
 30
0.0
 10
10.3645432166
 20
7.9533785087
 30
0.0
 10
10.3456583551
 20
7.9570537145
 30
0.0
 10
10.3270015589
 20
7.9621056603
 30
0.0
 10
10.3086752598
 20
7.9685064146
 30
0.0
 10
10.2907800491
 20
7.9762206699
 30
0.0
 10
10.2734141336
 20
7.9852059387
 30
0.0
 10
10.2566728048
 20
7.9954127875
 30
0.0
 10
10.240647917
 20
8.0067850989
 30
0.0
 10
10.2254273937
 20
8.0192603882
 30
0.0
 10
10.2110947518
 20
8.032770144
 30
0.0
 10
10.1977286484
 20
8.0472402004
 30
0.0
 10
10.1854024547
 20
8.0625911404
 30
0.0
 10
10.1741838566
 20
8.0787387265
 30
0.0
 10
10.1641344881
 20
8.0955943578
 30
0.0
 10
10.1553095902
 20
8.1130655496
 30
0.0
 10
10.1477577032
 20
8.1310564241
 30
0.0
 10
10.1415204235
 20
8.1494682751
 30
0.0
 10
10.1366321271
 20
8.1681999559
 30
0.0
 10
10.1331198958
 20
8.1871489587
 30
0.0
 10
10.1310031293
 20
8.2062098863
 30
0.0
 10
10.1305290286
 20
8.2189578533
 30
0.0
 10
10.1305290286
 20
8.2253133136
 30
0.0
  0
SPLINE
  5
35A
100
AcDbEntity
  8
0
100
AcDbSpline
 62
7
  6
CONTINUOUS
 70
0
 71
3
 72
42
 73
38
 74
0
 42
0.0000001
 43
0.0000001
 44
0.0000000001
 40
0.0
 40
0.0
 40
0.0
 40
0.0
 40
0.0308132806
 40
0.0462705677
 40
0.0617595677
 40
0.09282897
 40
0.1240202405
 40
0.1553269013
 40
0.1867408014
 40
0.2182522838
 40
0.2498503228
 40
0.2815226925
 40
0.313256143
 40
0.3450365884
 40
0.3768493024
 40
0.408679121
 40
0.4405106484
 40
0.4723284657
 40
0.5041173396
 40
0.5358624296
 40
0.5675494907
 40
0.5991650715
 40
0.6306967038
 40
0.6621330821
 40
0.6934642314
 40
0.7246816603
 40
0.7557784969
 40
0.7867496061
 40
0.8175916848
 40
0.8483033327
 40
0.8636121658
 40
0.8788887596
 40
0.9093431543
 40
0.939674642
 40
0.9547981078
 40
0.969893389
 40
1.0
 40
1.0
 40
1.0
 40
1.0
 10
11.0834869426
 20
7.7682667076
 30
0.0
 10
11.0834869426
 20
7.7613237392
 30
0.0
 10
11.0838069957
 20
7.7508942821
 30
0.0
 10
11.0848660204
 20
7.7370172319
 30
0.0
 10
11.0863500499
 20
7.7231207065
 30
0.0
 10
11.0889972944
 20
7.7057914875
 30
0.0
 10
11.0934219829
 20
7.6851656349
 30
0.0
 10
11.0990814347
 20
7.6647630664
 30
0.0
 10
11.1059543311
 20
7.6446606154
 30
0.0
 10
11.1140148735
 20
7.6249333977
 30
0.0
 10
11.123232818
 20
7.6056552745
 30
0.0
 10
11.1335736034
 20
7.5868983786
 30
0.0
 10
11.1449984779
 20
7.5687329011
 30
0.0
 10
11.157464644
 20
7.5512268162
 30
0.0
 10
11.1709254179
 20
7.5344456328
 30
0.0
 10
11.1853304036
 20
7.5184521505
 30
0.0
 10
11.2006256803
 20
7.5033062263
 30
0.0
 10
11.2167540029
 20
7.4890645523
 30
0.0
 10
11.2336550148
 20
7.4757804447
 30
0.0
 10
11.2512654717
 20
7.463503646
 30
0.0
 10
11.2695194772
 20
7.452280139
 30
0.0
 10
11.2883487267
 20
7.4421519763
 30
0.0
 10
11.3076827609
 20
7.4331571229
 30
0.0
 10
11.3274492281
 20
7.4253293145
 30
0.0
 10
11.3475741482
 20
7.4186979309
 30
0.0
 10
11.3679822028
 20
7.4132878862
 30
0.0
 10
11.3885969553
 20
7.4091195311
 30
0.0
 10
11.4093413536
 20
7.4062085869
 30
0.0
 10
11.4301372024
 20
7.4045660427
 30
0.0
 10
11.447465301
 20
7.4042592295
 30
0.0
 10
11.4612732632
 20
7.4046538069
 30
0.0
 10
11.4750045628
 20
7.4054719408
 30
0.0
 10
11.4920586627
 20
7.4072877885
 30
0.0
 10
11.5089316756
 20
7.4101626316
 30
0.0
 10
11.5222595763
 20
7.4130896039
 30
0.0
 10
11.5354384137
 20
7.4164249406
 30
0.0
 10
11.5451905379
 20
7.4193943611
 30
0.0
 10
11.5516133461
 20
7.4215776264
 30
0.0
  0
SPLINE
  5
35B
100
AcDbEntity
  8
0
100
AcDbSpline
 62
7
  6
CONTINUOUS
 70
0
 71
3
 72
15
 73
11
 74
0
 42
0.0000001
 43
0.0000001
 44
0.0000000001
 40
0.0
 40
0.0
 40
0.0
 40
0.0
 40
0.1262911319
 40
0.2522020366
 40
0.3777263012
 40
0.5028781329
 40
0.6276664111
 40
0.7521046197
 40
0.8762094749
 40
1.0
 40
1.0
 40
1.0
 40
1.0
 10
11.0834869426
 20
7.7682667076
 30
0.0
 10
11.0834869426
 20
7.7732628154
 30
0.0
 10
11.0837072736
 20
7.7832414229
 30
0.0
 10
11.0847014751
 20
7.79815599
 30
0.0
 10
11.0863571682
 20
7.8129666733
 30
0.0
 10
11.0886709671
 20
7.8276439132
 30
0.0
 10
11.0916384784
 20
7.842159259
 30
0.0
 10
11.0952539125
 20
7.8564843458
 30
0.0
 10
11.099510052
 20
7.870590787
 30
0.0
 10
11.1027734457
 20
7.8798430579
 30
0.0
 10
11.1045089123
 20
7.8844224201
 30
0.0
  0
SPLINE
  5
35C
100
AcDbEntity
  8
0
100
AcDbSpline
 62
7
  6
CONTINUOUS
 70
0
 71
3
 72
39
 73
35
 74
0
 42
0.0000001
 43
0.0000001
 44
0.0000000001
 40
0.0
 40
0.0
 40
0.0
 40
0.0
 40
0.0299424695
 40
0.0599093169
 40
0.0899243245
 40
0.1200101059
 40
0.1501875675
 40
0.1804754226
 40
0.2108897705
 40
0.2414437509
 40
0.2721472792
 40
0.3030068663
 40
0.3340255229
 40
0.3652027461
 40
0.3965345839
 40
0.428013771
 40
0.4596299292
 40
0.4913698241
 40
0.5232176721
 40
0.555155489
 40
0.5871634725
 40
0.6192204135
 40
0.6513041268
 40
0.6833918949
 40
0.7154609201
 40
0.7474887765
 40
0.7794538578
 40
0.8113358145
 40
0.8431159703
 40
0.8747777248
 40
0.9063068724
 40
0.9376921006
 40
0.9689246636
 40
1.0
 40
1.0
 40
1.0
 40
1.0
 10
11.9401538385
 20
8.074260828
 30
0.0
 10
11.93574928
 20
8.0700063705
 30
0.0
 10
11.9265937954
 20
8.0618408402
 30
0.0
 10
11.911925317
 20
8.050716735
 30
0.0
 10
11.896396529
 20
8.0407725282
 30
0.0
 10
11.8800942107
 20
8.0320639919
 30
0.0
 10
11.8631079902
 20
8.0246387021
 30
0.0
 10
11.8455316133
 20
8.018537473
 30
0.0
 10
11.8274619353
 20
8.0137936865
 30
0.0
 10
11.8089985062
 20
8.0104332428
 30
0.0
 10
11.790242981
 20
8.0084743978
 30
0.0
 10
11.7712985674
 20
8.0079276877
 30
0.0
 10
11.7522694554
 20
8.0087958741
 30
0.0
 10
11.733260247
 20
8.0110739425
 30
0.0
 10
11.7143753855
 20
8.0147491483
 30
0.0
 10
11.6957185893
 20
8.019801094
 30
0.0
 10
11.6773922902
 20
8.0262018484
 30
0.0
 10
11.6594970795
 20
8.0339161037
 30
0.0
 10
11.642131164
 20
8.0429013725
 30
0.0
 10
11.6253898352
 20
8.0531082213
 30
0.0
 10
11.6093649474
 20
8.0644805327
 30
0.0
 10
11.5941444241
 20
8.076955822
 30
0.0
 10
11.5798117821
 20
8.0904655778
 30
0.0
 10
11.5664456788
 20
8.1049356342
 30
0.0
 10
11.5541194851
 20
8.1202865741
 30
0.0
 10
11.5429008869
 20
8.1364341603
 30
0.0
 10
11.5328515185
 20
8.1532897916
 30
0.0
 10
11.5240266206
 20
8.1707609833
 30
0.0
 10
11.5164747336
 20
8.1887518579
 30
0.0
 10
11.5102374539
 20
8.2071637089
 30
0.0
 10
11.5053491575
 20
8.2258953897
 30
0.0
 10
11.5018369261
 20
8.2448443925
 30
0.0
 10
11.4997201597
 20
8.2639053201
 30
0.0
 10
11.4992460589
 20
8.2766532871
 30
0.0
 10
11.4992460589
 20
8.2830087474
 30
0.0
  0
SPLINE
  5
35D
100
AcDbEntity
  8
0
100
AcDbSpline
 62
7
  6
CONTINUOUS
 70
0
 71
3
 72
39
 73
35
 74
0
 42
0.0000001
 43
0.0000001
 44
0.0000000001
 40
0.0
 40
0.0
 40
0.0
 40
0.0
 40
0.0310753532
 40
0.0623079102
 40
0.09369313
 40
0.1252222885
 40
0.1568840435
 40
0.1886642047
 40
0.220546165
 40
0.2525112493
 40
0.2845391083
 40
0.3166081364
 40
0.3486959075
 40
0.3807796231
 40
0.4128365658
 40
0.4448445502
 40
0.4767823671
 40
0.5086302143
 40
0.5403701081
 40
0.5719862652
 40
0.603465451
 40
0.634797286
 40
0.6659745047
 40
0.6969931564
 40
0.7278527393
 40
0.7585562643
 40
0.7891102412
 40
0.8195245853
 40
0.8498124369
 40
0.8799898959
 40
0.9100756754
 40
0.9400906818
 40
0.9700575291
 40
1.0
 40
1.0
 40
1.0
 40
1.0
 10
10.8936433297
 20
7.5848918481
 30
0.0
 10
10.8936433297
 20
7.5764777261
 30
0.0
 10
10.8942710037
 20
7.5596004421
 30
0.0
 10
10.8970734381
 20
7.5343653096
 30
0.0
 10
10.9017233551
 20
7.5092783588
 30
0.0
 10
10.9081950641
 20
7.4844791214
 30
0.0
 10
10.9164527349
 20
7.4601033137
 30
0.0
 10
10.9264508557
 20
7.4362848553
 30
0.0
 10
10.9381343423
 20
7.4131544182
 30
0.0
 10
10.9514389173
 20
7.3908389303
 30
0.0
 10
10.9662914488
 20
7.3694608326
 30
0.0
 10
10.9826103529
 20
7.3491374348
 30
0.0
 10
11.0003060281
 20
7.3299802714
 30
0.0
 10
11.0192813232
 20
7.3120944745
 30
0.0
 10
11.0394320985
 20
7.2955782296
 30
0.0
 10
11.0606477835
 20
7.2805222392
 30
0.0
 10
11.0828119793
 20
7.2670092347
 30
0.0
 10
11.1058030777
 20
7.255113513
 30
0.0
 10
11.1294949149
 20
7.2449005093
 30
0.0
 10
11.1537574737
 20
7.2364264733
 30
0.0
 10
11.1784575806
 20
7.229738153
 30
0.0
 10
11.2034596267
 20
7.2248725422
 30
0.0
 10
11.2286262942
 20
7.2218566485
 30
0.0
 10
11.2538193052
 20
7.2207073236
 30
0.0
 10
11.2789001768
 20
7.221431196
 30
0.0
 10
11.3037309715
 20
7.2240246112
 30
0.0
 10
11.328175048
 20
7.2284736432
 30
0.0
 10
11.3520978192
 20
7.2347541248
 30
0.0
 10
11.3753674919
 20
7.2428317509
 30
0.0
 10
11.3978558386
 20
7.2526623236
 30
0.0
 10
11.4194387488
 20
7.2641918073
 30
0.0
 10
11.4399975514
 20
7.2773572298
 30
0.0
 10
11.4594173747
 20
7.2920847303
 30
0.0
 10
11.4715384329
 20
7.3028953068
 30
0.0
 10
11.4773697027
 20
7.3085278776
 30
0.0
  0
SPLINE
  5
35E
100
AcDbEntity
  8
0
100
AcDbSpline
 62
7
  6
CONTINUOUS
 70
0
 71
3
 72
39
 73
35
 74
0
 42
0.0000001
 43
0.0000001
 44
0.0000000001
 40
0.0
 40
0.0
 40
0.0
 40
0.0
 40
0.0299424695
 40
0.0599093169
 40
0.0899243245
 40
0.1200101059
 40
0.1501875675
 40
0.1804754226
 40
0.2108897705
 40
0.2414437509
 40
0.2721472792
 40
0.3030068663
 40
0.3340255229
 40
0.3652027461
 40
0.3965345839
 40
0.428013771
 40
0.4596299292
 40
0.4913698241
 40
0.5232176721
 40
0.555155489
 40
0.5871634725
 40
0.6192204135
 40
0.6513041268
 40
0.6833918949
 40
0.7154609201
 40
0.7474887765
 40
0.7794538578
 40
0.8113358145
 40
0.8431159703
 40
0.8747777248
 40
0.9063068724
 40
0.9376921006
 40
0.9689246636
 40
1.0
 40
1.0
 40
1.0
 40
1.0
 10
11.9401538385
 20
6.5529276306
 30
0.0
 10
11.93574928
 20
6.548673173
 30
0.0
 10
11.9265937954
 20
6.5405076428
 30
0.0
 10
11.911925317
 20
6.5293835375
 30
0.0
 10
11.896396529
 20
6.5194393308
 30
0.0
 10
11.8800942107
 20
6.5107307945
 30
0.0
 10
11.8631079902
 20
6.5033055046
 30
0.0
 10
11.8455316133
 20
6.4972042755
 30
0.0
 10
11.8274619353
 20
6.4924604891
 30
0.0
 10
11.8089985062
 20
6.4891000454
 30
0.0
 10
11.790242981
 20
6.4871412003
 30
0.0
 10
11.7712985674
 20
6.4865944902
 30
0.0
 10
11.7522694554
 20
6.4874626767
 30
0.0
 10
11.733260247
 20
6.4897407451
 30
0.0
 10
11.7143753855
 20
6.4934159508
 30
0.0
 10
11.6957185893
 20
6.4984678966
 30
0.0
 10
11.6773922902
 20
6.5048686509
 30
0.0
 10
11.6594970795
 20
6.5125829062
 30
0.0
 10
11.642131164
 20
6.521568175
 30
0.0
 10
11.6253898352
 20
6.5317750238
 30
0.0
 10
11.6093649474
 20
6.5431473352
 30
0.0
 10
11.5941444241
 20
6.5556226246
 30
0.0
 10
11.5798117821
 20
6.5691323803
 30
0.0
 10
11.5664456788
 20
6.5836024367
 30
0.0
 10
11.5541194851
 20
6.5989533767
 30
0.0
 10
11.5429008869
 20
6.6151009628
 30
0.0
 10
11.5328515185
 20
6.6319565941
 30
0.0
 10
11.5240266206
 20
6.6494277859
 30
0.0
 10
11.5164747336
 20
6.6674186604
 30
0.0
 10
11.5102374539
 20
6.6858305115
 30
0.0
 10
11.5053491575
 20
6.7045621922
 30
0.0
 10
11.5018369261
 20
6.723511195
 30
0.0
 10
11.4997201597
 20
6.7425721227
 30
0.0
 10
11.4992460589
 20
6.7553200896
 30
0.0
 10
11.4992460589
 20
6.7616755499
 30
0.0
  0
SPLINE
  5
35F
100
AcDbEntity
  8
0
100
AcDbSpline
 62
7
  6
CONTINUOUS
 70
0
 71
3
 72
23
 73
19
 74
0
 42
0.0000001
 43
0.0000001
 44
0.0000000001
 40
0.0
 40
0.0
 40
0.0
 40
0.0
 40
0.0637766017
 40
0.1273450758
 40
0.1907019811
 40
0.2538560972
 40
0.3168132288
 40
0.3795820869
 40
0.442173391
 40
0.5045993435
 40
0.5668738649
 40
0.6290123754
 40
0.6910316459
 40
0.7529496407
 40
0.8147853465
 40
0.8765585942
 40
0.9382898499
 40
1.0
 40
1.0
 40
1.0
 40
1.0
 10
10.1305290286
 20
9.7456805976
 30
0.0
 10
10.1305290286
 20
9.7497769226
 30
0.0
 10
10.1307251128
 20
9.7579575922
 30
0.0
 10
10.1316100501
 20
9.7701788156
 30
0.0
 10
10.1330835171
 20
9.7823031867
 30
0.0
 10
10.1351419616
 20
9.7943021832
 30
0.0
 10
10.1377807933
 20
9.806148411
 30
0.0
 10
10.1409939005
 20
9.8178144843
 30
0.0
 10
10.1447738892
 20
9.8292735236
 30
0.0
 10
10.14911211
 20
9.8404990961
 30
0.0
 10
10.153998578
 20
9.8514653078
 30
0.0
 10
10.1594220204
 20
9.8621468777
 30
0.0
 10
10.1653699518
 20
9.8725191647
 30
0.0
 10
10.1718287066
 20
9.8825582264
 30
0.0
 10
10.1787833621
 20
9.8922408896
 30
0.0
 10
10.1862179531
 20
9.9015449026
 30
0.0
 10
10.1941150417
 20
9.9104485158
 30
0.0
 10
10.1996770507
 20
9.9161046305
 30
0.0
 10
10.2025278932
 20
9.9188583204
 30
0.0
  0
SPLINE
  5
360
100
AcDbEntity
  8
0
100
AcDbSpline
 62
7
  6
CONTINUOUS
 70
0
 71
3
 72
84
 73
80
 74
0
 42
0.0000001
 43
0.0000001
 44
0.0000000001
 40
0.0
 40
0.0
 40
0.0
 40
0.0
 40
0.0027164264
 40
0.0054532293
 40
0.008230295
 40
0.0110665896
 40
0.0139797932
 40
0.0169861044
 40
0.0201000661
 40
0.0233345812
 40
0.0267009392
 40
0.0302088856
 40
0.0338668056
 40
0.037681768
 40
0.0416597414
 40
0.0458056718
 40
0.050123593
 40
0.0546167913
 40
0.0592877975
 40
0.0641385717
 40
0.0691704988
 40
0.074384467
 40
0.0797809628
 40
0.0853600226
 40
0.0911213815
 40
0.0970644148
 40
0.1094911534
 40
0.122630387
 40
0.136468035
 40
0.1509868331
 40
0.1661667198
 40
0.1819851503
 40
0.1984173662
 40
0.2154366132
 40
0.2330143274
 40
0.2511202956
 40
0.2697227959
 40
0.2887887406
 40
0.3082838034
 40
0.3281725359
 40
0.3484184777
 40
0.3689842604
 40
0.3898317162
 40
0.4109219843
 40
0.4536719359
 40
0.4969138893
 40
0.5403221212
 40
0.5835693222
 40
0.6263297187
 40
0.6474271304
 40
0.6682829869
 40
0.6888584043
 40
0.7091151927
 40
0.7290159604
 40
0.748524216
 40
0.7676044742
 40
0.7862223676
 40
0.8043447661
 40
0.8219399096
 40
0.838977535
 40
0.8554290199
 40
0.8712675451
 40
0.8864682815
 40
0.9010086172
 40
0.9148684112
 40
0.9280303001
 40
0.9404800906
 40
0.946434749
 40
0.9522077946
 40
0.957798564
 40
0.9632067735
 40
0.9684324641
 40
0.9734760551
 40
0.9783384155
 40
0.983020862
 40
0.9875253935
 40
0.9918546029
 40
0.9960115831
 40
1.0
 40
1.0
 40
1.0
 40
1.0
 10
12.8303018293
 20
9.7415760697
 30
0.0
 10
12.8312350172
 20
9.7415113496
 30
0.0
 10
12.833103612
 20
9.7412969371
 30
0.0
 10
12.8358827157
 20
9.7407232412
 30
0.0
 10
12.838640819
 20
9.7398975333
 30
0.0
 10
12.8413759424
 20
9.7388205871
 30
0.0
 10
12.8440867017
 20
9.7374934225
 30
0.0
 10
12.8467716688
 20
9.7359170032
 30
0.0
 10
12.8494296406
 20
9.7340925128
 30
0.0
 10
12.8520594216
 20
9.7320210802
 30
0.0
 10
12.8546598601
 20
9.7297039049
 30
0.0
 10
12.8572298788
 20
9.7271422922
 30
0.0
 10
12.8597682952
 20
9.7243375256
 30
0.0
 10
12.8622740403
 20
9.7212910752
 30
0.0
 10
12.8647459445
 20
9.7180044316
 30
0.0
 10
12.8671828676
 20
9.7144792233
 30
0.0
 10
12.8695836978
 20
9.7107172015
 30
0.0
 10
12.8719472354
 20
9.7067201902
 30
0.0
 10
12.8742723992
 20
9.7024901864
 30
0.0
 10
12.8765580141
 20
9.6980292591
 30
0.0
 10
12.8788029715
 20
9.6933396222
 30
0.0
 10
12.8810061804
 20
9.6884236052
 30
0.0
 10
12.8831665053
 20
9.6832836368
 30
0.0
 10
12.8852829163
 20
9.6779222922
 30
0.0
 10
12.8873543342
 20
9.6723422235
 30
0.0
 10
12.8900956831
 20
9.6644971617
 30
0.0
 10
12.8933922868
 20
9.654157143
 30
0.0
 10
12.8970963083
 20
9.6411013578
 30
0.0
 10
12.9005975148
 20
9.6272455812
 30
0.0
 10
12.9038888117
 20
9.6126175439
 30
0.0
 10
12.9069635082
 20
9.5972463885
 30
0.0
 10
12.909815355
 20
9.5811628692
 30
0.0
 10
12.9124385487
 20
9.5643991936
 30
0.0
 10
12.91482775
 20
9.5469889694
 30
0.0
 10
12.9169780935
 20
9.5289671248
 30
0.0
 10
12.9188851986
 20
9.5103698391
 30
0.0
 10
12.9205451863
 20
9.4912344665
 30
0.0
 10
12.9219546782
 20
9.4715994556
 30
0.0
 10
12.9231108032
 20
9.4515042667
 30
0.0
 10
12.9240112029
 20
9.4309892914
 30
0.0
 10
12.9246540368
 20
9.4100957693
 30
0.0
 10
12.925037983
 20
9.3888657195
 30
0.0
 10
12.9251622755
 20
9.3673417988
 30
0.0
 10
12.9249805058
 20
9.3381787144
 30
0.0
 10
12.9240985802
 20
9.3013108034
 30
0.0
 10
12.9220201146
 20
9.2567953728
 30
0.0
 10
12.9189331493
 20
9.2121667115
 30
0.0
 10
12.9148624923
 20
9.167783664
 30
0.0
 10
12.9106594952
 20
9.1311375821
 30
0.0
 10
12.9068237872
 20
9.1022182473
 30
0.0
 10
12.9037366549
 20
9.0809077445
 30
0.0
 10
12.9004327091
 20
9.0599227782
 30
0.0
 10
12.8969185857
 20
9.0393055123
 30
0.0
 10
12.8932013844
 20
9.019097404
 30
0.0
 10
12.8892886049
 20
8.9993390717
 30
0.0
 10
12.8851881455
 20
8.9800702282
 30
0.0
 10
12.880908283
 20
8.9613295953
 30
0.0
 10
12.876457658
 20
8.943154822
 30
0.0
 10
12.8718452645
 20
8.9255824035
 30
0.0
 10
12.8670804229
 20
8.9086476072
 30
0.0
 10
12.8621727621
 20
8.8923844011
 30
0.0
 10
12.8571322004
 20
8.8768253834
 30
0.0
 10
12.8519689196
 20
8.8620017011
 30
0.0
 10
12.8466933521
 20
8.847942996
 30
0.0
 10
12.8413161433
 20
8.8346772563
 30
0.0
 10
12.8358481364
 20
8.8222310251
 30
0.0
 10
12.8311579601
 20
8.8124221277
 30
0.0
 10
12.8273615053
 20
8.8050118314
 30
0.0
 10
12.8245406407
 20
8.7997568964
 30
0.0
 10
12.8217053117
 20
8.7947246389
 30
0.0
 10
12.8188569417
 20
8.7899175467
 30
0.0
 10
12.8159969427
 20
8.7853380165
 30
0.0
 10
12.8131267209
 20
8.7809883394
 30
0.0
 10
12.8102477522
 20
8.7768706591
 30
0.0
 10
12.8073613937
 20
8.7729870288
 30
0.0
 10
12.8044690646
 20
8.7693393167
 30
0.0
 10
12.8015721002
 20
8.7659293126
 30
0.0
 10
12.798672066
 20
8.7627588678
 30
0.0
 10
12.796697424
 20
8.7607653913
 30
0.0
 10
12.7957095619
 20
8.7598111897
 30
0.0
  0
SPLINE
  5
361
100
AcDbEntity
  8
0
100
AcDbSpline
 62
7
  6
CONTINUOUS
 70
0
 71
3
 72
79
 73
75
 74
0
 42
0.0000001
 43
0.0000001
 44
0.0000000001
 40
0.0
 40
0.0
 40
0.0
 40
0.0
 40
0.0028497519
 40
0.0057868701
 40
0.0088248812
 40
0.0119758157
 40
0.0152502921
 40
0.0186575166
 40
0.0222054469
 40
0.0259008903
 40
0.0297495738
 40
0.0337563418
 40
0.0379251692
 40
0.0422593039
 40
0.0467613695
 40
0.0514333553
 40
0.0562767863
 40
0.0612926998
 40
0.0664817077
 40
0.0718440964
 40
0.0830877844
 40
0.0950202461
 40
0.1076332178
 40
0.1209149423
 40
0.1348506679
 40
0.1494230241
 40
0.1646123152
 40
0.1803967463
 40
0.1967526451
 40
0.2136546436
 40
0.2310758278
 40
0.2489878589
 40
0.2673610965
 40
0.2861647262
 40
0.3053668633
 40
0.3249346477
 40
0.3448343301
 40
0.3650313784
 40
0.3854905695
 40
0.4270508672
 40
0.469223544
 40
0.5117106587
 40
0.55421143
 40
0.5964249597
 40
0.638052928
 40
0.6585558341
 40
0.6788030511
 40
0.6987592333
 40
0.7183897223
 40
0.7376606285
 40
0.7565389196
 40
0.7749925153
 40
0.7929904012
 40
0.8105027289
 40
0.8275009169
 40
0.8439577697
 40
0.859847621
 40
0.8751464925
 40
0.8898322457
 40
0.9038847772
 40
0.917286258
 40
0.930021444
 40
0.9420780222
 40
0.9534470485
 40
0.9588722845
 40
0.9641241695
 40
0.9692028085
 40
0.9741086948
 40
0.9788426943
 40
0.9834061193
 40
0.987800902
 40
0.9920294757
 40
0.9960947086
 40
1.0
 40
1.0
 40
1.0
 40
1.0
 10
12.8190114192
 20
9.7403829449
 30
0.0
 10
12.8199009971
 20
9.7399947417
 30
0.0
 10
12.8216769741
 20
9.7391348757
 30
0.0
 10
12.8242806585
 20
9.7376284912
 30
0.0
 10
12.826859334
 20
9.7358889303
 30
0.0
 10
12.829411727
 20
9.7339173692
 30
0.0
 10
12.831936797
 20
9.7317147988
 30
0.0
 10
12.8344335403
 20
9.729282416
 30
0.0
 10
12.8369009185
 20
9.7266213977
 30
0.0
 10
12.839337872
 20
9.7237330012
 30
0.0
 10
12.841743416
 20
9.7206186212
 30
0.0
 10
12.8441164517
 20
9.7172796689
 30
0.0
 10
12.8464559658
 20
9.7137177143
 30
0.0
 10
12.8487609189
 20
9.7099344058
 30
0.0
 10
12.8510302273
 20
9.705931476
 30
0.0
 10
12.8532629091
 20
9.7017108062
 30
0.0
 10
12.8554578964
 20
9.6972743383
 30
0.0
 10
12.8576141765
 20
9.6926241457
 30
0.0
 10
12.8597307959
 20
9.6877623955
 30
0.0
 10
12.8625431613
 20
9.6808920739
 30
0.0
 10
12.8659419063
 20
9.6717828386
 30
0.0
 10
12.8697848747
 20
9.6602127112
 30
0.0
 10
12.8734469766
 20
9.6478584963
 30
0.0
 10
12.8769212775
 20
9.6347433637
 30
0.0
 10
12.8802011755
 20
9.6208917492
 30
0.0
 10
12.8832804177
 20
9.606329607
 30
0.0
 10
12.8861531208
 20
9.5910842615
 30
0.0
 10
12.8888138058
 20
9.5751843778
 30
0.0
 10
12.8912573939
 20
9.5586598856
 30
0.0
 10
12.8934792168
 20
9.5415419119
 30
0.0
 10
12.8954750248
 20
9.5238627192
 30
0.0
 10
12.8972410042
 20
9.5056556485
 30
0.0
 10
12.8987737875
 20
9.4869550522
 30
0.0
 10
12.9000704459
 20
9.4677962214
 30
0.0
 10
12.9011284976
 20
9.4482153162
 30
0.0
 10
12.9019459135
 20
9.4282492986
 30
0.0
 10
12.9025211269
 20
9.4079358761
 30
0.0
 10
12.9028530562
 20
9.3873133767
 30
0.0
 10
12.9029708892
 20
9.3593110731
 30
0.0
 10
12.9025001914
 20
9.3238241743
 30
0.0
 10
12.9009708372
 20
9.2808588917
 30
0.0
 10
12.8984851745
 20
9.2376174187
 30
0.0
 10
12.8950619618
 20
9.1944260967
 30
0.0
 10
12.8907270359
 20
9.15161089
 30
0.0
 10
12.8863606276
 20
9.1163382689
 30
0.0
 10
12.8824297385
 20
9.088557423
 30
0.0
 10
12.8792909438
 20
9.0681206695
 30
0.0
 10
12.875952732
 20
9.0480166883
 30
0.0
 10
12.8724214055
 20
9.0282834092
 30
0.0
 10
12.8687036626
 20
9.0089580928
 30
0.0
 10
12.8648065456
 20
8.9900772195
 30
0.0
 10
12.8607374353
 20
8.9716764282
 30
0.0
 10
12.8565040495
 20
8.9537904382
 30
0.0
 10
12.8521144199
 20
8.936452985
 30
0.0
 10
12.8475768723
 20
8.9196967604
 30
0.0
 10
12.8429000111
 20
8.9035533498
 30
0.0
 10
12.8380927068
 20
8.8880531607
 30
0.0
 10
12.8331640873
 20
8.8732253564
 30
0.0
 10
12.8281235027
 20
8.8590978058
 30
0.0
 10
12.8229805094
 20
8.8456970211
 30
0.0
 10
12.8177448424
 20
8.8330481192
 30
0.0
 10
12.8124263982
 20
8.8211746589
 30
0.0
 10
12.8070352223
 20
8.8100989021
 30
0.0
 10
12.8024211563
 20
8.8014203135
 30
0.0
 10
12.7986940951
 20
8.7949013907
 30
0.0
 10
12.795930651
 20
8.7903008816
 30
0.0
 10
12.7931566159
 20
8.7859146422
 30
0.0
 10
12.7903732912
 20
8.781744711
 30
0.0
 10
12.787581996
 20
8.7777930318
 30
0.0
 10
12.7847839661
 20
8.7740614488
 30
0.0
 10
12.781980498
 20
8.7705516372
 30
0.0
 10
12.7791727998
 20
8.7672652362
 30
0.0
 10
12.7763623301
 20
8.7642039227
 30
0.0
 10
12.7744499453
 20
8.7622759757
 30
0.0
 10
12.7734932666
 20
8.761351895
 30
0.0
  0
SPLINE
  5
362
100
AcDbEntity
  8
0
100
AcDbSpline
 62
7
  6
CONTINUOUS
 70
0
 71
3
 72
66
 73
62
 74
0
 42
0.0000001
 43
0.0000001
 44
0.0000000001
 40
0.0
 40
0.0
 40
0.0
 40
0.0
 40
0.0066061476
 40
0.0101088243
 40
0.0137521862
 40
0.0175413355
 40
0.0214805551
 40
0.0255734515
 40
0.0298229344
 40
0.0342313589
 40
0.0388005986
 40
0.0484258588
 40
0.0587060256
 40
0.069642134
 40
0.0812307945
 40
0.0934649431
 40
0.1063343727
 40
0.1198261152
 40
0.1339248236
 40
0.1486130516
 40
0.1638714393
 40
0.1796788913
 40
0.1960127737
 40
0.2128490414
 40
0.230162322
 40
0.2479260531
 40
0.2661125972
 40
0.284693314
 40
0.3036386337
 40
0.3229181724
 40
0.362354063
 40
0.4027450949
 40
0.4438264124
 40
0.4853272625
 40
0.5269733655
 40
0.5684892189
 40
0.6096004113
 40
0.6500359464
 40
0.6895305783
 40
0.7088446762
 40
0.727827905
 40
0.7464498045
 40
0.7646807205
 40
0.7824918909
 40
0.7998555659
 40
0.8167450741
 40
0.8331349066
 40
0.8490008506
 40
0.8643201231
 40
0.8790714678
 40
0.8932353087
 40
0.9067939764
 40
0.9197318991
 40
0.9320358403
 40
0.9436952484
 40
0.9547026959
 40
0.9650543966
 40
0.9747508391
 40
0.983797695
 40
0.9922075462
 40
1.0
 40
1.0
 40
1.0
 40
1.0
 10
12.7614062604
 20
9.6753357041
 30
0.0
 10
12.7628839879
 20
9.674081464
 30
0.0
 10
12.7650347497
 20
9.672028935
 30
0.0
 10
12.7677497677
 20
9.6690432308
 30
0.0
 10
12.7698010672
 20
9.6665747694
 30
0.0
 10
12.7718264793
 20
9.6639223692
 30
0.0
 10
12.7738253838
 20
9.6610869865
 30
0.0
 10
12.7757968557
 20
9.6580698798
 30
0.0
 10
12.7777401114
 20
9.6548723632
 30
0.0
 10
12.7796543526
 20
9.6514958171
 30
0.0
 10
12.7822112545
 20
9.6466729778
 30
0.0
 10
12.7853196309
 20
9.6401961353
 30
0.0
 10
12.7888587208
 20
9.631865152
 30
0.0
 10
12.7922628902
 20
9.6228597715
 30
0.0
 10
12.7955262019
 20
9.6131956695
 30
0.0
 10
12.7986429388
 20
9.6028894693
 30
0.0
 10
12.8016075774
 20
9.59195909
 30
0.0
 10
12.8044148741
 20
9.5804235997
 30
0.0
 10
12.8070598385
 20
9.5683031848
 30
0.0
 10
12.8095377499
 20
9.5556190896
 30
0.0
 10
12.8118441897
 20
9.5423935877
 30
0.0
 10
12.813975058
 20
9.528649936
 30
0.0
 10
12.815926553
 20
9.5144123168
 30
0.0
 10
12.8176951827
 20
9.4997057949
 30
0.0
 10
12.8192778018
 20
9.4845562795
 30
0.0
 10
12.8206715929
 20
9.4689904718
 30
0.0
 10
12.8218740656
 20
9.4530358062
 30
0.0
 10
12.8228830613
 20
9.436720419
 30
0.0
 10
12.8236968135
 20
9.4200730601
 30
0.0
 10
12.8245256687
 20
9.3973019656
 30
0.0
 10
12.8250548652
 20
9.3682259836
 30
0.0
 10
12.824893375
 20
9.3327490035
 30
0.0
 10
12.8239406428
 20
9.2966783948
 30
0.0
 10
12.8222032936
 20
9.2602685118
 30
0.0
 10
12.8196934364
 20
9.2237759339
 30
0.0
 10
12.8164287835
 20
9.1874578957
 30
0.0
 10
12.8124324258
 20
9.1515703156
 30
0.0
 10
12.8077326686
 20
9.1163662438
 30
0.0
 10
12.8032251867
 20
9.087595985
 30
0.0
 10
12.799284271
 20
9.0651141107
 30
0.0
 10
12.7961967797
 20
9.0487014108
 30
0.0
 10
12.7929611277
 20
9.0326413367
 30
0.0
 10
12.7895830136
 20
9.0169621884
 30
0.0
 10
12.7860684147
 20
9.0016916176
 30
0.0
 10
12.7824235631
 20
8.9868565346
 30
0.0
 10
12.7786549189
 20
8.9724830771
 30
0.0
 10
12.7747691504
 20
8.9585965663
 30
0.0
 10
12.7707731393
 20
8.94522145
 30
0.0
 10
12.7666739773
 20
8.9323812519
 30
0.0
 10
12.7624789278
 20
8.9200985412
 30
0.0
 10
12.7581954088
 20
8.9083948889
 30
0.0
 10
12.7538310114
 20
8.8972908055
 30
0.0
 10
12.7493934597
 20
8.8868057057
 30
0.0
 10
12.7448905792
 20
8.87695788
 30
0.0
 10
12.7403302742
 20
8.8677644418
 30
0.0
 10
12.7357205374
 20
8.8592412612
 30
0.0
 10
12.7310693323
 20
8.8514029396
 30
0.0
 10
12.7263846233
 20
8.8442628712
 30
0.0
 10
12.7216740387
 20
8.8378327936
 30
0.0
 10
12.7169455888
 20
8.8321240071
 30
0.0
 10
12.7136641183
 20
8.8286770938
 30
0.0
 10
12.7120196805
 20
8.8270886888
 30
0.0
  0
SPLINE
  5
363
100
AcDbEntity
  8
0
100
AcDbSpline
 62
7
  6
CONTINUOUS
 70
0
 71
3
 72
61
 73
57
 74
0
 42
0.0000001
 43
0.0000001
 44
0.0000000001
 40
0.0
 40
0.0
 40
0.0
 40
0.0
 40
0.0075575691
 40
0.0156984652
 40
0.0244430357
 40
0.0338041081
 40
0.0437884424
 40
0.0543978005
 40
0.0656298651
 40
0.0774789048
 40
0.0899362184
 40
0.1029905599
 40
0.1166284867
 40
0.1308345665
 40
0.1455915692
 40
0.1608806921
 40
0.176681686
 40
0.1929729377
 40
0.2097316322
 40
0.2269338551
 40
0.2445546386
 40
0.2625680706
 40
0.2809473956
 40
0.2996650587
 40
0.3380009778
 40
0.3773429721
 40
0.4174492175
 40
0.4580717617
 40
0.4989585405
 40
0.5398553994
 40
0.5805081038
 40
0.6206643555
 40
0.6600757922
 40
0.6985000407
 40
0.7172687201
 40
0.7357035038
 40
0.7537767035
 40
0.7714614336
 40
0.7887316547
 40
0.8055622364
 40
0.8219290833
 40
0.8378092124
 40
0.8531808167
 40
0.8680234037
 40
0.8823179436
 40
0.896046959
 40
0.9091946986
 40
0.9217473926
 40
0.9336934456
 40
0.9450237174
 40
0.9557319587
 40
0.9658153118
 40
0.9752748182
 40
0.9841162886
 40
0.9923518855
 40
1.0
 40
1.0
 40
1.0
 40
1.0
 10
12.7551419304
 20
9.6621542473
 30
0.0
 10
12.7564937464
 20
9.6604717849
 30
0.0
 10
12.7591569712
 20
9.6568592535
 30
0.0
 10
12.7629046846
 20
9.6509651411
 30
0.0
 10
12.7665449526
 20
9.6444085969
 30
0.0
 10
12.7700719723
 20
9.6372003165
 30
0.0
 10
12.7734803877
 20
9.6293514933
 30
0.0
 10
12.7767647446
 20
9.6208747046
 30
0.0
 10
12.7799197127
 20
9.6117835936
 30
0.0
 10
12.7829400771
 20
9.6020929123
 30
0.0
 10
12.7858208419
 20
9.5918184822
 30
0.0
 10
12.7885572197
 20
9.5809771475
 30
0.0
 10
12.7911446291
 20
9.5695867234
 30
0.0
 10
12.7935787387
 20
9.5576659734
 30
0.0
 10
12.7958554907
 20
9.5452345728
 30
0.0
 10
12.7979710675
 20
9.5323130563
 30
0.0
 10
12.7999219125
 20
9.5189227859
 30
0.0
 10
12.8017047735
 20
9.5050859208
 30
0.0
 10
12.803316666
 20
9.4908253682
 30
0.0
 10
12.8047548759
 20
9.476164742
 30
0.0
 10
12.806017002
 20
9.4611283288
 30
0.0
 10
12.8071009325
 20
9.4457410519
 30
0.0
 10
12.8080048632
 20
9.4300283886
 30
0.0
 10
12.8089756855
 20
9.4085079956
 30
0.0
 10
12.8097197323
 20
9.3809870674
 30
0.0
 10
12.8098722191
 20
9.3473484757
 30
0.0
 10
12.8092898342
 20
9.3130615119
 30
0.0
 10
12.8079762797
 20
9.2783534234
 30
0.0
 10
12.8059401304
 20
9.2434540936
 30
0.0
 10
12.8031948582
 20
9.2085947367
 30
0.0
 10
12.799758653
 20
9.1740063006
 30
0.0
 10
12.7956544185
 20
9.1399178613
 30
0.0
 10
12.7909094741
 20
9.1065553332
 30
0.0
 10
12.7864135435
 20
9.0793335178
 30
0.0
 10
12.7825120522
 20
9.0580909203
 30
0.0
 10
12.7794694613
 20
9.0426007932
 30
0.0
 10
12.7762926793
 20
9.0274537706
 30
0.0
 10
12.7729869786
 20
9.0126749309
 30
0.0
 10
12.769557869
 20
8.9982887641
 30
0.0
 10
12.7660110424
 20
8.9843191035
 30
0.0
 10
12.7623524077
 20
8.9707890801
 30
0.0
 10
12.7585880652
 20
8.9577210846
 30
0.0
 10
12.7547242733
 20
8.9451367404
 30
0.0
 10
12.7507674589
 20
8.9330568546
 30
0.0
 10
12.7467242236
 20
8.9215013725
 30
0.0
 10
12.7426012946
 20
8.9104893588
 30
0.0
 10
12.7384055125
 20
8.900038959
 30
0.0
 10
12.7341438612
 20
8.8901673411
 30
0.0
 10
12.7298234082
 20
8.8808906789
 30
0.0
 10
12.725451269
 20
8.8722241267
 30
0.0
 10
12.7210346315
 20
8.8641817509
 30
0.0
 10
12.7165806696
 20
8.8567765029
 30
0.0
 10
12.712096555
 20
8.8500202793
 30
0.0
 10
12.707589133
 20
8.8439235425
 30
0.0
 10
12.7030656365
 20
8.8384964011
 30
0.0
 10
12.6999303623
 20
8.8352117018
 30
0.0
 10
12.6983594257
 20
8.8336942935
 30
0.0
  0
SPLINE
  5
364
100
AcDbEntity
  8
0
100
AcDbSpline
 62
7
  6
CONTINUOUS
 70
0
 71
3
 72
23
 73
19
 74
0
 42
0.0000001
 43
0.0000001
 44
0.0000000001
 40
0.0
 40
0.0
 40
0.0
 40
0.0
 40
0.0637766017
 40
0.1273450758
 40
0.1907019811
 40
0.2538560972
 40
0.3168132288
 40
0.3795820869
 40
0.442173391
 40
0.5045993435
 40
0.5668738649
 40
0.6290123754
 40
0.6910316459
 40
0.7529496407
 40
0.8147853465
 40
0.8765585942
 40
0.9382898499
 40
1.0
 40
1.0
 40
1.0
 40
1.0
 10
10.1305290286
 20
8.2253133136
 30
0.0
 10
10.1305290286
 20
8.2294096386
 30
0.0
 10
10.1307251128
 20
8.2375903082
 30
0.0
 10
10.1316100501
 20
8.2498115316
 30
0.0
 10
10.1330835171
 20
8.2619359027
 30
0.0
 10
10.1351419616
 20
8.2739348992
 30
0.0
 10
10.1377807933
 20
8.285781127
 30
0.0
 10
10.1409939005
 20
8.2974472003
 30
0.0
 10
10.1447738892
 20
8.3089062396
 30
0.0
 10
10.14911211
 20
8.3201318121
 30
0.0
 10
10.153998578
 20
8.3310980237
 30
0.0
 10
10.1594220204
 20
8.3417795936
 30
0.0
 10
10.1653699518
 20
8.3521518807
 30
0.0
 10
10.1718287066
 20
8.3621909424
 30
0.0
 10
10.1787833621
 20
8.3718736056
 30
0.0
 10
10.1862179531
 20
8.3811776186
 30
0.0
 10
10.1941150417
 20
8.3900812318
 30
0.0
 10
10.1996770507
 20
8.3957373465
 30
0.0
 10
10.2025278932
 20
8.3984910364
 30
0.0
  0
SPLINE
  5
365
100
AcDbEntity
  8
0
100
AcDbSpline
 62
7
  6
CONTINUOUS
 70
0
 71
3
 72
23
 73
19
 74
0
 42
0.0000001
 43
0.0000001
 44
0.0000000001
 40
0.0
 40
0.0
 40
0.0
 40
0.0
 40
0.0637766017
 40
0.1273450758
 40
0.1907019811
 40
0.2538560972
 40
0.3168132288
 40
0.3795820869
 40
0.442173391
 40
0.5045993435
 40
0.5668738649
 40
0.6290123754
 40
0.6910316459
 40
0.7529496407
 40
0.8147853465
 40
0.8765585942
 40
0.9382898499
 40
1.0
 40
1.0
 40
1.0
 40
1.0
 10
11.4992460589
 20
8.2830087474
 30
0.0
 10
11.4992460589
 20
8.2871050724
 30
0.0
 10
11.4994421432
 20
8.2952857419
 30
0.0
 10
11.5003270804
 20
8.3075069654
 30
0.0
 10
11.5018005475
 20
8.3196313364
 30
0.0
 10
11.503858992
 20
8.331630333
 30
0.0
 10
11.5064978237
 20
8.3434765607
 30
0.0
 10
11.5097109309
 20
8.355142634
 30
0.0
 10
11.5134909196
 20
8.3666016734
 30
0.0
 10
11.5178291404
 20
8.3778272459
 30
0.0
 10
11.5227156084
 20
8.3887934575
 30
0.0
 10
11.5281390508
 20
8.3994750274
 30
0.0
 10
11.5340869822
 20
8.4098473144
 30
0.0
 10
11.540545737
 20
8.4198863761
 30
0.0
 10
11.5475003925
 20
8.4295690394
 30
0.0
 10
11.5549349834
 20
8.4388730524
 30
0.0
 10
11.562832072
 20
8.4477766656
 30
0.0
 10
11.5683940811
 20
8.4534327803
 30
0.0
 10
11.5712449236
 20
8.4561864702
 30
0.0
  0
SPLINE
  5
366
100
AcDbEntity
  8
0
100
AcDbSpline
 62
7
  6
CONTINUOUS
 70
0
 71
3
 72
15
 73
11
 74
0
 42
0.0000001
 43
0.0000001
 44
0.0000000001
 40
0.0
 40
0.0
 40
0.0
 40
0.0
 40
0.1093251514
 40
0.2221764169
 40
0.3391056777
 40
0.4606030388
 40
0.5870983105
 40
0.7189648976
 40
0.8565142222
 40
1.0
 40
1.0
 40
1.0
 40
1.0
 10
12.7502268513
 20
8.74674807
 30
0.0
 10
12.7511993473
 20
8.7470240871
 30
0.0
 10
12.7531534852
 20
8.7476662046
 30
0.0
 10
12.7560518112
 20
8.7488698061
 30
0.0
 10
12.7589579105
 20
8.7503265699
 30
0.0
 10
12.7618701337
 20
8.7520354972
 30
0.0
 10
12.7647873113
 20
8.7539955108
 30
0.0
 10
12.7677080972
 20
8.7562055568
 30
0.0
 10
12.77063102
 20
8.7586642545
 30
0.0
 10
12.7725389713
 20
8.7604301165
 30
0.0
 10
12.7734932666
 20
8.761351895
 30
0.0
  0
SPLINE
  5
367
100
AcDbEntity
  8
0
100
AcDbSpline
 62
7
  6
CONTINUOUS
 70
0
 71
3
 72
10
 73
6
 74
0
 42
0.0000001
 43
0.0000001
 44
0.0000000001
 40
0.0
 40
0.0
 40
0.0
 40
0.0
 40
0.4793214615
 40
0.7342778198
 40
1.0
 40
1.0
 40
1.0
 40
1.0
 10
12.7020385589
 20
8.8190969225
 30
0.0
 10
12.7037657533
 20
8.8201933467
 30
0.0
 10
12.7063102499
 20
8.8220370067
 30
0.0
 10
12.709572868
 20
8.8247898285
 30
0.0
 10
12.7112039452
 20
8.8263007489
 30
0.0
 10
12.7120196805
 20
8.8270886888
 30
0.0
  0
SPLINE
  5
368
100
AcDbEntity
  8
0
100
AcDbSpline
 62
7
  6
CONTINUOUS
 70
0
 71
3
 72
38
 73
34
 74
0
 42
0.0000001
 43
0.0000001
 44
0.0000000001
 40
0.0
 40
0.0
 40
0.0
 40
0.0
 40
0.0317522835
 40
0.0638071034
 40
0.0961010186
 40
0.1285739339
 40
0.1938201867
 40
0.2265130398
 40
0.259196177
 40
0.2918383514
 40
0.3244131367
 40
0.3568979819
 40
0.3892734176
 40
0.4215224723
 40
0.4536302472
 40
0.4855836079
 40
0.5173710628
 40
0.5489827192
 40
0.5804101789
 40
0.6116465041
 40
0.64268625
 40
0.6735255017
 40
0.7041619429
 40
0.7345948138
 40
0.7648249468
 40
0.7948547807
 40
0.8246883664
 40
0.8543313833
 40
0.883791143
 40
0.9130765761
 40
0.9421982125
 40
0.9711681468
 40
1.0
 40
1.0
 40
1.0
 40
1.0
 10
11.3215685116
 20
7.7860174728
 30
0.0
 10
11.3215685116
 20
7.7815760676
 30
0.0
 10
11.3217351246
 20
7.7726500854
 30
0.0
 10
11.3224788014
 20
7.7592255815
 30
0.0
 10
11.3237281239
 20
7.7457367296
 30
0.0
 10
11.3260917593
 20
7.7277021036
 30
0.0
 10
11.3295314121
 20
7.7097625902
 30
0.0
 10
11.3341169551
 20
7.6920715417
 30
0.0
 10
11.338147002
 20
7.6789615688
 30
0.0
 10
11.3427736136
 20
7.6660675664
 30
0.0
 10
11.3480001672
 20
7.6534344729
 30
0.0
 10
11.353824363
 20
7.6411065254
 30
0.0
 10
11.360238432
 20
7.6291263371
 30
0.0
 10
11.3672293963
 20
7.6175347184
 30
0.0
 10
11.3747795317
 20
7.6063703322
 30
0.0
 10
11.3828668939
 20
7.595669435
 30
0.0
 10
11.3914659144
 20
7.5854656734
 30
0.0
 10
11.4005480054
 20
7.5757899695
 30
0.0
 10
11.4100821073
 20
7.5666704584
 30
0.0
 10
11.420035206
 20
7.5581325029
 30
0.0
 10
11.4303727929
 20
7.5501987392
 30
0.0
 10
11.4410592791
 20
7.5428891635
 30
0.0
 10
11.4520583298
 20
7.5362212379
 30
0.0
 10
11.4633331563
 20
7.530210038
 30
0.0
 10
11.4748467409
 20
7.5248684081
 30
0.0
 10
11.4865620124
 20
7.5202071006
 30
0.0
 10
11.4984419831
 20
7.516234916
 30
0.0
 10
11.510449843
 20
7.5129588315
 30
0.0
 10
11.5225490423
 20
7.5103840989
 30
0.0
 10
11.5347032751
 20
7.5085143512
 30
0.0
 10
11.5468767435
 20
7.5073517041
 30
0.0
 10
11.5590332786
 20
7.5068967636
 30
0.0
 10
11.567122095
 20
7.5070652069
 30
0.0
 10
11.5711499211
 20
7.5072675418
 30
0.0
  0
SPLINE
  5
369
100
AcDbEntity
  8
0
100
AcDbSpline
 62
7
  6
CONTINUOUS
 70
0
 71
3
 72
42
 73
38
 74
0
 42
0.0000001
 43
0.0000001
 44
0.0000000001
 40
0.0
 40
0.0
 40
0.0
 40
0.0
 40
0.0309021651
 40
0.0464078252
 40
0.0619473254
 40
0.0931236682
 40
0.1244295491
 40
0.1558569766
 40
0.1873960402
 40
0.2190350052
 40
0.2507605482
 40
0.282557972
 40
0.3144114497
 40
0.3463042777
 40
0.3782191398
 40
0.4101383778
 40
0.4420442655
 40
0.473919284
 40
0.505746394
 40
0.5375093037
 40
0.5691927278
 40
0.6007826357
 40
0.6322664842
 40
0.6636334327
 40
0.6948745374
 40
0.7259829188
 40
0.7569539019
 40
0.7877851229
 40
0.818476601
 40
0.8490307698
 40
0.8642599328
 40
0.8794567788
 40
0.9097531965
 40
0.939933776
 40
0.9549863848
 40
0.9700145281
 40
1.0
 40
1.0
 40
1.0
 40
1.0
 10
10.2275860904
 20
9.8394305258
 30
0.0
 10
10.2275860904
 20
9.8338155659
 30
0.0
 10
10.2278632793
 20
9.8253798861
 30
0.0
 10
10.2287798842
 20
9.8141599799
 30
0.0
 10
10.2300643207
 20
9.8029256641
 30
0.0
 10
10.2323550654
 20
9.788924647
 30
0.0
 10
10.236181387
 20
9.7722841683
 30
0.0
 10
10.2410718165
 20
9.7558557801
 30
0.0
 10
10.2470052287
 20
9.7397103762
 30
0.0
 10
10.2539561093
 20
9.7239170776
 30
0.0
 10
10.2618945725
 20
9.7085436356
 30
0.0
 10
10.2707865179
 20
9.6936559571
 30
0.0
 10
10.2805937675
 20
9.679317875
 30
0.0
 10
10.2912742319
 20
9.6655908638
 30
0.0
 10
10.3027820883
 20
9.6525337818
 30
0.0
 10
10.3150679768
 20
9.6402026203
 30
0.0
 10
10.3280792098
 20
9.6286502654
 30
0.0
 10
10.3417599965
 20
9.6179262729
 30
0.0
 10
10.3560516798
 20
9.6080766575
 30
0.0
 10
10.370892986
 20
9.5991436964
 30
0.0
 10
10.3862202847
 20
9.5911657493
 30
0.0
 10
10.401967859
 20
9.5841770941
 30
0.0
 10
10.4180681842
 20
9.57820778
 30
0.0
 10
10.4344522152
 20
9.5732834988
 30
0.0
 10
10.4510496751
 20
9.5694254725
 30
0.0
 10
10.4677893688
 20
9.5666503639
 30
0.0
 10
10.4845994291
 20
9.5649701921
 30
0.0
 10
10.5014078275
 20
9.5643923167
 30
0.0
 10
10.51814192
 20
9.5649192587
 30
0.0
 10
10.5319820817
 20
9.5662790745
 30
0.0
 10
10.542942472
 20
9.567916167
 30
0.0
 10
10.5537955098
 20
9.5699127463
 30
0.0
 10
10.5671862165
 20
9.5730845835
 30
0.0
 10
10.5803048481
 20
9.577153578
 30
0.0
 10
10.5905837909
 20
9.5809324216
 30
0.0
 10
10.6006932684
 20
9.5850493757
 30
0.0
 10
10.6081061989
 20
9.5885258761
 30
0.0
 10
10.612955591
 20
9.5910095049
 30
0.0
  0
SPLINE
  5
36A
100
AcDbEntity
  8
0
100
AcDbSpline
 62
7
  6
CONTINUOUS
 70
0
 71
3
 72
15
 73
11
 74
0
 42
0.0000001
 43
0.0000001
 44
0.0000000001
 40
0.0
 40
0.0
 40
0.0
 40
0.0
 40
0.1267267029
 40
0.2529167639
 40
0.3785796106
 40
0.5037379337
 40
0.6284193322
 40
0.7526602922
 40
0.8765039341
 40
1.0
 40
1.0
 40
1.0
 40
1.0
 10
10.2275860904
 20
9.8394305258
 30
0.0
 10
10.2275860904
 20
9.8446855052
 30
0.0
 10
10.2279086573
 20
9.8551761615
 30
0.0
 10
10.2293656314
 20
9.8708167276
 30
0.0
 10
10.2317893579
 20
9.8862718152
 30
0.0
 10
10.2351706375
 20
9.9014819093
 30
0.0
 10
10.2394967684
 20
9.9163894338
 30
0.0
 10
10.2447514767
 20
9.9309378704
 30
0.0
 10
10.2509144869
 20
9.9450711814
 30
0.0
 10
10.2556200622
 20
9.9541941488
 30
0.0
 10
10.2581151389
 20
9.9586662155
 30
0.0
  0
SPLINE
  5
36B
100
AcDbEntity
  8
0
100
AcDbSpline
 62
7
  6
CONTINUOUS
 70
0
 71
3
 72
19
 73
15
 74
0
 42
0.0000001
 43
0.0000001
 44
0.0000000001
 40
0.0
 40
0.0
 40
0.0
 40
0.0
 40
0.12732766
 40
0.2538196711
 40
0.3795264658
 40
0.5045235362
 40
0.5668075958
 40
0.6289556124
 40
0.6909843715
 40
0.7529118454
 40
0.8147570127
 40
0.8765397119
 40
0.9382804145
 40
1.0
 40
1.0
 40
1.0
 40
1.0
 10
10.3179001605
 20
9.8331672238
 30
0.0
 10
10.3179001605
 20
9.8384644814
 30
0.0
 10
10.318405932
 20
9.8490315177
 30
0.0
 10
10.3206933457
 20
9.8646790414
 30
0.0
 10
10.3244858581
 20
9.8799326616
 30
0.0
 10
10.3288791749
 20
9.892215786
 30
0.0
 10
10.3331043431
 20
9.9016977556
 30
0.0
 10
10.336617864
 20
9.908617755
 30
0.0
 10
10.3404710868
 20
9.915337216
 30
0.0
 10
10.3446552414
 20
9.9218408626
 30
0.0
 10
10.3491606743
 20
9.9281135955
 30
0.0
 10
10.3539770025
 20
9.9341410492
 30
0.0
 10
10.3590929664
 20
9.9399090993
 30
0.0
 10
10.3626961917
 20
9.9435733223
 30
0.0
 10
10.364543052
 20
9.9453572518
 30
0.0
  0
SPLINE
  5
36C
100
AcDbEntity
  8
0
100
AcDbSpline
 62
7
  6
CONTINUOUS
 70
0
 71
3
 72
23
 73
19
 74
0
 42
0.0000001
 43
0.0000001
 44
0.0000000001
 40
0.0
 40
0.0
 40
0.0
 40
0.0
 40
0.0637766017
 40
0.1273450758
 40
0.1907019811
 40
0.2538560972
 40
0.3168132288
 40
0.3795820869
 40
0.442173391
 40
0.5045993435
 40
0.5668738649
 40
0.6290123754
 40
0.6910316459
 40
0.7529496407
 40
0.8147853465
 40
0.8765585942
 40
0.9382898499
 40
1.0
 40
1.0
 40
1.0
 40
1.0
 10
11.4992460589
 20
6.7616755499
 30
0.0
 10
11.4992460589
 20
6.7657718749
 30
0.0
 10
11.4994421432
 20
6.7739525445
 30
0.0
 10
11.5003270804
 20
6.7861737679
 30
0.0
 10
11.5018005475
 20
6.798298139
 30
0.0
 10
11.503858992
 20
6.8102971355
 30
0.0
 10
11.5064978237
 20
6.8221433633
 30
0.0
 10
11.5097109309
 20
6.8338094366
 30
0.0
 10
11.5134909196
 20
6.8452684759
 30
0.0
 10
11.5178291404
 20
6.8564940484
 30
0.0
 10
11.5227156084
 20
6.8674602601
 30
0.0
 10
11.5281390508
 20
6.87814183
 30
0.0
 10
11.5340869822
 20
6.888514117
 30
0.0
 10
11.540545737
 20
6.8985531787
 30
0.0
 10
11.5475003925
 20
6.9082358419
 30
0.0
 10
11.5549349834
 20
6.9175398549
 30
0.0
 10
11.562832072
 20
6.9264434681
 30
0.0
 10
11.5683940811
 20
6.9320995828
 30
0.0
 10
11.5712449236
 20
6.9348532727
 30
0.0
  0
SPLINE
  5
36D
100
AcDbEntity
  8
0
100
AcDbSpline
 62
7
  6
CONTINUOUS
 70
0
 71
3
 72
42
 73
38
 74
0
 42
0.0000001
 43
0.0000001
 44
0.0000000001
 40
0.0
 40
0.0
 40
0.0
 40
0.0
 40
0.0309021651
 40
0.0464078252
 40
0.0619473254
 40
0.0931236682
 40
0.1244295491
 40
0.1558569766
 40
0.1873960402
 40
0.2190350052
 40
0.2507605482
 40
0.282557972
 40
0.3144114497
 40
0.3463042777
 40
0.3782191398
 40
0.4101383778
 40
0.4420442655
 40
0.473919284
 40
0.505746394
 40
0.5375093037
 40
0.5691927278
 40
0.6007826357
 40
0.6322664842
 40
0.6636334327
 40
0.6948745374
 40
0.7259829188
 40
0.7569539019
 40
0.7877851229
 40
0.818476601
 40
0.8490307698
 40
0.8642599328
 40
0.8794567788
 40
0.9097531965
 40
0.939933776
 40
0.9549863848
 40
0.9700145281
 40
1.0
 40
1.0
 40
1.0
 40
1.0
 10
10.2275860904
 20
8.3190632418
 30
0.0
 10
10.2275860904
 20
8.3134482819
 30
0.0
 10
10.2278632793
 20
8.305012602
 30
0.0
 10
10.2287798842
 20
8.2937926958
 30
0.0
 10
10.2300643207
 20
8.2825583801
 30
0.0
 10
10.2323550654
 20
8.268557363
 30
0.0
 10
10.236181387
 20
8.2519168843
 30
0.0
 10
10.2410718165
 20
8.2354884961
 30
0.0
 10
10.2470052287
 20
8.2193430922
 30
0.0
 10
10.2539561093
 20
8.2035497936
 30
0.0
 10
10.2618945725
 20
8.1881763516
 30
0.0
 10
10.2707865179
 20
8.1732886731
 30
0.0
 10
10.2805937675
 20
8.158950591
 30
0.0
 10
10.2912742319
 20
8.1452235798
 30
0.0
 10
10.3027820883
 20
8.1321664978
 30
0.0
 10
10.3150679768
 20
8.1198353363
 30
0.0
 10
10.3280792098
 20
8.1082829814
 30
0.0
 10
10.3417599965
 20
8.0975589889
 30
0.0
 10
10.3560516798
 20
8.0877093735
 30
0.0
 10
10.370892986
 20
8.0787764124
 30
0.0
 10
10.3862202847
 20
8.0707984653
 30
0.0
 10
10.401967859
 20
8.0638098101
 30
0.0
 10
10.4180681842
 20
8.057840496
 30
0.0
 10
10.4344522152
 20
8.0529162148
 30
0.0
 10
10.4510496751
 20
8.0490581884
 30
0.0
 10
10.4677893688
 20
8.0462830798
 30
0.0
 10
10.4845994291
 20
8.0446029081
 30
0.0
 10
10.5014078275
 20
8.0440250327
 30
0.0
 10
10.51814192
 20
8.0445519747
 30
0.0
 10
10.5319820817
 20
8.0459117905
 30
0.0
 10
10.542942472
 20
8.047548883
 30
0.0
 10
10.5537955098
 20
8.0495454623
 30
0.0
 10
10.5671862165
 20
8.0527172995
 30
0.0
 10
10.5803048481
 20
8.056786294
 30
0.0
 10
10.5905837909
 20
8.0605651376
 30
0.0
 10
10.6006932684
 20
8.0646820917
 30
0.0
 10
10.6081061989
 20
8.0681585921
 30
0.0
 10
10.612955591
 20
8.0706422209
 30
0.0
  0
SPLINE
  5
36E
100
AcDbEntity
  8
0
100
AcDbSpline
 62
7
  6
CONTINUOUS
 70
0
 71
3
 72
15
 73
11
 74
0
 42
0.0000001
 43
0.0000001
 44
0.0000000001
 40
0.0
 40
0.0
 40
0.0
 40
0.0
 40
0.1267267029
 40
0.2529167639
 40
0.3785796106
 40
0.5037379337
 40
0.6284193322
 40
0.7526602922
 40
0.8765039341
 40
1.0
 40
1.0
 40
1.0
 40
1.0
 10
10.2275860904
 20
8.3190632418
 30
0.0
 10
10.2275860904
 20
8.3243182212
 30
0.0
 10
10.2279086573
 20
8.3348088775
 30
0.0
 10
10.2293656314
 20
8.3504494435
 30
0.0
 10
10.2317893579
 20
8.3659045312
 30
0.0
 10
10.2351706375
 20
8.3811146253
 30
0.0
 10
10.2394967684
 20
8.3960221498
 30
0.0
 10
10.2447514767
 20
8.4105705864
 30
0.0
 10
10.2509144869
 20
8.4247038974
 30
0.0
 10
10.2556200622
 20
8.4338268648
 30
0.0
 10
10.2581151389
 20
8.4382989315
 30
0.0
  0
SPLINE
  5
36F
100
AcDbEntity
  8
0
100
AcDbSpline
 62
7
  6
CONTINUOUS
 70
0
 71
3
 72
19
 73
15
 74
0
 42
0.0000001
 43
0.0000001
 44
0.0000000001
 40
0.0
 40
0.0
 40
0.0
 40
0.0
 40
0.12732766
 40
0.2538196711
 40
0.3795264658
 40
0.5045235362
 40
0.5668075958
 40
0.6289556124
 40
0.6909843715
 40
0.7529118454
 40
0.8147570127
 40
0.8765397119
 40
0.9382804145
 40
1.0
 40
1.0
 40
1.0
 40
1.0
 10
10.3179001605
 20
8.3127999398
 30
0.0
 10
10.3179001605
 20
8.3180971974
 30
0.0
 10
10.318405932
 20
8.3286642337
 30
0.0
 10
10.3206933457
 20
8.3443117574
 30
0.0
 10
10.3244858581
 20
8.3595653776
 30
0.0
 10
10.3288791749
 20
8.371848502
 30
0.0
 10
10.3331043431
 20
8.3813304716
 30
0.0
 10
10.336617864
 20
8.388250471
 30
0.0
 10
10.3404710868
 20
8.394969932
 30
0.0
 10
10.3446552414
 20
8.4014735786
 30
0.0
 10
10.3491606743
 20
8.4077463115
 30
0.0
 10
10.3539770025
 20
8.4137737651
 30
0.0
 10
10.3590929664
 20
8.4195418153
 30
0.0
 10
10.3626961917
 20
8.4232060383
 30
0.0
 10
10.364543052
 20
8.4249899678
 30
0.0
  0
SPLINE
  5
370
100
AcDbEntity
  8
0
100
AcDbSpline
 62
4
  6
CONTINUOUS
 70
0
 71
3
 72
324
 73
320
 74
0
 42
0.0000001
 43
0.0000001
 44
0.0000000001
 40
0.0
 40
0.0
 40
0.0
 40
0.0
 40
0.015625
 40
0.0234375
 40
0.03125
 40
0.0390625
 40
0.046875
 40
0.05078125
 40
0.0546875
 40
0.056640625
 40
0.05859375
 40
0.060546875
 40
0.0615234375
 40
0.0620117188
 40
0.0625
 40
0.0629882812
 40
0.0634765625
 40
0.064453125
 40
0.06640625
 40
0.068359375
 40
0.0703125
 40
0.07421875
 40
0.078125
 40
0.0859375
 40
0.09375
 40
0.1015625
 40
0.109375
 40
0.11328125
 40
0.1171875
 40
0.119140625
 40
0.12109375
 40
0.123046875
 40
0.1240234375
 40
0.1245117188
 40
0.125
 40
0.1254882812
 40
0.1259765625
 40
0.126953125
 40
0.12890625
 40
0.130859375
 40
0.1328125
 40
0.13671875
 40
0.140625
 40
0.1484375
 40
0.15625
 40
0.1640625
 40
0.171875
 40
0.17578125
 40
0.1796875
 40
0.181640625
 40
0.18359375
 40
0.185546875
 40
0.1865234375
 40
0.1870117188
 40
0.1875
 40
0.1879882812
 40
0.1884765625
 40
0.189453125
 40
0.19140625
 40
0.193359375
 40
0.1953125
 40
0.19921875
 40
0.203125
 40
0.2109375
 40
0.21875
 40
0.2265625
 40
0.23046875
 40
0.234375
 40
0.23828125
 40
0.2421875
 40
0.244140625
 40
0.24609375
 40
0.2470703125
 40
0.248046875
 40
0.2490234375
 40
0.2495117188
 40
0.25
 40
0.2504882812
 40
0.2509765625
 40
0.251953125
 40
0.2529296875
 40
0.25390625
 40
0.255859375
 40
0.2578125
 40
0.26171875
 40
0.265625
 40
0.26953125
 40
0.2734375
 40
0.28125
 40
0.2890625
 40
0.29296875
 40
0.296875
 40
0.30078125
 40
0.3046875
 40
0.306640625
 40
0.30859375
 40
0.3095703125
 40
0.310546875
 40
0.3115234375
 40
0.3120117188
 40
0.3125
 40
0.3129882812
 40
0.3134765625
 40
0.314453125
 40
0.3154296875
 40
0.31640625
 40
0.318359375
 40
0.3203125
 40
0.32421875
 40
0.328125
 40
0.33203125
 40
0.3359375
 40
0.34375
 40
0.3515625
 40
0.35546875
 40
0.359375
 40
0.36328125
 40
0.3671875
 40
0.369140625
 40
0.37109375
 40
0.3720703125
 40
0.373046875
 40
0.3740234375
 40
0.3745117188
 40
0.3747558594
 40
0.375
 40
0.3752441406
 40
0.3754882812
 40
0.3759765625
 40
0.376953125
 40
0.3779296875
 40
0.37890625
 40
0.380859375
 40
0.3828125
 40
0.38671875
 40
0.390625
 40
0.39453125
 40
0.3984375
 40
0.40625
 40
0.4140625
 40
0.41796875
 40
0.421875
 40
0.42578125
 40
0.4296875
 40
0.431640625
 40
0.43359375
 40
0.4345703125
 40
0.435546875
 40
0.4365234375
 40
0.4370117188
 40
0.4372558594
 40
0.4375
 40
0.4377441406
 40
0.4379882812
 40
0.4384765625
 40
0.439453125
 40
0.4404296875
 40
0.44140625
 40
0.443359375
 40
0.4453125
 40
0.44921875
 40
0.453125
 40
0.45703125
 40
0.4609375
 40
0.46875
 40
0.4765625
 40
0.48046875
 40
0.484375
 40
0.48828125
 40
0.4921875
 40
0.494140625
 40
0.49609375
 40
0.4970703125
 40
0.498046875
 40
0.4990234375
 40
0.4995117188
 40
0.5
 40
0.5004882812
 40
0.5009765625
 40
0.501953125
 40
0.5029296875
 40
0.50390625
 40
0.505859375
 40
0.5078125
 40
0.51171875
 40
0.515625
 40
0.51953125
 40
0.5234375
 40
0.53125
 40
0.5390625
 40
0.54296875
 40
0.546875
 40
0.55078125
 40
0.5546875
 40
0.556640625
 40
0.55859375
 40
0.560546875
 40
0.5615234375
 40
0.5620117188
 40
0.5625
 40
0.5629882812
 40
0.5634765625
 40
0.564453125
 40
0.56640625
 40
0.568359375
 40
0.5703125
 40
0.57421875
 40
0.578125
 40
0.58203125
 40
0.5859375
 40
0.59375
 40
0.6015625
 40
0.609375
 40
0.61328125
 40
0.6171875
 40
0.619140625
 40
0.62109375
 40
0.623046875
 40
0.6240234375
 40
0.6245117188
 40
0.625
 40
0.6254882812
 40
0.6259765625
 40
0.626953125
 40
0.62890625
 40
0.630859375
 40
0.6328125
 40
0.63671875
 40
0.640625
 40
0.6484375
 40
0.65625
 40
0.6640625
 40
0.671875
 40
0.67578125
 40
0.6796875
 40
0.681640625
 40
0.68359375
 40
0.685546875
 40
0.6865234375
 40
0.6870117188
 40
0.6875
 40
0.6879882812
 40
0.6884765625
 40
0.689453125
 40
0.69140625
 40
0.693359375
 40
0.6953125
 40
0.69921875
 40
0.703125
 40
0.7109375
 40
0.71875
 40
0.7265625
 40
0.734375
 40
0.73828125
 40
0.7421875
 40
0.744140625
 40
0.74609375
 40
0.748046875
 40
0.7490234375
 40
0.75
 40
0.7509765625
 40
0.751953125
 40
0.75390625
 40
0.755859375
 40
0.7578125
 40
0.76171875
 40
0.765625
 40
0.7734375
 40
0.78125
 40
0.7890625
 40
0.796875
 40
0.80078125
 40
0.8046875
 40
0.80859375
 40
0.810546875
 40
0.8115234375
 40
0.8125
 40
0.8134765625
 40
0.814453125
 40
0.81640625
 40
0.8203125
 40
0.82421875
 40
0.828125
 40
0.8359375
 40
0.84375
 40
0.8515625
 40
0.859375
 40
0.86328125
 40
0.8671875
 40
0.87109375
 40
0.873046875
 40
0.8740234375
 40
0.875
 40
0.8759765625
 40
0.876953125
 40
0.87890625
 40
0.8828125
 40
0.88671875
 40
0.890625
 40
0.8984375
 40
0.90625
 40
0.9140625
 40
0.921875
 40
0.92578125
 40
0.9296875
 40
0.93359375
 40
0.935546875
 40
0.9365234375
 40
0.9375
 40
0.9384765625
 40
0.939453125
 40
0.94140625
 40
0.9453125
 40
0.94921875
 40
0.953125
 40
0.9609375
 40
0.96875
 40
0.984375
 40
1.0
 40
1.0
 40
1.0
 40
1.0
 10
12.5724524307
 20
7.1190343412
 30
0.0
 10
12.5723701136
 20
7.1220880159
 30
0.0
 10
12.5722466381
 20
7.1266685282
 30
0.0
 10
12.5720820039
 20
7.1327758774
 30
0.0
 10
12.5719585288
 20
7.1373563904
 30
0.0
 10
12.5718350513
 20
7.1419368992
 30
0.0
 10
12.5717321611
 20
7.1457540031
 30
0.0
 10
12.5716498316
 20
7.1488076565
 30
0.0
 10
12.5715984153
 20
7.1507162575
 30
0.0
 10
12.5715571913
 20
7.1522429834
 30
0.0
 10
12.5715265223
 20
7.1533884522
 30
0.0
 10
12.5715001729
 20
7.1543416594
 30
0.0
 10
12.5714832824
 20
7.1550115539
 30
0.0
 10
12.5714712041
 20
7.1553902139
 30
0.0
 10
12.5714689809
 20
7.1556858626
 30
0.0
 10
12.5714406292
 20
7.155936965
 30
0.0
 10
12.5714119408
 20
7.1562873065
 30
0.0
 10
12.5713574898
 20
7.1568931645
 30
0.0
 10
12.5712819227
 20
7.1577624609
 30
0.0
 10
12.571190292
 20
7.1588039965
 30
0.0
 10
12.5710684496
 20
7.1601932765
 30
0.0
 10
12.5709160329
 20
7.1619296827
 30
0.0
 10
12.5706722297
 20
7.164708041
 30
0.0
 10
12.5703674538
 20
7.1681809514
 30
0.0
 10
12.5700017327
 20
7.1723484613
 30
0.0
 10
12.5696360068
 20
7.1765159611
 30
0.0
 10
12.5693312431
 20
7.179988897
 30
0.0
 10
12.5690874156
 20
7.1827672043
 30
0.0
 10
12.5689350608
 20
7.1845037401
 30
0.0
 10
12.5688130913
 20
7.1858927541
 30
0.0
 10
12.5687218488
 20
7.1869351022
 30
0.0
 10
12.568645067
 20
7.1878018566
 30
0.0
 10
12.5685927844
 20
7.1884122525
 30
0.0
 10
12.5685606217
 20
7.1887553232
 30
0.0
 10
12.5685429421
 20
7.189028759
 30
0.0
 10
12.5685006364
 20
7.1892405273
 30
0.0
 10
12.5684528187
 20
7.1895443953
 30
0.0
 10
12.5683651356
 20
7.1900661422
 30
0.0
 10
12.5682419664
 20
7.1908167347
 30
0.0
 10
12.5680932677
 20
7.1917152028
 30
0.0
 10
12.5678953156
 20
7.1929139438
 30
0.0
 10
12.5676477684
 20
7.1944121017
 30
0.0
 10
12.5672517527
 20
7.1968093044
 30
0.0
 10
12.5667567124
 20
7.1998057559
 30
0.0
 10
12.5661626735
 20
7.2034015216
 30
0.0
 10
12.56556863
 20
7.2069972745
 30
0.0
 10
12.5650736013
 20
7.209993758
 30
0.0
 10
12.5646775624
 20
7.2123908967
 30
0.0
 10
12.5644300744
 20
7.2138892172
 30
0.0
 10
12.5642320007
 20
7.2150876244
 30
0.0
 10
12.5640836733
 20
7.2159871124
 30
0.0
 10
12.5639593425
 20
7.2167345141
 30
0.0
 10
12.563873733
 20
7.2172619569
 30
0.0
 10
12.5638225929
 20
7.2175566988
 30
0.0
 10
12.5637904925
 20
7.2177964997
 30
0.0
 10
12.5637344836
 20
7.2179646493
 30
0.0
 10
12.5636681447
 20
7.2182138416
 30
0.0
 10
12.563548166
 20
7.2186382834
 30
0.0
 10
12.5633787992
 20
7.2192507168
 30
0.0
 10
12.5631746896
 20
7.2199830311
 30
0.0
 10
12.5629028472
 20
7.2209603603
 30
0.0
 10
12.5625629401
 20
7.2221817102
 30
0.0
 10
12.562019147
 20
7.2241360441
 30
0.0
 10
12.5613393856
 20
7.2265789017
 30
0.0
 10
12.5605236805
 20
7.2295103567
 30
0.0
 10
12.5598439242
 20
7.2319532294
 30
0.0
 10
12.5593001198
 20
7.2339075301
 30
0.0
 10
12.5588922658
 20
7.2353732521
 30
0.0
 10
12.5584844142
 20
7.2368389869
 30
0.0
 10
12.5581445306
 20
7.2380603927
 30
0.0
 10
12.5578726401
 20
7.2390376066
 30
0.0
 10
12.557702671
 20
7.2396481621
 30
0.0
 10
12.5575667816
 20
7.2401370717
 30
0.0
 10
12.5574646296
 20
7.2405024803
 30
0.0
 10
12.5573802504
 20
7.240811039
 30
0.0
 10
12.5573110706
 20
7.2410487991
 30
0.0
 10
12.5572637663
 20
7.2412519487
 30
0.0
 10
12.5571989783
 20
7.2413603238
 30
0.0
 10
12.5571187015
 20
7.2415379299
 30
0.0
 10
12.5570162602
 20
7.241748579
 30
0.0
 10
12.5568942275
 20
7.2420062197
 30
0.0
 10
12.5567312039
 20
7.2423480425
 30
0.0
 10
12.5565275317
 20
7.2427759025
 30
0.0
 10
12.5562015963
 20
7.2434601535
 30
0.0
 10
12.5557941976
 20
7.2443155788
 30
0.0
 10
12.5553053103
 20
7.2453420413
 30
0.0
 10
12.5548164253
 20
7.2463685166
 30
0.0
 10
12.5541645779
 20
7.2477371458
 30
0.0
 10
12.553349769
 20
7.2494479341
 30
0.0
 10
12.5525349598
 20
7.2511587212
 30
0.0
 10
12.5518831127
 20
7.2525273523
 30
0.0
 10
12.5513942269
 20
7.2535538221
 30
0.0
 10
12.550905343
 20
7.2545803051
 30
0.0
 10
12.5504979336
 20
7.2554356668
 30
0.0
 10
12.55017202
 20
7.2561200474
 30
0.0
 10
12.5499682922
 20
7.2565475775
 30
0.0
 10
12.5498053828
 20
7.2568900774
 30
0.0
 10
12.5496830015
 20
7.2571456496
 30
0.0
 10
12.5495816507
 20
7.2573627705
 30
0.0
 10
12.5494991491
 20
7.2575271729
 30
0.0
 10
12.5494411556
 20
7.2576758711
 30
0.0
 10
12.5493683416
 20
7.257727631
 30
0.0
 10
12.5492764333
 20
7.257830506
 30
0.0
 10
12.5491597716
 20
7.2579474819
 30
0.0
 10
12.5490205379
 20
7.2580928259
 30
0.0
 10
12.5488346275
 20
7.2582848809
 30
0.0
 10
12.5486023303
 20
7.2585255443
 30
0.0
 10
12.5482306041
 20
7.2589102735
 30
0.0
 10
12.5477659637
 20
7.259391299
 30
0.0
 10
12.5472083878
 20
7.2599684807
 30
0.0
 10
12.5466508139
 20
7.2605456754
 30
0.0
 10
12.5459073813
 20
7.2613152639
 30
0.0
 10
12.5449780908
 20
7.262277251
 30
0.0
 10
12.5440488002
 20
7.2632392378
 30
0.0
 10
12.5433053677
 20
7.2640088268
 30
0.0
 10
12.5427477934
 20
7.2645860198
 30
0.0
 10
12.5421902187
 20
7.265163208
 30
0.0
 10
12.5417255746
 20
7.2656442133
 30
0.0
 10
12.5413538559
 20
7.2660289837
 30
0.0
 10
12.5411215395
 20
7.2662695423
 30
0.0
 10
12.5409356686
 20
7.2664618124
 30
0.0
 10
12.5407963142
 20
7.2666064992
 30
0.0
 10
12.5406800304
 20
7.2667255311
 30
0.0
 10
12.5405989361
 20
7.2668118765
 30
0.0
 10
12.5405521212
 20
7.2668564964
 30
0.0
 10
12.540518349
 20
7.2669032588
 30
0.0
 10
12.5404794587
 20
7.2668991913
 30
0.0
 10
12.5404293903
 20
7.266911498
 30
0.0
 10
12.5403409388
 20
7.2669247739
 30
0.0
 10
12.5402150143
 20
7.2669480584
 30
0.0
 10
12.5400637188
 20
7.2669741512
 30
0.0
 10
12.5398620565
 20
7.2670095873
 30
0.0
 10
12.5396099563
 20
7.2670536613
 30
0.0
 10
12.5392066085
 20
7.2671243032
 30
0.0
 10
12.5387024194
 20
7.2672125632
 30
0.0
 10
12.5380973943
 20
7.2673184935
 30
0.0
 10
12.5374923688
 20
7.2674244188
 30
0.0
 10
12.5366856683
 20
7.2675656543
 30
0.0
 10
12.5356772925
 20
7.2677421981
 30
0.0
 10
12.5346689169
 20
7.2679187423
 30
0.0
 10
12.5338622163
 20
7.2680599771
 30
0.0
 10
12.5332571909
 20
7.2681659045
 30
0.0
 10
12.5326521652
 20
7.2682718269
 30
0.0
 10
12.5321479782
 20
7.2683601112
 30
0.0
 10
12.5317446261
 20
7.2684307037
 30
0.0
 10
12.5314925369
 20
7.2684749036
 30
0.0
 10
12.5312908521
 20
7.2685100811
 30
0.0
 10
12.5311396252
 20
7.2685369638
 30
0.0
 10
12.531013486
 20
7.2685577769
 30
0.0
 10
12.5309254178
 20
7.2685754647
 30
0.0
 10
12.5308747352
 20
7.2685807025
 30
0.0
 10
12.5308377313
 20
7.2685983485
 30
0.0
 10
12.5307968745
 20
7.2685635585
 30
0.0
 10
12.5307437426
 20
7.2685354621
 30
0.0
 10
12.5306501357
 20
7.2684777716
 30
0.0
 10
12.530516739
 20
7.2683998118
 30
0.0
 10
12.5303565228
 20
7.2683043531
 30
0.0
 10
12.5301429501
 20
7.268177741
 30
0.0
 10
12.5298759675
 20
7.2680192477
 30
0.0
 10
12.5294488048
 20
7.2677657859
 30
0.0
 10
12.5289148481
 20
7.267448915
 30
0.0
 10
12.5282741014
 20
7.2670686886
 30
0.0
 10
12.5276333544
 20
7.2666884572
 30
0.0
 10
12.5267790252
 20
7.2661814837
 30
0.0
 10
12.5257111136
 20
7.2655477664
 30
0.0
 10
12.524643202
 20
7.2649140487
 30
0.0
 10
12.5237888727
 20
7.2644070758
 30
0.0
 10
12.5231481258
 20
7.2640268426
 30
0.0
 10
12.5225073786
 20
7.2636466228
 30
0.0
 10
12.5219734236
 20
7.2633297314
 30
0.0
 10
12.5215462574
 20
7.2630763113
 30
0.0
 10
12.5212792836
 20
7.2629177119
 30
0.0
 10
12.5210656929
 20
7.2627913177
 30
0.0
 10
12.5209055319
 20
7.262695193
 30
0.0
 10
12.5207719622
 20
7.262619317
 30
0.0
 10
12.5206653359
 20
7.2625491338
 30
0.0
 10
12.520584739
 20
7.2625224068
 30
0.0
 10
12.5205065362
 20
7.2623967794
 30
0.0
 10
12.5204014296
 20
7.2622638235
 30
0.0
 10
12.5202703332
 20
7.2620857755
 30
0.0
 10
12.5201128947
 20
7.2618771915
 30
0.0
 10
12.5199030196
 20
7.2615973073
 30
0.0
 10
12.519640661
 20
7.2612480589
 30
0.0
 10
12.5192208956
 20
7.2606889223
 30
0.0
 10
12.5186961859
 20
7.259990118
 30
0.0
 10
12.5180665356
 20
7.2591515029
 30
0.0
 10
12.5174368849
 20
7.2583129011
 30
0.0
 10
12.5165973507
 20
7.2571947608
 30
0.0
 10
12.5155479331
 20
7.2557970865
 30
0.0
 10
12.5144985153
 20
7.2543994136
 30
0.0
 10
12.5136589813
 20
7.253281271
 30
0.0
 10
12.5130293301
 20
7.2524426761
 30
0.0
 10
12.5123996815
 20
7.251604035
 30
0.0
 10
12.5118749663
 20
7.2509053115
 30
0.0
 10
12.5114552122
 20
7.2503460101
 30
0.0
 10
12.5111403473
 20
7.2499274155
 30
0.0
 10
12.5108781167
 20
7.2495757828
 30
0.0
 10
12.5106942476
 20
7.2493351423
 30
0.0
 10
12.51058966
 20
7.2491890419
 30
0.0
 10
12.5105098658
 20
7.2491036694
 30
0.0
 10
12.5104352452
 20
7.2489257813
 30
0.0
 10
12.5103339465
 20
7.2487208677
 30
0.0
 10
12.5101575145
 20
7.2483472335
 30
0.0
 10
12.5099050293
 20
7.247821331
 30
0.0
 10
12.5096022351
 20
7.2471868834
 30
0.0
 10
12.5091984439
 20
7.2463421285
 30
0.0
 10
12.5086937274
 20
7.2452857816
 30
0.0
 10
12.5080880579
 20
7.2440183383
 30
0.0
 10
12.507482391
 20
7.2427508487
 30
0.0
 10
12.5066748343
 20
7.2410608785
 30
0.0
 10
12.5056653885
 20
7.238948412
 30
0.0
 10
12.5044540544
 20
7.2364134464
 30
0.0
 10
12.5034446063
 20
7.2343009991
 30
0.0
 10
12.5026370546
 20
7.2326109866
 30
0.0
 10
12.5021323194
 20
7.2315548535
 30
0.0
 10
12.5017285665
 20
7.2307096614
 30
0.0
 10
12.5014256552
 20
7.2300765494
 30
0.0
 10
12.5011735367
 20
7.2295464679
 30
0.0
 10
12.50099645
 20
7.229180294
 30
0.0
 10
12.5008962003
 20
7.2289634272
 30
0.0
 10
12.5008183576
 20
7.2288222554
 30
0.0
 10
12.500750665
 20
7.2285989825
 30
0.0
 10
12.5006568678
 20
7.2283299231
 30
0.0
 10
12.5004943722
 20
7.2278457263
 30
0.0
 10
12.5002613732
 20
7.2271609923
 30
0.0
 10
12.4999821436
 20
7.2263363256
 30
0.0
 10
12.4996097085
 20
7.225237813
 30
0.0
 10
12.4991442087
 20
7.2238643151
 30
0.0
 10
12.4983993845
 20
7.2216669181
 30
0.0
 10
12.4974683627
 20
7.218920103
 30
0.0
 10
12.4963511325
 20
7.2156239562
 30
0.0
 10
12.4952339046
 20
7.2123277942
 30
0.0
 10
12.4943028773
 20
7.2095810171
 30
0.0
 10
12.4935580641
 20
7.207383544
 30
0.0
 10
12.4930925362
 20
7.2060102398
 30
0.0
 10
12.492720159
 20
7.2049113296
 30
0.0
 10
12.4924407522
 20
7.2040878774
 30
0.0
 10
12.4922083076
 20
7.2033993439
 30
0.0
 10
12.4920448224
 20
7.2029219298
 30
0.0
 10
12.4919526107
 20
7.2026420026
 30
0.0
 10
12.4918800481
 20
7.2024521121
 30
0.0
 10
12.4918204964
 20
7.2021855615
 30
0.0
 10
12.4917365558
 20
7.2018569006
 30
0.0
 10
12.4915917743
 20
7.2012692853
 30
0.0
 10
12.4913838381
 20
7.2004363485
 30
0.0
 10
12.4911347879
 20
7.1994340363
 30
0.0
 10
12.4908025556
 20
7.1980985938
 30
0.0
 10
12.4903873218
 20
7.1964289573
 30
0.0
 10
12.4897229162
 20
7.1937577251
 30
0.0
 10
12.4888924197
 20
7.1904186217
 30
0.0
 10
12.4878958208
 20
7.1864117216
 30
0.0
 10
12.4868992175
 20
7.1824048264
 30
0.0
 10
12.486068732
 20
7.1790657108
 30
0.0
 10
12.4854043044
 20
7.1763945029
 30
0.0
 10
12.4849891266
 20
7.1747248047
 30
0.0
 10
12.4846567795
 20
7.1733894888
 30
0.0
 10
12.4844080801
 20
7.1723867899
 30
0.0
 10
12.4841990462
 20
7.1715550628
 30
0.0
 10
12.484035821
 20
7.1708810345
 30
0.0
 10
12.4839024671
 20
7.1703991399
 30
0.0
 10
12.4838108524
 20
7.1698270619
 30
0.0
 10
12.4836741194
 20
7.1690957935
 30
0.0
 10
12.4835082055
 20
7.1681708997
 30
0.0
 10
12.4833069676
 20
7.1670656535
 30
0.0
 10
12.4830393983
 20
7.1655903759
 30
0.0
 10
12.4827046807
 20
7.1637468322
 30
0.0
 10
12.4821692754
 20
7.1607968534
 30
0.0
 10
12.481499971
 20
7.1571094839
 30
0.0
 10
12.4806968207
 20
7.1526846044
 30
0.0
 10
12.479893687
 20
7.148259703
 30
0.0
 10
12.4792243412
 20
7.1445723881
 30
0.0
 10
12.4786890187
 20
7.1416223001
 30
0.0
 10
12.478287105
 20
7.1394103804
 30
0.0
 10
12.4779535186
 20
7.1375650581
 30
0.0
 10
12.4777173753
 20
7.1362773672
 30
0.0
 10
12.4775865472
 20
7.1355352439
 30
0.0
 10
12.4774768454
 20
7.1349963986
 30
0.0
 10
12.4774114113
 20
7.1343897144
 30
0.0
 10
12.4773087247
 20
7.1336044651
 30
0.0
 10
12.4771362176
 20
7.1322192539
 30
0.0
 10
12.4768860175
 20
7.1302461447
 30
0.0
 10
12.4765873874
 20
7.1278759465
 30
0.0
 10
12.4761886514
 20
7.1247165442
 30
0.0
 10
12.4756904258
 20
7.1207669947
 30
0.0
 10
12.4750924656
 20
7.116027666
 30
0.0
 10
12.4744945523
 20
7.1112882888
 30
0.0
 10
12.4739962095
 20
7.1073388606
 30
0.0
 10
12.4735977078
 20
7.1041792156
 30
0.0
 10
12.4732983628
 20
7.1018097574
 30
0.0
 10
12.4730503993
 20
7.0998343331
 30
0.0
 10
12.4728738996
 20
7.0984532548
 30
0.0
 10
12.47277761
 20
7.0976613836
 30
0.0
 10
12.4726925267
 20
7.09707504
 30
0.0
 10
12.4726566241
 20
7.0964597988
 30
0.0
 10
12.4725915992
 20
7.0956495571
 30
0.0
 10
12.4724857984
 20
7.0942269377
 30
0.0
 10
12.4723304757
 20
7.0921970796
 30
0.0
 10
12.4721458771
 20
7.089760199
 30
0.0
 10
12.4718991206
 20
7.0865113919
 30
0.0
 10
12.471590891
 20
7.0824502569
 30
0.0
 10
12.4712209163
 20
7.0775769498
 30
0.0
 10
12.4708509925
 20
7.0727036247
 30
0.0
 10
12.4705426357
 20
7.0686425348
 30
0.0
 10
12.4702961335
 20
7.0653936374
 30
0.0
 10
12.4701107593
 20
7.062957032
 30
0.0
 10
12.4699578632
 20
7.0609263128
 30
0.0
 10
12.4698477305
 20
7.0595052307
 30
0.0
 10
12.4697896463
 20
7.0586925259
 30
0.0
 10
12.4697324241
 20
7.0580848505
 30
0.0
 10
12.4697274138
 20
7.0574700912
 30
0.0
 10
12.4697025214
 20
7.0566528831
 30
0.0
 10
12.469667445
 20
7.0552216176
 30
0.0
 10
12.4696128995
 20
7.0531775545
 30
0.0
 10
12.4695493439
 20
7.0507244211
 30
0.0
 10
12.4694639397
 20
7.0474536666
 30
0.0
 10
12.4693574117
 20
7.0433651927
 30
0.0
 10
12.4691868398
 20
7.0368236517
 30
0.0
 10
12.4689736689
 20
7.0286467194
 30
0.0
 10
12.4688031187
 20
7.0221051755
 30
0.0
 10
12.4687178453
 20
7.0188344032
 30
0.0
  0
SPLINE
  5
371
100
AcDbEntity
  8
0
100
AcDbSpline
 62
4
  6
CONTINUOUS
 70
0
 71
3
 72
324
 73
320
 74
0
 42
0.0000001
 43
0.0000001
 44
0.0000000001
 40
0.0
 40
0.0
 40
0.0
 40
0.0
 40
0.015625
 40
0.0234375
 40
0.03125
 40
0.0390625
 40
0.046875
 40
0.05078125
 40
0.0546875
 40
0.056640625
 40
0.05859375
 40
0.060546875
 40
0.0615234375
 40
0.0620117188
 40
0.0625
 40
0.0629882812
 40
0.0634765625
 40
0.064453125
 40
0.06640625
 40
0.068359375
 40
0.0703125
 40
0.07421875
 40
0.078125
 40
0.0859375
 40
0.09375
 40
0.1015625
 40
0.109375
 40
0.11328125
 40
0.1171875
 40
0.119140625
 40
0.12109375
 40
0.123046875
 40
0.1240234375
 40
0.1245117188
 40
0.125
 40
0.1254882812
 40
0.1259765625
 40
0.126953125
 40
0.12890625
 40
0.130859375
 40
0.1328125
 40
0.13671875
 40
0.140625
 40
0.1484375
 40
0.15625
 40
0.1640625
 40
0.171875
 40
0.17578125
 40
0.1796875
 40
0.181640625
 40
0.18359375
 40
0.185546875
 40
0.1865234375
 40
0.1870117188
 40
0.1875
 40
0.1879882812
 40
0.1884765625
 40
0.189453125
 40
0.19140625
 40
0.193359375
 40
0.1953125
 40
0.19921875
 40
0.203125
 40
0.2109375
 40
0.21875
 40
0.2265625
 40
0.23046875
 40
0.234375
 40
0.23828125
 40
0.2421875
 40
0.244140625
 40
0.24609375
 40
0.2470703125
 40
0.248046875
 40
0.2490234375
 40
0.2495117188
 40
0.25
 40
0.2504882812
 40
0.2509765625
 40
0.251953125
 40
0.2529296875
 40
0.25390625
 40
0.255859375
 40
0.2578125
 40
0.26171875
 40
0.265625
 40
0.26953125
 40
0.2734375
 40
0.28125
 40
0.2890625
 40
0.29296875
 40
0.296875
 40
0.30078125
 40
0.3046875
 40
0.306640625
 40
0.30859375
 40
0.3095703125
 40
0.310546875
 40
0.3115234375
 40
0.3120117188
 40
0.3125
 40
0.3129882812
 40
0.3134765625
 40
0.314453125
 40
0.3154296875
 40
0.31640625
 40
0.318359375
 40
0.3203125
 40
0.32421875
 40
0.328125
 40
0.33203125
 40
0.3359375
 40
0.34375
 40
0.3515625
 40
0.35546875
 40
0.359375
 40
0.36328125
 40
0.3671875
 40
0.369140625
 40
0.37109375
 40
0.3720703125
 40
0.373046875
 40
0.3740234375
 40
0.3745117188
 40
0.3747558594
 40
0.375
 40
0.3752441406
 40
0.3754882812
 40
0.3759765625
 40
0.376953125
 40
0.3779296875
 40
0.37890625
 40
0.380859375
 40
0.3828125
 40
0.38671875
 40
0.390625
 40
0.39453125
 40
0.3984375
 40
0.40625
 40
0.4140625
 40
0.41796875
 40
0.421875
 40
0.42578125
 40
0.4296875
 40
0.431640625
 40
0.43359375
 40
0.4345703125
 40
0.435546875
 40
0.4365234375
 40
0.4370117188
 40
0.4372558594
 40
0.4375
 40
0.4377441406
 40
0.4379882812
 40
0.4384765625
 40
0.439453125
 40
0.4404296875
 40
0.44140625
 40
0.443359375
 40
0.4453125
 40
0.44921875
 40
0.453125
 40
0.45703125
 40
0.4609375
 40
0.46875
 40
0.4765625
 40
0.48046875
 40
0.484375
 40
0.48828125
 40
0.4921875
 40
0.494140625
 40
0.49609375
 40
0.4970703125
 40
0.498046875
 40
0.4990234375
 40
0.4995117188
 40
0.5
 40
0.5004882812
 40
0.5009765625
 40
0.501953125
 40
0.5029296875
 40
0.50390625
 40
0.505859375
 40
0.5078125
 40
0.51171875
 40
0.515625
 40
0.51953125
 40
0.5234375
 40
0.53125
 40
0.5390625
 40
0.54296875
 40
0.546875
 40
0.55078125
 40
0.5546875
 40
0.556640625
 40
0.55859375
 40
0.560546875
 40
0.5615234375
 40
0.5620117188
 40
0.5625
 40
0.5629882812
 40
0.5634765625
 40
0.564453125
 40
0.56640625
 40
0.568359375
 40
0.5703125
 40
0.57421875
 40
0.578125
 40
0.58203125
 40
0.5859375
 40
0.59375
 40
0.6015625
 40
0.609375
 40
0.61328125
 40
0.6171875
 40
0.619140625
 40
0.62109375
 40
0.623046875
 40
0.6240234375
 40
0.6245117188
 40
0.625
 40
0.6254882812
 40
0.6259765625
 40
0.626953125
 40
0.62890625
 40
0.630859375
 40
0.6328125
 40
0.63671875
 40
0.640625
 40
0.6484375
 40
0.65625
 40
0.6640625
 40
0.671875
 40
0.67578125
 40
0.6796875
 40
0.681640625
 40
0.68359375
 40
0.685546875
 40
0.6865234375
 40
0.6870117188
 40
0.6875
 40
0.6879882812
 40
0.6884765625
 40
0.689453125
 40
0.69140625
 40
0.693359375
 40
0.6953125
 40
0.69921875
 40
0.703125
 40
0.7109375
 40
0.71875
 40
0.7265625
 40
0.734375
 40
0.73828125
 40
0.7421875
 40
0.744140625
 40
0.74609375
 40
0.748046875
 40
0.7490234375
 40
0.75
 40
0.7509765625
 40
0.751953125
 40
0.75390625
 40
0.755859375
 40
0.7578125
 40
0.76171875
 40
0.765625
 40
0.7734375
 40
0.78125
 40
0.7890625
 40
0.796875
 40
0.80078125
 40
0.8046875
 40
0.80859375
 40
0.810546875
 40
0.8115234375
 40
0.8125
 40
0.8134765625
 40
0.814453125
 40
0.81640625
 40
0.8203125
 40
0.82421875
 40
0.828125
 40
0.8359375
 40
0.84375
 40
0.8515625
 40
0.859375
 40
0.86328125
 40
0.8671875
 40
0.87109375
 40
0.873046875
 40
0.8740234375
 40
0.875
 40
0.8759765625
 40
0.876953125
 40
0.87890625
 40
0.8828125
 40
0.88671875
 40
0.890625
 40
0.8984375
 40
0.90625
 40
0.9140625
 40
0.921875
 40
0.92578125
 40
0.9296875
 40
0.93359375
 40
0.935546875
 40
0.9365234375
 40
0.9375
 40
0.9384765625
 40
0.939453125
 40
0.94140625
 40
0.9453125
 40
0.94921875
 40
0.953125
 40
0.9609375
 40
0.96875
 40
0.984375
 40
1.0
 40
1.0
 40
1.0
 40
1.0
 10
12.4687178453
 20
7.0188344202
 30
0.0
 10
12.4688001624
 20
7.0157807454
 30
0.0
 10
12.4689236379
 20
7.0112002332
 30
0.0
 10
12.4690882721
 20
7.005092884
 30
0.0
 10
12.4692117472
 20
7.0005123709
 30
0.0
 10
12.4693352247
 20
6.9959318622
 30
0.0
 10
12.4694381149
 20
6.9921147582
 30
0.0
 10
12.4695204445
 20
6.9890611048
 30
0.0
 10
12.4695718607
 20
6.9871525038
 30
0.0
 10
12.4696130847
 20
6.9856257779
 30
0.0
 10
12.4696437537
 20
6.9844803092
 30
0.0
 10
12.4696701031
 20
6.9835271019
 30
0.0
 10
12.4696869937
 20
6.9828572074
 30
0.0
 10
12.4696990719
 20
6.9824785474
 30
0.0
 10
12.4697012951
 20
6.9821828987
 30
0.0
 10
12.4697296468
 20
6.9819317963
 30
0.0
 10
12.4697583352
 20
6.9815814548
 30
0.0
 10
12.4698127862
 20
6.9809755968
 30
0.0
 10
12.4698883533
 20
6.9801063004
 30
0.0
 10
12.469979984
 20
6.9790647648
 30
0.0
 10
12.4701018264
 20
6.9776754848
 30
0.0
 10
12.4702542431
 20
6.9759390786
 30
0.0
 10
12.4704980463
 20
6.9731607203
 30
0.0
 10
12.4708028222
 20
6.96968781
 30
0.0
 10
12.4711685433
 20
6.9655203
 30
0.0
 10
12.4715342692
 20
6.9613528002
 30
0.0
 10
12.4718390329
 20
6.9578798644
 30
0.0
 10
12.4720828604
 20
6.955101557
 30
0.0
 10
12.4722352152
 20
6.9533650212
 30
0.0
 10
12.4723571847
 20
6.9519760072
 30
0.0
 10
12.4724484272
 20
6.9509336591
 30
0.0
 10
12.472525209
 20
6.9500669047
 30
0.0
 10
12.4725774916
 20
6.9494565089
 30
0.0
 10
12.4726096543
 20
6.9491134381
 30
0.0
 10
12.472627334
 20
6.9488400023
 30
0.0
 10
12.4726696396
 20
6.9486282341
 30
0.0
 10
12.4727174573
 20
6.9483243661
 30
0.0
 10
12.4728051404
 20
6.9478026191
 30
0.0
 10
12.4729283096
 20
6.9470520267
 30
0.0
 10
12.4730770083
 20
6.9461535585
 30
0.0
 10
12.4732749604
 20
6.9449548175
 30
0.0
 10
12.4735225076
 20
6.9434566596
 30
0.0
 10
12.4739185233
 20
6.9410594569
 30
0.0
 10
12.4744135636
 20
6.9380630055
 30
0.0
 10
12.4750076025
 20
6.9344672397
 30
0.0
 10
12.475601646
 20
6.9308714868
 30
0.0
 10
12.4760966747
 20
6.9278750033
 30
0.0
 10
12.4764927136
 20
6.9254778647
 30
0.0
 10
12.4767402017
 20
6.9239795441
 30
0.0
 10
12.4769382753
 20
6.9227811369
 30
0.0
 10
12.4770866027
 20
6.921881649
 30
0.0
 10
12.4772109335
 20
6.9211342472
 30
0.0
 10
12.477296543
 20
6.9206068044
 30
0.0
 10
12.4773476831
 20
6.9203120626
 30
0.0
 10
12.4773797835
 20
6.9200722616
 30
0.0
 10
12.4774357924
 20
6.919904112
 30
0.0
 10
12.4775021313
 20
6.9196549197
 30
0.0
 10
12.47762211
 20
6.9192304779
 30
0.0
 10
12.4777914768
 20
6.9186180445
 30
0.0
 10
12.4779955864
 20
6.9178857302
 30
0.0
 10
12.4782674288
 20
6.916908401
 30
0.0
 10
12.4786073359
 20
6.9156870512
 30
0.0
 10
12.479151129
 20
6.9137327172
 30
0.0
 10
12.4798308904
 20
6.9112898596
 30
0.0
 10
12.4806465955
 20
6.9083584046
 30
0.0
 10
12.4813263518
 20
6.9059155319
 30
0.0
 10
12.4818701562
 20
6.9039612312
 30
0.0
 10
12.4822780102
 20
6.9024955093
 30
0.0
 10
12.4826858618
 20
6.9010297745
 30
0.0
 10
12.4830257455
 20
6.8998083686
 30
0.0
 10
12.4832976359
 20
6.8988311548
 30
0.0
 10
12.483467605
 20
6.8982205992
 30
0.0
 10
12.4836034944
 20
6.8977316896
 30
0.0
 10
12.4837056464
 20
6.897366281
 30
0.0
 10
12.4837900256
 20
6.8970577223
 30
0.0
 10
12.4838592054
 20
6.8968199622
 30
0.0
 10
12.4839065097
 20
6.8966168126
 30
0.0
 10
12.4839712977
 20
6.8965084375
 30
0.0
 10
12.4840515745
 20
6.8963308314
 30
0.0
 10
12.4841540158
 20
6.8961201823
 30
0.0
 10
12.4842760485
 20
6.8958625416
 30
0.0
 10
12.4844390721
 20
6.8955207188
 30
0.0
 10
12.4846427443
 20
6.8950928588
 30
0.0
 10
12.4849686797
 20
6.8944086078
 30
0.0
 10
12.4853760785
 20
6.8935531826
 30
0.0
 10
12.4858649657
 20
6.89252672
 30
0.0
 10
12.4863538507
 20
6.8915002447
 30
0.0
 10
12.4870056981
 20
6.8901316155
 30
0.0
 10
12.487820507
 20
6.8884208272
 30
0.0
 10
12.4886353162
 20
6.8867100401
 30
0.0
 10
12.4892871633
 20
6.8853414091
 30
0.0
 10
12.4897760491
 20
6.8843149392
 30
0.0
 10
12.490264933
 20
6.8832884563
 30
0.0
 10
12.4906723424
 20
6.8824330946
 30
0.0
 10
12.490998256
 20
6.881748714
 30
0.0
 10
12.4912019838
 20
6.8813211838
 30
0.0
 10
12.4913648932
 20
6.8809786839
 30
0.0
 10
12.4914872745
 20
6.8807231117
 30
0.0
 10
12.4915886253
 20
6.8805059908
 30
0.0
 10
12.491671127
 20
6.8803415884
 30
0.0
 10
12.4917291204
 20
6.8801928902
 30
0.0
 10
12.4918019344
 20
6.8801411303
 30
0.0
 10
12.4918938428
 20
6.8800382553
 30
0.0
 10
12.4920105044
 20
6.8799212794
 30
0.0
 10
12.4921497381
 20
6.8797759355
 30
0.0
 10
12.4923356485
 20
6.8795838805
 30
0.0
 10
12.4925679457
 20
6.879343217
 30
0.0
 10
12.4929396719
 20
6.8789584879
 30
0.0
 10
12.4934043123
 20
6.8784774624
 30
0.0
 10
12.4939618882
 20
6.8779002807
 30
0.0
 10
12.4945194621
 20
6.8773230859
 30
0.0
 10
12.4952628947
 20
6.8765534974
 30
0.0
 10
12.4961921853
 20
6.8755915103
 30
0.0
 10
12.4971214758
 20
6.8746295236
 30
0.0
 10
12.4978649083
 20
6.8738599345
 30
0.0
 10
12.4984224826
 20
6.8732827415
 30
0.0
 10
12.4989800573
 20
6.8727055533
 30
0.0
 10
12.4994447014
 20
6.872224548
 30
0.0
 10
12.4998164201
 20
6.8718397777
 30
0.0
 10
12.5000487365
 20
6.871599219
 30
0.0
 10
12.5002346074
 20
6.8714069489
 30
0.0
 10
12.5003739618
 20
6.8712622621
 30
0.0
 10
12.5004902456
 20
6.8711432302
 30
0.0
 10
12.5005713399
 20
6.8710568848
 30
0.0
 10
12.5006181548
 20
6.8710122649
 30
0.0
 10
12.500651927
 20
6.8709655025
 30
0.0
 10
12.5006908173
 20
6.87096957
 30
0.0
 10
12.5007408857
 20
6.8709572633
 30
0.0
 10
12.5008293372
 20
6.8709439874
 30
0.0
 10
12.5009552617
 20
6.8709207029
 30
0.0
 10
12.5011065572
 20
6.8708946101
 30
0.0
 10
12.5013082196
 20
6.8708591741
 30
0.0
 10
12.5015603197
 20
6.8708151001
 30
0.0
 10
12.5019636676
 20
6.8707444581
 30
0.0
 10
12.5024678566
 20
6.8706561981
 30
0.0
 10
12.5030728817
 20
6.8705502679
 30
0.0
 10
12.5036779072
 20
6.8704443425
 30
0.0
 10
12.5044846077
 20
6.870303107
 30
0.0
 10
12.5054929835
 20
6.8701265633
 30
0.0
 10
12.5065013592
 20
6.8699500191
 30
0.0
 10
12.5073080598
 20
6.8698087843
 30
0.0
 10
12.5079130851
 20
6.8697028568
 30
0.0
 10
12.5085181108
 20
6.8695969344
 30
0.0
 10
12.5090222978
 20
6.8695086501
 30
0.0
 10
12.5094256499
 20
6.8694380577
 30
0.0
 10
12.5096777391
 20
6.8693938577
 30
0.0
 10
12.5098794239
 20
6.8693586802
 30
0.0
 10
12.5100306508
 20
6.8693317975
 30
0.0
 10
12.51015679
 20
6.8693109844
 30
0.0
 10
12.5102448583
 20
6.8692932966
 30
0.0
 10
12.5102955408
 20
6.8692880588
 30
0.0
 10
12.5103325447
 20
6.8692704128
 30
0.0
 10
12.5103734016
 20
6.8693052028
 30
0.0
 10
12.5104265334
 20
6.8693332993
 30
0.0
 10
12.5105201403
 20
6.8693909898
 30
0.0
 10
12.510653537
 20
6.8694689495
 30
0.0
 10
12.5108137532
 20
6.8695644082
 30
0.0
 10
12.5110273259
 20
6.8696910204
 30
0.0
 10
12.5112943085
 20
6.8698495136
 30
0.0
 10
12.5117214713
 20
6.8701029754
 30
0.0
 10
12.5122554279
 20
6.8704198464
 30
0.0
 10
12.5128961746
 20
6.8708000728
 30
0.0
 10
12.5135369216
 20
6.8711803042
 30
0.0
 10
12.5143912509
 20
6.8716872777
 30
0.0
 10
12.5154591625
 20
6.872320995
 30
0.0
 10
12.516527074
 20
6.8729547126
 30
0.0
 10
12.5173814033
 20
6.8734616855
 30
0.0
 10
12.5180221502
 20
6.8738419187
 30
0.0
 10
12.5186628974
 20
6.8742221385
 30
0.0
 10
12.5191968524
 20
6.87453903
 30
0.0
 10
12.5196240186
 20
6.87479245
 30
0.0
 10
12.5198909924
 20
6.8749510495
 30
0.0
 10
12.5201045832
 20
6.8750774437
 30
0.0
 10
12.5202647441
 20
6.8751735683
 30
0.0
 10
12.5203983138
 20
6.8752494443
 30
0.0
 10
12.5205049401
 20
6.8753196275
 30
0.0
 10
12.520585537
 20
6.8753463545
 30
0.0
 10
12.5206637398
 20
6.8754719819
 30
0.0
 10
12.5207688465
 20
6.8756049379
 30
0.0
 10
12.5208999428
 20
6.8757829858
 30
0.0
 10
12.5210573813
 20
6.8759915699
 30
0.0
 10
12.5212672564
 20
6.876271454
 30
0.0
 10
12.521529615
 20
6.8766207024
 30
0.0
 10
12.5219493804
 20
6.877179839
 30
0.0
 10
12.5224740901
 20
6.8778786434
 30
0.0
 10
12.5231037404
 20
6.8787172585
 30
0.0
 10
12.5237333911
 20
6.8795558603
 30
0.0
 10
12.5245729253
 20
6.8806740006
 30
0.0
 10
12.525622343
 20
6.8820716749
 30
0.0
 10
12.5266717607
 20
6.8834693477
 30
0.0
 10
12.5275112947
 20
6.8845874903
 30
0.0
 10
12.5281409459
 20
6.8854260852
 30
0.0
 10
12.5287705945
 20
6.8862647263
 30
0.0
 10
12.5292953097
 20
6.8869634498
 30
0.0
 10
12.5297150638
 20
6.8875227513
 30
0.0
 10
12.5300299287
 20
6.8879413459
 30
0.0
 10
12.5302921593
 20
6.8882929786
 30
0.0
 10
12.5304760284
 20
6.888533619
 30
0.0
 10
12.530580616
 20
6.8886797195
 30
0.0
 10
12.5306604102
 20
6.888765092
 30
0.0
 10
12.5307350308
 20
6.88894298
 30
0.0
 10
12.5308363295
 20
6.8891478936
 30
0.0
 10
12.5310127615
 20
6.8895215278
 30
0.0
 10
12.5312652467
 20
6.8900474303
 30
0.0
 10
12.5315680409
 20
6.890681878
 30
0.0
 10
12.5319718321
 20
6.8915266328
 30
0.0
 10
12.5324765486
 20
6.8925829797
 30
0.0
 10
12.5330822181
 20
6.8938504231
 30
0.0
 10
12.533687885
 20
6.8951179126
 30
0.0
 10
12.5344954417
 20
6.8968078828
 30
0.0
 10
12.5355048875
 20
6.8989203494
 30
0.0
 10
12.5367162216
 20
6.9014553149
 30
0.0
 10
12.5377256697
 20
6.9035677622
 30
0.0
 10
12.5385332214
 20
6.9052577747
 30
0.0
 10
12.5390379566
 20
6.9063139078
 30
0.0
 10
12.5394417095
 20
6.9071590999
 30
0.0
 10
12.5397446208
 20
6.9077922119
 30
0.0
 10
12.5399967394
 20
6.9083222934
 30
0.0
 10
12.540173826
 20
6.9086884674
 30
0.0
 10
12.5402740758
 20
6.9089053342
 30
0.0
 10
12.5403519184
 20
6.9090465059
 30
0.0
 10
12.540419611
 20
6.9092697788
 30
0.0
 10
12.5405134082
 20
6.9095388382
 30
0.0
 10
12.5406759038
 20
6.9100230351
 30
0.0
 10
12.5409089028
 20
6.910707769
 30
0.0
 10
12.5411881324
 20
6.9115324357
 30
0.0
 10
12.5415605676
 20
6.9126309483
 30
0.0
 10
12.5420260673
 20
6.9140044462
 30
0.0
 10
12.5427708916
 20
6.9162018432
 30
0.0
 10
12.5437019134
 20
6.9189486583
 30
0.0
 10
12.5448191435
 20
6.9222448051
 30
0.0
 10
12.5459363714
 20
6.9255409671
 30
0.0
 10
12.5468673987
 20
6.9282877442
 30
0.0
 10
12.5476122119
 20
6.9304852173
 30
0.0
 10
12.5480777399
 20
6.9318585216
 30
0.0
 10
12.548450117
 20
6.9329574317
 30
0.0
 10
12.5487295238
 20
6.9337808839
 30
0.0
 10
12.5489619685
 20
6.9344694175
 30
0.0
 10
12.5491254536
 20
6.9349468315
 30
0.0
 10
12.5492176653
 20
6.9352267587
 30
0.0
 10
12.5492902279
 20
6.9354166492
 30
0.0
 10
12.5493497796
 20
6.9356831998
 30
0.0
 10
12.5494337202
 20
6.9360118608
 30
0.0
 10
12.5495785017
 20
6.936599476
 30
0.0
 10
12.5497864379
 20
6.9374324129
 30
0.0
 10
12.5500354881
 20
6.9384347251
 30
0.0
 10
12.5503677204
 20
6.9397701675
 30
0.0
 10
12.5507829542
 20
6.9414398041
 30
0.0
 10
12.5514473598
 20
6.9441110362
 30
0.0
 10
12.5522778563
 20
6.9474501397
 30
0.0
 10
12.5532744552
 20
6.9514570397
 30
0.0
 10
12.5542710585
 20
6.9554639349
 30
0.0
 10
12.555101544
 20
6.9588030505
 30
0.0
 10
12.5557659716
 20
6.9614742584
 30
0.0
 10
12.5561811494
 20
6.9631439566
 30
0.0
 10
12.5565134965
 20
6.9644792725
 30
0.0
 10
12.556762196
 20
6.9654819714
 30
0.0
 10
12.5569712298
 20
6.9663136985
 30
0.0
 10
12.557134455
 20
6.9669877268
 30
0.0
 10
12.5572678089
 20
6.9674696214
 30
0.0
 10
12.5573594236
 20
6.9680416994
 30
0.0
 10
12.5574961566
 20
6.9687729678
 30
0.0
 10
12.5576620705
 20
6.9696978616
 30
0.0
 10
12.5578633084
 20
6.9708031079
 30
0.0
 10
12.5581308777
 20
6.9722783854
 30
0.0
 10
12.5584655953
 20
6.9741219291
 30
0.0
 10
12.5590010006
 20
6.9770719079
 30
0.0
 10
12.559670305
 20
6.9807592774
 30
0.0
 10
12.5604734553
 20
6.985184157
 30
0.0
 10
12.561276589
 20
6.9896090583
 30
0.0
 10
12.5619459348
 20
6.9932963733
 30
0.0
 10
12.5624812573
 20
6.9962464612
 30
0.0
 10
12.562883171
 20
6.9984583809
 30
0.0
 10
12.5632167574
 20
7.0003037033
 30
0.0
 10
12.5634529007
 20
7.0015913941
 30
0.0
 10
12.5635837288
 20
7.0023335175
 30
0.0
 10
12.5636934306
 20
7.0028723628
 30
0.0
 10
12.5637588647
 20
7.0034790469
 30
0.0
 10
12.5638615513
 20
7.0042642962
 30
0.0
 10
12.5640340584
 20
7.0056495074
 30
0.0
 10
12.5642842585
 20
7.0076226166
 30
0.0
 10
12.5645828886
 20
7.0099928148
 30
0.0
 10
12.5649816246
 20
7.0131522171
 30
0.0
 10
12.5654798502
 20
7.0171017667
 30
0.0
 10
12.5660778104
 20
7.0218410953
 30
0.0
 10
12.5666757238
 20
7.0265804725
 30
0.0
 10
12.5671740665
 20
7.0305299007
 30
0.0
 10
12.5675725682
 20
7.0336895457
 30
0.0
 10
12.5678719132
 20
7.0360590039
 30
0.0
 10
12.5681198768
 20
7.0380344282
 30
0.0
 10
12.5682963764
 20
7.0394155065
 30
0.0
 10
12.568392666
 20
7.0402073778
 30
0.0
 10
12.5684777493
 20
7.0407937213
 30
0.0
 10
12.5685136519
 20
7.0414089625
 30
0.0
 10
12.5685786768
 20
7.0422192042
 30
0.0
 10
12.5686844776
 20
7.0436418236
 30
0.0
 10
12.5688398003
 20
7.0456716817
 30
0.0
 10
12.5690243989
 20
7.0481085624
 30
0.0
 10
12.5692711554
 20
7.0513573694
 30
0.0
 10
12.569579385
 20
7.0554185045
 30
0.0
 10
12.5699493597
 20
7.0602918115
 30
0.0
 10
12.5703192835
 20
7.0651651366
 30
0.0
 10
12.5706276403
 20
7.0692262266
 30
0.0
 10
12.5708741425
 20
7.0724751239
 30
0.0
 10
12.5710595167
 20
7.0749117293
 30
0.0
 10
12.5712124129
 20
7.0769424485
 30
0.0
 10
12.5713225455
 20
7.0783635307
 30
0.0
 10
12.5713806297
 20
7.0791762354
 30
0.0
 10
12.5714378519
 20
7.0797839108
 30
0.0
 10
12.5714428622
 20
7.0803986701
 30
0.0
 10
12.5714677546
 20
7.0812158783
 30
0.0
 10
12.5715028311
 20
7.0826471438
 30
0.0
 10
12.5715573765
 20
7.0846912069
 30
0.0
 10
12.5716209322
 20
7.0871443402
 30
0.0
 10
12.5717063363
 20
7.0904150947
 30
0.0
 10
12.5718128643
 20
7.0945035686
 30
0.0
 10
12.5719834362
 20
7.1010451096
 30
0.0
 10
12.5721966072
 20
7.1092220419
 30
0.0
 10
12.5723671573
 20
7.1157635859
 30
0.0
 10
12.5724524307
 20
7.1190343581
 30
0.0
  0
ENDSEC
  0
SECTION
  2
OBJECTS
  0
DICTIONARY
  5
C
100
AcDbDictionary
280
0
281
1
  3
ACAD_GROUP
350
D
  3
ACAD_MLINESTYLE
350
17
  3
ACAD_LAYOUT
350
1A
  3
ACAD_PLOTSETTINGS
350
19
  3
ACAD_PLOTSTYLENAME
350
E
  3
ACAD_IMAGE_DICT
350
       373
  3
ACAD_IMAGE_VARS
350
       374
  3
ACAD_TABLESTYLE
350
       375
  0
IMAGEDEF_REACTOR
  5
372
100
AcDbRasterImageDefReactor
 90
2
330
284
  0
DICTIONARY
  5
D
102
{ACAD_REACTORS
330
C
102
}
100
AcDbDictionary
280
0
281
1
  0
ACDBDICTIONARYWDFLT
  5
E
102
{ACAD_REACTORS
330
C
102
}
100
AcDbDictionary
281
1
  3
Normal
350
F
100
AcDbDictionaryWithDefault
340
F
  0
DICTIONARY
  5
373
330
C
100
AcDbDictionary
281
1
  3
WVU_assy_2_img_1
350
       378
  0
RASTERVARIABLES
  5
374
330
C
100
AcDbRasterVariables
 90
0
 70
0
 71
1
 72
5
  0
DICTIONARY
  5
17
102
{ACAD_REACTORS
330
C
102
}
100
AcDbDictionary
280
0
281
1
  3
Standard
350
18
  0
DICTIONARY
  5
375
330
C
100
AcDbDictionary
281
1
  3
Standard
350
       379
  3
Standard1
350
       37A
  0
DICTIONARY
  5
19
102
{ACAD_REACTORS
330
C
102
}
100
AcDbDictionary
281
1
  0
DICTIONARY
  5
1A
102
{ACAD_REACTORS
330
C
102
}
100
AcDbDictionary
281
1
  3
Model
350
376
  3
Layout1
350
377
  0
ACDBPLACEHOLDER
  5
F
102
{ACAD_REACTORS
330
E
102
}
  0
MLINESTYLE
  5
18
102
{ACAD_REACTORS
330
17
102
}
100
AcDbMlineStyle
  2
STANDARD
 70
0
  3

 62
256
 51
90.0
 52
90.0
 71
2
 49
0.5
 62
256
  6
BYLAYER
 49
-0.5
 62
256
  6
BYLAYER
  0
LAYOUT
  5
376
102
{ACAD_REACTORS
330
1A
102
}
100
AcDbPlotSettings
  1

  2
none_device
  4
ANSI_C_(22.00_x_17.00_Inches)
  6

 40
0.0
 41
0.0
 42
0.0
 43
0.0
 44
558.8
 45
431.8
 46
0.0
 47
0.0
 48
0.0
 49
0.0
140
0.0
141
0.0
142
1.0
143
1.0
 70
1024
 72
0
 73
0
 74
0
  7

 75
0
147
1.0
148
0.0
149
0.0
100
AcDbLayout
  1
Model
 70
0
 71
0
 10
0.0
 20
0.0
 11
22.0
 21
17.0
 12
0.0
 22
0.0
 32
0.0
 14
0.0
 24
0.0
 34
0.0
 15
0.0
 25
0.0
 35
0.0
146
0.0
 13
0.0
 23
0.0
 33
0.0
 16
1.0
 26
0.0
 36
0.0
 17
0.0
 27
1.0
 37
0.0
 76
0
330
20F
345
0
346
0
  0
LAYOUT
  5
377
102
{ACAD_REACTORS
330
1A
102
}
100
AcDbPlotSettings
  1

  2
none_device
  4
ANSI_C_(22.00_x_17.00_Inches)
  6

 40
0.0
 41
0.0
 42
0.0
 43
0.0
 44
558.8
 45
431.8
 46
0.0
 47
0.0
 48
0.0
 49
0.0
140
0.0
141
0.0
142
1.0
143
1.0
 70
0
 72
0
 73
0
 74
0
  7

 75
0
147
1.0
148
0.0
149
0.0
100
AcDbLayout
  1
Layout1
 70
0
 71
1
 10
0.0
 20
0.0
 11
22.0
 21
17.0
 12
0.0
 22
0.0
 32
0.0
 14
0.0
 24
0.0
 34
0.0
 15
0.0
 25
0.0
 35
0.0
146
0.0
 13
0.0
 23
0.0
 33
0.0
 16
1.0
 26
0.0
 36
0.0
 17
0.0
 27
1.0
 37
0.0
 76
0
330
210
345
0
346
0
  0
IMAGEDEF
  5
378
102
{ACAD_REACTORS
330
373
330
372
102
}
100
AcDbRasterImageDef
 90
0
  1
WVU_assy_2_img_1.png
 10
369.0
 20
92.0
 11
0.0066666667
 21
0.0066666667
280
1
281
0
  0
TABLESTYLE
  5
379
102
{ACAD_REACTORS
330
375
330
287
330
288
102
}
330
375
100
AcDbTableStyle
  3
Standard
 70
0
 71
0
 40
0.06
 41
0.06
280
1
281
1
  7
Standard
140
0.18
170
1
 62
0
 63
7
283
0
  7
Standard
140
0.18
170
1
 62
0
 63
7
283
0
  7
Standard
140
0.18
170
1
 62
0
 63
7
283
0
  0
TABLESTYLE
  5
37A
102
{ACAD_REACTORS
330
375
330
286
102
}
330
375
100
AcDbTableStyle
  3
Standard1
 70
1
 71
0
 40
0.06
 41
0.06
280
1
281
1
  7
Standard
140
0.18
170
1
 62
0
 63
7
283
0
  7
Standard
140
0.18
170
1
 62
0
 63
7
283
0
  7
Standard
140
0.18
170
1
 62
0
 63
7
283
0
  0
ENDSEC
  0
EOF
