999
DXF file: WNH_assy_2.dxf
999
Pro/ENGINEER 2014200 by Parametric Technology Corporation
  0
SECTION
  2
HEADER
  9
$ACADVER
  1
AC1021
  9
$DWGCODEPAGE
  3
ANSI_1252
  9
$EXTMAX
 10
22.0
 20
17.0
 30
0.0
  9
$EXTMIN
 10
0.0
 20
0.0
 30
0.0
  9
$LIMMIN
 10
0.0
 20
0.0
  9
$LIMMAX
 10
22.0
 20
17.0
  9
$VIEWCTR
 10
11.0
 20
8.5
  9
$VIEWSIZE
 40
17.0
  9
$CLAYER
  8
0
  9
$LTSCALE
 40
1.21
  9
$CELTYPE
  6
BYLAYER
  9
$DIMSCALE
 40
1.0
  9
$DIMASZ
 40
0.1875
  9
$DIMEXO
 40
0.0625
  9
$DIMDLI
 40
0.836
  9
$DIMEXE
 40
0.125
  9
$DIMCEN
 40
0.198
  9
$DIMLFAC
 40
1.0
  9
$DIMBLK
  1
_FILLED
  9
$DIMTXT
 40
0.1
  9
$DIMTOL
 70
0
  9
$DIMLIM
 70
0
  9
$DIMTFAC
 40
1.0
  9
$DIMGAP
 40
0.09
  9
$DIMDSEP
 70
46
  9
$AUNITS
 70
0
  9
$PDMODE
 70
3
  9
$PDSIZE
 40
0.3125
  9
$HANDSEED
  5
2DE
  9
$TILEMODE
 70
1
  9
$MEASUREMENT
 70
0
  9
$INSUNITS
 70
1
  0
ENDSEC
  0
SECTION
  2
CLASSES
  0
CLASS
  1
ACDBDICTIONARYWDFLT
  2
AcDbDictionaryWithDefault
  3
AutoCAD 2000
 90
0
 91
1
280
0
281
0
  0
CLASS
  1
ACDBPLACEHOLDER
  2
AcDbPlaceHolder
  3
AutoCAD 2000
 90
0
 91
1
280
0
281
0
  0
CLASS
  1
LAYOUT
  2
AcDbLayout
  3
AutoCAD 2000
 90
0
 91
0
280
0
281
0
  0
CLASS
  1
RASTERVARIABLES
  2
AcDbRasterVariables
  3
ISM
 90
0
 91
1
280
0
281
0
  0
CLASS
  1
IMAGEDEF
  2
AcDbRasterImageDef
  3
ISM
 90
0
 91
1
280
0
281
0
  0
CLASS
  1
IMAGEDEF_REACTOR
  2
AcDbRasterImageDefReactor
  3
ISM
 90
0
 91
1
280
0
281
0
  0
CLASS
  1
IMAGE
  2
AcDbRasterImage
  3
ISM
 90
127
 91
1
280
0
281
1
  0
CLASS
  1
TABLESTYLE
  2
AcDbTableStyle
  3
ObjectDBX Classes
 90
2047
 91
1
280
0
281
0
  0
CLASS
  1
ACAD_TABLE
  2
AcDbTable
  3
ObjectDBX Classes
 90
1025
 91
2
280
0
281
1
  0
ENDSEC
  0
SECTION
  2
TABLES
  0
TABLE
  2
VPORT
  5
8
100
AcDbSymbolTable
 70
2
  0
VPORT
  5
1F4
100
AcDbSymbolTableRecord
100
AcDbViewportTableRecord
  2
*ACTIVE
 70
0
 10
0.0
 20
0.0
 11
1.0
 21
1.0
 12
11.0
 22
8.5
 13
0.0
 23
0.0
 14
1.0
 24
1.0
 15
0.0
 25
0.0
 16
0.0
 26
0.0
 36
1.0
 17
0.0
 27
0.0
 37
0.0
 40
17.0
 41
1.2941176471
 42
50.0
 43
0.0
 44
0.0
 50
0.0
 51
0.0
 71
0
 72
100
 73
1
 74
1
 75
0
 76
0
 77
0
 78
0
  0
ENDTAB
  0
TABLE
  2
LTYPE
  5
5
100
AcDbSymbolTable
 70
6
  0
LTYPE
  5
14
100
AcDbSymbolTableRecord
100
AcDbLinetypeTableRecord
  2
BYBLOCK
 70
0
  3

 72
65
 73
0
 40
0.0
  0
LTYPE
  5
15
100
AcDbSymbolTableRecord
100
AcDbLinetypeTableRecord
  2
BYLAYER
 70
0
  3

 72
65
 73
0
 40
0.0
  0
LTYPE
  5
16
100
AcDbSymbolTableRecord
100
AcDbLinetypeTableRecord
  2
CONTINUOUS
 70
64
  3
Solid line
 72
65
 73
0
 40
0.0
  0
LTYPE
  5
1F5
100
AcDbSymbolTableRecord
100
AcDbLinetypeTableRecord
  2
CENTER
 70
64
  3
____ _ ____ _ ____ _ ____ _ ____ _ ____ _ ____
 72
65
 73
4
 40
0.6
 49
0.375
 74
0
 49
-0.075
 74
0
 49
0.075
 74
0
 49
-0.075
 74
0
  0
LTYPE
  5
1F6
100
AcDbSymbolTableRecord
100
AcDbLinetypeTableRecord
  2
HIDDEN
 70
64
  3
- - - - - - - - - - - - - - - - - - - -
 72
65
 73
2
 40
0.2
 49
0.1
 74
0
 49
-0.1
 74
0
  0
LTYPE
  5
1F7
100
AcDbSymbolTableRecord
100
AcDbLinetypeTableRecord
  2
PHANTOM
 70
64
  3
_____ _ _ _____ _ _ _____ _ _ _____
 72
65
 73
6
 40
0.8
 49
0.45
 74
0
 49
-0.05
 74
0
 49
0.1
 74
0
 49
-0.05
 74
0
 49
0.1
 74
0
 49
-0.05
 74
0
  0
LTYPE
  5
1F8
100
AcDbSymbolTableRecord
100
AcDbLinetypeTableRecord
  2
DOT
 70
64
  3
. . . . . . . . . . . . . . . . . . . .
 72
65
 73
2
 40
0.2
 49
0.1
 74
0
 49
-0.1
 74
0
  0
LTYPE
  5
1F9
100
AcDbSymbolTableRecord
100
AcDbLinetypeTableRecord
  2
DASHED
 70
64
  3
- - - - - - - - - - - - - - - - - - - -
 72
65
 73
2
 40
0.2
 49
0.1
 74
0
 49
-0.1
 74
0
  0
ENDTAB
  0
TABLE
  2
LAYER
  5
2
100
AcDbSymbolTable
 70
36
  0
LAYER
  5
10
100
AcDbSymbolTableRecord
100
AcDbLayerTableRecord
  2
0
 70
0
 62
7
  6
CONTINUOUS
370
-3
390
F
  0
LAYER
  5
1FA
100
AcDbSymbolTableRecord
100
AcDbLayerTableRecord
  2
DEFAULT_1
 70
0
 62
7
  6
CENTER
370
-3
390
F
  0
LAYER
  5
1FB
100
AcDbSymbolTableRecord
100
AcDbLayerTableRecord
  2
DEFAULT_2
 70
0
 62
8
  6
HIDDEN
370
-3
390
F
  0
LAYER
  5
1FC
100
AcDbSymbolTableRecord
100
AcDbLayerTableRecord
  2
DEFAULT_3
 70
0
 62
7
  6
PHANTOM
370
-3
390
F
  0
LAYER
  5
1FD
100
AcDbSymbolTableRecord
100
AcDbLayerTableRecord
  2
DATUM_PLANES
 70
0
 62
7
  6
CONTINUOUS
370
-3
390
F
  0
LAYER
  5
1FE
100
AcDbSymbolTableRecord
100
AcDbLayerTableRecord
  2
PORT_AREAS
 70
0
 62
7
  6
CONTINUOUS
370
-3
390
F
  0
LAYER
  5
1FF
100
AcDbSymbolTableRecord
100
AcDbLayerTableRecord
  2
SUNNBOMCOSMETIC
 70
0
 62
7
  6
CONTINUOUS
370
-3
390
F
  0
LAYER
  5
200
100
AcDbSymbolTableRecord
100
AcDbLayerTableRecord
  2
SUNNBOMSTAMPING
 70
0
 62
7
  6
CONTINUOUS
370
-3
390
F
  0
LAYER
  5
201
100
AcDbSymbolTableRecord
100
AcDbLayerTableRecord
  2
THREADS
 70
0
 62
7
  6
CONTINUOUS
370
-3
390
F
  0
ENDTAB
  0
TABLE
  2
STYLE
  5
3
100
AcDbSymbolTable
 70
1
  0
STYLE
  5
11
100
AcDbSymbolTableRecord
100
AcDbTextStyleTableRecord
  2
STANDARD
 70
0
 40
0.0
 41
0.8
 50
0.0
 71
0
 42
0.2
  3
txt
  4

  0
STYLE
  5
202
100
AcDbSymbolTableRecord
100
AcDbTextStyleTableRecord
  2
TEXTSTYLE_1
 70
0
 40
0.0
 41
0.8
 50
0.0
 71
0
 42
0.2
  3
gdt
  4

  0
ENDTAB
  0
TABLE
  2
VIEW
  5
6
100
AcDbSymbolTable
 70
0
  0
ENDTAB
  0
TABLE
  2
UCS
  5
7
100
AcDbSymbolTable
 70
0
  0
ENDTAB
  0
TABLE
  2
APPID
  5
9
100
AcDbSymbolTable
 70
1
  0
APPID
  5
203
100
AcDbSymbolTableRecord
100
AcDbRegAppTableRecord
  2
ACAD
 70
0
  0
ENDTAB
  0
TABLE
  2
BLOCK_RECORD
  5
1
100
AcDbSymbolTable
 70
0
  0
BLOCK_RECORD
  5
204
100
AcDbSymbolTableRecord
100
AcDbBlockTableRecord
  2
*Model_Space
  0
BLOCK_RECORD
  5
205
100
AcDbSymbolTableRecord
100
AcDbBlockTableRecord
  2
*Paper_Space
  0
BLOCK_RECORD
  5
206
100
AcDbSymbolTableRecord
100
AcDbBlockTableRecord
  2
SUN_FIRST_THIRD_ANGLE_BL0
  0
BLOCK_RECORD
  5
207
100
AcDbSymbolTableRecord
100
AcDbBlockTableRecord
  2
*T1
  0
BLOCK_RECORD
  5
208
100
AcDbSymbolTableRecord
100
AcDbBlockTableRecord
  2
*T2
  0
ENDTAB
  0
TABLE
  2
DIMSTYLE
  5
A
100
AcDbSymbolTable
 70
1
100
AcDbDimStyleTable
 71
0
  0
DIMSTYLE
105
209
100
AcDbSymbolTableRecord
100
AcDbDimStyleTableRecord
  2
STANDARD
 70
0
  3

  4

 40
1.0
 41
0.1875
 42
0.0625
 43
0.38
 44
0.125
 45
0.0
 46
0.0
 47
0.001
 48
0.001
140
0.1
141
0.09
142
0.0
143
25.4
144
1.0
145
0.0
146
1.0
147
0.09
 71
0.0
 72
0.0
 73
1
 74
1
 75
0
 76
0
 77
0
 78
4
170
0
171
2
172
0
173
0
174
0
175
0
176
0
177
0
178
0
270
2
271
3
272
3
273
2
274
2
275
0
280
0
281
0
282
0
283
1
284
4
285
0
286
0
287
3
288
0
340
11
278
46
  0
ENDTAB
  0
ENDSEC
  0
SECTION
  2
BLOCKS
  0
BLOCK
  5
20
100
AcDbEntity
  8
0
100
AcDbBlockBegin
  2
*Model_Space
 70
0
 10
0.0
 20
0.0
 30
0.0
  3
*Model_Space
  1

  0
ENDBLK
  5
21
100
AcDbEntity
  8
0
100
AcDbBlockEnd
  0
BLOCK
  5
1C
100
AcDbEntity
  8
0
100
AcDbBlockBegin
  2
*Paper_Space
 70
0
 10
0.0
 20
0.0
 30
0.0
  3
*Paper_Space
  1

  0
ENDBLK
  5
1D
100
AcDbEntity
  8
0
100
AcDbBlockEnd
  0
BLOCK
  5
20A
100
AcDbEntity
  8
0
100
AcDbBlockBegin
 62
2
  6
CONTINUOUS
  2
SUN_FIRST_THIRD_ANGLE_BL0
 70
64
 10
20.4816717061
 20
1.2289683772
  3
SUN_FIRST_THIRD_ANGLE_BL0
  1

  0
TEXT
  5
20B
100
AcDbEntity
  8
0
100
AcDbText
 62
2
  6
CONTINUOUS
 10
19.4750896608
 20
1.4136269581
  7
STANDARD
 40
0.08
  1
FIRST ANGLE
 41
0.8
 72
0
100
AcDbText
  0
TEXT
  5
20C
100
AcDbEntity
  8
0
100
AcDbText
 62
2
  6
CONTINUOUS
 10
20.7842537513
 20
1.4047600029
  7
STANDARD
 40
0.08
  1
THIRD ANGLE
 41
0.8
 72
0
100
AcDbText
  0
LINE
  5
20D
100
AcDbEntity
  8
0
100
AcDbLine
 62
7
  6
CONTINUOUS
 10
19.4767170086
 20
1.1727031207
 11
19.6334271527
 21
1.1717972817
  0
LINE
  5
20E
100
AcDbEntity
  8
0
100
AcDbLine
 62
7
  6
CONTINUOUS
 10
19.6596964832
 20
1.1717972817
 11
19.6950230232
 21
1.171593082
  0
LINE
  5
20F
100
AcDbEntity
  8
0
100
AcDbLine
 62
7
  6
CONTINUOUS
 10
19.7194818561
 20
1.1708914427
 11
19.8852396156
 21
1.1699333054
  0
LINE
  5
210
100
AcDbEntity
  8
0
100
AcDbLine
 62
7
  6
CONTINUOUS
 10
19.4758111696
 20
1.2723454088
 11
19.88525039
 21
1.3511534004
  0
LINE
  5
211
100
AcDbEntity
  8
0
100
AcDbLine
 62
7
  6
CONTINUOUS
 10
19.88525039
 20
1.3511534004
 11
19.8831348489
 21
0.9851647912
  0
LINE
  5
212
100
AcDbEntity
  8
0
100
AcDbLine
 62
7
  6
CONTINUOUS
 10
19.8831348489
 20
0.9851647912
 11
19.4767170086
 21
1.0658141206
  0
LINE
  5
213
100
AcDbEntity
  8
0
100
AcDbLine
 62
7
  6
CONTINUOUS
 10
19.4767170086
 20
1.0658141206
 11
19.4779056764
 21
1.2714536432
  0
CIRCLE
  5
214
100
AcDbEntity
  8
0
100
AcDbCircle
 62
7
  6
CONTINUOUS
 10
20.2068232291
 20
1.1717972817
 40
0.175742101
  0
CIRCLE
  5
215
100
AcDbEntity
  8
0
100
AcDbCircle
 62
7
  6
CONTINUOUS
 10
20.2068232291
 20
1.1717972817
 40
0.1005522074
  0
LINE
  5
216
100
AcDbEntity
  8
0
100
AcDbLine
 62
7
  6
CONTINUOUS
 10
20.2077290681
 20
1.3756110529
 11
20.2071171714
 21
1.2379342989
  0
LINE
  5
217
100
AcDbEntity
  8
0
100
AcDbLine
 62
7
  6
CONTINUOUS
 10
20.2077290681
 20
1.2016899681
 11
20.2074674401
 21
1.1428236749
  0
LINE
  5
218
100
AcDbEntity
  8
0
100
AcDbLine
 62
7
  6
CONTINUOUS
 10
20.208634907
 20
1.101141841
 11
20.2080230104
 21
0.963465087
  0
LINE
  5
219
100
AcDbEntity
  8
0
100
AcDbLine
 62
7
  6
CONTINUOUS
 10
20.0066328138
 20
1.1745147986
 11
20.1443095678
 21
1.1739029019
  0
LINE
  5
21A
100
AcDbEntity
  8
0
100
AcDbLine
 62
7
  6
CONTINUOUS
 10
20.1832714155
 20
1.1727031207
 11
20.238153505
 21
1.172335442
  0
LINE
  5
21B
100
AcDbEntity
  8
0
100
AcDbLine
 62
7
  6
CONTINUOUS
 10
20.2756669918
 20
1.1717972817
 11
20.407916871
 21
1.1712095044
  0
CIRCLE
  5
21C
100
AcDbEntity
  8
0
100
AcDbCircle
 62
7
  6
CONTINUOUS
 10
20.7509457401
 20
1.1693297793
 40
0.1722024983
  0
CIRCLE
  5
21D
100
AcDbEntity
  8
0
100
AcDbCircle
 62
7
  6
CONTINUOUS
 10
20.7509457401
 20
1.1693297793
 40
0.0985164967
  0
LINE
  5
21E
100
AcDbEntity
  8
0
100
AcDbLine
 62
7
  6
CONTINUOUS
 10
20.7169767782
 20
1.170462078
 11
20.7825395137
 21
1.1682766535
  0
LINE
  5
21F
100
AcDbEntity
  8
0
100
AcDbLine
 62
7
  6
CONTINUOUS
 10
20.8177513651
 20
1.1693297793
 11
20.947965719
 21
1.1693297793
  0
LINE
  5
220
100
AcDbEntity
  8
0
100
AcDbLine
 62
7
  6
CONTINUOUS
 10
20.6875370113
 20
1.170462078
 11
20.5573226574
 21
1.170462078
  0
LINE
  5
221
100
AcDbEntity
  8
0
100
AcDbLine
 62
7
  6
CONTINUOUS
 10
20.7486811426
 20
1.1987695462
 11
20.7486811426
 21
1.1432869085
  0
LINE
  5
222
100
AcDbEntity
  8
0
100
AcDbLine
 62
7
  6
CONTINUOUS
 10
20.7498134414
 20
1.1059210505
 11
20.7498134414
 21
0.9757066966
  0
LINE
  5
223
100
AcDbEntity
  8
0
100
AcDbLine
 62
7
  6
CONTINUOUS
 10
20.7486811426
 20
1.2338708068
 11
20.7486811426
 21
1.3640851607
  0
LINE
  5
224
100
AcDbEntity
  8
0
100
AcDbLine
 62
7
  6
CONTINUOUS
 10
21.0702539817
 20
1.2701043662
 11
21.4790138229
 21
1.3448360823
  0
LINE
  5
225
100
AcDbEntity
  8
0
100
AcDbLine
 62
7
  6
CONTINUOUS
 10
21.4790138229
 20
1.3448360823
 11
21.4790138229
 21
0.9779712941
  0
LINE
  5
226
100
AcDbEntity
  8
0
100
AcDbLine
 62
7
  6
CONTINUOUS
 10
21.4790138229
 20
0.9779712941
 11
21.069121683
 21
1.0617614
  0
LINE
  5
227
100
AcDbEntity
  8
0
100
AcDbLine
 62
7
  6
CONTINUOUS
 10
21.0702539817
 20
1.2701043662
 11
21.069121683
 21
1.0617614
  0
LINE
  5
228
100
AcDbEntity
  8
0
100
AcDbLine
 62
7
  6
CONTINUOUS
 10
21.4790138229
 20
1.1693297793
 11
21.3159628059
 21
1.1693297793
  0
LINE
  5
229
100
AcDbEntity
  8
0
100
AcDbLine
 62
7
  6
CONTINUOUS
 10
21.2876553377
 20
1.1693297793
 11
21.2502894796
 21
1.1693297793
  0
LINE
  5
22A
100
AcDbEntity
  8
0
100
AcDbLine
 62
7
  6
CONTINUOUS
 10
21.2208497126
 20
1.1659328831
 11
21.0713862804
 21
1.1659328831
  0
LINE
  5
22B
100
AcDbEntity
  8
0
100
AcDbLine
 62
7
  6
CONTINUOUS
 10
20.4796138713
 20
1.5284908897
 11
20.4766766948
 21
0.9294458646
  0
ENDBLK
  5
22C
100
AcDbEntity
  8
0
  6
BYBLOCK
 62
0
100
AcDbBlockEnd
  0
BLOCK
  5
22D
100
AcDbEntity
  8
0
100
AcDbBlockBegin
  2
*T1
 70
1
 10
0.0
 20
0.0
  3
*T1
  1

  0
LINE
  5
22E
100
AcDbEntity
  8
0
100
AcDbLine
 62
2
  6
CONTINUOUS
 10
9.275
 20
0.0
 11
-0.0
 21
0.0
  0
LINE
  5
22F
100
AcDbEntity
  8
0
100
AcDbLine
 62
2
  6
CONTINUOUS
 10
9.275
 20
0.0
 11
9.275
 21
1.25
  0
LINE
  5
230
100
AcDbEntity
  8
0
100
AcDbLine
 62
2
  6
CONTINUOUS
 10
9.275
 20
0.625
 11
-0.0
 21
0.625
  0
LINE
  5
231
100
AcDbEntity
  8
0
100
AcDbLine
 62
2
  6
CONTINUOUS
 10
9.275
 20
1.25
 11
-0.0
 21
1.25
  0
LINE
  5
232
100
AcDbEntity
  8
0
100
AcDbLine
 62
2
  6
CONTINUOUS
 10
6.8
 20
0.0
 11
6.8
 21
1.25
  0
LINE
  5
233
100
AcDbEntity
  8
0
100
AcDbLine
 62
2
  6
CONTINUOUS
 10
6.4
 20
0.0
 11
6.4
 21
0.625
  0
LINE
  5
234
100
AcDbEntity
  8
0
100
AcDbLine
 62
2
  6
CONTINUOUS
 10
5.9
 20
0.0
 11
5.9
 21
0.625
  0
LINE
  5
235
100
AcDbEntity
  8
0
100
AcDbLine
 62
2
  6
CONTINUOUS
 10
5.2
 20
0.0
 11
5.2
 21
0.625
  0
LINE
  5
236
100
AcDbEntity
  8
0
100
AcDbLine
 62
2
  6
CONTINUOUS
 10
4.1
 20
0.0
 11
4.1
 21
1.25
  0
LINE
  5
237
100
AcDbEntity
  8
0
100
AcDbLine
 62
2
  6
CONTINUOUS
 10
-0.0
 20
0.0
 11
-0.0
 21
1.25
  0
MTEXT
  5
238
100
AcDbEntity
  8
0
100
AcDbMText
 62
2
  6
CONTINUOUS
  7
STANDARD
 71
2
 72
1
 10
6.6
 20
0.325
 30
0.0
 11
1.0
 21
0.0
 31
0.0
 44
0.9
  1
2
 40
0.125
 41
0.2
  0
MTEXT
  5
239
100
AcDbEntity
  8
0
100
AcDbMText
 62
2
  6
CONTINUOUS
  7
STANDARD
 71
2
 72
1
 10
6.15
 20
0.325
 30
0.0
 11
1.0
 21
0.0
 31
0.0
 44
0.9
  1
C
 40
0.125
 41
0.2
  0
MTEXT
  5
23A
100
AcDbEntity
  8
0
100
AcDbMText
 62
2
  6
CONTINUOUS
  7
STANDARD
 71
2
 72
1
 10
5.55
 20
0.325
 30
0.0
 11
1.0
 21
0.0
 31
0.0
 44
0.9
  1
2.000
 40
0.125
 41
1.0
  0
MTEXT
  5
23B
100
AcDbEntity
  8
0
100
AcDbMText
 62
2
  6
CONTINUOUS
  7
STANDARD
 71
2
 72
1
 10
4.65
 20
0.325
 30
0.0
 11
1.0
 21
0.0
 31
0.0
 44
0.9
  1
Nov-15-19
 40
0.125
 41
1.8
  0
MTEXT
  5
23C
100
AcDbEntity
  8
0
100
AcDbMText
 62
2
  6
CONTINUOUS
  7
STANDARD
 71
2
 72
1
 10
2.05
 20
0.4625
 30
0.0
 11
1.0
 21
0.0
 31
0.0
 44
0.9
  1
T-13A Sandwich ISO 05\PP to T
 40
0.125
 41
4.2
  0
MTEXT
  5
23D
100
AcDbEntity
  8
0
100
AcDbMText
 62
2
  6
CONTINUOUS
  7
STANDARD
 71
1
 72
1
 10
6.45
 20
0.5625
 30
0.0
 11
1.0
 21
0.0
 31
0.0
 44
0.9
  1
SHEET
 40
0.06
 41
0.48
  0
MTEXT
  5
23E
100
AcDbEntity
  8
0
100
AcDbMText
 62
2
  6
CONTINUOUS
  7
STANDARD
 71
1
 72
1
 10
5.95
 20
0.5625
 30
0.0
 11
1.0
 21
0.0
 31
0.0
 44
0.9
  1
DWG SIZE
 40
0.06
 41
0.768
  0
MTEXT
  5
23F
100
AcDbEntity
  8
0
100
AcDbMText
 62
2
  6
CONTINUOUS
  7
STANDARD
 71
1
 72
1
 10
5.25
 20
0.5625
 30
0.0
 11
1.0
 21
0.0
 31
0.0
 44
0.9
  1
SCALE
 40
0.06
 41
0.48
  0
MTEXT
  5
240
100
AcDbEntity
  8
0
100
AcDbMText
 62
2
  6
CONTINUOUS
  7
STANDARD
 71
1
 72
1
 10
4.15
 20
0.5625
 30
0.0
 11
1.0
 21
0.0
 31
0.0
 44
0.9
  1
DATE
 40
0.06
 41
0.384
  0
MTEXT
  5
241
100
AcDbEntity
  8
0
100
AcDbMText
 62
2
  6
CONTINUOUS
  7
STANDARD
 71
1
 72
1
 10
0.05
 20
0.5625
 30
0.0
 11
1.0
 21
0.0
 31
0.0
 44
0.9
  1
DESCRIPTION
 40
0.06
 41
1.056
  0
MTEXT
  5
242
100
AcDbEntity
  8
0
100
AcDbMText
 62
2
  6
CONTINUOUS
  7
STANDARD
 71
2
 72
1
 10
5.45
 20
1.0375
 30
0.0
 11
1.0
 21
0.0
 31
0.0
 44
0.9
  1
ALL DIMENSIONS IN INCH\PVIEWS ARE THIRD ANGLE
 40
0.12
 41
4.224
  0
MTEXT
  5
243
100
AcDbEntity
  8
0
100
AcDbMText
 62
2
  6
CONTINUOUS
  7
STANDARD
 71
2
 72
1
 10
2.05
 20
0.95
 30
0.0
 11
1.0
 21
0.0
 31
0.0
 44
0.9
  1
WNH
 40
0.125
 41
0.6
  0
MTEXT
  5
244
100
AcDbEntity
  8
0
100
AcDbMText
 62
2
  6
CONTINUOUS
  7
STANDARD
 71
1
 72
1
 10
0.05
 20
1.1875
 30
0.0
 11
1.0
 21
0.0
 31
0.0
 44
0.9
  1
MODEL
 40
0.06
 41
0.48
  0
ENDBLK
  5
245
100
AcDbEntity
  8
0
  6
BYBLOCK
 62
0
100
AcDbBlockEnd
  0
BLOCK
  5
246
100
AcDbEntity
  8
0
100
AcDbBlockBegin
  2
*T2
 70
1
 10
0.0
 20
0.0
  3
*T2
  1

  0
LINE
  5
247
100
AcDbEntity
  8
0
100
AcDbLine
 62
2
  6
CONTINUOUS
 10
0.0
 20
0.0
 11
9.055
 21
0.0
  0
LINE
  5
248
100
AcDbEntity
  8
0
100
AcDbLine
 62
2
  6
CONTINUOUS
 10
0.0
 20
0.0
 11
0.0
 21
-2.094
  0
LINE
  5
249
100
AcDbEntity
  8
0
100
AcDbLine
 62
2
  6
CONTINUOUS
 10
0.0
 20
-0.344
 11
9.055
 21
-0.344
  0
LINE
  5
24A
100
AcDbEntity
  8
0
100
AcDbLine
 62
2
  6
CONTINUOUS
 10
0.0
 20
-0.594
 11
9.055
 21
-0.594
  0
LINE
  5
24B
100
AcDbEntity
  8
0
100
AcDbLine
 62
2
  6
CONTINUOUS
 10
0.0
 20
-0.844
 11
9.055
 21
-0.844
  0
LINE
  5
24C
100
AcDbEntity
  8
0
100
AcDbLine
 62
2
  6
CONTINUOUS
 10
0.0
 20
-1.094
 11
9.055
 21
-1.094
  0
LINE
  5
24D
100
AcDbEntity
  8
0
100
AcDbLine
 62
2
  6
CONTINUOUS
 10
0.0
 20
-1.344
 11
9.055
 21
-1.344
  0
LINE
  5
24E
100
AcDbEntity
  8
0
100
AcDbLine
 62
2
  6
CONTINUOUS
 10
0.0
 20
-1.594
 11
9.055
 21
-1.594
  0
LINE
  5
24F
100
AcDbEntity
  8
0
100
AcDbLine
 62
2
  6
CONTINUOUS
 10
0.0
 20
-1.844
 11
9.055
 21
-1.844
  0
LINE
  5
250
100
AcDbEntity
  8
0
100
AcDbLine
 62
2
  6
CONTINUOUS
 10
0.0
 20
-2.094
 11
9.055
 21
-2.094
  0
LINE
  5
251
100
AcDbEntity
  8
0
100
AcDbLine
 62
2
  6
CONTINUOUS
 10
3.055
 20
0.0
 11
3.055
 21
-2.094
  0
LINE
  5
252
100
AcDbEntity
  8
0
100
AcDbLine
 62
2
  6
CONTINUOUS
 10
9.055
 20
0.0
 11
9.055
 21
-2.094
  0
MTEXT
  5
253
100
AcDbEntity
  8
0
100
AcDbMText
 62
2
  6
CONTINUOUS
  7
STANDARD
 71
2
 72
1
 10
1.5275
 20
-0.0995
 30
0.0
 11
1.0
 21
0.0
 31
0.0
 44
0.9
  1
Technical Data
 40
0.145
 41
3.248
  0
MTEXT
  5
254
100
AcDbEntity
  8
0
100
AcDbMText
 62
2
  6
CONTINUOUS
  7
STANDARD
 71
2
 72
1
 10
4.555
 20
-0.0995
 30
0.0
 11
1.0
 21
0.0
 31
0.0
 44
0.9
  1
U.S. Units
 40
0.145
 41
2.32
  0
MTEXT
  5
255
100
AcDbEntity
  8
0
100
AcDbMText
 62
2
  6
CONTINUOUS
  7
STANDARD
 71
2
 72
1
 10
7.555
 20
-0.0995
 30
0.0
 11
1.0
 21
0.0
 31
0.0
 44
0.9
  1
Metric Units
 40
0.145
 41
2.784
  0
MTEXT
  5
256
100
AcDbEntity
  8
0
100
AcDbMText
 62
2
  6
CONTINUOUS
  7
STANDARD
 71
2
 72
1
 10
1.5275
 20
-0.4065
 30
0.0
 11
1.0
 21
0.0
 31
0.0
 44
0.9
  1
Cavity
 40
0.125
 41
1.2
  0
MTEXT
  5
257
100
AcDbEntity
  8
0
100
AcDbMText
 62
2
  6
CONTINUOUS
  7
STANDARD
 71
2
 72
1
 10
6.055
 20
-0.4065
 30
0.0
 11
1.0
 21
0.0
 31
0.0
 44
0.9
  1
T-13A
 40
0.125
 41
1.0
  0
MTEXT
  5
258
100
AcDbEntity
  8
0
100
AcDbMText
 62
2
  6
CONTINUOUS
  7
STANDARD
 71
2
 72
1
 10
1.5275
 20
-0.6565
 30
0.0
 11
1.0
 21
0.0
 31
0.0
 44
0.9
  1
Body Features
 40
0.125
 41
2.6
  0
MTEXT
  5
259
100
AcDbEntity
  8
0
100
AcDbMText
 62
2
  6
CONTINUOUS
  7
STANDARD
 71
2
 72
1
 10
6.055
 20
-0.6565
 30
0.0
 11
1.0
 21
0.0
 31
0.0
 44
0.9
  1
P to T
 40
0.125
 41
1.2
  0
MTEXT
  5
25A
100
AcDbEntity
  8
0
100
AcDbMText
 62
2
  6
CONTINUOUS
  7
STANDARD
 71
2
 72
1
 10
1.5275
 20
-0.9065
 30
0.0
 11
1.0
 21
0.0
 31
0.0
 44
0.9
  1
Body Type
 40
0.125
 41
1.8
  0
MTEXT
  5
25B
100
AcDbEntity
  8
0
100
AcDbMText
 62
2
  6
CONTINUOUS
  7
STANDARD
 71
2
 72
1
 10
6.055
 20
-0.9065
 30
0.0
 11
1.0
 21
0.0
 31
0.0
 44
0.9
  1
Sandwich
 40
0.125
 41
1.6
  0
MTEXT
  5
25C
100
AcDbEntity
  8
0
100
AcDbMText
 62
2
  6
CONTINUOUS
  7
STANDARD
 71
2
 72
1
 10
1.5275
 20
-1.1565
 30
0.0
 11
1.0
 21
0.0
 31
0.0
 44
0.9
  1
Interface
 40
0.125
 41
1.8
  0
MTEXT
  5
25D
100
AcDbEntity
  8
0
100
AcDbMText
 62
2
  6
CONTINUOUS
  7
STANDARD
 71
2
 72
1
 10
6.055
 20
-1.1565
 30
0.0
 11
1.0
 21
0.0
 31
0.0
 44
0.9
  1
ISO 05
 40
0.125
 41
1.2
  0
MTEXT
  5
25E
100
AcDbEntity
  8
0
100
AcDbMText
 62
2
  6
CONTINUOUS
  7
STANDARD
 71
2
 72
1
 10
1.5275
 20
-1.4065
 30
0.0
 11
1.0
 21
0.0
 31
0.0
 44
0.9
  1
Open Cavity Quantity
 40
0.125
 41
4.0
  0
MTEXT
  5
25F
100
AcDbEntity
  8
0
100
AcDbMText
 62
2
  6
CONTINUOUS
  7
STANDARD
 71
2
 72
1
 10
6.055
 20
-1.4065
 30
0.0
 11
1.0
 21
0.0
 31
0.0
 44
0.9
  1
1
 40
0.125
 41
0.2
  0
MTEXT
  5
260
100
AcDbEntity
  8
0
100
AcDbMText
 62
2
  6
CONTINUOUS
  7
STANDARD
 71
2
 72
1
 10
1.5275
 20
-1.6565
 30
0.0
 11
1.0
 21
0.0
 31
0.0
 44
0.9
  1
Stack Height
 40
0.125
 41
2.4
  0
MTEXT
  5
261
100
AcDbEntity
  8
0
100
AcDbMText
 62
2
  6
CONTINUOUS
  7
STANDARD
 71
2
 72
1
 10
4.555
 20
-1.6565
 30
0.0
 11
1.0
 21
0.0
 31
0.0
 44
0.9
  1
1.99 in.
 40
0.125
 41
1.6
  0
MTEXT
  5
262
100
AcDbEntity
  8
0
100
AcDbMText
 62
2
  6
CONTINUOUS
  7
STANDARD
 71
2
 72
1
 10
7.555
 20
-1.6565
 30
0.0
 11
1.0
 21
0.0
 31
0.0
 44
0.9
  1
50,5 mm
 40
0.125
 41
1.4
  0
MTEXT
  5
263
100
AcDbEntity
  8
0
100
AcDbMText
 62
2
  6
CONTINUOUS
  7
STANDARD
 71
2
 72
1
 10
1.5275
 20
-1.9065
 30
0.0
 11
1.0
 21
0.0
 31
0.0
 44
0.9
  1
Weight
 40
0.125
 41
1.2
  0
MTEXT
  5
264
100
AcDbEntity
  8
0
100
AcDbMText
 62
2
  6
CONTINUOUS
  7
STANDARD
 71
2
 72
1
 10
4.555
 20
-1.9065
 30
0.0
 11
1.0
 21
0.0
 31
0.0
 44
0.9
  1
1.363 lb.
 40
0.125
 41
1.8
  0
MTEXT
  5
265
100
AcDbEntity
  8
0
100
AcDbMText
 62
2
  6
CONTINUOUS
  7
STANDARD
 71
2
 72
1
 10
7.555
 20
-1.9065
 30
0.0
 11
1.0
 21
0.0
 31
0.0
 44
0.9
  1
0,618 kg.
 40
0.125
 41
1.8
  0
ENDBLK
  5
266
100
AcDbEntity
  8
0
  6
BYBLOCK
 62
0
100
AcDbBlockEnd
  0
ENDSEC
  0
SECTION
  2
ENTITIES
  0
IMAGE
  5
267
100
AcDbEntity
  8
0
100
AcDbRasterImage
 62
7
  6
CONTINUOUS
 10
19.2297077316
 20
0.3094318264
 30
0.0
 11
0.0066666667
 21
0.0
 31
0.0
 12
0.0
 22
0.0066666667
 32
0.0
 13
369.0
 23
92.0
340
       2DB
 70
9
280
0
281
50
282
50
283
0
360
       2D5
 71
1
 91
2
 14
-0.5
 24
-0.5
 14
368.5
 24
91.5
  0
INSERT
  5
268
100
AcDbEntity
  8
0
100
AcDbBlockReference
 62
2
  6
CONTINUOUS
  2
SUN_FIRST_THIRD_ANGLE_BL0
 10
20.4816717061
 20
1.2289683772
  0
ACAD_TABLE
  5
269
100
AcDbEntity
  8
0
 62
2
  6
CONTINUOUS
100
AcDbBlockReference
  2
*T1
 10
12.42375
 20
0.30125
 30
0.0
100
AcDbTable
342
       2DD
343
207
 11
1.0
 21
0.0
 31
0.0
 90
6
 91
4
 92
6
 93
20
 94
0
 95
0
 96
0
 70
1
 41
0.0
141
0.525
141
0.1
141
0.525
141
0.1
142
4.1
142
1.1
142
0.7
142
0.5
142
0.4
142
2.475
171
1
172
0
173
0
174
0
175
1
176
1
 91
33
178
0
145
0.0
301
CELL_VALUE
 90
4
  1
T-13A Sandwich ISO 05\PP to T
304
ACVALUE_END
170
2
140
0.125
171
1
172
0
173
0
174
0
175
1
176
1
 91
33
178
0
145
0.0
301
CELL_VALUE
 90
4
  1
Nov-15-19
304
ACVALUE_END
170
5
140
0.125
171
1
172
0
173
0
174
0
175
1
176
1
 91
33
178
0
145
0.0
301
CELL_VALUE
 90
4
  1
2.000
304
ACVALUE_END
170
5
140
0.125
171
1
172
0
173
0
174
0
175
1
176
1
 91
33
178
0
145
0.0
301
CELL_VALUE
 90
4
  1
C
304
ACVALUE_END
170
5
140
0.125
171
1
172
0
173
0
174
0
175
1
176
1
 91
33
178
0
145
0.0
301
CELL_VALUE
 90
4
  1
2
304
ACVALUE_END
170
5
140
0.125
171
1
172
0
173
0
174
0
175
1
176
1
 91
33
178
0
145
0.0
301
CELL_VALUE
 90
4
  1
 
304
ACVALUE_END
170
1
140
0.125
171
1
172
0
173
0
174
0
175
1
176
1
 91
33
178
0
145
0.0
301
CELL_VALUE
 90
4
  1
DESCRIPTION
304
ACVALUE_END
170
1
140
0.06
171
1
172
0
173
0
174
0
175
1
176
1
 91
33
178
0
145
0.0
301
CELL_VALUE
 90
4
  1
DATE
304
ACVALUE_END
170
1
140
0.06
171
1
172
0
173
0
174
0
175
1
176
1
 91
33
178
0
145
0.0
301
CELL_VALUE
 90
4
  1
SCALE
304
ACVALUE_END
170
1
140
0.06
171
1
172
0
173
0
174
0
175
1
176
1
 91
33
178
0
145
0.0
301
CELL_VALUE
 90
4
  1
DWG SIZE
304
ACVALUE_END
170
1
140
0.06
171
1
172
0
173
0
174
0
175
1
176
1
 91
33
178
0
145
0.0
301
CELL_VALUE
 90
4
  1
SHEET
304
ACVALUE_END
170
1
140
0.06
171
1
172
0
173
0
174
0
175
1
176
1
 91
33
178
0
145
0.0
301
CELL_VALUE
 90
4
  1
 
304
ACVALUE_END
170
1
140
0.125
171
1
172
0
173
0
174
0
175
1
176
1
 91
33
178
0
145
0.0
301
CELL_VALUE
 90
4
  1
WNH
304
ACVALUE_END
170
5
140
0.125
171
1
172
0
173
0
174
0
175
4
176
1
 91
33
178
0
145
0.0
301
CELL_VALUE
 90
4
  1
ALL DIMENSIONS IN INCH\PVIEWS ARE THIRD ANGLE
304
ACVALUE_END
170
5
140
0.12
171
1
172
0
173
1
174
0
175
1
176
1
 91
1
178
0
145
0.0
170
1
171
1
172
0
173
1
174
0
175
1
176
1
 91
1
178
0
145
0.0
170
1
171
1
172
0
173
1
174
0
175
1
176
1
 91
1
178
0
145
0.0
170
5
171
1
172
0
173
0
174
0
175
1
176
1
 91
33
178
0
145
0.0
301
CELL_VALUE
 90
4
  1
 
304
ACVALUE_END
170
1
140
0.125
171
1
172
0
173
0
174
0
175
1
176
1
 91
33
178
0
145
0.0
301
CELL_VALUE
 90
4
  1
MODEL
304
ACVALUE_END
170
1
140
0.06
171
1
172
0
173
0
174
0
175
1
176
1
 91
33
178
0
145
0.0
301
CELL_VALUE
 90
4
  1
 
304
ACVALUE_END
170
1
140
0.125
171
1
172
0
173
0
174
0
175
1
176
1
 91
33
178
0
145
0.0
301
CELL_VALUE
 90
4
  1
 
304
ACVALUE_END
170
1
140
0.125
171
1
172
0
173
0
174
0
175
1
176
1
 91
33
178
0
145
0.0
301
CELL_VALUE
 90
4
  1
 
304
ACVALUE_END
170
1
140
0.125
171
1
172
0
173
0
174
0
175
1
176
1
 91
33
178
0
145
0.0
301
CELL_VALUE
 90
4
  1
 
304
ACVALUE_END
170
1
140
0.125
171
1
172
0
173
0
174
0
175
1
176
1
 91
33
178
0
145
0.0
301
CELL_VALUE
 90
4
  1
 
304
ACVALUE_END
170
1
140
0.125
  0
ACAD_TABLE
  5
26A
100
AcDbEntity
  8
0
 62
2
  6
CONTINUOUS
100
AcDbBlockReference
  2
*T2
 10
12.4237499994
 20
16.47875
 30
0.0
100
AcDbTable
342
       2DC
343
208
 11
1.0
 21
0.0
 31
0.0
 90
22
 91
8
 92
3
 93
16
 94
0
 95
0
 96
0
 41
0.028
141
0.344
141
0.25
141
0.25
141
0.25
141
0.25
141
0.25
141
0.25
141
0.25
142
3.055
142
3.0
142
3.0
171
1
172
0
173
0
174
0
175
1
176
1
 91
33
178
0
145
0.0
301
CELL_VALUE
 90
4
  1
Technical Data
304
ACVALUE_END
170
5
140
0.145
171
1
172
0
173
0
174
0
175
1
176
1
 91
33
178
0
145
0.0
301
CELL_VALUE
 90
4
  1
U.S. Units
304
ACVALUE_END
170
5
140
0.145
171
1
172
0
173
0
174
0
175
1
176
1
 91
33
178
0
145
0.0
301
CELL_VALUE
 90
4
  1
Metric Units
304
ACVALUE_END
170
5
140
0.145
171
1
172
0
173
0
174
0
175
1
176
1
 91
33
178
0
145
0.0
301
CELL_VALUE
 90
4
  1
Cavity
304
ACVALUE_END
170
5
140
0.125
171
1
172
0
173
0
174
0
175
2
176
1
 91
33
178
0
145
0.0
301
CELL_VALUE
 90
4
  1
T-13A
304
ACVALUE_END
170
5
140
0.125
171
1
172
0
173
1
174
0
175
1
176
1
 91
1
178
0
145
0.0
170
1
171
1
172
0
173
0
174
0
175
1
176
1
 91
33
178
0
145
0.0
301
CELL_VALUE
 90
4
  1
Body Features
304
ACVALUE_END
170
5
140
0.125
171
1
172
0
173
0
174
0
175
2
176
1
 91
33
178
0
145
0.0
301
CELL_VALUE
 90
4
  1
P to T
304
ACVALUE_END
170
5
140
0.125
171
1
172
0
173
1
174
0
175
1
176
1
 91
1
178
0
145
0.0
170
1
171
1
172
0
173
0
174
0
175
1
176
1
 91
33
178
0
145
0.0
301
CELL_VALUE
 90
4
  1
Body Type
304
ACVALUE_END
170
5
140
0.125
171
1
172
0
173
0
174
0
175
2
176
1
 91
33
178
0
145
0.0
301
CELL_VALUE
 90
4
  1
Sandwich
304
ACVALUE_END
170
5
140
0.125
171
1
172
0
173
1
174
0
175
1
176
1
 91
1
178
0
145
0.0
170
1
171
1
172
0
173
0
174
0
175
1
176
1
 91
33
178
0
145
0.0
301
CELL_VALUE
 90
4
  1
Interface
304
ACVALUE_END
170
5
140
0.125
171
1
172
0
173
0
174
0
175
2
176
1
 91
33
178
0
145
0.0
301
CELL_VALUE
 90
4
  1
ISO 05
304
ACVALUE_END
170
5
140
0.125
171
1
172
0
173
1
174
0
175
1
176
1
 91
1
178
0
145
0.0
170
1
171
1
172
0
173
0
174
0
175
1
176
1
 91
33
178
0
145
0.0
301
CELL_VALUE
 90
4
  1
Open Cavity Quantity
304
ACVALUE_END
170
5
140
0.125
171
1
172
0
173
0
174
0
175
2
176
1
 91
33
178
0
145
0.0
301
CELL_VALUE
 90
4
  1
1
304
ACVALUE_END
170
5
140
0.125
171
1
172
0
173
1
174
0
175
1
176
1
 91
1
178
0
145
0.0
170
1
171
1
172
0
173
0
174
0
175
1
176
1
 91
33
178
0
145
0.0
301
CELL_VALUE
 90
4
  1
Stack Height
304
ACVALUE_END
170
5
140
0.125
171
1
172
0
173
0
174
0
175
1
176
1
 91
33
178
0
145
0.0
301
CELL_VALUE
 90
4
  1
1.99 in.
304
ACVALUE_END
170
5
140
0.125
171
1
172
0
173
0
174
0
175
1
176
1
 91
33
178
0
145
0.0
301
CELL_VALUE
 90
4
  1
50,5 mm
304
ACVALUE_END
170
5
140
0.125
171
1
172
0
173
0
174
0
175
1
176
1
 91
33
178
0
145
0.0
301
CELL_VALUE
 90
4
  1
Weight
304
ACVALUE_END
170
5
140
0.125
171
1
172
0
173
0
174
0
175
1
176
1
 91
33
178
0
145
0.0
301
CELL_VALUE
 90
4
  1
1.363 lb.
304
ACVALUE_END
170
5
140
0.125
171
1
172
0
173
0
174
0
175
1
176
1
 91
33
178
0
145
0.0
301
CELL_VALUE
 90
4
  1
0,618 kg.
304
ACVALUE_END
170
5
140
0.125
  0
MTEXT
  5
26B
100
AcDbEntity
  8
0
100
AcDbMText
 62
2
  6
CONTINUOUS
  7
STANDARD
 71
1
 72
1
 10
0.52125
 20
5.75995
 30
0.0
 11
1.0
 21
0.0
 31
0.0
 44
0.6
  3
Notes\P \P1. Important: Carefully consider\P   the maximum system pressure. The\P   pressure rating of the manifold is\P   dependent on the manifold material,\P   with the port type/size a secondary\P   consideration. Manifolds\P   constructed of alu
  1
minum are not\P   rated for pressures higher than\P   3000 psi (210 bar), regardless of\P   the port type/size specified.\P2. Items without balloons are\P   shipped loose.
 40
0.1
 41
3.04
  0
LINE
  5
26C
100
AcDbEntity
  8
0
100
AcDbLine
 62
7
  6
CONTINUOUS
 10
0.30125
 20
0.30125
 11
0.30125
 21
16.69875
  0
LINE
  5
26D
100
AcDbEntity
  8
0
100
AcDbLine
 62
7
  6
CONTINUOUS
 10
0.30125
 20
0.30125
 11
21.69875
 21
0.30125
  0
LINE
  5
26E
100
AcDbEntity
  8
0
100
AcDbLine
 62
7
  6
CONTINUOUS
 10
0.30125
 20
16.69875
 11
21.69875
 21
16.69875
  0
LINE
  5
26F
100
AcDbEntity
  8
0
100
AcDbLine
 62
7
  6
CONTINUOUS
 10
21.69875
 20
0.30125
 11
21.69875
 21
16.69875
  0
LINE
  5
270
100
AcDbEntity
  8
0
100
AcDbLine
 62
7
  6
CONTINUOUS
 10
7.3114270331
 20
10.6312766536
 11
8.3146088052
 21
11.6002758932
  0
LINE
  5
271
100
AcDbEntity
  8
0
100
AcDbLine
 62
7
  6
CONTINUOUS
 10
7.3114270331
 20
5.801647236
 11
7.3114270331
 21
10.6312766536
  0
LINE
  5
272
100
AcDbEntity
  8
0
100
AcDbLine
 62
7
  6
CONTINUOUS
 10
13.1069823918
 20
5.3997241068
 11
7.3114270331
 21
5.801647236
  0
LINE
  5
273
100
AcDbEntity
  8
0
100
AcDbLine
 62
7
  6
CONTINUOUS
 10
13.7340491163
 20
6.2275751478
 11
13.658114944
 21
6.2162283653
  0
LINE
  5
274
100
AcDbEntity
  8
0
100
AcDbLine
 62
7
  6
CONTINUOUS
 10
13.2574906589
 20
5.693172088
 11
13.8003410179
 21
5.6555252878
  0
LINE
  5
275
100
AcDbEntity
  8
0
100
AcDbLine
 62
7
  6
CONTINUOUS
 10
13.658114944
 20
6.2162283653
 11
13.115264585
 21
6.2538751655
  0
LINE
  5
276
100
AcDbEntity
  8
0
100
AcDbLine
 62
7
  6
CONTINUOUS
 10
13.1069823918
 20
10.2293535244
 11
14.1101641639
 21
11.198352764
  0
LINE
  5
277
100
AcDbEntity
  8
0
100
AcDbLine
 62
7
  6
CONTINUOUS
 10
13.3093787086
 20
10.305078556
 11
13.9077678471
 21
10.8830781132
  0
LINE
  5
278
100
AcDbEntity
  8
0
100
AcDbLine
 62
7
  6
CONTINUOUS
 10
13.7340491163
 20
9.3668342692
 11
13.658114944
 21
9.3554874867
  0
LINE
  5
279
100
AcDbEntity
  8
0
100
AcDbLine
 62
7
  6
CONTINUOUS
 10
13.8522290676
 20
10.2674317557
 11
14.4506182061
 21
10.845431313
  0
LINE
  5
27A
100
AcDbEntity
  8
0
100
AcDbLine
 62
7
  6
CONTINUOUS
 10
13.9121164724
 20
10.2033911453
 11
14.5105056108
 21
10.7813907026
  0
LINE
  5
27B
100
AcDbEntity
  8
0
100
AcDbLine
 62
7
  6
CONTINUOUS
 10
13.658114944
 20
9.3554874867
 11
13.115264585
 21
9.393134287
  0
LINE
  5
27C
100
AcDbEntity
  8
0
100
AcDbLine
 62
7
  6
CONTINUOUS
 10
7.3114270331
 20
10.6312766536
 11
13.1069823918
 21
10.2293535244
  0
LINE
  5
27D
100
AcDbEntity
  8
0
100
AcDbLine
 62
7
  6
CONTINUOUS
 10
13.8522290676
 20
10.2674317557
 11
13.3093787086
 21
10.305078556
  0
LINE
  5
27E
100
AcDbEntity
  8
0
100
AcDbLine
 62
7
  6
CONTINUOUS
 10
13.1069823918
 20
5.3997241068
 11
13.1069823918
 21
10.2293535244
  0
LINE
  5
27F
100
AcDbEntity
  8
0
100
AcDbLine
 62
7
  6
CONTINUOUS
 10
13.115264585
 20
6.2538751655
 11
13.115264585
 21
9.393134287
  0
LINE
  5
280
100
AcDbEntity
  8
0
100
AcDbLine
 62
7
  6
CONTINUOUS
 10
14.4506182061
 20
10.845431313
 11
13.9077678471
 21
10.8830781132
  0
LINE
  5
281
100
AcDbEntity
  8
0
100
AcDbLine
 62
7
  6
CONTINUOUS
 10
13.9596558968
 20
10.9068366345
 11
14.5025062558
 21
10.8691898342
  0
LINE
  5
282
100
AcDbEntity
  8
0
100
AcDbLine
 62
7
  6
CONTINUOUS
 10
13.658114944
 20
6.2162283653
 11
13.658114944
 21
9.3554874867
  0
LINE
  5
283
100
AcDbEntity
  8
0
100
AcDbLine
 62
7
  6
CONTINUOUS
 10
13.7340491163
 20
6.2275751478
 11
13.7340491163
 21
9.3668342692
  0
LINE
  5
284
100
AcDbEntity
  8
0
100
AcDbLine
 62
7
  6
CONTINUOUS
 10
8.3146088052
 20
11.6002758932
 11
14.1101641639
 21
11.198352764
  0
LINE
  5
285
100
AcDbEntity
  8
0
100
AcDbLine
 62
7
  6
CONTINUOUS
 10
14.1101641639
 20
10.8963988507
 11
14.1101641639
 21
11.198352764
  0
LINE
  5
286
100
AcDbEntity
  8
0
100
AcDbLine
 62
7
  6
CONTINUOUS
 10
13.9121164724
 20
10.2033911453
 11
13.8522290676
 21
10.2674317557
  0
LINE
  5
287
100
AcDbEntity
  8
0
100
AcDbLine
 62
7
  6
CONTINUOUS
 10
14.6885729669
 20
10.288833563
 11
14.6885729669
 21
7.1495744415
  0
LINE
  5
288
100
AcDbEntity
  8
0
100
AcDbLine
 62
7
  6
CONTINUOUS
 10
13.1069823918
 20
5.3997241068
 11
13.4005135179
 21
5.6832534191
  0
LINE
  5
289
100
AcDbEntity
  8
0
100
AcDbLine
 62
7
  6
CONTINUOUS
 10
14.5105056108
 20
6.3130175654
 11
13.9121164724
 21
5.7350180082
  0
LINE
  5
28A
100
AcDbEntity
  8
0
100
AcDbLine
 62
7
  6
CONTINUOUS
 10
13.9121164724
 20
5.7350180082
 11
13.9104339566
 21
5.7334227156
  0
LINE
  5
28B
100
AcDbEntity
  8
0
100
AcDbLine
 62
7
  6
CONTINUOUS
 10
13.8503966615
 20
5.6775461191
 11
13.9104355452
 21
5.7334239672
  0
LINE
  5
28C
100
AcDbEntity
  8
0
100
AcDbLine
 62
7
  6
CONTINUOUS
 10
14.5105056108
 20
10.7813907026
 11
14.4506182061
 21
10.845431313
  0
LINE
  5
28D
100
AcDbEntity
  8
0
100
AcDbLine
 62
7
  6
CONTINUOUS
 10
14.5490430427
 20
10.8404702951
 11
14.6007939943
 21
10.7768397955
  0
ARC
  5
28E
100
AcDbEntity
  8
0
100
AcDbCircle
 62
7
  6
CONTINUOUS
 10
8.4008286839
 20
8.893078263
 40
0.4267764285
100
AcDbArc
 50
180.0076608654
 51
184.1011715446
  0
ARC
  5
28F
100
AcDbEntity
  8
0
100
AcDbCircle
 62
7
  6
CONTINUOUS
 10
12.0190740575
 20
8.5832649842
 40
0.4214195121
100
AcDbArc
 50
357.4002641594
 51
0.0010140889
  0
SPLINE
  5
290
100
AcDbEntity
  8
0
100
AcDbSpline
 62
7
  6
CONTINUOUS
 70
0
 71
3
 72
23
 73
19
 74
0
 42
0.0000001
 43
0.0000001
 44
0.0000000001
 40
0.0
 40
0.0
 40
0.0
 40
0.0
 40
0.0637754757
 40
0.1273453426
 40
0.1907021752
 40
0.2538559149
 40
0.3168132477
 40
0.3795821059
 40
0.4421733695
 40
0.5045993382
 40
0.566873869
 40
0.6290123778
 40
0.6910316472
 40
0.7529496469
 40
0.8147853527
 40
0.8765585998
 40
0.9382898568
 40
1.0
 40
1.0
 40
1.0
 40
1.0
 10
12.5322565035
 20
6.1041385129
 30
0.0
 10
12.5322565035
 20
6.099803141
 30
0.0
 10
12.5320489415
 20
6.0911449067
 30
0.0
 10
12.531112397
 20
6.0782102517
 30
0.0
 10
12.5295529314
 20
6.0653780506
 30
0.0
 10
12.5273742717
 20
6.0526786377
 30
0.0
 10
12.5245814588
 20
6.0401408849
 30
0.0
 10
12.5211808224
 20
6.02779378
 30
0.0
 10
12.5171801444
 20
6.01566583
 30
0.0
 10
12.5125887193
 20
6.0037849502
 30
0.0
 10
12.5074170585
 20
5.992178557
 30
0.0
 10
12.5016770138
 20
5.9808734522
 30
0.0
 10
12.495381905
 20
5.9698956631
 30
0.0
 10
12.4885461689
 20
5.9592705369
 30
0.0
 10
12.4811855476
 20
5.9490226373
 30
0.0
 10
12.4733170116
 20
5.9391754613
 30
0.0
 10
12.4649589544
 20
5.9297520767
 30
0.0
 10
12.4590722898
 20
5.9237657589
 30
0.0
 10
12.4560550353
 20
5.920851316
 30
0.0
  0
SPLINE
  5
291
100
AcDbEntity
  8
0
100
AcDbSpline
 62
7
  6
CONTINUOUS
 70
0
 71
3
 72
23
 73
19
 74
0
 42
0.0000001
 43
0.0000001
 44
0.0000000001
 40
0.0
 40
0.0
 40
0.0
 40
0.0
 40
0.0637754757
 40
0.1273453426
 40
0.1907021752
 40
0.2538559149
 40
0.3168132477
 40
0.3795821059
 40
0.4421733695
 40
0.5045993382
 40
0.566873869
 40
0.6290123778
 40
0.6910316472
 40
0.7529496469
 40
0.8147853527
 40
0.8765585998
 40
0.9382898568
 40
1.0
 40
1.0
 40
1.0
 40
1.0
 10
8.4251397868
 20
6.3889680246
 30
0.0
 10
8.4251397868
 20
6.3846326527
 30
0.0
 10
8.4249322248
 20
6.3759744184
 30
0.0
 10
8.4239956803
 20
6.3630397634
 30
0.0
 10
8.4224362147
 20
6.3502075623
 30
0.0
 10
8.420257555
 20
6.3375081494
 30
0.0
 10
8.4174647421
 20
6.3249703966
 30
0.0
 10
8.4140641057
 20
6.3126232917
 30
0.0
 10
8.4100634277
 20
6.3004953417
 30
0.0
 10
8.4054720026
 20
6.2886144619
 30
0.0
 10
8.4003003418
 20
6.2770080687
 30
0.0
 10
8.3945602971
 20
6.2657029639
 30
0.0
 10
8.3882651883
 20
6.2547251748
 30
0.0
 10
8.3814294522
 20
6.2441000486
 30
0.0
 10
8.3740688309
 20
6.233852149
 30
0.0
 10
8.3662002949
 20
6.224004973
 30
0.0
 10
8.3578422377
 20
6.2145815884
 30
0.0
 10
8.3519555731
 20
6.2085952706
 30
0.0
 10
8.3489383186
 20
6.2056808278
 30
0.0
  0
SPLINE
  5
292
100
AcDbEntity
  8
0
100
AcDbSpline
 62
7
  6
CONTINUOUS
 70
0
 71
3
 72
23
 73
19
 74
0
 42
0.0000001
 43
0.0000001
 44
0.0000000001
 40
0.0
 40
0.0
 40
0.0
 40
0.0
 40
0.0637754757
 40
0.1273453426
 40
0.1907021752
 40
0.2538559149
 40
0.3168132477
 40
0.3795821059
 40
0.4421733695
 40
0.5045993382
 40
0.566873869
 40
0.6290123778
 40
0.6910316472
 40
0.7529496469
 40
0.8147853527
 40
0.8765585998
 40
0.9382898568
 40
1.0
 40
1.0
 40
1.0
 40
1.0
 10
8.4251397868
 20
9.8875514969
 30
0.0
 10
8.4251397868
 20
9.883216125
 30
0.0
 10
8.4249322248
 20
9.8745578907
 30
0.0
 10
8.4239956803
 20
9.8616232357
 30
0.0
 10
8.4224362147
 20
9.8487910346
 30
0.0
 10
8.420257555
 20
9.8360916217
 30
0.0
 10
8.4174647421
 20
9.8235538689
 30
0.0
 10
8.4140641057
 20
9.811206764
 30
0.0
 10
8.4100634277
 20
9.7990788139
 30
0.0
 10
8.4054720026
 20
9.7871979342
 30
0.0
 10
8.4003003418
 20
9.775591541
 30
0.0
 10
8.3945602971
 20
9.7642864362
 30
0.0
 10
8.3882651883
 20
9.7533086471
 30
0.0
 10
8.3814294522
 20
9.7426835209
 30
0.0
 10
8.3740688309
 20
9.7324356213
 30
0.0
 10
8.3662002949
 20
9.7225884453
 30
0.0
 10
8.3578422377
 20
9.7131650607
 30
0.0
 10
8.3519555731
 20
9.7071787429
 30
0.0
 10
8.3489383186
 20
9.7042643
 30
0.0
  0
SPLINE
  5
293
100
AcDbEntity
  8
0
100
AcDbSpline
 62
7
  6
CONTINUOUS
 70
0
 71
3
 72
23
 73
19
 74
0
 42
0.0000001
 43
0.0000001
 44
0.0000000001
 40
0.0
 40
0.0
 40
0.0
 40
0.0
 40
0.0637754757
 40
0.1273453426
 40
0.1907021752
 40
0.2538559149
 40
0.3168132477
 40
0.3795821059
 40
0.4421733695
 40
0.5045993382
 40
0.566873869
 40
0.6290123778
 40
0.6910316472
 40
0.7529496469
 40
0.8147853527
 40
0.8765585998
 40
0.9382898568
 40
1.0
 40
1.0
 40
1.0
 40
1.0
 10
12.5322565035
 20
9.6027219852
 30
0.0
 10
12.5322565035
 20
9.5983866133
 30
0.0
 10
12.5320489415
 20
9.589728379
 30
0.0
 10
12.531112397
 20
9.576793724
 30
0.0
 10
12.5295529314
 20
9.5639615229
 30
0.0
 10
12.5273742717
 20
9.55126211
 30
0.0
 10
12.5245814588
 20
9.5387243572
 30
0.0
 10
12.5211808224
 20
9.5263772522
 30
0.0
 10
12.5171801444
 20
9.5142493022
 30
0.0
 10
12.5125887193
 20
9.5023684225
 30
0.0
 10
12.5074170585
 20
9.4907620293
 30
0.0
 10
12.5016770138
 20
9.4794569244
 30
0.0
 10
12.495381905
 20
9.4684791354
 30
0.0
 10
12.4885461689
 20
9.4578540092
 30
0.0
 10
12.4811855476
 20
9.4476061096
 30
0.0
 10
12.4733170116
 20
9.4377589336
 30
0.0
 10
12.4649589544
 20
9.428335549
 30
0.0
 10
12.4590722898
 20
9.4223492312
 30
0.0
 10
12.4560550353
 20
9.4194347883
 30
0.0
  0
SPLINE
  5
294
100
AcDbEntity
  8
0
100
AcDbSpline
 62
7
  6
CONTINUOUS
 70
0
 71
3
 72
25
 73
21
 74
0
 42
0.0000001
 43
0.0000001
 44
0.0000000001
 40
0.0
 40
0.0
 40
0.0
 40
0.0
 40
0.0637759544
 40
0.1273437832
 40
0.1907000454
 40
0.2538535205
 40
0.3168100131
 40
0.3795782341
 40
0.4421689029
 40
0.5045942218
 40
0.5668681111
 40
0.6290059908
 40
0.6910246319
 40
0.7219973303
 40
0.7529470501
 40
0.8147821282
 40
0.8765547489
 40
0.907426564
 40
0.9382904762
 40
1.0
 40
1.0
 40
1.0
 40
1.0
 10
9.8460164262
 20
7.9189809821
 30
0.0
 10
9.8460164262
 20
7.9122232031
 30
0.0
 10
9.8456929425
 20
7.8987274092
 30
0.0
 10
9.8442330461
 20
7.8785658428
 30
0.0
 10
9.8418022417
 20
7.8585640555
 30
0.0
 10
9.8384063897
 20
7.8387691008
 30
0.0
 10
9.8340530627
 20
7.8192261712
 30
0.0
 10
9.828752344
 20
7.7999804467
 30
0.0
 10
9.8225164285
 20
7.7810762654
 30
0.0
 10
9.8153595971
 20
7.7625572544
 30
0.0
 10
9.8072982773
 20
7.7444660563
 30
0.0
 10
9.7983512336
 20
7.7268446569
 30
0.0
 10
9.7901703374
 20
7.7125784448
 30
0.0
 10
9.7832052498
 20
7.7014431773
 30
0.0
 10
9.7759687783
 20
7.6905056218
 30
0.0
 10
9.7664103985
 20
7.6771978728
 30
0.0
 10
9.7561873237
 20
7.6644042339
 30
0.0
 10
9.7476288271
 20
7.6545017688
 30
0.0
 10
9.7388234351
 20
7.6448276304
 30
0.0
 10
9.731941723
 20
7.6378294702
 30
0.0
 10
9.7272386382
 20
7.6332866597
 30
0.0
  0
SPLINE
  5
295
100
AcDbEntity
  8
0
100
AcDbSpline
 62
7
  6
CONTINUOUS
 70
0
 71
3
 72
43
 73
39
 74
0
 42
0.0000001
 43
0.0000001
 44
0.0000000001
 40
0.0
 40
0.0
 40
0.0
 40
0.0
 40
0.0149691207
 40
0.0299578199
 40
0.0449659061
 40
0.0599956901
 40
0.0901248435
 40
0.1203637814
 40
0.1355305071
 40
0.1507289031
 40
0.1659600698
 40
0.1812249517
 40
0.2118543922
 40
0.2426261282
 40
0.2735419049
 40
0.3046008508
 40
0.33579953
 40
0.3671320373
 40
0.3985901327
 40
0.4301634121
 40
0.4618395082
 40
0.4936043191
 40
0.5254422593
 40
0.5573365294
 40
0.5892694003
 40
0.6212225085
 40
0.6531771589
 40
0.6851146313
 40
0.7170164867
 40
0.7488648713
 40
0.7806428127
 40
0.8123345073
 40
0.8439255898
 40
0.8754033971
 40
0.9067571693
 40
0.9379783514
 40
0.9690605123
 40
1.0
 40
1.0
 40
1.0
 40
1.0
 10
11.7839443725
 20
8.9816257125
 30
0.0
 10
11.7879068724
 20
8.98397303
 30
0.0
 10
11.7959220906
 20
8.9885288617
 30
0.0
 10
11.8081887907
 20
8.9949323254
 30
0.0
 10
11.8206933124
 20
9.0009021961
 30
0.0
 10
11.8376748576
 20
9.0082798582
 30
0.0
 10
11.8594325546
 20
9.0163853333
 30
0.0
 10
11.8817470728
 20
9.0229503228
 30
0.0
 10
11.899889199
 20
9.0272699851
 30
0.0
 10
11.9136440333
 20
9.0300431308
 30
0.0
 10
11.9275165098
 20
9.0323427239
 30
0.0
 10
11.9461680089
 20
9.0347767616
 30
0.0
 10
11.9697040065
 20
9.0366202918
 30
0.0
 10
11.9981270721
 20
9.0369064864
 30
0.0
 10
12.0266371109
 20
9.0352686362
 30
0.0
 10
12.0551039922
 20
9.0317142755
 30
0.0
 10
12.08339895
 20
9.0262597763
 30
0.0
 10
12.1113937318
 20
9.0189300563
 30
0.0
 10
12.1389615596
 20
9.009758517
 30
0.0
 10
12.1659775924
 20
8.9987868735
 30
0.0
 10
12.1923195138
 20
8.9860649666
 30
0.0
 10
12.2178680713
 20
8.9716505351
 30
0.0
 10
12.2425076123
 20
8.9556089545
 30
0.0
 10
12.2661266017
 20
8.938012941
 30
0.0
 10
12.2886181214
 20
8.9189422247
 30
0.0
 10
12.3098803499
 20
8.89848319
 30
0.0
 10
12.3298170191
 20
8.8767284877
 30
0.0
 10
12.3483378461
 20
8.8537766188
 30
0.0
 10
12.3653589393
 20
8.8297314921
 30
0.0
 10
12.3808031746
 20
8.8047019577
 30
0.0
 10
12.3946005441
 20
8.7788013205
 30
0.0
 10
12.4066884683
 20
8.7521468278
 30
0.0
 10
12.4170120863
 20
8.7248591586
 30
0.0
 10
12.425524487
 20
8.6970618322
 30
0.0
 10
12.4321869623
 20
8.6688808429
 30
0.0
 10
12.4369691039
 20
8.6404433925
 30
0.0
 10
12.4398490855
 20
8.6118800025
 30
0.0
 10
12.4404935695
 20
8.5927916446
 30
0.0
 10
12.4404935695
 20
8.583272443
 30
0.0
  0
SPLINE
  5
296
100
AcDbEntity
  8
0
100
AcDbSpline
 62
7
  6
CONTINUOUS
 70
0
 71
3
 72
22
 73
18
 74
0
 42
0.0000001
 43
0.0000001
 44
0.0000000001
 40
0.0
 40
0.0
 40
0.0
 40
0.0
 40
0.0764234912
 40
0.1504698875
 40
0.2222095369
 40
0.291722846
 40
0.3591050492
 40
0.4244648984
 40
0.5495745482
 40
0.6096453126
 40
0.6682571342
 40
0.7255853859
 40
0.7818195466
 40
0.8371613374
 40
0.8918233206
 40
0.9460270232
 40
1.0
 40
1.0
 40
1.0
 40
1.0
 10
14.2113110416
 20
8.9691257356
 30
0.0
 10
14.2125475261
 20
8.970320088
 30
0.0
 10
14.2150200342
 20
8.9726327568
 30
0.0
 10
14.218787749
 20
8.9759190625
 30
0.0
 10
14.2225538119
 20
8.9789660066
 30
0.0
 10
14.2263170056
 20
8.9817724194
 30
0.0
 10
14.2300765086
 20
8.9843375819
 30
0.0
 10
14.2350100282
 20
8.9873901555
 30
0.0
 10
14.2400088099
 20
8.9900176279
 30
0.0
 10
14.2450552548
 20
8.9921700658
 30
0.0
 10
14.2487804151
 20
8.9935180553
 30
0.0
 10
14.252495531
 20
8.9946207033
 30
0.0
 10
14.2561995969
 20
8.9954776654
 30
0.0
 10
14.259891436
 20
8.9960885201
 30
0.0
 10
14.2635699425
 20
8.9964528713
 30
0.0
 10
14.2672336633
 20
8.9965705891
 30
0.0
 10
14.2696677325
 20
8.9964844884
 30
0.0
 10
14.2708789261
 20
8.9964004876
 30
0.0
  0
SPLINE
  5
297
100
AcDbEntity
  8
0
100
AcDbSpline
 62
7
  6
CONTINUOUS
 70
0
 71
3
 72
15
 73
11
 74
0
 42
0.0000001
 43
0.0000001
 44
0.0000000001
 40
0.0
 40
0.0
 40
0.0
 40
0.0
 40
0.1335729247
 40
0.2651981656
 40
0.394685378
 40
0.5218149039
 40
0.6462999493
 40
0.7677899128
 40
0.8858581578
 40
1.0
 40
1.0
 40
1.0
 40
1.0
 10
11.5965884554
 20
8.6853333893
 30
0.0
 10
11.5964479141
 20
8.6798141497
 30
0.0
 10
11.5964836037
 20
8.6688453422
 30
0.0
 10
11.5974928706
 20
8.6525538199
 30
0.0
 10
11.599437913
 20
8.6366149103
 30
0.0
 10
11.6022923005
 20
8.62111341
 30
0.0
 10
11.6060226345
 20
8.6061392459
 30
0.0
 10
11.6105866366
 20
8.5917896907
 30
0.0
 10
11.6159308948
 20
8.578170684
 30
0.0
 10
11.6200479506
 20
8.5694899137
 30
0.0
 10
11.6222261476
 20
8.5653049639
 30
0.0
  0
SPLINE
  5
298
100
AcDbEntity
  8
0
100
AcDbSpline
 62
7
  6
CONTINUOUS
 70
0
 71
3
 72
11
 73
7
 74
0
 42
0.0000001
 43
0.0000001
 44
0.0000000001
 40
0.0
 40
0.0
 40
0.0
 40
0.0
 40
0.260999511
 40
0.5134620779
 40
0.7591157818
 40
1.0
 40
1.0
 40
1.0
 40
1.0
 10
12.1174810622
 20
8.9916607507
 30
0.0
 10
12.1193311902
 20
8.9934478371
 30
0.0
 10
12.1231061314
 20
8.9968274356
 30
0.0
 10
12.1290825032
 20
9.0013430184
 30
0.0
 10
12.1352684217
 20
9.0052058219
 30
0.0
 10
12.1395636648
 20
9.0073568869
 30
0.0
 10
12.1417359351
 20
9.0083146451
 30
0.0
  0
SPLINE
  5
299
100
AcDbEntity
  8
0
100
AcDbSpline
 62
7
  6
CONTINUOUS
 70
0
 71
3
 72
26
 73
22
 74
0
 42
0.0000001
 43
0.0000001
 44
0.0000000001
 40
0.0
 40
0.0
 40
0.0
 40
0.0
 40
0.0639615039
 40
0.127692032
 40
0.1911876252
 40
0.2544537585
 40
0.2860047858
 40
0.3175004352
 40
0.3803243666
 40
0.4429416766
 40
0.5053652028
 40
0.5676100932
 40
0.6296936105
 40
0.6916349616
 40
0.722561842
 40
0.7534611635
 40
0.815182442
 40
0.8768285108
 40
0.9076340657
 40
0.9384300786
 40
1.0
 40
1.0
 40
1.0
 40
1.0
 10
8.818945649
 20
8.8670253284
 30
0.0
 10
8.8195185232
 20
8.8595725411
 30
0.0
 10
8.8202741515
 20
8.8446610502
 30
0.0
 10
8.8202291481
 20
8.822308247
 30
0.0
 10
8.8190037045
 20
8.800069978
 30
0.0
 10
8.8169997726
 20
8.7816681502
 30
0.0
 10
8.8148101412
 20
8.7670685062
 30
0.0
 10
8.8122363205
 20
8.7525841801
 30
0.0
 10
8.8082950153
 20
8.7346624193
 30
0.0
 10
8.8024143001
 20
8.713498991
 30
0.0
 10
8.7954025213
 20
8.6927539332
 30
0.0
 10
8.787279206
 20
8.6724854697
 30
0.0
 10
8.7780671728
 20
8.6527504837
 30
0.0
 10
8.7694994431
 20
8.6367857086
 30
0.0
 10
8.7621291253
 20
8.6243385868
 30
0.0
 10
8.7544260928
 20
8.6121249434
 30
0.0
 10
8.7441687138
 20
8.5972869409
 30
0.0
 10
8.7330975941
 20
8.5830596545
 30
0.0
 10
8.7237771446
 20
8.5720764377
 30
0.0
 10
8.7141560847
 20
8.5613680656
 30
0.0
 10
8.7066024268
 20
8.5536465748
 30
0.0
 10
8.7014271896
 20
8.5486476724
 30
0.0
  0
SPLINE
  5
29A
100
AcDbEntity
  8
0
100
AcDbSpline
 62
7
  6
CONTINUOUS
 70
0
 71
3
 72
48
 73
44
 74
0
 42
0.0000001
 43
0.0000001
 44
0.0000000001
 40
0.0
 40
0.0
 40
0.0
 40
0.0
 40
0.0378126882
 40
0.0760192244
 40
0.1145316533
 40
0.1532646684
 40
0.192130348
 40
0.2310410943
 40
0.2699090056
 40
0.308646322
 40
0.3471656717
 40
0.3853802996
 40
0.4232043291
 40
0.4605530172
 40
0.4973430216
 40
0.5334926543
 40
0.5689221418
 40
0.6035538949
 40
0.6373127924
 40
0.6701264944
 40
0.7019257413
 40
0.7326446802
 40
0.7622212296
 40
0.7905974914
 40
0.8177202481
 40
0.8307966625
 40
0.8435421432
 40
0.8559516828
 40
0.8680205675
 40
0.8797446449
 40
0.8911201969
 40
0.9021440081
 40
0.9128135267
 40
0.9231267006
 40
0.9330823085
 40
0.9426798206
 40
0.9519195346
 40
0.9608027361
 40
0.969331691
 40
0.9775101852
 40
0.9853433287
 40
0.9928373926
 40
1.0
 40
1.0
 40
1.0
 40
1.0
 10
14.6885729669
 20
7.1495744415
 30
0.0
 10
14.6885729669
 20
7.13863585
 30
0.0
 10
14.6884275702
 20
7.1166444798
 30
0.0
 10
14.6877831767
 20
7.083517769
 30
0.0
 10
14.6867126281
 20
7.0501356785
 30
0.0
 10
14.6852185821
 20
7.0165790214
 30
0.0
 10
14.6833045587
 20
6.9829282884
 30
0.0
 10
14.6809751847
 20
6.9492646412
 30
0.0
 10
14.6782360622
 20
6.9156691079
 30
0.0
 10
14.6750937993
 20
6.8822225941
 30
0.0
 10
14.6715559752
 20
6.8490056375
 30
0.0
 10
14.6676311239
 20
6.8160982205
 30
0.0
 10
14.663328714
 20
6.7835795804
 30
0.0
 10
14.6586591316
 20
6.7515280116
 30
0.0
 10
14.6536336623
 20
6.7200206735
 30
0.0
 10
14.6482644504
 20
6.6891334056
 30
0.0
 10
14.6425644732
 20
6.6589405473
 30
0.0
 10
14.6365475095
 20
6.6295147572
 30
0.0
 10
14.6302281059
 20
6.6009268301
 30
0.0
 10
14.6236215585
 20
6.573245517
 30
0.0
 10
14.6167438599
 20
6.5465373521
 30
0.0
 10
14.6096116616
 20
6.5208665126
 30
0.0
 10
14.602242235
 20
6.4962945868
 30
0.0
 10
14.5946534202
 20
6.472880658
 30
0.0
 10
14.5880844531
 20
6.4541596012
 30
0.0
 10
14.5827242988
 20
6.4398117135
 30
0.0
 10
14.5787097621
 20
6.4295059074
 30
0.0
 10
14.5746543204
 20
6.4195300538
 30
0.0
 10
14.570560316
 20
6.4098901489
 30
0.0
 10
14.5664302715
 20
6.4005919655
 30
0.0
 10
14.5622666655
 20
6.3916410759
 30
0.0
 10
14.5580719588
 20
6.3830428572
 30
0.0
 10
14.5538487535
 20
6.3748024276
 30
0.0
 10
14.5495994919
 20
6.3669247406
 30
0.0
 10
14.5453267825
 20
6.3594144667
 30
0.0
 10
14.5410331464
 20
6.3522760849
 30
0.0
 10
14.5367211155
 20
6.3455138668
 30
0.0
 10
14.532393349
 20
6.3391317961
 30
0.0
 10
14.5280522788
 20
6.3331336765
 30
0.0
 10
14.5237004626
 20
6.3275229529
 30
0.0
 10
14.5193402887
 20
6.3223029132
 30
0.0
 10
14.5149745663
 20
6.3174769368
 30
0.0
 10
14.5119959243
 20
6.3144570978
 30
0.0
 10
14.5105056108
 20
6.3130175654
 30
0.0
  0
SPLINE
  5
29B
100
AcDbEntity
  8
0
100
AcDbSpline
 62
7
  6
CONTINUOUS
 70
0
 71
3
 72
45
 73
41
 74
0
 42
0.0000001
 43
0.0000001
 44
0.0000000001
 40
0.0
 40
0.0
 40
0.0
 40
0.0
 40
0.0149721376
 40
0.029947335
 40
0.0449286308
 40
0.0599190311
 40
0.07492148
 40
0.0899388563
 40
0.1049739388
 40
0.1200294105
 40
0.135107819
 40
0.1502115883
 40
0.1653429761
 40
0.1805040925
 40
0.2109173721
 40
0.2414702792
 40
0.2721727287
 40
0.303031231
 40
0.3340487973
 40
0.3652249252
 40
0.3965556633
 40
0.4280337467
 40
0.4596487971
 40
0.4913875803
 40
0.5232343133
 40
0.5551710123
 40
0.5871778763
 40
0.6192336972
 40
0.6513162903
 40
0.6834029386
 40
0.7154708446
 40
0.7474975834
 40
0.7794615495
 40
0.8113423946
 40
0.8431214429
 40
0.874782092
 40
0.9063101524
 40
0.9376942352
 40
0.9689258576
 40
1.0
 40
1.0
 40
1.0
 40
1.0
 10
12.0656076252
 20
6.3250725092
 30
0.0
 10
12.0679386955
 20
6.3273241494
 30
0.0
 10
12.0726913529
 20
6.3317357386
 30
0.0
 10
12.0800785339
 20
6.3380652164
 30
0.0
 10
12.0877143703
 20
6.3440990129
 30
0.0
 10
12.0955883573
 20
6.3498284949
 30
0.0
 10
12.1036895555
 20
6.355246012
 30
0.0
 10
12.1120069351
 20
6.3603439047
 30
0.0
 10
12.1205289314
 20
6.3651153629
 30
0.0
 10
12.1292439214
 20
6.3695536247
 30
0.0
 10
12.1381398247
 20
6.3736527886
 30
0.0
 10
12.147204438
 20
6.3774070149
 30
0.0
 10
12.1564253939
 20
6.3808113692
 30
0.0
 10
12.1689228019
 20
6.3848813061
 30
0.0
 10
12.1848788259
 20
6.3890704166
 30
0.0
 10
12.2044197145
 20
6.3926269302
 30
0.0
 10
12.2242703417
 20
6.3947002358
 30
0.0
 10
12.2443207308
 20
6.395278907
 30
0.0
 10
12.2644608101
 20
6.3943600959
 30
0.0
 10
12.2845798168
 20
6.3919490838
 30
0.0
 10
12.3045672237
 20
6.3880593621
 30
0.0
 10
12.3243132521
 20
6.3827125162
 30
0.0
 10
12.34370949
 20
6.3759381092
 30
0.0
 10
12.3626494729
 20
6.3677735116
 30
0.0
 10
12.3810292615
 20
6.3582636949
 30
0.0
 10
12.3987480034
 20
6.3474609823
 30
0.0
 10
12.4157084797
 20
6.3354247629
 30
0.0
 10
12.4318176311
 20
6.3222211664
 30
0.0
 10
12.4469870631
 20
6.3079227032
 30
0.0
 10
12.4611335251
 20
6.2926078692
 30
0.0
 10
12.4741793627
 20
6.2763607194
 30
0.0
 10
12.4860529395
 20
6.2592704112
 30
0.0
 10
12.4966890277
 20
6.241430721
 30
0.0
 10
12.5060291615
 20
6.2229395325
 30
0.0
 10
12.5140219609
 20
6.2038983186
 30
0.0
 10
12.5206234032
 20
6.184411546
 30
0.0
 10
12.5257970873
 20
6.1645862776
 30
0.0
 10
12.5295143926
 20
6.1445309701
 30
0.0
 10
12.5317547149
 20
6.1243572235
 30
0.0
 10
12.5322565035
 20
6.110864995
 30
0.0
 10
12.5322565035
 20
6.1041385129
 30
0.0
  0
SPLINE
  5
29C
100
AcDbEntity
  8
0
100
AcDbSpline
 62
7
  6
CONTINUOUS
 70
0
 71
3
 72
45
 73
41
 74
0
 42
0.0000001
 43
0.0000001
 44
0.0000000001
 40
0.0
 40
0.0
 40
0.0
 40
0.0
 40
0.0149721376
 40
0.029947335
 40
0.0449286308
 40
0.0599190311
 40
0.07492148
 40
0.0899388563
 40
0.1049739388
 40
0.1200294105
 40
0.135107819
 40
0.1502115883
 40
0.1653429761
 40
0.1805040925
 40
0.2109173721
 40
0.2414702792
 40
0.2721727287
 40
0.303031231
 40
0.3340487973
 40
0.3652249252
 40
0.3965556633
 40
0.4280337467
 40
0.4596487971
 40
0.4913875803
 40
0.5232343133
 40
0.5551710123
 40
0.5871778763
 40
0.6192336972
 40
0.6513162903
 40
0.6834029386
 40
0.7154708446
 40
0.7474975834
 40
0.7794615495
 40
0.8113423946
 40
0.8431214429
 40
0.874782092
 40
0.9063101524
 40
0.9376942352
 40
0.9689258576
 40
1.0
 40
1.0
 40
1.0
 40
1.0
 10
7.9584909085
 20
6.6099020209
 30
0.0
 10
7.9608219788
 20
6.6121536611
 30
0.0
 10
7.9655746361
 20
6.6165652503
 30
0.0
 10
7.9729618172
 20
6.6228947281
 30
0.0
 10
7.9805976536
 20
6.6289285246
 30
0.0
 10
7.9884716406
 20
6.6346580066
 30
0.0
 10
7.9965728388
 20
6.6400755237
 30
0.0
 10
8.0048902184
 20
6.6451734165
 30
0.0
 10
8.0134122147
 20
6.6499448746
 30
0.0
 10
8.0221272047
 20
6.6543831364
 30
0.0
 10
8.0310231079
 20
6.6584823003
 30
0.0
 10
8.0400877213
 20
6.6622365266
 30
0.0
 10
8.0493086772
 20
6.665640881
 30
0.0
 10
8.0618060852
 20
6.6697108178
 30
0.0
 10
8.0777621092
 20
6.6738999283
 30
0.0
 10
8.0973029977
 20
6.6774564419
 30
0.0
 10
8.117153625
 20
6.6795297476
 30
0.0
 10
8.1372040141
 20
6.6801084187
 30
0.0
 10
8.1573440934
 20
6.6791896077
 30
0.0
 10
8.1774631001
 20
6.6767785955
 30
0.0
 10
8.197450507
 20
6.6728888738
 30
0.0
 10
8.2171965354
 20
6.667542028
 30
0.0
 10
8.2365927733
 20
6.6607676209
 30
0.0
 10
8.2555327562
 20
6.6526030234
 30
0.0
 10
8.2739125448
 20
6.6430932066
 30
0.0
 10
8.2916312867
 20
6.632290494
 30
0.0
 10
8.3085917629
 20
6.6202542746
 30
0.0
 10
8.3247009144
 20
6.6070506781
 30
0.0
 10
8.3398703464
 20
6.5927522149
 30
0.0
 10
8.3540168084
 20
6.5774373809
 30
0.0
 10
8.367062646
 20
6.5611902311
 30
0.0
 10
8.3789362228
 20
6.5440999229
 30
0.0
 10
8.389572311
 20
6.5262602327
 30
0.0
 10
8.3989124448
 20
6.5077690442
 30
0.0
 10
8.4069052442
 20
6.4887278303
 30
0.0
 10
8.4135066865
 20
6.4692410577
 30
0.0
 10
8.4186803706
 20
6.4494157893
 30
0.0
 10
8.4223976759
 20
6.4293604818
 30
0.0
 10
8.4246379982
 20
6.4091867353
 30
0.0
 10
8.4251397868
 20
6.3956945067
 30
0.0
 10
8.4251397868
 20
6.3889680246
 30
0.0
  0
SPLINE
  5
29D
100
AcDbEntity
  8
0
100
AcDbSpline
 62
7
  6
CONTINUOUS
 70
0
 71
3
 72
45
 73
41
 74
0
 42
0.0000001
 43
0.0000001
 44
0.0000000001
 40
0.0
 40
0.0
 40
0.0
 40
0.0
 40
0.0149721376
 40
0.029947335
 40
0.0449286308
 40
0.0599190311
 40
0.07492148
 40
0.0899388563
 40
0.1049739388
 40
0.1200294105
 40
0.135107819
 40
0.1502115883
 40
0.1653429761
 40
0.1805040925
 40
0.2109173721
 40
0.2414702792
 40
0.2721727287
 40
0.303031231
 40
0.3340487973
 40
0.3652249252
 40
0.3965556633
 40
0.4280337467
 40
0.4596487971
 40
0.4913875803
 40
0.5232343133
 40
0.5551710123
 40
0.5871778763
 40
0.6192336972
 40
0.6513162903
 40
0.6834029386
 40
0.7154708446
 40
0.7474975834
 40
0.7794615495
 40
0.8113423946
 40
0.8431214429
 40
0.874782092
 40
0.9063101524
 40
0.9376942352
 40
0.9689258576
 40
1.0
 40
1.0
 40
1.0
 40
1.0
 10
7.9584909085
 20
10.1084854932
 30
0.0
 10
7.9608219788
 20
10.1107371334
 30
0.0
 10
7.9655746361
 20
10.1151487226
 30
0.0
 10
7.9729618172
 20
10.1214782004
 30
0.0
 10
7.9805976536
 20
10.1275119969
 30
0.0
 10
7.9884716406
 20
10.1332414789
 30
0.0
 10
7.9965728388
 20
10.138658996
 30
0.0
 10
8.0048902184
 20
10.1437568887
 30
0.0
 10
8.0134122147
 20
10.1485283469
 30
0.0
 10
8.0221272047
 20
10.1529666087
 30
0.0
 10
8.0310231079
 20
10.1570657726
 30
0.0
 10
8.0400877213
 20
10.1608199989
 30
0.0
 10
8.0493086772
 20
10.1642243532
 30
0.0
 10
8.0618060852
 20
10.1682942901
 30
0.0
 10
8.0777621092
 20
10.1724834006
 30
0.0
 10
8.0973029977
 20
10.1760399141
 30
0.0
 10
8.117153625
 20
10.1781132198
 30
0.0
 10
8.1372040141
 20
10.178691891
 30
0.0
 10
8.1573440934
 20
10.1777730799
 30
0.0
 10
8.1774631001
 20
10.1753620678
 30
0.0
 10
8.197450507
 20
10.1714723461
 30
0.0
 10
8.2171965354
 20
10.1661255002
 30
0.0
 10
8.2365927733
 20
10.1593510932
 30
0.0
 10
8.2555327562
 20
10.1511864956
 30
0.0
 10
8.2739125448
 20
10.1416766789
 30
0.0
 10
8.2916312867
 20
10.1308739663
 30
0.0
 10
8.3085917629
 20
10.1188377469
 30
0.0
 10
8.3247009144
 20
10.1056341504
 30
0.0
 10
8.3398703464
 20
10.0913356872
 30
0.0
 10
8.3540168084
 20
10.0760208532
 30
0.0
 10
8.367062646
 20
10.0597737034
 30
0.0
 10
8.3789362228
 20
10.0426833952
 30
0.0
 10
8.389572311
 20
10.024843705
 30
0.0
 10
8.3989124448
 20
10.0063525165
 30
0.0
 10
8.4069052442
 20
9.9873113026
 30
0.0
 10
8.4135066865
 20
9.96782453
 30
0.0
 10
8.4186803706
 20
9.9479992616
 30
0.0
 10
8.4223976759
 20
9.9279439541
 30
0.0
 10
8.4246379982
 20
9.9077702075
 30
0.0
 10
8.4251397868
 20
9.894277979
 30
0.0
 10
8.4251397868
 20
9.8875514969
 30
0.0
  0
SPLINE
  5
29E
100
AcDbEntity
  8
0
100
AcDbSpline
 62
7
  6
CONTINUOUS
 70
0
 71
3
 72
45
 73
41
 74
0
 42
0.0000001
 43
0.0000001
 44
0.0000000001
 40
0.0
 40
0.0
 40
0.0
 40
0.0
 40
0.0149721376
 40
0.029947335
 40
0.0449286308
 40
0.0599190311
 40
0.07492148
 40
0.0899388563
 40
0.1049739388
 40
0.1200294105
 40
0.135107819
 40
0.1502115883
 40
0.1653429761
 40
0.1805040925
 40
0.2109173721
 40
0.2414702792
 40
0.2721727287
 40
0.303031231
 40
0.3340487973
 40
0.3652249252
 40
0.3965556633
 40
0.4280337467
 40
0.4596487971
 40
0.4913875803
 40
0.5232343133
 40
0.5551710123
 40
0.5871778763
 40
0.6192336972
 40
0.6513162903
 40
0.6834029386
 40
0.7154708446
 40
0.7474975834
 40
0.7794615495
 40
0.8113423946
 40
0.8431214429
 40
0.874782092
 40
0.9063101524
 40
0.9376942352
 40
0.9689258576
 40
1.0
 40
1.0
 40
1.0
 40
1.0
 10
12.0656076252
 20
9.8236559815
 30
0.0
 10
12.0679386955
 20
9.8259076216
 30
0.0
 10
12.0726913529
 20
9.8303192109
 30
0.0
 10
12.0800785339
 20
9.8366486887
 30
0.0
 10
12.0877143703
 20
9.8426824852
 30
0.0
 10
12.0955883573
 20
9.8484119671
 30
0.0
 10
12.1036895555
 20
9.8538294842
 30
0.0
 10
12.1120069351
 20
9.858927377
 30
0.0
 10
12.1205289314
 20
9.8636988352
 30
0.0
 10
12.1292439214
 20
9.868137097
 30
0.0
 10
12.1381398247
 20
9.8722362609
 30
0.0
 10
12.147204438
 20
9.8759904872
 30
0.0
 10
12.1564253939
 20
9.8793948415
 30
0.0
 10
12.1689228019
 20
9.8834647784
 30
0.0
 10
12.1848788259
 20
9.8876538889
 30
0.0
 10
12.2044197145
 20
9.8912104024
 30
0.0
 10
12.2242703417
 20
9.8932837081
 30
0.0
 10
12.2443207308
 20
9.8938623792
 30
0.0
 10
12.2644608101
 20
9.8929435682
 30
0.0
 10
12.2845798168
 20
9.8905325561
 30
0.0
 10
12.3045672237
 20
9.8866428344
 30
0.0
 10
12.3243132521
 20
9.8812959885
 30
0.0
 10
12.34370949
 20
9.8745215815
 30
0.0
 10
12.3626494729
 20
9.8663569839
 30
0.0
 10
12.3810292615
 20
9.8568471671
 30
0.0
 10
12.3987480034
 20
9.8460444546
 30
0.0
 10
12.4157084797
 20
9.8340082352
 30
0.0
 10
12.4318176311
 20
9.8208046387
 30
0.0
 10
12.4469870631
 20
9.8065061755
 30
0.0
 10
12.4611335251
 20
9.7911913414
 30
0.0
 10
12.4741793627
 20
9.7749441917
 30
0.0
 10
12.4860529395
 20
9.7578538834
 30
0.0
 10
12.4966890277
 20
9.7400141933
 30
0.0
 10
12.5060291615
 20
9.7215230048
 30
0.0
 10
12.5140219609
 20
9.7024817908
 30
0.0
 10
12.5206234032
 20
9.6829950183
 30
0.0
 10
12.5257970873
 20
9.6631697498
 30
0.0
 10
12.5295143926
 20
9.6431144424
 30
0.0
 10
12.5317547149
 20
9.6229406958
 30
0.0
 10
12.5322565035
 20
9.6094484673
 30
0.0
 10
12.5322565035
 20
9.6027219852
 30
0.0
  0
SPLINE
  5
29F
100
AcDbEntity
  8
0
100
AcDbSpline
 62
7
  6
CONTINUOUS
 70
0
 71
3
 72
25
 73
21
 74
0
 42
0.0000001
 43
0.0000001
 44
0.0000000001
 40
0.0
 40
0.0
 40
0.0
 40
0.0
 40
0.0664905478
 40
0.0995750646
 40
0.1325455697
 40
0.1981258859
 40
0.263211206
 40
0.3277810063
 40
0.3918183537
 40
0.455309174
 40
0.5182414318
 40
0.5806042486
 40
0.6423869583
 40
0.703577892
 40
0.7339501644
 40
0.7641690181
 40
0.8241310947
 40
0.8834454025
 40
0.942083781
 40
1.0
 40
1.0
 40
1.0
 40
1.0
 10
12.3268321319
 20
8.3025201597
 30
0.0
 10
12.3315142836
 20
8.307042401
 30
0.0
 10
12.3383745475
 20
8.3139747638
 30
0.0
 10
12.3471745827
 20
8.3235124067
 30
0.0
 10
12.355688947
 20
8.3331877646
 30
0.0
 10
12.3658406556
 20
8.3455894102
 30
0.0
 10
12.3772175193
 20
8.3609578575
 30
0.0
 10
12.3877329966
 20
8.3767474049
 30
0.0
 10
12.3973554981
 20
8.3929152958
 30
0.0
 10
12.4060571769
 20
8.4094160719
 30
0.0
 10
12.4138138223
 20
8.426201359
 30
0.0
 10
12.420605094
 20
8.443220255
 30
0.0
 10
12.426414336
 20
8.4604189103
 30
0.0
 10
12.4304367561
 20
8.474891235
 30
0.0
 10
12.433149293
 20
8.4865024886
 30
0.0
 10
12.4355138568
 20
8.4980667689
 30
0.0
 10
12.4378442795
 20
8.5125241857
 30
0.0
 10
12.439640021
 20
8.5298587343
 30
0.0
 10
12.4404317062
 20
8.5470673097
 30
0.0
 10
12.440295133
 20
8.5584849231
 30
0.0
 10
12.4400598357
 20
8.5641500768
 30
0.0
  0
SPLINE
  5
2A0
100
AcDbEntity
  8
0
100
AcDbSpline
 62
7
  6
CONTINUOUS
 70
0
 71
3
 72
60
 73
56
 74
0
 42
0.0000001
 43
0.0000001
 44
0.0000000001
 40
0.0
 40
0.0
 40
0.0
 40
0.0
 40
0.0209601765
 40
0.0418502838
 40
0.0626669529
 40
0.0834072071
 40
0.1040683033
 40
0.1246476394
 40
0.1451425766
 40
0.16555038
 40
0.1858680905
 40
0.2060923857
 40
0.2262196148
 40
0.2462456664
 40
0.2661659404
 40
0.2859753412
 40
0.305668218
 40
0.3252384641
 40
0.3446794488
 40
0.3639841071
 40
0.3831449636
 40
0.4021541798
 40
0.4210037604
 40
0.4396853892
 40
0.4581907854
 40
0.4765116179
 40
0.5125587551
 40
0.5477718663
 40
0.5820923783
 40
0.6154679661
 40
0.6317898908
 40
0.6478587132
 40
0.6636700922
 40
0.6792193945
 40
0.7095124528
 40
0.7387150284
 40
0.7529017565
 40
0.7668071252
 40
0.793761107
 40
0.8195638347
 40
0.8442018814
 40
0.8560825499
 40
0.867668858
 40
0.8789606846
 40
0.8899578324
 40
0.9006612079
 40
0.9110718675
 40
0.931020423
 40
0.9405676812
 40
0.9498352211
 40
0.9588288671
 40
0.967555786
 40
0.9760253407
 40
0.984248112
 40
1.0
 40
1.0
 40
1.0
 40
1.0
 10
12.4391897568
 20
8.5284347586
 30
0.0
 10
12.4342248684
 20
8.5277757998
 30
0.0
 10
12.4242843964
 20
8.526656773
 30
0.0
 10
12.4093449428
 20
8.5255809754
 30
0.0
 10
12.3944263098
 20
8.5251150961
 30
0.0
 10
12.3795558522
 20
8.5252616091
 30
0.0
 10
12.3647607868
 20
8.5260210555
 30
0.0
 10
12.3500686849
 20
8.5273925016
 30
0.0
 10
12.3355072388
 20
8.5293728449
 30
0.0
 10
12.3211042706
 20
8.5319573555
 30
0.0
 10
12.3068877008
 20
8.5351396213
 30
0.0
 10
12.2928853443
 20
8.538911029
 30
0.0
 10
12.2791249736
 20
8.5432614313
 30
0.0
 10
12.2656340992
 20
8.5481786398
 30
0.0
 10
12.25243977
 20
8.5536483148
 30
0.0
 10
12.2395686651
 20
8.5596545219
 30
0.0
 10
12.2270465743
 20
8.566178928
 30
0.0
 10
12.2148983922
 20
8.5732012984
 30
0.0
 10
12.203148011
 20
8.5806996396
 30
0.0
 10
12.1918176484
 20
8.5886495373
 30
0.0
 10
12.180928176
 20
8.5970251506
 30
0.0
 10
12.1704985081
 20
8.6057987367
 30
0.0
 10
12.1605452799
 20
8.6149408079
 30
0.0
 10
12.1510833128
 20
8.6244208921
 30
0.0
 10
12.1421242566
 20
8.6342071907
 30
0.0
 10
12.1309243353
 20
8.6475461444
 30
0.0
 10
12.1182100863
 20
8.6648007457
 30
0.0
 10
12.1049713231
 20
8.6863093882
 30
0.0
 10
12.0938100987
 20
8.7082496224
 30
0.0
 10
12.0861353329
 20
8.7268244152
 30
0.0
 10
12.0809785073
 20
8.7416722829
 30
0.0
 10
12.0776084243
 20
8.7526889705
 30
0.0
 10
12.0746927868
 20
8.7636434359
 30
0.0
 10
12.0714189047
 20
8.7780099
 30
0.0
 10
12.068357627
 20
8.7956943612
 30
0.0
 10
12.0665446476
 20
8.8132212113
 30
0.0
 10
12.0658192661
 20
8.8268946965
 30
0.0
 10
12.0655507195
 20
8.840047148
 30
0.0
 10
12.065986092
 20
8.8559818439
 30
0.0
 10
12.0676543831
 20
8.8744113695
 30
0.0
 10
12.0699184666
 20
8.8891406652
 30
0.0
 10
12.072200486
 20
8.9004081365
 30
0.0
 10
12.0741038496
 20
8.9084941764
 30
0.0
 10
12.0762074723
 20
8.9163119481
 30
0.0
 10
12.0784991252
 20
8.9238564293
 30
0.0
 10
12.0809682744
 20
8.9311228575
 30
0.0
 10
12.0844335346
 20
8.9403037804
 30
0.0
 10
12.0882510923
 20
8.9490523095
 30
0.0
 10
12.0924215987
 20
8.9573247308
 30
0.0
 10
12.0956371442
 20
8.9631416868
 30
0.0
 10
12.0989792641
 20
8.9686589363
 30
0.0
 10
12.1024419651
 20
8.9738739614
 30
0.0
 10
12.1060209193
 20
8.9787843266
 30
0.0
 10
12.1108709446
 20
8.9848343515
 30
0.0
 10
12.1147738539
 20
8.989045788
 30
0.0
 10
12.1174810622
 20
8.9916607507
 30
0.0
  0
SPLINE
  5
2A1
100
AcDbEntity
  8
0
100
AcDbSpline
 62
7
  6
CONTINUOUS
 70
0
 71
3
 72
47
 73
43
 74
0
 42
0.0000001
 43
0.0000001
 44
0.0000000001
 40
0.0
 40
0.0
 40
0.0
 40
0.0
 40
0.0149719684
 40
0.0299469977
 40
0.0449281259
 40
0.0599183572
 40
0.07492064
 40
0.0899378464
 40
0.1049727639
 40
0.1200280654
 40
0.1351063085
 40
0.1502099079
 40
0.1653411292
 40
0.1805020763
 40
0.1956946713
 40
0.2109206605
 40
0.2261815849
 40
0.2414787933
 40
0.2721809032
 40
0.3030390647
 40
0.3340562884
 40
0.3652320713
 40
0.3965624616
 40
0.4280401946
 40
0.4596548922
 40
0.4913933208
 40
0.5232396976
 40
0.5551760391
 40
0.5871825439
 40
0.619238004
 40
0.6513202352
 40
0.683406521
 40
0.7154740647
 40
0.7475004415
 40
0.7794640462
 40
0.81134453
 40
0.8431232178
 40
0.8747835096
 40
0.9063112006
 40
0.937694979
 40
0.9689260991
 40
1.0
 40
1.0
 40
1.0
 40
1.0
 10
9.1186431402
 20
8.2633560807
 30
0.0
 10
9.1222766247
 20
8.2668657414
 30
0.0
 10
9.1296847578
 20
8.273742061
 30
0.0
 10
9.1411992318
 20
8.2836079765
 30
0.0
 10
9.1531014604
 20
8.2930127952
 30
0.0
 10
9.1653747205
 20
8.3019435063
 30
0.0
 10
9.1780023058
 20
8.3103877084
 30
0.0
 10
9.1909667024
 20
8.3183339441
 30
0.0
 10
9.2042501621
 20
8.3257711444
 30
0.0
 10
9.217834348
 20
8.3326891698
 30
0.0
 10
9.2317005775
 20
8.3390784928
 30
0.0
 10
9.2458297915
 20
8.3449302685
 30
0.0
 10
9.2602024965
 20
8.3502365872
 30
0.0
 10
9.2747989742
 20
8.354989975
 30
0.0
 10
9.2895990956
 20
8.3591841058
 30
0.0
 10
9.3045824744
 20
8.3628130329
 30
0.0
 10
9.3197287441
 20
8.365871928
 30
0.0
 10
9.3401350696
 20
8.3691884336
 30
0.0
 10
9.3659542873
 20
8.3718852187
 30
0.0
 10
9.3972064816
 20
8.3727869939
 30
0.0
 10
9.4285993398
 20
8.3713547699
 30
0.0
 10
9.4599591102
 20
8.3675965902
 30
0.0
 10
9.4911138115
 20
8.3615335416
 30
0.0
 10
9.521892251
 20
8.3531992575
 30
0.0
 10
9.5521254686
 20
8.3426398212
 30
0.0
 10
9.5816475109
 20
8.3299134791
 30
0.0
 10
9.6102963659
 20
8.3150903238
 30
0.0
 10
9.6379148291
 20
8.2982519065
 30
0.0
 10
9.6643513673
 20
8.2794908052
 30
0.0
 10
9.6894609311
 20
8.2589101019
 30
0.0
 10
9.7131057416
 20
8.2366228213
 30
0.0
 10
9.7351560364
 20
8.2127513158
 30
0.0
 10
9.7554907741
 20
8.1874266013
 30
0.0
 10
9.7739982919
 20
8.1607876456
 30
0.0
 10
9.7905769109
 20
8.1329806154
 30
0.0
 10
9.8051354996
 20
8.1041580844
 30
0.0
 10
9.8175939798
 20
8.0744782236
 30
0.0
 10
9.8278837294
 20
8.0441038704
 30
0.0
 10
9.8359480377
 20
8.0132018887
 30
0.0
 10
9.8417422272
 20
7.9819413869
 30
0.0
 10
9.8452342938
 20
7.9504962407
 30
0.0
 10
9.8460164262
 20
7.9294656963
 30
0.0
 10
9.8460164262
 20
7.9189809821
 30
0.0
  0
SPLINE
  5
2A2
100
AcDbEntity
  8
0
100
AcDbSpline
 62
7
  6
CONTINUOUS
 70
0
 71
3
 72
37
 73
33
 74
0
 42
0.0000001
 43
0.0000001
 44
0.0000000001
 40
0.0
 40
0.0
 40
0.0
 40
0.0
 40
0.0303029849
 40
0.0606142996
 40
0.0909422071
 40
0.1212948272
 40
0.1516800833
 40
0.1821056345
 40
0.2125788032
 40
0.2431065322
 40
0.2736953282
 40
0.3043511983
 40
0.3350796222
 40
0.3658855104
 40
0.396773154
 40
0.4277462146
 40
0.4588076996
 40
0.4899599259
 40
0.5212045305
 40
0.55254246
 40
0.5839739513
 40
0.6154985598
 40
0.6471151621
 40
0.6788219543
 40
0.7106164918
 40
0.7424957065
 40
0.7744559284
 40
0.8064928973
 40
0.8386018342
 40
0.8707776001
 40
0.9352918987
 40
1.0
 40
1.0
 40
1.0
 40
1.0
 10
8.0928300602
 20
9.1787155424
 30
0.0
 10
8.0970452151
 20
9.1827870507
 30
0.0
 10
8.1056658714
 20
9.1907379098
 30
0.0
 10
8.1191347067
 20
9.2020572468
 30
0.0
 10
8.1331184581
 20
9.2127503655
 30
0.0
 10
8.1475908345
 20
9.2227971479
 30
0.0
 10
8.16252508
 20
9.232179144
 30
0.0
 10
8.1778935528
 20
9.2408788783
 30
0.0
 10
8.1936677667
 20
9.2488802811
 30
0.0
 10
8.209818469
 20
9.2561686098
 30
0.0
 10
8.2263157839
 20
9.2627302909
 30
0.0
 10
8.2431291326
 20
9.2685532291
 30
0.0
 10
8.2602273577
 20
9.2736267224
 30
0.0
 10
8.2775788232
 20
9.2779412995
 30
0.0
 10
8.2951513806
 20
9.2814890443
 30
0.0
 10
8.3129124864
 20
9.2842634669
 30
0.0
 10
8.3308292735
 20
9.286259353
 30
0.0
 10
8.3488685633
 20
9.2874730926
 30
0.0
 10
8.3669969668
 20
9.2879025107
 30
0.0
 10
8.3851809336
 20
9.2875467333
 30
0.0
 10
8.4033868092
 20
9.2864065114
 30
0.0
 10
8.4215809118
 20
9.2844840165
 30
0.0
 10
8.4397295654
 20
9.2817827261
 30
0.0
 10
8.4577991993
 20
9.2783077351
 30
0.0
 10
8.4757563963
 20
9.2740655218
 30
0.0
 10
8.4935679096
 20
9.2690638588
 30
0.0
 10
8.5112008272
 20
9.2633120817
 30
0.0
 10
8.5286224683
 20
9.2568209162
 30
0.0
 10
8.5458008796
 20
9.2496021285
 30
0.0
 10
8.5683555437
 20
9.2390170819
 30
0.0
 10
8.5957787737
 20
9.224033952
 30
0.0
 10
8.6166933793
 20
9.2102973423
 30
0.0
 10
8.6268682226
 20
9.2030118886
 30
0.0
  0
SPLINE
  5
2A3
100
AcDbEntity
  8
0
100
AcDbSpline
 62
7
  6
CONTINUOUS
 70
0
 71
3
 72
21
 73
17
 74
0
 42
0.0000001
 43
0.0000001
 44
0.0000000001
 40
0.0
 40
0.0
 40
0.0
 40
0.0
 40
0.0544271769
 40
0.1090711423
 40
0.1641460005
 40
0.2198602711
 40
0.2764147232
 40
0.3340007126
 40
0.4529311233
 40
0.5146428127
 40
0.5780318937
 40
0.6432279731
 40
0.7103481044
 40
0.7794980642
 40
0.8507728294
 40
1.0
 40
1.0
 40
1.0
 40
1.0
 10
14.5025062539
 20
10.8691898068
 30
0.0
 10
14.503524451
 20
10.8691191939
 30
0.0
 10
14.5055608955
 20
10.8689108992
 30
0.0
 10
14.5085981954
 20
10.8683986856
 30
0.0
 10
14.5116198333
 20
10.8676865839
 30
0.0
 10
14.5146247026
 20
10.8667749867
 30
0.0
 10
14.5176120874
 20
10.8656641881
 30
0.0
 10
14.5216129151
 20
10.8638995677
 30
0.0
 10
14.5255382352
 20
10.861744413
 30
0.0
 10
14.5293688517
 20
10.859238559
 30
0.0
 10
14.532256308
 20
10.857139064
 30
0.0
 10
14.5351213683
 20
10.8548436395
 30
0.0
 10
14.5379635549
 20
10.8523528874
 30
0.0
 10
14.5407821689
 20
10.8496674603
 30
0.0
 10
14.5445655784
 20
10.8457687449
 30
0.0
 10
14.5472773479
 20
10.8426412817
 30
0.0
 10
14.5490430413
 20
10.840470285
 30
0.0
  0
SPLINE
  5
2A4
100
AcDbEntity
  8
0
100
AcDbSpline
 62
7
  6
CONTINUOUS
 70
0
 71
3
 72
35
 73
31
 74
0
 42
0.0000001
 43
0.0000001
 44
0.0000000001
 40
0.0
 40
0.0
 40
0.0
 40
0.0
 40
0.0162144409
 40
0.0334275327
 40
0.0516719875
 40
0.0709711135
 40
0.091340711
 40
0.1127898042
 40
0.1353221518
 40
0.1589364893
 40
0.1836276936
 40
0.2093868207
 40
0.236201926
 40
0.264058106
 40
0.2929379774
 40
0.3228218401
 40
0.3536878396
 40
0.3855122911
 40
0.4182695809
 40
0.4519326284
 40
0.4864726132
 40
0.521859505
 40
0.5580617218
 40
0.5950466408
 40
0.6327803091
 40
0.6712278106
 40
0.7501182067
 40
0.831420351
 40
0.9148216555
 40
1.0
 40
1.0
 40
1.0
 40
1.0
 10
14.6007945342
 20
10.7768391208
 30
0.0
 10
14.6025067053
 20
10.7747339019
 30
0.0
 10
14.6058923381
 20
10.7702751856
 30
0.0
 10
14.6107207142
 20
10.7630964226
 30
0.0
 10
14.6154428825
 20
10.755238754
 30
0.0
 10
14.62005412
 20
10.7467105615
 30
0.0
 10
14.6245498308
 20
10.7375203193
 30
0.0
 10
14.6289255867
 20
10.7276774877
 30
0.0
 10
14.6331767679
 20
10.7171921263
 30
0.0
 10
14.6372990921
 20
10.7060750959
 30
0.0
 10
14.6412881405
 20
10.6943379019
 30
0.0
 10
14.6451398148
 20
10.6819927743
 30
0.0
 10
14.6488499893
 20
10.6690525857
 30
0.0
 10
14.6524147857
 20
10.6555308719
 30
0.0
 10
14.6558304176
 20
10.641441794
 30
0.0
 10
14.6590932574
 20
10.6268001277
 30
0.0
 10
14.6621998804
 20
10.6116212445
 30
0.0
 10
14.6651469399
 20
10.5959210914
 30
0.0
 10
14.6679313796
 20
10.5797161729
 30
0.0
 10
14.6705501657
 20
10.5630235355
 30
0.0
 10
14.6730006081
 20
10.5458607395
 30
0.0
 10
14.6752800179
 20
10.5282458552
 30
0.0
 10
14.6773860647
 20
10.510197421
 30
0.0
 10
14.6793164321
 20
10.4917344526
 30
0.0
 10
14.6810691578
 20
10.472876369
 30
0.0
 10
14.6831847557
 20
10.4470102534
 30
0.0
 10
14.6853603769
 20
10.4138354472
 30
0.0
 10
14.6872159582
 20
10.3731084819
 30
0.0
 10
14.6883300587
 20
10.3313019908
 30
0.0
 10
14.6885729669
 20
10.3030886107
 30
0.0
 10
14.6885729669
 20
10.288833563
 30
0.0
  0
SPLINE
  5
2A5
100
AcDbEntity
  8
0
100
AcDbSpline
 62
7
  6
CONTINUOUS
 70
0
 71
3
 72
21
 73
17
 74
0
 42
0.0000001
 43
0.0000001
 44
0.0000000001
 40
0.0
 40
0.0
 40
0.0
 40
0.0
 40
0.149226784
 40
0.2205052919
 40
0.2896570525
 40
0.3567768666
 40
0.4219716229
 40
0.485359442
 40
0.5470704577
 40
0.6660006152
 40
0.7235865793
 40
0.7801408245
 40
0.8358548012
 40
0.8909293648
 40
0.9455730638
 40
1.0
 40
1.0
 40
1.0
 40
1.0
 10
13.8503966615
 20
5.6775461334
 30
0.0
 10
13.8483481925
 20
5.6756396615
 30
0.0
 10
13.845230613
 20
5.6729164406
 30
0.0
 10
13.8409452005
 20
5.6695772103
 30
0.0
 10
13.8377828114
 20
5.667306491
 30
0.0
 10
13.8346240087
 20
5.6652319155
 30
0.0
 10
13.8314695561
 20
5.6633539979
 30
0.0
 10
13.8283199795
 20
5.66167322
 30
0.0
 10
13.824180163
 20
5.6597201522
 30
0.0
 10
13.8199949436
 20
5.6581274817
 30
0.0
 10
13.815788846
 20
5.656932001
 30
0.0
 10
13.8126767361
 20
5.6562442121
 30
0.0
 10
13.8095748112
 20
5.6557561363
 30
0.0
 10
13.8064838188
 20
5.6554679529
 30
0.0
 10
13.8034049053
 20
5.6553798958
 30
0.0
 10
13.8013592125
 20
5.6554547026
 30
0.0
 10
13.8003410198
 20
5.6555253152
 30
0.0
  0
SPLINE
  5
2A6
100
AcDbEntity
  8
0
100
AcDbSpline
 62
7
  6
CONTINUOUS
 70
0
 71
3
 72
96
 73
92
 74
0
 42
0.0000001
 43
0.0000001
 44
0.0000000001
 40
0.0
 40
0.0
 40
0.0
 40
0.0
 40
0.0027164098
 40
0.005453196
 40
0.0082302447
 40
0.011066522
 40
0.0139797077
 40
0.0169860006
 40
0.0200999433
 40
0.0233344386
 40
0.0267007761
 40
0.030208701
 40
0.0338665986
 40
0.0376815378
 40
0.0416594868
 40
0.0458053919
 40
0.0501232867
 40
0.0546164575
 40
0.0592874351
 40
0.0641381797
 40
0.0691700761
 40
0.0743840124
 40
0.0797804753
 40
0.085359501
 40
0.0911208246
 40
0.0970638216
 40
0.1031875788
 40
0.1094909395
 40
0.1159724488
 40
0.1226304778
 40
0.1294631407
 40
0.1364683707
 40
0.1436439297
 40
0.1509873654
 40
0.1661671594
 40
0.1819854932
 40
0.1984176087
 40
0.2154367517
 40
0.2330143585
 40
0.251120216
 40
0.2697226026
 40
0.2887884308
 40
0.3082833745
 40
0.3281719854
 40
0.3484178035
 40
0.3689834605
 40
0.3898307889
 40
0.4109209281
 40
0.4322144251
 40
0.4536713332
 40
0.4752513091
 40
0.4969137129
 40
0.5186177088
 40
0.5403223621
 40
0.5619867363
 40
0.5835699892
 40
0.6050314742
 40
0.6263308386
 40
0.6474281213
 40
0.6682838504
 40
0.6888591421
 40
0.7091158066
 40
0.7290164528
 40
0.7485245891
 40
0.7676047308
 40
0.7862225103
 40
0.8043447981
 40
0.8219398341
 40
0.8389773554
 40
0.8554287397
 40
0.8712671681
 40
0.8864678116
 40
0.9010080585
 40
0.9080242996
 40
0.9148680958
 40
0.9215373949
 40
0.9280302874
 40
0.9343451215
 40
0.9404804543
 40
0.9464350763
 40
0.9522080867
 40
0.9577988219
 40
0.9632069984
 40
0.968432657
 40
0.9734762172
 40
0.9783385478
 40
0.9830209658
 40
0.9875254698
 40
0.9918546527
 40
0.9960116074
 40
1.0
 40
1.0
 40
1.0
 40
1.0
 10
14.1517431572
 20
7.2785266123
 30
0.0
 10
14.1501362076
 20
7.2786380603
 30
0.0
 10
14.1469184875
 20
7.2790072787
 30
0.0
 10
14.1421328708
 20
7.279995183
 30
0.0
 10
14.137383417
 20
7.281417052
 30
0.0
 10
14.1326735346
 20
7.2832715534
 30
0.0
 10
14.128005607
 20
7.2855569307
 30
0.0
 10
14.1233820936
 20
7.2882715249
 30
0.0
 10
14.1188050662
 20
7.2914132974
 30
0.0
 10
14.1142765833
 20
7.2949803043
 30
0.0
 10
14.1097986281
 20
7.2989704801
 30
0.0
 10
14.1053730559
 20
7.3033815771
 30
0.0
 10
14.101001903
 20
7.3082113853
 30
0.0
 10
14.09668701
 20
7.3134573729
 30
0.0
 10
14.0924303908
 20
7.3191169732
 30
0.0
 10
14.0882340093
 20
7.3251873819
 30
0.0
 10
14.0840997798
 20
7.3316655834
 30
0.0
 10
14.0800297679
 20
7.3385484369
 30
0.0
 10
14.0760258358
 20
7.3458325033
 30
0.0
 10
14.072090007
 20
7.3535142201
 30
0.0
 10
14.0682241904
 20
7.3615897748
 30
0.0
 10
14.0644302642
 20
7.3700551564
 30
0.0
 10
14.0607101864
 20
7.3789061812
 30
0.0
 10
14.0570657204
 20
7.3881384191
 30
0.0
 10
14.0534987634
 20
7.3977472877
 30
0.0
 10
14.0500110644
 20
7.40772798
 30
0.0
 10
14.0466043631
 20
7.4180755082
 30
0.0
 10
14.0432804249
 20
7.4287847045
 30
0.0
 10
14.0400408456
 20
7.4398501959
 30
0.0
 10
14.0368873298
 20
7.4512664484
 30
0.0
 10
14.0338214174
 20
7.4630277327
 30
0.0
 10
14.0308446658
 20
7.4751281484
 30
0.0
 10
14.0279585882
 20
7.4875616386
 30
0.0
 10
14.0241916929
 20
7.5047656071
 30
0.0
 10
14.0197317589
 20
7.5270623877
 30
0.0
 10
14.0148208624
 20
7.5547581252
 30
0.0
 10
14.0103037274
 20
7.5836251981
 30
0.0
 10
14.0061895215
 20
7.6136055976
 30
0.0
 10
14.0024866304
 20
7.6446392158
 30
0.0
 10
13.9992025953
 20
7.6766637413
 30
0.0
 10
13.9963440965
 20
7.7096148531
 30
0.0
 10
13.9939169514
 20
7.7434263418
 30
0.0
 10
13.9919261042
 20
7.7780302569
 30
0.0
 10
13.9903756155
 20
7.813357045
 30
0.0
 10
13.9892686573
 20
7.8493356875
 30
0.0
 10
13.9886074953
 20
7.8858938432
 30
0.0
 10
13.988393489
 20
7.9229579971
 30
0.0
 10
13.9886270972
 20
7.9604536135
 30
0.0
 10
13.9893078748
 20
7.9983052871
 30
0.0
 10
13.9904344761
 20
8.0364368931
 30
0.0
 10
13.9920046528
 20
8.0747717395
 30
0.0
 10
13.994015251
 20
8.1132327236
 30
0.0
 10
13.9964622312
 20
8.1517424889
 30
0.0
 10
13.9993406739
 20
8.1902235811
 30
0.0
 10
14.00264479
 20
8.2285986034
 30
0.0
 10
14.0063679338
 20
8.2667903714
 30
0.0
 10
14.0105026026
 20
8.3047220724
 30
0.0
 10
14.0150404631
 20
8.3423174206
 30
0.0
 10
14.0199723697
 20
8.3795008091
 30
0.0
 10
14.0252883813
 20
8.4161974614
 30
0.0
 10
14.0309777838
 20
8.4523335821
 30
0.0
 10
14.0370291023
 20
8.4878365116
 30
0.0
 10
14.0434301235
 20
8.5226348749
 30
0.0
 10
14.0501679295
 20
8.5566587228
 30
0.0
 10
14.0572289208
 20
8.5898396714
 30
0.0
 10
14.064598844
 20
8.6221110413
 30
0.0
 10
14.0722628202
 20
8.653408001
 30
0.0
 10
14.0802053618
 20
8.683667705
 30
0.0
 10
14.0884104192
 20
8.7128294266
 30
0.0
 10
14.0968614106
 20
8.7408346593
 30
0.0
 10
14.105541259
 20
8.7676273166
 30
0.0
 10
14.1144324249
 20
8.7931535966
 30
0.0
 10
14.1220910726
 20
8.8135631707
 30
0.0
 10
14.1283195879
 20
8.8292106832
 30
0.0
 10
14.1329770777
 20
8.840458692
 30
0.0
 10
14.1376738139
 20
8.8513532326
 30
0.0
 10
14.1424075269
 20
8.8618888373
 30
0.0
 10
14.1471757893
 20
8.8720602371
 30
0.0
 10
14.1519762083
 20
8.8818623428
 30
0.0
 10
14.1568064168
 20
8.8912902349
 30
0.0
 10
14.1616639184
 20
8.9003392277
 30
0.0
 10
14.166546362
 20
8.9090047765
 30
0.0
 10
14.1714512533
 20
8.9172825889
 30
0.0
 10
14.1763761721
 20
8.92516854
 30
0.0
 10
14.1813186939
 20
8.9326586839
 30
0.0
 10
14.1862762779
 20
8.9397493294
 30
0.0
 10
14.1912465874
 20
8.9464369407
 30
0.0
 10
14.1962271781
 20
8.9527183009
 30
0.0
 10
14.2012157508
 20
8.9585903281
 30
0.0
 10
14.2062096096
 20
8.9640498341
 30
0.0
 10
14.2096099432
 20
8.9674826006
 30
0.0
 10
14.2113110416
 20
8.9691257356
 30
0.0
  0
SPLINE
  5
2A7
100
AcDbEntity
  8
0
100
AcDbSpline
 62
7
  6
CONTINUOUS
 70
0
 71
3
 72
18
 73
14
 74
0
 42
0.0000001
 43
0.0000001
 44
0.0000000001
 40
0.0
 40
0.0
 40
0.0
 40
0.0
 40
0.1504655604
 40
0.2917104522
 40
0.4244369587
 40
0.5495624319
 40
0.6682139564
 40
0.7255497878
 40
0.7817912235
 40
0.8371401983
 40
0.8918093099
 40
0.9460200145
 40
1.0
 40
1.0
 40
1.0
 40
1.0
 10
13.9077678471
 20
10.8830781132
 30
0.0
 10
13.9098881656
 20
10.8851261838
 30
0.0
 10
13.9141258772
 20
10.8889689254
 30
0.0
 10
13.9206878918
 20
10.8940900979
 30
0.0
 10
13.9272422605
 20
10.8983731459
 30
0.0
 10
13.933782098
 20
10.9018110418
 30
0.0
 10
13.9392787385
 20
10.9039910501
 30
0.0
 10
13.9436428413
 20
10.905286277
 30
0.0
 10
13.946869444
 20
10.9060327634
 30
0.0
 10
13.9500853222
 20
10.9065648498
 30
0.0
 10
13.9532896003
 20
10.906882265
 30
0.0
 10
13.9564809995
 20
10.9069847764
 30
0.0
 10
13.9586012694
 20
10.9069097582
 30
0.0
 10
13.9596563173
 20
10.9068365858
 30
0.0
  0
SPLINE
  5
2A8
100
AcDbEntity
  8
0
100
AcDbSpline
 62
7
  6
CONTINUOUS
 70
0
 71
3
 72
48
 73
44
 74
0
 42
0.0000001
 43
0.0000001
 44
0.0000000001
 40
0.0
 40
0.0
 40
0.0
 40
0.0
 40
0.0378128049
 40
0.0760191634
 40
0.114531669
 40
0.1532646687
 40
0.1921303453
 40
0.2310410956
 40
0.2699090056
 40
0.3086463241
 40
0.347165672
 40
0.3853802961
 40
0.4232043248
 40
0.4605530193
 40
0.4973430301
 40
0.5334926606
 40
0.5689221386
 40
0.6035538838
 40
0.6373127868
 40
0.6701265016
 40
0.701925756
 40
0.7326446872
 40
0.7622212211
 40
0.7905974793
 40
0.817720246
 40
0.8307966593
 40
0.8435421524
 40
0.8559516716
 40
0.8680205801
 40
0.8797446401
 40
0.891120199
 40
0.9021440122
 40
0.9128135202
 40
0.9231267123
 40
0.933082304
 40
0.9426798185
 40
0.9519195308
 40
0.9608027428
 40
0.9693317176
 40
0.9775101859
 40
0.9853432874
 40
0.9928373451
 40
1.0
 40
1.0
 40
1.0
 40
1.0
 10
13.115264585
 20
9.393134287
 30
0.0
 10
13.115264585
 20
9.4050586605
 30
0.0
 10
13.1154230802
 20
9.4290317919
 30
0.0
 10
13.1161255506
 20
9.4651437635
 30
0.0
 10
13.1172925672
 20
9.5015340873
 30
0.0
 10
13.1189212565
 20
9.5381147637
 30
0.0
 10
13.1210077661
 20
9.5747979709
 30
0.0
 10
13.1235470498
 20
9.611495261
 30
0.0
 10
13.1265330084
 20
9.6481183005
 30
0.0
 10
13.1299584412
 20
9.6845788894
 30
0.0
 10
13.133815085
 20
9.720789233
 30
0.0
 10
13.1380936339
 20
9.7566621413
 30
0.0
 10
13.1427837604
 20
9.7921112409
 30
0.0
 10
13.1478741411
 20
9.8270511828
 30
0.0
 10
13.1533524828
 20
9.8613978491
 30
0.0
 10
13.1592055511
 20
9.8950685604
 30
0.0
 10
13.1654191951
 20
9.9279822794
 30
0.0
 10
13.1719783898
 20
9.9600598074
 30
0.0
 10
13.1788672701
 20
9.9912239764
 30
0.0
 10
13.1860691693
 20
10.0213998362
 30
0.0
 10
13.1935666573
 20
10.0505148465
 30
0.0
 10
13.2013415866
 20
10.0784990404
 30
0.0
 10
13.2093751251
 20
10.105285286
 30
0.0
 10
13.2176478182
 20
10.1308091869
 30
0.0
 10
13.2248087448
 20
10.1512173216
 30
0.0
 10
13.2306519475
 20
10.1668581904
 30
0.0
 10
13.2350282401
 20
10.178092722
 30
0.0
 10
13.2394491723
 20
10.1889675558
 30
0.0
 10
13.243912082
 20
10.1994761816
 30
0.0
 10
13.2484143344
 20
10.2096122769
 30
0.0
 10
13.2529531381
 20
10.2193697891
 30
0.0
 10
13.257525852
 20
10.2287428491
 30
0.0
 10
13.2621296552
 20
10.2377258693
 30
0.0
 10
13.2667618219
 20
10.2463134734
 30
0.0
 10
13.2714195914
 20
10.2545005358
 30
0.0
 10
13.2761001363
 20
10.2622822068
 30
0.0
 10
13.2808007572
 20
10.2696538116
 30
0.0
 10
13.28551854
 20
10.276611012
 30
0.0
 10
13.2902508042
 20
10.2831496667
 30
0.0
 10
13.2949947874
 20
10.2892659906
 30
0.0
 10
13.2997478582
 20
10.2949564317
 30
0.0
 10
13.3045070048
 20
10.3002173058
 30
0.0
 10
13.3077540829
 20
10.3035092879
 30
0.0
 10
13.3093787086
 20
10.305078556
 30
0.0
  0
SPLINE
  5
2A9
100
AcDbEntity
  8
0
100
AcDbSpline
 62
7
  6
CONTINUOUS
 70
0
 71
3
 72
23
 73
19
 74
0
 42
0.0000001
 43
0.0000001
 44
0.0000000001
 40
0.0
 40
0.0
 40
0.0
 40
0.0
 40
0.0637754757
 40
0.1273453426
 40
0.1907021752
 40
0.2538559149
 40
0.3168132477
 40
0.3795821059
 40
0.4421733695
 40
0.5045993382
 40
0.566873869
 40
0.6290123778
 40
0.6910316472
 40
0.7529496469
 40
0.8147853527
 40
0.8765585998
 40
0.9382898568
 40
1.0
 40
1.0
 40
1.0
 40
1.0
 10
7.8822894403
 20
6.426614824
 30
0.0
 10
7.8822894403
 20
6.430950196
 30
0.0
 10
7.8824970023
 20
6.4396084303
 30
0.0
 10
7.8834335468
 20
6.4525430853
 30
0.0
 10
7.8849930124
 20
6.4653752864
 30
0.0
 10
7.8871716721
 20
6.4780746993
 30
0.0
 10
7.889964485
 20
6.4906124521
 30
0.0
 10
7.8933651214
 20
6.502959557
 30
0.0
 10
7.8973657994
 20
6.515087507
 30
0.0
 10
7.9019572245
 20
6.5269683867
 30
0.0
 10
7.9071288853
 20
6.53857478
 30
0.0
 10
7.91286893
 20
6.5498798848
 30
0.0
 10
7.9191640388
 20
6.5608576739
 30
0.0
 10
7.9259997749
 20
6.5714828
 30
0.0
 10
7.9333603962
 20
6.5817306997
 30
0.0
 10
7.9412289322
 20
6.5915778757
 30
0.0
 10
7.9495869894
 20
6.6010012603
 30
0.0
 10
7.955473654
 20
6.6069875781
 30
0.0
 10
7.9584909085
 20
6.6099020209
 30
0.0
  0
SPLINE
  5
2AA
100
AcDbEntity
  8
0
100
AcDbSpline
 62
7
  6
CONTINUOUS
 70
0
 71
3
 72
47
 73
43
 74
0
 42
0.0000001
 43
0.0000001
 44
0.0000000001
 40
0.0
 40
0.0
 40
0.0
 40
0.0
 40
0.0149719684
 40
0.0299469977
 40
0.0449281259
 40
0.0599183572
 40
0.07492064
 40
0.0899378464
 40
0.1049727639
 40
0.1200280654
 40
0.1351063085
 40
0.1502099079
 40
0.1653411292
 40
0.1805020763
 40
0.1956946713
 40
0.2109206605
 40
0.2261815849
 40
0.2414787933
 40
0.2721809032
 40
0.3030390647
 40
0.3340562884
 40
0.3652320713
 40
0.3965624616
 40
0.4280401946
 40
0.4596548922
 40
0.4913933208
 40
0.5232396976
 40
0.5551760391
 40
0.5871825439
 40
0.619238004
 40
0.6513202352
 40
0.683406521
 40
0.7154740647
 40
0.7475004415
 40
0.7794640462
 40
0.81134453
 40
0.8431232178
 40
0.8747835096
 40
0.9063112006
 40
0.937694979
 40
0.9689260991
 40
1.0
 40
1.0
 40
1.0
 40
1.0
 10
9.7272386382
 20
7.6332866597
 30
0.0
 10
9.7236051537
 20
7.6297769991
 30
0.0
 10
9.7161970205
 20
7.6229006795
 30
0.0
 10
9.7046825466
 20
7.613034764
 30
0.0
 10
9.692780318
 20
7.6036299452
 30
0.0
 10
9.6805070578
 20
7.5946992341
 30
0.0
 10
9.6678794726
 20
7.5862550321
 30
0.0
 10
9.654915076
 20
7.5783087963
 30
0.0
 10
9.6416316162
 20
7.570871596
 30
0.0
 10
9.6280474304
 20
7.5639535707
 30
0.0
 10
9.6141812008
 20
7.5575642477
 30
0.0
 10
9.6000519869
 20
7.551712472
 30
0.0
 10
9.5856792819
 20
7.5464061533
 30
0.0
 10
9.5710828041
 20
7.5416527655
 30
0.0
 10
9.5562826828
 20
7.5374586346
 30
0.0
 10
9.541299304
 20
7.5338297075
 30
0.0
 10
9.5261530343
 20
7.5307708125
 30
0.0
 10
9.5057467088
 20
7.5274543069
 30
0.0
 10
9.479927491
 20
7.5247575217
 30
0.0
 10
9.4486752968
 20
7.5238557466
 30
0.0
 10
9.4172824386
 20
7.5252879706
 30
0.0
 10
9.3859226682
 20
7.5290461502
 30
0.0
 10
9.3547679669
 20
7.5351091988
 30
0.0
 10
9.3239895273
 20
7.5434434829
 30
0.0
 10
9.2937563097
 20
7.5540029192
 30
0.0
 10
9.2642342675
 20
7.5667292614
 30
0.0
 10
9.2355854124
 20
7.5815524167
 30
0.0
 10
9.2079669492
 20
7.598390834
 30
0.0
 10
9.1815304111
 20
7.6171519352
 30
0.0
 10
9.1564208472
 20
7.6377326385
 30
0.0
 10
9.1327760368
 20
7.6600199192
 30
0.0
 10
9.110725742
 20
7.6838914246
 30
0.0
 10
9.0903910043
 20
7.7092161392
 30
0.0
 10
9.0718834865
 20
7.7358550948
 30
0.0
 10
9.0553048674
 20
7.7636621251
 30
0.0
 10
9.0407462788
 20
7.7924846561
 30
0.0
 10
9.0282877985
 20
7.8221645168
 30
0.0
 10
9.017998049
 20
7.85253887
 30
0.0
 10
9.0099337407
 20
7.8834408518
 30
0.0
 10
9.0041395512
 20
7.9147013536
 30
0.0
 10
9.0006474845
 20
7.9461464998
 30
0.0
 10
8.9998653522
 20
7.9671770442
 30
0.0
 10
8.9998653522
 20
7.9776617584
 30
0.0
  0
SPLINE
  5
2AB
100
AcDbEntity
  8
0
100
AcDbSpline
 62
7
  6
CONTINUOUS
 70
0
 71
3
 72
37
 73
33
 74
0
 42
0.0000001
 43
0.0000001
 44
0.0000000001
 40
0.0
 40
0.0
 40
0.0
 40
0.0
 40
0.0302649517
 40
0.0605388103
 40
0.09083041
 40
0.1211484271
 40
0.1515013008
 40
0.1818971713
 40
0.2123438062
 40
0.2428485259
 40
0.2734181527
 40
0.3040589589
 40
0.3347766041
 40
0.3655760973
 40
0.3964617704
 40
0.4274372345
 40
0.4585053544
 40
0.4896682485
 40
0.5209272671
 40
0.5522829796
 40
0.5837351971
 40
0.615282973
 40
0.646924604
 40
0.678657669
 40
0.7104790502
 40
0.742384946
 40
0.7743709325
 40
0.8064319752
 40
0.8385624542
 40
0.8707564031
 40
0.9352929443
 40
1.0
 40
1.0
 40
1.0
 40
1.0
 10
8.7014271896
 20
8.5486476724
 30
0.0
 10
8.6970646403
 20
8.5444337673
 30
0.0
 10
8.6881356018
 20
8.5362116527
 30
0.0
 10
8.6741667952
 20
8.524529599
 30
0.0
 10
8.6596483711
 20
8.5135197897
 30
0.0
 10
8.644609482
 20
8.5032045157
 30
0.0
 10
8.6290798999
 20
8.4936041018
 30
0.0
 10
8.6130904984
 20
8.484737567
 30
0.0
 10
8.5966729664
 20
8.4766225438
 30
0.0
 10
8.5798598944
 20
8.4692751129
 30
0.0
 10
8.5626846724
 20
8.462709763
 30
0.0
 10
8.5451813575
 20
8.4569395433
 30
0.0
 10
8.5273846713
 20
8.4519759048
 30
0.0
 10
8.5093299415
 20
8.4478285841
 30
0.0
 10
8.4910529697
 20
8.4445058055
 30
0.0
 10
8.4725899976
 20
8.4420141901
 30
0.0
 10
8.4539776525
 20
8.4403585627
 30
0.0
 10
8.4352528341
 20
8.4395421801
 30
0.0
 10
8.4164526655
 20
8.4395667102
 30
0.0
 10
8.3976144191
 20
8.4404319995
 30
0.0
 10
8.3787754299
 20
8.4421362846
 30
0.0
 10
8.3599730446
 20
8.4446762412
 30
0.0
 10
8.3412445227
 20
8.4480467589
 30
0.0
 10
8.3226269665
 20
8.4522410907
 30
0.0
 10
8.3041572802
 20
8.4572509733
 30
0.0
 10
8.2858720626
 20
8.4630664362
 30
0.0
 10
8.2678074995
 20
8.4696758919
 30
0.0
 10
8.2499994831
 20
8.4770662258
 30
0.0
 10
8.2324829738
 20
8.4852229808
 30
0.0
 10
8.2095473272
 20
8.4971066601
 30
0.0
 10
8.1817837201
 20
8.5137949965
 30
0.0
 10
8.1607487783
 20
8.5289680676
 30
0.0
 10
8.1505560455
 20
8.5369852139
 30
0.0
  0
SPLINE
  5
2AC
100
AcDbEntity
  8
0
100
AcDbSpline
 62
7
  6
CONTINUOUS
 70
0
 71
3
 72
68
 73
64
 74
0
 42
0.0000001
 43
0.0000001
 44
0.0000000001
 40
0.0
 40
0.0
 40
0.0
 40
0.0
 40
0.0209499596
 40
0.0410846491
 40
0.0508202659
 40
0.0603193414
 40
0.0695717024
 40
0.0785682235
 40
0.0873006101
 40
0.0957626078
 40
0.1118545619
 40
0.1268407551
 40
0.1407587334
 40
0.1536943955
 40
0.1598364055
 40
0.1657851681
 40
0.1715615995
 40
0.1771889684
 40
0.1826899828
 40
0.1880876707
 40
0.1934048505
 40
0.1986622753
 40
0.2038800127
 40
0.2090764093
 40
0.2142671312
 40
0.219466532
 40
0.2299360386
 40
0.2405650568
 40
0.2514070454
 40
0.262493498
 40
0.2738449171
 40
0.2854683846
 40
0.2973673224
 40
0.3095393533
 40
0.321978286
 40
0.3282966736
 40
0.3346797758
 40
0.3476352385
 40
0.360836658
 40
0.3742783468
 40
0.387953291
 40
0.4018537311
 40
0.4159747486
 40
0.430311852
 40
0.4448598402
 40
0.4596138161
 40
0.4745712548
 40
0.489729847
 40
0.5050869989
 40
0.5206400807
 40
0.5523312322
 40
0.5848019288
 40
0.6180525183
 40
0.6520962526
 40
0.6869510771
 40
0.7226402718
 40
0.7592006001
 40
0.7966722032
 40
0.8351087962
 40
0.8745733037
 40
0.915144434
 40
0.9569166877
 40
1.0
 40
1.0
 40
1.0
 40
1.0
 10
11.6222261476
 20
8.5653049639
 30
0.0
 10
11.6240117747
 20
8.5618742552
 30
0.0
 10
11.6277192556
 20
8.5552508538
 30
0.0
 10
11.6328304768
 20
8.5473743416
 30
0.0
 10
11.6371046723
 20
8.5414942909
 30
0.0
 10
11.6403494754
 20
8.537354075
 30
0.0
 10
11.6436599305
 20
8.5334432532
 30
0.0
 10
11.6470254593
 20
8.5297694444
 30
0.0
 10
11.6504360885
 20
8.526340042
 30
0.0
 10
11.6549531981
 20
8.5221717439
 30
0.0
 10
11.6606423942
 20
8.51757998
 30
0.0
 10
11.6676026382
 20
8.5130186939
 30
0.0
 10
11.6745008031
 20
8.50950731
 30
0.0
 10
11.6802379081
 20
8.5074083034
 30
0.0
 10
11.6847154123
 20
8.5062572405
 30
0.0
 10
11.6879602722
 20
8.5056506169
 30
0.0
 10
11.6911446522
 20
8.5052788757
 30
0.0
 10
11.6942646098
 20
8.5051332283
 30
0.0
 10
11.6973171624
 20
8.5052048894
 30
0.0
 10
11.7003001207
 20
8.5054846796
 30
0.0
 10
11.7032120936
 20
8.5059628415
 30
0.0
 10
11.7060524567
 20
8.5066297903
 30
0.0
 10
11.7088211803
 20
8.5074760623
 30
0.0
 10
11.7115188138
 20
8.5084922108
 30
0.0
 10
11.7141465243
 20
8.509668978
 30
0.0
 10
11.7175658192
 20
8.5114442914
 30
0.0
 10
11.7216840818
 20
8.5140332228
 30
0.0
 10
11.7263568794
 20
8.5176421617
 30
0.0
 10
11.7307928643
 20
8.5217068568
 30
0.0
 10
11.7350137179
 20
8.5261775962
 30
0.0
 10
11.7390371728
 20
8.5310145647
 30
0.0
 10
11.742884376
 20
8.5361800391
 30
0.0
 10
11.7465708435
 20
8.5416444455
 30
0.0
 10
11.7501131711
 20
8.547380453
 30
0.0
 10
11.7529435486
 20
8.5523406921
 30
0.0
 10
11.7551514257
 20
8.5564232309
 30
0.0
 10
11.757345074
 20
8.5606213437
 30
0.0
 10
11.7600207557
 20
8.5660005297
 30
0.0
 10
11.7631254359
 20
8.5726194177
 30
0.0
 10
11.7661484406
 20
8.5794215261
 30
0.0
 10
11.7690996769
 20
8.5863952985
 30
0.0
 10
11.7719894153
 20
8.5935301907
 30
0.0
 10
11.7748246336
 20
8.6008181902
 30
0.0
 10
11.7776124176
 20
8.6082522267
 30
0.0
 10
11.7803601191
 20
8.6158255527
 30
0.0
 10
11.7830750735
 20
8.6235321761
 30
0.0
 10
11.7857622808
 20
8.6313677628
 30
0.0
 10
11.7884271351
 20
8.6393284745
 30
0.0
 10
11.791074978
 20
8.647410639
 30
0.0
 10
11.7946123596
 20
8.6584128945
 30
0.0
 10
11.7990147579
 20
8.6724554074
 30
0.0
 10
11.8042704046
 20
8.6896537661
 30
0.0
 10
11.8095659816
 20
8.7072937779
 30
0.0
 10
11.8149297054
 20
8.7253727352
 30
0.0
 10
11.8203902847
 20
8.7438925007
 30
0.0
 10
11.8259774724
 20
8.7628592969
 30
0.0
 10
11.8317197713
 20
8.7822840084
 30
0.0
 10
11.8376473068
 20
8.802182828
 30
0.0
 10
11.8437930578
 20
8.8225759813
 30
0.0
 10
11.8501918301
 20
8.8434903404
 30
0.0
 10
11.8568840838
 20
8.8649586067
 30
0.0
 10
11.8639144223
 20
8.8870208192
 30
0.0
 10
11.8687822653
 20
8.9019107639
 30
0.0
 10
11.8712859465
 20
8.9094600669
 30
0.0
  0
SPLINE
  5
2AD
100
AcDbEntity
  8
0
100
AcDbSpline
 62
7
  6
CONTINUOUS
 70
0
 71
3
 72
48
 73
44
 74
0
 42
0.0000001
 43
0.0000001
 44
0.0000000001
 40
0.0
 40
0.0
 40
0.0
 40
0.0
 40
0.0378126882
 40
0.0760192244
 40
0.1145316533
 40
0.1532646684
 40
0.192130348
 40
0.2310410943
 40
0.2699090056
 40
0.308646322
 40
0.3471656717
 40
0.3853802996
 40
0.4232043291
 40
0.4605530172
 40
0.4973430216
 40
0.5334926543
 40
0.5689221418
 40
0.6035538949
 40
0.6373127924
 40
0.6701264944
 40
0.7019257413
 40
0.7326446802
 40
0.7622212296
 40
0.7905974914
 40
0.8177202481
 40
0.8307966625
 40
0.8435421432
 40
0.8559516828
 40
0.8680205675
 40
0.8797446449
 40
0.8911201969
 40
0.9021440081
 40
0.9128135267
 40
0.9231267006
 40
0.9330823085
 40
0.9426798206
 40
0.9519195346
 40
0.9608027361
 40
0.969331691
 40
0.9775101852
 40
0.9853433287
 40
0.9928373926
 40
1.0
 40
1.0
 40
1.0
 40
1.0
 10
13.7340491163
 20
9.3668342692
 30
0.0
 10
13.7340491163
 20
9.3777728608
 30
0.0
 10
13.734194513
 20
9.3997642309
 30
0.0
 10
13.7348389065
 20
9.4328909417
 30
0.0
 10
13.7359094552
 20
9.4662730323
 30
0.0
 10
13.7374035011
 20
9.4998296894
 30
0.0
 10
13.7393175246
 20
9.5334804224
 30
0.0
 10
13.7416468985
 20
9.5671440696
 30
0.0
 10
13.744386021
 20
9.6007396028
 30
0.0
 10
13.7475282839
 20
9.6341861167
 30
0.0
 10
13.7510661081
 20
9.6674030733
 30
0.0
 10
13.7549909593
 20
9.7003104902
 30
0.0
 10
13.7592933692
 20
9.7328291303
 30
0.0
 10
13.7639629517
 20
9.7648806992
 30
0.0
 10
13.768988421
 20
9.7963880373
 30
0.0
 10
13.7743576328
 20
9.8272753051
 30
0.0
 10
13.78005761
 20
9.8574681635
 30
0.0
 10
13.7860745737
 20
9.8868939536
 30
0.0
 10
13.7923939773
 20
9.9154818807
 30
0.0
 10
13.7990005248
 20
9.9431631938
 30
0.0
 10
13.8058782233
 20
9.9698713586
 30
0.0
 10
13.8130104216
 20
9.9955421981
 30
0.0
 10
13.8203798483
 20
10.020114124
 30
0.0
 10
13.827968663
 20
10.0435280528
 30
0.0
 10
13.8345376302
 20
10.0622491095
 30
0.0
 10
13.8398977844
 20
10.0765969972
 30
0.0
 10
13.8439123212
 20
10.0869028033
 30
0.0
 10
13.8479677629
 20
10.096878657
 30
0.0
 10
13.8520617672
 20
10.1065185619
 30
0.0
 10
13.8561918118
 20
10.1158167453
 30
0.0
 10
13.8603554177
 20
10.1247676348
 30
0.0
 10
13.8645501245
 20
10.1333658535
 30
0.0
 10
13.8687733298
 20
10.1416062831
 30
0.0
 10
13.8730225914
 20
10.1494839701
 30
0.0
 10
13.8772953007
 20
10.1569942441
 30
0.0
 10
13.8815889368
 20
10.1641326258
 30
0.0
 10
13.8859009677
 20
10.1708948439
 30
0.0
 10
13.8902287342
 20
10.1772769147
 30
0.0
 10
13.8945698044
 20
10.1832750342
 30
0.0
 10
13.8989216206
 20
10.1888857579
 30
0.0
 10
13.9032817946
 20
10.1941057975
 30
0.0
 10
13.9076475169
 20
10.198931774
 30
0.0
 10
13.9106261589
 20
10.201951613
 30
0.0
 10
13.9121164724
 20
10.2033911453
 30
0.0
  0
SPLINE
  5
2AE
100
AcDbEntity
  8
0
100
AcDbSpline
 62
7
  6
CONTINUOUS
 70
0
 71
3
 72
49
 73
45
 74
0
 42
0.0000001
 43
0.0000001
 44
0.0000000001
 40
0.0
 40
0.0
 40
0.0
 40
0.0
 40
0.0378126678
 40
0.0760191833
 40
0.1145315913
 40
0.1532645855
 40
0.1921302441
 40
0.2310409693
 40
0.2699088596
 40
0.3086461551
 40
0.347165484
 40
0.3853800912
 40
0.4232041003
 40
0.4605527681
 40
0.4973427527
 40
0.5334923658
 40
0.5689218342
 40
0.6035535685
 40
0.6373124477
 40
0.670126132
 40
0.7019253617
 40
0.732644284
 40
0.7622208174
 40
0.7905970638
 40
0.8043185081
 40
0.8177203466
 40
0.830796754
 40
0.8435422278
 40
0.8559517607
 40
0.8680206388
 40
0.8797447099
 40
0.8911202558
 40
0.9021440611
 40
0.9128135739
 40
0.9231267422
 40
0.9330823447
 40
0.9426798516
 40
0.9519195606
 40
0.9608027573
 40
0.9693317075
 40
0.9775101973
 40
0.9853433366
 40
0.9928373965
 40
1.0
 40
1.0
 40
1.0
 40
1.0
 10
13.658114944
 20
9.3554874867
 30
0.0
 10
13.658114944
 20
9.3674118235
 30
0.0
 10
13.6582734433
 20
9.391384974
 30
0.0
 10
13.6589759072
 20
9.4274969407
 30
0.0
 10
13.6601429297
 20
9.4638873011
 30
0.0
 10
13.6617716135
 20
9.5004679593
 30
0.0
 10
13.6638581216
 20
9.5371511711
 30
0.0
 10
13.66639741
 20
9.5738484609
 30
0.0
 10
13.6693833721
 20
9.6104714986
 30
0.0
 10
13.672808804
 20
9.6469320879
 30
0.0
 10
13.6766654437
 20
9.683142433
 30
0.0
 10
13.680943988
 20
9.7190153439
 30
0.0
 10
13.685634115
 20
9.7544644429
 30
0.0
 10
13.6907245029
 20
9.7894043798
 30
0.0
 10
13.6962028488
 20
9.823751042
 30
0.0
 10
13.702055914
 20
9.8574217555
 30
0.0
 10
13.708269552
 20
9.8903354819
 30
0.0
 10
13.714828742
 20
9.9224130149
 30
0.0
 10
13.7217176268
 20
9.9535771789
 30
0.0
 10
13.7289195316
 20
9.9837530315
 30
0.0
 10
13.7364170232
 20
10.0128680276
 30
0.0
 10
13.7441919471
 20
10.04085226
 30
0.0
 10
13.7522254846
 20
10.0676384024
 30
0.0
 10
13.7591950248
 20
10.0891420582
 30
0.0
 10
13.7648942685
 20
10.1056904752
 30
0.0
 10
13.7691733564
 20
10.1176239266
 30
0.0
 10
13.7735023128
 20
10.1292113956
 30
0.0
 10
13.7778786088
 20
10.1404459166
 30
0.0
 10
13.7822995159
 20
10.1513207586
 30
0.0
 10
13.7867624557
 20
10.1618293755
 30
0.0
 10
13.7912646847
 20
10.1719654766
 30
0.0
 10
13.7958034993
 20
10.181722987
 30
0.0
 10
13.8003762174
 20
10.1910960452
 30
0.0
 10
13.8049800023
 20
10.2000790717
 30
0.0
 10
13.8096121915
 20
10.2086666665
 30
0.0
 10
13.8142699415
 20
10.2168537384
 30
0.0
 10
13.8189505041
 20
10.2246354045
 30
0.0
 10
13.8236511192
 20
10.2320070086
 30
0.0
 10
13.8283688879
 20
10.2389642078
 30
0.0
 10
13.8331011592
 20
10.2455028555
 30
0.0
 10
13.8378451449
 20
10.2516191967
 30
0.0
 10
13.8425982415
 20
10.2573096469
 30
0.0
 10
13.8473573865
 20
10.2625705224
 30
0.0
 10
13.8506044526
 20
10.2658624981
 30
0.0
 10
13.8522290676
 20
10.2674317557
 30
0.0
  0
SPLINE
  5
2AF
100
AcDbEntity
  8
0
100
AcDbSpline
 62
7
  6
CONTINUOUS
 70
0
 71
3
 72
29
 73
25
 74
0
 42
0.0000001
 43
0.0000001
 44
0.0000000001
 40
0.0
 40
0.0
 40
0.0
 40
0.0
 40
0.0755836755
 40
0.1466143562
 40
0.2134286572
 40
0.2764666867
 40
0.3362686904
 40
0.3651658039
 40
0.3935045519
 40
0.4213816903
 40
0.4488992609
 40
0.4761636692
 40
0.503284649
 40
0.5303738152
 40
0.5575431712
 40
0.5849037119
 40
0.6125638739
 40
0.6406282505
 40
0.6691966684
 40
0.7281925824
 40
0.7902529585
 40
0.8559465767
 40
0.925738346
 40
1.0
 40
1.0
 40
1.0
 40
1.0
 10
14.5105056108
 20
10.7813907026
 30
0.0
 10
14.5124177649
 20
10.7832377017
 30
0.0
 10
14.5162395394
 20
10.786706933
 30
0.0
 10
14.5221540689
 20
10.7913415914
 30
0.0
 10
14.5280618185
 20
10.7952340783
 30
0.0
 10
14.5339566743
 20
10.7983783697
 30
0.0
 10
14.5389115166
 20
10.8003933376
 30
0.0
 10
14.5428469045
 20
10.8016082872
 30
0.0
 10
14.5457567891
 20
10.8023197425
 30
0.0
 10
14.5486573551
 20
10.8028413839
 30
0.0
 10
14.5515477993
 20
10.8031730181
 30
0.0
 10
14.5544271952
 20
10.8033143993
 30
0.0
 10
14.5572946071
 20
10.8032654255
 30
0.0
 10
14.5601490895
 20
10.8030261519
 30
0.0
 10
14.5629897042
 20
10.8025966551
 30
0.0
 10
14.5658155145
 20
10.8019770347
 30
0.0
 10
14.5686256046
 20
10.8011676182
 30
0.0
 10
14.5714191975
 20
10.8001687188
 30
0.0
 10
14.5751602713
 20
10.7985679527
 30
0.0
 10
14.5798065131
 20
10.7960702115
 30
0.0
 10
14.5852360624
 20
10.7923542833
 30
0.0
 10
14.5905761384
 20
10.787893783
 30
0.0
 10
14.5958218106
 20
10.7826955983
 30
0.0
 10
14.599146438
 20
10.7788655559
 30
0.0
 10
14.6007945342
 20
10.7768391208
 30
0.0
  0
SPLINE
  5
2B0
100
AcDbEntity
  8
0
100
AcDbSpline
 62
7
  6
CONTINUOUS
 70
0
 71
3
 72
51
 73
47
 74
0
 42
0.0000001
 43
0.0000001
 44
0.0000000001
 40
0.0
 40
0.0
 40
0.0
 40
0.0
 40
0.0063158563
 40
0.0126706275
 40
0.0191024426
 40
0.0256479667
 40
0.0323418396
 40
0.039216169
 40
0.0536139777
 40
0.0611946825
 40
0.0690564228
 40
0.077217543
 40
0.085693909
 40
0.0944992921
 40
0.103645413
 40
0.1131421541
 40
0.1229979076
 40
0.1332195316
 40
0.1438125903
 40
0.1547816094
 40
0.1661299566
 40
0.1778601045
 40
0.1899737833
 40
0.2024718248
 40
0.2153544436
 40
0.2286212918
 40
0.2422713076
 40
0.2707135166
 40
0.3006643912
 40
0.3320995589
 40
0.3649887452
 40
0.3992964972
 40
0.4349828494
 40
0.4720036907
 40
0.51031109
 40
0.5498537661
 40
0.5905773424
 40
0.6324244885
 40
0.6753352842
 40
0.7192474223
 40
0.7640962813
 40
0.8098154002
 40
0.8563361693
 40
0.9035880242
 40
0.951501774
 40
1.0
 40
1.0
 40
1.0
 40
1.0
 10
13.2574902385
 20
5.6931721367
 30
0.0
 10
13.2562226002
 20
5.6932600532
 30
0.0
 10
13.2536855023
 20
5.6935401792
 30
0.0
 10
13.2499083005
 20
5.6942703954
 30
0.0
 10
13.2461563396
 20
5.6953105021
 30
0.0
 10
13.2424318153
 20
5.6966597164
 30
0.0
 10
13.2387362166
 20
5.6983173116
 30
0.0
 10
13.2337739865
 20
5.7009773427
 30
0.0
 10
13.2289465418
 20
5.7042336629
 30
0.0
 10
13.2242747821
 20
5.7080071823
 30
0.0
 10
13.2207460334
 20
5.711188715
 30
0.0
 10
13.2172549834
 20
5.7146709184
 30
0.0
 10
13.2138024605
 20
5.7184525116
 30
0.0
 10
13.2103899238
 20
5.722531906
 30
0.0
 10
13.2070186211
 20
5.7269074335
 30
0.0
 10
13.2036898029
 20
5.7315772738
 30
0.0
 10
13.2004048295
 20
5.7365395811
 30
0.0
 10
13.1971649594
 20
5.7417923193
 30
0.0
 10
13.1939714462
 20
5.7473333444
 30
0.0
 10
13.1908256364
 20
5.7531604437
 30
0.0
 10
13.1877287481
 20
5.7592712214
 30
0.0
 10
13.1846820232
 20
5.7656631868
 30
0.0
 10
13.1816867627
 20
5.7723337584
 30
0.0
 10
13.1787441298
 20
5.7792801876
 30
0.0
 10
13.1758553418
 20
5.7864996345
 30
0.0
 10
13.1730216074
 20
5.7939891705
 30
0.0
 10
13.1692666842
 20
5.804475304
 30
0.0
 10
13.1647306139
 20
5.8182444332
 30
0.0
 10
13.159596791
 20
5.8355748924
 30
0.0
 10
13.1547090162
 20
5.8539037291
 30
0.0
 10
13.1500753843
 20
5.8732008146
 30
0.0
 10
13.1457035796
 20
5.8934345931
 30
0.0
 10
13.1416008979
 20
5.9145718607
 30
0.0
 10
13.1377741867
 20
5.9365778986
 30
0.0
 10
13.1342297937
 20
5.9594165058
 30
0.0
 10
13.1309736314
 20
5.9830500952
 30
0.0
 10
13.1280111514
 20
6.0074397508
 30
0.0
 10
13.1253472663
 20
6.0325452846
 30
0.0
 10
13.1229864112
 20
6.0583253164
 30
0.0
 10
13.1209325458
 20
6.0847373422
 30
0.0
 10
13.1191890793
 20
6.1117378299
 30
0.0
 10
13.117758916
 20
6.1392822327
 30
0.0
 10
13.1166444561
 20
6.1673250219
 30
0.0
 10
13.1158475346
 20
6.1958203214
 30
0.0
 10
13.1153695556
 20
6.2247205921
 30
0.0
 10
13.115264585
 20
6.2441178367
 30
0.0
 10
13.115264585
 20
6.2538751655
 30
0.0
  0
SPLINE
  5
2B1
100
AcDbEntity
  8
0
100
AcDbSpline
 62
7
  6
CONTINUOUS
 70
0
 71
3
 72
52
 73
48
 74
0
 42
0.0000001
 43
0.0000001
 44
0.0000000001
 40
0.0
 40
0.0
 40
0.0
 40
0.0
 40
0.0063158553
 40
0.0126706174
 40
0.01910243
 40
0.0256479406
 40
0.0323417857
 40
0.0392161126
 40
0.053613856
 40
0.0611945619
 40
0.0690562627
 40
0.0772173394
 40
0.0856937117
 40
0.0944990433
 40
0.1036451224
 40
0.1131418745
 40
0.1229975663
 40
0.1332191544
 40
0.1438122273
 40
0.1547811769
 40
0.1661294967
 40
0.1778596595
 40
0.1899732643
 40
0.2024712882
 40
0.21535392
 40
0.2286206932
 40
0.2422707016
 40
0.2563024051
 40
0.2707137575
 40
0.3006646369
 40
0.3320997476
 40
0.3649888706
 40
0.3992966303
 40
0.4349829523
 40
0.4720037374
 40
0.5103111432
 40
0.5498538098
 40
0.5905773434
 40
0.6324244938
 40
0.6753352948
 40
0.7192474009
 40
0.764096263
 40
0.8098154275
 40
0.8563361116
 40
0.903587964
 40
0.9515019894
 40
1.0
 40
1.0
 40
1.0
 40
1.0
 10
13.8003410198
 20
5.6555253152
 30
0.0
 10
13.7990733794
 20
5.6556132272
 30
0.0
 10
13.7965362786
 20
5.6558933338
 30
0.0
 10
13.7927590575
 20
5.6566234745
 30
0.0
 10
13.7890070973
 20
5.657663593
 30
0.0
 10
13.7852825652
 20
5.6590127717
 30
0.0
 10
13.7815869381
 20
5.6606703021
 30
0.0
 10
13.7766247322
 20
5.6633303556
 30
0.0
 10
13.7717972254
 20
5.6665865747
 30
0.0
 10
13.7671254946
 20
5.6703601144
 30
0.0
 10
13.7635967208
 20
5.6735416038
 30
0.0
 10
13.7601056432
 20
5.6770237708
 30
0.0
 10
13.7566531492
 20
5.6808053771
 30
0.0
 10
13.7532405779
 20
5.6848847297
 30
0.0
 10
13.7498692539
 20
5.6892602325
 30
0.0
 10
13.7465404657
 20
5.6939300823
 30
0.0
 10
13.7432554508
 20
5.698892352
 30
0.0
 10
13.7400155668
 20
5.7041450746
 30
0.0
 10
13.7368220818
 20
5.7096861062
 30
0.0
 10
13.7336762262
 20
5.7155131735
 30
0.0
 10
13.7305793313
 20
5.7216239425
 30
0.0
 10
13.7275326307
 20
5.7280159124
 30
0.0
 10
13.7245373224
 20
5.7346864585
 30
0.0
 10
13.7215946906
 20
5.7416328839
 30
0.0
 10
13.7187059176
 20
5.7488523359
 30
0.0
 10
13.715872151
 20
5.756341846
 30
0.0
 10
13.7130946201
 20
5.7640983629
 30
0.0
 10
13.7103744212
 20
5.7721187048
 30
0.0
 10
13.7067792221
 20
5.7833037826
 30
0.0
 10
13.7024473188
 20
5.7979276727
 30
0.0
 10
13.697559507
 20
5.8162563825
 30
0.0
 10
13.6929258467
 20
5.8355535066
 30
0.0
 10
13.6885540497
 20
5.8557872931
 30
0.0
 10
13.6844513526
 20
5.8769245795
 30
0.0
 10
13.6806246099
 20
5.8989306313
 30
0.0
 10
13.6770802214
 20
5.9217692651
 30
0.0
 10
13.6738240524
 20
5.9454028828
 30
0.0
 10
13.6708615449
 20
5.9697925652
 30
0.0
 10
13.6681976611
 20
5.9948981333
 30
0.0
 10
13.6658368041
 20
6.0206782021
 30
0.0
 10
13.6637829187
 20
6.0470902643
 30
0.0
 10
13.662039451
 20
6.0740907989
 30
0.0
 10
13.6606092901
 20
6.1016352388
 30
0.0
 10
13.6594948165
 20
6.1296780642
 30
0.0
 10
13.6586978938
 20
6.1581734474
 30
0.0
 10
13.6582199192
 20
6.1870737762
 30
0.0
 10
13.658114944
 20
6.2064710641
 30
0.0
 10
13.658114944
 20
6.2162283653
 30
0.0
  0
SPLINE
  5
2B2
100
AcDbEntity
  8
0
100
AcDbSpline
 62
7
  6
CONTINUOUS
 70
0
 71
3
 72
18
 73
14
 74
0
 42
0.0000001
 43
0.0000001
 44
0.0000000001
 40
0.0
 40
0.0
 40
0.0
 40
0.0
 40
0.1504645181
 40
0.2917101655
 40
0.4244370866
 40
0.5495623595
 40
0.6682137793
 40
0.7255498063
 40
0.7817912969
 40
0.8371402695
 40
0.8918094031
 40
0.9460200802
 40
1.0
 40
1.0
 40
1.0
 40
1.0
 10
14.4506182061
 20
10.845431313
 30
0.0
 10
14.4527384947
 20
10.8474793546
 30
0.0
 10
14.4569761781
 20
10.8513220566
 30
0.0
 10
14.46353813
 20
10.8564432165
 30
0.0
 10
14.4700924654
 20
10.8607262453
 30
0.0
 10
14.4766322396
 20
10.864164155
 30
0.0
 10
14.482128843
 20
10.866344131
 30
0.0
 10
14.4864928991
 20
10.8676394083
 30
0.0
 10
14.4897194816
 20
10.8683859014
 30
0.0
 10
14.492935337
 20
10.8689179879
 30
0.0
 10
14.4961395873
 20
10.8692354402
 30
0.0
 10
14.4993309615
 20
10.8693379917
 30
0.0
 10
14.5014512146
 20
10.8692629748
 30
0.0
 10
14.5025062539
 20
10.8691898068
 30
0.0
  0
SPLINE
  5
2B3
100
AcDbEntity
  8
0
100
AcDbSpline
 62
7
  6
CONTINUOUS
 70
0
 71
3
 72
59
 73
55
 74
0
 42
0.0000001
 43
0.0000001
 44
0.0000000001
 40
0.0
 40
0.0
 40
0.0
 40
0.0
 40
0.0095821467
 40
0.0187369712
 40
0.0274867415
 40
0.0358591934
 40
0.0438870998
 40
0.0516083199
 40
0.0590660033
 40
0.0663085998
 40
0.0733896609
 40
0.0803668098
 40
0.087300521
 40
0.09425249
 40
0.101283904
 40
0.1084537049
 40
0.1158172299
 40
0.1234251353
 40
0.131322794
 40
0.1395502227
 40
0.1481419754
 40
0.1571277033
 40
0.1665323992
 40
0.1763769094
 40
0.1866785429
 40
0.1974512268
 40
0.2087062439
 40
0.2204523196
 40
0.2326960261
 40
0.2454421585
 40
0.2586936669
 40
0.2724522139
 40
0.2867180262
 40
0.3014901792
 40
0.3167667858
 40
0.3325448312
 40
0.3488206197
 40
0.3655895205
 40
0.3828462148
 40
0.4005847778
 40
0.418798505
 40
0.437480288
 40
0.4762156161
 40
0.5167237306
 40
0.55892943
 40
0.6027509884
 40
0.6481008402
 40
0.6948861679
 40
0.7430093738
 40
0.7923685352
 40
0.8428580748
 40
0.89436795
 40
0.9467879518
 40
1.0
 40
1.0
 40
1.0
 40
1.0
 10
13.910433956
 20
5.7334225014
 30
0.0
 10
13.9090187315
 20
5.7321054255
 30
0.0
 10
13.9061894686
 20
5.7295953138
 30
0.0
 10
13.9018485523
 20
5.7261396456
 30
0.0
 10
13.8975120856
 20
5.7230839352
 30
0.0
 10
13.8931826006
 20
5.7204303181
 30
0.0
 10
13.888862209
 20
5.7181806611
 30
0.0
 10
13.8845531494
 20
5.7163367997
 30
0.0
 10
13.8802578778
 20
5.7149003897
 30
0.0
 10
13.8759789869
 20
5.7138732891
 30
0.0
 10
13.8717194706
 20
5.7132567429
 30
0.0
 10
13.8674825344
 20
5.7130518862
 30
0.0
 10
13.8632716719
 20
5.7132592471
 30
0.0
 10
13.8590904313
 20
5.7138785914
 30
0.0
 10
13.8549423183
 20
5.7149093625
 30
0.0
 10
13.8508304909
 20
5.7163500625
 30
0.0
 10
13.8467578348
 20
5.7181991216
 30
0.0
 10
13.8427268643
 20
5.7204545799
 30
0.0
 10
13.8387397596
 20
5.7231143139
 30
0.0
 10
13.8347986767
 20
5.7261763281
 30
0.0
 10
13.8309054626
 20
5.729638299
 30
0.0
 10
13.8270621284
 20
5.7334980496
 30
0.0
 10
13.8232705791
 20
5.7377531527
 30
0.0
 10
13.8195327191
 20
5.7424010377
 30
0.0
 10
13.8158506239
 20
5.7474390426
 30
0.0
 10
13.8122261646
 20
5.752864163
 30
0.0
 10
13.8086614408
 20
5.7586733096
 30
0.0
 10
13.8051584163
 20
5.7648630864
 30
0.0
 10
13.8017190615
 20
5.7714298889
 30
0.0
 10
13.7983454433
 20
5.7783699195
 30
0.0
 10
13.7950394163
 20
5.7856790835
 30
0.0
 10
13.7918030082
 20
5.7933531275
 30
0.0
 10
13.788638076
 20
5.801387526
 30
0.0
 10
13.7855464768
 20
5.8097775489
 30
0.0
 10
13.7825301064
 20
5.818518261
 30
0.0
 10
13.7795906645
 20
5.8276044822
 30
0.0
 10
13.7767299834
 20
5.8370308545
 30
0.0
 10
13.7739497166
 20
5.8467917878
 30
0.0
 10
13.7712515185
 20
5.8568815017
 30
0.0
 10
13.7686370526
 20
5.8672940156
 30
0.0
 10
13.7661077794
 20
5.8780231581
 30
0.0
 10
13.7628113953
 20
5.8929223845
 30
0.0
 10
13.7589267234
 20
5.9122962415
 30
0.0
 10
13.7546822113
 20
5.9364312148
 30
0.0
 10
13.7508106722
 20
5.9616673864
 30
0.0
 10
13.7473214194
 20
5.9879447827
 30
0.0
 10
13.7442228768
 20
6.0152010918
 30
0.0
 10
13.7415225221
 20
6.0433715855
 30
0.0
 10
13.7392268794
 20
6.0723893428
 30
0.0
 10
13.737341487
 20
6.1021854364
 30
0.0
 10
13.7358709242
 20
6.1326889005
 30
0.0
 10
13.7348186795
 20
6.1638275179
 30
0.0
 10
13.7341874101
 20
6.1955268034
 30
0.0
 10
13.7340491163
 20
6.2168391941
 30
0.0
 10
13.7340491163
 20
6.2275751478
 30
0.0
  0
SPLINE
  5
2B4
100
AcDbEntity
  8
0
100
AcDbSpline
 62
7
  6
CONTINUOUS
 70
0
 71
3
 72
24
 73
20
 74
0
 42
0.0000001
 43
0.0000001
 44
0.0000000001
 40
0.0
 40
0.0
 40
0.0
 40
0.0
 40
0.0637763369
 40
0.1273444128
 40
0.1907010146
 40
0.2538548222
 40
0.3168116258
 40
0.3795801703
 40
0.4421711573
 40
0.5045967942
 40
0.5668710022
 40
0.6290091982
 40
0.6910281543
 40
0.7220010115
 40
0.7529508888
 40
0.8147862831
 40
0.8765592182
 40
0.9382901608
 40
1.0
 40
1.0
 40
1.0
 40
1.0
 10
7.9740522592
 20
8.8930211999
 30
0.0
 10
7.9740522592
 20
8.8997789855
 30
0.0
 10
7.9743757404
 20
8.9132747784
 30
0.0
 10
7.9758356406
 20
8.9334363457
 30
0.0
 10
7.9782664455
 20
8.9534381291
 30
0.0
 10
7.9816622952
 20
8.9732330875
 30
0.0
 10
7.9860156228
 20
8.992776019
 30
0.0
 10
7.9913163437
 20
9.0120217437
 30
0.0
 10
7.9975522638
 20
9.0309259251
 30
0.0
 10
8.0047090897
 20
9.0494449398
 30
0.0
 10
8.0127704108
 20
9.067536139
 30
0.0
 10
8.0217174611
 20
9.0851575374
 30
0.0
 10
8.0298983581
 20
9.0994237477
 30
0.0
 10
8.0368634471
 20
9.1105590209
 30
0.0
 10
8.0440999018
 20
9.1214965663
 30
0.0
 10
8.0536583768
 20
9.1348044261
 30
0.0
 10
8.0659232464
 20
9.1501532515
 30
0.0
 10
8.0789512431
 20
9.1648417435
 30
0.0
 10
8.0881269748
 20
9.1741727316
 30
0.0
 10
8.0928300602
 20
9.1787155424
 30
0.0
  0
SPLINE
  5
2B5
100
AcDbEntity
  8
0
100
AcDbSpline
 62
7
  6
CONTINUOUS
 70
0
 71
3
 72
90
 73
86
 74
0
 42
0.0000001
 43
0.0000001
 44
0.0000000001
 40
0.0
 40
0.0
 40
0.0
 40
0.0
 40
0.0038584615
 40
0.0078720323
 40
0.0120439661
 40
0.0163770126
 40
0.0208735189
 40
0.025535369
 40
0.0303638699
 40
0.0353598859
 40
0.0405239421
 40
0.0458561858
 40
0.0513565082
 40
0.0570244997
 40
0.0628594676
 40
0.0688605349
 40
0.0750265565
 40
0.0813562111
 40
0.087848008
 40
0.0945002344
 40
0.1082782308
 40
0.1226739313
 40
0.1376685957
 40
0.1532415411
 40
0.1693703109
 40
0.1860308371
 40
0.203197601
 40
0.2208437558
 40
0.2389412274
 40
0.2574608126
 40
0.2763722966
 40
0.2956445436
 40
0.3152455776
 40
0.3351426602
 40
0.355302389
 40
0.3756907792
 40
0.3962733385
 40
0.4170151407
 40
0.4378809146
 40
0.458835122
 40
0.4798420311
 40
0.5008657938
 40
0.5218705278
 40
0.5428203927
 40
0.5636796642
 40
0.5844128146
 40
0.6049845951
 40
0.6253601086
 40
0.6455048851
 40
0.6653849672
 40
0.6849669968
 40
0.7042182878
 40
0.7231069046
 40
0.7416017544
 40
0.7596726895
 40
0.7772905844
 40
0.7944274288
 40
0.8110564374
 40
0.8271521841
 40
0.8426907101
 40
0.8576496572
 40
0.8720084336
 40
0.8857484294
 40
0.8988532287
 40
0.9051631329
 40
0.9113092336
 40
0.917290211
 40
0.9231049973
 40
0.9287526912
 40
0.9342326578
 40
0.9395445318
 40
0.9446881861
 40
0.9496638624
 40
0.9544721106
 40
0.9591138581
 40
0.9635904974
 40
0.9679038418
 40
0.9720562763
 40
0.9760507777
 40
0.9798909616
 40
0.9835812503
 40
0.9871268724
 40
0.9905340139
 40
0.9938099363
 40
1.0
 40
1.0
 40
1.0
 40
1.0
 10
14.1514236378
 20
7.3099545698
 30
0.0
 10
14.1530401414
 20
7.3115159924
 30
0.0
 10
14.1562715741
 20
7.3147711177
 30
0.0
 10
14.1610223516
 20
7.319935004
 30
0.0
 10
14.1657686308
 20
7.3254724802
 30
0.0
 10
14.1705080148
 20
7.3313808228
 30
0.0
 10
14.1752385345
 20
7.3376573584
 30
0.0
 10
14.1799580823
 20
7.3442993747
 30
0.0
 10
14.1846646329
 20
7.351303893
 30
0.0
 10
14.1893560724
 20
7.3586677581
 30
0.0
 10
14.194030213
 20
7.3663876754
 30
0.0
 10
14.1986850249
 20
7.3744601238
 30
0.0
 10
14.2033183597
 20
7.3828814896
 30
0.0
 10
14.2079281231
 20
7.3916479692
 30
0.0
 10
14.2125122721
 20
7.4007555819
 30
0.0
 10
14.2170686532
 20
7.410200231
 30
0.0
 10
14.2215952521
 20
7.4199776177
 30
0.0
 10
14.2260899957
 20
7.4300833123
 30
0.0
 10
14.2305508239
 20
7.440512753
 30
0.0
 10
14.2365206009
 20
7.4550139186
 30
0.0
 10
14.2438727014
 20
7.4739225421
 30
0.0
 10
14.2524282243
 20
7.4975691066
 30
0.0
 10
14.2608011163
 20
7.5223868487
 30
0.0
 10
14.2689760668
 20
7.5483306851
 30
0.0
 10
14.2769381316
 20
7.5753536189
 30
0.0
 10
14.2846727681
 20
7.6034065894
 30
0.0
 10
14.2921658388
 20
7.6324386574
 30
0.0
 10
14.2994036424
 20
7.6623970835
 30
0.0
 10
14.3063729489
 20
7.6932274192
 30
0.0
 10
14.3130610402
 20
7.7248736043
 30
0.0
 10
14.3194557028
 20
7.7572780869
 30
0.0
 10
14.3255452556
 20
7.7903819332
 30
0.0
 10
14.3313185728
 20
7.8241249259
 30
0.0
 10
14.3367651302
 20
7.8584456697
 30
0.0
 10
14.341874992
 20
7.8932817147
 30
0.0
 10
14.3466388332
 20
7.9285696748
 30
0.0
 10
14.3510479537
 20
7.964245337
 30
0.0
 10
14.3550943241
 20
8.0002437745
 30
0.0
 10
14.3587705725
 20
8.0364994715
 30
0.0
 10
14.3620699977
 20
8.0729464456
 30
0.0
 10
14.3649865767
 20
8.1095183647
 30
0.0
 10
14.367515005
 20
8.1461486664
 30
0.0
 10
14.369650688
 20
8.182770682
 30
0.0
 10
14.3713897411
 20
8.2193177588
 30
0.0
 10
14.3727289942
 20
8.2557233801
 30
0.0
 10
14.3736660208
 20
8.2919212876
 30
0.0
 10
14.3741991379
 20
8.3278456041
 30
0.0
 10
14.3743273912
 20
8.3634309514
 30
0.0
 10
14.3740505576
 20
8.3986125677
 30
0.0
 10
14.3733691611
 20
8.4333264309
 30
0.0
 10
14.3722844816
 20
8.4675093778
 30
0.0
 10
14.3707985265
 20
8.5010992155
 30
0.0
 10
14.3689140305
 20
8.5340348302
 30
0.0
 10
14.3666344576
 20
8.5662563084
 30
0.0
 10
14.3639640183
 20
8.5977050522
 30
0.0
 10
14.3609076299
 20
8.6283238813
 30
0.0
 10
14.3574709123
 20
8.6580571305
 30
0.0
 10
14.3536601758
 20
8.6868507651
 30
0.0
 10
14.3494824453
 20
8.7146524909
 30
0.0
 10
14.3449454116
 20
8.7414118546
 30
0.0
 10
14.3400574184
 20
8.767080305
 30
0.0
 10
14.3348274437
 20
8.7916113839
 30
0.0
 10
14.3292650928
 20
8.8149605475
 30
0.0
 10
14.3243008467
 20
8.8336262885
 30
0.0
 10
14.3201603841
 20
8.8479280968
 30
0.0
 10
14.3170175364
 20
8.8581975346
 30
0.0
 10
14.3137994011
 20
8.8681409524
 30
0.0
 10
14.3105074896
 20
8.8777538743
 30
0.0
 10
14.307143249
 20
8.8870319346
 30
0.0
 10
14.3037082128
 20
8.8959709393
 30
0.0
 10
14.3002039831
 20
8.904566864
 30
0.0
 10
14.2966320645
 20
8.9128158064
 30
0.0
 10
14.2929941363
 20
8.9207140726
 30
0.0
 10
14.289291812
 20
8.9282581066
 30
0.0
 10
14.2855267045
 20
8.9354445026
 30
0.0
 10
14.2817005689
 20
8.9422700758
 30
0.0
 10
14.2778150134
 20
8.9487317392
 30
0.0
 10
14.2738717723
 20
8.95482662
 30
0.0
 10
14.2698725812
 20
8.9605520244
 30
0.0
 10
14.2658190745
 20
8.96590533
 30
0.0
 10
14.2617130054
 20
8.9708842335
 30
0.0
 10
14.2575561827
 20
8.975486333
 30
0.0
 10
14.2533497252
 20
8.9797099371
 30
0.0
 10
14.2477843827
 20
8.984737713
 30
0.0
 10
14.2433830056
 20
8.9880888661
 30
0.0
 10
14.240372064
 20
8.9900724055
 30
0.0
  0
SPLINE
  5
2B6
100
AcDbEntity
  8
0
100
AcDbSpline
 62
7
  6
CONTINUOUS
 70
0
 71
3
 72
12
 73
8
 74
0
 42
0.0000001
 43
0.0000001
 44
0.0000000001
 40
0.0
 40
0.0
 40
0.0
 40
0.0
 40
0.27297364
 40
0.5297850171
 40
0.6525073293
 40
0.7716580484
 40
1.0
 40
1.0
 40
1.0
 40
1.0
 10
14.1514236378
 20
7.3099545698
 30
0.0
 10
14.1490724833
 20
7.3076835288
 30
0.0
 10
14.1443734443
 20
7.3034133126
 30
0.0
 10
14.1382263787
 20
7.2985765972
 30
0.0
 10
14.1333149668
 20
7.2951763916
 30
0.0
 10
14.1285520279
 20
7.2921710356
 30
0.0
 10
14.1248849807
 20
7.2901865914
 30
0.0
 10
14.1224159571
 20
7.2890114671
 30
0.0
  0
SPLINE
  5
2B7
100
AcDbEntity
  8
0
100
AcDbSpline
 62
7
  6
CONTINUOUS
 70
0
 71
3
 72
17
 73
13
 74
0
 42
0.0000001
 43
0.0000001
 44
0.0000000001
 40
0.0
 40
0.0
 40
0.0
 40
0.0
 40
0.1481535524
 40
0.2883523972
 40
0.4210905564
 40
0.5470035809
 40
0.666861166
 40
0.7815731183
 40
0.8373430367
 40
0.8922343706
 40
0.9464001114
 40
1.0
 40
1.0
 40
1.0
 40
1.0
 10
14.1514236378
 20
7.3350686427
 30
0.0
 10
14.1493560287
 20
7.3330714856
 30
0.0
 10
14.1452230844
 20
7.3292944157
 30
0.0
 10
14.1388499053
 20
7.3241722769
 30
0.0
 10
14.1324834469
 20
7.3197595689
 30
0.0
 10
14.1261285179
 20
7.3160610355
 30
0.0
 10
14.1197899648
 20
7.3130812466
 30
0.0
 10
14.1144747897
 20
7.3111827851
 30
0.0
 10
14.1102515222
 20
7.3100415386
 30
0.0
 10
14.1071219075
 20
7.3093747802
 30
0.0
 10
14.1040017653
 20
7.3088896007
 30
0.0
 10
14.1019192809
 20
7.3086864386
 30
0.0
 10
14.1008816823
 20
7.3086156537
 30
0.0
  0
SPLINE
  5
2B8
100
AcDbEntity
  8
0
100
AcDbSpline
 62
7
  6
CONTINUOUS
 70
0
 71
3
 72
15
 73
11
 74
0
 42
0.0000001
 43
0.0000001
 44
0.0000000001
 40
0.0
 40
0.0
 40
0.0
 40
0.0
 40
0.141803243
 40
0.2783055154
 40
0.4097049249
 40
0.5362375199
 40
0.6581873341
 40
0.7758789535
 40
0.8896793999
 40
1.0
 40
1.0
 40
1.0
 40
1.0
 10
14.116289951
 20
7.3577896158
 30
0.0
 10
14.1148856837
 20
7.3564331976
 30
0.0
 10
14.1120779106
 20
7.353823857
 30
0.0
 10
14.1077853977
 20
7.3501612895
 30
0.0
 10
14.103495541
 20
7.34682782
 30
0.0
 10
14.0992101298
 20
7.3438252155
 30
0.0
 10
14.094930877
 20
7.3411547401
 30
0.0
 10
14.0906592204
 20
7.3388176219
 30
0.0
 10
14.0863970329
 20
7.3368151404
 30
0.0
 10
14.0835215849
 20
7.3356877284
 30
0.0
 10
14.0820887968
 20
7.3351834815
 30
0.0
  0
SPLINE
  5
2B9
100
AcDbEntity
  8
0
100
AcDbSpline
 62
7
  6
CONTINUOUS
 70
0
 71
3
 72
25
 73
21
 74
0
 42
0.0000001
 43
0.0000001
 44
0.0000000001
 40
0.0
 40
0.0
 40
0.0
 40
0.0
 40
0.0637759544
 40
0.1273437832
 40
0.1907000454
 40
0.2538535205
 40
0.3168100131
 40
0.3795782341
 40
0.4421689029
 40
0.5045942218
 40
0.5668681111
 40
0.6290059908
 40
0.6910246319
 40
0.7219973303
 40
0.7529470501
 40
0.8147821282
 40
0.8765547489
 40
0.907426564
 40
0.9382904762
 40
1.0
 40
1.0
 40
1.0
 40
1.0
 10
8.9998653522
 20
7.9776617584
 30
0.0
 10
8.9998653522
 20
7.9844195374
 30
0.0
 10
9.0001888359
 20
7.9979153313
 30
0.0
 10
9.0016487323
 20
8.0180768976
 30
0.0
 10
9.0040795367
 20
8.0380786849
 30
0.0
 10
9.0074753886
 20
8.0578736397
 30
0.0
 10
9.0118287156
 20
8.0774165692
 30
0.0
 10
9.0171294343
 20
8.0966622938
 30
0.0
 10
9.0233653498
 20
8.115566475
 30
0.0
 10
9.0305221812
 20
8.1340854861
 30
0.0
 10
9.038583501
 20
8.1521766841
 30
0.0
 10
9.0475305447
 20
8.1697980836
 30
0.0
 10
9.055711441
 20
8.1840642956
 30
0.0
 10
9.0626765285
 20
8.1951995632
 30
0.0
 10
9.0699130001
 20
8.2061371186
 30
0.0
 10
9.0794713798
 20
8.2194448677
 30
0.0
 10
9.0896944547
 20
8.2322385065
 30
0.0
 10
9.0982529513
 20
8.2421409716
 30
0.0
 10
9.1070583433
 20
8.25181511
 30
0.0
 10
9.1139400554
 20
8.2588132702
 30
0.0
 10
9.1186431402
 20
8.2633560807
 30
0.0
  0
SPLINE
  5
2BA
100
AcDbEntity
  8
0
100
AcDbSpline
 62
7
  6
CONTINUOUS
 70
0
 71
3
 72
96
 73
92
 74
0
 42
0.0000001
 43
0.0000001
 44
0.0000000001
 40
0.0
 40
0.0
 40
0.0
 40
0.0
 40
0.0027164098
 40
0.005453196
 40
0.0082302447
 40
0.011066522
 40
0.0139797077
 40
0.0169860006
 40
0.0200999433
 40
0.0233344386
 40
0.0267007761
 40
0.030208701
 40
0.0338665986
 40
0.0376815378
 40
0.0416594868
 40
0.0458053919
 40
0.0501232867
 40
0.0546164575
 40
0.0592874351
 40
0.0641381797
 40
0.0691700761
 40
0.0743840124
 40
0.0797804753
 40
0.085359501
 40
0.0911208246
 40
0.0970638216
 40
0.1031875788
 40
0.1094909395
 40
0.1159724488
 40
0.1226304778
 40
0.1294631407
 40
0.1364683707
 40
0.1436439297
 40
0.1509873654
 40
0.1661671594
 40
0.1819854932
 40
0.1984176087
 40
0.2154367517
 40
0.2330143585
 40
0.251120216
 40
0.2697226026
 40
0.2887884308
 40
0.3082833745
 40
0.3281719854
 40
0.3484178035
 40
0.3689834605
 40
0.3898307889
 40
0.4109209281
 40
0.4322144251
 40
0.4536713332
 40
0.4752513091
 40
0.4969137129
 40
0.5186177088
 40
0.5403223621
 40
0.5619867363
 40
0.5835699892
 40
0.6050314742
 40
0.6263308386
 40
0.6474281213
 40
0.6682838504
 40
0.6888591421
 40
0.7091158066
 40
0.7290164528
 40
0.7485245891
 40
0.7676047308
 40
0.7862225103
 40
0.8043447981
 40
0.8219398341
 40
0.8389773554
 40
0.8554287397
 40
0.8712671681
 40
0.8864678116
 40
0.9010080585
 40
0.9080242996
 40
0.9148680958
 40
0.9215373949
 40
0.9280302874
 40
0.9343451215
 40
0.9404804543
 40
0.9464350763
 40
0.9522080867
 40
0.9577988219
 40
0.9632069984
 40
0.968432657
 40
0.9734762172
 40
0.9783385478
 40
0.9830209658
 40
0.9875254698
 40
0.9918546527
 40
0.9960116074
 40
1.0
 40
1.0
 40
1.0
 40
1.0
 10
14.2708789261
 20
8.9964004876
 30
0.0
 10
14.2724858756
 20
8.9962890396
 30
0.0
 10
14.2757035958
 20
8.9959198212
 30
0.0
 10
14.2804892124
 20
8.9949319168
 30
0.0
 10
14.2852386662
 20
8.9935100479
 30
0.0
 10
14.2899485487
 20
8.9916555464
 30
0.0
 10
14.2946164763
 20
8.9893701691
 30
0.0
 10
14.2992399896
 20
8.986655575
 30
0.0
 10
14.303817017
 20
8.9835138025
 30
0.0
 10
14.3083454999
 20
8.9799467956
 30
0.0
 10
14.3128234551
 20
8.9759566197
 30
0.0
 10
14.3172490273
 20
8.9715455227
 30
0.0
 10
14.3216201802
 20
8.9667157146
 30
0.0
 10
14.3259350733
 20
8.961469727
 30
0.0
 10
14.3301916924
 20
8.9558101267
 30
0.0
 10
14.3343880739
 20
8.949739718
 30
0.0
 10
14.3385223035
 20
8.9432615165
 30
0.0
 10
14.3425923154
 20
8.936378663
 30
0.0
 10
14.3465962474
 20
8.9290945965
 30
0.0
 10
14.3505320763
 20
8.9214128797
 30
0.0
 10
14.3543978928
 20
8.913337325
 30
0.0
 10
14.358191819
 20
8.9048719434
 30
0.0
 10
14.3619118969
 20
8.8960209186
 30
0.0
 10
14.3655563628
 20
8.8867886808
 30
0.0
 10
14.3691233198
 20
8.8771798122
 30
0.0
 10
14.3726110188
 20
8.8671991199
 30
0.0
 10
14.3760177201
 20
8.8568515917
 30
0.0
 10
14.3793416583
 20
8.8461423953
 30
0.0
 10
14.3825812376
 20
8.835076904
 30
0.0
 10
14.3857347535
 20
8.8236606514
 30
0.0
 10
14.3888006658
 20
8.8118993671
 30
0.0
 10
14.3917774175
 20
8.7997989514
 30
0.0
 10
14.3946634951
 20
8.7873654613
 30
0.0
 10
14.3984303903
 20
8.7701614927
 30
0.0
 10
14.4028903243
 20
8.7478647121
 30
0.0
 10
14.4078012208
 20
8.7201689746
 30
0.0
 10
14.4123183558
 20
8.6913019017
 30
0.0
 10
14.4164325617
 20
8.6613215023
 30
0.0
 10
14.4201354529
 20
8.6302878841
 30
0.0
 10
14.4234194879
 20
8.5982633586
 30
0.0
 10
14.4262779867
 20
8.5653122468
 30
0.0
 10
14.4287051318
 20
8.5315007581
 30
0.0
 10
14.430695979
 20
8.4968968429
 30
0.0
 10
14.4322464678
 20
8.4615700548
 30
0.0
 10
14.4333534259
 20
8.4255914123
 30
0.0
 10
14.434014588
 20
8.3890332567
 30
0.0
 10
14.4342285943
 20
8.3519691027
 30
0.0
 10
14.4339949861
 20
8.3144734864
 30
0.0
 10
14.4333142084
 20
8.2766218128
 30
0.0
 10
14.4321876071
 20
8.2384902068
 30
0.0
 10
14.4306174305
 20
8.2001553603
 30
0.0
 10
14.4286068322
 20
8.1616943762
 30
0.0
 10
14.426159852
 20
8.123184611
 30
0.0
 10
14.4232814093
 20
8.0847035187
 30
0.0
 10
14.4199772932
 20
8.0463284965
 30
0.0
 10
14.4162541495
 20
8.0081367285
 30
0.0
 10
14.4121194806
 20
7.9702050274
 30
0.0
 10
14.4075816201
 20
7.9326096793
 30
0.0
 10
14.4026497135
 20
7.8954262907
 30
0.0
 10
14.397333702
 20
7.8587296385
 30
0.0
 10
14.3916442994
 20
7.8225935178
 30
0.0
 10
14.3855929809
 20
7.7870905882
 30
0.0
 10
14.3791919597
 20
7.752292225
 30
0.0
 10
14.3724541537
 20
7.718268377
 30
0.0
 10
14.3653931625
 20
7.6850874285
 30
0.0
 10
14.3580232392
 20
7.6528160586
 30
0.0
 10
14.3503592631
 20
7.6215190988
 30
0.0
 10
14.3424167215
 20
7.5912593948
 30
0.0
 10
14.3342116641
 20
7.5620976733
 30
0.0
 10
14.3257606726
 20
7.5340924405
 30
0.0
 10
14.3170808243
 20
7.5072997832
 30
0.0
 10
14.3081896583
 20
7.4817735033
 30
0.0
 10
14.3005310106
 20
7.4613639292
 30
0.0
 10
14.2943024953
 20
7.4457164166
 30
0.0
 10
14.2896450055
 20
7.4344684078
 30
0.0
 10
14.2849482694
 20
7.4235738673
 30
0.0
 10
14.2802145564
 20
7.4130382625
 30
0.0
 10
14.2754462939
 20
7.4028668627
 30
0.0
 10
14.2706458749
 20
7.393064757
 30
0.0
 10
14.2658156664
 20
7.3836368649
 30
0.0
 10
14.2609581648
 20
7.3745878721
 30
0.0
 10
14.2560757213
 20
7.3659223233
 30
0.0
 10
14.25117083
 20
7.357644511
 30
0.0
 10
14.2462459112
 20
7.3497585598
 30
0.0
 10
14.2413033894
 20
7.342268416
 30
0.0
 10
14.2363458053
 20
7.3351777704
 30
0.0
 10
14.2313754958
 20
7.3284901591
 30
0.0
 10
14.2263949052
 20
7.3222087989
 30
0.0
 10
14.2214063324
 20
7.3163367717
 30
0.0
 10
14.2164124737
 20
7.3108772658
 30
0.0
 10
14.2130121401
 20
7.3074444992
 30
0.0
 10
14.2113110416
 20
7.3058013642
 30
0.0
  0
SPLINE
  5
2BB
100
AcDbEntity
  8
0
100
AcDbSpline
 62
7
  6
CONTINUOUS
 70
0
 71
3
 72
23
 73
19
 74
0
 42
0.0000001
 43
0.0000001
 44
0.0000000001
 40
0.0
 40
0.0
 40
0.0
 40
0.0
 40
0.0637754757
 40
0.1273453426
 40
0.1907021752
 40
0.2538559149
 40
0.3168132477
 40
0.3795821059
 40
0.4421733695
 40
0.5045993382
 40
0.566873869
 40
0.6290123778
 40
0.6910316472
 40
0.7529496469
 40
0.8147853527
 40
0.8765585998
 40
0.9382898568
 40
1.0
 40
1.0
 40
1.0
 40
1.0
 10
11.989406157
 20
9.6403687846
 30
0.0
 10
11.989406157
 20
9.6447041566
 30
0.0
 10
11.989613719
 20
9.6533623909
 30
0.0
 10
11.9905502635
 20
9.6662970458
 30
0.0
 10
11.9921097291
 20
9.679129247
 30
0.0
 10
11.9942883888
 20
9.6918286598
 30
0.0
 10
11.9970812017
 20
9.7043664127
 30
0.0
 10
12.0004818381
 20
9.7167135176
 30
0.0
 10
12.0044825161
 20
9.7288414676
 30
0.0
 10
12.0090739412
 20
9.7407223473
 30
0.0
 10
12.014245602
 20
9.7523287406
 30
0.0
 10
12.0199856467
 20
9.7636338454
 30
0.0
 10
12.0262807555
 20
9.7746116344
 30
0.0
 10
12.0331164916
 20
9.7852367606
 30
0.0
 10
12.0404771129
 20
9.7954846602
 30
0.0
 10
12.0483456489
 20
9.8053318362
 30
0.0
 10
12.0567037062
 20
9.8147552208
 30
0.0
 10
12.0625903707
 20
9.8207415386
 30
0.0
 10
12.0656076252
 20
9.8236559815
 30
0.0
  0
SPLINE
  5
2BC
100
AcDbEntity
  8
0
100
AcDbSpline
 62
7
  6
CONTINUOUS
 70
0
 71
3
 72
96
 73
92
 74
0
 42
0.0000001
 43
0.0000001
 44
0.0000000001
 40
0.0
 40
0.0
 40
0.0
 40
0.0
 40
0.003956546
 40
0.008078352
 40
0.0123689751
 40
0.0168314029
 40
0.0214681557
 40
0.0262812196
 40
0.0312719223
 40
0.0364411204
 40
0.0417892749
 40
0.047316437
 40
0.053022377
 40
0.0589065058
 40
0.0649679537
 40
0.0712056267
 40
0.0776181328
 40
0.0842039128
 40
0.0909611772
 40
0.0978879291
 40
0.1049820406
 40
0.1122411573
 40
0.1272441155
 40
0.1428754483
 40
0.1591113843
 40
0.1759262221
 40
0.1932924922
 40
0.2111811219
 40
0.2295615897
 40
0.2484020518
 40
0.2676694525
 40
0.2873296294
 40
0.3073474355
 40
0.3276868429
 40
0.3483110387
 40
0.3691825146
 40
0.3902631704
 40
0.4115144132
 40
0.4328972487
 40
0.4543723704
 40
0.4759002543
 40
0.4974412557
 40
0.5189557001
 40
0.5404039719
 40
0.561746611
 40
0.5829444077
 40
0.6039584925
 40
0.6247504268
 40
0.6452822999
 40
0.6655168327
 40
0.6854174663
 40
0.7049484571
 40
0.7240749769
 40
0.7427632321
 40
0.7609805665
 40
0.7786955671
 40
0.7958781835
 40
0.8124998719
 40
0.8285337511
 40
0.8439547488
 40
0.8587397872
 40
0.8658873419
 40
0.8728683
 40
0.8796804284
 40
0.8863216891
 40
0.8927902515
 40
0.8990844341
 40
0.9052028324
 40
0.9111442365
 40
0.9169076881
 40
0.9224925452
 40
0.9278984074
 40
0.933125259
 40
0.9381734313
 40
0.9430436384
 40
0.9477371024
 40
0.9522554941
 40
0.9566010897
 40
0.9607768102
 40
0.9647862605
 40
0.9686339219
 40
0.9723251534
 40
0.9758663681
 40
0.9792651627
 40
0.9825303797
 40
0.9856723163
 40
0.9887027552
 40
0.9916350521
 40
0.9944841687
 40
0.9972665494
 40
1.0
 40
1.0
 40
1.0
 40
1.0
 10
14.1514236378
 20
7.3350686427
 30
0.0
 10
14.1530534597
 20
7.3366429299
 30
0.0
 10
14.1563113744
 20
7.3399301782
 30
0.0
 10
14.1610972982
 20
7.3451550664
 30
0.0
 10
14.1658783098
 20
7.3507707054
 30
0.0
 10
14.1706518307
 20
7.3567741184
 30
0.0
 10
14.1754157246
 20
7.3631623923
 30
0.0
 10
14.1801676967
 20
7.3699325466
 30
0.0
 10
14.1849055585
 20
7.3770812956
 30
0.0
 10
14.1896269847
 20
7.3846051782
 30
0.0
 10
14.194329626
 20
7.3925005503
 30
0.0
 10
14.1990112749
 20
7.4007635354
 30
0.0
 10
14.2036695778
 20
7.409390149
 30
0.0
 10
14.2083022997
 20
7.4183761706
 30
0.0
 10
14.2129071867
 20
7.4277172121
 30
0.0
 10
14.2174819194
 20
7.4374087311
 30
0.0
 10
14.2220243302
 20
7.4474459646
 30
0.0
 10
14.2265321353
 20
7.4578240201
 30
0.0
 10
14.231003132
 20
7.4685378146
 30
0.0
 10
14.2354351566
 20
7.4795820905
 30
0.0
 10
14.2398259836
 20
7.4909514638
 30
0.0
 10
14.2456870846
 20
7.506709988
 30
0.0
 10
14.2528847249
 20
7.5271861437
 30
0.0
 10
14.2612318651
 20
7.5527008009
 30
0.0
 10
14.26936458
 20
7.5793713198
 30
0.0
 10
14.2772668162
 20
7.6071453833
 30
0.0
 10
14.2849229825
 20
7.6359686266
 30
0.0
 10
14.2923179828
 20
7.6657845392
 30
0.0
 10
14.2994372301
 20
7.6965346583
 30
0.0
 10
14.3062666802
 20
7.7281586704
 30
0.0
 10
14.3127928607
 20
7.7605945266
 30
0.0
 10
14.3190029198
 20
7.7937785622
 30
0.0
 10
14.3248846224
 20
7.8276456345
 30
0.0
 10
14.3304263801
 20
7.8621292578
 30
0.0
 10
14.3356172678
 20
7.8971617299
 30
0.0
 10
14.3404470686
 20
7.9326742586
 30
0.0
 10
14.3449062819
 20
7.9685971028
 30
0.0
 10
14.348986132
 20
8.0048597157
 30
0.0
 10
14.3526785858
 20
8.0413908828
 30
0.0
 10
14.3559763743
 20
8.0781188577
 30
0.0
 10
14.3588730246
 20
8.1149715035
 30
0.0
 10
14.3613628465
 20
8.1518764395
 30
0.0
 10
14.3634409488
 20
8.1887611824
 30
0.0
 10
14.3651032433
 20
8.225553288
 30
0.0
 10
14.3663464788
 20
8.2621804942
 30
0.0
 10
14.367168232
 20
8.2985708657
 30
0.0
 10
14.367566905
 20
8.334652934
 30
0.0
 10
14.3675417279
 20
8.3703558354
 30
0.0
 10
14.367092769
 20
8.4056094551
 30
0.0
 10
14.3662209509
 20
8.4403445687
 30
0.0
 10
14.3649280227
 20
8.4744929764
 30
0.0
 10
14.3632165623
 20
8.5079876309
 30
0.0
 10
14.3610899662
 20
8.5407627765
 30
0.0
 10
14.3585524721
 20
8.5727540858
 30
0.0
 10
14.3556091317
 20
8.6038987889
 30
0.0
 10
14.3522657952
 20
8.6341357875
 30
0.0
 10
14.3485290989
 20
8.6634057833
 30
0.0
 10
14.3444064614
 20
8.6916513927
 30
0.0
 10
14.3399060945
 20
8.7188173362
 30
0.0
 10
14.335036917
 20
8.7448503176
 30
0.0
 10
14.3306318997
 20
8.7657872252
 30
0.0
 10
14.3269213779
 20
8.7819258746
 30
0.0
 10
14.3240837708
 20
8.793578809
 30
0.0
 10
14.3211614667
 20
8.804911597
 30
0.0
 10
14.3181558776
 20
8.8159186973
 30
0.0
 10
14.3150685384
 20
8.826594725
 30
0.0
 10
14.3119008894
 20
8.836934444
 30
0.0
 10
14.3086545527
 20
8.8469328087
 30
0.0
 10
14.3053311006
 20
8.8565849315
 30
0.0
 10
14.3019321279
 20
8.8658860905
 30
0.0
 10
14.2984593734
 20
8.8748317683
 30
0.0
 10
14.2949144513
 20
8.8834175867
 30
0.0
 10
14.2912991383
 20
8.8916393831
 30
0.0
 10
14.2876151996
 20
8.8994931718
 30
0.0
 10
14.2838643479
 20
8.90697512
 30
0.0
 10
14.2800484806
 20
8.9140816463
 30
0.0
 10
14.2761693431
 20
8.9208092921
 30
0.0
 10
14.2722287922
 20
8.9271548228
 30
0.0
 10
14.2682287197
 20
8.9331152154
 30
0.0
 10
14.2641708759
 20
8.9386875458
 30
0.0
 10
14.260057207
 20
8.9438691899
 30
0.0
 10
14.255889495
 20
8.9486576043
 30
0.0
 10
14.2516695516
 20
8.9530504167
 30
0.0
 10
14.2473992703
 20
8.957045493
 30
0.0
 10
14.2430803576
 20
8.9606406486
 30
0.0
 10
14.2387147242
 20
8.963833985
 30
0.0
 10
14.2343042046
 20
8.966623597
 30
0.0
 10
14.229850754
 20
8.9690075802
 30
0.0
 10
14.2253564161
 20
8.9709843672
 30
0.0
 10
14.2208238952
 20
8.9725521202
 30
0.0
 10
14.2177571246
 20
8.973329063
 30
0.0
 10
14.2162241524
 20
8.9736465219
 30
0.0
  0
SPLINE
  5
2BD
100
AcDbEntity
  8
0
100
AcDbSpline
 62
7
  6
CONTINUOUS
 70
0
 71
3
 72
92
 73
88
 74
0
 42
0.0000001
 43
0.0000001
 44
0.0000000001
 40
0.0
 40
0.0
 40
0.0
 40
0.0
 40
0.0038881003
 40
0.0079343839
 40
0.0121421942
 40
0.0165143454
 40
0.0210532321
 40
0.0257607719
 40
0.0306382874
 40
0.0356866361
 40
0.0409063285
 40
0.0462974823
 40
0.0518599479
 40
0.057593274
 40
0.0634967076
 40
0.0695693094
 40
0.0758098675
 40
0.0822169784
 40
0.0887890757
 40
0.0955243572
 40
0.1094763466
 40
0.1240558923
 40
0.1392434006
 40
0.1550172754
 40
0.1713540882
 40
0.1882287593
 40
0.2056147188
 40
0.2234840311
 40
0.2418074929
 40
0.260554751
 40
0.2796944186
 40
0.2991941681
 40
0.3190208089
 40
0.3391403826
 40
0.3595182624
 40
0.380119235
 40
0.4009075761
 40
0.4218471376
 40
0.4429014381
 40
0.4640337417
 40
0.4852071356
 40
0.5063846166
 40
0.5275291747
 40
0.5486038716
 40
0.569571921
 40
0.5903967785
 40
0.6110422204
 40
0.6314724217
 40
0.6516520405
 40
0.6715463153
 40
0.6911211411
 40
0.7103431499
 40
0.7291798027
 40
0.7475994997
 40
0.7655716624
 40
0.7830668255
 40
0.8000567465
 40
0.8165145456
 40
0.8324148163
 40
0.8477337551
 40
0.8624493253
 40
0.8765414731
 40
0.8899923348
 40
0.8964725259
 40
0.9027868418
 40
0.9089337744
 40
0.9149120689
 40
0.9207206323
 40
0.9263586321
 40
0.9318255064
 40
0.9371209203
 40
0.9422449032
 40
0.9471977886
 40
0.9519802695
 40
0.956593502
 40
0.9610390478
 40
0.9653190196
 40
0.9694361181
 40
0.9733936538
 40
0.9771957298
 40
0.9808472422
 40
0.9843540144
 40
0.9877229443
 40
0.9909620344
 40
0.9940805782
 40
0.9970892198
 40
1.0
 40
1.0
 40
1.0
 40
1.0
 10
14.116289951
 20
7.3577896158
 30
0.0
 10
14.1178368096
 20
7.3592837665
 30
0.0
 10
14.1209289822
 20
7.3624001987
 30
0.0
 10
14.1254739227
 20
7.3673470007
 30
0.0
 10
14.1300144591
 20
7.372655411
 30
0.0
 10
14.1345482381
 20
7.3783227579
 30
0.0
 10
14.139073333
 20
7.3843464122
 30
0.0
 10
14.143587681
 20
7.3907237099
 30
0.0
 10
14.148089296
 20
7.3974517264
 30
0.0
 10
14.1525761156
 20
7.4045273562
 30
0.0
 10
14.1570459905
 20
7.4119473608
 30
0.0
 10
14.1614969326
 20
7.4197082742
 30
0.0
 10
14.1659268451
 20
7.4278065357
 30
0.0
 10
14.1703336667
 20
7.4362384051
 30
0.0
 10
14.1747154058
 20
7.4449999585
 30
0.0
 10
14.1790699543
 20
7.4540871601
 30
0.0
 10
14.1833953314
 20
7.4634957775
 30
0.0
 10
14.1876895229
 20
7.4732214416
 30
0.0
 10
14.1919505004
 20
7.4832596604
 30
0.0
 10
14.1976519394
 20
7.4972186777
 30
0.0
 10
14.2046710279
 20
7.5154218007
 30
0.0
 10
14.2128346203
 20
7.5381868062
 30
0.0
 10
14.2208194632
 20
7.5620799975
 30
0.0
 10
14.2286106001
 20
7.5870569291
 30
0.0
 10
14.2361934532
 20
7.6130712621
 30
0.0
 10
14.2435538356
 20
7.640074632
 30
0.0
 10
14.2506779689
 20
7.6680168302
 30
0.0
 10
14.2575525079
 20
7.6968458775
 30
0.0
 10
14.2641645942
 20
7.7265081147
 30
0.0
 10
14.2705018687
 20
7.7569483097
 30
0.0
 10
14.2765524791
 20
7.7881097776
 30
0.0
 10
14.2823051012
 20
7.8199344847
 30
0.0
 10
14.2877489821
 20
7.8523631467
 30
0.0
 10
14.2928739589
 20
7.8853353423
 30
0.0
 10
14.2976704558
 20
7.9187896378
 30
0.0
 10
14.3021295029
 20
7.9526637007
 30
0.0
 10
14.3062427703
 20
7.9868944086
 30
0.0
 10
14.3100025897
 20
8.0214179682
 30
0.0
 10
14.3134019438
 20
8.0561700415
 30
0.0
 10
14.3164344809
 20
8.0910858653
 30
0.0
 10
14.3190945391
 20
8.1261003679
 30
0.0
 10
14.3213771718
 20
8.1611482917
 30
0.0
 10
14.3232781271
 20
8.1961643182
 30
0.0
 10
14.3247938596
 20
8.2310831881
 30
0.0
 10
14.3259215435
 20
8.2658398235
 30
0.0
 10
14.3266591009
 20
8.3003694507
 30
0.0
 10
14.3270051734
 20
8.3346077218
 30
0.0
 10
14.3269591277
 20
8.3684908304
 30
0.0
 10
14.3265210605
 20
8.4019556354
 30
0.0
 10
14.3256918269
 20
8.4349397822
 30
0.0
 10
14.3244730052
 20
8.4673818179
 30
0.0
 10
14.3228668975
 20
8.4992212984
 30
0.0
 10
14.3208765238
 20
8.53039891
 30
0.0
 10
14.318505652
 20
8.5608565869
 30
0.0
 10
14.315758757
 20
8.5905376178
 30
0.0
 10
14.3126410135
 20
8.6193867421
 30
0.0
 10
14.3091582822
 20
8.6473502651
 30
0.0
 10
14.3053171388
 20
8.6743761708
 30
0.0
 10
14.3011248285
 20
8.7004142248
 30
0.0
 10
14.2965892483
 20
8.7254160376
 30
0.0
 10
14.2917189315
 20
8.7493352481
 30
0.0
 10
14.2865230406
 20
8.77212737
 30
0.0
 10
14.2818741574
 20
8.790366109
 30
0.0
 10
14.2779896395
 20
8.8043544167
 30
0.0
 10
14.2750372105
 20
8.8144074098
 30
0.0
 10
14.2720108731
 20
8.8241480851
 30
0.0
 10
14.2689120861
 20
8.833571949
 30
0.0
 10
14.2657422478
 20
8.842674619
 30
0.0
 10
14.2625028331
 20
8.8514518773
 30
0.0
 10
14.2591953971
 20
8.8598996755
 30
0.0
 10
14.2558213945
 20
8.8680140856
 30
0.0
 10
14.252382447
 20
8.87579138
 30
0.0
 10
14.2488801316
 20
8.8832279745
 30
0.0
 10
14.2453160029
 20
8.8903204252
 30
0.0
 10
14.2416917721
 20
8.8970655095
 30
0.0
 10
14.238009014
 20
8.9034601082
 30
0.0
 10
14.2342694009
 20
8.9095012996
 30
0.0
 10
14.2304746495
 20
8.9151863539
 30
0.0
 10
14.2266263374
 20
8.9205126196
 30
0.0
 10
14.2227262171
 20
8.9254777087
 30
0.0
 10
14.2187759285
 20
8.9300793284
 30
0.0
 10
14.2147770847
 20
8.9343152946
 30
0.0
 10
14.210731417
 20
8.9381836822
 30
0.0
 10
14.206640513
 20
8.9416825104
 30
0.0
 10
14.2025059675
 20
8.9448100568
 30
0.0
 10
14.1983298255
 20
8.9475644986
 30
0.0
 10
14.1954754913
 20
8.9491754548
 30
0.0
 10
14.1940447373
 20
8.9499138386
 30
0.0
  0
SPLINE
  5
2BE
100
AcDbEntity
  8
0
100
AcDbSpline
 62
7
  6
CONTINUOUS
 70
0
 71
3
 72
39
 73
35
 74
0
 42
0.0000001
 43
0.0000001
 44
0.0000000001
 40
0.0
 40
0.0
 40
0.0
 40
0.0
 40
0.0299649627
 40
0.0600088362
 40
0.0901503792
 40
0.1204054561
 40
0.1507878389
 40
0.1813084231
 40
0.2119752002
 40
0.2427930841
 40
0.2737638657
 40
0.3048862189
 40
0.3361557736
 40
0.3675652445
 40
0.3991046126
 40
0.4307613536
 40
0.4625207045
 40
0.4943659654
 40
0.5262788283
 40
0.5582397289
 40
0.5902282145
 40
0.6222233239
 40
0.654203974
 40
0.6861493476
 40
0.7180392783
 40
0.7498546269
 40
0.7815776437
 40
0.813192313
 40
0.84468467
 40
0.8760431019
 40
0.9072585524
 40
0.9383249076
 40
0.9692386239
 40
1.0
 40
1.0
 40
1.0
 40
1.0
 10
12.2601271337
 20
8.2492477794
 30
0.0
 10
12.2518722544
 20
8.2440386039
 30
0.0
 10
12.2349361284
 20
8.2342326447
 30
0.0
 10
12.2084569035
 20
8.221473304
 30
0.0
 10
12.1810031883
 20
8.2107078456
 30
0.0
 10
12.1527169865
 20
8.2019922303
 30
0.0
 10
12.123742307
 20
8.1953702785
 30
0.0
 10
12.0942271255
 20
8.1908755637
 30
0.0
 10
12.0643219717
 20
8.1885306398
 30
0.0
 10
12.0341793204
 20
8.1883471358
 30
0.0
 10
12.0039527749
 20
8.1903256534
 30
0.0
 10
11.9737963
 20
8.1944557979
 30
0.0
 10
11.9438634423
 20
8.2007162387
 30
0.0
 10
11.914306558
 20
8.2090748275
 30
0.0
 10
11.885276045
 20
8.2194887665
 30
0.0
 10
11.8569195889
 20
8.2319048378
 30
0.0
 10
11.8293814216
 20
8.2462596764
 30
0.0
 10
11.8028015973
 20
8.2624800934
 30
0.0
 10
11.7773152891
 20
8.2804834487
 30
0.0
 10
11.7530521096
 20
8.3001780688
 30
0.0
 10
11.7301354597
 20
8.3214637105
 30
0.0
 10
11.7086819072
 20
8.3442320667
 30
0.0
 10
11.6888005998
 20
8.3683673122
 30
0.0
 10
11.6705927159
 20
8.3937466883
 30
0.0
 10
11.6541509492
 20
8.4202411166
 30
0.0
 10
11.6395590422
 20
8.4477158525
 30
0.0
 10
11.626891364
 20
8.476031162
 30
0.0
 10
11.6162125361
 20
8.5050430288
 30
0.0
 10
11.6075770916
 20
8.5346038609
 30
0.0
 10
11.6010292307
 20
8.56456329
 30
0.0
 10
11.5966024939
 20
8.5947687161
 30
0.0
 10
11.5943198409
 20
8.6250668644
 30
0.0
 10
11.5941928734
 20
8.6553014426
 30
0.0
 10
11.5955499394
 20
8.675366846
 30
0.0
 10
11.5965884554
 20
8.6853333893
 30
0.0
  0
SPLINE
  5
2BF
100
AcDbEntity
  8
0
100
AcDbSpline
 62
7
  6
CONTINUOUS
 70
0
 71
3
 72
25
 73
21
 74
0
 42
0.0000001
 43
0.0000001
 44
0.0000000001
 40
0.0
 40
0.0
 40
0.0
 40
0.0
 40
0.0577193201
 40
0.1173219033
 40
0.1785590644
 40
0.2411726715
 40
0.3048967859
 40
0.3694592582
 40
0.4345833096
 40
0.4999890834
 40
0.5653951833
 40
0.6305202079
 40
0.6950842922
 40
0.7588106528
 40
0.8214271358
 40
0.8826677841
 40
0.9126915141
 40
0.9422752101
 40
0.9713880563
 40
1.0
 40
1.0
 40
1.0
 40
1.0
 10
13.9948918252
 20
7.7314306157
 30
0.0
 10
13.9984098733
 20
7.7472582298
 30
0.0
 10
14.0051922107
 20
7.7795127605
 30
0.0
 10
14.0144813887
 20
7.8288072792
 30
0.0
 10
14.0230205762
 20
7.8796319036
 30
0.0
 10
14.0307702729
 20
7.9317533939
 30
0.0
 10
14.0376947371
 20
7.984932927
 30
0.0
 10
14.0437620509
 20
8.0389266476
 30
0.0
 10
14.0489442783
 20
8.093486963
 30
0.0
 10
14.0532175845
 20
8.1483636505
 30
0.0
 10
14.0565623458
 20
8.2033050245
 30
0.0
 10
14.0589632387
 20
8.2580591023
 30
0.0
 10
14.060409319
 20
8.3123747521
 30
0.0
 10
14.0608940898
 20
8.3660029273
 30
0.0
 10
14.0604154476
 20
8.4186975656
 30
0.0
 10
14.0592081037
 20
8.4619102116
 30
0.0
 10
14.0577524462
 20
8.4958268
 30
0.0
 10
14.0564297592
 20
8.5207144804
 30
0.0
 10
14.0548705003
 20
8.5451910527
 30
0.0
 10
14.0536636201
 20
8.5613618942
 30
0.0
 10
14.0530198172
 20
8.5693734241
 30
0.0
  0
SPLINE
  5
2C0
100
AcDbEntity
  8
0
100
AcDbSpline
 62
7
  6
CONTINUOUS
 70
0
 71
3
 72
23
 73
19
 74
0
 42
0.0000001
 43
0.0000001
 44
0.0000000001
 40
0.0
 40
0.0
 40
0.0
 40
0.0
 40
0.0637754757
 40
0.1273453426
 40
0.1907021752
 40
0.2538559149
 40
0.3168132477
 40
0.3795821059
 40
0.4421733695
 40
0.5045993382
 40
0.566873869
 40
0.6290123778
 40
0.6910316472
 40
0.7529496469
 40
0.8147853527
 40
0.8765585998
 40
0.9382898568
 40
1.0
 40
1.0
 40
1.0
 40
1.0
 10
7.8822894403
 20
9.9251982963
 30
0.0
 10
7.8822894403
 20
9.9295336683
 30
0.0
 10
7.8824970023
 20
9.9381919026
 30
0.0
 10
7.8834335468
 20
9.9511265576
 30
0.0
 10
7.8849930124
 20
9.9639587587
 30
0.0
 10
7.8871716721
 20
9.9766581716
 30
0.0
 10
7.889964485
 20
9.9891959244
 30
0.0
 10
7.8933651214
 20
10.0015430293
 30
0.0
 10
7.8973657994
 20
10.0136709793
 30
0.0
 10
7.9019572245
 20
10.025551859
 30
0.0
 10
7.9071288853
 20
10.0371582523
 30
0.0
 10
7.91286893
 20
10.0484633571
 30
0.0
 10
7.9191640388
 20
10.0594411461
 30
0.0
 10
7.9259997749
 20
10.0700662723
 30
0.0
 10
7.9333603962
 20
10.080314172
 30
0.0
 10
7.9412289322
 20
10.090161348
 30
0.0
 10
7.9495869894
 20
10.0995847325
 30
0.0
 10
7.955473654
 20
10.1055710503
 30
0.0
 10
7.9584909085
 20
10.1084854932
 30
0.0
  0
SPLINE
  5
2C1
100
AcDbEntity
  8
0
100
AcDbSpline
 62
7
  6
CONTINUOUS
 70
0
 71
3
 72
37
 73
33
 74
0
 42
0.0000001
 43
0.0000001
 44
0.0000000001
 40
0.0
 40
0.0
 40
0.0
 40
0.0
 40
0.0896339246
 40
0.1767677907
 40
0.2192995162
 40
0.2610901129
 40
0.3021028318
 40
0.3423019319
 40
0.3816528914
 40
0.420122255
 40
0.457678027
 40
0.4942893813
 40
0.529927179
 40
0.5645636401
 40
0.5981728748
 40
0.6307306562
 40
0.6622148501
 40
0.6926054151
 40
0.7218846613
 40
0.7500375615
 40
0.7770518377
 40
0.8029186192
 40
0.827632442
 40
0.8511922419
 40
0.8736014517
 40
0.8948692856
 40
0.9150112091
 40
0.9340504973
 40
0.9520193673
 40
0.9689608612
 40
0.9849308085
 40
1.0
 40
1.0
 40
1.0
 40
1.0
 10
12.2575403141
 20
8.5517037153
 30
0.0
 10
12.2570760097
 20
8.5658769098
 30
0.0
 10
12.2559092016
 20
8.5938204656
 30
0.0
 10
12.2537979635
 20
8.6284534966
 30
0.0
 10
12.2517305631
 20
8.6555007572
 30
0.0
 10
12.2500106991
 20
8.6752554214
 30
0.0
 10
12.2481108508
 20
8.6946228193
 30
0.0
 10
12.2460328754
 20
8.7135837101
 30
0.0
 10
12.2437789009
 20
8.7321192328
 30
0.0
 10
12.2413511233
 20
8.7502109661
 30
0.0
 10
12.2387520453
 20
8.7678409232
 30
0.0
 10
12.2359841879
 20
8.7849915897
 30
0.0
 10
12.233050405
 20
8.8016459255
 30
0.0
 10
12.2299535535
 20
8.8177873948
 30
0.0
 10
12.2266968027
 20
8.8333999767
 30
0.0
 10
12.2232833562
 20
8.8484681845
 30
0.0
 10
12.2197166631
 20
8.862977084
 30
0.0
 10
12.2160002762
 20
8.8769123082
 30
0.0
 10
12.2121378925
 20
8.8902600737
 30
0.0
 10
12.2081334027
 20
8.9030072049
 30
0.0
 10
12.2039907241
 20
8.91514113
 30
0.0
 10
12.1997140535
 20
8.9266499363
 30
0.0
 10
12.1953075027
 20
8.9375223243
 30
0.0
 10
12.1907755102
 20
8.9477477116
 30
0.0
 10
12.1861223512
 20
8.9573161328
 30
0.0
 10
12.1813525945
 20
8.9662183866
 30
0.0
 10
12.1764706188
 20
8.9744458892
 30
0.0
 10
12.1714809419
 20
8.9819908325
 30
0.0
 10
12.1663879596
 20
8.9888459668
 30
0.0
 10
12.1611957595
 20
8.9950048669
 30
0.0
 10
12.1559091072
 20
9.0004609823
 30
0.0
 10
12.1522228248
 20
9.0037154574
 30
0.0
 10
12.1503666232
 20
9.0052115471
 30
0.0
  0
SPLINE
  5
2C2
100
AcDbEntity
  8
0
100
AcDbSpline
 62
7
  6
CONTINUOUS
 70
0
 71
3
 72
37
 73
33
 74
0
 42
0.0000001
 43
0.0000001
 44
0.0000000001
 40
0.0
 40
0.0
 40
0.0
 40
0.0
 40
0.0919669148
 40
0.1810702447
 40
0.2244498968
 40
0.2669970665
 40
0.3086752576
 40
0.3494489635
 40
0.389284196
 40
0.4281481274
 40
0.4660096107
 40
0.5028388988
 40
0.5386080882
 40
0.5732909929
 40
0.6068634612
 40
0.6393034694
 40
0.6705912883
 40
0.7007098445
 40
0.7296447521
 40
0.7573849724
 40
0.7839227741
 40
0.8092547094
 40
0.8333816284
 40
0.8563099869
 40
0.8780521129
 40
0.8986278756
 40
0.9180654623
 40
0.9364034687
 40
0.9536924166
 40
0.9699972619
 40
0.9853995804
 40
1.0
 40
1.0
 40
1.0
 40
1.0
 10
12.2155916146
 20
8.5731172933
 30
0.0
 10
12.2149707266
 20
8.586316681
 30
0.0
 10
12.2135065744
 20
8.6122938191
 30
0.0
 10
12.2110484047
 20
8.6444518482
 30
0.0
 10
12.208725667
 20
8.669493467
 30
0.0
 10
12.2068291404
 20
8.6877300542
 30
0.0
 10
12.2047646362
 20
8.7055715268
 30
0.0
 10
12.2025341076
 20
8.723000272
 30
0.0
 10
12.2001398602
 20
8.7399990573
 30
0.0
 10
12.1975841985
 20
8.7565510934
 30
0.0
 10
12.1948697357
 20
8.7726400285
 30
0.0
 10
12.191999113
 20
8.7882499785
 30
0.0
 10
12.1889752337
 20
8.8033655366
 30
0.0
 10
12.1858010737
 20
8.8179717923
 30
0.0
 10
12.1824798049
 20
8.8320543477
 30
0.0
 10
12.1790147314
 20
8.8455993326
 30
0.0
 10
12.1754092721
 20
8.8585934189
 30
0.0
 10
12.1716670459
 20
8.8710238434
 30
0.0
 10
12.1677916953
 20
8.8828784064
 30
0.0
 10
12.1637871295
 20
8.8941455183
 30
0.0
 10
12.1596571871
 20
8.904814165
 30
0.0
 10
12.155406024
 20
8.9148739965
 30
0.0
 10
12.1510376373
 20
8.9243152394
 30
0.0
 10
12.1465563521
 20
8.9331288409
 30
0.0
 10
12.1419662613
 20
8.9413063148
 30
0.0
 10
12.1372717297
 20
8.9488399337
 30
0.0
 10
12.1324768368
 20
8.9557224987
 30
0.0
 10
12.1275857771
 20
8.96194755
 30
0.0
 10
12.1226025076
 20
8.967509005
 30
0.0
 10
12.1175306561
 20
8.9724014763
 30
0.0
 10
12.1123746834
 20
8.976619139
 30
0.0
 10
12.1087958621
 20
8.9790367008
 30
0.0
 10
12.1069989181
 20
8.9801192096
 30
0.0
  0
SPLINE
  5
2C3
100
AcDbEntity
  8
0
100
AcDbSpline
 62
7
  6
CONTINUOUS
 70
0
 71
3
 72
34
 73
30
 74
0
 42
0.0000001
 43
0.0000001
 44
0.0000000001
 40
0.0
 40
0.0
 40
0.0
 40
0.0
 40
0.0876400246
 40
0.1727312207
 40
0.2550484362
 40
0.3343778955
 40
0.4105185768
 40
0.4473349115
 40
0.4832852264
 40
0.5183488584
 40
0.552505989
 40
0.5857383134
 40
0.6180285422
 40
0.649361039
 40
0.6797214728
 40
0.7090972963
 40
0.7374776767
 40
0.7648537394
 40
0.7912188555
 40
0.8165686457
 40
0.8409016449
 40
0.8642191423
 40
0.8865261843
 40
0.9078314151
 40
0.9281483285
 40
0.9474953401
 40
0.9658971841
 40
0.9833854412
 40
1.0
 40
1.0
 40
1.0
 40
1.0
 10
12.1839678673
 20
8.5949834006
 30
0.0
 10
12.1833113631
 20
8.6060667183
 30
0.0
 10
12.1818341102
 20
8.6279006995
 30
0.0
 10
12.1790738488
 20
8.6600953592
 30
0.0
 10
12.175808285
 20
8.691184585
 30
0.0
 10
12.1720473318
 20
8.7210753636
 30
0.0
 10
12.168471131
 20
8.7451738392
 30
0.0
 10
12.1653602633
 20
8.7637804375
 30
0.0
 10
12.1629367342
 20
8.7772247036
 30
0.0
 10
12.160398631
 20
8.7903048185
 30
0.0
 10
12.1577477475
 20
8.8030110353
 30
0.0
 10
12.1549861691
 20
8.8153338709
 30
0.0
 10
12.1521158858
 20
8.8272641359
 30
0.0
 10
12.1491391212
 20
8.8387929409
 30
0.0
 10
12.1460580561
 20
8.8499116983
 30
0.0
 10
12.14287503
 20
8.8606121366
 30
0.0
 10
12.1395924191
 20
8.8708863039
 30
0.0
 10
12.1362126573
 20
8.8807265705
 30
0.0
 10
12.1327383106
 20
8.8901256546
 30
0.0
 10
12.1291718903
 20
8.8990765908
 30
0.0
 10
12.1255161314
 20
8.9075728006
 30
0.0
 10
12.12177361
 20
8.9156080049
 30
0.0
 10
12.1179471867
 20
8.9231763559
 30
0.0
 10
12.1140394941
 20
8.9302722815
 30
0.0
 10
12.1100534405
 20
8.9368906805
 30
0.0
 10
12.105991716
 20
8.9430266832
 30
0.0
 10
12.1018571136
 20
8.9486759746
 30
0.0
 10
12.0976525707
 20
8.9538341429
 30
0.0
 10
12.0947320941
 20
8.9570222124
 30
0.0
 10
12.0932602083
 20
8.9585268234
 30
0.0
  0
SPLINE
  5
2C4
100
AcDbEntity
  8
0
100
AcDbSpline
 62
7
  6
CONTINUOUS
 70
0
 71
3
 72
45
 73
41
 74
0
 42
0.0000001
 43
0.0000001
 44
0.0000000001
 40
0.0
 40
0.0
 40
0.0
 40
0.0
 40
0.0149721376
 40
0.029947335
 40
0.0449286308
 40
0.0599190311
 40
0.07492148
 40
0.0899388563
 40
0.1049739388
 40
0.1200294105
 40
0.135107819
 40
0.1502115883
 40
0.1653429761
 40
0.1805040925
 40
0.2109173721
 40
0.2414702792
 40
0.2721727287
 40
0.303031231
 40
0.3340487973
 40
0.3652249252
 40
0.3965556633
 40
0.4280337467
 40
0.4596487971
 40
0.4913875803
 40
0.5232343133
 40
0.5551710123
 40
0.5871778763
 40
0.6192336972
 40
0.6513162903
 40
0.6834029386
 40
0.7154708446
 40
0.7474975834
 40
0.7794615495
 40
0.8113423946
 40
0.8431214429
 40
0.874782092
 40
0.9063101524
 40
0.9376942352
 40
0.9689258576
 40
1.0
 40
1.0
 40
1.0
 40
1.0
 10
12.4560550353
 20
5.920851316
 30
0.0
 10
12.453723965
 20
5.9185996759
 30
0.0
 10
12.4489713077
 20
5.9141880867
 30
0.0
 10
12.4415841266
 20
5.9078586089
 30
0.0
 10
12.4339482902
 20
5.9018248123
 30
0.0
 10
12.4260743032
 20
5.8960953304
 30
0.0
 10
12.417973105
 20
5.8906778133
 30
0.0
 10
12.4096557255
 20
5.8855799205
 30
0.0
 10
12.4011337291
 20
5.8808084624
 30
0.0
 10
12.3924187391
 20
5.8763702005
 30
0.0
 10
12.3835228359
 20
5.8722710366
 30
0.0
 10
12.3744582226
 20
5.8685168103
 30
0.0
 10
12.3652372666
 20
5.865112456
 30
0.0
 10
12.3527398586
 20
5.8610425191
 30
0.0
 10
12.3367838346
 20
5.8568534087
 30
0.0
 10
12.3172429461
 20
5.8532968951
 30
0.0
 10
12.2973923188
 20
5.8512235894
 30
0.0
 10
12.2773419297
 20
5.8506449183
 30
0.0
 10
12.2572018504
 20
5.8515637293
 30
0.0
 10
12.2370828437
 20
5.8539747414
 30
0.0
 10
12.2170954368
 20
5.8578644632
 30
0.0
 10
12.1973494084
 20
5.863211309
 30
0.0
 10
12.1779531705
 20
5.8699857161
 30
0.0
 10
12.1590131876
 20
5.8781503136
 30
0.0
 10
12.140633399
 20
5.8876601304
 30
0.0
 10
12.1229146571
 20
5.898462843
 30
0.0
 10
12.1059541809
 20
5.9104990624
 30
0.0
 10
12.0898450294
 20
5.9237026588
 30
0.0
 10
12.0746755974
 20
5.9380011221
 30
0.0
 10
12.0605291354
 20
5.9533159561
 30
0.0
 10
12.0474832978
 20
5.9695631059
 30
0.0
 10
12.035609721
 20
5.9866534141
 30
0.0
 10
12.0249736328
 20
6.0044931043
 30
0.0
 10
12.015633499
 20
6.0229842928
 30
0.0
 10
12.0076406996
 20
6.0420255067
 30
0.0
 10
12.0010392573
 20
6.0615122792
 30
0.0
 10
11.9958655732
 20
6.0813375477
 30
0.0
 10
11.9921482679
 20
6.1013928551
 30
0.0
 10
11.9899079456
 20
6.1215666017
 30
0.0
 10
11.989406157
 20
6.1350588303
 30
0.0
 10
11.989406157
 20
6.1417853123
 30
0.0
  0
SPLINE
  5
2C5
100
AcDbEntity
  8
0
100
AcDbSpline
 62
7
  6
CONTINUOUS
 70
0
 71
3
 72
11
 73
7
 74
0
 42
0.0000001
 43
0.0000001
 44
0.0000000001
 40
0.0
 40
0.0
 40
0.0
 40
0.0
 40
0.2516584672
 40
0.5023899803
 40
0.7519091147
 40
1.0
 40
1.0
 40
1.0
 40
1.0
 10
12.2601271337
 20
8.2492477794
 30
0.0
 10
12.2661063512
 20
8.2532057144
 30
0.0
 10
12.2778771942
 20
8.2613608045
 30
0.0
 10
12.2949369458
 20
8.2743324195
 30
0.0
 10
12.311305765
 20
8.2880082517
 30
0.0
 10
12.3217476182
 20
8.2976092984
 30
0.0
 10
12.3268321319
 20
8.3025201597
 30
0.0
  0
SPLINE
  5
2C6
100
AcDbEntity
  8
0
100
AcDbSpline
 62
7
  6
CONTINUOUS
 70
0
 71
3
 72
12
 73
8
 74
0
 42
0.0000001
 43
0.0000001
 44
0.0000000001
 40
0.0
 40
0.0
 40
0.0
 40
0.0
 40
0.1363870256
 40
0.2690394363
 40
0.5241618969
 40
0.7672818725
 40
1.0
 40
1.0
 40
1.0
 40
1.0
 10
11.9150910857
 20
9.0300621392
 30
0.0
 10
11.9129138697
 20
9.0246493919
 30
0.0
 10
11.9086785277
 20
9.0139480904
 30
0.0
 10
11.9006387311
 20
8.9930167255
 30
0.0
 10
11.8913032922
 20
8.9676935399
 30
0.0
 10
11.8809304285
 20
8.9381950195
 30
0.0
 10
11.8744196139
 20
8.9189089555
 30
0.0
 10
11.8712859465
 20
8.9094600669
 30
0.0
  0
SPLINE
  5
2C7
100
AcDbEntity
  8
0
100
AcDbSpline
 62
7
  6
CONTINUOUS
 70
0
 71
3
 72
45
 73
41
 74
0
 42
0.0000001
 43
0.0000001
 44
0.0000000001
 40
0.0
 40
0.0
 40
0.0
 40
0.0
 40
0.0149721376
 40
0.029947335
 40
0.0449286308
 40
0.0599190311
 40
0.07492148
 40
0.0899388563
 40
0.1049739388
 40
0.1200294105
 40
0.135107819
 40
0.1502115883
 40
0.1653429761
 40
0.1805040925
 40
0.2109173721
 40
0.2414702792
 40
0.2721727287
 40
0.303031231
 40
0.3340487973
 40
0.3652249252
 40
0.3965556633
 40
0.4280337467
 40
0.4596487971
 40
0.4913875803
 40
0.5232343133
 40
0.5551710123
 40
0.5871778763
 40
0.6192336972
 40
0.6513162903
 40
0.6834029386
 40
0.7154708446
 40
0.7474975834
 40
0.7794615495
 40
0.8113423946
 40
0.8431214429
 40
0.874782092
 40
0.9063101524
 40
0.9376942352
 40
0.9689258576
 40
1.0
 40
1.0
 40
1.0
 40
1.0
 10
8.3489383186
 20
6.2056808278
 30
0.0
 10
8.3466072483
 20
6.2034291876
 30
0.0
 10
8.3418545909
 20
6.1990175984
 30
0.0
 10
8.3344674099
 20
6.1926881206
 30
0.0
 10
8.3268315735
 20
6.1866543241
 30
0.0
 10
8.3189575865
 20
6.1809248421
 30
0.0
 10
8.3108563883
 20
6.175507325
 30
0.0
 10
8.3025390087
 20
6.1704094322
 30
0.0
 10
8.2940170124
 20
6.1656379741
 30
0.0
 10
8.2853020224
 20
6.1611997122
 30
0.0
 10
8.2764061191
 20
6.1571005483
 30
0.0
 10
8.2673415058
 20
6.1533463221
 30
0.0
 10
8.2581205499
 20
6.1499419677
 30
0.0
 10
8.2456231419
 20
6.1458720308
 30
0.0
 10
8.2296671179
 20
6.1416829204
 30
0.0
 10
8.2101262293
 20
6.1381264068
 30
0.0
 10
8.1902756021
 20
6.1360531011
 30
0.0
 10
8.170225213
 20
6.13547443
 30
0.0
 10
8.1500851337
 20
6.136393241
 30
0.0
 10
8.129966127
 20
6.1388042532
 30
0.0
 10
8.1099787201
 20
6.1426939749
 30
0.0
 10
8.0902326917
 20
6.1480408207
 30
0.0
 10
8.0708364538
 20
6.1548152278
 30
0.0
 10
8.0518964709
 20
6.1629798253
 30
0.0
 10
8.0335166823
 20
6.1724896421
 30
0.0
 10
8.0157979404
 20
6.1832923547
 30
0.0
 10
7.9988374641
 20
6.1953285741
 30
0.0
 10
7.9827283127
 20
6.2085321705
 30
0.0
 10
7.9675588807
 20
6.2228306338
 30
0.0
 10
7.9534124187
 20
6.2381454678
 30
0.0
 10
7.9403665811
 20
6.2543926176
 30
0.0
 10
7.9284930043
 20
6.2714829258
 30
0.0
 10
7.9178569161
 20
6.289322616
 30
0.0
 10
7.9085167823
 20
6.3078138045
 30
0.0
 10
7.9005239829
 20
6.3268550184
 30
0.0
 10
7.8939225406
 20
6.3463417909
 30
0.0
 10
7.8887488565
 20
6.3661670594
 30
0.0
 10
7.8850315512
 20
6.3862223669
 30
0.0
 10
7.8827912289
 20
6.4063961134
 30
0.0
 10
7.8822894403
 20
6.419888342
 30
0.0
 10
7.8822894403
 20
6.426614824
 30
0.0
  0
SPLINE
  5
2C8
100
AcDbEntity
  8
0
100
AcDbSpline
 62
7
  6
CONTINUOUS
 70
0
 71
3
 72
45
 73
41
 74
0
 42
0.0000001
 43
0.0000001
 44
0.0000000001
 40
0.0
 40
0.0
 40
0.0
 40
0.0
 40
0.0149721376
 40
0.029947335
 40
0.0449286308
 40
0.0599190311
 40
0.07492148
 40
0.0899388563
 40
0.1049739388
 40
0.1200294105
 40
0.135107819
 40
0.1502115883
 40
0.1653429761
 40
0.1805040925
 40
0.2109173721
 40
0.2414702792
 40
0.2721727287
 40
0.303031231
 40
0.3340487973
 40
0.3652249252
 40
0.3965556633
 40
0.4280337467
 40
0.4596487971
 40
0.4913875803
 40
0.5232343133
 40
0.5551710123
 40
0.5871778763
 40
0.6192336972
 40
0.6513162903
 40
0.6834029386
 40
0.7154708446
 40
0.7474975834
 40
0.7794615495
 40
0.8113423946
 40
0.8431214429
 40
0.874782092
 40
0.9063101524
 40
0.9376942352
 40
0.9689258576
 40
1.0
 40
1.0
 40
1.0
 40
1.0
 10
8.3489383186
 20
9.7042643
 30
0.0
 10
8.3466072483
 20
9.7020126599
 30
0.0
 10
8.3418545909
 20
9.6976010707
 30
0.0
 10
8.3344674099
 20
9.6912715929
 30
0.0
 10
8.3268315735
 20
9.6852377963
 30
0.0
 10
8.3189575865
 20
9.6795083144
 30
0.0
 10
8.3108563883
 20
9.6740907973
 30
0.0
 10
8.3025390087
 20
9.6689929045
 30
0.0
 10
8.2940170124
 20
9.6642214464
 30
0.0
 10
8.2853020224
 20
9.6597831845
 30
0.0
 10
8.2764061191
 20
9.6556840206
 30
0.0
 10
8.2673415058
 20
9.6519297943
 30
0.0
 10
8.2581205499
 20
9.64852544
 30
0.0
 10
8.2456231419
 20
9.6444555031
 30
0.0
 10
8.2296671179
 20
9.6402663927
 30
0.0
 10
8.2101262293
 20
9.6367098791
 30
0.0
 10
8.1902756021
 20
9.6346365734
 30
0.0
 10
8.170225213
 20
9.6340579023
 30
0.0
 10
8.1500851337
 20
9.6349767133
 30
0.0
 10
8.129966127
 20
9.6373877254
 30
0.0
 10
8.1099787201
 20
9.6412774472
 30
0.0
 10
8.0902326917
 20
9.646624293
 30
0.0
 10
8.0708364538
 20
9.6533987001
 30
0.0
 10
8.0518964709
 20
9.6615632976
 30
0.0
 10
8.0335166823
 20
9.6710731144
 30
0.0
 10
8.0157979404
 20
9.6818758269
 30
0.0
 10
7.9988374641
 20
9.6939120464
 30
0.0
 10
7.9827283127
 20
9.7071156428
 30
0.0
 10
7.9675588807
 20
9.7214141061
 30
0.0
 10
7.9534124187
 20
9.7367289401
 30
0.0
 10
7.9403665811
 20
9.7529760899
 30
0.0
 10
7.9284930043
 20
9.7700663981
 30
0.0
 10
7.9178569161
 20
9.7879060883
 30
0.0
 10
7.9085167823
 20
9.8063972768
 30
0.0
 10
7.9005239829
 20
9.8254384907
 30
0.0
 10
7.8939225406
 20
9.8449252632
 30
0.0
 10
7.8887488565
 20
9.8647505317
 30
0.0
 10
7.8850315512
 20
9.8848058391
 30
0.0
 10
7.8827912289
 20
9.9049795857
 30
0.0
 10
7.8822894403
 20
9.9184718142
 30
0.0
 10
7.8822894403
 20
9.9251982963
 30
0.0
  0
SPLINE
  5
2C9
100
AcDbEntity
  8
0
100
AcDbSpline
 62
7
  6
CONTINUOUS
 70
0
 71
3
 72
23
 73
19
 74
0
 42
0.0000001
 43
0.0000001
 44
0.0000000001
 40
0.0
 40
0.0
 40
0.0
 40
0.0
 40
0.0637754757
 40
0.1273453426
 40
0.1907021752
 40
0.2538559149
 40
0.3168132477
 40
0.3795821059
 40
0.4421733695
 40
0.5045993382
 40
0.566873869
 40
0.6290123778
 40
0.6910316472
 40
0.7529496469
 40
0.8147853527
 40
0.8765585998
 40
0.9382898568
 40
1.0
 40
1.0
 40
1.0
 40
1.0
 10
11.989406157
 20
6.1417853123
 30
0.0
 10
11.989406157
 20
6.1461206843
 30
0.0
 10
11.989613719
 20
6.1547789186
 30
0.0
 10
11.9905502635
 20
6.1677135736
 30
0.0
 10
11.9921097291
 20
6.1805457747
 30
0.0
 10
11.9942883888
 20
6.1932451876
 30
0.0
 10
11.9970812017
 20
6.2057829404
 30
0.0
 10
12.0004818381
 20
6.2181300453
 30
0.0
 10
12.0044825161
 20
6.2302579953
 30
0.0
 10
12.0090739412
 20
6.242138875
 30
0.0
 10
12.014245602
 20
6.2537452683
 30
0.0
 10
12.0199856467
 20
6.2650503731
 30
0.0
 10
12.0262807555
 20
6.2760281621
 30
0.0
 10
12.0331164916
 20
6.2866532883
 30
0.0
 10
12.0404771129
 20
6.296901188
 30
0.0
 10
12.0483456489
 20
6.306748364
 30
0.0
 10
12.0567037062
 20
6.3161717486
 30
0.0
 10
12.0625903707
 20
6.3221580663
 30
0.0
 10
12.0656076252
 20
6.3250725092
 30
0.0
  0
SPLINE
  5
2CA
100
AcDbEntity
  8
0
100
AcDbSpline
 62
7
  6
CONTINUOUS
 70
0
 71
3
 72
22
 73
18
 74
0
 42
0.0000001
 43
0.0000001
 44
0.0000000001
 40
0.0
 40
0.0
 40
0.0
 40
0.0
 40
0.0764234912
 40
0.1504698875
 40
0.2222095369
 40
0.291722846
 40
0.3591050492
 40
0.4244648984
 40
0.5495745482
 40
0.6096453126
 40
0.6682571342
 40
0.7255853859
 40
0.7818195466
 40
0.8371613374
 40
0.8918233206
 40
0.9460270232
 40
1.0
 40
1.0
 40
1.0
 40
1.0
 10
14.2113110416
 20
7.3058013642
 30
0.0
 10
14.2100745572
 20
7.3046070119
 30
0.0
 10
14.2076020491
 20
7.3022943431
 30
0.0
 10
14.2038343342
 20
7.2990080374
 30
0.0
 10
14.2000682713
 20
7.2959610933
 30
0.0
 10
14.1963050777
 20
7.2931546805
 30
0.0
 10
14.1925455746
 20
7.2905895179
 30
0.0
 10
14.187612055
 20
7.2875369444
 30
0.0
 10
14.1826132733
 20
7.2849094719
 30
0.0
 10
14.1775668285
 20
7.2827570341
 30
0.0
 10
14.1738416681
 20
7.2814090445
 30
0.0
 10
14.1701265522
 20
7.2803063965
 30
0.0
 10
14.1664224864
 20
7.2794494344
 30
0.0
 10
14.1627306473
 20
7.2788385797
 30
0.0
 10
14.1590521407
 20
7.2784742286
 30
0.0
 10
14.1553884199
 20
7.2783565107
 30
0.0
 10
14.1529543508
 20
7.2784426114
 30
0.0
 10
14.1517431572
 20
7.2785266123
 30
0.0
  0
SPLINE
  5
2CB
100
AcDbEntity
  8
0
100
AcDbSpline
 62
7
  6
CONTINUOUS
 70
0
 71
3
 72
45
 73
41
 74
0
 42
0.0000001
 43
0.0000001
 44
0.0000000001
 40
0.0
 40
0.0
 40
0.0
 40
0.0
 40
0.0149721376
 40
0.029947335
 40
0.0449286308
 40
0.0599190311
 40
0.07492148
 40
0.0899388563
 40
0.1049739388
 40
0.1200294105
 40
0.135107819
 40
0.1502115883
 40
0.1653429761
 40
0.1805040925
 40
0.2109173721
 40
0.2414702792
 40
0.2721727287
 40
0.303031231
 40
0.3340487973
 40
0.3652249252
 40
0.3965556633
 40
0.4280337467
 40
0.4596487971
 40
0.4913875803
 40
0.5232343133
 40
0.5551710123
 40
0.5871778763
 40
0.6192336972
 40
0.6513162903
 40
0.6834029386
 40
0.7154708446
 40
0.7474975834
 40
0.7794615495
 40
0.8113423946
 40
0.8431214429
 40
0.874782092
 40
0.9063101524
 40
0.9376942352
 40
0.9689258576
 40
1.0
 40
1.0
 40
1.0
 40
1.0
 10
12.4560550353
 20
9.4194347883
 30
0.0
 10
12.453723965
 20
9.4171831482
 30
0.0
 10
12.4489713077
 20
9.412771559
 30
0.0
 10
12.4415841266
 20
9.4064420812
 30
0.0
 10
12.4339482902
 20
9.4004082846
 30
0.0
 10
12.4260743032
 20
9.3946788027
 30
0.0
 10
12.417973105
 20
9.3892612856
 30
0.0
 10
12.4096557255
 20
9.3841633928
 30
0.0
 10
12.4011337291
 20
9.3793919347
 30
0.0
 10
12.3924187391
 20
9.3749536728
 30
0.0
 10
12.3835228359
 20
9.3708545089
 30
0.0
 10
12.3744582226
 20
9.3671002826
 30
0.0
 10
12.3652372666
 20
9.3636959283
 30
0.0
 10
12.3527398586
 20
9.3596259914
 30
0.0
 10
12.3367838346
 20
9.355436881
 30
0.0
 10
12.3172429461
 20
9.3518803674
 30
0.0
 10
12.2973923188
 20
9.3498070617
 30
0.0
 10
12.2773419297
 20
9.3492283906
 30
0.0
 10
12.2572018504
 20
9.3501472016
 30
0.0
 10
12.2370828437
 20
9.3525582137
 30
0.0
 10
12.2170954368
 20
9.3564479354
 30
0.0
 10
12.1973494084
 20
9.3617947813
 30
0.0
 10
12.1779531705
 20
9.3685691884
 30
0.0
 10
12.1590131876
 20
9.3767337859
 30
0.0
 10
12.140633399
 20
9.3862436027
 30
0.0
 10
12.1229146571
 20
9.3970463152
 30
0.0
 10
12.1059541809
 20
9.4090825346
 30
0.0
 10
12.0898450294
 20
9.4222861311
 30
0.0
 10
12.0746755974
 20
9.4365845943
 30
0.0
 10
12.0605291354
 20
9.4518994284
 30
0.0
 10
12.0474832978
 20
9.4681465781
 30
0.0
 10
12.035609721
 20
9.4852368864
 30
0.0
 10
12.0249736328
 20
9.5030765765
 30
0.0
 10
12.015633499
 20
9.521567765
 30
0.0
 10
12.0076406996
 20
9.540608979
 30
0.0
 10
12.0010392573
 20
9.5600957515
 30
0.0
 10
11.9958655732
 20
9.57992102
 30
0.0
 10
11.9921482679
 20
9.5999763274
 30
0.0
 10
11.9899079456
 20
9.620150074
 30
0.0
 10
11.989406157
 20
9.6336423025
 30
0.0
 10
11.989406157
 20
9.6403687846
 30
0.0
  0
SPLINE
  5
2CC
100
AcDbEntity
  8
0
100
AcDbSpline
 62
7
  6
CONTINUOUS
 70
0
 71
3
 72
23
 73
19
 74
0
 42
0.0000001
 43
0.0000001
 44
0.0000000001
 40
0.0
 40
0.0
 40
0.0
 40
0.0
 40
0.0570397603
 40
0.1156180962
 40
0.1755445248
 40
0.2366408745
 40
0.2987367978
 40
0.3616663871
 40
0.4252657506
 40
0.4893712705
 40
0.5538183336
 40
0.6184403431
 40
0.683067823
 40
0.747527437
 40
0.8116407315
 40
0.8752224107
 40
0.9380778886
 40
1.0
 40
1.0
 40
1.0
 40
1.0
 10
7.9751450929
 20
8.862556135
 30
0.0
 10
7.9762946483
 20
8.8554987946
 30
0.0
 10
7.9789256904
 20
8.8412410015
 30
0.0
 10
7.9838209636
 20
8.8197803093
 30
0.0
 10
7.9897459859
 20
8.7980526656
 30
0.0
 10
7.9967110094
 20
8.7761725196
 30
0.0
 10
8.0047142796
 20
8.7542491401
 30
0.0
 10
8.0137427125
 20
8.73238779
 30
0.0
 10
8.0237725492
 20
8.7106895775
 30
0.0
 10
8.0347698398
 20
8.6892513687
 30
0.0
 10
8.0466908424
 20
8.6681654548
 30
0.0
 10
8.0594823345
 20
8.6475191228
 30
0.0
 10
8.0730818297
 20
8.627394146
 30
0.0
 10
8.0874176893
 20
8.6078662189
 30
0.0
 10
8.1024090358
 20
8.5890044037
 30
0.0
 10
8.1179655947
 20
8.5708704299
 30
0.0
 10
8.1339867128
 20
8.5535184765
 30
0.0
 10
8.1449991134
 20
8.5424051039
 30
0.0
 10
8.1505560455
 20
8.5369852139
 30
0.0
  0
SPLINE
  5
2CD
100
AcDbEntity
  8
0
100
AcDbSpline
 62
4
  6
CONTINUOUS
 70
0
 71
3
 72
71
 73
67
 74
0
 42
0.0000001
 43
0.0000001
 44
0.0000000001
 40
0.0
 40
0.0
 40
0.0
 40
0.0
 40
0.03125
 40
0.046875
 40
0.0625
 40
0.078125
 40
0.09375
 40
0.109375
 40
0.125
 40
0.140625
 40
0.15625
 40
0.171875
 40
0.1796875
 40
0.1875
 40
0.1953125
 40
0.203125
 40
0.21875
 40
0.234375
 40
0.25
 40
0.265625
 40
0.28125
 40
0.296875
 40
0.3125
 40
0.328125
 40
0.34375
 40
0.359375
 40
0.375
 40
0.390625
 40
0.40625
 40
0.421875
 40
0.4375
 40
0.453125
 40
0.46875
 40
0.484375
 40
0.5
 40
0.515625
 40
0.53125
 40
0.546875
 40
0.5625
 40
0.578125
 40
0.59375
 40
0.609375
 40
0.625
 40
0.640625
 40
0.65625
 40
0.671875
 40
0.6875
 40
0.703125
 40
0.71875
 40
0.734375
 40
0.75
 40
0.765625
 40
0.78125
 40
0.796875
 40
0.8125
 40
0.828125
 40
0.84375
 40
0.859375
 40
0.875
 40
0.890625
 40
0.90625
 40
0.921875
 40
0.9375
 40
0.953125
 40
0.96875
 40
1.0
 40
1.0
 40
1.0
 40
1.0
 10
12.2608313303
 20
6.1326211715
 30
0.0
 10
12.2605186369
 20
6.132612197
 30
0.0
 10
12.2600487756
 20
6.132602919
 30
0.0
 10
12.2594255794
 20
6.1325738132
 30
0.0
 10
12.2589499682
 20
6.132593822
 30
0.0
 10
12.2585055702
 20
6.1324548459
 30
0.0
 10
12.258051727
 20
6.1323611704
 30
0.0
 10
12.2576044515
 20
6.1322452772
 30
0.0
 10
12.2571403506
 20
6.1321729545
 30
0.0
 10
12.2567369833
 20
6.1319485674
 30
0.0
 10
12.2563178113
 20
6.1317640466
 30
0.0
 10
12.2559705722
 20
6.1316041122
 30
0.0
 10
12.2556957131
 20
6.1314710324
 30
0.0
 10
12.2554795295
 20
6.1313903196
 30
0.0
 10
12.2553020372
 20
6.1312357847
 30
0.0
 10
12.2550521326
 20
6.1310552831
 30
0.0
 10
12.2547423848
 20
6.130822624
 30
0.0
 10
12.2543779212
 20
6.1305388699
 30
0.0
 10
12.25398031
 20
6.1302846198
 30
0.0
 10
12.2537080557
 20
6.1299169167
 30
0.0
 10
12.2533998344
 20
6.1295813664
 30
0.0
 10
12.2531101238
 20
6.1292306581
 30
0.0
 10
12.2527823375
 20
6.1289084288
 30
0.0
 10
12.2525883431
 20
6.1284874413
 30
0.0
 10
12.2523558585
 20
6.1280941966
 30
0.0
 10
12.2521435429
 20
6.127688739
 30
0.0
 10
12.2518890414
 20
6.1273043905
 30
0.0
 10
12.2517831145
 20
6.1268478182
 30
0.0
 10
12.2516345739
 20
6.1264116143
 30
0.0
 10
12.2515079133
 20
6.1259661606
 30
0.0
 10
12.2513363462
 20
6.1255373375
 30
0.0
 10
12.2513225255
 20
6.125051242
 30
0.0
 10
12.2512635265
 20
6.1245804358
 30
0.0
 10
12.2512274945
 20
6.1241057445
 30
0.0
 10
12.2511447727
 20
6.1236313045
 30
0.0
 10
12.2512258432
 20
6.1231597444
 30
0.0
 10
12.2512602215
 20
6.1226870488
 30
0.0
 10
12.2513175765
 20
6.1222160149
 30
0.0
 10
12.2513297168
 20
6.1217394699
 30
0.0
 10
12.2514997394
 20
6.1212833075
 30
0.0
 10
12.2516248142
 20
6.1208207756
 30
0.0
 10
12.2517717979
 20
6.120363339
 30
0.0
 10
12.2518760938
 20
6.1198918907
 30
0.0
 10
12.2521292319
 20
6.119471394
 30
0.0
 10
12.2523399248
 20
6.1190360215
 30
0.0
 10
12.2525715567
 20
6.1186092008
 30
0.0
 10
12.2527618774
 20
6.1181630486
 30
0.0
 10
12.253096504
 20
6.1177856703
 30
0.0
 10
12.2533905888
 20
6.1173877535
 30
0.0
 10
12.2537025347
 20
6.1170032171
 30
0.0
 10
12.2539835778
 20
6.1165856973
 30
0.0
 10
12.2543703712
 20
6.1162867307
 30
0.0
 10
12.2547272407
 20
6.1159537305
 30
0.0
 10
12.2550980555
 20
6.1156383118
 30
0.0
 10
12.2554430128
 20
6.1152866006
 30
0.0
 10
12.2558774549
 20
6.115062478
 30
0.0
 10
12.2562868222
 20
6.1148016036
 30
0.0
 10
12.2567070041
 20
6.114560148
 30
0.0
 10
12.2571090022
 20
6.114277769
 30
0.0
 10
12.2575729206
 20
6.1141396649
 30
0.0
 10
12.2580194257
 20
6.1139601751
 30
0.0
 10
12.2584736639
 20
6.1138019532
 30
0.0
 10
12.2589143829
 20
6.1136000454
 30
0.0
 10
12.2594014455
 20
6.1135516134
 30
0.0
 10
12.2600346014
 20
6.1134331861
 30
0.0
 10
12.2605131271
 20
6.1133564822
 30
0.0
 10
12.2608313311
 20
6.1133026537
 30
0.0
  0
SPLINE
  5
2CE
100
AcDbEntity
  8
0
100
AcDbSpline
 62
4
  6
CONTINUOUS
 70
0
 71
3
 72
71
 73
67
 74
0
 42
0.0000001
 43
0.0000001
 44
0.0000000001
 40
0.0
 40
0.0
 40
0.0
 40
0.0
 40
0.03125
 40
0.046875
 40
0.0625
 40
0.078125
 40
0.09375
 40
0.109375
 40
0.125
 40
0.140625
 40
0.15625
 40
0.171875
 40
0.1796875
 40
0.1875
 40
0.1953125
 40
0.203125
 40
0.21875
 40
0.234375
 40
0.25
 40
0.265625
 40
0.28125
 40
0.296875
 40
0.3125
 40
0.328125
 40
0.34375
 40
0.359375
 40
0.375
 40
0.390625
 40
0.40625
 40
0.421875
 40
0.4375
 40
0.453125
 40
0.46875
 40
0.484375
 40
0.5
 40
0.515625
 40
0.53125
 40
0.546875
 40
0.5625
 40
0.578125
 40
0.59375
 40
0.609375
 40
0.625
 40
0.640625
 40
0.65625
 40
0.671875
 40
0.6875
 40
0.703125
 40
0.71875
 40
0.734375
 40
0.75
 40
0.765625
 40
0.78125
 40
0.796875
 40
0.8125
 40
0.828125
 40
0.84375
 40
0.859375
 40
0.875
 40
0.890625
 40
0.90625
 40
0.921875
 40
0.9375
 40
0.953125
 40
0.96875
 40
1.0
 40
1.0
 40
1.0
 40
1.0
 10
12.2608313303
 20
6.1133026538
 30
0.0
 10
12.2611440236
 20
6.1133116283
 30
0.0
 10
12.2616138849
 20
6.1133209062
 30
0.0
 10
12.2622370812
 20
6.113350012
 30
0.0
 10
12.2627126923
 20
6.1133300033
 30
0.0
 10
12.2631570903
 20
6.1134689794
 30
0.0
 10
12.2636109335
 20
6.1135626548
 30
0.0
 10
12.2640582091
 20
6.1136785481
 30
0.0
 10
12.2645223099
 20
6.1137508708
 30
0.0
 10
12.2649256773
 20
6.1139752578
 30
0.0
 10
12.2653448492
 20
6.1141597787
 30
0.0
 10
12.2656920884
 20
6.1143197131
 30
0.0
 10
12.2659669474
 20
6.1144527929
 30
0.0
 10
12.266183131
 20
6.1145335056
 30
0.0
 10
12.2663606234
 20
6.1146880406
 30
0.0
 10
12.266610528
 20
6.1148685422
 30
0.0
 10
12.2669202757
 20
6.1151012013
 30
0.0
 10
12.2672847393
 20
6.1153849554
 30
0.0
 10
12.2676823505
 20
6.1156392054
 30
0.0
 10
12.2679546049
 20
6.1160069085
 30
0.0
 10
12.2682628261
 20
6.1163424589
 30
0.0
 10
12.2685525367
 20
6.1166931672
 30
0.0
 10
12.268880323
 20
6.1170153965
 30
0.0
 10
12.2690743174
 20
6.1174363839
 30
0.0
 10
12.269306802
 20
6.1178296286
 30
0.0
 10
12.2695191176
 20
6.1182350863
 30
0.0
 10
12.2697736191
 20
6.1186194348
 30
0.0
 10
12.2698795461
 20
6.1190760071
 30
0.0
 10
12.2700280867
 20
6.119512211
 30
0.0
 10
12.2701547472
 20
6.1199576646
 30
0.0
 10
12.2703263144
 20
6.1203864877
 30
0.0
 10
12.270340135
 20
6.1208725833
 30
0.0
 10
12.270399134
 20
6.1213433894
 30
0.0
 10
12.270435166
 20
6.1218180807
 30
0.0
 10
12.2705178878
 20
6.1222925207
 30
0.0
 10
12.2704368173
 20
6.1227640809
 30
0.0
 10
12.270402439
 20
6.1232367764
 30
0.0
 10
12.270345084
 20
6.1237078104
 30
0.0
 10
12.2703329437
 20
6.1241843553
 30
0.0
 10
12.2701629211
 20
6.1246405178
 30
0.0
 10
12.2700378463
 20
6.1251030497
 30
0.0
 10
12.2698908626
 20
6.1255604862
 30
0.0
 10
12.2697865667
 20
6.1260319346
 30
0.0
 10
12.2695334286
 20
6.1264524313
 30
0.0
 10
12.2693227358
 20
6.1268878038
 30
0.0
 10
12.2690911038
 20
6.1273146245
 30
0.0
 10
12.2689007831
 20
6.1277607766
 30
0.0
 10
12.2685661566
 20
6.1281381549
 30
0.0
 10
12.2682720718
 20
6.1285360718
 30
0.0
 10
12.2679601258
 20
6.1289206082
 30
0.0
 10
12.2676790827
 20
6.129338128
 30
0.0
 10
12.2672922893
 20
6.1296370945
 30
0.0
 10
12.2669354199
 20
6.1299700948
 30
0.0
 10
12.266564605
 20
6.1302855135
 30
0.0
 10
12.2662196477
 20
6.1306372247
 30
0.0
 10
12.2657852056
 20
6.1308613472
 30
0.0
 10
12.2653758384
 20
6.1311222217
 30
0.0
 10
12.2649556565
 20
6.1313636772
 30
0.0
 10
12.2645536583
 20
6.1316460563
 30
0.0
 10
12.2640897399
 20
6.1317841604
 30
0.0
 10
12.2636432348
 20
6.1319636501
 30
0.0
 10
12.2631889966
 20
6.132121872
 30
0.0
 10
12.2627482776
 20
6.1323237798
 30
0.0
 10
12.262261215
 20
6.1323722119
 30
0.0
 10
12.2616280591
 20
6.1324906391
 30
0.0
 10
12.2611495335
 20
6.132567343
 30
0.0
 10
12.2608313294
 20
6.1326211715
 30
0.0
  0
ELLIPSE
  5
2CF
100
AcDbEntity
  8
0
100
AcDbEllipse
 62
7
  6
CONTINUOUS
 10
12.0193498594
 20
8.6144108005
 30
0.0
 11
0.3711003406
 21
-0.2656843353
 31
0.0
 40
0.7689335103
 41
2.6632383009
 42
3.7083918599
  0
ELLIPSE
  5
2D0
100
AcDbEntity
  8
0
100
AcDbEllipse
 62
7
  6
CONTINUOUS
 10
8.3971277962
 20
8.8656127538
 30
0.0
 11
0.4028413119
 21
0.1515504661
 31
0.0
 40
0.8646304648
 41
5.876506755
 42
6.9662903459
  0
ELLIPSE
  5
2D1
100
AcDbEntity
  8
0
100
AcDbEllipse
 62
7
  6
CONTINUOUS
 10
8.3971277962
 20
8.8656127538
 30
0.0
 11
0.4028413119
 21
0.1515504661
 31
0.0
 40
0.8646304648
 41
2.7392423116
 42
3.7766428291
  0
ELLIPSE
  5
2D2
100
AcDbEntity
  8
0
100
AcDbEllipse
 62
7
  6
CONTINUOUS
 10
10.9935365361
 20
7.8394001922
 30
0.0
 11
0.3223504931
 21
-0.3025407715
 31
0.0
 40
0.7916159197
 41
0.0
 42
6.2831853072
  0
ELLIPSE
  5
2D3
100
AcDbEntity
  8
0
100
AcDbEllipse
 62
7
  6
CONTINUOUS
 10
12.0193498594
 20
8.6144108005
 30
0.0
 11
0.3711003406
 21
-0.2656843353
 31
0.0
 40
0.7689335103
 41
-0.4630225312
 42
0.6204520809
  0
ELLIPSE
  5
2D4
100
AcDbEntity
  8
0
100
AcDbEllipse
 62
7
  6
CONTINUOUS
 10
10.2072729719
 20
6.7444758989
 30
0.0
 11
0.1089114111
 21
0.3937554329
 31
0.0
 40
0.9077161648
 41
0.0
 42
6.2831853072
  0
ENDSEC
  0
SECTION
  2
OBJECTS
  0
DICTIONARY
  5
C
100
AcDbDictionary
280
0
281
1
  3
ACAD_GROUP
350
D
  3
ACAD_MLINESTYLE
350
17
  3
ACAD_LAYOUT
350
1A
  3
ACAD_PLOTSETTINGS
350
19
  3
ACAD_PLOTSTYLENAME
350
E
  3
ACAD_IMAGE_DICT
350
       2D6
  3
ACAD_IMAGE_VARS
350
       2D7
  3
ACAD_TABLESTYLE
350
       2D8
  0
IMAGEDEF_REACTOR
  5
2D5
100
AcDbRasterImageDefReactor
 90
2
330
267
  0
DICTIONARY
  5
D
102
{ACAD_REACTORS
330
C
102
}
100
AcDbDictionary
280
0
281
1
  0
ACDBDICTIONARYWDFLT
  5
E
102
{ACAD_REACTORS
330
C
102
}
100
AcDbDictionary
281
1
  3
Normal
350
F
100
AcDbDictionaryWithDefault
340
F
  0
DICTIONARY
  5
2D6
330
C
100
AcDbDictionary
281
1
  3
WNH_assy_2_img_1
350
       2DB
  0
RASTERVARIABLES
  5
2D7
330
C
100
AcDbRasterVariables
 90
0
 70
0
 71
1
 72
5
  0
DICTIONARY
  5
17
102
{ACAD_REACTORS
330
C
102
}
100
AcDbDictionary
280
0
281
1
  3
Standard
350
18
  0
DICTIONARY
  5
2D8
330
C
100
AcDbDictionary
281
1
  3
Standard
350
       2DC
  3
Standard1
350
       2DD
  0
DICTIONARY
  5
19
102
{ACAD_REACTORS
330
C
102
}
100
AcDbDictionary
281
1
  0
DICTIONARY
  5
1A
102
{ACAD_REACTORS
330
C
102
}
100
AcDbDictionary
281
1
  3
Model
350
2D9
  3
Layout1
350
2DA
  0
ACDBPLACEHOLDER
  5
F
102
{ACAD_REACTORS
330
E
102
}
  0
MLINESTYLE
  5
18
102
{ACAD_REACTORS
330
17
102
}
100
AcDbMlineStyle
  2
STANDARD
 70
0
  3

 62
256
 51
90.0
 52
90.0
 71
2
 49
0.5
 62
256
  6
BYLAYER
 49
-0.5
 62
256
  6
BYLAYER
  0
LAYOUT
  5
2D9
102
{ACAD_REACTORS
330
1A
102
}
100
AcDbPlotSettings
  1

  2
none_device
  4
ANSI_C_(22.00_x_17.00_Inches)
  6

 40
0.0
 41
0.0
 42
0.0
 43
0.0
 44
558.8
 45
431.8
 46
0.0
 47
0.0
 48
0.0
 49
0.0
140
0.0
141
0.0
142
1.0
143
1.0
 70
1024
 72
0
 73
0
 74
0
  7

 75
0
147
1.0
148
0.0
149
0.0
100
AcDbLayout
  1
Model
 70
0
 71
0
 10
0.0
 20
0.0
 11
22.0
 21
17.0
 12
0.0
 22
0.0
 32
0.0
 14
0.0
 24
0.0
 34
0.0
 15
0.0
 25
0.0
 35
0.0
146
0.0
 13
0.0
 23
0.0
 33
0.0
 16
1.0
 26
0.0
 36
0.0
 17
0.0
 27
1.0
 37
0.0
 76
0
330
204
345
0
346
0
  0
LAYOUT
  5
2DA
102
{ACAD_REACTORS
330
1A
102
}
100
AcDbPlotSettings
  1

  2
none_device
  4
ANSI_C_(22.00_x_17.00_Inches)
  6

 40
0.0
 41
0.0
 42
0.0
 43
0.0
 44
558.8
 45
431.8
 46
0.0
 47
0.0
 48
0.0
 49
0.0
140
0.0
141
0.0
142
1.0
143
1.0
 70
0
 72
0
 73
0
 74
0
  7

 75
0
147
1.0
148
0.0
149
0.0
100
AcDbLayout
  1
Layout1
 70
0
 71
1
 10
0.0
 20
0.0
 11
22.0
 21
17.0
 12
0.0
 22
0.0
 32
0.0
 14
0.0
 24
0.0
 34
0.0
 15
0.0
 25
0.0
 35
0.0
146
0.0
 13
0.0
 23
0.0
 33
0.0
 16
1.0
 26
0.0
 36
0.0
 17
0.0
 27
1.0
 37
0.0
 76
0
330
205
345
0
346
0
  0
IMAGEDEF
  5
2DB
102
{ACAD_REACTORS
330
2D6
330
2D5
102
}
100
AcDbRasterImageDef
 90
0
  1
WNH_assy_2_img_1.png
 10
369.0
 20
92.0
 11
0.0066666667
 21
0.0066666667
280
1
281
0
  0
TABLESTYLE
  5
2DC
102
{ACAD_REACTORS
330
2D8
330
26A
102
}
330
2D8
100
AcDbTableStyle
  3
Standard
 70
0
 71
0
 40
0.06
 41
0.06
280
1
281
1
  7
Standard
140
0.18
170
1
 62
0
 63
7
283
0
  7
Standard
140
0.18
170
1
 62
0
 63
7
283
0
  7
Standard
140
0.18
170
1
 62
0
 63
7
283
0
  0
TABLESTYLE
  5
2DD
102
{ACAD_REACTORS
330
2D8
330
269
102
}
330
2D8
100
AcDbTableStyle
  3
Standard1
 70
1
 71
0
 40
0.06
 41
0.06
280
1
281
1
  7
Standard
140
0.18
170
1
 62
0
 63
7
283
0
  7
Standard
140
0.18
170
1
 62
0
 63
7
283
0
  7
Standard
140
0.18
170
1
 62
0
 63
7
283
0
  0
ENDSEC
  0
EOF
