999
DXF file: WJV_assy_2.dxf
999
Pro/ENGINEER 2014200 by Parametric Technology Corporation
  0
SECTION
  2
HEADER
  9
$ACADVER
  1
AC1021
  9
$DWGCODEPAGE
  3
ANSI_1252
  9
$EXTMAX
 10
22.0
 20
17.0
 30
0.0
  9
$EXTMIN
 10
0.0
 20
0.0
 30
0.0
  9
$LIMMIN
 10
0.0
 20
0.0
  9
$LIMMAX
 10
22.0
 20
17.0
  9
$VIEWCTR
 10
11.0
 20
8.5
  9
$VIEWSIZE
 40
17.0
  9
$CLAYER
  8
0
  9
$LTSCALE
 40
1.21
  9
$CELTYPE
  6
BYLAYER
  9
$DIMSCALE
 40
1.0
  9
$DIMASZ
 40
0.1875
  9
$DIMEXO
 40
0.0625
  9
$DIMDLI
 40
0.836
  9
$DIMEXE
 40
0.125
  9
$DIMCEN
 40
0.198
  9
$DIMLFAC
 40
1.0
  9
$DIMBLK
  1
_FILLED
  9
$DIMTXT
 40
0.1
  9
$DIMTOL
 70
0
  9
$DIMLIM
 70
0
  9
$DIMTFAC
 40
1.0
  9
$DIMGAP
 40
0.09
  9
$DIMDSEP
 70
46
  9
$AUNITS
 70
0
  9
$PDMODE
 70
3
  9
$PDSIZE
 40
0.3125
  9
$HANDSEED
  5
3B8
  9
$TILEMODE
 70
1
  9
$MEASUREMENT
 70
0
  9
$INSUNITS
 70
1
  0
ENDSEC
  0
SECTION
  2
CLASSES
  0
CLASS
  1
ACDBDICTIONARYWDFLT
  2
AcDbDictionaryWithDefault
  3
AutoCAD 2000
 90
0
 91
1
280
0
281
0
  0
CLASS
  1
ACDBPLACEHOLDER
  2
AcDbPlaceHolder
  3
AutoCAD 2000
 90
0
 91
1
280
0
281
0
  0
CLASS
  1
LAYOUT
  2
AcDbLayout
  3
AutoCAD 2000
 90
0
 91
0
280
0
281
0
  0
CLASS
  1
RASTERVARIABLES
  2
AcDbRasterVariables
  3
ISM
 90
0
 91
1
280
0
281
0
  0
CLASS
  1
IMAGEDEF
  2
AcDbRasterImageDef
  3
ISM
 90
0
 91
1
280
0
281
0
  0
CLASS
  1
IMAGEDEF_REACTOR
  2
AcDbRasterImageDefReactor
  3
ISM
 90
0
 91
1
280
0
281
0
  0
CLASS
  1
IMAGE
  2
AcDbRasterImage
  3
ISM
 90
127
 91
1
280
0
281
1
  0
CLASS
  1
TABLESTYLE
  2
AcDbTableStyle
  3
ObjectDBX Classes
 90
2047
 91
1
280
0
281
0
  0
CLASS
  1
ACAD_TABLE
  2
AcDbTable
  3
ObjectDBX Classes
 90
1025
 91
3
280
0
281
1
  0
ENDSEC
  0
SECTION
  2
TABLES
  0
TABLE
  2
VPORT
  5
8
100
AcDbSymbolTable
 70
2
  0
VPORT
  5
1F4
100
AcDbSymbolTableRecord
100
AcDbViewportTableRecord
  2
*ACTIVE
 70
0
 10
0.0
 20
0.0
 11
1.0
 21
1.0
 12
11.0
 22
8.5
 13
0.0
 23
0.0
 14
1.0
 24
1.0
 15
0.0
 25
0.0
 16
0.0
 26
0.0
 36
1.0
 17
0.0
 27
0.0
 37
0.0
 40
17.0
 41
1.2941176471
 42
50.0
 43
0.0
 44
0.0
 50
0.0
 51
0.0
 71
0
 72
100
 73
1
 74
1
 75
0
 76
0
 77
0
 78
0
  0
ENDTAB
  0
TABLE
  2
LTYPE
  5
5
100
AcDbSymbolTable
 70
6
  0
LTYPE
  5
14
100
AcDbSymbolTableRecord
100
AcDbLinetypeTableRecord
  2
BYBLOCK
 70
0
  3

 72
65
 73
0
 40
0.0
  0
LTYPE
  5
15
100
AcDbSymbolTableRecord
100
AcDbLinetypeTableRecord
  2
BYLAYER
 70
0
  3

 72
65
 73
0
 40
0.0
  0
LTYPE
  5
16
100
AcDbSymbolTableRecord
100
AcDbLinetypeTableRecord
  2
CONTINUOUS
 70
64
  3
Solid line
 72
65
 73
0
 40
0.0
  0
LTYPE
  5
1F5
100
AcDbSymbolTableRecord
100
AcDbLinetypeTableRecord
  2
CENTER
 70
64
  3
____ _ ____ _ ____ _ ____ _ ____ _ ____ _ ____
 72
65
 73
4
 40
0.6
 49
0.375
 74
0
 49
-0.075
 74
0
 49
0.075
 74
0
 49
-0.075
 74
0
  0
LTYPE
  5
1F6
100
AcDbSymbolTableRecord
100
AcDbLinetypeTableRecord
  2
HIDDEN
 70
64
  3
- - - - - - - - - - - - - - - - - - - -
 72
65
 73
2
 40
0.2
 49
0.1
 74
0
 49
-0.1
 74
0
  0
LTYPE
  5
1F7
100
AcDbSymbolTableRecord
100
AcDbLinetypeTableRecord
  2
PHANTOM
 70
64
  3
_____ _ _ _____ _ _ _____ _ _ _____
 72
65
 73
6
 40
0.8
 49
0.45
 74
0
 49
-0.05
 74
0
 49
0.1
 74
0
 49
-0.05
 74
0
 49
0.1
 74
0
 49
-0.05
 74
0
  0
LTYPE
  5
1F8
100
AcDbSymbolTableRecord
100
AcDbLinetypeTableRecord
  2
DOT
 70
64
  3
. . . . . . . . . . . . . . . . . . . .
 72
65
 73
2
 40
0.2
 49
0.1
 74
0
 49
-0.1
 74
0
  0
LTYPE
  5
1F9
100
AcDbSymbolTableRecord
100
AcDbLinetypeTableRecord
  2
DASHED
 70
64
  3
- - - - - - - - - - - - - - - - - - - -
 72
65
 73
2
 40
0.2
 49
0.1
 74
0
 49
-0.1
 74
0
  0
ENDTAB
  0
TABLE
  2
LAYER
  5
2
100
AcDbSymbolTable
 70
36
  0
LAYER
  5
10
100
AcDbSymbolTableRecord
100
AcDbLayerTableRecord
  2
0
 70
0
 62
7
  6
CONTINUOUS
370
-3
390
F
  0
LAYER
  5
1FA
100
AcDbSymbolTableRecord
100
AcDbLayerTableRecord
  2
DEFAULT_1
 70
0
 62
7
  6
CENTER
370
-3
390
F
  0
LAYER
  5
1FB
100
AcDbSymbolTableRecord
100
AcDbLayerTableRecord
  2
DEFAULT_2
 70
0
 62
8
  6
HIDDEN
370
-3
390
F
  0
LAYER
  5
1FC
100
AcDbSymbolTableRecord
100
AcDbLayerTableRecord
  2
DEFAULT_3
 70
0
 62
7
  6
PHANTOM
370
-3
390
F
  0
LAYER
  5
1FD
100
AcDbSymbolTableRecord
100
AcDbLayerTableRecord
  2
01___PRT_ALL_DTM_PLN
 70
0
 62
7
  6
CONTINUOUS
370
-3
390
F
  0
LAYER
  5
1FE
100
AcDbSymbolTableRecord
100
AcDbLayerTableRecord
  2
01___PRT_DEF_DTM_PLN
 70
0
 62
7
  6
CONTINUOUS
370
-3
390
F
  0
LAYER
  5
1FF
100
AcDbSymbolTableRecord
100
AcDbLayerTableRecord
  2
02___PRT_ALL_AXES
 70
0
 62
7
  6
CONTINUOUS
370
-3
390
F
  0
LAYER
  5
200
100
AcDbSymbolTableRecord
100
AcDbLayerTableRecord
  2
03___PRT_ALL_CURVES
 70
0
 62
7
  6
CONTINUOUS
370
-3
390
F
  0
LAYER
  5
201
100
AcDbSymbolTableRecord
100
AcDbLayerTableRecord
  2
04___PRT_ALL_DTM_PNT
 70
0
 62
7
  6
CONTINUOUS
370
-3
390
F
  0
LAYER
  5
202
100
AcDbSymbolTableRecord
100
AcDbLayerTableRecord
  2
05___PRT_ALL_DTM_CSYS
 70
0
 62
7
  6
CONTINUOUS
370
-3
390
F
  0
LAYER
  5
203
100
AcDbSymbolTableRecord
100
AcDbLayerTableRecord
  2
05___PRT_DEF_DTM_CSYS
 70
0
 62
7
  6
CONTINUOUS
370
-3
390
F
  0
LAYER
  5
204
100
AcDbSymbolTableRecord
100
AcDbLayerTableRecord
  2
06___PRT_ALL_SURFS
 70
0
 62
7
  6
CONTINUOUS
370
-3
390
F
  0
LAYER
  5
205
100
AcDbSymbolTableRecord
100
AcDbLayerTableRecord
  2
DATUM_PLANES
 70
0
 62
7
  6
CONTINUOUS
370
-3
390
F
  0
LAYER
  5
206
100
AcDbSymbolTableRecord
100
AcDbLayerTableRecord
  2
PORT_AREAS
 70
0
 62
7
  6
CONTINUOUS
370
-3
390
F
  0
LAYER
  5
207
100
AcDbSymbolTableRecord
100
AcDbLayerTableRecord
  2
SUNNBOMCOSMETIC
 70
0
 62
7
  6
CONTINUOUS
370
-3
390
F
  0
LAYER
  5
208
100
AcDbSymbolTableRecord
100
AcDbLayerTableRecord
  2
SUNNBOMSTAMPING
 70
0
 62
7
  6
CONTINUOUS
370
-3
390
F
  0
LAYER
  5
209
100
AcDbSymbolTableRecord
100
AcDbLayerTableRecord
  2
THREADS
 70
0
 62
7
  6
CONTINUOUS
370
-3
390
F
  0
ENDTAB
  0
TABLE
  2
STYLE
  5
3
100
AcDbSymbolTable
 70
1
  0
STYLE
  5
11
100
AcDbSymbolTableRecord
100
AcDbTextStyleTableRecord
  2
STANDARD
 70
0
 40
0.0
 41
0.8
 50
0.0
 71
0
 42
0.2
  3
txt
  4

  0
STYLE
  5
20A
100
AcDbSymbolTableRecord
100
AcDbTextStyleTableRecord
  2
TEXTSTYLE_1
 70
0
 40
0.0
 41
0.8
 50
0.0
 71
0
 42
0.2
  3
gdt
  4

  0
ENDTAB
  0
TABLE
  2
VIEW
  5
6
100
AcDbSymbolTable
 70
0
  0
ENDTAB
  0
TABLE
  2
UCS
  5
7
100
AcDbSymbolTable
 70
0
  0
ENDTAB
  0
TABLE
  2
APPID
  5
9
100
AcDbSymbolTable
 70
1
  0
APPID
  5
20B
100
AcDbSymbolTableRecord
100
AcDbRegAppTableRecord
  2
ACAD
 70
0
  0
ENDTAB
  0
TABLE
  2
BLOCK_RECORD
  5
1
100
AcDbSymbolTable
 70
0
  0
BLOCK_RECORD
  5
20C
100
AcDbSymbolTableRecord
100
AcDbBlockTableRecord
  2
*Model_Space
  0
BLOCK_RECORD
  5
20D
100
AcDbSymbolTableRecord
100
AcDbBlockTableRecord
  2
*Paper_Space
  0
BLOCK_RECORD
  5
20E
100
AcDbSymbolTableRecord
100
AcDbBlockTableRecord
  2
SUN_FIRST_THIRD_ANGLE_BL0
  0
BLOCK_RECORD
  5
20F
100
AcDbSymbolTableRecord
100
AcDbBlockTableRecord
  2
*T1
  0
BLOCK_RECORD
  5
210
100
AcDbSymbolTableRecord
100
AcDbBlockTableRecord
  2
*T2
  0
BLOCK_RECORD
  5
211
100
AcDbSymbolTableRecord
100
AcDbBlockTableRecord
  2
*T3
  0
ENDTAB
  0
TABLE
  2
DIMSTYLE
  5
A
100
AcDbSymbolTable
 70
1
100
AcDbDimStyleTable
 71
0
  0
DIMSTYLE
105
212
100
AcDbSymbolTableRecord
100
AcDbDimStyleTableRecord
  2
STANDARD
 70
0
  3

  4

 40
1.0
 41
0.1875
 42
0.0625
 43
0.38
 44
0.125
 45
0.0
 46
0.0
 47
0.001
 48
0.001
140
0.1
141
0.09
142
0.0
143
25.4
144
1.0
145
0.0
146
1.0
147
0.09
 71
0.0
 72
0.0
 73
1
 74
1
 75
0
 76
0
 77
0
 78
4
170
0
171
2
172
0
173
0
174
0
175
0
176
0
177
0
178
0
270
2
271
3
272
3
273
2
274
2
275
0
280
0
281
0
282
0
283
1
284
4
285
0
286
0
287
3
288
0
340
11
278
46
  0
ENDTAB
  0
ENDSEC
  0
SECTION
  2
BLOCKS
  0
BLOCK
  5
20
100
AcDbEntity
  8
0
100
AcDbBlockBegin
  2
*Model_Space
 70
0
 10
0.0
 20
0.0
 30
0.0
  3
*Model_Space
  1

  0
ENDBLK
  5
21
100
AcDbEntity
  8
0
100
AcDbBlockEnd
  0
BLOCK
  5
1C
100
AcDbEntity
  8
0
100
AcDbBlockBegin
  2
*Paper_Space
 70
0
 10
0.0
 20
0.0
 30
0.0
  3
*Paper_Space
  1

  0
ENDBLK
  5
1D
100
AcDbEntity
  8
0
100
AcDbBlockEnd
  0
BLOCK
  5
213
100
AcDbEntity
  8
0
100
AcDbBlockBegin
 62
2
  6
CONTINUOUS
  2
SUN_FIRST_THIRD_ANGLE_BL0
 70
64
 10
20.4816717061
 20
1.2289683772
  3
SUN_FIRST_THIRD_ANGLE_BL0
  1

  0
TEXT
  5
214
100
AcDbEntity
  8
0
100
AcDbText
 62
2
  6
CONTINUOUS
 10
19.4750896608
 20
1.4136269581
  7
STANDARD
 40
0.08
  1
FIRST ANGLE
 41
0.8
 72
0
100
AcDbText
  0
TEXT
  5
215
100
AcDbEntity
  8
0
100
AcDbText
 62
2
  6
CONTINUOUS
 10
20.7842537513
 20
1.4047600029
  7
STANDARD
 40
0.08
  1
THIRD ANGLE
 41
0.8
 72
0
100
AcDbText
  0
LINE
  5
216
100
AcDbEntity
  8
0
100
AcDbLine
 62
7
  6
CONTINUOUS
 10
19.4767170086
 20
1.1727031207
 11
19.6334271527
 21
1.1717972817
  0
LINE
  5
217
100
AcDbEntity
  8
0
100
AcDbLine
 62
7
  6
CONTINUOUS
 10
19.6596964832
 20
1.1717972817
 11
19.6950230232
 21
1.171593082
  0
LINE
  5
218
100
AcDbEntity
  8
0
100
AcDbLine
 62
7
  6
CONTINUOUS
 10
19.7194818561
 20
1.1708914427
 11
19.8852396156
 21
1.1699333054
  0
LINE
  5
219
100
AcDbEntity
  8
0
100
AcDbLine
 62
7
  6
CONTINUOUS
 10
19.4758111696
 20
1.2723454088
 11
19.88525039
 21
1.3511534004
  0
LINE
  5
21A
100
AcDbEntity
  8
0
100
AcDbLine
 62
7
  6
CONTINUOUS
 10
19.88525039
 20
1.3511534004
 11
19.8831348489
 21
0.9851647912
  0
LINE
  5
21B
100
AcDbEntity
  8
0
100
AcDbLine
 62
7
  6
CONTINUOUS
 10
19.8831348489
 20
0.9851647912
 11
19.4767170086
 21
1.0658141206
  0
LINE
  5
21C
100
AcDbEntity
  8
0
100
AcDbLine
 62
7
  6
CONTINUOUS
 10
19.4767170086
 20
1.0658141206
 11
19.4779056764
 21
1.2714536432
  0
CIRCLE
  5
21D
100
AcDbEntity
  8
0
100
AcDbCircle
 62
7
  6
CONTINUOUS
 10
20.2068232291
 20
1.1717972817
 40
0.175742101
  0
CIRCLE
  5
21E
100
AcDbEntity
  8
0
100
AcDbCircle
 62
7
  6
CONTINUOUS
 10
20.2068232291
 20
1.1717972817
 40
0.1005522074
  0
LINE
  5
21F
100
AcDbEntity
  8
0
100
AcDbLine
 62
7
  6
CONTINUOUS
 10
20.2077290681
 20
1.3756110529
 11
20.2071171714
 21
1.2379342989
  0
LINE
  5
220
100
AcDbEntity
  8
0
100
AcDbLine
 62
7
  6
CONTINUOUS
 10
20.2077290681
 20
1.2016899681
 11
20.2074674401
 21
1.1428236749
  0
LINE
  5
221
100
AcDbEntity
  8
0
100
AcDbLine
 62
7
  6
CONTINUOUS
 10
20.208634907
 20
1.101141841
 11
20.2080230104
 21
0.963465087
  0
LINE
  5
222
100
AcDbEntity
  8
0
100
AcDbLine
 62
7
  6
CONTINUOUS
 10
20.0066328138
 20
1.1745147986
 11
20.1443095678
 21
1.1739029019
  0
LINE
  5
223
100
AcDbEntity
  8
0
100
AcDbLine
 62
7
  6
CONTINUOUS
 10
20.1832714155
 20
1.1727031207
 11
20.238153505
 21
1.172335442
  0
LINE
  5
224
100
AcDbEntity
  8
0
100
AcDbLine
 62
7
  6
CONTINUOUS
 10
20.2756669918
 20
1.1717972817
 11
20.407916871
 21
1.1712095044
  0
CIRCLE
  5
225
100
AcDbEntity
  8
0
100
AcDbCircle
 62
7
  6
CONTINUOUS
 10
20.7509457401
 20
1.1693297793
 40
0.1722024983
  0
CIRCLE
  5
226
100
AcDbEntity
  8
0
100
AcDbCircle
 62
7
  6
CONTINUOUS
 10
20.7509457401
 20
1.1693297793
 40
0.0985164967
  0
LINE
  5
227
100
AcDbEntity
  8
0
100
AcDbLine
 62
7
  6
CONTINUOUS
 10
20.7169767782
 20
1.170462078
 11
20.7825395137
 21
1.1682766535
  0
LINE
  5
228
100
AcDbEntity
  8
0
100
AcDbLine
 62
7
  6
CONTINUOUS
 10
20.8177513651
 20
1.1693297793
 11
20.947965719
 21
1.1693297793
  0
LINE
  5
229
100
AcDbEntity
  8
0
100
AcDbLine
 62
7
  6
CONTINUOUS
 10
20.6875370113
 20
1.170462078
 11
20.5573226574
 21
1.170462078
  0
LINE
  5
22A
100
AcDbEntity
  8
0
100
AcDbLine
 62
7
  6
CONTINUOUS
 10
20.7486811426
 20
1.1987695462
 11
20.7486811426
 21
1.1432869085
  0
LINE
  5
22B
100
AcDbEntity
  8
0
100
AcDbLine
 62
7
  6
CONTINUOUS
 10
20.7498134414
 20
1.1059210505
 11
20.7498134414
 21
0.9757066966
  0
LINE
  5
22C
100
AcDbEntity
  8
0
100
AcDbLine
 62
7
  6
CONTINUOUS
 10
20.7486811426
 20
1.2338708068
 11
20.7486811426
 21
1.3640851607
  0
LINE
  5
22D
100
AcDbEntity
  8
0
100
AcDbLine
 62
7
  6
CONTINUOUS
 10
21.0702539817
 20
1.2701043662
 11
21.4790138229
 21
1.3448360823
  0
LINE
  5
22E
100
AcDbEntity
  8
0
100
AcDbLine
 62
7
  6
CONTINUOUS
 10
21.4790138229
 20
1.3448360823
 11
21.4790138229
 21
0.9779712941
  0
LINE
  5
22F
100
AcDbEntity
  8
0
100
AcDbLine
 62
7
  6
CONTINUOUS
 10
21.4790138229
 20
0.9779712941
 11
21.069121683
 21
1.0617614
  0
LINE
  5
230
100
AcDbEntity
  8
0
100
AcDbLine
 62
7
  6
CONTINUOUS
 10
21.0702539817
 20
1.2701043662
 11
21.069121683
 21
1.0617614
  0
LINE
  5
231
100
AcDbEntity
  8
0
100
AcDbLine
 62
7
  6
CONTINUOUS
 10
21.4790138229
 20
1.1693297793
 11
21.3159628059
 21
1.1693297793
  0
LINE
  5
232
100
AcDbEntity
  8
0
100
AcDbLine
 62
7
  6
CONTINUOUS
 10
21.2876553377
 20
1.1693297793
 11
21.2502894796
 21
1.1693297793
  0
LINE
  5
233
100
AcDbEntity
  8
0
100
AcDbLine
 62
7
  6
CONTINUOUS
 10
21.2208497126
 20
1.1659328831
 11
21.0713862804
 21
1.1659328831
  0
LINE
  5
234
100
AcDbEntity
  8
0
100
AcDbLine
 62
7
  6
CONTINUOUS
 10
20.4796138713
 20
1.5284908897
 11
20.4766766948
 21
0.9294458646
  0
ENDBLK
  5
235
100
AcDbEntity
  8
0
  6
BYBLOCK
 62
0
100
AcDbBlockEnd
  0
BLOCK
  5
236
100
AcDbEntity
  8
0
100
AcDbBlockBegin
  2
*T1
 70
1
 10
0.0
 20
0.0
  3
*T1
  1

  0
LINE
  5
237
100
AcDbEntity
  8
0
100
AcDbLine
 62
2
  6
CONTINUOUS
 10
9.275
 20
0.0
 11
-0.0
 21
0.0
  0
LINE
  5
238
100
AcDbEntity
  8
0
100
AcDbLine
 62
2
  6
CONTINUOUS
 10
9.275
 20
0.0
 11
9.275
 21
1.25
  0
LINE
  5
239
100
AcDbEntity
  8
0
100
AcDbLine
 62
2
  6
CONTINUOUS
 10
9.275
 20
0.625
 11
-0.0
 21
0.625
  0
LINE
  5
23A
100
AcDbEntity
  8
0
100
AcDbLine
 62
2
  6
CONTINUOUS
 10
9.275
 20
1.25
 11
-0.0
 21
1.25
  0
LINE
  5
23B
100
AcDbEntity
  8
0
100
AcDbLine
 62
2
  6
CONTINUOUS
 10
6.8
 20
0.0
 11
6.8
 21
1.25
  0
LINE
  5
23C
100
AcDbEntity
  8
0
100
AcDbLine
 62
2
  6
CONTINUOUS
 10
6.4
 20
0.0
 11
6.4
 21
0.625
  0
LINE
  5
23D
100
AcDbEntity
  8
0
100
AcDbLine
 62
2
  6
CONTINUOUS
 10
5.9
 20
0.0
 11
5.9
 21
0.625
  0
LINE
  5
23E
100
AcDbEntity
  8
0
100
AcDbLine
 62
2
  6
CONTINUOUS
 10
5.2
 20
0.0
 11
5.2
 21
0.625
  0
LINE
  5
23F
100
AcDbEntity
  8
0
100
AcDbLine
 62
2
  6
CONTINUOUS
 10
4.1
 20
0.0
 11
4.1
 21
1.25
  0
LINE
  5
240
100
AcDbEntity
  8
0
100
AcDbLine
 62
2
  6
CONTINUOUS
 10
-0.0
 20
0.0
 11
-0.0
 21
1.25
  0
MTEXT
  5
241
100
AcDbEntity
  8
0
100
AcDbMText
 62
2
  6
CONTINUOUS
  7
STANDARD
 71
2
 72
1
 10
6.6
 20
0.325
 30
0.0
 11
1.0
 21
0.0
 31
0.0
 44
0.9
  1
2
 40
0.125
 41
0.2
  0
MTEXT
  5
242
100
AcDbEntity
  8
0
100
AcDbMText
 62
2
  6
CONTINUOUS
  7
STANDARD
 71
2
 72
1
 10
6.15
 20
0.325
 30
0.0
 11
1.0
 21
0.0
 31
0.0
 44
0.9
  1
C
 40
0.125
 41
0.2
  0
MTEXT
  5
243
100
AcDbEntity
  8
0
100
AcDbMText
 62
2
  6
CONTINUOUS
  7
STANDARD
 71
2
 72
1
 10
5.55
 20
0.325
 30
0.0
 11
1.0
 21
0.0
 31
0.0
 44
0.9
  1
1.000
 40
0.125
 41
1.0
  0
MTEXT
  5
244
100
AcDbEntity
  8
0
100
AcDbMText
 62
2
  6
CONTINUOUS
  7
STANDARD
 71
2
 72
1
 10
4.65
 20
0.325
 30
0.0
 11
1.0
 21
0.0
 31
0.0
 44
0.9
  1
Nov-17-20
 40
0.125
 41
1.8
  0
MTEXT
  5
245
100
AcDbEntity
  8
0
100
AcDbMText
 62
2
  6
CONTINUOUS
  7
STANDARD
 71
2
 72
1
 10
2.05
 20
0.4625
 30
0.0
 11
1.0
 21
0.0
 31
0.0
 44
0.9
  1
T-10A Subplate ISO 03\PP to T, check on P, side ports
 40
0.125
 41
6.0
  0
MTEXT
  5
246
100
AcDbEntity
  8
0
100
AcDbMText
 62
2
  6
CONTINUOUS
  7
STANDARD
 71
1
 72
1
 10
6.45
 20
0.5625
 30
0.0
 11
1.0
 21
0.0
 31
0.0
 44
0.9
  1
SHEET
 40
0.06
 41
0.48
  0
MTEXT
  5
247
100
AcDbEntity
  8
0
100
AcDbMText
 62
2
  6
CONTINUOUS
  7
STANDARD
 71
1
 72
1
 10
5.95
 20
0.5625
 30
0.0
 11
1.0
 21
0.0
 31
0.0
 44
0.9
  1
DWG SIZE
 40
0.06
 41
0.768
  0
MTEXT
  5
248
100
AcDbEntity
  8
0
100
AcDbMText
 62
2
  6
CONTINUOUS
  7
STANDARD
 71
1
 72
1
 10
5.25
 20
0.5625
 30
0.0
 11
1.0
 21
0.0
 31
0.0
 44
0.9
  1
SCALE
 40
0.06
 41
0.48
  0
MTEXT
  5
249
100
AcDbEntity
  8
0
100
AcDbMText
 62
2
  6
CONTINUOUS
  7
STANDARD
 71
1
 72
1
 10
4.15
 20
0.5625
 30
0.0
 11
1.0
 21
0.0
 31
0.0
 44
0.9
  1
DATE
 40
0.06
 41
0.384
  0
MTEXT
  5
24A
100
AcDbEntity
  8
0
100
AcDbMText
 62
2
  6
CONTINUOUS
  7
STANDARD
 71
1
 72
1
 10
0.05
 20
0.5625
 30
0.0
 11
1.0
 21
0.0
 31
0.0
 44
0.9
  1
DESCRIPTION
 40
0.06
 41
1.056
  0
MTEXT
  5
24B
100
AcDbEntity
  8
0
100
AcDbMText
 62
2
  6
CONTINUOUS
  7
STANDARD
 71
2
 72
1
 10
5.45
 20
1.0375
 30
0.0
 11
1.0
 21
0.0
 31
0.0
 44
0.9
  1
ALL DIMENSIONS IN INCH\PVIEWS ARE THIRD ANGLE
 40
0.12
 41
4.224
  0
MTEXT
  5
24C
100
AcDbEntity
  8
0
100
AcDbMText
 62
2
  6
CONTINUOUS
  7
STANDARD
 71
2
 72
1
 10
2.05
 20
0.95
 30
0.0
 11
1.0
 21
0.0
 31
0.0
 44
0.9
  1
WJV
 40
0.125
 41
0.6
  0
MTEXT
  5
24D
100
AcDbEntity
  8
0
100
AcDbMText
 62
2
  6
CONTINUOUS
  7
STANDARD
 71
1
 72
1
 10
0.05
 20
1.1875
 30
0.0
 11
1.0
 21
0.0
 31
0.0
 44
0.9
  1
MODEL
 40
0.06
 41
0.48
  0
ENDBLK
  5
24E
100
AcDbEntity
  8
0
  6
BYBLOCK
 62
0
100
AcDbBlockEnd
  0
BLOCK
  5
24F
100
AcDbEntity
  8
0
100
AcDbBlockBegin
  2
*T2
 70
1
 10
0.0
 20
0.0
  3
*T2
  1

  0
LINE
  5
250
100
AcDbEntity
  8
0
100
AcDbLine
 62
2
  6
CONTINUOUS
 10
0.0
 20
0.0
 11
9.055
 21
0.0
  0
LINE
  5
251
100
AcDbEntity
  8
0
100
AcDbLine
 62
2
  6
CONTINUOUS
 10
0.0
 20
0.0
 11
0.0
 21
-1.844
  0
LINE
  5
252
100
AcDbEntity
  8
0
100
AcDbLine
 62
2
  6
CONTINUOUS
 10
0.0
 20
-0.344
 11
9.055
 21
-0.344
  0
LINE
  5
253
100
AcDbEntity
  8
0
100
AcDbLine
 62
2
  6
CONTINUOUS
 10
0.0
 20
-0.594
 11
9.055
 21
-0.594
  0
LINE
  5
254
100
AcDbEntity
  8
0
100
AcDbLine
 62
2
  6
CONTINUOUS
 10
0.0
 20
-0.844
 11
9.055
 21
-0.844
  0
LINE
  5
255
100
AcDbEntity
  8
0
100
AcDbLine
 62
2
  6
CONTINUOUS
 10
0.0
 20
-1.094
 11
9.055
 21
-1.094
  0
LINE
  5
256
100
AcDbEntity
  8
0
100
AcDbLine
 62
2
  6
CONTINUOUS
 10
0.0
 20
-1.344
 11
9.055
 21
-1.344
  0
LINE
  5
257
100
AcDbEntity
  8
0
100
AcDbLine
 62
2
  6
CONTINUOUS
 10
0.0
 20
-1.594
 11
9.055
 21
-1.594
  0
LINE
  5
258
100
AcDbEntity
  8
0
100
AcDbLine
 62
2
  6
CONTINUOUS
 10
0.0
 20
-1.844
 11
9.055
 21
-1.844
  0
LINE
  5
259
100
AcDbEntity
  8
0
100
AcDbLine
 62
2
  6
CONTINUOUS
 10
3.055
 20
0.0
 11
3.055
 21
-1.844
  0
LINE
  5
25A
100
AcDbEntity
  8
0
100
AcDbLine
 62
2
  6
CONTINUOUS
 10
9.055
 20
0.0
 11
9.055
 21
-1.844
  0
MTEXT
  5
25B
100
AcDbEntity
  8
0
100
AcDbMText
 62
2
  6
CONTINUOUS
  7
STANDARD
 71
2
 72
1
 10
1.5275
 20
-0.0995
 30
0.0
 11
1.0
 21
0.0
 31
0.0
 44
0.9
  1
Technical Data
 40
0.145
 41
3.248
  0
MTEXT
  5
25C
100
AcDbEntity
  8
0
100
AcDbMText
 62
2
  6
CONTINUOUS
  7
STANDARD
 71
2
 72
1
 10
4.555
 20
-0.0995
 30
0.0
 11
1.0
 21
0.0
 31
0.0
 44
0.9
  1
U.S. Units
 40
0.145
 41
2.32
  0
MTEXT
  5
25D
100
AcDbEntity
  8
0
100
AcDbMText
 62
2
  6
CONTINUOUS
  7
STANDARD
 71
2
 72
1
 10
7.555
 20
-0.0995
 30
0.0
 11
1.0
 21
0.0
 31
0.0
 44
0.9
  1
Metric Units
 40
0.145
 41
2.784
  0
MTEXT
  5
25E
100
AcDbEntity
  8
0
100
AcDbMText
 62
2
  6
CONTINUOUS
  7
STANDARD
 71
2
 72
1
 10
1.5275
 20
-0.4065
 30
0.0
 11
1.0
 21
0.0
 31
0.0
 44
0.9
  1
Cavity
 40
0.125
 41
1.2
  0
MTEXT
  5
25F
100
AcDbEntity
  8
0
100
AcDbMText
 62
2
  6
CONTINUOUS
  7
STANDARD
 71
2
 72
1
 10
6.055
 20
-0.4065
 30
0.0
 11
1.0
 21
0.0
 31
0.0
 44
0.9
  1
T-10A
 40
0.125
 41
1.0
  0
MTEXT
  5
260
100
AcDbEntity
  8
0
100
AcDbMText
 62
2
  6
CONTINUOUS
  7
STANDARD
 71
2
 72
1
 10
1.5275
 20
-0.6565
 30
0.0
 11
1.0
 21
0.0
 31
0.0
 44
0.9
  1
Body Features
 40
0.125
 41
2.6
  0
MTEXT
  5
261
100
AcDbEntity
  8
0
100
AcDbMText
 62
2
  6
CONTINUOUS
  7
STANDARD
 71
2
 72
1
 10
6.055
 20
-0.6565
 30
0.0
 11
1.0
 21
0.0
 31
0.0
 44
0.9
  1
P to T, check on P, side ports
 40
0.125
 41
6.0
  0
MTEXT
  5
262
100
AcDbEntity
  8
0
100
AcDbMText
 62
2
  6
CONTINUOUS
  7
STANDARD
 71
2
 72
1
 10
1.5275
 20
-0.9065
 30
0.0
 11
1.0
 21
0.0
 31
0.0
 44
0.9
  1
Body Type
 40
0.125
 41
1.8
  0
MTEXT
  5
263
100
AcDbEntity
  8
0
100
AcDbMText
 62
2
  6
CONTINUOUS
  7
STANDARD
 71
2
 72
1
 10
6.055
 20
-0.9065
 30
0.0
 11
1.0
 21
0.0
 31
0.0
 44
0.9
  1
Subplate
 40
0.125
 41
1.6
  0
MTEXT
  5
264
100
AcDbEntity
  8
0
100
AcDbMText
 62
2
  6
CONTINUOUS
  7
STANDARD
 71
2
 72
1
 10
1.5275
 20
-1.1565
 30
0.0
 11
1.0
 21
0.0
 31
0.0
 44
0.9
  1
Interface
 40
0.125
 41
1.8
  0
MTEXT
  5
265
100
AcDbEntity
  8
0
100
AcDbMText
 62
2
  6
CONTINUOUS
  7
STANDARD
 71
2
 72
1
 10
6.055
 20
-1.1565
 30
0.0
 11
1.0
 21
0.0
 31
0.0
 44
0.9
  1
ISO 03
 40
0.125
 41
1.2
  0
MTEXT
  5
266
100
AcDbEntity
  8
0
100
AcDbMText
 62
2
  6
CONTINUOUS
  7
STANDARD
 71
2
 72
1
 10
1.5275
 20
-1.4065
 30
0.0
 11
1.0
 21
0.0
 31
0.0
 44
0.9
  1
Open Cavity Quantity
 40
0.125
 41
4.0
  0
MTEXT
  5
267
100
AcDbEntity
  8
0
100
AcDbMText
 62
2
  6
CONTINUOUS
  7
STANDARD
 71
2
 72
1
 10
6.055
 20
-1.4065
 30
0.0
 11
1.0
 21
0.0
 31
0.0
 44
0.9
  1
1
 40
0.125
 41
0.2
  0
MTEXT
  5
268
100
AcDbEntity
  8
0
100
AcDbMText
 62
2
  6
CONTINUOUS
  7
STANDARD
 71
2
 72
1
 10
1.5275
 20
-1.6565
 30
0.0
 11
1.0
 21
0.0
 31
0.0
 44
0.9
  1
Weight
 40
0.125
 41
1.2
  0
MTEXT
  5
269
100
AcDbEntity
  8
0
100
AcDbMText
 62
2
  6
CONTINUOUS
  7
STANDARD
 71
2
 72
1
 10
4.555
 20
-1.6565
 30
0.0
 11
1.0
 21
0.0
 31
0.0
 44
0.9
  1
2.251 lb.
 40
0.125
 41
1.8
  0
MTEXT
  5
26A
100
AcDbEntity
  8
0
100
AcDbMText
 62
2
  6
CONTINUOUS
  7
STANDARD
 71
2
 72
1
 10
7.555
 20
-1.6565
 30
0.0
 11
1.0
 21
0.0
 31
0.0
 44
0.9
  1
1,021 kg.
 40
0.125
 41
1.8
  0
ENDBLK
  5
26B
100
AcDbEntity
  8
0
  6
BYBLOCK
 62
0
100
AcDbBlockEnd
  0
BLOCK
  5
26C
100
AcDbEntity
  8
0
100
AcDbBlockBegin
  2
*T3
 70
1
 10
0.0
 20
0.0
  3
*T3
  1

  0
LINE
  5
26D
100
AcDbEntity
  8
0
100
AcDbLine
 62
2
  6
CONTINUOUS
 10
0.0
 20
0.0
 11
4.6
 21
0.0
  0
LINE
  5
26E
100
AcDbEntity
  8
0
100
AcDbLine
 62
2
  6
CONTINUOUS
 10
0.0
 20
0.0
 11
0.0
 21
-1.18775
  0
LINE
  5
26F
100
AcDbEntity
  8
0
100
AcDbLine
 62
2
  6
CONTINUOUS
 10
0.0
 20
-0.34375
 11
4.6
 21
-0.34375
  0
LINE
  5
270
100
AcDbEntity
  8
0
100
AcDbLine
 62
2
  6
CONTINUOUS
 10
0.0
 20
-0.68775
 11
4.6
 21
-0.68775
  0
LINE
  5
271
100
AcDbEntity
  8
0
100
AcDbLine
 62
2
  6
CONTINUOUS
 10
0.0
 20
-0.93775
 11
4.6
 21
-0.93775
  0
LINE
  5
272
100
AcDbEntity
  8
0
100
AcDbLine
 62
2
  6
CONTINUOUS
 10
0.0
 20
-1.18775
 11
4.6
 21
-1.18775
  0
LINE
  5
273
100
AcDbEntity
  8
0
100
AcDbLine
 62
2
  6
CONTINUOUS
 10
1.3
 20
-0.34375
 11
1.3
 21
-1.18775
  0
LINE
  5
274
100
AcDbEntity
  8
0
100
AcDbLine
 62
2
  6
CONTINUOUS
 10
3.3
 20
-0.34375
 11
3.3
 21
-1.18775
  0
LINE
  5
275
100
AcDbEntity
  8
0
100
AcDbLine
 62
2
  6
CONTINUOUS
 10
4.6
 20
0.0
 11
4.6
 21
-1.18775
  0
MTEXT
  5
276
100
AcDbEntity
  8
0
100
AcDbMText
 62
2
  6
CONTINUOUS
  7
STANDARD
 71
2
 72
1
 10
2.3
 20
-0.099375
 30
0.0
 11
1.0
 21
0.0
 31
0.0
 44
0.9
  1
Port Headings
 40
0.145
 41
3.016
  0
MTEXT
  5
277
100
AcDbEntity
  8
0
100
AcDbMText
 62
2
  6
CONTINUOUS
  7
STANDARD
 71
2
 72
1
 10
0.65
 20
-0.44325
 30
0.0
 11
1.0
 21
0.0
 31
0.0
 44
0.9
  1
Product
 40
0.145
 41
1.624
  0
MTEXT
  5
278
100
AcDbEntity
  8
0
100
AcDbMText
 62
2
  6
CONTINUOUS
  7
STANDARD
 71
2
 72
1
 10
2.3
 20
-0.44325
 30
0.0
 11
1.0
 21
0.0
 31
0.0
 44
0.9
  1
Port
 40
0.145
 41
0.928
  0
MTEXT
  5
279
100
AcDbEntity
  8
0
100
AcDbMText
 62
2
  6
CONTINUOUS
  7
STANDARD
 71
2
 72
1
 10
3.95
 20
-0.44325
 30
0.0
 11
1.0
 21
0.0
 31
0.0
 44
0.9
  1
Size
 40
0.145
 41
0.928
  0
MTEXT
  5
27A
100
AcDbEntity
  8
0
100
AcDbMText
 62
2
  6
CONTINUOUS
  7
STANDARD
 71
2
 72
1
 10
0.65
 20
-0.75025
 30
0.0
 11
1.0
 21
0.0
 31
0.0
 44
0.9
  1
WJV
 40
0.125
 41
0.6
  0
MTEXT
  5
27B
100
AcDbEntity
  8
0
100
AcDbMText
 62
2
  6
CONTINUOUS
  7
STANDARD
 71
2
 72
1
 10
2.3
 20
-0.75025
 30
0.0
 11
1.0
 21
0.0
 31
0.0
 44
0.9
  1
Ports A, B, P, T
 40
0.125
 41
3.2
  0
MTEXT
  5
27C
100
AcDbEntity
  8
0
100
AcDbMText
 62
2
  6
CONTINUOUS
  7
STANDARD
 71
2
 72
1
 10
3.95
 20
-0.75025
 30
0.0
 11
1.0
 21
0.0
 31
0.0
 44
0.9
  1
3/8" BSPP
 40
0.125
 41
1.8
  0
MTEXT
  5
27D
100
AcDbEntity
  8
0
100
AcDbMText
 62
2
  6
CONTINUOUS
  7
STANDARD
 71
2
 72
1
 10
0.65
 20
-1.00025
 30
0.0
 11
1.0
 21
0.0
 31
0.0
 44
0.9
  1
WJV
 40
0.125
 41
0.6
  0
MTEXT
  5
27E
100
AcDbEntity
  8
0
100
AcDbMText
 62
2
  6
CONTINUOUS
  7
STANDARD
 71
2
 72
1
 10
2.3
 20
-1.00025
 30
0.0
 11
1.0
 21
0.0
 31
0.0
 44
0.9
  1
Gage Port
 40
0.125
 41
1.8
  0
MTEXT
  5
27F
100
AcDbEntity
  8
0
100
AcDbMText
 62
2
  6
CONTINUOUS
  7
STANDARD
 71
2
 72
1
 10
3.95
 20
-1.00025
 30
0.0
 11
1.0
 21
0.0
 31
0.0
 44
0.9
  1
1/4" BSPP
 40
0.125
 41
1.8
  0
ENDBLK
  5
280
100
AcDbEntity
  8
0
  6
BYBLOCK
 62
0
100
AcDbBlockEnd
  0
ENDSEC
  0
SECTION
  2
ENTITIES
  0
IMAGE
  5
281
100
AcDbEntity
  8
0
100
AcDbRasterImage
 62
7
  6
CONTINUOUS
 10
19.2297077316
 20
0.3094318264
 30
0.0
 11
0.0066666667
 21
0.0
 31
0.0
 12
0.0
 22
0.0066666667
 32
0.0
 13
369.0
 23
92.0
340
       3B5
 70
9
280
0
281
50
282
50
283
0
360
       3AF
 71
1
 91
2
 14
-0.5
 24
-0.5
 14
368.5
 24
91.5
  0
INSERT
  5
282
100
AcDbEntity
  8
0
100
AcDbBlockReference
 62
2
  6
CONTINUOUS
  2
SUN_FIRST_THIRD_ANGLE_BL0
 10
20.4816717061
 20
1.2289683772
  0
ACAD_TABLE
  5
283
100
AcDbEntity
  8
0
 62
2
  6
CONTINUOUS
100
AcDbBlockReference
  2
*T1
 10
12.42375
 20
0.30125
 30
0.0
100
AcDbTable
342
       3B7
343
20F
 11
1.0
 21
0.0
 31
0.0
 90
6
 91
4
 92
6
 93
20
 94
0
 95
0
 96
0
 70
1
 41
0.0
141
0.525
141
0.1
141
0.525
141
0.1
142
4.1
142
1.1
142
0.7
142
0.5
142
0.4
142
2.475
171
1
172
0
173
0
174
0
175
1
176
1
 91
33
178
0
145
0.0
301
CELL_VALUE
 90
4
  1
T-10A Subplate ISO 03\PP to T, check on P, side ports
304
ACVALUE_END
170
2
140
0.125
171
1
172
0
173
0
174
0
175
1
176
1
 91
33
178
0
145
0.0
301
CELL_VALUE
 90
4
  1
Nov-17-20
304
ACVALUE_END
170
5
140
0.125
171
1
172
0
173
0
174
0
175
1
176
1
 91
33
178
0
145
0.0
301
CELL_VALUE
 90
4
  1
1.000
304
ACVALUE_END
170
5
140
0.125
171
1
172
0
173
0
174
0
175
1
176
1
 91
33
178
0
145
0.0
301
CELL_VALUE
 90
4
  1
C
304
ACVALUE_END
170
5
140
0.125
171
1
172
0
173
0
174
0
175
1
176
1
 91
33
178
0
145
0.0
301
CELL_VALUE
 90
4
  1
2
304
ACVALUE_END
170
5
140
0.125
171
1
172
0
173
0
174
0
175
1
176
1
 91
33
178
0
145
0.0
301
CELL_VALUE
 90
4
  1
 
304
ACVALUE_END
170
1
140
0.125
171
1
172
0
173
0
174
0
175
1
176
1
 91
33
178
0
145
0.0
301
CELL_VALUE
 90
4
  1
DESCRIPTION
304
ACVALUE_END
170
1
140
0.06
171
1
172
0
173
0
174
0
175
1
176
1
 91
33
178
0
145
0.0
301
CELL_VALUE
 90
4
  1
DATE
304
ACVALUE_END
170
1
140
0.06
171
1
172
0
173
0
174
0
175
1
176
1
 91
33
178
0
145
0.0
301
CELL_VALUE
 90
4
  1
SCALE
304
ACVALUE_END
170
1
140
0.06
171
1
172
0
173
0
174
0
175
1
176
1
 91
33
178
0
145
0.0
301
CELL_VALUE
 90
4
  1
DWG SIZE
304
ACVALUE_END
170
1
140
0.06
171
1
172
0
173
0
174
0
175
1
176
1
 91
33
178
0
145
0.0
301
CELL_VALUE
 90
4
  1
SHEET
304
ACVALUE_END
170
1
140
0.06
171
1
172
0
173
0
174
0
175
1
176
1
 91
33
178
0
145
0.0
301
CELL_VALUE
 90
4
  1
 
304
ACVALUE_END
170
1
140
0.125
171
1
172
0
173
0
174
0
175
1
176
1
 91
33
178
0
145
0.0
301
CELL_VALUE
 90
4
  1
WJV
304
ACVALUE_END
170
5
140
0.125
171
1
172
0
173
0
174
0
175
4
176
1
 91
33
178
0
145
0.0
301
CELL_VALUE
 90
4
  1
ALL DIMENSIONS IN INCH\PVIEWS ARE THIRD ANGLE
304
ACVALUE_END
170
5
140
0.12
171
1
172
0
173
1
174
0
175
1
176
1
 91
1
178
0
145
0.0
170
1
171
1
172
0
173
1
174
0
175
1
176
1
 91
1
178
0
145
0.0
170
1
171
1
172
0
173
1
174
0
175
1
176
1
 91
1
178
0
145
0.0
170
5
171
1
172
0
173
0
174
0
175
1
176
1
 91
33
178
0
145
0.0
301
CELL_VALUE
 90
4
  1
 
304
ACVALUE_END
170
1
140
0.125
171
1
172
0
173
0
174
0
175
1
176
1
 91
33
178
0
145
0.0
301
CELL_VALUE
 90
4
  1
MODEL
304
ACVALUE_END
170
1
140
0.06
171
1
172
0
173
0
174
0
175
1
176
1
 91
33
178
0
145
0.0
301
CELL_VALUE
 90
4
  1
 
304
ACVALUE_END
170
1
140
0.125
171
1
172
0
173
0
174
0
175
1
176
1
 91
33
178
0
145
0.0
301
CELL_VALUE
 90
4
  1
 
304
ACVALUE_END
170
1
140
0.125
171
1
172
0
173
0
174
0
175
1
176
1
 91
33
178
0
145
0.0
301
CELL_VALUE
 90
4
  1
 
304
ACVALUE_END
170
1
140
0.125
171
1
172
0
173
0
174
0
175
1
176
1
 91
33
178
0
145
0.0
301
CELL_VALUE
 90
4
  1
 
304
ACVALUE_END
170
1
140
0.125
171
1
172
0
173
0
174
0
175
1
176
1
 91
33
178
0
145
0.0
301
CELL_VALUE
 90
4
  1
 
304
ACVALUE_END
170
1
140
0.125
  0
ACAD_TABLE
  5
284
100
AcDbEntity
  8
0
 62
2
  6
CONTINUOUS
100
AcDbBlockReference
  2
*T2
 10
12.4237499994
 20
16.47875
 30
0.0
100
AcDbTable
342
       3B6
343
210
 11
1.0
 21
0.0
 31
0.0
 90
22
 91
7
 92
3
 93
16
 94
0
 95
0
 96
0
 41
0.028
141
0.344
141
0.25
141
0.25
141
0.25
141
0.25
141
0.25
141
0.25
142
3.055
142
3.0
142
3.0
171
1
172
0
173
0
174
0
175
1
176
1
 91
33
178
0
145
0.0
301
CELL_VALUE
 90
4
  1
Technical Data
304
ACVALUE_END
170
5
140
0.145
171
1
172
0
173
0
174
0
175
1
176
1
 91
33
178
0
145
0.0
301
CELL_VALUE
 90
4
  1
U.S. Units
304
ACVALUE_END
170
5
140
0.145
171
1
172
0
173
0
174
0
175
1
176
1
 91
33
178
0
145
0.0
301
CELL_VALUE
 90
4
  1
Metric Units
304
ACVALUE_END
170
5
140
0.145
171
1
172
0
173
0
174
0
175
1
176
1
 91
33
178
0
145
0.0
301
CELL_VALUE
 90
4
  1
Cavity
304
ACVALUE_END
170
5
140
0.125
171
1
172
0
173
0
174
0
175
2
176
1
 91
33
178
0
145
0.0
301
CELL_VALUE
 90
4
  1
T-10A
304
ACVALUE_END
170
5
140
0.125
171
1
172
0
173
1
174
0
175
1
176
1
 91
1
178
0
145
0.0
170
1
171
1
172
0
173
0
174
0
175
1
176
1
 91
33
178
0
145
0.0
301
CELL_VALUE
 90
4
  1
Body Features
304
ACVALUE_END
170
5
140
0.125
171
1
172
0
173
0
174
0
175
2
176
1
 91
33
178
0
145
0.0
301
CELL_VALUE
 90
4
  1
P to T, check on P, side ports
304
ACVALUE_END
170
5
140
0.125
171
1
172
0
173
1
174
0
175
1
176
1
 91
1
178
0
145
0.0
170
1
171
1
172
0
173
0
174
0
175
1
176
1
 91
33
178
0
145
0.0
301
CELL_VALUE
 90
4
  1
Body Type
304
ACVALUE_END
170
5
140
0.125
171
1
172
0
173
0
174
0
175
2
176
1
 91
33
178
0
145
0.0
301
CELL_VALUE
 90
4
  1
Subplate
304
ACVALUE_END
170
5
140
0.125
171
1
172
0
173
1
174
0
175
1
176
1
 91
1
178
0
145
0.0
170
1
171
1
172
0
173
0
174
0
175
1
176
1
 91
33
178
0
145
0.0
301
CELL_VALUE
 90
4
  1
Interface
304
ACVALUE_END
170
5
140
0.125
171
1
172
0
173
0
174
0
175
2
176
1
 91
33
178
0
145
0.0
301
CELL_VALUE
 90
4
  1
ISO 03
304
ACVALUE_END
170
5
140
0.125
171
1
172
0
173
1
174
0
175
1
176
1
 91
1
178
0
145
0.0
170
1
171
1
172
0
173
0
174
0
175
1
176
1
 91
33
178
0
145
0.0
301
CELL_VALUE
 90
4
  1
Open Cavity Quantity
304
ACVALUE_END
170
5
140
0.125
171
1
172
0
173
0
174
0
175
2
176
1
 91
33
178
0
145
0.0
301
CELL_VALUE
 90
4
  1
1
304
ACVALUE_END
170
5
140
0.125
171
1
172
0
173
1
174
0
175
1
176
1
 91
1
178
0
145
0.0
170
1
171
1
172
0
173
0
174
0
175
1
176
1
 91
33
178
0
145
0.0
301
CELL_VALUE
 90
4
  1
Weight
304
ACVALUE_END
170
5
140
0.125
171
1
172
0
173
0
174
0
175
1
176
1
 91
33
178
0
145
0.0
301
CELL_VALUE
 90
4
  1
2.251 lb.
304
ACVALUE_END
170
5
140
0.125
171
1
172
0
173
0
174
0
175
1
176
1
 91
33
178
0
145
0.0
301
CELL_VALUE
 90
4
  1
1,021 kg.
304
ACVALUE_END
170
5
140
0.125
  0
ACAD_TABLE
  5
285
100
AcDbEntity
  8
0
 62
2
  6
CONTINUOUS
100
AcDbBlockReference
  2
*T3
 10
0.52125
 20
1.709
 30
0.0
100
AcDbTable
342
       3B6
343
211
 11
1.0
 21
0.0
 31
0.0
 90
22
 91
4
 92
3
 93
16
 94
0
 95
0
 96
0
 41
0.05
141
0.34375
141
0.344
141
0.25
141
0.25
142
1.3
142
2.0
142
1.3
171
1
172
0
173
0
174
0
175
3
176
1
 91
33
178
0
145
0.0
301
CELL_VALUE
 90
4
  1
Port Headings
304
ACVALUE_END
170
5
140
0.145
171
1
172
0
173
1
174
0
175
1
176
1
 91
1
178
0
145
0.0
170
1
171
1
172
0
173
1
174
0
175
1
176
1
 91
1
178
0
145
0.0
170
1
171
1
172
0
173
0
174
0
175
1
176
1
 91
33
178
0
145
0.0
301
CELL_VALUE
 90
4
  1
Product
304
ACVALUE_END
170
5
140
0.145
171
1
172
0
173
0
174
0
175
1
176
1
 91
33
178
0
145
0.0
301
CELL_VALUE
 90
4
  1
Port
304
ACVALUE_END
170
5
140
0.145
171
1
172
0
173
0
174
0
175
1
176
1
 91
33
178
0
145
0.0
301
CELL_VALUE
 90
4
  1
Size
304
ACVALUE_END
170
5
140
0.145
171
1
172
0
173
0
174
0
175
1
176
1
 91
33
178
0
145
0.0
301
CELL_VALUE
 90
4
  1
WJV
304
ACVALUE_END
170
5
140
0.125
171
1
172
0
173
0
174
0
175
1
176
1
 91
33
178
0
145
0.0
301
CELL_VALUE
 90
4
  1
Ports A, B, P, T
304
ACVALUE_END
170
5
140
0.125
171
1
172
0
173
0
174
0
175
1
176
1
 91
33
178
0
145
0.0
301
CELL_VALUE
 90
4
  1
3/8" BSPP
304
ACVALUE_END
170
5
140
0.125
171
1
172
0
173
0
174
0
175
1
176
1
 91
33
178
0
145
0.0
301
CELL_VALUE
 90
4
  1
WJV
304
ACVALUE_END
170
5
140
0.125
171
1
172
0
173
0
174
0
175
1
176
1
 91
33
178
0
145
0.0
301
CELL_VALUE
 90
4
  1
Gage Port
304
ACVALUE_END
170
5
140
0.125
171
1
172
0
173
0
174
0
175
1
176
1
 91
33
178
0
145
0.0
301
CELL_VALUE
 90
4
  1
1/4" BSPP
304
ACVALUE_END
170
5
140
0.125
  0
MTEXT
  5
286
100
AcDbEntity
  8
0
100
AcDbMText
 62
2
  6
CONTINUOUS
  7
STANDARD
 71
1
 72
1
 10
0.52125
 20
5.75995
 30
0.0
 11
1.0
 21
0.0
 31
0.0
 44
0.6
  3
Notes\P \P1. Important: Carefully consider\P   the maximum system pressure. The\P   pressure rating of the manifold is\P   dependent on the manifold material,\P   with the port type/size a secondary\P   consideration. Manifolds\P   constructed of alu
  1
minum are not\P   rated for pressures higher than\P   3000 psi (210 bar), regardless of\P   the port type/size specified.
 40
0.1
 41
3.04
  0
LINE
  5
287
100
AcDbEntity
  8
0
100
AcDbLine
 62
7
  6
CONTINUOUS
 10
0.30125
 20
0.30125
 11
0.30125
 21
16.69875
  0
LINE
  5
288
100
AcDbEntity
  8
0
100
AcDbLine
 62
7
  6
CONTINUOUS
 10
0.30125
 20
0.30125
 11
21.69875
 21
0.30125
  0
LINE
  5
289
100
AcDbEntity
  8
0
100
AcDbLine
 62
7
  6
CONTINUOUS
 10
0.30125
 20
16.69875
 11
21.69875
 21
16.69875
  0
LINE
  5
28A
100
AcDbEntity
  8
0
100
AcDbLine
 62
7
  6
CONTINUOUS
 10
21.69875
 20
0.30125
 11
21.69875
 21
16.69875
  0
LINE
  5
28B
100
AcDbEntity
  8
0
100
AcDbLine
 62
7
  6
CONTINUOUS
 10
9.7964655496
 20
10.5575976829
 11
9.2788278866
 21
10.0575980659
  0
LINE
  5
28C
100
AcDbEntity
  8
0
100
AcDbLine
 62
7
  6
CONTINUOUS
 10
8.8661341852
 20
7.7795344502
 11
8.8593743956
 21
7.7957754531
  0
LINE
  5
28D
100
AcDbEntity
  8
0
100
AcDbLine
 62
7
  6
CONTINUOUS
 10
8.9293399172
 20
8.5915369291
 11
8.9125913011
 21
8.5631399055
  0
LINE
  5
28E
100
AcDbEntity
  8
0
100
AcDbLine
 62
7
  6
CONTINUOUS
 10
9.2788278866
 20
6.6768574735
 11
12.6595684789
 21
6.4424023171
  0
LINE
  5
28F
100
AcDbEntity
  8
0
100
AcDbLine
 62
4
  6
CONTINUOUS
 10
11.0184144074
 20
6.6064448942
 11
10.9908165204
 21
6.6083588141
  0
LINE
  5
290
100
AcDbEntity
  8
0
100
AcDbLine
 62
4
  6
CONTINUOUS
 10
10.9576990781
 20
6.6106555166
 11
10.9411403385
 21
6.6118038691
  0
LINE
  5
291
100
AcDbEntity
  8
0
100
AcDbLine
 62
4
  6
CONTINUOUS
 10
10.8988236005
 20
6.6147385448
 11
10.8767453056
 21
6.6162696798
  0
LINE
  5
292
100
AcDbEntity
  8
0
100
AcDbLine
 62
4
  6
CONTINUOUS
 10
10.5750084506
 20
6.6371952017
 11
10.5474105728
 21
6.6391091211
  0
LINE
  5
293
100
AcDbEntity
  8
0
100
AcDbLine
 62
4
  6
CONTINUOUS
 10
10.7497950363
 20
6.6250737108
 11
10.782912497
 21
6.6227770071
  0
LINE
  5
294
100
AcDbEntity
  8
0
100
AcDbLine
 62
4
  6
CONTINUOUS
 10
11.0607311823
 20
6.6035102159
 11
11.0938486246
 21
6.6012135135
  0
LINE
  5
295
100
AcDbEntity
  8
0
100
AcDbLine
 62
4
  6
CONTINUOUS
 10
10.6246846372
 20
6.6558284529
 11
10.654122376
 21
6.6537869388
  0
LINE
  5
296
100
AcDbEntity
  8
0
100
AcDbLine
 62
4
  6
CONTINUOUS
 10
11.0828094772
 20
6.6461356937
 11
11.0607311823
 21
6.6476668287
  0
LINE
  5
297
100
AcDbEntity
  8
0
100
AcDbLine
 62
4
  6
CONTINUOUS
 10
10.7718733496
 20
6.6676991874
 11
10.7497950363
 21
6.6692303236
  0
LINE
  5
298
100
AcDbEntity
  8
0
100
AcDbLine
 62
4
  6
CONTINUOUS
 10
10.5474105728
 20
6.71638319
 11
10.5750084506
 21
6.7144692707
  0
LINE
  5
299
100
AcDbEntity
  8
0
100
AcDbLine
 62
4
  6
CONTINUOUS
 10
10.6835601148
 20
6.7069411872
 11
10.727716723
 21
6.703878916
  0
LINE
  5
29A
100
AcDbEntity
  8
0
100
AcDbLine
 62
4
  6
CONTINUOUS
 10
10.7497950363
 20
6.7023477798
 11
10.782912497
 21
6.7000510761
  0
LINE
  5
29B
100
AcDbEntity
  8
0
100
AcDbLine
 62
4
  6
CONTINUOUS
 10
10.8767453056
 20
6.6935437487
 11
10.8988236005
 21
6.6920126138
  0
LINE
  5
29C
100
AcDbEntity
  8
0
100
AcDbLine
 62
4
  6
CONTINUOUS
 10
10.9411403385
 20
6.689077938
 11
10.9576990781
 21
6.6879295855
  0
LINE
  5
29D
100
AcDbEntity
  8
0
100
AcDbLine
 62
4
  6
CONTINUOUS
 10
10.9908165204
 20
6.6856328831
 11
11.0184144074
 21
6.6837189631
  0
LINE
  5
29E
100
AcDbEntity
  8
0
100
AcDbLine
 62
4
  6
CONTINUOUS
 10
11.0607311823
 20
6.6807842848
 11
11.0938486246
 21
6.6784875824
  0
LINE
  5
29F
100
AcDbEntity
  8
0
100
AcDbLine
 62
4
  6
CONTINUOUS
 10
11.5801462292
 20
6.6718086423
 11
11.5656573413
 21
6.6728134501
  0
LINE
  5
2A0
100
AcDbEntity
  8
0
100
AcDbLine
 62
4
  6
CONTINUOUS
 10
10.50325396
 20
6.675288851
 11
10.5326917011
 21
6.6585284662
  0
LINE
  5
2A1
100
AcDbEntity
  8
0
100
AcDbLine
 62
7
  6
CONTINUOUS
 10
9.2788278866
 20
6.6768574735
 11
9.2788278866
 21
10.0575980659
  0
LINE
  5
2A2
100
AcDbEntity
  8
0
100
AcDbLine
 62
4
  6
CONTINUOUS
 10
9.4333760249
 20
9.0423172341
 11
9.4695982448
 21
9.155716318
  0
LINE
  5
2A3
100
AcDbEntity
  8
0
100
AcDbLine
 62
4
  6
CONTINUOUS
 10
11.5729017853
 20
6.7302665979
 11
11.6018795611
 21
6.7282569824
  0
LINE
  5
2A4
100
AcDbEntity
  8
0
100
AcDbLine
 62
4
  6
CONTINUOUS
 10
10.8298289224
 20
6.7895262937
 11
10.8463876528
 21
6.7883779418
  0
LINE
  5
2A5
100
AcDbEntity
  8
0
100
AcDbLine
 62
4
  6
CONTINUOUS
 10
11.5656573413
 20
6.7887245535
 11
11.5801462292
 21
6.7877197458
  0
LINE
  5
2A6
100
AcDbEntity
  8
0
100
AcDbLine
 62
4
  6
CONTINUOUS
 10
10.7608341506
 20
7.0000073094
 11
10.771873298
 21
6.999241742
  0
LINE
  5
2A7
100
AcDbEntity
  8
0
100
AcDbLine
 62
4
  6
CONTINUOUS
 10
11.1306457926
 20
6.9927593729
 11
11.108567424
 21
6.9942905129
  0
LINE
  5
2A8
100
AcDbEntity
  8
0
100
AcDbLine
 62
4
  6
CONTINUOUS
 10
11.0404926876
 20
6.9990115119
 11
11.0294535401
 21
6.9997770794
  0
LINE
  5
2A9
100
AcDbEntity
  8
0
100
AcDbLine
 62
4
  6
CONTINUOUS
 10
10.946659879
 20
7.0055188393
 11
10.9245815842
 21
7.0070499742
  0
LINE
  5
2AA
100
AcDbEntity
  8
0
100
AcDbLine
 62
4
  6
CONTINUOUS
 10
10.8417879231
 20
7.0127917341
 11
10.8197096282
 21
7.0143228691
  0
LINE
  5
2AB
100
AcDbEntity
  8
0
100
AcDbLine
 62
4
  6
CONTINUOUS
 10
10.4682965988
 20
7.0386934455
 11
10.4903749046
 21
7.0371623097
  0
LINE
  5
2AC
100
AcDbEntity
  8
0
100
AcDbLine
 62
4
  6
CONTINUOUS
 10
10.5345315128
 20
7.0341000386
 11
10.5510902478
 21
7.0329516864
  0
LINE
  5
2AD
100
AcDbEntity
  8
0
100
AcDbLine
 62
4
  6
CONTINUOUS
 10
10.9742577661
 20
7.0036049193
 11
11.0018556531
 21
7.0016909994
  0
LINE
  5
2AE
100
AcDbEntity
  8
0
100
AcDbLine
 62
4
  6
CONTINUOUS
 10
11.1582436428
 20
6.9908454554
 11
11.1803219377
 21
6.9893143205
  0
LINE
  5
2AF
100
AcDbEntity
  8
0
100
AcDbLine
 62
4
  6
CONTINUOUS
 10
10.9245815842
 20
7.0346478567
 11
10.946659879
 21
7.0331167217
  0
LINE
  5
2B0
100
AcDbEntity
  8
0
100
AcDbLine
 62
4
  6
CONTINUOUS
 10
10.9411403237
 20
7.0610973866
 11
10.9135424367
 21
7.0630113066
  0
LINE
  5
2B1
100
AcDbEntity
  8
0
100
AcDbLine
 62
4
  6
CONTINUOUS
 10
10.7056383765
 20
7.0774295021
 11
10.7332362635
 21
7.0755155822
  0
LINE
  5
2B2
100
AcDbEntity
  8
0
100
AcDbLine
 62
4
  6
CONTINUOUS
 10
10.8197096282
 20
7.069518634
 11
10.8417879231
 21
7.067987499
  0
LINE
  5
2B3
100
AcDbEntity
  8
0
100
AcDbLine
 62
4
  6
CONTINUOUS
 10
10.8638662548
 20
7.0664563615
 11
10.8859445497
 21
7.0649252265
  0
LINE
  5
2B4
100
AcDbEntity
  8
0
100
AcDbLine
 62
4
  6
CONTINUOUS
 10
11.108567424
 20
7.0494862778
 11
11.1306457926
 21
7.0479551377
  0
LINE
  5
2B5
100
AcDbEntity
  8
0
100
AcDbLine
 62
4
  6
CONTINUOUS
 10
11.1582436428
 20
7.0460412203
 11
11.1803219377
 21
7.0445100853
  0
LINE
  5
2B6
100
AcDbEntity
  8
0
100
AcDbLine
 62
4
  6
CONTINUOUS
 10
10.4738161754
 20
7.1155847305
 11
10.4958944806
 21
7.1140535948
  0
LINE
  5
2B7
100
AcDbEntity
  8
0
100
AcDbLine
 62
4
  6
CONTINUOUS
 10
11.0736101299
 20
7.0739888784
 11
11.0754499817
 21
7.0738612843
  0
LINE
  5
2B8
100
AcDbEntity
  8
0
100
AcDbLine
 62
4
  6
CONTINUOUS
 10
11.1803219377
 20
7.0150723442
 11
11.1582436428
 21
7.0202831965
  0
LINE
  5
2B9
100
AcDbEntity
  8
0
100
AcDbLine
 62
4
  6
CONTINUOUS
 10
11.1159269195
 20
6.6475187087
 11
11.1453646583
 21
6.6307583228
  0
LINE
  5
2BA
100
AcDbEntity
  8
0
100
AcDbLine
 62
4
  6
CONTINUOUS
 10
10.8197096282
 20
7.0143228691
 11
10.8086704807
 21
7.0206080132
  0
LINE
  5
2BB
100
AcDbEntity
  8
0
100
AcDbLine
 62
4
  6
CONTINUOUS
 10
10.5014140567
 20
7.0584750484
 11
10.4627770222
 21
7.0942719942
  0
LINE
  5
2BC
100
AcDbEntity
  8
0
100
AcDbLine
 62
4
  6
CONTINUOUS
 10
10.5750084506
 20
6.7144692707
 11
10.5860476027
 21
6.7026645508
  0
LINE
  5
2BD
100
AcDbEntity
  8
0
100
AcDbLine
 62
4
  6
CONTINUOUS
 10
10.4627770222
 20
7.044595806
 11
10.4682965988
 21
7.0386934455
  0
LINE
  5
2BE
100
AcDbEntity
  8
0
100
AcDbLine
 62
4
  6
CONTINUOUS
 10
10.8767453056
 20
6.6162696798
 11
10.8657061581
 21
6.6280744004
  0
LINE
  5
2BF
100
AcDbEntity
  8
0
100
AcDbLine
 62
4
  6
CONTINUOUS
 10
10.2858056287
 20
9.8042380098
 11
10.2930500726
 21
9.8133948691
  0
LINE
  5
2C0
100
AcDbEntity
  8
0
100
AcDbLine
 62
4
  6
CONTINUOUS
 10
10.2858056287
 20
9.7366232018
 11
10.3002945166
 21
9.7549369118
  0
LINE
  5
2C1
100
AcDbEntity
  8
0
100
AcDbLine
 62
4
  6
CONTINUOUS
 10
10.9245815842
 20
7.0070499742
 11
10.9135424367
 21
7.0133351183
  0
LINE
  5
2C2
100
AcDbEntity
  8
0
100
AcDbLine
 62
4
  6
CONTINUOUS
 10
10.5234923608
 20
7.0459047596
 11
10.5345315128
 21
7.0341000386
  0
LINE
  5
2C3
100
AcDbEntity
  8
0
100
AcDbLine
 62
4
  6
CONTINUOUS
 10
10.9411403385
 20
6.6118038691
 11
10.930101191
 21
6.6236085897
  0
LINE
  5
2C4
100
AcDbEntity
  8
0
100
AcDbLine
 62
4
  6
CONTINUOUS
 10
10.4958944806
 20
7.1140535948
 11
10.5014140567
 21
7.1081512326
  0
LINE
  5
2C5
100
AcDbEntity
  8
0
100
AcDbLine
 62
4
  6
CONTINUOUS
 10
10.9576990781
 20
6.6879295855
 11
10.9687382255
 21
6.676124866
  0
LINE
  5
2C6
100
AcDbEntity
  8
0
100
AcDbLine
 62
4
  6
CONTINUOUS
 10
11.0184144074
 20
6.6837189631
 11
11.0294535549
 21
6.6719142436
  0
LINE
  5
2C7
100
AcDbEntity
  8
0
100
AcDbLine
 62
4
  6
CONTINUOUS
 10
9.4695982448
 20
9.155716318
 11
9.5058204646
 21
9.0372931951
  0
LINE
  5
2C8
100
AcDbEntity
  8
0
100
AcDbLine
 62
4
  6
CONTINUOUS
 10
11.5656573413
 20
6.6728134501
 11
11.5511684534
 21
6.6834775168
  0
LINE
  5
2C9
100
AcDbEntity
  8
0
100
AcDbLine
 62
4
  6
CONTINUOUS
 10
11.1582436428
 20
7.0202831965
 11
11.1527240875
 21
7.0243456964
  0
LINE
  5
2CA
100
AcDbEntity
  8
0
100
AcDbLine
 62
4
  6
CONTINUOUS
 10
11.185841493
 20
7.0110098444
 11
11.1803219377
 21
7.0150723442
  0
LINE
  5
2CB
100
AcDbEntity
  8
0
100
AcDbLine
 62
4
  6
CONTINUOUS
 10
11.5801462292
 20
6.7877197458
 11
11.5946351172
 21
6.7770556816
  0
LINE
  5
2CC
100
AcDbEntity
  8
0
100
AcDbLine
 62
4
  6
CONTINUOUS
 10
10.7332362635
 20
7.0755155822
 11
10.7387558373
 21
7.0696132201
  0
LINE
  5
2CD
100
AcDbEntity
  8
0
100
AcDbLine
 62
4
  6
CONTINUOUS
 10
10.9687381739
 20
7.0095072809
 11
10.9742577661
 21
7.0036049193
  0
LINE
  5
2CE
100
AcDbEntity
  8
0
100
AcDbLine
 62
4
  6
CONTINUOUS
 10
11.0294535401
 20
6.9997770794
 11
11.023933948
 21
7.005679441
  0
LINE
  5
2CF
100
AcDbEntity
  8
0
100
AcDbLine
 62
4
  6
CONTINUOUS
 10
10.5842076994
 20
7.1079290523
 11
10.6228447338
 21
7.0279754959
  0
LINE
  5
2D0
100
AcDbEntity
  8
0
100
AcDbLine
 62
7
  6
CONTINUOUS
 10
9.2788278866
 20
7.6728079883
 11
8.9591814119
 21
7.6949755466
  0
LINE
  5
2D1
100
AcDbEntity
  8
0
100
AcDbLine
 62
7
  6
CONTINUOUS
 10
9.2788278866
 20
7.7824089797
 11
8.8612732343
 21
7.8113664931
  0
LINE
  5
2D2
100
AcDbEntity
  8
0
100
AcDbLine
 62
7
  6
CONTINUOUS
 10
9.2742078545
 20
7.8243392299
 11
8.8536086288
 21
7.8535078853
  0
LINE
  5
2D3
100
AcDbEntity
  8
0
100
AcDbLine
 62
4
  6
CONTINUOUS
 10
11.108567424
 20
6.9942905129
 11
11.1030478687
 21
7.000192872
  0
LINE
  5
2D4
100
AcDbEntity
  8
0
100
AcDbLine
 62
4
  6
CONTINUOUS
 10
11.1527240875
 20
6.9967478145
 11
11.1582436428
 21
6.9908454554
  0
LINE
  5
2D5
100
AcDbEntity
  8
0
100
AcDbLine
 62
4
  6
CONTINUOUS
 10
11.1803219377
 20
7.0445100853
 11
11.185841493
 21
7.0386077246
  0
LINE
  5
2D6
100
AcDbEntity
  8
0
100
AcDbLine
 62
4
  6
CONTINUOUS
 10
10.8859445497
 20
7.0649252265
 11
10.8896242532
 21
7.0591504599
  0
LINE
  5
2D7
100
AcDbEntity
  8
0
100
AcDbLine
 62
4
  6
CONTINUOUS
 10
10.6394035066
 20
6.7100034584
 11
10.6614818199
 21
6.6311982532
  0
LINE
  5
2D8
100
AcDbEntity
  8
0
100
AcDbLine
 62
4
  6
CONTINUOUS
 10
10.2350945209
 20
9.8560511325
 11
10.2350945209
 21
9.740140029
  0
LINE
  5
2D9
100
AcDbEntity
  8
0
100
AcDbLine
 62
4
  6
CONTINUOUS
 10
10.2930500726
 20
9.8133948691
 11
10.2930500726
 21
9.842372645
  0
LINE
  5
2DA
100
AcDbEntity
  8
0
100
AcDbLine
 62
4
  6
CONTINUOUS
 10
10.3002945166
 20
9.7549369118
 11
10.3002945166
 21
9.7839146859
  0
LINE
  5
2DB
100
AcDbEntity
  8
0
100
AcDbLine
 62
4
  6
CONTINUOUS
 10
11.5511684534
 20
6.6834775168
 11
11.5366795655
 21
6.7038008416
  0
LINE
  5
2DC
100
AcDbEntity
  8
0
100
AcDbLine
 62
4
  6
CONTINUOUS
 10
10.946659879
 20
7.0496754521
 11
10.9411403237
 21
7.0610973866
  0
LINE
  5
2DD
100
AcDbEntity
  8
0
100
AcDbLine
 62
4
  6
CONTINUOUS
 10
10.7580744341
 20
6.8496982492
 11
10.7746331621
 21
6.7933541327
  0
LINE
  5
2DE
100
AcDbEntity
  8
0
100
AcDbLine
 62
4
  6
CONTINUOUS
 10
10.7608341506
 20
7.0736016622
 11
10.7773928902
 21
7.0172575448
  0
LINE
  5
2DF
100
AcDbEntity
  8
0
100
AcDbLine
 62
4
  6
CONTINUOUS
 10
10.7249569756
 20
6.8740732569
 11
10.7415157048
 21
6.7956508361
  0
LINE
  5
2E0
100
AcDbEntity
  8
0
100
AcDbLine
 62
4
  6
CONTINUOUS
 10
10.4627770222
 20
7.0942719942
 11
10.4627770222
 21
7.1053111463
  0
LINE
  5
2E1
100
AcDbEntity
  8
0
100
AcDbLine
 62
4
  6
CONTINUOUS
 10
10.5014140567
 20
7.0474358952
 11
10.5014140567
 21
7.0584750484
  0
LINE
  5
2E2
100
AcDbEntity
  8
0
100
AcDbLine
 62
4
  6
CONTINUOUS
 10
10.5234923608
 20
7.1121396753
 11
10.5234923608
 21
7.0459047596
  0
LINE
  5
2E3
100
AcDbEntity
  8
0
100
AcDbLine
 62
4
  6
CONTINUOUS
 10
10.5474105728
 20
6.6391091211
 11
10.5474105728
 21
6.71638319
  0
LINE
  5
2E4
100
AcDbEntity
  8
0
100
AcDbLine
 62
4
  6
CONTINUOUS
 10
10.5621293953
 20
7.0432252721
 11
10.5621293953
 21
7.1094601879
  0
LINE
  5
2E5
100
AcDbEntity
  8
0
100
AcDbLine
 62
4
  6
CONTINUOUS
 10
10.5842076994
 20
7.0306549833
 11
10.5842076994
 21
7.1079290523
  0
LINE
  5
2E6
100
AcDbEntity
  8
0
100
AcDbLine
 62
4
  6
CONTINUOUS
 10
10.5860476027
 20
6.7026645508
 11
10.5860476027
 21
6.6474687871
  0
LINE
  5
2E7
100
AcDbEntity
  8
0
100
AcDbLine
 62
4
  6
CONTINUOUS
 10
10.6228447338
 20
7.0279754959
 11
10.6228447338
 21
7.1052495648
  0
LINE
  5
2E8
100
AcDbEntity
  8
0
100
AcDbLine
 62
4
  6
CONTINUOUS
 10
11.5946351172
 20
6.7770556816
 11
11.6018795611
 21
6.7668940145
  0
LINE
  5
2E9
100
AcDbEntity
  8
0
100
AcDbLine
 62
4
  6
CONTINUOUS
 10
10.8795051135
 20
6.8633553071
 11
10.9015834268
 21
6.7845501019
  0
LINE
  5
2EA
100
AcDbEntity
  8
0
100
AcDbLine
 62
4
  6
CONTINUOUS
 10
10.7056383765
 20
7.0222337373
 11
10.7056383765
 21
7.0995078062
  0
LINE
  5
2EB
100
AcDbEntity
  8
0
100
AcDbLine
 62
4
  6
CONTINUOUS
 10
10.7056384281
 20
6.628135982
 11
10.7056384281
 21
6.705410051
  0
LINE
  5
2EC
100
AcDbEntity
  8
0
100
AcDbLine
 62
4
  6
CONTINUOUS
 10
10.7387558373
 20
7.0696132201
 11
10.7387558373
 21
7.0199370336
  0
LINE
  5
2ED
100
AcDbEntity
  8
0
100
AcDbLine
 62
4
  6
CONTINUOUS
 10
10.7497950363
 20
6.6250737108
 11
10.7497950363
 21
6.7023477798
  0
LINE
  5
2EE
100
AcDbEntity
  8
0
100
AcDbLine
 62
4
  6
CONTINUOUS
 10
10.8086704807
 20
7.0206080132
 11
10.8086704807
 21
7.0647646231
  0
LINE
  5
2EF
100
AcDbEntity
  8
0
100
AcDbLine
 62
7
  6
CONTINUOUS
 10
9.2742078545
 20
8.2462652089
 11
8.8536086288
 21
8.2754338642
  0
LINE
  5
2F0
100
AcDbEntity
  8
0
100
AcDbLine
 62
7
  6
CONTINUOUS
 10
9.2788278866
 20
8.3034246247
 11
8.8612732343
 21
8.3323821382
  0
LINE
  5
2F1
100
AcDbEntity
  8
0
100
AcDbLine
 62
4
  6
CONTINUOUS
 10
10.8417879231
 20
7.0900658031
 11
10.8417879231
 21
7.0127917341
  0
LINE
  5
2F2
100
AcDbEntity
  8
0
100
AcDbLine
 62
4
  6
CONTINUOUS
 10
10.8574268094
 20
6.7986515269
 11
10.8574268094
 21
6.8648864427
  0
LINE
  5
2F3
100
AcDbEntity
  8
0
100
AcDbLine
 62
4
  6
CONTINUOUS
 10
10.8638662548
 20
7.0112605966
 11
10.8638662548
 21
7.0664563615
  0
LINE
  5
2F4
100
AcDbEntity
  8
0
100
AcDbLine
 62
4
  6
CONTINUOUS
 10
10.8657061581
 20
6.6280744004
 11
10.8657061581
 21
6.6832701641
  0
LINE
  5
2F5
100
AcDbEntity
  8
0
100
AcDbLine
 62
4
  6
CONTINUOUS
 10
10.8896242532
 20
7.0591504599
 11
10.8896242532
 21
7.0481113079
  0
LINE
  5
2F6
100
AcDbEntity
  8
0
100
AcDbLine
 62
4
  6
CONTINUOUS
 10
10.9135424367
 20
7.0133351183
 11
10.9135424367
 21
7.0298938481
  0
LINE
  5
2F7
100
AcDbEntity
  8
0
100
AcDbLine
 62
4
  6
CONTINUOUS
 10
10.930101191
 20
6.6236085897
 11
10.930101191
 21
6.6788043534
  0
LINE
  5
2F8
100
AcDbEntity
  8
0
100
AcDbLine
 62
4
  6
CONTINUOUS
 10
10.946659879
 20
7.0055188393
 11
10.946659879
 21
7.0496754521
  0
LINE
  5
2F9
100
AcDbEntity
  8
0
100
AcDbLine
 62
4
  6
CONTINUOUS
 10
10.9687381739
 20
7.0591834692
 11
10.9687381739
 21
7.0095072809
  0
LINE
  5
2FA
100
AcDbEntity
  8
0
100
AcDbLine
 62
4
  6
CONTINUOUS
 10
10.9687382255
 20
6.676124866
 11
10.9687382255
 21
6.6209291023
  0
LINE
  5
2FB
100
AcDbEntity
  8
0
100
AcDbLine
 62
4
  6
CONTINUOUS
 10
10.9908165204
 20
6.6083588141
 11
10.9908165204
 21
6.6856328831
  0
LINE
  5
2FC
100
AcDbEntity
  8
0
100
AcDbLine
 62
4
  6
CONTINUOUS
 10
11.0018556531
 20
7.0016909994
 11
11.0018556531
 21
7.0568867642
  0
LINE
  5
2FD
100
AcDbEntity
  8
0
100
AcDbLine
 62
4
  6
CONTINUOUS
 10
11.023933948
 20
7.005679441
 11
11.023933948
 21
7.0774339334
  0
LINE
  5
2FE
100
AcDbEntity
  8
0
100
AcDbLine
 62
7
  6
CONTINUOUS
 10
9.2788278866
 20
8.6157496123
 11
8.9591814119
 21
8.6379171706
  0
LINE
  5
2FF
100
AcDbEntity
  8
0
100
AcDbLine
 62
7
  6
CONTINUOUS
 10
9.2788278866
 20
8.6316195785
 11
8.974510623
 21
8.6527240524
  0
LINE
  5
300
100
AcDbEntity
  8
0
100
AcDbLine
 62
4
  6
CONTINUOUS
 10
11.0294535549
 20
6.6719142436
 11
11.0294535549
 21
6.6167184799
  0
LINE
  5
301
100
AcDbEntity
  8
0
100
AcDbLine
 62
4
  6
CONTINUOUS
 10
11.0607311823
 20
6.6035102159
 11
11.0607311823
 21
6.6807842848
  0
LINE
  5
302
100
AcDbEntity
  8
0
100
AcDbLine
 62
4
  6
CONTINUOUS
 10
11.0736101299
 20
6.9967148095
 11
11.0736101299
 21
7.0519105744
  0
LINE
  5
303
100
AcDbEntity
  8
0
100
AcDbLine
 62
4
  6
CONTINUOUS
 10
11.0736101299
 20
7.0684693001
 11
11.0736101299
 21
7.0739888784
  0
LINE
  5
304
100
AcDbEntity
  8
0
100
AcDbLine
 62
4
  6
CONTINUOUS
 10
11.1030478687
 20
7.000192872
 11
11.1030478687
 21
7.0443494819
  0
LINE
  5
305
100
AcDbEntity
  8
0
100
AcDbLine
 62
4
  6
CONTINUOUS
 10
11.1527240875
 20
7.0243456964
 11
11.1527240875
 21
7.0409044244
  0
LINE
  5
306
100
AcDbEntity
  8
0
100
AcDbLine
 62
4
  6
CONTINUOUS
 10
11.185841493
 20
6.9944511146
 11
11.185841493
 21
7.0110098444
  0
LINE
  5
307
100
AcDbEntity
  8
0
100
AcDbLine
 62
4
  6
CONTINUOUS
 10
10.7746331621
 20
6.7933541327
 11
10.7911918925
 21
6.8694798498
  0
LINE
  5
308
100
AcDbEntity
  8
0
100
AcDbLine
 62
4
  6
CONTINUOUS
 10
10.6173252025
 20
6.634260525
 11
10.6394035066
 21
6.7100034584
  0
LINE
  5
309
100
AcDbEntity
  8
0
100
AcDbLine
 62
4
  6
CONTINUOUS
 10
10.771873298
 20
6.999241742
 11
10.7939515929
 21
7.0713049598
  0
LINE
  5
30A
100
AcDbEntity
  8
0
100
AcDbLine
 62
7
  6
CONTINUOUS
 10
12.6595684789
 20
9.8231429095
 11
13.1772061419
 21
10.3231425265
  0
LINE
  5
30B
100
AcDbEntity
  8
0
100
AcDbLine
 62
4
  6
CONTINUOUS
 10
10.3002945166
 20
9.7839146859
 11
10.2858056287
 21
9.8042380098
  0
LINE
  5
30C
100
AcDbEntity
  8
0
100
AcDbLine
 62
4
  6
CONTINUOUS
 10
10.2930500726
 20
9.842372645
 11
10.2858056287
 21
9.8525343052
  0
LINE
  5
30D
100
AcDbEntity
  8
0
100
AcDbLine
 62
4
  6
CONTINUOUS
 10
11.5366795655
 20
6.7038008416
 11
11.5294351215
 21
6.7332810213
  0
LINE
  5
30E
100
AcDbEntity
  8
0
100
AcDbLine
 62
4
  6
CONTINUOUS
 10
10.9015834268
 20
6.7845501019
 11
10.9236617217
 21
6.8602930359
  0
LINE
  5
30F
100
AcDbEntity
  8
0
100
AcDbLine
 62
4
  6
CONTINUOUS
 10
10.7415157048
 20
6.7956508361
 11
10.7580744341
 21
6.8496982492
  0
LINE
  5
310
100
AcDbEntity
  8
0
100
AcDbLine
 62
4
  6
CONTINUOUS
 10
11.6018795611
 20
6.7282569824
 11
11.6018795611
 21
6.6896199484
  0
LINE
  5
311
100
AcDbEntity
  8
0
100
AcDbLine
 62
4
  6
CONTINUOUS
 10
11.0754499817
 20
7.0738612843
 11
11.0736101299
 21
7.0684693001
  0
LINE
  5
312
100
AcDbEntity
  8
0
100
AcDbLine
 62
4
  6
CONTINUOUS
 10
9.4478649129
 20
9.0799494619
 11
9.4913315766
 21
9.0769350385
  0
LINE
  5
313
100
AcDbEntity
  8
0
100
AcDbLine
 62
4
  6
CONTINUOUS
 10
11.6622500683
 20
9.7570775591
 11
11.6622500683
 21
9.6411664557
  0
LINE
  5
314
100
AcDbEntity
  8
0
100
AcDbLine
 62
4
  6
CONTINUOUS
 10
10.4627770222
 20
7.1053111463
 11
10.4738161754
 21
7.1155847305
  0
LINE
  5
315
100
AcDbEntity
  8
0
100
AcDbLine
 62
4
  6
CONTINUOUS
 10
10.4903749046
 20
7.0371623097
 11
10.5014140567
 21
7.0474358952
  0
LINE
  5
316
100
AcDbEntity
  8
0
100
AcDbLine
 62
4
  6
CONTINUOUS
 10
10.5510902478
 20
7.0329516864
 11
10.5621293953
 21
7.0432252721
  0
LINE
  5
317
100
AcDbEntity
  8
0
100
AcDbLine
 62
4
  6
CONTINUOUS
 10
11.5294351215
 20
6.7332810213
 11
11.5366795655
 21
6.7617563933
  0
LINE
  5
318
100
AcDbEntity
  8
0
100
AcDbLine
 62
4
  6
CONTINUOUS
 10
10.5860476027
 20
6.6474687871
 11
10.5750084506
 21
6.6371952017
  0
LINE
  5
319
100
AcDbEntity
  8
0
100
AcDbLine
 62
4
  6
CONTINUOUS
 10
11.1030478687
 20
7.0443494819
 11
11.108567424
 21
7.0494862778
  0
LINE
  5
31A
100
AcDbEntity
  8
0
100
AcDbLine
 62
4
  6
CONTINUOUS
 10
10.8463876528
 20
6.7883779418
 11
10.8574268094
 21
6.7986515269
  0
LINE
  5
31B
100
AcDbEntity
  8
0
100
AcDbLine
 62
4
  6
CONTINUOUS
 10
11.1527240875
 20
7.0409044244
 11
11.1582436428
 21
7.0460412203
  0
LINE
  5
31C
100
AcDbEntity
  8
0
100
AcDbLine
 62
4
  6
CONTINUOUS
 10
10.2350945209
 20
9.740140029
 11
10.2858056287
 21
9.7366232018
  0
LINE
  5
31D
100
AcDbEntity
  8
0
100
AcDbLine
 62
4
  6
CONTINUOUS
 10
11.1803219377
 20
6.9893143205
 11
11.185841493
 21
6.9944511146
  0
LINE
  5
31E
100
AcDbEntity
  8
0
100
AcDbLine
 62
4
  6
CONTINUOUS
 10
10.8657061581
 20
6.6832701641
 11
10.8767453056
 21
6.6935437487
  0
LINE
  5
31F
100
AcDbEntity
  8
0
100
AcDbLine
 62
4
  6
CONTINUOUS
 10
10.930101191
 20
6.6788043534
 11
10.9411403385
 21
6.689077938
  0
LINE
  5
320
100
AcDbEntity
  8
0
100
AcDbLine
 62
4
  6
CONTINUOUS
 10
10.9687382255
 20
6.6209291023
 11
10.9576990781
 21
6.6106555166
  0
LINE
  5
321
100
AcDbEntity
  8
0
100
AcDbLine
 62
4
  6
CONTINUOUS
 10
11.0294535549
 20
6.6167184799
 11
11.0184144074
 21
6.6064448942
  0
LINE
  5
322
100
AcDbEntity
  8
0
100
AcDbLine
 62
4
  6
CONTINUOUS
 10
10.8086704807
 20
7.0647646231
 11
10.8197096282
 21
7.069518634
  0
LINE
  5
323
100
AcDbEntity
  8
0
100
AcDbLine
 62
4
  6
CONTINUOUS
 10
10.9135424367
 20
7.0298938481
 11
10.9245815842
 21
7.0346478567
  0
LINE
  5
324
100
AcDbEntity
  8
0
100
AcDbLine
 62
4
  6
CONTINUOUS
 10
10.2350945209
 20
9.8077548371
 11
10.2858056287
 21
9.8042380098
  0
LINE
  5
325
100
AcDbEntity
  8
0
100
AcDbLine
 62
4
  6
CONTINUOUS
 10
10.2858056287
 20
9.8525343052
 11
10.2350945209
 21
9.8560511325
  0
LINE
  5
326
100
AcDbEntity
  8
0
100
AcDbLine
 62
4
  6
CONTINUOUS
 10
11.6260278485
 20
9.7595895786
 11
11.6984722881
 21
9.7545655396
  0
LINE
  5
327
100
AcDbEntity
  8
0
100
AcDbLine
 62
4
  6
CONTINUOUS
 10
11.5366795655
 20
6.7617563933
 11
11.5511684534
 21
6.780070105
  0
LINE
  5
328
100
AcDbEntity
  8
0
100
AcDbLine
 62
4
  6
CONTINUOUS
 10
11.6018795611
 20
6.6896199484
 11
11.5946351172
 21
6.6804630934
  0
LINE
  5
329
100
AcDbEntity
  8
0
100
AcDbLine
 62
4
  6
CONTINUOUS
 10
10.5326917011
 20
6.6879662084
 11
10.50325396
 21
6.675288851
  0
LINE
  5
32A
100
AcDbEntity
  8
0
100
AcDbLine
 62
7
  6
CONTINUOUS
 10
9.2788278866
 20
10.0575980659
 11
12.6595684789
 21
9.8231429095
  0
LINE
  5
32B
100
AcDbEntity
  8
0
100
AcDbLine
 62
7
  6
CONTINUOUS
 10
12.6595684789
 20
6.4424023171
 11
12.6595684789
 21
9.8231429095
  0
LINE
  5
32C
100
AcDbEntity
  8
0
100
AcDbLine
 62
4
  6
CONTINUOUS
 10
11.5511684534
 20
6.780070105
 11
11.5656573413
 21
6.7887245535
  0
LINE
  5
32D
100
AcDbEntity
  8
0
100
AcDbLine
 62
4
  6
CONTINUOUS
 10
11.1453646583
 20
6.6307583228
 11
11.1159269195
 21
6.6180809664
  0
LINE
  5
32E
100
AcDbEntity
  8
0
100
AcDbLine
 62
4
  6
CONTINUOUS
 10
11.5946351172
 20
6.6804630934
 11
11.5801462292
 21
6.6718086423
  0
LINE
  5
32F
100
AcDbEntity
  8
0
100
AcDbLine
 62
7
  6
CONTINUOUS
 10
13.1772061419
 20
10.3231425265
 11
9.7964655496
 21
10.5575976829
  0
LINE
  5
330
100
AcDbEntity
  8
0
100
AcDbLine
 62
7
  6
CONTINUOUS
 10
13.1772061419
 20
6.9424019341
 11
13.1772061419
 21
10.3231425265
  0
LINE
  5
331
100
AcDbEntity
  8
0
100
AcDbLine
 62
7
  6
CONTINUOUS
 10
12.6595684789
 20
6.4424023171
 11
13.1772061419
 21
6.9424019341
  0
ARC
  5
332
100
AcDbEntity
  8
0
100
AcDbCircle
 62
7
  6
CONTINUOUS
 10
11.0827815537
 20
8.0321027272
 40
1.8212095964
100
AcDbArc
 50
172.1086598405
 51
173.2467608658
  0
ARC
  5
333
100
AcDbEntity
  8
0
100
AcDbCircle
 62
7
  6
CONTINUOUS
 10
10.6258543149
 20
8.0658991886
 40
1.7845894632
100
AcDbArc
 50
171.4122169565
 51
173.2571553889
  0
ARC
  5
334
100
AcDbEntity
  8
0
100
AcDbCircle
 62
7
  6
CONTINUOUS
 10
10.1560276778
 20
8.0829780479
 40
0.9075929626
100
AcDbArc
 50
350.490491018
 51
351.617358647
  0
ARC
  5
335
100
AcDbEntity
  8
0
100
AcDbCircle
 62
7
  6
CONTINUOUS
 10
8.5299996769
 20
7.9237687191
 40
0.8110794027
100
AcDbArc
 50
22.55794781
 51
23.4290998268
  0
ARC
  5
336
100
AcDbEntity
  8
0
100
AcDbCircle
 62
7
  6
CONTINUOUS
 10
10.2407643889
 20
8.0778974306
 40
0.8015486446
100
AcDbArc
 50
350.777096887
 51
351.3286657896
  0
ARC
  5
337
100
AcDbEntity
  8
0
100
AcDbCircle
 62
7
  6
CONTINUOUS
 10
10.0374371917
 20
7.9409173519
 40
0.7720812649
100
AcDbArc
 50
188.6844208466
 51
190.7152337099
  0
ARC
  5
338
100
AcDbEntity
  8
0
100
AcDbCircle
 62
7
  6
CONTINUOUS
 10
8.6363184399
 20
8.1183778213
 40
0.7023970376
100
AcDbArc
 50
335.2524043549
 51
336.2084171917
  0
ARC
  5
339
100
AcDbEntity
  8
0
100
AcDbCircle
 62
7
  6
CONTINUOUS
 10
9.4462237154
 20
8.2855030372
 40
0.6006871885
100
AcDbArc
 50
149.3967358243
 51
152.5192948323
  0
SPLINE
  5
33A
100
AcDbEntity
  8
0
100
AcDbSpline
 62
7
  6
CONTINUOUS
 70
0
 71
3
 72
9
 73
5
 74
0
 42
0.0000001
 43
0.0000001
 44
0.0000000001
 40
0.0
 40
0.0
 40
0.0
 40
0.0
 40
0.5138686136
 40
1.0
 40
1.0
 40
1.0
 40
1.0
 10
8.9591814119
 20
8.6379171706
 30
0.0
 10
8.9604229751
 20
8.6393975538
 30
0.0
 10
8.9629049966
 20
8.6422240165
 30
0.0
 10
8.9655313557
 20
8.6449176907
 30
0.0
 10
8.9668460174
 20
8.6461875565
 30
0.0
  0
SPLINE
  5
33B
100
AcDbEntity
  8
0
100
AcDbSpline
 62
7
  6
CONTINUOUS
 70
0
 71
3
 72
9
 73
5
 74
0
 42
0.0000001
 43
0.0000001
 44
0.0000000001
 40
0.0
 40
0.0
 40
0.0
 40
0.0
 40
0.5141854272
 40
1.0
 40
1.0
 40
1.0
 40
1.0
 10
8.9668460174
 20
8.6461875565
 30
0.0
 10
8.9680884915
 20
8.6473876944
 30
0.0
 10
8.9705717203
 20
8.6496539288
 30
0.0
 10
8.9731983311
 20
8.6517536158
 30
0.0
 10
8.974510623
 20
8.6527240524
 30
0.0
  0
SPLINE
  5
33C
100
AcDbEntity
  8
0
100
AcDbSpline
 62
7
  6
CONTINUOUS
 70
0
 71
3
 72
23
 73
19
 74
0
 42
0.0000001
 43
0.0000001
 44
0.0000000001
 40
0.0
 40
0.0
 40
0.0
 40
0.0
 40
0.0812642142
 40
0.1604367687
 40
0.2373793558
 40
0.3119593014
 40
0.3840520109
 40
0.4535453788
 40
0.5203417163
 40
0.5843706334
 40
0.645586596
 40
0.7039844815
 40
0.7595931104
 40
0.8124909527
 40
0.8627952516
 40
0.9106732401
 40
0.9563275844
 40
1.0
 40
1.0
 40
1.0
 40
1.0
 10
8.9591814119
 20
7.6949755466
 30
0.0
 10
8.9562124062
 20
7.6967556759
 30
0.0
 10
8.9503755261
 20
7.7003115915
 30
0.0
 10
8.9418247844
 20
7.7057105808
 30
0.0
 10
8.9336104155
 20
7.7111062332
 30
0.0
 10
8.9257552439
 20
7.7164960872
 30
0.0
 10
8.9182820889
 20
7.7218778909
 30
0.0
 10
8.9112127443
 20
7.7272484184
 30
0.0
 10
8.9045684209
 20
7.7326050798
 30
0.0
 10
8.8983678064
 20
7.7379439389
 30
0.0
 10
8.8926280659
 20
7.7432622787
 30
0.0
 10
8.8873622819
 20
7.7485558334
 30
0.0
 10
8.8825813236
 20
7.7538220106
 30
0.0
 10
8.8782907595
 20
7.7590566935
 30
0.0
 10
8.8744936599
 20
7.7642575831
 30
0.0
 10
8.8711872996
 20
7.7694212482
 30
0.0
 10
8.8683667278
 20
7.7745453534
 30
0.0
 10
8.8667707625
 20
7.7780041296
 30
0.0
 10
8.8660562233
 20
7.7797218371
 30
0.0
  0
SPLINE
  5
33D
100
AcDbEntity
  8
0
100
AcDbSpline
 62
7
  6
CONTINUOUS
 70
0
 71
3
 72
9
 73
5
 74
0
 42
0.0000001
 43
0.0000001
 44
0.0000000001
 40
0.0
 40
0.0
 40
0.0
 40
0.0
 40
0.4968425107
 40
1.0
 40
1.0
 40
1.0
 40
1.0
 10
8.9292044281
 20
8.5913071494
 30
0.0
 10
8.9338695755
 20
8.5992128029
 30
0.0
 10
8.9435924765
 20
8.6149295842
 30
0.0
 10
8.9538828833
 20
8.6302788353
 30
0.0
 10
8.9591814119
 20
8.6379171706
 30
0.0
  0
SPLINE
  5
33E
100
AcDbEntity
  8
0
100
AcDbSpline
 62
7
  6
CONTINUOUS
 70
0
 71
3
 72
47
 73
43
 74
0
 42
0.0000001
 43
0.0000001
 44
0.0000000001
 40
0.0
 40
0.0
 40
0.0
 40
0.0
 40
0.0097388988
 40
0.0199690999
 40
0.0306877595
 40
0.0418897802
 40
0.053568575
 40
0.0657165706
 40
0.0783244499
 40
0.0913819108
 40
0.1187992554
 40
0.1478685952
 40
0.1784762382
 40
0.2104976166
 40
0.2437982593
 40
0.2782356433
 40
0.3136603381
 40
0.3499166979
 40
0.3868442246
 40
0.4242786017
 40
0.4620524679
 40
0.4999965843
 40
0.5379407604
 40
0.5757147107
 40
0.6131492265
 40
0.6500770032
 40
0.6863335875
 40
0.7217585958
 40
0.7561964584
 40
0.7894974661
 40
0.8215192636
 40
0.8521275775
 40
0.8811974396
 40
0.9086153033
 40
0.9216731908
 40
0.9342814277
 40
0.9464295779
 40
0.9581088402
 40
0.9693112683
 40
0.9800301928
 40
0.9902609016
 40
1.0
 40
1.0
 40
1.0
 40
1.0
 10
8.8593755629
 20
7.7957727323
 30
0.0
 10
8.8583980958
 20
7.7981211466
 30
0.0
 10
8.8564789178
 20
7.8029721858
 30
0.0
 10
8.8537634899
 20
7.8105147499
 30
0.0
 10
8.851143782
 20
7.8184943032
 30
0.0
 10
8.8486227834
 20
7.8269012316
 30
0.0
 10
8.8462034286
 20
7.8357256037
 30
0.0
 10
8.8438888915
 20
7.8449569904
 30
0.0
 10
8.8416817051
 20
7.8545843805
 30
0.0
 10
8.8388392429
 20
7.868155322
 30
0.0
 10
8.8355933052
 20
7.8860310564
 30
0.0
 10
8.832224851
 20
7.9085317018
 30
0.0
 10
8.8293392504
 20
7.9323109196
 30
0.0
 10
8.8269507376
 20
7.9572552582
 30
0.0
 10
8.8250709598
 20
7.9832458443
 30
0.0
 10
8.8237091485
 20
8.0101585934
 30
0.0
 10
8.8228721803
 20
8.037864987
 30
0.0
 10
8.8225641465
 20
8.0662326288
 30
0.0
 10
8.8227865962
 20
8.0951259091
 30
0.0
 10
8.8235386937
 20
8.1244066846
 30
0.0
 10
8.8248168737
 20
8.1539349495
 30
0.0
 10
8.8266149752
 20
8.1835695003
 30
0.0
 10
8.8289245156
 20
8.2131686072
 30
0.0
 10
8.8317344485
 20
8.2425907217
 30
0.0
 10
8.8350311822
 20
8.2716951578
 30
0.0
 10
8.8387989593
 20
8.3003427453
 30
0.0
 10
8.8430197268
 20
8.3283965295
 30
0.0
 10
8.847673041
 20
8.3557224529
 30
0.0
 10
8.852736531
 20
8.3821899418
 30
0.0
 10
8.85818589
 20
8.4076725997
 30
0.0
 10
8.8639946882
 20
8.4320488557
 30
0.0
 10
8.8701348514
 20
8.4552026124
 30
0.0
 10
8.8765769089
 20
8.477023379
 30
0.0
 10
8.8822592702
 20
8.4942803382
 30
0.0
 10
8.8869476869
 20
8.5073294074
 30
0.0
 10
8.8904625752
 20
8.5165602654
 30
0.0
 10
8.8940293177
 20
8.5253840284
 30
0.0
 10
8.8976434644
 20
8.5337903151
 30
0.0
 10
8.9013007526
 20
8.541769124
 30
0.0
 10
8.9049970025
 20
8.5493109432
 30
0.0
 10
8.908727443
 20
8.5564068343
 30
0.0
 10
8.9112978113
 20
8.5609467656
 30
0.0
 10
8.9125900753
 20
8.5631378408
 30
0.0
  0
SPLINE
  5
33F
100
AcDbEntity
  8
0
100
AcDbSpline
 62
7
  6
CONTINUOUS
 70
0
 71
3
 72
9
 73
5
 74
0
 42
0.0000001
 43
0.0000001
 44
0.0000000001
 40
0.0
 40
0.0
 40
0.0
 40
0.0
 40
0.4864229748
 40
1.0
 40
1.0
 40
1.0
 40
1.0
 10
8.8612732343
 20
7.8113664931
 30
0.0
 10
8.8598214622
 20
7.8181587466
 30
0.0
 10
8.8570691547
 20
7.8321726917
 30
0.0
 10
8.8547220109
 20
7.8462594906
 30
0.0
 10
8.8536086288
 20
7.8535078853
 30
0.0
  0
SPLINE
  5
340
100
AcDbEntity
  8
0
100
AcDbSpline
 62
7
  6
CONTINUOUS
 70
0
 71
3
 72
21
 73
17
 74
0
 42
0.0000001
 43
0.0000001
 44
0.0000000001
 40
0.0
 40
0.0
 40
0.0
 40
0.0
 40
0.1268939481
 40
0.19018282
 40
0.253348645
 40
0.3163802526
 40
0.3792680625
 40
0.4420048434
 40
0.5045854769
 40
0.5670083659
 40
0.6292751195
 40
0.6913901909
 40
0.7533613917
 40
0.8151980596
 40
0.8769105574
 40
1.0
 40
1.0
 40
1.0
 40
1.0
 10
8.8536086288
 20
7.8535078853
 30
0.0
 10
8.8491737569
 20
7.8710138469
 30
0.0
 10
8.843125438
 20
7.897411004
 30
0.0
 10
8.8365227008
 20
7.9328606279
 30
0.0
 10
8.8323711229
 20
7.9595104782
 30
0.0
 10
8.8290730403
 20
7.9862221337
 30
0.0
 10
8.8266773663
 20
8.0129690584
 30
0.0
 10
8.8252232176
 20
8.0397197532
 30
0.0
 10
8.8247350467
 20
8.0664395433
 30
0.0
 10
8.8252207739
 20
8.0930925205
 30
0.0
 10
8.8266726676
 20
8.1196438593
 30
0.0
 10
8.8290664422
 20
8.1460620564
 30
0.0
 10
8.8323630548
 20
8.1723206241
 30
0.0
 10
8.8365136688
 20
8.1983995713
 30
0.0
 10
8.8431040665
 20
8.2328799874
 30
0.0
 10
8.8491599955
 20
8.2584906095
 30
0.0
 10
8.8536086288
 20
8.2754338642
 30
0.0
  0
SPLINE
  5
341
100
AcDbEntity
  8
0
100
AcDbSpline
 62
7
  6
CONTINUOUS
 70
0
 71
3
 72
15
 73
11
 74
0
 42
0.0000001
 43
0.0000001
 44
0.0000000001
 40
0.0
 40
0.0
 40
0.0
 40
0.0
 40
0.1202033586
 40
0.2411237877
 40
0.3630761606
 40
0.4864191332
 40
0.6115170187
 40
0.7386874239
 40
0.8681506591
 40
1.0
 40
1.0
 40
1.0
 40
1.0
 10
8.8612732343
 20
8.3323821382
 30
0.0
 10
8.8609404186
 20
8.3419486946
 30
0.0
 10
8.8607606302
 20
8.3611604802
 30
0.0
 10
8.8621471316
 20
8.3900576333
 30
0.0
 10
8.8653886475
 20
8.4190618176
 30
0.0
 10
8.8706562081
 20
8.4481080746
 30
0.0
 10
8.8780661825
 20
8.4771133577
 30
0.0
 10
8.8876587915
 20
8.5059853331
 30
0.0
 10
8.8993889041
 20
8.5346350435
 30
0.0
 10
8.9084723597
 20
8.5533733755
 30
0.0
 10
8.9133142965
 20
8.5626900675
 30
0.0
  0
SPLINE
  5
342
100
AcDbEntity
  8
0
100
AcDbSpline
 62
7
  6
CONTINUOUS
 70
0
 71
3
 72
15
 73
11
 74
0
 42
0.0000001
 43
0.0000001
 44
0.0000000001
 40
0.0
 40
0.0
 40
0.0
 40
0.0
 40
0.134433651
 40
0.2650220305
 40
0.3923609619
 40
0.5170369985
 40
0.6396244895
 40
0.7606602864
 40
0.8806378742
 40
1.0
 40
1.0
 40
1.0
 40
1.0
 10
8.8660562233
 20
7.7797218371
 30
0.0
 10
8.8654996685
 20
7.7810597601
 30
0.0
 10
8.8644806432
 20
7.7837307728
 30
0.0
 10
8.8632209775
 20
7.787770889
 30
0.0
 10
8.8622446856
 20
7.7917806753
 30
0.0
 10
8.8615419048
 20
7.795759689
 30
0.0
 10
8.861101232
 20
7.7997077275
 30
0.0
 10
8.8609113341
 20
7.8036249322
 30
0.0
 10
8.8609605251
 20
7.8075113588
 30
0.0
 10
8.8611451264
 20
7.8100862778
 30
0.0
 10
8.8612732343
 20
7.8113664931
 30
0.0
  0
SPLINE
  5
343
100
AcDbEntity
  8
0
100
AcDbSpline
 62
7
  6
CONTINUOUS
 70
0
 71
3
 72
47
 73
43
 74
0
 42
0.0000001
 43
0.0000001
 44
0.0000000001
 40
0.0
 40
0.0
 40
0.0
 40
0.0
 40
0.0958288778
 40
0.1428190813
 40
0.1890973258
 40
0.2345927051
 40
0.2792365599
 40
0.3229622087
 40
0.36570484
 40
0.4074019633
 40
0.4479935495
 40
0.4874221989
 40
0.5256333955
 40
0.562575849
 40
0.5982017357
 40
0.6324670006
 40
0.6653317986
 40
0.696761026
 40
0.7267248024
 40
0.7551991569
 40
0.7821669874
 40
0.8076191674
 40
0.8315558892
 40
0.8429599089
 40
0.8539904626
 40
0.8646510953
 40
0.8749464064
 40
0.8848822263
 40
0.8944655538
 40
0.903704898
 40
0.9126103679
 40
0.9211937503
 40
0.9294688928
 40
0.9374517342
 40
0.945160509
 40
0.9598347361
 40
0.9668566082
 40
0.9737035131
 40
0.9804067666
 40
0.9870000197
 40
0.9935188069
 40
1.0
 40
1.0
 40
1.0
 40
1.0
 10
11.8894099217
 20
10.0172267884
 30
0.0
 10
11.8770380795
 20
10.0180847786
 30
0.0
 10
11.8586128444
 20
10.0195689473
 30
0.0
 10
11.8342586066
 20
10.0219686601
 30
0.0
 10
11.8164095121
 20
10.0239471547
 30
0.0
 10
11.7988880815
 20
10.0261126891
 30
0.0
 10
11.7817236165
 20
10.0284616305
 30
0.0
 10
11.7649448166
 20
10.0309900207
 30
0.0
 10
11.748579715
 20
10.0336936254
 30
0.0
 10
11.7326556593
 20
10.0365678951
 30
0.0
 10
11.7171992422
 20
10.0396079899
 30
0.0
 10
11.7022362733
 20
10.0428087993
 30
0.0
 10
11.6877917292
 20
10.0461649514
 30
0.0
 10
11.6738896981
 20
10.0496707927
 30
0.0
 10
11.6605533442
 20
10.0533204233
 30
0.0
 10
11.6478048741
 20
10.0571077133
 30
0.0
 10
11.6356654841
 20
10.0610263087
 30
0.0
 10
11.6241553116
 20
10.0650696221
 30
0.0
 10
11.6132933986
 20
10.0692308828
 30
0.0
 10
11.6030976869
 20
10.0735031545
 30
0.0
 10
11.5935848538
 20
10.0778793632
 30
0.0
 10
11.584770628
 20
10.0823522487
 30
0.0
 10
11.5779126658
 20
10.0862141374
 30
0.0
 10
11.5727971604
 20
10.0893528415
 30
0.0
 10
11.5692063369
 20
10.091688316
 30
0.0
 10
11.5658006486
 20
10.0940423452
 30
0.0
 10
11.5625815046
 20
10.0964140158
 30
0.0
 10
11.5595502068
 20
10.0988023252
 30
0.0
 10
11.556708031
 20
10.1012063574
 30
0.0
 10
11.5540561455
 20
10.1036251496
 30
0.0
 10
11.5515956334
 20
10.106057724
 30
0.0
 10
11.5493275572
 20
10.1085032018
 30
0.0
 10
11.5472528925
 20
10.1109605373
 30
0.0
 10
11.5453724017
 20
10.1134290546
 30
0.0
 10
11.5431620111
 20
10.1166796898
 30
0.0
 10
11.5412918691
 20
10.1200071103
 30
0.0
 10
11.5398102172
 20
10.1233933729
 30
0.0
 10
11.5389130516
 20
10.1259023966
 30
0.0
 10
11.5382146213
 20
10.1284163544
 30
0.0
 10
11.5377153394
 20
10.13093423
 30
0.0
 10
11.5374155696
 20
10.1334545498
 30
0.0
 10
11.5373488799
 20
10.1351376751
 30
0.0
 10
11.5373488764
 20
10.1359764294
 30
0.0
  0
SPLINE
  5
344
100
AcDbEntity
  8
0
100
AcDbSpline
 62
7
  6
CONTINUOUS
 70
0
 71
3
 72
47
 73
43
 74
0
 42
0.0000001
 43
0.0000001
 44
0.0000000001
 40
0.0
 40
0.0
 40
0.0
 40
0.0
 40
0.0958288778
 40
0.1428190813
 40
0.1890973258
 40
0.2345927051
 40
0.2792365599
 40
0.3229622087
 40
0.36570484
 40
0.4074019633
 40
0.4479935495
 40
0.4874221989
 40
0.5256333955
 40
0.562575849
 40
0.5982017357
 40
0.6324670006
 40
0.6653317986
 40
0.696761026
 40
0.7267248024
 40
0.7551991569
 40
0.7821669874
 40
0.8076191674
 40
0.8315558892
 40
0.8429599089
 40
0.8539904626
 40
0.8646510953
 40
0.8749464064
 40
0.8848822263
 40
0.8944655538
 40
0.903704898
 40
0.9126103679
 40
0.9211937503
 40
0.9294688928
 40
0.9374517342
 40
0.945160509
 40
0.9598347361
 40
0.9668566082
 40
0.9737035131
 40
0.9804067666
 40
0.9870000197
 40
0.9935188069
 40
1.0
 40
1.0
 40
1.0
 40
1.0
 10
10.5660791
 20
10.1759873315
 30
0.0
 10
10.5537072577
 20
10.1768453216
 30
0.0
 10
10.5352820227
 20
10.1783294903
 30
0.0
 10
10.5109277849
 20
10.1807292031
 30
0.0
 10
10.4930786903
 20
10.1827076978
 30
0.0
 10
10.4755572597
 20
10.1848732322
 30
0.0
 10
10.4583927947
 20
10.1872221736
 30
0.0
 10
10.4416139948
 20
10.1897505637
 30
0.0
 10
10.4252488933
 20
10.1924541684
 30
0.0
 10
10.4093248375
 20
10.1953284381
 30
0.0
 10
10.3938684204
 20
10.1983685329
 30
0.0
 10
10.3789054515
 20
10.2015693423
 30
0.0
 10
10.3644609074
 20
10.2049254944
 30
0.0
 10
10.3505588764
 20
10.2084313357
 30
0.0
 10
10.3372225225
 20
10.2120809663
 30
0.0
 10
10.3244740523
 20
10.2158682563
 30
0.0
 10
10.3123346624
 20
10.2197868518
 30
0.0
 10
10.3008244898
 20
10.2238301652
 30
0.0
 10
10.2899625768
 20
10.2279914259
 30
0.0
 10
10.2797668652
 20
10.2322636976
 30
0.0
 10
10.270254032
 20
10.2366399062
 30
0.0
 10
10.2614398062
 20
10.2411127918
 30
0.0
 10
10.2545818441
 20
10.2449746805
 30
0.0
 10
10.2494663386
 20
10.2481133846
 30
0.0
 10
10.2458755151
 20
10.250448859
 30
0.0
 10
10.2424698268
 20
10.2528028883
 30
0.0
 10
10.2392506828
 20
10.2551745589
 30
0.0
 10
10.2362193851
 20
10.2575628682
 30
0.0
 10
10.2333772092
 20
10.2599669005
 30
0.0
 10
10.2307253238
 20
10.2623856927
 30
0.0
 10
10.2282648116
 20
10.264818267
 30
0.0
 10
10.2259967355
 20
10.2672637449
 30
0.0
 10
10.2239220708
 20
10.2697210803
 30
0.0
 10
10.2220415799
 20
10.2721895977
 30
0.0
 10
10.2198311893
 20
10.2754402329
 30
0.0
 10
10.2179610473
 20
10.2787676533
 30
0.0
 10
10.2164793954
 20
10.2821539159
 30
0.0
 10
10.2155822298
 20
10.2846629396
 30
0.0
 10
10.2148837996
 20
10.2871768974
 30
0.0
 10
10.2143845177
 20
10.2896947731
 30
0.0
 10
10.2140847479
 20
10.2922150929
 30
0.0
 10
10.2140180581
 20
10.2938982181
 30
0.0
 10
10.2140180546
 20
10.2947369725
 30
0.0
  0
SPLINE
  5
345
100
AcDbEntity
  8
0
100
AcDbSpline
 62
7
  6
CONTINUOUS
 70
0
 71
3
 72
41
 73
37
 74
0
 42
0.0000001
 43
0.0000001
 44
0.0000000001
 40
0.0
 40
0.0
 40
0.0
 40
0.0
 40
0.0311444983
 40
0.062442467
 40
0.093887251
 40
0.1254695609
 40
0.157177086
 40
0.1889950997
 40
0.2209066479
 40
0.2528929497
 40
0.284933762
 40
0.3170077852
 40
0.3490930781
 40
0.3811674822
 40
0.4132090489
 40
0.445196464
 40
0.4771094635
 40
0.5089292351
 40
0.540638799
 40
0.5722233621
 40
0.6036706378
 40
0.6349711269
 40
0.6661183495
 40
0.6971090237
 40
0.7279431823
 40
0.7586242225
 40
0.7891588828
 40
0.8195571428
 40
0.8498320452
 40
0.86493089
 40
0.8800050502
 40
0.9100832578
 40
0.9400926753
 40
0.9550812784
 40
0.9700610371
 40
1.0
 40
1.0
 40
1.0
 40
1.0
 10
9.5995152677
 20
7.1110176959
 30
0.0
 10
9.6028292153
 20
7.1107878728
 30
0.0
 10
9.6094590833
 20
7.1100845201
 30
0.0
 10
9.6193235001
 20
7.108312789
 30
0.0
 10
9.6290822746
 20
7.1058310858
 30
0.0
 10
9.6386826682
 20
7.1026528107
 30
0.0
 10
9.648073703
 20
7.0987949643
 30
0.0
 10
9.657205278
 20
7.0942781985
 30
0.0
 10
9.6660287492
 20
7.0891266445
 30
0.0
 10
9.6744971002
 20
7.0833678102
 30
0.0
 10
9.6825652119
 20
7.0770324237
 30
0.0
 10
9.6901900943
 20
7.0701542744
 30
0.0
 10
9.6973311145
 20
7.0627700326
 30
0.0
 10
9.7039502105
 20
7.0549190569
 30
0.0
 10
9.7100120925
 20
7.0466431858
 30
0.0
 10
9.7154844291
 20
7.0379865172
 30
0.0
 10
9.7203380181
 20
7.0289951762
 30
0.0
 10
9.7245469418
 20
7.019717072
 30
0.0
 10
9.728088704
 20
7.0102016456
 30
0.0
 10
9.7309443508
 20
7.0004996103
 30
0.0
 10
9.7330985718
 20
6.9906626844
 30
0.0
 10
9.7345397836
 20
6.9807433198
 30
0.0
 10
9.7352601941
 20
6.9707944251
 30
0.0
 10
9.7352558482
 20
6.9608690896
 30
0.0
 10
9.7345266487
 20
6.9510202931
 30
0.0
 10
9.7330763815
 20
6.9413006629
 30
0.0
 10
9.7309126289
 20
6.9317620526
 30
0.0
 10
9.7280470049
 20
6.92245579
 30
0.0
 10
9.7250834548
 20
6.9149275671
 30
0.0
 10
9.7223790715
 20
6.9090732006
 30
0.0
 10
9.7194604995
 20
6.9033461341
 30
0.0
 10
9.7154082402
 20
6.8964189371
 30
0.0
 10
9.7108347798
 20
6.8898352575
 30
0.0
 10
9.706882642
 20
6.8848028484
 30
0.0
 10
9.7027419614
 20
6.8799347036
 30
0.0
 10
9.6994245652
 20
6.8764689829
 30
0.0
 10
9.6971277603
 20
6.8742504245
 30
0.0
  0
SPLINE
  5
346
100
AcDbEntity
  8
0
100
AcDbSpline
 62
7
  6
CONTINUOUS
 70
0
 71
3
 72
41
 73
37
 74
0
 42
0.0000001
 43
0.0000001
 44
0.0000000001
 40
0.0
 40
0.0
 40
0.0
 40
0.0
 40
0.0311444983
 40
0.062442467
 40
0.093887251
 40
0.1254695609
 40
0.157177086
 40
0.1889950997
 40
0.2209066479
 40
0.2528929497
 40
0.284933762
 40
0.3170077852
 40
0.3490930781
 40
0.3811674822
 40
0.4132090489
 40
0.445196464
 40
0.4771094635
 40
0.5089292351
 40
0.540638799
 40
0.5722233621
 40
0.6036706378
 40
0.6349711269
 40
0.6661183495
 40
0.6971090237
 40
0.7279431823
 40
0.7586242225
 40
0.7891588828
 40
0.8195571428
 40
0.8498320452
 40
0.86493089
 40
0.8800050502
 40
0.9100832578
 40
0.9400926753
 40
0.9550812784
 40
0.9700610371
 40
1.0
 40
1.0
 40
1.0
 40
1.0
 10
12.338881069
 20
6.9210420323
 30
0.0
 10
12.3421950165
 20
6.9208122093
 30
0.0
 10
12.3488248845
 20
6.9201088565
 30
0.0
 10
12.3586893014
 20
6.9183371255
 30
0.0
 10
12.3684480759
 20
6.9158554222
 30
0.0
 10
12.3780484695
 20
6.9126771472
 30
0.0
 10
12.3874395043
 20
6.9088193008
 30
0.0
 10
12.3965710793
 20
6.904302535
 30
0.0
 10
12.4053945505
 20
6.8991509809
 30
0.0
 10
12.4138629015
 20
6.8933921467
 30
0.0
 10
12.4219310132
 20
6.8870567602
 30
0.0
 10
12.4295558956
 20
6.8801786108
 30
0.0
 10
12.4366969157
 20
6.872794369
 30
0.0
 10
12.4433160118
 20
6.8649433933
 30
0.0
 10
12.4493778938
 20
6.8566675222
 30
0.0
 10
12.4548502304
 20
6.8480108536
 30
0.0
 10
12.4597038194
 20
6.8390195126
 30
0.0
 10
12.4639127431
 20
6.8297414084
 30
0.0
 10
12.4674545053
 20
6.8202259821
 30
0.0
 10
12.4703101521
 20
6.8105239468
 30
0.0
 10
12.4724643731
 20
6.8006870209
 30
0.0
 10
12.4739055849
 20
6.7907676563
 30
0.0
 10
12.4746259954
 20
6.7808187615
 30
0.0
 10
12.4746216495
 20
6.770893426
 30
0.0
 10
12.47389245
 20
6.7610446295
 30
0.0
 10
12.4724421828
 20
6.7513249993
 30
0.0
 10
12.4702784302
 20
6.7417863891
 30
0.0
 10
12.4674128061
 20
6.7324801264
 30
0.0
 10
12.4644492561
 20
6.7249519036
 30
0.0
 10
12.4617448728
 20
6.7190975371
 30
0.0
 10
12.4588263007
 20
6.7133704706
 30
0.0
 10
12.4547740415
 20
6.7064432735
 30
0.0
 10
12.4502005811
 20
6.699859594
 30
0.0
 10
12.4462484433
 20
6.6948271848
 30
0.0
 10
12.4421077627
 20
6.68995904
 30
0.0
 10
12.4387903665
 20
6.6864933193
 30
0.0
 10
12.4364935616
 20
6.6842747609
 30
0.0
  0
SPLINE
  5
347
100
AcDbEntity
  8
0
100
AcDbSpline
 62
7
  6
CONTINUOUS
 70
0
 71
3
 72
41
 73
37
 74
0
 42
0.0000001
 43
0.0000001
 44
0.0000000001
 40
0.0
 40
0.0
 40
0.0
 40
0.0
 40
0.0311444983
 40
0.062442467
 40
0.093887251
 40
0.1254695609
 40
0.157177086
 40
0.1889950997
 40
0.2209066479
 40
0.2528929497
 40
0.284933762
 40
0.3170077852
 40
0.3490930781
 40
0.3811674822
 40
0.4132090489
 40
0.445196464
 40
0.4771094635
 40
0.5089292351
 40
0.540638799
 40
0.5722233621
 40
0.6036706378
 40
0.6349711269
 40
0.6661183495
 40
0.6971090237
 40
0.7279431823
 40
0.7586242225
 40
0.7891588828
 40
0.8195571428
 40
0.8498320452
 40
0.86493089
 40
0.8800050502
 40
0.9100832578
 40
0.9400926753
 40
0.9550812784
 40
0.9700610371
 40
1.0
 40
1.0
 40
1.0
 40
1.0
 10
12.338881069
 20
9.6604078336
 30
0.0
 10
12.3421950165
 20
9.6601780106
 30
0.0
 10
12.3488248845
 20
9.6594746578
 30
0.0
 10
12.3586893014
 20
9.6577029268
 30
0.0
 10
12.3684480759
 20
9.6552212235
 30
0.0
 10
12.3780484695
 20
9.6520429484
 30
0.0
 10
12.3874395043
 20
9.648185102
 30
0.0
 10
12.3965710793
 20
9.6436683362
 30
0.0
 10
12.4053945505
 20
9.6385167822
 30
0.0
 10
12.4138629015
 20
9.632757948
 30
0.0
 10
12.4219310132
 20
9.6264225615
 30
0.0
 10
12.4295558956
 20
9.6195444121
 30
0.0
 10
12.4366969157
 20
9.6121601703
 30
0.0
 10
12.4433160118
 20
9.6043091946
 30
0.0
 10
12.4493778938
 20
9.5960333235
 30
0.0
 10
12.4548502304
 20
9.5873766549
 30
0.0
 10
12.4597038194
 20
9.5783853139
 30
0.0
 10
12.4639127431
 20
9.5691072097
 30
0.0
 10
12.4674545053
 20
9.5595917834
 30
0.0
 10
12.4703101521
 20
9.5498897481
 30
0.0
 10
12.4724643731
 20
9.5400528222
 30
0.0
 10
12.4739055849
 20
9.5301334576
 30
0.0
 10
12.4746259954
 20
9.5201845628
 30
0.0
 10
12.4746216495
 20
9.5102592273
 30
0.0
 10
12.47389245
 20
9.5004104308
 30
0.0
 10
12.4724421828
 20
9.4906908006
 30
0.0
 10
12.4702784302
 20
9.4811521903
 30
0.0
 10
12.4674128061
 20
9.4718459277
 30
0.0
 10
12.4644492561
 20
9.4643177049
 30
0.0
 10
12.4617448728
 20
9.4584633384
 30
0.0
 10
12.4588263007
 20
9.4527362719
 30
0.0
 10
12.4547740415
 20
9.4458090748
 30
0.0
 10
12.4502005811
 20
9.4392253953
 30
0.0
 10
12.4462484433
 20
9.4341929861
 30
0.0
 10
12.4421077627
 20
9.4293248413
 30
0.0
 10
12.4387903665
 20
9.4258591206
 30
0.0
 10
12.4364935616
 20
9.4236405622
 30
0.0
  0
SPLINE
  5
348
100
AcDbEntity
  8
0
100
AcDbSpline
 62
7
  6
CONTINUOUS
 70
0
 71
3
 72
41
 73
37
 74
0
 42
0.0000001
 43
0.0000001
 44
0.0000000001
 40
0.0
 40
0.0
 40
0.0
 40
0.0
 40
0.0311444983
 40
0.062442467
 40
0.093887251
 40
0.1254695609
 40
0.157177086
 40
0.1889950997
 40
0.2209066479
 40
0.2528929497
 40
0.284933762
 40
0.3170077852
 40
0.3490930781
 40
0.3811674822
 40
0.4132090489
 40
0.445196464
 40
0.4771094635
 40
0.5089292351
 40
0.540638799
 40
0.5722233621
 40
0.6036706378
 40
0.6349711269
 40
0.6661183495
 40
0.6971090237
 40
0.7279431823
 40
0.7586242225
 40
0.7891588828
 40
0.8195571428
 40
0.8498320452
 40
0.86493089
 40
0.8800050502
 40
0.9100832578
 40
0.9400926753
 40
0.9550812784
 40
0.9700610371
 40
1.0
 40
1.0
 40
1.0
 40
1.0
 10
9.5995152677
 20
9.8503834972
 30
0.0
 10
9.6028292153
 20
9.8501536741
 30
0.0
 10
9.6094590833
 20
9.8494503214
 30
0.0
 10
9.6193235001
 20
9.8476785903
 30
0.0
 10
9.6290822746
 20
9.845196887
 30
0.0
 10
9.6386826682
 20
9.842018612
 30
0.0
 10
9.648073703
 20
9.8381607656
 30
0.0
 10
9.657205278
 20
9.8336439998
 30
0.0
 10
9.6660287492
 20
9.8284924458
 30
0.0
 10
9.6744971002
 20
9.8227336115
 30
0.0
 10
9.6825652119
 20
9.816398225
 30
0.0
 10
9.6901900943
 20
9.8095200757
 30
0.0
 10
9.6973311145
 20
9.8021358339
 30
0.0
 10
9.7039502105
 20
9.7942848582
 30
0.0
 10
9.7100120925
 20
9.7860089871
 30
0.0
 10
9.7154844291
 20
9.7773523185
 30
0.0
 10
9.7203380181
 20
9.7683609775
 30
0.0
 10
9.7245469418
 20
9.7590828733
 30
0.0
 10
9.728088704
 20
9.7495674469
 30
0.0
 10
9.7309443508
 20
9.7398654116
 30
0.0
 10
9.7330985718
 20
9.7300284857
 30
0.0
 10
9.7345397836
 20
9.7201091211
 30
0.0
 10
9.7352601941
 20
9.7101602264
 30
0.0
 10
9.7352558482
 20
9.7002348909
 30
0.0
 10
9.7345266487
 20
9.6903860943
 30
0.0
 10
9.7330763815
 20
9.6806664642
 30
0.0
 10
9.7309126289
 20
9.6711278539
 30
0.0
 10
9.7280470049
 20
9.6618215913
 30
0.0
 10
9.7250834548
 20
9.6542933684
 30
0.0
 10
9.7223790715
 20
9.6484390019
 30
0.0
 10
9.7194604995
 20
9.6427119354
 30
0.0
 10
9.7154082402
 20
9.6357847384
 30
0.0
 10
9.7108347798
 20
9.6292010588
 30
0.0
 10
9.706882642
 20
9.6241686497
 30
0.0
 10
9.7027419614
 20
9.6193005049
 30
0.0
 10
9.6994245652
 20
9.6158347842
 30
0.0
 10
9.6971277603
 20
9.6136162258
 30
0.0
  0
SPLINE
  5
349
100
AcDbEntity
  8
0
100
AcDbSpline
 62
7
  6
CONTINUOUS
 70
0
 71
3
 72
37
 73
33
 74
0
 42
0.0000001
 43
0.0000001
 44
0.0000000001
 40
0.0
 40
0.0
 40
0.0
 40
0.0
 40
0.031146624
 40
0.0624481919
 40
0.0938952571
 40
0.1254804469
 40
0.1571906758
 40
0.1890114524
 40
0.2209257687
 40
0.25291484
 40
0.2849584237
 40
0.3170352183
 40
0.381163152
 40
0.4451601237
 40
0.4770758719
 40
0.5088983814
 40
0.5406106743
 40
0.5721979571
 40
0.6036479386
 40
0.6349511145
 40
0.6661010055
 40
0.697094333
 40
0.7279311336
 40
0.7586148063
 40
0.7891520874
 40
0.819552954
 40
0.8498304507
 40
0.8800004308
 40
0.9100812223
 40
0.9400932249
 40
0.9700584477
 40
1.0
 40
1.0
 40
1.0
 40
1.0
 10
11.4521611245
 20
7.672690294
 30
0.0
 10
11.4540008758
 20
7.6725627068
 30
0.0
 10
11.4576815572
 20
7.6721722088
 30
0.0
 10
11.463157927
 20
7.6711886377
 30
0.0
 10
11.4685756725
 20
7.6698108325
 30
0.0
 10
11.4739054517
 20
7.6680463871
 30
0.0
 10
11.4791190193
 20
7.6659046306
 30
0.0
 10
11.4841885357
 20
7.6633970815
 30
0.0
 10
11.4890870101
 20
7.6605370928
 30
0.0
 10
11.4937882861
 20
7.6573400118
 30
0.0
 10
11.4982675238
 20
7.653822661
 30
0.0
 10
11.5039096427
 20
7.6487332236
 30
0.0
 10
11.5102890509
 20
7.6416712284
 30
0.0
 10
11.5156424488
 20
7.6338141086
 30
0.0
 10
11.519237278
 20
7.6271542289
 30
0.0
 10
11.521573996
 20
7.6220031861
 30
0.0
 10
11.5235401847
 20
7.6167205917
 30
0.0
 10
11.5251255032
 20
7.6113343483
 30
0.0
 10
11.5263213945
 20
7.6058732337
 30
0.0
 10
11.5271214416
 20
7.6003663515
 30
0.0
 10
11.5275213232
 20
7.5948430819
 30
0.0
 10
11.5275188472
 20
7.5893328954
 30
0.0
 10
11.5271139617
 20
7.5838652078
 30
0.0
 10
11.5263087596
 20
7.5784692223
 30
0.0
 10
11.5251074684
 20
7.5731737774
 30
0.0
 10
11.523516441
 20
7.5680071894
 30
0.0
 10
11.5215441337
 20
7.562997098
 30
0.0
 10
11.5192010377
 20
7.5581703115
 30
0.0
 10
11.5164996661
 20
7.5535526948
 30
0.0
 10
11.513454352
 20
7.5491689032
 30
0.0
 10
11.5100816823
 20
7.5450427137
 30
0.0
 10
11.5076259154
 20
7.5424773366
 30
0.0
 10
11.5063508005
 20
7.5412456841
 30
0.0
  0
SPLINE
  5
34A
100
AcDbEntity
  8
0
100
AcDbSpline
 62
7
  6
CONTINUOUS
 70
0
 71
3
 72
15
 73
11
 74
0
 42
0.0000001
 43
0.0000001
 44
0.0000000001
 40
0.0
 40
0.0
 40
0.0
 40
0.0
 40
0.1266942125
 40
0.2528683786
 40
0.3785207836
 40
0.5036798374
 40
0.6283694255
 40
0.7526243819
 40
0.876485627
 40
1.0
 40
1.0
 40
1.0
 40
1.0
 10
11.1362442292
 20
7.8307946384
 30
0.0
 10
11.1362442292
 20
7.828388812
 30
0.0
 10
11.1360995076
 20
7.8235857401
 30
0.0
 10
11.1354460665
 20
7.8164234018
 30
0.0
 10
11.1343589811
 20
7.8093431165
 30
0.0
 10
11.132842511
 20
7.8023710872
 30
0.0
 10
11.1309022563
 20
7.7955324497
 30
0.0
 10
11.1285455154
 20
7.7888519418
 30
0.0
 10
11.1257813276
 20
7.7823539912
 30
0.0
 10
11.1236707321
 20
7.7781531825
 30
0.0
 10
11.1225515171
 20
7.7760920023
 30
0.0
  0
SPLINE
  5
34B
100
AcDbEntity
  8
0
100
AcDbSpline
 62
7
  6
CONTINUOUS
 70
0
 71
3
 72
34
 73
30
 74
0
 42
0.0000001
 43
0.0000001
 44
0.0000000001
 40
0.0
 40
0.0
 40
0.0
 40
0.0
 40
0.0297635188
 40
0.0596101886
 40
0.0895747992
 40
0.1196829422
 40
0.1499523203
 40
0.180392035
 40
0.2110038558
 40
0.2417836468
 40
0.2727229403
 40
0.303810362
 40
0.3350328123
 40
0.3663763625
 40
0.4293452718
 40
0.4609682697
 40
0.4926577799
 40
0.5561694311
 40
0.5879875316
 40
0.6198266178
 40
0.6835117803
 40
0.7153546561
 40
0.7471799445
 40
0.8107248981
 40
0.8424423087
 40
0.8741052578
 40
0.9057042804
 40
0.9372298462
 40
1.0
 40
1.0
 40
1.0
 40
1.0
 10
10.5693399452
 20
8.3951054637
 30
0.0
 10
10.5717071761
 20
8.3969276382
 30
0.0
 10
10.5766427251
 20
8.4003319779
 30
0.0
 10
10.58454383
 20
8.4046528947
 30
0.0
 10
10.5928722993
 20
8.4081687825
 30
0.0
 10
10.6015429984
 20
8.4108685231
 30
0.0
 10
10.6104732177
 20
8.4127575538
 30
0.0
 10
10.6195846336
 20
8.4138538075
 30
0.0
 10
10.6288058562
 20
8.4141849525
 30
0.0
 10
10.6380734307
 20
8.4137851725
 30
0.0
 10
10.647332134
 20
8.412692471
 30
0.0
 10
10.6565343979
 20
8.4109465626
 30
0.0
 10
10.6656402615
 20
8.4085870125
 30
0.0
 10
10.6776221874
 20
8.4046695037
 30
0.0
 10
10.6892696585
 20
8.3996774467
 30
0.0
 10
10.7004824028
 20
8.3937588998
 30
0.0
 10
10.7114207976
 20
8.3872392041
 30
0.0
 10
10.7218711965
 20
8.3798957746
 30
0.0
 10
10.7317722431
 20
8.3718351644
 30
0.0
 10
10.7413033341
 20
8.3633138379
 30
0.0
 10
10.7502453084
 20
8.3541494455
 30
0.0
 10
10.7585431522
 20
8.344422199
 30
0.0
 10
10.7663915514
 20
8.3343467005
 30
0.0
 10
10.7735524574
 20
8.3237660398
 30
0.0
 10
10.7799597828
 20
8.312751315
 30
0.0
 10
10.7843693457
 20
8.3042955077
 30
0.0
 10
10.7883673789
 20
8.2956582819
 30
0.0
 10
10.7931156748
 20
8.2839451977
 30
0.0
 10
10.7960138723
 20
8.2749121411
 30
0.0
 10
10.7976130717
 20
8.2688183323
 30
0.0
  0
SPLINE
  5
34C
100
AcDbEntity
  8
0
100
AcDbSpline
 62
7
  6
CONTINUOUS
 70
0
 71
3
 72
32
 73
28
 74
0
 42
0.0000001
 43
0.0000001
 44
0.0000000001
 40
0.0
 40
0.0
 40
0.0
 40
0.0
 40
0.0308875537
 40
0.0615931069
 40
0.0921458552
 40
0.1225790668
 40
0.1529295433
 40
0.1832338425
 40
0.2135262972
 40
0.2438374862
 40
0.2741934881
 40
0.3046157086
 40
0.335121114
 40
0.3657226899
 40
0.3964299902
 40
0.4272496799
 40
0.4892138684
 40
0.5203889544
 40
0.5516834165
 40
0.6146015208
 40
0.6779698321
 40
0.7417549546
 40
0.8059129559
 40
0.8703874805
 40
0.9027333731
 40
0.9351304592
 40
1.0
 40
1.0
 40
1.0
 40
1.0
 10
11.2143875852
 20
8.2589121551
 30
0.0
 10
11.2149438755
 20
8.2620284554
 30
0.0
 10
11.216367939
 20
8.2681914074
 30
0.0
 10
11.2194252258
 20
8.2771430527
 30
0.0
 10
11.2233553632
 20
8.2856967248
 30
0.0
 10
11.2281019638
 20
8.2937824905
 30
0.0
 10
11.2335988531
 20
8.3013456417
 30
0.0
 10
11.239774245
 20
8.3083450726
 30
0.0
 10
11.246554541
 20
8.3147528232
 30
0.0
 10
11.2538673656
 20
8.3205521851
 30
0.0
 10
11.261643663
 20
8.3257356371
 30
0.0
 10
11.2698189376
 20
8.3303027195
 30
0.0
 10
11.2783338946
 20
8.3342581362
 30
0.0
 10
11.2871343125
 20
8.337610108
 30
0.0
 10
11.2961716586
 20
8.3403692041
 30
0.0
 10
11.3084960971
 20
8.343277635
 30
0.0
 10
11.3211136333
 20
8.3450407256
 30
0.0
 10
11.3338534657
 20
8.3457155122
 30
0.0
 10
11.3467099473
 20
8.3456805756
 30
0.0
 10
11.3628356974
 20
8.3443218495
 30
0.0
 10
11.3820050099
 20
8.3406762974
 30
0.0
 10
11.4008286511
 20
8.3350702371
 30
0.0
 10
11.4190944531
 20
8.3275502045
 30
0.0
 10
11.4336553908
 20
8.3197246002
 30
0.0
 10
11.4447906546
 20
8.3125452747
 30
0.0
 10
11.4555508528
 20
8.304748687
 30
0.0
 10
11.4631266153
 20
8.2982245271
 30
0.0
 10
11.4678955749
 20
8.2935924185
 30
0.0
  0
SPLINE
  5
34D
100
AcDbEntity
  8
0
100
AcDbSpline
 62
7
  6
CONTINUOUS
 70
0
 71
3
 72
18
 73
14
 74
0
 42
0.0000001
 43
0.0000001
 44
0.0000000001
 40
0.0
 40
0.0
 40
0.0
 40
0.0
 40
0.1504680185
 40
0.2917144324
 40
0.4244425615
 40
0.4879099171
 40
0.5496094205
 40
0.6682625585
 40
0.7817882768
 40
0.8371379945
 40
0.8918078237
 40
0.9460192726
 40
1.0
 40
1.0
 40
1.0
 40
1.0
 10
12.9183873104
 20
8.3156405729
 30
0.0
 10
12.9196043792
 20
8.3168161711
 30
0.0
 10
12.9220368669
 20
8.3190219359
 30
0.0
 10
12.9258033153
 20
8.3219613876
 30
0.0
 10
12.9289847248
 20
8.3240403199
 30
0.0
 10
12.931521616
 20
8.3254481084
 30
0.0
 10
12.9339838746
 20
8.3266567353
 30
0.0
 10
12.9370624775
 20
8.3278780117
 30
0.0
 10
12.9401958447
 20
8.3287114136
 30
0.0
 10
12.9426775644
 20
8.329121955
 30
0.0
 10
12.9445168615
 20
8.32930416
 30
0.0
 10
12.9463487183
 20
8.3293629952
 30
0.0
 10
12.9475657583
 20
8.329319937
 30
0.0
 10
12.9481713571
 20
8.3292779353
 30
0.0
  0
SPLINE
  5
34E
100
AcDbEntity
  8
0
100
AcDbSpline
 62
7
  6
CONTINUOUS
 70
0
 71
3
 72
31
 73
27
 74
0
 42
0.0000001
 43
0.0000001
 44
0.0000000001
 40
0.0
 40
0.0
 40
0.0
 40
0.0
 40
0.0845020648
 40
0.1673013648
 40
0.2480803175
 40
0.326530874
 40
0.4023584325
 40
0.4752829398
 40
0.5450414838
 40
0.6113906911
 40
0.6432178527
 40
0.6741118156
 40
0.7040492027
 40
0.7330082653
 40
0.7609695936
 40
0.787915765
 40
0.8138321098
 40
0.8387064793
 40
0.8625300331
 40
0.885297236
 40
0.9070066679
 40
0.9276613693
 40
0.9472697258
 40
0.965846297
 40
0.9834128878
 40
1.0
 40
1.0
 40
1.0
 40
1.0
 10
11.9256445581
 20
10.0367719467
 30
0.0
 10
11.9187098339
 20
10.0372528715
 30
0.0
 10
11.9049882104
 20
10.0383267437
 30
0.0
 10
11.8846744688
 20
10.040295876
 30
0.0
 10
11.8648970098
 20
10.0426006802
 30
0.0
 10
11.8457388904
 20
10.045231374
 30
0.0
 10
11.8272804994
 20
10.0481767633
 30
0.0
 10
11.8095991598
 20
10.051424314
 30
0.0
 10
11.7927690587
 20
10.054960225
 30
0.0
 10
11.7793318094
 20
10.0581775151
 30
0.0
 10
11.7690669117
 20
10.0608933612
 30
0.0
 10
11.7617309572
 20
10.0629645423
 30
0.0
 10
11.7546583454
 20
10.0650960238
 30
0.0
 10
11.7478564788
 20
10.0672856395
 30
0.0
 10
11.7413324682
 20
10.0695310183
 30
0.0
 10
11.7350931388
 20
10.0718298563
 30
0.0
 10
11.7291449903
 20
10.0741796813
 30
0.0
 10
11.7234942271
 20
10.0765780808
 30
0.0
 10
11.718146708
 20
10.0790225008
 30
0.0
 10
11.7131079811
 20
10.0815104361
 30
0.0
 10
11.7083832369
 20
10.0840392817
 30
0.0
 10
11.7039773306
 20
10.0866064696
 30
0.0
 10
11.6998947765
 20
10.0892093784
 30
0.0
 10
11.6961396725
 20
10.0918454659
 30
0.0
 10
11.6927160062
 20
10.0945120221
 30
0.0
 10
11.6905973455
 20
10.0963602759
 30
0.0
 10
11.6895984631
 20
10.0972898471
 30
0.0
  0
SPLINE
  5
34F
100
AcDbEntity
  8
0
100
AcDbSpline
 62
7
  6
CONTINUOUS
 70
0
 71
3
 72
39
 73
35
 74
0
 42
0.0000001
 43
0.0000001
 44
0.0000000001
 40
0.0
 40
0.0
 40
0.0
 40
0.0
 40
0.0761047333
 40
0.1533644285
 40
0.2310953647
 40
0.3086073977
 40
0.3852131008
 40
0.4229647361
 40
0.4602372057
 40
0.4969488449
 40
0.5330196458
 40
0.5683715157
 40
0.6029285676
 40
0.6366174033
 40
0.6693673881
 40
0.7011109565
 40
0.7317839488
 40
0.7613260159
 40
0.7896810225
 40
0.8167975061
 40
0.84262924
 40
0.8671359275
 40
0.8902840978
 40
0.9120481638
 40
0.9224062989
 40
0.9324131775
 40
0.942068529
 40
0.951372994
 40
0.9603280437
 40
0.9689363591
 40
0.977201732
 40
0.9851293319
 40
0.992725946
 40
1.0
 40
1.0
 40
1.0
 40
1.0
 10
11.9256445581
 20
10.0367719467
 30
0.0
 10
11.9362819962
 20
10.0360342379
 30
0.0
 10
11.9577394599
 20
10.0348386057
 30
0.0
 10
11.9901069508
 20
10.0338716883
 30
0.0
 10
12.0226859362
 20
10.0337218888
 30
0.0
 10
12.0551665794
 20
10.0343907197
 30
0.0
 10
12.0820240001
 20
10.0356306462
 30
0.0
 10
12.1032229655
 20
10.0370329014
 30
0.0
 10
12.1188291307
 20
10.0382777925
 30
0.0
 10
12.134181972
 20
10.0397179014
 30
0.0
 10
12.1492450064
 20
10.0413498061
 30
0.0
 10
12.1639824058
 20
10.0431695984
 30
0.0
 10
12.178359135
 20
10.0451729215
 30
0.0
 10
12.1923410255
 20
10.0473549722
 30
0.0
 10
12.2058948576
 20
10.0497105223
 30
0.0
 10
12.2189884382
 20
10.052233927
 30
0.0
 10
12.2315906842
 20
10.0549191428
 30
0.0
 10
12.2436717071
 20
10.0577597284
 30
0.0
 10
12.2552028868
 20
10.0607488694
 30
0.0
 10
12.2661569489
 20
10.0638794006
 30
0.0
 10
12.2765080134
 20
10.0671438243
 30
0.0
 10
12.2862317581
 20
10.0705343445
 30
0.0
 10
12.2953052195
 20
10.0740428657
 30
0.0
 10
12.3024198795
 20
10.0771065016
 30
0.0
 10
12.307762539
 20
10.0796170287
 30
0.0
 10
12.3115275527
 20
10.0814931049
 30
0.0
 10
12.3151147274
 20
10.0833923703
 30
0.0
 10
12.3185219771
 20
10.0853136951
 30
0.0
 10
12.3217472791
 20
10.0872560031
 30
0.0
 10
12.3247887694
 20
10.0892181236
 30
0.0
 10
12.3276446593
 20
10.0911989396
 30
0.0
 10
12.3303132928
 20
10.0931973569
 30
0.0
 10
12.3327930722
 20
10.0952121381
 30
0.0
 10
12.3343526242
 20
10.0965950248
 30
0.0
 10
12.3350987052
 20
10.0972893279
 30
0.0
  0
SPLINE
  5
350
100
AcDbEntity
  8
0
100
AcDbSpline
 62
7
  6
CONTINUOUS
 70
0
 71
3
 72
31
 73
27
 74
0
 42
0.0000001
 43
0.0000001
 44
0.0000000001
 40
0.0
 40
0.0
 40
0.0
 40
0.0
 40
0.0845020648
 40
0.1673013648
 40
0.2480803175
 40
0.326530874
 40
0.4023584325
 40
0.4752829398
 40
0.5450414838
 40
0.6113906911
 40
0.6432178527
 40
0.6741118156
 40
0.7040492027
 40
0.7330082653
 40
0.7609695936
 40
0.787915765
 40
0.8138321098
 40
0.8387064793
 40
0.8625300331
 40
0.885297236
 40
0.9070066679
 40
0.9276613693
 40
0.9472697258
 40
0.965846297
 40
0.9834128878
 40
1.0
 40
1.0
 40
1.0
 40
1.0
 10
10.6023137364
 20
10.1955324898
 30
0.0
 10
10.5953790121
 20
10.1960134145
 30
0.0
 10
10.5816573886
 20
10.1970872867
 30
0.0
 10
10.561343647
 20
10.1990564191
 30
0.0
 10
10.541566188
 20
10.2013612232
 30
0.0
 10
10.5224080687
 20
10.203991917
 30
0.0
 10
10.5039496777
 20
10.2069373064
 30
0.0
 10
10.4862683381
 20
10.210184857
 30
0.0
 10
10.4694382369
 20
10.2137207681
 30
0.0
 10
10.4560009876
 20
10.2169380581
 30
0.0
 10
10.4457360899
 20
10.2196539043
 30
0.0
 10
10.4384001354
 20
10.2217250853
 30
0.0
 10
10.4313275237
 20
10.2238565668
 30
0.0
 10
10.424525657
 20
10.2260461825
 30
0.0
 10
10.4180016465
 20
10.2282915613
 30
0.0
 10
10.411762317
 20
10.2305903993
 30
0.0
 10
10.4058141686
 20
10.2329402243
 30
0.0
 10
10.4001634053
 20
10.2353386238
 30
0.0
 10
10.3948158863
 20
10.2377830438
 30
0.0
 10
10.3897771593
 20
10.2402709791
 30
0.0
 10
10.3850524151
 20
10.2427998247
 30
0.0
 10
10.3806465088
 20
10.2453670126
 30
0.0
 10
10.3765639548
 20
10.2479699215
 30
0.0
 10
10.3728088507
 20
10.2506060089
 30
0.0
 10
10.3693851845
 20
10.2532725651
 30
0.0
 10
10.3672665237
 20
10.2551208189
 30
0.0
 10
10.3662676413
 20
10.2560503901
 30
0.0
  0
SPLINE
  5
351
100
AcDbEntity
  8
0
100
AcDbSpline
 62
7
  6
CONTINUOUS
 70
0
 71
3
 72
39
 73
35
 74
0
 42
0.0000001
 43
0.0000001
 44
0.0000000001
 40
0.0
 40
0.0
 40
0.0
 40
0.0
 40
0.0761047333
 40
0.1533644285
 40
0.2310953647
 40
0.3086073977
 40
0.3852131008
 40
0.4229647361
 40
0.4602372057
 40
0.4969488449
 40
0.5330196458
 40
0.5683715157
 40
0.6029285676
 40
0.6366174033
 40
0.6693673881
 40
0.7011109565
 40
0.7317839488
 40
0.7613260159
 40
0.7896810225
 40
0.8167975061
 40
0.84262924
 40
0.8671359275
 40
0.8902840978
 40
0.9120481638
 40
0.9224062989
 40
0.9324131775
 40
0.942068529
 40
0.951372994
 40
0.9603280437
 40
0.9689363591
 40
0.977201732
 40
0.9851293319
 40
0.992725946
 40
1.0
 40
1.0
 40
1.0
 40
1.0
 10
10.6023137364
 20
10.1955324898
 30
0.0
 10
10.6129511745
 20
10.1947947809
 30
0.0
 10
10.6344086381
 20
10.1935991488
 30
0.0
 10
10.666776129
 20
10.1926322313
 30
0.0
 10
10.6993551145
 20
10.1924824319
 30
0.0
 10
10.7318357577
 20
10.1931512627
 30
0.0
 10
10.7586931784
 20
10.1943911893
 30
0.0
 10
10.7798921438
 20
10.1957934444
 30
0.0
 10
10.7954983089
 20
10.1970383356
 30
0.0
 10
10.8108511502
 20
10.1984784444
 30
0.0
 10
10.8259141847
 20
10.2001103492
 30
0.0
 10
10.840651584
 20
10.2019301414
 30
0.0
 10
10.8550283133
 20
10.2039334645
 30
0.0
 10
10.8690102037
 20
10.2061155153
 30
0.0
 10
10.8825640358
 20
10.2084710654
 30
0.0
 10
10.8956576165
 20
10.2109944701
 30
0.0
 10
10.9082598625
 20
10.2136796858
 30
0.0
 10
10.9203408853
 20
10.2165202715
 30
0.0
 10
10.9318720651
 20
10.2195094124
 30
0.0
 10
10.9428261272
 20
10.2226399436
 30
0.0
 10
10.9531771916
 20
10.2259043674
 30
0.0
 10
10.9629009364
 20
10.2292948875
 30
0.0
 10
10.9719743978
 20
10.2328034087
 30
0.0
 10
10.9790890577
 20
10.2358670446
 30
0.0
 10
10.9844317172
 20
10.2383775717
 30
0.0
 10
10.988196731
 20
10.2402536479
 30
0.0
 10
10.9917839057
 20
10.2421529133
 30
0.0
 10
10.9951911554
 20
10.2440742382
 30
0.0
 10
10.9984164574
 20
10.2460165462
 30
0.0
 10
11.0014579477
 20
10.2479786666
 30
0.0
 10
11.0043138376
 20
10.2499594827
 30
0.0
 10
11.0069824711
 20
10.2519578999
 30
0.0
 10
11.0094622505
 20
10.2539726811
 30
0.0
 10
11.0110218024
 20
10.2553555679
 30
0.0
 10
11.0117678835
 20
10.256049871
 30
0.0
  0
SPLINE
  5
352
100
AcDbEntity
  8
0
100
AcDbSpline
 62
7
  6
CONTINUOUS
 70
0
 71
3
 72
15
 73
11
 74
0
 42
0.0000001
 43
0.0000001
 44
0.0000000001
 40
0.0
 40
0.0
 40
0.0
 40
0.0
 40
0.1273482292
 40
0.2538605354
 40
0.3795879276
 40
0.5046050833
 40
0.6290174349
 40
0.7529533662
 40
0.8765605734
 40
1.0
 40
1.0
 40
1.0
 40
1.0
 10
10.2916891126
 20
7.7128618325
 30
0.0
 10
10.2916891126
 20
7.7100746147
 30
0.0
 10
10.2914229905
 20
7.7045146211
 30
0.0
 10
10.2902194733
 20
7.6962815649
 30
0.0
 10
10.2882238377
 20
7.6882553749
 30
0.0
 10
10.2854541054
 20
7.6805111151
 30
0.0
 10
10.2819357064
 20
7.6731201986
 30
0.0
 10
10.2777007006
 20
7.6661508735
 30
0.0
 10
10.2727889081
 20
7.6596684438
 30
0.0
 10
10.269090579
 20
7.6557086042
 30
0.0
 10
10.2671473882
 20
7.6538316341
 30
0.0
  0
SPLINE
  5
353
100
AcDbEntity
  8
0
100
AcDbSpline
 62
7
  6
CONTINUOUS
 70
0
 71
3
 72
15
 73
11
 74
0
 42
0.0000001
 43
0.0000001
 44
0.0000000001
 40
0.0
 40
0.0
 40
0.0
 40
0.0
 40
0.1273482292
 40
0.2538605354
 40
0.3795879276
 40
0.5046050833
 40
0.6290174349
 40
0.7529533662
 40
0.8765605734
 40
1.0
 40
1.0
 40
1.0
 40
1.0
 10
10.2916891126
 20
8.890325467
 30
0.0
 10
10.2916891126
 20
8.8875382492
 30
0.0
 10
10.2914229905
 20
8.8819782556
 30
0.0
 10
10.2902194733
 20
8.8737451994
 30
0.0
 10
10.2882238377
 20
8.8657190094
 30
0.0
 10
10.2854541054
 20
8.8579747496
 30
0.0
 10
10.2819357064
 20
8.8505838331
 30
0.0
 10
10.2777007006
 20
8.843614508
 30
0.0
 10
10.2727889081
 20
8.8371320784
 30
0.0
 10
10.269090579
 20
8.8331722387
 30
0.0
 10
10.2671473882
 20
8.8312952686
 30
0.0
  0
SPLINE
  5
354
100
AcDbEntity
  8
0
100
AcDbSpline
 62
7
  6
CONTINUOUS
 70
0
 71
3
 72
15
 73
11
 74
0
 42
0.0000001
 43
0.0000001
 44
0.0000000001
 40
0.0
 40
0.0
 40
0.0
 40
0.0
 40
0.1273482292
 40
0.2538605354
 40
0.3795879276
 40
0.5046050833
 40
0.6290174349
 40
0.7529533662
 40
0.8765605734
 40
1.0
 40
1.0
 40
1.0
 40
1.0
 10
11.8313748958
 20
8.8144575862
 30
0.0
 10
11.8313748958
 20
8.8116703684
 30
0.0
 10
11.8311087738
 20
8.8061103748
 30
0.0
 10
11.8299052565
 20
8.7978773186
 30
0.0
 10
11.827909621
 20
8.7898511286
 30
0.0
 10
11.8251398886
 20
8.7821068688
 30
0.0
 10
11.8216214897
 20
8.7747159523
 30
0.0
 10
11.8173864838
 20
8.7677466272
 30
0.0
 10
11.8124746914
 20
8.7612641975
 30
0.0
 10
11.8087763623
 20
8.7573043579
 30
0.0
 10
11.8068331715
 20
8.7554273878
 30
0.0
  0
SPLINE
  5
355
100
AcDbEntity
  8
0
100
AcDbSpline
 62
7
  6
CONTINUOUS
 70
0
 71
3
 72
15
 73
11
 74
0
 42
0.0000001
 43
0.0000001
 44
0.0000000001
 40
0.0
 40
0.0
 40
0.0
 40
0.0
 40
0.1273482292
 40
0.2538605354
 40
0.3795879276
 40
0.5046050833
 40
0.6290174349
 40
0.7529533662
 40
0.8765605734
 40
1.0
 40
1.0
 40
1.0
 40
1.0
 10
11.8313748958
 20
7.5761405409
 30
0.0
 10
11.8313748958
 20
7.573353323
 30
0.0
 10
11.8311087738
 20
7.5677933294
 30
0.0
 10
11.8299052565
 20
7.5595602733
 30
0.0
 10
11.827909621
 20
7.5515340833
 30
0.0
 10
11.8251398886
 20
7.5437898234
 30
0.0
 10
11.8216214897
 20
7.536398907
 30
0.0
 10
11.8173864838
 20
7.5294295819
 30
0.0
 10
11.8124746914
 20
7.5229471522
 30
0.0
 10
11.8087763623
 20
7.5189873126
 30
0.0
 10
11.8068331715
 20
7.5171103425
 30
0.0
  0
SPLINE
  5
356
100
AcDbEntity
  8
0
100
AcDbSpline
 62
7
  6
CONTINUOUS
 70
0
 71
3
 72
28
 73
24
 74
0
 42
0.0000001
 43
0.0000001
 44
0.0000000001
 40
0.0
 40
0.0
 40
0.0
 40
0.0
 40
0.079596113
 40
0.159938078
 40
0.2401138255
 40
0.3192283208
 40
0.3964700074
 40
0.4711653236
 40
0.5428018681
 40
0.6110121012
 40
0.675529712
 40
0.7361332687
 40
0.7925884615
 40
0.819179554
 40
0.844616469
 40
0.8688473872
 40
0.8918151728
 40
0.9134579174
 40
0.9337119796
 40
0.9525191885
 40
0.9698350498
 40
0.9856472828
 40
1.0
 40
1.0
 40
1.0
 40
1.0
 10
11.1359481977
 20
7.839008609
 30
0.0
 10
11.1339459482
 20
7.8377087316
 30
0.0
 10
11.1298353975
 20
7.8352281125
 30
0.0
 10
11.1234179579
 20
7.8319472316
 30
0.0
 10
11.1167841308
 20
7.8291636036
 30
0.0
 10
11.1100377062
 20
7.8269453087
 30
0.0
 10
11.1032898107
 20
7.8253330324
 30
0.0
 10
11.0966502593
 20
7.8243379899
 30
0.0
 10
11.0902195623
 20
7.8239438261
 30
0.0
 10
11.0840846117
 20
7.8241124511
 30
0.0
 10
11.0783181529
 20
7.824790541
 30
0.0
 10
11.0729823401
 20
7.8259152508
 30
0.0
 10
11.0688602871
 20
7.8271925295
 30
0.0
 10
11.06583155
 20
7.8283841227
 30
0.0
 10
11.0637473004
 20
7.8293283424
 30
0.0
 10
11.0618124061
 20
7.8303315544
 30
0.0
 10
11.0600348852
 20
7.8313841895
 30
0.0
 10
11.0584234201
 20
7.8324763391
 30
0.0
 10
11.0569872967
 20
7.8335978354
 30
0.0
 10
11.0557363919
 20
7.8347381778
 30
0.0
 10
11.0546809455
 20
7.8358870631
 30
0.0
 10
11.0538317204
 20
7.8370337072
 30
0.0
 10
11.0533898551
 20
7.8378275712
 30
0.0
 10
11.0532129475
 20
7.8382199954
 30
0.0
  0
SPLINE
  5
357
100
AcDbEntity
  8
0
100
AcDbSpline
 62
7
  6
CONTINUOUS
 70
0
 71
3
 72
9
 73
5
 74
0
 42
0.0000001
 43
0.0000001
 44
0.0000000001
 40
0.0
 40
0.0
 40
0.0
 40
0.0
 40
0.5037091296
 40
1.0
 40
1.0
 40
1.0
 40
1.0
 10
11.7130003572
 20
10.0816001831
 30
0.0
 10
11.7127860102
 20
10.082440626
 30
0.0
 10
11.712459358
 20
10.0841362499
 30
0.0
 10
11.7123488762
 20
10.0858599043
 30
0.0
 10
11.7123488792
 20
10.0867144767
 30
0.0
  0
SPLINE
  5
358
100
AcDbEntity
  8
0
100
AcDbSpline
 62
7
  6
CONTINUOUS
 70
0
 71
3
 72
52
 73
48
 74
0
 42
0.0000001
 43
0.0000001
 44
0.0000000001
 40
0.0
 40
0.0
 40
0.0
 40
0.0
 40
0.0055575409
 40
0.0111779669
 40
0.0169218944
 40
0.0228457784
 40
0.0290005385
 40
0.0354309383
 40
0.0421753664
 40
0.0492662129
 40
0.0567302428
 40
0.0645893498
 40
0.0728610114
 40
0.0815590518
 40
0.0906939685
 40
0.1002735876
 40
0.1103032329
 40
0.1207862668
 40
0.1317241336
 40
0.1431168099
 40
0.1549627623
 40
0.1672593293
 40
0.180002627
 40
0.1931878784
 40
0.2068092924
 40
0.2208603496
 40
0.2353336718
 40
0.2502212706
 40
0.2812030867
 40
0.3137301822
 40
0.3477175443
 40
0.3830726942
 40
0.4196965467
 40
0.4574841626
 40
0.4963254275
 40
0.5361056779
 40
0.5767062924
 40
0.6180052566
 40
0.6598777114
 40
0.7021964885
 40
0.7448326391
 40
0.7876559545
 40
0.8305354925
 40
0.8733400712
 40
0.9159388564
 40
0.9582016962
 40
1.0
 40
1.0
 40
1.0
 40
1.0
 10
12.487348857
 20
10.1359769655
 30
0.0
 10
12.4873488619
 20
10.1348019073
 30
0.0
 10
12.4872173354
 20
10.1324364473
 30
0.0
 10
12.4866268802
 20
10.1289008854
 30
0.0
 10
12.4856443134
 20
10.1253732008
 30
0.0
 10
12.4842714731
 20
10.1218575071
 30
0.0
 10
12.4825106906
 20
10.1183566232
 30
0.0
 10
12.480364265
 20
10.1148732716
 30
0.0
 10
12.4778347065
 20
10.1114097962
 30
0.0
 10
12.4749244313
 20
10.1079685848
 30
0.0
 10
12.4716361039
 20
10.1045518938
 30
0.0
 10
12.4679724218
 20
10.1011621635
 30
0.0
 10
12.4639364191
 20
10.0978017464
 30
0.0
 10
12.4595312742
 20
10.0944731988
 30
0.0
 10
12.454760542
 20
10.0911789644
 30
0.0
 10
12.4496279825
 20
10.0879216679
 30
0.0
 10
12.4441377319
 20
10.0847037919
 30
0.0
 10
12.43829416
 20
10.0815279713
 30
0.0
 10
12.4321019948
 20
10.0783966809
 30
0.0
 10
12.4255662101
 20
10.0753125228
 30
0.0
 10
12.4186921149
 20
10.0722779315
 30
0.0
 10
12.4114852679
 20
10.0692954468
 30
0.0
 10
12.40395154
 20
10.0663674413
 30
0.0
 10
12.3960970517
 20
10.063496373
 30
0.0
 10
12.387928213
 20
10.0606845359
 30
0.0
 10
12.3794516833
 20
10.0579342979
 30
0.0
 10
12.370674379
 20
10.0552478404
 30
0.0
 10
12.3584165695
 20
10.0517068978
 30
0.0
 10
12.3423893676
 20
10.04746818
 30
0.0
 10
12.3223238033
 20
10.0427348823
 30
0.0
 10
12.3012433758
 20
10.0383052458
 30
0.0
 10
12.279217047
 20
10.0341939196
 30
0.0
 10
12.2563167372
 20
10.030414522
 30
0.0
 10
12.2326173461
 20
10.0269795588
 30
0.0
 10
12.2081964152
 20
10.0239003929
 30
0.0
 10
12.1831338864
 20
10.0211872053
 30
0.0
 10
12.1575118261
 20
10.0188489633
 30
0.0
 10
12.1314141528
 20
10.016893392
 30
0.0
 10
12.1049263568
 20
10.0153269508
 30
0.0
 10
12.0781352171
 20
10.014154812
 30
0.0
 10
12.051128514
 20
10.0133808457
 30
0.0
 10
12.0239947389
 20
10.0130076065
 30
0.0
 10
11.9968228029
 20
10.0130363272
 30
0.0
 10
11.9697017431
 20
10.0134669111
 30
0.0
 10
11.9427204184
 20
10.0142979411
 30
0.0
 10
11.9159673083
 20
10.0155266646
 30
0.0
 10
11.8982263666
 20
10.0166153659
 30
0.0
 10
11.8894099217
 20
10.0172267884
 30
0.0
  0
SPLINE
  5
359
100
AcDbEntity
  8
0
100
AcDbSpline
 62
7
  6
CONTINUOUS
 70
0
 71
3
 72
9
 73
5
 74
0
 42
0.0000001
 43
0.0000001
 44
0.0000000001
 40
0.0
 40
0.0
 40
0.0
 40
0.0
 40
0.5037528388
 40
1.0
 40
1.0
 40
1.0
 40
1.0
 10
12.3116895488
 20
10.0815695889
 30
0.0
 10
12.3119064437
 20
10.082414921
 30
0.0
 10
12.3122370268
 20
10.0841205737
 30
0.0
 10
12.3123488512
 20
10.0858547657
 30
0.0
 10
12.3123488542
 20
10.0867144767
 30
0.0
  0
SPLINE
  5
35A
100
AcDbEntity
  8
0
100
AcDbSpline
 62
7
  6
CONTINUOUS
 70
0
 71
3
 72
9
 73
5
 74
0
 42
0.0000001
 43
0.0000001
 44
0.0000000001
 40
0.0
 40
0.0
 40
0.0
 40
0.0
 40
0.5037091296
 40
1.0
 40
1.0
 40
1.0
 40
1.0
 10
10.3896695354
 20
10.2403607261
 30
0.0
 10
10.3894551885
 20
10.2412011691
 30
0.0
 10
10.3891285362
 20
10.2428967929
 30
0.0
 10
10.3890180545
 20
10.2446204474
 30
0.0
 10
10.3890180574
 20
10.2454750197
 30
0.0
  0
SPLINE
  5
35B
100
AcDbEntity
  8
0
100
AcDbSpline
 62
7
  6
CONTINUOUS
 70
0
 71
3
 72
52
 73
48
 74
0
 42
0.0000001
 43
0.0000001
 44
0.0000000001
 40
0.0
 40
0.0
 40
0.0
 40
0.0
 40
0.0055575409
 40
0.0111779669
 40
0.0169218944
 40
0.0228457784
 40
0.0290005385
 40
0.0354309383
 40
0.0421753664
 40
0.0492662129
 40
0.0567302428
 40
0.0645893498
 40
0.0728610114
 40
0.0815590518
 40
0.0906939685
 40
0.1002735876
 40
0.1103032329
 40
0.1207862668
 40
0.1317241336
 40
0.1431168099
 40
0.1549627623
 40
0.1672593293
 40
0.180002627
 40
0.1931878784
 40
0.2068092924
 40
0.2208603496
 40
0.2353336718
 40
0.2502212706
 40
0.2812030867
 40
0.3137301822
 40
0.3477175443
 40
0.3830726942
 40
0.4196965467
 40
0.4574841626
 40
0.4963254275
 40
0.5361056779
 40
0.5767062924
 40
0.6180052566
 40
0.6598777114
 40
0.7021964885
 40
0.7448326391
 40
0.7876559545
 40
0.8305354925
 40
0.8733400712
 40
0.9159388564
 40
0.9582016962
 40
1.0
 40
1.0
 40
1.0
 40
1.0
 10
11.1640180352
 20
10.2947375085
 30
0.0
 10
11.1640180402
 20
10.2935624504
 30
0.0
 10
11.1638865136
 20
10.2911969903
 30
0.0
 10
11.1632960584
 20
10.2876614284
 30
0.0
 10
11.1623134917
 20
10.2841337439
 30
0.0
 10
11.1609406514
 20
10.2806180501
 30
0.0
 10
11.1591798689
 20
10.2771171662
 30
0.0
 10
11.1570334432
 20
10.2736338146
 30
0.0
 10
11.1545038847
 20
10.2701703393
 30
0.0
 10
11.1515936095
 20
10.2667291279
 30
0.0
 10
11.1483052821
 20
10.2633124368
 30
0.0
 10
11.1446416001
 20
10.2599227065
 30
0.0
 10
11.1406055973
 20
10.2565622894
 30
0.0
 10
11.1362004525
 20
10.2532337418
 30
0.0
 10
11.1314297203
 20
10.2499395074
 30
0.0
 10
11.1262971608
 20
10.246682211
 30
0.0
 10
11.1208069102
 20
10.2434643349
 30
0.0
 10
11.1149633382
 20
10.2402885143
 30
0.0
 10
11.1087711731
 20
10.237157224
 30
0.0
 10
11.1022353883
 20
10.2340730659
 30
0.0
 10
11.0953612931
 20
10.2310384746
 30
0.0
 10
11.0881544461
 20
10.2280559899
 30
0.0
 10
11.0806207183
 20
10.2251279843
 30
0.0
 10
11.0727662299
 20
10.2222569161
 30
0.0
 10
11.0645973913
 20
10.2194450789
 30
0.0
 10
11.0561208616
 20
10.216694841
 30
0.0
 10
11.0473435572
 20
10.2140083835
 30
0.0
 10
11.0350857477
 20
10.2104674408
 30
0.0
 10
11.0190585459
 20
10.206228723
 30
0.0
 10
10.9989929815
 20
10.2014954253
 30
0.0
 10
10.9779125541
 20
10.1970657888
 30
0.0
 10
10.9558862252
 20
10.1929544627
 30
0.0
 10
10.9329859155
 20
10.189175065
 30
0.0
 10
10.9092865243
 20
10.1857401018
 30
0.0
 10
10.8848655935
 20
10.182660936
 30
0.0
 10
10.8598030646
 20
10.1799477484
 30
0.0
 10
10.8341810044
 20
10.1776095063
 30
0.0
 10
10.808083331
 20
10.1756539351
 30
0.0
 10
10.781595535
 20
10.1740874938
 30
0.0
 10
10.7548043953
 20
10.1729153551
 30
0.0
 10
10.7277976922
 20
10.1721413888
 30
0.0
 10
10.7006639171
 20
10.1717681495
 30
0.0
 10
10.6734919812
 20
10.1717968703
 30
0.0
 10
10.6463709214
 20
10.1722274542
 30
0.0
 10
10.6193895967
 20
10.1730584841
 30
0.0
 10
10.5926364865
 20
10.1742872077
 30
0.0
 10
10.5748955448
 20
10.1753759089
 30
0.0
 10
10.5660791
 20
10.1759873315
 30
0.0
  0
SPLINE
  5
35C
100
AcDbEntity
  8
0
100
AcDbSpline
 62
7
  6
CONTINUOUS
 70
0
 71
3
 72
9
 73
5
 74
0
 42
0.0000001
 43
0.0000001
 44
0.0000000001
 40
0.0
 40
0.0
 40
0.0
 40
0.0
 40
0.5037528388
 40
1.0
 40
1.0
 40
1.0
 40
1.0
 10
10.988358727
 20
10.2403301319
 30
0.0
 10
10.9885756219
 20
10.241175464
 30
0.0
 10
10.988906205
 20
10.2428811167
 30
0.0
 10
10.9890180295
 20
10.2446153087
 30
0.0
 10
10.9890180324
 20
10.2454750197
 30
0.0
  0
SPLINE
  5
35D
100
AcDbEntity
  8
0
100
AcDbSpline
 62
7
  6
CONTINUOUS
 70
0
 71
3
 72
21
 73
17
 74
0
 42
0.0000001
 43
0.0000001
 44
0.0000000001
 40
0.0
 40
0.0
 40
0.0
 40
0.0
 40
0.061653237
 40
0.123329498
 40
0.1850515502
 40
0.2468416698
 40
0.3087213548
 40
0.370711108
 40
0.4328302426
 40
0.495096636
 40
0.5575265765
 40
0.6201345494
 40
0.682933126
 40
0.7459332432
 40
0.8725261314
 40
1.0
 40
1.0
 40
1.0
 40
1.0
 10
9.5019027751
 20
7.076359794
 30
0.0
 10
9.5034794819
 20
7.0778827863
 30
0.0
 10
9.506716069
 20
7.0808451595
 30
0.0
 10
9.5118037739
 20
7.0850221758
 30
0.0
 10
9.51711239
 20
7.0889231212
 30
0.0
 10
9.5226283779
 20
7.0925379789
 30
0.0
 10
9.5283379021
 20
7.0958576606
 30
0.0
 10
9.5342265312
 20
7.0988738471
 30
0.0
 10
9.5402794385
 20
7.1015789444
 30
0.0
 10
9.5464813837
 20
7.1039661099
 30
0.0
 10
9.5528167331
 20
7.1060293952
 30
0.0
 10
9.5592694818
 20
7.1077636121
 30
0.0
 10
9.5658235784
 20
7.1091643772
 30
0.0
 10
9.5746879314
 20
7.1105849433
 30
0.0
 10
9.585944253
 20
7.1115078793
 30
0.0
 10
9.5949936571
 20
7.1113312706
 30
0.0
 10
9.5995152677
 20
7.1110176959
 30
0.0
  0
SPLINE
  5
35E
100
AcDbEntity
  8
0
100
AcDbSpline
 62
7
  6
CONTINUOUS
 70
0
 71
3
 72
21
 73
17
 74
0
 42
0.0000001
 43
0.0000001
 44
0.0000000001
 40
0.0
 40
0.0
 40
0.0
 40
0.0
 40
0.061653237
 40
0.123329498
 40
0.1850515502
 40
0.2468416698
 40
0.3087213548
 40
0.370711108
 40
0.4328302426
 40
0.495096636
 40
0.5575265765
 40
0.6201345494
 40
0.682933126
 40
0.7459332432
 40
0.8725261314
 40
1.0
 40
1.0
 40
1.0
 40
1.0
 10
12.2412685764
 20
6.8863841304
 30
0.0
 10
12.2428452832
 20
6.8879071227
 30
0.0
 10
12.2460818703
 20
6.8908694959
 30
0.0
 10
12.2511695752
 20
6.8950465123
 30
0.0
 10
12.2564781913
 20
6.8989474576
 30
0.0
 10
12.2619941792
 20
6.9025623153
 30
0.0
 10
12.2677037034
 20
6.905881997
 30
0.0
 10
12.2735923324
 20
6.9088981835
 30
0.0
 10
12.2796452398
 20
6.9116032808
 30
0.0
 10
12.285847185
 20
6.9139904463
 30
0.0
 10
12.2921825343
 20
6.9160537316
 30
0.0
 10
12.2986352831
 20
6.9177879485
 30
0.0
 10
12.3051893797
 20
6.9191887137
 30
0.0
 10
12.3140537327
 20
6.9206092797
 30
0.0
 10
12.3253100543
 20
6.9215322157
 30
0.0
 10
12.3343594584
 20
6.9213556071
 30
0.0
 10
12.338881069
 20
6.9210420323
 30
0.0
  0
SPLINE
  5
35F
100
AcDbEntity
  8
0
100
AcDbSpline
 62
7
  6
CONTINUOUS
 70
0
 71
3
 72
21
 73
17
 74
0
 42
0.0000001
 43
0.0000001
 44
0.0000000001
 40
0.0
 40
0.0
 40
0.0
 40
0.0
 40
0.061653237
 40
0.123329498
 40
0.1850515502
 40
0.2468416698
 40
0.3087213548
 40
0.370711108
 40
0.4328302426
 40
0.495096636
 40
0.5575265765
 40
0.6201345494
 40
0.682933126
 40
0.7459332432
 40
0.8725261314
 40
1.0
 40
1.0
 40
1.0
 40
1.0
 10
12.2412685764
 20
9.6257499317
 30
0.0
 10
12.2428452832
 20
9.627272924
 30
0.0
 10
12.2460818703
 20
9.6302352972
 30
0.0
 10
12.2511695752
 20
9.6344123136
 30
0.0
 10
12.2564781913
 20
9.6383132589
 30
0.0
 10
12.2619941792
 20
9.6419281166
 30
0.0
 10
12.2677037034
 20
9.6452477983
 30
0.0
 10
12.2735923324
 20
9.6482639848
 30
0.0
 10
12.2796452398
 20
9.6509690821
 30
0.0
 10
12.285847185
 20
9.6533562476
 30
0.0
 10
12.2921825343
 20
9.6554195329
 30
0.0
 10
12.2986352831
 20
9.6571537498
 30
0.0
 10
12.3051893797
 20
9.658554515
 30
0.0
 10
12.3140537327
 20
9.659975081
 30
0.0
 10
12.3253100543
 20
9.660898017
 30
0.0
 10
12.3343594584
 20
9.6607214084
 30
0.0
 10
12.338881069
 20
9.6604078336
 30
0.0
  0
SPLINE
  5
360
100
AcDbEntity
  8
0
100
AcDbSpline
 62
7
  6
CONTINUOUS
 70
0
 71
3
 72
21
 73
17
 74
0
 42
0.0000001
 43
0.0000001
 44
0.0000000001
 40
0.0
 40
0.0
 40
0.0
 40
0.0
 40
0.061653237
 40
0.123329498
 40
0.1850515502
 40
0.2468416698
 40
0.3087213548
 40
0.370711108
 40
0.4328302426
 40
0.495096636
 40
0.5575265765
 40
0.6201345494
 40
0.682933126
 40
0.7459332432
 40
0.8725261314
 40
1.0
 40
1.0
 40
1.0
 40
1.0
 10
9.5019027751
 20
9.8157255953
 30
0.0
 10
9.5034794819
 20
9.8172485875
 30
0.0
 10
9.506716069
 20
9.8202109608
 30
0.0
 10
9.5118037739
 20
9.8243879771
 30
0.0
 10
9.51711239
 20
9.8282889225
 30
0.0
 10
9.5226283779
 20
9.8319037802
 30
0.0
 10
9.5283379021
 20
9.8352234619
 30
0.0
 10
9.5342265312
 20
9.8382396483
 30
0.0
 10
9.5402794385
 20
9.8409447457
 30
0.0
 10
9.5464813837
 20
9.8433319112
 30
0.0
 10
9.5528167331
 20
9.8453951965
 30
0.0
 10
9.5592694818
 20
9.8471294133
 30
0.0
 10
9.5658235784
 20
9.8485301785
 30
0.0
 10
9.5746879314
 20
9.8499507446
 30
0.0
 10
9.585944253
 20
9.8508736805
 30
0.0
 10
9.5949936571
 20
9.8506970719
 30
0.0
 10
9.5995152677
 20
9.8503834972
 30
0.0
  0
SPLINE
  5
361
100
AcDbEntity
  8
0
100
AcDbSpline
 62
7
  6
CONTINUOUS
 70
0
 71
3
 72
15
 73
11
 74
0
 42
0.0000001
 43
0.0000001
 44
0.0000000001
 40
0.0
 40
0.0
 40
0.0
 40
0.0
 40
0.1233171148
 40
0.2468171822
 40
0.3706750007
 40
0.4950496181
 40
0.6200773069
 40
0.7458672043
 40
0.8724928123
 40
1.0
 40
1.0
 40
1.0
 40
1.0
 10
11.3979714485
 20
7.653450466
 30
0.0
 10
11.3997217711
 20
7.6551411287
 30
0.0
 10
11.4034102871
 20
7.6583389788
 30
0.0
 10
11.4094302586
 20
7.6625177249
 30
0.0
 10
11.4158808629
 20
7.6660403316
 30
0.0
 10
11.4226960505
 20
7.6688706229
 30
0.0
 10
11.4298070853
 20
7.670980502
 30
0.0
 10
11.4371423394
 20
7.6723488533
 30
0.0
 10
11.4446269364
 20
7.6729623748
 30
0.0
 10
11.449650958
 20
7.6728643746
 30
0.0
 10
11.4521611245
 20
7.672690294
 30
0.0
  0
SPLINE
  5
362
100
AcDbEntity
  8
0
100
AcDbSpline
 62
7
  6
CONTINUOUS
 70
0
 71
3
 72
39
 73
35
 74
0
 42
0.0000001
 43
0.0000001
 44
0.0000000001
 40
0.0
 40
0.0
 40
0.0
 40
0.0
 40
0.0299424741
 40
0.0599093236
 40
0.0899243299
 40
0.1200101071
 40
0.1501875628
 40
0.1804754121
 40
0.2108897558
 40
0.2414437341
 40
0.2721472619
 40
0.3030068476
 40
0.3340255003
 40
0.3652027176
 40
0.3965345493
 40
0.4280137317
 40
0.459629888
 40
0.4913697842
 40
0.5232176352
 40
0.5551554541
 40
0.5871634377
 40
0.6192203778
 40
0.6513040905
 40
0.68339186
 40
0.715460889
 40
0.7474887514
 40
0.779453839
 40
0.8113357971
 40
0.8431159663
 40
0.8747776774
 40
0.9063069717
 40
0.937691796
 40
0.9689252179
 40
1.0
 40
1.0
 40
1.0
 40
1.0
 10
10.141398252
 20
7.7840167118
 30
0.0
 10
10.1428996201
 20
7.7854669158
 30
0.0
 10
10.146020401
 20
7.7882502974
 30
0.0
 10
10.1510203905
 20
7.7920421495
 30
0.0
 10
10.1563136261
 20
7.7954318203
 30
0.0
 10
10.1618705341
 20
7.7984002929
 30
0.0
 10
10.167660562
 20
7.8009313521
 30
0.0
 10
10.1736517565
 20
7.8030110844
 30
0.0
 10
10.1798111034
 20
7.8046281096
 30
0.0
 10
10.1861046699
 20
7.8057735969
 30
0.0
 10
10.192497805
 20
7.8064413195
 30
0.0
 10
10.198955327
 20
7.8066276896
 30
0.0
 10
10.2054417206
 20
7.8063317695
 30
0.0
 10
10.2119213308
 20
7.8055552687
 30
0.0
 10
10.2183585566
 20
7.8043025312
 30
0.0
 10
10.2247180444
 20
7.8025805089
 30
0.0
 10
10.2309648782
 20
7.8003987213
 30
0.0
 10
10.237064769
 20
7.7977692017
 30
0.0
 10
10.2429842392
 20
7.7947064299
 30
0.0
 10
10.2486908082
 20
7.7912272605
 30
0.0
 10
10.2541531667
 20
7.7873508237
 30
0.0
 10
10.2593413449
 20
7.7830984187
 30
0.0
 10
10.2642268751
 20
7.7784933987
 30
0.0
 10
10.2687829456
 20
7.7735610436
 30
0.0
 10
10.2729845457
 20
7.7683284232
 30
0.0
 10
10.2768086021
 20
7.7628242501
 30
0.0
 10
10.2802341021
 20
7.7570787249
 30
0.0
 10
10.2832422218
 20
7.7511233749
 30
0.0
 10
10.2858164065
 20
7.7449908832
 30
0.0
 10
10.2879425052
 20
7.7387148897
 30
0.0
 10
10.2896087386
 20
7.7323298964
 30
0.0
 10
10.2908059934
 20
7.7258707758
 30
0.0
 10
10.2915274867
 20
7.7193735388
 30
0.0
 10
10.2916891126
 20
7.7150281597
 30
0.0
 10
10.2916891126
 20
7.7128618325
 30
0.0
  0
SPLINE
  5
363
100
AcDbEntity
  8
0
100
AcDbSpline
 62
7
  6
CONTINUOUS
 70
0
 71
3
 72
39
 73
35
 74
0
 42
0.0000001
 43
0.0000001
 44
0.0000000001
 40
0.0
 40
0.0
 40
0.0
 40
0.0
 40
0.0299424741
 40
0.0599093236
 40
0.0899243299
 40
0.1200101071
 40
0.1501875628
 40
0.1804754121
 40
0.2108897558
 40
0.2414437341
 40
0.2721472619
 40
0.3030068476
 40
0.3340255003
 40
0.3652027176
 40
0.3965345493
 40
0.4280137317
 40
0.459629888
 40
0.4913697842
 40
0.5232176352
 40
0.5551554541
 40
0.5871634377
 40
0.6192203778
 40
0.6513040905
 40
0.68339186
 40
0.715460889
 40
0.7474887514
 40
0.779453839
 40
0.8113357971
 40
0.8431159663
 40
0.8747776774
 40
0.9063069717
 40
0.937691796
 40
0.9689252179
 40
1.0
 40
1.0
 40
1.0
 40
1.0
 10
10.141398252
 20
8.9614803463
 30
0.0
 10
10.1428996201
 20
8.9629305503
 30
0.0
 10
10.146020401
 20
8.9657139319
 30
0.0
 10
10.1510203905
 20
8.969505784
 30
0.0
 10
10.1563136261
 20
8.9728954548
 30
0.0
 10
10.1618705341
 20
8.9758639274
 30
0.0
 10
10.167660562
 20
8.9783949866
 30
0.0
 10
10.1736517565
 20
8.980474719
 30
0.0
 10
10.1798111034
 20
8.9820917441
 30
0.0
 10
10.1861046699
 20
8.9832372314
 30
0.0
 10
10.192497805
 20
8.983904954
 30
0.0
 10
10.198955327
 20
8.9840913241
 30
0.0
 10
10.2054417206
 20
8.9837954041
 30
0.0
 10
10.2119213308
 20
8.9830189032
 30
0.0
 10
10.2183585566
 20
8.9817661657
 30
0.0
 10
10.2247180444
 20
8.9800441435
 30
0.0
 10
10.2309648782
 20
8.9778623558
 30
0.0
 10
10.237064769
 20
8.9752328362
 30
0.0
 10
10.2429842392
 20
8.9721700644
 30
0.0
 10
10.2486908082
 20
8.9686908951
 30
0.0
 10
10.2541531667
 20
8.9648144582
 30
0.0
 10
10.2593413449
 20
8.9605620532
 30
0.0
 10
10.2642268751
 20
8.9559570332
 30
0.0
 10
10.2687829456
 20
8.9510246781
 30
0.0
 10
10.2729845457
 20
8.9457920577
 30
0.0
 10
10.2768086021
 20
8.9402878847
 30
0.0
 10
10.2802341021
 20
8.9345423594
 30
0.0
 10
10.2832422218
 20
8.9285870094
 30
0.0
 10
10.2858164065
 20
8.9224545177
 30
0.0
 10
10.2879425052
 20
8.9161785242
 30
0.0
 10
10.2896087386
 20
8.9097935309
 30
0.0
 10
10.2908059934
 20
8.9033344103
 30
0.0
 10
10.2915274867
 20
8.8968371733
 30
0.0
 10
10.2916891126
 20
8.8924917942
 30
0.0
 10
10.2916891126
 20
8.890325467
 30
0.0
  0
SPLINE
  5
364
100
AcDbEntity
  8
0
100
AcDbSpline
 62
7
  6
CONTINUOUS
 70
0
 71
3
 72
39
 73
35
 74
0
 42
0.0000001
 43
0.0000001
 44
0.0000000001
 40
0.0
 40
0.0
 40
0.0
 40
0.0
 40
0.0299424741
 40
0.0599093236
 40
0.0899243299
 40
0.1200101071
 40
0.1501875628
 40
0.1804754121
 40
0.2108897558
 40
0.2414437341
 40
0.2721472619
 40
0.3030068476
 40
0.3340255003
 40
0.3652027176
 40
0.3965345493
 40
0.4280137317
 40
0.459629888
 40
0.4913697842
 40
0.5232176352
 40
0.5551554541
 40
0.5871634377
 40
0.6192203778
 40
0.6513040905
 40
0.68339186
 40
0.715460889
 40
0.7474887514
 40
0.779453839
 40
0.8113357971
 40
0.8431159663
 40
0.8747776774
 40
0.9063069717
 40
0.937691796
 40
0.9689252179
 40
1.0
 40
1.0
 40
1.0
 40
1.0
 10
11.6810840353
 20
8.8856124655
 30
0.0
 10
11.6825854034
 20
8.8870626695
 30
0.0
 10
11.6857061843
 20
8.8898460511
 30
0.0
 10
11.6907061738
 20
8.8936379032
 30
0.0
 10
11.6959994094
 20
8.897027574
 30
0.0
 10
11.7015563173
 20
8.8999960466
 30
0.0
 10
11.7073463453
 20
8.9025271058
 30
0.0
 10
11.7133375397
 20
8.9046068381
 30
0.0
 10
11.7194968866
 20
8.9062238633
 30
0.0
 10
11.7257904532
 20
8.9073693506
 30
0.0
 10
11.7321835883
 20
8.9080370732
 30
0.0
 10
11.7386411103
 20
8.9082234433
 30
0.0
 10
11.7451275039
 20
8.9079275232
 30
0.0
 10
11.751607114
 20
8.9071510224
 30
0.0
 10
11.7580443399
 20
8.9058982849
 30
0.0
 10
11.7644038276
 20
8.9041762626
 30
0.0
 10
11.7706506614
 20
8.901994475
 30
0.0
 10
11.7767505523
 20
8.8993649554
 30
0.0
 10
11.7826700225
 20
8.8963021836
 30
0.0
 10
11.7883765915
 20
8.8928230142
 30
0.0
 10
11.7938389499
 20
8.8889465774
 30
0.0
 10
11.7990271281
 20
8.8846941724
 30
0.0
 10
11.8039126584
 20
8.8800891524
 30
0.0
 10
11.8084687289
 20
8.8751567973
 30
0.0
 10
11.812670329
 20
8.8699241768
 30
0.0
 10
11.8164943853
 20
8.8644200038
 30
0.0
 10
11.8199198854
 20
8.8586744786
 30
0.0
 10
11.822928005
 20
8.8527191286
 30
0.0
 10
11.8255021898
 20
8.8465866368
 30
0.0
 10
11.8276282885
 20
8.8403106434
 30
0.0
 10
11.8292945218
 20
8.8339256501
 30
0.0
 10
11.8304917767
 20
8.8274665295
 30
0.0
 10
11.83121327
 20
8.8209692924
 30
0.0
 10
11.8313748958
 20
8.8166239134
 30
0.0
 10
11.8313748958
 20
8.8144575862
 30
0.0
  0
SPLINE
  5
365
100
AcDbEntity
  8
0
100
AcDbSpline
 62
7
  6
CONTINUOUS
 70
0
 71
3
 72
39
 73
35
 74
0
 42
0.0000001
 43
0.0000001
 44
0.0000000001
 40
0.0
 40
0.0
 40
0.0
 40
0.0
 40
0.0299424741
 40
0.0599093236
 40
0.0899243299
 40
0.1200101071
 40
0.1501875628
 40
0.1804754121
 40
0.2108897558
 40
0.2414437341
 40
0.2721472619
 40
0.3030068476
 40
0.3340255003
 40
0.3652027176
 40
0.3965345493
 40
0.4280137317
 40
0.459629888
 40
0.4913697842
 40
0.5232176352
 40
0.5551554541
 40
0.5871634377
 40
0.6192203778
 40
0.6513040905
 40
0.68339186
 40
0.715460889
 40
0.7474887514
 40
0.779453839
 40
0.8113357971
 40
0.8431159663
 40
0.8747776774
 40
0.9063069717
 40
0.937691796
 40
0.9689252179
 40
1.0
 40
1.0
 40
1.0
 40
1.0
 10
11.6810840353
 20
7.6472954202
 30
0.0
 10
11.6825854034
 20
7.6487456242
 30
0.0
 10
11.6857061843
 20
7.6515290058
 30
0.0
 10
11.6907061738
 20
7.6553208579
 30
0.0
 10
11.6959994094
 20
7.6587105287
 30
0.0
 10
11.7015563173
 20
7.6616790013
 30
0.0
 10
11.7073463453
 20
7.6642100605
 30
0.0
 10
11.7133375397
 20
7.6662897928
 30
0.0
 10
11.7194968866
 20
7.667906818
 30
0.0
 10
11.7257904532
 20
7.6690523053
 30
0.0
 10
11.7321835883
 20
7.6697200279
 30
0.0
 10
11.7386411103
 20
7.669906398
 30
0.0
 10
11.7451275039
 20
7.6696104779
 30
0.0
 10
11.751607114
 20
7.6688339771
 30
0.0
 10
11.7580443399
 20
7.6675812396
 30
0.0
 10
11.7644038276
 20
7.6658592173
 30
0.0
 10
11.7706506614
 20
7.6636774297
 30
0.0
 10
11.7767505523
 20
7.6610479101
 30
0.0
 10
11.7826700225
 20
7.6579851383
 30
0.0
 10
11.7883765915
 20
7.6545059689
 30
0.0
 10
11.7938389499
 20
7.650629532
 30
0.0
 10
11.7990271281
 20
7.646377127
 30
0.0
 10
11.8039126584
 20
7.641772107
 30
0.0
 10
11.8084687289
 20
7.636839752
 30
0.0
 10
11.812670329
 20
7.6316071315
 30
0.0
 10
11.8164943853
 20
7.6261029585
 30
0.0
 10
11.8199198854
 20
7.6203574332
 30
0.0
 10
11.822928005
 20
7.6144020833
 30
0.0
 10
11.8255021898
 20
7.6082695915
 30
0.0
 10
11.8276282885
 20
7.6019935981
 30
0.0
 10
11.8292945218
 20
7.5956086048
 30
0.0
 10
11.8304917767
 20
7.5891494842
 30
0.0
 10
11.83121327
 20
7.5826522471
 30
0.0
 10
11.8313748958
 20
7.578306868
 30
0.0
 10
11.8313748958
 20
7.5761405409
 30
0.0
  0
SPLINE
  5
366
100
AcDbEntity
  8
0
100
AcDbSpline
 62
7
  6
CONTINUOUS
 70
0
 71
3
 72
16
 73
12
 74
0
 42
0.0000001
 43
0.0000001
 44
0.0000000001
 40
0.0
 40
0.0
 40
0.0
 40
0.0
 40
0.1233044511
 40
0.2475458716
 40
0.3724565108
 40
0.4977833677
 40
0.6233166276
 40
0.7489058319
 40
0.874463995
 40
0.9372394717
 40
1.0
 40
1.0
 40
1.0
 40
1.0
 10
11.1075007102
 20
7.9105630524
 30
0.0
 10
11.1034777908
 20
7.9111774702
 30
0.0
 10
11.0954534489
 20
7.9127835142
 30
0.0
 10
11.0836535671
 20
7.9162861619
 30
0.0
 10
11.072158106
 20
7.9208732022
 30
0.0
 10
11.0610939883
 20
7.9265152152
 30
0.0
 10
11.0505832421
 20
7.9331747528
 30
0.0
 10
11.040744473
 20
7.9408046456
 30
0.0
 10
11.0331959183
 20
7.9479279618
 30
0.0
 10
11.0276039594
 20
7.9540476866
 30
0.0
 10
11.0249634027
 20
7.9572432241
 30
0.0
 10
11.0236844322
 20
7.9588725736
 30
0.0
  0
SPLINE
  5
367
100
AcDbEntity
  8
0
100
AcDbSpline
 62
7
  6
CONTINUOUS
 70
0
 71
3
 72
41
 73
37
 74
0
 42
0.0000001
 43
0.0000001
 44
0.0000000001
 40
0.0
 40
0.0
 40
0.0
 40
0.0
 40
0.0301994644
 40
0.060325634
 40
0.0904080169
 40
0.1204773118
 40
0.150564451
 40
0.1806996511
 40
0.2109115108
 40
0.2412261871
 40
0.2716666777
 40
0.3022522261
 40
0.3329978616
 40
0.3639140763
 40
0.3950066387
 40
0.4262765347
 40
0.4577200292
 40
0.489328836
 40
0.5210903859
 40
0.5529881816
 40
0.5850022305
 40
0.6171095462
 40
0.6492847106
 40
0.6815004885
 40
0.7137284869
 40
0.7298411008
 40
0.745945958
 40
0.7781120905
 40
0.8102053877
 40
0.8421999676
 40
0.8740724011
 40
0.9058023228
 40
0.9373732941
 40
0.9530981104
 40
0.9687793064
 40
1.0
 40
1.0
 40
1.0
 40
1.0
 10
10.9066419791
 20
7.9023700349
 30
0.0
 10
10.9081984629
 20
7.9052365025
 30
0.0
 10
10.9115634445
 20
7.9108278688
 30
0.0
 10
10.9173310246
 20
7.9187226816
 30
0.0
 10
10.9237712564
 20
7.926061431
 30
0.0
 10
10.930837536
 20
7.9327930425
 30
0.0
 10
10.9384797052
 20
7.9388721193
 30
0.0
 10
10.9466437284
 20
7.9442577681
 30
0.0
 10
10.9552723375
 20
7.9489141831
 30
0.0
 10
10.964305422
 20
7.9528106974
 30
0.0
 10
10.9736804807
 20
7.9559219205
 30
0.0
 10
10.9833330452
 20
7.9582278063
 30
0.0
 10
10.9931970963
 20
7.9597136978
 30
0.0
 10
11.003205466
 20
7.9603703446
 30
0.0
 10
11.0132902277
 20
7.960193903
 30
0.0
 10
11.0233830778
 20
7.9591859202
 30
0.0
 10
11.0334157105
 20
7.9573533059
 30
0.0
 10
11.0433201914
 20
7.9547082914
 30
0.0
 10
11.053029332
 20
7.951268375
 30
0.0
 10
11.062477067
 20
7.947056256
 30
0.0
 10
11.0715988475
 20
7.9420997391
 30
0.0
 10
11.0803320055
 20
7.9364316613
 30
0.0
 10
11.0886162658
 20
7.9300896277
 30
0.0
 10
11.0963937467
 20
7.9231163344
 30
0.0
 10
11.1024088236
 20
7.9168165311
 30
0.0
 10
11.1069150886
 20
7.9115094367
 30
0.0
 10
11.1112072781
 20
7.9060362568
 30
0.0
 10
11.1161606372
 20
7.8988966666
 30
0.0
 10
11.1214043828
 20
7.8899076101
 30
0.0
 10
11.1259087983
 20
7.8805609699
 30
0.0
 10
11.1296408637
 20
7.8709219014
 30
0.0
 10
11.1325732517
 20
7.8610580989
 30
0.0
 10
11.1343350162
 20
7.8526959154
 30
0.0
 10
11.1353240809
 20
7.8459643994
 30
0.0
 10
11.1360301004
 20
7.8392357835
 30
0.0
 10
11.1362442292
 20
7.8341667301
 30
0.0
 10
11.1362442292
 20
7.8307946384
 30
0.0
  0
SPLINE
  5
368
100
AcDbEntity
  8
0
100
AcDbSpline
 62
7
  6
CONTINUOUS
 70
0
 71
3
 72
21
 73
17
 74
0
 42
0.0000001
 43
0.0000001
 44
0.0000000001
 40
0.0
 40
0.0
 40
0.0
 40
0.0
 40
0.1283774316
 40
0.1922531191
 40
0.2558841793
 40
0.3822957305
 40
0.4451157795
 40
0.5076513418
 40
0.5699047132
 40
0.6318864146
 40
0.6936168527
 40
0.7551276966
 40
0.816462318
 40
0.8776757768
 40
0.9388312374
 40
1.0
 40
1.0
 40
1.0
 40
1.0
 10
10.5380454725
 20
8.2729820604
 30
0.0
 10
10.536594285
 20
8.2785118639
 30
0.0
 10
10.5348240239
 20
8.2869085728
 30
0.0
 10
10.5333727275
 20
8.2982158365
 30
0.0
 10
10.5325615244
 20
8.3094989052
 30
0.0
 10
10.5327436254
 20
8.3207926707
 30
0.0
 10
10.5340221665
 20
8.331938491
 30
0.0
 10
10.5355453653
 20
8.3401607026
 30
0.0
 10
10.5376538886
 20
8.3482144413
 30
0.0
 10
10.5403634196
 20
8.3560494039
 30
0.0
 10
10.5436845108
 20
8.3636101597
 30
0.0
 10
10.5476208701
 20
8.3708378033
 30
0.0
 10
10.5521674948
 20
8.3776712065
 30
0.0
 10
10.5573095485
 20
8.3840493528
 30
0.0
 10
10.5630201564
 20
8.3899131909
 30
0.0
 10
10.5671813489
 20
8.3934438855
 30
0.0
 10
10.5693399452
 20
8.3951054637
 30
0.0
  0
SPLINE
  5
369
100
AcDbEntity
  8
0
100
AcDbSpline
 62
7
  6
CONTINUOUS
 70
0
 71
3
 72
20
 73
16
 74
0
 42
0.0000001
 43
0.0000001
 44
0.0000000001
 40
0.0
 40
0.0
 40
0.0
 40
0.0
 40
0.126869025
 40
0.2536169632
 40
0.3800447221
 40
0.443094007
 40
0.5059786457
 40
0.5686685998
 40
0.6311343512
 40
0.6933483654
 40
0.7552864353
 40
0.8169297566
 40
0.8782645769
 40
0.9392878508
 40
1.0
 40
1.0
 40
1.0
 40
1.0
 10
11.2548324128
 20
8.1520143817
 30
0.0
 10
11.2512248049
 20
8.1555184649
 30
0.0
 10
11.2443259932
 20
8.1628555783
 30
0.0
 10
11.2350990352
 20
8.1747943127
 30
0.0
 10
11.2284885983
 20
8.185477273
 30
0.0
 10
11.2239570823
 20
8.1944012627
 30
0.0
 10
11.2209647602
 20
8.2012587182
 30
0.0
 10
11.2184024825
 20
8.2082637143
 30
0.0
 10
11.2162951926
 20
8.2153914704
 30
0.0
 10
11.2146663971
 20
8.2226133568
 30
0.0
 10
11.2135370363
 20
8.2298973839
 30
0.0
 10
11.2129246929
 20
8.2372083024
 30
0.0
 10
11.2128425084
 20
8.2445085186
 30
0.0
 10
11.2132985189
 20
8.2517577758
 30
0.0
 10
11.2139646493
 20
8.2565428974
 30
0.0
 10
11.2143875852
 20
8.2589121551
 30
0.0
  0
SPLINE
  5
36A
100
AcDbEntity
  8
0
100
AcDbSpline
 62
7
  6
CONTINUOUS
 70
0
 71
3
 72
80
 73
76
 74
0
 42
0.0000001
 43
0.0000001
 44
0.0000000001
 40
0.0
 40
0.0
 40
0.0
 40
0.0
 40
0.0027164327
 40
0.0054532447
 40
0.0082303176
 40
0.0110666212
 40
0.0139798388
 40
0.016986154
 40
0.0201001347
 40
0.0233346582
 40
0.0267010284
 40
0.0302089968
 40
0.0338669183
 40
0.0376819076
 40
0.0416598906
 40
0.0458058349
 40
0.0501237838
 40
0.0546169826
 40
0.0592880207
 40
0.0641388059
 40
0.0691707482
 40
0.0743847477
 40
0.0853596785
 40
0.0970635549
 40
0.1094903305
 40
0.1226296146
 40
0.1364673135
 40
0.1509861535
 40
0.1661660759
 40
0.1819845508
 40
0.1984168195
 40
0.2154361185
 40
0.2330138792
 40
0.2511198904
 40
0.2697224401
 40
0.2887884373
 40
0.3082835515
 40
0.3281723331
 40
0.348418324
 40
0.368984158
 40
0.3898316649
 40
0.4109219833
 40
0.4536720365
 40
0.4969140898
 40
0.5403224212
 40
0.5835697178
 40
0.6263302119
 40
0.6682828124
 40
0.6888582723
 40
0.7091151075
 40
0.7290159233
 40
0.74852422
 40
0.7676045125
 40
0.7862224423
 40
0.804344885
 40
0.8219400731
 40
0.8389777322
 40
0.8554292445
 40
0.8712678001
 40
0.8864685754
 40
0.9010089485
 40
0.9148687687
 40
0.92803068
 40
0.940480496
 40
0.9522076877
 40
0.9577984663
 40
0.9632066952
 40
0.9684323943
 40
0.9734759977
 40
0.9783383604
 40
0.9830208115
 40
0.987525367
 40
0.9918546057
 40
0.996011597
 40
1.0
 40
1.0
 40
1.0
 40
1.0
 10
12.8886032637
 20
7.4703410248
 30
0.0
 10
12.8877997893
 20
7.4703967503
 30
0.0
 10
12.8861909269
 20
7.4705813469
 30
0.0
 10
12.8837981252
 20
7.4710753343
 30
0.0
 10
12.8814233965
 20
7.4717862627
 30
0.0
 10
12.8790684546
 20
7.4727135212
 30
0.0
 10
12.8767345038
 20
7.4738562372
 30
0.0
 10
12.8744227308
 20
7.4752135145
 30
0.0
 10
12.8721342367
 20
7.4767844339
 30
0.0
 10
12.8698699869
 20
7.478567932
 30
0.0
 10
12.8676310082
 20
7.4805630272
 30
0.0
 10
12.8654182413
 20
7.4827685974
 30
0.0
 10
12.8632326407
 20
7.4851834884
 30
0.0
 10
12.86107522
 20
7.487806507
 30
0.0
 10
12.8589468996
 20
7.4906363053
 30
0.0
 10
12.8568487075
 20
7.4936715161
 30
0.0
 10
12.8547816134
 20
7.4969106326
 30
0.0
 10
12.8527465824
 20
7.5003520529
 30
0.0
 10
12.8507446417
 20
7.5039941035
 30
0.0
 10
12.8487767212
 20
7.5078349615
 30
0.0
 10
12.8468437939
 20
7.5118727493
 30
0.0
 10
12.8442704529
 20
7.517614898
 30
0.0
 10
12.8411585147
 20
7.5252803028
 30
0.0
 10
12.8376397528
 20
7.5350786292
 30
0.0
 10
12.8342824191
 20
7.5456088337
 30
0.0
 10
12.8310932703
 20
7.5568499525
 30
0.0
 10
12.8280787376
 20
7.5687797671
 30
0.0
 10
12.8252449346
 20
7.5813745184
 30
0.0
 10
12.8225976194
 20
7.5946090819
 30
0.0
 10
12.8201421828
 20
7.6084569957
 30
0.0
 10
12.8178836201
 20
7.6228905274
 30
0.0
 10
12.8158265238
 20
7.6378807365
 30
0.0
 10
12.8139750814
 20
7.653397546
 30
0.0
 10
12.8123330634
 20
7.6694098079
 30
0.0
 10
12.8109038181
 20
7.6858853638
 30
0.0
 10
12.8096902508
 20
7.7027911095
 30
0.0
 10
12.8086948313
 20
7.7200930673
 30
0.0
 10
12.8079195898
 20
7.7377564591
 30
0.0
 10
12.8073661113
 20
7.7557457788
 30
0.0
 10
12.8070355373
 20
7.7740248488
 30
0.0
 10
12.8069285247
 20
7.7925569411
 30
0.0
 10
12.807085031
 20
7.8176663514
 30
0.0
 10
12.8078443742
 20
7.8494096118
 30
0.0
 10
12.809633936
 20
7.8877373952
 30
0.0
 10
12.8122918188
 20
7.9261626247
 30
0.0
 10
12.8157966391
 20
7.9643765412
 30
0.0
 10
12.8201201448
 20
8.00207208
 30
0.0
 10
12.8244032224
 20
8.0329975605
 30
0.0
 10
12.8282206916
 20
8.0572446091
 30
0.0
 10
12.8312463663
 20
8.0749960838
 30
0.0
 10
12.8344468687
 20
8.0923952557
 30
0.0
 10
12.8378157739
 20
8.1094071716
 30
0.0
 10
12.8413462728
 20
8.1259976332
 30
0.0
 10
12.8450312357
 20
8.1421333084
 30
0.0
 10
12.8488632201
 20
8.1577817837
 30
0.0
 10
12.8528344865
 20
8.1729116323
 30
0.0
 10
12.8569370163
 20
8.187492483
 30
0.0
 10
12.8611625142
 20
8.2014950909
 30
0.0
 10
12.8655024384
 20
8.2148913971
 30
0.0
 10
12.8699480187
 20
8.2276545822
 30
0.0
 10
12.874490279
 20
8.2397591349
 30
0.0
 10
12.8791200541
 20
8.2511808953
 30
0.0
 10
12.8838280174
 20
8.2618972069
 30
0.0
 10
12.8886046967
 20
8.271886675
 30
0.0
 10
12.892697187
 20
8.2797091961
 30
0.0
 10
12.8960049679
 20
8.2855801023
 30
0.0
 10
12.8984574224
 20
8.2897190133
 30
0.0
 10
12.9009198864
 20
8.2936619826
 30
0.0
 10
12.9033911408
 20
8.2974070537
 30
0.0
 10
12.9058699285
 20
8.3009523725
 30
0.0
 10
12.9083550843
 20
8.3042961752
 30
0.0
 10
12.9108453815
 20
8.3074368623
 30
0.0
 10
12.9133396785
 20
8.3103728787
 30
0.0
 10
12.9158366057
 20
8.3131026311
 30
0.0
 10
12.9175367664
 20
8.3148190104
 30
0.0
 10
12.9183873104
 20
8.3156405729
 30
0.0
  0
SPLINE
  5
36B
100
AcDbEntity
  8
0
100
AcDbSpline
 62
7
  6
CONTINUOUS
 70
0
 71
3
 72
39
 73
35
 74
0
 42
0.0000001
 43
0.0000001
 44
0.0000000001
 40
0.0
 40
0.0
 40
0.0
 40
0.0
 40
0.0311160054
 40
0.0620232808
 40
0.0927351539
 40
0.1232711756
 40
0.1536587326
 40
0.1839312105
 40
0.2141268386
 40
0.2442870981
 40
0.2744549747
 40
0.3046731306
 40
0.33498209
 40
0.365418544
 40
0.3960138629
 40
0.4267928807
 40
0.457772997
 40
0.4889636213
 40
0.5203659688
 40
0.551973177
 40
0.5837707173
 40
0.6157370643
 40
0.6478445906
 40
0.6800606397
 40
0.7123487305
 40
0.7446698622
 40
0.7769838838
 40
0.8092508928
 40
0.841432625
 40
0.8734938027
 40
0.9054033951
 40
0.9371359477
 40
0.9686717614
 40
1.0
 40
1.0
 40
1.0
 40
1.0
 10
11.8448099298
 20
7.5701177879
 30
0.0
 10
11.8448099298
 20
7.5666696293
 30
0.0
 10
11.8444733031
 20
7.5597914535
 30
0.0
 10
11.8429508664
 20
7.5496116999
 30
0.0
 10
11.840427038
 20
7.5396978713
 30
0.0
 10
11.8369256755
 20
7.5301469469
 30
0.0
 10
11.8324802834
 20
7.521050976
 30
0.0
 10
11.8271335259
 20
7.512498085
 30
0.0
 10
11.8209369352
 20
7.5045710754
 30
0.0
 10
11.813950357
 20
7.4973467321
 30
0.0
 10
11.8062413748
 20
7.4908949945
 30
0.0
 10
11.7978846236
 20
7.4852782597
 30
0.0
 10
11.7889610535
 20
7.4805507102
 30
0.0
 10
11.7795570684
 20
7.4767578143
 30
0.0
 10
11.7697636439
 20
7.4739359096
 30
0.0
 10
11.7596754159
 20
7.4721118847
 30
0.0
 10
11.7493897508
 20
7.4713029403
 30
0.0
 10
11.7390057928
 20
7.4715164393
 30
0.0
 10
11.7286235053
 20
7.4727499217
 30
0.0
 10
11.7183427269
 20
7.4749911518
 30
0.0
 10
11.7082622372
 20
7.4782182702
 30
0.0
 10
11.6984788187
 20
7.4823999769
 30
0.0
 10
11.6890863505
 20
7.4874958682
 30
0.0
 10
11.6801749383
 20
7.4934568432
 30
0.0
 10
11.6718300732
 20
7.5002255695
 30
0.0
 10
11.664131828
 20
7.5077370192
 30
0.0
 10
11.6571540751
 20
7.5159190587
 30
0.0
 10
11.6509638218
 20
7.5246931699
 30
0.0
 10
11.6456205735
 20
7.5339751698
 30
0.0
 10
11.6411757867
 20
7.5436760448
 30
0.0
 10
11.6376723181
 20
7.5537026204
 30
0.0
 10
11.6351441103
 20
7.5639589723
 30
0.0
 10
11.6336156553
 20
7.5743453159
 30
0.0
 10
11.6332721613
 20
7.5813163045
 30
0.0
 10
11.6332721613
 20
7.584787982
 30
0.0
  0
SPLINE
  5
36C
100
AcDbEntity
  8
0
100
AcDbSpline
 62
7
  6
CONTINUOUS
 70
0
 71
3
 72
18
 73
14
 74
0
 42
0.0000001
 43
0.0000001
 44
0.0000000001
 40
0.0
 40
0.0
 40
0.0
 40
0.0
 40
0.1504680185
 40
0.2917144324
 40
0.4244425615
 40
0.4879099171
 40
0.5496094205
 40
0.6682625585
 40
0.7817882768
 40
0.8371379945
 40
0.8918078237
 40
0.9460192726
 40
1.0
 40
1.0
 40
1.0
 40
1.0
 10
12.9183873104
 20
7.4839783872
 30
0.0
 10
12.9171702416
 20
7.482802789
 30
0.0
 10
12.9147377539
 20
7.4805970242
 30
0.0
 10
12.9109713055
 20
7.4776575725
 30
0.0
 10
12.907789896
 20
7.4755786401
 30
0.0
 10
12.9052530049
 20
7.4741708517
 30
0.0
 10
12.9027907462
 20
7.4729622247
 30
0.0
 10
12.8997121433
 20
7.4717409484
 30
0.0
 10
12.8965787761
 20
7.4709075465
 30
0.0
 10
12.8940970564
 20
7.4704970051
 30
0.0
 10
12.8922577593
 20
7.4703148001
 30
0.0
 10
12.8904259025
 20
7.4702559649
 30
0.0
 10
12.8892088625
 20
7.4702990231
 30
0.0
 10
12.8886032637
 20
7.4703410248
 30
0.0
  0
SPLINE
  5
36D
100
AcDbEntity
  8
0
100
AcDbSpline
 62
7
  6
CONTINUOUS
 70
0
 71
3
 72
41
 73
37
 74
0
 42
0.0000001
 43
0.0000001
 44
0.0000000001
 40
0.0
 40
0.0
 40
0.0
 40
0.0
 40
0.0311444983
 40
0.062442467
 40
0.093887251
 40
0.1254695609
 40
0.157177086
 40
0.1889950997
 40
0.2209066479
 40
0.2528929497
 40
0.284933762
 40
0.3170077852
 40
0.3490930781
 40
0.3811674822
 40
0.4132090489
 40
0.445196464
 40
0.4771094635
 40
0.5089292351
 40
0.540638799
 40
0.5722233621
 40
0.6036706378
 40
0.6349711269
 40
0.6661183495
 40
0.6971090237
 40
0.7279431823
 40
0.7586242225
 40
0.7891588828
 40
0.8195571428
 40
0.8498320452
 40
0.86493089
 40
0.8800050502
 40
0.9100832578
 40
0.9400926753
 40
0.9550812784
 40
0.9700610371
 40
1.0
 40
1.0
 40
1.0
 40
1.0
 10
12.338881069
 20
6.649616859
 30
0.0
 10
12.3355671214
 20
6.6498466821
 30
0.0
 10
12.3289372534
 20
6.6505500349
 30
0.0
 10
12.3190728366
 20
6.6523217659
 30
0.0
 10
12.3093140621
 20
6.6548034692
 30
0.0
 10
12.2997136685
 20
6.6579817442
 30
0.0
 10
12.2903226337
 20
6.6618395906
 30
0.0
 10
12.2811910587
 20
6.6663563564
 30
0.0
 10
12.2723675875
 20
6.6715079104
 30
0.0
 10
12.2638992365
 20
6.6772667447
 30
0.0
 10
12.2558311248
 20
6.6836021312
 30
0.0
 10
12.2482062424
 20
6.6904802806
 30
0.0
 10
12.2410652222
 20
6.6978645223
 30
0.0
 10
12.2344461262
 20
6.705715498
 30
0.0
 10
12.2283842442
 20
6.7139913692
 30
0.0
 10
12.2229119076
 20
6.7226480377
 30
0.0
 10
12.2180583186
 20
6.7316393787
 30
0.0
 10
12.2138493949
 20
6.740917483
 30
0.0
 10
12.2103076326
 20
6.7504329093
 30
0.0
 10
12.2074519859
 20
6.7601349446
 30
0.0
 10
12.2052977649
 20
6.7699718705
 30
0.0
 10
12.2038565531
 20
6.7798912351
 30
0.0
 10
12.2031361426
 20
6.7898401299
 30
0.0
 10
12.2031404885
 20
6.7997654653
 30
0.0
 10
12.203869688
 20
6.8096142619
 30
0.0
 10
12.2053199552
 20
6.8193338921
 30
0.0
 10
12.2074837078
 20
6.8288725023
 30
0.0
 10
12.2103493318
 20
6.838178765
 30
0.0
 10
12.2133128819
 20
6.8457069878
 30
0.0
 10
12.2160172651
 20
6.8515613543
 30
0.0
 10
12.2189358372
 20
6.8572884208
 30
0.0
 10
12.2229880965
 20
6.8642156178
 30
0.0
 10
12.2275615569
 20
6.8707992974
 30
0.0
 10
12.2315136947
 20
6.8758317065
 30
0.0
 10
12.2356543753
 20
6.8806998513
 30
0.0
 10
12.2389717715
 20
6.884165572
 30
0.0
 10
12.2412685764
 20
6.8863841304
 30
0.0
  0
SPLINE
  5
36E
100
AcDbEntity
  8
0
100
AcDbSpline
 62
7
  6
CONTINUOUS
 70
0
 71
3
 72
52
 73
48
 74
0
 42
0.0000001
 43
0.0000001
 44
0.0000000001
 40
0.0
 40
0.0
 40
0.0
 40
0.0
 40
0.0055575409
 40
0.0111779669
 40
0.0169218944
 40
0.0228457784
 40
0.0290005385
 40
0.0354309383
 40
0.0421753664
 40
0.0492662129
 40
0.0567302428
 40
0.0645893498
 40
0.0728610114
 40
0.0815590518
 40
0.0906939685
 40
0.1002735876
 40
0.1103032329
 40
0.1207862668
 40
0.1317241336
 40
0.1431168099
 40
0.1549627623
 40
0.1672593293
 40
0.180002627
 40
0.1931878784
 40
0.2068092924
 40
0.2208603496
 40
0.2353336718
 40
0.2502212706
 40
0.2812030867
 40
0.3137301822
 40
0.3477175443
 40
0.3830726942
 40
0.4196965467
 40
0.4574841626
 40
0.4963254275
 40
0.5361056779
 40
0.5767062924
 40
0.6180052566
 40
0.6598777114
 40
0.7021964885
 40
0.7448326391
 40
0.7876559545
 40
0.8305354925
 40
0.8733400712
 40
0.9159388564
 40
0.9582016962
 40
1.0
 40
1.0
 40
1.0
 40
1.0
 10
11.5373488764
 20
10.1359764294
 30
0.0
 10
11.5373488714
 20
10.1371514876
 30
0.0
 10
11.537480398
 20
10.1395169476
 30
0.0
 10
11.5380708532
 20
10.1430525095
 30
0.0
 10
11.5390534199
 20
10.1465801941
 30
0.0
 10
11.5404262602
 20
10.1500958878
 30
0.0
 10
11.5421870427
 20
10.1535967717
 30
0.0
 10
11.5443334684
 20
10.1570801233
 30
0.0
 10
11.5468630269
 20
10.1605435987
 30
0.0
 10
11.549773302
 20
10.1639848101
 30
0.0
 10
11.5530616295
 20
10.1674015011
 30
0.0
 10
11.5567253115
 20
10.1707912314
 30
0.0
 10
11.5607613143
 20
10.1741516485
 30
0.0
 10
11.5651664591
 20
10.1774801962
 30
0.0
 10
11.5699371913
 20
10.1807744305
 30
0.0
 10
11.5750697508
 20
10.184031727
 30
0.0
 10
11.5805600014
 20
10.1872496031
 30
0.0
 10
11.5864035734
 20
10.1904254236
 30
0.0
 10
11.5925957385
 20
10.193556714
 30
0.0
 10
11.5991315233
 20
10.1966408721
 30
0.0
 10
11.6060056184
 20
10.1996754634
 30
0.0
 10
11.6132124655
 20
10.2026579481
 30
0.0
 10
11.6207461933
 20
10.2055859536
 30
0.0
 10
11.6286006817
 20
10.2084570219
 30
0.0
 10
11.6367695203
 20
10.211268859
 30
0.0
 10
11.64524605
 20
10.214019097
 30
0.0
 10
11.6540233544
 20
10.2167055545
 30
0.0
 10
11.6662811639
 20
10.2202464971
 30
0.0
 10
11.6823083657
 20
10.2244852149
 30
0.0
 10
11.7023739301
 20
10.2292185126
 30
0.0
 10
11.7234543575
 20
10.2336481491
 30
0.0
 10
11.7454806864
 20
10.2377594753
 30
0.0
 10
11.7683809961
 20
10.2415388729
 30
0.0
 10
11.7920803872
 20
10.2449738361
 30
0.0
 10
11.8165013181
 20
10.248053002
 30
0.0
 10
11.841563847
 20
10.2507661896
 30
0.0
 10
11.8671859072
 20
10.2531044316
 30
0.0
 10
11.8932835806
 20
10.2550600029
 30
0.0
 10
11.9197713765
 20
10.2566264441
 30
0.0
 10
11.9465625163
 20
10.2577985829
 30
0.0
 10
11.9735692194
 20
10.2585725492
 30
0.0
 10
12.0007029945
 20
10.2589457884
 30
0.0
 10
12.0278749304
 20
10.2589170677
 30
0.0
 10
12.0549959902
 20
10.2584864838
 30
0.0
 10
12.0819773149
 20
10.2576554538
 30
0.0
 10
12.1087304251
 20
10.2564267303
 30
0.0
 10
12.1264713667
 20
10.255338029
 30
0.0
 10
12.1352878116
 20
10.2547266065
 30
0.0
  0
SPLINE
  5
36F
100
AcDbEntity
  8
0
100
AcDbSpline
 62
7
  6
CONTINUOUS
 70
0
 71
3
 72
51
 73
47
 74
0
 42
0.0000001
 43
0.0000001
 44
0.0000000001
 40
0.0
 40
0.0
 40
0.0
 40
0.0
 40
0.00564952
 40
0.0114797742
 40
0.0175360016
 40
0.0238578826
 40
0.0304796382
 40
0.0374301304
 40
0.0447334784
 40
0.0524093882
 40
0.0604738688
 40
0.0689395353
 40
0.0778162371
 40
0.0871112684
 40
0.0968298597
 40
0.1069753122
 40
0.1175493578
 40
0.1285522507
 40
0.1399830145
 40
0.1518395215
 40
0.1641186434
 40
0.1768163401
 40
0.1899277291
 40
0.2034471945
 40
0.2173683893
 40
0.2316843697
 40
0.2614690734
 40
0.2927352023
 40
0.3254080072
 40
0.3594058838
 40
0.3946411434
 40
0.4310206841
 40
0.4684465898
 40
0.5068166803
 40
0.5460250256
 40
0.5859624352
 40
0.6265169302
 40
0.6675742021
 40
0.7090180653
 40
0.7507308996
 40
0.7925940982
 40
0.8344884876
 40
0.8762948217
 40
0.917894065
 40
0.9591682077
 40
1.0
 40
1.0
 40
1.0
 40
1.0
 10
11.5383400244
 20
10.1284597217
 30
0.0
 10
11.5386260668
 20
10.1296039217
 30
0.0
 10
11.5393268147
 20
10.1319005595
 30
0.0
 10
11.5407267131
 20
10.1352885201
 30
0.0
 10
11.5424874032
 20
10.1386627296
 30
0.0
 10
11.5446065642
 20
10.1420204315
 30
0.0
 10
11.5470821875
 20
10.1453595123
 30
0.0
 10
11.549911949
 20
10.1486778978
 30
0.0
 10
11.5530936109
 20
10.1519733983
 30
0.0
 10
11.5566246203
 20
10.1552439364
 30
0.0
 10
11.5605023666
 20
10.1584872345
 30
0.0
 10
11.5647239044
 20
10.1617011231
 30
0.0
 10
11.5692861387
 20
10.1648832606
 30
0.0
 10
11.5741856475
 20
10.1680314118
 30
0.0
 10
11.5794188085
 20
10.1711432197
 30
0.0
 10
11.5849816938
 20
10.1742164244
 30
0.0
 10
11.5908701502
 20
10.1772486944
 30
0.0
 10
11.5970797428
 20
10.1802377784
 30
0.0
 10
11.6036058007
 20
10.1831813984
 30
0.0
 10
11.6104433924
 20
10.1860773358
 30
0.0
 10
11.6175873482
 20
10.1889233843
 30
0.0
 10
11.6250322559
 20
10.1917173749
 30
0.0
 10
11.6327724684
 20
10.1944571866
 30
0.0
 10
11.6408021082
 20
10.197140708
 30
0.0
 10
11.6491150816
 20
10.1997659329
 30
0.0
 10
11.6607219963
 20
10.2032315494
 30
0.0
 10
11.6758981918
 20
10.2073920593
 30
0.0
 10
11.6949018742
 20
10.2120579473
 30
0.0
 10
11.7148729204
 20
10.2164463269
 30
0.0
 10
11.7357505257
 20
10.2205436978
 30
0.0
 10
11.7574712551
 20
10.2243374349
 30
0.0
 10
11.7799689956
 20
10.2278158593
 30
0.0
 10
11.8031752424
 20
10.2309682654
 30
0.0
 10
11.8270192968
 20
10.2337849556
 30
0.0
 10
11.8514284938
 20
10.2362572682
 30
0.0
 10
11.8763284276
 20
10.2383776032
 30
0.0
 10
11.9016431825
 20
10.2401394445
 30
0.0
 10
11.9272955678
 20
10.241537379
 30
0.0
 10
11.9532073551
 20
10.2425671126
 30
0.0
 10
11.9792995208
 20
10.2432254829
 30
0.0
 10
12.0054924843
 20
10.2435104672
 30
0.0
 10
12.0317063647
 20
10.2434211922
 30
0.0
 10
12.0578611916
 20
10.2429579287
 30
0.0
 10
12.0838772436
 20
10.242122104
 30
0.0
 10
12.1096750631
 20
10.2409162812
 30
0.0
 10
12.1267840563
 20
10.2398615291
 30
0.0
 10
12.1352878116
 20
10.2392717916
 30
0.0
  0
SPLINE
  5
370
100
AcDbEntity
  8
0
100
AcDbSpline
 62
7
  6
CONTINUOUS
 70
0
 71
3
 72
56
 73
52
 74
0
 42
0.0000001
 43
0.0000001
 44
0.0000000001
 40
0.0
 40
0.0
 40
0.0
 40
0.0
 40
0.0082490284
 40
0.0160248386
 40
0.023363789
 40
0.0303112645
 40
0.03692244
 40
0.0432629282
 40
0.0494081759
 40
0.0554418847
 40
0.0614528789
 40
0.0675310816
 40
0.0737632347
 40
0.0802292401
 40
0.0869997901
 40
0.0941353131
 40
0.101686011
 40
0.1096926772
 40
0.1181876717
 40
0.1271962508
 40
0.1367374495
 40
0.1468252985
 40
0.1574693544
 40
0.1686756662
 40
0.1804470286
 40
0.1927837002
 40
0.2056835195
 40
0.2191423967
 40
0.2331544038
 40
0.2477120616
 40
0.262806471
 40
0.2784274215
 40
0.2945635899
 40
0.3112025046
 40
0.3283308086
 40
0.3459341221
 40
0.3825036034
 40
0.420781512
 40
0.4606264844
 40
0.501887652
 40
0.544405902
 40
0.5880150346
 40
0.6325428509
 40
0.6778121954
 40
0.7236419711
 40
0.7698481281
 40
0.8162446649
 40
0.8626445396
 40
0.9088608521
 40
0.9547072215
 40
1.0
 40
1.0
 40
1.0
 40
1.0
 10
11.6895984631
 20
10.0972898471
 30
0.0
 10
11.688643617
 20
10.0981784376
 30
0.0
 10
11.6868410218
 20
10.0999623695
 30
0.0
 10
11.684404719
 20
10.1027439987
 30
0.0
 10
11.6823214589
 20
10.1055474222
 30
0.0
 10
11.6805940952
 20
10.1083701377
 30
0.0
 10
11.6792255256
 20
10.1112098106
 30
0.0
 10
11.6782185021
 20
10.114063555
 30
0.0
 10
11.6775758465
 20
10.1169279287
 30
0.0
 10
11.6772995654
 20
10.1197985796
 30
0.0
 10
11.6773908114
 20
10.1226705384
 30
0.0
 10
11.6778491381
 20
10.1255386636
 30
0.0
 10
11.678672975
 20
10.1283982488
 30
0.0
 10
11.6798598036
 20
10.1312453957
 30
0.0
 10
11.6814068224
 20
10.1340769778
 30
0.0
 10
11.683311184
 20
10.1368903953
 30
0.0
 10
11.6855700563
 20
10.1396833285
 30
0.0
 10
11.6881806556
 20
10.142453438
 30
0.0
 10
11.691139994
 20
10.145198409
 30
0.0
 10
11.6944449577
 20
10.1479157096
 30
0.0
 10
11.6980920436
 20
10.1506028515
 30
0.0
 10
11.7020775055
 20
10.1532571239
 30
0.0
 10
11.7063971521
 20
10.1558759263
 30
0.0
 10
11.7110464953
 20
10.1584564841
 30
0.0
 10
11.7160206159
 20
10.1609961621
 30
0.0
 10
11.7213142732
 20
10.1634922146
 30
0.0
 10
11.7269218309
 20
10.1659420242
 30
0.0
 10
11.7328373215
 20
10.1683429312
 30
0.0
 10
11.7390544183
 20
10.1706923701
 30
0.0
 10
11.745566464
 20
10.1729877998
 30
0.0
 10
11.7523664722
 20
10.1752267322
 30
0.0
 10
11.7594471347
 20
10.1774067619
 30
0.0
 10
11.7668008396
 20
10.1795255011
 30
0.0
 10
11.7744196649
 20
10.1815806846
 30
0.0
 10
11.7822954166
 20
10.1835700647
 30
0.0
 10
11.7932673368
 20
10.1861649454
 30
0.0
 10
11.8075653638
 20
10.1892185773
 30
0.0
 10
11.8253951044
 20
10.1925435513
 30
0.0
 10
11.8440315107
 20
10.1955594894
 30
0.0
 10
11.863394192
 20
10.1982532343
 30
0.0
 10
11.883399734
 20
10.2006130035
 30
0.0
 10
11.9039618521
 20
10.202628493
 30
0.0
 10
11.9249918399
 20
10.204290904
 30
0.0
 10
11.9463989427
 20
10.2055929835
 30
0.0
 10
11.9680907614
 20
10.2065290522
 30
0.0
 10
11.9899736562
 20
10.2070950294
 30
0.0
 10
12.0119531514
 20
10.2072884455
 30
0.0
 10
12.0339343608
 20
10.2071084621
 30
0.0
 10
12.055822372
 20
10.2065558542
 30
0.0
 10
12.0775226405
 20
10.2056330483
 30
0.0
 10
12.0919085764
 20
10.204767298
 30
0.0
 10
12.0990531752
 20
10.2042718184
 30
0.0
  0
SPLINE
  5
371
100
AcDbEntity
  8
0
100
AcDbSpline
 62
7
  6
CONTINUOUS
 70
0
 71
3
 72
41
 73
37
 74
0
 42
0.0000001
 43
0.0000001
 44
0.0000000001
 40
0.0
 40
0.0
 40
0.0
 40
0.0
 40
0.0311444983
 40
0.062442467
 40
0.093887251
 40
0.1254695609
 40
0.157177086
 40
0.1889950997
 40
0.2209066479
 40
0.2528929497
 40
0.284933762
 40
0.3170077852
 40
0.3490930781
 40
0.3811674822
 40
0.4132090489
 40
0.445196464
 40
0.4771094635
 40
0.5089292351
 40
0.540638799
 40
0.5722233621
 40
0.6036706378
 40
0.6349711269
 40
0.6661183495
 40
0.6971090237
 40
0.7279431823
 40
0.7586242225
 40
0.7891588828
 40
0.8195571428
 40
0.8498320452
 40
0.86493089
 40
0.8800050502
 40
0.9100832578
 40
0.9400926753
 40
0.9550812784
 40
0.9700610371
 40
1.0
 40
1.0
 40
1.0
 40
1.0
 10
12.338881069
 20
9.3889826603
 30
0.0
 10
12.3355671214
 20
9.3892124834
 30
0.0
 10
12.3289372534
 20
9.3899158362
 30
0.0
 10
12.3190728366
 20
9.3916875672
 30
0.0
 10
12.3093140621
 20
9.3941692705
 30
0.0
 10
12.2997136685
 20
9.3973475455
 30
0.0
 10
12.2903226337
 20
9.4012053919
 30
0.0
 10
12.2811910587
 20
9.4057221577
 30
0.0
 10
12.2723675875
 20
9.4108737117
 30
0.0
 10
12.2638992365
 20
9.416632546
 30
0.0
 10
12.2558311248
 20
9.4229679325
 30
0.0
 10
12.2482062424
 20
9.4298460819
 30
0.0
 10
12.2410652222
 20
9.4372303236
 30
0.0
 10
12.2344461262
 20
9.4450812993
 30
0.0
 10
12.2283842442
 20
9.4533571704
 30
0.0
 10
12.2229119076
 20
9.462013839
 30
0.0
 10
12.2180583186
 20
9.47100518
 30
0.0
 10
12.2138493949
 20
9.4802832843
 30
0.0
 10
12.2103076326
 20
9.4897987106
 30
0.0
 10
12.2074519859
 20
9.4995007459
 30
0.0
 10
12.2052977649
 20
9.5093376718
 30
0.0
 10
12.2038565531
 20
9.5192570364
 30
0.0
 10
12.2031361426
 20
9.5292059312
 30
0.0
 10
12.2031404885
 20
9.5391312666
 30
0.0
 10
12.203869688
 20
9.5489800632
 30
0.0
 10
12.2053199552
 20
9.5586996934
 30
0.0
 10
12.2074837078
 20
9.5682383036
 30
0.0
 10
12.2103493318
 20
9.5775445663
 30
0.0
 10
12.2133128819
 20
9.5850727891
 30
0.0
 10
12.2160172651
 20
9.5909271556
 30
0.0
 10
12.2189358372
 20
9.5966542221
 30
0.0
 10
12.2229880965
 20
9.6035814191
 30
0.0
 10
12.2275615569
 20
9.6101650987
 30
0.0
 10
12.2315136947
 20
9.6151975078
 30
0.0
 10
12.2356543753
 20
9.6200656526
 30
0.0
 10
12.2389717715
 20
9.6235313733
 30
0.0
 10
12.2412685764
 20
9.6257499317
 30
0.0
  0
SPLINE
  5
372
100
AcDbEntity
  8
0
100
AcDbSpline
 62
7
  6
CONTINUOUS
 70
0
 71
3
 72
49
 73
45
 74
0
 42
0.0000001
 43
0.0000001
 44
0.0000000001
 40
0.0
 40
0.0
 40
0.0
 40
0.0
 40
0.0055576144
 40
0.0111781208
 40
0.0169221352
 40
0.0228461048
 40
0.0354197819
 40
0.0421643435
 40
0.0492552775
 40
0.0567194596
 40
0.064578666
 40
0.0728504868
 40
0.0815486473
 40
0.0906837219
 40
0.1002634857
 40
0.110293286
 40
0.1207764871
 40
0.1317145115
 40
0.1431073698
 40
0.1549534932
 40
0.1672502454
 40
0.1799937352
 40
0.1931791681
 40
0.2208509363
 40
0.2502113544
 40
0.281193609
 40
0.3137211632
 40
0.3477089991
 40
0.3830646345
 40
0.4196889822
 40
0.4574771023
 40
0.4963188805
 40
0.5360996537
 40
0.5767008008
 40
0.618000307
 40
0.6598733106
 40
0.7021926404
 40
0.7448293417
 40
0.7876532194
 40
0.8305332787
 40
0.8733385007
 40
0.9159376011
 40
0.958201446
 40
1.0
 40
1.0
 40
1.0
 40
1.0
 10
11.7123488792
 20
10.0867144767
 30
0.0
 10
11.7123488817
 20
10.087456618
 30
0.0
 10
11.7124319591
 20
10.0889505975
 30
0.0
 10
11.7128048862
 20
10.0911835559
 30
0.0
 10
11.713425535
 20
10.0934116563
 30
0.0
 10
11.7146045541
 20
10.0964312735
 30
0.0
 10
11.7162766202
 20
10.0993812128
 30
0.0
 10
11.7183578138
 20
10.1022303057
 30
0.0
 10
11.7201960343
 20
10.1044040407
 30
0.0
 10
11.7222728651
 20
10.1065618258
 30
0.0
 10
11.7245867734
 20
10.1087027596
 30
0.0
 10
11.7271358533
 20
10.110825092
 30
0.0
 10
11.7299180505
 20
10.1129273501
 30
0.0
 10
11.7329311618
 20
10.115007902
 30
0.0
 10
11.7361727847
 20
10.1170651445
 30
0.0
 10
11.7396403208
 20
10.1190974826
 30
0.0
 10
11.7433310072
 20
10.1211032565
 30
0.0
 10
11.7472418539
 20
10.1230809157
 30
0.0
 10
11.7513697269
 20
10.1250287943
 30
0.0
 10
11.7557112659
 20
10.12694538
 30
0.0
 10
11.7602629642
 20
10.1288290448
 30
0.0
 10
11.7650211171
 20
10.1306783208
 30
0.0
 10
11.7717441056
 20
10.1331357145
 30
0.0
 10
11.7806418988
 20
10.1361006637
 30
0.0
 10
11.7919115423
 20
10.139443359
 30
0.0
 10
11.8039024519
 20
10.1426146659
 30
0.0
 10
11.8165754963
 20
10.1456041011
 30
0.0
 10
11.8298894336
 20
10.1484017602
 30
0.0
 10
11.8438007994
 20
10.1509983789
 30
0.0
 10
11.858264144
 20
10.1533853602
 30
0.0
 10
11.87323217
 20
10.1555548047
 30
0.0
 10
11.8886559025
 20
10.157499536
 30
0.0
 10
11.9044848531
 20
10.1592131239
 30
0.0
 10
11.9206671911
 20
10.1606899045
 30
0.0
 10
11.9371499158
 20
10.161924998
 30
0.0
 10
11.9538790332
 20
10.1629143246
 30
0.0
 10
11.9707997347
 20
10.1636546182
 30
0.0
 10
11.9878565814
 20
10.1641434359
 30
0.0
 10
12.0049936788
 20
10.1643791621
 30
0.0
 10
12.0221548898
 20
10.1643610243
 30
0.0
 10
12.0392839358
 20
10.164089071
 30
0.0
 10
12.0563247942
 20
10.1635642188
 30
0.0
 10
12.0732214658
 20
10.1627881748
 30
0.0
 10
12.0844262804
 20
10.1621005777
 30
0.0
 10
12.0899945161
 20
10.1617144192
 30
0.0
  0
SPLINE
  5
373
100
AcDbEntity
  8
0
100
AcDbSpline
 62
7
  6
CONTINUOUS
 70
0
 71
3
 72
38
 73
34
 74
0
 42
0.0000001
 43
0.0000001
 44
0.0000000001
 40
0.0
 40
0.0
 40
0.0
 40
0.0
 40
0.0065215821
 40
0.0131780915
 40
0.0269968354
 40
0.0416571723
 40
0.0573166101
 40
0.0740991117
 40
0.0920992621
 40
0.111387158
 40
0.1320127655
 40
0.1540094999
 40
0.1773973927
 40
0.2021854507
 40
0.228373341
 40
0.2559529888
 40
0.2849097315
 40
0.3152230387
 40
0.3468673469
 40
0.3798126907
 40
0.4140250145
 40
0.4494666422
 40
0.4860966921
 40
0.5238712262
 40
0.5627435311
 40
0.6026644376
 40
0.6435824146
 40
0.6854437572
 40
0.7281928244
 40
0.7717721345
 40
0.8161226836
 40
0.9068910182
 40
1.0
 40
1.0
 40
1.0
 40
1.0
 10
12.4863793368
 20
10.1283727082
 30
0.0
 10
12.4861809069
 20
10.1291752718
 30
0.0
 10
12.4857215157
 20
10.1307831604
 30
0.0
 10
12.4845572447
 20
10.1340036609
 30
0.0
 10
12.4826278177
 20
10.1380324919
 30
0.0
 10
12.47962882
 20
10.1427691697
 30
0.0
 10
12.4759247119
 20
10.1474644587
 30
0.0
 10
12.4715227203
 20
10.1521128054
 30
0.0
 10
12.4664298683
 20
10.15670949
 30
0.0
 10
12.4606536816
 20
10.161249027
 30
0.0
 10
12.4542024438
 20
10.1657256337
 30
0.0
 10
12.4470854347
 20
10.1701332861
 30
0.0
 10
12.4393129309
 20
10.1744657788
 30
0.0
 10
12.43089625
 20
10.1787168197
 30
0.0
 10
12.4218477783
 20
10.182880172
 30
0.0
 10
12.4121809068
 20
10.1869496319
 30
0.0
 10
12.4019100068
 20
10.1909190631
 30
0.0
 10
12.3910504291
 20
10.1947824915
 30
0.0
 10
12.3796184481
 20
10.1985340742
 30
0.0
 10
12.3676312245
 20
10.2021680979
 30
0.0
 10
12.3551067962
 20
10.2056790527
 30
0.0
 10
12.3420640338
 20
10.2090616129
 30
0.0
 10
12.3285225994
 20
10.2123106169
 30
0.0
 10
12.314502929
 20
10.215421127
 30
0.0
 10
12.3000261961
 20
10.2183884264
 30
0.0
 10
12.285114267
 20
10.2212079885
 30
0.0
 10
12.2697896758
 20
10.2238755229
 30
0.0
 10
12.254075591
 20
10.2263869907
 30
0.0
 10
12.2379957788
 20
10.2287385576
 30
0.0
 10
12.2215745226
 20
10.2309266689
 30
0.0
 10
12.199084156
 20
10.2336425999
 30
0.0
 10
12.170300466
 20
10.2365957712
 30
0.0
 10
12.1470628017
 20
10.2384551933
 30
0.0
 10
12.1352878116
 20
10.2392717916
 30
0.0
  0
SPLINE
  5
374
100
AcDbEntity
  8
0
100
AcDbSpline
 62
7
  6
CONTINUOUS
 70
0
 71
3
 72
54
 73
50
 74
0
 42
0.0000001
 43
0.0000001
 44
0.0000000001
 40
0.0
 40
0.0
 40
0.0
 40
0.0
 40
0.009842871
 40
0.0192576459
 40
0.0282665671
 40
0.0368961655
 40
0.0531356689
 40
0.0608338402
 40
0.068307506
 40
0.0756079959
 40
0.082790726
 40
0.0899142035
 40
0.0970385141
 40
0.1042237348
 40
0.1115282701
 40
0.1190074962
 40
0.1267125533
 40
0.1346897601
 40
0.1429802542
 40
0.1516199092
 40
0.1606397595
 40
0.1700660806
 40
0.179921061
 40
0.1902231389
 40
0.2009873433
 40
0.2122259541
 40
0.2239485022
 40
0.2361623915
 40
0.2488730285
 40
0.2620839708
 40
0.2757974068
 40
0.2900139458
 40
0.3047330967
 40
0.3356700571
 40
0.3685854475
 40
0.4034410186
 40
0.4401871499
 40
0.4787644331
 40
0.5191049035
 40
0.5611330127
 40
0.6047664203
 40
0.6499167286
 40
0.6964901151
 40
0.7443878236
 40
0.7935066665
 40
0.8437396885
 40
0.8949753519
 40
0.9471020741
 40
1.0
 40
1.0
 40
1.0
 40
1.0
 10
12.3350987052
 20
10.0972893279
 30
0.0
 10
12.3358212509
 20
10.097961729
 30
0.0
 10
12.3372045969
 20
10.0993104908
 30
0.0
 10
12.3391292627
 20
10.1013930903
 30
0.0
 10
12.3408553283
 20
10.1034883435
 30
0.0
 10
12.3428493934
 20
10.1062403356
 30
0.0
 10
12.3445007417
 20
10.1090741091
 30
0.0
 10
12.3457493912
 20
10.1119691943
 30
0.0
 10
12.3464655427
 20
10.1141088871
 30
0.0
 10
12.3469769529
 20
10.1162535347
 30
0.0
 10
12.3472829202
 20
10.1184017016
 30
0.0
 10
12.347383076
 20
10.1205516248
 30
0.0
 10
12.347277239
 20
10.1227015288
 30
0.0
 10
12.346965539
 20
10.1248496077
 30
0.0
 10
12.3464485003
 20
10.1269941694
 30
0.0
 10
12.345726693
 20
10.1291336124
 30
0.0
 10
12.3448010298
 20
10.1312665397
 30
0.0
 10
12.3436723937
 20
10.1333916516
 30
0.0
 10
12.3423417536
 20
10.1355077402
 30
0.0
 10
12.3408101887
 20
10.1376137121
 30
0.0
 10
12.3390787051
 20
10.1397084012
 30
0.0
 10
12.3371484972
 20
10.1417907502
 30
0.0
 10
12.3350207472
 20
10.1438596188
 30
0.0
 10
12.3326967499
 20
10.1459138643
 30
0.0
 10
12.3301779334
 20
10.1479523846
 30
0.0
 10
12.3274657638
 20
10.1499739636
 30
0.0
 10
12.3245618934
 20
10.1519774879
 30
0.0
 10
12.3214680384
 20
10.1539617616
 30
0.0
 10
12.3181860467
 20
10.155925605
 30
0.0
 10
12.3147179003
 20
10.1578678899
 30
0.0
 10
12.3110656605
 20
10.1597873937
 30
0.0
 10
12.3072315402
 20
10.1616830351
 30
0.0
 10
12.301789231
 20
10.1642193333
 30
0.0
 10
12.2945404401
 20
10.1673128768
 30
0.0
 10
12.2852949031
 20
10.170852949
 30
0.0
 10
12.2753855074
 20
10.1742713292
 30
0.0
 10
12.264836233
 20
10.1775596594
 30
0.0
 10
12.253672471
 20
10.1807098849
 30
0.0
 10
12.2419212345
 20
10.183714271
 30
0.0
 10
12.2296109988
 20
10.1865654348
 30
0.0
 10
12.216771649
 20
10.1892563765
 30
0.0
 10
12.2034343845
 20
10.1917804877
 30
0.0
 10
12.1896316371
 20
10.1941315679
 30
0.0
 10
12.1753969889
 20
10.196303842
 30
0.0
 10
12.1607650694
 20
10.1982919799
 30
0.0
 10
12.1457715734
 20
10.200091086
 30
0.0
 10
12.130452854
 20
10.2016967971
 30
0.0
 10
12.1148464514
 20
10.2031051031
 30
0.0
 10
12.1043449097
 20
10.2039048354
 30
0.0
 10
12.0990531752
 20
10.2042718184
 30
0.0
  0
SPLINE
  5
375
100
AcDbEntity
  8
0
100
AcDbSpline
 62
7
  6
CONTINUOUS
 70
0
 71
3
 72
39
 73
35
 74
0
 42
0.0000001
 43
0.0000001
 44
0.0000000001
 40
0.0
 40
0.0
 40
0.0
 40
0.0
 40
0.0064813583
 40
0.013000307
 40
0.0195937286
 40
0.0262971358
 40
0.0331441955
 40
0.0401662528
 40
0.0548407871
 40
0.0705270771
 40
0.0873814213
 40
0.1055229261
 40
0.1250395805
 40
0.1459936324
 40
0.1684267656
 40
0.192364072
 40
0.2178168382
 40
0.2447853216
 40
0.2732603993
 40
0.3032248627
 40
0.3346548751
 40
0.3675205215
 40
0.4017865986
 40
0.4374133897
 40
0.4743567843
 40
0.5125689308
 40
0.5519985963
 40
0.5925911975
 40
0.6342893865
 40
0.6770331483
 40
0.7207598563
 40
0.8108996593
 40
0.904168474
 40
1.0
 40
1.0
 40
1.0
 40
1.0
 10
12.3123488542
 20
10.0867144767
 30
0.0
 10
12.312348856
 20
10.0872442169
 30
0.0
 10
12.3123067508
 20
10.0883072446
 30
0.0
 10
12.312117441
 20
10.0898990304
 30
0.0
 10
12.3118020991
 20
10.0914892656
 30
0.0
 10
12.3113610087
 20
10.0930770372
 30
0.0
 10
12.3107944041
 20
10.094661678
 30
0.0
 10
12.3098585742
 20
10.0968004291
 30
0.0
 10
12.30835735
 20
10.0994715265
 30
0.0
 10
12.3060877131
 20
10.1026013207
 30
0.0
 10
12.3033291296
 20
10.1056996546
 30
0.0
 10
12.3000869829
 20
10.1087626206
 30
0.0
 10
12.2963665626
 20
10.1117865914
 30
0.0
 10
12.2921738202
 20
10.1147674714
 30
0.0
 10
12.2875153492
 20
10.1177009299
 30
0.0
 10
12.2823985259
 20
10.1205824301
 30
0.0
 10
12.2768315745
 20
10.1234074436
 30
0.0
 10
12.2708234959
 20
10.1261713661
 30
0.0
 10
12.2643840913
 20
10.128869641
 30
0.0
 10
12.2575239436
 20
10.1314978242
 30
0.0
 10
12.250254358
 20
10.1340514991
 30
0.0
 10
12.2425873694
 20
10.1365263988
 30
0.0
 10
12.2345357028
 20
10.1389183891
 30
0.0
 10
12.2261127368
 20
10.1412234198
 30
0.0
 10
12.2173324982
 20
10.1434376385
 30
0.0
 10
12.2082096197
 20
10.1455573243
 30
0.0
 10
12.1987593138
 20
10.1475788872
 30
0.0
 10
12.1889973551
 20
10.149498957
 30
0.0
 10
12.1789400453
 20
10.1513142877
 30
0.0
 10
12.1686041682
 20
10.1530218367
 30
0.0
 10
12.1543300463
 20
10.1551727486
 30
0.0
 10
12.1359176565
 20
10.1575621819
 30
0.0
 10
12.1132157783
 20
10.1599313889
 30
0.0
 10
12.0978083378
 20
10.1611725288
 30
0.0
 10
12.0899945161
 20
10.1617144192
 30
0.0
  0
SPLINE
  5
376
100
AcDbEntity
  8
0
100
AcDbSpline
 62
7
  6
CONTINUOUS
 70
0
 71
3
 72
24
 73
20
 74
0
 42
0.0000001
 43
0.0000001
 44
0.0000000001
 40
0.0
 40
0.0
 40
0.0
 40
0.0
 40
0.0617854814
 40
0.1240400259
 40
0.1867209793
 40
0.2497603258
 40
0.3130734852
 40
0.376562205
 40
0.4401196767
 40
0.5036357633
 40
0.5670023331
 40
0.6301185305
 40
0.6928957858
 40
0.7552624133
 40
0.817167521
 40
0.8785840523
 40
0.939510779
 40
0.9698107803
 40
1.0
 40
1.0
 40
1.0
 40
1.0
 10
11.5008190632
 20
7.5690058186
 30
0.0
 10
11.4978973743
 20
7.5692084384
 30
0.0
 10
11.4920500697
 20
7.5699558273
 30
0.0
 10
11.4834372079
 20
7.5720702516
 30
0.0
 10
11.4750576915
 20
7.5751537846
 30
0.0
 10
11.4670250334
 20
7.5791647924
 30
0.0
 10
11.4594461393
 20
7.5840492903
 30
0.0
 10
11.4524223052
 20
7.589741752
 30
0.0
 10
11.4460473213
 20
7.5961660058
 30
0.0
 10
11.4404064221
 20
7.6032361926
 30
0.0
 10
11.43557505
 20
7.6108578376
 30
0.0
 10
11.4316179646
 20
7.6189291519
 30
0.0
 10
11.4285884132
 20
7.6273423614
 30
0.0
 10
11.4265272916
 20
7.6359849557
 30
0.0
 10
11.4254627296
 20
7.6447415508
 30
0.0
 10
11.4254093848
 20
7.6534940115
 30
0.0
 10
11.4262110568
 20
7.6607034403
 30
0.0
 10
11.4273543016
 20
7.6663467225
 30
0.0
 10
11.4280909914
 20
7.669119934
 30
0.0
 10
11.4284999028
 20
7.670491272
 30
0.0
  0
SPLINE
  5
377
100
AcDbEntity
  8
0
100
AcDbSpline
 62
7
  6
CONTINUOUS
 70
0
 71
3
 72
41
 73
37
 74
0
 42
0.0000001
 43
0.0000001
 44
0.0000000001
 40
0.0
 40
0.0
 40
0.0
 40
0.0
 40
0.0311444983
 40
0.062442467
 40
0.093887251
 40
0.1254695609
 40
0.157177086
 40
0.1889950997
 40
0.2209066479
 40
0.2528929497
 40
0.284933762
 40
0.3170077852
 40
0.3490930781
 40
0.3811674822
 40
0.4132090489
 40
0.445196464
 40
0.4771094635
 40
0.5089292351
 40
0.540638799
 40
0.5722233621
 40
0.6036706378
 40
0.6349711269
 40
0.6661183495
 40
0.6971090237
 40
0.7279431823
 40
0.7586242225
 40
0.7891588828
 40
0.8195571428
 40
0.8498320452
 40
0.86493089
 40
0.8800050502
 40
0.9100832578
 40
0.9400926753
 40
0.9550812784
 40
0.9700610371
 40
1.0
 40
1.0
 40
1.0
 40
1.0
 10
9.5995152677
 20
9.5789583239
 30
0.0
 10
9.5962013201
 20
9.5791881469
 30
0.0
 10
9.5895714521
 20
9.5798914997
 30
0.0
 10
9.5797070353
 20
9.5816632308
 30
0.0
 10
9.5699482608
 20
9.584144934
 30
0.0
 10
9.5603478672
 20
9.5873232091
 30
0.0
 10
9.5509568324
 20
9.5911810555
 30
0.0
 10
9.5418252574
 20
9.5956978213
 30
0.0
 10
9.5330017862
 20
9.6008493753
 30
0.0
 10
9.5245334352
 20
9.6066082095
 30
0.0
 10
9.5164653235
 20
9.612943596
 30
0.0
 10
9.5088404411
 20
9.6198217454
 30
0.0
 10
9.5016994209
 20
9.6272059872
 30
0.0
 10
9.4950803249
 20
9.6350569629
 30
0.0
 10
9.4890184429
 20
9.643332834
 30
0.0
 10
9.4835461063
 20
9.6519895026
 30
0.0
 10
9.4786925173
 20
9.6609808436
 30
0.0
 10
9.4744835936
 20
9.6702589478
 30
0.0
 10
9.4709418314
 20
9.6797743742
 30
0.0
 10
9.4680861846
 20
9.6894764095
 30
0.0
 10
9.4659319636
 20
9.6993133353
 30
0.0
 10
9.4644907518
 20
9.7092327
 30
0.0
 10
9.4637703413
 20
9.7191815947
 30
0.0
 10
9.4637746872
 20
9.7291069302
 30
0.0
 10
9.4645038867
 20
9.7389557267
 30
0.0
 10
9.4659541539
 20
9.7486753569
 30
0.0
 10
9.4681179065
 20
9.7582139672
 30
0.0
 10
9.4709835305
 20
9.7675202298
 30
0.0
 10
9.4739470806
 20
9.7750484527
 30
0.0
 10
9.4766514638
 20
9.7809028192
 30
0.0
 10
9.4795700359
 20
9.7866298856
 30
0.0
 10
9.4836222952
 20
9.7935570827
 30
0.0
 10
9.4881957556
 20
9.8001407623
 30
0.0
 10
9.4921478934
 20
9.8051731714
 30
0.0
 10
9.496288574
 20
9.8100413162
 30
0.0
 10
9.4996059702
 20
9.8135070369
 30
0.0
 10
9.5019027751
 20
9.8157255953
 30
0.0
  0
SPLINE
  5
378
100
AcDbEntity
  8
0
100
AcDbSpline
 62
7
  6
CONTINUOUS
 70
0
 71
3
 72
11
 73
7
 74
0
 42
0.0000001
 43
0.0000001
 44
0.0000000001
 40
0.0
 40
0.0
 40
0.0
 40
0.0
 40
0.2520316917
 40
0.5026839526
 40
0.7519785275
 40
1.0
 40
1.0
 40
1.0
 40
1.0
 10
11.5008190632
 20
7.5690058186
 30
0.0
 10
11.5028166954
 20
7.5688672823
 30
0.0
 10
11.5068138309
 20
7.5687487134
 30
0.0
 10
11.5127870265
 20
7.569051451
 30
0.0
 10
11.5186844984
 20
7.5698333072
 30
0.0
 10
11.5225509026
 20
7.570673018
 30
0.0
 10
11.5244575599
 20
7.5711708112
 30
0.0
  0
SPLINE
  5
379
100
AcDbEntity
  8
0
100
AcDbSpline
 62
7
  6
CONTINUOUS
 70
0
 71
3
 72
52
 73
48
 74
0
 42
0.0000001
 43
0.0000001
 44
0.0000000001
 40
0.0
 40
0.0
 40
0.0
 40
0.0
 40
0.0055575409
 40
0.0111779669
 40
0.0169218944
 40
0.0228457784
 40
0.0290005385
 40
0.0354309383
 40
0.0421753664
 40
0.0492662129
 40
0.0567302428
 40
0.0645893498
 40
0.0728610114
 40
0.0815590518
 40
0.0906939685
 40
0.1002735876
 40
0.1103032329
 40
0.1207862668
 40
0.1317241336
 40
0.1431168099
 40
0.1549627623
 40
0.1672593293
 40
0.180002627
 40
0.1931878784
 40
0.2068092924
 40
0.2208603496
 40
0.2353336718
 40
0.2502212706
 40
0.2812030867
 40
0.3137301822
 40
0.3477175443
 40
0.3830726942
 40
0.4196965467
 40
0.4574841626
 40
0.4963254275
 40
0.5361056779
 40
0.5767062924
 40
0.6180052566
 40
0.6598777114
 40
0.7021964885
 40
0.7448326391
 40
0.7876559545
 40
0.8305354925
 40
0.8733400712
 40
0.9159388564
 40
0.9582016962
 40
1.0
 40
1.0
 40
1.0
 40
1.0
 10
10.2140180546
 20
10.2947369725
 30
0.0
 10
10.2140180497
 20
10.2959120306
 30
0.0
 10
10.2141495762
 20
10.2982774907
 30
0.0
 10
10.2147400314
 20
10.3018130526
 30
0.0
 10
10.2157225981
 20
10.3053407371
 30
0.0
 10
10.2170954385
 20
10.3088564309
 30
0.0
 10
10.218856221
 20
10.3123573148
 30
0.0
 10
10.2210026466
 20
10.3158406664
 30
0.0
 10
10.2235322051
 20
10.3193041417
 30
0.0
 10
10.2264424803
 20
10.3227453531
 30
0.0
 10
10.2297308077
 20
10.3261620442
 30
0.0
 10
10.2333944898
 20
10.3295517745
 30
0.0
 10
10.2374304925
 20
10.3329121916
 30
0.0
 10
10.2418356373
 20
10.3362407392
 30
0.0
 10
10.2466063696
 20
10.3395349736
 30
0.0
 10
10.2517389291
 20
10.3427922701
 30
0.0
 10
10.2572291797
 20
10.3460101461
 30
0.0
 10
10.2630727516
 20
10.3491859667
 30
0.0
 10
10.2692649168
 20
10.352317257
 30
0.0
 10
10.2758007015
 20
10.3554014151
 30
0.0
 10
10.2826747967
 20
10.3584360064
 30
0.0
 10
10.2898816437
 20
10.3614184911
 30
0.0
 10
10.2974153715
 20
10.3643464967
 30
0.0
 10
10.3052698599
 20
10.3672175649
 30
0.0
 10
10.3134386986
 20
10.3700294021
 30
0.0
 10
10.3219152283
 20
10.37277964
 30
0.0
 10
10.3306925326
 20
10.3754660975
 30
0.0
 10
10.3429503421
 20
10.3790070402
 30
0.0
 10
10.358977544
 20
10.383245758
 30
0.0
 10
10.3790431083
 20
10.3879790557
 30
0.0
 10
10.4001235358
 20
10.3924086922
 30
0.0
 10
10.4221498646
 20
10.3965200183
 30
0.0
 10
10.4450501744
 20
10.400299416
 30
0.0
 10
10.4687495655
 20
10.4037343792
 30
0.0
 10
10.4931704964
 20
10.406813545
 30
0.0
 10
10.5182330252
 20
10.4095267326
 30
0.0
 10
10.5438550855
 20
10.4118649747
 30
0.0
 10
10.5699527588
 20
10.4138205459
 30
0.0
 10
10.5964405548
 20
10.4153869872
 30
0.0
 10
10.6232316945
 20
10.416559126
 30
0.0
 10
10.6502383976
 20
10.4173330922
 30
0.0
 10
10.6773721727
 20
10.4177063315
 30
0.0
 10
10.7045441087
 20
10.4176776107
 30
0.0
 10
10.7316651685
 20
10.4172470268
 30
0.0
 10
10.7586464932
 20
10.4164159969
 30
0.0
 10
10.7853996033
 20
10.4151872733
 30
0.0
 10
10.803140545
 20
10.4140985721
 30
0.0
 10
10.8119569899
 20
10.4134871495
 30
0.0
  0
SPLINE
  5
37A
100
AcDbEntity
  8
0
100
AcDbSpline
 62
7
  6
CONTINUOUS
 70
0
 71
3
 72
51
 73
47
 74
0
 42
0.0000001
 43
0.0000001
 44
0.0000000001
 40
0.0
 40
0.0
 40
0.0
 40
0.0
 40
0.00564952
 40
0.0114797742
 40
0.0175360016
 40
0.0238578826
 40
0.0304796382
 40
0.0374301304
 40
0.0447334784
 40
0.0524093882
 40
0.0604738688
 40
0.0689395353
 40
0.0778162371
 40
0.0871112684
 40
0.0968298597
 40
0.1069753122
 40
0.1175493578
 40
0.1285522507
 40
0.1399830145
 40
0.1518395215
 40
0.1641186434
 40
0.1768163401
 40
0.1899277291
 40
0.2034471945
 40
0.2173683893
 40
0.2316843697
 40
0.2614690734
 40
0.2927352023
 40
0.3254080072
 40
0.3594058838
 40
0.3946411434
 40
0.4310206841
 40
0.4684465898
 40
0.5068166803
 40
0.5460250256
 40
0.5859624352
 40
0.6265169302
 40
0.6675742021
 40
0.7090180653
 40
0.7507308996
 40
0.7925940982
 40
0.8344884876
 40
0.8762948217
 40
0.917894065
 40
0.9591682077
 40
1.0
 40
1.0
 40
1.0
 40
1.0
 10
10.2150092027
 20
10.2872202648
 30
0.0
 10
10.215295245
 20
10.2883644647
 30
0.0
 10
10.2159959929
 20
10.2906611026
 30
0.0
 10
10.2173958914
 20
10.2940490631
 30
0.0
 10
10.2191565815
 20
10.2974232727
 30
0.0
 10
10.2212757424
 20
10.3007809745
 30
0.0
 10
10.2237513657
 20
10.3041200553
 30
0.0
 10
10.2265811273
 20
10.3074384409
 30
0.0
 10
10.2297627892
 20
10.3107339414
 30
0.0
 10
10.2332937986
 20
10.3140044794
 30
0.0
 10
10.2371715448
 20
10.3172477776
 30
0.0
 10
10.2413930826
 20
10.3204616661
 30
0.0
 10
10.245955317
 20
10.3236438037
 30
0.0
 10
10.2508548258
 20
10.3267919549
 30
0.0
 10
10.2560879867
 20
10.3299037628
 30
0.0
 10
10.261650872
 20
10.3329769675
 30
0.0
 10
10.2675393284
 20
10.3360092374
 30
0.0
 10
10.2737489211
 20
10.3389983215
 30
0.0
 10
10.2802749789
 20
10.3419419415
 30
0.0
 10
10.2871125706
 20
10.3448378789
 30
0.0
 10
10.2942565265
 20
10.3476839274
 30
0.0
 10
10.3017014341
 20
10.3504779179
 30
0.0
 10
10.3094416467
 20
10.3532177297
 30
0.0
 10
10.3174712864
 20
10.355901251
 30
0.0
 10
10.3257842599
 20
10.3585264759
 30
0.0
 10
10.3373911745
 20
10.3619920925
 30
0.0
 10
10.3525673701
 20
10.3661526023
 30
0.0
 10
10.3715710525
 20
10.3708184903
 30
0.0
 10
10.3915420987
 20
10.37520687
 30
0.0
 10
10.4124197039
 20
10.3793042408
 30
0.0
 10
10.4341404334
 20
10.3830979779
 30
0.0
 10
10.4566381738
 20
10.3865764023
 30
0.0
 10
10.4798444206
 20
10.3897288084
 30
0.0
 10
10.503688475
 20
10.3925454986
 30
0.0
 10
10.5280976721
 20
10.3950178113
 30
0.0
 10
10.5529976059
 20
10.3971381462
 30
0.0
 10
10.5783123608
 20
10.3988999875
 30
0.0
 10
10.603964746
 20
10.4002979221
 30
0.0
 10
10.6298765334
 20
10.4013276556
 30
0.0
 10
10.655968699
 20
10.4019860259
 30
0.0
 10
10.6821616626
 20
10.4022710102
 30
0.0
 10
10.708375543
 20
10.4021817352
 30
0.0
 10
10.7345303698
 20
10.4017184717
 30
0.0
 10
10.7605464219
 20
10.400882647
 30
0.0
 10
10.7863442414
 20
10.3996768243
 30
0.0
 10
10.8034532346
 20
10.3986220721
 30
0.0
 10
10.8119569899
 20
10.3980323347
 30
0.0
  0
SPLINE
  5
37B
100
AcDbEntity
  8
0
100
AcDbSpline
 62
7
  6
CONTINUOUS
 70
0
 71
3
 72
56
 73
52
 74
0
 42
0.0000001
 43
0.0000001
 44
0.0000000001
 40
0.0
 40
0.0
 40
0.0
 40
0.0
 40
0.0082490284
 40
0.0160248386
 40
0.023363789
 40
0.0303112645
 40
0.03692244
 40
0.0432629282
 40
0.0494081759
 40
0.0554418847
 40
0.0614528789
 40
0.0675310816
 40
0.0737632347
 40
0.0802292401
 40
0.0869997901
 40
0.0941353131
 40
0.101686011
 40
0.1096926772
 40
0.1181876717
 40
0.1271962508
 40
0.1367374495
 40
0.1468252985
 40
0.1574693544
 40
0.1686756662
 40
0.1804470286
 40
0.1927837002
 40
0.2056835195
 40
0.2191423967
 40
0.2331544038
 40
0.2477120616
 40
0.262806471
 40
0.2784274215
 40
0.2945635899
 40
0.3112025046
 40
0.3283308086
 40
0.3459341221
 40
0.3825036034
 40
0.420781512
 40
0.4606264844
 40
0.501887652
 40
0.544405902
 40
0.5880150346
 40
0.6325428509
 40
0.6778121954
 40
0.7236419711
 40
0.7698481281
 40
0.8162446649
 40
0.8626445396
 40
0.9088608521
 40
0.9547072215
 40
1.0
 40
1.0
 40
1.0
 40
1.0
 10
10.3662676413
 20
10.2560503901
 30
0.0
 10
10.3653127953
 20
10.2569389807
 30
0.0
 10
10.3635102001
 20
10.2587229125
 30
0.0
 10
10.3610738973
 20
10.2615045418
 30
0.0
 10
10.3589906372
 20
10.2643079653
 30
0.0
 10
10.3572632734
 20
10.2671306808
 30
0.0
 10
10.3558947038
 20
10.2699703536
 30
0.0
 10
10.3548876804
 20
10.2728240981
 30
0.0
 10
10.3542450248
 20
10.2756884717
 30
0.0
 10
10.3539687437
 20
10.2785591226
 30
0.0
 10
10.3540599897
 20
10.2814310814
 30
0.0
 10
10.3545183164
 20
10.2842992066
 30
0.0
 10
10.3553421533
 20
10.2871587919
 30
0.0
 10
10.3565289819
 20
10.2900059388
 30
0.0
 10
10.3580760007
 20
10.2928375208
 30
0.0
 10
10.3599803623
 20
10.2956509384
 30
0.0
 10
10.3622392346
 20
10.2984438716
 30
0.0
 10
10.3648498339
 20
10.301213981
 30
0.0
 10
10.3678091723
 20
10.303958952
 30
0.0
 10
10.371114136
 20
10.3066762526
 30
0.0
 10
10.3747612219
 20
10.3093633945
 30
0.0
 10
10.3787466837
 20
10.3120176669
 30
0.0
 10
10.3830663303
 20
10.3146364693
 30
0.0
 10
10.3877156736
 20
10.3172170271
 30
0.0
 10
10.3926897942
 20
10.3197567051
 30
0.0
 10
10.3979834514
 20
10.3222527577
 30
0.0
 10
10.4035910091
 20
10.3247025673
 30
0.0
 10
10.4095064997
 20
10.3271034742
 30
0.0
 10
10.4157235966
 20
10.3294529132
 30
0.0
 10
10.4222356422
 20
10.3317483428
 30
0.0
 10
10.4290356505
 20
10.3339872752
 30
0.0
 10
10.436116313
 20
10.3361673049
 30
0.0
 10
10.4434700178
 20
10.3382860441
 30
0.0
 10
10.4510888431
 20
10.3403412276
 30
0.0
 10
10.4589645949
 20
10.3423306078
 30
0.0
 10
10.469936515
 20
10.3449254885
 30
0.0
 10
10.484234542
 20
10.3479791203
 30
0.0
 10
10.5020642826
 20
10.3513040943
 30
0.0
 10
10.5207006889
 20
10.3543200325
 30
0.0
 10
10.5400633703
 20
10.3570137773
 30
0.0
 10
10.5600689122
 20
10.3593735465
 30
0.0
 10
10.5806310304
 20
10.361389036
 30
0.0
 10
10.6016610181
 20
10.363051447
 30
0.0
 10
10.623068121
 20
10.3643535266
 30
0.0
 10
10.6447599396
 20
10.3652895953
 30
0.0
 10
10.6666428345
 20
10.3658555725
 30
0.0
 10
10.6886223296
 20
10.3660489885
 30
0.0
 10
10.710603539
 20
10.3658690052
 30
0.0
 10
10.7324915502
 20
10.3653163972
 30
0.0
 10
10.7541918188
 20
10.3643935913
 30
0.0
 10
10.7685777547
 20
10.3635278411
 30
0.0
 10
10.7757223535
 20
10.3630323615
 30
0.0
  0
SPLINE
  5
37C
100
AcDbEntity
  8
0
100
AcDbSpline
 62
7
  6
CONTINUOUS
 70
0
 71
3
 72
15
 73
11
 74
0
 42
0.0000001
 43
0.0000001
 44
0.0000000001
 40
0.0
 40
0.0
 40
0.0
 40
0.0
 40
0.1273482292
 40
0.2538605354
 40
0.3795879276
 40
0.5046050833
 40
0.6290174349
 40
0.7529533662
 40
0.8765605734
 40
1.0
 40
1.0
 40
1.0
 40
1.0
 10
10.1168565277
 20
7.7249865134
 30
0.0
 10
10.1168565277
 20
7.7277737313
 30
0.0
 10
10.1171226497
 20
7.7333337249
 30
0.0
 10
10.118326167
 20
7.741566781
 30
0.0
 10
10.1203218025
 20
7.749592971
 30
0.0
 10
10.1230915349
 20
7.7573372309
 30
0.0
 10
10.1266099338
 20
7.7647281474
 30
0.0
 10
10.1308449397
 20
7.7716974724
 30
0.0
 10
10.1357567321
 20
7.7781799021
 30
0.0
 10
10.1394550612
 20
7.7821397417
 30
0.0
 10
10.141398252
 20
7.7840167118
 30
0.0
  0
SPLINE
  5
37D
100
AcDbEntity
  8
0
100
AcDbSpline
 62
7
  6
CONTINUOUS
 70
0
 71
3
 72
49
 73
45
 74
0
 42
0.0000001
 43
0.0000001
 44
0.0000000001
 40
0.0
 40
0.0
 40
0.0
 40
0.0
 40
0.0055576144
 40
0.0111781208
 40
0.0169221352
 40
0.0228461048
 40
0.0354197819
 40
0.0421643435
 40
0.0492552775
 40
0.0567194596
 40
0.064578666
 40
0.0728504868
 40
0.0815486473
 40
0.0906837219
 40
0.1002634857
 40
0.110293286
 40
0.1207764871
 40
0.1317145115
 40
0.1431073698
 40
0.1549534932
 40
0.1672502454
 40
0.1799937352
 40
0.1931791681
 40
0.2208509363
 40
0.2502113544
 40
0.281193609
 40
0.3137211632
 40
0.3477089991
 40
0.3830646345
 40
0.4196889822
 40
0.4574771023
 40
0.4963188805
 40
0.5360996537
 40
0.5767008008
 40
0.618000307
 40
0.6598733106
 40
0.7021926404
 40
0.7448293417
 40
0.7876532194
 40
0.8305332787
 40
0.8733385007
 40
0.9159376011
 40
0.958201446
 40
1.0
 40
1.0
 40
1.0
 40
1.0
 10
10.3890180574
 20
10.2454750197
 30
0.0
 10
10.38901806
 20
10.246217161
 30
0.0
 10
10.3891011374
 20
10.2477111405
 30
0.0
 10
10.3894740645
 20
10.2499440989
 30
0.0
 10
10.3900947132
 20
10.2521721994
 30
0.0
 10
10.3912737323
 20
10.2551918165
 30
0.0
 10
10.3929457984
 20
10.2581417558
 30
0.0
 10
10.3950269921
 20
10.2609908487
 30
0.0
 10
10.3968652125
 20
10.2631645838
 30
0.0
 10
10.3989420434
 20
10.2653223688
 30
0.0
 10
10.4012559517
 20
10.2674633027
 30
0.0
 10
10.4038050315
 20
10.2695856351
 30
0.0
 10
10.4065872287
 20
10.2716878931
 30
0.0
 10
10.4096003401
 20
10.273768445
 30
0.0
 10
10.412841963
 20
10.2758256875
 30
0.0
 10
10.4163094991
 20
10.2778580256
 30
0.0
 10
10.4200001855
 20
10.2798637995
 30
0.0
 10
10.4239110321
 20
10.2818414587
 30
0.0
 10
10.4280389052
 20
10.2837893373
 30
0.0
 10
10.4323804442
 20
10.2857059231
 30
0.0
 10
10.4369321425
 20
10.2875895878
 30
0.0
 10
10.4416902953
 20
10.2894388639
 30
0.0
 10
10.4484132838
 20
10.2918962576
 30
0.0
 10
10.457311077
 20
10.2948612067
 30
0.0
 10
10.4685807205
 20
10.2982039021
 30
0.0
 10
10.4805716301
 20
10.3013752089
 30
0.0
 10
10.4932446746
 20
10.3043646442
 30
0.0
 10
10.5065586119
 20
10.3071623033
 30
0.0
 10
10.5204699777
 20
10.309758922
 30
0.0
 10
10.5349333223
 20
10.3121459033
 30
0.0
 10
10.5499013483
 20
10.3143153477
 30
0.0
 10
10.5653250807
 20
10.316260079
 30
0.0
 10
10.5811540313
 20
10.317973667
 30
0.0
 10
10.5973363693
 20
10.3194504476
 30
0.0
 10
10.6138190941
 20
10.320685541
 30
0.0
 10
10.6305482115
 20
10.3216748677
 30
0.0
 10
10.6474689129
 20
10.3224151613
 30
0.0
 10
10.6645257596
 20
10.322903979
 30
0.0
 10
10.681662857
 20
10.3231397051
 30
0.0
 10
10.698824068
 20
10.3231215674
 30
0.0
 10
10.715953114
 20
10.3228496141
 30
0.0
 10
10.7329939724
 20
10.3223247618
 30
0.0
 10
10.7498906441
 20
10.3215487178
 30
0.0
 10
10.7610954587
 20
10.3208611207
 30
0.0
 10
10.7666636944
 20
10.3204749623
 30
0.0
  0
SPLINE
  5
37E
100
AcDbEntity
  8
0
100
AcDbSpline
 62
7
  6
CONTINUOUS
 70
0
 71
3
 72
15
 73
11
 74
0
 42
0.0000001
 43
0.0000001
 44
0.0000000001
 40
0.0
 40
0.0
 40
0.0
 40
0.0
 40
0.1266942186
 40
0.2528683863
 40
0.3785207934
 40
0.5036798465
 40
0.6283694337
 40
0.7526243882
 40
0.8764856304
 40
1.0
 40
1.0
 40
1.0
 40
1.0
 10
10.8929492708
 20
7.8476672998
 30
0.0
 10
10.8929492708
 20
7.8500731305
 30
0.0
 10
10.8930939835
 20
7.8548762111
 30
0.0
 10
10.8937474192
 20
7.8620385628
 30
0.0
 10
10.8948345045
 20
7.8691188607
 30
0.0
 10
10.8963509729
 20
7.876090903
 30
0.0
 10
10.8982912287
 20
7.882929553
 30
0.0
 10
10.9006479718
 20
7.8896100731
 30
0.0
 10
10.9034121632
 20
7.8961080353
 30
0.0
 10
10.9055227622
 20
7.9003088512
 30
0.0
 10
10.9066419791
 20
7.9023700349
 30
0.0
  0
SPLINE
  5
37F
100
AcDbEntity
  8
0
100
AcDbSpline
 62
7
  6
CONTINUOUS
 70
0
 71
3
 72
38
 73
34
 74
0
 42
0.0000001
 43
0.0000001
 44
0.0000000001
 40
0.0
 40
0.0
 40
0.0
 40
0.0
 40
0.0065215821
 40
0.0131780915
 40
0.0269968354
 40
0.0416571723
 40
0.0573166101
 40
0.0740991117
 40
0.0920992621
 40
0.111387158
 40
0.1320127655
 40
0.1540094999
 40
0.1773973927
 40
0.2021854507
 40
0.228373341
 40
0.2559529888
 40
0.2849097315
 40
0.3152230387
 40
0.3468673469
 40
0.3798126907
 40
0.4140250145
 40
0.4494666422
 40
0.4860966921
 40
0.5238712262
 40
0.5627435311
 40
0.6026644376
 40
0.6435824146
 40
0.6854437572
 40
0.7281928244
 40
0.7717721345
 40
0.8161226836
 40
0.9068910182
 40
1.0
 40
1.0
 40
1.0
 40
1.0
 10
11.163048515
 20
10.2871332512
 30
0.0
 10
11.1628500852
 20
10.2879358148
 30
0.0
 10
11.162390694
 20
10.2895437034
 30
0.0
 10
11.1612264229
 20
10.292764204
 30
0.0
 10
11.159296996
 20
10.296793035
 30
0.0
 10
11.1562979982
 20
10.3015297128
 30
0.0
 10
11.1525938902
 20
10.3062250018
 30
0.0
 10
11.1481918985
 20
10.3108733484
 30
0.0
 10
11.1430990465
 20
10.315470033
 30
0.0
 10
11.1373228599
 20
10.3200095701
 30
0.0
 10
11.130871622
 20
10.3244861767
 30
0.0
 10
11.1237546129
 20
10.3288938291
 30
0.0
 10
11.1159821091
 20
10.3332263219
 30
0.0
 10
11.1075654283
 20
10.3374773628
 30
0.0
 10
11.0985169566
 20
10.3416407151
 30
0.0
 10
11.088850085
 20
10.345710175
 30
0.0
 10
11.078579185
 20
10.3496796061
 30
0.0
 10
11.0677196073
 20
10.3535430346
 30
0.0
 10
11.0562876263
 20
10.3572946173
 30
0.0
 10
11.0443004028
 20
10.3609286409
 30
0.0
 10
11.0317759744
 20
10.3644395957
 30
0.0
 10
11.0187332121
 20
10.3678221559
 30
0.0
 10
11.0051917777
 20
10.37107116
 30
0.0
 10
10.9911721072
 20
10.3741816701
 30
0.0
 10
10.9766953743
 20
10.3771489695
 30
0.0
 10
10.9617834453
 20
10.3799685315
 30
0.0
 10
10.946458854
 20
10.382636066
 30
0.0
 10
10.9307447692
 20
10.3851475337
 30
0.0
 10
10.914664957
 20
10.3874991007
 30
0.0
 10
10.8982437008
 20
10.3896872119
 30
0.0
 10
10.8757533343
 20
10.392403143
 30
0.0
 10
10.8469696443
 20
10.3953563143
 30
0.0
 10
10.82373198
 20
10.3972157363
 30
0.0
 10
10.8119569899
 20
10.3980323347
 30
0.0
  0
SPLINE
  5
380
100
AcDbEntity
  8
0
100
AcDbSpline
 62
7
  6
CONTINUOUS
 70
0
 71
3
 72
18
 73
14
 74
0
 42
0.0000001
 43
0.0000001
 44
0.0000000001
 40
0.0
 40
0.0
 40
0.0
 40
0.0
 40
0.0620971814
 40
0.1243557093
 40
0.1867561066
 40
0.2492773209
 40
0.3745483445
 40
0.5000203192
 40
0.6254925071
 40
0.7507641612
 40
0.8132858167
 40
0.8756867808
 40
1.0
 40
1.0
 40
1.0
 40
1.0
 10
10.2318160784
 20
7.7998946925
 30
0.0
 10
10.2323837482
 20
7.7983284041
 30
0.0
 10
10.2336046498
 20
7.7952215097
 30
0.0
 10
10.2356829431
 20
7.7906600381
 30
0.0
 10
10.2380045564
 20
7.7862043305
 30
0.0
 10
10.2414161681
 20
7.7804207026
 30
0.0
 10
10.2462513529
 20
7.7735259788
 30
0.0
 10
10.2528874562
 20
7.7658970694
 30
0.0
 10
10.2602803792
 20
7.7589989449
 30
0.0
 10
10.2670021639
 20
7.7539262536
 30
0.0
 10
10.2726636132
 20
7.7503149275
 30
0.0
 10
10.2784840398
 20
7.7470189827
 30
0.0
 10
10.2830357375
 20
7.744897806
 30
0.0
 10
10.286129778
 20
7.7436527329
 30
0.0
  0
SPLINE
  5
381
100
AcDbEntity
  8
0
100
AcDbSpline
 62
7
  6
CONTINUOUS
 70
0
 71
3
 72
54
 73
50
 74
0
 42
0.0000001
 43
0.0000001
 44
0.0000000001
 40
0.0
 40
0.0
 40
0.0
 40
0.0
 40
0.009842871
 40
0.0192576459
 40
0.0282665671
 40
0.0368961655
 40
0.0531356689
 40
0.0608338402
 40
0.068307506
 40
0.0756079959
 40
0.082790726
 40
0.0899142035
 40
0.0970385141
 40
0.1042237348
 40
0.1115282701
 40
0.1190074962
 40
0.1267125533
 40
0.1346897601
 40
0.1429802542
 40
0.1516199092
 40
0.1606397595
 40
0.1700660806
 40
0.179921061
 40
0.1902231389
 40
0.2009873433
 40
0.2122259541
 40
0.2239485022
 40
0.2361623915
 40
0.2488730285
 40
0.2620839708
 40
0.2757974068
 40
0.2900139458
 40
0.3047330967
 40
0.3356700571
 40
0.3685854475
 40
0.4034410186
 40
0.4401871499
 40
0.4787644331
 40
0.5191049035
 40
0.5611330127
 40
0.6047664203
 40
0.6499167286
 40
0.6964901151
 40
0.7443878236
 40
0.7935066665
 40
0.8437396885
 40
0.8949753519
 40
0.9471020741
 40
1.0
 40
1.0
 40
1.0
 40
1.0
 10
11.0117678835
 20
10.256049871
 30
0.0
 10
11.0124904291
 20
10.2567222721
 30
0.0
 10
11.0138737751
 20
10.2580710339
 30
0.0
 10
11.015798441
 20
10.2601536334
 30
0.0
 10
11.0175245066
 20
10.2622488866
 30
0.0
 10
11.0195185717
 20
10.2650008787
 30
0.0
 10
11.0211699199
 20
10.2678346521
 30
0.0
 10
11.0224185695
 20
10.2707297373
 30
0.0
 10
11.023134721
 20
10.2728694302
 30
0.0
 10
11.0236461311
 20
10.2750140777
 30
0.0
 10
11.0239520985
 20
10.2771622447
 30
0.0
 10
11.0240522542
 20
10.2793121678
 30
0.0
 10
11.0239464173
 20
10.2814620719
 30
0.0
 10
11.0236347172
 20
10.2836101508
 30
0.0
 10
11.0231176786
 20
10.2857547125
 30
0.0
 10
11.0223958712
 20
10.2878941555
 30
0.0
 10
11.021470208
 20
10.2900270828
 30
0.0
 10
11.020341572
 20
10.2921521946
 30
0.0
 10
11.0190109319
 20
10.2942682832
 30
0.0
 10
11.0174793669
 20
10.2963742551
 30
0.0
 10
11.0157478834
 20
10.2984689442
 30
0.0
 10
11.0138176754
 20
10.3005512933
 30
0.0
 10
11.0116899254
 20
10.3026201619
 30
0.0
 10
11.0093659282
 20
10.3046744074
 30
0.0
 10
11.0068471117
 20
10.3067129277
 30
0.0
 10
11.004134942
 20
10.3087345066
 30
0.0
 10
11.0012310716
 20
10.3107380309
 30
0.0
 10
10.9981372166
 20
10.3127223047
 30
0.0
 10
10.994855225
 20
10.3146861481
 30
0.0
 10
10.9913870785
 20
10.316628433
 30
0.0
 10
10.9877348387
 20
10.3185479368
 30
0.0
 10
10.9839007184
 20
10.3204435781
 30
0.0
 10
10.9784584093
 20
10.3229798764
 30
0.0
 10
10.9712096183
 20
10.3260734199
 30
0.0
 10
10.9619640814
 20
10.329613492
 30
0.0
 10
10.9520546856
 20
10.3330318722
 30
0.0
 10
10.9415054112
 20
10.3363202025
 30
0.0
 10
10.9303416493
 20
10.339470428
 30
0.0
 10
10.9185904127
 20
10.342474814
 30
0.0
 10
10.9062801771
 20
10.3453259778
 30
0.0
 10
10.8934408273
 20
10.3480169196
 30
0.0
 10
10.8801035627
 20
10.3505410307
 30
0.0
 10
10.8663008153
 20
10.3528921109
 30
0.0
 10
10.8520661672
 20
10.3550643851
 30
0.0
 10
10.8374342477
 20
10.3570525229
 30
0.0
 10
10.8224407517
 20
10.3588516291
 30
0.0
 10
10.8071220322
 20
10.3604573401
 30
0.0
 10
10.7915156296
 20
10.3618656461
 30
0.0
 10
10.781014088
 20
10.3626653784
 30
0.0
 10
10.7757223535
 20
10.3630323615
 30
0.0
  0
SPLINE
  5
382
100
AcDbEntity
  8
0
100
AcDbSpline
 62
7
  6
CONTINUOUS
 70
0
 71
3
 72
39
 73
35
 74
0
 42
0.0000001
 43
0.0000001
 44
0.0000000001
 40
0.0
 40
0.0
 40
0.0
 40
0.0
 40
0.0064813583
 40
0.013000307
 40
0.0195937286
 40
0.0262971358
 40
0.0331441955
 40
0.0401662528
 40
0.0548407871
 40
0.0705270771
 40
0.0873814213
 40
0.1055229261
 40
0.1250395805
 40
0.1459936324
 40
0.1684267656
 40
0.192364072
 40
0.2178168382
 40
0.2447853216
 40
0.2732603993
 40
0.3032248627
 40
0.3346548751
 40
0.3675205215
 40
0.4017865986
 40
0.4374133897
 40
0.4743567843
 40
0.5125689308
 40
0.5519985963
 40
0.5925911975
 40
0.6342893865
 40
0.6770331483
 40
0.7207598563
 40
0.8108996593
 40
0.904168474
 40
1.0
 40
1.0
 40
1.0
 40
1.0
 10
10.9890180324
 20
10.2454750197
 30
0.0
 10
10.9890180343
 20
10.24600476
 30
0.0
 10
10.988975929
 20
10.2470677877
 30
0.0
 10
10.9887866193
 20
10.2486595734
 30
0.0
 10
10.9884712774
 20
10.2502498087
 30
0.0
 10
10.9880301869
 20
10.2518375802
 30
0.0
 10
10.9874635823
 20
10.2534222211
 30
0.0
 10
10.9865277524
 20
10.2555609721
 30
0.0
 10
10.9850265282
 20
10.2582320696
 30
0.0
 10
10.9827568913
 20
10.2613618637
 30
0.0
 10
10.9799983078
 20
10.2644601977
 30
0.0
 10
10.9767561612
 20
10.2675231637
 30
0.0
 10
10.9730357409
 20
10.2705471345
 30
0.0
 10
10.9688429985
 20
10.2735280145
 30
0.0
 10
10.9641845275
 20
10.2764614729
 30
0.0
 10
10.9590677042
 20
10.2793429732
 30
0.0
 10
10.9535007527
 20
10.2821679867
 30
0.0
 10
10.9474926741
 20
10.2849319092
 30
0.0
 10
10.9410532696
 20
10.287630184
 30
0.0
 10
10.9341931218
 20
10.2902583673
 30
0.0
 10
10.9269235363
 20
10.2928120421
 30
0.0
 10
10.9192565477
 20
10.2952869418
 30
0.0
 10
10.9112048811
 20
10.2976789321
 30
0.0
 10
10.902781915
 20
10.2999839628
 30
0.0
 10
10.8940016764
 20
10.3021981816
 30
0.0
 10
10.8848787979
 20
10.3043178674
 30
0.0
 10
10.8754284921
 20
10.3063394302
 30
0.0
 10
10.8656665333
 20
10.3082595
 30
0.0
 10
10.8556092235
 20
10.3100748307
 30
0.0
 10
10.8452733465
 20
10.3117823797
 30
0.0
 10
10.8309992246
 20
10.3139332917
 30
0.0
 10
10.8125868347
 20
10.3163227249
 30
0.0
 10
10.7898849565
 20
10.3186919319
 30
0.0
 10
10.774477516
 20
10.3199330719
 30
0.0
 10
10.7666636944
 20
10.3204749623
 30
0.0
  0
SPLINE
  5
383
100
AcDbEntity
  8
0
100
AcDbSpline
 62
7
  6
CONTINUOUS
 70
0
 71
3
 72
15
 73
11
 74
0
 42
0.0000001
 43
0.0000001
 44
0.0000000001
 40
0.0
 40
0.0
 40
0.0
 40
0.0
 40
0.1273482292
 40
0.2538605354
 40
0.3795879276
 40
0.5046050833
 40
0.6290174349
 40
0.7529533662
 40
0.8765605734
 40
1.0
 40
1.0
 40
1.0
 40
1.0
 10
10.1168565277
 20
8.9024501479
 30
0.0
 10
10.1168565277
 20
8.9052373658
 30
0.0
 10
10.1171226497
 20
8.9107973594
 30
0.0
 10
10.118326167
 20
8.9190304155
 30
0.0
 10
10.1203218025
 20
8.9270566055
 30
0.0
 10
10.1230915349
 20
8.9348008654
 30
0.0
 10
10.1266099338
 20
8.9421917819
 30
0.0
 10
10.1308449397
 20
8.9491611069
 30
0.0
 10
10.1357567321
 20
8.9556435366
 30
0.0
 10
10.1394550612
 20
8.9596033762
 30
0.0
 10
10.141398252
 20
8.9614803463
 30
0.0
  0
SPLINE
  5
384
100
AcDbEntity
  8
0
100
AcDbSpline
 62
7
  6
CONTINUOUS
 70
0
 71
3
 72
34
 73
30
 74
0
 42
0.0000001
 43
0.0000001
 44
0.0000000001
 40
0.0
 40
0.0
 40
0.0
 40
0.0
 40
0.0297635189
 40
0.0596101885
 40
0.0895747989
 40
0.1196829417
 40
0.1499523195
 40
0.1803920339
 40
0.2110038544
 40
0.2417836452
 40
0.2727229385
 40
0.30381036
 40
0.3350328102
 40
0.3663763603
 40
0.4293452695
 40
0.4609682674
 40
0.4926577777
 40
0.556169429
 40
0.5879875297
 40
0.619826616
 40
0.6835117787
 40
0.7153546547
 40
0.7471799432
 40
0.8107248972
 40
0.8424423079
 40
0.8741052572
 40
0.9057042799
 40
0.9372298459
 40
1.0
 40
1.0
 40
1.0
 40
1.0
 10
10.7663186205
 20
8.1466949443
 30
0.0
 10
10.7639513894
 20
8.1448727696
 30
0.0
 10
10.7590158407
 20
8.1414684286
 30
0.0
 10
10.7511147365
 20
8.1371475089
 30
0.0
 10
10.7427862675
 20
8.1336316186
 30
0.0
 10
10.7341155684
 20
8.1309318757
 30
0.0
 10
10.7251853488
 20
8.1290428427
 30
0.0
 10
10.7160739324
 20
8.1279465871
 30
0.0
 10
10.7068527092
 20
8.1276154402
 30
0.0
 10
10.6975851338
 20
8.1280152187
 30
0.0
 10
10.6883264296
 20
8.1291079188
 30
0.0
 10
10.6791241648
 20
8.1308538261
 30
0.0
 10
10.6700183001
 20
8.1332133753
 30
0.0
 10
10.6580363727
 20
8.1371308831
 30
0.0
 10
10.6463889001
 20
8.1421229393
 30
0.0
 10
10.6351761543
 20
8.1480414857
 30
0.0
 10
10.6242377581
 20
8.1545611812
 30
0.0
 10
10.6137873577
 20
8.1619046106
 30
0.0
 10
10.6038863098
 20
8.169965221
 30
0.0
 10
10.5943552175
 20
8.1784865478
 30
0.0
 10
10.585413242
 20
8.1876509406
 30
0.0
 10
10.577115397
 20
8.1973781877
 30
0.0
 10
10.5692669968
 20
8.2074536868
 30
0.0
 10
10.5621060897
 20
8.2180343482
 30
0.0
 10
10.5556987635
 20
8.2290490739
 30
0.0
 10
10.5512892001
 20
8.2375048819
 30
0.0
 10
10.5472911664
 20
8.2461421084
 30
0.0
 10
10.5425428698
 20
8.2578551936
 30
0.0
 10
10.5396446721
 20
8.2668882511
 30
0.0
 10
10.5380454725
 20
8.2729820604
 30
0.0
  0
SPLINE
  5
385
100
AcDbEntity
  8
0
100
AcDbSpline
 62
7
  6
CONTINUOUS
 70
0
 71
3
 72
18
 73
14
 74
0
 42
0.0000001
 43
0.0000001
 44
0.0000000001
 40
0.0
 40
0.0
 40
0.0
 40
0.0
 40
0.0620971814
 40
0.1243557093
 40
0.1867561066
 40
0.2492773209
 40
0.3745483445
 40
0.5000203192
 40
0.6254925071
 40
0.7507641612
 40
0.8132858167
 40
0.8756867808
 40
1.0
 40
1.0
 40
1.0
 40
1.0
 10
10.2318160784
 20
8.977358327
 30
0.0
 10
10.2323837482
 20
8.9757920386
 30
0.0
 10
10.2336046498
 20
8.9726851442
 30
0.0
 10
10.2356829431
 20
8.9681236726
 30
0.0
 10
10.2380045564
 20
8.963667965
 30
0.0
 10
10.2414161681
 20
8.9578843371
 30
0.0
 10
10.2462513529
 20
8.9509896133
 30
0.0
 10
10.2528874562
 20
8.9433607039
 30
0.0
 10
10.2602803792
 20
8.9364625794
 30
0.0
 10
10.2670021639
 20
8.9313898881
 30
0.0
 10
10.2726636132
 20
8.927778562
 30
0.0
 10
10.2784840398
 20
8.9244826172
 30
0.0
 10
10.2830357375
 20
8.9223614405
 30
0.0
 10
10.286129778
 20
8.9211163674
 30
0.0
  0
SPLINE
  5
386
100
AcDbEntity
  8
0
100
AcDbSpline
 62
7
  6
CONTINUOUS
 70
0
 71
3
 72
37
 73
33
 74
0
 42
0.0000001
 43
0.0000001
 44
0.0000000001
 40
0.0
 40
0.0
 40
0.0
 40
0.0
 40
0.031146624
 40
0.0624481919
 40
0.0938952571
 40
0.1254804469
 40
0.1571906758
 40
0.1890114524
 40
0.2209257687
 40
0.25291484
 40
0.2849584237
 40
0.3170352183
 40
0.381163152
 40
0.4451601237
 40
0.4770758719
 40
0.5088983814
 40
0.5406106743
 40
0.5721979571
 40
0.6036479386
 40
0.6349511145
 40
0.6661010055
 40
0.697094333
 40
0.7279311336
 40
0.7586148063
 40
0.7891520874
 40
0.819552954
 40
0.8498304507
 40
0.8800004308
 40
0.9100812223
 40
0.9400932249
 40
0.9700584477
 40
1.0
 40
1.0
 40
1.0
 40
1.0
 10
11.4521611245
 20
7.5220058562
 30
0.0
 10
11.4503213732
 20
7.5221334434
 30
0.0
 10
11.4466406918
 20
7.5225239414
 30
0.0
 10
11.441164322
 20
7.5235075124
 30
0.0
 10
11.4357465765
 20
7.5248853177
 30
0.0
 10
11.4304167973
 20
7.5266497631
 30
0.0
 10
11.4252032297
 20
7.5287915195
 30
0.0
 10
11.4201337133
 20
7.5312990686
 30
0.0
 10
11.4152352389
 20
7.5341590574
 30
0.0
 10
11.4105339629
 20
7.5373561384
 30
0.0
 10
11.4060547252
 20
7.5408734891
 30
0.0
 10
11.4004126063
 20
7.5459629266
 30
0.0
 10
11.3940331981
 20
7.5530249218
 30
0.0
 10
11.3886798002
 20
7.5608820415
 30
0.0
 10
11.385084971
 20
7.5675419213
 30
0.0
 10
11.382748253
 20
7.5726929641
 30
0.0
 10
11.3807820643
 20
7.5779755584
 30
0.0
 10
11.3791967458
 20
7.5833618019
 30
0.0
 10
11.3780008545
 20
7.5888229165
 30
0.0
 10
11.3772008074
 20
7.5943297986
 30
0.0
 10
11.3768009258
 20
7.5998530683
 30
0.0
 10
11.3768034018
 20
7.6053632547
 30
0.0
 10
11.3772082873
 20
7.6108309424
 30
0.0
 10
11.3780134894
 20
7.6162269278
 30
0.0
 10
11.3792147806
 20
7.6215223727
 30
0.0
 10
11.380805808
 20
7.6266889607
 30
0.0
 10
11.3827781153
 20
7.6316990522
 30
0.0
 10
11.3851212113
 20
7.6365258386
 30
0.0
 10
11.3878225829
 20
7.6411434553
 30
0.0
 10
11.390867897
 20
7.6455272469
 30
0.0
 10
11.3942405667
 20
7.6496534364
 30
0.0
 10
11.3966963336
 20
7.6522188135
 30
0.0
 10
11.3979714485
 20
7.653450466
 30
0.0
  0
SPLINE
  5
387
100
AcDbEntity
  8
0
100
AcDbSpline
 62
7
  6
CONTINUOUS
 70
0
 71
3
 72
15
 73
11
 74
0
 42
0.0000001
 43
0.0000001
 44
0.0000000001
 40
0.0
 40
0.0
 40
0.0
 40
0.0
 40
0.1273482292
 40
0.2538605354
 40
0.3795879276
 40
0.5046050833
 40
0.6290174349
 40
0.7529533662
 40
0.8765605734
 40
1.0
 40
1.0
 40
1.0
 40
1.0
 10
11.6565423109
 20
8.8265822671
 30
0.0
 10
11.6565423109
 20
8.829369485
 30
0.0
 10
11.656808433
 20
8.8349294785
 30
0.0
 10
11.6580119502
 20
8.8431625347
 30
0.0
 10
11.6600075858
 20
8.8511887247
 30
0.0
 10
11.6627773181
 20
8.8589329846
 30
0.0
 10
11.6662957171
 20
8.866323901
 30
0.0
 10
11.6705307229
 20
8.8732932261
 30
0.0
 10
11.6754425154
 20
8.8797756558
 30
0.0
 10
11.6791408445
 20
8.8837354954
 30
0.0
 10
11.6810840353
 20
8.8856124655
 30
0.0
  0
SPLINE
  5
388
100
AcDbEntity
  8
0
100
AcDbSpline
 62
7
  6
CONTINUOUS
 70
0
 71
3
 72
47
 73
43
 74
0
 42
0.0000001
 43
0.0000001
 44
0.0000000001
 40
0.0
 40
0.0
 40
0.0
 40
0.0
 40
0.0958288778
 40
0.1428190813
 40
0.1890973258
 40
0.2345927051
 40
0.2792365599
 40
0.3229622087
 40
0.36570484
 40
0.4074019633
 40
0.4479935495
 40
0.4874221989
 40
0.5256333955
 40
0.562575849
 40
0.5982017357
 40
0.6324670006
 40
0.6653317986
 40
0.696761026
 40
0.7267248024
 40
0.7551991569
 40
0.7821669874
 40
0.8076191674
 40
0.8315558892
 40
0.8429599089
 40
0.8539904626
 40
0.8646510953
 40
0.8749464064
 40
0.8848822263
 40
0.8944655538
 40
0.903704898
 40
0.9126103679
 40
0.9211937503
 40
0.9294688928
 40
0.9374517342
 40
0.945160509
 40
0.9598347361
 40
0.9668566082
 40
0.9737035131
 40
0.9804067666
 40
0.9870000197
 40
0.9935188069
 40
1.0
 40
1.0
 40
1.0
 40
1.0
 10
10.8119569899
 20
10.4134871495
 30
0.0
 10
10.8243288321
 20
10.4126291594
 30
0.0
 10
10.8427540672
 20
10.4111449907
 30
0.0
 10
10.8671083049
 20
10.4087452779
 30
0.0
 10
10.8849573995
 20
10.4067667832
 30
0.0
 10
10.9024788301
 20
10.4046012488
 30
0.0
 10
10.9196432951
 20
10.4022523074
 30
0.0
 10
10.936422095
 20
10.3997239173
 30
0.0
 10
10.9527871966
 20
10.3970203126
 30
0.0
 10
10.9687112523
 20
10.3941460429
 30
0.0
 10
10.9841676694
 20
10.3911059481
 30
0.0
 10
10.9991306383
 20
10.3879051387
 30
0.0
 10
11.0135751824
 20
10.3845489866
 30
0.0
 10
11.0274772135
 20
10.3810431453
 30
0.0
 10
11.0408135674
 20
10.3773935147
 30
0.0
 10
11.0535620375
 20
10.3736062247
 30
0.0
 10
11.0657014275
 20
10.3696876292
 30
0.0
 10
11.0772116
 20
10.3656443158
 30
0.0
 10
11.088073513
 20
10.3614830551
 30
0.0
 10
11.0982692247
 20
10.3572107834
 30
0.0
 10
11.1077820578
 20
10.3528345748
 30
0.0
 10
11.1165962836
 20
10.3483616892
 30
0.0
 10
11.1234542458
 20
10.3444998005
 30
0.0
 10
11.1285697512
 20
10.3413610964
 30
0.0
 10
11.1321605747
 20
10.339025622
 30
0.0
 10
11.135566263
 20
10.3366715927
 30
0.0
 10
11.138785407
 20
10.3342999221
 30
0.0
 10
11.1418167048
 20
10.3319116128
 30
0.0
 10
11.1446588806
 20
10.3295075805
 30
0.0
 10
11.1473107661
 20
10.3270887883
 30
0.0
 10
11.1497712782
 20
10.324656214
 30
0.0
 10
11.1520393544
 20
10.3222107361
 30
0.0
 10
11.1541140191
 20
10.3197534007
 30
0.0
 10
11.1559945099
 20
10.3172848834
 30
0.0
 10
11.1582049005
 20
10.3140342481
 30
0.0
 10
11.1600750425
 20
10.3107068277
 30
0.0
 10
11.1615566944
 20
10.3073205651
 30
0.0
 10
11.16245386
 20
10.3048115414
 30
0.0
 10
11.1631522903
 20
10.3022975836
 30
0.0
 10
11.1636515722
 20
10.2997797079
 30
0.0
 10
11.163951342
 20
10.2972593881
 30
0.0
 10
11.1640180317
 20
10.2955762629
 30
0.0
 10
11.1640180352
 20
10.2947375085
 30
0.0
  0
SPLINE
  5
389
100
AcDbEntity
  8
0
100
AcDbSpline
 62
7
  6
CONTINUOUS
 70
0
 71
3
 72
47
 73
43
 74
0
 42
0.0000001
 43
0.0000001
 44
0.0000000001
 40
0.0
 40
0.0
 40
0.0
 40
0.0
 40
0.0958288778
 40
0.1428190813
 40
0.1890973258
 40
0.2345927051
 40
0.2792365599
 40
0.3229622087
 40
0.36570484
 40
0.4074019633
 40
0.4479935495
 40
0.4874221989
 40
0.5256333955
 40
0.562575849
 40
0.5982017357
 40
0.6324670006
 40
0.6653317986
 40
0.696761026
 40
0.7267248024
 40
0.7551991569
 40
0.7821669874
 40
0.8076191674
 40
0.8315558892
 40
0.8429599089
 40
0.8539904626
 40
0.8646510953
 40
0.8749464064
 40
0.8848822263
 40
0.8944655538
 40
0.903704898
 40
0.9126103679
 40
0.9211937503
 40
0.9294688928
 40
0.9374517342
 40
0.945160509
 40
0.9598347361
 40
0.9668566082
 40
0.9737035131
 40
0.9804067666
 40
0.9870000197
 40
0.9935188069
 40
1.0
 40
1.0
 40
1.0
 40
1.0
 10
12.1352878116
 20
10.2547266065
 30
0.0
 10
12.1476596538
 20
10.2538686163
 30
0.0
 10
12.1660848889
 20
10.2523844476
 30
0.0
 10
12.1904391267
 20
10.2499847348
 30
0.0
 10
12.2082882213
 20
10.2480062402
 30
0.0
 10
12.2258096519
 20
10.2458407058
 30
0.0
 10
12.2429741168
 20
10.2434917644
 30
0.0
 10
12.2597529167
 20
10.2409633742
 30
0.0
 10
12.2761180183
 20
10.2382597695
 30
0.0
 10
12.2920420741
 20
10.2353854998
 30
0.0
 10
12.3074984912
 20
10.232345405
 30
0.0
 10
12.32246146
 20
10.2291445956
 30
0.0
 10
12.3369060042
 20
10.2257884435
 30
0.0
 10
12.3508080352
 20
10.2222826022
 30
0.0
 10
12.3641443891
 20
10.2186329716
 30
0.0
 10
12.3768928593
 20
10.2148456816
 30
0.0
 10
12.3890322492
 20
10.2109270862
 30
0.0
 10
12.4005424218
 20
10.2068837728
 30
0.0
 10
12.4114043348
 20
10.2027225121
 30
0.0
 10
12.4216000464
 20
10.1984502404
 30
0.0
 10
12.4311128796
 20
10.1940740317
 30
0.0
 10
12.4399271054
 20
10.1896011462
 30
0.0
 10
12.4467850675
 20
10.1857392575
 30
0.0
 10
12.451900573
 20
10.1826005534
 30
0.0
 10
12.4554913965
 20
10.1802650789
 30
0.0
 10
12.4588970848
 20
10.1779110497
 30
0.0
 10
12.4621162287
 20
10.1755393791
 30
0.0
 10
12.4651475265
 20
10.1731510697
 30
0.0
 10
12.4679897024
 20
10.1707470375
 30
0.0
 10
12.4706415878
 20
10.1683282453
 30
0.0
 10
12.4731021
 20
10.1658956709
 30
0.0
 10
12.4753701761
 20
10.1634501931
 30
0.0
 10
12.4774448408
 20
10.1609928576
 30
0.0
 10
12.4793253317
 20
10.1585243403
 30
0.0
 10
12.4815357223
 20
10.1552737051
 30
0.0
 10
12.4834058643
 20
10.1519462846
 30
0.0
 10
12.4848875162
 20
10.148560022
 30
0.0
 10
12.4857846818
 20
10.1460509983
 30
0.0
 10
12.486483112
 20
10.1435370405
 30
0.0
 10
12.4869823939
 20
10.1410191649
 30
0.0
 10
12.4872821637
 20
10.1384988451
 30
0.0
 10
12.4873488535
 20
10.1368157198
 30
0.0
 10
12.487348857
 20
10.1359769655
 30
0.0
  0
SPLINE
  5
38A
100
AcDbEntity
  8
0
100
AcDbSpline
 62
7
  6
CONTINUOUS
 70
0
 71
3
 72
18
 73
14
 74
0
 42
0.0000001
 43
0.0000001
 44
0.0000000001
 40
0.0
 40
0.0
 40
0.0
 40
0.0
 40
0.0620971814
 40
0.1243557093
 40
0.1867561066
 40
0.2492773209
 40
0.3745483445
 40
0.5000203192
 40
0.6254925071
 40
0.7507641612
 40
0.8132858167
 40
0.8756867808
 40
1.0
 40
1.0
 40
1.0
 40
1.0
 10
11.7715018617
 20
8.9014904462
 30
0.0
 10
11.7720695315
 20
8.8999241578
 30
0.0
 10
11.773290433
 20
8.8968172634
 30
0.0
 10
11.7753687263
 20
8.8922557918
 30
0.0
 10
11.7776903397
 20
8.8878000841
 30
0.0
 10
11.7811019514
 20
8.8820164563
 30
0.0
 10
11.7859371362
 20
8.8751217325
 30
0.0
 10
11.7925732395
 20
8.8674928231
 30
0.0
 10
11.7999661624
 20
8.8605946986
 30
0.0
 10
11.8066879472
 20
8.8555220073
 30
0.0
 10
11.8123493965
 20
8.8519106812
 30
0.0
 10
11.8181698231
 20
8.8486147364
 30
0.0
 10
11.8227215207
 20
8.8464935597
 30
0.0
 10
11.8258155612
 20
8.8452484866
 30
0.0
  0
SPLINE
  5
38B
100
AcDbEntity
  8
0
100
AcDbSpline
 62
7
  6
CONTINUOUS
 70
0
 71
3
 72
15
 73
11
 74
0
 42
0.0000001
 43
0.0000001
 44
0.0000000001
 40
0.0
 40
0.0
 40
0.0
 40
0.0
 40
0.1273482292
 40
0.2538605354
 40
0.3795879276
 40
0.5046050833
 40
0.6290174349
 40
0.7529533662
 40
0.8765605734
 40
1.0
 40
1.0
 40
1.0
 40
1.0
 10
11.6565423109
 20
7.5882652218
 30
0.0
 10
11.6565423109
 20
7.5910524396
 30
0.0
 10
11.656808433
 20
7.5966124332
 30
0.0
 10
11.6580119502
 20
7.6048454894
 30
0.0
 10
11.6600075858
 20
7.6128716794
 30
0.0
 10
11.6627773181
 20
7.6206159392
 30
0.0
 10
11.6662957171
 20
7.6280068557
 30
0.0
 10
11.6705307229
 20
7.6349761808
 30
0.0
 10
11.6754425154
 20
7.6414586105
 30
0.0
 10
11.6791408445
 20
7.6454184501
 30
0.0
 10
11.6810840353
 20
7.6472954202
 30
0.0
  0
SPLINE
  5
38C
100
AcDbEntity
  8
0
100
AcDbSpline
 62
7
  6
CONTINUOUS
 70
0
 71
3
 72
18
 73
14
 74
0
 42
0.0000001
 43
0.0000001
 44
0.0000000001
 40
0.0
 40
0.0
 40
0.0
 40
0.0
 40
0.0620971814
 40
0.1243557093
 40
0.1867561066
 40
0.2492773209
 40
0.3745483445
 40
0.5000203192
 40
0.6254925071
 40
0.7507641612
 40
0.8132858167
 40
0.8756867808
 40
1.0
 40
1.0
 40
1.0
 40
1.0
 10
11.7715018617
 20
7.6631734008
 30
0.0
 10
11.7720695315
 20
7.6616071124
 30
0.0
 10
11.773290433
 20
7.6585002181
 30
0.0
 10
11.7753687263
 20
7.6539387465
 30
0.0
 10
11.7776903397
 20
7.6494830388
 30
0.0
 10
11.7811019514
 20
7.643699411
 30
0.0
 10
11.7859371362
 20
7.6368046872
 30
0.0
 10
11.7925732395
 20
7.6291757778
 30
0.0
 10
11.7999661624
 20
7.6222776533
 30
0.0
 10
11.8066879472
 20
7.617204962
 30
0.0
 10
11.8123493965
 20
7.6135936359
 30
0.0
 10
11.8181698231
 20
7.6102976911
 30
0.0
 10
11.8227215207
 20
7.6081765144
 30
0.0
 10
11.8258155612
 20
7.6069314413
 30
0.0
  0
SPLINE
  5
38D
100
AcDbEntity
  8
0
100
AcDbSpline
 62
7
  6
CONTINUOUS
 70
0
 71
3
 72
28
 73
24
 74
0
 42
0.0000001
 43
0.0000001
 44
0.0000000001
 40
0.0
 40
0.0
 40
0.0
 40
0.0
 40
0.0142027217
 40
0.0299110523
 40
0.0472130729
 40
0.0661415156
 40
0.0866848591
 40
0.1088016578
 40
0.1324323805
 40
0.1575063964
 40
0.1839473532
 40
0.2116771641
 40
0.2406177449
 40
0.2706932667
 40
0.3339558342
 40
0.4009017846
 40
0.4709926555
 40
0.5436937041
 40
0.6184492337
 40
0.6946607355
 40
0.7716708315
 40
0.8487581203
 40
1.0
 40
1.0
 40
1.0
 40
1.0
 10
11.0546029198
 20
7.8441212487
 30
0.0
 10
11.054896736
 20
7.8443596612
 30
0.0
 10
11.0555526457
 20
7.8448166218
 30
0.0
 10
11.0566593501
 20
7.8454180886
 30
0.0
 10
11.0579293072
 20
7.8459710804
 30
0.0
 10
11.0593549475
 20
7.8464789762
 30
0.0
 10
11.0609284884
 20
7.8469460732
 30
0.0
 10
11.0626416244
 20
7.8473768426
 30
0.0
 10
11.0644858602
 20
7.8477764218
 30
0.0
 10
11.0664528274
 20
7.8481500071
 30
0.0
 10
11.0685343663
 20
7.8485030696
 30
0.0
 10
11.0707226678
 20
7.8488409676
 30
0.0
 10
11.073010285
 20
7.8491691358
 30
0.0
 10
11.076238255
 20
7.8496079262
 30
0.0
 10
11.0804732153
 20
7.8501550665
 30
0.0
 10
11.0857650505
 20
7.8508417183
 30
0.0
 10
11.0913008809
 20
7.85160162
 30
0.0
 10
11.0970324123
 20
7.8524631342
 30
0.0
 10
11.1029093423
 20
7.8534494679
 30
0.0
 10
11.1088776166
 20
7.8545779992
 30
0.0
 10
11.1148787325
 20
7.8558593745
 30
0.0
 10
11.1227880381
 20
7.8577628221
 30
0.0
 10
11.128642829
 20
7.8594295571
 30
0.0
 10
11.1324825111
 20
7.8606509049
 30
0.0
  0
SPLINE
  5
38E
100
AcDbEntity
  8
0
100
AcDbSpline
 62
7
  6
CONTINUOUS
 70
0
 71
3
 72
32
 73
28
 74
0
 42
0.0000001
 43
0.0000001
 44
0.0000000001
 40
0.0
 40
0.0
 40
0.0
 40
0.0
 40
0.0308875523
 40
0.0615931044
 40
0.0921458521
 40
0.1225790631
 40
0.1529295393
 40
0.1832338384
 40
0.2135262931
 40
0.2438374821
 40
0.2741934842
 40
0.3046157051
 40
0.3351211107
 40
0.365722687
 40
0.3964299876
 40
0.4272496776
 40
0.4892138667
 40
0.520388953
 40
0.5516834153
 40
0.6146015201
 40
0.6779698318
 40
0.7417549545
 40
0.8059129559
 40
0.8703874806
 40
0.9027333731
 40
0.9351304593
 40
1.0
 40
1.0
 40
1.0
 40
1.0
 10
11.5083403954
 20
8.1866945933
 30
0.0
 10
11.5077841052
 20
8.1835782937
 30
0.0
 10
11.5063600322
 20
8.1774153451
 30
0.0
 10
11.5033027447
 20
8.1684637024
 30
0.0
 10
11.4993726026
 20
8.1599100343
 30
0.0
 10
11.4946259993
 20
8.1518242723
 30
0.0
 10
11.4891291075
 20
8.144261125
 30
0.0
 10
11.4829537137
 20
8.1372616979
 30
0.0
 10
11.4761734164
 20
8.130853951
 30
0.0
 10
11.4688605911
 20
8.1250545927
 30
0.0
 10
11.4610842933
 20
8.1198711441
 30
0.0
 10
11.4529090187
 20
8.1153040648
 30
0.0
 10
11.4443940619
 20
8.1113486511
 30
0.0
 10
11.4355936446
 20
8.1079966819
 30
0.0
 10
11.4265562994
 20
8.1052375883
 30
0.0
 10
11.4142318623
 20
8.1023291602
 30
0.0
 10
11.4016143278
 20
8.1005660721
 30
0.0
 10
11.3888744974
 20
8.0998912875
 30
0.0
 10
11.3760180179
 20
8.0999262258
 30
0.0
 10
11.3598922706
 20
8.1012849536
 30
0.0
 10
11.3407229617
 20
8.1049305069
 30
0.0
 10
11.321899324
 20
8.1105365677
 30
0.0
 10
11.3036335255
 20
8.1180566001
 30
0.0
 10
11.2890725907
 20
8.1258822037
 30
0.0
 10
11.277937329
 20
8.1330615283
 30
0.0
 10
11.2671771327
 20
8.140858115
 30
0.0
 10
11.2596013717
 20
8.1473822739
 30
0.0
 10
11.2548324128
 20
8.1520143817
 30
0.0
  0
SPLINE
  5
38F
100
AcDbEntity
  8
0
100
AcDbSpline
 62
7
  6
CONTINUOUS
 70
0
 71
3
 72
39
 73
35
 74
0
 42
0.0000001
 43
0.0000001
 44
0.0000000001
 40
0.0
 40
0.0
 40
0.0
 40
0.0
 40
0.0311160054
 40
0.0620232808
 40
0.0927351539
 40
0.1232711756
 40
0.1536587326
 40
0.1839312105
 40
0.2141268386
 40
0.2442870981
 40
0.2744549747
 40
0.3046731306
 40
0.33498209
 40
0.365418544
 40
0.3960138629
 40
0.4267928807
 40
0.457772997
 40
0.4889636213
 40
0.5203659688
 40
0.551973177
 40
0.5837707173
 40
0.6157370643
 40
0.6478445906
 40
0.6800606397
 40
0.7123487305
 40
0.7446698622
 40
0.7769838838
 40
0.8092508928
 40
0.841432625
 40
0.8734938027
 40
0.9054033951
 40
0.9371359477
 40
0.9686717614
 40
1.0
 40
1.0
 40
1.0
 40
1.0
 10
10.0935863781
 20
7.7215092736
 30
0.0
 10
10.0935863781
 20
7.7249574323
 30
0.0
 10
10.0939230049
 20
7.7318356081
 30
0.0
 10
10.0954454415
 20
7.7420153616
 30
0.0
 10
10.0979692699
 20
7.7519291903
 30
0.0
 10
10.1014706324
 20
7.7614801147
 30
0.0
 10
10.1059160245
 20
7.7705760856
 30
0.0
 10
10.111262782
 20
7.7791289766
 30
0.0
 10
10.1174593727
 20
7.7870559862
 30
0.0
 10
10.1244459509
 20
7.7942803295
 30
0.0
 10
10.1321549332
 20
7.8007320671
 30
0.0
 10
10.1405116843
 20
7.8063488019
 30
0.0
 10
10.1494352544
 20
7.8110763514
 30
0.0
 10
10.1588392395
 20
7.8148692473
 30
0.0
 10
10.168632664
 20
7.8176911519
 30
0.0
 10
10.178720892
 20
7.8195151769
 30
0.0
 10
10.1890065571
 20
7.8203241213
 30
0.0
 10
10.1993905151
 20
7.8201106222
 30
0.0
 10
10.2097728026
 20
7.8188771399
 30
0.0
 10
10.220053581
 20
7.8166359098
 30
0.0
 10
10.2301340707
 20
7.8134087913
 30
0.0
 10
10.2399174892
 20
7.8092270847
 30
0.0
 10
10.2493099574
 20
7.8041311934
 30
0.0
 10
10.2582213696
 20
7.7981702184
 30
0.0
 10
10.2665662347
 20
7.791401492
 30
0.0
 10
10.27426448
 20
7.7838900424
 30
0.0
 10
10.2812422328
 20
7.7757080029
 30
0.0
 10
10.2874324861
 20
7.7669338917
 30
0.0
 10
10.2927757345
 20
7.7576518917
 30
0.0
 10
10.2972205212
 20
7.7479510168
 30
0.0
 10
10.3007239898
 20
7.7379244412
 30
0.0
 10
10.3032521976
 20
7.7276680893
 30
0.0
 10
10.3047806526
 20
7.7172817457
 30
0.0
 10
10.3051241466
 20
7.7103107571
 30
0.0
 10
10.3051241466
 20
7.7068390796
 30
0.0
  0
SPLINE
  5
390
100
AcDbEntity
  8
0
100
AcDbSpline
 62
7
  6
CONTINUOUS
 70
0
 71
3
 72
72
 73
68
 74
0
 42
0.0000001
 43
0.0000001
 44
0.0000000001
 40
0.0
 40
0.0
 40
0.0
 40
0.0
 40
0.0038577872
 40
0.0078706379
 40
0.0120417989
 40
0.016373998
 40
0.0208695662
 40
0.025530388
 40
0.0303577982
 40
0.0353526471
 40
0.0458457985
 40
0.057010757
 40
0.0688432322
 40
0.0813351508
 40
0.0944752071
 40
0.1082492878
 40
0.1226408497
 40
0.137631187
 40
0.1531996177
 40
0.1693236973
 40
0.1859793989
 40
0.203141239
 40
0.2207823749
 40
0.2388747516
 40
0.2573892106
 40
0.2762955685
 40
0.2955627006
 40
0.3151586557
 40
0.3552048809
 40
0.396165797
 40
0.4377641133
 40
0.4797169416
 40
0.5217383276
 40
0.5635417216
 40
0.6048424552
 40
0.6453602545
 40
0.6652401271
 40
0.6848224416
 40
0.7040745256
 40
0.7229644518
 40
0.7414611486
 40
0.75953448
 40
0.7771553207
 40
0.7942956584
 40
0.81092873
 40
0.827029109
 40
0.8425728172
 40
0.8575374847
 40
0.8719025356
 40
0.8856493411
 40
0.8987614389
 40
0.911224845
 40
0.9230284005
 40
0.9341641721
 40
0.9446280174
 40
0.9544203652
 40
0.9590667794
 40
0.9635480768
 40
0.9678660966
 40
0.9720231996
 40
0.9760223019
 40
0.9798670466
 40
0.9835617895
 40
0.9871117241
 40
0.9905230284
 40
0.9938028811
 40
1.0
 40
1.0
 40
1.0
 40
1.0
 10
12.8884436085
 20
7.48605499
 30
0.0
 10
12.8892516246
 20
7.4868354736
 30
0.0
 10
12.8908668745
 20
7.4884625489
 30
0.0
 10
12.8932415972
 20
7.4910436894
 30
0.0
 10
12.8956140867
 20
7.4938115254
 30
0.0
 10
12.897983126
 20
7.4967646973
 30
0.0
 10
12.900347732
 20
7.4999018572
 30
0.0
 10
12.9027068524
 20
7.5032216499
 30
0.0
 10
12.9050594906
 20
7.5067226031
 30
0.0
 10
12.9082386551
 20
7.5117123148
 30
0.0
 10
12.9121810099
 20
7.5184010766
 30
0.0
 10
12.9167944148
 20
7.5269960124
 30
0.0
 10
12.9213568338
 20
7.5362712789
 30
0.0
 10
12.9258599901
 20
7.5462101851
 30
0.0
 10
12.9302957317
 20
7.5567949847
 30
0.0
 10
12.9346559929
 20
7.5680066234
 30
0.0
 10
12.9389328223
 20
7.5798248912
 30
0.0
 10
12.9431184017
 20
7.5922284371
 30
0.0
 10
12.9472050932
 20
7.6051948076
 30
0.0
 10
12.9511854361
 20
7.6187005013
 30
0.0
 10
12.9550521552
 20
7.6327210268
 30
0.0
 10
12.9587981777
 20
7.6472309424
 30
0.0
 10
12.9624166716
 20
7.6622038963
 30
0.0
 10
12.965901031
 20
7.6776126867
 30
0.0
 10
12.9692448908
 20
7.6934293201
 30
0.0
 10
12.9724421358
 20
7.7096250455
 30
0.0
 10
12.9754869674
 20
7.7261704394
 30
0.0
 10
12.9793639449
 20
7.7488203169
 30
0.0
 10
12.9837805075
 20
7.7777846401
 30
0.0
 10
12.9883551139
 20
7.8131966144
 30
0.0
 10
12.9922082876
 20
7.8492527474
 30
0.0
 10
12.9953119423
 20
7.8856909549
 30
0.0
 10
12.9976434081
 20
7.9222465353
 30
0.0
 10
12.9991858236
 20
7.9586539104
 30
0.0
 10
12.9999280134
 20
7.9946484255
 30
0.0
 10
12.9998752048
 20
8.0242663426
 30
0.0
 10
12.999421165
 20
8.0475529719
 30
0.0
 10
12.9988811866
 20
8.0646427898
 30
0.0
 10
12.9981406863
 20
8.0814365427
 30
0.0
 10
12.9972009991
 20
8.0979037182
 30
0.0
 10
12.9960638662
 20
8.1140143728
 30
0.0
 10
12.9947313844
 20
8.1297392265
 30
0.0
 10
12.9932060027
 20
8.1450496995
 30
0.0
 10
12.9914905161
 20
8.1599179729
 30
0.0
 10
12.989588089
 20
8.1743170461
 30
0.0
 10
12.9875022233
 20
8.1882207837
 30
0.0
 10
12.9852367485
 20
8.2016039578
 30
0.0
 10
12.9827958231
 20
8.2144423072
 30
0.0
 10
12.9801839453
 20
8.2267125917
 30
0.0
 10
12.9774059144
 20
8.2383926308
 30
0.0
 10
12.9744668167
 20
8.249461345
 30
0.0
 10
12.9713720297
 20
8.2598988283
 30
0.0
 10
12.9681272098
 20
8.2696863675
 30
0.0
 10
12.9647382207
 20
8.2788065925
 30
0.0
 10
12.961211157
 20
8.2872431343
 30
0.0
 10
12.9581100274
 20
8.2938019857
 30
0.0
 10
12.9555572484
 20
8.298685221
 30
0.0
 10
12.9536456691
 20
8.3021030021
 30
0.0
 10
12.9517044092
 20
8.3053389801
 30
0.0
 10
12.949734307
 20
8.3083917292
 30
0.0
 10
12.947736174
 20
8.3112598599
 30
0.0
 10
12.945710912
 20
8.3139421135
 30
0.0
 10
12.9436593397
 20
8.316437303
 30
0.0
 10
12.9415823559
 20
8.3187442143
 30
0.0
 10
12.9394805813
 20
8.3208620553
 30
0.0
 10
12.9366997892
 20
8.3233839326
 30
0.0
 10
12.9345005178
 20
8.3250660366
 30
0.0
 10
12.9329958558
 20
8.3260623766
 30
0.0
  0
SPLINE
  5
391
100
AcDbEntity
  8
0
100
AcDbSpline
 62
7
  6
CONTINUOUS
 70
0
 71
3
 72
11
 73
7
 74
0
 42
0.0000001
 43
0.0000001
 44
0.0000000001
 40
0.0
 40
0.0
 40
0.0
 40
0.0
 40
0.2730455232
 40
0.5298860536
 40
0.7716949754
 40
1.0
 40
1.0
 40
1.0
 40
1.0
 10
12.8884436085
 20
7.48605499
 30
0.0
 10
12.8872650356
 20
7.4849165759
 30
0.0
 10
12.8849094576
 20
7.4827762913
 30
0.0
 10
12.8812656358
 20
7.4799109587
 30
0.0
 10
12.8776264941
 20
7.4774959436
 30
0.0
 10
12.8751395364
 20
7.4761528689
 30
0.0
 10
12.8739017772
 20
7.4755653803
 30
0.0
  0
SPLINE
  5
392
100
AcDbEntity
  8
0
100
AcDbSpline
 62
7
  6
CONTINUOUS
 70
0
 71
3
 72
15
 73
11
 74
0
 42
0.0000001
 43
0.0000001
 44
0.0000000001
 40
0.0
 40
0.0
 40
0.0
 40
0.0
 40
0.148189077
 40
0.2884124565
 40
0.4211645545
 40
0.5470824521
 40
0.6669392739
 40
0.7816491473
 40
0.892270482
 40
1.0
 40
1.0
 40
1.0
 40
1.0
 10
12.8884436085
 20
7.4986120265
 30
0.0
 10
12.8874084438
 20
7.497612134
 30
0.0
 10
12.8853392415
 20
7.4957212483
 30
0.0
 10
12.8821483258
 20
7.4931573842
 30
0.0
 10
12.8789607537
 20
7.4909492009
 30
0.0
 10
12.8757790284
 20
7.489099095
 30
0.0
 10
12.8726053245
 20
7.4876093298
 30
0.0
 10
12.8694419427
 20
7.4864820204
 30
0.0
 10
12.8662922127
 20
7.4857195606
 30
0.0
 10
12.8641828485
 20
7.4854531502
 30
0.0
 10
12.8631389123
 20
7.48538325
 30
0.0
  0
SPLINE
  5
393
100
AcDbEntity
  8
0
100
AcDbSpline
 62
7
  6
CONTINUOUS
 70
0
 71
3
 72
11
 73
7
 74
0
 42
0.0000001
 43
0.0000001
 44
0.0000000001
 40
0.0
 40
0.0
 40
0.0
 40
0.0
 40
0.2783980103
 40
0.5363556557
 40
0.7759608084
 40
1.0
 40
1.0
 40
1.0
 40
1.0
 10
12.8708767651
 20
7.509972513
 30
0.0
 10
12.869496189
 20
7.5086389787
 30
0.0
 10
12.8667376305
 20
7.5061685499
 30
0.0
 10
12.8624358062
 20
7.5029734428
 30
0.0
 10
12.8581402579
 20
7.5004432549
 30
0.0
 10
12.855197121
 20
7.4991675774
 30
0.0
 10
12.8537394354
 20
7.4986565424
 30
0.0
  0
SPLINE
  5
394
100
AcDbEntity
  8
0
100
AcDbSpline
 62
7
  6
CONTINUOUS
 70
0
 71
3
 72
79
 73
75
 74
0
 42
0.0000001
 43
0.0000001
 44
0.0000000001
 40
0.0
 40
0.0
 40
0.0
 40
0.0
 40
0.0039560108
 40
0.0080772526
 40
0.0123672752
 40
0.0168290416
 40
0.0214650553
 40
0.0262773074
 40
0.0312671531
 40
0.0364354308
 40
0.041782613
 40
0.0473087458
 40
0.0588960363
 40
0.0711922394
 40
0.0841874692
 40
0.0978682933
 40
0.112218173
 40
0.1272178823
 40
0.1428458183
 40
0.1590782331
 40
0.1758894199
 40
0.1932519274
 40
0.2111367204
 40
0.2295133047
 40
0.248349839
 40
0.2676132841
 40
0.2872695146
 40
0.3072834118
 40
0.3276189584
 40
0.3691063989
 40
0.4114305973
 40
0.4542815324
 40
0.4973442442
 40
0.5403017884
 40
0.5828381983
 40
0.6246414709
 40
0.6451728663
 40
0.6654072997
 40
0.6853082261
 40
0.7048399086
 40
0.7239675321
 40
0.7426573194
 40
0.7608766185
 40
0.778594011
 40
0.7957794528
 40
0.8124044178
 40
0.8284420169
 40
0.8438671561
 40
0.8586567504
 40
0.8727899539
 40
0.8862483937
 40
0.8990164912
 40
0.9110819013
 40
0.9224360403
 40
0.9278452092
 40
0.9330754179
 40
0.9381269739
 40
0.943000636
 40
0.9476975505
 40
0.9522194153
 40
0.9565684954
 40
0.9607476489
 40
0.964760521
 40
0.9686115289
 40
0.9723060082
 40
0.9758503723
 40
0.9792521397
 40
0.9825201504
 40
0.9856646502
 40
0.9886973594
 40
0.9916316148
 40
0.994482309
 40
0.9972658479
 40
1.0
 40
1.0
 40
1.0
 40
1.0
 10
12.8884436085
 20
7.4986120265
 30
0.0
 10
12.8892583441
 20
7.4993990006
 30
0.0
 10
12.8908869558
 20
7.5010422634
 30
0.0
 10
12.8932794271
 20
7.5036541124
 30
0.0
 10
12.8956694586
 20
7.5064612616
 30
0.0
 10
12.8980557402
 20
7.5094622252
 30
0.0
 10
12.9004372061
 20
7.5126555332
 30
0.0
 10
12.9028127144
 20
7.5160396993
 30
0.0
 10
12.9051811629
 20
7.5196130937
 30
0.0
 10
12.9075414108
 20
7.5233739753
 30
0.0
 10
12.9098922839
 20
7.5273205381
 30
0.0
 10
12.9130630043
 20
7.5329163803
 30
0.0
 10
12.9169868663
 20
7.5403699726
 30
0.0
 10
12.9215686276
 20
7.5498860458
 30
0.0
 10
12.9260860855
 20
7.5600918513
 30
0.0
 10
12.9305303613
 20
7.5709675006
 30
0.0
 10
12.9348927358
 20
7.5824919249
 30
0.0
 10
12.9391646167
 20
7.5946426724
 30
0.0
 10
12.9433375795
 20
7.6073960481
 30
0.0
 10
12.9474033864
 20
7.6207271357
 30
0.0
 10
12.9513540277
 20
7.6346098516
 30
0.0
 10
12.955181712
 20
7.6490170125
 30
0.0
 10
12.9588788868
 20
7.6639203978
 30
0.0
 10
12.962438256
 20
7.6792907986
 30
0.0
 10
12.9658528123
 20
7.6950980715
 30
0.0
 10
12.9691158294
 20
7.7113112123
 30
0.0
 10
12.9722208673
 20
7.7278984111
 30
0.0
 10
12.9751618314
 20
7.744827147
 30
0.0
 10
12.9788812164
 20
7.7679634833
 30
0.0
 10
12.9830708425
 20
7.7974919943
 30
0.0
 10
12.9873289404
 20
7.8335123529
 30
0.0
 10
12.9908166877
 20
7.8700685949
 30
0.0
 10
12.9935066005
 20
7.9068739353
 30
0.0
 10
12.9953776096
 20
7.943639869
 30
0.0
 10
12.99641505
 20
7.9800779535
 30
0.0
 10
12.9965795171
 20
8.0101089551
 30
0.0
 10
12.99628066
 20
8.0337501025
 30
0.0
 10
12.9958464432
 20
8.0511162491
 30
0.0
 10
12.9952017676
 20
8.0681894032
 30
0.0
 10
12.9943478912
 20
8.0849360832
 30
0.0
 10
12.9932865163
 20
8.1013234199
 30
0.0
 10
12.9920197608
 20
8.1173192674
 30
0.0
 10
12.9905501433
 20
8.1328922505
 30
0.0
 10
12.9888805767
 20
8.148011828
 30
0.0
 10
12.9870143747
 20
8.1626483613
 30
0.0
 10
12.9849552537
 20
8.1767731786
 30
0.0
 10
12.9827073046
 20
8.190358625
 30
0.0
 10
12.9802749844
 20
8.2033781196
 30
0.0
 10
12.9776631203
 20
8.2158062215
 30
0.0
 10
12.9748769046
 20
8.2276186978
 30
0.0
 10
12.9719218598
 20
8.2387925452
 30
0.0
 10
12.9688038165
 20
8.2493061303
 30
0.0
 10
12.9655289121
 20
8.2591389702
 30
0.0
 10
12.9626294938
 20
8.2668703343
 30
0.0
 10
12.9602288809
 20
8.2726928607
 30
0.0
 10
12.9584223642
 20
8.2768070205
 30
0.0
 10
12.9565815167
 20
8.2807372776
 30
0.0
 10
12.9547072503
 20
8.2844817527
 30
0.0
 10
12.9528004281
 20
8.2880386173
 30
0.0
 10
12.9508619746
 20
8.2914061611
 30
0.0
 10
12.9488928306
 20
8.2945827764
 30
0.0
 10
12.9468938665
 20
8.2975669075
 30
0.0
 10
12.9448660538
 20
8.3003571468
 30
0.0
 10
12.9428102993
 20
8.3029521448
 30
0.0
 10
12.940727495
 20
8.3053506208
 30
0.0
 10
12.9386186057
 20
8.30755144
 30
0.0
 10
12.9364844914
 20
8.3095534593
 30
0.0
 10
12.9343260735
 20
8.311355646
 30
0.0
 10
12.9321442891
 20
8.3129570434
 30
0.0
 10
12.929940017
 20
8.3143566383
 30
0.0
 10
12.9277142966
 20
8.3155535767
 30
0.0
 10
12.9254680937
 20
8.3165469917
 30
0.0
 10
12.9232027782
 20
8.3173359872
 30
0.0
 10
12.9216698841
 20
8.31772802
 30
0.0
 10
12.9209036266
 20
8.3178885253
 30
0.0
  0
SPLINE
  5
395
100
AcDbEntity
  8
0
100
AcDbSpline
 62
7
  6
CONTINUOUS
 70
0
 71
3
 72
39
 73
35
 74
0
 42
0.0000001
 43
0.0000001
 44
0.0000000001
 40
0.0
 40
0.0
 40
0.0
 40
0.0
 40
0.0311160054
 40
0.0620232808
 40
0.0927351539
 40
0.1232711756
 40
0.1536587326
 40
0.1839312105
 40
0.2141268386
 40
0.2442870981
 40
0.2744549747
 40
0.3046731306
 40
0.33498209
 40
0.365418544
 40
0.3960138629
 40
0.4267928807
 40
0.457772997
 40
0.4889636213
 40
0.5203659688
 40
0.551973177
 40
0.5837707173
 40
0.6157370643
 40
0.6478445906
 40
0.6800606397
 40
0.7123487305
 40
0.7446698622
 40
0.7769838838
 40
0.8092508928
 40
0.841432625
 40
0.8734938027
 40
0.9054033951
 40
0.9371359477
 40
0.9686717614
 40
1.0
 40
1.0
 40
1.0
 40
1.0
 10
10.3051241466
 20
7.7068390796
 30
0.0
 10
10.3051241466
 20
7.7033909209
 30
0.0
 10
10.3047875198
 20
7.6965127451
 30
0.0
 10
10.3032650832
 20
7.6863329916
 30
0.0
 10
10.3007412548
 20
7.6764191629
 30
0.0
 10
10.2972398922
 20
7.6668682385
 30
0.0
 10
10.2927945001
 20
7.6577722676
 30
0.0
 10
10.2874477426
 20
7.6492193767
 30
0.0
 10
10.281251152
 20
7.641292367
 30
0.0
 10
10.2742645737
 20
7.6340680237
 30
0.0
 10
10.2665555915
 20
7.6276162861
 30
0.0
 10
10.2581988403
 20
7.6219995513
 30
0.0
 10
10.2492752703
 20
7.6172720018
 30
0.0
 10
10.2398712851
 20
7.6134791059
 30
0.0
 10
10.2300778607
 20
7.6106572013
 30
0.0
 10
10.2199896327
 20
7.6088331763
 30
0.0
 10
10.2097039675
 20
7.6080242319
 30
0.0
 10
10.1993200095
 20
7.608237731
 30
0.0
 10
10.1889377221
 20
7.6094712133
 30
0.0
 10
10.1786569436
 20
7.6117124434
 30
0.0
 10
10.168576454
 20
7.6149395619
 30
0.0
 10
10.1587930355
 20
7.6191212686
 30
0.0
 10
10.1494005672
 20
7.6242171598
 30
0.0
 10
10.1404891551
 20
7.6301781349
 30
0.0
 10
10.13214429
 20
7.6369468612
 30
0.0
 10
10.1244460447
 20
7.6444583108
 30
0.0
 10
10.1174682919
 20
7.6526403503
 30
0.0
 10
10.1112780385
 20
7.6614144615
 30
0.0
 10
10.1059347902
 20
7.6706964615
 30
0.0
 10
10.1014900035
 20
7.6803973364
 30
0.0
 10
10.0979865348
 20
7.690423912
 30
0.0
 10
10.0954583271
 20
7.7006802639
 30
0.0
 10
10.0939298721
 20
7.7110666075
 30
0.0
 10
10.0935863781
 20
7.7180375961
 30
0.0
 10
10.0935863781
 20
7.7215092736
 30
0.0
  0
SPLINE
  5
396
100
AcDbEntity
  8
0
100
AcDbSpline
 62
7
  6
CONTINUOUS
 70
0
 71
3
 72
73
 73
69
 74
0
 42
0.0000001
 43
0.0000001
 44
0.0000000001
 40
0.0
 40
0.0
 40
0.0
 40
0.0
 40
0.003888158
 40
0.00793453
 40
0.0121424545
 40
0.0165147245
 40
0.0210537193
 40
0.0257613561
 40
0.0306389886
 40
0.0356874595
 40
0.0462979645
 40
0.057593527
 40
0.0695694391
 40
0.0822170854
 40
0.0955245076
 40
0.109476859
 40
0.1240567902
 40
0.1392447181
 40
0.1550190179
 40
0.1713562586
 40
0.1882313812
 40
0.2056178167
 40
0.2234876029
 40
0.2418115391
 40
0.260559291
 40
0.279699464
 40
0.2991997122
 40
0.3190268502
 40
0.3595246125
 40
0.4009142557
 40
0.4429084572
 40
0.4852144645
 40
0.5275367606
 40
0.5695796857
 40
0.6110500563
 40
0.6516598133
 40
0.6715543697
 40
0.6911294516
 40
0.7103516841
 40
0.7291885321
 40
0.7476084002
 40
0.7655807029
 40
0.7830759632
 40
0.8000659552
 40
0.816523803
 40
0.832424084
 40
0.8477429844
 40
0.8624584964
 40
0.876550566
 40
0.8900013042
 40
0.9027952922
 40
0.9149199278
 40
0.9263658059
 40
0.9371272639
 40
0.9472031429
 40
0.9519855063
 40
0.9565985865
 40
0.961043988
 40
0.9653238287
 40
0.9694407631
 40
0.973398162
 40
0.977200097
 40
0.9808514547
 40
0.984358102
 40
0.9877268954
 40
0.9909658603
 40
0.9940843021
 40
1.0
 40
1.0
 40
1.0
 40
1.0
 10
12.8708767651
 20
7.509972513
 30
0.0
 10
12.8716501989
 20
7.5107195927
 30
0.0
 10
12.8731962982
 20
7.5122778248
 30
0.0
 10
12.8754687934
 20
7.5147512592
 30
0.0
 10
12.8777391007
 20
7.5174055064
 30
0.0
 10
12.8800060238
 20
7.5202392316
 30
0.0
 10
12.8822685996
 20
7.5232511077
 30
0.0
 10
12.8845257979
 20
7.5264398017
 30
0.0
 10
12.8867766397
 20
7.5298038676
 30
0.0
 10
12.8898184685
 20
7.5346009166
 30
0.0
 10
12.8935897867
 20
7.5410342373
 30
0.0
 10
12.898001428
 20
7.549303721
 30
0.0
 10
12.9023631022
 20
7.5582310394
 30
0.0
 10
12.906666698
 20
7.5677997353
 30
0.0
 10
12.9109042341
 20
7.5779922992
 30
0.0
 10
12.9150678124
 20
7.5887899314
 30
0.0
 10
12.9191496501
 20
7.6001726898
 30
0.0
 10
12.9231420997
 20
7.612119502
 30
0.0
 10
12.9270377
 20
7.6246082059
 30
0.0
 10
12.9308291608
 20
7.6376156093
 30
0.0
 10
12.9345093779
 20
7.6511175447
 30
0.0
 10
12.9380714573
 20
7.6650889057
 30
0.0
 10
12.9415087437
 20
7.6795036924
 30
0.0
 10
12.9448148049
 20
7.6943350743
 30
0.0
 10
12.9479834489
 20
7.709555444
 30
0.0
 10
12.9510087456
 20
7.7251364509
 30
0.0
 10
12.9538850712
 20
7.7410490913
 30
0.0
 10
12.9575399667
 20
7.7628217409
 30
0.0
 10
12.9616894418
 20
7.790647571
 30
0.0
 10
12.9659632239
 20
7.8246440628
 30
0.0
 10
12.969533599
 20
7.8592244006
 30
0.0
 10
12.9723739092
 20
7.8941310503
 30
0.0
 10
12.9744629187
 20
7.9291042034
 30
0.0
 10
12.9757851549
 20
7.9638835421
 30
0.0
 10
12.9763308507
 20
7.9982100375
 30
0.0
 10
12.9761341525
 20
8.0264147923
 30
0.0
 10
12.9755774695
 20
8.0485553907
 30
0.0
 10
12.9749679461
 20
8.0647764841
 30
0.0
 10
12.9741647879
 20
8.0806962573
 30
0.0
 10
12.9731694895
 20
8.0962850788
 30
0.0
 10
12.9719839435
 20
8.11151391
 30
0.0
 10
12.970610383
 20
8.126354393
 30
0.0
 10
12.9690513861
 20
8.1407788953
 30
0.0
 10
12.9673098979
 20
8.1547605733
 30
0.0
 10
12.9653892066
 20
8.168273421
 30
0.0
 10
12.9632929277
 20
8.1812923119
 30
0.0
 10
12.9610250011
 20
8.1937930564
 30
0.0
 10
12.9585897119
 20
8.2057524591
 30
0.0
 10
12.9559916491
 20
8.2171483592
 30
0.0
 10
12.9532356903
 20
8.2279596701
 30
0.0
 10
12.9503270057
 20
8.2381664503
 30
0.0
 10
12.9472710534
 20
8.2477499285
 30
0.0
 10
12.9440735092
 20
8.2566926441
 30
0.0
 10
12.9407402801
 20
8.264978135
 30
0.0
 10
12.9378056165
 20
8.2714306316
 30
0.0
 10
12.9353872879
 20
8.2762427862
 30
0.0
 10
12.9335750758
 20
8.2796151211
 30
0.0
 10
12.931733634
 20
8.2828122052
 30
0.0
 10
12.9298637845
 20
8.2858325951
 30
0.0
 10
12.9279663203
 20
8.2886748825
 30
0.0
 10
12.9260421165
 20
8.2913377924
 30
0.0
 10
12.9240920002
 20
8.2938201074
 30
0.0
 10
12.9221167783
 20
8.2961206539
 30
0.0
 10
12.9201173011
 20
8.2982384167
 30
0.0
 10
12.9180944591
 20
8.3001723129
 30
0.0
 10
12.9160487247
 20
8.3019215796
 30
0.0
 10
12.9133407275
 20
8.3039698602
 30
0.0
 10
12.9112048055
 20
8.3052861729
 30
0.0
 10
12.9097508468
 20
8.3060363315
 30
0.0
  0
SPLINE
  5
397
100
AcDbEntity
  8
0
100
AcDbSpline
 62
7
  6
CONTINUOUS
 70
0
 71
3
 72
23
 73
19
 74
0
 42
0.0000001
 43
0.0000001
 44
0.0000000001
 40
0.0
 40
0.0
 40
0.0
 40
0.0
 40
0.0577246198
 40
0.1173320982
 40
0.1785736765
 40
0.2411911447
 40
0.3049184956
 40
0.3694835237
 40
0.434609394
 40
0.5000161937
 40
0.5654224726
 40
0.6305467826
 40
0.6951092183
 40
0.7588329591
 40
0.8214458204
 40
0.8826818227
 40
0.9422827907
 40
1.0
 40
1.0
 40
1.0
 40
1.0
 10
12.8101898315
 20
7.6968475873
 30
0.0
 10
12.8119487367
 20
7.7047627953
 30
0.0
 10
12.8153396073
 20
7.7208928276
 30
0.0
 10
12.8199836846
 20
7.7455441525
 30
0.0
 10
12.824252645
 20
7.770960373
 30
0.0
 10
12.8281267483
 20
7.7970248269
 30
0.0
 10
12.8315881251
 20
7.8236180649
 30
0.0
 10
12.8346208156
 20
7.8506181242
 30
0.0
 10
12.8372108524
 20
7.8779011748
 30
0.0
 10
12.8393463202
 20
7.9053420712
 30
0.0
 10
12.8410174104
 20
7.9328149381
 30
0.0
 10
12.8422164689
 20
7.9601937514
 30
0.0
 10
12.8429380312
 20
7.9873529215
 30
0.0
 10
12.8431788464
 20
8.0141678804
 30
0.0
 10
12.8429378954
 20
8.0405156373
 30
0.0
 10
12.8422163961
 20
8.0662754295
 30
0.0
 10
12.8410178069
 20
8.091328998
 30
0.0
 10
12.8398847448
 20
8.1077706427
 30
0.0
 10
12.8392346756
 20
8.115851781
 30
0.0
  0
SPLINE
  5
398
100
AcDbEntity
  8
0
100
AcDbSpline
 62
7
  6
CONTINUOUS
 70
0
 71
3
 72
39
 73
35
 74
0
 42
0.0000001
 43
0.0000001
 44
0.0000000001
 40
0.0
 40
0.0
 40
0.0
 40
0.0
 40
0.0311160054
 40
0.0620232808
 40
0.0927351539
 40
0.1232711756
 40
0.1536587326
 40
0.1839312105
 40
0.2141268386
 40
0.2442870981
 40
0.2744549747
 40
0.3046731306
 40
0.33498209
 40
0.365418544
 40
0.3960138629
 40
0.4267928807
 40
0.457772997
 40
0.4889636213
 40
0.5203659688
 40
0.551973177
 40
0.5837707173
 40
0.6157370643
 40
0.6478445906
 40
0.6800606397
 40
0.7123487305
 40
0.7446698622
 40
0.7769838838
 40
0.8092508928
 40
0.841432625
 40
0.8734938027
 40
0.9054033951
 40
0.9371359477
 40
0.9686717614
 40
1.0
 40
1.0
 40
1.0
 40
1.0
 10
10.0935863781
 20
8.8989729082
 30
0.0
 10
10.0935863781
 20
8.9024210668
 30
0.0
 10
10.0939230049
 20
8.9092992426
 30
0.0
 10
10.0954454415
 20
8.9194789961
 30
0.0
 10
10.0979692699
 20
8.9293928248
 30
0.0
 10
10.1014706324
 20
8.9389437492
 30
0.0
 10
10.1059160245
 20
8.9480397201
 30
0.0
 10
10.111262782
 20
8.9565926111
 30
0.0
 10
10.1174593727
 20
8.9645196207
 30
0.0
 10
10.1244459509
 20
8.971743964
 30
0.0
 10
10.1321549332
 20
8.9781957016
 30
0.0
 10
10.1405116843
 20
8.9838124364
 30
0.0
 10
10.1494352544
 20
8.9885399859
 30
0.0
 10
10.1588392395
 20
8.9923328818
 30
0.0
 10
10.168632664
 20
8.9951547865
 30
0.0
 10
10.178720892
 20
8.9969788114
 30
0.0
 10
10.1890065571
 20
8.9977877558
 30
0.0
 10
10.1993905151
 20
8.9975742568
 30
0.0
 10
10.2097728026
 20
8.9963407744
 30
0.0
 10
10.220053581
 20
8.9940995443
 30
0.0
 10
10.2301340707
 20
8.9908724258
 30
0.0
 10
10.2399174892
 20
8.9866907192
 30
0.0
 10
10.2493099574
 20
8.9815948279
 30
0.0
 10
10.2582213696
 20
8.9756338529
 30
0.0
 10
10.2665662347
 20
8.9688651265
 30
0.0
 10
10.27426448
 20
8.9613536769
 30
0.0
 10
10.2812422328
 20
8.9531716374
 30
0.0
 10
10.2874324861
 20
8.9443975262
 30
0.0
 10
10.2927757345
 20
8.9351155263
 30
0.0
 10
10.2972205212
 20
8.9254146513
 30
0.0
 10
10.3007239898
 20
8.9153880757
 30
0.0
 10
10.3032521976
 20
8.9051317238
 30
0.0
 10
10.3047806526
 20
8.8947453802
 30
0.0
 10
10.3051241466
 20
8.8877743916
 30
0.0
 10
10.3051241466
 20
8.8843027141
 30
0.0
  0
SPLINE
  5
399
100
AcDbEntity
  8
0
100
AcDbSpline
 62
7
  6
CONTINUOUS
 70
0
 71
3
 72
21
 73
17
 74
0
 42
0.0000001
 43
0.0000001
 44
0.0000000001
 40
0.0
 40
0.0
 40
0.0
 40
0.0
 40
0.061653237
 40
0.123329498
 40
0.1850515502
 40
0.2468416698
 40
0.3087213548
 40
0.370711108
 40
0.4328302426
 40
0.495096636
 40
0.5575265765
 40
0.6201345494
 40
0.682933126
 40
0.7459332432
 40
0.8725261314
 40
1.0
 40
1.0
 40
1.0
 40
1.0
 10
9.6971277603
 20
6.8742504245
 30
0.0
 10
9.6955510535
 20
6.8727274322
 30
0.0
 10
9.6923144664
 20
6.869765059
 30
0.0
 10
9.6872267615
 20
6.8655880427
 30
0.0
 10
9.6819181454
 20
6.8616870973
 30
0.0
 10
9.6764021575
 20
6.8580722396
 30
0.0
 10
9.6706926333
 20
6.8547525579
 30
0.0
 10
9.6648040042
 20
6.8517363714
 30
0.0
 10
9.6587510969
 20
6.8490312741
 30
0.0
 10
9.6525491517
 20
6.8466441086
 30
0.0
 10
9.6462138023
 20
6.8445808233
 30
0.0
 10
9.6397610536
 20
6.8428466064
 30
0.0
 10
9.633206957
 20
6.8414458413
 30
0.0
 10
9.624342604
 20
6.8400252752
 30
0.0
 10
9.6130862824
 20
6.8391023392
 30
0.0
 10
9.6040368783
 20
6.8392789479
 30
0.0
 10
9.5995152677
 20
6.8395925226
 30
0.0
  0
SPLINE
  5
39A
100
AcDbEntity
  8
0
100
AcDbSpline
 62
7
  6
CONTINUOUS
 70
0
 71
3
 72
21
 73
17
 74
0
 42
0.0000001
 43
0.0000001
 44
0.0000000001
 40
0.0
 40
0.0
 40
0.0
 40
0.0
 40
0.061653237
 40
0.123329498
 40
0.1850515502
 40
0.2468416698
 40
0.3087213548
 40
0.370711108
 40
0.4328302426
 40
0.495096636
 40
0.5575265765
 40
0.6201345494
 40
0.682933126
 40
0.7459332432
 40
0.8725261314
 40
1.0
 40
1.0
 40
1.0
 40
1.0
 10
12.4364935616
 20
6.6842747609
 30
0.0
 10
12.4349168548
 20
6.6827517687
 30
0.0
 10
12.4316802677
 20
6.6797893954
 30
0.0
 10
12.4265925628
 20
6.6756123791
 30
0.0
 10
12.4212839467
 20
6.6717114338
 30
0.0
 10
12.4157679588
 20
6.6680965761
 30
0.0
 10
12.4100584346
 20
6.6647768944
 30
0.0
 10
12.4041698055
 20
6.6617607079
 30
0.0
 10
12.3981168982
 20
6.6590556105
 30
0.0
 10
12.3919149529
 20
6.656668445
 30
0.0
 10
12.3855796036
 20
6.6546051597
 30
0.0
 10
12.3791268549
 20
6.6528709429
 30
0.0
 10
12.3725727583
 20
6.6514701777
 30
0.0
 10
12.3637084053
 20
6.6500496117
 30
0.0
 10
12.3524520837
 20
6.6491266757
 30
0.0
 10
12.3434026796
 20
6.6493032843
 30
0.0
 10
12.338881069
 20
6.649616859
 30
0.0
  0
SPLINE
  5
39B
100
AcDbEntity
  8
0
100
AcDbSpline
 62
7
  6
CONTINUOUS
 70
0
 71
3
 72
21
 73
17
 74
0
 42
0.0000001
 43
0.0000001
 44
0.0000000001
 40
0.0
 40
0.0
 40
0.0
 40
0.0
 40
0.061653237
 40
0.123329498
 40
0.1850515502
 40
0.2468416698
 40
0.3087213548
 40
0.370711108
 40
0.4328302426
 40
0.495096636
 40
0.5575265765
 40
0.6201345494
 40
0.682933126
 40
0.7459332432
 40
0.8725261314
 40
1.0
 40
1.0
 40
1.0
 40
1.0
 10
12.4364935616
 20
9.4236405622
 30
0.0
 10
12.4349168548
 20
9.42211757
 30
0.0
 10
12.4316802677
 20
9.4191551967
 30
0.0
 10
12.4265925628
 20
9.4149781804
 30
0.0
 10
12.4212839467
 20
9.4110772351
 30
0.0
 10
12.4157679588
 20
9.4074623774
 30
0.0
 10
12.4100584346
 20
9.4041426956
 30
0.0
 10
12.4041698055
 20
9.4011265092
 30
0.0
 10
12.3981168982
 20
9.3984214118
 30
0.0
 10
12.3919149529
 20
9.3960342463
 30
0.0
 10
12.3855796036
 20
9.393970961
 30
0.0
 10
12.3791268549
 20
9.3922367442
 30
0.0
 10
12.3725727583
 20
9.390835979
 30
0.0
 10
12.3637084053
 20
9.3894154129
 30
0.0
 10
12.3524520837
 20
9.388492477
 30
0.0
 10
12.3434026796
 20
9.3886690856
 30
0.0
 10
12.338881069
 20
9.3889826603
 30
0.0
  0
SPLINE
  5
39C
100
AcDbEntity
  8
0
100
AcDbSpline
 62
7
  6
CONTINUOUS
 70
0
 71
3
 72
41
 73
37
 74
0
 42
0.0000001
 43
0.0000001
 44
0.0000000001
 40
0.0
 40
0.0
 40
0.0
 40
0.0
 40
0.0311444983
 40
0.062442467
 40
0.093887251
 40
0.1254695609
 40
0.157177086
 40
0.1889950997
 40
0.2209066479
 40
0.2528929497
 40
0.284933762
 40
0.3170077852
 40
0.3490930781
 40
0.3811674822
 40
0.4132090489
 40
0.445196464
 40
0.4771094635
 40
0.5089292351
 40
0.540638799
 40
0.5722233621
 40
0.6036706378
 40
0.6349711269
 40
0.6661183495
 40
0.6971090237
 40
0.7279431823
 40
0.7586242225
 40
0.7891588828
 40
0.8195571428
 40
0.8498320452
 40
0.86493089
 40
0.8800050502
 40
0.9100832578
 40
0.9400926753
 40
0.9550812784
 40
0.9700610371
 40
1.0
 40
1.0
 40
1.0
 40
1.0
 10
9.5995152677
 20
6.8395925226
 30
0.0
 10
9.5962013201
 20
6.8398223457
 30
0.0
 10
9.5895714521
 20
6.8405256984
 30
0.0
 10
9.5797070353
 20
6.8422974295
 30
0.0
 10
9.5699482608
 20
6.8447791327
 30
0.0
 10
9.5603478672
 20
6.8479574078
 30
0.0
 10
9.5509568324
 20
6.8518152542
 30
0.0
 10
9.5418252574
 20
6.85633202
 30
0.0
 10
9.5330017862
 20
6.861483574
 30
0.0
 10
9.5245334352
 20
6.8672424082
 30
0.0
 10
9.5164653235
 20
6.8735777947
 30
0.0
 10
9.5088404411
 20
6.8804559441
 30
0.0
 10
9.5016994209
 20
6.8878401859
 30
0.0
 10
9.4950803249
 20
6.8956911616
 30
0.0
 10
9.4890184429
 20
6.9039670327
 30
0.0
 10
9.4835461063
 20
6.9126237013
 30
0.0
 10
9.4786925173
 20
6.9216150423
 30
0.0
 10
9.4744835936
 20
6.9308931465
 30
0.0
 10
9.4709418314
 20
6.9404085729
 30
0.0
 10
9.4680861846
 20
6.9501106082
 30
0.0
 10
9.4659319636
 20
6.959947534
 30
0.0
 10
9.4644907518
 20
6.9698668987
 30
0.0
 10
9.4637703413
 20
6.9798157934
 30
0.0
 10
9.4637746872
 20
6.9897411289
 30
0.0
 10
9.4645038867
 20
6.9995899254
 30
0.0
 10
9.4659541539
 20
7.0093095556
 30
0.0
 10
9.4681179065
 20
7.0188481659
 30
0.0
 10
9.4709835305
 20
7.0281544285
 30
0.0
 10
9.4739470806
 20
7.0356826514
 30
0.0
 10
9.4766514638
 20
7.0415370179
 30
0.0
 10
9.4795700359
 20
7.0472640843
 30
0.0
 10
9.4836222952
 20
7.0541912814
 30
0.0
 10
9.4881957556
 20
7.060774961
 30
0.0
 10
9.4921478934
 20
7.0658073701
 30
0.0
 10
9.496288574
 20
7.0706755149
 30
0.0
 10
9.4996059702
 20
7.0741412356
 30
0.0
 10
9.5019027751
 20
7.076359794
 30
0.0
  0
SPLINE
  5
39D
100
AcDbEntity
  8
0
100
AcDbSpline
 62
7
  6
CONTINUOUS
 70
0
 71
3
 72
21
 73
17
 74
0
 42
0.0000001
 43
0.0000001
 44
0.0000000001
 40
0.0
 40
0.0
 40
0.0
 40
0.0
 40
0.061653237
 40
0.123329498
 40
0.1850515502
 40
0.2468416698
 40
0.3087213548
 40
0.370711108
 40
0.4328302426
 40
0.495096636
 40
0.5575265765
 40
0.6201345494
 40
0.682933126
 40
0.7459332432
 40
0.8725261314
 40
1.0
 40
1.0
 40
1.0
 40
1.0
 10
9.6971277603
 20
9.6136162258
 30
0.0
 10
9.6955510535
 20
9.6120932335
 30
0.0
 10
9.6923144664
 20
9.6091308603
 30
0.0
 10
9.6872267615
 20
9.604953844
 30
0.0
 10
9.6819181454
 20
9.6010528986
 30
0.0
 10
9.6764021575
 20
9.5974380409
 30
0.0
 10
9.6706926333
 20
9.5941183592
 30
0.0
 10
9.6648040042
 20
9.5911021727
 30
0.0
 10
9.6587510969
 20
9.5883970754
 30
0.0
 10
9.6525491517
 20
9.5860099099
 30
0.0
 10
9.6462138023
 20
9.5839466246
 30
0.0
 10
9.6397610536
 20
9.5822124077
 30
0.0
 10
9.633206957
 20
9.5808116426
 30
0.0
 10
9.624342604
 20
9.5793910765
 30
0.0
 10
9.6130862824
 20
9.5784681405
 30
0.0
 10
9.6040368783
 20
9.5786447491
 30
0.0
 10
9.5995152677
 20
9.5789583239
 30
0.0
  0
SPLINE
  5
39E
100
AcDbEntity
  8
0
100
AcDbSpline
 62
7
  6
CONTINUOUS
 70
0
 71
3
 72
39
 73
35
 74
0
 42
0.0000001
 43
0.0000001
 44
0.0000000001
 40
0.0
 40
0.0
 40
0.0
 40
0.0
 40
0.0311160054
 40
0.0620232808
 40
0.0927351539
 40
0.1232711756
 40
0.1536587326
 40
0.1839312105
 40
0.2141268386
 40
0.2442870981
 40
0.2744549747
 40
0.3046731306
 40
0.33498209
 40
0.365418544
 40
0.3960138629
 40
0.4267928807
 40
0.457772997
 40
0.4889636213
 40
0.5203659688
 40
0.551973177
 40
0.5837707173
 40
0.6157370643
 40
0.6478445906
 40
0.6800606397
 40
0.7123487305
 40
0.7446698622
 40
0.7769838838
 40
0.8092508928
 40
0.841432625
 40
0.8734938027
 40
0.9054033951
 40
0.9371359477
 40
0.9686717614
 40
1.0
 40
1.0
 40
1.0
 40
1.0
 10
10.3051241466
 20
8.8843027141
 30
0.0
 10
10.3051241466
 20
8.8808545554
 30
0.0
 10
10.3047875198
 20
8.8739763796
 30
0.0
 10
10.3032650832
 20
8.8637966261
 30
0.0
 10
10.3007412548
 20
8.8538827974
 30
0.0
 10
10.2972398922
 20
8.844331873
 30
0.0
 10
10.2927945001
 20
8.8352359021
 30
0.0
 10
10.2874477426
 20
8.8266830112
 30
0.0
 10
10.281251152
 20
8.8187560015
 30
0.0
 10
10.2742645737
 20
8.8115316582
 30
0.0
 10
10.2665555915
 20
8.8050799206
 30
0.0
 10
10.2581988403
 20
8.7994631858
 30
0.0
 10
10.2492752703
 20
8.7947356363
 30
0.0
 10
10.2398712851
 20
8.7909427404
 30
0.0
 10
10.2300778607
 20
8.7881208358
 30
0.0
 10
10.2199896327
 20
8.7862968108
 30
0.0
 10
10.2097039675
 20
8.7854878664
 30
0.0
 10
10.1993200095
 20
8.7857013655
 30
0.0
 10
10.1889377221
 20
8.7869348478
 30
0.0
 10
10.1786569436
 20
8.7891760779
 30
0.0
 10
10.168576454
 20
8.7924031964
 30
0.0
 10
10.1587930355
 20
8.7965849031
 30
0.0
 10
10.1494005672
 20
8.8016807943
 30
0.0
 10
10.1404891551
 20
8.8076417694
 30
0.0
 10
10.13214429
 20
8.8144104957
 30
0.0
 10
10.1244460447
 20
8.8219219453
 30
0.0
 10
10.1174682919
 20
8.8301039848
 30
0.0
 10
10.1112780385
 20
8.838878096
 30
0.0
 10
10.1059347902
 20
8.848160096
 30
0.0
 10
10.1014900035
 20
8.857860971
 30
0.0
 10
10.0979865348
 20
8.8678875466
 30
0.0
 10
10.0954583271
 20
8.8781438984
 30
0.0
 10
10.0939298721
 20
8.888530242
 30
0.0
 10
10.0935863781
 20
8.8955012306
 30
0.0
 10
10.0935863781
 20
8.8989729082
 30
0.0
  0
SPLINE
  5
39F
100
AcDbEntity
  8
0
100
AcDbSpline
 62
7
  6
CONTINUOUS
 70
0
 71
3
 72
15
 73
11
 74
0
 42
0.0000001
 43
0.0000001
 44
0.0000000001
 40
0.0
 40
0.0
 40
0.0
 40
0.0
 40
0.1233171148
 40
0.2468171822
 40
0.3706750007
 40
0.4950496181
 40
0.6200773069
 40
0.7458672043
 40
0.8724928123
 40
1.0
 40
1.0
 40
1.0
 40
1.0
 10
11.5063508005
 20
7.5412456841
 30
0.0
 10
11.5046004779
 20
7.5395550215
 30
0.0
 10
11.5009119619
 20
7.5363571714
 30
0.0
 10
11.4948919904
 20
7.5321784252
 30
0.0
 10
11.4884413861
 20
7.5286558185
 30
0.0
 10
11.4816261985
 20
7.5258255272
 30
0.0
 10
11.4745151637
 20
7.5237156482
 30
0.0
 10
11.4671799096
 20
7.5223472969
 30
0.0
 10
11.4596953126
 20
7.5217337753
 30
0.0
 10
11.454671291
 20
7.5218317755
 30
0.0
 10
11.4521611245
 20
7.5220058562
 30
0.0
  0
SPLINE
  5
3A0
100
AcDbEntity
  8
0
100
AcDbSpline
 62
7
  6
CONTINUOUS
 70
0
 71
3
 72
39
 73
35
 74
0
 42
0.0000001
 43
0.0000001
 44
0.0000000001
 40
0.0
 40
0.0
 40
0.0
 40
0.0
 40
0.0299424741
 40
0.0599093236
 40
0.0899243299
 40
0.1200101071
 40
0.1501875628
 40
0.1804754121
 40
0.2108897558
 40
0.2414437341
 40
0.2721472619
 40
0.3030068476
 40
0.3340255003
 40
0.3652027176
 40
0.3965345493
 40
0.4280137317
 40
0.459629888
 40
0.4913697842
 40
0.5232176352
 40
0.5551554541
 40
0.5871634377
 40
0.6192203778
 40
0.6513040905
 40
0.68339186
 40
0.715460889
 40
0.7474887514
 40
0.779453839
 40
0.8113357971
 40
0.8431159663
 40
0.8747776774
 40
0.9063069717
 40
0.937691796
 40
0.9689252179
 40
1.0
 40
1.0
 40
1.0
 40
1.0
 10
10.2671473882
 20
7.6538316341
 30
0.0
 10
10.2656460201
 20
7.6523814301
 30
0.0
 10
10.2625252392
 20
7.6495980485
 30
0.0
 10
10.2575252497
 20
7.6458061964
 30
0.0
 10
10.2522320141
 20
7.6424165257
 30
0.0
 10
10.2466751062
 20
7.639448053
 30
0.0
 10
10.2408850782
 20
7.6369169938
 30
0.0
 10
10.2348938838
 20
7.6348372615
 30
0.0
 10
10.2287345369
 20
7.6332202363
 30
0.0
 10
10.2224409703
 20
7.632074749
 30
0.0
 10
10.2160478352
 20
7.6314070264
 30
0.0
 10
10.2095903132
 20
7.6312206563
 30
0.0
 10
10.2031039196
 20
7.6315165764
 30
0.0
 10
10.1966243095
 20
7.6322930772
 30
0.0
 10
10.1901870836
 20
7.6335458147
 30
0.0
 10
10.1838275959
 20
7.635267837
 30
0.0
 10
10.1775807621
 20
7.6374496246
 30
0.0
 10
10.1714808712
 20
7.6400791442
 30
0.0
 10
10.165561401
 20
7.643141916
 30
0.0
 10
10.159854832
 20
7.6466210854
 30
0.0
 10
10.1543924736
 20
7.6504975223
 30
0.0
 10
10.1492042954
 20
7.6547499273
 30
0.0
 10
10.1443187651
 20
7.6593549473
 30
0.0
 10
10.1397626946
 20
7.6642873023
 30
0.0
 10
10.1355610945
 20
7.6695199228
 30
0.0
 10
10.1317370382
 20
7.6750240958
 30
0.0
 10
10.1283115381
 20
7.6807696211
 30
0.0
 10
10.1253034185
 20
7.686724971
 30
0.0
 10
10.1227292337
 20
7.6928574628
 30
0.0
 10
10.120603135
 20
7.6991334562
 30
0.0
 10
10.1189369017
 20
7.7055184496
 30
0.0
 10
10.1177396468
 20
7.7119775701
 30
0.0
 10
10.1170181535
 20
7.7184748072
 30
0.0
 10
10.1168565277
 20
7.7228201863
 30
0.0
 10
10.1168565277
 20
7.7249865134
 30
0.0
  0
SPLINE
  5
3A1
100
AcDbEntity
  8
0
100
AcDbSpline
 62
7
  6
CONTINUOUS
 70
0
 71
3
 72
39
 73
35
 74
0
 42
0.0000001
 43
0.0000001
 44
0.0000000001
 40
0.0
 40
0.0
 40
0.0
 40
0.0
 40
0.0311160054
 40
0.0620232808
 40
0.0927351539
 40
0.1232711756
 40
0.1536587326
 40
0.1839312105
 40
0.2141268386
 40
0.2442870981
 40
0.2744549747
 40
0.3046731306
 40
0.33498209
 40
0.365418544
 40
0.3960138629
 40
0.4267928807
 40
0.457772997
 40
0.4889636213
 40
0.5203659688
 40
0.551973177
 40
0.5837707173
 40
0.6157370643
 40
0.6478445906
 40
0.6800606397
 40
0.7123487305
 40
0.7446698622
 40
0.7769838838
 40
0.8092508928
 40
0.841432625
 40
0.8734938027
 40
0.9054033951
 40
0.9371359477
 40
0.9686717614
 40
1.0
 40
1.0
 40
1.0
 40
1.0
 10
11.6332721613
 20
8.8231050273
 30
0.0
 10
11.6332721613
 20
8.826553186
 30
0.0
 10
11.6336087881
 20
8.8334313618
 30
0.0
 10
11.6351312247
 20
8.8436111153
 30
0.0
 10
11.6376550531
 20
8.853524944
 30
0.0
 10
11.6411564157
 20
8.8630758684
 30
0.0
 10
11.6456018078
 20
8.8721718393
 30
0.0
 10
11.6509485653
 20
8.8807247302
 30
0.0
 10
11.6571451559
 20
8.8886517399
 30
0.0
 10
11.6641317342
 20
8.8958760832
 30
0.0
 10
11.6718407164
 20
8.9023278208
 30
0.0
 10
11.6801974676
 20
8.9079445556
 30
0.0
 10
11.6891210377
 20
8.9126721051
 30
0.0
 10
11.6985250228
 20
8.916465001
 30
0.0
 10
11.7083184472
 20
8.9192869056
 30
0.0
 10
11.7184066752
 20
8.9211109306
 30
0.0
 10
11.7286923404
 20
8.921919875
 30
0.0
 10
11.7390762984
 20
8.9217063759
 30
0.0
 10
11.7494585859
 20
8.9204728936
 30
0.0
 10
11.7597393643
 20
8.9182316635
 30
0.0
 10
11.769819854
 20
8.915004545
 30
0.0
 10
11.7796032724
 20
8.9108228383
 30
0.0
 10
11.7889957407
 20
8.9057269471
 30
0.0
 10
11.7979071528
 20
8.899765972
 30
0.0
 10
11.8062520179
 20
8.8929972457
 30
0.0
 10
11.8139502632
 20
8.8854857961
 30
0.0
 10
11.820928016
 20
8.8773037566
 30
0.0
 10
11.8271182694
 20
8.8685296454
 30
0.0
 10
11.8324615177
 20
8.8592476454
 30
0.0
 10
11.8369063044
 20
8.8495467705
 30
0.0
 10
11.8404097731
 20
8.8395201948
 30
0.0
 10
11.8429379808
 20
8.829263843
 30
0.0
 10
11.8444664358
 20
8.8188774994
 30
0.0
 10
11.8448099298
 20
8.8119065108
 30
0.0
 10
11.8448099298
 20
8.8084348333
 30
0.0
  0
SPLINE
  5
3A2
100
AcDbEntity
  8
0
100
AcDbSpline
 62
7
  6
CONTINUOUS
 70
0
 71
3
 72
15
 73
11
 74
0
 42
0.0000001
 43
0.0000001
 44
0.0000000001
 40
0.0
 40
0.0
 40
0.0
 40
0.0
 40
0.1349689541
 40
0.2612473603
 40
0.3810601423
 40
0.4973949024
 40
0.6138280427
 40
0.7341575023
 40
0.8619230752
 40
1.0
 40
1.0
 40
1.0
 40
1.0
 10
11.0532129475
 20
7.8382199954
 30
0.0
 10
11.0530908689
 20
7.8384907956
 30
0.0
 10
11.052884942
 20
7.8390296884
 30
0.0
 10
11.0526996101
 20
7.8398509016
 30
0.0
 10
11.0526543189
 20
7.8406513866
 30
0.0
 10
11.0527539369
 20
7.841425677
 30
0.0
 10
11.0530011451
 20
7.8421675039
 30
0.0
 10
11.0533953464
 20
7.8428713325
 30
0.0
 10
11.0539336314
 20
7.843533582
 30
0.0
 10
11.054366947
 20
7.8439297723
 30
0.0
 10
11.0546029198
 20
7.8441212487
 30
0.0
  0
SPLINE
  5
3A3
100
AcDbEntity
  8
0
100
AcDbSpline
 62
7
  6
CONTINUOUS
 70
0
 71
3
 72
39
 73
35
 74
0
 42
0.0000001
 43
0.0000001
 44
0.0000000001
 40
0.0
 40
0.0
 40
0.0
 40
0.0
 40
0.0299424741
 40
0.0599093236
 40
0.0899243299
 40
0.1200101071
 40
0.1501875628
 40
0.1804754121
 40
0.2108897558
 40
0.2414437341
 40
0.2721472619
 40
0.3030068476
 40
0.3340255003
 40
0.3652027176
 40
0.3965345493
 40
0.4280137317
 40
0.459629888
 40
0.4913697842
 40
0.5232176352
 40
0.5551554541
 40
0.5871634377
 40
0.6192203778
 40
0.6513040905
 40
0.68339186
 40
0.715460889
 40
0.7474887514
 40
0.779453839
 40
0.8113357971
 40
0.8431159663
 40
0.8747776774
 40
0.9063069717
 40
0.937691796
 40
0.9689252179
 40
1.0
 40
1.0
 40
1.0
 40
1.0
 10
10.2671473882
 20
8.8312952686
 30
0.0
 10
10.2656460201
 20
8.8298450646
 30
0.0
 10
10.2625252392
 20
8.827061683
 30
0.0
 10
10.2575252497
 20
8.8232698309
 30
0.0
 10
10.2522320141
 20
8.8198801602
 30
0.0
 10
10.2466751062
 20
8.8169116875
 30
0.0
 10
10.2408850782
 20
8.8143806283
 30
0.0
 10
10.2348938838
 20
8.812300896
 30
0.0
 10
10.2287345369
 20
8.8106838709
 30
0.0
 10
10.2224409703
 20
8.8095383835
 30
0.0
 10
10.2160478352
 20
8.808870661
 30
0.0
 10
10.2095903132
 20
8.8086842908
 30
0.0
 10
10.2031039196
 20
8.8089802109
 30
0.0
 10
10.1966243095
 20
8.8097567118
 30
0.0
 10
10.1901870836
 20
8.8110094493
 30
0.0
 10
10.1838275959
 20
8.8127314715
 30
0.0
 10
10.1775807621
 20
8.8149132591
 30
0.0
 10
10.1714808712
 20
8.8175427787
 30
0.0
 10
10.165561401
 20
8.8206055505
 30
0.0
 10
10.159854832
 20
8.8240847199
 30
0.0
 10
10.1543924736
 20
8.8279611568
 30
0.0
 10
10.1492042954
 20
8.8322135618
 30
0.0
 10
10.1443187651
 20
8.8368185818
 30
0.0
 10
10.1397626946
 20
8.8417509368
 30
0.0
 10
10.1355610945
 20
8.8469835573
 30
0.0
 10
10.1317370382
 20
8.8524877303
 30
0.0
 10
10.1283115381
 20
8.8582332556
 30
0.0
 10
10.1253034185
 20
8.8641886055
 30
0.0
 10
10.1227292337
 20
8.8703210973
 30
0.0
 10
10.120603135
 20
8.8765970907
 30
0.0
 10
10.1189369017
 20
8.8829820841
 30
0.0
 10
10.1177396468
 20
8.8894412046
 30
0.0
 10
10.1170181535
 20
8.8959384417
 30
0.0
 10
10.1168565277
 20
8.9002838208
 30
0.0
 10
10.1168565277
 20
8.9024501479
 30
0.0
  0
SPLINE
  5
3A4
100
AcDbEntity
  8
0
100
AcDbSpline
 62
7
  6
CONTINUOUS
 70
0
 71
3
 72
39
 73
35
 74
0
 42
0.0000001
 43
0.0000001
 44
0.0000000001
 40
0.0
 40
0.0
 40
0.0
 40
0.0
 40
0.0299424741
 40
0.0599093236
 40
0.0899243299
 40
0.1200101071
 40
0.1501875628
 40
0.1804754121
 40
0.2108897558
 40
0.2414437341
 40
0.2721472619
 40
0.3030068476
 40
0.3340255003
 40
0.3652027176
 40
0.3965345493
 40
0.4280137317
 40
0.459629888
 40
0.4913697842
 40
0.5232176352
 40
0.5551554541
 40
0.5871634377
 40
0.6192203778
 40
0.6513040905
 40
0.68339186
 40
0.715460889
 40
0.7474887514
 40
0.779453839
 40
0.8113357971
 40
0.8431159663
 40
0.8747776774
 40
0.9063069717
 40
0.937691796
 40
0.9689252179
 40
1.0
 40
1.0
 40
1.0
 40
1.0
 10
11.8068331715
 20
8.7554273878
 30
0.0
 10
11.8053318034
 20
8.7539771838
 30
0.0
 10
11.8022110225
 20
8.7511938022
 30
0.0
 10
11.797211033
 20
8.7474019501
 30
0.0
 10
11.7919177974
 20
8.7440122793
 30
0.0
 10
11.7863608894
 20
8.7410438067
 30
0.0
 10
11.7805708615
 20
8.7385127475
 30
0.0
 10
11.774579667
 20
8.7364330152
 30
0.0
 10
11.7684203201
 20
8.73481599
 30
0.0
 10
11.7621267536
 20
8.7336705027
 30
0.0
 10
11.7557336185
 20
8.7330027801
 30
0.0
 10
11.7492760965
 20
8.73281641
 30
0.0
 10
11.7427897029
 20
8.7331123301
 30
0.0
 10
11.7363100927
 20
8.7338888309
 30
0.0
 10
11.7298728669
 20
8.7351415684
 30
0.0
 10
11.7235133791
 20
8.7368635907
 30
0.0
 10
11.7172665453
 20
8.7390453783
 30
0.0
 10
11.7111666545
 20
8.7416748979
 30
0.0
 10
11.7052471843
 20
8.7447376697
 30
0.0
 10
11.6995406153
 20
8.7482168391
 30
0.0
 10
11.6940782568
 20
8.752093276
 30
0.0
 10
11.6888900786
 20
8.756345681
 30
0.0
 10
11.6840045484
 20
8.7609507009
 30
0.0
 10
11.6794484779
 20
8.765883056
 30
0.0
 10
11.6752468778
 20
8.7711156765
 30
0.0
 10
11.6714228214
 20
8.7766198495
 30
0.0
 10
11.6679973214
 20
8.7823653747
 30
0.0
 10
11.6649892017
 20
8.7883207247
 30
0.0
 10
11.662415017
 20
8.7944532165
 30
0.0
 10
11.6602889183
 20
8.8007292099
 30
0.0
 10
11.6586226849
 20
8.8071142032
 30
0.0
 10
11.6574254301
 20
8.8135733238
 30
0.0
 10
11.6567039368
 20
8.8200705609
 30
0.0
 10
11.6565423109
 20
8.82441594
 30
0.0
 10
11.6565423109
 20
8.8265822671
 30
0.0
  0
SPLINE
  5
3A5
100
AcDbEntity
  8
0
100
AcDbSpline
 62
7
  6
CONTINUOUS
 70
0
 71
3
 72
39
 73
35
 74
0
 42
0.0000001
 43
0.0000001
 44
0.0000000001
 40
0.0
 40
0.0
 40
0.0
 40
0.0
 40
0.0311160054
 40
0.0620232808
 40
0.0927351539
 40
0.1232711756
 40
0.1536587326
 40
0.1839312105
 40
0.2141268386
 40
0.2442870981
 40
0.2744549747
 40
0.3046731306
 40
0.33498209
 40
0.365418544
 40
0.3960138629
 40
0.4267928807
 40
0.457772997
 40
0.4889636213
 40
0.5203659688
 40
0.551973177
 40
0.5837707173
 40
0.6157370643
 40
0.6478445906
 40
0.6800606397
 40
0.7123487305
 40
0.7446698622
 40
0.7769838838
 40
0.8092508928
 40
0.841432625
 40
0.8734938027
 40
0.9054033951
 40
0.9371359477
 40
0.9686717614
 40
1.0
 40
1.0
 40
1.0
 40
1.0
 10
11.8448099298
 20
8.8084348333
 30
0.0
 10
11.8448099298
 20
8.8049866746
 30
0.0
 10
11.8444733031
 20
8.7981084988
 30
0.0
 10
11.8429508664
 20
8.7879287453
 30
0.0
 10
11.840427038
 20
8.7780149166
 30
0.0
 10
11.8369256755
 20
8.7684639922
 30
0.0
 10
11.8324802834
 20
8.7593680213
 30
0.0
 10
11.8271335259
 20
8.7508151303
 30
0.0
 10
11.8209369352
 20
8.7428881207
 30
0.0
 10
11.813950357
 20
8.7356637774
 30
0.0
 10
11.8062413748
 20
8.7292120398
 30
0.0
 10
11.7978846236
 20
8.723595305
 30
0.0
 10
11.7889610535
 20
8.7188677555
 30
0.0
 10
11.7795570684
 20
8.7150748596
 30
0.0
 10
11.7697636439
 20
8.7122529549
 30
0.0
 10
11.7596754159
 20
8.71042893
 30
0.0
 10
11.7493897508
 20
8.7096199856
 30
0.0
 10
11.7390057928
 20
8.7098334846
 30
0.0
 10
11.7286235053
 20
8.711066967
 30
0.0
 10
11.7183427269
 20
8.7133081971
 30
0.0
 10
11.7082622372
 20
8.7165353156
 30
0.0
 10
11.6984788187
 20
8.7207170222
 30
0.0
 10
11.6890863505
 20
8.7258129135
 30
0.0
 10
11.6801749383
 20
8.7317738885
 30
0.0
 10
11.6718300732
 20
8.7385426149
 30
0.0
 10
11.664131828
 20
8.7460540645
 30
0.0
 10
11.6571540751
 20
8.754236104
 30
0.0
 10
11.6509638218
 20
8.7630102152
 30
0.0
 10
11.6456205735
 20
8.7722922151
 30
0.0
 10
11.6411757867
 20
8.7819930901
 30
0.0
 10
11.6376723181
 20
8.7920196657
 30
0.0
 10
11.6351441103
 20
8.8022760176
 30
0.0
 10
11.6336156553
 20
8.8126623612
 30
0.0
 10
11.6332721613
 20
8.8196333498
 30
0.0
 10
11.6332721613
 20
8.8231050273
 30
0.0
  0
SPLINE
  5
3A6
100
AcDbEntity
  8
0
100
AcDbSpline
 62
7
  6
CONTINUOUS
 70
0
 71
3
 72
39
 73
35
 74
0
 42
0.0000001
 43
0.0000001
 44
0.0000000001
 40
0.0
 40
0.0
 40
0.0
 40
0.0
 40
0.0299424741
 40
0.0599093236
 40
0.0899243299
 40
0.1200101071
 40
0.1501875628
 40
0.1804754121
 40
0.2108897558
 40
0.2414437341
 40
0.2721472619
 40
0.3030068476
 40
0.3340255003
 40
0.3652027176
 40
0.3965345493
 40
0.4280137317
 40
0.459629888
 40
0.4913697842
 40
0.5232176352
 40
0.5551554541
 40
0.5871634377
 40
0.6192203778
 40
0.6513040905
 40
0.68339186
 40
0.715460889
 40
0.7474887514
 40
0.779453839
 40
0.8113357971
 40
0.8431159663
 40
0.8747776774
 40
0.9063069717
 40
0.937691796
 40
0.9689252179
 40
1.0
 40
1.0
 40
1.0
 40
1.0
 10
11.8068331715
 20
7.5171103425
 30
0.0
 10
11.8053318034
 20
7.5156601385
 30
0.0
 10
11.8022110225
 20
7.5128767569
 30
0.0
 10
11.797211033
 20
7.5090849048
 30
0.0
 10
11.7919177974
 20
7.505695234
 30
0.0
 10
11.7863608894
 20
7.5027267614
 30
0.0
 10
11.7805708615
 20
7.5001957022
 30
0.0
 10
11.774579667
 20
7.4981159699
 30
0.0
 10
11.7684203201
 20
7.4964989447
 30
0.0
 10
11.7621267536
 20
7.4953534574
 30
0.0
 10
11.7557336185
 20
7.4946857348
 30
0.0
 10
11.7492760965
 20
7.4944993647
 30
0.0
 10
11.7427897029
 20
7.4947952848
 30
0.0
 10
11.7363100927
 20
7.4955717856
 30
0.0
 10
11.7298728669
 20
7.4968245231
 30
0.0
 10
11.7235133791
 20
7.4985465454
 30
0.0
 10
11.7172665453
 20
7.500728333
 30
0.0
 10
11.7111666545
 20
7.5033578526
 30
0.0
 10
11.7052471843
 20
7.5064206244
 30
0.0
 10
11.6995406153
 20
7.5098997938
 30
0.0
 10
11.6940782568
 20
7.5137762306
 30
0.0
 10
11.6888900786
 20
7.5180286356
 30
0.0
 10
11.6840045484
 20
7.5226336556
 30
0.0
 10
11.6794484779
 20
7.5275660107
 30
0.0
 10
11.6752468778
 20
7.5327986311
 30
0.0
 10
11.6714228214
 20
7.5383028042
 30
0.0
 10
11.6679973214
 20
7.5440483294
 30
0.0
 10
11.6649892017
 20
7.5500036794
 30
0.0
 10
11.662415017
 20
7.5561361712
 30
0.0
 10
11.6602889183
 20
7.5624121646
 30
0.0
 10
11.6586226849
 20
7.5687971579
 30
0.0
 10
11.6574254301
 20
7.5752562785
 30
0.0
 10
11.6567039368
 20
7.5817535155
 30
0.0
 10
11.6565423109
 20
7.5860988946
 30
0.0
 10
11.6565423109
 20
7.5882652218
 30
0.0
  0
SPLINE
  5
3A7
100
AcDbEntity
  8
0
100
AcDbSpline
 62
7
  6
CONTINUOUS
 70
0
 71
3
 72
39
 73
35
 74
0
 42
0.0000001
 43
0.0000001
 44
0.0000000001
 40
0.0
 40
0.0
 40
0.0
 40
0.0
 40
0.0311160054
 40
0.0620232808
 40
0.0927351539
 40
0.1232711756
 40
0.1536587326
 40
0.1839312105
 40
0.2141268386
 40
0.2442870981
 40
0.2744549747
 40
0.3046731306
 40
0.33498209
 40
0.365418544
 40
0.3960138629
 40
0.4267928807
 40
0.457772997
 40
0.4889636213
 40
0.5203659688
 40
0.551973177
 40
0.5837707173
 40
0.6157370643
 40
0.6478445906
 40
0.6800606397
 40
0.7123487305
 40
0.7446698622
 40
0.7769838838
 40
0.8092508928
 40
0.841432625
 40
0.8734938027
 40
0.9054033951
 40
0.9371359477
 40
0.9686717614
 40
1.0
 40
1.0
 40
1.0
 40
1.0
 10
11.6332721613
 20
7.584787982
 30
0.0
 10
11.6332721613
 20
7.5882361407
 30
0.0
 10
11.6336087881
 20
7.5951143165
 30
0.0
 10
11.6351312247
 20
7.60529407
 30
0.0
 10
11.6376550531
 20
7.6152078987
 30
0.0
 10
11.6411564157
 20
7.6247588231
 30
0.0
 10
11.6456018078
 20
7.633854794
 30
0.0
 10
11.6509485653
 20
7.6424076849
 30
0.0
 10
11.6571451559
 20
7.6503346946
 30
0.0
 10
11.6641317342
 20
7.6575590378
 30
0.0
 10
11.6718407164
 20
7.6640107755
 30
0.0
 10
11.6801974676
 20
7.6696275103
 30
0.0
 10
11.6891210377
 20
7.6743550598
 30
0.0
 10
11.6985250228
 20
7.6781479556
 30
0.0
 10
11.7083184472
 20
7.6809698603
 30
0.0
 10
11.7184066752
 20
7.6827938853
 30
0.0
 10
11.7286923404
 20
7.6836028297
 30
0.0
 10
11.7390762984
 20
7.6833893306
 30
0.0
 10
11.7494585859
 20
7.6821558483
 30
0.0
 10
11.7597393643
 20
7.6799146182
 30
0.0
 10
11.769819854
 20
7.6766874997
 30
0.0
 10
11.7796032724
 20
7.672505793
 30
0.0
 10
11.7889957407
 20
7.6674099018
 30
0.0
 10
11.7979071528
 20
7.6614489267
 30
0.0
 10
11.8062520179
 20
7.6546802004
 30
0.0
 10
11.8139502632
 20
7.6471687508
 30
0.0
 10
11.820928016
 20
7.6389867113
 30
0.0
 10
11.8271182694
 20
7.6302126
 30
0.0
 10
11.8324615177
 20
7.6209306001
 30
0.0
 10
11.8369063044
 20
7.6112297251
 30
0.0
 10
11.8404097731
 20
7.6012031495
 30
0.0
 10
11.8429379808
 20
7.5909467977
 30
0.0
 10
11.8444664358
 20
7.580560454
 30
0.0
 10
11.8448099298
 20
7.5735894655
 30
0.0
 10
11.8448099298
 20
7.5701177879
 30
0.0
  0
SPLINE
  5
3A8
100
AcDbEntity
  8
0
100
AcDbSpline
 62
7
  6
CONTINUOUS
 70
0
 71
3
 72
41
 73
37
 74
0
 42
0.0000001
 43
0.0000001
 44
0.0000000001
 40
0.0
 40
0.0
 40
0.0
 40
0.0
 40
0.0301994645
 40
0.060325634
 40
0.090408017
 40
0.1204773119
 40
0.150564451
 40
0.180699651
 40
0.2109115105
 40
0.2412261865
 40
0.2716666768
 40
0.3022522247
 40
0.3329978596
 40
0.3639140738
 40
0.3950066355
 40
0.4262765307
 40
0.4577200244
 40
0.4893288305
 40
0.5210903797
 40
0.5529881747
 40
0.5850022229
 40
0.6171095381
 40
0.6492847022
 40
0.6815004799
 40
0.7137284784
 40
0.7298410923
 40
0.7459459497
 40
0.7781120826
 40
0.8102053805
 40
0.8421999612
 40
0.8740723959
 40
0.9058023189
 40
0.9373732917
 40
0.9530981088
 40
0.9687793057
 40
1.0
 40
1.0
 40
1.0
 40
1.0
 10
11.1225515171
 20
7.7760920023
 30
0.0
 10
11.1209950338
 20
7.7732255357
 30
0.0
 10
11.1176300532
 20
7.767634171
 30
0.0
 10
11.1118624752
 20
7.7597393604
 30
0.0
 10
11.1054222459
 20
7.7524006129
 30
0.0
 10
11.0983559692
 20
7.7456690028
 30
0.0
 10
11.090713803
 20
7.7395899268
 30
0.0
 10
11.0825497832
 20
7.7342042785
 30
0.0
 10
11.0739211776
 20
7.7295478635
 30
0.0
 10
11.0648880968
 20
7.7256513486
 30
0.0
 10
11.0555130417
 20
7.7225401243
 30
0.0
 10
11.0458604809
 20
7.7202342369
 30
0.0
 10
11.0359964334
 20
7.7187483432
 30
0.0
 10
11.0259880672
 20
7.7180916936
 30
0.0
 10
11.0159033087
 20
7.718268132
 30
0.0
 10
11.0058104616
 20
7.7192761111
 30
0.0
 10
10.9957778315
 20
7.7211087212
 30
0.0
 10
10.9858733529
 20
7.723753731
 30
0.0
 10
10.9761642141
 20
7.7271936424
 30
0.0
 10
10.9667164804
 20
7.731405756
 30
0.0
 10
10.9575947008
 20
7.7363622673
 30
0.0
 10
10.9488615429
 20
7.7420303392
 30
0.0
 10
10.9405772822
 20
7.7483723668
 30
0.0
 10
10.9327998001
 20
7.7553456539
 30
0.0
 10
10.9267847217
 20
7.761645452
 30
0.0
 10
10.9222784551
 20
7.7669525424
 30
0.0
 10
10.9179862638
 20
7.7724257182
 30
0.0
 10
10.9130329019
 20
7.7795653035
 30
0.0
 10
10.9077891523
 20
7.7885543541
 30
0.0
 10
10.903284732
 20
7.7979009888
 30
0.0
 10
10.8995526612
 20
7.8075400522
 30
0.0
 10
10.8966202669
 20
7.81740385
 30
0.0
 10
10.8948584969
 20
7.8257660301
 30
0.0
 10
10.893869427
 20
7.8324975435
 30
0.0
 10
10.8931634024
 20
7.8392261571
 30
0.0
 10
10.8929492708
 20
7.844295209
 30
0.0
 10
10.8929492708
 20
7.8476672998
 30
0.0
  0
SPLINE
  5
3A9
100
AcDbEntity
  8
0
100
AcDbSpline
 62
7
  6
CONTINUOUS
 70
0
 71
3
 72
21
 73
17
 74
0
 42
0.0000001
 43
0.0000001
 44
0.0000000001
 40
0.0
 40
0.0
 40
0.0
 40
0.0
 40
0.1283774311
 40
0.1922531185
 40
0.2558841786
 40
0.3822957298
 40
0.4451157789
 40
0.5076513414
 40
0.569904713
 40
0.6318864147
 40
0.6936168529
 40
0.7551276971
 40
0.8164623185
 40
0.8776757775
 40
0.9388312377
 40
1.0
 40
1.0
 40
1.0
 40
1.0
 10
10.7976130717
 20
8.2688183323
 30
0.0
 10
10.7990642589
 20
8.26328853
 30
0.0
 10
10.8008345198
 20
8.2548918227
 30
0.0
 10
10.8022858161
 20
8.2435845614
 30
0.0
 10
10.8030970195
 20
8.2323014949
 30
0.0
 10
10.8029149193
 20
8.2210077316
 30
0.0
 10
10.8016363793
 20
8.2098619134
 30
0.0
 10
10.8001131817
 20
8.2016397033
 30
0.0
 10
10.7980046598
 20
8.1935859659
 30
0.0
 10
10.7952951305
 20
8.1857510043
 30
0.0
 10
10.7919740413
 20
8.1781902494
 30
0.0
 10
10.7880376842
 20
8.1709626064
 30
0.0
 10
10.7834910618
 20
8.1641292037
 30
0.0
 10
10.7783490111
 20
8.157751057
 30
0.0
 10
10.7726384049
 20
8.1518872197
 30
0.0
 10
10.7684772163
 20
8.1483565222
 30
0.0
 10
10.7663186205
 20
8.1466949443
 30
0.0
  0
SPLINE
  5
3AA
100
AcDbEntity
  8
0
100
AcDbSpline
 62
7
  6
CONTINUOUS
 70
0
 71
3
 72
80
 73
76
 74
0
 42
0.0000001
 43
0.0000001
 44
0.0000000001
 40
0.0
 40
0.0
 40
0.0
 40
0.0
 40
0.0027164327
 40
0.0054532447
 40
0.0082303176
 40
0.0110666212
 40
0.0139798388
 40
0.016986154
 40
0.0201001347
 40
0.0233346582
 40
0.0267010284
 40
0.0302089968
 40
0.0338669183
 40
0.0376819076
 40
0.0416598906
 40
0.0458058349
 40
0.0501237838
 40
0.0546169826
 40
0.0592880207
 40
0.0641388059
 40
0.0691707482
 40
0.0743847477
 40
0.0853596785
 40
0.0970635549
 40
0.1094903305
 40
0.1226296146
 40
0.1364673135
 40
0.1509861535
 40
0.1661660759
 40
0.1819845508
 40
0.1984168195
 40
0.2154361185
 40
0.2330138792
 40
0.2511198904
 40
0.2697224401
 40
0.2887884373
 40
0.3082835515
 40
0.3281723331
 40
0.348418324
 40
0.368984158
 40
0.3898316649
 40
0.4109219833
 40
0.4536720365
 40
0.4969140898
 40
0.5403224212
 40
0.5835697178
 40
0.6263302119
 40
0.6682828124
 40
0.6888582723
 40
0.7091151075
 40
0.7290159233
 40
0.74852422
 40
0.7676045125
 40
0.7862224423
 40
0.804344885
 40
0.8219400731
 40
0.8389777322
 40
0.8554292445
 40
0.8712678001
 40
0.8864685754
 40
0.9010089485
 40
0.9148687687
 40
0.92803068
 40
0.940480496
 40
0.9522076877
 40
0.9577984663
 40
0.9632066952
 40
0.9684323943
 40
0.9734759977
 40
0.9783383604
 40
0.9830208115
 40
0.987525367
 40
0.9918546057
 40
0.996011597
 40
1.0
 40
1.0
 40
1.0
 40
1.0
 10
12.9481713571
 20
8.3292779353
 30
0.0
 10
12.9489748315
 20
8.3292222097
 30
0.0
 10
12.9505836939
 20
8.3290376132
 30
0.0
 10
12.9529764956
 20
8.3285436257
 30
0.0
 10
12.9553512243
 20
8.3278326974
 30
0.0
 10
12.9577061663
 20
8.3269054389
 30
0.0
 10
12.960040117
 20
8.3257627229
 30
0.0
 10
12.96235189
 20
8.3244054456
 30
0.0
 10
12.9646403841
 20
8.3228345262
 30
0.0
 10
12.9669046339
 20
8.3210510281
 30
0.0
 10
12.9691436126
 20
8.3190559329
 30
0.0
 10
12.9713563796
 20
8.3168503626
 30
0.0
 10
12.9735419801
 20
8.3144354717
 30
0.0
 10
12.9756994008
 20
8.3118124531
 30
0.0
 10
12.9778277212
 20
8.3089826548
 30
0.0
 10
12.9799259133
 20
8.305947444
 30
0.0
 10
12.9819930074
 20
8.3027083275
 30
0.0
 10
12.9840280384
 20
8.2992669072
 30
0.0
 10
12.9860299791
 20
8.2956248566
 30
0.0
 10
12.9879978996
 20
8.2917839986
 30
0.0
 10
12.9899308269
 20
8.2877462108
 30
0.0
 10
12.992504168
 20
8.2820040621
 30
0.0
 10
12.9956161061
 20
8.2743386573
 30
0.0
 10
12.9991348681
 20
8.2645403309
 30
0.0
 10
13.0024922017
 20
8.2540101263
 30
0.0
 10
13.0056813505
 20
8.2427690076
 30
0.0
 10
13.0086958832
 20
8.230839193
 30
0.0
 10
13.0115296862
 20
8.2182444416
 30
0.0
 10
13.0141770014
 20
8.2050098782
 30
0.0
 10
13.016632438
 20
8.1911619644
 30
0.0
 10
13.0188910007
 20
8.1767284327
 30
0.0
 10
13.020948097
 20
8.1617382236
 30
0.0
 10
13.0227995394
 20
8.1462214141
 30
0.0
 10
13.0244415574
 20
8.1302091522
 30
0.0
 10
13.0258708027
 20
8.1137335963
 30
0.0
 10
13.0270843701
 20
8.0968278506
 30
0.0
 10
13.0280797895
 20
8.0795258928
 30
0.0
 10
13.028855031
 20
8.061862501
 30
0.0
 10
13.0294085095
 20
8.0438731812
 30
0.0
 10
13.0297390835
 20
8.0255941113
 30
0.0
 10
13.0298460961
 20
8.007062019
 30
0.0
 10
13.0296895898
 20
7.9819526087
 30
0.0
 10
13.0289302466
 20
7.9502093482
 30
0.0
 10
13.0271406849
 20
7.9118815649
 30
0.0
 10
13.024482802
 20
7.8734563354
 30
0.0
 10
13.0209779817
 20
7.8352424188
 30
0.0
 10
13.016654476
 20
7.7975468801
 30
0.0
 10
13.0123713984
 20
7.7666213996
 30
0.0
 10
13.0085539292
 20
7.7423743509
 30
0.0
 10
13.0055282545
 20
7.7246228763
 30
0.0
 10
13.0023277521
 20
7.7072237044
 30
0.0
 10
12.998958847
 20
7.6902117885
 30
0.0
 10
12.995428348
 20
7.6736213269
 30
0.0
 10
12.9917433851
 20
7.6574856517
 30
0.0
 10
12.9879114008
 20
7.6418371763
 30
0.0
 10
12.9839401343
 20
7.6267073278
 30
0.0
 10
12.9798376045
 20
7.6121264771
 30
0.0
 10
12.9756121067
 20
7.5981238691
 30
0.0
 10
12.9712721824
 20
7.5847275629
 30
0.0
 10
12.9668266021
 20
7.5719643778
 30
0.0
 10
12.9622843418
 20
7.5598598252
 30
0.0
 10
12.9576545667
 20
7.5484380647
 30
0.0
 10
12.9529466034
 20
7.5377217532
 30
0.0
 10
12.9481699241
 20
7.5277322851
 30
0.0
 10
12.9440774338
 20
7.519909764
 30
0.0
 10
12.9407696529
 20
7.5140388578
 30
0.0
 10
12.9383171984
 20
7.5098999468
 30
0.0
 10
12.9358547345
 20
7.5059569775
 30
0.0
 10
12.93338348
 20
7.5022119064
 30
0.0
 10
12.9309046923
 20
7.4986665875
 30
0.0
 10
12.9284195365
 20
7.4953227849
 30
0.0
 10
12.9259292393
 20
7.4921820978
 30
0.0
 10
12.9234349423
 20
7.4892460813
 30
0.0
 10
12.9209380151
 20
7.4865163289
 30
0.0
 10
12.9192378544
 20
7.4847999497
 30
0.0
 10
12.9183873104
 20
7.4839783872
 30
0.0
  0
SPLINE
  5
3AB
100
AcDbEntity
  8
0
100
AcDbSpline
 62
7
  6
CONTINUOUS
 70
0
 71
3
 72
20
 73
16
 74
0
 42
0.0000001
 43
0.0000001
 44
0.0000000001
 40
0.0
 40
0.0
 40
0.0
 40
0.0
 40
0.1268690266
 40
0.2536169662
 40
0.3800447262
 40
0.4430940115
 40
0.5059786503
 40
0.5686686045
 40
0.6311343556
 40
0.6933483693
 40
0.7552864385
 40
0.816929759
 40
0.878264578
 40
0.9392878508
 40
1.0
 40
1.0
 40
1.0
 40
1.0
 10
11.4678955749
 20
8.2935924185
 30
0.0
 10
11.4715031845
 20
8.2900883336
 30
0.0
 10
11.4784019991
 20
8.2827512168
 30
0.0
 10
11.4876289605
 20
8.2708124764
 30
0.0
 10
11.4942393991
 20
8.2601295104
 30
0.0
 10
11.4987709156
 20
8.251205516
 30
0.0
 10
11.5017632376
 20
8.2443480569
 30
0.0
 10
11.5043255148
 20
8.2373430571
 30
0.0
 10
11.5064328036
 20
8.2302152973
 30
0.0
 10
11.5080615975
 20
8.2229934072
 30
0.0
 10
11.5091909561
 20
8.2157093766
 30
0.0
 10
11.5098032968
 20
8.2083984547
 30
0.0
 10
11.5098854781
 20
8.2010982354
 30
0.0
 10
11.5094294636
 20
8.1938489754
 30
0.0
 10
11.5087633315
 20
8.189063852
 30
0.0
 10
11.5083403954
 20
8.1866945933
 30
0.0
  0
SPLINE
  5
3AC
100
AcDbEntity
  8
0
100
AcDbSpline
 62
4
  6
CONTINUOUS
 70
0
 71
3
 72
313
 73
309
 74
0
 42
0.0000001
 43
0.0000001
 44
0.0000000001
 40
0.0
 40
0.0
 40
0.0
 40
0.0
 40
0.015625
 40
0.0234375
 40
0.03125
 40
0.0390625
 40
0.046875
 40
0.05078125
 40
0.0546875
 40
0.056640625
 40
0.05859375
 40
0.060546875
 40
0.0615234375
 40
0.0620117188
 40
0.0625
 40
0.0629882812
 40
0.0634765625
 40
0.064453125
 40
0.06640625
 40
0.068359375
 40
0.0703125
 40
0.07421875
 40
0.078125
 40
0.0859375
 40
0.09375
 40
0.1015625
 40
0.109375
 40
0.11328125
 40
0.1171875
 40
0.119140625
 40
0.12109375
 40
0.123046875
 40
0.1240234375
 40
0.1245117188
 40
0.125
 40
0.1254882812
 40
0.1259765625
 40
0.126953125
 40
0.12890625
 40
0.130859375
 40
0.1328125
 40
0.13671875
 40
0.140625
 40
0.1484375
 40
0.15625
 40
0.1640625
 40
0.171875
 40
0.17578125
 40
0.1796875
 40
0.181640625
 40
0.18359375
 40
0.185546875
 40
0.1865234375
 40
0.1870117188
 40
0.1875
 40
0.1879882812
 40
0.1884765625
 40
0.189453125
 40
0.19140625
 40
0.193359375
 40
0.1953125
 40
0.19921875
 40
0.203125
 40
0.2109375
 40
0.21875
 40
0.2265625
 40
0.234375
 40
0.23828125
 40
0.2421875
 40
0.244140625
 40
0.24609375
 40
0.248046875
 40
0.2490234375
 40
0.2495117188
 40
0.25
 40
0.2504882812
 40
0.2509765625
 40
0.251953125
 40
0.25390625
 40
0.255859375
 40
0.2578125
 40
0.26171875
 40
0.265625
 40
0.2734375
 40
0.28125
 40
0.2890625
 40
0.296875
 40
0.30078125
 40
0.3046875
 40
0.306640625
 40
0.30859375
 40
0.310546875
 40
0.3115234375
 40
0.3120117188
 40
0.3125
 40
0.3129882812
 40
0.3134765625
 40
0.314453125
 40
0.31640625
 40
0.318359375
 40
0.3203125
 40
0.32421875
 40
0.328125
 40
0.3359375
 40
0.34375
 40
0.3515625
 40
0.359375
 40
0.36328125
 40
0.3671875
 40
0.369140625
 40
0.37109375
 40
0.373046875
 40
0.3740234375
 40
0.3745117188
 40
0.375
 40
0.3754882812
 40
0.3759765625
 40
0.376953125
 40
0.37890625
 40
0.380859375
 40
0.3828125
 40
0.38671875
 40
0.390625
 40
0.3984375
 40
0.40625
 40
0.4140625
 40
0.421875
 40
0.42578125
 40
0.4296875
 40
0.431640625
 40
0.43359375
 40
0.435546875
 40
0.4365234375
 40
0.4370117188
 40
0.4375
 40
0.4379882812
 40
0.4384765625
 40
0.439453125
 40
0.44140625
 40
0.443359375
 40
0.4453125
 40
0.44921875
 40
0.453125
 40
0.4609375
 40
0.46875
 40
0.4765625
 40
0.484375
 40
0.48828125
 40
0.4921875
 40
0.494140625
 40
0.49609375
 40
0.498046875
 40
0.4990234375
 40
0.4995117188
 40
0.5
 40
0.5004882812
 40
0.5009765625
 40
0.501953125
 40
0.50390625
 40
0.505859375
 40
0.5078125
 40
0.51171875
 40
0.515625
 40
0.5234375
 40
0.53125
 40
0.5390625
 40
0.546875
 40
0.55078125
 40
0.5546875
 40
0.556640625
 40
0.55859375
 40
0.560546875
 40
0.5615234375
 40
0.5620117188
 40
0.5625
 40
0.5629882812
 40
0.5634765625
 40
0.564453125
 40
0.56640625
 40
0.568359375
 40
0.5703125
 40
0.57421875
 40
0.578125
 40
0.5859375
 40
0.59375
 40
0.6015625
 40
0.609375
 40
0.61328125
 40
0.6171875
 40
0.619140625
 40
0.62109375
 40
0.623046875
 40
0.6240234375
 40
0.6245117188
 40
0.625
 40
0.6254882812
 40
0.6259765625
 40
0.626953125
 40
0.62890625
 40
0.630859375
 40
0.6328125
 40
0.63671875
 40
0.640625
 40
0.6484375
 40
0.65625
 40
0.6640625
 40
0.671875
 40
0.67578125
 40
0.6796875
 40
0.681640625
 40
0.68359375
 40
0.685546875
 40
0.6865234375
 40
0.6870117188
 40
0.6875
 40
0.6879882812
 40
0.6884765625
 40
0.689453125
 40
0.69140625
 40
0.693359375
 40
0.6953125
 40
0.69921875
 40
0.703125
 40
0.7109375
 40
0.71875
 40
0.7265625
 40
0.734375
 40
0.73828125
 40
0.7421875
 40
0.744140625
 40
0.74609375
 40
0.748046875
 40
0.7490234375
 40
0.7495117188
 40
0.75
 40
0.7504882812
 40
0.7509765625
 40
0.751953125
 40
0.75390625
 40
0.755859375
 40
0.7578125
 40
0.76171875
 40
0.765625
 40
0.7734375
 40
0.78125
 40
0.7890625
 40
0.796875
 40
0.80078125
 40
0.8046875
 40
0.806640625
 40
0.80859375
 40
0.810546875
 40
0.8115234375
 40
0.8120117188
 40
0.8125
 40
0.8129882812
 40
0.8134765625
 40
0.814453125
 40
0.81640625
 40
0.818359375
 40
0.8203125
 40
0.82421875
 40
0.828125
 40
0.8359375
 40
0.84375
 40
0.8515625
 40
0.859375
 40
0.86328125
 40
0.8671875
 40
0.869140625
 40
0.87109375
 40
0.873046875
 40
0.8740234375
 40
0.8745117188
 40
0.875
 40
0.8754882812
 40
0.8759765625
 40
0.876953125
 40
0.87890625
 40
0.880859375
 40
0.8828125
 40
0.88671875
 40
0.890625
 40
0.8984375
 40
0.90625
 40
0.9140625
 40
0.921875
 40
0.92578125
 40
0.9296875
 40
0.931640625
 40
0.93359375
 40
0.935546875
 40
0.9365234375
 40
0.9370117188
 40
0.9375
 40
0.9379882812
 40
0.9384765625
 40
0.939453125
 40
0.94140625
 40
0.943359375
 40
0.9453125
 40
0.94921875
 40
0.953125
 40
0.9609375
 40
0.96875
 40
0.9765625
 40
0.984375
 40
1.0
 40
1.0
 40
1.0
 40
1.0
 10
10.411665795
 20
7.0812578395
 30
0.0
 10
10.4118706028
 20
7.0791548448
 30
0.0
 10
10.4121778143
 20
7.0760003526
 30
0.0
 10
10.4125874303
 20
7.0717943632
 30
0.0
 10
10.4128946406
 20
7.0686398709
 30
0.0
 10
10.4132018572
 20
7.0654853794
 30
0.0
 10
10.4134578517
 20
7.062856634
 30
0.0
 10
10.4136626906
 20
7.0607536433
 30
0.0
 10
10.4137906162
 20
7.0594392614
 30
0.0
 10
10.4138931828
 20
7.0583877849
 30
0.0
 10
10.4139694885
 20
7.0575990979
 30
0.0
 10
10.4140350467
 20
7.0569421122
 30
0.0
 10
10.414077071
 20
7.0564817248
 30
0.0
 10
10.4141071221
 20
7.056219423
 30
0.0
 10
10.4141126536
 20
7.0560205086
 30
0.0
 10
10.4141831936
 20
7.0558299579
 30
0.0
 10
10.4142545713
 20
7.055572973
 30
0.0
 10
10.4143900473
 20
7.0551246086
 30
0.0
 10
10.414578061
 20
7.0544833774
 30
0.0
 10
10.4148060416
 20
7.0537142042
 30
0.0
 10
10.41510919
 20
7.0526885336
 30
0.0
 10
10.4154884082
 20
7.0514064818
 30
0.0
 10
10.4160949992
 20
7.0493551785
 30
0.0
 10
10.4168532927
 20
7.0467910565
 30
0.0
 10
10.4177632199
 20
7.0437141065
 30
0.0
 10
10.4186731592
 20
7.0406371594
 30
0.0
 10
10.4194314223
 20
7.0380730303
 30
0.0
 10
10.420038074
 20
7.0360217411
 30
0.0
 10
10.4204171382
 20
7.0347396535
 30
0.0
 10
10.4207206027
 20
7.0337140564
 30
0.0
 10
10.4209476174
 20
7.0329446585
 30
0.0
 10
10.4211386532
 20
7.0323041302
 30
0.0
 10
10.4212687341
 20
7.0318545111
 30
0.0
 10
10.4213487561
 20
7.0315995365
 30
0.0
 10
10.4213927438
 20
7.0314028106
 30
0.0
 10
10.4214980017
 20
7.0312270894
 30
0.0
 10
10.4216169739
 20
7.0309854677
 30
0.0
 10
10.4218351326
 20
7.0305660434
 30
0.0
 10
10.4221415821
 20
7.0299650812
 30
0.0
 10
10.4225115498
 20
7.0292446905
 30
0.0
 10
10.4230040617
 20
7.0282839027
 30
0.0
 10
10.4236199682
 20
7.0270830093
 30
0.0
 10
10.4246052695
 20
7.0251615288
 30
0.0
 10
10.4258369475
 20
7.0227596958
 30
0.0
 10
10.4273149377
 20
7.019877488
 30
0.0
 10
10.4287929395
 20
7.0169952849
 30
0.0
 10
10.4300245886
 20
7.0145934401
 30
0.0
 10
10.4310099478
 20
7.0126719833
 30
0.0
 10
10.431625707
 20
7.0114710298
 30
0.0
 10
10.4321185212
 20
7.0105103653
 30
0.0
 10
10.4324875652
 20
7.0097895978
 30
0.0
 10
10.4327969047
 20
7.0091898143
 30
0.0
 10
10.4330099044
 20
7.0087682859
 30
0.0
 10
10.4331371427
 20
7.0085300356
 30
0.0
 10
10.4332170096
 20
7.0083439585
 30
0.0
 10
10.4333563617
 20
7.0081861277
 30
0.0
 10
10.4335214154
 20
7.007965834
 30
0.0
 10
10.4338199268
 20
7.0075849106
 30
0.0
 10
10.4342413174
 20
7.0070383343
 30
0.0
 10
10.4347491495
 20
7.00638347
 30
0.0
 10
10.4354255033
 20
7.0055099588
 30
0.0
 10
10.4362712043
 20
7.0044181927
 30
0.0
 10
10.4376241812
 20
7.0026712981
 30
0.0
 10
10.4393154523
 20
7.0004877038
 30
0.0
 10
10.4413449552
 20
6.9978673793
 30
0.0
 10
10.4433744679
 20
6.9952470621
 30
0.0
 10
10.4450657143
 20
6.9930634493
 30
0.0
 10
10.4464187407
 20
6.9913165918
 30
0.0
 10
10.4472643161
 20
6.9902247316
 30
0.0
 10
10.4479409277
 20
6.9893514135
 30
0.0
 10
10.4484479721
 20
6.9886959591
 30
0.0
 10
10.4488718272
 20
6.9881512291
 30
0.0
 10
10.449165939
 20
6.9877670098
 30
0.0
 10
10.4493380418
 20
6.9875519969
 30
0.0
 10
10.4494557414
 20
6.9873779453
 30
0.0
 10
10.4496169317
 20
6.9872527908
 30
0.0
 10
10.449816682
 20
6.9870688622
 30
0.0
 10
10.4501733131
 20
6.9867549338
 30
0.0
 10
10.4506790908
 20
6.9863023101
 30
0.0
 10
10.4512876058
 20
6.98576094
 30
0.0
 10
10.4520984066
 20
6.985038492
 30
0.0
 10
10.4531120968
 20
6.9841356448
 30
0.0
 10
10.4547338954
 20
6.9826909702
 30
0.0
 10
10.4567611801
 20
6.9808851681
 30
0.0
 10
10.4591939052
 20
6.9787181868
 30
0.0
 10
10.4616266381
 20
6.9765512151
 30
0.0
 10
10.4636539035
 20
6.9747453887
 30
0.0
 10
10.4652757406
 20
6.9733007628
 30
0.0
 10
10.4662893328
 20
6.9723977919
 30
0.0
 10
10.4671003348
 20
6.9716755978
 30
0.0
 10
10.4677082351
 20
6.971133452
 30
0.0
 10
10.468215936
 20
6.9706832553
 30
0.0
 10
10.468569134
 20
6.9703649943
 30
0.0
 10
10.468774385
 20
6.9701880076
 30
0.0
 10
10.4689186788
 20
6.9700415298
 30
0.0
 10
10.4690998387
 20
6.9699475651
 30
0.0
 10
10.4693285259
 20
6.9698039617
 30
0.0
 10
10.46973472
 20
6.96956119
 30
0.0
 10
10.4703118648
 20
6.9692099115
 30
0.0
 10
10.4710057793
 20
6.9687902871
 30
0.0
 10
10.4719305304
 20
6.9682301208
 30
0.0
 10
10.4730866296
 20
6.9675301414
 30
0.0
 10
10.4749362987
 20
6.9664100466
 30
0.0
 10
10.477248416
 20
6.9650099723
 30
0.0
 10
10.4800229429
 20
6.9633298628
 30
0.0
 10
10.4827974757
 20
6.961649764
 30
0.0
 10
10.485109578
 20
6.9602496628
 30
0.0
 10
10.486959277
 20
6.9591296218
 30
0.0
 10
10.4881153002
 20
6.9584295058
 30
0.0
 10
10.4890402073
 20
6.9578696198
 30
0.0
 10
10.4897336451
 20
6.9574491392
 30
0.0
 10
10.4903122817
 20
6.9571005395
 30
0.0
 10
10.4907158126
 20
6.9568529858
 30
0.0
 10
10.4909487668
 20
6.9567170443
 30
0.0
 10
10.4911168199
 20
6.9565995446
 30
0.0
 10
10.4913103406
 20
6.9565414605
 30
0.0
 10
10.4915594848
 20
6.9564432901
 30
0.0
 10
10.491999626
 20
6.9562811481
 30
0.0
 10
10.4926262353
 20
6.9560444683
 30
0.0
 10
10.4933790926
 20
6.9557626135
 30
0.0
 10
10.4943825789
 20
6.9553860522
 30
0.0
 10
10.4956370475
 20
6.9549156091
 30
0.0
 10
10.4976441354
 20
6.9541627556
 30
0.0
 10
10.5001530167
 20
6.9532217387
 30
0.0
 10
10.5031636645
 20
6.9520924955
 30
0.0
 10
10.5061743167
 20
6.9509632641
 30
0.0
 10
10.5086831872
 20
6.9500222177
 30
0.0
 10
10.5106902965
 20
6.9492694232
 30
0.0
 10
10.5119447107
 20
6.94879883
 30
0.0
 10
10.5129483088
 20
6.9484225769
 30
0.0
 10
10.5137008247
 20
6.9481397808
 30
0.0
 10
10.5143285023
 20
6.9479060457
 30
0.0
 10
10.5147667363
 20
6.947738647
 30
0.0
 10
10.5150189363
 20
6.9476488991
 30
0.0
 10
10.5152030706
 20
6.9475649439
 30
0.0
 10
10.5154063771
 20
6.9475446117
 30
0.0
 10
10.5156707649
 20
6.9474953097
 30
0.0
 10
10.5161365595
 20
6.947419371
 30
0.0
 10
10.5168003513
 20
6.9473054814
 30
0.0
 10
10.5175975987
 20
6.9471711277
 30
0.0
 10
10.5186603517
 20
6.9469911813
 30
0.0
 10
10.5199888763
 20
6.9467665249
 30
0.0
 10
10.5221144692
 20
6.9464069201
 30
0.0
 10
10.5247714762
 20
6.9459574676
 30
0.0
 10
10.5279598779
 20
6.9454180999
 30
0.0
 10
10.5311482808
 20
6.9448787449
 30
0.0
 10
10.5338052847
 20
6.9444292608
 30
0.0
 10
10.5359308838
 20
6.9440697191
 30
0.0
 10
10.5372593924
 20
6.9438449024
 30
0.0
 10
10.5383221785
 20
6.9436652852
 30
0.0
 10
10.5391193248
 20
6.9435299256
 30
0.0
 10
10.5397834329
 20
6.943419183
 30
0.0
 10
10.5402486627
 20
6.9433376264
 30
0.0
 10
10.5405139553
 20
6.9432973258
 30
0.0
 10
10.5407144828
 20
6.943249344
 30
0.0
 10
10.5409090547
 20
6.943269236
 30
0.0
 10
10.5411705613
 20
6.9432720835
 30
0.0
 10
10.5416272299
 20
6.9432880972
 30
0.0
 10
10.5422801197
 20
6.9433052071
 30
0.0
 10
10.5430633709
 20
6.9433282074
 30
0.0
 10
10.5441077815
 20
6.9433580123
 30
0.0
 10
10.5454132687
 20
6.9433955636
 30
0.0
 10
10.5475020629
 20
6.9434554806
 30
0.0
 10
10.5501130505
 20
6.9435304339
 30
0.0
 10
10.5532462382
 20
6.9436203518
 30
0.0
 10
10.556379424
 20
6.9437102826
 30
0.0
 10
10.5589904161
 20
6.9437852038
 30
0.0
 10
10.5610792012
 20
6.943845185
 30
0.0
 10
10.5623847115
 20
6.9438825731
 30
0.0
 10
10.5634290749
 20
6.9439127129
 30
0.0
 10
10.5642124701
 20
6.9439346899
 30
0.0
 10
10.5648649093
 20
6.9439550014
 30
0.0
 10
10.5653223823
 20
6.9439652998
 30
0.0
 10
10.5655826001
 20
6.9439773047
 30
0.0
 10
10.5657811309
 20
6.9439690681
 30
0.0
 10
10.5659667896
 20
6.9440267327
 30
0.0
 10
10.5662188245
 20
6.9440806317
 30
0.0
 10
10.5666577936
 20
6.9441856651
 30
0.0
 10
10.5672859859
 20
6.9443301134
 30
0.0
 10
10.5680393487
 20
6.9445058482
 30
0.0
 10
10.5690439958
 20
6.944739324
 30
0.0
 10
10.5702997488
 20
6.9450314555
 30
0.0
 10
10.5723089849
 20
6.9454987055
 30
0.0
 10
10.574820519
 20
6.9460828235
 30
0.0
 10
10.5778343653
 20
6.9467837397
 30
0.0
 10
10.580848208
 20
6.9474846684
 30
0.0
 10
10.5833597513
 20
6.9480687554
 30
0.0
 10
10.5853689691
 20
6.9485360673
 30
0.0
 10
10.5866247685
 20
6.9488280415
 30
0.0
 10
10.5876293202
 20
6.9490618401
 30
0.0
 10
10.5883829746
 20
6.9492365887
 30
0.0
 10
10.5890102546
 20
6.9493841225
 30
0.0
 10
10.5894508525
 20
6.9494836479
 30
0.0
 10
10.5897002775
 20
6.9495463721
 30
0.0
 10
10.5898939529
 20
6.9495769284
 30
0.0
 10
10.5900623745
 20
6.9496705062
 30
0.0
 10
10.5902957454
 20
6.9497732941
 30
0.0
 10
10.5907000403
 20
6.9499634149
 30
0.0
 10
10.5912797501
 20
6.9502296614
 30
0.0
 10
10.5919744835
 20
6.9505514491
 30
0.0
 10
10.5929011155
 20
6.9509796989
 30
0.0
 10
10.5940592957
 20
6.9515152853
 30
0.0
 10
10.5959124453
 20
6.9523720702
 30
0.0
 10
10.5982288611
 20
6.9534431043
 30
0.0
 10
10.60100857
 20
6.954728321
 30
0.0
 10
10.6037882733
 20
6.9560135497
 30
0.0
 10
10.6061047029
 20
6.9570845539
 30
0.0
 10
10.6079578249
 20
6.9579413987
 30
0.0
 10
10.6091160753
 20
6.9584768328
 30
0.0
 10
10.610042563
 20
6.958905395
 30
0.0
 10
10.6107377372
 20
6.9592262285
 30
0.0
 10
10.6113160679
 20
6.9594954606
 30
0.0
 10
10.6117228248
 20
6.9596802516
 30
0.0
 10
10.611952251
 20
6.9597915791
 30
0.0
 10
10.6121327894
 20
6.9598589257
 30
0.0
 10
10.6122809561
 20
6.9599880024
 30
0.0
 10
10.6124898033
 20
6.9601385725
 30
0.0
 10
10.6128500248
 20
6.9604121024
 30
0.0
 10
10.6133673776
 20
6.9607976145
 30
0.0
 10
10.6139870236
 20
6.9612624739
 30
0.0
 10
10.6148136295
 20
6.9618815024
 30
0.0
 10
10.6158467461
 20
6.9626555566
 30
0.0
 10
10.6174998114
 20
6.9638938931
 30
0.0
 10
10.6195661156
 20
6.9654418654
 30
0.0
 10
10.6220456937
 20
6.967299409
 30
0.0
 10
10.6245252636
 20
6.969156963
 30
0.0
 10
10.6265915881
 20
6.9707049093
 30
0.0
 10
10.6282446129
 20
6.971943298
 30
0.0
 10
10.6292778323
 20
6.9727172194
 30
0.0
 10
10.6301042272
 20
6.9733365203
 30
0.0
 10
10.6307245179
 20
6.9738005474
 30
0.0
 10
10.6312398535
 20
6.9741886638
 30
0.0
 10
10.6316036761
 20
6.9744575445
 30
0.0
 10
10.6318067536
 20
6.9746155638
 30
0.0
 10
10.6319726427
 20
6.9747217589
 30
0.0
 10
10.6320866187
 20
6.974875045
 30
0.0
 10
10.6322566945
 20
6.9750630005
 30
0.0
 10
10.6325458904
 20
6.9753995758
 30
0.0
 10
10.6329634383
 20
6.9758763965
 30
0.0
 10
10.6334626078
 20
6.9764502939
 30
0.0
 10
10.6341288265
 20
6.9772148923
 30
0.0
 10
10.6349613741
 20
6.9781708451
 30
0.0
 10
10.6362935766
 20
6.9797002552
 30
0.0
 10
10.637958786
 20
6.9816120572
 30
0.0
 10
10.6399570573
 20
6.9839062017
 30
0.0
 10
10.6419553183
 20
6.9862003547
 30
0.0
 10
10.6436205534
 20
6.9881121357
 30
0.0
 10
10.6449527045
 20
6.9896415878
 30
0.0
 10
10.6457853826
 20
6.9905974336
 30
0.0
 10
10.6464513335
 20
6.9913622518
 30
0.0
 10
10.6469513213
 20
6.9919354778
 30
0.0
 10
10.6473663088
 20
6.9924143992
 30
0.0
 10
10.6476600754
 20
6.9927472244
 30
0.0
 10
10.6478228279
 20
6.9929411885
 30
0.0
 10
10.647959299
 20
6.993076018
 30
0.0
 10
10.6480407001
 20
6.9932515327
 30
0.0
 10
10.6481684441
 20
6.9934713609
 30
0.0
 10
10.6483830461
 20
6.9938626722
 30
0.0
 10
10.6486942995
 20
6.9944182315
 30
0.0
 10
10.6490658007
 20
6.9950863824
 30
0.0
 10
10.6495618353
 20
6.9959767333
 30
0.0
 10
10.6501816389
 20
6.997089849
 30
0.0
 10
10.6511734587
 20
6.9988707352
 30
0.0
 10
10.6524131872
 20
7.001096877
 30
0.0
 10
10.6539008826
 20
7.0037682318
 30
0.0
 10
10.6553885669
 20
7.0064395934
 30
0.0
 10
10.6566283232
 20
7.0086657183
 30
0.0
 10
10.6576200872
 20
7.0104466383
 30
0.0
 10
10.6582400327
 20
7.0115596681
 30
0.0
 10
10.6587357762
 20
7.0124501953
 30
0.0
 10
10.6591081667
 20
7.0131178077
 30
0.0
 10
10.6594166379
 20
7.0136750517
 30
0.0
 10
10.6596362066
 20
7.0140633555
 30
0.0
 10
10.6597559926
 20
7.0142880025
 30
0.0
 10
10.6598618378
 20
7.0144487153
 30
0.0
 10
10.6599065012
 20
7.0146391385
 30
0.0
 10
10.6599873934
 20
7.0148826728
 30
0.0
 10
10.6601190115
 20
7.0153136862
 30
0.0
 10
10.6603122357
 20
7.0159268954
 30
0.0
 10
10.6605418798
 20
7.0166638268
 30
0.0
 10
10.660848849
 20
7.0176460247
 30
0.0
 10
10.6612322944
 20
7.0188739014
 30
0.0
 10
10.6618459559
 20
7.0208384317
 30
0.0
 10
10.6626129813
 20
7.0232941195
 30
0.0
 10
10.6635334354
 20
7.0262409337
 30
0.0
 10
10.6644538774
 20
7.029187753
 30
0.0
 10
10.665220933
 20
7.031643428
 30
0.0
 10
10.6658345339
 20
7.033607984
 30
0.0
 10
10.6662181332
 20
7.0348357954
 30
0.0
 10
10.6665247867
 20
7.035818127
 30
0.0
 10
10.6667553955
 20
7.0365546501
 30
0.0
 10
10.6669456011
 20
7.037169137
 30
0.0
 10
10.6670826081
 20
7.0375978695
 30
0.0
 10
10.6671548659
 20
7.0378450584
 30
0.0
 10
10.6672260513
 20
7.038024256
 30
0.0
 10
10.6672322842
 20
7.0382271303
 30
0.0
 10
10.6672632508
 20
7.0384893707
 30
0.0
 10
10.6673068865
 20
7.0389521393
 30
0.0
 10
10.6673747421
 20
7.0396112256
 30
0.0
 10
10.6674538065
 20
7.0404029902
 30
0.0
 10
10.6675600507
 20
7.0414583756
 30
0.0
 10
10.6676925735
 20
7.0427777104
 30
0.0
 10
10.667904768
 20
7.0448885884
 30
0.0
 10
10.6681699568
 20
7.0475272057
 30
0.0
 10
10.6684882066
 20
7.050693538
 30
0.0
 10
10.6688064503
 20
7.0538598726
 30
0.0
 10
10.6692307773
 20
7.0580816512
 30
0.0
 10
10.669549022
 20
7.0612479853
 30
0.0
 10
10.6697611853
 20
7.0633588747
 30
0.0
  0
SPLINE
  5
3AD
100
AcDbEntity
  8
0
100
AcDbSpline
 62
4
  6
CONTINUOUS
 70
0
 71
3
 72
313
 73
309
 74
0
 42
0.0000001
 43
0.0000001
 44
0.0000000001
 40
0.0
 40
0.0
 40
0.0
 40
0.0
 40
0.015625
 40
0.0234375
 40
0.03125
 40
0.0390625
 40
0.046875
 40
0.05078125
 40
0.0546875
 40
0.056640625
 40
0.05859375
 40
0.060546875
 40
0.0615234375
 40
0.0620117188
 40
0.0625
 40
0.0629882812
 40
0.0634765625
 40
0.064453125
 40
0.06640625
 40
0.068359375
 40
0.0703125
 40
0.07421875
 40
0.078125
 40
0.0859375
 40
0.09375
 40
0.1015625
 40
0.109375
 40
0.11328125
 40
0.1171875
 40
0.119140625
 40
0.12109375
 40
0.123046875
 40
0.1240234375
 40
0.1245117188
 40
0.125
 40
0.1254882812
 40
0.1259765625
 40
0.126953125
 40
0.12890625
 40
0.130859375
 40
0.1328125
 40
0.13671875
 40
0.140625
 40
0.1484375
 40
0.15625
 40
0.1640625
 40
0.171875
 40
0.17578125
 40
0.1796875
 40
0.181640625
 40
0.18359375
 40
0.185546875
 40
0.1865234375
 40
0.1870117188
 40
0.1875
 40
0.1879882812
 40
0.1884765625
 40
0.189453125
 40
0.19140625
 40
0.193359375
 40
0.1953125
 40
0.19921875
 40
0.203125
 40
0.2109375
 40
0.21875
 40
0.2265625
 40
0.234375
 40
0.23828125
 40
0.2421875
 40
0.244140625
 40
0.24609375
 40
0.248046875
 40
0.2490234375
 40
0.2495117188
 40
0.25
 40
0.2504882812
 40
0.2509765625
 40
0.251953125
 40
0.25390625
 40
0.255859375
 40
0.2578125
 40
0.26171875
 40
0.265625
 40
0.2734375
 40
0.28125
 40
0.2890625
 40
0.296875
 40
0.30078125
 40
0.3046875
 40
0.306640625
 40
0.30859375
 40
0.310546875
 40
0.3115234375
 40
0.3120117188
 40
0.3125
 40
0.3129882812
 40
0.3134765625
 40
0.314453125
 40
0.31640625
 40
0.318359375
 40
0.3203125
 40
0.32421875
 40
0.328125
 40
0.3359375
 40
0.34375
 40
0.3515625
 40
0.359375
 40
0.36328125
 40
0.3671875
 40
0.369140625
 40
0.37109375
 40
0.373046875
 40
0.3740234375
 40
0.3745117188
 40
0.375
 40
0.3754882812
 40
0.3759765625
 40
0.376953125
 40
0.37890625
 40
0.380859375
 40
0.3828125
 40
0.38671875
 40
0.390625
 40
0.3984375
 40
0.40625
 40
0.4140625
 40
0.421875
 40
0.42578125
 40
0.4296875
 40
0.431640625
 40
0.43359375
 40
0.435546875
 40
0.4365234375
 40
0.4370117188
 40
0.4375
 40
0.4379882812
 40
0.4384765625
 40
0.439453125
 40
0.44140625
 40
0.443359375
 40
0.4453125
 40
0.44921875
 40
0.453125
 40
0.4609375
 40
0.46875
 40
0.4765625
 40
0.484375
 40
0.48828125
 40
0.4921875
 40
0.494140625
 40
0.49609375
 40
0.498046875
 40
0.4990234375
 40
0.4995117188
 40
0.5
 40
0.5004882812
 40
0.5009765625
 40
0.501953125
 40
0.50390625
 40
0.505859375
 40
0.5078125
 40
0.51171875
 40
0.515625
 40
0.5234375
 40
0.53125
 40
0.5390625
 40
0.546875
 40
0.55078125
 40
0.5546875
 40
0.556640625
 40
0.55859375
 40
0.560546875
 40
0.5615234375
 40
0.5620117188
 40
0.5625
 40
0.5629882812
 40
0.5634765625
 40
0.564453125
 40
0.56640625
 40
0.568359375
 40
0.5703125
 40
0.57421875
 40
0.578125
 40
0.5859375
 40
0.59375
 40
0.6015625
 40
0.609375
 40
0.61328125
 40
0.6171875
 40
0.619140625
 40
0.62109375
 40
0.623046875
 40
0.6240234375
 40
0.6245117188
 40
0.625
 40
0.6254882812
 40
0.6259765625
 40
0.626953125
 40
0.62890625
 40
0.630859375
 40
0.6328125
 40
0.63671875
 40
0.640625
 40
0.6484375
 40
0.65625
 40
0.6640625
 40
0.671875
 40
0.67578125
 40
0.6796875
 40
0.681640625
 40
0.68359375
 40
0.685546875
 40
0.6865234375
 40
0.6870117188
 40
0.6875
 40
0.6879882812
 40
0.6884765625
 40
0.689453125
 40
0.69140625
 40
0.693359375
 40
0.6953125
 40
0.69921875
 40
0.703125
 40
0.7109375
 40
0.71875
 40
0.7265625
 40
0.734375
 40
0.73828125
 40
0.7421875
 40
0.744140625
 40
0.74609375
 40
0.748046875
 40
0.7490234375
 40
0.7495117188
 40
0.75
 40
0.7504882812
 40
0.7509765625
 40
0.751953125
 40
0.75390625
 40
0.755859375
 40
0.7578125
 40
0.76171875
 40
0.765625
 40
0.7734375
 40
0.78125
 40
0.7890625
 40
0.796875
 40
0.80078125
 40
0.8046875
 40
0.806640625
 40
0.80859375
 40
0.810546875
 40
0.8115234375
 40
0.8120117188
 40
0.8125
 40
0.8129882812
 40
0.8134765625
 40
0.814453125
 40
0.81640625
 40
0.818359375
 40
0.8203125
 40
0.82421875
 40
0.828125
 40
0.8359375
 40
0.84375
 40
0.8515625
 40
0.859375
 40
0.86328125
 40
0.8671875
 40
0.869140625
 40
0.87109375
 40
0.873046875
 40
0.8740234375
 40
0.8745117188
 40
0.875
 40
0.8754882812
 40
0.8759765625
 40
0.876953125
 40
0.87890625
 40
0.880859375
 40
0.8828125
 40
0.88671875
 40
0.890625
 40
0.8984375
 40
0.90625
 40
0.9140625
 40
0.921875
 40
0.92578125
 40
0.9296875
 40
0.931640625
 40
0.93359375
 40
0.935546875
 40
0.9365234375
 40
0.9370117188
 40
0.9375
 40
0.9379882812
 40
0.9384765625
 40
0.939453125
 40
0.94140625
 40
0.943359375
 40
0.9453125
 40
0.94921875
 40
0.953125
 40
0.9609375
 40
0.96875
 40
0.9765625
 40
0.984375
 40
1.0
 40
1.0
 40
1.0
 40
1.0
 10
10.6697611853
 20
7.0633588634
 30
0.0
 10
10.6695563776
 20
7.0654618582
 30
0.0
 10
10.6692491661
 20
7.0686163503
 30
0.0
 10
10.6688395501
 20
7.0728223397
 30
0.0
 10
10.6685323397
 20
7.075976832
 30
0.0
 10
10.6682251231
 20
7.0791313235
 30
0.0
 10
10.6679691287
 20
7.0817600689
 30
0.0
 10
10.6677642898
 20
7.0838630596
 30
0.0
 10
10.6676363642
 20
7.0851774416
 30
0.0
 10
10.6675337975
 20
7.086228918
 30
0.0
 10
10.6674574919
 20
7.087017605
 30
0.0
 10
10.6673919337
 20
7.0876745907
 30
0.0
 10
10.6673499093
 20
7.0881349781
 30
0.0
 10
10.6673198583
 20
7.0883972799
 30
0.0
 10
10.6673143268
 20
7.0885961943
 30
0.0
 10
10.6672437867
 20
7.088786745
 30
0.0
 10
10.667172409
 20
7.0890437299
 30
0.0
 10
10.667036933
 20
7.0894920943
 30
0.0
 10
10.6668489194
 20
7.0901333255
 30
0.0
 10
10.6666209388
 20
7.0909024988
 30
0.0
 10
10.6663177904
 20
7.0919281693
 30
0.0
 10
10.6659385722
 20
7.0932102212
 30
0.0
 10
10.6653319811
 20
7.0952615244
 30
0.0
 10
10.6645736877
 20
7.0978256465
 30
0.0
 10
10.6636637605
 20
7.1009025964
 30
0.0
 10
10.6627538211
 20
7.1039795436
 30
0.0
 10
10.661995558
 20
7.1065436726
 30
0.0
 10
10.6613889063
 20
7.1085949618
 30
0.0
 10
10.6610098422
 20
7.1098770495
 30
0.0
 10
10.6607063776
 20
7.1109026465
 30
0.0
 10
10.660479363
 20
7.1116720444
 30
0.0
 10
10.6602883271
 20
7.1123125727
 30
0.0
 10
10.6601582462
 20
7.1127621918
 30
0.0
 10
10.6600782242
 20
7.1130171664
 30
0.0
 10
10.6600342366
 20
7.1132138923
 30
0.0
 10
10.6599289787
 20
7.1133896136
 30
0.0
 10
10.6598100065
 20
7.1136312352
 30
0.0
 10
10.6595918477
 20
7.1140506595
 30
0.0
 10
10.6592853982
 20
7.1146516217
 30
0.0
 10
10.6589154306
 20
7.1153720124
 30
0.0
 10
10.6584229186
 20
7.1163328002
 30
0.0
 10
10.6578070122
 20
7.1175336936
 30
0.0
 10
10.6568217109
 20
7.1194551741
 30
0.0
 10
10.6555900328
 20
7.1218570071
 30
0.0
 10
10.6541120426
 20
7.1247392149
 30
0.0
 10
10.6526340408
 20
7.127621418
 30
0.0
 10
10.6514023918
 20
7.1300232628
 30
0.0
 10
10.6504170325
 20
7.1319447197
 30
0.0
 10
10.6498012734
 20
7.1331456731
 30
0.0
 10
10.6493084591
 20
7.1341063376
 30
0.0
 10
10.6489394151
 20
7.1348271051
 30
0.0
 10
10.6486300756
 20
7.1354268886
 30
0.0
 10
10.648417076
 20
7.135848417
 30
0.0
 10
10.6482898377
 20
7.1360866673
 30
0.0
 10
10.6482099707
 20
7.1362727444
 30
0.0
 10
10.6480706186
 20
7.1364305752
 30
0.0
 10
10.6479055649
 20
7.1366508689
 30
0.0
 10
10.6476070536
 20
7.1370317923
 30
0.0
 10
10.647185663
 20
7.1375783686
 30
0.0
 10
10.6466778309
 20
7.1382332329
 30
0.0
 10
10.6460014771
 20
7.1391067441
 30
0.0
 10
10.6451557761
 20
7.1401985103
 30
0.0
 10
10.6438027991
 20
7.1419454048
 30
0.0
 10
10.642111528
 20
7.1441289991
 30
0.0
 10
10.6400820252
 20
7.1467493236
 30
0.0
 10
10.6380525124
 20
7.1493696408
 30
0.0
 10
10.6363612661
 20
7.1515532536
 30
0.0
 10
10.6350082397
 20
7.1533001111
 30
0.0
 10
10.6341626643
 20
7.1543919713
 30
0.0
 10
10.6334860526
 20
7.1552652894
 30
0.0
 10
10.6329790083
 20
7.1559207438
 30
0.0
 10
10.6325551532
 20
7.1564654738
 30
0.0
 10
10.6322610413
 20
7.1568496931
 30
0.0
 10
10.6320889385
 20
7.157064706
 30
0.0
 10
10.631971239
 20
7.1572387576
 30
0.0
 10
10.6318100487
 20
7.1573639122
 30
0.0
 10
10.6316102984
 20
7.1575478407
 30
0.0
 10
10.6312536673
 20
7.1578617691
 30
0.0
 10
10.6307478895
 20
7.1583143928
 30
0.0
 10
10.6301393746
 20
7.1588557629
 30
0.0
 10
10.6293285738
 20
7.1595782109
 30
0.0
 10
10.6283148835
 20
7.1604810582
 30
0.0
 10
10.626693085
 20
7.1619257327
 30
0.0
 10
10.6246658003
 20
7.1637315348
 30
0.0
 10
10.6222330751
 20
7.1658985162
 30
0.0
 10
10.6198003423
 20
7.1680654878
 30
0.0
 10
10.6177730769
 20
7.1698713142
 30
0.0
 10
10.6161512397
 20
7.1713159401
 30
0.0
 10
10.6151376475
 20
7.1722189111
 30
0.0
 10
10.6143266455
 20
7.1729411051
 30
0.0
 10
10.6137187452
 20
7.173483251
 30
0.0
 10
10.6132110444
 20
7.1739334476
 30
0.0
 10
10.6128578464
 20
7.1742517086
 30
0.0
 10
10.6126525953
 20
7.1744286953
 30
0.0
 10
10.6125083015
 20
7.1745751732
 30
0.0
 10
10.6123271416
 20
7.1746691378
 30
0.0
 10
10.6120984544
 20
7.1748127413
 30
0.0
 10
10.6116922604
 20
7.1750555129
 30
0.0
 10
10.6111151156
 20
7.1754067914
 30
0.0
 10
10.610421201
 20
7.1758264158
 30
0.0
 10
10.6094964499
 20
7.1763865821
 30
0.0
 10
10.6083403507
 20
7.1770865615
 30
0.0
 10
10.6064906816
 20
7.1782066563
 30
0.0
 10
10.6041785644
 20
7.1796067306
 30
0.0
 10
10.6014040375
 20
7.1812868401
 30
0.0
 10
10.5986295047
 20
7.1829669389
 30
0.0
 10
10.5963174023
 20
7.1843670401
 30
0.0
 10
10.5944677033
 20
7.1854870811
 30
0.0
 10
10.5933116802
 20
7.1861871971
 30
0.0
 10
10.592386773
 20
7.1867470831
 30
0.0
 10
10.5916933353
 20
7.1871675637
 30
0.0
 10
10.5911146987
 20
7.1875161635
 30
0.0
 10
10.5907111677
 20
7.1877637171
 30
0.0
 10
10.5904782135
 20
7.1878996586
 30
0.0
 10
10.5903101604
 20
7.1880171583
 30
0.0
 10
10.5901166398
 20
7.1880752425
 30
0.0
 10
10.5898674956
 20
7.1881734128
 30
0.0
 10
10.5894273544
 20
7.1883355548
 30
0.0
 10
10.5888007451
 20
7.1885722346
 30
0.0
 10
10.5880478878
 20
7.1888540895
 30
0.0
 10
10.5870444015
 20
7.1892306507
 30
0.0
 10
10.5857899328
 20
7.1897010938
 30
0.0
 10
10.5837828449
 20
7.1904539473
 30
0.0
 10
10.5812739637
 20
7.1913949642
 30
0.0
 10
10.5782633158
 20
7.1925242074
 30
0.0
 10
10.5752526637
 20
7.1936534388
 30
0.0
 10
10.5727437932
 20
7.1945944853
 30
0.0
 10
10.5707366838
 20
7.1953472797
 30
0.0
 10
10.5694822696
 20
7.1958178729
 30
0.0
 10
10.5684786716
 20
7.1961941261
 30
0.0
 10
10.5677261557
 20
7.1964769221
 30
0.0
 10
10.5670984781
 20
7.1967106572
 30
0.0
 10
10.566660244
 20
7.1968780559
 30
0.0
 10
10.5664080441
 20
7.1969678038
 30
0.0
 10
10.5662239097
 20
7.197051759
 30
0.0
 10
10.5660206033
 20
7.1970720912
 30
0.0
 10
10.5657562154
 20
7.1971213932
 30
0.0
 10
10.5652904209
 20
7.1971973319
 30
0.0
 10
10.5646266291
 20
7.1973112215
 30
0.0
 10
10.5638293817
 20
7.1974455752
 30
0.0
 10
10.5627666287
 20
7.1976255217
 30
0.0
 10
10.561438104
 20
7.197850178
 30
0.0
 10
10.5593125112
 20
7.1982097828
 30
0.0
 10
10.5566555042
 20
7.1986592354
 30
0.0
 10
10.5534671025
 20
7.199198603
 30
0.0
 10
10.5502786995
 20
7.199737958
 30
0.0
 10
10.5476216957
 20
7.2001874421
 30
0.0
 10
10.5454960965
 20
7.2005469838
 30
0.0
 10
10.544167588
 20
7.2007718006
 30
0.0
 10
10.5431048019
 20
7.2009514178
 30
0.0
 10
10.5423076556
 20
7.2010867773
 30
0.0
 10
10.5416435475
 20
7.2011975199
 30
0.0
 10
10.5411783176
 20
7.2012790766
 30
0.0
 10
10.540913025
 20
7.2013193771
 30
0.0
 10
10.5407124976
 20
7.2013673589
 30
0.0
 10
10.5405179257
 20
7.2013474669
 30
0.0
 10
10.5402564191
 20
7.2013446195
 30
0.0
 10
10.5397997504
 20
7.2013286057
 30
0.0
 10
10.5391468606
 20
7.2013114958
 30
0.0
 10
10.5383636094
 20
7.2012884955
 30
0.0
 10
10.5373191989
 20
7.2012586907
 30
0.0
 10
10.5360137116
 20
7.2012211394
 30
0.0
 10
10.5339249175
 20
7.2011612223
 30
0.0
 10
10.5313139298
 20
7.201086269
 30
0.0
 10
10.5281807422
 20
7.2009963511
 30
0.0
 10
10.5250475564
 20
7.2009064203
 30
0.0
 10
10.5224365642
 20
7.2008314991
 30
0.0
 10
10.5203477791
 20
7.2007715179
 30
0.0
 10
10.5190422689
 20
7.2007341298
 30
0.0
 10
10.5179979055
 20
7.20070399
 30
0.0
 10
10.5172145103
 20
7.200682013
 30
0.0
 10
10.5165620711
 20
7.2006617015
 30
0.0
 10
10.516104598
 20
7.2006514031
 30
0.0
 10
10.5158443803
 20
7.2006393982
 30
0.0
 10
10.5156458495
 20
7.2006476349
 30
0.0
 10
10.5154601908
 20
7.2005899703
 30
0.0
 10
10.5152081559
 20
7.2005360712
 30
0.0
 10
10.5147691868
 20
7.2004310378
 30
0.0
 10
10.5141409944
 20
7.2002865895
 30
0.0
 10
10.5133876317
 20
7.2001108548
 30
0.0
 10
10.5123829845
 20
7.1998773789
 30
0.0
 10
10.5111272315
 20
7.1995852475
 30
0.0
 10
10.5091179955
 20
7.1991179974
 30
0.0
 10
10.5066064613
 20
7.1985338795
 30
0.0
 10
10.503592615
 20
7.1978329632
 30
0.0
 10
10.5005787724
 20
7.1971320345
 30
0.0
 10
10.4980672291
 20
7.1965479476
 30
0.0
 10
10.4960580113
 20
7.1960806356
 30
0.0
 10
10.4948022118
 20
7.1957886614
 30
0.0
 10
10.4937976601
 20
7.1955548628
 30
0.0
 10
10.4930440057
 20
7.1953801142
 30
0.0
 10
10.4924167258
 20
7.1952325804
 30
0.0
 10
10.4919761278
 20
7.1951330551
 30
0.0
 10
10.4917267028
 20
7.1950703308
 30
0.0
 10
10.4915330275
 20
7.1950397745
 30
0.0
 10
10.4913646059
 20
7.1949461967
 30
0.0
 10
10.491131235
 20
7.1948434089
 30
0.0
 10
10.4907269401
 20
7.194653288
 30
0.0
 10
10.4901472302
 20
7.1943870416
 30
0.0
 10
10.4894524968
 20
7.1940652538
 30
0.0
 10
10.4885258648
 20
7.193637004
 30
0.0
 10
10.4873676847
 20
7.1931014176
 30
0.0
 10
10.485514535
 20
7.1922446327
 30
0.0
 10
10.4831981192
 20
7.1911735986
 30
0.0
 10
10.4804184104
 20
7.1898883819
 30
0.0
 10
10.4776387071
 20
7.1886031532
 30
0.0
 10
10.4753222775
 20
7.1875321491
 30
0.0
 10
10.4734691555
 20
7.1866753043
 30
0.0
 10
10.472310905
 20
7.1861398701
 30
0.0
 10
10.4713844173
 20
7.1857113079
 30
0.0
 10
10.4706892431
 20
7.1853904744
 30
0.0
 10
10.4701109124
 20
7.1851212423
 30
0.0
 10
10.4697041555
 20
7.1849364513
 30
0.0
 10
10.4694747293
 20
7.1848251238
 30
0.0
 10
10.4692941909
 20
7.1847577772
 30
0.0
 10
10.4691460243
 20
7.1846287005
 30
0.0
 10
10.4689371771
 20
7.1844781304
 30
0.0
 10
10.4685769555
 20
7.1842046005
 30
0.0
 10
10.4680596027
 20
7.1838190885
 30
0.0
 10
10.4674399567
 20
7.183354229
 30
0.0
 10
10.4666133508
 20
7.1827352005
 30
0.0
 10
10.4655802342
 20
7.1819611464
 30
0.0
 10
10.463927169
 20
7.1807228099
 30
0.0
 10
10.4618608647
 20
7.1791748375
 30
0.0
 10
10.4593812867
 20
7.1773172939
 30
0.0
 10
10.4569017167
 20
7.1754597399
 30
0.0
 10
10.4548353922
 20
7.1739117937
 30
0.0
 10
10.4531823674
 20
7.1726734049
 30
0.0
 10
10.4521491481
 20
7.1718994836
 30
0.0
 10
10.4513227532
 20
7.1712801826
 30
0.0
 10
10.4507024624
 20
7.1708161555
 30
0.0
 10
10.4501871268
 20
7.1704280391
 30
0.0
 10
10.4498233043
 20
7.1701591584
 30
0.0
 10
10.4496202267
 20
7.1700011391
 30
0.0
 10
10.4494543377
 20
7.169894944
 30
0.0
 10
10.4493403617
 20
7.169741658
 30
0.0
 10
10.4491702858
 20
7.1695537024
 30
0.0
 10
10.4488810899
 20
7.1692171272
 30
0.0
 10
10.448463542
 20
7.1687403065
 30
0.0
 10
10.4479643726
 20
7.168166409
 30
0.0
 10
10.4472981538
 20
7.1674018106
 30
0.0
 10
10.4464656062
 20
7.1664458578
 30
0.0
 10
10.4451334038
 20
7.1649164478
 30
0.0
 10
10.4434681944
 20
7.1630046457
 30
0.0
 10
10.4414699231
 20
7.1607105012
 30
0.0
 10
10.439471662
 20
7.1584163482
 30
0.0
 10
10.4378064269
 20
7.1565045672
 30
0.0
 10
10.4364742758
 20
7.1549751151
 30
0.0
 10
10.4356415977
 20
7.1540192693
 30
0.0
 10
10.4349756468
 20
7.1532544511
 30
0.0
 10
10.434475659
 20
7.1526812251
 30
0.0
 10
10.4340606715
 20
7.1522023037
 30
0.0
 10
10.4337669049
 20
7.1518694786
 30
0.0
 10
10.4336041525
 20
7.1516755144
 30
0.0
 10
10.4334676814
 20
7.1515406849
 30
0.0
 10
10.4333862802
 20
7.1513651702
 30
0.0
 10
10.4332585363
 20
7.1511453421
 30
0.0
 10
10.4330439343
 20
7.1507540307
 30
0.0
 10
10.4327326809
 20
7.1501984714
 30
0.0
 10
10.4323611796
 20
7.1495303206
 30
0.0
 10
10.4318651451
 20
7.1486399696
 30
0.0
 10
10.4312453414
 20
7.1475268539
 30
0.0
 10
10.4302535216
 20
7.1457459677
 30
0.0
 10
10.4290137932
 20
7.1435198259
 30
0.0
 10
10.4275260978
 20
7.1408484711
 30
0.0
 10
10.4260384135
 20
7.1381771095
 30
0.0
 10
10.4247986571
 20
7.1359509846
 30
0.0
 10
10.4238068931
 20
7.1341700647
 30
0.0
 10
10.4231869477
 20
7.1330570349
 30
0.0
 10
10.4226912042
 20
7.1321665076
 30
0.0
 10
10.4223188137
 20
7.1314988953
 30
0.0
 10
10.4220103425
 20
7.1309416512
 30
0.0
 10
10.4217907738
 20
7.1305533474
 30
0.0
 10
10.4216709878
 20
7.1303287004
 30
0.0
 10
10.4215651426
 20
7.1301679877
 30
0.0
 10
10.4215204791
 20
7.1299775644
 30
0.0
 10
10.421439587
 20
7.1297340302
 30
0.0
 10
10.4213079689
 20
7.1293030167
 30
0.0
 10
10.4211147446
 20
7.1286898076
 30
0.0
 10
10.4208851006
 20
7.1279528761
 30
0.0
 10
10.4205781313
 20
7.1269706782
 30
0.0
 10
10.4201946859
 20
7.1257428016
 30
0.0
 10
10.4195810245
 20
7.1237782712
 30
0.0
 10
10.4188139991
 20
7.1213225834
 30
0.0
 10
10.417893545
 20
7.1183757692
 30
0.0
 10
10.416973103
 20
7.1154289499
 30
0.0
 10
10.4162060473
 20
7.1129732749
 30
0.0
 10
10.4155924464
 20
7.111008719
 30
0.0
 10
10.4152088471
 20
7.1097809075
 30
0.0
 10
10.4149021937
 20
7.1087985759
 30
0.0
 10
10.4146715848
 20
7.1080620528
 30
0.0
 10
10.4144813793
 20
7.107447566
 30
0.0
 10
10.4143443723
 20
7.1070188334
 30
0.0
 10
10.4142721145
 20
7.1067716446
 30
0.0
 10
10.414200929
 20
7.106592447
 30
0.0
 10
10.4141946962
 20
7.1063895726
 30
0.0
 10
10.4141637295
 20
7.1061273322
 30
0.0
 10
10.4141200938
 20
7.1056645636
 30
0.0
 10
10.4140522383
 20
7.1050054773
 30
0.0
 10
10.4139731739
 20
7.1042137127
 30
0.0
 10
10.4138669296
 20
7.1031583273
 30
0.0
 10
10.4137344068
 20
7.1018389925
 30
0.0
 10
10.4135222124
 20
7.0997281145
 30
0.0
 10
10.4132570235
 20
7.0970894972
 30
0.0
 10
10.4129387737
 20
7.0939231649
 30
0.0
 10
10.4126205301
 20
7.0907568304
 30
0.0
 10
10.4121962031
 20
7.0865350518
 30
0.0
 10
10.4118779583
 20
7.0833687176
 30
0.0
 10
10.411665795
 20
7.0812578282
 30
0.0
  0
ELLIPSE
  5
3AE
100
AcDbEntity
  8
0
100
AcDbEllipse
 62
7
  6
CONTINUOUS
 10
11.0145967481
 20
8.653506591
 30
0.0
 11
0.1588702137
 21
-0.0252340861
 31
0.0
 40
0.7464868657
 41
0.0
 42
6.2831853072
  0
ENDSEC
  0
SECTION
  2
OBJECTS
  0
DICTIONARY
  5
C
100
AcDbDictionary
280
0
281
1
  3
ACAD_GROUP
350
D
  3
ACAD_MLINESTYLE
350
17
  3
ACAD_LAYOUT
350
1A
  3
ACAD_PLOTSETTINGS
350
19
  3
ACAD_PLOTSTYLENAME
350
E
  3
ACAD_IMAGE_DICT
350
       3B0
  3
ACAD_IMAGE_VARS
350
       3B1
  3
ACAD_TABLESTYLE
350
       3B2
  0
IMAGEDEF_REACTOR
  5
3AF
100
AcDbRasterImageDefReactor
 90
2
330
281
  0
DICTIONARY
  5
D
102
{ACAD_REACTORS
330
C
102
}
100
AcDbDictionary
280
0
281
1
  0
ACDBDICTIONARYWDFLT
  5
E
102
{ACAD_REACTORS
330
C
102
}
100
AcDbDictionary
281
1
  3
Normal
350
F
100
AcDbDictionaryWithDefault
340
F
  0
DICTIONARY
  5
3B0
330
C
100
AcDbDictionary
281
1
  3
WJV_assy_2_img_1
350
       3B5
  0
RASTERVARIABLES
  5
3B1
330
C
100
AcDbRasterVariables
 90
0
 70
0
 71
1
 72
5
  0
DICTIONARY
  5
17
102
{ACAD_REACTORS
330
C
102
}
100
AcDbDictionary
280
0
281
1
  3
Standard
350
18
  0
DICTIONARY
  5
3B2
330
C
100
AcDbDictionary
281
1
  3
Standard
350
       3B6
  3
Standard1
350
       3B7
  0
DICTIONARY
  5
19
102
{ACAD_REACTORS
330
C
102
}
100
AcDbDictionary
281
1
  0
DICTIONARY
  5
1A
102
{ACAD_REACTORS
330
C
102
}
100
AcDbDictionary
281
1
  3
Model
350
3B3
  3
Layout1
350
3B4
  0
ACDBPLACEHOLDER
  5
F
102
{ACAD_REACTORS
330
E
102
}
  0
MLINESTYLE
  5
18
102
{ACAD_REACTORS
330
17
102
}
100
AcDbMlineStyle
  2
STANDARD
 70
0
  3

 62
256
 51
90.0
 52
90.0
 71
2
 49
0.5
 62
256
  6
BYLAYER
 49
-0.5
 62
256
  6
BYLAYER
  0
LAYOUT
  5
3B3
102
{ACAD_REACTORS
330
1A
102
}
100
AcDbPlotSettings
  1

  2
none_device
  4
ANSI_C_(22.00_x_17.00_Inches)
  6

 40
0.0
 41
0.0
 42
0.0
 43
0.0
 44
558.8
 45
431.8
 46
0.0
 47
0.0
 48
0.0
 49
0.0
140
0.0
141
0.0
142
1.0
143
1.0
 70
1024
 72
0
 73
0
 74
0
  7

 75
0
147
1.0
148
0.0
149
0.0
100
AcDbLayout
  1
Model
 70
0
 71
0
 10
0.0
 20
0.0
 11
22.0
 21
17.0
 12
0.0
 22
0.0
 32
0.0
 14
0.0
 24
0.0
 34
0.0
 15
0.0
 25
0.0
 35
0.0
146
0.0
 13
0.0
 23
0.0
 33
0.0
 16
1.0
 26
0.0
 36
0.0
 17
0.0
 27
1.0
 37
0.0
 76
0
330
20C
345
0
346
0
  0
LAYOUT
  5
3B4
102
{ACAD_REACTORS
330
1A
102
}
100
AcDbPlotSettings
  1

  2
none_device
  4
ANSI_C_(22.00_x_17.00_Inches)
  6

 40
0.0
 41
0.0
 42
0.0
 43
0.0
 44
558.8
 45
431.8
 46
0.0
 47
0.0
 48
0.0
 49
0.0
140
0.0
141
0.0
142
1.0
143
1.0
 70
0
 72
0
 73
0
 74
0
  7

 75
0
147
1.0
148
0.0
149
0.0
100
AcDbLayout
  1
Layout1
 70
0
 71
1
 10
0.0
 20
0.0
 11
22.0
 21
17.0
 12
0.0
 22
0.0
 32
0.0
 14
0.0
 24
0.0
 34
0.0
 15
0.0
 25
0.0
 35
0.0
146
0.0
 13
0.0
 23
0.0
 33
0.0
 16
1.0
 26
0.0
 36
0.0
 17
0.0
 27
1.0
 37
0.0
 76
0
330
20D
345
0
346
0
  0
IMAGEDEF
  5
3B5
102
{ACAD_REACTORS
330
3B0
330
3AF
102
}
100
AcDbRasterImageDef
 90
0
  1
WJV_assy_2_img_1.png
 10
369.0
 20
92.0
 11
0.0066666667
 21
0.0066666667
280
1
281
0
  0
TABLESTYLE
  5
3B6
102
{ACAD_REACTORS
330
3B2
330
284
330
285
102
}
330
3B2
100
AcDbTableStyle
  3
Standard
 70
0
 71
0
 40
0.06
 41
0.06
280
1
281
1
  7
Standard
140
0.18
170
1
 62
0
 63
7
283
0
  7
Standard
140
0.18
170
1
 62
0
 63
7
283
0
  7
Standard
140
0.18
170
1
 62
0
 63
7
283
0
  0
TABLESTYLE
  5
3B7
102
{ACAD_REACTORS
330
3B2
330
283
102
}
330
3B2
100
AcDbTableStyle
  3
Standard1
 70
1
 71
0
 40
0.06
 41
0.06
280
1
281
1
  7
Standard
140
0.18
170
1
 62
0
 63
7
283
0
  7
Standard
140
0.18
170
1
 62
0
 63
7
283
0
  7
Standard
140
0.18
170
1
 62
0
 63
7
283
0
  0
ENDSEC
  0
EOF
