999
DXF file: WJT_assy_2.dxf
999
Pro/ENGINEER 2014200 by Parametric Technology Corporation
  0
SECTION
  2
HEADER
  9
$ACADVER
  1
AC1021
  9
$DWGCODEPAGE
  3
ANSI_1252
  9
$EXTMAX
 10
22.0
 20
17.0
 30
0.0
  9
$EXTMIN
 10
0.0
 20
0.0
 30
0.0
  9
$LIMMIN
 10
0.0
 20
0.0
  9
$LIMMAX
 10
22.0
 20
17.0
  9
$VIEWCTR
 10
11.0
 20
8.5
  9
$VIEWSIZE
 40
17.0
  9
$CLAYER
  8
0
  9
$LTSCALE
 40
1.21
  9
$CELTYPE
  6
BYLAYER
  9
$DIMSCALE
 40
1.0
  9
$DIMASZ
 40
0.1875
  9
$DIMEXO
 40
0.0625
  9
$DIMDLI
 40
0.836
  9
$DIMEXE
 40
0.125
  9
$DIMCEN
 40
0.198
  9
$DIMLFAC
 40
1.0
  9
$DIMBLK
  1
_FILLED
  9
$DIMTXT
 40
0.1
  9
$DIMTOL
 70
0
  9
$DIMLIM
 70
0
  9
$DIMTFAC
 40
1.0
  9
$DIMGAP
 40
0.09
  9
$DIMDSEP
 70
46
  9
$AUNITS
 70
0
  9
$PDMODE
 70
3
  9
$PDSIZE
 40
0.3125
  9
$HANDSEED
  5
3B4
  9
$TILEMODE
 70
1
  9
$MEASUREMENT
 70
0
  9
$INSUNITS
 70
1
  0
ENDSEC
  0
SECTION
  2
CLASSES
  0
CLASS
  1
ACDBDICTIONARYWDFLT
  2
AcDbDictionaryWithDefault
  3
AutoCAD 2000
 90
0
 91
1
280
0
281
0
  0
CLASS
  1
ACDBPLACEHOLDER
  2
AcDbPlaceHolder
  3
AutoCAD 2000
 90
0
 91
1
280
0
281
0
  0
CLASS
  1
LAYOUT
  2
AcDbLayout
  3
AutoCAD 2000
 90
0
 91
0
280
0
281
0
  0
CLASS
  1
RASTERVARIABLES
  2
AcDbRasterVariables
  3
ISM
 90
0
 91
1
280
0
281
0
  0
CLASS
  1
IMAGEDEF
  2
AcDbRasterImageDef
  3
ISM
 90
0
 91
1
280
0
281
0
  0
CLASS
  1
IMAGEDEF_REACTOR
  2
AcDbRasterImageDefReactor
  3
ISM
 90
0
 91
1
280
0
281
0
  0
CLASS
  1
IMAGE
  2
AcDbRasterImage
  3
ISM
 90
127
 91
1
280
0
281
1
  0
CLASS
  1
TABLESTYLE
  2
AcDbTableStyle
  3
ObjectDBX Classes
 90
2047
 91
1
280
0
281
0
  0
CLASS
  1
ACAD_TABLE
  2
AcDbTable
  3
ObjectDBX Classes
 90
1025
 91
3
280
0
281
1
  0
ENDSEC
  0
SECTION
  2
TABLES
  0
TABLE
  2
VPORT
  5
8
100
AcDbSymbolTable
 70
2
  0
VPORT
  5
1F4
100
AcDbSymbolTableRecord
100
AcDbViewportTableRecord
  2
*ACTIVE
 70
0
 10
0.0
 20
0.0
 11
1.0
 21
1.0
 12
11.0
 22
8.5
 13
0.0
 23
0.0
 14
1.0
 24
1.0
 15
0.0
 25
0.0
 16
0.0
 26
0.0
 36
1.0
 17
0.0
 27
0.0
 37
0.0
 40
17.0
 41
1.2941176471
 42
50.0
 43
0.0
 44
0.0
 50
0.0
 51
0.0
 71
0
 72
100
 73
1
 74
1
 75
0
 76
0
 77
0
 78
0
  0
ENDTAB
  0
TABLE
  2
LTYPE
  5
5
100
AcDbSymbolTable
 70
6
  0
LTYPE
  5
14
100
AcDbSymbolTableRecord
100
AcDbLinetypeTableRecord
  2
BYBLOCK
 70
0
  3

 72
65
 73
0
 40
0.0
  0
LTYPE
  5
15
100
AcDbSymbolTableRecord
100
AcDbLinetypeTableRecord
  2
BYLAYER
 70
0
  3

 72
65
 73
0
 40
0.0
  0
LTYPE
  5
16
100
AcDbSymbolTableRecord
100
AcDbLinetypeTableRecord
  2
CONTINUOUS
 70
64
  3
Solid line
 72
65
 73
0
 40
0.0
  0
LTYPE
  5
1F5
100
AcDbSymbolTableRecord
100
AcDbLinetypeTableRecord
  2
CENTER
 70
64
  3
____ _ ____ _ ____ _ ____ _ ____ _ ____ _ ____
 72
65
 73
4
 40
0.6
 49
0.375
 74
0
 49
-0.075
 74
0
 49
0.075
 74
0
 49
-0.075
 74
0
  0
LTYPE
  5
1F6
100
AcDbSymbolTableRecord
100
AcDbLinetypeTableRecord
  2
HIDDEN
 70
64
  3
- - - - - - - - - - - - - - - - - - - -
 72
65
 73
2
 40
0.2
 49
0.1
 74
0
 49
-0.1
 74
0
  0
LTYPE
  5
1F7
100
AcDbSymbolTableRecord
100
AcDbLinetypeTableRecord
  2
PHANTOM
 70
64
  3
_____ _ _ _____ _ _ _____ _ _ _____
 72
65
 73
6
 40
0.8
 49
0.45
 74
0
 49
-0.05
 74
0
 49
0.1
 74
0
 49
-0.05
 74
0
 49
0.1
 74
0
 49
-0.05
 74
0
  0
LTYPE
  5
1F8
100
AcDbSymbolTableRecord
100
AcDbLinetypeTableRecord
  2
DOT
 70
64
  3
. . . . . . . . . . . . . . . . . . . .
 72
65
 73
2
 40
0.2
 49
0.1
 74
0
 49
-0.1
 74
0
  0
LTYPE
  5
1F9
100
AcDbSymbolTableRecord
100
AcDbLinetypeTableRecord
  2
DASHED
 70
64
  3
- - - - - - - - - - - - - - - - - - - -
 72
65
 73
2
 40
0.2
 49
0.1
 74
0
 49
-0.1
 74
0
  0
ENDTAB
  0
TABLE
  2
LAYER
  5
2
100
AcDbSymbolTable
 70
36
  0
LAYER
  5
10
100
AcDbSymbolTableRecord
100
AcDbLayerTableRecord
  2
0
 70
0
 62
7
  6
CONTINUOUS
370
-3
390
F
  0
LAYER
  5
1FA
100
AcDbSymbolTableRecord
100
AcDbLayerTableRecord
  2
DEFAULT_1
 70
0
 62
7
  6
CENTER
370
-3
390
F
  0
LAYER
  5
1FB
100
AcDbSymbolTableRecord
100
AcDbLayerTableRecord
  2
DEFAULT_2
 70
0
 62
8
  6
HIDDEN
370
-3
390
F
  0
LAYER
  5
1FC
100
AcDbSymbolTableRecord
100
AcDbLayerTableRecord
  2
DEFAULT_3
 70
0
 62
7
  6
PHANTOM
370
-3
390
F
  0
LAYER
  5
1FD
100
AcDbSymbolTableRecord
100
AcDbLayerTableRecord
  2
01___PRT_ALL_DTM_PLN
 70
0
 62
7
  6
CONTINUOUS
370
-3
390
F
  0
LAYER
  5
1FE
100
AcDbSymbolTableRecord
100
AcDbLayerTableRecord
  2
01___PRT_DEF_DTM_PLN
 70
0
 62
7
  6
CONTINUOUS
370
-3
390
F
  0
LAYER
  5
1FF
100
AcDbSymbolTableRecord
100
AcDbLayerTableRecord
  2
02___PRT_ALL_AXES
 70
0
 62
7
  6
CONTINUOUS
370
-3
390
F
  0
LAYER
  5
200
100
AcDbSymbolTableRecord
100
AcDbLayerTableRecord
  2
03___PRT_ALL_CURVES
 70
0
 62
7
  6
CONTINUOUS
370
-3
390
F
  0
LAYER
  5
201
100
AcDbSymbolTableRecord
100
AcDbLayerTableRecord
  2
04___PRT_ALL_DTM_PNT
 70
0
 62
7
  6
CONTINUOUS
370
-3
390
F
  0
LAYER
  5
202
100
AcDbSymbolTableRecord
100
AcDbLayerTableRecord
  2
05___PRT_ALL_DTM_CSYS
 70
0
 62
7
  6
CONTINUOUS
370
-3
390
F
  0
LAYER
  5
203
100
AcDbSymbolTableRecord
100
AcDbLayerTableRecord
  2
05___PRT_DEF_DTM_CSYS
 70
0
 62
7
  6
CONTINUOUS
370
-3
390
F
  0
LAYER
  5
204
100
AcDbSymbolTableRecord
100
AcDbLayerTableRecord
  2
06___PRT_ALL_SURFS
 70
0
 62
7
  6
CONTINUOUS
370
-3
390
F
  0
LAYER
  5
205
100
AcDbSymbolTableRecord
100
AcDbLayerTableRecord
  2
DATUM_PLANES
 70
0
 62
7
  6
CONTINUOUS
370
-3
390
F
  0
LAYER
  5
206
100
AcDbSymbolTableRecord
100
AcDbLayerTableRecord
  2
PORT_AREAS
 70
0
 62
7
  6
CONTINUOUS
370
-3
390
F
  0
LAYER
  5
207
100
AcDbSymbolTableRecord
100
AcDbLayerTableRecord
  2
SUNNBOMCOSMETIC
 70
0
 62
7
  6
CONTINUOUS
370
-3
390
F
  0
LAYER
  5
208
100
AcDbSymbolTableRecord
100
AcDbLayerTableRecord
  2
SUNNBOMSTAMPING
 70
0
 62
7
  6
CONTINUOUS
370
-3
390
F
  0
LAYER
  5
209
100
AcDbSymbolTableRecord
100
AcDbLayerTableRecord
  2
THREADS
 70
0
 62
7
  6
CONTINUOUS
370
-3
390
F
  0
ENDTAB
  0
TABLE
  2
STYLE
  5
3
100
AcDbSymbolTable
 70
1
  0
STYLE
  5
11
100
AcDbSymbolTableRecord
100
AcDbTextStyleTableRecord
  2
STANDARD
 70
0
 40
0.0
 41
0.8
 50
0.0
 71
0
 42
0.2
  3
txt
  4

  0
STYLE
  5
20A
100
AcDbSymbolTableRecord
100
AcDbTextStyleTableRecord
  2
TEXTSTYLE_1
 70
0
 40
0.0
 41
0.8
 50
0.0
 71
0
 42
0.2
  3
gdt
  4

  0
ENDTAB
  0
TABLE
  2
VIEW
  5
6
100
AcDbSymbolTable
 70
0
  0
ENDTAB
  0
TABLE
  2
UCS
  5
7
100
AcDbSymbolTable
 70
0
  0
ENDTAB
  0
TABLE
  2
APPID
  5
9
100
AcDbSymbolTable
 70
1
  0
APPID
  5
20B
100
AcDbSymbolTableRecord
100
AcDbRegAppTableRecord
  2
ACAD
 70
0
  0
ENDTAB
  0
TABLE
  2
BLOCK_RECORD
  5
1
100
AcDbSymbolTable
 70
0
  0
BLOCK_RECORD
  5
20C
100
AcDbSymbolTableRecord
100
AcDbBlockTableRecord
  2
*Model_Space
  0
BLOCK_RECORD
  5
20D
100
AcDbSymbolTableRecord
100
AcDbBlockTableRecord
  2
*Paper_Space
  0
BLOCK_RECORD
  5
20E
100
AcDbSymbolTableRecord
100
AcDbBlockTableRecord
  2
SUN_FIRST_THIRD_ANGLE_BL0
  0
BLOCK_RECORD
  5
20F
100
AcDbSymbolTableRecord
100
AcDbBlockTableRecord
  2
*T1
  0
BLOCK_RECORD
  5
210
100
AcDbSymbolTableRecord
100
AcDbBlockTableRecord
  2
*T2
  0
BLOCK_RECORD
  5
211
100
AcDbSymbolTableRecord
100
AcDbBlockTableRecord
  2
*T3
  0
ENDTAB
  0
TABLE
  2
DIMSTYLE
  5
A
100
AcDbSymbolTable
 70
1
100
AcDbDimStyleTable
 71
0
  0
DIMSTYLE
105
212
100
AcDbSymbolTableRecord
100
AcDbDimStyleTableRecord
  2
STANDARD
 70
0
  3

  4

 40
1.0
 41
0.1875
 42
0.0625
 43
0.38
 44
0.125
 45
0.0
 46
0.0
 47
0.001
 48
0.001
140
0.1
141
0.09
142
0.0
143
25.4
144
1.0
145
0.0
146
1.0
147
0.09
 71
0.0
 72
0.0
 73
1
 74
1
 75
0
 76
0
 77
0
 78
4
170
0
171
2
172
0
173
0
174
0
175
0
176
0
177
0
178
0
270
2
271
3
272
3
273
2
274
2
275
0
280
0
281
0
282
0
283
1
284
4
285
0
286
0
287
3
288
0
340
11
278
46
  0
ENDTAB
  0
ENDSEC
  0
SECTION
  2
BLOCKS
  0
BLOCK
  5
20
100
AcDbEntity
  8
0
100
AcDbBlockBegin
  2
*Model_Space
 70
0
 10
0.0
 20
0.0
 30
0.0
  3
*Model_Space
  1

  0
ENDBLK
  5
21
100
AcDbEntity
  8
0
100
AcDbBlockEnd
  0
BLOCK
  5
1C
100
AcDbEntity
  8
0
100
AcDbBlockBegin
  2
*Paper_Space
 70
0
 10
0.0
 20
0.0
 30
0.0
  3
*Paper_Space
  1

  0
ENDBLK
  5
1D
100
AcDbEntity
  8
0
100
AcDbBlockEnd
  0
BLOCK
  5
213
100
AcDbEntity
  8
0
100
AcDbBlockBegin
 62
2
  6
CONTINUOUS
  2
SUN_FIRST_THIRD_ANGLE_BL0
 70
64
 10
20.4816717061
 20
1.2289683772
  3
SUN_FIRST_THIRD_ANGLE_BL0
  1

  0
TEXT
  5
214
100
AcDbEntity
  8
0
100
AcDbText
 62
2
  6
CONTINUOUS
 10
19.4750896608
 20
1.4136269581
  7
STANDARD
 40
0.08
  1
FIRST ANGLE
 41
0.8
 72
0
100
AcDbText
  0
TEXT
  5
215
100
AcDbEntity
  8
0
100
AcDbText
 62
2
  6
CONTINUOUS
 10
20.7842537513
 20
1.4047600029
  7
STANDARD
 40
0.08
  1
THIRD ANGLE
 41
0.8
 72
0
100
AcDbText
  0
LINE
  5
216
100
AcDbEntity
  8
0
100
AcDbLine
 62
7
  6
CONTINUOUS
 10
19.4767170086
 20
1.1727031207
 11
19.6334271527
 21
1.1717972817
  0
LINE
  5
217
100
AcDbEntity
  8
0
100
AcDbLine
 62
7
  6
CONTINUOUS
 10
19.6596964832
 20
1.1717972817
 11
19.6950230232
 21
1.171593082
  0
LINE
  5
218
100
AcDbEntity
  8
0
100
AcDbLine
 62
7
  6
CONTINUOUS
 10
19.7194818561
 20
1.1708914427
 11
19.8852396156
 21
1.1699333054
  0
LINE
  5
219
100
AcDbEntity
  8
0
100
AcDbLine
 62
7
  6
CONTINUOUS
 10
19.4758111696
 20
1.2723454088
 11
19.88525039
 21
1.3511534004
  0
LINE
  5
21A
100
AcDbEntity
  8
0
100
AcDbLine
 62
7
  6
CONTINUOUS
 10
19.88525039
 20
1.3511534004
 11
19.8831348489
 21
0.9851647912
  0
LINE
  5
21B
100
AcDbEntity
  8
0
100
AcDbLine
 62
7
  6
CONTINUOUS
 10
19.8831348489
 20
0.9851647912
 11
19.4767170086
 21
1.0658141206
  0
LINE
  5
21C
100
AcDbEntity
  8
0
100
AcDbLine
 62
7
  6
CONTINUOUS
 10
19.4767170086
 20
1.0658141206
 11
19.4779056764
 21
1.2714536432
  0
CIRCLE
  5
21D
100
AcDbEntity
  8
0
100
AcDbCircle
 62
7
  6
CONTINUOUS
 10
20.2068232291
 20
1.1717972817
 40
0.175742101
  0
CIRCLE
  5
21E
100
AcDbEntity
  8
0
100
AcDbCircle
 62
7
  6
CONTINUOUS
 10
20.2068232291
 20
1.1717972817
 40
0.1005522074
  0
LINE
  5
21F
100
AcDbEntity
  8
0
100
AcDbLine
 62
7
  6
CONTINUOUS
 10
20.2077290681
 20
1.3756110529
 11
20.2071171714
 21
1.2379342989
  0
LINE
  5
220
100
AcDbEntity
  8
0
100
AcDbLine
 62
7
  6
CONTINUOUS
 10
20.2077290681
 20
1.2016899681
 11
20.2074674401
 21
1.1428236749
  0
LINE
  5
221
100
AcDbEntity
  8
0
100
AcDbLine
 62
7
  6
CONTINUOUS
 10
20.208634907
 20
1.101141841
 11
20.2080230104
 21
0.963465087
  0
LINE
  5
222
100
AcDbEntity
  8
0
100
AcDbLine
 62
7
  6
CONTINUOUS
 10
20.0066328138
 20
1.1745147986
 11
20.1443095678
 21
1.1739029019
  0
LINE
  5
223
100
AcDbEntity
  8
0
100
AcDbLine
 62
7
  6
CONTINUOUS
 10
20.1832714155
 20
1.1727031207
 11
20.238153505
 21
1.172335442
  0
LINE
  5
224
100
AcDbEntity
  8
0
100
AcDbLine
 62
7
  6
CONTINUOUS
 10
20.2756669918
 20
1.1717972817
 11
20.407916871
 21
1.1712095044
  0
CIRCLE
  5
225
100
AcDbEntity
  8
0
100
AcDbCircle
 62
7
  6
CONTINUOUS
 10
20.7509457401
 20
1.1693297793
 40
0.1722024983
  0
CIRCLE
  5
226
100
AcDbEntity
  8
0
100
AcDbCircle
 62
7
  6
CONTINUOUS
 10
20.7509457401
 20
1.1693297793
 40
0.0985164967
  0
LINE
  5
227
100
AcDbEntity
  8
0
100
AcDbLine
 62
7
  6
CONTINUOUS
 10
20.7169767782
 20
1.170462078
 11
20.7825395137
 21
1.1682766535
  0
LINE
  5
228
100
AcDbEntity
  8
0
100
AcDbLine
 62
7
  6
CONTINUOUS
 10
20.8177513651
 20
1.1693297793
 11
20.947965719
 21
1.1693297793
  0
LINE
  5
229
100
AcDbEntity
  8
0
100
AcDbLine
 62
7
  6
CONTINUOUS
 10
20.6875370113
 20
1.170462078
 11
20.5573226574
 21
1.170462078
  0
LINE
  5
22A
100
AcDbEntity
  8
0
100
AcDbLine
 62
7
  6
CONTINUOUS
 10
20.7486811426
 20
1.1987695462
 11
20.7486811426
 21
1.1432869085
  0
LINE
  5
22B
100
AcDbEntity
  8
0
100
AcDbLine
 62
7
  6
CONTINUOUS
 10
20.7498134414
 20
1.1059210505
 11
20.7498134414
 21
0.9757066966
  0
LINE
  5
22C
100
AcDbEntity
  8
0
100
AcDbLine
 62
7
  6
CONTINUOUS
 10
20.7486811426
 20
1.2338708068
 11
20.7486811426
 21
1.3640851607
  0
LINE
  5
22D
100
AcDbEntity
  8
0
100
AcDbLine
 62
7
  6
CONTINUOUS
 10
21.0702539817
 20
1.2701043662
 11
21.4790138229
 21
1.3448360823
  0
LINE
  5
22E
100
AcDbEntity
  8
0
100
AcDbLine
 62
7
  6
CONTINUOUS
 10
21.4790138229
 20
1.3448360823
 11
21.4790138229
 21
0.9779712941
  0
LINE
  5
22F
100
AcDbEntity
  8
0
100
AcDbLine
 62
7
  6
CONTINUOUS
 10
21.4790138229
 20
0.9779712941
 11
21.069121683
 21
1.0617614
  0
LINE
  5
230
100
AcDbEntity
  8
0
100
AcDbLine
 62
7
  6
CONTINUOUS
 10
21.0702539817
 20
1.2701043662
 11
21.069121683
 21
1.0617614
  0
LINE
  5
231
100
AcDbEntity
  8
0
100
AcDbLine
 62
7
  6
CONTINUOUS
 10
21.4790138229
 20
1.1693297793
 11
21.3159628059
 21
1.1693297793
  0
LINE
  5
232
100
AcDbEntity
  8
0
100
AcDbLine
 62
7
  6
CONTINUOUS
 10
21.2876553377
 20
1.1693297793
 11
21.2502894796
 21
1.1693297793
  0
LINE
  5
233
100
AcDbEntity
  8
0
100
AcDbLine
 62
7
  6
CONTINUOUS
 10
21.2208497126
 20
1.1659328831
 11
21.0713862804
 21
1.1659328831
  0
LINE
  5
234
100
AcDbEntity
  8
0
100
AcDbLine
 62
7
  6
CONTINUOUS
 10
20.4796138713
 20
1.5284908897
 11
20.4766766948
 21
0.9294458646
  0
ENDBLK
  5
235
100
AcDbEntity
  8
0
  6
BYBLOCK
 62
0
100
AcDbBlockEnd
  0
BLOCK
  5
236
100
AcDbEntity
  8
0
100
AcDbBlockBegin
  2
*T1
 70
1
 10
0.0
 20
0.0
  3
*T1
  1

  0
LINE
  5
237
100
AcDbEntity
  8
0
100
AcDbLine
 62
2
  6
CONTINUOUS
 10
9.275
 20
0.0
 11
-0.0
 21
0.0
  0
LINE
  5
238
100
AcDbEntity
  8
0
100
AcDbLine
 62
2
  6
CONTINUOUS
 10
9.275
 20
0.0
 11
9.275
 21
1.25
  0
LINE
  5
239
100
AcDbEntity
  8
0
100
AcDbLine
 62
2
  6
CONTINUOUS
 10
9.275
 20
0.625
 11
-0.0
 21
0.625
  0
LINE
  5
23A
100
AcDbEntity
  8
0
100
AcDbLine
 62
2
  6
CONTINUOUS
 10
9.275
 20
1.25
 11
-0.0
 21
1.25
  0
LINE
  5
23B
100
AcDbEntity
  8
0
100
AcDbLine
 62
2
  6
CONTINUOUS
 10
6.8
 20
0.0
 11
6.8
 21
1.25
  0
LINE
  5
23C
100
AcDbEntity
  8
0
100
AcDbLine
 62
2
  6
CONTINUOUS
 10
6.4
 20
0.0
 11
6.4
 21
0.625
  0
LINE
  5
23D
100
AcDbEntity
  8
0
100
AcDbLine
 62
2
  6
CONTINUOUS
 10
5.9
 20
0.0
 11
5.9
 21
0.625
  0
LINE
  5
23E
100
AcDbEntity
  8
0
100
AcDbLine
 62
2
  6
CONTINUOUS
 10
5.2
 20
0.0
 11
5.2
 21
0.625
  0
LINE
  5
23F
100
AcDbEntity
  8
0
100
AcDbLine
 62
2
  6
CONTINUOUS
 10
4.1
 20
0.0
 11
4.1
 21
1.25
  0
LINE
  5
240
100
AcDbEntity
  8
0
100
AcDbLine
 62
2
  6
CONTINUOUS
 10
-0.0
 20
0.0
 11
-0.0
 21
1.25
  0
MTEXT
  5
241
100
AcDbEntity
  8
0
100
AcDbMText
 62
2
  6
CONTINUOUS
  7
STANDARD
 71
2
 72
1
 10
6.6
 20
0.325
 30
0.0
 11
1.0
 21
0.0
 31
0.0
 44
0.9
  1
2
 40
0.125
 41
0.2
  0
MTEXT
  5
242
100
AcDbEntity
  8
0
100
AcDbMText
 62
2
  6
CONTINUOUS
  7
STANDARD
 71
2
 72
1
 10
6.15
 20
0.325
 30
0.0
 11
1.0
 21
0.0
 31
0.0
 44
0.9
  1
C
 40
0.125
 41
0.2
  0
MTEXT
  5
243
100
AcDbEntity
  8
0
100
AcDbMText
 62
2
  6
CONTINUOUS
  7
STANDARD
 71
2
 72
1
 10
5.55
 20
0.325
 30
0.0
 11
1.0
 21
0.0
 31
0.0
 44
0.9
  1
1.000
 40
0.125
 41
1.0
  0
MTEXT
  5
244
100
AcDbEntity
  8
0
100
AcDbMText
 62
2
  6
CONTINUOUS
  7
STANDARD
 71
2
 72
1
 10
4.65
 20
0.325
 30
0.0
 11
1.0
 21
0.0
 31
0.0
 44
0.9
  1
Feb-03-21
 40
0.125
 41
1.8
  0
MTEXT
  5
245
100
AcDbEntity
  8
0
100
AcDbMText
 62
2
  6
CONTINUOUS
  7
STANDARD
 71
2
 72
1
 10
2.05
 20
0.4625
 30
0.0
 11
1.0
 21
0.0
 31
0.0
 44
0.9
  1
T-10A Subplate ISO 03\PP to T, check on P, side ports
 40
0.125
 41
6.0
  0
MTEXT
  5
246
100
AcDbEntity
  8
0
100
AcDbMText
 62
2
  6
CONTINUOUS
  7
STANDARD
 71
1
 72
1
 10
6.45
 20
0.5625
 30
0.0
 11
1.0
 21
0.0
 31
0.0
 44
0.9
  1
SHEET
 40
0.06
 41
0.48
  0
MTEXT
  5
247
100
AcDbEntity
  8
0
100
AcDbMText
 62
2
  6
CONTINUOUS
  7
STANDARD
 71
1
 72
1
 10
5.95
 20
0.5625
 30
0.0
 11
1.0
 21
0.0
 31
0.0
 44
0.9
  1
DWG SIZE
 40
0.06
 41
0.768
  0
MTEXT
  5
248
100
AcDbEntity
  8
0
100
AcDbMText
 62
2
  6
CONTINUOUS
  7
STANDARD
 71
1
 72
1
 10
5.25
 20
0.5625
 30
0.0
 11
1.0
 21
0.0
 31
0.0
 44
0.9
  1
SCALE
 40
0.06
 41
0.48
  0
MTEXT
  5
249
100
AcDbEntity
  8
0
100
AcDbMText
 62
2
  6
CONTINUOUS
  7
STANDARD
 71
1
 72
1
 10
4.15
 20
0.5625
 30
0.0
 11
1.0
 21
0.0
 31
0.0
 44
0.9
  1
DATE
 40
0.06
 41
0.384
  0
MTEXT
  5
24A
100
AcDbEntity
  8
0
100
AcDbMText
 62
2
  6
CONTINUOUS
  7
STANDARD
 71
1
 72
1
 10
0.05
 20
0.5625
 30
0.0
 11
1.0
 21
0.0
 31
0.0
 44
0.9
  1
DESCRIPTION
 40
0.06
 41
1.056
  0
MTEXT
  5
24B
100
AcDbEntity
  8
0
100
AcDbMText
 62
2
  6
CONTINUOUS
  7
STANDARD
 71
2
 72
1
 10
5.45
 20
1.0375
 30
0.0
 11
1.0
 21
0.0
 31
0.0
 44
0.9
  1
ALL DIMENSIONS IN INCH\PVIEWS ARE THIRD ANGLE
 40
0.12
 41
4.224
  0
MTEXT
  5
24C
100
AcDbEntity
  8
0
100
AcDbMText
 62
2
  6
CONTINUOUS
  7
STANDARD
 71
2
 72
1
 10
2.05
 20
0.95
 30
0.0
 11
1.0
 21
0.0
 31
0.0
 44
0.9
  1
WJT
 40
0.125
 41
0.6
  0
MTEXT
  5
24D
100
AcDbEntity
  8
0
100
AcDbMText
 62
2
  6
CONTINUOUS
  7
STANDARD
 71
1
 72
1
 10
0.05
 20
1.1875
 30
0.0
 11
1.0
 21
0.0
 31
0.0
 44
0.9
  1
MODEL
 40
0.06
 41
0.48
  0
ENDBLK
  5
24E
100
AcDbEntity
  8
0
  6
BYBLOCK
 62
0
100
AcDbBlockEnd
  0
BLOCK
  5
24F
100
AcDbEntity
  8
0
100
AcDbBlockBegin
  2
*T2
 70
1
 10
0.0
 20
0.0
  3
*T2
  1

  0
LINE
  5
250
100
AcDbEntity
  8
0
100
AcDbLine
 62
2
  6
CONTINUOUS
 10
0.0
 20
0.0
 11
9.055
 21
0.0
  0
LINE
  5
251
100
AcDbEntity
  8
0
100
AcDbLine
 62
2
  6
CONTINUOUS
 10
0.0
 20
0.0
 11
0.0
 21
-2.094
  0
LINE
  5
252
100
AcDbEntity
  8
0
100
AcDbLine
 62
2
  6
CONTINUOUS
 10
0.0
 20
-0.344
 11
9.055
 21
-0.344
  0
LINE
  5
253
100
AcDbEntity
  8
0
100
AcDbLine
 62
2
  6
CONTINUOUS
 10
0.0
 20
-0.594
 11
9.055
 21
-0.594
  0
LINE
  5
254
100
AcDbEntity
  8
0
100
AcDbLine
 62
2
  6
CONTINUOUS
 10
0.0
 20
-0.844
 11
9.055
 21
-0.844
  0
LINE
  5
255
100
AcDbEntity
  8
0
100
AcDbLine
 62
2
  6
CONTINUOUS
 10
0.0
 20
-1.094
 11
9.055
 21
-1.094
  0
LINE
  5
256
100
AcDbEntity
  8
0
100
AcDbLine
 62
2
  6
CONTINUOUS
 10
0.0
 20
-1.344
 11
9.055
 21
-1.344
  0
LINE
  5
257
100
AcDbEntity
  8
0
100
AcDbLine
 62
2
  6
CONTINUOUS
 10
0.0
 20
-1.594
 11
9.055
 21
-1.594
  0
LINE
  5
258
100
AcDbEntity
  8
0
100
AcDbLine
 62
2
  6
CONTINUOUS
 10
0.0
 20
-1.844
 11
9.055
 21
-1.844
  0
LINE
  5
259
100
AcDbEntity
  8
0
100
AcDbLine
 62
2
  6
CONTINUOUS
 10
0.0
 20
-2.094
 11
9.055
 21
-2.094
  0
LINE
  5
25A
100
AcDbEntity
  8
0
100
AcDbLine
 62
2
  6
CONTINUOUS
 10
3.055
 20
0.0
 11
3.055
 21
-2.094
  0
LINE
  5
25B
100
AcDbEntity
  8
0
100
AcDbLine
 62
2
  6
CONTINUOUS
 10
9.055
 20
0.0
 11
9.055
 21
-2.094
  0
MTEXT
  5
25C
100
AcDbEntity
  8
0
100
AcDbMText
 62
2
  6
CONTINUOUS
  7
STANDARD
 71
2
 72
1
 10
1.5275
 20
-0.0995
 30
0.0
 11
1.0
 21
0.0
 31
0.0
 44
0.9
  1
Technical Data
 40
0.145
 41
3.248
  0
MTEXT
  5
25D
100
AcDbEntity
  8
0
100
AcDbMText
 62
2
  6
CONTINUOUS
  7
STANDARD
 71
2
 72
1
 10
4.555
 20
-0.0995
 30
0.0
 11
1.0
 21
0.0
 31
0.0
 44
0.9
  1
U.S. Units
 40
0.145
 41
2.32
  0
MTEXT
  5
25E
100
AcDbEntity
  8
0
100
AcDbMText
 62
2
  6
CONTINUOUS
  7
STANDARD
 71
2
 72
1
 10
7.555
 20
-0.0995
 30
0.0
 11
1.0
 21
0.0
 31
0.0
 44
0.9
  1
Metric Units
 40
0.145
 41
2.784
  0
MTEXT
  5
25F
100
AcDbEntity
  8
0
100
AcDbMText
 62
2
  6
CONTINUOUS
  7
STANDARD
 71
2
 72
1
 10
1.5275
 20
-0.4065
 30
0.0
 11
1.0
 21
0.0
 31
0.0
 44
0.9
  1
Cavity
 40
0.125
 41
1.2
  0
MTEXT
  5
260
100
AcDbEntity
  8
0
100
AcDbMText
 62
2
  6
CONTINUOUS
  7
STANDARD
 71
2
 72
1
 10
6.055
 20
-0.4065
 30
0.0
 11
1.0
 21
0.0
 31
0.0
 44
0.9
  1
T-10A
 40
0.125
 41
1.0
  0
MTEXT
  5
261
100
AcDbEntity
  8
0
100
AcDbMText
 62
2
  6
CONTINUOUS
  7
STANDARD
 71
2
 72
1
 10
1.5275
 20
-0.6565
 30
0.0
 11
1.0
 21
0.0
 31
0.0
 44
0.9
  1
Body Features
 40
0.125
 41
2.6
  0
MTEXT
  5
262
100
AcDbEntity
  8
0
100
AcDbMText
 62
2
  6
CONTINUOUS
  7
STANDARD
 71
2
 72
1
 10
6.055
 20
-0.6565
 30
0.0
 11
1.0
 21
0.0
 31
0.0
 44
0.9
  1
P to T, check on P, side ports
 40
0.125
 41
6.0
  0
MTEXT
  5
263
100
AcDbEntity
  8
0
100
AcDbMText
 62
2
  6
CONTINUOUS
  7
STANDARD
 71
2
 72
1
 10
1.5275
 20
-0.9065
 30
0.0
 11
1.0
 21
0.0
 31
0.0
 44
0.9
  1
Body Type
 40
0.125
 41
1.8
  0
MTEXT
  5
264
100
AcDbEntity
  8
0
100
AcDbMText
 62
2
  6
CONTINUOUS
  7
STANDARD
 71
2
 72
1
 10
6.055
 20
-0.9065
 30
0.0
 11
1.0
 21
0.0
 31
0.0
 44
0.9
  1
Subplate
 40
0.125
 41
1.6
  0
MTEXT
  5
265
100
AcDbEntity
  8
0
100
AcDbMText
 62
2
  6
CONTINUOUS
  7
STANDARD
 71
2
 72
1
 10
1.5275
 20
-1.1565
 30
0.0
 11
1.0
 21
0.0
 31
0.0
 44
0.9
  1
Interface
 40
0.125
 41
1.8
  0
MTEXT
  5
266
100
AcDbEntity
  8
0
100
AcDbMText
 62
2
  6
CONTINUOUS
  7
STANDARD
 71
2
 72
1
 10
6.055
 20
-1.1565
 30
0.0
 11
1.0
 21
0.0
 31
0.0
 44
0.9
  1
ISO 03
 40
0.125
 41
1.2
  0
MTEXT
  5
267
100
AcDbEntity
  8
0
100
AcDbMText
 62
2
  6
CONTINUOUS
  7
STANDARD
 71
2
 72
1
 10
1.5275
 20
-1.4065
 30
0.0
 11
1.0
 21
0.0
 31
0.0
 44
0.9
  1
Open Cavity Quantity
 40
0.125
 41
4.0
  0
MTEXT
  5
268
100
AcDbEntity
  8
0
100
AcDbMText
 62
2
  6
CONTINUOUS
  7
STANDARD
 71
2
 72
1
 10
6.055
 20
-1.4065
 30
0.0
 11
1.0
 21
0.0
 31
0.0
 44
0.9
  1
1
 40
0.125
 41
0.2
  0
MTEXT
  5
269
100
AcDbEntity
  8
0
100
AcDbMText
 62
2
  6
CONTINUOUS
  7
STANDARD
 71
2
 72
1
 10
1.5275
 20
-1.6565
 30
0.0
 11
1.0
 21
0.0
 31
0.0
 44
0.9
  1
Weight
 40
0.125
 41
1.2
  0
MTEXT
  5
26A
100
AcDbEntity
  8
0
100
AcDbMText
 62
2
  6
CONTINUOUS
  7
STANDARD
 71
2
 72
1
 10
4.555
 20
-1.6565
 30
0.0
 11
1.0
 21
0.0
 31
0.0
 44
0.9
  1
2.210 lb.
 40
0.125
 41
1.8
  0
MTEXT
  5
26B
100
AcDbEntity
  8
0
100
AcDbMText
 62
2
  6
CONTINUOUS
  7
STANDARD
 71
2
 72
1
 10
7.555
 20
-1.6565
 30
0.0
 11
1.0
 21
0.0
 31
0.0
 44
0.9
  1
1,002 kg.
 40
0.125
 41
1.8
  0
MTEXT
  5
26C
100
AcDbEntity
  8
0
100
AcDbMText
 62
2
  6
CONTINUOUS
  7
STANDARD
 71
2
 72
1
 10
1.5275
 20
-1.9065
 30
0.0
 11
1.0
 21
0.0
 31
0.0
 44
0.9
  1
Includes integral cartridges
 40
0.125
 41
5.6
  0
MTEXT
  5
26D
100
AcDbEntity
  8
0
100
AcDbMText
 62
2
  6
CONTINUOUS
  7
STANDARD
 71
2
 72
1
 10
6.055
 20
-1.9065
 30
0.0
 11
1.0
 21
0.0
 31
0.0
 44
0.9
  1
Yes (see Included Components)
 40
0.125
 41
5.8
  0
ENDBLK
  5
26E
100
AcDbEntity
  8
0
  6
BYBLOCK
 62
0
100
AcDbBlockEnd
  0
BLOCK
  5
26F
100
AcDbEntity
  8
0
100
AcDbBlockBegin
  2
*T3
 70
1
 10
0.0
 20
0.0
  3
*T3
  1

  0
LINE
  5
270
100
AcDbEntity
  8
0
100
AcDbLine
 62
2
  6
CONTINUOUS
 10
0.0
 20
0.0
 11
4.6
 21
0.0
  0
LINE
  5
271
100
AcDbEntity
  8
0
100
AcDbLine
 62
2
  6
CONTINUOUS
 10
0.0
 20
0.0
 11
0.0
 21
-1.18775
  0
LINE
  5
272
100
AcDbEntity
  8
0
100
AcDbLine
 62
2
  6
CONTINUOUS
 10
0.0
 20
-0.34375
 11
4.6
 21
-0.34375
  0
LINE
  5
273
100
AcDbEntity
  8
0
100
AcDbLine
 62
2
  6
CONTINUOUS
 10
0.0
 20
-0.68775
 11
4.6
 21
-0.68775
  0
LINE
  5
274
100
AcDbEntity
  8
0
100
AcDbLine
 62
2
  6
CONTINUOUS
 10
0.0
 20
-0.93775
 11
4.6
 21
-0.93775
  0
LINE
  5
275
100
AcDbEntity
  8
0
100
AcDbLine
 62
2
  6
CONTINUOUS
 10
0.0
 20
-1.18775
 11
4.6
 21
-1.18775
  0
LINE
  5
276
100
AcDbEntity
  8
0
100
AcDbLine
 62
2
  6
CONTINUOUS
 10
1.3
 20
-0.34375
 11
1.3
 21
-1.18775
  0
LINE
  5
277
100
AcDbEntity
  8
0
100
AcDbLine
 62
2
  6
CONTINUOUS
 10
3.3
 20
-0.34375
 11
3.3
 21
-1.18775
  0
LINE
  5
278
100
AcDbEntity
  8
0
100
AcDbLine
 62
2
  6
CONTINUOUS
 10
4.6
 20
0.0
 11
4.6
 21
-1.18775
  0
MTEXT
  5
279
100
AcDbEntity
  8
0
100
AcDbMText
 62
2
  6
CONTINUOUS
  7
STANDARD
 71
2
 72
1
 10
2.3
 20
-0.099375
 30
0.0
 11
1.0
 21
0.0
 31
0.0
 44
0.9
  1
Port Headings
 40
0.145
 41
3.016
  0
MTEXT
  5
27A
100
AcDbEntity
  8
0
100
AcDbMText
 62
2
  6
CONTINUOUS
  7
STANDARD
 71
2
 72
1
 10
0.65
 20
-0.44325
 30
0.0
 11
1.0
 21
0.0
 31
0.0
 44
0.9
  1
Product
 40
0.145
 41
1.624
  0
MTEXT
  5
27B
100
AcDbEntity
  8
0
100
AcDbMText
 62
2
  6
CONTINUOUS
  7
STANDARD
 71
2
 72
1
 10
2.3
 20
-0.44325
 30
0.0
 11
1.0
 21
0.0
 31
0.0
 44
0.9
  1
Port
 40
0.145
 41
0.928
  0
MTEXT
  5
27C
100
AcDbEntity
  8
0
100
AcDbMText
 62
2
  6
CONTINUOUS
  7
STANDARD
 71
2
 72
1
 10
3.95
 20
-0.44325
 30
0.0
 11
1.0
 21
0.0
 31
0.0
 44
0.9
  1
Size
 40
0.145
 41
0.928
  0
MTEXT
  5
27D
100
AcDbEntity
  8
0
100
AcDbMText
 62
2
  6
CONTINUOUS
  7
STANDARD
 71
2
 72
1
 10
0.65
 20
-0.75025
 30
0.0
 11
1.0
 21
0.0
 31
0.0
 44
0.9
  1
WJT
 40
0.125
 41
0.6
  0
MTEXT
  5
27E
100
AcDbEntity
  8
0
100
AcDbMText
 62
2
  6
CONTINUOUS
  7
STANDARD
 71
2
 72
1
 10
2.3
 20
-0.75025
 30
0.0
 11
1.0
 21
0.0
 31
0.0
 44
0.9
  1
Ports A, B, P, T
 40
0.125
 41
3.2
  0
MTEXT
  5
27F
100
AcDbEntity
  8
0
100
AcDbMText
 62
2
  6
CONTINUOUS
  7
STANDARD
 71
2
 72
1
 10
3.95
 20
-0.75025
 30
0.0
 11
1.0
 21
0.0
 31
0.0
 44
0.9
  1
SAE 8
 40
0.125
 41
1.0
  0
MTEXT
  5
280
100
AcDbEntity
  8
0
100
AcDbMText
 62
2
  6
CONTINUOUS
  7
STANDARD
 71
2
 72
1
 10
0.65
 20
-1.00025
 30
0.0
 11
1.0
 21
0.0
 31
0.0
 44
0.9
  1
WJT
 40
0.125
 41
0.6
  0
MTEXT
  5
281
100
AcDbEntity
  8
0
100
AcDbMText
 62
2
  6
CONTINUOUS
  7
STANDARD
 71
2
 72
1
 10
2.3
 20
-1.00025
 30
0.0
 11
1.0
 21
0.0
 31
0.0
 44
0.9
  1
Gage Port
 40
0.125
 41
1.8
  0
MTEXT
  5
282
100
AcDbEntity
  8
0
100
AcDbMText
 62
2
  6
CONTINUOUS
  7
STANDARD
 71
2
 72
1
 10
3.95
 20
-1.00025
 30
0.0
 11
1.0
 21
0.0
 31
0.0
 44
0.9
  1
1/4" NPTF
 40
0.125
 41
1.8
  0
ENDBLK
  5
283
100
AcDbEntity
  8
0
  6
BYBLOCK
 62
0
100
AcDbBlockEnd
  0
ENDSEC
  0
SECTION
  2
ENTITIES
  0
IMAGE
  5
284
100
AcDbEntity
  8
0
100
AcDbRasterImage
 62
7
  6
CONTINUOUS
 10
19.2297077316
 20
0.3094318264
 30
0.0
 11
0.0066666667
 21
0.0
 31
0.0
 12
0.0
 22
0.0066666667
 32
0.0
 13
369.0
 23
92.0
340
       3B1
 70
9
280
0
281
50
282
50
283
0
360
       3AB
 71
1
 91
2
 14
-0.5
 24
-0.5
 14
368.5
 24
91.5
  0
INSERT
  5
285
100
AcDbEntity
  8
0
100
AcDbBlockReference
 62
2
  6
CONTINUOUS
  2
SUN_FIRST_THIRD_ANGLE_BL0
 10
20.4816717061
 20
1.2289683772
  0
ACAD_TABLE
  5
286
100
AcDbEntity
  8
0
 62
2
  6
CONTINUOUS
100
AcDbBlockReference
  2
*T1
 10
12.42375
 20
0.30125
 30
0.0
100
AcDbTable
342
       3B3
343
20F
 11
1.0
 21
0.0
 31
0.0
 90
6
 91
4
 92
6
 93
20
 94
0
 95
0
 96
0
 70
1
 41
0.0
141
0.525
141
0.1
141
0.525
141
0.1
142
4.1
142
1.1
142
0.7
142
0.5
142
0.4
142
2.475
171
1
172
0
173
0
174
0
175
1
176
1
 91
33
178
0
145
0.0
301
CELL_VALUE
 90
4
  1
T-10A Subplate ISO 03\PP to T, check on P, side ports
304
ACVALUE_END
170
2
140
0.125
171
1
172
0
173
0
174
0
175
1
176
1
 91
33
178
0
145
0.0
301
CELL_VALUE
 90
4
  1
Feb-03-21
304
ACVALUE_END
170
5
140
0.125
171
1
172
0
173
0
174
0
175
1
176
1
 91
33
178
0
145
0.0
301
CELL_VALUE
 90
4
  1
1.000
304
ACVALUE_END
170
5
140
0.125
171
1
172
0
173
0
174
0
175
1
176
1
 91
33
178
0
145
0.0
301
CELL_VALUE
 90
4
  1
C
304
ACVALUE_END
170
5
140
0.125
171
1
172
0
173
0
174
0
175
1
176
1
 91
33
178
0
145
0.0
301
CELL_VALUE
 90
4
  1
2
304
ACVALUE_END
170
5
140
0.125
171
1
172
0
173
0
174
0
175
1
176
1
 91
33
178
0
145
0.0
301
CELL_VALUE
 90
4
  1
 
304
ACVALUE_END
170
1
140
0.125
171
1
172
0
173
0
174
0
175
1
176
1
 91
33
178
0
145
0.0
301
CELL_VALUE
 90
4
  1
DESCRIPTION
304
ACVALUE_END
170
1
140
0.06
171
1
172
0
173
0
174
0
175
1
176
1
 91
33
178
0
145
0.0
301
CELL_VALUE
 90
4
  1
DATE
304
ACVALUE_END
170
1
140
0.06
171
1
172
0
173
0
174
0
175
1
176
1
 91
33
178
0
145
0.0
301
CELL_VALUE
 90
4
  1
SCALE
304
ACVALUE_END
170
1
140
0.06
171
1
172
0
173
0
174
0
175
1
176
1
 91
33
178
0
145
0.0
301
CELL_VALUE
 90
4
  1
DWG SIZE
304
ACVALUE_END
170
1
140
0.06
171
1
172
0
173
0
174
0
175
1
176
1
 91
33
178
0
145
0.0
301
CELL_VALUE
 90
4
  1
SHEET
304
ACVALUE_END
170
1
140
0.06
171
1
172
0
173
0
174
0
175
1
176
1
 91
33
178
0
145
0.0
301
CELL_VALUE
 90
4
  1
 
304
ACVALUE_END
170
1
140
0.125
171
1
172
0
173
0
174
0
175
1
176
1
 91
33
178
0
145
0.0
301
CELL_VALUE
 90
4
  1
WJT
304
ACVALUE_END
170
5
140
0.125
171
1
172
0
173
0
174
0
175
4
176
1
 91
33
178
0
145
0.0
301
CELL_VALUE
 90
4
  1
ALL DIMENSIONS IN INCH\PVIEWS ARE THIRD ANGLE
304
ACVALUE_END
170
5
140
0.12
171
1
172
0
173
1
174
0
175
1
176
1
 91
1
178
0
145
0.0
170
1
171
1
172
0
173
1
174
0
175
1
176
1
 91
1
178
0
145
0.0
170
1
171
1
172
0
173
1
174
0
175
1
176
1
 91
1
178
0
145
0.0
170
5
171
1
172
0
173
0
174
0
175
1
176
1
 91
33
178
0
145
0.0
301
CELL_VALUE
 90
4
  1
 
304
ACVALUE_END
170
1
140
0.125
171
1
172
0
173
0
174
0
175
1
176
1
 91
33
178
0
145
0.0
301
CELL_VALUE
 90
4
  1
MODEL
304
ACVALUE_END
170
1
140
0.06
171
1
172
0
173
0
174
0
175
1
176
1
 91
33
178
0
145
0.0
301
CELL_VALUE
 90
4
  1
 
304
ACVALUE_END
170
1
140
0.125
171
1
172
0
173
0
174
0
175
1
176
1
 91
33
178
0
145
0.0
301
CELL_VALUE
 90
4
  1
 
304
ACVALUE_END
170
1
140
0.125
171
1
172
0
173
0
174
0
175
1
176
1
 91
33
178
0
145
0.0
301
CELL_VALUE
 90
4
  1
 
304
ACVALUE_END
170
1
140
0.125
171
1
172
0
173
0
174
0
175
1
176
1
 91
33
178
0
145
0.0
301
CELL_VALUE
 90
4
  1
 
304
ACVALUE_END
170
1
140
0.125
171
1
172
0
173
0
174
0
175
1
176
1
 91
33
178
0
145
0.0
301
CELL_VALUE
 90
4
  1
 
304
ACVALUE_END
170
1
140
0.125
  0
ACAD_TABLE
  5
287
100
AcDbEntity
  8
0
 62
2
  6
CONTINUOUS
100
AcDbBlockReference
  2
*T2
 10
12.4237499994
 20
16.47875
 30
0.0
100
AcDbTable
342
       3B2
343
210
 11
1.0
 21
0.0
 31
0.0
 90
22
 91
8
 92
3
 93
16
 94
0
 95
0
 96
0
 41
0.028
141
0.344
141
0.25
141
0.25
141
0.25
141
0.25
141
0.25
141
0.25
141
0.25
142
3.055
142
3.0
142
3.0
171
1
172
0
173
0
174
0
175
1
176
1
 91
33
178
0
145
0.0
301
CELL_VALUE
 90
4
  1
Technical Data
304
ACVALUE_END
170
5
140
0.145
171
1
172
0
173
0
174
0
175
1
176
1
 91
33
178
0
145
0.0
301
CELL_VALUE
 90
4
  1
U.S. Units
304
ACVALUE_END
170
5
140
0.145
171
1
172
0
173
0
174
0
175
1
176
1
 91
33
178
0
145
0.0
301
CELL_VALUE
 90
4
  1
Metric Units
304
ACVALUE_END
170
5
140
0.145
171
1
172
0
173
0
174
0
175
1
176
1
 91
33
178
0
145
0.0
301
CELL_VALUE
 90
4
  1
Cavity
304
ACVALUE_END
170
5
140
0.125
171
1
172
0
173
0
174
0
175
2
176
1
 91
33
178
0
145
0.0
301
CELL_VALUE
 90
4
  1
T-10A
304
ACVALUE_END
170
5
140
0.125
171
1
172
0
173
1
174
0
175
1
176
1
 91
1
178
0
145
0.0
170
1
171
1
172
0
173
0
174
0
175
1
176
1
 91
33
178
0
145
0.0
301
CELL_VALUE
 90
4
  1
Body Features
304
ACVALUE_END
170
5
140
0.125
171
1
172
0
173
0
174
0
175
2
176
1
 91
33
178
0
145
0.0
301
CELL_VALUE
 90
4
  1
P to T, check on P, side ports
304
ACVALUE_END
170
5
140
0.125
171
1
172
0
173
1
174
0
175
1
176
1
 91
1
178
0
145
0.0
170
1
171
1
172
0
173
0
174
0
175
1
176
1
 91
33
178
0
145
0.0
301
CELL_VALUE
 90
4
  1
Body Type
304
ACVALUE_END
170
5
140
0.125
171
1
172
0
173
0
174
0
175
2
176
1
 91
33
178
0
145
0.0
301
CELL_VALUE
 90
4
  1
Subplate
304
ACVALUE_END
170
5
140
0.125
171
1
172
0
173
1
174
0
175
1
176
1
 91
1
178
0
145
0.0
170
1
171
1
172
0
173
0
174
0
175
1
176
1
 91
33
178
0
145
0.0
301
CELL_VALUE
 90
4
  1
Interface
304
ACVALUE_END
170
5
140
0.125
171
1
172
0
173
0
174
0
175
2
176
1
 91
33
178
0
145
0.0
301
CELL_VALUE
 90
4
  1
ISO 03
304
ACVALUE_END
170
5
140
0.125
171
1
172
0
173
1
174
0
175
1
176
1
 91
1
178
0
145
0.0
170
1
171
1
172
0
173
0
174
0
175
1
176
1
 91
33
178
0
145
0.0
301
CELL_VALUE
 90
4
  1
Open Cavity Quantity
304
ACVALUE_END
170
5
140
0.125
171
1
172
0
173
0
174
0
175
2
176
1
 91
33
178
0
145
0.0
301
CELL_VALUE
 90
4
  1
1
304
ACVALUE_END
170
5
140
0.125
171
1
172
0
173
1
174
0
175
1
176
1
 91
1
178
0
145
0.0
170
1
171
1
172
0
173
0
174
0
175
1
176
1
 91
33
178
0
145
0.0
301
CELL_VALUE
 90
4
  1
Weight
304
ACVALUE_END
170
5
140
0.125
171
1
172
0
173
0
174
0
175
1
176
1
 91
33
178
0
145
0.0
301
CELL_VALUE
 90
4
  1
2.210 lb.
304
ACVALUE_END
170
5
140
0.125
171
1
172
0
173
0
174
0
175
1
176
1
 91
33
178
0
145
0.0
301
CELL_VALUE
 90
4
  1
1,002 kg.
304
ACVALUE_END
170
5
140
0.125
171
1
172
0
173
0
174
0
175
1
176
1
 91
33
178
0
145
0.0
301
CELL_VALUE
 90
4
  1
Includes integral cartridges
304
ACVALUE_END
170
5
140
0.125
171
1
172
0
173
0
174
0
175
2
176
1
 91
33
178
0
145
0.0
301
CELL_VALUE
 90
4
  1
Yes (see Included Components)
304
ACVALUE_END
170
5
140
0.125
171
1
172
0
173
1
174
0
175
1
176
1
 91
1
178
0
145
0.0
170
1
  0
ACAD_TABLE
  5
288
100
AcDbEntity
  8
0
 62
2
  6
CONTINUOUS
100
AcDbBlockReference
  2
*T3
 10
0.52125
 20
1.709
 30
0.0
100
AcDbTable
342
       3B2
343
211
 11
1.0
 21
0.0
 31
0.0
 90
22
 91
4
 92
3
 93
16
 94
0
 95
0
 96
0
 41
0.05
141
0.34375
141
0.344
141
0.25
141
0.25
142
1.3
142
2.0
142
1.3
171
1
172
0
173
0
174
0
175
3
176
1
 91
33
178
0
145
0.0
301
CELL_VALUE
 90
4
  1
Port Headings
304
ACVALUE_END
170
5
140
0.145
171
1
172
0
173
1
174
0
175
1
176
1
 91
1
178
0
145
0.0
170
1
171
1
172
0
173
1
174
0
175
1
176
1
 91
1
178
0
145
0.0
170
1
171
1
172
0
173
0
174
0
175
1
176
1
 91
33
178
0
145
0.0
301
CELL_VALUE
 90
4
  1
Product
304
ACVALUE_END
170
5
140
0.145
171
1
172
0
173
0
174
0
175
1
176
1
 91
33
178
0
145
0.0
301
CELL_VALUE
 90
4
  1
Port
304
ACVALUE_END
170
5
140
0.145
171
1
172
0
173
0
174
0
175
1
176
1
 91
33
178
0
145
0.0
301
CELL_VALUE
 90
4
  1
Size
304
ACVALUE_END
170
5
140
0.145
171
1
172
0
173
0
174
0
175
1
176
1
 91
33
178
0
145
0.0
301
CELL_VALUE
 90
4
  1
WJT
304
ACVALUE_END
170
5
140
0.125
171
1
172
0
173
0
174
0
175
1
176
1
 91
33
178
0
145
0.0
301
CELL_VALUE
 90
4
  1
Ports A, B, P, T
304
ACVALUE_END
170
5
140
0.125
171
1
172
0
173
0
174
0
175
1
176
1
 91
33
178
0
145
0.0
301
CELL_VALUE
 90
4
  1
SAE 8
304
ACVALUE_END
170
5
140
0.125
171
1
172
0
173
0
174
0
175
1
176
1
 91
33
178
0
145
0.0
301
CELL_VALUE
 90
4
  1
WJT
304
ACVALUE_END
170
5
140
0.125
171
1
172
0
173
0
174
0
175
1
176
1
 91
33
178
0
145
0.0
301
CELL_VALUE
 90
4
  1
Gage Port
304
ACVALUE_END
170
5
140
0.125
171
1
172
0
173
0
174
0
175
1
176
1
 91
33
178
0
145
0.0
301
CELL_VALUE
 90
4
  1
1/4" NPTF
304
ACVALUE_END
170
5
140
0.125
  0
MTEXT
  5
289
100
AcDbEntity
  8
0
100
AcDbMText
 62
2
  6
CONTINUOUS
  7
STANDARD
 71
1
 72
1
 10
0.52125
 20
5.75995
 30
0.0
 11
1.0
 21
0.0
 31
0.0
 44
0.6
  3
Notes\P \P1. Important: Carefully consider\P   the maximum system pressure. The\P   pressure rating of the manifold is\P   dependent on the manifold material,\P   with the port type/size a secondary\P   consideration. Manifolds\P   constructed of alu
  1
minum are not\P   rated for pressures higher than\P   3000 psi (210 bar), regardless of\P   the port type/size specified.
 40
0.1
 41
3.04
  0
LINE
  5
28A
100
AcDbEntity
  8
0
100
AcDbLine
 62
7
  6
CONTINUOUS
 10
0.30125
 20
0.30125
 11
0.30125
 21
16.69875
  0
LINE
  5
28B
100
AcDbEntity
  8
0
100
AcDbLine
 62
7
  6
CONTINUOUS
 10
0.30125
 20
0.30125
 11
21.69875
 21
0.30125
  0
LINE
  5
28C
100
AcDbEntity
  8
0
100
AcDbLine
 62
7
  6
CONTINUOUS
 10
0.30125
 20
16.69875
 11
21.69875
 21
16.69875
  0
LINE
  5
28D
100
AcDbEntity
  8
0
100
AcDbLine
 62
7
  6
CONTINUOUS
 10
21.69875
 20
0.30125
 11
21.69875
 21
16.69875
  0
LINE
  5
28E
100
AcDbEntity
  8
0
100
AcDbLine
 62
7
  6
CONTINUOUS
 10
9.2788278866
 20
10.0575980659
 11
9.7964655496
 21
10.5575976829
  0
LINE
  5
28F
100
AcDbEntity
  8
0
100
AcDbLine
 62
7
  6
CONTINUOUS
 10
8.8661341852
 20
7.7795344502
 11
8.8593743956
 21
7.7957754531
  0
LINE
  5
290
100
AcDbEntity
  8
0
100
AcDbLine
 62
7
  6
CONTINUOUS
 10
8.9293399172
 20
8.5915369291
 11
8.9125913011
 21
8.5631399055
  0
LINE
  5
291
100
AcDbEntity
  8
0
100
AcDbLine
 62
7
  6
CONTINUOUS
 10
12.6595684789
 20
6.4424023171
 11
9.2788278866
 21
6.6768574735
  0
LINE
  5
292
100
AcDbEntity
  8
0
100
AcDbLine
 62
4
  6
CONTINUOUS
 10
11.0184144074
 20
6.6064448942
 11
10.9908165204
 21
6.6083588141
  0
LINE
  5
293
100
AcDbEntity
  8
0
100
AcDbLine
 62
4
  6
CONTINUOUS
 10
10.9576990781
 20
6.6106555166
 11
10.9411403385
 21
6.6118038691
  0
LINE
  5
294
100
AcDbEntity
  8
0
100
AcDbLine
 62
4
  6
CONTINUOUS
 10
10.8988236005
 20
6.6147385448
 11
10.8767453056
 21
6.6162696798
  0
LINE
  5
295
100
AcDbEntity
  8
0
100
AcDbLine
 62
4
  6
CONTINUOUS
 10
10.5750084506
 20
6.6371952017
 11
10.5474105728
 21
6.6391091211
  0
LINE
  5
296
100
AcDbEntity
  8
0
100
AcDbLine
 62
4
  6
CONTINUOUS
 10
10.7497950363
 20
6.6250737108
 11
10.782912497
 21
6.6227770071
  0
LINE
  5
297
100
AcDbEntity
  8
0
100
AcDbLine
 62
4
  6
CONTINUOUS
 10
11.0607311823
 20
6.6035102159
 11
11.0938486246
 21
6.6012135135
  0
LINE
  5
298
100
AcDbEntity
  8
0
100
AcDbLine
 62
4
  6
CONTINUOUS
 10
10.6246846372
 20
6.6558284529
 11
10.654122376
 21
6.6537869388
  0
LINE
  5
299
100
AcDbEntity
  8
0
100
AcDbLine
 62
4
  6
CONTINUOUS
 10
11.0828094772
 20
6.6461356937
 11
11.0607311823
 21
6.6476668287
  0
LINE
  5
29A
100
AcDbEntity
  8
0
100
AcDbLine
 62
4
  6
CONTINUOUS
 10
10.7718733496
 20
6.6676991874
 11
10.7497950363
 21
6.6692303236
  0
LINE
  5
29B
100
AcDbEntity
  8
0
100
AcDbLine
 62
4
  6
CONTINUOUS
 10
10.5474105728
 20
6.71638319
 11
10.5750084506
 21
6.7144692707
  0
LINE
  5
29C
100
AcDbEntity
  8
0
100
AcDbLine
 62
4
  6
CONTINUOUS
 10
10.6835601148
 20
6.7069411872
 11
10.727716723
 21
6.703878916
  0
LINE
  5
29D
100
AcDbEntity
  8
0
100
AcDbLine
 62
4
  6
CONTINUOUS
 10
10.7497950363
 20
6.7023477798
 11
10.782912497
 21
6.7000510761
  0
LINE
  5
29E
100
AcDbEntity
  8
0
100
AcDbLine
 62
4
  6
CONTINUOUS
 10
10.8767453056
 20
6.6935437487
 11
10.8988236005
 21
6.6920126138
  0
LINE
  5
29F
100
AcDbEntity
  8
0
100
AcDbLine
 62
4
  6
CONTINUOUS
 10
10.9411403385
 20
6.689077938
 11
10.9576990781
 21
6.6879295855
  0
LINE
  5
2A0
100
AcDbEntity
  8
0
100
AcDbLine
 62
4
  6
CONTINUOUS
 10
10.9908165204
 20
6.6856328831
 11
11.0184144074
 21
6.6837189631
  0
LINE
  5
2A1
100
AcDbEntity
  8
0
100
AcDbLine
 62
4
  6
CONTINUOUS
 10
11.0607311823
 20
6.6807842848
 11
11.0938486246
 21
6.6784875824
  0
LINE
  5
2A2
100
AcDbEntity
  8
0
100
AcDbLine
 62
4
  6
CONTINUOUS
 10
10.50325396
 20
6.675288851
 11
10.5326917011
 21
6.6585284662
  0
LINE
  5
2A3
100
AcDbEntity
  8
0
100
AcDbLine
 62
7
  6
CONTINUOUS
 10
9.2788278866
 20
6.6768574735
 11
9.2788278866
 21
10.0575980659
  0
LINE
  5
2A4
100
AcDbEntity
  8
0
100
AcDbLine
 62
4
  6
CONTINUOUS
 10
9.4333760249
 20
9.0423172341
 11
9.4695982448
 21
9.155716318
  0
LINE
  5
2A5
100
AcDbEntity
  8
0
100
AcDbLine
 62
4
  6
CONTINUOUS
 10
11.5801462292
 20
6.710445684
 11
11.5656573413
 21
6.7114504918
  0
LINE
  5
2A6
100
AcDbEntity
  8
0
100
AcDbLine
 62
4
  6
CONTINUOUS
 10
10.8298289224
 20
6.7895262937
 11
10.8463876528
 21
6.7883779418
  0
LINE
  5
2A7
100
AcDbEntity
  8
0
100
AcDbLine
 62
4
  6
CONTINUOUS
 10
11.5729017853
 20
6.7689036396
 11
11.6018795611
 21
6.766894024
  0
LINE
  5
2A8
100
AcDbEntity
  8
0
100
AcDbLine
 62
4
  6
CONTINUOUS
 10
10.8795051135
 20
6.8633553071
 11
10.9236617217
 21
6.8602930359
  0
LINE
  5
2A9
100
AcDbEntity
  8
0
100
AcDbLine
 62
4
  6
CONTINUOUS
 10
11.5656573413
 20
6.8273615952
 11
11.5801462292
 21
6.8263567874
  0
LINE
  5
2AA
100
AcDbEntity
  8
0
100
AcDbLine
 62
4
  6
CONTINUOUS
 10
10.7608341506
 20
7.0000073094
 11
10.771873298
 21
6.999241742
  0
LINE
  5
2AB
100
AcDbEntity
  8
0
100
AcDbLine
 62
4
  6
CONTINUOUS
 10
11.1306457926
 20
6.9927593729
 11
11.108567424
 21
6.9942905129
  0
LINE
  5
2AC
100
AcDbEntity
  8
0
100
AcDbLine
 62
4
  6
CONTINUOUS
 10
11.0404926876
 20
6.9990115119
 11
11.0294535401
 21
6.9997770794
  0
LINE
  5
2AD
100
AcDbEntity
  8
0
100
AcDbLine
 62
4
  6
CONTINUOUS
 10
10.946659879
 20
7.0055188393
 11
10.9245815842
 21
7.0070499742
  0
LINE
  5
2AE
100
AcDbEntity
  8
0
100
AcDbLine
 62
4
  6
CONTINUOUS
 10
10.8417879231
 20
7.0127917341
 11
10.8197096282
 21
7.0143228691
  0
LINE
  5
2AF
100
AcDbEntity
  8
0
100
AcDbLine
 62
4
  6
CONTINUOUS
 10
10.4682965988
 20
7.0386934455
 11
10.4903749046
 21
7.0371623097
  0
LINE
  5
2B0
100
AcDbEntity
  8
0
100
AcDbLine
 62
4
  6
CONTINUOUS
 10
10.5345315128
 20
7.0341000386
 11
10.5510902478
 21
7.0329516864
  0
LINE
  5
2B1
100
AcDbEntity
  8
0
100
AcDbLine
 62
4
  6
CONTINUOUS
 10
10.9742577661
 20
7.0036049193
 11
11.0018556531
 21
7.0016909994
  0
LINE
  5
2B2
100
AcDbEntity
  8
0
100
AcDbLine
 62
4
  6
CONTINUOUS
 10
11.1582436428
 20
6.9908454554
 11
11.1803219377
 21
6.9893143205
  0
LINE
  5
2B3
100
AcDbEntity
  8
0
100
AcDbLine
 62
4
  6
CONTINUOUS
 10
10.9245815842
 20
7.0346478567
 11
10.946659879
 21
7.0331167217
  0
LINE
  5
2B4
100
AcDbEntity
  8
0
100
AcDbLine
 62
4
  6
CONTINUOUS
 10
10.9411403237
 20
7.0610973866
 11
10.9135424367
 21
7.0630113066
  0
LINE
  5
2B5
100
AcDbEntity
  8
0
100
AcDbLine
 62
4
  6
CONTINUOUS
 10
10.7056383765
 20
7.0774295021
 11
10.7332362635
 21
7.0755155822
  0
LINE
  5
2B6
100
AcDbEntity
  8
0
100
AcDbLine
 62
4
  6
CONTINUOUS
 10
10.8197096282
 20
7.069518634
 11
10.8417879231
 21
7.067987499
  0
LINE
  5
2B7
100
AcDbEntity
  8
0
100
AcDbLine
 62
4
  6
CONTINUOUS
 10
10.8638662548
 20
7.0664563615
 11
10.8859445497
 21
7.0649252265
  0
LINE
  5
2B8
100
AcDbEntity
  8
0
100
AcDbLine
 62
4
  6
CONTINUOUS
 10
11.108567424
 20
7.0494862778
 11
11.1306457926
 21
7.0479551377
  0
LINE
  5
2B9
100
AcDbEntity
  8
0
100
AcDbLine
 62
4
  6
CONTINUOUS
 10
11.1582436428
 20
7.0460412203
 11
11.1803219377
 21
7.0445100853
  0
LINE
  5
2BA
100
AcDbEntity
  8
0
100
AcDbLine
 62
4
  6
CONTINUOUS
 10
10.4738161754
 20
7.1155847305
 11
10.4958944806
 21
7.1140535948
  0
LINE
  5
2BB
100
AcDbEntity
  8
0
100
AcDbLine
 62
4
  6
CONTINUOUS
 10
11.0736101299
 20
7.0739888784
 11
11.0754499817
 21
7.0738612843
  0
LINE
  5
2BC
100
AcDbEntity
  8
0
100
AcDbLine
 62
4
  6
CONTINUOUS
 10
11.1803219377
 20
7.0150723442
 11
11.1582436428
 21
7.0202831965
  0
LINE
  5
2BD
100
AcDbEntity
  8
0
100
AcDbLine
 62
4
  6
CONTINUOUS
 10
11.1159269195
 20
6.6475187087
 11
11.1453646583
 21
6.6307583228
  0
LINE
  5
2BE
100
AcDbEntity
  8
0
100
AcDbLine
 62
4
  6
CONTINUOUS
 10
10.8197096282
 20
7.0143228691
 11
10.8086704807
 21
7.0206080132
  0
LINE
  5
2BF
100
AcDbEntity
  8
0
100
AcDbLine
 62
4
  6
CONTINUOUS
 10
10.5014140567
 20
7.0584750484
 11
10.4627770222
 21
7.0942719942
  0
LINE
  5
2C0
100
AcDbEntity
  8
0
100
AcDbLine
 62
4
  6
CONTINUOUS
 10
10.5750084506
 20
6.7144692707
 11
10.5860476027
 21
6.7026645508
  0
LINE
  5
2C1
100
AcDbEntity
  8
0
100
AcDbLine
 62
4
  6
CONTINUOUS
 10
10.4627770222
 20
7.044595806
 11
10.4682965988
 21
7.0386934455
  0
LINE
  5
2C2
100
AcDbEntity
  8
0
100
AcDbLine
 62
4
  6
CONTINUOUS
 10
10.8767453056
 20
6.6162696798
 11
10.8657061581
 21
6.6280744004
  0
LINE
  5
2C3
100
AcDbEntity
  8
0
100
AcDbLine
 62
4
  6
CONTINUOUS
 10
10.2858056287
 20
9.8042380098
 11
10.2930500726
 21
9.8133948691
  0
LINE
  5
2C4
100
AcDbEntity
  8
0
100
AcDbLine
 62
4
  6
CONTINUOUS
 10
10.2858056287
 20
9.7366232018
 11
10.3002945166
 21
9.7549369118
  0
LINE
  5
2C5
100
AcDbEntity
  8
0
100
AcDbLine
 62
4
  6
CONTINUOUS
 10
10.9245815842
 20
7.0070499742
 11
10.9135424367
 21
7.0133351183
  0
LINE
  5
2C6
100
AcDbEntity
  8
0
100
AcDbLine
 62
4
  6
CONTINUOUS
 10
10.5234923608
 20
7.0459047596
 11
10.5345315128
 21
7.0341000386
  0
LINE
  5
2C7
100
AcDbEntity
  8
0
100
AcDbLine
 62
4
  6
CONTINUOUS
 10
10.9411403385
 20
6.6118038691
 11
10.930101191
 21
6.6236085897
  0
LINE
  5
2C8
100
AcDbEntity
  8
0
100
AcDbLine
 62
4
  6
CONTINUOUS
 10
10.4958944806
 20
7.1140535948
 11
10.5014140567
 21
7.1081512326
  0
LINE
  5
2C9
100
AcDbEntity
  8
0
100
AcDbLine
 62
4
  6
CONTINUOUS
 10
10.9576990781
 20
6.6879295855
 11
10.9687382255
 21
6.676124866
  0
LINE
  5
2CA
100
AcDbEntity
  8
0
100
AcDbLine
 62
4
  6
CONTINUOUS
 10
11.0184144074
 20
6.6837189631
 11
11.0294535549
 21
6.6719142436
  0
LINE
  5
2CB
100
AcDbEntity
  8
0
100
AcDbLine
 62
4
  6
CONTINUOUS
 10
9.4695982448
 20
9.155716318
 11
9.5058204646
 21
9.0372931951
  0
LINE
  5
2CC
100
AcDbEntity
  8
0
100
AcDbLine
 62
4
  6
CONTINUOUS
 10
11.5656573413
 20
6.7114504918
 11
11.5511684534
 21
6.7221145585
  0
LINE
  5
2CD
100
AcDbEntity
  8
0
100
AcDbLine
 62
4
  6
CONTINUOUS
 10
11.1582436428
 20
7.0202831965
 11
11.1527240875
 21
7.0243456964
  0
LINE
  5
2CE
100
AcDbEntity
  8
0
100
AcDbLine
 62
4
  6
CONTINUOUS
 10
11.185841493
 20
7.0110098444
 11
11.1803219377
 21
7.0150723442
  0
LINE
  5
2CF
100
AcDbEntity
  8
0
100
AcDbLine
 62
4
  6
CONTINUOUS
 10
11.5801462292
 20
6.8263567874
 11
11.5946351172
 21
6.8156927233
  0
LINE
  5
2D0
100
AcDbEntity
  8
0
100
AcDbLine
 62
4
  6
CONTINUOUS
 10
10.7332362635
 20
7.0755155822
 11
10.7387558373
 21
7.0696132201
  0
LINE
  5
2D1
100
AcDbEntity
  8
0
100
AcDbLine
 62
4
  6
CONTINUOUS
 10
10.9687381739
 20
7.0095072809
 11
10.9742577661
 21
7.0036049193
  0
LINE
  5
2D2
100
AcDbEntity
  8
0
100
AcDbLine
 62
4
  6
CONTINUOUS
 10
11.0294535401
 20
6.9997770794
 11
11.023933948
 21
7.005679441
  0
LINE
  5
2D3
100
AcDbEntity
  8
0
100
AcDbLine
 62
4
  6
CONTINUOUS
 10
10.5842076994
 20
7.1079290523
 11
10.6228447338
 21
7.0279754959
  0
LINE
  5
2D4
100
AcDbEntity
  8
0
100
AcDbLine
 62
7
  6
CONTINUOUS
 10
9.2788278866
 20
7.6728079883
 11
8.9591814119
 21
7.6949755466
  0
LINE
  5
2D5
100
AcDbEntity
  8
0
100
AcDbLine
 62
7
  6
CONTINUOUS
 10
9.2788278866
 20
7.7824089797
 11
8.8612732343
 21
7.8113664931
  0
LINE
  5
2D6
100
AcDbEntity
  8
0
100
AcDbLine
 62
7
  6
CONTINUOUS
 10
9.2742078545
 20
7.8243392299
 11
8.8536086288
 21
7.8535078853
  0
LINE
  5
2D7
100
AcDbEntity
  8
0
100
AcDbLine
 62
4
  6
CONTINUOUS
 10
11.108567424
 20
6.9942905129
 11
11.1030478687
 21
7.000192872
  0
LINE
  5
2D8
100
AcDbEntity
  8
0
100
AcDbLine
 62
4
  6
CONTINUOUS
 10
11.1527240875
 20
6.9967478145
 11
11.1582436428
 21
6.9908454554
  0
LINE
  5
2D9
100
AcDbEntity
  8
0
100
AcDbLine
 62
4
  6
CONTINUOUS
 10
11.1803219377
 20
7.0445100853
 11
11.185841493
 21
7.0386077246
  0
LINE
  5
2DA
100
AcDbEntity
  8
0
100
AcDbLine
 62
4
  6
CONTINUOUS
 10
10.8859445497
 20
7.0649252265
 11
10.8896242532
 21
7.0591504599
  0
LINE
  5
2DB
100
AcDbEntity
  8
0
100
AcDbLine
 62
4
  6
CONTINUOUS
 10
10.6394035066
 20
6.7100034584
 11
10.6614818199
 21
6.6311982532
  0
LINE
  5
2DC
100
AcDbEntity
  8
0
100
AcDbLine
 62
4
  6
CONTINUOUS
 10
10.2350945209
 20
9.8560511325
 11
10.2350945209
 21
9.740140029
  0
LINE
  5
2DD
100
AcDbEntity
  8
0
100
AcDbLine
 62
4
  6
CONTINUOUS
 10
10.2930500726
 20
9.8133948691
 11
10.2930500726
 21
9.842372645
  0
LINE
  5
2DE
100
AcDbEntity
  8
0
100
AcDbLine
 62
4
  6
CONTINUOUS
 10
10.3002945166
 20
9.7549369118
 11
10.3002945166
 21
9.7839146859
  0
LINE
  5
2DF
100
AcDbEntity
  8
0
100
AcDbLine
 62
4
  6
CONTINUOUS
 10
11.5511684534
 20
6.7221145585
 11
11.5366795655
 21
6.7424378832
  0
LINE
  5
2E0
100
AcDbEntity
  8
0
100
AcDbLine
 62
4
  6
CONTINUOUS
 10
10.946659879
 20
7.0496754521
 11
10.9411403237
 21
7.0610973866
  0
LINE
  5
2E1
100
AcDbEntity
  8
0
100
AcDbLine
 62
4
  6
CONTINUOUS
 10
10.7580744341
 20
6.8496982492
 11
10.7746331621
 21
6.7933541327
  0
LINE
  5
2E2
100
AcDbEntity
  8
0
100
AcDbLine
 62
4
  6
CONTINUOUS
 10
10.7608341506
 20
7.0736016622
 11
10.7773928902
 21
7.0172575448
  0
LINE
  5
2E3
100
AcDbEntity
  8
0
100
AcDbLine
 62
4
  6
CONTINUOUS
 10
10.7249569756
 20
6.8740732569
 11
10.7415157048
 21
6.7956508361
  0
LINE
  5
2E4
100
AcDbEntity
  8
0
100
AcDbLine
 62
4
  6
CONTINUOUS
 10
10.4627770222
 20
7.0942719942
 11
10.4627770222
 21
7.1053111463
  0
LINE
  5
2E5
100
AcDbEntity
  8
0
100
AcDbLine
 62
4
  6
CONTINUOUS
 10
10.5014140567
 20
7.0474358952
 11
10.5014140567
 21
7.0584750484
  0
LINE
  5
2E6
100
AcDbEntity
  8
0
100
AcDbLine
 62
4
  6
CONTINUOUS
 10
10.5234923608
 20
7.1121396753
 11
10.5234923608
 21
7.0459047596
  0
LINE
  5
2E7
100
AcDbEntity
  8
0
100
AcDbLine
 62
4
  6
CONTINUOUS
 10
10.5474105728
 20
6.6391091211
 11
10.5474105728
 21
6.71638319
  0
LINE
  5
2E8
100
AcDbEntity
  8
0
100
AcDbLine
 62
4
  6
CONTINUOUS
 10
10.5621293953
 20
7.0432252721
 11
10.5621293953
 21
7.1094601879
  0
LINE
  5
2E9
100
AcDbEntity
  8
0
100
AcDbLine
 62
4
  6
CONTINUOUS
 10
10.5842076994
 20
7.0306549833
 11
10.5842076994
 21
7.1079290523
  0
LINE
  5
2EA
100
AcDbEntity
  8
0
100
AcDbLine
 62
4
  6
CONTINUOUS
 10
10.5860476027
 20
6.7026645508
 11
10.5860476027
 21
6.6474687871
  0
LINE
  5
2EB
100
AcDbEntity
  8
0
100
AcDbLine
 62
4
  6
CONTINUOUS
 10
10.6228447338
 20
7.0279754959
 11
10.6228447338
 21
7.1052495648
  0
LINE
  5
2EC
100
AcDbEntity
  8
0
100
AcDbLine
 62
4
  6
CONTINUOUS
 10
11.5946351172
 20
6.8156927233
 11
11.6018795611
 21
6.8055310562
  0
LINE
  5
2ED
100
AcDbEntity
  8
0
100
AcDbLine
 62
4
  6
CONTINUOUS
 10
10.7056383765
 20
7.0222337373
 11
10.7056383765
 21
7.0995078062
  0
LINE
  5
2EE
100
AcDbEntity
  8
0
100
AcDbLine
 62
4
  6
CONTINUOUS
 10
10.7056384281
 20
6.628135982
 11
10.7056384281
 21
6.705410051
  0
LINE
  5
2EF
100
AcDbEntity
  8
0
100
AcDbLine
 62
4
  6
CONTINUOUS
 10
10.7387558373
 20
7.0696132201
 11
10.7387558373
 21
7.0199370336
  0
LINE
  5
2F0
100
AcDbEntity
  8
0
100
AcDbLine
 62
4
  6
CONTINUOUS
 10
10.7497950363
 20
6.6250737108
 11
10.7497950363
 21
6.7023477798
  0
LINE
  5
2F1
100
AcDbEntity
  8
0
100
AcDbLine
 62
4
  6
CONTINUOUS
 10
10.8086704807
 20
7.0206080132
 11
10.8086704807
 21
7.0647646231
  0
LINE
  5
2F2
100
AcDbEntity
  8
0
100
AcDbLine
 62
7
  6
CONTINUOUS
 10
9.2742078545
 20
8.2462652089
 11
8.8536086288
 21
8.2754338642
  0
LINE
  5
2F3
100
AcDbEntity
  8
0
100
AcDbLine
 62
7
  6
CONTINUOUS
 10
9.2788278866
 20
8.3034246247
 11
8.8612732343
 21
8.3323821382
  0
LINE
  5
2F4
100
AcDbEntity
  8
0
100
AcDbLine
 62
4
  6
CONTINUOUS
 10
10.8417879231
 20
7.0900658031
 11
10.8417879231
 21
7.0127917341
  0
LINE
  5
2F5
100
AcDbEntity
  8
0
100
AcDbLine
 62
4
  6
CONTINUOUS
 10
10.8574268094
 20
6.7986515269
 11
10.8574268094
 21
6.8648864427
  0
LINE
  5
2F6
100
AcDbEntity
  8
0
100
AcDbLine
 62
4
  6
CONTINUOUS
 10
10.8638662548
 20
7.0112605966
 11
10.8638662548
 21
7.0664563615
  0
LINE
  5
2F7
100
AcDbEntity
  8
0
100
AcDbLine
 62
4
  6
CONTINUOUS
 10
10.8657061581
 20
6.6280744004
 11
10.8657061581
 21
6.6832701641
  0
LINE
  5
2F8
100
AcDbEntity
  8
0
100
AcDbLine
 62
4
  6
CONTINUOUS
 10
10.8896242532
 20
7.0591504599
 11
10.8896242532
 21
7.0481113079
  0
LINE
  5
2F9
100
AcDbEntity
  8
0
100
AcDbLine
 62
4
  6
CONTINUOUS
 10
10.9015834268
 20
6.7845501019
 11
10.9015834268
 21
6.8618241709
  0
LINE
  5
2FA
100
AcDbEntity
  8
0
100
AcDbLine
 62
4
  6
CONTINUOUS
 10
10.9135424367
 20
7.0133351183
 11
10.9135424367
 21
7.0298938481
  0
LINE
  5
2FB
100
AcDbEntity
  8
0
100
AcDbLine
 62
4
  6
CONTINUOUS
 10
10.930101191
 20
6.6236085897
 11
10.930101191
 21
6.6788043534
  0
LINE
  5
2FC
100
AcDbEntity
  8
0
100
AcDbLine
 62
4
  6
CONTINUOUS
 10
10.946659879
 20
7.0055188393
 11
10.946659879
 21
7.0496754521
  0
LINE
  5
2FD
100
AcDbEntity
  8
0
100
AcDbLine
 62
4
  6
CONTINUOUS
 10
10.9687381739
 20
7.0591834692
 11
10.9687381739
 21
7.0095072809
  0
LINE
  5
2FE
100
AcDbEntity
  8
0
100
AcDbLine
 62
4
  6
CONTINUOUS
 10
10.9687382255
 20
6.676124866
 11
10.9687382255
 21
6.6209291023
  0
LINE
  5
2FF
100
AcDbEntity
  8
0
100
AcDbLine
 62
4
  6
CONTINUOUS
 10
10.9908165204
 20
6.6083588141
 11
10.9908165204
 21
6.6856328831
  0
LINE
  5
300
100
AcDbEntity
  8
0
100
AcDbLine
 62
4
  6
CONTINUOUS
 10
11.0018556531
 20
7.0016909994
 11
11.0018556531
 21
7.0568867642
  0
LINE
  5
301
100
AcDbEntity
  8
0
100
AcDbLine
 62
4
  6
CONTINUOUS
 10
11.023933948
 20
7.005679441
 11
11.023933948
 21
7.0774339334
  0
LINE
  5
302
100
AcDbEntity
  8
0
100
AcDbLine
 62
7
  6
CONTINUOUS
 10
9.2788278866
 20
8.6157496123
 11
8.9591814119
 21
8.6379171706
  0
LINE
  5
303
100
AcDbEntity
  8
0
100
AcDbLine
 62
7
  6
CONTINUOUS
 10
9.2788278866
 20
8.6316195785
 11
8.974510623
 21
8.6527240524
  0
LINE
  5
304
100
AcDbEntity
  8
0
100
AcDbLine
 62
4
  6
CONTINUOUS
 10
11.0294535549
 20
6.6719142436
 11
11.0294535549
 21
6.6167184799
  0
LINE
  5
305
100
AcDbEntity
  8
0
100
AcDbLine
 62
4
  6
CONTINUOUS
 10
11.0607311823
 20
6.6035102159
 11
11.0607311823
 21
6.6807842848
  0
LINE
  5
306
100
AcDbEntity
  8
0
100
AcDbLine
 62
4
  6
CONTINUOUS
 10
11.0736101299
 20
6.9967148095
 11
11.0736101299
 21
7.0519105744
  0
LINE
  5
307
100
AcDbEntity
  8
0
100
AcDbLine
 62
4
  6
CONTINUOUS
 10
11.0736101299
 20
7.0684693001
 11
11.0736101299
 21
7.0739888784
  0
LINE
  5
308
100
AcDbEntity
  8
0
100
AcDbLine
 62
4
  6
CONTINUOUS
 10
11.1030478687
 20
7.000192872
 11
11.1030478687
 21
7.0443494819
  0
LINE
  5
309
100
AcDbEntity
  8
0
100
AcDbLine
 62
4
  6
CONTINUOUS
 10
11.1527240875
 20
7.0243456964
 11
11.1527240875
 21
7.0409044244
  0
LINE
  5
30A
100
AcDbEntity
  8
0
100
AcDbLine
 62
4
  6
CONTINUOUS
 10
11.185841493
 20
6.9944511146
 11
11.185841493
 21
7.0110098444
  0
LINE
  5
30B
100
AcDbEntity
  8
0
100
AcDbLine
 62
4
  6
CONTINUOUS
 10
10.7746331621
 20
6.7933541327
 11
10.7911918925
 21
6.8694798498
  0
LINE
  5
30C
100
AcDbEntity
  8
0
100
AcDbLine
 62
4
  6
CONTINUOUS
 10
10.6173252025
 20
6.634260525
 11
10.6394035066
 21
6.7100034584
  0
LINE
  5
30D
100
AcDbEntity
  8
0
100
AcDbLine
 62
4
  6
CONTINUOUS
 10
10.771873298
 20
6.999241742
 11
10.7939515929
 21
7.0713049598
  0
LINE
  5
30E
100
AcDbEntity
  8
0
100
AcDbLine
 62
7
  6
CONTINUOUS
 10
12.6595684789
 20
9.8231429095
 11
13.1772061419
 21
10.3231425265
  0
LINE
  5
30F
100
AcDbEntity
  8
0
100
AcDbLine
 62
4
  6
CONTINUOUS
 10
10.3002945166
 20
9.7839146859
 11
10.2858056287
 21
9.8042380098
  0
LINE
  5
310
100
AcDbEntity
  8
0
100
AcDbLine
 62
4
  6
CONTINUOUS
 10
10.2930500726
 20
9.842372645
 11
10.2858056287
 21
9.8525343052
  0
LINE
  5
311
100
AcDbEntity
  8
0
100
AcDbLine
 62
4
  6
CONTINUOUS
 10
11.5366795655
 20
6.7424378832
 11
11.5294351215
 21
6.771918063
  0
LINE
  5
312
100
AcDbEntity
  8
0
100
AcDbLine
 62
4
  6
CONTINUOUS
 10
10.7415157048
 20
6.7956508361
 11
10.7580744341
 21
6.8496982492
  0
LINE
  5
313
100
AcDbEntity
  8
0
100
AcDbLine
 62
4
  6
CONTINUOUS
 10
11.6018795611
 20
6.766894024
 11
11.6018795611
 21
6.7282569901
  0
LINE
  5
314
100
AcDbEntity
  8
0
100
AcDbLine
 62
4
  6
CONTINUOUS
 10
11.0754499817
 20
7.0738612843
 11
11.0736101299
 21
7.0684693001
  0
LINE
  5
315
100
AcDbEntity
  8
0
100
AcDbLine
 62
4
  6
CONTINUOUS
 10
9.4478649129
 20
9.0799494619
 11
9.4913315766
 21
9.0769350385
  0
LINE
  5
316
100
AcDbEntity
  8
0
100
AcDbLine
 62
4
  6
CONTINUOUS
 10
11.6622500683
 20
9.7570775591
 11
11.6622500683
 21
9.6411664557
  0
LINE
  5
317
100
AcDbEntity
  8
0
100
AcDbLine
 62
4
  6
CONTINUOUS
 10
10.4627770222
 20
7.1053111463
 11
10.4738161754
 21
7.1155847305
  0
LINE
  5
318
100
AcDbEntity
  8
0
100
AcDbLine
 62
4
  6
CONTINUOUS
 10
10.4903749046
 20
7.0371623097
 11
10.5014140567
 21
7.0474358952
  0
LINE
  5
319
100
AcDbEntity
  8
0
100
AcDbLine
 62
4
  6
CONTINUOUS
 10
10.5510902478
 20
7.0329516864
 11
10.5621293953
 21
7.0432252721
  0
LINE
  5
31A
100
AcDbEntity
  8
0
100
AcDbLine
 62
4
  6
CONTINUOUS
 10
11.5294351215
 20
6.771918063
 11
11.5366795655
 21
6.8003934349
  0
LINE
  5
31B
100
AcDbEntity
  8
0
100
AcDbLine
 62
4
  6
CONTINUOUS
 10
10.5860476027
 20
6.6474687871
 11
10.5750084506
 21
6.6371952017
  0
LINE
  5
31C
100
AcDbEntity
  8
0
100
AcDbLine
 62
4
  6
CONTINUOUS
 10
11.1030478687
 20
7.0443494819
 11
11.108567424
 21
7.0494862778
  0
LINE
  5
31D
100
AcDbEntity
  8
0
100
AcDbLine
 62
4
  6
CONTINUOUS
 10
10.8463876528
 20
6.7883779418
 11
10.8574268094
 21
6.7986515269
  0
LINE
  5
31E
100
AcDbEntity
  8
0
100
AcDbLine
 62
4
  6
CONTINUOUS
 10
11.1527240875
 20
7.0409044244
 11
11.1582436428
 21
7.0460412203
  0
LINE
  5
31F
100
AcDbEntity
  8
0
100
AcDbLine
 62
4
  6
CONTINUOUS
 10
10.2350945209
 20
9.740140029
 11
10.2858056287
 21
9.7366232018
  0
LINE
  5
320
100
AcDbEntity
  8
0
100
AcDbLine
 62
4
  6
CONTINUOUS
 10
11.1803219377
 20
6.9893143205
 11
11.185841493
 21
6.9944511146
  0
LINE
  5
321
100
AcDbEntity
  8
0
100
AcDbLine
 62
4
  6
CONTINUOUS
 10
10.8657061581
 20
6.6832701641
 11
10.8767453056
 21
6.6935437487
  0
LINE
  5
322
100
AcDbEntity
  8
0
100
AcDbLine
 62
4
  6
CONTINUOUS
 10
10.930101191
 20
6.6788043534
 11
10.9411403385
 21
6.689077938
  0
LINE
  5
323
100
AcDbEntity
  8
0
100
AcDbLine
 62
4
  6
CONTINUOUS
 10
10.9687382255
 20
6.6209291023
 11
10.9576990781
 21
6.6106555166
  0
LINE
  5
324
100
AcDbEntity
  8
0
100
AcDbLine
 62
4
  6
CONTINUOUS
 10
11.0294535549
 20
6.6167184799
 11
11.0184144074
 21
6.6064448942
  0
LINE
  5
325
100
AcDbEntity
  8
0
100
AcDbLine
 62
4
  6
CONTINUOUS
 10
10.8086704807
 20
7.0647646231
 11
10.8197096282
 21
7.069518634
  0
LINE
  5
326
100
AcDbEntity
  8
0
100
AcDbLine
 62
4
  6
CONTINUOUS
 10
10.9135424367
 20
7.0298938481
 11
10.9245815842
 21
7.0346478567
  0
LINE
  5
327
100
AcDbEntity
  8
0
100
AcDbLine
 62
4
  6
CONTINUOUS
 10
10.2350945209
 20
9.8077548371
 11
10.2858056287
 21
9.8042380098
  0
LINE
  5
328
100
AcDbEntity
  8
0
100
AcDbLine
 62
4
  6
CONTINUOUS
 10
10.2858056287
 20
9.8525343052
 11
10.2350945209
 21
9.8560511325
  0
LINE
  5
329
100
AcDbEntity
  8
0
100
AcDbLine
 62
4
  6
CONTINUOUS
 10
11.6260278485
 20
9.7595895786
 11
11.6984722881
 21
9.7545655396
  0
LINE
  5
32A
100
AcDbEntity
  8
0
100
AcDbLine
 62
4
  6
CONTINUOUS
 10
11.5366795655
 20
6.8003934349
 11
11.5511684534
 21
6.8187071467
  0
LINE
  5
32B
100
AcDbEntity
  8
0
100
AcDbLine
 62
4
  6
CONTINUOUS
 10
11.6018795611
 20
6.7282569901
 11
11.5946351172
 21
6.7191001351
  0
LINE
  5
32C
100
AcDbEntity
  8
0
100
AcDbLine
 62
4
  6
CONTINUOUS
 10
10.5326917011
 20
6.6879662084
 11
10.50325396
 21
6.675288851
  0
LINE
  5
32D
100
AcDbEntity
  8
0
100
AcDbLine
 62
7
  6
CONTINUOUS
 10
9.2788278866
 20
10.0575980659
 11
12.6595684789
 21
9.8231429095
  0
LINE
  5
32E
100
AcDbEntity
  8
0
100
AcDbLine
 62
7
  6
CONTINUOUS
 10
12.6595684789
 20
9.8231429095
 11
12.6595684789
 21
6.4424023171
  0
LINE
  5
32F
100
AcDbEntity
  8
0
100
AcDbLine
 62
4
  6
CONTINUOUS
 10
11.5511684534
 20
6.8187071467
 11
11.5656573413
 21
6.8273615952
  0
LINE
  5
330
100
AcDbEntity
  8
0
100
AcDbLine
 62
4
  6
CONTINUOUS
 10
11.1453646583
 20
6.6307583228
 11
11.1159269195
 21
6.6180809664
  0
LINE
  5
331
100
AcDbEntity
  8
0
100
AcDbLine
 62
4
  6
CONTINUOUS
 10
11.5946351172
 20
6.7191001351
 11
11.5801462292
 21
6.710445684
  0
LINE
  5
332
100
AcDbEntity
  8
0
100
AcDbLine
 62
7
  6
CONTINUOUS
 10
9.7964655496
 20
10.5575976829
 11
13.1772061419
 21
10.3231425265
  0
LINE
  5
333
100
AcDbEntity
  8
0
100
AcDbLine
 62
7
  6
CONTINUOUS
 10
13.1772061419
 20
10.3231425265
 11
13.1772061419
 21
6.9424019341
  0
LINE
  5
334
100
AcDbEntity
  8
0
100
AcDbLine
 62
7
  6
CONTINUOUS
 10
12.6595684789
 20
6.4424023171
 11
13.1772061419
 21
6.9424019341
  0
ARC
  5
335
100
AcDbEntity
  8
0
100
AcDbCircle
 62
7
  6
CONTINUOUS
 10
11.0827815537
 20
8.0321027272
 40
1.8212095964
100
AcDbArc
 50
172.1086598405
 51
173.2467608658
  0
ARC
  5
336
100
AcDbEntity
  8
0
100
AcDbCircle
 62
7
  6
CONTINUOUS
 10
10.6258543149
 20
8.0658991886
 40
1.7845894632
100
AcDbArc
 50
171.4122169565
 51
173.2571553889
  0
ARC
  5
337
100
AcDbEntity
  8
0
100
AcDbCircle
 62
7
  6
CONTINUOUS
 10
10.1560276765
 20
8.0829780481
 40
0.9075929639
100
AcDbArc
 50
350.4904910188
 51
351.6173586902
  0
ARC
  5
338
100
AcDbEntity
  8
0
100
AcDbCircle
 62
7
  6
CONTINUOUS
 10
8.5299996769
 20
7.9237687191
 40
0.8110794027
100
AcDbArc
 50
22.55794781
 51
23.4290998268
  0
ARC
  5
339
100
AcDbEntity
  8
0
100
AcDbCircle
 62
7
  6
CONTINUOUS
 10
10.2407643889
 20
8.0778974306
 40
0.8015486446
100
AcDbArc
 50
350.777096887
 51
351.3286657882
  0
ARC
  5
33A
100
AcDbEntity
  8
0
100
AcDbCircle
 62
7
  6
CONTINUOUS
 10
10.0374371917
 20
7.9409173519
 40
0.7720812649
100
AcDbArc
 50
188.6844208466
 51
190.7152337099
  0
ARC
  5
33B
100
AcDbEntity
  8
0
100
AcDbCircle
 62
7
  6
CONTINUOUS
 10
8.63631844
 20
8.1183778212
 40
0.7023970376
100
AcDbArc
 50
335.2524043549
 51
336.2084171917
  0
ARC
  5
33C
100
AcDbEntity
  8
0
100
AcDbCircle
 62
7
  6
CONTINUOUS
 10
9.4462237154
 20
8.2855030372
 40
0.6006871885
100
AcDbArc
 50
149.3967358243
 51
152.5192948323
  0
SPLINE
  5
33D
100
AcDbEntity
  8
0
100
AcDbSpline
 62
7
  6
CONTINUOUS
 70
0
 71
3
 72
9
 73
5
 74
0
 42
0.0000001
 43
0.0000001
 44
0.0000000001
 40
0.0
 40
0.0
 40
0.0
 40
0.0
 40
0.5138686136
 40
1.0
 40
1.0
 40
1.0
 40
1.0
 10
8.9591814119
 20
8.6379171706
 30
0.0
 10
8.9604229751
 20
8.6393975538
 30
0.0
 10
8.9629049966
 20
8.6422240165
 30
0.0
 10
8.9655313557
 20
8.6449176907
 30
0.0
 10
8.9668460174
 20
8.6461875565
 30
0.0
  0
SPLINE
  5
33E
100
AcDbEntity
  8
0
100
AcDbSpline
 62
7
  6
CONTINUOUS
 70
0
 71
3
 72
9
 73
5
 74
0
 42
0.0000001
 43
0.0000001
 44
0.0000000001
 40
0.0
 40
0.0
 40
0.0
 40
0.0
 40
0.5141854272
 40
1.0
 40
1.0
 40
1.0
 40
1.0
 10
8.9668460174
 20
8.6461875565
 30
0.0
 10
8.9680884915
 20
8.6473876944
 30
0.0
 10
8.9705717203
 20
8.6496539288
 30
0.0
 10
8.9731983311
 20
8.6517536158
 30
0.0
 10
8.974510623
 20
8.6527240524
 30
0.0
  0
SPLINE
  5
33F
100
AcDbEntity
  8
0
100
AcDbSpline
 62
7
  6
CONTINUOUS
 70
0
 71
3
 72
23
 73
19
 74
0
 42
0.0000001
 43
0.0000001
 44
0.0000000001
 40
0.0
 40
0.0
 40
0.0
 40
0.0
 40
0.0812642142
 40
0.1604367687
 40
0.2373793558
 40
0.3119593014
 40
0.3840520109
 40
0.4535453788
 40
0.5203417163
 40
0.5843706334
 40
0.645586596
 40
0.7039844815
 40
0.7595931104
 40
0.8124909527
 40
0.8627952516
 40
0.9106732401
 40
0.9563275844
 40
1.0
 40
1.0
 40
1.0
 40
1.0
 10
8.9591814119
 20
7.6949755466
 30
0.0
 10
8.9562124062
 20
7.6967556759
 30
0.0
 10
8.9503755261
 20
7.7003115915
 30
0.0
 10
8.9418247844
 20
7.7057105808
 30
0.0
 10
8.9336104155
 20
7.7111062332
 30
0.0
 10
8.9257552439
 20
7.7164960872
 30
0.0
 10
8.9182820889
 20
7.7218778909
 30
0.0
 10
8.9112127443
 20
7.7272484184
 30
0.0
 10
8.9045684209
 20
7.7326050798
 30
0.0
 10
8.8983678064
 20
7.7379439389
 30
0.0
 10
8.8926280659
 20
7.7432622787
 30
0.0
 10
8.8873622819
 20
7.7485558334
 30
0.0
 10
8.8825813236
 20
7.7538220106
 30
0.0
 10
8.8782907595
 20
7.7590566935
 30
0.0
 10
8.8744936599
 20
7.7642575831
 30
0.0
 10
8.8711872996
 20
7.7694212482
 30
0.0
 10
8.8683667278
 20
7.7745453534
 30
0.0
 10
8.8667707625
 20
7.7780041296
 30
0.0
 10
8.8660562233
 20
7.7797218371
 30
0.0
  0
SPLINE
  5
340
100
AcDbEntity
  8
0
100
AcDbSpline
 62
7
  6
CONTINUOUS
 70
0
 71
3
 72
9
 73
5
 74
0
 42
0.0000001
 43
0.0000001
 44
0.0000000001
 40
0.0
 40
0.0
 40
0.0
 40
0.0
 40
0.4968425107
 40
1.0
 40
1.0
 40
1.0
 40
1.0
 10
8.9292044281
 20
8.5913071494
 30
0.0
 10
8.9338695755
 20
8.5992128029
 30
0.0
 10
8.9435924765
 20
8.6149295842
 30
0.0
 10
8.9538828833
 20
8.6302788353
 30
0.0
 10
8.9591814119
 20
8.6379171706
 30
0.0
  0
SPLINE
  5
341
100
AcDbEntity
  8
0
100
AcDbSpline
 62
7
  6
CONTINUOUS
 70
0
 71
3
 72
47
 73
43
 74
0
 42
0.0000001
 43
0.0000001
 44
0.0000000001
 40
0.0
 40
0.0
 40
0.0
 40
0.0
 40
0.0097388988
 40
0.0199690999
 40
0.0306877595
 40
0.0418897802
 40
0.053568575
 40
0.0657165706
 40
0.0783244499
 40
0.0913819108
 40
0.1187992554
 40
0.1478685952
 40
0.1784762382
 40
0.2104976166
 40
0.2437982593
 40
0.2782356433
 40
0.3136603381
 40
0.3499166979
 40
0.3868442246
 40
0.4242786017
 40
0.4620524679
 40
0.4999965843
 40
0.5379407604
 40
0.5757147107
 40
0.6131492265
 40
0.6500770032
 40
0.6863335875
 40
0.7217585958
 40
0.7561964584
 40
0.7894974661
 40
0.8215192636
 40
0.8521275775
 40
0.8811974396
 40
0.9086153033
 40
0.9216731908
 40
0.9342814277
 40
0.9464295779
 40
0.9581088402
 40
0.9693112683
 40
0.9800301928
 40
0.9902609016
 40
1.0
 40
1.0
 40
1.0
 40
1.0
 10
8.8593755629
 20
7.7957727323
 30
0.0
 10
8.8583980958
 20
7.7981211466
 30
0.0
 10
8.8564789178
 20
7.8029721858
 30
0.0
 10
8.8537634899
 20
7.8105147499
 30
0.0
 10
8.851143782
 20
7.8184943032
 30
0.0
 10
8.8486227834
 20
7.8269012316
 30
0.0
 10
8.8462034286
 20
7.8357256037
 30
0.0
 10
8.8438888915
 20
7.8449569904
 30
0.0
 10
8.8416817051
 20
7.8545843805
 30
0.0
 10
8.8388392429
 20
7.868155322
 30
0.0
 10
8.8355933052
 20
7.8860310564
 30
0.0
 10
8.832224851
 20
7.9085317018
 30
0.0
 10
8.8293392504
 20
7.9323109196
 30
0.0
 10
8.8269507376
 20
7.9572552582
 30
0.0
 10
8.8250709598
 20
7.9832458443
 30
0.0
 10
8.8237091485
 20
8.0101585934
 30
0.0
 10
8.8228721803
 20
8.037864987
 30
0.0
 10
8.8225641465
 20
8.0662326288
 30
0.0
 10
8.8227865962
 20
8.0951259091
 30
0.0
 10
8.8235386937
 20
8.1244066846
 30
0.0
 10
8.8248168737
 20
8.1539349495
 30
0.0
 10
8.8266149752
 20
8.1835695003
 30
0.0
 10
8.8289245156
 20
8.2131686072
 30
0.0
 10
8.8317344485
 20
8.2425907217
 30
0.0
 10
8.8350311822
 20
8.2716951578
 30
0.0
 10
8.8387989593
 20
8.3003427453
 30
0.0
 10
8.8430197268
 20
8.3283965295
 30
0.0
 10
8.847673041
 20
8.3557224529
 30
0.0
 10
8.852736531
 20
8.3821899418
 30
0.0
 10
8.85818589
 20
8.4076725997
 30
0.0
 10
8.8639946882
 20
8.4320488557
 30
0.0
 10
8.8701348514
 20
8.4552026124
 30
0.0
 10
8.8765769089
 20
8.477023379
 30
0.0
 10
8.8822592702
 20
8.4942803382
 30
0.0
 10
8.8869476869
 20
8.5073294074
 30
0.0
 10
8.8904625752
 20
8.5165602654
 30
0.0
 10
8.8940293177
 20
8.5253840284
 30
0.0
 10
8.8976434644
 20
8.5337903151
 30
0.0
 10
8.9013007526
 20
8.541769124
 30
0.0
 10
8.9049970025
 20
8.5493109432
 30
0.0
 10
8.908727443
 20
8.5564068343
 30
0.0
 10
8.9112978113
 20
8.5609467656
 30
0.0
 10
8.9125900753
 20
8.5631378408
 30
0.0
  0
SPLINE
  5
342
100
AcDbEntity
  8
0
100
AcDbSpline
 62
7
  6
CONTINUOUS
 70
0
 71
3
 72
9
 73
5
 74
0
 42
0.0000001
 43
0.0000001
 44
0.0000000001
 40
0.0
 40
0.0
 40
0.0
 40
0.0
 40
0.4864229748
 40
1.0
 40
1.0
 40
1.0
 40
1.0
 10
8.8612732343
 20
7.8113664931
 30
0.0
 10
8.8598214622
 20
7.8181587466
 30
0.0
 10
8.8570691547
 20
7.8321726917
 30
0.0
 10
8.8547220109
 20
7.8462594906
 30
0.0
 10
8.8536086288
 20
7.8535078853
 30
0.0
  0
SPLINE
  5
343
100
AcDbEntity
  8
0
100
AcDbSpline
 62
7
  6
CONTINUOUS
 70
0
 71
3
 72
21
 73
17
 74
0
 42
0.0000001
 43
0.0000001
 44
0.0000000001
 40
0.0
 40
0.0
 40
0.0
 40
0.0
 40
0.1268939481
 40
0.19018282
 40
0.253348645
 40
0.3163802526
 40
0.3792680625
 40
0.4420048434
 40
0.5045854769
 40
0.5670083659
 40
0.6292751195
 40
0.6913901909
 40
0.7533613917
 40
0.8151980596
 40
0.8769105574
 40
1.0
 40
1.0
 40
1.0
 40
1.0
 10
8.8536086288
 20
7.8535078853
 30
0.0
 10
8.8491737569
 20
7.8710138469
 30
0.0
 10
8.843125438
 20
7.897411004
 30
0.0
 10
8.8365227008
 20
7.9328606279
 30
0.0
 10
8.8323711229
 20
7.9595104782
 30
0.0
 10
8.8290730403
 20
7.9862221337
 30
0.0
 10
8.8266773663
 20
8.0129690584
 30
0.0
 10
8.8252232176
 20
8.0397197532
 30
0.0
 10
8.8247350467
 20
8.0664395433
 30
0.0
 10
8.8252207739
 20
8.0930925205
 30
0.0
 10
8.8266726676
 20
8.1196438593
 30
0.0
 10
8.8290664422
 20
8.1460620564
 30
0.0
 10
8.8323630548
 20
8.1723206241
 30
0.0
 10
8.8365136688
 20
8.1983995713
 30
0.0
 10
8.8431040665
 20
8.2328799874
 30
0.0
 10
8.8491599955
 20
8.2584906095
 30
0.0
 10
8.8536086288
 20
8.2754338642
 30
0.0
  0
SPLINE
  5
344
100
AcDbEntity
  8
0
100
AcDbSpline
 62
7
  6
CONTINUOUS
 70
0
 71
3
 72
15
 73
11
 74
0
 42
0.0000001
 43
0.0000001
 44
0.0000000001
 40
0.0
 40
0.0
 40
0.0
 40
0.0
 40
0.1202033586
 40
0.2411237877
 40
0.3630761606
 40
0.4864191332
 40
0.6115170187
 40
0.7386874239
 40
0.8681506591
 40
1.0
 40
1.0
 40
1.0
 40
1.0
 10
8.8612732343
 20
8.3323821382
 30
0.0
 10
8.8609404186
 20
8.3419486946
 30
0.0
 10
8.8607606302
 20
8.3611604802
 30
0.0
 10
8.8621471316
 20
8.3900576333
 30
0.0
 10
8.8653886475
 20
8.4190618176
 30
0.0
 10
8.8706562081
 20
8.4481080746
 30
0.0
 10
8.8780661825
 20
8.4771133577
 30
0.0
 10
8.8876587915
 20
8.5059853331
 30
0.0
 10
8.8993889041
 20
8.5346350435
 30
0.0
 10
8.9084723597
 20
8.5533733755
 30
0.0
 10
8.9133142965
 20
8.5626900675
 30
0.0
  0
SPLINE
  5
345
100
AcDbEntity
  8
0
100
AcDbSpline
 62
7
  6
CONTINUOUS
 70
0
 71
3
 72
15
 73
11
 74
0
 42
0.0000001
 43
0.0000001
 44
0.0000000001
 40
0.0
 40
0.0
 40
0.0
 40
0.0
 40
0.134433651
 40
0.2650220305
 40
0.3923609619
 40
0.5170369985
 40
0.6396244895
 40
0.7606602864
 40
0.8806378742
 40
1.0
 40
1.0
 40
1.0
 40
1.0
 10
8.8660562233
 20
7.7797218371
 30
0.0
 10
8.8654996685
 20
7.7810597601
 30
0.0
 10
8.8644806432
 20
7.7837307728
 30
0.0
 10
8.8632209775
 20
7.787770889
 30
0.0
 10
8.8622446856
 20
7.7917806753
 30
0.0
 10
8.8615419048
 20
7.795759689
 30
0.0
 10
8.861101232
 20
7.7997077275
 30
0.0
 10
8.8609113341
 20
7.8036249322
 30
0.0
 10
8.8609605251
 20
7.8075113588
 30
0.0
 10
8.8611451264
 20
7.8100862778
 30
0.0
 10
8.8612732343
 20
7.8113664931
 30
0.0
  0
SPLINE
  5
346
100
AcDbEntity
  8
0
100
AcDbSpline
 62
7
  6
CONTINUOUS
 70
0
 71
3
 72
41
 73
37
 74
0
 42
0.0000001
 43
0.0000001
 44
0.0000000001
 40
0.0
 40
0.0
 40
0.0
 40
0.0
 40
0.0311444983
 40
0.062442467
 40
0.093887251
 40
0.1254695609
 40
0.157177086
 40
0.1889950997
 40
0.2209066479
 40
0.2528929497
 40
0.284933762
 40
0.3170077852
 40
0.3490930781
 40
0.3811674822
 40
0.4132090489
 40
0.445196464
 40
0.4771094635
 40
0.5089292351
 40
0.540638799
 40
0.5722233621
 40
0.6036706378
 40
0.6349711269
 40
0.6661183495
 40
0.6971090237
 40
0.7279431823
 40
0.7586242225
 40
0.7891588828
 40
0.8195571428
 40
0.8498320452
 40
0.86493089
 40
0.8800050502
 40
0.9100832578
 40
0.9400926753
 40
0.9550812784
 40
0.9700610371
 40
1.0
 40
1.0
 40
1.0
 40
1.0
 10
9.5995152677
 20
7.1110176959
 30
0.0
 10
9.6028292153
 20
7.1107878728
 30
0.0
 10
9.6094590833
 20
7.1100845201
 30
0.0
 10
9.6193235001
 20
7.108312789
 30
0.0
 10
9.6290822746
 20
7.1058310858
 30
0.0
 10
9.6386826682
 20
7.1026528107
 30
0.0
 10
9.648073703
 20
7.0987949643
 30
0.0
 10
9.657205278
 20
7.0942781985
 30
0.0
 10
9.6660287492
 20
7.0891266445
 30
0.0
 10
9.6744971002
 20
7.0833678102
 30
0.0
 10
9.6825652119
 20
7.0770324237
 30
0.0
 10
9.6901900943
 20
7.0701542744
 30
0.0
 10
9.6973311145
 20
7.0627700326
 30
0.0
 10
9.7039502105
 20
7.0549190569
 30
0.0
 10
9.7100120925
 20
7.0466431858
 30
0.0
 10
9.7154844291
 20
7.0379865172
 30
0.0
 10
9.7203380181
 20
7.0289951762
 30
0.0
 10
9.7245469418
 20
7.019717072
 30
0.0
 10
9.728088704
 20
7.0102016456
 30
0.0
 10
9.7309443508
 20
7.0004996103
 30
0.0
 10
9.7330985718
 20
6.9906626844
 30
0.0
 10
9.7345397836
 20
6.9807433198
 30
0.0
 10
9.7352601941
 20
6.9707944251
 30
0.0
 10
9.7352558482
 20
6.9608690896
 30
0.0
 10
9.7345266487
 20
6.9510202931
 30
0.0
 10
9.7330763815
 20
6.9413006629
 30
0.0
 10
9.7309126289
 20
6.9317620526
 30
0.0
 10
9.7280470049
 20
6.92245579
 30
0.0
 10
9.7250834548
 20
6.9149275671
 30
0.0
 10
9.7223790715
 20
6.9090732006
 30
0.0
 10
9.7194604995
 20
6.9033461341
 30
0.0
 10
9.7154082402
 20
6.8964189371
 30
0.0
 10
9.7108347798
 20
6.8898352575
 30
0.0
 10
9.706882642
 20
6.8848028484
 30
0.0
 10
9.7027419614
 20
6.8799347036
 30
0.0
 10
9.6994245652
 20
6.8764689829
 30
0.0
 10
9.6971277603
 20
6.8742504245
 30
0.0
  0
SPLINE
  5
347
100
AcDbEntity
  8
0
100
AcDbSpline
 62
7
  6
CONTINUOUS
 70
0
 71
3
 72
41
 73
37
 74
0
 42
0.0000001
 43
0.0000001
 44
0.0000000001
 40
0.0
 40
0.0
 40
0.0
 40
0.0
 40
0.0311444983
 40
0.062442467
 40
0.093887251
 40
0.1254695609
 40
0.157177086
 40
0.1889950997
 40
0.2209066479
 40
0.2528929497
 40
0.284933762
 40
0.3170077852
 40
0.3490930781
 40
0.3811674822
 40
0.4132090489
 40
0.445196464
 40
0.4771094635
 40
0.5089292351
 40
0.540638799
 40
0.5722233621
 40
0.6036706378
 40
0.6349711269
 40
0.6661183495
 40
0.6971090237
 40
0.7279431823
 40
0.7586242225
 40
0.7891588828
 40
0.8195571428
 40
0.8498320452
 40
0.86493089
 40
0.8800050502
 40
0.9100832578
 40
0.9400926753
 40
0.9550812784
 40
0.9700610371
 40
1.0
 40
1.0
 40
1.0
 40
1.0
 10
12.338881069
 20
6.9210420323
 30
0.0
 10
12.3421950165
 20
6.9208122093
 30
0.0
 10
12.3488248845
 20
6.9201088565
 30
0.0
 10
12.3586893014
 20
6.9183371255
 30
0.0
 10
12.3684480759
 20
6.9158554222
 30
0.0
 10
12.3780484695
 20
6.9126771472
 30
0.0
 10
12.3874395043
 20
6.9088193008
 30
0.0
 10
12.3965710793
 20
6.904302535
 30
0.0
 10
12.4053945505
 20
6.8991509809
 30
0.0
 10
12.4138629015
 20
6.8933921467
 30
0.0
 10
12.4219310132
 20
6.8870567602
 30
0.0
 10
12.4295558956
 20
6.8801786108
 30
0.0
 10
12.4366969157
 20
6.872794369
 30
0.0
 10
12.4433160118
 20
6.8649433933
 30
0.0
 10
12.4493778938
 20
6.8566675222
 30
0.0
 10
12.4548502304
 20
6.8480108536
 30
0.0
 10
12.4597038194
 20
6.8390195126
 30
0.0
 10
12.4639127431
 20
6.8297414084
 30
0.0
 10
12.4674545053
 20
6.8202259821
 30
0.0
 10
12.4703101521
 20
6.8105239468
 30
0.0
 10
12.4724643731
 20
6.8006870209
 30
0.0
 10
12.4739055849
 20
6.7907676563
 30
0.0
 10
12.4746259954
 20
6.7808187615
 30
0.0
 10
12.4746216495
 20
6.770893426
 30
0.0
 10
12.47389245
 20
6.7610446295
 30
0.0
 10
12.4724421828
 20
6.7513249993
 30
0.0
 10
12.4702784302
 20
6.7417863891
 30
0.0
 10
12.4674128061
 20
6.7324801264
 30
0.0
 10
12.4644492561
 20
6.7249519036
 30
0.0
 10
12.4617448728
 20
6.7190975371
 30
0.0
 10
12.4588263007
 20
6.7133704706
 30
0.0
 10
12.4547740415
 20
6.7064432735
 30
0.0
 10
12.4502005811
 20
6.699859594
 30
0.0
 10
12.4462484433
 20
6.6948271848
 30
0.0
 10
12.4421077627
 20
6.68995904
 30
0.0
 10
12.4387903665
 20
6.6864933193
 30
0.0
 10
12.4364935616
 20
6.6842747609
 30
0.0
  0
SPLINE
  5
348
100
AcDbEntity
  8
0
100
AcDbSpline
 62
7
  6
CONTINUOUS
 70
0
 71
3
 72
41
 73
37
 74
0
 42
0.0000001
 43
0.0000001
 44
0.0000000001
 40
0.0
 40
0.0
 40
0.0
 40
0.0
 40
0.0311444983
 40
0.062442467
 40
0.093887251
 40
0.1254695609
 40
0.157177086
 40
0.1889950997
 40
0.2209066479
 40
0.2528929497
 40
0.284933762
 40
0.3170077852
 40
0.3490930781
 40
0.3811674822
 40
0.4132090489
 40
0.445196464
 40
0.4771094635
 40
0.5089292351
 40
0.540638799
 40
0.5722233621
 40
0.6036706378
 40
0.6349711269
 40
0.6661183495
 40
0.6971090237
 40
0.7279431823
 40
0.7586242225
 40
0.7891588828
 40
0.8195571428
 40
0.8498320452
 40
0.86493089
 40
0.8800050502
 40
0.9100832578
 40
0.9400926753
 40
0.9550812784
 40
0.9700610371
 40
1.0
 40
1.0
 40
1.0
 40
1.0
 10
12.338881069
 20
9.6604078336
 30
0.0
 10
12.3421950165
 20
9.6601780106
 30
0.0
 10
12.3488248845
 20
9.6594746578
 30
0.0
 10
12.3586893014
 20
9.6577029268
 30
0.0
 10
12.3684480759
 20
9.6552212235
 30
0.0
 10
12.3780484695
 20
9.6520429484
 30
0.0
 10
12.3874395043
 20
9.648185102
 30
0.0
 10
12.3965710793
 20
9.6436683362
 30
0.0
 10
12.4053945505
 20
9.6385167822
 30
0.0
 10
12.4138629015
 20
9.632757948
 30
0.0
 10
12.4219310132
 20
9.6264225615
 30
0.0
 10
12.4295558956
 20
9.6195444121
 30
0.0
 10
12.4366969157
 20
9.6121601703
 30
0.0
 10
12.4433160118
 20
9.6043091946
 30
0.0
 10
12.4493778938
 20
9.5960333235
 30
0.0
 10
12.4548502304
 20
9.5873766549
 30
0.0
 10
12.4597038194
 20
9.5783853139
 30
0.0
 10
12.4639127431
 20
9.5691072097
 30
0.0
 10
12.4674545053
 20
9.5595917834
 30
0.0
 10
12.4703101521
 20
9.5498897481
 30
0.0
 10
12.4724643731
 20
9.5400528222
 30
0.0
 10
12.4739055849
 20
9.5301334576
 30
0.0
 10
12.4746259954
 20
9.5201845628
 30
0.0
 10
12.4746216495
 20
9.5102592273
 30
0.0
 10
12.47389245
 20
9.5004104308
 30
0.0
 10
12.4724421828
 20
9.4906908006
 30
0.0
 10
12.4702784302
 20
9.4811521903
 30
0.0
 10
12.4674128061
 20
9.4718459277
 30
0.0
 10
12.4644492561
 20
9.4643177049
 30
0.0
 10
12.4617448728
 20
9.4584633384
 30
0.0
 10
12.4588263007
 20
9.4527362719
 30
0.0
 10
12.4547740415
 20
9.4458090748
 30
0.0
 10
12.4502005811
 20
9.4392253953
 30
0.0
 10
12.4462484433
 20
9.4341929861
 30
0.0
 10
12.4421077627
 20
9.4293248413
 30
0.0
 10
12.4387903665
 20
9.4258591206
 30
0.0
 10
12.4364935616
 20
9.4236405622
 30
0.0
  0
SPLINE
  5
349
100
AcDbEntity
  8
0
100
AcDbSpline
 62
7
  6
CONTINUOUS
 70
0
 71
3
 72
41
 73
37
 74
0
 42
0.0000001
 43
0.0000001
 44
0.0000000001
 40
0.0
 40
0.0
 40
0.0
 40
0.0
 40
0.0311444983
 40
0.062442467
 40
0.093887251
 40
0.1254695609
 40
0.157177086
 40
0.1889950997
 40
0.2209066479
 40
0.2528929497
 40
0.284933762
 40
0.3170077852
 40
0.3490930781
 40
0.3811674822
 40
0.4132090489
 40
0.445196464
 40
0.4771094635
 40
0.5089292351
 40
0.540638799
 40
0.5722233621
 40
0.6036706378
 40
0.6349711269
 40
0.6661183495
 40
0.6971090237
 40
0.7279431823
 40
0.7586242225
 40
0.7891588828
 40
0.8195571428
 40
0.8498320452
 40
0.86493089
 40
0.8800050502
 40
0.9100832578
 40
0.9400926753
 40
0.9550812784
 40
0.9700610371
 40
1.0
 40
1.0
 40
1.0
 40
1.0
 10
9.5995152677
 20
9.8503834972
 30
0.0
 10
9.6028292153
 20
9.8501536741
 30
0.0
 10
9.6094590833
 20
9.8494503214
 30
0.0
 10
9.6193235001
 20
9.8476785903
 30
0.0
 10
9.6290822746
 20
9.845196887
 30
0.0
 10
9.6386826682
 20
9.842018612
 30
0.0
 10
9.648073703
 20
9.8381607656
 30
0.0
 10
9.657205278
 20
9.8336439998
 30
0.0
 10
9.6660287492
 20
9.8284924458
 30
0.0
 10
9.6744971002
 20
9.8227336115
 30
0.0
 10
9.6825652119
 20
9.816398225
 30
0.0
 10
9.6901900943
 20
9.8095200757
 30
0.0
 10
9.6973311145
 20
9.8021358339
 30
0.0
 10
9.7039502105
 20
9.7942848582
 30
0.0
 10
9.7100120925
 20
9.7860089871
 30
0.0
 10
9.7154844291
 20
9.7773523185
 30
0.0
 10
9.7203380181
 20
9.7683609775
 30
0.0
 10
9.7245469418
 20
9.7590828733
 30
0.0
 10
9.728088704
 20
9.7495674469
 30
0.0
 10
9.7309443508
 20
9.7398654116
 30
0.0
 10
9.7330985718
 20
9.7300284857
 30
0.0
 10
9.7345397836
 20
9.7201091211
 30
0.0
 10
9.7352601941
 20
9.7101602264
 30
0.0
 10
9.7352558482
 20
9.7002348909
 30
0.0
 10
9.7345266487
 20
9.6903860943
 30
0.0
 10
9.7330763815
 20
9.6806664642
 30
0.0
 10
9.7309126289
 20
9.6711278539
 30
0.0
 10
9.7280470049
 20
9.6618215913
 30
0.0
 10
9.7250834548
 20
9.6542933684
 30
0.0
 10
9.7223790715
 20
9.6484390019
 30
0.0
 10
9.7194604995
 20
9.6427119354
 30
0.0
 10
9.7154082402
 20
9.6357847384
 30
0.0
 10
9.7108347798
 20
9.6292010588
 30
0.0
 10
9.706882642
 20
9.6241686497
 30
0.0
 10
9.7027419614
 20
9.6193005049
 30
0.0
 10
9.6994245652
 20
9.6158347842
 30
0.0
 10
9.6971277603
 20
9.6136162258
 30
0.0
  0
SPLINE
  5
34A
100
AcDbEntity
  8
0
100
AcDbSpline
 62
7
  6
CONTINUOUS
 70
0
 71
3
 72
37
 73
33
 74
0
 42
0.0000001
 43
0.0000001
 44
0.0000000001
 40
0.0
 40
0.0
 40
0.0
 40
0.0
 40
0.031146624
 40
0.0624481919
 40
0.0938952571
 40
0.1254804469
 40
0.1571906758
 40
0.1890114524
 40
0.2209257687
 40
0.25291484
 40
0.2849584237
 40
0.3170352183
 40
0.381163152
 40
0.4451601237
 40
0.4770758719
 40
0.5088983814
 40
0.5406106743
 40
0.5721979571
 40
0.6036479386
 40
0.6349511145
 40
0.6661010055
 40
0.697094333
 40
0.7279311336
 40
0.7586148063
 40
0.7891520874
 40
0.819552954
 40
0.8498304507
 40
0.8800004308
 40
0.9100812223
 40
0.9400932249
 40
0.9700584477
 40
1.0
 40
1.0
 40
1.0
 40
1.0
 10
11.4521611245
 20
7.672690294
 30
0.0
 10
11.4540008758
 20
7.6725627068
 30
0.0
 10
11.4576815572
 20
7.6721722088
 30
0.0
 10
11.463157927
 20
7.6711886377
 30
0.0
 10
11.4685756725
 20
7.6698108325
 30
0.0
 10
11.4739054517
 20
7.6680463871
 30
0.0
 10
11.4791190193
 20
7.6659046306
 30
0.0
 10
11.4841885357
 20
7.6633970815
 30
0.0
 10
11.4890870101
 20
7.6605370928
 30
0.0
 10
11.4937882861
 20
7.6573400118
 30
0.0
 10
11.4982675238
 20
7.653822661
 30
0.0
 10
11.5039096427
 20
7.6487332236
 30
0.0
 10
11.5102890509
 20
7.6416712284
 30
0.0
 10
11.5156424488
 20
7.6338141086
 30
0.0
 10
11.519237278
 20
7.6271542289
 30
0.0
 10
11.521573996
 20
7.6220031861
 30
0.0
 10
11.5235401847
 20
7.6167205917
 30
0.0
 10
11.5251255032
 20
7.6113343483
 30
0.0
 10
11.5263213945
 20
7.6058732337
 30
0.0
 10
11.5271214416
 20
7.6003663515
 30
0.0
 10
11.5275213232
 20
7.5948430819
 30
0.0
 10
11.5275188472
 20
7.5893328954
 30
0.0
 10
11.5271139617
 20
7.5838652078
 30
0.0
 10
11.5263087596
 20
7.5784692223
 30
0.0
 10
11.5251074684
 20
7.5731737774
 30
0.0
 10
11.523516441
 20
7.5680071894
 30
0.0
 10
11.5215441337
 20
7.562997098
 30
0.0
 10
11.5192010377
 20
7.5581703115
 30
0.0
 10
11.5164996661
 20
7.5535526948
 30
0.0
 10
11.513454352
 20
7.5491689032
 30
0.0
 10
11.5100816823
 20
7.5450427137
 30
0.0
 10
11.5076259154
 20
7.5424773366
 30
0.0
 10
11.5063508005
 20
7.5412456841
 30
0.0
  0
SPLINE
  5
34B
100
AcDbEntity
  8
0
100
AcDbSpline
 62
7
  6
CONTINUOUS
 70
0
 71
3
 72
15
 73
11
 74
0
 42
0.0000001
 43
0.0000001
 44
0.0000000001
 40
0.0
 40
0.0
 40
0.0
 40
0.0
 40
0.1266942141
 40
0.2528683814
 40
0.3785207874
 40
0.5036798413
 40
0.6283694292
 40
0.7526243847
 40
0.8764856286
 40
1.0
 40
1.0
 40
1.0
 40
1.0
 10
11.1362442292
 20
7.8307946909
 30
0.0
 10
11.1362442292
 20
7.8283888623
 30
0.0
 10
11.1360995103
 20
7.8235857858
 30
0.0
 10
11.1354460717
 20
7.8164234405
 30
0.0
 10
11.134358987
 20
7.8093431485
 30
0.0
 10
11.1328425175
 20
7.8023711122
 30
0.0
 10
11.1309022622
 20
7.7955324681
 30
0.0
 10
11.1285455201
 20
7.7888519537
 30
0.0
 10
11.1257813304
 20
7.7823539969
 30
0.0
 10
11.1236707331
 20
7.7781531844
 30
0.0
 10
11.1225515171
 20
7.7760920023
 30
0.0
  0
SPLINE
  5
34C
100
AcDbEntity
  8
0
100
AcDbSpline
 62
7
  6
CONTINUOUS
 70
0
 71
3
 72
32
 73
28
 74
0
 42
0.0000001
 43
0.0000001
 44
0.0000000001
 40
0.0
 40
0.0
 40
0.0
 40
0.0
 40
0.0308875537
 40
0.0615931069
 40
0.0921458552
 40
0.1225790668
 40
0.1529295433
 40
0.1832338425
 40
0.2135262972
 40
0.2438374862
 40
0.2741934881
 40
0.3046157086
 40
0.335121114
 40
0.3657226899
 40
0.3964299902
 40
0.4272496799
 40
0.4892138684
 40
0.5203889544
 40
0.5516834165
 40
0.6146015208
 40
0.6779698321
 40
0.7417549546
 40
0.8059129559
 40
0.8703874805
 40
0.9027333731
 40
0.9351304592
 40
1.0
 40
1.0
 40
1.0
 40
1.0
 10
11.2143875852
 20
8.2589121551
 30
0.0
 10
11.2149438755
 20
8.2620284554
 30
0.0
 10
11.216367939
 20
8.2681914074
 30
0.0
 10
11.2194252258
 20
8.2771430527
 30
0.0
 10
11.2233553632
 20
8.2856967248
 30
0.0
 10
11.2281019638
 20
8.2937824905
 30
0.0
 10
11.2335988531
 20
8.3013456417
 30
0.0
 10
11.239774245
 20
8.3083450726
 30
0.0
 10
11.246554541
 20
8.3147528232
 30
0.0
 10
11.2538673656
 20
8.3205521851
 30
0.0
 10
11.261643663
 20
8.3257356371
 30
0.0
 10
11.2698189376
 20
8.3303027195
 30
0.0
 10
11.2783338946
 20
8.3342581362
 30
0.0
 10
11.2871343125
 20
8.337610108
 30
0.0
 10
11.2961716586
 20
8.3403692041
 30
0.0
 10
11.3084960971
 20
8.343277635
 30
0.0
 10
11.3211136333
 20
8.3450407256
 30
0.0
 10
11.3338534657
 20
8.3457155122
 30
0.0
 10
11.3467099473
 20
8.3456805756
 30
0.0
 10
11.3628356974
 20
8.3443218495
 30
0.0
 10
11.3820050099
 20
8.3406762974
 30
0.0
 10
11.4008286511
 20
8.3350702371
 30
0.0
 10
11.4190944531
 20
8.3275502045
 30
0.0
 10
11.4336553908
 20
8.3197246002
 30
0.0
 10
11.4447906546
 20
8.3125452747
 30
0.0
 10
11.4555508528
 20
8.304748687
 30
0.0
 10
11.4631266153
 20
8.2982245271
 30
0.0
 10
11.4678955749
 20
8.2935924185
 30
0.0
  0
SPLINE
  5
34D
100
AcDbEntity
  8
0
100
AcDbSpline
 62
7
  6
CONTINUOUS
 70
0
 71
3
 72
48
 73
44
 74
0
 42
0.0000001
 43
0.0000001
 44
0.0000000001
 40
0.0
 40
0.0
 40
0.0
 40
0.0
 40
0.0958287767
 40
0.1428190415
 40
0.1890973044
 40
0.2345926372
 40
0.2792364825
 40
0.3229620954
 40
0.3657047087
 40
0.407401818
 40
0.4479933573
 40
0.4874219524
 40
0.5256331251
 40
0.5625755503
 40
0.5982013669
 40
0.63246656
 40
0.6653313195
 40
0.6967604983
 40
0.7267241853
 40
0.7551984564
 40
0.7821662274
 40
0.8076183351
 40
0.8197764033
 40
0.8315565605
 40
0.8429605481
 40
0.8539910465
 40
0.8646516431
 40
0.8749469108
 40
0.8848826809
 40
0.8944659692
 40
0.9037052702
 40
0.9126106941
 40
0.9211940359
 40
0.929469141
 40
0.9374519366
 40
0.9451606785
 40
0.959834833
 40
0.9668566842
 40
0.9737035627
 40
0.9804067932
 40
0.9870000362
 40
0.9935188103
 40
1.0
 40
1.0
 40
1.0
 40
1.0
 10
11.8596457561
 20
9.9884768104
 30
0.0
 10
11.8442786017
 20
9.9895425262
 30
0.0
 10
11.8213924667
 20
9.9913860239
 30
0.0
 10
11.7911418645
 20
9.9943667316
 30
0.0
 10
11.7689713469
 20
9.9968242371
 30
0.0
 10
11.7472078349
 20
9.9995140661
 30
0.0
 10
11.7258877221
 20
10.0024317094
 30
0.0
 10
11.7050466435
 20
10.0055722531
 30
0.0
 10
11.6847194225
 20
10.0089304228
 30
0.0
 10
11.6649400297
 20
10.0125005756
 30
0.0
 10
11.6457415031
 20
10.0162767123
 30
0.0
 10
11.6271558949
 20
10.0202524757
 30
0.0
 10
11.6092142209
 20
10.0244211789
 30
0.0
 10
11.5919464096
 20
10.0287758129
 30
0.0
 10
11.5753812426
 20
10.0333090621
 30
0.0
 10
11.5595462925
 20
10.0380132983
 30
0.0
 10
11.5444678803
 20
10.0428806165
 30
0.0
 10
11.5301710225
 20
10.0479028511
 30
0.0
 10
11.516679406
 20
10.0530715989
 30
0.0
 10
11.5040152176
 20
10.058378242
 30
0.0
 10
11.4921994639
 20
10.063813933
 30
0.0
 10
11.4829395989
 20
10.068512816
 30
0.0
 10
11.4759815905
 20
10.0723374381
 30
0.0
 10
11.4710671337
 20
10.0751886458
 30
0.0
 10
11.4663788682
 20
10.0780652897
 30
0.0
 10
11.4619187116
 20
10.0809661931
 30
0.0
 10
11.4576884996
 20
10.083890154
 30
0.0
 10
11.453690001
 20
10.086836027
 30
0.0
 10
11.4499248319
 20
10.0898025727
 30
0.0
 10
11.4463945675
 20
10.0927886397
 30
0.0
 10
11.4431006675
 20
10.0957930441
 30
0.0
 10
11.4400444769
 20
10.0988145686
 30
0.0
 10
11.4372273114
 20
10.101852119
 30
0.0
 10
11.4346503799
 20
10.1049043935
 30
0.0
 10
11.4323146476
 20
10.1079705678
 30
0.0
 10
11.4295691364
 20
10.1120082034
 30
0.0
 10
11.4272462799
 20
10.1161412325
 30
0.0
 10
11.4254059371
 20
10.1203473296
 30
0.0
 10
11.4242915988
 20
10.1234638121
 30
0.0
 10
11.4234241254
 20
10.1265864243
 30
0.0
 10
11.4228039695
 20
10.1297138931
 30
0.0
 10
11.4224316914
 20
10.1328444084
 30
0.0
 10
11.4223488763
 20
10.1349350298
 30
0.0
 10
11.4223488784
 20
10.1359768532
 30
0.0
  0
SPLINE
  5
34E
100
AcDbEntity
  8
0
100
AcDbSpline
 62
7
  6
CONTINUOUS
 70
0
 71
3
 72
48
 73
44
 74
0
 42
0.0000001
 43
0.0000001
 44
0.0000000001
 40
0.0
 40
0.0
 40
0.0
 40
0.0
 40
0.0958287767
 40
0.1428190415
 40
0.1890973044
 40
0.2345926372
 40
0.2792364825
 40
0.3229620954
 40
0.3657047087
 40
0.407401818
 40
0.4479933573
 40
0.4874219524
 40
0.5256331251
 40
0.5625755503
 40
0.5982013669
 40
0.63246656
 40
0.6653313195
 40
0.6967604983
 40
0.7267241853
 40
0.7551984564
 40
0.7821662274
 40
0.8076183351
 40
0.8197764033
 40
0.8315565605
 40
0.8429605481
 40
0.8539910465
 40
0.8646516431
 40
0.8749469108
 40
0.8848826809
 40
0.8944659692
 40
0.9037052702
 40
0.9126106941
 40
0.9211940359
 40
0.929469141
 40
0.9374519366
 40
0.9451606785
 40
0.959834833
 40
0.9668566842
 40
0.9737035627
 40
0.9804067932
 40
0.9870000362
 40
0.9935188103
 40
1.0
 40
1.0
 40
1.0
 40
1.0
 10
10.5363149343
 20
10.1472373535
 30
0.0
 10
10.52094778
 20
10.1483030693
 30
0.0
 10
10.498061645
 20
10.150146567
 30
0.0
 10
10.4678110427
 20
10.1531272746
 30
0.0
 10
10.4456405251
 20
10.1555847802
 30
0.0
 10
10.4238770131
 20
10.1582746092
 30
0.0
 10
10.4025569003
 20
10.1611922524
 30
0.0
 10
10.3817158218
 20
10.1643327962
 30
0.0
 10
10.3613886007
 20
10.1676909658
 30
0.0
 10
10.341609208
 20
10.1712611187
 30
0.0
 10
10.3224106813
 20
10.1750372554
 30
0.0
 10
10.3038250732
 20
10.1790130188
 30
0.0
 10
10.2858833992
 20
10.1831817219
 30
0.0
 10
10.2686155879
 20
10.187536356
 30
0.0
 10
10.2520504208
 20
10.1920696051
 30
0.0
 10
10.2362154707
 20
10.1967738413
 30
0.0
 10
10.2211370586
 20
10.2016411596
 30
0.0
 10
10.2068402007
 20
10.2066633942
 30
0.0
 10
10.1933485843
 20
10.2118321419
 30
0.0
 10
10.1806843959
 20
10.217138785
 30
0.0
 10
10.1688686421
 20
10.2225744761
 30
0.0
 10
10.1596087771
 20
10.227273359
 30
0.0
 10
10.1526507688
 20
10.2310979811
 30
0.0
 10
10.1477363119
 20
10.2339491889
 30
0.0
 10
10.1430480464
 20
10.2368258327
 30
0.0
 10
10.1385878899
 20
10.2397267361
 30
0.0
 10
10.1343576779
 20
10.2426506971
 30
0.0
 10
10.1303591792
 20
10.2455965701
 30
0.0
 10
10.1265940102
 20
10.2485631157
 30
0.0
 10
10.1230637457
 20
10.2515491827
 30
0.0
 10
10.1197698458
 20
10.2545535871
 30
0.0
 10
10.1167136552
 20
10.2575751116
 30
0.0
 10
10.1138964896
 20
10.260612662
 30
0.0
 10
10.1113195581
 20
10.2636649366
 30
0.0
 10
10.1089838258
 20
10.2667311108
 30
0.0
 10
10.1062383147
 20
10.2707687464
 30
0.0
 10
10.1039154581
 20
10.2749017755
 30
0.0
 10
10.1020751153
 20
10.2791078726
 30
0.0
 10
10.100960777
 20
10.2822243551
 30
0.0
 10
10.1000933036
 20
10.2853469673
 30
0.0
 10
10.0994731478
 20
10.2884744362
 30
0.0
 10
10.0991008696
 20
10.2916049515
 30
0.0
 10
10.0990180546
 20
10.2936955728
 30
0.0
 10
10.0990180566
 20
10.2947373962
 30
0.0
  0
SPLINE
  5
34F
100
AcDbEntity
  8
0
100
AcDbSpline
 62
7
  6
CONTINUOUS
 70
0
 71
3
 72
18
 73
14
 74
0
 42
0.0000001
 43
0.0000001
 44
0.0000000001
 40
0.0
 40
0.0
 40
0.0
 40
0.0
 40
0.1504680185
 40
0.2917144324
 40
0.4244425615
 40
0.4879099171
 40
0.5496094205
 40
0.6682625585
 40
0.7817882768
 40
0.8371379945
 40
0.8918078237
 40
0.9460192726
 40
1.0
 40
1.0
 40
1.0
 40
1.0
 10
12.9183873104
 20
8.3156405729
 30
0.0
 10
12.9196043792
 20
8.3168161711
 30
0.0
 10
12.9220368669
 20
8.3190219359
 30
0.0
 10
12.9258033153
 20
8.3219613876
 30
0.0
 10
12.9289847248
 20
8.3240403199
 30
0.0
 10
12.931521616
 20
8.3254481084
 30
0.0
 10
12.9339838746
 20
8.3266567353
 30
0.0
 10
12.9370624775
 20
8.3278780117
 30
0.0
 10
12.9401958447
 20
8.3287114136
 30
0.0
 10
12.9426775644
 20
8.329121955
 30
0.0
 10
12.9445168615
 20
8.32930416
 30
0.0
 10
12.9463487183
 20
8.3293629952
 30
0.0
 10
12.9475657583
 20
8.329319937
 30
0.0
 10
12.9481713571
 20
8.3292779353
 30
0.0
  0
SPLINE
  5
350
100
AcDbEntity
  8
0
100
AcDbSpline
 62
7
  6
CONTINUOUS
 70
0
 71
3
 72
15
 73
11
 74
0
 42
0.0000001
 43
0.0000001
 44
0.0000000001
 40
0.0
 40
0.0
 40
0.0
 40
0.0
 40
0.1273482292
 40
0.2538605354
 40
0.3795879276
 40
0.5046050833
 40
0.6290174349
 40
0.7529533662
 40
0.8765605734
 40
1.0
 40
1.0
 40
1.0
 40
1.0
 10
10.2865406044
 20
7.7138887551
 30
0.0
 10
10.2865406044
 20
7.7112863252
 30
0.0
 10
10.2862921258
 20
7.70609495
 30
0.0
 10
10.2851683997
 20
7.6984077318
 30
0.0
 10
10.2833050715
 20
7.6909136649
 30
0.0
 10
10.2807189678
 20
7.6836828367
 30
0.0
 10
10.2774338329
 20
7.6767819257
 30
0.0
 10
10.2734796009
 20
7.6702746553
 30
0.0
 10
10.2688934522
 20
7.664222
 30
0.0
 10
10.2654403161
 20
7.6605246912
 30
0.0
 10
10.2636259557
 20
7.6587721611
 30
0.0
  0
SPLINE
  5
351
100
AcDbEntity
  8
0
100
AcDbSpline
 62
7
  6
CONTINUOUS
 70
0
 71
3
 72
15
 73
11
 74
0
 42
0.0000001
 43
0.0000001
 44
0.0000000001
 40
0.0
 40
0.0
 40
0.0
 40
0.0
 40
0.1273482292
 40
0.2538605354
 40
0.3795879276
 40
0.5046050833
 40
0.6290174349
 40
0.7529533662
 40
0.8765605734
 40
1.0
 40
1.0
 40
1.0
 40
1.0
 10
10.2865406044
 20
8.8913523897
 30
0.0
 10
10.2865406044
 20
8.8887499597
 30
0.0
 10
10.2862921258
 20
8.8835585845
 30
0.0
 10
10.2851683997
 20
8.8758713663
 30
0.0
 10
10.2833050715
 20
8.8683772994
 30
0.0
 10
10.2807189678
 20
8.8611464712
 30
0.0
 10
10.2774338329
 20
8.8542455602
 30
0.0
 10
10.2734796009
 20
8.8477382898
 30
0.0
 10
10.2688934522
 20
8.8416856345
 30
0.0
 10
10.2654403161
 20
8.8379883257
 30
0.0
 10
10.2636259557
 20
8.8362357956
 30
0.0
  0
SPLINE
  5
352
100
AcDbEntity
  8
0
100
AcDbSpline
 62
7
  6
CONTINUOUS
 70
0
 71
3
 72
15
 73
11
 74
0
 42
0.0000001
 43
0.0000001
 44
0.0000000001
 40
0.0
 40
0.0
 40
0.0
 40
0.0
 40
0.1273482292
 40
0.2538605354
 40
0.3795879276
 40
0.5046050833
 40
0.6290174349
 40
0.7529533662
 40
0.8765605734
 40
1.0
 40
1.0
 40
1.0
 40
1.0
 10
11.8262263876
 20
8.8154845088
 30
0.0
 10
11.8262263876
 20
8.8128820789
 30
0.0
 10
11.825977909
 20
8.8076907037
 30
0.0
 10
11.8248541829
 20
8.8000034855
 30
0.0
 10
11.8229908547
 20
8.7925094186
 30
0.0
 10
11.820404751
 20
8.7852785903
 30
0.0
 10
11.8171196161
 20
8.7783776794
 30
0.0
 10
11.8131653841
 20
8.771870409
 30
0.0
 10
11.8085792354
 20
8.7658177537
 30
0.0
 10
11.8051260994
 20
8.7621204448
 30
0.0
 10
11.8033117389
 20
8.7603679147
 30
0.0
  0
SPLINE
  5
353
100
AcDbEntity
  8
0
100
AcDbSpline
 62
7
  6
CONTINUOUS
 70
0
 71
3
 72
15
 73
11
 74
0
 42
0.0000001
 43
0.0000001
 44
0.0000000001
 40
0.0
 40
0.0
 40
0.0
 40
0.0
 40
0.1273482292
 40
0.2538605354
 40
0.3795879276
 40
0.5046050833
 40
0.6290174349
 40
0.7529533662
 40
0.8765605734
 40
1.0
 40
1.0
 40
1.0
 40
1.0
 10
11.8262263876
 20
7.5771674635
 30
0.0
 10
11.8262263876
 20
7.5745650336
 30
0.0
 10
11.825977909
 20
7.5693736584
 30
0.0
 10
11.8248541829
 20
7.5616864402
 30
0.0
 10
11.8229908547
 20
7.5541923733
 30
0.0
 10
11.820404751
 20
7.546961545
 30
0.0
 10
11.8171196161
 20
7.5400606341
 30
0.0
 10
11.8131653841
 20
7.5335533637
 30
0.0
 10
11.8085792354
 20
7.5275007084
 30
0.0
 10
11.8051260994
 20
7.5238033995
 30
0.0
 10
11.8033117389
 20
7.5220508694
 30
0.0
  0
SPLINE
  5
354
100
AcDbEntity
  8
0
100
AcDbSpline
 62
7
  6
CONTINUOUS
 70
0
 71
3
 72
28
 73
24
 74
0
 42
0.0000001
 43
0.0000001
 44
0.0000000001
 40
0.0
 40
0.0
 40
0.0
 40
0.0
 40
0.0795961136
 40
0.159938079
 40
0.2401138267
 40
0.3192283221
 40
0.3964700086
 40
0.4711653246
 40
0.5428018689
 40
0.6110121018
 40
0.6755297125
 40
0.736133269
 40
0.7925884617
 40
0.8191795541
 40
0.8446164691
 40
0.8688473872
 40
0.8918151727
 40
0.9134579173
 40
0.9337119795
 40
0.9525191884
 40
0.9698350498
 40
0.9856472827
 40
1.0
 40
1.0
 40
1.0
 40
1.0
 10
11.1359481962
 20
7.8390086081
 30
0.0
 10
11.1339459467
 20
7.8377087307
 30
0.0
 10
11.129835396
 20
7.8352281117
 30
0.0
 10
11.1234179565
 20
7.831947231
 30
0.0
 10
11.1167841295
 20
7.8291636031
 30
0.0
 10
11.110037705
 20
7.8269453083
 30
0.0
 10
11.1032898096
 20
7.8253330322
 30
0.0
 10
11.0966502583
 20
7.8243379898
 30
0.0
 10
11.0902195614
 20
7.823943826
 30
0.0
 10
11.0840846109
 20
7.8241124512
 30
0.0
 10
11.0783181523
 20
7.8247905411
 30
0.0
 10
11.0729823396
 20
7.8259152509
 30
0.0
 10
11.0688602867
 20
7.8271925297
 30
0.0
 10
11.0658315497
 20
7.8283841228
 30
0.0
 10
11.0637473001
 20
7.8293283426
 30
0.0
 10
11.0618124059
 20
7.8303315545
 30
0.0
 10
11.060034885
 20
7.8313841896
 30
0.0
 10
11.05842342
 20
7.8324763392
 30
0.0
 10
11.0569872966
 20
7.8335978355
 30
0.0
 10
11.0557363919
 20
7.8347381778
 30
0.0
 10
11.0546809455
 20
7.8358870631
 30
0.0
 10
11.0538317204
 20
7.8370337072
 30
0.0
 10
11.0533898551
 20
7.8378275712
 30
0.0
 10
11.0532129475
 20
7.8382199954
 30
0.0
  0
SPLINE
  5
355
100
AcDbEntity
  8
0
100
AcDbSpline
 62
7
  6
CONTINUOUS
 70
0
 71
3
 72
37
 73
33
 74
0
 42
0.0000001
 43
0.0000001
 44
0.0000000001
 40
0.0
 40
0.0
 40
0.0
 40
0.0
 40
0.0927671373
 40
0.1832203766
 40
0.2708685112
 40
0.3134929335
 40
0.3552411551
 40
0.396058288
 40
0.4358914157
 40
0.4746897764
 40
0.5124047656
 40
0.5489902778
 40
0.5844029376
 40
0.6186021602
 40
0.6515506225
 40
0.6832145335
 40
0.7135638525
 40
0.742572978
 40
0.7702211702
 40
0.7964931152
 40
0.8213800253
 40
0.8448805104
 40
0.8670018876
 40
0.887762158
 40
0.9071919865
 40
0.9253375429
 40
0.9422641843
 40
0.9580603838
 40
0.9728424122
 40
0.9867587527
 40
0.9934517425
 40
1.0
 40
1.0
 40
1.0
 40
1.0
 10
11.9075272399
 20
10.003817146
 30
0.0
 10
11.8975508882
 20
10.0045090083
 30
0.0
 10
11.8778606732
 20
10.0060832182
 30
0.0
 10
11.8488105301
 20
10.0090575325
 30
0.0
 10
11.8252009448
 20
10.0120375914
 30
0.0
 10
11.8068503665
 20
10.0147111122
 30
0.0
 10
11.7935222245
 20
10.0168324195
 30
0.0
 10
11.7805209579
 20
10.0190852641
 30
0.0
 10
11.7678659543
 20
10.021466295
 30
0.0
 10
11.7555760965
 20
10.0239719099
 30
0.0
 10
11.7436697167
 20
10.0265983669
 30
0.0
 10
11.7321645663
 20
10.0293417233
 30
0.0
 10
11.7210777842
 20
10.0321978398
 30
0.0
 10
11.7104258824
 20
10.0351624519
 30
0.0
 10
11.7002247042
 20
10.0382311048
 30
0.0
 10
11.6904893998
 20
10.0413991781
 30
0.0
 10
11.6812344162
 20
10.0446619541
 30
0.0
 10
11.6724734461
 20
10.0480145397
 30
0.0
 10
11.6642194119
 20
10.051451922
 30
0.0
 10
11.6564844594
 20
10.0549690322
 30
0.0
 10
11.6492798935
 20
10.0585606641
 30
0.0
 10
11.6426161783
 20
10.0622215748
 30
0.0
 10
11.6365029405
 20
10.0659465516
 30
0.0
 10
11.6309488993
 20
10.0697303579
 30
0.0
 10
11.6259619308
 20
10.0735678981
 30
0.0
 10
11.6215491297
 20
10.0774543327
 30
0.0
 10
11.6177168725
 20
10.0813849701
 30
0.0
 10
11.6144710438
 20
10.0853557658
 30
0.0
 10
11.6118177161
 20
10.089362091
 30
0.0
 10
11.6100829257
 20
10.0927718197
 30
0.0
 10
11.6090141659
 20
10.0954992372
 30
0.0
 10
11.6085831168
 20
10.0968614319
 30
0.0
 10
11.6083939741
 20
10.0975415235
 30
0.0
  0
SPLINE
  5
356
100
AcDbEntity
  8
0
100
AcDbSpline
 62
7
  6
CONTINUOUS
 70
0
 71
3
 72
50
 73
46
 74
0
 42
0.0000001
 43
0.0000001
 44
0.0000000001
 40
0.0
 40
0.0
 40
0.0
 40
0.0
 40
0.0407231925
 40
0.0818864537
 40
0.1233733864
 40
0.1650675644
 40
0.2068511078
 40
0.2486061101
 40
0.2902146589
 40
0.3315594123
 40
0.3725239807
 40
0.4129933754
 40
0.4528544402
 40
0.4919962953
 40
0.5303107869
 40
0.5676929498
 40
0.6040414866
 40
0.6392592721
 40
0.6732538891
 40
0.7059382132
 40
0.737231065
 40
0.7670579581
 40
0.7953519845
 40
0.8089060986
 40
0.8220559125
 40
0.8347957925
 40
0.8471207196
 40
0.8590265822
 40
0.8705100689
 40
0.8815689017
 40
0.892201862
 40
0.902408946
 40
0.9121915575
 40
0.9215525975
 40
0.9304968359
 40
0.9390309792
 40
0.947164214
 40
0.9549083204
 40
0.9622783527
 40
0.9692928653
 40
0.9759746457
 40
0.9823510425
 40
0.9884545647
 40
0.9943230973
 40
1.0
 40
1.0
 40
1.0
 40
1.0
 10
11.9075272399
 20
10.003817146
 30
0.0
 10
11.9147479167
 20
10.0033163904
 30
0.0
 10
11.9292752112
 20
10.0024203389
 30
0.0
 10
11.9511799667
 20
10.0013944824
 30
0.0
 10
11.9732698429
 20
10.00068151
 30
0.0
 10
11.9954778786
 20
10.0002835784
 30
0.0
 10
12.0177369744
 20
10.0002019116
 30
0.0
 10
12.0399797613
 20
10.0004367505
 30
0.0
 10
12.0621389665
 20
10.0009873839
 30
0.0
 10
12.0841475551
 20
10.0018521329
 30
0.0
 10
12.1059389559
 20
10.0030283643
 30
0.0
 10
12.1274472576
 20
10.0045124943
 30
0.0
 10
12.1486074118
 20
10.006300001
 30
0.0
 10
12.1693554309
 20
10.0083854366
 30
0.0
 10
12.189628585
 20
10.0107624432
 30
0.0
 10
12.2093655942
 20
10.0134237718
 30
0.0
 10
12.2285068191
 20
10.0163613032
 30
0.0
 10
12.2469944451
 20
10.0195660713
 30
0.0
 10
12.2647726706
 20
10.0230282904
 30
0.0
 10
12.2817878639
 20
10.0267373859
 30
0.0
 10
12.2979888137
 20
10.0306820222
 30
0.0
 10
12.313326641
 20
10.0348501616
 30
0.0
 10
12.3255191576
 20
10.0385502522
 30
0.0
 10
12.3347998517
 20
10.0416212134
 30
0.0
 10
12.3414165384
 20
10.0439393481
 30
0.0
 10
12.3477843744
 20
10.0463035817
 30
0.0
 10
12.3538985683
 20
10.0487121999
 30
0.0
 10
12.3597545306
 20
10.0511633349
 30
0.0
 10
12.3653478608
 20
10.0536551708
 30
0.0
 10
12.3706743719
 20
10.0561858147
 30
0.0
 10
12.3757300823
 20
10.0587533724
 30
0.0
 10
12.380511216
 20
10.0613559399
 30
0.0
 10
12.3850142296
 20
10.0639915573
 30
0.0
 10
12.3892357649
 20
10.0666583291
 30
0.0
 10
12.3931727306
 20
10.0693542543
 30
0.0
 10
12.396822186
 20
10.0720774671
 30
0.0
 10
12.4001814897
 20
10.0748259669
 30
0.0
 10
12.4032481027
 20
10.0775979397
 30
0.0
 10
12.4060197946
 20
10.08039144
 30
0.0
 10
12.4084943772
 20
10.0832047152
 30
0.0
 10
12.4106699302
 20
10.0860359158
 30
0.0
 10
12.4125445056
 20
10.0888832794
 30
0.0
 10
12.4141163561
 20
10.0917450693
 30
0.0
 10
12.4153835872
 20
10.0946189748
 30
0.0
 10
12.4160334002
 20
10.0965694286
 30
0.0
 10
12.4163037546
 20
10.09754153
 30
0.0
  0
SPLINE
  5
357
100
AcDbEntity
  8
0
100
AcDbSpline
 62
7
  6
CONTINUOUS
 70
0
 71
3
 72
37
 73
33
 74
0
 42
0.0000001
 43
0.0000001
 44
0.0000000001
 40
0.0
 40
0.0
 40
0.0
 40
0.0
 40
0.0927671373
 40
0.1832203766
 40
0.2708685112
 40
0.3134929335
 40
0.3552411551
 40
0.396058288
 40
0.4358914157
 40
0.4746897764
 40
0.5124047656
 40
0.5489902778
 40
0.5844029376
 40
0.6186021602
 40
0.6515506225
 40
0.6832145335
 40
0.7135638525
 40
0.742572978
 40
0.7702211702
 40
0.7964931152
 40
0.8213800253
 40
0.8448805104
 40
0.8670018876
 40
0.887762158
 40
0.9071919865
 40
0.9253375429
 40
0.9422641843
 40
0.9580603838
 40
0.9728424122
 40
0.9867587527
 40
0.9934517425
 40
1.0
 40
1.0
 40
1.0
 40
1.0
 10
10.5841964182
 20
10.1625776891
 30
0.0
 10
10.5742200664
 20
10.1632695514
 30
0.0
 10
10.5545298514
 20
10.1648437612
 30
0.0
 10
10.5254797084
 20
10.1678180755
 30
0.0
 10
10.501870123
 20
10.1707981344
 30
0.0
 10
10.4835195447
 20
10.1734716553
 30
0.0
 10
10.4701914027
 20
10.1755929625
 30
0.0
 10
10.4571901361
 20
10.1778458071
 30
0.0
 10
10.4445351326
 20
10.180226838
 30
0.0
 10
10.4322452748
 20
10.182732453
 30
0.0
 10
10.420338895
 20
10.1853589099
 30
0.0
 10
10.4088337446
 20
10.1881022664
 30
0.0
 10
10.3977469625
 20
10.1909583828
 30
0.0
 10
10.3870950606
 20
10.1939229949
 30
0.0
 10
10.3768938824
 20
10.1969916478
 30
0.0
 10
10.3671585781
 20
10.2001597211
 30
0.0
 10
10.3579035945
 20
10.2034224971
 30
0.0
 10
10.3491426243
 20
10.2067750827
 30
0.0
 10
10.3408885901
 20
10.2102124651
 30
0.0
 10
10.3331536377
 20
10.2137295753
 30
0.0
 10
10.3259490717
 20
10.2173212072
 30
0.0
 10
10.3192853566
 20
10.2209821179
 30
0.0
 10
10.3131721187
 20
10.2247070947
 30
0.0
 10
10.3076180775
 20
10.228490901
 30
0.0
 10
10.3026311091
 20
10.2323284411
 30
0.0
 10
10.2982183079
 20
10.2362148758
 30
0.0
 10
10.2943860507
 20
10.2401455132
 30
0.0
 10
10.291140222
 20
10.2441163088
 30
0.0
 10
10.2884868944
 20
10.248122634
 30
0.0
 10
10.286752104
 20
10.2515323627
 30
0.0
 10
10.2856833442
 20
10.2542597803
 30
0.0
 10
10.2852522951
 20
10.255621975
 30
0.0
 10
10.2850631524
 20
10.2563020665
 30
0.0
  0
SPLINE
  5
358
100
AcDbEntity
  8
0
100
AcDbSpline
 62
7
  6
CONTINUOUS
 70
0
 71
3
 72
50
 73
46
 74
0
 42
0.0000001
 43
0.0000001
 44
0.0000000001
 40
0.0
 40
0.0
 40
0.0
 40
0.0
 40
0.0407231925
 40
0.0818864537
 40
0.1233733864
 40
0.1650675644
 40
0.2068511078
 40
0.2486061101
 40
0.2902146589
 40
0.3315594123
 40
0.3725239807
 40
0.4129933754
 40
0.4528544402
 40
0.4919962953
 40
0.5303107869
 40
0.5676929498
 40
0.6040414866
 40
0.6392592721
 40
0.6732538891
 40
0.7059382132
 40
0.737231065
 40
0.7670579581
 40
0.7953519845
 40
0.8089060986
 40
0.8220559125
 40
0.8347957925
 40
0.8471207196
 40
0.8590265822
 40
0.8705100689
 40
0.8815689017
 40
0.892201862
 40
0.902408946
 40
0.9121915575
 40
0.9215525975
 40
0.9304968359
 40
0.9390309792
 40
0.947164214
 40
0.9549083204
 40
0.9622783527
 40
0.9692928653
 40
0.9759746457
 40
0.9823510425
 40
0.9884545647
 40
0.9943230973
 40
1.0
 40
1.0
 40
1.0
 40
1.0
 10
10.5841964182
 20
10.1625776891
 30
0.0
 10
10.5914170949
 20
10.1620769334
 30
0.0
 10
10.6059443894
 20
10.161180882
 30
0.0
 10
10.627849145
 20
10.1601550255
 30
0.0
 10
10.6499390212
 20
10.1594420531
 30
0.0
 10
10.6721470569
 20
10.1590441214
 30
0.0
 10
10.6944061526
 20
10.1589624546
 30
0.0
 10
10.7166489395
 20
10.1591972936
 30
0.0
 10
10.7388081448
 20
10.159747927
 30
0.0
 10
10.7608167333
 20
10.160612676
 30
0.0
 10
10.7826081342
 20
10.1617889073
 30
0.0
 10
10.8041164359
 20
10.1632730374
 30
0.0
 10
10.82527659
 20
10.1650605441
 30
0.0
 10
10.8460246092
 20
10.1671459796
 30
0.0
 10
10.8662977633
 20
10.1695229862
 30
0.0
 10
10.8860347724
 20
10.1721843148
 30
0.0
 10
10.9051759973
 20
10.1751218462
 30
0.0
 10
10.9236636233
 20
10.1783266144
 30
0.0
 10
10.9414418488
 20
10.1817888334
 30
0.0
 10
10.9584570422
 20
10.185497929
 30
0.0
 10
10.974657992
 20
10.1894425653
 30
0.0
 10
10.9899958192
 20
10.1936107046
 30
0.0
 10
11.0021883358
 20
10.1973107953
 30
0.0
 10
11.0114690299
 20
10.2003817564
 30
0.0
 10
11.0180857167
 20
10.2026998911
 30
0.0
 10
11.0244535526
 20
10.2050641248
 30
0.0
 10
11.0305677465
 20
10.207472743
 30
0.0
 10
11.0364237088
 20
10.2099238779
 30
0.0
 10
11.042017039
 20
10.2124157138
 30
0.0
 10
11.0473435502
 20
10.2149463578
 30
0.0
 10
11.0523992606
 20
10.2175139155
 30
0.0
 10
11.0571803942
 20
10.220116483
 30
0.0
 10
11.0616834079
 20
10.2227521004
 30
0.0
 10
11.0659049432
 20
10.2254188722
 30
0.0
 10
11.0698419089
 20
10.2281147973
 30
0.0
 10
11.0734913643
 20
10.2308380101
 30
0.0
 10
11.076850668
 20
10.2335865099
 30
0.0
 10
11.079917281
 20
10.2363584828
 30
0.0
 10
11.0826889728
 20
10.239151983
 30
0.0
 10
11.0851635555
 20
10.2419652583
 30
0.0
 10
11.0873391085
 20
10.2447964588
 30
0.0
 10
11.0892136839
 20
10.2476438224
 30
0.0
 10
11.0907855344
 20
10.2505056124
 30
0.0
 10
11.0920527655
 20
10.2533795178
 30
0.0
 10
11.0927025784
 20
10.2553299717
 30
0.0
 10
11.0929729328
 20
10.2563020731
 30
0.0
  0
SPLINE
  5
359
100
AcDbEntity
  8
0
100
AcDbSpline
 62
7
  6
CONTINUOUS
 70
0
 71
3
 72
21
 73
17
 74
0
 42
0.0000001
 43
0.0000001
 44
0.0000000001
 40
0.0
 40
0.0
 40
0.0
 40
0.0
 40
0.061653237
 40
0.123329498
 40
0.1850515502
 40
0.2468416698
 40
0.3087213548
 40
0.370711108
 40
0.4328302426
 40
0.495096636
 40
0.5575265765
 40
0.6201345494
 40
0.682933126
 40
0.7459332432
 40
0.8725261314
 40
1.0
 40
1.0
 40
1.0
 40
1.0
 10
9.5019027751
 20
7.076359794
 30
0.0
 10
9.5034794819
 20
7.0778827863
 30
0.0
 10
9.506716069
 20
7.0808451595
 30
0.0
 10
9.5118037739
 20
7.0850221758
 30
0.0
 10
9.51711239
 20
7.0889231212
 30
0.0
 10
9.5226283779
 20
7.0925379789
 30
0.0
 10
9.5283379021
 20
7.0958576606
 30
0.0
 10
9.5342265312
 20
7.0988738471
 30
0.0
 10
9.5402794385
 20
7.1015789444
 30
0.0
 10
9.5464813837
 20
7.1039661099
 30
0.0
 10
9.5528167331
 20
7.1060293952
 30
0.0
 10
9.5592694818
 20
7.1077636121
 30
0.0
 10
9.5658235784
 20
7.1091643772
 30
0.0
 10
9.5746879314
 20
7.1105849433
 30
0.0
 10
9.585944253
 20
7.1115078793
 30
0.0
 10
9.5949936571
 20
7.1113312706
 30
0.0
 10
9.5995152677
 20
7.1110176959
 30
0.0
  0
SPLINE
  5
35A
100
AcDbEntity
  8
0
100
AcDbSpline
 62
7
  6
CONTINUOUS
 70
0
 71
3
 72
21
 73
17
 74
0
 42
0.0000001
 43
0.0000001
 44
0.0000000001
 40
0.0
 40
0.0
 40
0.0
 40
0.0
 40
0.061653237
 40
0.123329498
 40
0.1850515502
 40
0.2468416698
 40
0.3087213548
 40
0.370711108
 40
0.4328302426
 40
0.495096636
 40
0.5575265765
 40
0.6201345494
 40
0.682933126
 40
0.7459332432
 40
0.8725261314
 40
1.0
 40
1.0
 40
1.0
 40
1.0
 10
12.2412685764
 20
6.8863841304
 30
0.0
 10
12.2428452832
 20
6.8879071227
 30
0.0
 10
12.2460818703
 20
6.8908694959
 30
0.0
 10
12.2511695752
 20
6.8950465123
 30
0.0
 10
12.2564781913
 20
6.8989474576
 30
0.0
 10
12.2619941792
 20
6.9025623153
 30
0.0
 10
12.2677037034
 20
6.905881997
 30
0.0
 10
12.2735923324
 20
6.9088981835
 30
0.0
 10
12.2796452398
 20
6.9116032808
 30
0.0
 10
12.285847185
 20
6.9139904463
 30
0.0
 10
12.2921825343
 20
6.9160537316
 30
0.0
 10
12.2986352831
 20
6.9177879485
 30
0.0
 10
12.3051893797
 20
6.9191887137
 30
0.0
 10
12.3140537327
 20
6.9206092797
 30
0.0
 10
12.3253100543
 20
6.9215322157
 30
0.0
 10
12.3343594584
 20
6.9213556071
 30
0.0
 10
12.338881069
 20
6.9210420323
 30
0.0
  0
SPLINE
  5
35B
100
AcDbEntity
  8
0
100
AcDbSpline
 62
7
  6
CONTINUOUS
 70
0
 71
3
 72
21
 73
17
 74
0
 42
0.0000001
 43
0.0000001
 44
0.0000000001
 40
0.0
 40
0.0
 40
0.0
 40
0.0
 40
0.061653237
 40
0.123329498
 40
0.1850515502
 40
0.2468416698
 40
0.3087213548
 40
0.370711108
 40
0.4328302426
 40
0.495096636
 40
0.5575265765
 40
0.6201345494
 40
0.682933126
 40
0.7459332432
 40
0.8725261314
 40
1.0
 40
1.0
 40
1.0
 40
1.0
 10
12.2412685764
 20
9.6257499317
 30
0.0
 10
12.2428452832
 20
9.627272924
 30
0.0
 10
12.2460818703
 20
9.6302352972
 30
0.0
 10
12.2511695752
 20
9.6344123136
 30
0.0
 10
12.2564781913
 20
9.6383132589
 30
0.0
 10
12.2619941792
 20
9.6419281166
 30
0.0
 10
12.2677037034
 20
9.6452477983
 30
0.0
 10
12.2735923324
 20
9.6482639848
 30
0.0
 10
12.2796452398
 20
9.6509690821
 30
0.0
 10
12.285847185
 20
9.6533562476
 30
0.0
 10
12.2921825343
 20
9.6554195329
 30
0.0
 10
12.2986352831
 20
9.6571537498
 30
0.0
 10
12.3051893797
 20
9.658554515
 30
0.0
 10
12.3140537327
 20
9.659975081
 30
0.0
 10
12.3253100543
 20
9.660898017
 30
0.0
 10
12.3343594584
 20
9.6607214084
 30
0.0
 10
12.338881069
 20
9.6604078336
 30
0.0
  0
SPLINE
  5
35C
100
AcDbEntity
  8
0
100
AcDbSpline
 62
7
  6
CONTINUOUS
 70
0
 71
3
 72
21
 73
17
 74
0
 42
0.0000001
 43
0.0000001
 44
0.0000000001
 40
0.0
 40
0.0
 40
0.0
 40
0.0
 40
0.061653237
 40
0.123329498
 40
0.1850515502
 40
0.2468416698
 40
0.3087213548
 40
0.370711108
 40
0.4328302426
 40
0.495096636
 40
0.5575265765
 40
0.6201345494
 40
0.682933126
 40
0.7459332432
 40
0.8725261314
 40
1.0
 40
1.0
 40
1.0
 40
1.0
 10
9.5019027751
 20
9.8157255953
 30
0.0
 10
9.5034794819
 20
9.8172485875
 30
0.0
 10
9.506716069
 20
9.8202109608
 30
0.0
 10
9.5118037739
 20
9.8243879771
 30
0.0
 10
9.51711239
 20
9.8282889225
 30
0.0
 10
9.5226283779
 20
9.8319037802
 30
0.0
 10
9.5283379021
 20
9.8352234619
 30
0.0
 10
9.5342265312
 20
9.8382396483
 30
0.0
 10
9.5402794385
 20
9.8409447457
 30
0.0
 10
9.5464813837
 20
9.8433319112
 30
0.0
 10
9.5528167331
 20
9.8453951965
 30
0.0
 10
9.5592694818
 20
9.8471294133
 30
0.0
 10
9.5658235784
 20
9.8485301785
 30
0.0
 10
9.5746879314
 20
9.8499507446
 30
0.0
 10
9.585944253
 20
9.8508736805
 30
0.0
 10
9.5949936571
 20
9.8506970719
 30
0.0
 10
9.5995152677
 20
9.8503834972
 30
0.0
  0
SPLINE
  5
35D
100
AcDbEntity
  8
0
100
AcDbSpline
 62
7
  6
CONTINUOUS
 70
0
 71
3
 72
15
 73
11
 74
0
 42
0.0000001
 43
0.0000001
 44
0.0000000001
 40
0.0
 40
0.0
 40
0.0
 40
0.0
 40
0.1233171148
 40
0.2468171822
 40
0.3706750007
 40
0.4950496181
 40
0.6200773069
 40
0.7458672043
 40
0.8724928123
 40
1.0
 40
1.0
 40
1.0
 40
1.0
 10
11.3979714485
 20
7.653450466
 30
0.0
 10
11.3997217711
 20
7.6551411287
 30
0.0
 10
11.4034102871
 20
7.6583389788
 30
0.0
 10
11.4094302586
 20
7.6625177249
 30
0.0
 10
11.4158808629
 20
7.6660403316
 30
0.0
 10
11.4226960505
 20
7.6688706229
 30
0.0
 10
11.4298070853
 20
7.670980502
 30
0.0
 10
11.4371423394
 20
7.6723488533
 30
0.0
 10
11.4446269364
 20
7.6729623748
 30
0.0
 10
11.449650958
 20
7.6728643746
 30
0.0
 10
11.4521611245
 20
7.672690294
 30
0.0
  0
SPLINE
  5
35E
100
AcDbEntity
  8
0
100
AcDbSpline
 62
7
  6
CONTINUOUS
 70
0
 71
3
 72
39
 73
35
 74
0
 42
0.0000001
 43
0.0000001
 44
0.0000000001
 40
0.0
 40
0.0
 40
0.0
 40
0.0
 40
0.0299424741
 40
0.0599093236
 40
0.0899243299
 40
0.1200101071
 40
0.1501875628
 40
0.1804754121
 40
0.2108897558
 40
0.2414437341
 40
0.2721472619
 40
0.3030068476
 40
0.3340255003
 40
0.3652027176
 40
0.3965345493
 40
0.4280137317
 40
0.459629888
 40
0.4913697842
 40
0.5232176352
 40
0.5551554541
 40
0.5871634377
 40
0.6192203778
 40
0.6513040905
 40
0.68339186
 40
0.715460889
 40
0.7474887514
 40
0.779453839
 40
0.8113357971
 40
0.8431159663
 40
0.8747776774
 40
0.9063069717
 40
0.937691796
 40
0.9689252179
 40
1.0
 40
1.0
 40
1.0
 40
1.0
 10
10.1462137787
 20
7.7803261839
 30
0.0
 10
10.1476156086
 20
7.7816802418
 30
0.0
 10
10.150529487
 20
7.7842790898
 30
0.0
 10
10.1551979854
 20
7.7878195484
 30
0.0
 10
10.1601402883
 20
7.7909844896
 30
0.0
 10
10.1653287824
 20
7.7937561574
 30
0.0
 10
10.1707349411
 20
7.7961194116
 30
0.0
 10
10.1763289293
 20
7.7980612611
 30
0.0
 10
10.1820799217
 20
7.7995710802
 30
0.0
 10
10.1879562352
 20
7.8006406236
 30
0.0
 10
10.1939255161
 20
7.8012640773
 30
0.0
 10
10.1999549151
 20
7.8014380913
 30
0.0
 10
10.2060112715
 20
7.8011617903
 30
0.0
 10
10.2120612943
 20
7.8004367701
 30
0.0
 10
10.2180717427
 20
7.7992670871
 30
0.0
 10
10.224009607
 20
7.797659232
 30
0.0
 10
10.229842286
 20
7.7956220933
 30
0.0
 10
10.2355377642
 20
7.7931669065
 30
0.0
 10
10.2410647834
 20
7.7903071914
 30
0.0
 10
10.2463930163
 20
7.7870586852
 30
0.0
 10
10.2514932294
 20
7.7834392497
 30
0.0
 10
10.25633744
 20
7.7794687721
 30
0.0
 10
10.2608990677
 20
7.7751690573
 30
0.0
 10
10.2651530783
 20
7.7705637092
 30
0.0
 10
10.2690761193
 20
7.7656780028
 30
0.0
 10
10.272646647
 20
7.7605387473
 30
0.0
 10
10.2758450421
 20
7.7551741408
 30
0.0
 10
10.2786537284
 20
7.7496136207
 30
0.0
 10
10.281057249
 20
7.743887703
 30
0.0
 10
10.2830423908
 20
7.7380277975
 30
0.0
 10
10.2845981557
 20
7.7320661187
 30
0.0
 10
10.2857160345
 20
7.7260352271
 30
0.0
 10
10.286389694
 20
7.7199687461
 30
0.0
 10
10.2865406044
 20
7.7159114584
 30
0.0
 10
10.2865406044
 20
7.7138887551
 30
0.0
  0
SPLINE
  5
35F
100
AcDbEntity
  8
0
100
AcDbSpline
 62
7
  6
CONTINUOUS
 70
0
 71
3
 72
39
 73
35
 74
0
 42
0.0000001
 43
0.0000001
 44
0.0000000001
 40
0.0
 40
0.0
 40
0.0
 40
0.0
 40
0.0299424741
 40
0.0599093236
 40
0.0899243299
 40
0.1200101071
 40
0.1501875628
 40
0.1804754121
 40
0.2108897558
 40
0.2414437341
 40
0.2721472619
 40
0.3030068476
 40
0.3340255003
 40
0.3652027176
 40
0.3965345493
 40
0.4280137317
 40
0.459629888
 40
0.4913697842
 40
0.5232176352
 40
0.5551554541
 40
0.5871634377
 40
0.6192203778
 40
0.6513040905
 40
0.68339186
 40
0.715460889
 40
0.7474887514
 40
0.779453839
 40
0.8113357971
 40
0.8431159663
 40
0.8747776774
 40
0.9063069717
 40
0.937691796
 40
0.9689252179
 40
1.0
 40
1.0
 40
1.0
 40
1.0
 10
10.1462137787
 20
8.9577898184
 30
0.0
 10
10.1476156086
 20
8.9591438763
 30
0.0
 10
10.150529487
 20
8.9617427243
 30
0.0
 10
10.1551979854
 20
8.9652831829
 30
0.0
 10
10.1601402883
 20
8.9684481241
 30
0.0
 10
10.1653287824
 20
8.9712197919
 30
0.0
 10
10.1707349411
 20
8.9735830461
 30
0.0
 10
10.1763289293
 20
8.9755248956
 30
0.0
 10
10.1820799217
 20
8.9770347147
 30
0.0
 10
10.1879562352
 20
8.9781042581
 30
0.0
 10
10.1939255161
 20
8.9787277118
 30
0.0
 10
10.1999549151
 20
8.9789017258
 30
0.0
 10
10.2060112715
 20
8.9786254248
 30
0.0
 10
10.2120612943
 20
8.9779004047
 30
0.0
 10
10.2180717427
 20
8.9767307216
 30
0.0
 10
10.224009607
 20
8.9751228666
 30
0.0
 10
10.229842286
 20
8.9730857278
 30
0.0
 10
10.2355377642
 20
8.970630541
 30
0.0
 10
10.2410647834
 20
8.9677708259
 30
0.0
 10
10.2463930163
 20
8.9645223197
 30
0.0
 10
10.2514932294
 20
8.9609028842
 30
0.0
 10
10.25633744
 20
8.9569324066
 30
0.0
 10
10.2608990677
 20
8.9526326918
 30
0.0
 10
10.2651530783
 20
8.9480273437
 30
0.0
 10
10.2690761193
 20
8.9431416373
 30
0.0
 10
10.272646647
 20
8.9380023818
 30
0.0
 10
10.2758450421
 20
8.9326377754
 30
0.0
 10
10.2786537284
 20
8.9270772552
 30
0.0
 10
10.281057249
 20
8.9213513375
 30
0.0
 10
10.2830423908
 20
8.915491432
 30
0.0
 10
10.2845981557
 20
8.9095297532
 30
0.0
 10
10.2857160345
 20
8.9034988616
 30
0.0
 10
10.286389694
 20
8.8974323806
 30
0.0
 10
10.2865406044
 20
8.8933750929
 30
0.0
 10
10.2865406044
 20
8.8913523897
 30
0.0
  0
SPLINE
  5
360
100
AcDbEntity
  8
0
100
AcDbSpline
 62
7
  6
CONTINUOUS
 70
0
 71
3
 72
39
 73
35
 74
0
 42
0.0000001
 43
0.0000001
 44
0.0000000001
 40
0.0
 40
0.0
 40
0.0
 40
0.0
 40
0.0299424741
 40
0.0599093236
 40
0.0899243299
 40
0.1200101071
 40
0.1501875628
 40
0.1804754121
 40
0.2108897558
 40
0.2414437341
 40
0.2721472619
 40
0.3030068476
 40
0.3340255003
 40
0.3652027176
 40
0.3965345493
 40
0.4280137317
 40
0.459629888
 40
0.4913697842
 40
0.5232176352
 40
0.5551554541
 40
0.5871634377
 40
0.6192203778
 40
0.6513040905
 40
0.68339186
 40
0.715460889
 40
0.7474887514
 40
0.779453839
 40
0.8113357971
 40
0.8431159663
 40
0.8747776774
 40
0.9063069717
 40
0.937691796
 40
0.9689252179
 40
1.0
 40
1.0
 40
1.0
 40
1.0
 10
11.685899562
 20
8.8819219376
 30
0.0
 10
11.6873013919
 20
8.8832759955
 30
0.0
 10
11.6902152702
 20
8.8858748435
 30
0.0
 10
11.6948837687
 20
8.8894153021
 30
0.0
 10
11.6998260715
 20
8.8925802433
 30
0.0
 10
11.7050145657
 20
8.8953519111
 30
0.0
 10
11.7104207244
 20
8.8977151653
 30
0.0
 10
11.7160147126
 20
8.8996570148
 30
0.0
 10
11.721765705
 20
8.9011668338
 30
0.0
 10
11.7276420185
 20
8.9022363773
 30
0.0
 10
11.7336112993
 20
8.9028598309
 30
0.0
 10
11.7396406983
 20
8.903033845
 30
0.0
 10
11.7456970548
 20
8.902757544
 30
0.0
 10
11.7517470775
 20
8.9020325238
 30
0.0
 10
11.757757526
 20
8.9008628408
 30
0.0
 10
11.7636953902
 20
8.8992549857
 30
0.0
 10
11.7695280693
 20
8.897217847
 30
0.0
 10
11.7752235475
 20
8.8947626602
 30
0.0
 10
11.7807505666
 20
8.8919029451
 30
0.0
 10
11.7860787996
 20
8.8886544389
 30
0.0
 10
11.7911790127
 20
8.8850350033
 30
0.0
 10
11.7960232233
 20
8.8810645258
 30
0.0
 10
11.800584851
 20
8.876764811
 30
0.0
 10
11.8048388615
 20
8.8721594628
 30
0.0
 10
11.8087619025
 20
8.8672737565
 30
0.0
 10
11.8123324303
 20
8.862134501
 30
0.0
 10
11.8155308254
 20
8.8567698945
 30
0.0
 10
11.8183395117
 20
8.8512093744
 30
0.0
 10
11.8207430322
 20
8.8454834567
 30
0.0
 10
11.8227281741
 20
8.8396235512
 30
0.0
 10
11.824283939
 20
8.8336618723
 30
0.0
 10
11.8254018178
 20
8.8276309808
 30
0.0
 10
11.8260754773
 20
8.8215644998
 30
0.0
 10
11.8262263876
 20
8.8175072121
 30
0.0
 10
11.8262263876
 20
8.8154845088
 30
0.0
  0
SPLINE
  5
361
100
AcDbEntity
  8
0
100
AcDbSpline
 62
7
  6
CONTINUOUS
 70
0
 71
3
 72
39
 73
35
 74
0
 42
0.0000001
 43
0.0000001
 44
0.0000000001
 40
0.0
 40
0.0
 40
0.0
 40
0.0
 40
0.0299424741
 40
0.0599093236
 40
0.0899243299
 40
0.1200101071
 40
0.1501875628
 40
0.1804754121
 40
0.2108897558
 40
0.2414437341
 40
0.2721472619
 40
0.3030068476
 40
0.3340255003
 40
0.3652027176
 40
0.3965345493
 40
0.4280137317
 40
0.459629888
 40
0.4913697842
 40
0.5232176352
 40
0.5551554541
 40
0.5871634377
 40
0.6192203778
 40
0.6513040905
 40
0.68339186
 40
0.715460889
 40
0.7474887514
 40
0.779453839
 40
0.8113357971
 40
0.8431159663
 40
0.8747776774
 40
0.9063069717
 40
0.937691796
 40
0.9689252179
 40
1.0
 40
1.0
 40
1.0
 40
1.0
 10
11.685899562
 20
7.6436048923
 30
0.0
 10
11.6873013919
 20
7.6449589502
 30
0.0
 10
11.6902152702
 20
7.6475577982
 30
0.0
 10
11.6948837687
 20
7.6510982568
 30
0.0
 10
11.6998260715
 20
7.654263198
 30
0.0
 10
11.7050145657
 20
7.6570348658
 30
0.0
 10
11.7104207244
 20
7.65939812
 30
0.0
 10
11.7160147126
 20
7.6613399695
 30
0.0
 10
11.721765705
 20
7.6628497885
 30
0.0
 10
11.7276420185
 20
7.663919332
 30
0.0
 10
11.7336112993
 20
7.6645427856
 30
0.0
 10
11.7396406983
 20
7.6647167997
 30
0.0
 10
11.7456970548
 20
7.6644404987
 30
0.0
 10
11.7517470775
 20
7.6637154785
 30
0.0
 10
11.757757526
 20
7.6625457954
 30
0.0
 10
11.7636953902
 20
7.6609379404
 30
0.0
 10
11.7695280693
 20
7.6589008017
 30
0.0
 10
11.7752235475
 20
7.6564456149
 30
0.0
 10
11.7807505666
 20
7.6535858998
 30
0.0
 10
11.7860787996
 20
7.6503373936
 30
0.0
 10
11.7911790127
 20
7.646717958
 30
0.0
 10
11.7960232233
 20
7.6427474804
 30
0.0
 10
11.800584851
 20
7.6384477656
 30
0.0
 10
11.8048388615
 20
7.6338424175
 30
0.0
 10
11.8087619025
 20
7.6289567111
 30
0.0
 10
11.8123324303
 20
7.6238174557
 30
0.0
 10
11.8155308254
 20
7.6184528492
 30
0.0
 10
11.8183395117
 20
7.6128923291
 30
0.0
 10
11.8207430322
 20
7.6071664114
 30
0.0
 10
11.8227281741
 20
7.6013065059
 30
0.0
 10
11.824283939
 20
7.595344827
 30
0.0
 10
11.8254018178
 20
7.5893139354
 30
0.0
 10
11.8260754773
 20
7.5832474544
 30
0.0
 10
11.8262263876
 20
7.5791901668
 30
0.0
 10
11.8262263876
 20
7.5771674635
 30
0.0
  0
SPLINE
  5
362
100
AcDbEntity
  8
0
100
AcDbSpline
 62
7
  6
CONTINUOUS
 70
0
 71
3
 72
16
 73
12
 74
0
 42
0.0000001
 43
0.0000001
 44
0.0000000001
 40
0.0
 40
0.0
 40
0.0
 40
0.0
 40
0.123304451
 40
0.2475458714
 40
0.3724565107
 40
0.4977833676
 40
0.6233166275
 40
0.7489058318
 40
0.874463995
 40
0.9372394717
 40
1.0
 40
1.0
 40
1.0
 40
1.0
 10
11.1075007117
 20
7.9105630522
 30
0.0
 10
11.1034777922
 20
7.9111774699
 30
0.0
 10
11.0954534502
 20
7.9127835139
 30
0.0
 10
11.0836535682
 20
7.9162861616
 30
0.0
 10
11.0721581069
 20
7.9208732018
 30
0.0
 10
11.0610939889
 20
7.9265152149
 30
0.0
 10
11.0505832426
 20
7.9331747525
 30
0.0
 10
11.0407444733
 20
7.9408046453
 30
0.0
 10
11.0331959185
 20
7.9479279616
 30
0.0
 10
11.0276039594
 20
7.9540476865
 30
0.0
 10
11.0249634027
 20
7.9572432241
 30
0.0
 10
11.0236844322
 20
7.9588725735
 30
0.0
  0
SPLINE
  5
363
100
AcDbEntity
  8
0
100
AcDbSpline
 62
7
  6
CONTINUOUS
 70
0
 71
3
 72
41
 73
37
 74
0
 42
0.0000001
 43
0.0000001
 44
0.0000000001
 40
0.0
 40
0.0
 40
0.0
 40
0.0
 40
0.0301994644
 40
0.060325634
 40
0.0904080169
 40
0.1204773118
 40
0.1505644509
 40
0.180699651
 40
0.2109115105
 40
0.2412261867
 40
0.2716666771
 40
0.3022522252
 40
0.3329978604
 40
0.3639140748
 40
0.3950066368
 40
0.4262765324
 40
0.4577200264
 40
0.4893288329
 40
0.5210903824
 40
0.5529881777
 40
0.5850022262
 40
0.6171095416
 40
0.6492847058
 40
0.6815004836
 40
0.7137284821
 40
0.7298410959
 40
0.7459459532
 40
0.7781120859
 40
0.8102053835
 40
0.8421999638
 40
0.8740723979
 40
0.9058023203
 40
0.9373732924
 40
0.953098109
 40
0.9687793055
 40
1.0
 40
1.0
 40
1.0
 40
1.0
 10
10.9066419791
 20
7.9023700349
 30
0.0
 10
10.9081984626
 20
7.905236502
 30
0.0
 10
10.9115634437
 20
7.9108278675
 30
0.0
 10
10.9173310227
 20
7.9187226791
 30
0.0
 10
10.9237712532
 20
7.9260614275
 30
0.0
 10
10.9308375312
 20
7.9327930382
 30
0.0
 10
10.9384796988
 20
7.9388721146
 30
0.0
 10
10.9466437202
 20
7.9442577631
 30
0.0
 10
10.9552723274
 20
7.9489141782
 30
0.0
 10
10.96430541
 20
7.9528106928
 30
0.0
 10
10.9736804668
 20
7.9559219165
 30
0.0
 10
10.9833330293
 20
7.9582278031
 30
0.0
 10
10.9931970785
 20
7.9597136958
 30
0.0
 10
11.0032054463
 20
7.9603703441
 30
0.0
 10
11.0132902064
 20
7.9601939042
 30
0.0
 10
11.0233830548
 20
7.9591859234
 30
0.0
 10
11.0334156862
 20
7.9573533113
 30
0.0
 10
11.0433201658
 20
7.9547082993
 30
0.0
 10
11.0530293055
 20
7.9512683855
 30
0.0
 10
11.0624770398
 20
7.9470562694
 30
0.0
 10
11.0715988198
 20
7.9420997555
 30
0.0
 10
11.0803319777
 20
7.9364316808
 30
0.0
 10
11.0886162383
 20
7.9300896505
 30
0.0
 10
11.0963937198
 20
7.9231163604
 30
0.0
 10
11.1024087975
 20
7.9168165599
 30
0.0
 10
11.1069150633
 20
7.9115094676
 30
0.0
 10
11.1112072538
 20
7.9060362899
 30
0.0
 10
11.1161606144
 20
7.8988967023
 30
0.0
 10
11.1214043621
 20
7.8899076489
 30
0.0
 10
11.1259087801
 20
7.8805610117
 30
0.0
 10
11.1296408485
 20
7.8709219458
 30
0.0
 10
11.1325732397
 20
7.8610581458
 30
0.0
 10
11.1343350075
 20
7.8526959642
 30
0.0
 10
11.1353240745
 20
7.8459644495
 30
0.0
 10
11.1360300964
 20
7.8392358348
 30
0.0
 10
11.1362442292
 20
7.8341667822
 30
0.0
 10
11.1362442292
 20
7.8307946909
 30
0.0
  0
SPLINE
  5
364
100
AcDbEntity
  8
0
100
AcDbSpline
 62
7
  6
CONTINUOUS
 70
0
 71
3
 72
20
 73
16
 74
0
 42
0.0000001
 43
0.0000001
 44
0.0000000001
 40
0.0
 40
0.0
 40
0.0
 40
0.0
 40
0.126869025
 40
0.2536169632
 40
0.3800447221
 40
0.443094007
 40
0.5059786457
 40
0.5686685998
 40
0.6311343512
 40
0.6933483654
 40
0.7552864353
 40
0.8169297566
 40
0.8782645769
 40
0.9392878508
 40
1.0
 40
1.0
 40
1.0
 40
1.0
 10
11.2548324128
 20
8.1520143817
 30
0.0
 10
11.2512248049
 20
8.1555184649
 30
0.0
 10
11.2443259932
 20
8.1628555783
 30
0.0
 10
11.2350990352
 20
8.1747943127
 30
0.0
 10
11.2284885983
 20
8.185477273
 30
0.0
 10
11.2239570823
 20
8.1944012627
 30
0.0
 10
11.2209647602
 20
8.2012587182
 30
0.0
 10
11.2184024825
 20
8.2082637143
 30
0.0
 10
11.2162951926
 20
8.2153914704
 30
0.0
 10
11.2146663971
 20
8.2226133568
 30
0.0
 10
11.2135370363
 20
8.2298973839
 30
0.0
 10
11.2129246929
 20
8.2372083024
 30
0.0
 10
11.2128425084
 20
8.2445085186
 30
0.0
 10
11.2132985189
 20
8.2517577758
 30
0.0
 10
11.2139646493
 20
8.2565428974
 30
0.0
 10
11.2143875852
 20
8.2589121551
 30
0.0
  0
SPLINE
  5
365
100
AcDbEntity
  8
0
100
AcDbSpline
 62
7
  6
CONTINUOUS
 70
0
 71
3
 72
80
 73
76
 74
0
 42
0.0000001
 43
0.0000001
 44
0.0000000001
 40
0.0
 40
0.0
 40
0.0
 40
0.0
 40
0.0027164327
 40
0.0054532447
 40
0.0082303176
 40
0.0110666212
 40
0.0139798388
 40
0.016986154
 40
0.0201001347
 40
0.0233346582
 40
0.0267010284
 40
0.0302089968
 40
0.0338669183
 40
0.0376819076
 40
0.0416598906
 40
0.0458058349
 40
0.0501237838
 40
0.0546169826
 40
0.0592880207
 40
0.0641388059
 40
0.0691707482
 40
0.0743847477
 40
0.0853596785
 40
0.0970635549
 40
0.1094903305
 40
0.1226296146
 40
0.1364673135
 40
0.1509861535
 40
0.1661660759
 40
0.1819845508
 40
0.1984168195
 40
0.2154361185
 40
0.2330138792
 40
0.2511198904
 40
0.2697224401
 40
0.2887884373
 40
0.3082835515
 40
0.3281723331
 40
0.348418324
 40
0.368984158
 40
0.3898316649
 40
0.4109219833
 40
0.4536720365
 40
0.4969140898
 40
0.5403224212
 40
0.5835697178
 40
0.6263302119
 40
0.6682828124
 40
0.6888582723
 40
0.7091151075
 40
0.7290159233
 40
0.74852422
 40
0.7676045125
 40
0.7862224423
 40
0.804344885
 40
0.8219400731
 40
0.8389777322
 40
0.8554292445
 40
0.8712678001
 40
0.8864685754
 40
0.9010089485
 40
0.9148687687
 40
0.92803068
 40
0.940480496
 40
0.9522076877
 40
0.9577984663
 40
0.9632066952
 40
0.9684323943
 40
0.9734759977
 40
0.9783383604
 40
0.9830208115
 40
0.987525367
 40
0.9918546057
 40
0.996011597
 40
1.0
 40
1.0
 40
1.0
 40
1.0
 10
12.8886032637
 20
7.4703410248
 30
0.0
 10
12.8877997893
 20
7.4703967503
 30
0.0
 10
12.8861909269
 20
7.4705813469
 30
0.0
 10
12.8837981252
 20
7.4710753343
 30
0.0
 10
12.8814233965
 20
7.4717862627
 30
0.0
 10
12.8790684546
 20
7.4727135212
 30
0.0
 10
12.8767345038
 20
7.4738562372
 30
0.0
 10
12.8744227308
 20
7.4752135145
 30
0.0
 10
12.8721342367
 20
7.4767844339
 30
0.0
 10
12.8698699869
 20
7.478567932
 30
0.0
 10
12.8676310082
 20
7.4805630272
 30
0.0
 10
12.8654182413
 20
7.4827685974
 30
0.0
 10
12.8632326407
 20
7.4851834884
 30
0.0
 10
12.86107522
 20
7.487806507
 30
0.0
 10
12.8589468996
 20
7.4906363053
 30
0.0
 10
12.8568487075
 20
7.4936715161
 30
0.0
 10
12.8547816134
 20
7.4969106326
 30
0.0
 10
12.8527465824
 20
7.5003520529
 30
0.0
 10
12.8507446417
 20
7.5039941035
 30
0.0
 10
12.8487767212
 20
7.5078349615
 30
0.0
 10
12.8468437939
 20
7.5118727493
 30
0.0
 10
12.8442704529
 20
7.517614898
 30
0.0
 10
12.8411585147
 20
7.5252803028
 30
0.0
 10
12.8376397528
 20
7.5350786292
 30
0.0
 10
12.8342824191
 20
7.5456088337
 30
0.0
 10
12.8310932703
 20
7.5568499525
 30
0.0
 10
12.8280787376
 20
7.5687797671
 30
0.0
 10
12.8252449346
 20
7.5813745184
 30
0.0
 10
12.8225976194
 20
7.5946090819
 30
0.0
 10
12.8201421828
 20
7.6084569957
 30
0.0
 10
12.8178836201
 20
7.6228905274
 30
0.0
 10
12.8158265238
 20
7.6378807365
 30
0.0
 10
12.8139750814
 20
7.653397546
 30
0.0
 10
12.8123330634
 20
7.6694098079
 30
0.0
 10
12.8109038181
 20
7.6858853638
 30
0.0
 10
12.8096902508
 20
7.7027911095
 30
0.0
 10
12.8086948313
 20
7.7200930673
 30
0.0
 10
12.8079195898
 20
7.7377564591
 30
0.0
 10
12.8073661113
 20
7.7557457788
 30
0.0
 10
12.8070355373
 20
7.7740248488
 30
0.0
 10
12.8069285247
 20
7.7925569411
 30
0.0
 10
12.807085031
 20
7.8176663514
 30
0.0
 10
12.8078443742
 20
7.8494096118
 30
0.0
 10
12.809633936
 20
7.8877373952
 30
0.0
 10
12.8122918188
 20
7.9261626247
 30
0.0
 10
12.8157966391
 20
7.9643765412
 30
0.0
 10
12.8201201448
 20
8.00207208
 30
0.0
 10
12.8244032224
 20
8.0329975605
 30
0.0
 10
12.8282206916
 20
8.0572446091
 30
0.0
 10
12.8312463663
 20
8.0749960838
 30
0.0
 10
12.8344468687
 20
8.0923952557
 30
0.0
 10
12.8378157739
 20
8.1094071716
 30
0.0
 10
12.8413462728
 20
8.1259976332
 30
0.0
 10
12.8450312357
 20
8.1421333084
 30
0.0
 10
12.8488632201
 20
8.1577817837
 30
0.0
 10
12.8528344865
 20
8.1729116323
 30
0.0
 10
12.8569370163
 20
8.187492483
 30
0.0
 10
12.8611625142
 20
8.2014950909
 30
0.0
 10
12.8655024384
 20
8.2148913971
 30
0.0
 10
12.8699480187
 20
8.2276545822
 30
0.0
 10
12.874490279
 20
8.2397591349
 30
0.0
 10
12.8791200541
 20
8.2511808953
 30
0.0
 10
12.8838280174
 20
8.2618972069
 30
0.0
 10
12.8886046967
 20
8.271886675
 30
0.0
 10
12.892697187
 20
8.2797091961
 30
0.0
 10
12.8960049679
 20
8.2855801023
 30
0.0
 10
12.8984574224
 20
8.2897190133
 30
0.0
 10
12.9009198864
 20
8.2936619826
 30
0.0
 10
12.9033911408
 20
8.2974070537
 30
0.0
 10
12.9058699285
 20
8.3009523725
 30
0.0
 10
12.9083550843
 20
8.3042961752
 30
0.0
 10
12.9108453815
 20
8.3074368623
 30
0.0
 10
12.9133396785
 20
8.3103728787
 30
0.0
 10
12.9158366057
 20
8.3131026311
 30
0.0
 10
12.9175367664
 20
8.3148190104
 30
0.0
 10
12.9183873104
 20
8.3156405729
 30
0.0
  0
SPLINE
  5
366
100
AcDbEntity
  8
0
100
AcDbSpline
 62
7
  6
CONTINUOUS
 70
0
 71
3
 72
53
 73
49
 74
0
 42
0.0000001
 43
0.0000001
 44
0.0000000001
 40
0.0
 40
0.0
 40
0.0
 40
0.0
 40
0.0055575334
 40
0.0111779591
 40
0.0169218931
 40
0.0228457847
 40
0.029000565
 40
0.0354309743
 40
0.0421754345
 40
0.0492662879
 40
0.0567303589
 40
0.0645894686
 40
0.0728611764
 40
0.0815592161
 40
0.0906941791
 40
0.1002737964
 40
0.1103034837
 40
0.1207865163
 40
0.1317244176
 40
0.1431170941
 40
0.1549630719
 40
0.1672596408
 40
0.1800029545
 40
0.1931882087
 40
0.2068096306
 40
0.2208606897
 40
0.2353340137
 40
0.2502216112
 40
0.2655147581
 40
0.2812041995
 40
0.3137312779
 40
0.3477186146
 40
0.3830737319
 40
0.419697545
 40
0.4574851157
 40
0.4963263298
 40
0.5361065238
 40
0.5767070763
 40
0.6180059734
 40
0.6598783563
 40
0.7021970576
 40
0.7448331294
 40
0.7876563632
 40
0.8305358211
 40
0.8733403081
 40
0.9159390405
 40
0.9582017244
 40
1.0
 40
1.0
 40
1.0
 40
1.0
 10
11.2790180332
 20
10.2947370848
 30
0.0
 10
11.2790180304
 20
10.2932775406
 30
0.0
 10
11.2788546127
 20
10.2903393939
 30
0.0
 10
11.2781211619
 20
10.2859478612
 30
0.0
 10
11.2769006478
 20
10.281566119
 30
0.0
 10
11.2751954064
 20
10.2771992578
 30
0.0
 10
11.2730082582
 20
10.2728508159
 30
0.0
 10
11.2703421571
 20
10.2685241153
 30
0.0
 10
11.2672001047
 20
10.2642221521
 30
0.0
 10
11.2635852303
 20
10.2599477822
 30
0.0
 10
11.2595007099
 20
10.255703941
 30
0.0
 10
11.254950027
 20
10.2514935081
 30
0.0
 10
11.2499368231
 20
10.2473195707
 30
0.0
 10
11.2444651633
 20
10.2431851314
 30
0.0
 10
11.2385393588
 20
10.2390933991
 30
0.0
 10
11.2321641699
 20
10.2350474654
 30
0.0
 10
11.2253446592
 20
10.2310505722
 30
0.0
 10
11.2180863152
 20
10.2271058483
 30
0.0
 10
11.210394963
 20
10.2232164949
 30
0.0
 10
11.2022768168
 20
10.2193856348
 30
0.0
 10
11.1937384442
 20
10.2156163825
 30
0.0
 10
11.1847867686
 20
10.2119118205
 30
0.0
 10
11.1754290697
 20
10.2082749508
 30
0.0
 10
11.1656729571
 20
10.2047087866
 30
0.0
 10
11.1555263896
 20
10.2012162054
 30
0.0
 10
11.1449976372
 20
10.1978001249
 30
0.0
 10
11.134095303
 20
10.1944632932
 30
0.0
 10
11.1228282923
 20
10.1912085124
 30
0.0
 10
11.1112058073
 20
10.1880383792
 30
0.0
 10
11.0950533521
 20
10.1838779495
 30
0.0
 10
11.0740386823
 20
10.1789209372
 30
0.0
 10
11.047854723
 20
10.1734188629
 30
0.0
 10
11.0204956823
 20
10.1683121879
 30
0.0
 10
10.9920511217
 20
10.163617795
 30
0.0
 10
10.9626140085
 20
10.1593512273
 30
0.0
 10
10.9322806758
 20
10.1555265961
 30
0.0
 10
10.9011504144
 20
10.1521565474
 30
0.0
 10
10.869325161
 20
10.1492522193
 30
0.0
 10
10.8369091502
 20
10.1468232071
 30
0.0
 10
10.8040085699
 20
10.1448775335
 30
0.0
 10
10.7707312079
 20
10.1434216232
 30
0.0
 10
10.7371860962
 20
10.1424602831
 30
0.0
 10
10.7034831489
 20
10.141996686
 30
0.0
 10
10.6697328054
 20
10.1420323642
 30
0.0
 10
10.6360456478
 20
10.1425671951
 30
0.0
 10
10.6025320759
 20
10.1435994234
 30
0.0
 10
10.5693019536
 20
10.1451256225
 30
0.0
 10
10.5472658813
 20
10.1464779027
 30
0.0
 10
10.5363149343
 20
10.1472373535
 30
0.0
  0
SPLINE
  5
367
100
AcDbEntity
  8
0
100
AcDbSpline
 62
7
  6
CONTINUOUS
 70
0
 71
3
 72
53
 73
49
 74
0
 42
0.0000001
 43
0.0000001
 44
0.0000000001
 40
0.0
 40
0.0
 40
0.0
 40
0.0
 40
0.0055575334
 40
0.0111779591
 40
0.0169218931
 40
0.0228457847
 40
0.029000565
 40
0.0354309743
 40
0.0421754345
 40
0.0492662879
 40
0.0567303589
 40
0.0645894686
 40
0.0728611764
 40
0.0815592161
 40
0.0906941791
 40
0.1002737964
 40
0.1103034837
 40
0.1207865163
 40
0.1317244176
 40
0.1431170941
 40
0.1549630719
 40
0.1672596408
 40
0.1800029545
 40
0.1931882087
 40
0.2068096306
 40
0.2208606897
 40
0.2353340137
 40
0.2502216112
 40
0.2655147581
 40
0.2812041995
 40
0.3137312779
 40
0.3477186146
 40
0.3830737319
 40
0.419697545
 40
0.4574851157
 40
0.4963263298
 40
0.5361065238
 40
0.5767070763
 40
0.6180059734
 40
0.6598783563
 40
0.7021970576
 40
0.7448331294
 40
0.7876563632
 40
0.8305358211
 40
0.8733403081
 40
0.9159390405
 40
0.9582017244
 40
1.0
 40
1.0
 40
1.0
 40
1.0
 10
12.602348855
 20
10.1359765418
 30
0.0
 10
12.6023488521
 20
10.1345169976
 30
0.0
 10
12.6021854344
 20
10.1315788509
 30
0.0
 10
12.6014519836
 20
10.1271873181
 30
0.0
 10
12.6002314696
 20
10.1228055759
 30
0.0
 10
12.5985262282
 20
10.1184387148
 30
0.0
 10
12.5963390799
 20
10.1140902728
 30
0.0
 10
12.5936729789
 20
10.1097635723
 30
0.0
 10
12.5905309264
 20
10.1054616091
 30
0.0
 10
12.5869160521
 20
10.1011872391
 30
0.0
 10
12.5828315317
 20
10.096943398
 30
0.0
 10
12.5782808488
 20
10.0927329651
 30
0.0
 10
12.5732676449
 20
10.0885590276
 30
0.0
 10
12.5677959851
 20
10.0844245883
 30
0.0
 10
12.5618701806
 20
10.080332856
 30
0.0
 10
12.5554949917
 20
10.0762869224
 30
0.0
 10
12.5486754809
 20
10.0722900292
 30
0.0
 10
12.541417137
 20
10.0683453052
 30
0.0
 10
12.5337257847
 20
10.0644559518
 30
0.0
 10
12.5256076385
 20
10.0606250917
 30
0.0
 10
12.517069266
 20
10.0568558395
 30
0.0
 10
12.5081175903
 20
10.0531512774
 30
0.0
 10
12.4987598914
 20
10.0495144077
 30
0.0
 10
12.4890037789
 20
10.0459482435
 30
0.0
 10
12.4788572113
 20
10.0424556623
 30
0.0
 10
12.468328459
 20
10.0390395819
 30
0.0
 10
12.4574261248
 20
10.0357027501
 30
0.0
 10
12.446159114
 20
10.0324479693
 30
0.0
 10
12.434536629
 20
10.0292778362
 30
0.0
 10
12.4183841739
 20
10.0251174065
 30
0.0
 10
12.3973695041
 20
10.0201603942
 30
0.0
 10
12.3711855448
 20
10.0146583199
 30
0.0
 10
12.343826504
 20
10.0095516449
 30
0.0
 10
12.3153819434
 20
10.004857252
 30
0.0
 10
12.2859448303
 20
10.0005906842
 30
0.0
 10
12.2556114976
 20
9.996766053
 30
0.0
 10
12.2244812362
 20
9.9933960044
 30
0.0
 10
12.1926559827
 20
9.9904916762
 30
0.0
 10
12.1602399719
 20
9.988062664
 30
0.0
 10
12.1273393916
 20
9.9861169904
 30
0.0
 10
12.0940620296
 20
9.9846610801
 30
0.0
 10
12.060516918
 20
9.9836997401
 30
0.0
 10
12.0268139707
 20
9.9832361429
 30
0.0
 10
11.9930636271
 20
9.9832718212
 30
0.0
 10
11.9593764695
 20
9.9838066521
 30
0.0
 10
11.9258628976
 20
9.9848388804
 30
0.0
 10
11.8926327754
 20
9.9863650794
 30
0.0
 10
11.8705967031
 20
9.9877173597
 30
0.0
 10
11.8596457561
 20
9.9884768104
 30
0.0
  0
SPLINE
  5
368
100
AcDbEntity
  8
0
100
AcDbSpline
 62
7
  6
CONTINUOUS
 70
0
 71
3
 72
39
 73
35
 74
0
 42
0.0000001
 43
0.0000001
 44
0.0000000001
 40
0.0
 40
0.0
 40
0.0
 40
0.0
 40
0.0311160054
 40
0.0620232808
 40
0.0927351539
 40
0.1232711756
 40
0.1536587326
 40
0.1839312105
 40
0.2141268386
 40
0.2442870981
 40
0.2744549747
 40
0.3046731306
 40
0.33498209
 40
0.365418544
 40
0.3960138629
 40
0.4267928807
 40
0.457772997
 40
0.4889636213
 40
0.5203659688
 40
0.551973177
 40
0.5837707173
 40
0.6157370643
 40
0.6478445906
 40
0.6800606397
 40
0.7123487305
 40
0.7446698622
 40
0.7769838838
 40
0.8092508928
 40
0.841432625
 40
0.8734938027
 40
0.9054033951
 40
0.9371359477
 40
0.9686717614
 40
1.0
 40
1.0
 40
1.0
 40
1.0
 10
11.6366529019
 20
8.8228705722
 30
0.0
 10
11.6366529019
 20
8.8262085157
 30
0.0
 10
11.6369787689
 20
8.8328668412
 30
0.0
 10
11.6384525432
 20
8.8427212144
 30
0.0
 10
11.6408957013
 20
8.8523181628
 30
0.0
 10
11.6442851481
 20
8.8615638064
 30
0.0
 10
11.6485884501
 20
8.8703690385
 30
0.0
 10
11.6537643066
 20
8.8786485494
 30
0.0
 10
11.6597628328
 20
8.8863221843
 30
0.0
 10
11.6665260957
 20
8.8933156125
 30
0.0
 10
11.6739886721
 20
8.8995611302
 30
0.0
 10
11.6820783126
 20
8.9049983347
 30
0.0
 10
11.6907166543
 20
8.9095747753
 30
0.0
 10
11.6998200555
 20
8.9132464371
 30
0.0
 10
11.7093004481
 20
8.9159781439
 30
0.0
 10
11.7190662213
 20
8.9177438667
 30
0.0
 10
11.7290231209
 20
8.9185269544
 30
0.0
 10
11.7390751716
 20
8.9183202795
 30
0.0
 10
11.7491256051
 20
8.9171262236
 30
0.0
 10
11.7590777742
 20
8.9149566309
 30
0.0
 10
11.7688360564
 20
8.9118326624
 30
0.0
 10
11.7783067629
 20
8.9077846175
 30
0.0
 10
11.7873990153
 20
8.9028516087
 30
0.0
 10
11.7960255878
 20
8.8970811671
 30
0.0
 10
11.804103722
 20
8.8905287927
 30
0.0
 10
11.8115559047
 20
8.8832574351
 30
0.0
 10
11.8183106243
 20
8.875336922
 30
0.0
 10
11.8243030157
 20
8.8668432618
 30
0.0
 10
11.8294754752
 20
8.8578579468
 30
0.0
 10
11.8337781911
 20
8.8484671454
 30
0.0
 10
11.8371696768
 20
8.838761054
 30
0.0
 10
11.8396170742
 20
8.8288325307
 30
0.0
 10
11.8410966745
 20
8.8187781707
 30
0.0
 10
11.8414291892
 20
8.8120299991
 30
0.0
 10
11.8414291892
 20
8.8086692884
 30
0.0
  0
SPLINE
  5
369
100
AcDbEntity
  8
0
100
AcDbSpline
 62
7
  6
CONTINUOUS
 70
0
 71
3
 72
39
 73
35
 74
0
 42
0.0000001
 43
0.0000001
 44
0.0000000001
 40
0.0
 40
0.0
 40
0.0
 40
0.0
 40
0.0311160054
 40
0.0620232808
 40
0.0927351539
 40
0.1232711756
 40
0.1536587326
 40
0.1839312105
 40
0.2141268386
 40
0.2442870981
 40
0.2744549747
 40
0.3046731306
 40
0.33498209
 40
0.365418544
 40
0.3960138629
 40
0.4267928807
 40
0.457772997
 40
0.4889636213
 40
0.5203659688
 40
0.551973177
 40
0.5837707173
 40
0.6157370643
 40
0.6478445906
 40
0.6800606397
 40
0.7123487305
 40
0.7446698622
 40
0.7769838838
 40
0.8092508928
 40
0.841432625
 40
0.8734938027
 40
0.9054033951
 40
0.9371359477
 40
0.9686717614
 40
1.0
 40
1.0
 40
1.0
 40
1.0
 10
11.8414291892
 20
8.8086692884
 30
0.0
 10
11.8414291892
 20
8.8053313449
 30
0.0
 10
11.8411033222
 20
8.7986730194
 30
0.0
 10
11.839629548
 20
8.7888186462
 30
0.0
 10
11.8371863899
 20
8.7792216978
 30
0.0
 10
11.833796943
 20
8.7699760542
 30
0.0
 10
11.8294936411
 20
8.7611708221
 30
0.0
 10
11.8243177845
 20
8.7528913112
 30
0.0
 10
11.8183192584
 20
8.7452176762
 30
0.0
 10
11.8115559954
 20
8.7382242481
 30
0.0
 10
11.804093419
 20
8.7319787304
 30
0.0
 10
11.7960037786
 20
8.7265415259
 30
0.0
 10
11.7873654368
 20
8.7219650853
 30
0.0
 10
11.7782620357
 20
8.7182934235
 30
0.0
 10
11.7687816431
 20
8.7155617167
 30
0.0
 10
11.7590158698
 20
8.7137959939
 30
0.0
 10
11.7490589703
 20
8.7130129062
 30
0.0
 10
11.7390069196
 20
8.7132195811
 30
0.0
 10
11.7289564861
 20
8.714413637
 30
0.0
 10
11.719004317
 20
8.7165832297
 30
0.0
 10
11.7092460347
 20
8.7197071982
 30
0.0
 10
11.6997753283
 20
8.723755243
 30
0.0
 10
11.6906830759
 20
8.7286882519
 30
0.0
 10
11.6820565034
 20
8.7344586935
 30
0.0
 10
11.6739783692
 20
8.7410110679
 30
0.0
 10
11.6665261865
 20
8.7482824255
 30
0.0
 10
11.6597714669
 20
8.7562029386
 30
0.0
 10
11.6537790755
 20
8.7646965988
 30
0.0
 10
11.6486066159
 20
8.7736819138
 30
0.0
 10
11.6443039
 20
8.7830727152
 30
0.0
 10
11.6409124144
 20
8.7927788066
 30
0.0
 10
11.6384650169
 20
8.8027073299
 30
0.0
 10
11.6369854167
 20
8.8127616899
 30
0.0
 10
11.6366529019
 20
8.8195098615
 30
0.0
 10
11.6366529019
 20
8.8228705722
 30
0.0
  0
SPLINE
  5
36A
100
AcDbEntity
  8
0
100
AcDbSpline
 62
7
  6
CONTINUOUS
 70
0
 71
3
 72
39
 73
35
 74
0
 42
0.0000001
 43
0.0000001
 44
0.0000000001
 40
0.0
 40
0.0
 40
0.0
 40
0.0
 40
0.0311160054
 40
0.0620232808
 40
0.0927351539
 40
0.1232711756
 40
0.1536587326
 40
0.1839312105
 40
0.2141268386
 40
0.2442870981
 40
0.2744549747
 40
0.3046731306
 40
0.33498209
 40
0.365418544
 40
0.3960138629
 40
0.4267928807
 40
0.457772997
 40
0.4889636213
 40
0.5203659688
 40
0.551973177
 40
0.5837707173
 40
0.6157370643
 40
0.6478445906
 40
0.6800606397
 40
0.7123487305
 40
0.7446698622
 40
0.7769838838
 40
0.8092508928
 40
0.841432625
 40
0.8734938027
 40
0.9054033951
 40
0.9371359477
 40
0.9686717614
 40
1.0
 40
1.0
 40
1.0
 40
1.0
 10
11.6366529019
 20
7.5845535269
 30
0.0
 10
11.6366529019
 20
7.5878914704
 30
0.0
 10
11.6369787689
 20
7.5945497959
 30
0.0
 10
11.6384525432
 20
7.6044041691
 30
0.0
 10
11.6408957013
 20
7.6140011174
 30
0.0
 10
11.6442851481
 20
7.6232467611
 30
0.0
 10
11.6485884501
 20
7.6320519932
 30
0.0
 10
11.6537643066
 20
7.6403315041
 30
0.0
 10
11.6597628328
 20
7.648005139
 30
0.0
 10
11.6665260957
 20
7.6549985672
 30
0.0
 10
11.6739886721
 20
7.6612440849
 30
0.0
 10
11.6820783126
 20
7.6666812894
 30
0.0
 10
11.6907166543
 20
7.67125773
 30
0.0
 10
11.6998200555
 20
7.6749293917
 30
0.0
 10
11.7093004481
 20
7.6776610986
 30
0.0
 10
11.7190662213
 20
7.6794268213
 30
0.0
 10
11.7290231209
 20
7.680209909
 30
0.0
 10
11.7390751716
 20
7.6800032342
 30
0.0
 10
11.7491256051
 20
7.6788091782
 30
0.0
 10
11.7590777742
 20
7.6766395856
 30
0.0
 10
11.7688360564
 20
7.673515617
 30
0.0
 10
11.7783067629
 20
7.6694675722
 30
0.0
 10
11.7873990153
 20
7.6645345634
 30
0.0
 10
11.7960255878
 20
7.6587641217
 30
0.0
 10
11.804103722
 20
7.6522117474
 30
0.0
 10
11.8115559047
 20
7.6449403898
 30
0.0
 10
11.8183106243
 20
7.6370198766
 30
0.0
 10
11.8243030157
 20
7.6285262165
 30
0.0
 10
11.8294754752
 20
7.6195409015
 30
0.0
 10
11.8337781911
 20
7.6101501001
 30
0.0
 10
11.8371696768
 20
7.6004440087
 30
0.0
 10
11.8396170742
 20
7.5905154854
 30
0.0
 10
11.8410966745
 20
7.5804611254
 30
0.0
 10
11.8414291892
 20
7.5737129538
 30
0.0
 10
11.8414291892
 20
7.5703522431
 30
0.0
  0
SPLINE
  5
36B
100
AcDbEntity
  8
0
100
AcDbSpline
 62
7
  6
CONTINUOUS
 70
0
 71
3
 72
48
 73
44
 74
0
 42
0.0000001
 43
0.0000001
 44
0.0000000001
 40
0.0
 40
0.0
 40
0.0
 40
0.0
 40
0.0958287767
 40
0.1428190415
 40
0.1890973044
 40
0.2345926372
 40
0.2792364825
 40
0.3229620954
 40
0.3657047087
 40
0.407401818
 40
0.4479933573
 40
0.4874219524
 40
0.5256331251
 40
0.5625755503
 40
0.5982013669
 40
0.63246656
 40
0.6653313195
 40
0.6967604983
 40
0.7267241853
 40
0.7551984564
 40
0.7821662274
 40
0.8076183351
 40
0.8197764033
 40
0.8315565605
 40
0.8429605481
 40
0.8539910465
 40
0.8646516431
 40
0.8749469108
 40
0.8848826809
 40
0.8944659692
 40
0.9037052702
 40
0.9126106941
 40
0.9211940359
 40
0.929469141
 40
0.9374519366
 40
0.9451606785
 40
0.959834833
 40
0.9668566842
 40
0.9737035627
 40
0.9804067932
 40
0.9870000362
 40
0.9935188103
 40
1.0
 40
1.0
 40
1.0
 40
1.0
 10
12.1650519773
 20
10.2834765845
 30
0.0
 10
12.1804191316
 20
10.2824108687
 30
0.0
 10
12.2033052666
 20
10.280567371
 30
0.0
 10
12.2335558689
 20
10.2775866633
 30
0.0
 10
12.2557263865
 20
10.2751291578
 30
0.0
 10
12.2774898985
 20
10.2724393288
 30
0.0
 10
12.2988100113
 20
10.2695216855
 30
0.0
 10
12.3196510898
 20
10.2663811418
 30
0.0
 10
12.3399783109
 20
10.2630229722
 30
0.0
 10
12.3597577036
 20
10.2594528193
 30
0.0
 10
12.3789562303
 20
10.2556766826
 30
0.0
 10
12.3975418384
 20
10.2517009192
 30
0.0
 10
12.4154835124
 20
10.247532216
 30
0.0
 10
12.4327513237
 20
10.243177582
 30
0.0
 10
12.4493164908
 20
10.2386443328
 30
0.0
 10
12.4651514409
 20
10.2339400966
 30
0.0
 10
12.480229853
 20
10.2290727784
 30
0.0
 10
12.4945267109
 20
10.2240505438
 30
0.0
 10
12.5080183273
 20
10.218881796
 30
0.0
 10
12.5206825157
 20
10.2135751529
 30
0.0
 10
12.5324982695
 20
10.2081394619
 30
0.0
 10
12.5417581345
 20
10.2034405789
 30
0.0
 10
12.5487161428
 20
10.1996159568
 30
0.0
 10
12.5536305997
 20
10.1967647491
 30
0.0
 10
12.5583188652
 20
10.1938881052
 30
0.0
 10
12.5627790217
 20
10.1909872018
 30
0.0
 10
12.5670092337
 20
10.1880632409
 30
0.0
 10
12.5710077324
 20
10.1851173679
 30
0.0
 10
12.5747729014
 20
10.1821508222
 30
0.0
 10
12.5783031659
 20
10.1791647552
 30
0.0
 10
12.5815970658
 20
10.1761603509
 30
0.0
 10
12.5846532564
 20
10.1731388263
 30
0.0
 10
12.587470422
 20
10.1701012759
 30
0.0
 10
12.5900473535
 20
10.1670490014
 30
0.0
 10
12.5923830858
 20
10.1639828271
 30
0.0
 10
12.5951285969
 20
10.1599451915
 30
0.0
 10
12.5974514534
 20
10.1558121624
 30
0.0
 10
12.5992917963
 20
10.1516060653
 30
0.0
 10
12.6004061346
 20
10.1484895828
 30
0.0
 10
12.601273608
 20
10.1453669706
 30
0.0
 10
12.6018937638
 20
10.1422395018
 30
0.0
 10
12.602266042
 20
10.1391089865
 30
0.0
 10
12.602348857
 20
10.1370183651
 30
0.0
 10
12.602348855
 20
10.1359765418
 30
0.0
  0
SPLINE
  5
36C
100
AcDbEntity
  8
0
100
AcDbSpline
 62
7
  6
CONTINUOUS
 70
0
 71
3
 72
39
 73
35
 74
0
 42
0.0000001
 43
0.0000001
 44
0.0000000001
 40
0.0
 40
0.0
 40
0.0
 40
0.0
 40
0.0311160054
 40
0.0620232808
 40
0.0927351539
 40
0.1232711756
 40
0.1536587326
 40
0.1839312105
 40
0.2141268386
 40
0.2442870981
 40
0.2744549747
 40
0.3046731306
 40
0.33498209
 40
0.365418544
 40
0.3960138629
 40
0.4267928807
 40
0.457772997
 40
0.4889636213
 40
0.5203659688
 40
0.551973177
 40
0.5837707173
 40
0.6157370643
 40
0.6478445906
 40
0.6800606397
 40
0.7123487305
 40
0.7446698622
 40
0.7769838838
 40
0.8092508928
 40
0.841432625
 40
0.8734938027
 40
0.9054033951
 40
0.9371359477
 40
0.9686717614
 40
1.0
 40
1.0
 40
1.0
 40
1.0
 10
11.8414291892
 20
7.5703522431
 30
0.0
 10
11.8414291892
 20
7.5670142995
 30
0.0
 10
11.8411033222
 20
7.5603559741
 30
0.0
 10
11.839629548
 20
7.5505016008
 30
0.0
 10
11.8371863899
 20
7.5409046525
 30
0.0
 10
11.833796943
 20
7.5316590088
 30
0.0
 10
11.8294936411
 20
7.5228537767
 30
0.0
 10
11.8243177845
 20
7.5145742658
 30
0.0
 10
11.8183192584
 20
7.5069006309
 30
0.0
 10
11.8115559954
 20
7.4999072027
 30
0.0
 10
11.804093419
 20
7.493661685
 30
0.0
 10
11.7960037786
 20
7.4882244806
 30
0.0
 10
11.7873654368
 20
7.48364804
 30
0.0
 10
11.7782620357
 20
7.4799763782
 30
0.0
 10
11.7687816431
 20
7.4772446714
 30
0.0
 10
11.7590158698
 20
7.4754789486
 30
0.0
 10
11.7490589703
 20
7.4746958609
 30
0.0
 10
11.7390069196
 20
7.4749025358
 30
0.0
 10
11.7289564861
 20
7.4760965917
 30
0.0
 10
11.719004317
 20
7.4782661844
 30
0.0
 10
11.7092460347
 20
7.4813901529
 30
0.0
 10
11.6997753283
 20
7.4854381977
 30
0.0
 10
11.6906830759
 20
7.4903712066
 30
0.0
 10
11.6820565034
 20
7.4961416482
 30
0.0
 10
11.6739783692
 20
7.5026940226
 30
0.0
 10
11.6665261865
 20
7.5099653802
 30
0.0
 10
11.6597714669
 20
7.5178858933
 30
0.0
 10
11.6537790755
 20
7.5263795535
 30
0.0
 10
11.6486066159
 20
7.5353648685
 30
0.0
 10
11.6443039
 20
7.5447556698
 30
0.0
 10
11.6409124144
 20
7.5544617613
 30
0.0
 10
11.6384650169
 20
7.5643902846
 30
0.0
 10
11.6369854167
 20
7.5744446446
 30
0.0
 10
11.6366529019
 20
7.5811928162
 30
0.0
 10
11.6366529019
 20
7.5845535269
 30
0.0
  0
SPLINE
  5
36D
100
AcDbEntity
  8
0
100
AcDbSpline
 62
7
  6
CONTINUOUS
 70
0
 71
3
 72
48
 73
44
 74
0
 42
0.0000001
 43
0.0000001
 44
0.0000000001
 40
0.0
 40
0.0
 40
0.0
 40
0.0
 40
0.0958287767
 40
0.1428190415
 40
0.1890973044
 40
0.2345926372
 40
0.2792364825
 40
0.3229620954
 40
0.3657047087
 40
0.407401818
 40
0.4479933573
 40
0.4874219524
 40
0.5256331251
 40
0.5625755503
 40
0.5982013669
 40
0.63246656
 40
0.6653313195
 40
0.6967604983
 40
0.7267241853
 40
0.7551984564
 40
0.7821662274
 40
0.8076183351
 40
0.8197764033
 40
0.8315565605
 40
0.8429605481
 40
0.8539910465
 40
0.8646516431
 40
0.8749469108
 40
0.8848826809
 40
0.8944659692
 40
0.9037052702
 40
0.9126106941
 40
0.9211940359
 40
0.929469141
 40
0.9374519366
 40
0.9451606785
 40
0.959834833
 40
0.9668566842
 40
0.9737035627
 40
0.9804067932
 40
0.9870000362
 40
0.9935188103
 40
1.0
 40
1.0
 40
1.0
 40
1.0
 10
10.8417211555
 20
10.4422371275
 30
0.0
 10
10.8570883098
 20
10.4411714117
 30
0.0
 10
10.8799744449
 20
10.439327914
 30
0.0
 10
10.9102250471
 20
10.4363472064
 30
0.0
 10
10.9323955647
 20
10.4338897008
 30
0.0
 10
10.9541590767
 20
10.4311998718
 30
0.0
 10
10.9754791895
 20
10.4282822286
 30
0.0
 10
10.9963202681
 20
10.4251416848
 30
0.0
 10
11.0166474891
 20
10.4217835152
 30
0.0
 10
11.0364268819
 20
10.4182133623
 30
0.0
 10
11.0556254085
 20
10.4144372256
 30
0.0
 10
11.0742110166
 20
10.4104614622
 30
0.0
 10
11.0921526907
 20
10.4062927591
 30
0.0
 10
11.109420502
 20
10.4019381251
 30
0.0
 10
11.125985669
 20
10.3974048759
 30
0.0
 10
11.1418206191
 20
10.3927006397
 30
0.0
 10
11.1568990312
 20
10.3878333214
 30
0.0
 10
11.1711958891
 20
10.3828110868
 30
0.0
 10
11.1846875056
 20
10.3776423391
 30
0.0
 10
11.197351694
 20
10.372335696
 30
0.0
 10
11.2091674477
 20
10.3669000049
 30
0.0
 10
11.2184273127
 20
10.362201122
 30
0.0
 10
11.2253853211
 20
10.3583764999
 30
0.0
 10
11.2302997779
 20
10.3555252921
 30
0.0
 10
11.2349880434
 20
10.3526486483
 30
0.0
 10
11.2394482
 20
10.3497477449
 30
0.0
 10
11.243678412
 20
10.3468237839
 30
0.0
 10
11.2476769106
 20
10.3438779109
 30
0.0
 10
11.2514420796
 20
10.3409113653
 30
0.0
 10
11.2549723441
 20
10.3379252983
 30
0.0
 10
11.258266244
 20
10.3349208939
 30
0.0
 10
11.2613224347
 20
10.3318993694
 30
0.0
 10
11.2641396002
 20
10.328861819
 30
0.0
 10
11.2667165317
 20
10.3258095444
 30
0.0
 10
11.269052264
 20
10.3227433702
 30
0.0
 10
11.2717977752
 20
10.3187057346
 30
0.0
 10
11.2741206317
 20
10.3145727055
 30
0.0
 10
11.2759609745
 20
10.3103666084
 30
0.0
 10
11.2770753128
 20
10.3072501259
 30
0.0
 10
11.2779427862
 20
10.3041275137
 30
0.0
 10
11.278562942
 20
10.3010000448
 30
0.0
 10
11.2789352202
 20
10.2978695295
 30
0.0
 10
11.2790180353
 20
10.2957789082
 30
0.0
 10
11.2790180332
 20
10.2947370848
 30
0.0
  0
SPLINE
  5
36E
100
AcDbEntity
  8
0
100
AcDbSpline
 62
7
  6
CONTINUOUS
 70
0
 71
3
 72
18
 73
14
 74
0
 42
0.0000001
 43
0.0000001
 44
0.0000000001
 40
0.0
 40
0.0
 40
0.0
 40
0.0
 40
0.1504680185
 40
0.2917144324
 40
0.4244425615
 40
0.4879099171
 40
0.5496094205
 40
0.6682625585
 40
0.7817882768
 40
0.8371379945
 40
0.8918078237
 40
0.9460192726
 40
1.0
 40
1.0
 40
1.0
 40
1.0
 10
12.9183873104
 20
7.4839783872
 30
0.0
 10
12.9171702416
 20
7.482802789
 30
0.0
 10
12.9147377539
 20
7.4805970242
 30
0.0
 10
12.9109713055
 20
7.4776575725
 30
0.0
 10
12.907789896
 20
7.4755786401
 30
0.0
 10
12.9052530049
 20
7.4741708517
 30
0.0
 10
12.9027907462
 20
7.4729622247
 30
0.0
 10
12.8997121433
 20
7.4717409484
 30
0.0
 10
12.8965787761
 20
7.4709075465
 30
0.0
 10
12.8940970564
 20
7.4704970051
 30
0.0
 10
12.8922577593
 20
7.4703148001
 30
0.0
 10
12.8904259025
 20
7.4702559649
 30
0.0
 10
12.8892088625
 20
7.4702990231
 30
0.0
 10
12.8886032637
 20
7.4703410248
 30
0.0
  0
SPLINE
  5
36F
100
AcDbEntity
  8
0
100
AcDbSpline
 62
7
  6
CONTINUOUS
 70
0
 71
3
 72
21
 73
17
 74
0
 42
0.0000001
 43
0.0000001
 44
0.0000000001
 40
0.0
 40
0.0
 40
0.0
 40
0.0
 40
0.061653237
 40
0.123329498
 40
0.1850515502
 40
0.2468416698
 40
0.3087213548
 40
0.370711108
 40
0.4328302426
 40
0.495096636
 40
0.5575265765
 40
0.6201345494
 40
0.682933126
 40
0.7459332432
 40
0.8725261314
 40
1.0
 40
1.0
 40
1.0
 40
1.0
 10
9.6971277603
 20
6.8742504245
 30
0.0
 10
9.6955510535
 20
6.8727274322
 30
0.0
 10
9.6923144664
 20
6.869765059
 30
0.0
 10
9.6872267615
 20
6.8655880427
 30
0.0
 10
9.6819181454
 20
6.8616870973
 30
0.0
 10
9.6764021575
 20
6.8580722396
 30
0.0
 10
9.6706926333
 20
6.8547525579
 30
0.0
 10
9.6648040042
 20
6.8517363714
 30
0.0
 10
9.6587510969
 20
6.8490312741
 30
0.0
 10
9.6525491517
 20
6.8466441086
 30
0.0
 10
9.6462138023
 20
6.8445808233
 30
0.0
 10
9.6397610536
 20
6.8428466064
 30
0.0
 10
9.633206957
 20
6.8414458413
 30
0.0
 10
9.624342604
 20
6.8400252752
 30
0.0
 10
9.6130862824
 20
6.8391023392
 30
0.0
 10
9.6040368783
 20
6.8392789479
 30
0.0
 10
9.5995152677
 20
6.8395925226
 30
0.0
  0
SPLINE
  5
370
100
AcDbEntity
  8
0
100
AcDbSpline
 62
7
  6
CONTINUOUS
 70
0
 71
3
 72
15
 73
11
 74
0
 42
0.0000001
 43
0.0000001
 44
0.0000000001
 40
0.0
 40
0.0
 40
0.0
 40
0.0
 40
0.1266942186
 40
0.2528683863
 40
0.3785207934
 40
0.5036798465
 40
0.6283694337
 40
0.7526243882
 40
0.8764856304
 40
1.0
 40
1.0
 40
1.0
 40
1.0
 10
10.8929492708
 20
7.8476672998
 30
0.0
 10
10.8929492708
 20
7.8500731305
 30
0.0
 10
10.8930939835
 20
7.8548762111
 30
0.0
 10
10.8937474192
 20
7.8620385628
 30
0.0
 10
10.8948345045
 20
7.8691188607
 30
0.0
 10
10.8963509729
 20
7.876090903
 30
0.0
 10
10.8982912287
 20
7.882929553
 30
0.0
 10
10.9006479718
 20
7.8896100731
 30
0.0
 10
10.9034121632
 20
7.8961080353
 30
0.0
 10
10.9055227622
 20
7.9003088512
 30
0.0
 10
10.9066419791
 20
7.9023700349
 30
0.0
  0
SPLINE
  5
371
100
AcDbEntity
  8
0
100
AcDbSpline
 62
7
  6
CONTINUOUS
 70
0
 71
3
 72
21
 73
17
 74
0
 42
0.0000001
 43
0.0000001
 44
0.0000000001
 40
0.0
 40
0.0
 40
0.0
 40
0.0
 40
0.061653237
 40
0.123329498
 40
0.1850515502
 40
0.2468416698
 40
0.3087213548
 40
0.370711108
 40
0.4328302426
 40
0.495096636
 40
0.5575265765
 40
0.6201345494
 40
0.682933126
 40
0.7459332432
 40
0.8725261314
 40
1.0
 40
1.0
 40
1.0
 40
1.0
 10
12.4364935616
 20
6.6842747609
 30
0.0
 10
12.4349168548
 20
6.6827517687
 30
0.0
 10
12.4316802677
 20
6.6797893954
 30
0.0
 10
12.4265925628
 20
6.6756123791
 30
0.0
 10
12.4212839467
 20
6.6717114338
 30
0.0
 10
12.4157679588
 20
6.6680965761
 30
0.0
 10
12.4100584346
 20
6.6647768944
 30
0.0
 10
12.4041698055
 20
6.6617607079
 30
0.0
 10
12.3981168982
 20
6.6590556105
 30
0.0
 10
12.3919149529
 20
6.656668445
 30
0.0
 10
12.3855796036
 20
6.6546051597
 30
0.0
 10
12.3791268549
 20
6.6528709429
 30
0.0
 10
12.3725727583
 20
6.6514701777
 30
0.0
 10
12.3637084053
 20
6.6500496117
 30
0.0
 10
12.3524520837
 20
6.6491266757
 30
0.0
 10
12.3434026796
 20
6.6493032843
 30
0.0
 10
12.338881069
 20
6.649616859
 30
0.0
  0
SPLINE
  5
372
100
AcDbEntity
  8
0
100
AcDbSpline
 62
7
  6
CONTINUOUS
 70
0
 71
3
 72
72
 73
68
 74
0
 42
0.0000001
 43
0.0000001
 44
0.0000000001
 40
0.0
 40
0.0
 40
0.0
 40
0.0
 40
0.0038577872
 40
0.0078706379
 40
0.0120417989
 40
0.016373998
 40
0.0208695662
 40
0.025530388
 40
0.0303577982
 40
0.0353526471
 40
0.0458457985
 40
0.057010757
 40
0.0688432322
 40
0.0813351508
 40
0.0944752071
 40
0.1082492878
 40
0.1226408497
 40
0.137631187
 40
0.1531996177
 40
0.1693236973
 40
0.1859793989
 40
0.203141239
 40
0.2207823749
 40
0.2388747516
 40
0.2573892106
 40
0.2762955685
 40
0.2955627006
 40
0.3151586557
 40
0.3552048809
 40
0.396165797
 40
0.4377641133
 40
0.4797169416
 40
0.5217383276
 40
0.5635417216
 40
0.6048424552
 40
0.6453602545
 40
0.6652401271
 40
0.6848224416
 40
0.7040745256
 40
0.7229644518
 40
0.7414611486
 40
0.75953448
 40
0.7771553207
 40
0.7942956584
 40
0.81092873
 40
0.827029109
 40
0.8425728172
 40
0.8575374847
 40
0.8719025356
 40
0.8856493411
 40
0.8987614389
 40
0.911224845
 40
0.9230284005
 40
0.9341641721
 40
0.9446280174
 40
0.9544203652
 40
0.9590667794
 40
0.9635480768
 40
0.9678660966
 40
0.9720231996
 40
0.9760223019
 40
0.9798670466
 40
0.9835617895
 40
0.9871117241
 40
0.9905230284
 40
0.9938028811
 40
1.0
 40
1.0
 40
1.0
 40
1.0
 10
12.8884436085
 20
7.48605499
 30
0.0
 10
12.8892516246
 20
7.4868354736
 30
0.0
 10
12.8908668745
 20
7.4884625489
 30
0.0
 10
12.8932415972
 20
7.4910436894
 30
0.0
 10
12.8956140867
 20
7.4938115254
 30
0.0
 10
12.897983126
 20
7.4967646973
 30
0.0
 10
12.900347732
 20
7.4999018572
 30
0.0
 10
12.9027068524
 20
7.5032216499
 30
0.0
 10
12.9050594906
 20
7.5067226031
 30
0.0
 10
12.9082386551
 20
7.5117123148
 30
0.0
 10
12.9121810099
 20
7.5184010766
 30
0.0
 10
12.9167944148
 20
7.5269960124
 30
0.0
 10
12.9213568338
 20
7.5362712789
 30
0.0
 10
12.9258599901
 20
7.5462101851
 30
0.0
 10
12.9302957317
 20
7.5567949847
 30
0.0
 10
12.9346559929
 20
7.5680066234
 30
0.0
 10
12.9389328223
 20
7.5798248912
 30
0.0
 10
12.9431184017
 20
7.5922284371
 30
0.0
 10
12.9472050932
 20
7.6051948076
 30
0.0
 10
12.9511854361
 20
7.6187005013
 30
0.0
 10
12.9550521552
 20
7.6327210268
 30
0.0
 10
12.9587981777
 20
7.6472309424
 30
0.0
 10
12.9624166716
 20
7.6622038963
 30
0.0
 10
12.965901031
 20
7.6776126867
 30
0.0
 10
12.9692448908
 20
7.6934293201
 30
0.0
 10
12.9724421358
 20
7.7096250455
 30
0.0
 10
12.9754869674
 20
7.7261704394
 30
0.0
 10
12.9793639449
 20
7.7488203169
 30
0.0
 10
12.9837805075
 20
7.7777846401
 30
0.0
 10
12.9883551139
 20
7.8131966144
 30
0.0
 10
12.9922082876
 20
7.8492527474
 30
0.0
 10
12.9953119423
 20
7.8856909549
 30
0.0
 10
12.9976434081
 20
7.9222465353
 30
0.0
 10
12.9991858236
 20
7.9586539104
 30
0.0
 10
12.9999280134
 20
7.9946484255
 30
0.0
 10
12.9998752048
 20
8.0242663426
 30
0.0
 10
12.999421165
 20
8.0475529719
 30
0.0
 10
12.9988811866
 20
8.0646427898
 30
0.0
 10
12.9981406863
 20
8.0814365427
 30
0.0
 10
12.9972009991
 20
8.0979037182
 30
0.0
 10
12.9960638662
 20
8.1140143728
 30
0.0
 10
12.9947313844
 20
8.1297392265
 30
0.0
 10
12.9932060027
 20
8.1450496995
 30
0.0
 10
12.9914905161
 20
8.1599179729
 30
0.0
 10
12.989588089
 20
8.1743170461
 30
0.0
 10
12.9875022233
 20
8.1882207837
 30
0.0
 10
12.9852367485
 20
8.2016039578
 30
0.0
 10
12.9827958231
 20
8.2144423072
 30
0.0
 10
12.9801839453
 20
8.2267125917
 30
0.0
 10
12.9774059144
 20
8.2383926308
 30
0.0
 10
12.9744668167
 20
8.249461345
 30
0.0
 10
12.9713720297
 20
8.2598988283
 30
0.0
 10
12.9681272098
 20
8.2696863675
 30
0.0
 10
12.9647382207
 20
8.2788065925
 30
0.0
 10
12.961211157
 20
8.2872431343
 30
0.0
 10
12.9581100274
 20
8.2938019857
 30
0.0
 10
12.9555572484
 20
8.298685221
 30
0.0
 10
12.9536456691
 20
8.3021030021
 30
0.0
 10
12.9517044092
 20
8.3053389801
 30
0.0
 10
12.949734307
 20
8.3083917292
 30
0.0
 10
12.947736174
 20
8.3112598599
 30
0.0
 10
12.945710912
 20
8.3139421135
 30
0.0
 10
12.9436593397
 20
8.316437303
 30
0.0
 10
12.9415823559
 20
8.3187442143
 30
0.0
 10
12.9394805813
 20
8.3208620553
 30
0.0
 10
12.9366997892
 20
8.3233839326
 30
0.0
 10
12.9345005178
 20
8.3250660366
 30
0.0
 10
12.9329958558
 20
8.3260623766
 30
0.0
  0
SPLINE
  5
373
100
AcDbEntity
  8
0
100
AcDbSpline
 62
7
  6
CONTINUOUS
 70
0
 71
3
 72
21
 73
17
 74
0
 42
0.0000001
 43
0.0000001
 44
0.0000000001
 40
0.0
 40
0.0
 40
0.0
 40
0.0
 40
0.061653237
 40
0.123329498
 40
0.1850515502
 40
0.2468416698
 40
0.3087213548
 40
0.370711108
 40
0.4328302426
 40
0.495096636
 40
0.5575265765
 40
0.6201345494
 40
0.682933126
 40
0.7459332432
 40
0.8725261314
 40
1.0
 40
1.0
 40
1.0
 40
1.0
 10
12.4364935616
 20
9.4236405622
 30
0.0
 10
12.4349168548
 20
9.42211757
 30
0.0
 10
12.4316802677
 20
9.4191551967
 30
0.0
 10
12.4265925628
 20
9.4149781804
 30
0.0
 10
12.4212839467
 20
9.4110772351
 30
0.0
 10
12.4157679588
 20
9.4074623774
 30
0.0
 10
12.4100584346
 20
9.4041426956
 30
0.0
 10
12.4041698055
 20
9.4011265092
 30
0.0
 10
12.3981168982
 20
9.3984214118
 30
0.0
 10
12.3919149529
 20
9.3960342463
 30
0.0
 10
12.3855796036
 20
9.393970961
 30
0.0
 10
12.3791268549
 20
9.3922367442
 30
0.0
 10
12.3725727583
 20
9.390835979
 30
0.0
 10
12.3637084053
 20
9.3894154129
 30
0.0
 10
12.3524520837
 20
9.388492477
 30
0.0
 10
12.3434026796
 20
9.3886690856
 30
0.0
 10
12.338881069
 20
9.3889826603
 30
0.0
  0
SPLINE
  5
374
100
AcDbEntity
  8
0
100
AcDbSpline
 62
7
  6
CONTINUOUS
 70
0
 71
3
 72
11
 73
7
 74
0
 42
0.0000001
 43
0.0000001
 44
0.0000000001
 40
0.0
 40
0.0
 40
0.0
 40
0.0
 40
0.2730455232
 40
0.5298860536
 40
0.7716949754
 40
1.0
 40
1.0
 40
1.0
 40
1.0
 10
12.8884436085
 20
7.48605499
 30
0.0
 10
12.8872650356
 20
7.4849165759
 30
0.0
 10
12.8849094576
 20
7.4827762913
 30
0.0
 10
12.8812656358
 20
7.4799109587
 30
0.0
 10
12.8776264941
 20
7.4774959436
 30
0.0
 10
12.8751395364
 20
7.4761528689
 30
0.0
 10
12.8739017772
 20
7.4755653803
 30
0.0
  0
SPLINE
  5
375
100
AcDbEntity
  8
0
100
AcDbSpline
 62
7
  6
CONTINUOUS
 70
0
 71
3
 72
15
 73
11
 74
0
 42
0.0000001
 43
0.0000001
 44
0.0000000001
 40
0.0
 40
0.0
 40
0.0
 40
0.0
 40
0.148189077
 40
0.2884124565
 40
0.4211645545
 40
0.5470824521
 40
0.6669392739
 40
0.7816491473
 40
0.892270482
 40
1.0
 40
1.0
 40
1.0
 40
1.0
 10
12.8884436085
 20
7.4986120265
 30
0.0
 10
12.8874084438
 20
7.497612134
 30
0.0
 10
12.8853392415
 20
7.4957212483
 30
0.0
 10
12.8821483258
 20
7.4931573842
 30
0.0
 10
12.8789607537
 20
7.4909492009
 30
0.0
 10
12.8757790284
 20
7.489099095
 30
0.0
 10
12.8726053245
 20
7.4876093298
 30
0.0
 10
12.8694419427
 20
7.4864820204
 30
0.0
 10
12.8662922127
 20
7.4857195606
 30
0.0
 10
12.8641828485
 20
7.4854531502
 30
0.0
 10
12.8631389123
 20
7.48538325
 30
0.0
  0
SPLINE
  5
376
100
AcDbEntity
  8
0
100
AcDbSpline
 62
7
  6
CONTINUOUS
 70
0
 71
3
 72
11
 73
7
 74
0
 42
0.0000001
 43
0.0000001
 44
0.0000000001
 40
0.0
 40
0.0
 40
0.0
 40
0.0
 40
0.2783980103
 40
0.5363556557
 40
0.7759608084
 40
1.0
 40
1.0
 40
1.0
 40
1.0
 10
12.8708767651
 20
7.509972513
 30
0.0
 10
12.869496189
 20
7.5086389787
 30
0.0
 10
12.8667376305
 20
7.5061685499
 30
0.0
 10
12.8624358062
 20
7.5029734428
 30
0.0
 10
12.8581402579
 20
7.5004432549
 30
0.0
 10
12.855197121
 20
7.4991675774
 30
0.0
 10
12.8537394354
 20
7.4986565424
 30
0.0
  0
SPLINE
  5
377
100
AcDbEntity
  8
0
100
AcDbSpline
 62
7
  6
CONTINUOUS
 70
0
 71
3
 72
21
 73
17
 74
0
 42
0.0000001
 43
0.0000001
 44
0.0000000001
 40
0.0
 40
0.0
 40
0.0
 40
0.0
 40
0.061653237
 40
0.123329498
 40
0.1850515502
 40
0.2468416698
 40
0.3087213548
 40
0.370711108
 40
0.4328302426
 40
0.495096636
 40
0.5575265765
 40
0.6201345494
 40
0.682933126
 40
0.7459332432
 40
0.8725261314
 40
1.0
 40
1.0
 40
1.0
 40
1.0
 10
9.6971277603
 20
9.6136162258
 30
0.0
 10
9.6955510535
 20
9.6120932335
 30
0.0
 10
9.6923144664
 20
9.6091308603
 30
0.0
 10
9.6872267615
 20
9.604953844
 30
0.0
 10
9.6819181454
 20
9.6010528986
 30
0.0
 10
9.6764021575
 20
9.5974380409
 30
0.0
 10
9.6706926333
 20
9.5941183592
 30
0.0
 10
9.6648040042
 20
9.5911021727
 30
0.0
 10
9.6587510969
 20
9.5883970754
 30
0.0
 10
9.6525491517
 20
9.5860099099
 30
0.0
 10
9.6462138023
 20
9.5839466246
 30
0.0
 10
9.6397610536
 20
9.5822124077
 30
0.0
 10
9.633206957
 20
9.5808116426
 30
0.0
 10
9.624342604
 20
9.5793910765
 30
0.0
 10
9.6130862824
 20
9.5784681405
 30
0.0
 10
9.6040368783
 20
9.5786447491
 30
0.0
 10
9.5995152677
 20
9.5789583239
 30
0.0
  0
SPLINE
  5
378
100
AcDbEntity
  8
0
100
AcDbSpline
 62
7
  6
CONTINUOUS
 70
0
 71
3
 72
15
 73
11
 74
0
 42
0.0000001
 43
0.0000001
 44
0.0000000001
 40
0.0
 40
0.0
 40
0.0
 40
0.0
 40
0.1233171148
 40
0.2468171822
 40
0.3706750007
 40
0.4950496181
 40
0.6200773069
 40
0.7458672043
 40
0.8724928123
 40
1.0
 40
1.0
 40
1.0
 40
1.0
 10
11.5063508005
 20
7.5412456841
 30
0.0
 10
11.5046004779
 20
7.5395550215
 30
0.0
 10
11.5009119619
 20
7.5363571714
 30
0.0
 10
11.4948919904
 20
7.5321784252
 30
0.0
 10
11.4884413861
 20
7.5286558185
 30
0.0
 10
11.4816261985
 20
7.5258255272
 30
0.0
 10
11.4745151637
 20
7.5237156482
 30
0.0
 10
11.4671799096
 20
7.5223472969
 30
0.0
 10
11.4596953126
 20
7.5217337753
 30
0.0
 10
11.454671291
 20
7.5218317755
 30
0.0
 10
11.4521611245
 20
7.5220058562
 30
0.0
  0
SPLINE
  5
379
100
AcDbEntity
  8
0
100
AcDbSpline
 62
7
  6
CONTINUOUS
 70
0
 71
3
 72
39
 73
35
 74
0
 42
0.0000001
 43
0.0000001
 44
0.0000000001
 40
0.0
 40
0.0
 40
0.0
 40
0.0
 40
0.0299424741
 40
0.0599093236
 40
0.0899243299
 40
0.1200101071
 40
0.1501875628
 40
0.1804754121
 40
0.2108897558
 40
0.2414437341
 40
0.2721472619
 40
0.3030068476
 40
0.3340255003
 40
0.3652027176
 40
0.3965345493
 40
0.4280137317
 40
0.459629888
 40
0.4913697842
 40
0.5232176352
 40
0.5551554541
 40
0.5871634377
 40
0.6192203778
 40
0.6513040905
 40
0.68339186
 40
0.715460889
 40
0.7474887514
 40
0.779453839
 40
0.8113357971
 40
0.8431159663
 40
0.8747776774
 40
0.9063069717
 40
0.937691796
 40
0.9689252179
 40
1.0
 40
1.0
 40
1.0
 40
1.0
 10
10.2636259557
 20
7.6587721611
 30
0.0
 10
10.2622241258
 20
7.6574181032
 30
0.0
 10
10.2593102474
 20
7.6548192552
 30
0.0
 10
10.254641749
 20
7.6512787966
 30
0.0
 10
10.2496994461
 20
7.6481138554
 30
0.0
 10
10.244510952
 20
7.6453421875
 30
0.0
 10
10.2391047933
 20
7.6429789334
 30
0.0
 10
10.2335108051
 20
7.6410370839
 30
0.0
 10
10.2277598127
 20
7.6395272648
 30
0.0
 10
10.2218834992
 20
7.6384577214
 30
0.0
 10
10.2159142183
 20
7.6378342677
 30
0.0
 10
10.2098848193
 20
7.6376602536
 30
0.0
 10
10.2038284629
 20
7.6379365547
 30
0.0
 10
10.1977784401
 20
7.6386615748
 30
0.0
 10
10.1917679917
 20
7.6398312579
 30
0.0
 10
10.1858301274
 20
7.6414391129
 30
0.0
 10
10.1799974484
 20
7.6434762516
 30
0.0
 10
10.1743019702
 20
7.6459314385
 30
0.0
 10
10.168774951
 20
7.6487911536
 30
0.0
 10
10.1634467181
 20
7.6520396598
 30
0.0
 10
10.158346505
 20
7.6556590953
 30
0.0
 10
10.1535022944
 20
7.6596295729
 30
0.0
 10
10.1489406667
 20
7.6639292877
 30
0.0
 10
10.1446866561
 20
7.6685346358
 30
0.0
 10
10.1407636151
 20
7.6734203422
 30
0.0
 10
10.1371930874
 20
7.6785595977
 30
0.0
 10
10.1339946923
 20
7.6839242041
 30
0.0
 10
10.131186006
 20
7.6894847243
 30
0.0
 10
10.1287824854
 20
7.695210642
 30
0.0
 10
10.1267973436
 20
7.7010705475
 30
0.0
 10
10.1252415787
 20
7.7070322263
 30
0.0
 10
10.1241236999
 20
7.7130631179
 30
0.0
 10
10.1234500404
 20
7.7191295989
 30
0.0
 10
10.12329913
 20
7.7231868866
 30
0.0
 10
10.12329913
 20
7.7252095898
 30
0.0
  0
SPLINE
  5
37A
100
AcDbEntity
  8
0
100
AcDbSpline
 62
7
  6
CONTINUOUS
 70
0
 71
3
 72
39
 73
35
 74
0
 42
0.0000001
 43
0.0000001
 44
0.0000000001
 40
0.0
 40
0.0
 40
0.0
 40
0.0
 40
0.0299424741
 40
0.0599093236
 40
0.0899243299
 40
0.1200101071
 40
0.1501875628
 40
0.1804754121
 40
0.2108897558
 40
0.2414437341
 40
0.2721472619
 40
0.3030068476
 40
0.3340255003
 40
0.3652027176
 40
0.3965345493
 40
0.4280137317
 40
0.459629888
 40
0.4913697842
 40
0.5232176352
 40
0.5551554541
 40
0.5871634377
 40
0.6192203778
 40
0.6513040905
 40
0.68339186
 40
0.715460889
 40
0.7474887514
 40
0.779453839
 40
0.8113357971
 40
0.8431159663
 40
0.8747776774
 40
0.9063069717
 40
0.937691796
 40
0.9689252179
 40
1.0
 40
1.0
 40
1.0
 40
1.0
 10
10.2636259557
 20
8.8362357956
 30
0.0
 10
10.2622241258
 20
8.8348817377
 30
0.0
 10
10.2593102474
 20
8.8322828897
 30
0.0
 10
10.254641749
 20
8.8287424311
 30
0.0
 10
10.2496994461
 20
8.8255774899
 30
0.0
 10
10.244510952
 20
8.8228058221
 30
0.0
 10
10.2391047933
 20
8.8204425679
 30
0.0
 10
10.2335108051
 20
8.8185007184
 30
0.0
 10
10.2277598127
 20
8.8169908993
 30
0.0
 10
10.2218834992
 20
8.8159213559
 30
0.0
 10
10.2159142183
 20
8.8152979022
 30
0.0
 10
10.2098848193
 20
8.8151238882
 30
0.0
 10
10.2038284629
 20
8.8154001892
 30
0.0
 10
10.1977784401
 20
8.8161252093
 30
0.0
 10
10.1917679917
 20
8.8172948924
 30
0.0
 10
10.1858301274
 20
8.8189027474
 30
0.0
 10
10.1799974484
 20
8.8209398862
 30
0.0
 10
10.1743019702
 20
8.823395073
 30
0.0
 10
10.168774951
 20
8.8262547881
 30
0.0
 10
10.1634467181
 20
8.8295032943
 30
0.0
 10
10.158346505
 20
8.8331227298
 30
0.0
 10
10.1535022944
 20
8.8370932074
 30
0.0
 10
10.1489406667
 20
8.8413929222
 30
0.0
 10
10.1446866561
 20
8.8459982703
 30
0.0
 10
10.1407636151
 20
8.8508839767
 30
0.0
 10
10.1371930874
 20
8.8560232322
 30
0.0
 10
10.1339946923
 20
8.8613878386
 30
0.0
 10
10.131186006
 20
8.8669483588
 30
0.0
 10
10.1287824854
 20
8.8726742765
 30
0.0
 10
10.1267973436
 20
8.878534182
 30
0.0
 10
10.1252415787
 20
8.8844958608
 30
0.0
 10
10.1241236999
 20
8.8905267524
 30
0.0
 10
10.1234500404
 20
8.8965932334
 30
0.0
 10
10.12329913
 20
8.9006505211
 30
0.0
 10
10.12329913
 20
8.9026732243
 30
0.0
  0
SPLINE
  5
37B
100
AcDbEntity
  8
0
100
AcDbSpline
 62
7
  6
CONTINUOUS
 70
0
 71
3
 72
79
 73
75
 74
0
 42
0.0000001
 43
0.0000001
 44
0.0000000001
 40
0.0
 40
0.0
 40
0.0
 40
0.0
 40
0.0039560108
 40
0.0080772526
 40
0.0123672752
 40
0.0168290416
 40
0.0214650553
 40
0.0262773074
 40
0.0312671531
 40
0.0364354308
 40
0.041782613
 40
0.0473087458
 40
0.0588960363
 40
0.0711922394
 40
0.0841874692
 40
0.0978682933
 40
0.112218173
 40
0.1272178823
 40
0.1428458183
 40
0.1590782331
 40
0.1758894199
 40
0.1932519274
 40
0.2111367204
 40
0.2295133047
 40
0.248349839
 40
0.2676132841
 40
0.2872695146
 40
0.3072834118
 40
0.3276189584
 40
0.3691063989
 40
0.4114305973
 40
0.4542815324
 40
0.4973442442
 40
0.5403017884
 40
0.5828381983
 40
0.6246414709
 40
0.6451728663
 40
0.6654072997
 40
0.6853082261
 40
0.7048399086
 40
0.7239675321
 40
0.7426573194
 40
0.7608766185
 40
0.778594011
 40
0.7957794528
 40
0.8124044178
 40
0.8284420169
 40
0.8438671561
 40
0.8586567504
 40
0.8727899539
 40
0.8862483937
 40
0.8990164912
 40
0.9110819013
 40
0.9224360403
 40
0.9278452092
 40
0.9330754179
 40
0.9381269739
 40
0.943000636
 40
0.9476975505
 40
0.9522194153
 40
0.9565684954
 40
0.9607476489
 40
0.964760521
 40
0.9686115289
 40
0.9723060082
 40
0.9758503723
 40
0.9792521397
 40
0.9825201504
 40
0.9856646502
 40
0.9886973594
 40
0.9916316148
 40
0.994482309
 40
0.9972658479
 40
1.0
 40
1.0
 40
1.0
 40
1.0
 10
12.8884436085
 20
7.4986120265
 30
0.0
 10
12.8892583441
 20
7.4993990006
 30
0.0
 10
12.8908869558
 20
7.5010422634
 30
0.0
 10
12.8932794271
 20
7.5036541124
 30
0.0
 10
12.8956694586
 20
7.5064612616
 30
0.0
 10
12.8980557402
 20
7.5094622252
 30
0.0
 10
12.9004372061
 20
7.5126555332
 30
0.0
 10
12.9028127144
 20
7.5160396993
 30
0.0
 10
12.9051811629
 20
7.5196130937
 30
0.0
 10
12.9075414108
 20
7.5233739753
 30
0.0
 10
12.9098922839
 20
7.5273205381
 30
0.0
 10
12.9130630043
 20
7.5329163803
 30
0.0
 10
12.9169868663
 20
7.5403699726
 30
0.0
 10
12.9215686276
 20
7.5498860458
 30
0.0
 10
12.9260860855
 20
7.5600918513
 30
0.0
 10
12.9305303613
 20
7.5709675006
 30
0.0
 10
12.9348927358
 20
7.5824919249
 30
0.0
 10
12.9391646167
 20
7.5946426724
 30
0.0
 10
12.9433375795
 20
7.6073960481
 30
0.0
 10
12.9474033864
 20
7.6207271357
 30
0.0
 10
12.9513540277
 20
7.6346098516
 30
0.0
 10
12.955181712
 20
7.6490170125
 30
0.0
 10
12.9588788868
 20
7.6639203978
 30
0.0
 10
12.962438256
 20
7.6792907986
 30
0.0
 10
12.9658528123
 20
7.6950980715
 30
0.0
 10
12.9691158294
 20
7.7113112123
 30
0.0
 10
12.9722208673
 20
7.7278984111
 30
0.0
 10
12.9751618314
 20
7.744827147
 30
0.0
 10
12.9788812164
 20
7.7679634833
 30
0.0
 10
12.9830708425
 20
7.7974919943
 30
0.0
 10
12.9873289404
 20
7.8335123529
 30
0.0
 10
12.9908166877
 20
7.8700685949
 30
0.0
 10
12.9935066005
 20
7.9068739353
 30
0.0
 10
12.9953776096
 20
7.943639869
 30
0.0
 10
12.99641505
 20
7.9800779535
 30
0.0
 10
12.9965795171
 20
8.0101089551
 30
0.0
 10
12.99628066
 20
8.0337501025
 30
0.0
 10
12.9958464432
 20
8.0511162491
 30
0.0
 10
12.9952017676
 20
8.0681894032
 30
0.0
 10
12.9943478912
 20
8.0849360832
 30
0.0
 10
12.9932865163
 20
8.1013234199
 30
0.0
 10
12.9920197608
 20
8.1173192674
 30
0.0
 10
12.9905501433
 20
8.1328922505
 30
0.0
 10
12.9888805767
 20
8.148011828
 30
0.0
 10
12.9870143747
 20
8.1626483613
 30
0.0
 10
12.9849552537
 20
8.1767731786
 30
0.0
 10
12.9827073046
 20
8.190358625
 30
0.0
 10
12.9802749844
 20
8.2033781196
 30
0.0
 10
12.9776631203
 20
8.2158062215
 30
0.0
 10
12.9748769046
 20
8.2276186978
 30
0.0
 10
12.9719218598
 20
8.2387925452
 30
0.0
 10
12.9688038165
 20
8.2493061303
 30
0.0
 10
12.9655289121
 20
8.2591389702
 30
0.0
 10
12.9626294938
 20
8.2668703343
 30
0.0
 10
12.9602288809
 20
8.2726928607
 30
0.0
 10
12.9584223642
 20
8.2768070205
 30
0.0
 10
12.9565815167
 20
8.2807372776
 30
0.0
 10
12.9547072503
 20
8.2844817527
 30
0.0
 10
12.9528004281
 20
8.2880386173
 30
0.0
 10
12.9508619746
 20
8.2914061611
 30
0.0
 10
12.9488928306
 20
8.2945827764
 30
0.0
 10
12.9468938665
 20
8.2975669075
 30
0.0
 10
12.9448660538
 20
8.3003571468
 30
0.0
 10
12.9428102993
 20
8.3029521448
 30
0.0
 10
12.940727495
 20
8.3053506208
 30
0.0
 10
12.9386186057
 20
8.30755144
 30
0.0
 10
12.9364844914
 20
8.3095534593
 30
0.0
 10
12.9343260735
 20
8.311355646
 30
0.0
 10
12.9321442891
 20
8.3129570434
 30
0.0
 10
12.929940017
 20
8.3143566383
 30
0.0
 10
12.9277142966
 20
8.3155535767
 30
0.0
 10
12.9254680937
 20
8.3165469917
 30
0.0
 10
12.9232027782
 20
8.3173359872
 30
0.0
 10
12.9216698841
 20
8.31772802
 30
0.0
 10
12.9209036266
 20
8.3178885253
 30
0.0
  0
SPLINE
  5
37C
100
AcDbEntity
  8
0
100
AcDbSpline
 62
7
  6
CONTINUOUS
 70
0
 71
3
 72
73
 73
69
 74
0
 42
0.0000001
 43
0.0000001
 44
0.0000000001
 40
0.0
 40
0.0
 40
0.0
 40
0.0
 40
0.003888158
 40
0.00793453
 40
0.0121424545
 40
0.0165147245
 40
0.0210537193
 40
0.0257613561
 40
0.0306389886
 40
0.0356874595
 40
0.0462979645
 40
0.057593527
 40
0.0695694391
 40
0.0822170854
 40
0.0955245076
 40
0.109476859
 40
0.1240567902
 40
0.1392447181
 40
0.1550190179
 40
0.1713562586
 40
0.1882313812
 40
0.2056178167
 40
0.2234876029
 40
0.2418115391
 40
0.260559291
 40
0.279699464
 40
0.2991997122
 40
0.3190268502
 40
0.3595246125
 40
0.4009142557
 40
0.4429084572
 40
0.4852144645
 40
0.5275367606
 40
0.5695796857
 40
0.6110500563
 40
0.6516598133
 40
0.6715543697
 40
0.6911294516
 40
0.7103516841
 40
0.7291885321
 40
0.7476084002
 40
0.7655807029
 40
0.7830759632
 40
0.8000659552
 40
0.816523803
 40
0.832424084
 40
0.8477429844
 40
0.8624584964
 40
0.876550566
 40
0.8900013042
 40
0.9027952922
 40
0.9149199278
 40
0.9263658059
 40
0.9371272639
 40
0.9472031429
 40
0.9519855063
 40
0.9565985865
 40
0.961043988
 40
0.9653238287
 40
0.9694407631
 40
0.973398162
 40
0.977200097
 40
0.9808514547
 40
0.984358102
 40
0.9877268954
 40
0.9909658603
 40
0.9940843021
 40
1.0
 40
1.0
 40
1.0
 40
1.0
 10
12.8708767651
 20
7.509972513
 30
0.0
 10
12.8716501989
 20
7.5107195927
 30
0.0
 10
12.8731962982
 20
7.5122778248
 30
0.0
 10
12.8754687934
 20
7.5147512592
 30
0.0
 10
12.8777391007
 20
7.5174055064
 30
0.0
 10
12.8800060238
 20
7.5202392316
 30
0.0
 10
12.8822685996
 20
7.5232511077
 30
0.0
 10
12.8845257979
 20
7.5264398017
 30
0.0
 10
12.8867766397
 20
7.5298038676
 30
0.0
 10
12.8898184685
 20
7.5346009166
 30
0.0
 10
12.8935897867
 20
7.5410342373
 30
0.0
 10
12.898001428
 20
7.549303721
 30
0.0
 10
12.9023631022
 20
7.5582310394
 30
0.0
 10
12.906666698
 20
7.5677997353
 30
0.0
 10
12.9109042341
 20
7.5779922992
 30
0.0
 10
12.9150678124
 20
7.5887899314
 30
0.0
 10
12.9191496501
 20
7.6001726898
 30
0.0
 10
12.9231420997
 20
7.612119502
 30
0.0
 10
12.9270377
 20
7.6246082059
 30
0.0
 10
12.9308291608
 20
7.6376156093
 30
0.0
 10
12.9345093779
 20
7.6511175447
 30
0.0
 10
12.9380714573
 20
7.6650889057
 30
0.0
 10
12.9415087437
 20
7.6795036924
 30
0.0
 10
12.9448148049
 20
7.6943350743
 30
0.0
 10
12.9479834489
 20
7.709555444
 30
0.0
 10
12.9510087456
 20
7.7251364509
 30
0.0
 10
12.9538850712
 20
7.7410490913
 30
0.0
 10
12.9575399667
 20
7.7628217409
 30
0.0
 10
12.9616894418
 20
7.790647571
 30
0.0
 10
12.9659632239
 20
7.8246440628
 30
0.0
 10
12.969533599
 20
7.8592244006
 30
0.0
 10
12.9723739092
 20
7.8941310503
 30
0.0
 10
12.9744629187
 20
7.9291042034
 30
0.0
 10
12.9757851549
 20
7.9638835421
 30
0.0
 10
12.9763308507
 20
7.9982100375
 30
0.0
 10
12.9761341525
 20
8.0264147923
 30
0.0
 10
12.9755774695
 20
8.0485553907
 30
0.0
 10
12.9749679461
 20
8.0647764841
 30
0.0
 10
12.9741647879
 20
8.0806962573
 30
0.0
 10
12.9731694895
 20
8.0962850788
 30
0.0
 10
12.9719839435
 20
8.11151391
 30
0.0
 10
12.970610383
 20
8.126354393
 30
0.0
 10
12.9690513861
 20
8.1407788953
 30
0.0
 10
12.9673098979
 20
8.1547605733
 30
0.0
 10
12.9653892066
 20
8.168273421
 30
0.0
 10
12.9632929277
 20
8.1812923119
 30
0.0
 10
12.9610250011
 20
8.1937930564
 30
0.0
 10
12.9585897119
 20
8.2057524591
 30
0.0
 10
12.9559916491
 20
8.2171483592
 30
0.0
 10
12.9532356903
 20
8.2279596701
 30
0.0
 10
12.9503270057
 20
8.2381664503
 30
0.0
 10
12.9472710534
 20
8.2477499285
 30
0.0
 10
12.9440735092
 20
8.2566926441
 30
0.0
 10
12.9407402801
 20
8.264978135
 30
0.0
 10
12.9378056165
 20
8.2714306316
 30
0.0
 10
12.9353872879
 20
8.2762427862
 30
0.0
 10
12.9335750758
 20
8.2796151211
 30
0.0
 10
12.931733634
 20
8.2828122052
 30
0.0
 10
12.9298637845
 20
8.2858325951
 30
0.0
 10
12.9279663203
 20
8.2886748825
 30
0.0
 10
12.9260421165
 20
8.2913377924
 30
0.0
 10
12.9240920002
 20
8.2938201074
 30
0.0
 10
12.9221167783
 20
8.2961206539
 30
0.0
 10
12.9201173011
 20
8.2982384167
 30
0.0
 10
12.9180944591
 20
8.3001723129
 30
0.0
 10
12.9160487247
 20
8.3019215796
 30
0.0
 10
12.9133407275
 20
8.3039698602
 30
0.0
 10
12.9112048055
 20
8.3052861729
 30
0.0
 10
12.9097508468
 20
8.3060363315
 30
0.0
  0
SPLINE
  5
37D
100
AcDbEntity
  8
0
100
AcDbSpline
 62
7
  6
CONTINUOUS
 70
0
 71
3
 72
39
 73
35
 74
0
 42
0.0000001
 43
0.0000001
 44
0.0000000001
 40
0.0
 40
0.0
 40
0.0
 40
0.0
 40
0.0299424741
 40
0.0599093236
 40
0.0899243299
 40
0.1200101071
 40
0.1501875628
 40
0.1804754121
 40
0.2108897558
 40
0.2414437341
 40
0.2721472619
 40
0.3030068476
 40
0.3340255003
 40
0.3652027176
 40
0.3965345493
 40
0.4280137317
 40
0.459629888
 40
0.4913697842
 40
0.5232176352
 40
0.5551554541
 40
0.5871634377
 40
0.6192203778
 40
0.6513040905
 40
0.68339186
 40
0.715460889
 40
0.7474887514
 40
0.779453839
 40
0.8113357971
 40
0.8431159663
 40
0.8747776774
 40
0.9063069717
 40
0.937691796
 40
0.9689252179
 40
1.0
 40
1.0
 40
1.0
 40
1.0
 10
11.8033117389
 20
8.7603679147
 30
0.0
 10
11.801909909
 20
8.7590138569
 30
0.0
 10
11.7989960307
 20
8.7564150089
 30
0.0
 10
11.7943275322
 20
8.7528745503
 30
0.0
 10
11.7893852294
 20
8.7497096091
 30
0.0
 10
11.7841967352
 20
8.7469379412
 30
0.0
 10
11.7787905765
 20
8.7445746871
 30
0.0
 10
11.7731965884
 20
8.7426328376
 30
0.0
 10
11.7674455959
 20
8.7411230185
 30
0.0
 10
11.7615692824
 20
8.7400534751
 30
0.0
 10
11.7556000016
 20
8.7394300214
 30
0.0
 10
11.7495706026
 20
8.7392560073
 30
0.0
 10
11.7435142461
 20
8.7395323084
 30
0.0
 10
11.7374642234
 20
8.7402573285
 30
0.0
 10
11.7314537749
 20
8.7414270116
 30
0.0
 10
11.7255159107
 20
8.7430348666
 30
0.0
 10
11.7196832316
 20
8.7450720053
 30
0.0
 10
11.7139877534
 20
8.7475271922
 30
0.0
 10
11.7084607343
 20
8.7503869072
 30
0.0
 10
11.7031325014
 20
8.7536354135
 30
0.0
 10
11.6980322882
 20
8.757254849
 30
0.0
 10
11.6931880776
 20
8.7612253266
 30
0.0
 10
11.6886264499
 20
8.7655250414
 30
0.0
 10
11.6843724394
 20
8.7701303895
 30
0.0
 10
11.6804493984
 20
8.7750160959
 30
0.0
 10
11.6768788706
 20
8.7801553513
 30
0.0
 10
11.6736804755
 20
8.7855199578
 30
0.0
 10
11.6708717893
 20
8.791080478
 30
0.0
 10
11.6684682687
 20
8.7968063957
 30
0.0
 10
11.6664831268
 20
8.8026663012
 30
0.0
 10
11.6649273619
 20
8.80862798
 30
0.0
 10
11.6638094831
 20
8.8146588716
 30
0.0
 10
11.6631358236
 20
8.8207253526
 30
0.0
 10
11.6629849133
 20
8.8247826402
 30
0.0
 10
11.6629849133
 20
8.8268053435
 30
0.0
  0
SPLINE
  5
37E
100
AcDbEntity
  8
0
100
AcDbSpline
 62
7
  6
CONTINUOUS
 70
0
 71
3
 72
23
 73
19
 74
0
 42
0.0000001
 43
0.0000001
 44
0.0000000001
 40
0.0
 40
0.0
 40
0.0
 40
0.0
 40
0.0577246198
 40
0.1173320982
 40
0.1785736765
 40
0.2411911447
 40
0.3049184956
 40
0.3694835237
 40
0.434609394
 40
0.5000161937
 40
0.5654224726
 40
0.6305467826
 40
0.6951092183
 40
0.7588329591
 40
0.8214458204
 40
0.8826818227
 40
0.9422827907
 40
1.0
 40
1.0
 40
1.0
 40
1.0
 10
12.8101898315
 20
7.6968475873
 30
0.0
 10
12.8119487367
 20
7.7047627953
 30
0.0
 10
12.8153396073
 20
7.7208928276
 30
0.0
 10
12.8199836846
 20
7.7455441525
 30
0.0
 10
12.824252645
 20
7.770960373
 30
0.0
 10
12.8281267483
 20
7.7970248269
 30
0.0
 10
12.8315881251
 20
7.8236180649
 30
0.0
 10
12.8346208156
 20
7.8506181242
 30
0.0
 10
12.8372108524
 20
7.8779011748
 30
0.0
 10
12.8393463202
 20
7.9053420712
 30
0.0
 10
12.8410174104
 20
7.9328149381
 30
0.0
 10
12.8422164689
 20
7.9601937514
 30
0.0
 10
12.8429380312
 20
7.9873529215
 30
0.0
 10
12.8431788464
 20
8.0141678804
 30
0.0
 10
12.8429378954
 20
8.0405156373
 30
0.0
 10
12.8422163961
 20
8.0662754295
 30
0.0
 10
12.8410178069
 20
8.091328998
 30
0.0
 10
12.8398847448
 20
8.1077706427
 30
0.0
 10
12.8392346756
 20
8.115851781
 30
0.0
  0
SPLINE
  5
37F
100
AcDbEntity
  8
0
100
AcDbSpline
 62
7
  6
CONTINUOUS
 70
0
 71
3
 72
39
 73
35
 74
0
 42
0.0000001
 43
0.0000001
 44
0.0000000001
 40
0.0
 40
0.0
 40
0.0
 40
0.0
 40
0.0299424741
 40
0.0599093236
 40
0.0899243299
 40
0.1200101071
 40
0.1501875628
 40
0.1804754121
 40
0.2108897558
 40
0.2414437341
 40
0.2721472619
 40
0.3030068476
 40
0.3340255003
 40
0.3652027176
 40
0.3965345493
 40
0.4280137317
 40
0.459629888
 40
0.4913697842
 40
0.5232176352
 40
0.5551554541
 40
0.5871634377
 40
0.6192203778
 40
0.6513040905
 40
0.68339186
 40
0.715460889
 40
0.7474887514
 40
0.779453839
 40
0.8113357971
 40
0.8431159663
 40
0.8747776774
 40
0.9063069717
 40
0.937691796
 40
0.9689252179
 40
1.0
 40
1.0
 40
1.0
 40
1.0
 10
11.8033117389
 20
7.5220508694
 30
0.0
 10
11.801909909
 20
7.5206968116
 30
0.0
 10
11.7989960307
 20
7.5180979635
 30
0.0
 10
11.7943275322
 20
7.514557505
 30
0.0
 10
11.7893852294
 20
7.5113925638
 30
0.0
 10
11.7841967352
 20
7.5086208959
 30
0.0
 10
11.7787905765
 20
7.5062576417
 30
0.0
 10
11.7731965884
 20
7.5043157922
 30
0.0
 10
11.7674455959
 20
7.5028059732
 30
0.0
 10
11.7615692824
 20
7.5017364298
 30
0.0
 10
11.7556000016
 20
7.5011129761
 30
0.0
 10
11.7495706026
 20
7.500938962
 30
0.0
 10
11.7435142461
 20
7.5012152631
 30
0.0
 10
11.7374642234
 20
7.5019402832
 30
0.0
 10
11.7314537749
 20
7.5031099663
 30
0.0
 10
11.7255159107
 20
7.5047178213
 30
0.0
 10
11.7196832316
 20
7.50675496
 30
0.0
 10
11.7139877534
 20
7.5092101468
 30
0.0
 10
11.7084607343
 20
7.5120698619
 30
0.0
 10
11.7031325014
 20
7.5153183682
 30
0.0
 10
11.6980322882
 20
7.5189378037
 30
0.0
 10
11.6931880776
 20
7.5229082813
 30
0.0
 10
11.6886264499
 20
7.5272079961
 30
0.0
 10
11.6843724394
 20
7.5318133442
 30
0.0
 10
11.6804493984
 20
7.5366990506
 30
0.0
 10
11.6768788706
 20
7.541838306
 30
0.0
 10
11.6736804755
 20
7.5472029125
 30
0.0
 10
11.6708717893
 20
7.5527634326
 30
0.0
 10
11.6684682687
 20
7.5584893504
 30
0.0
 10
11.6664831268
 20
7.5643492558
 30
0.0
 10
11.6649273619
 20
7.5703109347
 30
0.0
 10
11.6638094831
 20
7.5763418263
 30
0.0
 10
11.6631358236
 20
7.5824083073
 30
0.0
 10
11.6629849133
 20
7.5864655949
 30
0.0
 10
11.6629849133
 20
7.5884882982
 30
0.0
  0
SPLINE
  5
380
100
AcDbEntity
  8
0
100
AcDbSpline
 62
7
  6
CONTINUOUS
 70
0
 71
3
 72
41
 73
37
 74
0
 42
0.0000001
 43
0.0000001
 44
0.0000000001
 40
0.0
 40
0.0
 40
0.0
 40
0.0
 40
0.0301994645
 40
0.060325634
 40
0.090408017
 40
0.1204773119
 40
0.150564451
 40
0.180699651
 40
0.2109115105
 40
0.2412261865
 40
0.2716666768
 40
0.3022522247
 40
0.3329978596
 40
0.3639140738
 40
0.3950066355
 40
0.4262765307
 40
0.4577200244
 40
0.4893288305
 40
0.5210903797
 40
0.5529881747
 40
0.5850022229
 40
0.6171095381
 40
0.6492847022
 40
0.6815004799
 40
0.7137284784
 40
0.7298410923
 40
0.7459459497
 40
0.7781120826
 40
0.8102053805
 40
0.8421999612
 40
0.8740723959
 40
0.9058023189
 40
0.9373732917
 40
0.9530981088
 40
0.9687793057
 40
1.0
 40
1.0
 40
1.0
 40
1.0
 10
11.1225515171
 20
7.7760920023
 30
0.0
 10
11.1209950338
 20
7.7732255357
 30
0.0
 10
11.1176300532
 20
7.767634171
 30
0.0
 10
11.1118624752
 20
7.7597393604
 30
0.0
 10
11.1054222459
 20
7.7524006129
 30
0.0
 10
11.0983559692
 20
7.7456690027
 30
0.0
 10
11.090713803
 20
7.7395899268
 30
0.0
 10
11.0825497832
 20
7.7342042785
 30
0.0
 10
11.0739211776
 20
7.7295478635
 30
0.0
 10
11.0648880968
 20
7.7256513486
 30
0.0
 10
11.0555130417
 20
7.7225401243
 30
0.0
 10
11.0458604809
 20
7.7202342369
 30
0.0
 10
11.0359964334
 20
7.7187483432
 30
0.0
 10
11.0259880672
 20
7.7180916936
 30
0.0
 10
11.0159033087
 20
7.718268132
 30
0.0
 10
11.0058104616
 20
7.7192761111
 30
0.0
 10
10.9957778315
 20
7.7211087212
 30
0.0
 10
10.9858733529
 20
7.723753731
 30
0.0
 10
10.9761642141
 20
7.7271936424
 30
0.0
 10
10.9667164804
 20
7.731405756
 30
0.0
 10
10.9575947008
 20
7.7363622673
 30
0.0
 10
10.9488615429
 20
7.7420303392
 30
0.0
 10
10.9405772822
 20
7.7483723668
 30
0.0
 10
10.9327998001
 20
7.7553456539
 30
0.0
 10
10.9267847217
 20
7.761645452
 30
0.0
 10
10.9222784551
 20
7.7669525424
 30
0.0
 10
10.9179862638
 20
7.7724257182
 30
0.0
 10
10.9130329019
 20
7.7795653035
 30
0.0
 10
10.9077891523
 20
7.7885543541
 30
0.0
 10
10.903284732
 20
7.7979009888
 30
0.0
 10
10.8995526612
 20
7.8075400522
 30
0.0
 10
10.8966202669
 20
7.81740385
 30
0.0
 10
10.8948584969
 20
7.8257660301
 30
0.0
 10
10.893869427
 20
7.8324975435
 30
0.0
 10
10.8931634024
 20
7.8392261571
 30
0.0
 10
10.8929492708
 20
7.844295209
 30
0.0
 10
10.8929492708
 20
7.8476672998
 30
0.0
  0
SPLINE
  5
381
100
AcDbEntity
  8
0
100
AcDbSpline
 62
7
  6
CONTINUOUS
 70
0
 71
3
 72
11
 73
7
 74
0
 42
0.0000001
 43
0.0000001
 44
0.0000000001
 40
0.0
 40
0.0
 40
0.0
 40
0.0
 40
0.2520316917
 40
0.5026839526
 40
0.7519785275
 40
1.0
 40
1.0
 40
1.0
 40
1.0
 10
11.5008190632
 20
7.5690058186
 30
0.0
 10
11.5028166954
 20
7.5688672823
 30
0.0
 10
11.5068138309
 20
7.5687487134
 30
0.0
 10
11.5127870265
 20
7.569051451
 30
0.0
 10
11.5186844984
 20
7.5698333072
 30
0.0
 10
11.5225509026
 20
7.570673018
 30
0.0
 10
11.5244575599
 20
7.5711708112
 30
0.0
  0
SPLINE
  5
382
100
AcDbEntity
  8
0
100
AcDbSpline
 62
7
  6
CONTINUOUS
 70
0
 71
3
 72
24
 73
20
 74
0
 42
0.0000001
 43
0.0000001
 44
0.0000000001
 40
0.0
 40
0.0
 40
0.0
 40
0.0
 40
0.0617854814
 40
0.1240400259
 40
0.1867209793
 40
0.2497603258
 40
0.3130734852
 40
0.376562205
 40
0.4401196767
 40
0.5036357633
 40
0.5670023331
 40
0.6301185305
 40
0.6928957858
 40
0.7552624133
 40
0.817167521
 40
0.8785840523
 40
0.939510779
 40
0.9698107803
 40
1.0
 40
1.0
 40
1.0
 40
1.0
 10
11.5008190632
 20
7.5690058186
 30
0.0
 10
11.4978973743
 20
7.5692084384
 30
0.0
 10
11.4920500697
 20
7.5699558273
 30
0.0
 10
11.4834372079
 20
7.5720702516
 30
0.0
 10
11.4750576915
 20
7.5751537846
 30
0.0
 10
11.4670250334
 20
7.5791647924
 30
0.0
 10
11.4594461393
 20
7.5840492903
 30
0.0
 10
11.4524223052
 20
7.589741752
 30
0.0
 10
11.4460473213
 20
7.5961660058
 30
0.0
 10
11.4404064221
 20
7.6032361926
 30
0.0
 10
11.43557505
 20
7.6108578376
 30
0.0
 10
11.4316179646
 20
7.6189291519
 30
0.0
 10
11.4285884132
 20
7.6273423614
 30
0.0
 10
11.4265272916
 20
7.6359849557
 30
0.0
 10
11.4254627296
 20
7.6447415508
 30
0.0
 10
11.4254093848
 20
7.6534940115
 30
0.0
 10
11.4262110568
 20
7.6607034403
 30
0.0
 10
11.4273543016
 20
7.6663467225
 30
0.0
 10
11.4280909914
 20
7.669119934
 30
0.0
 10
11.4284999028
 20
7.670491272
 30
0.0
  0
SPLINE
  5
383
100
AcDbEntity
  8
0
100
AcDbSpline
 62
7
  6
CONTINUOUS
 70
0
 71
3
 72
39
 73
35
 74
0
 42
0.0000001
 43
0.0000001
 44
0.0000000001
 40
0.0
 40
0.0
 40
0.0
 40
0.0
 40
0.0311160054
 40
0.0620232808
 40
0.0927351539
 40
0.1232711756
 40
0.1536587326
 40
0.1839312105
 40
0.2141268386
 40
0.2442870981
 40
0.2744549747
 40
0.3046731306
 40
0.33498209
 40
0.365418544
 40
0.3960138629
 40
0.4267928807
 40
0.457772997
 40
0.4889636213
 40
0.5203659688
 40
0.551973177
 40
0.5837707173
 40
0.6157370643
 40
0.6478445906
 40
0.6800606397
 40
0.7123487305
 40
0.7446698622
 40
0.7769838838
 40
0.8092508928
 40
0.841432625
 40
0.8734938027
 40
0.9054033951
 40
0.9371359477
 40
0.9686717614
 40
1.0
 40
1.0
 40
1.0
 40
1.0
 10
10.0969671187
 20
7.7212748185
 30
0.0
 10
10.0969671187
 20
7.724612762
 30
0.0
 10
10.0972929857
 20
7.7312710875
 30
0.0
 10
10.09876676
 20
7.7411254607
 30
0.0
 10
10.101209918
 20
7.7507224091
 30
0.0
 10
10.1045993649
 20
7.7599680527
 30
0.0
 10
10.1089026668
 20
7.7687732848
 30
0.0
 10
10.1140785234
 20
7.7770527957
 30
0.0
 10
10.1200770495
 20
7.7847264307
 30
0.0
 10
10.1268403125
 20
7.7917198588
 30
0.0
 10
10.1343028889
 20
7.7979653765
 30
0.0
 10
10.1423925293
 20
7.803402581
 30
0.0
 10
10.1510308711
 20
7.8079790216
 30
0.0
 10
10.1601342722
 20
7.8116506834
 30
0.0
 10
10.1696146648
 20
7.8143823902
 30
0.0
 10
10.1793804381
 20
7.816148113
 30
0.0
 10
10.1893373376
 20
7.8169312007
 30
0.0
 10
10.1993893883
 20
7.8167245258
 30
0.0
 10
10.2094398219
 20
7.8155304699
 30
0.0
 10
10.2193919909
 20
7.8133608772
 30
0.0
 10
10.2291502732
 20
7.8102369087
 30
0.0
 10
10.2386209796
 20
7.8061888639
 30
0.0
 10
10.247713232
 20
7.801255855
 30
0.0
 10
10.2563398045
 20
7.7954854134
 30
0.0
 10
10.2644179387
 20
7.788933039
 30
0.0
 10
10.2718701214
 20
7.7816616814
 30
0.0
 10
10.278624841
 20
7.7737411683
 30
0.0
 10
10.2846172324
 20
7.7652475081
 30
0.0
 10
10.289789692
 20
7.7562621931
 30
0.0
 10
10.2940924079
 20
7.7468713917
 30
0.0
 10
10.2974838935
 20
7.7371653003
 30
0.0
 10
10.299931291
 20
7.727236777
 30
0.0
 10
10.3014108913
 20
7.717182417
 30
0.0
 10
10.301743406
 20
7.7104342454
 30
0.0
 10
10.301743406
 20
7.7070735347
 30
0.0
  0
SPLINE
  5
384
100
AcDbEntity
  8
0
100
AcDbSpline
 62
7
  6
CONTINUOUS
 70
0
 71
3
 72
20
 73
16
 74
0
 42
0.0000001
 43
0.0000001
 44
0.0000000001
 40
0.0
 40
0.0
 40
0.0
 40
0.0
 40
0.1268690266
 40
0.2536169662
 40
0.3800447262
 40
0.4430940115
 40
0.5059786503
 40
0.5686686045
 40
0.6311343556
 40
0.6933483693
 40
0.7552864385
 40
0.816929759
 40
0.878264578
 40
0.9392878508
 40
1.0
 40
1.0
 40
1.0
 40
1.0
 10
11.4678955749
 20
8.2935924185
 30
0.0
 10
11.4715031845
 20
8.2900883336
 30
0.0
 10
11.4784019991
 20
8.2827512168
 30
0.0
 10
11.4876289605
 20
8.2708124764
 30
0.0
 10
11.4942393991
 20
8.2601295105
 30
0.0
 10
11.4987709155
 20
8.2512055161
 30
0.0
 10
11.5017632376
 20
8.244348057
 30
0.0
 10
11.5043255148
 20
8.2373430572
 30
0.0
 10
11.5064328036
 20
8.2302152974
 30
0.0
 10
11.5080615974
 20
8.2229934073
 30
0.0
 10
11.5091909561
 20
8.2157093767
 30
0.0
 10
11.5098032968
 20
8.2083984549
 30
0.0
 10
11.5098854781
 20
8.2010982356
 30
0.0
 10
11.5094294636
 20
8.1938489755
 30
0.0
 10
11.5087633315
 20
8.1890638522
 30
0.0
 10
11.5083403955
 20
8.1866945935
 30
0.0
  0
SPLINE
  5
385
100
AcDbEntity
  8
0
100
AcDbSpline
 62
7
  6
CONTINUOUS
 70
0
 71
3
 72
15
 73
11
 74
0
 42
0.0000001
 43
0.0000001
 44
0.0000000001
 40
0.0
 40
0.0
 40
0.0
 40
0.0
 40
0.1273482292
 40
0.2538605354
 40
0.3795879276
 40
0.5046050833
 40
0.6290174349
 40
0.7529533662
 40
0.8765605734
 40
1.0
 40
1.0
 40
1.0
 40
1.0
 10
10.12329913
 20
7.7252095898
 30
0.0
 10
10.12329913
 20
7.7278120197
 30
0.0
 10
10.1235476086
 20
7.733003395
 30
0.0
 10
10.1246713347
 20
7.7406906131
 30
0.0
 10
10.1265346629
 20
7.7481846801
 30
0.0
 10
10.1291207666
 20
7.7554155083
 30
0.0
 10
10.1324059015
 20
7.7623164193
 30
0.0
 10
10.1363601335
 20
7.7688236897
 30
0.0
 10
10.1409462822
 20
7.774876345
 30
0.0
 10
10.1443994183
 20
7.7785736538
 30
0.0
 10
10.1462137787
 20
7.7803261839
 30
0.0
  0
SPLINE
  5
386
100
AcDbEntity
  8
0
100
AcDbSpline
 62
7
  6
CONTINUOUS
 70
0
 71
3
 72
41
 73
37
 74
0
 42
0.0000001
 43
0.0000001
 44
0.0000000001
 40
0.0
 40
0.0
 40
0.0
 40
0.0
 40
0.0311444983
 40
0.062442467
 40
0.093887251
 40
0.1254695609
 40
0.157177086
 40
0.1889950997
 40
0.2209066479
 40
0.2528929497
 40
0.284933762
 40
0.3170077852
 40
0.3490930781
 40
0.3811674822
 40
0.4132090489
 40
0.445196464
 40
0.4771094635
 40
0.5089292351
 40
0.540638799
 40
0.5722233621
 40
0.6036706378
 40
0.6349711269
 40
0.6661183495
 40
0.6971090237
 40
0.7279431823
 40
0.7586242225
 40
0.7891588828
 40
0.8195571428
 40
0.8498320452
 40
0.86493089
 40
0.8800050502
 40
0.9100832578
 40
0.9400926753
 40
0.9550812784
 40
0.9700610371
 40
1.0
 40
1.0
 40
1.0
 40
1.0
 10
12.338881069
 20
9.3889826603
 30
0.0
 10
12.3355671214
 20
9.3892124834
 30
0.0
 10
12.3289372534
 20
9.3899158362
 30
0.0
 10
12.3190728366
 20
9.3916875672
 30
0.0
 10
12.3093140621
 20
9.3941692705
 30
0.0
 10
12.2997136685
 20
9.3973475455
 30
0.0
 10
12.2903226337
 20
9.4012053919
 30
0.0
 10
12.2811910587
 20
9.4057221577
 30
0.0
 10
12.2723675875
 20
9.4108737117
 30
0.0
 10
12.2638992365
 20
9.416632546
 30
0.0
 10
12.2558311248
 20
9.4229679325
 30
0.0
 10
12.2482062424
 20
9.4298460819
 30
0.0
 10
12.2410652222
 20
9.4372303236
 30
0.0
 10
12.2344461262
 20
9.4450812993
 30
0.0
 10
12.2283842442
 20
9.4533571704
 30
0.0
 10
12.2229119076
 20
9.462013839
 30
0.0
 10
12.2180583186
 20
9.47100518
 30
0.0
 10
12.2138493949
 20
9.4802832843
 30
0.0
 10
12.2103076326
 20
9.4897987106
 30
0.0
 10
12.2074519859
 20
9.4995007459
 30
0.0
 10
12.2052977649
 20
9.5093376718
 30
0.0
 10
12.2038565531
 20
9.5192570364
 30
0.0
 10
12.2031361426
 20
9.5292059312
 30
0.0
 10
12.2031404885
 20
9.5391312666
 30
0.0
 10
12.203869688
 20
9.5489800632
 30
0.0
 10
12.2053199552
 20
9.5586996934
 30
0.0
 10
12.2074837078
 20
9.5682383036
 30
0.0
 10
12.2103493318
 20
9.5775445663
 30
0.0
 10
12.2133128819
 20
9.5850727891
 30
0.0
 10
12.2160172651
 20
9.5909271556
 30
0.0
 10
12.2189358372
 20
9.5966542221
 30
0.0
 10
12.2229880965
 20
9.6035814191
 30
0.0
 10
12.2275615569
 20
9.6101650987
 30
0.0
 10
12.2315136947
 20
9.6151975078
 30
0.0
 10
12.2356543753
 20
9.6200656526
 30
0.0
 10
12.2389717715
 20
9.6235313733
 30
0.0
 10
12.2412685764
 20
9.6257499317
 30
0.0
  0
SPLINE
  5
387
100
AcDbEntity
  8
0
100
AcDbSpline
 62
7
  6
CONTINUOUS
 70
0
 71
3
 72
39
 73
35
 74
0
 42
0.0000001
 43
0.0000001
 44
0.0000000001
 40
0.0
 40
0.0
 40
0.0
 40
0.0
 40
0.0311160054
 40
0.0620232808
 40
0.0927351539
 40
0.1232711756
 40
0.1536587326
 40
0.1839312105
 40
0.2141268386
 40
0.2442870981
 40
0.2744549747
 40
0.3046731306
 40
0.33498209
 40
0.365418544
 40
0.3960138629
 40
0.4267928807
 40
0.457772997
 40
0.4889636213
 40
0.5203659688
 40
0.551973177
 40
0.5837707173
 40
0.6157370643
 40
0.6478445906
 40
0.6800606397
 40
0.7123487305
 40
0.7446698622
 40
0.7769838838
 40
0.8092508928
 40
0.841432625
 40
0.8734938027
 40
0.9054033951
 40
0.9371359477
 40
0.9686717614
 40
1.0
 40
1.0
 40
1.0
 40
1.0
 10
10.301743406
 20
7.7070735347
 30
0.0
 10
10.301743406
 20
7.7037355912
 30
0.0
 10
10.301417539
 20
7.6970772657
 30
0.0
 10
10.2999437647
 20
7.6872228925
 30
0.0
 10
10.2975006066
 20
7.6776259441
 30
0.0
 10
10.2941111598
 20
7.6683803005
 30
0.0
 10
10.2898078578
 20
7.6595750684
 30
0.0
 10
10.2846320013
 20
7.6512955575
 30
0.0
 10
10.2786334751
 20
7.6436219226
 30
0.0
 10
10.2718702122
 20
7.6366284944
 30
0.0
 10
10.2644076358
 20
7.6303829767
 30
0.0
 10
10.2563179953
 20
7.6249457722
 30
0.0
 10
10.2476796536
 20
7.6203693316
 30
0.0
 10
10.2385762524
 20
7.6166976698
 30
0.0
 10
10.2290958598
 20
7.613965963
 30
0.0
 10
10.2193300866
 20
7.6122002402
 30
0.0
 10
10.209373187
 20
7.6114171525
 30
0.0
 10
10.1993211363
 20
7.6116238274
 30
0.0
 10
10.1892707028
 20
7.6128178833
 30
0.0
 10
10.1793185337
 20
7.614987476
 30
0.0
 10
10.1695602515
 20
7.6181114445
 30
0.0
 10
10.160089545
 20
7.6221594894
 30
0.0
 10
10.1509972926
 20
7.6270924982
 30
0.0
 10
10.1423707201
 20
7.6328629398
 30
0.0
 10
10.1342925859
 20
7.6394153142
 30
0.0
 10
10.1268404032
 20
7.6466866718
 30
0.0
 10
10.1200856836
 20
7.6546071849
 30
0.0
 10
10.1140932922
 20
7.6631008451
 30
0.0
 10
10.1089208327
 20
7.6720861601
 30
0.0
 10
10.1046181168
 20
7.6814769615
 30
0.0
 10
10.1012266311
 20
7.6911830529
 30
0.0
 10
10.0987792337
 20
7.7011115762
 30
0.0
 10
10.0972996334
 20
7.7111659362
 30
0.0
 10
10.0969671187
 20
7.7179141078
 30
0.0
 10
10.0969671187
 20
7.7212748185
 30
0.0
  0
SPLINE
  5
388
100
AcDbEntity
  8
0
100
AcDbSpline
 62
7
  6
CONTINUOUS
 70
0
 71
3
 72
41
 73
37
 74
0
 42
0.0000001
 43
0.0000001
 44
0.0000000001
 40
0.0
 40
0.0
 40
0.0
 40
0.0
 40
0.0311444983
 40
0.062442467
 40
0.093887251
 40
0.1254695609
 40
0.157177086
 40
0.1889950997
 40
0.2209066479
 40
0.2528929497
 40
0.284933762
 40
0.3170077852
 40
0.3490930781
 40
0.3811674822
 40
0.4132090489
 40
0.445196464
 40
0.4771094635
 40
0.5089292351
 40
0.540638799
 40
0.5722233621
 40
0.6036706378
 40
0.6349711269
 40
0.6661183495
 40
0.6971090237
 40
0.7279431823
 40
0.7586242225
 40
0.7891588828
 40
0.8195571428
 40
0.8498320452
 40
0.86493089
 40
0.8800050502
 40
0.9100832578
 40
0.9400926753
 40
0.9550812784
 40
0.9700610371
 40
1.0
 40
1.0
 40
1.0
 40
1.0
 10
12.338881069
 20
6.649616859
 30
0.0
 10
12.3355671214
 20
6.6498466821
 30
0.0
 10
12.3289372534
 20
6.6505500349
 30
0.0
 10
12.3190728366
 20
6.6523217659
 30
0.0
 10
12.3093140621
 20
6.6548034692
 30
0.0
 10
12.2997136685
 20
6.6579817442
 30
0.0
 10
12.2903226337
 20
6.6618395906
 30
0.0
 10
12.2811910587
 20
6.6663563564
 30
0.0
 10
12.2723675875
 20
6.6715079104
 30
0.0
 10
12.2638992365
 20
6.6772667447
 30
0.0
 10
12.2558311248
 20
6.6836021312
 30
0.0
 10
12.2482062424
 20
6.6904802806
 30
0.0
 10
12.2410652222
 20
6.6978645223
 30
0.0
 10
12.2344461262
 20
6.705715498
 30
0.0
 10
12.2283842442
 20
6.7139913692
 30
0.0
 10
12.2229119076
 20
6.7226480377
 30
0.0
 10
12.2180583186
 20
6.7316393787
 30
0.0
 10
12.2138493949
 20
6.740917483
 30
0.0
 10
12.2103076326
 20
6.7504329093
 30
0.0
 10
12.2074519859
 20
6.7601349446
 30
0.0
 10
12.2052977649
 20
6.7699718705
 30
0.0
 10
12.2038565531
 20
6.7798912351
 30
0.0
 10
12.2031361426
 20
6.7898401299
 30
0.0
 10
12.2031404885
 20
6.7997654653
 30
0.0
 10
12.203869688
 20
6.8096142619
 30
0.0
 10
12.2053199552
 20
6.8193338921
 30
0.0
 10
12.2074837078
 20
6.8288725023
 30
0.0
 10
12.2103493318
 20
6.838178765
 30
0.0
 10
12.2133128819
 20
6.8457069878
 30
0.0
 10
12.2160172651
 20
6.8515613543
 30
0.0
 10
12.2189358372
 20
6.8572884208
 30
0.0
 10
12.2229880965
 20
6.8642156178
 30
0.0
 10
12.2275615569
 20
6.8707992974
 30
0.0
 10
12.2315136947
 20
6.8758317065
 30
0.0
 10
12.2356543753
 20
6.8806998513
 30
0.0
 10
12.2389717715
 20
6.884165572
 30
0.0
 10
12.2412685764
 20
6.8863841304
 30
0.0
  0
SPLINE
  5
389
100
AcDbEntity
  8
0
100
AcDbSpline
 62
7
  6
CONTINUOUS
 70
0
 71
3
 72
39
 73
35
 74
0
 42
0.0000001
 43
0.0000001
 44
0.0000000001
 40
0.0
 40
0.0
 40
0.0
 40
0.0
 40
0.0311160054
 40
0.0620232808
 40
0.0927351539
 40
0.1232711756
 40
0.1536587326
 40
0.1839312105
 40
0.2141268386
 40
0.2442870981
 40
0.2744549747
 40
0.3046731306
 40
0.33498209
 40
0.365418544
 40
0.3960138629
 40
0.4267928807
 40
0.457772997
 40
0.4889636213
 40
0.5203659688
 40
0.551973177
 40
0.5837707173
 40
0.6157370643
 40
0.6478445906
 40
0.6800606397
 40
0.7123487305
 40
0.7446698622
 40
0.7769838838
 40
0.8092508928
 40
0.841432625
 40
0.8734938027
 40
0.9054033951
 40
0.9371359477
 40
0.9686717614
 40
1.0
 40
1.0
 40
1.0
 40
1.0
 10
10.0969671187
 20
8.898738453
 30
0.0
 10
10.0969671187
 20
8.9020763965
 30
0.0
 10
10.0972929857
 20
8.908734722
 30
0.0
 10
10.09876676
 20
8.9185890953
 30
0.0
 10
10.101209918
 20
8.9281860436
 30
0.0
 10
10.1045993649
 20
8.9374316872
 30
0.0
 10
10.1089026668
 20
8.9462369194
 30
0.0
 10
10.1140785234
 20
8.9545164302
 30
0.0
 10
10.1200770495
 20
8.9621900652
 30
0.0
 10
10.1268403125
 20
8.9691834933
 30
0.0
 10
10.1343028889
 20
8.9754290111
 30
0.0
 10
10.1423925293
 20
8.9808662155
 30
0.0
 10
10.1510308711
 20
8.9854426561
 30
0.0
 10
10.1601342722
 20
8.9891143179
 30
0.0
 10
10.1696146648
 20
8.9918460247
 30
0.0
 10
10.1793804381
 20
8.9936117475
 30
0.0
 10
10.1893373376
 20
8.9943948352
 30
0.0
 10
10.1993893883
 20
8.9941881603
 30
0.0
 10
10.2094398219
 20
8.9929941044
 30
0.0
 10
10.2193919909
 20
8.9908245117
 30
0.0
 10
10.2291502732
 20
8.9877005432
 30
0.0
 10
10.2386209796
 20
8.9836524984
 30
0.0
 10
10.247713232
 20
8.9787194895
 30
0.0
 10
10.2563398045
 20
8.9729490479
 30
0.0
 10
10.2644179387
 20
8.9663966735
 30
0.0
 10
10.2718701214
 20
8.9591253159
 30
0.0
 10
10.278624841
 20
8.9512048028
 30
0.0
 10
10.2846172324
 20
8.9427111426
 30
0.0
 10
10.289789692
 20
8.9337258276
 30
0.0
 10
10.2940924079
 20
8.9243350262
 30
0.0
 10
10.2974838935
 20
8.9146289348
 30
0.0
 10
10.299931291
 20
8.9047004115
 30
0.0
 10
10.3014108913
 20
8.8946460515
 30
0.0
 10
10.301743406
 20
8.8878978799
 30
0.0
 10
10.301743406
 20
8.8845371692
 30
0.0
  0
SPLINE
  5
38A
100
AcDbEntity
  8
0
100
AcDbSpline
 62
7
  6
CONTINUOUS
 70
0
 71
3
 72
15
 73
11
 74
0
 42
0.0000001
 43
0.0000001
 44
0.0000000001
 40
0.0
 40
0.0
 40
0.0
 40
0.0
 40
0.1273482292
 40
0.2538605354
 40
0.3795879276
 40
0.5046050833
 40
0.6290174349
 40
0.7529533662
 40
0.8765605734
 40
1.0
 40
1.0
 40
1.0
 40
1.0
 10
10.12329913
 20
8.9026732243
 30
0.0
 10
10.12329913
 20
8.9052756542
 30
0.0
 10
10.1235476086
 20
8.9104670295
 30
0.0
 10
10.1246713347
 20
8.9181542476
 30
0.0
 10
10.1265346629
 20
8.9256483146
 30
0.0
 10
10.1291207666
 20
8.9328791428
 30
0.0
 10
10.1324059015
 20
8.9397800538
 30
0.0
 10
10.1363601335
 20
8.9462873242
 30
0.0
 10
10.1409462822
 20
8.9523399795
 30
0.0
 10
10.1443994183
 20
8.9560372883
 30
0.0
 10
10.1462137787
 20
8.9577898184
 30
0.0
  0
SPLINE
  5
38B
100
AcDbEntity
  8
0
100
AcDbSpline
 62
7
  6
CONTINUOUS
 70
0
 71
3
 72
37
 73
33
 74
0
 42
0.0000001
 43
0.0000001
 44
0.0000000001
 40
0.0
 40
0.0
 40
0.0
 40
0.0
 40
0.031146624
 40
0.0624481919
 40
0.0938952571
 40
0.1254804469
 40
0.1571906758
 40
0.1890114524
 40
0.2209257687
 40
0.25291484
 40
0.2849584237
 40
0.3170352183
 40
0.381163152
 40
0.4451601237
 40
0.4770758719
 40
0.5088983814
 40
0.5406106743
 40
0.5721979571
 40
0.6036479386
 40
0.6349511145
 40
0.6661010055
 40
0.697094333
 40
0.7279311336
 40
0.7586148063
 40
0.7891520874
 40
0.819552954
 40
0.8498304507
 40
0.8800004308
 40
0.9100812223
 40
0.9400932249
 40
0.9700584477
 40
1.0
 40
1.0
 40
1.0
 40
1.0
 10
11.4521611245
 20
7.5220058562
 30
0.0
 10
11.4503213732
 20
7.5221334434
 30
0.0
 10
11.4466406918
 20
7.5225239414
 30
0.0
 10
11.441164322
 20
7.5235075124
 30
0.0
 10
11.4357465765
 20
7.5248853177
 30
0.0
 10
11.4304167973
 20
7.5266497631
 30
0.0
 10
11.4252032297
 20
7.5287915195
 30
0.0
 10
11.4201337133
 20
7.5312990686
 30
0.0
 10
11.4152352389
 20
7.5341590574
 30
0.0
 10
11.4105339629
 20
7.5373561384
 30
0.0
 10
11.4060547252
 20
7.5408734891
 30
0.0
 10
11.4004126063
 20
7.5459629266
 30
0.0
 10
11.3940331981
 20
7.5530249218
 30
0.0
 10
11.3886798002
 20
7.5608820415
 30
0.0
 10
11.385084971
 20
7.5675419213
 30
0.0
 10
11.382748253
 20
7.5726929641
 30
0.0
 10
11.3807820643
 20
7.5779755584
 30
0.0
 10
11.3791967458
 20
7.5833618019
 30
0.0
 10
11.3780008545
 20
7.5888229165
 30
0.0
 10
11.3772008074
 20
7.5943297986
 30
0.0
 10
11.3768009258
 20
7.5998530683
 30
0.0
 10
11.3768034018
 20
7.6053632547
 30
0.0
 10
11.3772082873
 20
7.6108309424
 30
0.0
 10
11.3780134894
 20
7.6162269278
 30
0.0
 10
11.3792147806
 20
7.6215223727
 30
0.0
 10
11.380805808
 20
7.6266889607
 30
0.0
 10
11.3827781153
 20
7.6316990522
 30
0.0
 10
11.3851212113
 20
7.6365258386
 30
0.0
 10
11.3878225829
 20
7.6411434553
 30
0.0
 10
11.390867897
 20
7.6455272469
 30
0.0
 10
11.3942405667
 20
7.6496534364
 30
0.0
 10
11.3966963336
 20
7.6522188135
 30
0.0
 10
11.3979714485
 20
7.653450466
 30
0.0
  0
SPLINE
  5
38C
100
AcDbEntity
  8
0
100
AcDbSpline
 62
7
  6
CONTINUOUS
 70
0
 71
3
 72
39
 73
35
 74
0
 42
0.0000001
 43
0.0000001
 44
0.0000000001
 40
0.0
 40
0.0
 40
0.0
 40
0.0
 40
0.0311160054
 40
0.0620232808
 40
0.0927351539
 40
0.1232711756
 40
0.1536587326
 40
0.1839312105
 40
0.2141268386
 40
0.2442870981
 40
0.2744549747
 40
0.3046731306
 40
0.33498209
 40
0.365418544
 40
0.3960138629
 40
0.4267928807
 40
0.457772997
 40
0.4889636213
 40
0.5203659688
 40
0.551973177
 40
0.5837707173
 40
0.6157370643
 40
0.6478445906
 40
0.6800606397
 40
0.7123487305
 40
0.7446698622
 40
0.7769838838
 40
0.8092508928
 40
0.841432625
 40
0.8734938027
 40
0.9054033951
 40
0.9371359477
 40
0.9686717614
 40
1.0
 40
1.0
 40
1.0
 40
1.0
 10
10.301743406
 20
8.8845371692
 30
0.0
 10
10.301743406
 20
8.8811992257
 30
0.0
 10
10.301417539
 20
8.8745409002
 30
0.0
 10
10.2999437647
 20
8.864686527
 30
0.0
 10
10.2975006066
 20
8.8550895787
 30
0.0
 10
10.2941111598
 20
8.845843935
 30
0.0
 10
10.2898078578
 20
8.8370387029
 30
0.0
 10
10.2846320013
 20
8.828759192
 30
0.0
 10
10.2786334751
 20
8.8210855571
 30
0.0
 10
10.2718702122
 20
8.8140921289
 30
0.0
 10
10.2644076358
 20
8.8078466112
 30
0.0
 10
10.2563179953
 20
8.8024094067
 30
0.0
 10
10.2476796536
 20
8.7978329661
 30
0.0
 10
10.2385762524
 20
8.7941613044
 30
0.0
 10
10.2290958598
 20
8.7914295975
 30
0.0
 10
10.2193300866
 20
8.7896638747
 30
0.0
 10
10.209373187
 20
8.788880787
 30
0.0
 10
10.1993211363
 20
8.7890874619
 30
0.0
 10
10.1892707028
 20
8.7902815179
 30
0.0
 10
10.1793185337
 20
8.7924511105
 30
0.0
 10
10.1695602515
 20
8.795575079
 30
0.0
 10
10.160089545
 20
8.7996231239
 30
0.0
 10
10.1509972926
 20
8.8045561327
 30
0.0
 10
10.1423707201
 20
8.8103265744
 30
0.0
 10
10.1342925859
 20
8.8168789487
 30
0.0
 10
10.1268404032
 20
8.8241503063
 30
0.0
 10
10.1200856836
 20
8.8320708195
 30
0.0
 10
10.1140932922
 20
8.8405644796
 30
0.0
 10
10.1089208327
 20
8.8495497946
 30
0.0
 10
10.1046181168
 20
8.858940596
 30
0.0
 10
10.1012266311
 20
8.8686466874
 30
0.0
 10
10.0987792337
 20
8.8785752107
 30
0.0
 10
10.0972996334
 20
8.8886295707
 30
0.0
 10
10.0969671187
 20
8.8953777423
 30
0.0
 10
10.0969671187
 20
8.898738453
 30
0.0
  0
SPLINE
  5
38D
100
AcDbEntity
  8
0
100
AcDbSpline
 62
7
  6
CONTINUOUS
 70
0
 71
3
 72
15
 73
11
 74
0
 42
0.0000001
 43
0.0000001
 44
0.0000000001
 40
0.0
 40
0.0
 40
0.0
 40
0.0
 40
0.1273482292
 40
0.2538605354
 40
0.3795879276
 40
0.5046050833
 40
0.6290174349
 40
0.7529533662
 40
0.8765605734
 40
1.0
 40
1.0
 40
1.0
 40
1.0
 10
11.6629849133
 20
8.8268053435
 30
0.0
 10
11.6629849133
 20
8.8294077734
 30
0.0
 10
11.6632333919
 20
8.8345991487
 30
0.0
 10
11.664357118
 20
8.8422863668
 30
0.0
 10
11.6662204462
 20
8.8497804338
 30
0.0
 10
11.6688065499
 20
8.857011262
 30
0.0
 10
11.6720916848
 20
8.863912173
 30
0.0
 10
11.6760459168
 20
8.8704194433
 30
0.0
 10
11.6806320655
 20
8.8764720987
 30
0.0
 10
11.6840852015
 20
8.8801694075
 30
0.0
 10
11.685899562
 20
8.8819219376
 30
0.0
  0
SPLINE
  5
38E
100
AcDbEntity
  8
0
100
AcDbSpline
 62
7
  6
CONTINUOUS
 70
0
 71
3
 72
41
 73
37
 74
0
 42
0.0000001
 43
0.0000001
 44
0.0000000001
 40
0.0
 40
0.0
 40
0.0
 40
0.0
 40
0.0311444983
 40
0.062442467
 40
0.093887251
 40
0.1254695609
 40
0.157177086
 40
0.1889950997
 40
0.2209066479
 40
0.2528929497
 40
0.284933762
 40
0.3170077852
 40
0.3490930781
 40
0.3811674822
 40
0.4132090489
 40
0.445196464
 40
0.4771094635
 40
0.5089292351
 40
0.540638799
 40
0.5722233621
 40
0.6036706378
 40
0.6349711269
 40
0.6661183495
 40
0.6971090237
 40
0.7279431823
 40
0.7586242225
 40
0.7891588828
 40
0.8195571428
 40
0.8498320452
 40
0.86493089
 40
0.8800050502
 40
0.9100832578
 40
0.9400926753
 40
0.9550812784
 40
0.9700610371
 40
1.0
 40
1.0
 40
1.0
 40
1.0
 10
9.5995152677
 20
6.8395925226
 30
0.0
 10
9.5962013201
 20
6.8398223457
 30
0.0
 10
9.5895714521
 20
6.8405256984
 30
0.0
 10
9.5797070353
 20
6.8422974295
 30
0.0
 10
9.5699482608
 20
6.8447791327
 30
0.0
 10
9.5603478672
 20
6.8479574078
 30
0.0
 10
9.5509568324
 20
6.8518152542
 30
0.0
 10
9.5418252574
 20
6.85633202
 30
0.0
 10
9.5330017862
 20
6.861483574
 30
0.0
 10
9.5245334352
 20
6.8672424082
 30
0.0
 10
9.5164653235
 20
6.8735777947
 30
0.0
 10
9.5088404411
 20
6.8804559441
 30
0.0
 10
9.5016994209
 20
6.8878401859
 30
0.0
 10
9.4950803249
 20
6.8956911616
 30
0.0
 10
9.4890184429
 20
6.9039670327
 30
0.0
 10
9.4835461063
 20
6.9126237013
 30
0.0
 10
9.4786925173
 20
6.9216150423
 30
0.0
 10
9.4744835936
 20
6.9308931465
 30
0.0
 10
9.4709418314
 20
6.9404085729
 30
0.0
 10
9.4680861846
 20
6.9501106082
 30
0.0
 10
9.4659319636
 20
6.959947534
 30
0.0
 10
9.4644907518
 20
6.9698668987
 30
0.0
 10
9.4637703413
 20
6.9798157934
 30
0.0
 10
9.4637746872
 20
6.9897411289
 30
0.0
 10
9.4645038867
 20
6.9995899254
 30
0.0
 10
9.4659541539
 20
7.0093095556
 30
0.0
 10
9.4681179065
 20
7.0188481659
 30
0.0
 10
9.4709835305
 20
7.0281544285
 30
0.0
 10
9.4739470806
 20
7.0356826514
 30
0.0
 10
9.4766514638
 20
7.0415370179
 30
0.0
 10
9.4795700359
 20
7.0472640843
 30
0.0
 10
9.4836222952
 20
7.0541912814
 30
0.0
 10
9.4881957556
 20
7.060774961
 30
0.0
 10
9.4921478934
 20
7.0658073701
 30
0.0
 10
9.496288574
 20
7.0706755149
 30
0.0
 10
9.4996059702
 20
7.0741412356
 30
0.0
 10
9.5019027751
 20
7.076359794
 30
0.0
  0
SPLINE
  5
38F
100
AcDbEntity
  8
0
100
AcDbSpline
 62
7
  6
CONTINUOUS
 70
0
 71
3
 72
15
 73
11
 74
0
 42
0.0000001
 43
0.0000001
 44
0.0000000001
 40
0.0
 40
0.0
 40
0.0
 40
0.0
 40
0.1349689541
 40
0.2612473603
 40
0.3810601423
 40
0.4973949024
 40
0.6138280427
 40
0.7341575023
 40
0.8619230752
 40
1.0
 40
1.0
 40
1.0
 40
1.0
 10
11.0532129475
 20
7.8382199954
 30
0.0
 10
11.0530908689
 20
7.8384907956
 30
0.0
 10
11.052884942
 20
7.8390296884
 30
0.0
 10
11.0526996101
 20
7.8398509016
 30
0.0
 10
11.0526543189
 20
7.8406513866
 30
0.0
 10
11.0527539369
 20
7.841425677
 30
0.0
 10
11.0530011451
 20
7.8421675039
 30
0.0
 10
11.0533953464
 20
7.8428713325
 30
0.0
 10
11.0539336314
 20
7.843533582
 30
0.0
 10
11.054366947
 20
7.8439297723
 30
0.0
 10
11.0546029198
 20
7.8441212487
 30
0.0
  0
SPLINE
  5
390
100
AcDbEntity
  8
0
100
AcDbSpline
 62
7
  6
CONTINUOUS
 70
0
 71
3
 72
15
 73
11
 74
0
 42
0.0000001
 43
0.0000001
 44
0.0000000001
 40
0.0
 40
0.0
 40
0.0
 40
0.0
 40
0.1273482292
 40
0.2538605354
 40
0.3795879276
 40
0.5046050833
 40
0.6290174349
 40
0.7529533662
 40
0.8765605734
 40
1.0
 40
1.0
 40
1.0
 40
1.0
 10
11.6629849133
 20
7.5884882982
 30
0.0
 10
11.6629849133
 20
7.5910907281
 30
0.0
 10
11.6632333919
 20
7.5962821033
 30
0.0
 10
11.664357118
 20
7.6039693215
 30
0.0
 10
11.6662204462
 20
7.6114633884
 30
0.0
 10
11.6688065499
 20
7.6186942167
 30
0.0
 10
11.6720916848
 20
7.6255951277
 30
0.0
 10
11.6760459168
 20
7.632102398
 30
0.0
 10
11.6806320655
 20
7.6381550534
 30
0.0
 10
11.6840852015
 20
7.6418523622
 30
0.0
 10
11.685899562
 20
7.6436048923
 30
0.0
  0
SPLINE
  5
391
100
AcDbEntity
  8
0
100
AcDbSpline
 62
7
  6
CONTINUOUS
 70
0
 71
3
 72
32
 73
28
 74
0
 42
0.0000001
 43
0.0000001
 44
0.0000000001
 40
0.0
 40
0.0
 40
0.0
 40
0.0
 40
0.0308875523
 40
0.0615931045
 40
0.0921458521
 40
0.1225790631
 40
0.1529295394
 40
0.1832338384
 40
0.2135262931
 40
0.2438374822
 40
0.2741934842
 40
0.3046157051
 40
0.3351211107
 40
0.365722687
 40
0.3964299876
 40
0.4272496776
 40
0.4892138667
 40
0.520388953
 40
0.5516834153
 40
0.6146015201
 40
0.6779698318
 40
0.7417549545
 40
0.8059129559
 40
0.8703874806
 40
0.9027333731
 40
0.9351304593
 40
1.0
 40
1.0
 40
1.0
 40
1.0
 10
11.5083403955
 20
8.1866945935
 30
0.0
 10
11.5077841053
 20
8.1835782938
 30
0.0
 10
11.5063600322
 20
8.1774153453
 30
0.0
 10
11.5033027447
 20
8.1684637025
 30
0.0
 10
11.4993726026
 20
8.1599100344
 30
0.0
 10
11.4946259994
 20
8.1518242725
 30
0.0
 10
11.4891291076
 20
8.1442611251
 30
0.0
 10
11.4829537138
 20
8.137261698
 30
0.0
 10
11.4761734165
 20
8.1308539511
 30
0.0
 10
11.4688605912
 20
8.1250545928
 30
0.0
 10
11.4610842934
 20
8.1198711441
 30
0.0
 10
11.4529090188
 20
8.1153040649
 30
0.0
 10
11.444394062
 20
8.1113486511
 30
0.0
 10
11.4355936447
 20
8.1079966819
 30
0.0
 10
11.4265562995
 20
8.1052375883
 30
0.0
 10
11.4142318624
 20
8.1023291602
 30
0.0
 10
11.4016143279
 20
8.1005660721
 30
0.0
 10
11.3888744974
 20
8.0998912875
 30
0.0
 10
11.376018018
 20
8.0999262258
 30
0.0
 10
11.3598922707
 20
8.1012849536
 30
0.0
 10
11.3407229617
 20
8.1049305069
 30
0.0
 10
11.321899324
 20
8.1105365677
 30
0.0
 10
11.3036335255
 20
8.1180566001
 30
0.0
 10
11.2890725907
 20
8.1258822037
 30
0.0
 10
11.277937329
 20
8.1330615283
 30
0.0
 10
11.2671771328
 20
8.140858115
 30
0.0
 10
11.2596013717
 20
8.1473822739
 30
0.0
 10
11.2548324128
 20
8.1520143817
 30
0.0
  0
SPLINE
  5
392
100
AcDbEntity
  8
0
100
AcDbSpline
 62
7
  6
CONTINUOUS
 70
0
 71
3
 72
80
 73
76
 74
0
 42
0.0000001
 43
0.0000001
 44
0.0000000001
 40
0.0
 40
0.0
 40
0.0
 40
0.0
 40
0.0027164327
 40
0.0054532447
 40
0.0082303176
 40
0.0110666212
 40
0.0139798388
 40
0.016986154
 40
0.0201001347
 40
0.0233346582
 40
0.0267010284
 40
0.0302089968
 40
0.0338669183
 40
0.0376819076
 40
0.0416598906
 40
0.0458058349
 40
0.0501237838
 40
0.0546169826
 40
0.0592880207
 40
0.0641388059
 40
0.0691707482
 40
0.0743847477
 40
0.0853596785
 40
0.0970635549
 40
0.1094903305
 40
0.1226296146
 40
0.1364673135
 40
0.1509861535
 40
0.1661660759
 40
0.1819845508
 40
0.1984168195
 40
0.2154361185
 40
0.2330138792
 40
0.2511198904
 40
0.2697224401
 40
0.2887884373
 40
0.3082835515
 40
0.3281723331
 40
0.348418324
 40
0.368984158
 40
0.3898316649
 40
0.4109219833
 40
0.4536720365
 40
0.4969140898
 40
0.5403224212
 40
0.5835697178
 40
0.6263302119
 40
0.6682828124
 40
0.6888582723
 40
0.7091151075
 40
0.7290159233
 40
0.74852422
 40
0.7676045125
 40
0.7862224423
 40
0.804344885
 40
0.8219400731
 40
0.8389777322
 40
0.8554292445
 40
0.8712678001
 40
0.8864685754
 40
0.9010089485
 40
0.9148687687
 40
0.92803068
 40
0.940480496
 40
0.9522076877
 40
0.9577984663
 40
0.9632066952
 40
0.9684323943
 40
0.9734759977
 40
0.9783383604
 40
0.9830208115
 40
0.987525367
 40
0.9918546057
 40
0.996011597
 40
1.0
 40
1.0
 40
1.0
 40
1.0
 10
12.9481713571
 20
8.3292779353
 30
0.0
 10
12.9489748315
 20
8.3292222097
 30
0.0
 10
12.9505836939
 20
8.3290376132
 30
0.0
 10
12.9529764956
 20
8.3285436257
 30
0.0
 10
12.9553512243
 20
8.3278326974
 30
0.0
 10
12.9577061663
 20
8.3269054389
 30
0.0
 10
12.960040117
 20
8.3257627229
 30
0.0
 10
12.96235189
 20
8.3244054456
 30
0.0
 10
12.9646403841
 20
8.3228345262
 30
0.0
 10
12.9669046339
 20
8.3210510281
 30
0.0
 10
12.9691436126
 20
8.3190559329
 30
0.0
 10
12.9713563796
 20
8.3168503626
 30
0.0
 10
12.9735419801
 20
8.3144354717
 30
0.0
 10
12.9756994008
 20
8.3118124531
 30
0.0
 10
12.9778277212
 20
8.3089826548
 30
0.0
 10
12.9799259133
 20
8.305947444
 30
0.0
 10
12.9819930074
 20
8.3027083275
 30
0.0
 10
12.9840280384
 20
8.2992669072
 30
0.0
 10
12.9860299791
 20
8.2956248566
 30
0.0
 10
12.9879978996
 20
8.2917839986
 30
0.0
 10
12.9899308269
 20
8.2877462108
 30
0.0
 10
12.992504168
 20
8.2820040621
 30
0.0
 10
12.9956161061
 20
8.2743386573
 30
0.0
 10
12.9991348681
 20
8.2645403309
 30
0.0
 10
13.0024922017
 20
8.2540101263
 30
0.0
 10
13.0056813505
 20
8.2427690076
 30
0.0
 10
13.0086958832
 20
8.230839193
 30
0.0
 10
13.0115296862
 20
8.2182444416
 30
0.0
 10
13.0141770014
 20
8.2050098782
 30
0.0
 10
13.016632438
 20
8.1911619644
 30
0.0
 10
13.0188910007
 20
8.1767284327
 30
0.0
 10
13.020948097
 20
8.1617382236
 30
0.0
 10
13.0227995394
 20
8.1462214141
 30
0.0
 10
13.0244415574
 20
8.1302091522
 30
0.0
 10
13.0258708027
 20
8.1137335963
 30
0.0
 10
13.0270843701
 20
8.0968278506
 30
0.0
 10
13.0280797895
 20
8.0795258928
 30
0.0
 10
13.028855031
 20
8.061862501
 30
0.0
 10
13.0294085095
 20
8.0438731812
 30
0.0
 10
13.0297390835
 20
8.0255941113
 30
0.0
 10
13.0298460961
 20
8.007062019
 30
0.0
 10
13.0296895898
 20
7.9819526087
 30
0.0
 10
13.0289302466
 20
7.9502093482
 30
0.0
 10
13.0271406849
 20
7.9118815649
 30
0.0
 10
13.024482802
 20
7.8734563354
 30
0.0
 10
13.0209779817
 20
7.8352424188
 30
0.0
 10
13.016654476
 20
7.7975468801
 30
0.0
 10
13.0123713984
 20
7.7666213996
 30
0.0
 10
13.0085539292
 20
7.7423743509
 30
0.0
 10
13.0055282545
 20
7.7246228763
 30
0.0
 10
13.0023277521
 20
7.7072237044
 30
0.0
 10
12.998958847
 20
7.6902117885
 30
0.0
 10
12.995428348
 20
7.6736213269
 30
0.0
 10
12.9917433851
 20
7.6574856517
 30
0.0
 10
12.9879114008
 20
7.6418371763
 30
0.0
 10
12.9839401343
 20
7.6267073278
 30
0.0
 10
12.9798376045
 20
7.6121264771
 30
0.0
 10
12.9756121067
 20
7.5981238691
 30
0.0
 10
12.9712721824
 20
7.5847275629
 30
0.0
 10
12.9668266021
 20
7.5719643778
 30
0.0
 10
12.9622843418
 20
7.5598598252
 30
0.0
 10
12.9576545667
 20
7.5484380647
 30
0.0
 10
12.9529466034
 20
7.5377217532
 30
0.0
 10
12.9481699241
 20
7.5277322851
 30
0.0
 10
12.9440774338
 20
7.519909764
 30
0.0
 10
12.9407696529
 20
7.5140388578
 30
0.0
 10
12.9383171984
 20
7.5098999468
 30
0.0
 10
12.9358547345
 20
7.5059569775
 30
0.0
 10
12.93338348
 20
7.5022119064
 30
0.0
 10
12.9309046923
 20
7.4986665875
 30
0.0
 10
12.9284195365
 20
7.4953227849
 30
0.0
 10
12.9259292393
 20
7.4921820978
 30
0.0
 10
12.9234349423
 20
7.4892460813
 30
0.0
 10
12.9209380151
 20
7.4865163289
 30
0.0
 10
12.9192378544
 20
7.4847999497
 30
0.0
 10
12.9183873104
 20
7.4839783872
 30
0.0
  0
SPLINE
  5
393
100
AcDbEntity
  8
0
100
AcDbSpline
 62
7
  6
CONTINUOUS
 70
0
 71
3
 72
20
 73
16
 74
0
 42
0.0000001
 43
0.0000001
 44
0.0000000001
 40
0.0
 40
0.0
 40
0.0
 40
0.0
 40
0.0505381732
 40
0.1030008845
 40
0.1573308421
 40
0.2134657385
 40
0.2713386733
 40
0.3308788449
 40
0.392011438
 40
0.4546582344
 40
0.5187378921
 40
0.5841658202
 40
0.718713604
 40
0.8575770561
 40
1.0
 40
1.0
 40
1.0
 40
1.0
 10
10.9552188764
 20
10.1848903498
 30
0.0
 10
10.9523303062
 20
10.1857972015
 30
0.0
 10
10.9464217969
 20
10.1875779404
 30
0.0
 10
10.9373423258
 20
10.1901093995
 30
0.0
 10
10.9278908764
 20
10.192548242
 30
0.0
 10
10.9180816293
 20
10.1948907782
 30
0.0
 10
10.9079292308
 20
10.1971335068
 30
0.0
 10
10.8974488664
 20
10.1992730182
 30
0.0
 10
10.8866562165
 20
10.2013061111
 30
0.0
 10
10.8755674391
 20
10.2032297218
 30
0.0
 10
10.8641991204
 20
10.2050409497
 30
0.0
 10
10.8485456142
 20
10.2073236407
 30
0.0
 10
10.828404664
 20
10.2098678164
 30
0.0
 10
10.8036210986
 20
10.2124066276
 30
0.0
 10
10.7868221897
 20
10.2137499571
 30
0.0
 10
10.7783105418
 20
10.2143402419
 30
0.0
  0
SPLINE
  5
394
100
AcDbEntity
  8
0
100
AcDbSpline
 62
7
  6
CONTINUOUS
 70
0
 71
3
 72
23
 73
19
 74
0
 42
0.0000001
 43
0.0000001
 44
0.0000000001
 40
0.0
 40
0.0
 40
0.0
 40
0.0
 40
0.0434368091
 40
0.0898701185
 40
0.1392504339
 40
0.1915084764
 40
0.2465581148
 40
0.304298669
 40
0.3646167157
 40
0.4273875464
 40
0.4924763781
 40
0.5597394041
 40
0.6290247048
 40
0.7001729837
 40
0.7730188471
 40
0.8473898124
 40
0.9231116715
 40
1.0
 40
1.0
 40
1.0
 40
1.0
 10
11.0200310849
 20
10.2034749512
 30
0.0
 10
11.0169036461
 20
10.204985798
 30
0.0
 10
11.0103550526
 20
10.2079518905
 30
0.0
 10
11.0000277219
 20
10.2121212778
 30
0.0
 10
10.9888916069
 20
10.2161498239
 30
0.0
 10
10.9769755549
 20
10.2200268824
 30
0.0
 10
10.9643101307
 20
10.2237423461
 30
0.0
 10
10.950928079
 20
10.2272864515
 30
0.0
 10
10.9368640445
 20
10.2306498894
 30
0.0
 10
10.9221545128
 20
10.2338238166
 30
0.0
 10
10.9068376883
 20
10.2367998889
 30
0.0
 10
10.8909533899
 20
10.2395702821
 30
0.0
 10
10.8745429482
 20
10.2421277139
 30
0.0
 10
10.8576490605
 20
10.2444654777
 30
0.0
 10
10.840315779
 20
10.2465774124
 30
0.0
 10
10.8225881062
 20
10.24845802
 30
0.0
 10
10.804512428
 20
10.2501023004
 30
0.0
 10
10.7923444909
 20
10.2510317402
 30
0.0
 10
10.786211139
 20
10.2514570896
 30
0.0
  0
SPLINE
  5
395
100
AcDbEntity
  8
0
100
AcDbSpline
 62
7
  6
CONTINUOUS
 70
0
 71
3
 72
48
 73
44
 74
0
 42
0.0000001
 43
0.0000001
 44
0.0000000001
 40
0.0
 40
0.0
 40
0.0
 40
0.0
 40
0.0068493486
 40
0.0135997588
 40
0.0202929777
 40
0.0269719074
 40
0.0336797638
 40
0.040459141
 40
0.0473512038
 40
0.0543949143
 40
0.0616265022
 40
0.0690791812
 40
0.0847569507
 40
0.0930394075
 40
0.1016434602
 40
0.110586867
 40
0.1198848198
 40
0.1295501471
 40
0.1395937488
 40
0.1500245748
 40
0.1608499336
 40
0.1720757752
 40
0.1837065831
 40
0.2081937797
 40
0.2343287255
 40
0.2621125424
 40
0.2915348951
 40
0.3225757912
 40
0.3552070986
 40
0.3893936298
 40
0.4250938995
 40
0.4622608867
 40
0.5008426735
 40
0.5407828856
 40
0.5820210259
 40
0.6244929323
 40
0.6681311221
 40
0.712865019
 40
0.7586211427
 40
0.8053236682
 40
0.852894317
 40
0.901252086
 40
1.0
 40
1.0
 40
1.0
 40
1.0
 10
11.0929729328
 20
10.2563020731
 30
0.0
 10
11.0931800975
 20
10.2570469657
 30
0.0
 10
11.0935345418
 20
10.2585425955
 30
0.0
 10
11.0938816563
 20
10.2608093128
 30
0.0
 10
11.094039246
 20
10.2630779572
 30
0.0
 10
11.0940070572
 20
10.2653470191
 30
0.0
 10
11.0937851219
 20
10.2676151763
 30
0.0
 10
11.0933737213
 20
10.269881093
 30
0.0
 10
11.0927731503
 20
10.2721434925
 30
0.0
 10
11.0919839695
 20
10.274401159
 30
0.0
 10
11.0910067597
 20
10.2766530906
 30
0.0
 10
11.0894275683
 20
10.2796973839
 30
0.0
 10
11.0874866706
 20
10.2826774065
 30
0.0
 10
11.08523212
 20
10.2855820176
 30
0.0
 10
11.0833258595
 20
10.2877901081
 30
0.0
 10
11.0812364857
 20
10.2899864289
 30
0.0
 10
11.078964827
 20
10.2921702681
 30
0.0
 10
11.0765120153
 20
10.2943406607
 30
0.0
 10
11.0738791315
 20
10.2964966354
 30
0.0
 10
11.0710674075
 20
10.2986372625
 30
0.0
 10
11.0680781384
 20
10.3007615989
 30
0.0
 10
11.064912661
 20
10.3028686755
 30
0.0
 10
11.0603809641
 20
10.3057025844
 30
0.0
 10
11.0542746253
 20
10.3091867552
 30
0.0
 10
11.0463908163
 20
10.3132147299
 30
0.0
 10
11.0378437977
 20
10.3171512917
 30
0.0
 10
11.0286492705
 20
10.3209891941
 30
0.0
 10
11.0188239435
 20
10.3247213853
 30
0.0
 10
11.0083858459
 20
10.328340928
 30
0.0
 10
10.9973541739
 20
10.3318410633
 30
0.0
 10
10.9857492921
 20
10.3352152588
 30
0.0
 10
10.9735926678
 20
10.3384572097
 30
0.0
 10
10.9609068138
 20
10.3415608428
 30
0.0
 10
10.9477152498
 20
10.344520336
 30
0.0
 10
10.9340424633
 20
10.3473301593
 30
0.0
 10
10.9199138486
 20
10.3499850537
 30
0.0
 10
10.9053556515
 20
10.3524800414
 30
0.0
 10
10.8903949362
 20
10.3548104465
 30
0.0
 10
10.8750595117
 20
10.3569719246
 30
0.0
 10
10.859377907
 20
10.35896042
 30
0.0
 10
10.8433793014
 20
10.360772219
 30
0.0
 10
10.8215130217
 20
10.3629629793
 30
0.0
 10
10.8049597613
 20
10.3643063531
 30
0.0
 10
10.7938396717
 20
10.3650775339
 30
0.0
  0
SPLINE
  5
396
100
AcDbEntity
  8
0
100
AcDbSpline
 62
7
  6
CONTINUOUS
 70
0
 71
3
 72
27
 73
23
 74
0
 42
0.0000001
 43
0.0000001
 44
0.0000000001
 40
0.0
 40
0.0
 40
0.0
 40
0.0
 40
0.023341167
 40
0.0475056467
 40
0.0724709968
 40
0.0982130996
 40
0.1247060956
 40
0.1519225871
 40
0.1798338234
 40
0.2084096158
 40
0.2674273451
 40
0.328713178
 40
0.3919876235
 40
0.4569579983
 40
0.5233206545
 40
0.5907631141
 40
0.6589661418
 40
0.7276057998
 40
0.7963554113
 40
0.8648878854
 40
0.9328765499
 40
1.0
 40
1.0
 40
1.0
 40
1.0
 10
10.4228000847
 20
10.184884967
 30
0.0
 10
10.4254609509
 20
10.1857204626
 30
0.0
 10
10.4308946471
 20
10.1873637155
 30
0.0
 10
10.439230588
 20
10.1897097333
 30
0.0
 10
10.4478850773
 20
10.1919774037
 30
0.0
 10
10.4568470601
 20
10.1941637762
 30
0.0
 10
10.466105144
 20
10.1962660648
 30
0.0
 10
10.4756475326
 20
10.1982815809
 30
0.0
 10
10.4854620854
 20
10.2002077345
 30
0.0
 10
10.499040457
 20
10.2026800527
 30
0.0
 10
10.5166034662
 20
10.2055199962
 30
0.0
 10
10.5383370671
 20
10.2085002007
 30
0.0
 10
10.5608386468
 20
10.2110727356
 30
0.0
 10
10.5839935024
 20
10.2132243417
 30
0.0
 10
10.6076837124
 20
10.2149438977
 30
0.0
 10
10.6317885428
 20
10.2162225293
 30
0.0
 10
10.6561851317
 20
10.2170536388
 30
0.0
 10
10.6807491065
 20
10.2174329405
 30
0.0
 10
10.7053552476
 20
10.2173584855
 30
0.0
 10
10.7298780765
 20
10.2168306439
 30
0.0
 10
10.7541925348
 20
10.2158521659
 30
0.0
 10
10.7703094153
 20
10.2148951219
 30
0.0
 10
10.7783105418
 20
10.2143402419
 30
0.0
  0
SPLINE
  5
397
100
AcDbEntity
  8
0
100
AcDbSpline
 62
7
  6
CONTINUOUS
 70
0
 71
3
 72
28
 73
24
 74
0
 42
0.0000001
 43
0.0000001
 44
0.0000000001
 40
0.0
 40
0.0
 40
0.0
 40
0.0
 40
0.0142027217
 40
0.0299110522
 40
0.0472130729
 40
0.0661415157
 40
0.0866848591
 40
0.1088016579
 40
0.1324323807
 40
0.1575063966
 40
0.1839473535
 40
0.2116771644
 40
0.2406177453
 40
0.2706932672
 40
0.3339558348
 40
0.4009017854
 40
0.4709926564
 40
0.5436937051
 40
0.6184492347
 40
0.6946607365
 40
0.7716708324
 40
0.848758121
 40
1.0
 40
1.0
 40
1.0
 40
1.0
 10
11.0546029198
 20
7.8441212487
 30
0.0
 10
11.054896736
 20
7.8443596612
 30
0.0
 10
11.0555526457
 20
7.8448166218
 30
0.0
 10
11.0566593502
 20
7.8454180886
 30
0.0
 10
11.0579293073
 20
7.8459710805
 30
0.0
 10
11.0593549475
 20
7.8464789762
 30
0.0
 10
11.0609284885
 20
7.8469460732
 30
0.0
 10
11.0626416245
 20
7.8473768427
 30
0.0
 10
11.0644858603
 20
7.8477764218
 30
0.0
 10
11.0664528275
 20
7.8481500072
 30
0.0
 10
11.0685343665
 20
7.8485030696
 30
0.0
 10
11.070722668
 20
7.8488409676
 30
0.0
 10
11.0730102853
 20
7.8491691359
 30
0.0
 10
11.0762382553
 20
7.8496079262
 30
0.0
 10
11.0804732157
 20
7.8501550666
 30
0.0
 10
11.085765051
 20
7.8508417184
 30
0.0
 10
11.0913008814
 20
7.85160162
 30
0.0
 10
11.0970324129
 20
7.8524631343
 30
0.0
 10
11.102909343
 20
7.853449468
 30
0.0
 10
11.1088776173
 20
7.8545779994
 30
0.0
 10
11.1148787332
 20
7.8558593746
 30
0.0
 10
11.122788039
 20
7.8577628223
 30
0.0
 10
11.1286428298
 20
7.8594295573
 30
0.0
 10
11.1324825119
 20
7.8606509052
 30
0.0
  0
SPLINE
  5
398
100
AcDbEntity
  8
0
100
AcDbSpline
 62
7
  6
CONTINUOUS
 70
0
 71
3
 72
41
 73
37
 74
0
 42
0.0000001
 43
0.0000001
 44
0.0000000001
 40
0.0
 40
0.0
 40
0.0
 40
0.0
 40
0.0311444983
 40
0.062442467
 40
0.093887251
 40
0.1254695609
 40
0.157177086
 40
0.1889950997
 40
0.2209066479
 40
0.2528929497
 40
0.284933762
 40
0.3170077852
 40
0.3490930781
 40
0.3811674822
 40
0.4132090489
 40
0.445196464
 40
0.4771094635
 40
0.5089292351
 40
0.540638799
 40
0.5722233621
 40
0.6036706378
 40
0.6349711269
 40
0.6661183495
 40
0.6971090237
 40
0.7279431823
 40
0.7586242225
 40
0.7891588828
 40
0.8195571428
 40
0.8498320452
 40
0.86493089
 40
0.8800050502
 40
0.9100832578
 40
0.9400926753
 40
0.9550812784
 40
0.9700610371
 40
1.0
 40
1.0
 40
1.0
 40
1.0
 10
9.5995152677
 20
9.5789583239
 30
0.0
 10
9.5962013201
 20
9.5791881469
 30
0.0
 10
9.5895714521
 20
9.5798914997
 30
0.0
 10
9.5797070353
 20
9.5816632308
 30
0.0
 10
9.5699482608
 20
9.584144934
 30
0.0
 10
9.5603478672
 20
9.5873232091
 30
0.0
 10
9.5509568324
 20
9.5911810555
 30
0.0
 10
9.5418252574
 20
9.5956978213
 30
0.0
 10
9.5330017862
 20
9.6008493753
 30
0.0
 10
9.5245334352
 20
9.6066082095
 30
0.0
 10
9.5164653235
 20
9.612943596
 30
0.0
 10
9.5088404411
 20
9.6198217454
 30
0.0
 10
9.5016994209
 20
9.6272059872
 30
0.0
 10
9.4950803249
 20
9.6350569629
 30
0.0
 10
9.4890184429
 20
9.643332834
 30
0.0
 10
9.4835461063
 20
9.6519895026
 30
0.0
 10
9.4786925173
 20
9.6609808436
 30
0.0
 10
9.4744835936
 20
9.6702589478
 30
0.0
 10
9.4709418314
 20
9.6797743742
 30
0.0
 10
9.4680861846
 20
9.6894764095
 30
0.0
 10
9.4659319636
 20
9.6993133353
 30
0.0
 10
9.4644907518
 20
9.7092327
 30
0.0
 10
9.4637703413
 20
9.7191815947
 30
0.0
 10
9.4637746872
 20
9.7291069302
 30
0.0
 10
9.4645038867
 20
9.7389557267
 30
0.0
 10
9.4659541539
 20
9.7486753569
 30
0.0
 10
9.4681179065
 20
9.7582139672
 30
0.0
 10
9.4709835305
 20
9.7675202298
 30
0.0
 10
9.4739470806
 20
9.7750484527
 30
0.0
 10
9.4766514638
 20
9.7809028192
 30
0.0
 10
9.4795700359
 20
9.7866298856
 30
0.0
 10
9.4836222952
 20
9.7935570827
 30
0.0
 10
9.4881957556
 20
9.8001407623
 30
0.0
 10
9.4921478934
 20
9.8051731714
 30
0.0
 10
9.496288574
 20
9.8100413162
 30
0.0
 10
9.4996059702
 20
9.8135070369
 30
0.0
 10
9.5019027751
 20
9.8157255953
 30
0.0
  0
SPLINE
  5
399
100
AcDbEntity
  8
0
100
AcDbSpline
 62
7
  6
CONTINUOUS
 70
0
 71
3
 72
31
 73
27
 74
0
 42
0.0000001
 43
0.0000001
 44
0.0000000001
 40
0.0
 40
0.0
 40
0.0
 40
0.0
 40
0.0195549811
 40
0.0402261563
 40
0.0620002492
 40
0.0848586994
 40
0.1087783168
 40
0.1337319478
 40
0.1596888678
 40
0.1866150584
 40
0.2144736363
 40
0.2432251094
 40
0.2728275032
 40
0.3032366511
 40
0.3344064102
 40
0.3662887448
 40
0.398833918
 40
0.4319906976
 40
0.4999259429
 40
0.5696604535
 40
0.6407430346
 40
0.7127109017
 40
0.7850937249
 40
0.8574176916
 40
0.9292090027
 40
1.0
 40
1.0
 40
1.0
 40
1.0
 10
10.3580022951
 20
10.2034736464
 30
0.0
 10
10.3605520315
 20
10.2047054597
 30
0.0
 10
10.3658486513
 20
10.207133535
 30
0.0
 10
10.3741373895
 20
10.2105875069
 30
0.0
 10
10.3829777195
 20
10.2139490588
 30
0.0
 10
10.3923541656
 20
10.2172122268
 30
0.0
 10
10.4022504952
 20
10.2203713168
 30
0.0
 10
10.4126494718
 20
10.2234207519
 30
0.0
 10
10.4235329686
 20
10.226355144
 30
0.0
 10
10.4348819698
 20
10.2291693339
 30
0.0
 10
10.446676633
 20
10.2318583547
 30
0.0
 10
10.4588963246
 20
10.2344174439
 30
0.0
 10
10.4715196451
 20
10.236842098
 30
0.0
 10
10.4845244788
 20
10.2391280436
 30
0.0
 10
10.4978880411
 20
10.2412712349
 30
0.0
 10
10.5115869005
 20
10.2432678887
 30
0.0
 10
10.5255970565
 20
10.2451145186
 30
0.0
 10
10.5448148125
 20
10.247390581
 30
0.0
 10
10.569434038
 20
10.2498285914
 30
0.0
 10
10.5995808873
 20
10.2520887425
 30
0.0
 10
10.6303546133
 20
10.2536903148
 30
0.0
 10
10.6615394463
 20
10.2546219224
 30
0.0
 10
10.6929168708
 20
10.2548769486
 30
0.0
 10
10.7242669573
 20
10.2544535537
 30
0.0
 10
10.7553698717
 20
10.2533547832
 30
0.0
 10
10.7759846663
 20
10.2521662979
 30
0.0
 10
10.786211139
 20
10.2514570896
 30
0.0
  0
SPLINE
  5
39A
100
AcDbEntity
  8
0
100
AcDbSpline
 62
7
  6
CONTINUOUS
 70
0
 71
3
 72
53
 73
49
 74
0
 42
0.0000001
 43
0.0000001
 44
0.0000000001
 40
0.0
 40
0.0
 40
0.0
 40
0.0
 40
0.0058141369
 40
0.0115305232
 40
0.0172179001
 40
0.0229461621
 40
0.0287836011
 40
0.0347943965
 40
0.0410368341
 40
0.0475621819
 40
0.0544144829
 40
0.0616306601
 40
0.069241224
 40
0.0772708238
 40
0.0857391652
 40
0.0946615222
 40
0.1040495583
 40
0.1139116572
 40
0.1242535883
 40
0.1350786654
 40
0.146388282
 40
0.1581819435
 40
0.1704577082
 40
0.1832121363
 40
0.196440666
 40
0.2101375088
 40
0.2242959819
 40
0.2389083701
 40
0.2539662278
 40
0.2694602214
 40
0.3017152417
 40
0.3355866304
 40
0.3709772757
 40
0.4077818631
 40
0.4458878481
 40
0.4851763136
 40
0.5255227494
 40
0.5667977776
 40
0.6088678401
 40
0.6515958617
 40
0.6948418956
 40
0.7384637569
 40
0.7823176484
 40
0.8262587842
 40
0.8701420024
 40
0.9138224004
 40
0.9571559093
 40
1.0
 40
1.0
 40
1.0
 40
1.0
 10
10.2850631524
 20
10.2563020665
 30
0.0
 10
10.2847783521
 20
10.2573261099
 30
0.0
 10
10.2843210202
 20
10.2593889894
 30
0.0
 10
10.2839890171
 20
10.2625257239
 30
0.0
 10
10.2840199851
 20
10.2656646014
 30
0.0
 10
10.2844138415
 20
10.2688008783
 30
0.0
 10
10.2851696205
 20
10.2719305859
 30
0.0
 10
10.2862854648
 20
10.2750501259
 30
0.0
 10
10.2877592977
 20
10.2781564321
 30
0.0
 10
10.2895886949
 20
10.281246962
 30
0.0
 10
10.2917713647
 20
10.2843193532
 30
0.0
 10
10.2943048255
 20
10.2873714736
 30
0.0
 10
10.2971866594
 20
10.290401077
 30
0.0
 10
10.300414176
 20
10.2934060015
 30
0.0
 10
10.3039845943
 20
10.2963838878
 30
0.0
 10
10.307894787
 20
10.2993324529
 30
0.0
 10
10.3121414395
 20
10.3022492317
 30
0.0
 10
10.3167208704
 20
10.3051318651
 30
0.0
 10
10.3216291667
 20
10.3079778453
 30
0.0
 10
10.3268620578
 20
10.3107847954
 30
0.0
 10
10.3324150247
 20
10.3135502193
 30
0.0
 10
10.3382832108
 20
10.3162717663
 30
0.0
 10
10.3444615068
 20
10.3189469878
 30
0.0
 10
10.350944487
 20
10.3215735887
 30
0.0
 10
10.3577264751
 20
10.3241491916
 30
0.0
 10
10.3648014988
 20
10.3266715758
 30
0.0
 10
10.3721633411
 20
10.3291384528
 30
0.0
 10
10.3798055052
 20
10.3315476844
 30
0.0
 10
10.3877212682
 20
10.3338971057
 30
0.0
 10
10.3987796778
 20
10.3369886283
 30
0.0
 10
10.4132402555
 20
10.3406774564
 30
0.0
 10
10.4313426533
 20
10.3447769096
 30
0.0
 10
10.4503560944
 20
10.3485917171
 30
0.0
 10
10.4702134027
 20
10.3521082546
 30
0.0
 10
10.4908445449
 20
10.3553139331
 30
0.0
 10
10.5121766419
 20
10.3581972923
 30
0.0
 10
10.5341343115
 20
10.3607480268
 30
0.0
 10
10.556639925
 20
10.362957025
 30
0.0
 10
10.5796138938
 20
10.3648163994
 30
0.0
 10
10.6029749558
 20
10.366319513
 30
0.0
 10
10.6266404666
 20
10.3674610022
 30
0.0
 10
10.6505266961
 20
10.3682367947
 30
0.0
 10
10.6745491267
 20
10.3686441234
 30
0.0
 10
10.698622757
 20
10.3686815351
 30
0.0
 10
10.7226623967
 20
10.3683488971
 30
0.0
 10
10.746583002
 20
10.3676473941
 30
0.0
 10
10.7702998514
 20
10.3665795335
 30
0.0
 10
10.7860259129
 20
10.3656194199
 30
0.0
 10
10.7938396717
 20
10.3650775339
 30
0.0
  0
SPLINE
  5
39B
100
AcDbEntity
  8
0
100
AcDbSpline
 62
7
  6
CONTINUOUS
 70
0
 71
3
 72
37
 73
33
 74
0
 42
0.0000001
 43
0.0000001
 44
0.0000000001
 40
0.0
 40
0.0
 40
0.0
 40
0.0
 40
0.0135404569
 40
0.027872542
 40
0.0431441587
 40
0.0594728274
 40
0.076949307
 40
0.0956417951
 40
0.1155997502
 40
0.136857204
 40
0.1594356154
 40
0.1833460215
 40
0.208590659
 40
0.2351644394
 40
0.2630560241
 40
0.2922485476
 40
0.3227203714
 40
0.3544456861
 40
0.387394861
 40
0.4215348195
 40
0.4568294463
 40
0.4932397991
 40
0.5307242804
 40
0.5692389498
 40
0.6087376917
 40
0.6491722945
 40
0.6904926978
 40
0.7326471331
 40
0.7755821686
 40
0.8192430639
 40
0.9085142754
 40
1.0
 40
1.0
 40
1.0
 40
1.0
 10
11.2759712088
 20
10.2793264576
 30
0.0
 10
11.2751993232
 20
10.2812846426
 30
0.0
 10
11.2733450137
 20
10.2852146029
 30
0.0
 10
11.2697993762
 20
10.2909216973
 30
0.0
 10
11.265429107
 20
10.296581929
 30
0.0
 10
11.2602426175
 20
10.3021883664
 30
0.0
 10
11.2542476867
 20
10.3077357137
 30
0.0
 10
11.2474527435
 20
10.3132176752
 30
0.0
 10
11.2398670097
 20
10.3186277295
 30
0.0
 10
11.2315007676
 20
10.3239590424
 30
0.0
 10
11.2223653811
 20
10.3292045811
 30
0.0
 10
11.2124733605
 20
10.3343572168
 30
0.0
 10
11.201838385
 20
10.3394098581
 30
0.0
 10
11.1904752422
 20
10.3443554408
 30
0.0
 10
11.1783998064
 20
10.3491869726
 30
0.0
 10
11.1656290346
 20
10.3538976202
 30
0.0
 10
11.1521809138
 20
10.3584806928
 30
0.0
 10
11.1380744176
 20
10.3629296424
 30
0.0
 10
11.123329493
 20
10.3672381194
 30
0.0
 10
11.107967025
 20
10.3713999842
 30
0.0
 10
11.0920087851
 20
10.37540928
 30
0.0
 10
11.0754774087
 20
10.3792602648
 30
0.0
 10
11.0583963682
 20
10.3829474503
 30
0.0
 10
11.0407899217
 20
10.3864655633
 30
0.0
 10
11.0226830797
 20
10.3898095592
 30
0.0
 10
11.0041015786
 20
10.3929746712
 30
0.0
 10
10.9850718334
 20
10.3959563817
 30
0.0
 10
10.9656209075
 20
10.3987504086
 30
0.0
 10
10.945776428
 20
10.4013527937
 30
0.0
 10
10.9186296697
 20
10.4045859102
 30
0.0
 10
10.8839200259
 20
10.4081111212
 30
0.0
 10
10.8559082842
 20
10.4103436178
 30
0.0
 10
10.8417211555
 20
10.4113274985
 30
0.0
  0
SPLINE
  5
39C
100
AcDbEntity
  8
0
100
AcDbSpline
 62
7
  6
CONTINUOUS
 70
0
 71
3
 72
52
 73
48
 74
0
 42
0.0000001
 43
0.0000001
 44
0.0000000001
 40
0.0
 40
0.0
 40
0.0
 40
0.0
 40
0.0058254964
 40
0.0118830607
 40
0.0182084509
 40
0.0248323005
 40
0.0317805483
 40
0.0390747219
 40
0.0467325668
 40
0.0547683529
 40
0.0631934831
 40
0.0720167051
 40
0.0812446346
 40
0.0908818574
 40
0.1009313667
 40
0.1113945772
 40
0.122271694
 40
0.1335616646
 40
0.145262497
 40
0.1573711701
 40
0.169883916
 40
0.1827961035
 40
0.1961024938
 40
0.2097971078
 40
0.223873462
 40
0.2383244268
 40
0.2531424462
 40
0.2683193928
 40
0.299715008
 40
0.332438672
 40
0.3664110753
 40
0.4015475207
 40
0.4377585035
 40
0.4749502376
 40
0.5130251413
 40
0.5518822948
 40
0.5914178787
 40
0.6315255968
 40
0.6720970903
 40
0.7130223443
 40
0.7541900896
 40
0.795488202
 40
0.8368040981
 40
0.878025134
 40
0.9190389942
 40
0.9597341048
 40
1.0
 40
1.0
 40
1.0
 40
1.0
 10
10.1021128573
 20
10.2794477085
 30
0.0
 10
10.1026662736
 20
10.2808406253
 30
0.0
 10
10.1039276896
 20
10.2836308199
 30
0.0
 10
10.1062147401
 20
10.2877250031
 30
0.0
 10
10.1089276558
 20
10.2917992526
 30
0.0
 10
10.1120636551
 20
10.2958506248
 30
0.0
 10
10.1156202813
 20
10.2998767048
 30
0.0
 10
10.1195946947
 20
10.3038750381
 30
0.0
 10
10.1239840343
 20
10.3078430144
 30
0.0
 10
10.1287850665
 20
10.3117781271
 30
0.0
 10
10.1339944174
 20
10.3156776631
 30
0.0
 10
10.1396083287
 20
10.3195390438
 30
0.0
 10
10.1456228436
 20
10.3233595066
 30
0.0
 10
10.1520336301
 20
10.3271364438
 30
0.0
 10
10.1588361301
 20
10.3308670921
 30
0.0
 10
10.1660254292
 20
10.3345488554
 30
0.0
 10
10.1735963746
 20
10.3381790059
 30
0.0
 10
10.1815434791
 20
10.3417549887
 30
0.0
 10
10.1898610124
 20
10.3452741361
 30
0.0
 10
10.1985429315
 20
10.3487339553
 30
0.0
 10
10.2075829499
 20
10.352131856
 30
0.0
 10
10.2169744882
 20
10.3554654225
 30
0.0
 10
10.226710727
 20
10.3587321544
 30
0.0
 10
10.2367845717
 20
10.3619297242
 30
0.0
 10
10.2471886937
 20
10.3650557328
 30
0.0
 10
10.2579155034
 20
10.3681079452
 30
0.0
 10
10.2689571974
 20
10.3710840918
 30
0.0
 10
10.2842615415
 20
10.3749921023
 30
0.0
 10
10.3041245096
 20
10.3796603174
 30
0.0
 10
10.3288219521
 20
10.3848644364
 30
0.0
 10
10.3545708774
 20
10.3897167236
 30
0.0
 10
10.381296134
 20
10.394202898
 30
0.0
 10
10.4089198496
 20
10.3983097322
 30
0.0
 10
10.437361439
 20
10.40202513
 30
0.0
 10
10.4665379137
 20
10.4053381504
 30
0.0
 10
10.496364112
 20
10.4082390411
 30
0.0
 10
10.5267529585
 20
10.4107192654
 30
0.0
 10
10.5576157205
 20
10.4127715268
 30
0.0
 10
10.5888622711
 20
10.414389789
 30
0.0
 10
10.6204013546
 20
10.4155692931
 30
0.0
 10
10.6521408556
 20
10.4163065709
 30
0.0
 10
10.683988069
 20
10.4165994547
 30
0.0
 10
10.7158499759
 20
10.4164470834
 30
0.0
 10
10.7476335047
 20
10.4158499053
 30
0.0
 10
10.7792458481
 20
10.4148096749
 30
0.0
 10
10.8105945806
 20
10.4133294556
 30
0.0
 10
10.8313860599
 20
10.4120442398
 30
0.0
 10
10.8417211555
 20
10.4113274985
 30
0.0
  0
SPLINE
  5
39D
100
AcDbEntity
  8
0
100
AcDbSpline
 62
7
  6
CONTINUOUS
 70
0
 71
3
 72
53
 73
49
 74
0
 42
0.0000001
 43
0.0000001
 44
0.0000000001
 40
0.0
 40
0.0
 40
0.0
 40
0.0
 40
0.0055575334
 40
0.0111779591
 40
0.0169218931
 40
0.0228457847
 40
0.029000565
 40
0.0354309743
 40
0.0421754345
 40
0.0492662879
 40
0.0567303589
 40
0.0645894686
 40
0.0728611764
 40
0.0815592161
 40
0.0906941791
 40
0.1002737964
 40
0.1103034837
 40
0.1207865163
 40
0.1317244176
 40
0.1431170941
 40
0.1549630719
 40
0.1672596408
 40
0.1800029545
 40
0.1931882087
 40
0.2068096306
 40
0.2208606897
 40
0.2353340137
 40
0.2502216112
 40
0.2655147581
 40
0.2812041995
 40
0.3137312779
 40
0.3477186146
 40
0.3830737319
 40
0.419697545
 40
0.4574851157
 40
0.4963263298
 40
0.5361065238
 40
0.5767070763
 40
0.6180059734
 40
0.6598783563
 40
0.7021970576
 40
0.7448331294
 40
0.7876563632
 40
0.8305358211
 40
0.8733403081
 40
0.9159390405
 40
0.9582017244
 40
1.0
 40
1.0
 40
1.0
 40
1.0
 10
10.0990180566
 20
10.2947373962
 30
0.0
 10
10.0990180595
 20
10.2961969404
 30
0.0
 10
10.0991814771
 20
10.2991350871
 30
0.0
 10
10.0999149279
 20
10.3035266198
 30
0.0
 10
10.101135442
 20
10.307908362
 30
0.0
 10
10.1028406834
 20
10.3122752232
 30
0.0
 10
10.1050278317
 20
10.3166236651
 30
0.0
 10
10.1076939327
 20
10.3209503657
 30
0.0
 10
10.1108359852
 20
10.3252523289
 30
0.0
 10
10.1144508595
 20
10.3295266988
 30
0.0
 10
10.1185353799
 20
10.33377054
 30
0.0
 10
10.1230860628
 20
10.3379809729
 30
0.0
 10
10.1280992667
 20
10.3421549103
 30
0.0
 10
10.1335709265
 20
10.3462893496
 30
0.0
 10
10.139496731
 20
10.3503810819
 30
0.0
 10
10.1458719199
 20
10.3544270156
 30
0.0
 10
10.1526914307
 20
10.3584239088
 30
0.0
 10
10.1599497746
 20
10.3623686327
 30
0.0
 10
10.1676411268
 20
10.3662579861
 30
0.0
 10
10.1757592731
 20
10.3700888462
 30
0.0
 10
10.1842976456
 20
10.3738580985
 30
0.0
 10
10.1932493213
 20
10.3775626605
 30
0.0
 10
10.2026070202
 20
10.3811995302
 30
0.0
 10
10.2123631327
 20
10.3847656944
 30
0.0
 10
10.2225097002
 20
10.3882582756
 30
0.0
 10
10.2330384526
 20
10.3916743561
 30
0.0
 10
10.2439407868
 20
10.3950111878
 30
0.0
 10
10.2552077976
 20
10.3982659686
 30
0.0
 10
10.2668302826
 20
10.4014361018
 30
0.0
 10
10.2829827377
 20
10.4055965315
 30
0.0
 10
10.3039974075
 20
10.4105535438
 30
0.0
 10
10.3301813668
 20
10.4160556181
 30
0.0
 10
10.3575404076
 20
10.4211622931
 30
0.0
 10
10.3859849682
 20
10.425856686
 30
0.0
 10
10.4154220813
 20
10.4301232537
 30
0.0
 10
10.445755414
 20
10.4339478849
 30
0.0
 10
10.4768856754
 20
10.4373179336
 30
0.0
 10
10.5087109289
 20
10.4402222617
 30
0.0
 10
10.5411269397
 20
10.4426512739
 30
0.0
 10
10.57402752
 20
10.4445969475
 30
0.0
 10
10.607304882
 20
10.4460528578
 30
0.0
 10
10.6408499936
 20
10.4470141979
 30
0.0
 10
10.6745529409
 20
10.447477795
 30
0.0
 10
10.7083032845
 20
10.4474421168
 30
0.0
 10
10.7419904421
 20
10.4469072859
 30
0.0
 10
10.7755040139
 20
10.4458750576
 30
0.0
 10
10.8087341362
 20
10.4443488585
 30
0.0
 10
10.8307702085
 20
10.4429965783
 30
0.0
 10
10.8417211555
 20
10.4422371275
 30
0.0
  0
SPLINE
  5
39E
100
AcDbEntity
  8
0
100
AcDbSpline
 62
7
  6
CONTINUOUS
 70
0
 71
3
 72
20
 73
16
 74
0
 42
0.0000001
 43
0.0000001
 44
0.0000000001
 40
0.0
 40
0.0
 40
0.0
 40
0.0
 40
0.0505381732
 40
0.1030008845
 40
0.1573308421
 40
0.2134657385
 40
0.2713386733
 40
0.3308788449
 40
0.392011438
 40
0.4546582344
 40
0.5187378921
 40
0.5841658202
 40
0.718713604
 40
0.8575770561
 40
1.0
 40
1.0
 40
1.0
 40
1.0
 10
12.2785496982
 20
10.0261298068
 30
0.0
 10
12.275661128
 20
10.0270366584
 30
0.0
 10
12.2697526186
 20
10.0288173973
 30
0.0
 10
12.2606731476
 20
10.0313488565
 30
0.0
 10
12.2512216982
 20
10.033787699
 30
0.0
 10
12.2414124511
 20
10.0361302352
 30
0.0
 10
12.2312600525
 20
10.0383729637
 30
0.0
 10
12.2207796882
 20
10.0405124752
 30
0.0
 10
12.2099870382
 20
10.042545568
 30
0.0
 10
12.1988982608
 20
10.0444691788
 30
0.0
 10
12.1875299421
 20
10.0462804067
 30
0.0
 10
12.171876436
 20
10.0485630976
 30
0.0
 10
12.1517354858
 20
10.0511072733
 30
0.0
 10
12.1269519204
 20
10.0536460846
 30
0.0
 10
12.1101530115
 20
10.054989414
 30
0.0
 10
12.1016413635
 20
10.0555796988
 30
0.0
  0
SPLINE
  5
39F
100
AcDbEntity
  8
0
100
AcDbSpline
 62
7
  6
CONTINUOUS
 70
0
 71
3
 72
23
 73
19
 74
0
 42
0.0000001
 43
0.0000001
 44
0.0000000001
 40
0.0
 40
0.0
 40
0.0
 40
0.0
 40
0.0434368091
 40
0.0898701185
 40
0.1392504339
 40
0.1915084764
 40
0.2465581148
 40
0.304298669
 40
0.3646167157
 40
0.4273875464
 40
0.4924763781
 40
0.5597394041
 40
0.6290247048
 40
0.7001729837
 40
0.7730188471
 40
0.8473898124
 40
0.9231116715
 40
1.0
 40
1.0
 40
1.0
 40
1.0
 10
12.3433619067
 20
10.0447144081
 30
0.0
 10
12.3402344679
 20
10.0462252549
 30
0.0
 10
12.3336858744
 20
10.0491913474
 30
0.0
 10
12.3233585437
 20
10.0533607347
 30
0.0
 10
12.3122224286
 20
10.0573892809
 30
0.0
 10
12.3003063767
 20
10.0612663394
 30
0.0
 10
12.2876409524
 20
10.0649818031
 30
0.0
 10
12.2742589007
 20
10.0685259084
 30
0.0
 10
12.2601948663
 20
10.0718893463
 30
0.0
 10
12.2454853346
 20
10.0750632735
 30
0.0
 10
12.23016851
 20
10.0780393458
 30
0.0
 10
12.2142842117
 20
10.0808097391
 30
0.0
 10
12.19787377
 20
10.0833671709
 30
0.0
 10
12.1809798823
 20
10.0857049347
 30
0.0
 10
12.1636466008
 20
10.0878168693
 30
0.0
 10
12.145918928
 20
10.089697477
 30
0.0
 10
12.1278432498
 20
10.0913417573
 30
0.0
 10
12.1156753126
 20
10.0922711972
 30
0.0
 10
12.1095419608
 20
10.0926965466
 30
0.0
  0
SPLINE
  5
3A0
100
AcDbEntity
  8
0
100
AcDbSpline
 62
7
  6
CONTINUOUS
 70
0
 71
3
 72
48
 73
44
 74
0
 42
0.0000001
 43
0.0000001
 44
0.0000000001
 40
0.0
 40
0.0
 40
0.0
 40
0.0
 40
0.0068493486
 40
0.0135997588
 40
0.0202929777
 40
0.0269719074
 40
0.0336797638
 40
0.040459141
 40
0.0473512038
 40
0.0543949143
 40
0.0616265022
 40
0.0690791812
 40
0.0847569507
 40
0.0930394075
 40
0.1016434602
 40
0.110586867
 40
0.1198848198
 40
0.1295501471
 40
0.1395937488
 40
0.1500245748
 40
0.1608499336
 40
0.1720757752
 40
0.1837065831
 40
0.2081937797
 40
0.2343287255
 40
0.2621125424
 40
0.2915348951
 40
0.3225757912
 40
0.3552070986
 40
0.3893936298
 40
0.4250938995
 40
0.4622608867
 40
0.5008426735
 40
0.5407828856
 40
0.5820210259
 40
0.6244929323
 40
0.6681311221
 40
0.712865019
 40
0.7586211427
 40
0.8053236682
 40
0.852894317
 40
0.901252086
 40
1.0
 40
1.0
 40
1.0
 40
1.0
 10
12.4163037546
 20
10.09754153
 30
0.0
 10
12.4165109192
 20
10.0982864227
 30
0.0
 10
12.4168653635
 20
10.0997820524
 30
0.0
 10
12.4172124781
 20
10.1020487697
 30
0.0
 10
12.4173700677
 20
10.1043174141
 30
0.0
 10
12.4173378789
 20
10.1065864761
 30
0.0
 10
12.4171159436
 20
10.1088546332
 30
0.0
 10
12.4167045431
 20
10.1111205499
 30
0.0
 10
12.4161039721
 20
10.1133829494
 30
0.0
 10
12.4153147913
 20
10.115640616
 30
0.0
 10
12.4143375814
 20
10.1178925476
 30
0.0
 10
12.41275839
 20
10.1209368408
 30
0.0
 10
12.4108174923
 20
10.1239168634
 30
0.0
 10
12.4085629417
 20
10.1268214745
 30
0.0
 10
12.4066566813
 20
10.1290295651
 30
0.0
 10
12.4045673075
 20
10.1312258859
 30
0.0
 10
12.4022956488
 20
10.133409725
 30
0.0
 10
12.399842837
 20
10.1355801176
 30
0.0
 10
12.3972099533
 20
10.1377360923
 30
0.0
 10
12.3943982292
 20
10.1398767194
 30
0.0
 10
12.3914089601
 20
10.1420010559
 30
0.0
 10
12.3882434828
 20
10.1441081324
 30
0.0
 10
12.3837117859
 20
10.1469420413
 30
0.0
 10
12.377605447
 20
10.1504262122
 30
0.0
 10
12.369721638
 20
10.1544541868
 30
0.0
 10
12.3611746195
 20
10.1583907486
 30
0.0
 10
12.3519800922
 20
10.1622286511
 30
0.0
 10
12.3421547652
 20
10.1659608422
 30
0.0
 10
12.3317166677
 20
10.1695803849
 30
0.0
 10
12.3206849956
 20
10.1730805202
 30
0.0
 10
12.3090801139
 20
10.1764547158
 30
0.0
 10
12.2969234896
 20
10.1796966667
 30
0.0
 10
12.2842376356
 20
10.1828002997
 30
0.0
 10
12.2710460715
 20
10.1857597929
 30
0.0
 10
12.257373285
 20
10.1885696162
 30
0.0
 10
12.2432446704
 20
10.1912245107
 30
0.0
 10
12.2286864733
 20
10.1937194984
 30
0.0
 10
12.213725758
 20
10.1960499034
 30
0.0
 10
12.1983903335
 20
10.1982113816
 30
0.0
 10
12.1827087288
 20
10.2001998769
 30
0.0
 10
12.1667101231
 20
10.202011676
 30
0.0
 10
12.1448438435
 20
10.2042024362
 30
0.0
 10
12.128290583
 20
10.2055458101
 30
0.0
 10
12.1171704934
 20
10.2063169909
 30
0.0
  0
SPLINE
  5
3A1
100
AcDbEntity
  8
0
100
AcDbSpline
 62
7
  6
CONTINUOUS
 70
0
 71
3
 72
37
 73
33
 74
0
 42
0.0000001
 43
0.0000001
 44
0.0000000001
 40
0.0
 40
0.0
 40
0.0
 40
0.0
 40
0.0135404569
 40
0.027872542
 40
0.0431441587
 40
0.0594728274
 40
0.076949307
 40
0.0956417951
 40
0.1155997502
 40
0.136857204
 40
0.1594356154
 40
0.1833460215
 40
0.208590659
 40
0.2351644394
 40
0.2630560241
 40
0.2922485476
 40
0.3227203714
 40
0.3544456861
 40
0.387394861
 40
0.4215348195
 40
0.4568294463
 40
0.4932397991
 40
0.5307242804
 40
0.5692389498
 40
0.6087376917
 40
0.6491722945
 40
0.6904926978
 40
0.7326471331
 40
0.7755821686
 40
0.8192430639
 40
0.9085142754
 40
1.0
 40
1.0
 40
1.0
 40
1.0
 10
12.5993020306
 20
10.1205659146
 30
0.0
 10
12.598530145
 20
10.1225240995
 30
0.0
 10
12.5966758354
 20
10.1264540599
 30
0.0
 10
12.5931301979
 20
10.1321611542
 30
0.0
 10
12.5887599287
 20
10.137821386
 30
0.0
 10
12.5835734393
 20
10.1434278234
 30
0.0
 10
12.5775785084
 20
10.1489751706
 30
0.0
 10
12.5707835653
 20
10.1544571322
 30
0.0
 10
12.5631978314
 20
10.1598671865
 30
0.0
 10
12.5548315894
 20
10.1651984994
 30
0.0
 10
12.5456962029
 20
10.170444038
 30
0.0
 10
12.5358041823
 20
10.1755966737
 30
0.0
 10
12.5251692067
 20
10.1806493151
 30
0.0
 10
12.513806064
 20
10.1855948977
 30
0.0
 10
12.5017306281
 20
10.1904264295
 30
0.0
 10
12.4889598563
 20
10.1951370771
 30
0.0
 10
12.4755117356
 20
10.1997201498
 30
0.0
 10
12.4614052393
 20
10.2041690994
 30
0.0
 10
12.4466603147
 20
10.2084775763
 30
0.0
 10
12.4312978467
 20
10.2126394411
 30
0.0
 10
12.4153396068
 20
10.216648737
 30
0.0
 10
12.3988082305
 20
10.2204997217
 30
0.0
 10
12.3817271899
 20
10.2241869072
 30
0.0
 10
12.3641207434
 20
10.2277050202
 30
0.0
 10
12.3460139014
 20
10.2310490161
 30
0.0
 10
12.3274324004
 20
10.2342141281
 30
0.0
 10
12.3084026552
 20
10.2371958387
 30
0.0
 10
12.2889517293
 20
10.2399898656
 30
0.0
 10
12.2691072498
 20
10.2425922507
 30
0.0
 10
12.2419604915
 20
10.2458253672
 30
0.0
 10
12.2072508477
 20
10.2493505782
 30
0.0
 10
12.179239106
 20
10.2515830747
 30
0.0
 10
12.1650519773
 20
10.2525669555
 30
0.0
  0
SPLINE
  5
3A2
100
AcDbEntity
  8
0
100
AcDbSpline
 62
7
  6
CONTINUOUS
 70
0
 71
3
 72
27
 73
23
 74
0
 42
0.0000001
 43
0.0000001
 44
0.0000000001
 40
0.0
 40
0.0
 40
0.0
 40
0.0
 40
0.023341167
 40
0.0475056467
 40
0.0724709968
 40
0.0982130996
 40
0.1247060956
 40
0.1519225871
 40
0.1798338234
 40
0.2084096158
 40
0.2674273451
 40
0.328713178
 40
0.3919876235
 40
0.4569579983
 40
0.5233206545
 40
0.5907631141
 40
0.6589661418
 40
0.7276057998
 40
0.7963554113
 40
0.8648878854
 40
0.9328765499
 40
1.0
 40
1.0
 40
1.0
 40
1.0
 10
11.7461309064
 20
10.026124424
 30
0.0
 10
11.7487917727
 20
10.0269599195
 30
0.0
 10
11.7542254688
 20
10.0286031724
 30
0.0
 10
11.7625614097
 20
10.0309491903
 30
0.0
 10
11.771215899
 20
10.0332168606
 30
0.0
 10
11.7801778818
 20
10.0354032331
 30
0.0
 10
11.7894359658
 20
10.0375055218
 30
0.0
 10
11.7989783544
 20
10.0395210379
 30
0.0
 10
11.8087929071
 20
10.0414471915
 30
0.0
 10
11.8223712787
 20
10.0439195096
 30
0.0
 10
11.839934288
 20
10.0467594531
 30
0.0
 10
11.8616678888
 20
10.0497396577
 30
0.0
 10
11.8841694686
 20
10.0523121926
 30
0.0
 10
11.9073243241
 20
10.0544637987
 30
0.0
 10
11.9310145342
 20
10.0561833546
 30
0.0
 10
11.9551193645
 20
10.0574619862
 30
0.0
 10
11.9795159534
 20
10.0582930957
 30
0.0
 10
12.0040799283
 20
10.0586723975
 30
0.0
 10
12.0286860694
 20
10.0585979424
 30
0.0
 10
12.0532088983
 20
10.0580701009
 30
0.0
 10
12.0775233566
 20
10.0570916228
 30
0.0
 10
12.0936402371
 20
10.0561345788
 30
0.0
 10
12.1016413635
 20
10.0555796988
 30
0.0
  0
SPLINE
  5
3A3
100
AcDbEntity
  8
0
100
AcDbSpline
 62
7
  6
CONTINUOUS
 70
0
 71
3
 72
31
 73
27
 74
0
 42
0.0000001
 43
0.0000001
 44
0.0000000001
 40
0.0
 40
0.0
 40
0.0
 40
0.0
 40
0.0195549811
 40
0.0402261563
 40
0.0620002492
 40
0.0848586994
 40
0.1087783168
 40
0.1337319478
 40
0.1596888678
 40
0.1866150584
 40
0.2144736363
 40
0.2432251094
 40
0.2728275032
 40
0.3032366511
 40
0.3344064102
 40
0.3662887448
 40
0.398833918
 40
0.4319906976
 40
0.4999259429
 40
0.5696604535
 40
0.6407430346
 40
0.7127109017
 40
0.7850937249
 40
0.8574176916
 40
0.9292090027
 40
1.0
 40
1.0
 40
1.0
 40
1.0
 10
11.6813331169
 20
10.0447131034
 30
0.0
 10
11.6838828532
 20
10.0459449166
 30
0.0
 10
11.689179473
 20
10.0483729919
 30
0.0
 10
11.6974682113
 20
10.0518269639
 30
0.0
 10
11.7063085412
 20
10.0551885157
 30
0.0
 10
11.7156849873
 20
10.0584516838
 30
0.0
 10
11.725581317
 20
10.0616107737
 30
0.0
 10
11.7359802935
 20
10.0646602089
 30
0.0
 10
11.7468637904
 20
10.067594601
 30
0.0
 10
11.7582127915
 20
10.0704087909
 30
0.0
 10
11.7700074548
 20
10.0730978117
 30
0.0
 10
11.7822271463
 20
10.0756569009
 30
0.0
 10
11.7948504668
 20
10.0780815549
 30
0.0
 10
11.8078553005
 20
10.0803675005
 30
0.0
 10
11.8212188628
 20
10.0825106919
 30
0.0
 10
11.8349177223
 20
10.0845073456
 30
0.0
 10
11.8489278782
 20
10.0863539755
 30
0.0
 10
11.8681456342
 20
10.0886300379
 30
0.0
 10
11.8927648597
 20
10.0910680483
 30
0.0
 10
11.9229117091
 20
10.0933281995
 30
0.0
 10
11.9536854351
 20
10.0949297717
 30
0.0
 10
11.9848702681
 20
10.0958613793
 30
0.0
 10
12.0162476926
 20
10.0961164056
 30
0.0
 10
12.0475977791
 20
10.0956930107
 30
0.0
 10
12.0787006935
 20
10.0945942402
 30
0.0
 10
12.0993154881
 20
10.0934057548
 30
0.0
 10
12.1095419608
 20
10.0926965466
 30
0.0
  0
SPLINE
  5
3A4
100
AcDbEntity
  8
0
100
AcDbSpline
 62
7
  6
CONTINUOUS
 70
0
 71
3
 72
53
 73
49
 74
0
 42
0.0000001
 43
0.0000001
 44
0.0000000001
 40
0.0
 40
0.0
 40
0.0
 40
0.0
 40
0.0058141369
 40
0.0115305232
 40
0.0172179001
 40
0.0229461621
 40
0.0287836011
 40
0.0347943965
 40
0.0410368341
 40
0.0475621819
 40
0.0544144829
 40
0.0616306601
 40
0.069241224
 40
0.0772708238
 40
0.0857391652
 40
0.0946615222
 40
0.1040495583
 40
0.1139116572
 40
0.1242535883
 40
0.1350786654
 40
0.146388282
 40
0.1581819435
 40
0.1704577082
 40
0.1832121363
 40
0.196440666
 40
0.2101375088
 40
0.2242959819
 40
0.2389083701
 40
0.2539662278
 40
0.2694602214
 40
0.3017152417
 40
0.3355866304
 40
0.3709772757
 40
0.4077818631
 40
0.4458878481
 40
0.4851763136
 40
0.5255227494
 40
0.5667977776
 40
0.6088678401
 40
0.6515958617
 40
0.6948418956
 40
0.7384637569
 40
0.7823176484
 40
0.8262587842
 40
0.8701420024
 40
0.9138224004
 40
0.9571559093
 40
1.0
 40
1.0
 40
1.0
 40
1.0
 10
11.6083939741
 20
10.0975415235
 30
0.0
 10
11.6081091738
 20
10.0985655668
 30
0.0
 10
11.607651842
 20
10.1006284463
 30
0.0
 10
11.6073198389
 20
10.1037651809
 30
0.0
 10
11.6073508069
 20
10.1069040583
 30
0.0
 10
11.6077446632
 20
10.1100403353
 30
0.0
 10
11.6085004423
 20
10.1131700429
 30
0.0
 10
11.6096162866
 20
10.1162895828
 30
0.0
 10
11.6110901194
 20
10.119395889
 30
0.0
 10
11.6129195166
 20
10.1224864189
 30
0.0
 10
11.6151021865
 20
10.1255588102
 30
0.0
 10
11.6176356472
 20
10.1286109305
 30
0.0
 10
11.6205174812
 20
10.131640534
 30
0.0
 10
11.6237449977
 20
10.1346454585
 30
0.0
 10
11.627315416
 20
10.1376233447
 30
0.0
 10
11.6312256087
 20
10.1405719098
 30
0.0
 10
11.6354722613
 20
10.1434886887
 30
0.0
 10
11.6400516922
 20
10.1463713221
 30
0.0
 10
11.6449599885
 20
10.1492173022
 30
0.0
 10
11.6501928795
 20
10.1520242524
 30
0.0
 10
11.6557458465
 20
10.1547896762
 30
0.0
 10
11.6616140326
 20
10.1575112232
 30
0.0
 10
11.6677923286
 20
10.1601864448
 30
0.0
 10
11.6742753087
 20
10.1628130457
 30
0.0
 10
11.6810572968
 20
10.1653886486
 30
0.0
 10
11.6881323206
 20
10.1679110327
 30
0.0
 10
11.6954941628
 20
10.1703779097
 30
0.0
 10
11.703136327
 20
10.1727871414
 30
0.0
 10
11.71105209
 20
10.1751365626
 30
0.0
 10
11.7221104995
 20
10.1782280853
 30
0.0
 10
11.7365710772
 20
10.1819169133
 30
0.0
 10
11.754673475
 20
10.1860163665
 30
0.0
 10
11.7736869161
 20
10.1898311741
 30
0.0
 10
11.7935442245
 20
10.1933477116
 30
0.0
 10
11.8141753667
 20
10.1965533901
 30
0.0
 10
11.8355074636
 20
10.1994367493
 30
0.0
 10
11.8574651333
 20
10.2019874838
 30
0.0
 10
11.8799707467
 20
10.204196482
 30
0.0
 10
11.9029447156
 20
10.2060558563
 30
0.0
 10
11.9263057775
 20
10.2075589699
 30
0.0
 10
11.9499712884
 20
10.2087004592
 30
0.0
 10
11.9738575179
 20
10.2094762517
 30
0.0
 10
11.9978799485
 20
10.2098835803
 30
0.0
 10
12.0219535787
 20
10.209920992
 30
0.0
 10
12.0459932185
 20
10.2095883541
 30
0.0
 10
12.0699138238
 20
10.208886851
 30
0.0
 10
12.0936306731
 20
10.2078189905
 30
0.0
 10
12.1093567346
 20
10.2068588769
 30
0.0
 10
12.1171704934
 20
10.2063169909
 30
0.0
  0
SPLINE
  5
3A5
100
AcDbEntity
  8
0
100
AcDbSpline
 62
7
  6
CONTINUOUS
 70
0
 71
3
 72
52
 73
48
 74
0
 42
0.0000001
 43
0.0000001
 44
0.0000000001
 40
0.0
 40
0.0
 40
0.0
 40
0.0
 40
0.0058254964
 40
0.0118830607
 40
0.0182084509
 40
0.0248323005
 40
0.0317805483
 40
0.0390747219
 40
0.0467325668
 40
0.0547683529
 40
0.0631934831
 40
0.0720167051
 40
0.0812446346
 40
0.0908818574
 40
0.1009313667
 40
0.1113945772
 40
0.122271694
 40
0.1335616646
 40
0.145262497
 40
0.1573711701
 40
0.169883916
 40
0.1827961035
 40
0.1961024938
 40
0.2097971078
 40
0.223873462
 40
0.2383244268
 40
0.2531424462
 40
0.2683193928
 40
0.299715008
 40
0.332438672
 40
0.3664110753
 40
0.4015475207
 40
0.4377585035
 40
0.4749502376
 40
0.5130251413
 40
0.5518822948
 40
0.5914178787
 40
0.6315255968
 40
0.6720970903
 40
0.7130223443
 40
0.7541900896
 40
0.795488202
 40
0.8368040981
 40
0.878025134
 40
0.9190389942
 40
0.9597341048
 40
1.0
 40
1.0
 40
1.0
 40
1.0
 10
11.425443679
 20
10.1206871655
 30
0.0
 10
11.4259970953
 20
10.1220800823
 30
0.0
 10
11.4272585113
 20
10.1248702768
 30
0.0
 10
11.4295455619
 20
10.12896446
 30
0.0
 10
11.4322584775
 20
10.1330387096
 30
0.0
 10
11.4353944769
 20
10.1370900818
 30
0.0
 10
11.438951103
 20
10.1411161618
 30
0.0
 10
11.4429255164
 20
10.1451144951
 30
0.0
 10
11.447314856
 20
10.1490824713
 30
0.0
 10
11.4521158883
 20
10.153017584
 30
0.0
 10
11.4573252392
 20
10.15691712
 30
0.0
 10
11.4629391504
 20
10.1607785007
 30
0.0
 10
11.4689536653
 20
10.1645989635
 30
0.0
 10
11.4753644519
 20
10.1683759007
 30
0.0
 10
11.4821669518
 20
10.172106549
 30
0.0
 10
11.489356251
 20
10.1757883124
 30
0.0
 10
11.4969271963
 20
10.1794184628
 30
0.0
 10
11.5048743008
 20
10.1829944457
 30
0.0
 10
11.5131918342
 20
10.186513593
 30
0.0
 10
11.5218737532
 20
10.1899734123
 30
0.0
 10
11.5309137716
 20
10.193371313
 30
0.0
 10
11.54030531
 20
10.1967048795
 30
0.0
 10
11.5500415488
 20
10.1999716113
 30
0.0
 10
11.5601153934
 20
10.2031691812
 30
0.0
 10
11.5705195155
 20
10.2062951898
 30
0.0
 10
11.5812463251
 20
10.2093474022
 30
0.0
 10
11.5922880192
 20
10.2123235487
 30
0.0
 10
11.6075923633
 20
10.2162315593
 30
0.0
 10
11.6274553313
 20
10.2208997743
 30
0.0
 10
11.6521527739
 20
10.2261038933
 30
0.0
 10
11.6779016992
 20
10.2309561805
 30
0.0
 10
11.7046269558
 20
10.2354423549
 30
0.0
 10
11.7322506713
 20
10.2395491891
 30
0.0
 10
11.7606922608
 20
10.243264587
 30
0.0
 10
11.7898687354
 20
10.2465776074
 30
0.0
 10
11.8196949338
 20
10.249478498
 30
0.0
 10
11.8500837802
 20
10.2519587224
 30
0.0
 10
11.8809465423
 20
10.2540109838
 30
0.0
 10
11.9121930929
 20
10.255629246
 30
0.0
 10
11.9437321763
 20
10.25680875
 30
0.0
 10
11.9754716773
 20
10.2575460278
 30
0.0
 10
12.0073188907
 20
10.2578389116
 30
0.0
 10
12.0391807976
 20
10.2576865404
 30
0.0
 10
12.0709643264
 20
10.2570893623
 30
0.0
 10
12.1025766699
 20
10.2560491319
 30
0.0
 10
12.1339254024
 20
10.2545689126
 30
0.0
 10
12.1547168816
 20
10.2532836968
 30
0.0
 10
12.1650519773
 20
10.2525669555
 30
0.0
  0
SPLINE
  5
3A6
100
AcDbEntity
  8
0
100
AcDbSpline
 62
7
  6
CONTINUOUS
 70
0
 71
3
 72
53
 73
49
 74
0
 42
0.0000001
 43
0.0000001
 44
0.0000000001
 40
0.0
 40
0.0
 40
0.0
 40
0.0
 40
0.0055575334
 40
0.0111779591
 40
0.0169218931
 40
0.0228457847
 40
0.029000565
 40
0.0354309743
 40
0.0421754345
 40
0.0492662879
 40
0.0567303589
 40
0.0645894686
 40
0.0728611764
 40
0.0815592161
 40
0.0906941791
 40
0.1002737964
 40
0.1103034837
 40
0.1207865163
 40
0.1317244176
 40
0.1431170941
 40
0.1549630719
 40
0.1672596408
 40
0.1800029545
 40
0.1931882087
 40
0.2068096306
 40
0.2208606897
 40
0.2353340137
 40
0.2502216112
 40
0.2655147581
 40
0.2812041995
 40
0.3137312779
 40
0.3477186146
 40
0.3830737319
 40
0.419697545
 40
0.4574851157
 40
0.4963263298
 40
0.5361065238
 40
0.5767070763
 40
0.6180059734
 40
0.6598783563
 40
0.7021970576
 40
0.7448331294
 40
0.7876563632
 40
0.8305358211
 40
0.8733403081
 40
0.9159390405
 40
0.9582017244
 40
1.0
 40
1.0
 40
1.0
 40
1.0
 10
11.4223488784
 20
10.1359768532
 30
0.0
 10
11.4223488812
 20
10.1374363974
 30
0.0
 10
11.4225122989
 20
10.140374544
 30
0.0
 10
11.4232457497
 20
10.1447660768
 30
0.0
 10
11.4244662638
 20
10.149147819
 30
0.0
 10
11.4261715052
 20
10.1535146801
 30
0.0
 10
11.4283586534
 20
10.1578631221
 30
0.0
 10
11.4310247544
 20
10.1621898226
 30
0.0
 10
11.4341668069
 20
10.1664917858
 30
0.0
 10
11.4377816813
 20
10.1707661558
 30
0.0
 10
11.4418662016
 20
10.1750099969
 30
0.0
 10
11.4464168846
 20
10.1792204298
 30
0.0
 10
11.4514300885
 20
10.1833943673
 30
0.0
 10
11.4569017483
 20
10.1875288066
 30
0.0
 10
11.4628275528
 20
10.1916205389
 30
0.0
 10
11.4692027417
 20
10.1956664725
 30
0.0
 10
11.4760222524
 20
10.1996633657
 30
0.0
 10
11.4832805963
 20
10.2036080897
 30
0.0
 10
11.4909719486
 20
10.2074974431
 30
0.0
 10
11.4990900948
 20
10.2113283032
 30
0.0
 10
11.5076284674
 20
10.2150975554
 30
0.0
 10
11.516580143
 20
10.2188021175
 30
0.0
 10
11.5259378419
 20
10.2224389872
 30
0.0
 10
11.5356939544
 20
10.2260051514
 30
0.0
 10
11.545840522
 20
10.2294977326
 30
0.0
 10
11.5563692744
 20
10.232913813
 30
0.0
 10
11.5672716086
 20
10.2362506448
 30
0.0
 10
11.5785386193
 20
10.2395054256
 30
0.0
 10
11.5901611043
 20
10.2426755587
 30
0.0
 10
11.6063135594
 20
10.2468359885
 30
0.0
 10
11.6273282293
 20
10.2517930007
 30
0.0
 10
11.6535121886
 20
10.2572950751
 30
0.0
 10
11.6808712293
 20
10.26240175
 30
0.0
 10
11.7093157899
 20
10.2670961429
 30
0.0
 10
11.738752903
 20
10.2713627107
 30
0.0
 10
11.7690862358
 20
10.2751873419
 30
0.0
 10
11.8002164972
 20
10.2785573905
 30
0.0
 10
11.8320417506
 20
10.2814617187
 30
0.0
 10
11.8644577614
 20
10.2838907309
 30
0.0
 10
11.8973583417
 20
10.2858364045
 30
0.0
 10
11.9306357037
 20
10.2872923148
 30
0.0
 10
11.9641808153
 20
10.2882536548
 30
0.0
 10
11.9978837626
 20
10.288717252
 30
0.0
 10
12.0316341062
 20
10.2886815737
 30
0.0
 10
12.0653212638
 20
10.2881467428
 30
0.0
 10
12.0988348357
 20
10.2871145145
 30
0.0
 10
12.132064958
 20
10.2855883155
 30
0.0
 10
12.1541010303
 20
10.2842360352
 30
0.0
 10
12.1650519773
 20
10.2834765845
 30
0.0
  0
SPLINE
  5
3A7
100
AcDbEntity
  8
0
100
AcDbSpline
 62
4
  6
CONTINUOUS
 70
0
 71
3
 72
313
 73
309
 74
0
 42
0.0000001
 43
0.0000001
 44
0.0000000001
 40
0.0
 40
0.0
 40
0.0
 40
0.0
 40
0.015625
 40
0.0234375
 40
0.03125
 40
0.0390625
 40
0.046875
 40
0.05078125
 40
0.0546875
 40
0.056640625
 40
0.05859375
 40
0.060546875
 40
0.0615234375
 40
0.0620117188
 40
0.0625
 40
0.0629882812
 40
0.0634765625
 40
0.064453125
 40
0.06640625
 40
0.068359375
 40
0.0703125
 40
0.07421875
 40
0.078125
 40
0.0859375
 40
0.09375
 40
0.1015625
 40
0.109375
 40
0.11328125
 40
0.1171875
 40
0.119140625
 40
0.12109375
 40
0.123046875
 40
0.1240234375
 40
0.1245117188
 40
0.125
 40
0.1254882812
 40
0.1259765625
 40
0.126953125
 40
0.12890625
 40
0.130859375
 40
0.1328125
 40
0.13671875
 40
0.140625
 40
0.1484375
 40
0.15625
 40
0.1640625
 40
0.171875
 40
0.17578125
 40
0.1796875
 40
0.181640625
 40
0.18359375
 40
0.185546875
 40
0.1865234375
 40
0.1870117188
 40
0.1875
 40
0.1879882812
 40
0.1884765625
 40
0.189453125
 40
0.19140625
 40
0.193359375
 40
0.1953125
 40
0.19921875
 40
0.203125
 40
0.2109375
 40
0.21875
 40
0.2265625
 40
0.234375
 40
0.23828125
 40
0.2421875
 40
0.244140625
 40
0.24609375
 40
0.248046875
 40
0.2490234375
 40
0.2495117188
 40
0.25
 40
0.2504882812
 40
0.2509765625
 40
0.251953125
 40
0.25390625
 40
0.255859375
 40
0.2578125
 40
0.26171875
 40
0.265625
 40
0.2734375
 40
0.28125
 40
0.2890625
 40
0.296875
 40
0.30078125
 40
0.3046875
 40
0.306640625
 40
0.30859375
 40
0.310546875
 40
0.3115234375
 40
0.3120117188
 40
0.3125
 40
0.3129882812
 40
0.3134765625
 40
0.314453125
 40
0.31640625
 40
0.318359375
 40
0.3203125
 40
0.32421875
 40
0.328125
 40
0.3359375
 40
0.34375
 40
0.3515625
 40
0.359375
 40
0.36328125
 40
0.3671875
 40
0.369140625
 40
0.37109375
 40
0.373046875
 40
0.3740234375
 40
0.3745117188
 40
0.375
 40
0.3754882812
 40
0.3759765625
 40
0.376953125
 40
0.37890625
 40
0.380859375
 40
0.3828125
 40
0.38671875
 40
0.390625
 40
0.3984375
 40
0.40625
 40
0.4140625
 40
0.421875
 40
0.42578125
 40
0.4296875
 40
0.431640625
 40
0.43359375
 40
0.435546875
 40
0.4365234375
 40
0.4370117188
 40
0.4375
 40
0.4379882812
 40
0.4384765625
 40
0.439453125
 40
0.44140625
 40
0.443359375
 40
0.4453125
 40
0.44921875
 40
0.453125
 40
0.4609375
 40
0.46875
 40
0.4765625
 40
0.484375
 40
0.48828125
 40
0.4921875
 40
0.494140625
 40
0.49609375
 40
0.498046875
 40
0.4990234375
 40
0.4995117188
 40
0.5
 40
0.5004882812
 40
0.5009765625
 40
0.501953125
 40
0.50390625
 40
0.505859375
 40
0.5078125
 40
0.51171875
 40
0.515625
 40
0.5234375
 40
0.53125
 40
0.5390625
 40
0.546875
 40
0.55078125
 40
0.5546875
 40
0.556640625
 40
0.55859375
 40
0.560546875
 40
0.5615234375
 40
0.5620117188
 40
0.5625
 40
0.5629882812
 40
0.5634765625
 40
0.564453125
 40
0.56640625
 40
0.568359375
 40
0.5703125
 40
0.57421875
 40
0.578125
 40
0.5859375
 40
0.59375
 40
0.6015625
 40
0.609375
 40
0.61328125
 40
0.6171875
 40
0.619140625
 40
0.62109375
 40
0.623046875
 40
0.6240234375
 40
0.6245117188
 40
0.625
 40
0.6254882812
 40
0.6259765625
 40
0.626953125
 40
0.62890625
 40
0.630859375
 40
0.6328125
 40
0.63671875
 40
0.640625
 40
0.6484375
 40
0.65625
 40
0.6640625
 40
0.671875
 40
0.67578125
 40
0.6796875
 40
0.681640625
 40
0.68359375
 40
0.685546875
 40
0.6865234375
 40
0.6870117188
 40
0.6875
 40
0.6879882812
 40
0.6884765625
 40
0.689453125
 40
0.69140625
 40
0.693359375
 40
0.6953125
 40
0.69921875
 40
0.703125
 40
0.7109375
 40
0.71875
 40
0.7265625
 40
0.734375
 40
0.73828125
 40
0.7421875
 40
0.744140625
 40
0.74609375
 40
0.748046875
 40
0.7490234375
 40
0.7495117188
 40
0.75
 40
0.7504882812
 40
0.7509765625
 40
0.751953125
 40
0.75390625
 40
0.755859375
 40
0.7578125
 40
0.76171875
 40
0.765625
 40
0.7734375
 40
0.78125
 40
0.7890625
 40
0.796875
 40
0.80078125
 40
0.8046875
 40
0.806640625
 40
0.80859375
 40
0.810546875
 40
0.8115234375
 40
0.8120117188
 40
0.8125
 40
0.8129882812
 40
0.8134765625
 40
0.814453125
 40
0.81640625
 40
0.818359375
 40
0.8203125
 40
0.82421875
 40
0.828125
 40
0.8359375
 40
0.84375
 40
0.8515625
 40
0.859375
 40
0.86328125
 40
0.8671875
 40
0.869140625
 40
0.87109375
 40
0.873046875
 40
0.8740234375
 40
0.8745117188
 40
0.875
 40
0.8754882812
 40
0.8759765625
 40
0.876953125
 40
0.87890625
 40
0.880859375
 40
0.8828125
 40
0.88671875
 40
0.890625
 40
0.8984375
 40
0.90625
 40
0.9140625
 40
0.921875
 40
0.92578125
 40
0.9296875
 40
0.931640625
 40
0.93359375
 40
0.935546875
 40
0.9365234375
 40
0.9370117188
 40
0.9375
 40
0.9379882812
 40
0.9384765625
 40
0.939453125
 40
0.94140625
 40
0.943359375
 40
0.9453125
 40
0.94921875
 40
0.953125
 40
0.9609375
 40
0.96875
 40
0.9765625
 40
0.984375
 40
1.0
 40
1.0
 40
1.0
 40
1.0
 10
10.411665795
 20
7.0812578395
 30
0.0
 10
10.4118706028
 20
7.0791548448
 30
0.0
 10
10.4121778143
 20
7.0760003526
 30
0.0
 10
10.4125874303
 20
7.0717943632
 30
0.0
 10
10.4128946406
 20
7.0686398709
 30
0.0
 10
10.4132018572
 20
7.0654853794
 30
0.0
 10
10.4134578517
 20
7.062856634
 30
0.0
 10
10.4136626906
 20
7.0607536433
 30
0.0
 10
10.4137906162
 20
7.0594392614
 30
0.0
 10
10.4138931828
 20
7.0583877849
 30
0.0
 10
10.4139694885
 20
7.0575990979
 30
0.0
 10
10.4140350467
 20
7.0569421122
 30
0.0
 10
10.414077071
 20
7.0564817248
 30
0.0
 10
10.4141071221
 20
7.056219423
 30
0.0
 10
10.4141126536
 20
7.0560205086
 30
0.0
 10
10.4141831936
 20
7.0558299579
 30
0.0
 10
10.4142545713
 20
7.055572973
 30
0.0
 10
10.4143900473
 20
7.0551246086
 30
0.0
 10
10.414578061
 20
7.0544833774
 30
0.0
 10
10.4148060416
 20
7.0537142042
 30
0.0
 10
10.41510919
 20
7.0526885336
 30
0.0
 10
10.4154884082
 20
7.0514064818
 30
0.0
 10
10.4160949992
 20
7.0493551785
 30
0.0
 10
10.4168532927
 20
7.0467910565
 30
0.0
 10
10.4177632199
 20
7.0437141065
 30
0.0
 10
10.4186731592
 20
7.0406371594
 30
0.0
 10
10.4194314223
 20
7.0380730303
 30
0.0
 10
10.420038074
 20
7.0360217411
 30
0.0
 10
10.4204171382
 20
7.0347396535
 30
0.0
 10
10.4207206027
 20
7.0337140564
 30
0.0
 10
10.4209476174
 20
7.0329446585
 30
0.0
 10
10.4211386532
 20
7.0323041302
 30
0.0
 10
10.4212687341
 20
7.0318545111
 30
0.0
 10
10.4213487561
 20
7.0315995365
 30
0.0
 10
10.4213927438
 20
7.0314028106
 30
0.0
 10
10.4214980017
 20
7.0312270894
 30
0.0
 10
10.4216169739
 20
7.0309854677
 30
0.0
 10
10.4218351326
 20
7.0305660434
 30
0.0
 10
10.4221415821
 20
7.0299650812
 30
0.0
 10
10.4225115498
 20
7.0292446905
 30
0.0
 10
10.4230040617
 20
7.0282839027
 30
0.0
 10
10.4236199682
 20
7.0270830093
 30
0.0
 10
10.4246052695
 20
7.0251615288
 30
0.0
 10
10.4258369475
 20
7.0227596958
 30
0.0
 10
10.4273149377
 20
7.019877488
 30
0.0
 10
10.4287929395
 20
7.0169952849
 30
0.0
 10
10.4300245886
 20
7.0145934401
 30
0.0
 10
10.4310099478
 20
7.0126719833
 30
0.0
 10
10.431625707
 20
7.0114710298
 30
0.0
 10
10.4321185212
 20
7.0105103653
 30
0.0
 10
10.4324875652
 20
7.0097895978
 30
0.0
 10
10.4327969047
 20
7.0091898143
 30
0.0
 10
10.4330099044
 20
7.0087682859
 30
0.0
 10
10.4331371427
 20
7.0085300356
 30
0.0
 10
10.4332170096
 20
7.0083439585
 30
0.0
 10
10.4333563617
 20
7.0081861277
 30
0.0
 10
10.4335214154
 20
7.007965834
 30
0.0
 10
10.4338199268
 20
7.0075849106
 30
0.0
 10
10.4342413174
 20
7.0070383343
 30
0.0
 10
10.4347491495
 20
7.00638347
 30
0.0
 10
10.4354255033
 20
7.0055099588
 30
0.0
 10
10.4362712043
 20
7.0044181927
 30
0.0
 10
10.4376241812
 20
7.0026712981
 30
0.0
 10
10.4393154523
 20
7.0004877038
 30
0.0
 10
10.4413449552
 20
6.9978673793
 30
0.0
 10
10.4433744679
 20
6.9952470621
 30
0.0
 10
10.4450657143
 20
6.9930634493
 30
0.0
 10
10.4464187407
 20
6.9913165918
 30
0.0
 10
10.4472643161
 20
6.9902247316
 30
0.0
 10
10.4479409277
 20
6.9893514135
 30
0.0
 10
10.4484479721
 20
6.9886959591
 30
0.0
 10
10.4488718272
 20
6.9881512291
 30
0.0
 10
10.449165939
 20
6.9877670098
 30
0.0
 10
10.4493380418
 20
6.9875519969
 30
0.0
 10
10.4494557414
 20
6.9873779453
 30
0.0
 10
10.4496169317
 20
6.9872527908
 30
0.0
 10
10.449816682
 20
6.9870688622
 30
0.0
 10
10.4501733131
 20
6.9867549338
 30
0.0
 10
10.4506790908
 20
6.9863023101
 30
0.0
 10
10.4512876058
 20
6.98576094
 30
0.0
 10
10.4520984066
 20
6.985038492
 30
0.0
 10
10.4531120968
 20
6.9841356448
 30
0.0
 10
10.4547338954
 20
6.9826909702
 30
0.0
 10
10.4567611801
 20
6.9808851681
 30
0.0
 10
10.4591939052
 20
6.9787181868
 30
0.0
 10
10.4616266381
 20
6.9765512151
 30
0.0
 10
10.4636539035
 20
6.9747453887
 30
0.0
 10
10.4652757406
 20
6.9733007628
 30
0.0
 10
10.4662893328
 20
6.9723977919
 30
0.0
 10
10.4671003348
 20
6.9716755978
 30
0.0
 10
10.4677082351
 20
6.971133452
 30
0.0
 10
10.468215936
 20
6.9706832553
 30
0.0
 10
10.468569134
 20
6.9703649943
 30
0.0
 10
10.468774385
 20
6.9701880076
 30
0.0
 10
10.4689186788
 20
6.9700415298
 30
0.0
 10
10.4690998387
 20
6.9699475651
 30
0.0
 10
10.4693285259
 20
6.9698039617
 30
0.0
 10
10.46973472
 20
6.96956119
 30
0.0
 10
10.4703118648
 20
6.9692099115
 30
0.0
 10
10.4710057793
 20
6.9687902871
 30
0.0
 10
10.4719305304
 20
6.9682301208
 30
0.0
 10
10.4730866296
 20
6.9675301414
 30
0.0
 10
10.4749362987
 20
6.9664100466
 30
0.0
 10
10.477248416
 20
6.9650099723
 30
0.0
 10
10.4800229429
 20
6.9633298628
 30
0.0
 10
10.4827974757
 20
6.961649764
 30
0.0
 10
10.485109578
 20
6.9602496628
 30
0.0
 10
10.486959277
 20
6.9591296218
 30
0.0
 10
10.4881153002
 20
6.9584295058
 30
0.0
 10
10.4890402073
 20
6.9578696198
 30
0.0
 10
10.4897336451
 20
6.9574491392
 30
0.0
 10
10.4903122817
 20
6.9571005395
 30
0.0
 10
10.4907158126
 20
6.9568529858
 30
0.0
 10
10.4909487668
 20
6.9567170443
 30
0.0
 10
10.4911168199
 20
6.9565995446
 30
0.0
 10
10.4913103406
 20
6.9565414605
 30
0.0
 10
10.4915594848
 20
6.9564432901
 30
0.0
 10
10.491999626
 20
6.9562811481
 30
0.0
 10
10.4926262353
 20
6.9560444683
 30
0.0
 10
10.4933790926
 20
6.9557626135
 30
0.0
 10
10.4943825789
 20
6.9553860522
 30
0.0
 10
10.4956370475
 20
6.9549156091
 30
0.0
 10
10.4976441354
 20
6.9541627556
 30
0.0
 10
10.5001530167
 20
6.9532217387
 30
0.0
 10
10.5031636645
 20
6.9520924955
 30
0.0
 10
10.5061743167
 20
6.9509632641
 30
0.0
 10
10.5086831872
 20
6.9500222177
 30
0.0
 10
10.5106902965
 20
6.9492694232
 30
0.0
 10
10.5119447107
 20
6.94879883
 30
0.0
 10
10.5129483088
 20
6.9484225769
 30
0.0
 10
10.5137008247
 20
6.9481397808
 30
0.0
 10
10.5143285023
 20
6.9479060457
 30
0.0
 10
10.5147667363
 20
6.947738647
 30
0.0
 10
10.5150189363
 20
6.9476488991
 30
0.0
 10
10.5152030706
 20
6.9475649439
 30
0.0
 10
10.5154063771
 20
6.9475446117
 30
0.0
 10
10.5156707649
 20
6.9474953097
 30
0.0
 10
10.5161365595
 20
6.947419371
 30
0.0
 10
10.5168003513
 20
6.9473054814
 30
0.0
 10
10.5175975987
 20
6.9471711277
 30
0.0
 10
10.5186603517
 20
6.9469911813
 30
0.0
 10
10.5199888763
 20
6.9467665249
 30
0.0
 10
10.5221144692
 20
6.9464069201
 30
0.0
 10
10.5247714762
 20
6.9459574676
 30
0.0
 10
10.5279598779
 20
6.9454180999
 30
0.0
 10
10.5311482808
 20
6.9448787449
 30
0.0
 10
10.5338052847
 20
6.9444292608
 30
0.0
 10
10.5359308838
 20
6.9440697191
 30
0.0
 10
10.5372593924
 20
6.9438449024
 30
0.0
 10
10.5383221785
 20
6.9436652852
 30
0.0
 10
10.5391193248
 20
6.9435299256
 30
0.0
 10
10.5397834329
 20
6.943419183
 30
0.0
 10
10.5402486627
 20
6.9433376264
 30
0.0
 10
10.5405139553
 20
6.9432973258
 30
0.0
 10
10.5407144828
 20
6.943249344
 30
0.0
 10
10.5409090547
 20
6.943269236
 30
0.0
 10
10.5411705613
 20
6.9432720835
 30
0.0
 10
10.5416272299
 20
6.9432880972
 30
0.0
 10
10.5422801197
 20
6.9433052071
 30
0.0
 10
10.5430633709
 20
6.9433282074
 30
0.0
 10
10.5441077815
 20
6.9433580123
 30
0.0
 10
10.5454132687
 20
6.9433955636
 30
0.0
 10
10.5475020629
 20
6.9434554806
 30
0.0
 10
10.5501130505
 20
6.9435304339
 30
0.0
 10
10.5532462382
 20
6.9436203518
 30
0.0
 10
10.556379424
 20
6.9437102826
 30
0.0
 10
10.5589904161
 20
6.9437852038
 30
0.0
 10
10.5610792012
 20
6.943845185
 30
0.0
 10
10.5623847115
 20
6.9438825731
 30
0.0
 10
10.5634290749
 20
6.9439127129
 30
0.0
 10
10.5642124701
 20
6.9439346899
 30
0.0
 10
10.5648649093
 20
6.9439550014
 30
0.0
 10
10.5653223823
 20
6.9439652998
 30
0.0
 10
10.5655826001
 20
6.9439773047
 30
0.0
 10
10.5657811309
 20
6.9439690681
 30
0.0
 10
10.5659667896
 20
6.9440267327
 30
0.0
 10
10.5662188245
 20
6.9440806317
 30
0.0
 10
10.5666577936
 20
6.9441856651
 30
0.0
 10
10.5672859859
 20
6.9443301134
 30
0.0
 10
10.5680393487
 20
6.9445058482
 30
0.0
 10
10.5690439958
 20
6.944739324
 30
0.0
 10
10.5702997488
 20
6.9450314555
 30
0.0
 10
10.5723089849
 20
6.9454987055
 30
0.0
 10
10.574820519
 20
6.9460828235
 30
0.0
 10
10.5778343653
 20
6.9467837397
 30
0.0
 10
10.580848208
 20
6.9474846684
 30
0.0
 10
10.5833597513
 20
6.9480687554
 30
0.0
 10
10.5853689691
 20
6.9485360673
 30
0.0
 10
10.5866247685
 20
6.9488280415
 30
0.0
 10
10.5876293202
 20
6.9490618401
 30
0.0
 10
10.5883829746
 20
6.9492365887
 30
0.0
 10
10.5890102546
 20
6.9493841225
 30
0.0
 10
10.5894508525
 20
6.9494836479
 30
0.0
 10
10.5897002775
 20
6.9495463721
 30
0.0
 10
10.5898939529
 20
6.9495769284
 30
0.0
 10
10.5900623745
 20
6.9496705062
 30
0.0
 10
10.5902957454
 20
6.9497732941
 30
0.0
 10
10.5907000403
 20
6.9499634149
 30
0.0
 10
10.5912797501
 20
6.9502296614
 30
0.0
 10
10.5919744835
 20
6.9505514491
 30
0.0
 10
10.5929011155
 20
6.9509796989
 30
0.0
 10
10.5940592957
 20
6.9515152853
 30
0.0
 10
10.5959124453
 20
6.9523720702
 30
0.0
 10
10.5982288611
 20
6.9534431043
 30
0.0
 10
10.60100857
 20
6.954728321
 30
0.0
 10
10.6037882733
 20
6.9560135497
 30
0.0
 10
10.6061047029
 20
6.9570845539
 30
0.0
 10
10.6079578249
 20
6.9579413987
 30
0.0
 10
10.6091160753
 20
6.9584768328
 30
0.0
 10
10.610042563
 20
6.958905395
 30
0.0
 10
10.6107377372
 20
6.9592262285
 30
0.0
 10
10.6113160679
 20
6.9594954606
 30
0.0
 10
10.6117228248
 20
6.9596802516
 30
0.0
 10
10.611952251
 20
6.9597915791
 30
0.0
 10
10.6121327894
 20
6.9598589257
 30
0.0
 10
10.6122809561
 20
6.9599880024
 30
0.0
 10
10.6124898033
 20
6.9601385725
 30
0.0
 10
10.6128500248
 20
6.9604121024
 30
0.0
 10
10.6133673776
 20
6.9607976145
 30
0.0
 10
10.6139870236
 20
6.9612624739
 30
0.0
 10
10.6148136295
 20
6.9618815024
 30
0.0
 10
10.6158467461
 20
6.9626555566
 30
0.0
 10
10.6174998114
 20
6.9638938931
 30
0.0
 10
10.6195661156
 20
6.9654418654
 30
0.0
 10
10.6220456937
 20
6.967299409
 30
0.0
 10
10.6245252636
 20
6.969156963
 30
0.0
 10
10.6265915881
 20
6.9707049093
 30
0.0
 10
10.6282446129
 20
6.971943298
 30
0.0
 10
10.6292778323
 20
6.9727172194
 30
0.0
 10
10.6301042272
 20
6.9733365203
 30
0.0
 10
10.6307245179
 20
6.9738005474
 30
0.0
 10
10.6312398535
 20
6.9741886638
 30
0.0
 10
10.6316036761
 20
6.9744575445
 30
0.0
 10
10.6318067536
 20
6.9746155638
 30
0.0
 10
10.6319726427
 20
6.9747217589
 30
0.0
 10
10.6320866187
 20
6.974875045
 30
0.0
 10
10.6322566945
 20
6.9750630005
 30
0.0
 10
10.6325458904
 20
6.9753995758
 30
0.0
 10
10.6329634383
 20
6.9758763965
 30
0.0
 10
10.6334626078
 20
6.9764502939
 30
0.0
 10
10.6341288265
 20
6.9772148923
 30
0.0
 10
10.6349613741
 20
6.9781708451
 30
0.0
 10
10.6362935766
 20
6.9797002552
 30
0.0
 10
10.637958786
 20
6.9816120572
 30
0.0
 10
10.6399570573
 20
6.9839062017
 30
0.0
 10
10.6419553183
 20
6.9862003547
 30
0.0
 10
10.6436205534
 20
6.9881121357
 30
0.0
 10
10.6449527045
 20
6.9896415878
 30
0.0
 10
10.6457853826
 20
6.9905974336
 30
0.0
 10
10.6464513335
 20
6.9913622518
 30
0.0
 10
10.6469513213
 20
6.9919354778
 30
0.0
 10
10.6473663088
 20
6.9924143992
 30
0.0
 10
10.6476600754
 20
6.9927472244
 30
0.0
 10
10.6478228279
 20
6.9929411885
 30
0.0
 10
10.647959299
 20
6.993076018
 30
0.0
 10
10.6480407001
 20
6.9932515327
 30
0.0
 10
10.6481684441
 20
6.9934713609
 30
0.0
 10
10.6483830461
 20
6.9938626722
 30
0.0
 10
10.6486942995
 20
6.9944182315
 30
0.0
 10
10.6490658007
 20
6.9950863824
 30
0.0
 10
10.6495618353
 20
6.9959767333
 30
0.0
 10
10.6501816389
 20
6.997089849
 30
0.0
 10
10.6511734587
 20
6.9988707352
 30
0.0
 10
10.6524131872
 20
7.001096877
 30
0.0
 10
10.6539008826
 20
7.0037682318
 30
0.0
 10
10.6553885669
 20
7.0064395934
 30
0.0
 10
10.6566283232
 20
7.0086657183
 30
0.0
 10
10.6576200872
 20
7.0104466383
 30
0.0
 10
10.6582400327
 20
7.0115596681
 30
0.0
 10
10.6587357762
 20
7.0124501953
 30
0.0
 10
10.6591081667
 20
7.0131178077
 30
0.0
 10
10.6594166379
 20
7.0136750517
 30
0.0
 10
10.6596362066
 20
7.0140633555
 30
0.0
 10
10.6597559926
 20
7.0142880025
 30
0.0
 10
10.6598618378
 20
7.0144487153
 30
0.0
 10
10.6599065012
 20
7.0146391385
 30
0.0
 10
10.6599873934
 20
7.0148826728
 30
0.0
 10
10.6601190115
 20
7.0153136862
 30
0.0
 10
10.6603122357
 20
7.0159268954
 30
0.0
 10
10.6605418798
 20
7.0166638268
 30
0.0
 10
10.660848849
 20
7.0176460247
 30
0.0
 10
10.6612322944
 20
7.0188739014
 30
0.0
 10
10.6618459559
 20
7.0208384317
 30
0.0
 10
10.6626129813
 20
7.0232941195
 30
0.0
 10
10.6635334354
 20
7.0262409337
 30
0.0
 10
10.6644538774
 20
7.029187753
 30
0.0
 10
10.665220933
 20
7.031643428
 30
0.0
 10
10.6658345339
 20
7.033607984
 30
0.0
 10
10.6662181332
 20
7.0348357954
 30
0.0
 10
10.6665247867
 20
7.035818127
 30
0.0
 10
10.6667553955
 20
7.0365546501
 30
0.0
 10
10.6669456011
 20
7.037169137
 30
0.0
 10
10.6670826081
 20
7.0375978695
 30
0.0
 10
10.6671548659
 20
7.0378450584
 30
0.0
 10
10.6672260513
 20
7.038024256
 30
0.0
 10
10.6672322842
 20
7.0382271303
 30
0.0
 10
10.6672632508
 20
7.0384893707
 30
0.0
 10
10.6673068865
 20
7.0389521393
 30
0.0
 10
10.6673747421
 20
7.0396112256
 30
0.0
 10
10.6674538065
 20
7.0404029902
 30
0.0
 10
10.6675600507
 20
7.0414583756
 30
0.0
 10
10.6676925735
 20
7.0427777104
 30
0.0
 10
10.667904768
 20
7.0448885884
 30
0.0
 10
10.6681699568
 20
7.0475272057
 30
0.0
 10
10.6684882066
 20
7.050693538
 30
0.0
 10
10.6688064503
 20
7.0538598726
 30
0.0
 10
10.6692307773
 20
7.0580816512
 30
0.0
 10
10.669549022
 20
7.0612479853
 30
0.0
 10
10.6697611853
 20
7.0633588747
 30
0.0
  0
SPLINE
  5
3A8
100
AcDbEntity
  8
0
100
AcDbSpline
 62
4
  6
CONTINUOUS
 70
0
 71
3
 72
313
 73
309
 74
0
 42
0.0000001
 43
0.0000001
 44
0.0000000001
 40
0.0
 40
0.0
 40
0.0
 40
0.0
 40
0.015625
 40
0.0234375
 40
0.03125
 40
0.0390625
 40
0.046875
 40
0.05078125
 40
0.0546875
 40
0.056640625
 40
0.05859375
 40
0.060546875
 40
0.0615234375
 40
0.0620117188
 40
0.0625
 40
0.0629882812
 40
0.0634765625
 40
0.064453125
 40
0.06640625
 40
0.068359375
 40
0.0703125
 40
0.07421875
 40
0.078125
 40
0.0859375
 40
0.09375
 40
0.1015625
 40
0.109375
 40
0.11328125
 40
0.1171875
 40
0.119140625
 40
0.12109375
 40
0.123046875
 40
0.1240234375
 40
0.1245117188
 40
0.125
 40
0.1254882812
 40
0.1259765625
 40
0.126953125
 40
0.12890625
 40
0.130859375
 40
0.1328125
 40
0.13671875
 40
0.140625
 40
0.1484375
 40
0.15625
 40
0.1640625
 40
0.171875
 40
0.17578125
 40
0.1796875
 40
0.181640625
 40
0.18359375
 40
0.185546875
 40
0.1865234375
 40
0.1870117188
 40
0.1875
 40
0.1879882812
 40
0.1884765625
 40
0.189453125
 40
0.19140625
 40
0.193359375
 40
0.1953125
 40
0.19921875
 40
0.203125
 40
0.2109375
 40
0.21875
 40
0.2265625
 40
0.234375
 40
0.23828125
 40
0.2421875
 40
0.244140625
 40
0.24609375
 40
0.248046875
 40
0.2490234375
 40
0.2495117188
 40
0.25
 40
0.2504882812
 40
0.2509765625
 40
0.251953125
 40
0.25390625
 40
0.255859375
 40
0.2578125
 40
0.26171875
 40
0.265625
 40
0.2734375
 40
0.28125
 40
0.2890625
 40
0.296875
 40
0.30078125
 40
0.3046875
 40
0.306640625
 40
0.30859375
 40
0.310546875
 40
0.3115234375
 40
0.3120117188
 40
0.3125
 40
0.3129882812
 40
0.3134765625
 40
0.314453125
 40
0.31640625
 40
0.318359375
 40
0.3203125
 40
0.32421875
 40
0.328125
 40
0.3359375
 40
0.34375
 40
0.3515625
 40
0.359375
 40
0.36328125
 40
0.3671875
 40
0.369140625
 40
0.37109375
 40
0.373046875
 40
0.3740234375
 40
0.3745117188
 40
0.375
 40
0.3754882812
 40
0.3759765625
 40
0.376953125
 40
0.37890625
 40
0.380859375
 40
0.3828125
 40
0.38671875
 40
0.390625
 40
0.3984375
 40
0.40625
 40
0.4140625
 40
0.421875
 40
0.42578125
 40
0.4296875
 40
0.431640625
 40
0.43359375
 40
0.435546875
 40
0.4365234375
 40
0.4370117188
 40
0.4375
 40
0.4379882812
 40
0.4384765625
 40
0.439453125
 40
0.44140625
 40
0.443359375
 40
0.4453125
 40
0.44921875
 40
0.453125
 40
0.4609375
 40
0.46875
 40
0.4765625
 40
0.484375
 40
0.48828125
 40
0.4921875
 40
0.494140625
 40
0.49609375
 40
0.498046875
 40
0.4990234375
 40
0.4995117188
 40
0.5
 40
0.5004882812
 40
0.5009765625
 40
0.501953125
 40
0.50390625
 40
0.505859375
 40
0.5078125
 40
0.51171875
 40
0.515625
 40
0.5234375
 40
0.53125
 40
0.5390625
 40
0.546875
 40
0.55078125
 40
0.5546875
 40
0.556640625
 40
0.55859375
 40
0.560546875
 40
0.5615234375
 40
0.5620117188
 40
0.5625
 40
0.5629882812
 40
0.5634765625
 40
0.564453125
 40
0.56640625
 40
0.568359375
 40
0.5703125
 40
0.57421875
 40
0.578125
 40
0.5859375
 40
0.59375
 40
0.6015625
 40
0.609375
 40
0.61328125
 40
0.6171875
 40
0.619140625
 40
0.62109375
 40
0.623046875
 40
0.6240234375
 40
0.6245117188
 40
0.625
 40
0.6254882812
 40
0.6259765625
 40
0.626953125
 40
0.62890625
 40
0.630859375
 40
0.6328125
 40
0.63671875
 40
0.640625
 40
0.6484375
 40
0.65625
 40
0.6640625
 40
0.671875
 40
0.67578125
 40
0.6796875
 40
0.681640625
 40
0.68359375
 40
0.685546875
 40
0.6865234375
 40
0.6870117188
 40
0.6875
 40
0.6879882812
 40
0.6884765625
 40
0.689453125
 40
0.69140625
 40
0.693359375
 40
0.6953125
 40
0.69921875
 40
0.703125
 40
0.7109375
 40
0.71875
 40
0.7265625
 40
0.734375
 40
0.73828125
 40
0.7421875
 40
0.744140625
 40
0.74609375
 40
0.748046875
 40
0.7490234375
 40
0.7495117188
 40
0.75
 40
0.7504882812
 40
0.7509765625
 40
0.751953125
 40
0.75390625
 40
0.755859375
 40
0.7578125
 40
0.76171875
 40
0.765625
 40
0.7734375
 40
0.78125
 40
0.7890625
 40
0.796875
 40
0.80078125
 40
0.8046875
 40
0.806640625
 40
0.80859375
 40
0.810546875
 40
0.8115234375
 40
0.8120117188
 40
0.8125
 40
0.8129882812
 40
0.8134765625
 40
0.814453125
 40
0.81640625
 40
0.818359375
 40
0.8203125
 40
0.82421875
 40
0.828125
 40
0.8359375
 40
0.84375
 40
0.8515625
 40
0.859375
 40
0.86328125
 40
0.8671875
 40
0.869140625
 40
0.87109375
 40
0.873046875
 40
0.8740234375
 40
0.8745117188
 40
0.875
 40
0.8754882812
 40
0.8759765625
 40
0.876953125
 40
0.87890625
 40
0.880859375
 40
0.8828125
 40
0.88671875
 40
0.890625
 40
0.8984375
 40
0.90625
 40
0.9140625
 40
0.921875
 40
0.92578125
 40
0.9296875
 40
0.931640625
 40
0.93359375
 40
0.935546875
 40
0.9365234375
 40
0.9370117188
 40
0.9375
 40
0.9379882812
 40
0.9384765625
 40
0.939453125
 40
0.94140625
 40
0.943359375
 40
0.9453125
 40
0.94921875
 40
0.953125
 40
0.9609375
 40
0.96875
 40
0.9765625
 40
0.984375
 40
1.0
 40
1.0
 40
1.0
 40
1.0
 10
10.6697611853
 20
7.0633588634
 30
0.0
 10
10.6695563776
 20
7.0654618582
 30
0.0
 10
10.6692491661
 20
7.0686163503
 30
0.0
 10
10.6688395501
 20
7.0728223397
 30
0.0
 10
10.6685323397
 20
7.075976832
 30
0.0
 10
10.6682251231
 20
7.0791313235
 30
0.0
 10
10.6679691287
 20
7.0817600689
 30
0.0
 10
10.6677642898
 20
7.0838630596
 30
0.0
 10
10.6676363642
 20
7.0851774416
 30
0.0
 10
10.6675337975
 20
7.086228918
 30
0.0
 10
10.6674574919
 20
7.087017605
 30
0.0
 10
10.6673919337
 20
7.0876745907
 30
0.0
 10
10.6673499093
 20
7.0881349781
 30
0.0
 10
10.6673198583
 20
7.0883972799
 30
0.0
 10
10.6673143268
 20
7.0885961943
 30
0.0
 10
10.6672437867
 20
7.088786745
 30
0.0
 10
10.667172409
 20
7.0890437299
 30
0.0
 10
10.667036933
 20
7.0894920943
 30
0.0
 10
10.6668489194
 20
7.0901333255
 30
0.0
 10
10.6666209388
 20
7.0909024988
 30
0.0
 10
10.6663177904
 20
7.0919281693
 30
0.0
 10
10.6659385722
 20
7.0932102212
 30
0.0
 10
10.6653319811
 20
7.0952615244
 30
0.0
 10
10.6645736877
 20
7.0978256465
 30
0.0
 10
10.6636637605
 20
7.1009025964
 30
0.0
 10
10.6627538211
 20
7.1039795436
 30
0.0
 10
10.661995558
 20
7.1065436726
 30
0.0
 10
10.6613889063
 20
7.1085949618
 30
0.0
 10
10.6610098422
 20
7.1098770495
 30
0.0
 10
10.6607063776
 20
7.1109026465
 30
0.0
 10
10.660479363
 20
7.1116720444
 30
0.0
 10
10.6602883271
 20
7.1123125727
 30
0.0
 10
10.6601582462
 20
7.1127621918
 30
0.0
 10
10.6600782242
 20
7.1130171664
 30
0.0
 10
10.6600342366
 20
7.1132138923
 30
0.0
 10
10.6599289787
 20
7.1133896136
 30
0.0
 10
10.6598100065
 20
7.1136312352
 30
0.0
 10
10.6595918477
 20
7.1140506595
 30
0.0
 10
10.6592853982
 20
7.1146516217
 30
0.0
 10
10.6589154306
 20
7.1153720124
 30
0.0
 10
10.6584229186
 20
7.1163328002
 30
0.0
 10
10.6578070122
 20
7.1175336936
 30
0.0
 10
10.6568217109
 20
7.1194551741
 30
0.0
 10
10.6555900328
 20
7.1218570071
 30
0.0
 10
10.6541120426
 20
7.1247392149
 30
0.0
 10
10.6526340408
 20
7.127621418
 30
0.0
 10
10.6514023918
 20
7.1300232628
 30
0.0
 10
10.6504170325
 20
7.1319447197
 30
0.0
 10
10.6498012734
 20
7.1331456731
 30
0.0
 10
10.6493084591
 20
7.1341063376
 30
0.0
 10
10.6489394151
 20
7.1348271051
 30
0.0
 10
10.6486300756
 20
7.1354268886
 30
0.0
 10
10.648417076
 20
7.135848417
 30
0.0
 10
10.6482898377
 20
7.1360866673
 30
0.0
 10
10.6482099707
 20
7.1362727444
 30
0.0
 10
10.6480706186
 20
7.1364305752
 30
0.0
 10
10.6479055649
 20
7.1366508689
 30
0.0
 10
10.6476070536
 20
7.1370317923
 30
0.0
 10
10.647185663
 20
7.1375783686
 30
0.0
 10
10.6466778309
 20
7.1382332329
 30
0.0
 10
10.6460014771
 20
7.1391067441
 30
0.0
 10
10.6451557761
 20
7.1401985103
 30
0.0
 10
10.6438027991
 20
7.1419454048
 30
0.0
 10
10.642111528
 20
7.1441289991
 30
0.0
 10
10.6400820252
 20
7.1467493236
 30
0.0
 10
10.6380525124
 20
7.1493696408
 30
0.0
 10
10.6363612661
 20
7.1515532536
 30
0.0
 10
10.6350082397
 20
7.1533001111
 30
0.0
 10
10.6341626643
 20
7.1543919713
 30
0.0
 10
10.6334860526
 20
7.1552652894
 30
0.0
 10
10.6329790083
 20
7.1559207438
 30
0.0
 10
10.6325551532
 20
7.1564654738
 30
0.0
 10
10.6322610413
 20
7.1568496931
 30
0.0
 10
10.6320889385
 20
7.157064706
 30
0.0
 10
10.631971239
 20
7.1572387576
 30
0.0
 10
10.6318100487
 20
7.1573639122
 30
0.0
 10
10.6316102984
 20
7.1575478407
 30
0.0
 10
10.6312536673
 20
7.1578617691
 30
0.0
 10
10.6307478895
 20
7.1583143928
 30
0.0
 10
10.6301393746
 20
7.1588557629
 30
0.0
 10
10.6293285738
 20
7.1595782109
 30
0.0
 10
10.6283148835
 20
7.1604810582
 30
0.0
 10
10.626693085
 20
7.1619257327
 30
0.0
 10
10.6246658003
 20
7.1637315348
 30
0.0
 10
10.6222330751
 20
7.1658985162
 30
0.0
 10
10.6198003423
 20
7.1680654878
 30
0.0
 10
10.6177730769
 20
7.1698713142
 30
0.0
 10
10.6161512397
 20
7.1713159401
 30
0.0
 10
10.6151376475
 20
7.1722189111
 30
0.0
 10
10.6143266455
 20
7.1729411051
 30
0.0
 10
10.6137187452
 20
7.173483251
 30
0.0
 10
10.6132110444
 20
7.1739334476
 30
0.0
 10
10.6128578464
 20
7.1742517086
 30
0.0
 10
10.6126525953
 20
7.1744286953
 30
0.0
 10
10.6125083015
 20
7.1745751732
 30
0.0
 10
10.6123271416
 20
7.1746691378
 30
0.0
 10
10.6120984544
 20
7.1748127413
 30
0.0
 10
10.6116922604
 20
7.1750555129
 30
0.0
 10
10.6111151156
 20
7.1754067914
 30
0.0
 10
10.610421201
 20
7.1758264158
 30
0.0
 10
10.6094964499
 20
7.1763865821
 30
0.0
 10
10.6083403507
 20
7.1770865615
 30
0.0
 10
10.6064906816
 20
7.1782066563
 30
0.0
 10
10.6041785644
 20
7.1796067306
 30
0.0
 10
10.6014040375
 20
7.1812868401
 30
0.0
 10
10.5986295047
 20
7.1829669389
 30
0.0
 10
10.5963174023
 20
7.1843670401
 30
0.0
 10
10.5944677033
 20
7.1854870811
 30
0.0
 10
10.5933116802
 20
7.1861871971
 30
0.0
 10
10.592386773
 20
7.1867470831
 30
0.0
 10
10.5916933353
 20
7.1871675637
 30
0.0
 10
10.5911146987
 20
7.1875161635
 30
0.0
 10
10.5907111677
 20
7.1877637171
 30
0.0
 10
10.5904782135
 20
7.1878996586
 30
0.0
 10
10.5903101604
 20
7.1880171583
 30
0.0
 10
10.5901166398
 20
7.1880752425
 30
0.0
 10
10.5898674956
 20
7.1881734128
 30
0.0
 10
10.5894273544
 20
7.1883355548
 30
0.0
 10
10.5888007451
 20
7.1885722346
 30
0.0
 10
10.5880478878
 20
7.1888540895
 30
0.0
 10
10.5870444015
 20
7.1892306507
 30
0.0
 10
10.5857899328
 20
7.1897010938
 30
0.0
 10
10.5837828449
 20
7.1904539473
 30
0.0
 10
10.5812739637
 20
7.1913949642
 30
0.0
 10
10.5782633158
 20
7.1925242074
 30
0.0
 10
10.5752526637
 20
7.1936534388
 30
0.0
 10
10.5727437932
 20
7.1945944853
 30
0.0
 10
10.5707366838
 20
7.1953472797
 30
0.0
 10
10.5694822696
 20
7.1958178729
 30
0.0
 10
10.5684786716
 20
7.1961941261
 30
0.0
 10
10.5677261557
 20
7.1964769221
 30
0.0
 10
10.5670984781
 20
7.1967106572
 30
0.0
 10
10.566660244
 20
7.1968780559
 30
0.0
 10
10.5664080441
 20
7.1969678038
 30
0.0
 10
10.5662239097
 20
7.197051759
 30
0.0
 10
10.5660206033
 20
7.1970720912
 30
0.0
 10
10.5657562154
 20
7.1971213932
 30
0.0
 10
10.5652904209
 20
7.1971973319
 30
0.0
 10
10.5646266291
 20
7.1973112215
 30
0.0
 10
10.5638293817
 20
7.1974455752
 30
0.0
 10
10.5627666287
 20
7.1976255217
 30
0.0
 10
10.561438104
 20
7.197850178
 30
0.0
 10
10.5593125112
 20
7.1982097828
 30
0.0
 10
10.5566555042
 20
7.1986592354
 30
0.0
 10
10.5534671025
 20
7.199198603
 30
0.0
 10
10.5502786995
 20
7.199737958
 30
0.0
 10
10.5476216957
 20
7.2001874421
 30
0.0
 10
10.5454960965
 20
7.2005469838
 30
0.0
 10
10.544167588
 20
7.2007718006
 30
0.0
 10
10.5431048019
 20
7.2009514178
 30
0.0
 10
10.5423076556
 20
7.2010867773
 30
0.0
 10
10.5416435475
 20
7.2011975199
 30
0.0
 10
10.5411783176
 20
7.2012790766
 30
0.0
 10
10.540913025
 20
7.2013193771
 30
0.0
 10
10.5407124976
 20
7.2013673589
 30
0.0
 10
10.5405179257
 20
7.2013474669
 30
0.0
 10
10.5402564191
 20
7.2013446195
 30
0.0
 10
10.5397997504
 20
7.2013286057
 30
0.0
 10
10.5391468606
 20
7.2013114958
 30
0.0
 10
10.5383636094
 20
7.2012884955
 30
0.0
 10
10.5373191989
 20
7.2012586907
 30
0.0
 10
10.5360137116
 20
7.2012211394
 30
0.0
 10
10.5339249175
 20
7.2011612223
 30
0.0
 10
10.5313139298
 20
7.201086269
 30
0.0
 10
10.5281807422
 20
7.2009963511
 30
0.0
 10
10.5250475564
 20
7.2009064203
 30
0.0
 10
10.5224365642
 20
7.2008314991
 30
0.0
 10
10.5203477791
 20
7.2007715179
 30
0.0
 10
10.5190422689
 20
7.2007341298
 30
0.0
 10
10.5179979055
 20
7.20070399
 30
0.0
 10
10.5172145103
 20
7.200682013
 30
0.0
 10
10.5165620711
 20
7.2006617015
 30
0.0
 10
10.516104598
 20
7.2006514031
 30
0.0
 10
10.5158443803
 20
7.2006393982
 30
0.0
 10
10.5156458495
 20
7.2006476349
 30
0.0
 10
10.5154601908
 20
7.2005899703
 30
0.0
 10
10.5152081559
 20
7.2005360712
 30
0.0
 10
10.5147691868
 20
7.2004310378
 30
0.0
 10
10.5141409944
 20
7.2002865895
 30
0.0
 10
10.5133876317
 20
7.2001108548
 30
0.0
 10
10.5123829845
 20
7.1998773789
 30
0.0
 10
10.5111272315
 20
7.1995852475
 30
0.0
 10
10.5091179955
 20
7.1991179974
 30
0.0
 10
10.5066064613
 20
7.1985338795
 30
0.0
 10
10.503592615
 20
7.1978329632
 30
0.0
 10
10.5005787724
 20
7.1971320345
 30
0.0
 10
10.4980672291
 20
7.1965479476
 30
0.0
 10
10.4960580113
 20
7.1960806356
 30
0.0
 10
10.4948022118
 20
7.1957886614
 30
0.0
 10
10.4937976601
 20
7.1955548628
 30
0.0
 10
10.4930440057
 20
7.1953801142
 30
0.0
 10
10.4924167258
 20
7.1952325804
 30
0.0
 10
10.4919761278
 20
7.1951330551
 30
0.0
 10
10.4917267028
 20
7.1950703308
 30
0.0
 10
10.4915330275
 20
7.1950397745
 30
0.0
 10
10.4913646059
 20
7.1949461967
 30
0.0
 10
10.491131235
 20
7.1948434089
 30
0.0
 10
10.4907269401
 20
7.194653288
 30
0.0
 10
10.4901472302
 20
7.1943870416
 30
0.0
 10
10.4894524968
 20
7.1940652538
 30
0.0
 10
10.4885258648
 20
7.193637004
 30
0.0
 10
10.4873676847
 20
7.1931014176
 30
0.0
 10
10.485514535
 20
7.1922446327
 30
0.0
 10
10.4831981192
 20
7.1911735986
 30
0.0
 10
10.4804184104
 20
7.1898883819
 30
0.0
 10
10.4776387071
 20
7.1886031532
 30
0.0
 10
10.4753222775
 20
7.1875321491
 30
0.0
 10
10.4734691555
 20
7.1866753043
 30
0.0
 10
10.472310905
 20
7.1861398701
 30
0.0
 10
10.4713844173
 20
7.1857113079
 30
0.0
 10
10.4706892431
 20
7.1853904744
 30
0.0
 10
10.4701109124
 20
7.1851212423
 30
0.0
 10
10.4697041555
 20
7.1849364513
 30
0.0
 10
10.4694747293
 20
7.1848251238
 30
0.0
 10
10.4692941909
 20
7.1847577772
 30
0.0
 10
10.4691460243
 20
7.1846287005
 30
0.0
 10
10.4689371771
 20
7.1844781304
 30
0.0
 10
10.4685769555
 20
7.1842046005
 30
0.0
 10
10.4680596027
 20
7.1838190885
 30
0.0
 10
10.4674399567
 20
7.183354229
 30
0.0
 10
10.4666133508
 20
7.1827352005
 30
0.0
 10
10.4655802342
 20
7.1819611464
 30
0.0
 10
10.463927169
 20
7.1807228099
 30
0.0
 10
10.4618608647
 20
7.1791748375
 30
0.0
 10
10.4593812867
 20
7.1773172939
 30
0.0
 10
10.4569017167
 20
7.1754597399
 30
0.0
 10
10.4548353922
 20
7.1739117937
 30
0.0
 10
10.4531823674
 20
7.1726734049
 30
0.0
 10
10.4521491481
 20
7.1718994836
 30
0.0
 10
10.4513227532
 20
7.1712801826
 30
0.0
 10
10.4507024624
 20
7.1708161555
 30
0.0
 10
10.4501871268
 20
7.1704280391
 30
0.0
 10
10.4498233043
 20
7.1701591584
 30
0.0
 10
10.4496202267
 20
7.1700011391
 30
0.0
 10
10.4494543377
 20
7.169894944
 30
0.0
 10
10.4493403617
 20
7.169741658
 30
0.0
 10
10.4491702858
 20
7.1695537024
 30
0.0
 10
10.4488810899
 20
7.1692171272
 30
0.0
 10
10.448463542
 20
7.1687403065
 30
0.0
 10
10.4479643726
 20
7.168166409
 30
0.0
 10
10.4472981538
 20
7.1674018106
 30
0.0
 10
10.4464656062
 20
7.1664458578
 30
0.0
 10
10.4451334038
 20
7.1649164478
 30
0.0
 10
10.4434681944
 20
7.1630046457
 30
0.0
 10
10.4414699231
 20
7.1607105012
 30
0.0
 10
10.439471662
 20
7.1584163482
 30
0.0
 10
10.4378064269
 20
7.1565045672
 30
0.0
 10
10.4364742758
 20
7.1549751151
 30
0.0
 10
10.4356415977
 20
7.1540192693
 30
0.0
 10
10.4349756468
 20
7.1532544511
 30
0.0
 10
10.434475659
 20
7.1526812251
 30
0.0
 10
10.4340606715
 20
7.1522023037
 30
0.0
 10
10.4337669049
 20
7.1518694786
 30
0.0
 10
10.4336041525
 20
7.1516755144
 30
0.0
 10
10.4334676814
 20
7.1515406849
 30
0.0
 10
10.4333862802
 20
7.1513651702
 30
0.0
 10
10.4332585363
 20
7.1511453421
 30
0.0
 10
10.4330439343
 20
7.1507540307
 30
0.0
 10
10.4327326809
 20
7.1501984714
 30
0.0
 10
10.4323611796
 20
7.1495303206
 30
0.0
 10
10.4318651451
 20
7.1486399696
 30
0.0
 10
10.4312453414
 20
7.1475268539
 30
0.0
 10
10.4302535216
 20
7.1457459677
 30
0.0
 10
10.4290137932
 20
7.1435198259
 30
0.0
 10
10.4275260978
 20
7.1408484711
 30
0.0
 10
10.4260384135
 20
7.1381771095
 30
0.0
 10
10.4247986571
 20
7.1359509846
 30
0.0
 10
10.4238068931
 20
7.1341700647
 30
0.0
 10
10.4231869477
 20
7.1330570349
 30
0.0
 10
10.4226912042
 20
7.1321665076
 30
0.0
 10
10.4223188137
 20
7.1314988953
 30
0.0
 10
10.4220103425
 20
7.1309416512
 30
0.0
 10
10.4217907738
 20
7.1305533474
 30
0.0
 10
10.4216709878
 20
7.1303287004
 30
0.0
 10
10.4215651426
 20
7.1301679877
 30
0.0
 10
10.4215204791
 20
7.1299775644
 30
0.0
 10
10.421439587
 20
7.1297340302
 30
0.0
 10
10.4213079689
 20
7.1293030167
 30
0.0
 10
10.4211147446
 20
7.1286898076
 30
0.0
 10
10.4208851006
 20
7.1279528761
 30
0.0
 10
10.4205781313
 20
7.1269706782
 30
0.0
 10
10.4201946859
 20
7.1257428016
 30
0.0
 10
10.4195810245
 20
7.1237782712
 30
0.0
 10
10.4188139991
 20
7.1213225834
 30
0.0
 10
10.417893545
 20
7.1183757692
 30
0.0
 10
10.416973103
 20
7.1154289499
 30
0.0
 10
10.4162060473
 20
7.1129732749
 30
0.0
 10
10.4155924464
 20
7.111008719
 30
0.0
 10
10.4152088471
 20
7.1097809075
 30
0.0
 10
10.4149021937
 20
7.1087985759
 30
0.0
 10
10.4146715848
 20
7.1080620528
 30
0.0
 10
10.4144813793
 20
7.107447566
 30
0.0
 10
10.4143443723
 20
7.1070188334
 30
0.0
 10
10.4142721145
 20
7.1067716446
 30
0.0
 10
10.414200929
 20
7.106592447
 30
0.0
 10
10.4141946962
 20
7.1063895726
 30
0.0
 10
10.4141637295
 20
7.1061273322
 30
0.0
 10
10.4141200938
 20
7.1056645636
 30
0.0
 10
10.4140522383
 20
7.1050054773
 30
0.0
 10
10.4139731739
 20
7.1042137127
 30
0.0
 10
10.4138669296
 20
7.1031583273
 30
0.0
 10
10.4137344068
 20
7.1018389925
 30
0.0
 10
10.4135222124
 20
7.0997281145
 30
0.0
 10
10.4132570235
 20
7.0970894972
 30
0.0
 10
10.4129387737
 20
7.0939231649
 30
0.0
 10
10.4126205301
 20
7.0907568304
 30
0.0
 10
10.4121962031
 20
7.0865350518
 30
0.0
 10
10.4118779583
 20
7.0833687176
 30
0.0
 10
10.411665795
 20
7.0812578282
 30
0.0
  0
ELLIPSE
  5
3A9
100
AcDbEntity
  8
0
100
AcDbEllipse
 62
7
  6
CONTINUOUS
 10
10.6678292721
 20
8.2709001964
 30
0.0
 11
0.1189827748
 21
-0.1047675196
 31
0.0
 40
0.736086487
 41
0.0
 42
6.2831853072
  0
ELLIPSE
  5
3AA
100
AcDbEntity
  8
0
100
AcDbEllipse
 62
7
  6
CONTINUOUS
 10
11.0145967481
 20
8.653506591
 30
0.0
 11
0.1588702137
 21
-0.0252340861
 31
0.0
 40
0.7464868657
 41
0.0
 42
6.2831853072
  0
ENDSEC
  0
SECTION
  2
OBJECTS
  0
DICTIONARY
  5
C
100
AcDbDictionary
280
0
281
1
  3
ACAD_GROUP
350
D
  3
ACAD_MLINESTYLE
350
17
  3
ACAD_LAYOUT
350
1A
  3
ACAD_PLOTSETTINGS
350
19
  3
ACAD_PLOTSTYLENAME
350
E
  3
ACAD_IMAGE_DICT
350
       3AC
  3
ACAD_IMAGE_VARS
350
       3AD
  3
ACAD_TABLESTYLE
350
       3AE
  0
IMAGEDEF_REACTOR
  5
3AB
100
AcDbRasterImageDefReactor
 90
2
330
284
  0
DICTIONARY
  5
D
102
{ACAD_REACTORS
330
C
102
}
100
AcDbDictionary
280
0
281
1
  0
ACDBDICTIONARYWDFLT
  5
E
102
{ACAD_REACTORS
330
C
102
}
100
AcDbDictionary
281
1
  3
Normal
350
F
100
AcDbDictionaryWithDefault
340
F
  0
DICTIONARY
  5
3AC
330
C
100
AcDbDictionary
281
1
  3
WJT_assy_2_img_1
350
       3B1
  0
RASTERVARIABLES
  5
3AD
330
C
100
AcDbRasterVariables
 90
0
 70
0
 71
1
 72
5
  0
DICTIONARY
  5
17
102
{ACAD_REACTORS
330
C
102
}
100
AcDbDictionary
280
0
281
1
  3
Standard
350
18
  0
DICTIONARY
  5
3AE
330
C
100
AcDbDictionary
281
1
  3
Standard
350
       3B2
  3
Standard1
350
       3B3
  0
DICTIONARY
  5
19
102
{ACAD_REACTORS
330
C
102
}
100
AcDbDictionary
281
1
  0
DICTIONARY
  5
1A
102
{ACAD_REACTORS
330
C
102
}
100
AcDbDictionary
281
1
  3
Model
350
3AF
  3
Layout1
350
3B0
  0
ACDBPLACEHOLDER
  5
F
102
{ACAD_REACTORS
330
E
102
}
  0
MLINESTYLE
  5
18
102
{ACAD_REACTORS
330
17
102
}
100
AcDbMlineStyle
  2
STANDARD
 70
0
  3

 62
256
 51
90.0
 52
90.0
 71
2
 49
0.5
 62
256
  6
BYLAYER
 49
-0.5
 62
256
  6
BYLAYER
  0
LAYOUT
  5
3AF
102
{ACAD_REACTORS
330
1A
102
}
100
AcDbPlotSettings
  1

  2
none_device
  4
ANSI_C_(22.00_x_17.00_Inches)
  6

 40
0.0
 41
0.0
 42
0.0
 43
0.0
 44
558.8
 45
431.8
 46
0.0
 47
0.0
 48
0.0
 49
0.0
140
0.0
141
0.0
142
1.0
143
1.0
 70
1024
 72
0
 73
0
 74
0
  7

 75
0
147
1.0
148
0.0
149
0.0
100
AcDbLayout
  1
Model
 70
0
 71
0
 10
0.0
 20
0.0
 11
22.0
 21
17.0
 12
0.0
 22
0.0
 32
0.0
 14
0.0
 24
0.0
 34
0.0
 15
0.0
 25
0.0
 35
0.0
146
0.0
 13
0.0
 23
0.0
 33
0.0
 16
1.0
 26
0.0
 36
0.0
 17
0.0
 27
1.0
 37
0.0
 76
0
330
20C
345
0
346
0
  0
LAYOUT
  5
3B0
102
{ACAD_REACTORS
330
1A
102
}
100
AcDbPlotSettings
  1

  2
none_device
  4
ANSI_C_(22.00_x_17.00_Inches)
  6

 40
0.0
 41
0.0
 42
0.0
 43
0.0
 44
558.8
 45
431.8
 46
0.0
 47
0.0
 48
0.0
 49
0.0
140
0.0
141
0.0
142
1.0
143
1.0
 70
0
 72
0
 73
0
 74
0
  7

 75
0
147
1.0
148
0.0
149
0.0
100
AcDbLayout
  1
Layout1
 70
0
 71
1
 10
0.0
 20
0.0
 11
22.0
 21
17.0
 12
0.0
 22
0.0
 32
0.0
 14
0.0
 24
0.0
 34
0.0
 15
0.0
 25
0.0
 35
0.0
146
0.0
 13
0.0
 23
0.0
 33
0.0
 16
1.0
 26
0.0
 36
0.0
 17
0.0
 27
1.0
 37
0.0
 76
0
330
20D
345
0
346
0
  0
IMAGEDEF
  5
3B1
102
{ACAD_REACTORS
330
3AC
330
3AB
102
}
100
AcDbRasterImageDef
 90
0
  1
WJT_assy_2_img_1.png
 10
369.0
 20
92.0
 11
0.0066666667
 21
0.0066666667
280
1
281
0
  0
TABLESTYLE
  5
3B2
102
{ACAD_REACTORS
330
3AE
330
287
330
288
102
}
330
3AE
100
AcDbTableStyle
  3
Standard
 70
0
 71
0
 40
0.06
 41
0.06
280
1
281
1
  7
Standard
140
0.18
170
1
 62
0
 63
7
283
0
  7
Standard
140
0.18
170
1
 62
0
 63
7
283
0
  7
Standard
140
0.18
170
1
 62
0
 63
7
283
0
  0
TABLESTYLE
  5
3B3
102
{ACAD_REACTORS
330
3AE
330
286
102
}
330
3AE
100
AcDbTableStyle
  3
Standard1
 70
1
 71
0
 40
0.06
 41
0.06
280
1
281
1
  7
Standard
140
0.18
170
1
 62
0
 63
7
283
0
  7
Standard
140
0.18
170
1
 62
0
 63
7
283
0
  7
Standard
140
0.18
170
1
 62
0
 63
7
283
0
  0
ENDSEC
  0
EOF
