999
DXF file: WJR_assy_2.dxf
999
Pro/ENGINEER 2014200 by Parametric Technology Corporation
  0
SECTION
  2
HEADER
  9
$ACADVER
  1
AC1021
  9
$DWGCODEPAGE
  3
ANSI_1252
  9
$EXTMAX
 10
22.0
 20
17.0
 30
0.0
  9
$EXTMIN
 10
0.0
 20
0.0
 30
0.0
  9
$LIMMIN
 10
0.0
 20
0.0
  9
$LIMMAX
 10
22.0
 20
17.0
  9
$VIEWCTR
 10
11.0
 20
8.5
  9
$VIEWSIZE
 40
17.0
  9
$CLAYER
  8
0
  9
$LTSCALE
 40
1.21
  9
$CELTYPE
  6
BYLAYER
  9
$DIMSCALE
 40
1.0
  9
$DIMASZ
 40
0.1875
  9
$DIMEXO
 40
0.0625
  9
$DIMDLI
 40
0.836
  9
$DIMEXE
 40
0.125
  9
$DIMCEN
 40
0.198
  9
$DIMLFAC
 40
1.0
  9
$DIMBLK
  1
_FILLED
  9
$DIMTXT
 40
0.1
  9
$DIMTOL
 70
0
  9
$DIMLIM
 70
0
  9
$DIMTFAC
 40
1.0
  9
$DIMGAP
 40
0.09
  9
$DIMDSEP
 70
46
  9
$AUNITS
 70
0
  9
$PDMODE
 70
3
  9
$PDSIZE
 40
0.3125
  9
$HANDSEED
  5
392
  9
$TILEMODE
 70
1
  9
$MEASUREMENT
 70
0
  9
$INSUNITS
 70
1
  0
ENDSEC
  0
SECTION
  2
CLASSES
  0
CLASS
  1
ACDBDICTIONARYWDFLT
  2
AcDbDictionaryWithDefault
  3
AutoCAD 2000
 90
0
 91
1
280
0
281
0
  0
CLASS
  1
ACDBPLACEHOLDER
  2
AcDbPlaceHolder
  3
AutoCAD 2000
 90
0
 91
1
280
0
281
0
  0
CLASS
  1
LAYOUT
  2
AcDbLayout
  3
AutoCAD 2000
 90
0
 91
0
280
0
281
0
  0
CLASS
  1
RASTERVARIABLES
  2
AcDbRasterVariables
  3
ISM
 90
0
 91
1
280
0
281
0
  0
CLASS
  1
IMAGEDEF
  2
AcDbRasterImageDef
  3
ISM
 90
0
 91
1
280
0
281
0
  0
CLASS
  1
IMAGEDEF_REACTOR
  2
AcDbRasterImageDefReactor
  3
ISM
 90
0
 91
1
280
0
281
0
  0
CLASS
  1
IMAGE
  2
AcDbRasterImage
  3
ISM
 90
127
 91
1
280
0
281
1
  0
CLASS
  1
TABLESTYLE
  2
AcDbTableStyle
  3
ObjectDBX Classes
 90
2047
 91
1
280
0
281
0
  0
CLASS
  1
ACAD_TABLE
  2
AcDbTable
  3
ObjectDBX Classes
 90
1025
 91
3
280
0
281
1
  0
ENDSEC
  0
SECTION
  2
TABLES
  0
TABLE
  2
VPORT
  5
8
100
AcDbSymbolTable
 70
2
  0
VPORT
  5
1F4
100
AcDbSymbolTableRecord
100
AcDbViewportTableRecord
  2
*ACTIVE
 70
0
 10
0.0
 20
0.0
 11
1.0
 21
1.0
 12
11.0
 22
8.5
 13
0.0
 23
0.0
 14
1.0
 24
1.0
 15
0.0
 25
0.0
 16
0.0
 26
0.0
 36
1.0
 17
0.0
 27
0.0
 37
0.0
 40
17.0
 41
1.2941176471
 42
50.0
 43
0.0
 44
0.0
 50
0.0
 51
0.0
 71
0
 72
100
 73
1
 74
1
 75
0
 76
0
 77
0
 78
0
  0
ENDTAB
  0
TABLE
  2
LTYPE
  5
5
100
AcDbSymbolTable
 70
6
  0
LTYPE
  5
14
100
AcDbSymbolTableRecord
100
AcDbLinetypeTableRecord
  2
BYBLOCK
 70
0
  3

 72
65
 73
0
 40
0.0
  0
LTYPE
  5
15
100
AcDbSymbolTableRecord
100
AcDbLinetypeTableRecord
  2
BYLAYER
 70
0
  3

 72
65
 73
0
 40
0.0
  0
LTYPE
  5
16
100
AcDbSymbolTableRecord
100
AcDbLinetypeTableRecord
  2
CONTINUOUS
 70
64
  3
Solid line
 72
65
 73
0
 40
0.0
  0
LTYPE
  5
1F5
100
AcDbSymbolTableRecord
100
AcDbLinetypeTableRecord
  2
CENTER
 70
64
  3
____ _ ____ _ ____ _ ____ _ ____ _ ____ _ ____
 72
65
 73
4
 40
0.6
 49
0.375
 74
0
 49
-0.075
 74
0
 49
0.075
 74
0
 49
-0.075
 74
0
  0
LTYPE
  5
1F6
100
AcDbSymbolTableRecord
100
AcDbLinetypeTableRecord
  2
HIDDEN
 70
64
  3
- - - - - - - - - - - - - - - - - - - -
 72
65
 73
2
 40
0.2
 49
0.1
 74
0
 49
-0.1
 74
0
  0
LTYPE
  5
1F7
100
AcDbSymbolTableRecord
100
AcDbLinetypeTableRecord
  2
PHANTOM
 70
64
  3
_____ _ _ _____ _ _ _____ _ _ _____
 72
65
 73
6
 40
0.8
 49
0.45
 74
0
 49
-0.05
 74
0
 49
0.1
 74
0
 49
-0.05
 74
0
 49
0.1
 74
0
 49
-0.05
 74
0
  0
LTYPE
  5
1F8
100
AcDbSymbolTableRecord
100
AcDbLinetypeTableRecord
  2
DOT
 70
64
  3
. . . . . . . . . . . . . . . . . . . .
 72
65
 73
2
 40
0.2
 49
0.1
 74
0
 49
-0.1
 74
0
  0
LTYPE
  5
1F9
100
AcDbSymbolTableRecord
100
AcDbLinetypeTableRecord
  2
DASHED
 70
64
  3
- - - - - - - - - - - - - - - - - - - -
 72
65
 73
2
 40
0.2
 49
0.1
 74
0
 49
-0.1
 74
0
  0
ENDTAB
  0
TABLE
  2
LAYER
  5
2
100
AcDbSymbolTable
 70
36
  0
LAYER
  5
10
100
AcDbSymbolTableRecord
100
AcDbLayerTableRecord
  2
0
 70
0
 62
7
  6
CONTINUOUS
370
-3
390
F
  0
LAYER
  5
1FA
100
AcDbSymbolTableRecord
100
AcDbLayerTableRecord
  2
DEFAULT_1
 70
0
 62
7
  6
CENTER
370
-3
390
F
  0
LAYER
  5
1FB
100
AcDbSymbolTableRecord
100
AcDbLayerTableRecord
  2
DEFAULT_2
 70
0
 62
8
  6
HIDDEN
370
-3
390
F
  0
LAYER
  5
1FC
100
AcDbSymbolTableRecord
100
AcDbLayerTableRecord
  2
DEFAULT_3
 70
0
 62
7
  6
PHANTOM
370
-3
390
F
  0
LAYER
  5
1FD
100
AcDbSymbolTableRecord
100
AcDbLayerTableRecord
  2
01___PRT_ALL_DTM_PLN
 70
0
 62
7
  6
CONTINUOUS
370
-3
390
F
  0
LAYER
  5
1FE
100
AcDbSymbolTableRecord
100
AcDbLayerTableRecord
  2
01___PRT_DEF_DTM_PLN
 70
0
 62
7
  6
CONTINUOUS
370
-3
390
F
  0
LAYER
  5
1FF
100
AcDbSymbolTableRecord
100
AcDbLayerTableRecord
  2
02___PRT_ALL_AXES
 70
0
 62
7
  6
CONTINUOUS
370
-3
390
F
  0
LAYER
  5
200
100
AcDbSymbolTableRecord
100
AcDbLayerTableRecord
  2
03___PRT_ALL_CURVES
 70
0
 62
7
  6
CONTINUOUS
370
-3
390
F
  0
LAYER
  5
201
100
AcDbSymbolTableRecord
100
AcDbLayerTableRecord
  2
04___PRT_ALL_DTM_PNT
 70
0
 62
7
  6
CONTINUOUS
370
-3
390
F
  0
LAYER
  5
202
100
AcDbSymbolTableRecord
100
AcDbLayerTableRecord
  2
05___PRT_ALL_DTM_CSYS
 70
0
 62
7
  6
CONTINUOUS
370
-3
390
F
  0
LAYER
  5
203
100
AcDbSymbolTableRecord
100
AcDbLayerTableRecord
  2
05___PRT_DEF_DTM_CSYS
 70
0
 62
7
  6
CONTINUOUS
370
-3
390
F
  0
LAYER
  5
204
100
AcDbSymbolTableRecord
100
AcDbLayerTableRecord
  2
06___PRT_ALL_SURFS
 70
0
 62
7
  6
CONTINUOUS
370
-3
390
F
  0
LAYER
  5
205
100
AcDbSymbolTableRecord
100
AcDbLayerTableRecord
  2
DATUM_PLANES
 70
0
 62
7
  6
CONTINUOUS
370
-3
390
F
  0
LAYER
  5
206
100
AcDbSymbolTableRecord
100
AcDbLayerTableRecord
  2
PORT_AREAS
 70
0
 62
7
  6
CONTINUOUS
370
-3
390
F
  0
LAYER
  5
207
100
AcDbSymbolTableRecord
100
AcDbLayerTableRecord
  2
SUNNBOMCOSMETIC
 70
0
 62
7
  6
CONTINUOUS
370
-3
390
F
  0
LAYER
  5
208
100
AcDbSymbolTableRecord
100
AcDbLayerTableRecord
  2
SUNNBOMSTAMPING
 70
0
 62
7
  6
CONTINUOUS
370
-3
390
F
  0
LAYER
  5
209
100
AcDbSymbolTableRecord
100
AcDbLayerTableRecord
  2
THREADS
 70
0
 62
7
  6
CONTINUOUS
370
-3
390
F
  0
ENDTAB
  0
TABLE
  2
STYLE
  5
3
100
AcDbSymbolTable
 70
1
  0
STYLE
  5
11
100
AcDbSymbolTableRecord
100
AcDbTextStyleTableRecord
  2
STANDARD
 70
0
 40
0.0
 41
0.8
 50
0.0
 71
0
 42
0.2
  3
txt
  4

  0
STYLE
  5
20A
100
AcDbSymbolTableRecord
100
AcDbTextStyleTableRecord
  2
TEXTSTYLE_1
 70
0
 40
0.0
 41
0.8
 50
0.0
 71
0
 42
0.2
  3
gdt
  4

  0
ENDTAB
  0
TABLE
  2
VIEW
  5
6
100
AcDbSymbolTable
 70
0
  0
ENDTAB
  0
TABLE
  2
UCS
  5
7
100
AcDbSymbolTable
 70
0
  0
ENDTAB
  0
TABLE
  2
APPID
  5
9
100
AcDbSymbolTable
 70
1
  0
APPID
  5
20B
100
AcDbSymbolTableRecord
100
AcDbRegAppTableRecord
  2
ACAD
 70
0
  0
ENDTAB
  0
TABLE
  2
BLOCK_RECORD
  5
1
100
AcDbSymbolTable
 70
0
  0
BLOCK_RECORD
  5
20C
100
AcDbSymbolTableRecord
100
AcDbBlockTableRecord
  2
*Model_Space
  0
BLOCK_RECORD
  5
20D
100
AcDbSymbolTableRecord
100
AcDbBlockTableRecord
  2
*Paper_Space
  0
BLOCK_RECORD
  5
20E
100
AcDbSymbolTableRecord
100
AcDbBlockTableRecord
  2
SUN_FIRST_THIRD_ANGLE_BL0
  0
BLOCK_RECORD
  5
20F
100
AcDbSymbolTableRecord
100
AcDbBlockTableRecord
  2
*T1
  0
BLOCK_RECORD
  5
210
100
AcDbSymbolTableRecord
100
AcDbBlockTableRecord
  2
*T2
  0
BLOCK_RECORD
  5
211
100
AcDbSymbolTableRecord
100
AcDbBlockTableRecord
  2
*T3
  0
ENDTAB
  0
TABLE
  2
DIMSTYLE
  5
A
100
AcDbSymbolTable
 70
1
100
AcDbDimStyleTable
 71
0
  0
DIMSTYLE
105
212
100
AcDbSymbolTableRecord
100
AcDbDimStyleTableRecord
  2
STANDARD
 70
0
  3

  4

 40
1.0
 41
0.1875
 42
0.0625
 43
0.38
 44
0.125
 45
0.0
 46
0.0
 47
0.001
 48
0.001
140
0.1
141
0.09
142
0.0
143
25.4
144
1.0
145
0.0
146
1.0
147
0.09
 71
0.0
 72
0.0
 73
1
 74
1
 75
0
 76
0
 77
0
 78
4
170
0
171
2
172
0
173
0
174
0
175
0
176
0
177
0
178
0
270
2
271
3
272
3
273
2
274
2
275
0
280
0
281
0
282
0
283
1
284
4
285
0
286
0
287
3
288
0
340
11
278
46
  0
ENDTAB
  0
ENDSEC
  0
SECTION
  2
BLOCKS
  0
BLOCK
  5
20
100
AcDbEntity
  8
0
100
AcDbBlockBegin
  2
*Model_Space
 70
0
 10
0.0
 20
0.0
 30
0.0
  3
*Model_Space
  1

  0
ENDBLK
  5
21
100
AcDbEntity
  8
0
100
AcDbBlockEnd
  0
BLOCK
  5
1C
100
AcDbEntity
  8
0
100
AcDbBlockBegin
  2
*Paper_Space
 70
0
 10
0.0
 20
0.0
 30
0.0
  3
*Paper_Space
  1

  0
ENDBLK
  5
1D
100
AcDbEntity
  8
0
100
AcDbBlockEnd
  0
BLOCK
  5
213
100
AcDbEntity
  8
0
100
AcDbBlockBegin
 62
2
  6
CONTINUOUS
  2
SUN_FIRST_THIRD_ANGLE_BL0
 70
64
 10
20.4816717061
 20
1.2289683772
  3
SUN_FIRST_THIRD_ANGLE_BL0
  1

  0
TEXT
  5
214
100
AcDbEntity
  8
0
100
AcDbText
 62
2
  6
CONTINUOUS
 10
19.4750896608
 20
1.4136269581
  7
STANDARD
 40
0.08
  1
FIRST ANGLE
 41
0.8
 72
0
100
AcDbText
  0
TEXT
  5
215
100
AcDbEntity
  8
0
100
AcDbText
 62
2
  6
CONTINUOUS
 10
20.7842537513
 20
1.4047600029
  7
STANDARD
 40
0.08
  1
THIRD ANGLE
 41
0.8
 72
0
100
AcDbText
  0
LINE
  5
216
100
AcDbEntity
  8
0
100
AcDbLine
 62
7
  6
CONTINUOUS
 10
19.4767170086
 20
1.1727031207
 11
19.6334271527
 21
1.1717972817
  0
LINE
  5
217
100
AcDbEntity
  8
0
100
AcDbLine
 62
7
  6
CONTINUOUS
 10
19.6596964832
 20
1.1717972817
 11
19.6950230232
 21
1.171593082
  0
LINE
  5
218
100
AcDbEntity
  8
0
100
AcDbLine
 62
7
  6
CONTINUOUS
 10
19.7194818561
 20
1.1708914427
 11
19.8852396156
 21
1.1699333054
  0
LINE
  5
219
100
AcDbEntity
  8
0
100
AcDbLine
 62
7
  6
CONTINUOUS
 10
19.4758111696
 20
1.2723454088
 11
19.88525039
 21
1.3511534004
  0
LINE
  5
21A
100
AcDbEntity
  8
0
100
AcDbLine
 62
7
  6
CONTINUOUS
 10
19.88525039
 20
1.3511534004
 11
19.8831348489
 21
0.9851647912
  0
LINE
  5
21B
100
AcDbEntity
  8
0
100
AcDbLine
 62
7
  6
CONTINUOUS
 10
19.8831348489
 20
0.9851647912
 11
19.4767170086
 21
1.0658141206
  0
LINE
  5
21C
100
AcDbEntity
  8
0
100
AcDbLine
 62
7
  6
CONTINUOUS
 10
19.4767170086
 20
1.0658141206
 11
19.4779056764
 21
1.2714536432
  0
CIRCLE
  5
21D
100
AcDbEntity
  8
0
100
AcDbCircle
 62
7
  6
CONTINUOUS
 10
20.2068232291
 20
1.1717972817
 40
0.175742101
  0
CIRCLE
  5
21E
100
AcDbEntity
  8
0
100
AcDbCircle
 62
7
  6
CONTINUOUS
 10
20.2068232291
 20
1.1717972817
 40
0.1005522074
  0
LINE
  5
21F
100
AcDbEntity
  8
0
100
AcDbLine
 62
7
  6
CONTINUOUS
 10
20.2077290681
 20
1.3756110529
 11
20.2071171714
 21
1.2379342989
  0
LINE
  5
220
100
AcDbEntity
  8
0
100
AcDbLine
 62
7
  6
CONTINUOUS
 10
20.2077290681
 20
1.2016899681
 11
20.2074674401
 21
1.1428236749
  0
LINE
  5
221
100
AcDbEntity
  8
0
100
AcDbLine
 62
7
  6
CONTINUOUS
 10
20.208634907
 20
1.101141841
 11
20.2080230104
 21
0.963465087
  0
LINE
  5
222
100
AcDbEntity
  8
0
100
AcDbLine
 62
7
  6
CONTINUOUS
 10
20.0066328138
 20
1.1745147986
 11
20.1443095678
 21
1.1739029019
  0
LINE
  5
223
100
AcDbEntity
  8
0
100
AcDbLine
 62
7
  6
CONTINUOUS
 10
20.1832714155
 20
1.1727031207
 11
20.238153505
 21
1.172335442
  0
LINE
  5
224
100
AcDbEntity
  8
0
100
AcDbLine
 62
7
  6
CONTINUOUS
 10
20.2756669918
 20
1.1717972817
 11
20.407916871
 21
1.1712095044
  0
CIRCLE
  5
225
100
AcDbEntity
  8
0
100
AcDbCircle
 62
7
  6
CONTINUOUS
 10
20.7509457401
 20
1.1693297793
 40
0.1722024983
  0
CIRCLE
  5
226
100
AcDbEntity
  8
0
100
AcDbCircle
 62
7
  6
CONTINUOUS
 10
20.7509457401
 20
1.1693297793
 40
0.0985164967
  0
LINE
  5
227
100
AcDbEntity
  8
0
100
AcDbLine
 62
7
  6
CONTINUOUS
 10
20.7169767782
 20
1.170462078
 11
20.7825395137
 21
1.1682766535
  0
LINE
  5
228
100
AcDbEntity
  8
0
100
AcDbLine
 62
7
  6
CONTINUOUS
 10
20.8177513651
 20
1.1693297793
 11
20.947965719
 21
1.1693297793
  0
LINE
  5
229
100
AcDbEntity
  8
0
100
AcDbLine
 62
7
  6
CONTINUOUS
 10
20.6875370113
 20
1.170462078
 11
20.5573226574
 21
1.170462078
  0
LINE
  5
22A
100
AcDbEntity
  8
0
100
AcDbLine
 62
7
  6
CONTINUOUS
 10
20.7486811426
 20
1.1987695462
 11
20.7486811426
 21
1.1432869085
  0
LINE
  5
22B
100
AcDbEntity
  8
0
100
AcDbLine
 62
7
  6
CONTINUOUS
 10
20.7498134414
 20
1.1059210505
 11
20.7498134414
 21
0.9757066966
  0
LINE
  5
22C
100
AcDbEntity
  8
0
100
AcDbLine
 62
7
  6
CONTINUOUS
 10
20.7486811426
 20
1.2338708068
 11
20.7486811426
 21
1.3640851607
  0
LINE
  5
22D
100
AcDbEntity
  8
0
100
AcDbLine
 62
7
  6
CONTINUOUS
 10
21.0702539817
 20
1.2701043662
 11
21.4790138229
 21
1.3448360823
  0
LINE
  5
22E
100
AcDbEntity
  8
0
100
AcDbLine
 62
7
  6
CONTINUOUS
 10
21.4790138229
 20
1.3448360823
 11
21.4790138229
 21
0.9779712941
  0
LINE
  5
22F
100
AcDbEntity
  8
0
100
AcDbLine
 62
7
  6
CONTINUOUS
 10
21.4790138229
 20
0.9779712941
 11
21.069121683
 21
1.0617614
  0
LINE
  5
230
100
AcDbEntity
  8
0
100
AcDbLine
 62
7
  6
CONTINUOUS
 10
21.0702539817
 20
1.2701043662
 11
21.069121683
 21
1.0617614
  0
LINE
  5
231
100
AcDbEntity
  8
0
100
AcDbLine
 62
7
  6
CONTINUOUS
 10
21.4790138229
 20
1.1693297793
 11
21.3159628059
 21
1.1693297793
  0
LINE
  5
232
100
AcDbEntity
  8
0
100
AcDbLine
 62
7
  6
CONTINUOUS
 10
21.2876553377
 20
1.1693297793
 11
21.2502894796
 21
1.1693297793
  0
LINE
  5
233
100
AcDbEntity
  8
0
100
AcDbLine
 62
7
  6
CONTINUOUS
 10
21.2208497126
 20
1.1659328831
 11
21.0713862804
 21
1.1659328831
  0
LINE
  5
234
100
AcDbEntity
  8
0
100
AcDbLine
 62
7
  6
CONTINUOUS
 10
20.4796138713
 20
1.5284908897
 11
20.4766766948
 21
0.9294458646
  0
ENDBLK
  5
235
100
AcDbEntity
  8
0
  6
BYBLOCK
 62
0
100
AcDbBlockEnd
  0
BLOCK
  5
236
100
AcDbEntity
  8
0
100
AcDbBlockBegin
  2
*T1
 70
1
 10
0.0
 20
0.0
  3
*T1
  1

  0
LINE
  5
237
100
AcDbEntity
  8
0
100
AcDbLine
 62
2
  6
CONTINUOUS
 10
9.275
 20
0.0
 11
-0.0
 21
0.0
  0
LINE
  5
238
100
AcDbEntity
  8
0
100
AcDbLine
 62
2
  6
CONTINUOUS
 10
9.275
 20
0.0
 11
9.275
 21
1.25
  0
LINE
  5
239
100
AcDbEntity
  8
0
100
AcDbLine
 62
2
  6
CONTINUOUS
 10
9.275
 20
0.625
 11
-0.0
 21
0.625
  0
LINE
  5
23A
100
AcDbEntity
  8
0
100
AcDbLine
 62
2
  6
CONTINUOUS
 10
9.275
 20
1.25
 11
-0.0
 21
1.25
  0
LINE
  5
23B
100
AcDbEntity
  8
0
100
AcDbLine
 62
2
  6
CONTINUOUS
 10
6.8
 20
0.0
 11
6.8
 21
1.25
  0
LINE
  5
23C
100
AcDbEntity
  8
0
100
AcDbLine
 62
2
  6
CONTINUOUS
 10
6.4
 20
0.0
 11
6.4
 21
0.625
  0
LINE
  5
23D
100
AcDbEntity
  8
0
100
AcDbLine
 62
2
  6
CONTINUOUS
 10
5.9
 20
0.0
 11
5.9
 21
0.625
  0
LINE
  5
23E
100
AcDbEntity
  8
0
100
AcDbLine
 62
2
  6
CONTINUOUS
 10
5.2
 20
0.0
 11
5.2
 21
0.625
  0
LINE
  5
23F
100
AcDbEntity
  8
0
100
AcDbLine
 62
2
  6
CONTINUOUS
 10
4.1
 20
0.0
 11
4.1
 21
1.25
  0
LINE
  5
240
100
AcDbEntity
  8
0
100
AcDbLine
 62
2
  6
CONTINUOUS
 10
-0.0
 20
0.0
 11
-0.0
 21
1.25
  0
MTEXT
  5
241
100
AcDbEntity
  8
0
100
AcDbMText
 62
2
  6
CONTINUOUS
  7
STANDARD
 71
2
 72
1
 10
6.6
 20
0.325
 30
0.0
 11
1.0
 21
0.0
 31
0.0
 44
0.9
  1
2
 40
0.125
 41
0.2
  0
MTEXT
  5
242
100
AcDbEntity
  8
0
100
AcDbMText
 62
2
  6
CONTINUOUS
  7
STANDARD
 71
2
 72
1
 10
6.15
 20
0.325
 30
0.0
 11
1.0
 21
0.0
 31
0.0
 44
0.9
  1
C
 40
0.125
 41
0.2
  0
MTEXT
  5
243
100
AcDbEntity
  8
0
100
AcDbMText
 62
2
  6
CONTINUOUS
  7
STANDARD
 71
2
 72
1
 10
5.55
 20
0.325
 30
0.0
 11
1.0
 21
0.0
 31
0.0
 44
0.9
  1
1.000
 40
0.125
 41
1.0
  0
MTEXT
  5
244
100
AcDbEntity
  8
0
100
AcDbMText
 62
2
  6
CONTINUOUS
  7
STANDARD
 71
2
 72
1
 10
4.65
 20
0.325
 30
0.0
 11
1.0
 21
0.0
 31
0.0
 44
0.9
  1
Nov-17-20
 40
0.125
 41
1.8
  0
MTEXT
  5
245
100
AcDbEntity
  8
0
100
AcDbMText
 62
2
  6
CONTINUOUS
  7
STANDARD
 71
2
 72
1
 10
2.05
 20
0.4625
 30
0.0
 11
1.0
 21
0.0
 31
0.0
 44
0.9
  1
T-10A Subplate ISO 03\PP to T, check on P, bottom ports
 40
0.125
 41
6.4
  0
MTEXT
  5
246
100
AcDbEntity
  8
0
100
AcDbMText
 62
2
  6
CONTINUOUS
  7
STANDARD
 71
1
 72
1
 10
6.45
 20
0.5625
 30
0.0
 11
1.0
 21
0.0
 31
0.0
 44
0.9
  1
SHEET
 40
0.06
 41
0.48
  0
MTEXT
  5
247
100
AcDbEntity
  8
0
100
AcDbMText
 62
2
  6
CONTINUOUS
  7
STANDARD
 71
1
 72
1
 10
5.95
 20
0.5625
 30
0.0
 11
1.0
 21
0.0
 31
0.0
 44
0.9
  1
DWG SIZE
 40
0.06
 41
0.768
  0
MTEXT
  5
248
100
AcDbEntity
  8
0
100
AcDbMText
 62
2
  6
CONTINUOUS
  7
STANDARD
 71
1
 72
1
 10
5.25
 20
0.5625
 30
0.0
 11
1.0
 21
0.0
 31
0.0
 44
0.9
  1
SCALE
 40
0.06
 41
0.48
  0
MTEXT
  5
249
100
AcDbEntity
  8
0
100
AcDbMText
 62
2
  6
CONTINUOUS
  7
STANDARD
 71
1
 72
1
 10
4.15
 20
0.5625
 30
0.0
 11
1.0
 21
0.0
 31
0.0
 44
0.9
  1
DATE
 40
0.06
 41
0.384
  0
MTEXT
  5
24A
100
AcDbEntity
  8
0
100
AcDbMText
 62
2
  6
CONTINUOUS
  7
STANDARD
 71
1
 72
1
 10
0.05
 20
0.5625
 30
0.0
 11
1.0
 21
0.0
 31
0.0
 44
0.9
  1
DESCRIPTION
 40
0.06
 41
1.056
  0
MTEXT
  5
24B
100
AcDbEntity
  8
0
100
AcDbMText
 62
2
  6
CONTINUOUS
  7
STANDARD
 71
2
 72
1
 10
5.45
 20
1.0375
 30
0.0
 11
1.0
 21
0.0
 31
0.0
 44
0.9
  1
ALL DIMENSIONS IN INCH\PVIEWS ARE THIRD ANGLE
 40
0.12
 41
4.224
  0
MTEXT
  5
24C
100
AcDbEntity
  8
0
100
AcDbMText
 62
2
  6
CONTINUOUS
  7
STANDARD
 71
2
 72
1
 10
2.05
 20
0.95
 30
0.0
 11
1.0
 21
0.0
 31
0.0
 44
0.9
  1
WJR
 40
0.125
 41
0.6
  0
MTEXT
  5
24D
100
AcDbEntity
  8
0
100
AcDbMText
 62
2
  6
CONTINUOUS
  7
STANDARD
 71
1
 72
1
 10
0.05
 20
1.1875
 30
0.0
 11
1.0
 21
0.0
 31
0.0
 44
0.9
  1
MODEL
 40
0.06
 41
0.48
  0
ENDBLK
  5
24E
100
AcDbEntity
  8
0
  6
BYBLOCK
 62
0
100
AcDbBlockEnd
  0
BLOCK
  5
24F
100
AcDbEntity
  8
0
100
AcDbBlockBegin
  2
*T2
 70
1
 10
0.0
 20
0.0
  3
*T2
  1

  0
LINE
  5
250
100
AcDbEntity
  8
0
100
AcDbLine
 62
2
  6
CONTINUOUS
 10
0.0
 20
0.0
 11
9.055
 21
0.0
  0
LINE
  5
251
100
AcDbEntity
  8
0
100
AcDbLine
 62
2
  6
CONTINUOUS
 10
0.0
 20
0.0
 11
0.0
 21
-1.844
  0
LINE
  5
252
100
AcDbEntity
  8
0
100
AcDbLine
 62
2
  6
CONTINUOUS
 10
0.0
 20
-0.344
 11
9.055
 21
-0.344
  0
LINE
  5
253
100
AcDbEntity
  8
0
100
AcDbLine
 62
2
  6
CONTINUOUS
 10
0.0
 20
-0.594
 11
9.055
 21
-0.594
  0
LINE
  5
254
100
AcDbEntity
  8
0
100
AcDbLine
 62
2
  6
CONTINUOUS
 10
0.0
 20
-0.844
 11
9.055
 21
-0.844
  0
LINE
  5
255
100
AcDbEntity
  8
0
100
AcDbLine
 62
2
  6
CONTINUOUS
 10
0.0
 20
-1.094
 11
9.055
 21
-1.094
  0
LINE
  5
256
100
AcDbEntity
  8
0
100
AcDbLine
 62
2
  6
CONTINUOUS
 10
0.0
 20
-1.344
 11
9.055
 21
-1.344
  0
LINE
  5
257
100
AcDbEntity
  8
0
100
AcDbLine
 62
2
  6
CONTINUOUS
 10
0.0
 20
-1.594
 11
9.055
 21
-1.594
  0
LINE
  5
258
100
AcDbEntity
  8
0
100
AcDbLine
 62
2
  6
CONTINUOUS
 10
0.0
 20
-1.844
 11
9.055
 21
-1.844
  0
LINE
  5
259
100
AcDbEntity
  8
0
100
AcDbLine
 62
2
  6
CONTINUOUS
 10
3.055
 20
0.0
 11
3.055
 21
-1.844
  0
LINE
  5
25A
100
AcDbEntity
  8
0
100
AcDbLine
 62
2
  6
CONTINUOUS
 10
9.055
 20
0.0
 11
9.055
 21
-1.844
  0
MTEXT
  5
25B
100
AcDbEntity
  8
0
100
AcDbMText
 62
2
  6
CONTINUOUS
  7
STANDARD
 71
2
 72
1
 10
1.5275
 20
-0.0995
 30
0.0
 11
1.0
 21
0.0
 31
0.0
 44
0.9
  1
Technical Data
 40
0.145
 41
3.248
  0
MTEXT
  5
25C
100
AcDbEntity
  8
0
100
AcDbMText
 62
2
  6
CONTINUOUS
  7
STANDARD
 71
2
 72
1
 10
4.555
 20
-0.0995
 30
0.0
 11
1.0
 21
0.0
 31
0.0
 44
0.9
  1
U.S. Units
 40
0.145
 41
2.32
  0
MTEXT
  5
25D
100
AcDbEntity
  8
0
100
AcDbMText
 62
2
  6
CONTINUOUS
  7
STANDARD
 71
2
 72
1
 10
7.555
 20
-0.0995
 30
0.0
 11
1.0
 21
0.0
 31
0.0
 44
0.9
  1
Metric Units
 40
0.145
 41
2.784
  0
MTEXT
  5
25E
100
AcDbEntity
  8
0
100
AcDbMText
 62
2
  6
CONTINUOUS
  7
STANDARD
 71
2
 72
1
 10
1.5275
 20
-0.4065
 30
0.0
 11
1.0
 21
0.0
 31
0.0
 44
0.9
  1
Cavity
 40
0.125
 41
1.2
  0
MTEXT
  5
25F
100
AcDbEntity
  8
0
100
AcDbMText
 62
2
  6
CONTINUOUS
  7
STANDARD
 71
2
 72
1
 10
6.055
 20
-0.4065
 30
0.0
 11
1.0
 21
0.0
 31
0.0
 44
0.9
  1
T-10A
 40
0.125
 41
1.0
  0
MTEXT
  5
260
100
AcDbEntity
  8
0
100
AcDbMText
 62
2
  6
CONTINUOUS
  7
STANDARD
 71
2
 72
1
 10
1.5275
 20
-0.6565
 30
0.0
 11
1.0
 21
0.0
 31
0.0
 44
0.9
  1
Body Features
 40
0.125
 41
2.6
  0
MTEXT
  5
261
100
AcDbEntity
  8
0
100
AcDbMText
 62
2
  6
CONTINUOUS
  7
STANDARD
 71
2
 72
1
 10
6.055
 20
-0.6565
 30
0.0
 11
1.0
 21
0.0
 31
0.0
 44
0.9
  1
P to T, check on P, bottom ports
 40
0.125
 41
6.4
  0
MTEXT
  5
262
100
AcDbEntity
  8
0
100
AcDbMText
 62
2
  6
CONTINUOUS
  7
STANDARD
 71
2
 72
1
 10
1.5275
 20
-0.9065
 30
0.0
 11
1.0
 21
0.0
 31
0.0
 44
0.9
  1
Body Type
 40
0.125
 41
1.8
  0
MTEXT
  5
263
100
AcDbEntity
  8
0
100
AcDbMText
 62
2
  6
CONTINUOUS
  7
STANDARD
 71
2
 72
1
 10
6.055
 20
-0.9065
 30
0.0
 11
1.0
 21
0.0
 31
0.0
 44
0.9
  1
Subplate
 40
0.125
 41
1.6
  0
MTEXT
  5
264
100
AcDbEntity
  8
0
100
AcDbMText
 62
2
  6
CONTINUOUS
  7
STANDARD
 71
2
 72
1
 10
1.5275
 20
-1.1565
 30
0.0
 11
1.0
 21
0.0
 31
0.0
 44
0.9
  1
Interface
 40
0.125
 41
1.8
  0
MTEXT
  5
265
100
AcDbEntity
  8
0
100
AcDbMText
 62
2
  6
CONTINUOUS
  7
STANDARD
 71
2
 72
1
 10
6.055
 20
-1.1565
 30
0.0
 11
1.0
 21
0.0
 31
0.0
 44
0.9
  1
ISO 03
 40
0.125
 41
1.2
  0
MTEXT
  5
266
100
AcDbEntity
  8
0
100
AcDbMText
 62
2
  6
CONTINUOUS
  7
STANDARD
 71
2
 72
1
 10
1.5275
 20
-1.4065
 30
0.0
 11
1.0
 21
0.0
 31
0.0
 44
0.9
  1
Open Cavity Quantity
 40
0.125
 41
4.0
  0
MTEXT
  5
267
100
AcDbEntity
  8
0
100
AcDbMText
 62
2
  6
CONTINUOUS
  7
STANDARD
 71
2
 72
1
 10
6.055
 20
-1.4065
 30
0.0
 11
1.0
 21
0.0
 31
0.0
 44
0.9
  1
1
 40
0.125
 41
0.2
  0
MTEXT
  5
268
100
AcDbEntity
  8
0
100
AcDbMText
 62
2
  6
CONTINUOUS
  7
STANDARD
 71
2
 72
1
 10
1.5275
 20
-1.6565
 30
0.0
 11
1.0
 21
0.0
 31
0.0
 44
0.9
  1
Weight
 40
0.125
 41
1.2
  0
MTEXT
  5
269
100
AcDbEntity
  8
0
100
AcDbMText
 62
2
  6
CONTINUOUS
  7
STANDARD
 71
2
 72
1
 10
4.555
 20
-1.6565
 30
0.0
 11
1.0
 21
0.0
 31
0.0
 44
0.9
  1
2.264 lb.
 40
0.125
 41
1.8
  0
MTEXT
  5
26A
100
AcDbEntity
  8
0
100
AcDbMText
 62
2
  6
CONTINUOUS
  7
STANDARD
 71
2
 72
1
 10
7.555
 20
-1.6565
 30
0.0
 11
1.0
 21
0.0
 31
0.0
 44
0.9
  1
1,027 kg.
 40
0.125
 41
1.8
  0
ENDBLK
  5
26B
100
AcDbEntity
  8
0
  6
BYBLOCK
 62
0
100
AcDbBlockEnd
  0
BLOCK
  5
26C
100
AcDbEntity
  8
0
100
AcDbBlockBegin
  2
*T3
 70
1
 10
0.0
 20
0.0
  3
*T3
  1

  0
LINE
  5
26D
100
AcDbEntity
  8
0
100
AcDbLine
 62
2
  6
CONTINUOUS
 10
0.0
 20
0.0
 11
4.6
 21
0.0
  0
LINE
  5
26E
100
AcDbEntity
  8
0
100
AcDbLine
 62
2
  6
CONTINUOUS
 10
0.0
 20
0.0
 11
0.0
 21
-1.18775
  0
LINE
  5
26F
100
AcDbEntity
  8
0
100
AcDbLine
 62
2
  6
CONTINUOUS
 10
0.0
 20
-0.34375
 11
4.6
 21
-0.34375
  0
LINE
  5
270
100
AcDbEntity
  8
0
100
AcDbLine
 62
2
  6
CONTINUOUS
 10
0.0
 20
-0.68775
 11
4.6
 21
-0.68775
  0
LINE
  5
271
100
AcDbEntity
  8
0
100
AcDbLine
 62
2
  6
CONTINUOUS
 10
0.0
 20
-0.93775
 11
4.6
 21
-0.93775
  0
LINE
  5
272
100
AcDbEntity
  8
0
100
AcDbLine
 62
2
  6
CONTINUOUS
 10
0.0
 20
-1.18775
 11
4.6
 21
-1.18775
  0
LINE
  5
273
100
AcDbEntity
  8
0
100
AcDbLine
 62
2
  6
CONTINUOUS
 10
1.3
 20
-0.34375
 11
1.3
 21
-1.18775
  0
LINE
  5
274
100
AcDbEntity
  8
0
100
AcDbLine
 62
2
  6
CONTINUOUS
 10
3.3
 20
-0.34375
 11
3.3
 21
-1.18775
  0
LINE
  5
275
100
AcDbEntity
  8
0
100
AcDbLine
 62
2
  6
CONTINUOUS
 10
4.6
 20
0.0
 11
4.6
 21
-1.18775
  0
MTEXT
  5
276
100
AcDbEntity
  8
0
100
AcDbMText
 62
2
  6
CONTINUOUS
  7
STANDARD
 71
2
 72
1
 10
2.3
 20
-0.099375
 30
0.0
 11
1.0
 21
0.0
 31
0.0
 44
0.9
  1
Port Headings
 40
0.145
 41
3.016
  0
MTEXT
  5
277
100
AcDbEntity
  8
0
100
AcDbMText
 62
2
  6
CONTINUOUS
  7
STANDARD
 71
2
 72
1
 10
0.65
 20
-0.44325
 30
0.0
 11
1.0
 21
0.0
 31
0.0
 44
0.9
  1
Product
 40
0.145
 41
1.624
  0
MTEXT
  5
278
100
AcDbEntity
  8
0
100
AcDbMText
 62
2
  6
CONTINUOUS
  7
STANDARD
 71
2
 72
1
 10
2.3
 20
-0.44325
 30
0.0
 11
1.0
 21
0.0
 31
0.0
 44
0.9
  1
Port
 40
0.145
 41
0.928
  0
MTEXT
  5
279
100
AcDbEntity
  8
0
100
AcDbMText
 62
2
  6
CONTINUOUS
  7
STANDARD
 71
2
 72
1
 10
3.95
 20
-0.44325
 30
0.0
 11
1.0
 21
0.0
 31
0.0
 44
0.9
  1
Size
 40
0.145
 41
0.928
  0
MTEXT
  5
27A
100
AcDbEntity
  8
0
100
AcDbMText
 62
2
  6
CONTINUOUS
  7
STANDARD
 71
2
 72
1
 10
0.65
 20
-0.75025
 30
0.0
 11
1.0
 21
0.0
 31
0.0
 44
0.9
  1
WJR
 40
0.125
 41
0.6
  0
MTEXT
  5
27B
100
AcDbEntity
  8
0
100
AcDbMText
 62
2
  6
CONTINUOUS
  7
STANDARD
 71
2
 72
1
 10
2.3
 20
-0.75025
 30
0.0
 11
1.0
 21
0.0
 31
0.0
 44
0.9
  1
Ports A, B, P, T
 40
0.125
 41
3.2
  0
MTEXT
  5
27C
100
AcDbEntity
  8
0
100
AcDbMText
 62
2
  6
CONTINUOUS
  7
STANDARD
 71
2
 72
1
 10
3.95
 20
-0.75025
 30
0.0
 11
1.0
 21
0.0
 31
0.0
 44
0.9
  1
3/8" BSPP
 40
0.125
 41
1.8
  0
MTEXT
  5
27D
100
AcDbEntity
  8
0
100
AcDbMText
 62
2
  6
CONTINUOUS
  7
STANDARD
 71
2
 72
1
 10
0.65
 20
-1.00025
 30
0.0
 11
1.0
 21
0.0
 31
0.0
 44
0.9
  1
WJR
 40
0.125
 41
0.6
  0
MTEXT
  5
27E
100
AcDbEntity
  8
0
100
AcDbMText
 62
2
  6
CONTINUOUS
  7
STANDARD
 71
2
 72
1
 10
2.3
 20
-1.00025
 30
0.0
 11
1.0
 21
0.0
 31
0.0
 44
0.9
  1
Gage Port
 40
0.125
 41
1.8
  0
MTEXT
  5
27F
100
AcDbEntity
  8
0
100
AcDbMText
 62
2
  6
CONTINUOUS
  7
STANDARD
 71
2
 72
1
 10
3.95
 20
-1.00025
 30
0.0
 11
1.0
 21
0.0
 31
0.0
 44
0.9
  1
1/4" BSPP
 40
0.125
 41
1.8
  0
ENDBLK
  5
280
100
AcDbEntity
  8
0
  6
BYBLOCK
 62
0
100
AcDbBlockEnd
  0
ENDSEC
  0
SECTION
  2
ENTITIES
  0
IMAGE
  5
281
100
AcDbEntity
  8
0
100
AcDbRasterImage
 62
7
  6
CONTINUOUS
 10
19.2297077316
 20
0.3094318264
 30
0.0
 11
0.0066666667
 21
0.0
 31
0.0
 12
0.0
 22
0.0066666667
 32
0.0
 13
369.0
 23
92.0
340
       38F
 70
9
280
0
281
50
282
50
283
0
360
       389
 71
1
 91
2
 14
-0.5
 24
-0.5
 14
368.5
 24
91.5
  0
INSERT
  5
282
100
AcDbEntity
  8
0
100
AcDbBlockReference
 62
2
  6
CONTINUOUS
  2
SUN_FIRST_THIRD_ANGLE_BL0
 10
20.4816717061
 20
1.2289683772
  0
ACAD_TABLE
  5
283
100
AcDbEntity
  8
0
 62
2
  6
CONTINUOUS
100
AcDbBlockReference
  2
*T1
 10
12.42375
 20
0.30125
 30
0.0
100
AcDbTable
342
       391
343
20F
 11
1.0
 21
0.0
 31
0.0
 90
6
 91
4
 92
6
 93
20
 94
0
 95
0
 96
0
 70
1
 41
0.0
141
0.525
141
0.1
141
0.525
141
0.1
142
4.1
142
1.1
142
0.7
142
0.5
142
0.4
142
2.475
171
1
172
0
173
0
174
0
175
1
176
1
 91
33
178
0
145
0.0
301
CELL_VALUE
 90
4
  1
T-10A Subplate ISO 03\PP to T, check on P, bottom ports
304
ACVALUE_END
170
2
140
0.125
171
1
172
0
173
0
174
0
175
1
176
1
 91
33
178
0
145
0.0
301
CELL_VALUE
 90
4
  1
Nov-17-20
304
ACVALUE_END
170
5
140
0.125
171
1
172
0
173
0
174
0
175
1
176
1
 91
33
178
0
145
0.0
301
CELL_VALUE
 90
4
  1
1.000
304
ACVALUE_END
170
5
140
0.125
171
1
172
0
173
0
174
0
175
1
176
1
 91
33
178
0
145
0.0
301
CELL_VALUE
 90
4
  1
C
304
ACVALUE_END
170
5
140
0.125
171
1
172
0
173
0
174
0
175
1
176
1
 91
33
178
0
145
0.0
301
CELL_VALUE
 90
4
  1
2
304
ACVALUE_END
170
5
140
0.125
171
1
172
0
173
0
174
0
175
1
176
1
 91
33
178
0
145
0.0
301
CELL_VALUE
 90
4
  1
 
304
ACVALUE_END
170
1
140
0.125
171
1
172
0
173
0
174
0
175
1
176
1
 91
33
178
0
145
0.0
301
CELL_VALUE
 90
4
  1
DESCRIPTION
304
ACVALUE_END
170
1
140
0.06
171
1
172
0
173
0
174
0
175
1
176
1
 91
33
178
0
145
0.0
301
CELL_VALUE
 90
4
  1
DATE
304
ACVALUE_END
170
1
140
0.06
171
1
172
0
173
0
174
0
175
1
176
1
 91
33
178
0
145
0.0
301
CELL_VALUE
 90
4
  1
SCALE
304
ACVALUE_END
170
1
140
0.06
171
1
172
0
173
0
174
0
175
1
176
1
 91
33
178
0
145
0.0
301
CELL_VALUE
 90
4
  1
DWG SIZE
304
ACVALUE_END
170
1
140
0.06
171
1
172
0
173
0
174
0
175
1
176
1
 91
33
178
0
145
0.0
301
CELL_VALUE
 90
4
  1
SHEET
304
ACVALUE_END
170
1
140
0.06
171
1
172
0
173
0
174
0
175
1
176
1
 91
33
178
0
145
0.0
301
CELL_VALUE
 90
4
  1
 
304
ACVALUE_END
170
1
140
0.125
171
1
172
0
173
0
174
0
175
1
176
1
 91
33
178
0
145
0.0
301
CELL_VALUE
 90
4
  1
WJR
304
ACVALUE_END
170
5
140
0.125
171
1
172
0
173
0
174
0
175
4
176
1
 91
33
178
0
145
0.0
301
CELL_VALUE
 90
4
  1
ALL DIMENSIONS IN INCH\PVIEWS ARE THIRD ANGLE
304
ACVALUE_END
170
5
140
0.12
171
1
172
0
173
1
174
0
175
1
176
1
 91
1
178
0
145
0.0
170
1
171
1
172
0
173
1
174
0
175
1
176
1
 91
1
178
0
145
0.0
170
1
171
1
172
0
173
1
174
0
175
1
176
1
 91
1
178
0
145
0.0
170
5
171
1
172
0
173
0
174
0
175
1
176
1
 91
33
178
0
145
0.0
301
CELL_VALUE
 90
4
  1
 
304
ACVALUE_END
170
1
140
0.125
171
1
172
0
173
0
174
0
175
1
176
1
 91
33
178
0
145
0.0
301
CELL_VALUE
 90
4
  1
MODEL
304
ACVALUE_END
170
1
140
0.06
171
1
172
0
173
0
174
0
175
1
176
1
 91
33
178
0
145
0.0
301
CELL_VALUE
 90
4
  1
 
304
ACVALUE_END
170
1
140
0.125
171
1
172
0
173
0
174
0
175
1
176
1
 91
33
178
0
145
0.0
301
CELL_VALUE
 90
4
  1
 
304
ACVALUE_END
170
1
140
0.125
171
1
172
0
173
0
174
0
175
1
176
1
 91
33
178
0
145
0.0
301
CELL_VALUE
 90
4
  1
 
304
ACVALUE_END
170
1
140
0.125
171
1
172
0
173
0
174
0
175
1
176
1
 91
33
178
0
145
0.0
301
CELL_VALUE
 90
4
  1
 
304
ACVALUE_END
170
1
140
0.125
171
1
172
0
173
0
174
0
175
1
176
1
 91
33
178
0
145
0.0
301
CELL_VALUE
 90
4
  1
 
304
ACVALUE_END
170
1
140
0.125
  0
ACAD_TABLE
  5
284
100
AcDbEntity
  8
0
 62
2
  6
CONTINUOUS
100
AcDbBlockReference
  2
*T2
 10
12.4237499994
 20
16.47875
 30
0.0
100
AcDbTable
342
       390
343
210
 11
1.0
 21
0.0
 31
0.0
 90
22
 91
7
 92
3
 93
16
 94
0
 95
0
 96
0
 41
0.028
141
0.344
141
0.25
141
0.25
141
0.25
141
0.25
141
0.25
141
0.25
142
3.055
142
3.0
142
3.0
171
1
172
0
173
0
174
0
175
1
176
1
 91
33
178
0
145
0.0
301
CELL_VALUE
 90
4
  1
Technical Data
304
ACVALUE_END
170
5
140
0.145
171
1
172
0
173
0
174
0
175
1
176
1
 91
33
178
0
145
0.0
301
CELL_VALUE
 90
4
  1
U.S. Units
304
ACVALUE_END
170
5
140
0.145
171
1
172
0
173
0
174
0
175
1
176
1
 91
33
178
0
145
0.0
301
CELL_VALUE
 90
4
  1
Metric Units
304
ACVALUE_END
170
5
140
0.145
171
1
172
0
173
0
174
0
175
1
176
1
 91
33
178
0
145
0.0
301
CELL_VALUE
 90
4
  1
Cavity
304
ACVALUE_END
170
5
140
0.125
171
1
172
0
173
0
174
0
175
2
176
1
 91
33
178
0
145
0.0
301
CELL_VALUE
 90
4
  1
T-10A
304
ACVALUE_END
170
5
140
0.125
171
1
172
0
173
1
174
0
175
1
176
1
 91
1
178
0
145
0.0
170
1
171
1
172
0
173
0
174
0
175
1
176
1
 91
33
178
0
145
0.0
301
CELL_VALUE
 90
4
  1
Body Features
304
ACVALUE_END
170
5
140
0.125
171
1
172
0
173
0
174
0
175
2
176
1
 91
33
178
0
145
0.0
301
CELL_VALUE
 90
4
  1
P to T, check on P, bottom ports
304
ACVALUE_END
170
5
140
0.125
171
1
172
0
173
1
174
0
175
1
176
1
 91
1
178
0
145
0.0
170
1
171
1
172
0
173
0
174
0
175
1
176
1
 91
33
178
0
145
0.0
301
CELL_VALUE
 90
4
  1
Body Type
304
ACVALUE_END
170
5
140
0.125
171
1
172
0
173
0
174
0
175
2
176
1
 91
33
178
0
145
0.0
301
CELL_VALUE
 90
4
  1
Subplate
304
ACVALUE_END
170
5
140
0.125
171
1
172
0
173
1
174
0
175
1
176
1
 91
1
178
0
145
0.0
170
1
171
1
172
0
173
0
174
0
175
1
176
1
 91
33
178
0
145
0.0
301
CELL_VALUE
 90
4
  1
Interface
304
ACVALUE_END
170
5
140
0.125
171
1
172
0
173
0
174
0
175
2
176
1
 91
33
178
0
145
0.0
301
CELL_VALUE
 90
4
  1
ISO 03
304
ACVALUE_END
170
5
140
0.125
171
1
172
0
173
1
174
0
175
1
176
1
 91
1
178
0
145
0.0
170
1
171
1
172
0
173
0
174
0
175
1
176
1
 91
33
178
0
145
0.0
301
CELL_VALUE
 90
4
  1
Open Cavity Quantity
304
ACVALUE_END
170
5
140
0.125
171
1
172
0
173
0
174
0
175
2
176
1
 91
33
178
0
145
0.0
301
CELL_VALUE
 90
4
  1
1
304
ACVALUE_END
170
5
140
0.125
171
1
172
0
173
1
174
0
175
1
176
1
 91
1
178
0
145
0.0
170
1
171
1
172
0
173
0
174
0
175
1
176
1
 91
33
178
0
145
0.0
301
CELL_VALUE
 90
4
  1
Weight
304
ACVALUE_END
170
5
140
0.125
171
1
172
0
173
0
174
0
175
1
176
1
 91
33
178
0
145
0.0
301
CELL_VALUE
 90
4
  1
2.264 lb.
304
ACVALUE_END
170
5
140
0.125
171
1
172
0
173
0
174
0
175
1
176
1
 91
33
178
0
145
0.0
301
CELL_VALUE
 90
4
  1
1,027 kg.
304
ACVALUE_END
170
5
140
0.125
  0
ACAD_TABLE
  5
285
100
AcDbEntity
  8
0
 62
2
  6
CONTINUOUS
100
AcDbBlockReference
  2
*T3
 10
0.52125
 20
1.709
 30
0.0
100
AcDbTable
342
       390
343
211
 11
1.0
 21
0.0
 31
0.0
 90
22
 91
4
 92
3
 93
16
 94
0
 95
0
 96
0
 41
0.05
141
0.34375
141
0.344
141
0.25
141
0.25
142
1.3
142
2.0
142
1.3
171
1
172
0
173
0
174
0
175
3
176
1
 91
33
178
0
145
0.0
301
CELL_VALUE
 90
4
  1
Port Headings
304
ACVALUE_END
170
5
140
0.145
171
1
172
0
173
1
174
0
175
1
176
1
 91
1
178
0
145
0.0
170
1
171
1
172
0
173
1
174
0
175
1
176
1
 91
1
178
0
145
0.0
170
1
171
1
172
0
173
0
174
0
175
1
176
1
 91
33
178
0
145
0.0
301
CELL_VALUE
 90
4
  1
Product
304
ACVALUE_END
170
5
140
0.145
171
1
172
0
173
0
174
0
175
1
176
1
 91
33
178
0
145
0.0
301
CELL_VALUE
 90
4
  1
Port
304
ACVALUE_END
170
5
140
0.145
171
1
172
0
173
0
174
0
175
1
176
1
 91
33
178
0
145
0.0
301
CELL_VALUE
 90
4
  1
Size
304
ACVALUE_END
170
5
140
0.145
171
1
172
0
173
0
174
0
175
1
176
1
 91
33
178
0
145
0.0
301
CELL_VALUE
 90
4
  1
WJR
304
ACVALUE_END
170
5
140
0.125
171
1
172
0
173
0
174
0
175
1
176
1
 91
33
178
0
145
0.0
301
CELL_VALUE
 90
4
  1
Ports A, B, P, T
304
ACVALUE_END
170
5
140
0.125
171
1
172
0
173
0
174
0
175
1
176
1
 91
33
178
0
145
0.0
301
CELL_VALUE
 90
4
  1
3/8" BSPP
304
ACVALUE_END
170
5
140
0.125
171
1
172
0
173
0
174
0
175
1
176
1
 91
33
178
0
145
0.0
301
CELL_VALUE
 90
4
  1
WJR
304
ACVALUE_END
170
5
140
0.125
171
1
172
0
173
0
174
0
175
1
176
1
 91
33
178
0
145
0.0
301
CELL_VALUE
 90
4
  1
Gage Port
304
ACVALUE_END
170
5
140
0.125
171
1
172
0
173
0
174
0
175
1
176
1
 91
33
178
0
145
0.0
301
CELL_VALUE
 90
4
  1
1/4" BSPP
304
ACVALUE_END
170
5
140
0.125
  0
MTEXT
  5
286
100
AcDbEntity
  8
0
100
AcDbMText
 62
2
  6
CONTINUOUS
  7
STANDARD
 71
1
 72
1
 10
0.52125
 20
5.75995
 30
0.0
 11
1.0
 21
0.0
 31
0.0
 44
0.6
  3
Notes\P \P1. Important: Carefully consider\P   the maximum system pressure. The\P   pressure rating of the manifold is\P   dependent on the manifold material,\P   with the port type/size a secondary\P   consideration. Manifolds\P   constructed of alu
  1
minum are not\P   rated for pressures higher than\P   3000 psi (210 bar), regardless of\P   the port type/size specified.
 40
0.1
 41
3.04
  0
LINE
  5
287
100
AcDbEntity
  8
0
100
AcDbLine
 62
7
  6
CONTINUOUS
 10
0.30125
 20
0.30125
 11
0.30125
 21
16.69875
  0
LINE
  5
288
100
AcDbEntity
  8
0
100
AcDbLine
 62
7
  6
CONTINUOUS
 10
0.30125
 20
0.30125
 11
21.69875
 21
0.30125
  0
LINE
  5
289
100
AcDbEntity
  8
0
100
AcDbLine
 62
7
  6
CONTINUOUS
 10
0.30125
 20
16.69875
 11
21.69875
 21
16.69875
  0
LINE
  5
28A
100
AcDbEntity
  8
0
100
AcDbLine
 62
7
  6
CONTINUOUS
 10
21.69875
 20
0.30125
 11
21.69875
 21
16.69875
  0
LINE
  5
28B
100
AcDbEntity
  8
0
100
AcDbLine
 62
7
  6
CONTINUOUS
 10
9.2788278866
 20
10.0575980659
 11
9.7964655496
 21
10.5575976829
  0
LINE
  5
28C
100
AcDbEntity
  8
0
100
AcDbLine
 62
7
  6
CONTINUOUS
 10
8.8661341852
 20
7.7795344502
 11
8.8593743956
 21
7.7957754531
  0
LINE
  5
28D
100
AcDbEntity
  8
0
100
AcDbLine
 62
7
  6
CONTINUOUS
 10
8.9293399172
 20
8.5915369291
 11
8.9125913011
 21
8.5631399055
  0
LINE
  5
28E
100
AcDbEntity
  8
0
100
AcDbLine
 62
7
  6
CONTINUOUS
 10
12.6595684789
 20
6.4424023171
 11
11.6744815098
 21
6.5107183305
  0
LINE
  5
28F
100
AcDbEntity
  8
0
100
AcDbLine
 62
7
  6
CONTINUOUS
 10
11.2298407392
 20
6.5415542727
 11
9.2788278866
 21
6.6768574735
  0
LINE
  5
290
100
AcDbEntity
  8
0
100
AcDbLine
 62
7
  6
CONTINUOUS
 10
11.6744815098
 20
6.5261731454
 11
11.2298407392
 21
6.5570090875
  0
LINE
  5
291
100
AcDbEntity
  8
0
100
AcDbLine
 62
4
  6
CONTINUOUS
 10
11.1152369938
 20
6.607457619
 11
11.0807396337
 21
6.609850019
  0
LINE
  5
292
100
AcDbEntity
  8
0
100
AcDbLine
 62
4
  6
CONTINUOUS
 10
11.0393428292
 20
6.6127208971
 11
11.018644404
 21
6.6141563378
  0
LINE
  5
293
100
AcDbEntity
  8
0
100
AcDbLine
 62
4
  6
CONTINUOUS
 10
10.9657484795
 20
6.6178246826
 11
10.9381506098
 21
6.6197386014
  0
LINE
  5
294
100
AcDbEntity
  8
0
100
AcDbLine
 62
4
  6
CONTINUOUS
 10
10.5609795271
 20
6.6458955048
 11
10.5264821786
 21
6.6482879041
  0
LINE
  5
295
100
AcDbEntity
  8
0
100
AcDbLine
 62
4
  6
CONTINUOUS
 10
10.7794627673
 20
6.6307436407
 11
10.8208595948
 21
6.6278727609
  0
LINE
  5
296
100
AcDbEntity
  8
0
100
AcDbLine
 62
4
  6
CONTINUOUS
 10
11.1681329643
 20
6.6037892709
 11
11.2095297688
 21
6.6009183928
  0
LINE
  5
297
100
AcDbEntity
  8
0
100
AcDbLine
 62
4
  6
CONTINUOUS
 10
10.6230747626
 20
6.6691870696
 11
10.6598719375
 21
6.6666351769
  0
LINE
  5
298
100
AcDbEntity
  8
0
100
AcDbLine
 62
4
  6
CONTINUOUS
 10
11.1957308339
 20
6.6570711202
 11
11.1681329643
 21
6.658985039
  0
LINE
  5
299
100
AcDbEntity
  8
0
100
AcDbLine
 62
4
  6
CONTINUOUS
 10
10.80706066
 20
6.6840254884
 11
10.7794627673
 21
6.6859394087
  0
LINE
  5
29A
100
AcDbEntity
  8
0
100
AcDbLine
 62
4
  6
CONTINUOUS
 10
11.5994647285
 20
6.6608096502
 11
11.5849758406
 21
6.661814458
  0
LINE
  5
29B
100
AcDbEntity
  8
0
100
AcDbLine
 62
4
  6
CONTINUOUS
 10
10.5264821786
 20
6.7448804939
 11
10.5609795271
 21
6.7424880946
  0
LINE
  5
29C
100
AcDbEntity
  8
0
100
AcDbLine
 62
4
  6
CONTINUOUS
 10
10.6966691123
 20
6.7330779899
 11
10.7518648746
 21
6.7292501508
  0
LINE
  5
29D
100
AcDbEntity
  8
0
100
AcDbLine
 62
4
  6
CONTINUOUS
 10
10.7794627673
 20
6.7273362304
 11
10.8208595948
 21
6.7244653507
  0
LINE
  5
29E
100
AcDbEntity
  8
0
100
AcDbLine
 62
4
  6
CONTINUOUS
 10
10.9381506098
 20
6.7163311912
 11
10.9657484795
 21
6.7144172724
  0
LINE
  5
29F
100
AcDbEntity
  8
0
100
AcDbLine
 62
4
  6
CONTINUOUS
 10
11.018644404
 20
6.7107489276
 11
11.0393428292
 21
6.7093134869
  0
LINE
  5
2A0
100
AcDbEntity
  8
0
100
AcDbLine
 62
4
  6
CONTINUOUS
 10
11.0807396337
 20
6.7064426088
 11
11.1152369938
 21
6.7040502087
  0
LINE
  5
2A1
100
AcDbEntity
  8
0
100
AcDbLine
 62
4
  6
CONTINUOUS
 10
11.1681329643
 20
6.7003818607
 11
11.2095297688
 21
6.6975109826
  0
LINE
  5
2A2
100
AcDbEntity
  8
0
100
AcDbLine
 62
4
  6
CONTINUOUS
 10
10.4712864105
 20
6.6935125682
 11
10.5080835882
 21
6.6725620864
  0
LINE
  5
2A3
100
AcDbEntity
  8
0
100
AcDbLine
 62
7
  6
CONTINUOUS
 10
9.2788278866
 20
6.6768574735
 11
9.2788278866
 21
10.0575980659
  0
LINE
  5
2A4
100
AcDbEntity
  8
0
100
AcDbLine
 62
4
  6
CONTINUOUS
 10
11.5922202845
 20
6.7192676058
 11
11.6211980604
 21
6.7172579903
  0
LINE
  5
2A5
100
AcDbEntity
  8
0
100
AcDbLine
 62
4
  6
CONTINUOUS
 10
11.5849758406
 20
6.7777255614
 11
11.5994647285
 21
6.7767207537
  0
LINE
  5
2A6
100
AcDbEntity
  8
0
100
AcDbLine
 62
4
  6
CONTINUOUS
 10
10.8829547743
 20
6.8360701431
 11
10.903653188
 21
6.8346347033
  0
LINE
  5
2A7
100
AcDbEntity
  8
0
100
AcDbLine
 62
4
  6
CONTINUOUS
 10
10.9795473756
 20
6.8707682481
 11
10.9450500155
 21
6.8731606481
  0
LINE
  5
2A8
100
AcDbEntity
  8
0
100
AcDbLine
 62
4
  6
CONTINUOUS
 10
10.9450500155
 20
6.9283564133
 11
10.9795473756
 21
6.9259640133
  0
LINE
  5
2A9
100
AcDbEntity
  8
0
100
AcDbLine
 62
4
  6
CONTINUOUS
 10
10.7932616338
 20
7.0994106582
 11
10.8070605686
 21
7.0984536988
  0
LINE
  5
2AA
100
AcDbEntity
  8
0
100
AcDbLine
 62
4
  6
CONTINUOUS
 10
11.2555262036
 20
7.0903507371
 11
11.2279282418
 21
7.0922646623
  0
LINE
  5
2AB
100
AcDbEntity
  8
0
100
AcDbLine
 62
4
  6
CONTINUOUS
 10
11.1428348181
 20
7.0981659113
 11
11.1290358833
 21
7.0991228707
  0
LINE
  5
2AC
100
AcDbEntity
  8
0
100
AcDbLine
 62
4
  6
CONTINUOUS
 10
11.025543803
 20
7.1063000708
 11
10.9979459334
 21
7.1082139896
  0
LINE
  5
2AD
100
AcDbEntity
  8
0
100
AcDbLine
 62
4
  6
CONTINUOUS
 10
10.8944538532
 20
7.1153911897
 11
10.8668559835
 21
7.1173051085
  0
LINE
  5
2AE
100
AcDbEntity
  8
0
100
AcDbLine
 62
4
  6
CONTINUOUS
 10
10.4275896805
 20
7.14776833
 11
10.4551875638
 21
7.1458544103
  0
LINE
  5
2AF
100
AcDbEntity
  8
0
100
AcDbLine
 62
4
  6
CONTINUOUS
 10
10.5103833261
 20
7.1420265712
 11
10.5310817456
 21
7.140591131
  0
LINE
  5
2B0
100
AcDbEntity
  8
0
100
AcDbLine
 62
4
  6
CONTINUOUS
 10
11.0600411631
 20
7.1039076707
 11
11.0945385232
 21
7.1015152707
  0
LINE
  5
2B1
100
AcDbEntity
  8
0
100
AcDbLine
 62
4
  6
CONTINUOUS
 10
11.2900235176
 20
7.0879583403
 11
11.3176213872
 21
7.0860444215
  0
LINE
  5
2B2
100
AcDbEntity
  8
0
100
AcDbLine
 62
4
  6
CONTINUOUS
 10
11.2371276384
 20
6.658799889
 11
11.2739248133
 21
6.6378494059
  0
LINE
  5
2B3
100
AcDbEntity
  8
0
100
AcDbLine
 62
4
  6
CONTINUOUS
 10
10.5609795271
 20
6.7424880946
 11
10.5747784677
 21
6.7277321943
  0
LINE
  5
2B4
100
AcDbEntity
  8
0
100
AcDbLine
 62
4
  6
CONTINUOUS
 10
10.9979459334
 20
7.1427113439
 11
11.025543803
 21
7.1407974251
  0
LINE
  5
2B5
100
AcDbEntity
  8
0
100
AcDbLine
 62
4
  6
CONTINUOUS
 10
11.0186443587
 20
7.1757732575
 11
10.9841469986
 21
7.1781656576
  0
LINE
  5
2B6
100
AcDbEntity
  8
0
100
AcDbLine
 62
4
  6
CONTINUOUS
 10
10.7242669136
 20
7.1961884027
 11
10.7587642737
 21
7.1937960026
  0
LINE
  5
2B7
100
AcDbEntity
  8
0
100
AcDbLine
 62
4
  6
CONTINUOUS
 10
10.8668559835
 20
7.1862998171
 11
10.8944538532
 21
7.1843858983
  0
LINE
  5
2B8
100
AcDbEntity
  8
0
100
AcDbLine
 62
4
  6
CONTINUOUS
 10
10.9220517689
 20
7.1824719764
 11
10.9496496385
 21
7.1805580576
  0
LINE
  5
2B9
100
AcDbEntity
  8
0
100
AcDbLine
 62
4
  6
CONTINUOUS
 10
11.2279282418
 20
7.1612593709
 11
11.2555262036
 21
7.1593454458
  0
LINE
  5
2BA
100
AcDbEntity
  8
0
100
AcDbLine
 62
4
  6
CONTINUOUS
 10
11.2900235176
 20
7.1569530489
 11
11.3176213872
 21
7.1550391302
  0
LINE
  5
2BB
100
AcDbEntity
  8
0
100
AcDbLine
 62
4
  6
CONTINUOUS
 10
10.4344891515
 20
7.2438824399
 11
10.4620870341
 21
7.2419685202
  0
LINE
  5
2BC
100
AcDbEntity
  8
0
100
AcDbLine
 62
4
  6
CONTINUOUS
 10
11.1842316225
 20
7.1918876229
 11
11.1865314373
 21
7.1917281302
  0
LINE
  5
2BD
100
AcDbEntity
  8
0
100
AcDbLine
 62
4
  6
CONTINUOUS
 10
11.3176213872
 20
7.1182419524
 11
11.2900235176
 21
7.124755518
  0
LINE
  5
2BE
100
AcDbEntity
  8
0
100
AcDbLine
 62
4
  6
CONTINUOUS
 10
10.8668559835
 20
7.1173051085
 11
10.8530570487
 21
7.1251615388
  0
LINE
  5
2BF
100
AcDbEntity
  8
0
100
AcDbLine
 62
4
  6
CONTINUOUS
 10
10.9979459334
 20
7.1082139896
 11
10.9841469986
 21
7.1160704199
  0
LINE
  5
2C0
100
AcDbEntity
  8
0
100
AcDbLine
 62
4
  6
CONTINUOUS
 10
10.4689865043
 20
7.1724953346
 11
10.4206902094
 21
7.2172415186
  0
LINE
  5
2C1
100
AcDbEntity
  8
0
100
AcDbLine
 62
4
  6
CONTINUOUS
 10
10.4206902094
 20
7.155146281
 11
10.4275896805
 21
7.14776833
  0
LINE
  5
2C2
100
AcDbEntity
  8
0
100
AcDbLine
 62
4
  6
CONTINUOUS
 10
10.9381506098
 20
6.6197386014
 11
10.924351675
 21
6.6344945028
  0
LINE
  5
2C3
100
AcDbEntity
  8
0
100
AcDbLine
 62
4
  6
CONTINUOUS
 10
10.4965843855
 20
7.156782473
 11
10.5103833261
 21
7.1420265712
  0
LINE
  5
2C4
100
AcDbEntity
  8
0
100
AcDbLine
 62
4
  6
CONTINUOUS
 10
11.018644404
 20
6.6141563378
 11
11.0048454691
 21
6.6289122392
  0
LINE
  5
2C5
100
AcDbEntity
  8
0
100
AcDbLine
 62
4
  6
CONTINUOUS
 10
10.4620870341
 20
7.2419685202
 11
10.4689865043
 21
7.2345905672
  0
LINE
  5
2C6
100
AcDbEntity
  8
0
100
AcDbLine
 62
4
  6
CONTINUOUS
 10
11.0393428292
 20
6.7093134869
 11
11.053141764
 21
6.694557587
  0
LINE
  5
2C7
100
AcDbEntity
  8
0
100
AcDbLine
 62
4
  6
CONTINUOUS
 10
11.5849758406
 20
6.661814458
 11
11.5704869526
 21
6.6724785247
  0
LINE
  5
2C8
100
AcDbEntity
  8
0
100
AcDbLine
 62
4
  6
CONTINUOUS
 10
11.5994647285
 20
6.7767207537
 11
11.6139536164
 21
6.7660566895
  0
LINE
  5
2C9
100
AcDbEntity
  8
0
100
AcDbLine
 62
4
  6
CONTINUOUS
 10
11.1152369938
 20
6.7040502087
 11
11.1290359286
 21
6.6892943088
  0
LINE
  5
2CA
100
AcDbEntity
  8
0
100
AcDbLine
 62
4
  6
CONTINUOUS
 10
10.9795473756
 20
6.9259640133
 11
10.9933463104
 21
6.9112081133
  0
LINE
  5
2CB
100
AcDbEntity
  8
0
100
AcDbLine
 62
4
  6
CONTINUOUS
 10
10.7587642737
 20
7.1937960026
 11
10.7656637411
 21
7.1864180498
  0
LINE
  5
2CC
100
AcDbEntity
  8
0
100
AcDbLine
 62
7
  6
CONTINUOUS
 10
9.2788278866
 20
7.6728079883
 11
8.9591814119
 21
7.6949755466
  0
LINE
  5
2CD
100
AcDbEntity
  8
0
100
AcDbLine
 62
7
  6
CONTINUOUS
 10
9.2788278866
 20
7.7824089797
 11
8.8612732343
 21
7.8113664931
  0
LINE
  5
2CE
100
AcDbEntity
  8
0
100
AcDbLine
 62
7
  6
CONTINUOUS
 10
9.2742078545
 20
7.8243392299
 11
8.8536086288
 21
7.8535078853
  0
LINE
  5
2CF
100
AcDbEntity
  8
0
100
AcDbLine
 62
4
  6
CONTINUOUS
 10
11.2900235176
 20
7.124755518
 11
11.2831240732
 21
7.129833643
  0
LINE
  5
2D0
100
AcDbEntity
  8
0
100
AcDbLine
 62
4
  6
CONTINUOUS
 10
11.3245208316
 20
7.1131638275
 11
11.3176213872
 21
7.1182419524
  0
LINE
  5
2D1
100
AcDbEntity
  8
0
100
AcDbLine
 62
4
  6
CONTINUOUS
 10
11.0531416727
 20
7.111285623
 11
11.0600411631
 21
7.1039076707
  0
LINE
  5
2D2
100
AcDbEntity
  8
0
100
AcDbLine
 62
4
  6
CONTINUOUS
 10
11.1290358833
 20
7.0991228707
 11
11.1221363928
 21
7.106500823
  0
LINE
  5
2D3
100
AcDbEntity
  8
0
100
AcDbLine
 62
4
  6
CONTINUOUS
 10
11.2279282418
 20
7.0922646623
 11
11.2210287974
 21
7.0996426114
  0
LINE
  5
2D4
100
AcDbEntity
  8
0
100
AcDbLine
 62
4
  6
CONTINUOUS
 10
10.9657484177
 20
6.8717252091
 11
10.9933463104
 21
6.8284144641
  0
LINE
  5
2D5
100
AcDbEntity
  8
0
100
AcDbLine
 62
4
  6
CONTINUOUS
 10
10.5724785615
 20
7.2343128418
 11
10.6207748564
 21
7.1343708926
  0
LINE
  5
2D6
100
AcDbEntity
  8
0
100
AcDbLine
 62
4
  6
CONTINUOUS
 10
10.64147335
 20
6.736905829
 11
10.6690712427
 21
6.6383993189
  0
LINE
  5
2D7
100
AcDbEntity
  8
0
100
AcDbLine
 62
4
  6
CONTINUOUS
 10
10.4206902094
 20
7.2172415186
 11
10.4206902094
 21
7.2310404592
  0
LINE
  5
2D8
100
AcDbEntity
  8
0
100
AcDbLine
 62
4
  6
CONTINUOUS
 10
11.2831240732
 20
7.0953362894
 11
11.2900235176
 21
7.0879583403
  0
LINE
  5
2D9
100
AcDbEntity
  8
0
100
AcDbLine
 62
4
  6
CONTINUOUS
 10
11.3176213872
 20
7.1550391302
 11
11.3245208316
 21
7.1476611789
  0
LINE
  5
2DA
100
AcDbEntity
  8
0
100
AcDbLine
 62
4
  6
CONTINUOUS
 10
11.5704869526
 20
6.6724785247
 11
11.5559980647
 21
6.6928018495
  0
LINE
  5
2DB
100
AcDbEntity
  8
0
100
AcDbLine
 62
4
  6
CONTINUOUS
 10
10.9496496385
 20
7.1805580576
 11
10.9542492681
 21
7.1733395991
  0
LINE
  5
2DC
100
AcDbEntity
  8
0
100
AcDbLine
 62
4
  6
CONTINUOUS
 10
10.7932616605
 20
6.9112850903
 11
10.8139600714
 21
6.840854942
  0
LINE
  5
2DD
100
AcDbEntity
  8
0
100
AcDbLine
 62
4
  6
CONTINUOUS
 10
10.4689865043
 20
7.1586963926
 11
10.4689865043
 21
7.1724953346
  0
LINE
  5
2DE
100
AcDbEntity
  8
0
100
AcDbLine
 62
4
  6
CONTINUOUS
 10
10.4965843855
 20
7.2395761208
 11
10.4965843855
 21
7.156782473
  0
LINE
  5
2DF
100
AcDbEntity
  8
0
100
AcDbLine
 62
4
  6
CONTINUOUS
 10
10.5264821786
 20
6.6482879041
 11
10.5264821786
 21
6.7448804939
  0
LINE
  5
2E0
100
AcDbEntity
  8
0
100
AcDbLine
 62
4
  6
CONTINUOUS
 10
10.5448806804
 20
7.1534331136
 11
10.5448806804
 21
7.2362267614
  0
LINE
  5
2E1
100
AcDbEntity
  8
0
100
AcDbLine
 62
4
  6
CONTINUOUS
 10
10.5724785615
 20
7.137720252
 11
10.5724785615
 21
7.2343128418
  0
LINE
  5
2E2
100
AcDbEntity
  8
0
100
AcDbLine
 62
4
  6
CONTINUOUS
 10
10.5747784677
 20
6.7277321943
 11
10.5747784677
 21
6.6587374871
  0
LINE
  5
2E3
100
AcDbEntity
  8
0
100
AcDbLine
 62
4
  6
CONTINUOUS
 10
10.6207748564
 20
7.1343708926
 11
10.6207748564
 21
7.2309634824
  0
LINE
  5
2E4
100
AcDbEntity
  8
0
100
AcDbLine
 62
4
  6
CONTINUOUS
 10
11.6139536164
 20
6.7660566895
 11
11.6211980604
 21
6.7558950224
  0
LINE
  5
2E5
100
AcDbEntity
  8
0
100
AcDbLine
 62
4
  6
CONTINUOUS
 10
11.025543803
 20
7.1614958389
 11
11.0186443587
 21
7.1757732575
  0
LINE
  5
2E6
100
AcDbEntity
  8
0
100
AcDbLine
 62
4
  6
CONTINUOUS
 10
10.7932616338
 20
7.1914036026
 11
10.8139600591
 21
7.1209734533
  0
LINE
  5
2E7
100
AcDbEntity
  8
0
100
AcDbLine
 62
4
  6
CONTINUOUS
 10
10.7518648359
 20
6.941753851
 11
10.7725632482
 21
6.8437258215
  0
LINE
  5
2E8
100
AcDbEntity
  8
0
100
AcDbLine
 62
4
  6
CONTINUOUS
 10
10.7242669136
 20
7.127193694
 11
10.7242669136
 21
7.2237862838
  0
LINE
  5
2E9
100
AcDbEntity
  8
0
100
AcDbLine
 62
4
  6
CONTINUOUS
 10
10.724267005
 20
6.6345714798
 11
10.724267005
 21
6.7311640696
  0
LINE
  5
2EA
100
AcDbEntity
  8
0
100
AcDbLine
 62
4
  6
CONTINUOUS
 10
10.7656637411
 20
7.1864180498
 11
10.7656637411
 21
7.1243228143
  0
LINE
  5
2EB
100
AcDbEntity
  8
0
100
AcDbLine
 62
4
  6
CONTINUOUS
 10
10.7794627673
 20
6.6307436407
 11
10.7794627673
 21
6.7273362304
  0
LINE
  5
2EC
100
AcDbEntity
  8
0
100
AcDbLine
 62
7
  6
CONTINUOUS
 10
9.2742078545
 20
8.2462652089
 11
8.8536086288
 21
8.2754338642
  0
LINE
  5
2ED
100
AcDbEntity
  8
0
100
AcDbLine
 62
7
  6
CONTINUOUS
 10
9.2788278866
 20
8.3034246247
 11
8.8612732343
 21
8.3323821382
  0
LINE
  5
2EE
100
AcDbEntity
  8
0
100
AcDbLine
 62
4
  6
CONTINUOUS
 10
10.8530570487
 20
7.1251615388
 11
10.8530570487
 21
7.1803573033
  0
LINE
  5
2EF
100
AcDbEntity
  8
0
100
AcDbLine
 62
4
  6
CONTINUOUS
 10
10.8944538532
 20
7.2119837795
 11
10.8944538532
 21
7.1153911897
  0
LINE
  5
2F0
100
AcDbEntity
  8
0
100
AcDbLine
 62
4
  6
CONTINUOUS
 10
10.9174521343
 20
6.8474766851
 11
10.9174521343
 21
6.9302703329
  0
LINE
  5
2F1
100
AcDbEntity
  8
0
100
AcDbLine
 62
4
  6
CONTINUOUS
 10
10.9220517689
 20
7.1134772677
 11
10.9220517689
 21
7.1824719764
  0
LINE
  5
2F2
100
AcDbEntity
  8
0
100
AcDbLine
 62
4
  6
CONTINUOUS
 10
10.924351675
 20
6.6344945028
 11
10.924351675
 21
6.70348921
  0
LINE
  5
2F3
100
AcDbEntity
  8
0
100
AcDbLine
 62
4
  6
CONTINUOUS
 10
10.9450500155
 20
6.8317638235
 11
10.9450500155
 21
6.9283564133
  0
LINE
  5
2F4
100
AcDbEntity
  8
0
100
AcDbLine
 62
4
  6
CONTINUOUS
 10
10.9542492681
 20
7.1733395991
 11
10.9542492681
 21
7.1595406585
  0
LINE
  5
2F5
100
AcDbEntity
  8
0
100
AcDbLine
 62
4
  6
CONTINUOUS
 10
10.9841469986
 20
7.1160704199
 11
10.9841469986
 21
7.136768833
  0
LINE
  5
2F6
100
AcDbEntity
  8
0
100
AcDbLine
 62
4
  6
CONTINUOUS
 10
10.9933463104
 20
6.9112081133
 11
10.9933463104
 21
6.8836102322
  0
LINE
  5
2F7
100
AcDbEntity
  8
0
100
AcDbLine
 62
4
  6
CONTINUOUS
 10
11.0048454691
 20
6.6289122392
 11
11.0048454691
 21
6.6979069464
  0
LINE
  5
2F8
100
AcDbEntity
  8
0
100
AcDbLine
 62
4
  6
CONTINUOUS
 10
11.025543803
 20
7.1063000708
 11
11.025543803
 21
7.1614958389
  0
LINE
  5
2F9
100
AcDbEntity
  8
0
100
AcDbLine
 62
7
  6
CONTINUOUS
 10
9.2788278866
 20
8.6157496123
 11
8.9591814119
 21
8.6379171706
  0
LINE
  5
2FA
100
AcDbEntity
  8
0
100
AcDbLine
 62
7
  6
CONTINUOUS
 10
9.2788278866
 20
8.6316195785
 11
8.974510623
 21
8.6527240524
  0
LINE
  5
2FB
100
AcDbEntity
  8
0
100
AcDbLine
 62
4
  6
CONTINUOUS
 10
11.0531416727
 20
7.1733808607
 11
11.0531416727
 21
7.111285623
  0
LINE
  5
2FC
100
AcDbEntity
  8
0
100
AcDbLine
 62
4
  6
CONTINUOUS
 10
11.053141764
 20
6.694557587
 11
11.053141764
 21
6.6255628798
  0
LINE
  5
2FD
100
AcDbEntity
  8
0
100
AcDbLine
 62
4
  6
CONTINUOUS
 10
11.0807396337
 20
6.609850019
 11
11.0807396337
 21
6.7064426088
  0
LINE
  5
2FE
100
AcDbEntity
  8
0
100
AcDbLine
 62
4
  6
CONTINUOUS
 10
11.0945385232
 20
7.1015152707
 11
11.0945385232
 21
7.1705099793
  0
LINE
  5
2FF
100
AcDbEntity
  8
0
100
AcDbLine
 62
4
  6
CONTINUOUS
 10
11.1221363928
 20
7.106500823
 11
11.1221363928
 21
7.1961939417
  0
LINE
  5
300
100
AcDbEntity
  8
0
100
AcDbLine
 62
4
  6
CONTINUOUS
 10
11.1290359286
 20
6.6892943088
 11
11.1290359286
 21
6.6202996016
  0
LINE
  5
301
100
AcDbEntity
  8
0
100
AcDbLine
 62
4
  6
CONTINUOUS
 10
11.1681329643
 20
6.6037892709
 11
11.1681329643
 21
6.7003818607
  0
LINE
  5
302
100
AcDbEntity
  8
0
100
AcDbLine
 62
4
  6
CONTINUOUS
 10
11.1842316225
 20
7.0952950331
 11
11.1842316225
 21
7.1642897418
  0
LINE
  5
303
100
AcDbEntity
  8
0
100
AcDbLine
 62
4
  6
CONTINUOUS
 10
11.1842316225
 20
7.1849881498
 11
11.1842316225
 21
7.1918876229
  0
LINE
  5
304
100
AcDbEntity
  8
0
100
AcDbLine
 62
4
  6
CONTINUOUS
 10
11.2210287974
 20
7.0996426114
 11
11.2210287974
 21
7.1548383759
  0
LINE
  5
305
100
AcDbEntity
  8
0
100
AcDbLine
 62
4
  6
CONTINUOUS
 10
10.8139600714
 20
6.840854942
 11
10.8346584851
 21
6.936012092
  0
LINE
  5
306
100
AcDbEntity
  8
0
100
AcDbLine
 62
4
  6
CONTINUOUS
 10
10.6138754689
 20
6.6422271588
 11
10.64147335
 21
6.736905829
  0
LINE
  5
307
100
AcDbEntity
  8
0
100
AcDbLine
 62
4
  6
CONTINUOUS
 10
10.8070605686
 20
7.0984536988
 11
10.8346584383
 21
7.1885327244
  0
LINE
  5
308
100
AcDbEntity
  8
0
100
AcDbLine
 62
7
  6
CONTINUOUS
 10
12.6595684789
 20
9.8231429095
 11
13.1772061419
 21
10.3231425265
  0
LINE
  5
309
100
AcDbEntity
  8
0
100
AcDbLine
 62
4
  6
CONTINUOUS
 10
11.5559980647
 20
6.6928018495
 11
11.5487536207
 21
6.7222820292
  0
LINE
  5
30A
100
AcDbEntity
  8
0
100
AcDbLine
 62
7
  6
CONTINUOUS
 10
11.2298407392
 20
6.5415542727
 11
11.2298407392
 21
6.5570090875
  0
LINE
  5
30B
100
AcDbEntity
  8
0
100
AcDbLine
 62
4
  6
CONTINUOUS
 10
11.2831240732
 20
7.129833643
 11
11.2831240732
 21
7.1505320539
  0
LINE
  5
30C
100
AcDbEntity
  8
0
100
AcDbLine
 62
4
  6
CONTINUOUS
 10
11.3245208316
 20
7.0924654145
 11
11.3245208316
 21
7.1131638275
  0
LINE
  5
30D
100
AcDbEntity
  8
0
100
AcDbLine
 62
4
  6
CONTINUOUS
 10
10.7725632482
 20
6.8437258215
 11
10.7932616605
 21
6.9112850903
  0
LINE
  5
30E
100
AcDbEntity
  8
0
100
AcDbLine
 62
4
  6
CONTINUOUS
 10
11.6211980604
 20
6.7172579903
 11
11.6211980604
 21
6.6786209564
  0
LINE
  5
30F
100
AcDbEntity
  8
0
100
AcDbLine
 62
4
  6
CONTINUOUS
 10
11.1865314373
 20
7.1917281302
 11
11.1842316225
 21
7.1849881498
  0
LINE
  5
310
100
AcDbEntity
  8
0
100
AcDbLine
 62
4
  6
CONTINUOUS
 10
10.4206902094
 20
7.2310404592
 11
10.4344891515
 21
7.2438824399
  0
LINE
  5
311
100
AcDbEntity
  8
0
100
AcDbLine
 62
4
  6
CONTINUOUS
 10
10.4551875638
 20
7.1458544103
 11
10.4689865043
 21
7.1586963926
  0
LINE
  5
312
100
AcDbEntity
  8
0
100
AcDbLine
 62
7
  6
CONTINUOUS
 10
11.6744815098
 20
6.5107183305
 11
11.6744815098
 21
6.5261731454
  0
LINE
  5
313
100
AcDbEntity
  8
0
100
AcDbLine
 62
4
  6
CONTINUOUS
 10
10.5310817456
 20
7.140591131
 11
10.5448806804
 21
7.1534331136
  0
LINE
  5
314
100
AcDbEntity
  8
0
100
AcDbLine
 62
4
  6
CONTINUOUS
 10
11.5487536207
 20
6.7222820292
 11
11.5559980647
 21
6.7507574012
  0
LINE
  5
315
100
AcDbEntity
  8
0
100
AcDbLine
 62
4
  6
CONTINUOUS
 10
10.5747784677
 20
6.6587374871
 11
10.5609795271
 21
6.6458955048
  0
LINE
  5
316
100
AcDbEntity
  8
0
100
AcDbLine
 62
4
  6
CONTINUOUS
 10
11.2210287974
 20
7.1548383759
 11
11.2279282418
 21
7.1612593709
  0
LINE
  5
317
100
AcDbEntity
  8
0
100
AcDbLine
 62
4
  6
CONTINUOUS
 10
10.903653188
 20
6.8346347033
 11
10.9174521343
 21
6.8474766851
  0
LINE
  5
318
100
AcDbEntity
  8
0
100
AcDbLine
 62
4
  6
CONTINUOUS
 10
10.9933463104
 20
6.8836102322
 11
10.9795473756
 21
6.8707682481
  0
LINE
  5
319
100
AcDbEntity
  8
0
100
AcDbLine
 62
4
  6
CONTINUOUS
 10
11.2831240732
 20
7.1505320539
 11
11.2900235176
 21
7.1569530489
  0
LINE
  5
31A
100
AcDbEntity
  8
0
100
AcDbLine
 62
4
  6
CONTINUOUS
 10
10.8530570487
 20
7.1803573033
 11
10.8668559835
 21
7.1862998171
  0
LINE
  5
31B
100
AcDbEntity
  8
0
100
AcDbLine
 62
4
  6
CONTINUOUS
 10
11.3176213872
 20
7.0860444215
 11
11.3245208316
 21
7.0924654145
  0
LINE
  5
31C
100
AcDbEntity
  8
0
100
AcDbLine
 62
4
  6
CONTINUOUS
 10
10.924351675
 20
6.70348921
 11
10.9381506098
 21
6.7163311912
  0
LINE
  5
31D
100
AcDbEntity
  8
0
100
AcDbLine
 62
4
  6
CONTINUOUS
 10
11.0048454691
 20
6.6979069464
 11
11.018644404
 21
6.7107489276
  0
LINE
  5
31E
100
AcDbEntity
  8
0
100
AcDbLine
 62
4
  6
CONTINUOUS
 10
11.053141764
 20
6.6255628798
 11
11.0393428292
 21
6.6127208971
  0
LINE
  5
31F
100
AcDbEntity
  8
0
100
AcDbLine
 62
4
  6
CONTINUOUS
 10
10.9841469986
 20
7.136768833
 11
10.9979459334
 21
7.1427113439
  0
LINE
  5
320
100
AcDbEntity
  8
0
100
AcDbLine
 62
4
  6
CONTINUOUS
 10
11.5559980647
 20
6.7507574012
 11
11.5704869526
 21
6.7690711129
  0
LINE
  5
321
100
AcDbEntity
  8
0
100
AcDbLine
 62
4
  6
CONTINUOUS
 10
11.6211980604
 20
6.6786209564
 11
11.6139536164
 21
6.6694641013
  0
LINE
  5
322
100
AcDbEntity
  8
0
100
AcDbLine
 62
4
  6
CONTINUOUS
 10
11.1290359286
 20
6.6202996016
 11
11.1152369938
 21
6.607457619
  0
LINE
  5
323
100
AcDbEntity
  8
0
100
AcDbLine
 62
4
  6
CONTINUOUS
 10
10.5080835882
 20
6.7093592656
 11
10.4712864105
 21
6.6935125682
  0
LINE
  5
324
100
AcDbEntity
  8
0
100
AcDbLine
 62
7
  6
CONTINUOUS
 10
9.2788278866
 20
10.0575980659
 11
12.6595684789
 21
9.8231429095
  0
LINE
  5
325
100
AcDbEntity
  8
0
100
AcDbLine
 62
7
  6
CONTINUOUS
 10
12.6595684789
 20
9.8231429095
 11
12.6595684789
 21
6.4424023171
  0
LINE
  5
326
100
AcDbEntity
  8
0
100
AcDbLine
 62
4
  6
CONTINUOUS
 10
11.5704869526
 20
6.7690711129
 11
11.5849758406
 21
6.7777255614
  0
LINE
  5
327
100
AcDbEntity
  8
0
100
AcDbLine
 62
4
  6
CONTINUOUS
 10
11.2739248133
 20
6.6378494059
 11
11.2371276384
 21
6.6220027098
  0
LINE
  5
328
100
AcDbEntity
  8
0
100
AcDbLine
 62
4
  6
CONTINUOUS
 10
11.6139536164
 20
6.6694641013
 11
11.5994647285
 21
6.6608096502
  0
LINE
  5
329
100
AcDbEntity
  8
0
100
AcDbLine
 62
7
  6
CONTINUOUS
 10
9.7964655496
 20
10.5575976829
 11
13.1772061419
 21
10.3231425265
  0
LINE
  5
32A
100
AcDbEntity
  8
0
100
AcDbLine
 62
7
  6
CONTINUOUS
 10
13.1772061419
 20
10.3231425265
 11
13.1772061419
 21
6.9424019341
  0
LINE
  5
32B
100
AcDbEntity
  8
0
100
AcDbLine
 62
7
  6
CONTINUOUS
 10
12.6595684789
 20
6.4424023171
 11
13.1772061419
 21
6.9424019341
  0
ARC
  5
32C
100
AcDbEntity
  8
0
100
AcDbCircle
 62
7
  6
CONTINUOUS
 10
11.0827815537
 20
8.0321027272
 40
1.8212095964
100
AcDbArc
 50
172.1086598405
 51
173.2467608658
  0
ARC
  5
32D
100
AcDbEntity
  8
0
100
AcDbCircle
 62
7
  6
CONTINUOUS
 10
10.6258543149
 20
8.0658991886
 40
1.7845894632
100
AcDbArc
 50
171.4122169565
 51
173.2571553889
  0
ARC
  5
32E
100
AcDbEntity
  8
0
100
AcDbCircle
 62
7
  6
CONTINUOUS
 10
10.1560276778
 20
8.0829780479
 40
0.9075929625
100
AcDbArc
 50
350.490491018
 51
351.617358647
  0
ARC
  5
32F
100
AcDbEntity
  8
0
100
AcDbCircle
 62
7
  6
CONTINUOUS
 10
8.5299996769
 20
7.9237687191
 40
0.8110794027
100
AcDbArc
 50
22.55794781
 51
23.4290998268
  0
ARC
  5
330
100
AcDbEntity
  8
0
100
AcDbCircle
 62
7
  6
CONTINUOUS
 10
10.240764389
 20
8.0778974306
 40
0.8015486445
100
AcDbArc
 50
350.777096887
 51
351.3286657897
  0
ARC
  5
331
100
AcDbEntity
  8
0
100
AcDbCircle
 62
7
  6
CONTINUOUS
 10
10.0374371917
 20
7.9409173519
 40
0.7720812649
100
AcDbArc
 50
188.6844208466
 51
190.7152337099
  0
ARC
  5
332
100
AcDbEntity
  8
0
100
AcDbCircle
 62
7
  6
CONTINUOUS
 10
8.63631844
 20
8.1183778212
 40
0.7023970376
100
AcDbArc
 50
335.2524043549
 51
336.2084171917
  0
ARC
  5
333
100
AcDbEntity
  8
0
100
AcDbCircle
 62
7
  6
CONTINUOUS
 10
9.4462237154
 20
8.2855030372
 40
0.6006871885
100
AcDbArc
 50
149.3967358243
 51
152.5192948323
  0
SPLINE
  5
334
100
AcDbEntity
  8
0
100
AcDbSpline
 62
7
  6
CONTINUOUS
 70
0
 71
3
 72
9
 73
5
 74
0
 42
0.0000001
 43
0.0000001
 44
0.0000000001
 40
0.0
 40
0.0
 40
0.0
 40
0.0
 40
0.5138686136
 40
1.0
 40
1.0
 40
1.0
 40
1.0
 10
8.9591814119
 20
8.6379171706
 30
0.0
 10
8.9604229751
 20
8.6393975538
 30
0.0
 10
8.9629049966
 20
8.6422240165
 30
0.0
 10
8.9655313557
 20
8.6449176907
 30
0.0
 10
8.9668460174
 20
8.6461875565
 30
0.0
  0
SPLINE
  5
335
100
AcDbEntity
  8
0
100
AcDbSpline
 62
7
  6
CONTINUOUS
 70
0
 71
3
 72
9
 73
5
 74
0
 42
0.0000001
 43
0.0000001
 44
0.0000000001
 40
0.0
 40
0.0
 40
0.0
 40
0.0
 40
0.5141854272
 40
1.0
 40
1.0
 40
1.0
 40
1.0
 10
8.9668460174
 20
8.6461875565
 30
0.0
 10
8.9680884915
 20
8.6473876944
 30
0.0
 10
8.9705717203
 20
8.6496539288
 30
0.0
 10
8.9731983311
 20
8.6517536158
 30
0.0
 10
8.974510623
 20
8.6527240524
 30
0.0
  0
SPLINE
  5
336
100
AcDbEntity
  8
0
100
AcDbSpline
 62
7
  6
CONTINUOUS
 70
0
 71
3
 72
23
 73
19
 74
0
 42
0.0000001
 43
0.0000001
 44
0.0000000001
 40
0.0
 40
0.0
 40
0.0
 40
0.0
 40
0.0812642142
 40
0.1604367687
 40
0.2373793558
 40
0.3119593014
 40
0.3840520109
 40
0.4535453788
 40
0.5203417163
 40
0.5843706334
 40
0.645586596
 40
0.7039844815
 40
0.7595931104
 40
0.8124909527
 40
0.8627952516
 40
0.9106732401
 40
0.9563275844
 40
1.0
 40
1.0
 40
1.0
 40
1.0
 10
8.9591814119
 20
7.6949755466
 30
0.0
 10
8.9562124062
 20
7.6967556759
 30
0.0
 10
8.9503755261
 20
7.7003115915
 30
0.0
 10
8.9418247844
 20
7.7057105808
 30
0.0
 10
8.9336104155
 20
7.7111062332
 30
0.0
 10
8.9257552439
 20
7.7164960872
 30
0.0
 10
8.9182820889
 20
7.7218778909
 30
0.0
 10
8.9112127443
 20
7.7272484184
 30
0.0
 10
8.9045684209
 20
7.7326050798
 30
0.0
 10
8.8983678064
 20
7.7379439389
 30
0.0
 10
8.8926280659
 20
7.7432622787
 30
0.0
 10
8.8873622819
 20
7.7485558334
 30
0.0
 10
8.8825813236
 20
7.7538220106
 30
0.0
 10
8.8782907595
 20
7.7590566935
 30
0.0
 10
8.8744936599
 20
7.7642575831
 30
0.0
 10
8.8711872996
 20
7.7694212482
 30
0.0
 10
8.8683667278
 20
7.7745453534
 30
0.0
 10
8.8667707625
 20
7.7780041296
 30
0.0
 10
8.8660562233
 20
7.7797218371
 30
0.0
  0
SPLINE
  5
337
100
AcDbEntity
  8
0
100
AcDbSpline
 62
7
  6
CONTINUOUS
 70
0
 71
3
 72
9
 73
5
 74
0
 42
0.0000001
 43
0.0000001
 44
0.0000000001
 40
0.0
 40
0.0
 40
0.0
 40
0.0
 40
0.4968425107
 40
1.0
 40
1.0
 40
1.0
 40
1.0
 10
8.9292044281
 20
8.5913071494
 30
0.0
 10
8.9338695755
 20
8.5992128029
 30
0.0
 10
8.9435924765
 20
8.6149295842
 30
0.0
 10
8.9538828833
 20
8.6302788353
 30
0.0
 10
8.9591814119
 20
8.6379171706
 30
0.0
  0
SPLINE
  5
338
100
AcDbEntity
  8
0
100
AcDbSpline
 62
7
  6
CONTINUOUS
 70
0
 71
3
 72
47
 73
43
 74
0
 42
0.0000001
 43
0.0000001
 44
0.0000000001
 40
0.0
 40
0.0
 40
0.0
 40
0.0
 40
0.0097388988
 40
0.0199690999
 40
0.0306877595
 40
0.0418897802
 40
0.053568575
 40
0.0657165706
 40
0.0783244499
 40
0.0913819108
 40
0.1187992554
 40
0.1478685952
 40
0.1784762382
 40
0.2104976166
 40
0.2437982593
 40
0.2782356433
 40
0.3136603381
 40
0.3499166979
 40
0.3868442246
 40
0.4242786017
 40
0.4620524679
 40
0.4999965843
 40
0.5379407604
 40
0.5757147107
 40
0.6131492265
 40
0.6500770032
 40
0.6863335875
 40
0.7217585958
 40
0.7561964584
 40
0.7894974661
 40
0.8215192636
 40
0.8521275775
 40
0.8811974396
 40
0.9086153033
 40
0.9216731908
 40
0.9342814277
 40
0.9464295779
 40
0.9581088402
 40
0.9693112683
 40
0.9800301928
 40
0.9902609016
 40
1.0
 40
1.0
 40
1.0
 40
1.0
 10
8.8593755629
 20
7.7957727323
 30
0.0
 10
8.8583980958
 20
7.7981211466
 30
0.0
 10
8.8564789178
 20
7.8029721858
 30
0.0
 10
8.8537634899
 20
7.8105147499
 30
0.0
 10
8.851143782
 20
7.8184943032
 30
0.0
 10
8.8486227834
 20
7.8269012316
 30
0.0
 10
8.8462034286
 20
7.8357256037
 30
0.0
 10
8.8438888915
 20
7.8449569904
 30
0.0
 10
8.8416817051
 20
7.8545843805
 30
0.0
 10
8.8388392429
 20
7.868155322
 30
0.0
 10
8.8355933052
 20
7.8860310564
 30
0.0
 10
8.832224851
 20
7.9085317018
 30
0.0
 10
8.8293392504
 20
7.9323109196
 30
0.0
 10
8.8269507376
 20
7.9572552582
 30
0.0
 10
8.8250709598
 20
7.9832458443
 30
0.0
 10
8.8237091485
 20
8.0101585934
 30
0.0
 10
8.8228721803
 20
8.037864987
 30
0.0
 10
8.8225641465
 20
8.0662326288
 30
0.0
 10
8.8227865962
 20
8.0951259091
 30
0.0
 10
8.8235386937
 20
8.1244066846
 30
0.0
 10
8.8248168737
 20
8.1539349495
 30
0.0
 10
8.8266149752
 20
8.1835695003
 30
0.0
 10
8.8289245156
 20
8.2131686072
 30
0.0
 10
8.8317344485
 20
8.2425907217
 30
0.0
 10
8.8350311822
 20
8.2716951578
 30
0.0
 10
8.8387989593
 20
8.3003427453
 30
0.0
 10
8.8430197268
 20
8.3283965295
 30
0.0
 10
8.847673041
 20
8.3557224529
 30
0.0
 10
8.852736531
 20
8.3821899418
 30
0.0
 10
8.85818589
 20
8.4076725997
 30
0.0
 10
8.8639946882
 20
8.4320488557
 30
0.0
 10
8.8701348514
 20
8.4552026124
 30
0.0
 10
8.8765769089
 20
8.477023379
 30
0.0
 10
8.8822592702
 20
8.4942803382
 30
0.0
 10
8.8869476869
 20
8.5073294074
 30
0.0
 10
8.8904625752
 20
8.5165602654
 30
0.0
 10
8.8940293177
 20
8.5253840284
 30
0.0
 10
8.8976434644
 20
8.5337903151
 30
0.0
 10
8.9013007526
 20
8.541769124
 30
0.0
 10
8.9049970025
 20
8.5493109432
 30
0.0
 10
8.908727443
 20
8.5564068343
 30
0.0
 10
8.9112978113
 20
8.5609467656
 30
0.0
 10
8.9125900753
 20
8.5631378408
 30
0.0
  0
SPLINE
  5
339
100
AcDbEntity
  8
0
100
AcDbSpline
 62
7
  6
CONTINUOUS
 70
0
 71
3
 72
9
 73
5
 74
0
 42
0.0000001
 43
0.0000001
 44
0.0000000001
 40
0.0
 40
0.0
 40
0.0
 40
0.0
 40
0.4864229748
 40
1.0
 40
1.0
 40
1.0
 40
1.0
 10
8.8612732343
 20
7.8113664931
 30
0.0
 10
8.8598214622
 20
7.8181587466
 30
0.0
 10
8.8570691547
 20
7.8321726917
 30
0.0
 10
8.8547220109
 20
7.8462594906
 30
0.0
 10
8.8536086288
 20
7.8535078853
 30
0.0
  0
SPLINE
  5
33A
100
AcDbEntity
  8
0
100
AcDbSpline
 62
7
  6
CONTINUOUS
 70
0
 71
3
 72
21
 73
17
 74
0
 42
0.0000001
 43
0.0000001
 44
0.0000000001
 40
0.0
 40
0.0
 40
0.0
 40
0.0
 40
0.1268939481
 40
0.19018282
 40
0.253348645
 40
0.3163802526
 40
0.3792680625
 40
0.4420048434
 40
0.5045854769
 40
0.5670083659
 40
0.6292751195
 40
0.6913901909
 40
0.7533613917
 40
0.8151980596
 40
0.8769105574
 40
1.0
 40
1.0
 40
1.0
 40
1.0
 10
8.8536086288
 20
7.8535078853
 30
0.0
 10
8.8491737569
 20
7.8710138469
 30
0.0
 10
8.843125438
 20
7.897411004
 30
0.0
 10
8.8365227008
 20
7.9328606279
 30
0.0
 10
8.8323711229
 20
7.9595104782
 30
0.0
 10
8.8290730403
 20
7.9862221337
 30
0.0
 10
8.8266773663
 20
8.0129690584
 30
0.0
 10
8.8252232176
 20
8.0397197532
 30
0.0
 10
8.8247350467
 20
8.0664395433
 30
0.0
 10
8.8252207739
 20
8.0930925205
 30
0.0
 10
8.8266726676
 20
8.1196438593
 30
0.0
 10
8.8290664422
 20
8.1460620564
 30
0.0
 10
8.8323630548
 20
8.1723206241
 30
0.0
 10
8.8365136688
 20
8.1983995713
 30
0.0
 10
8.8431040665
 20
8.2328799874
 30
0.0
 10
8.8491599955
 20
8.2584906095
 30
0.0
 10
8.8536086288
 20
8.2754338642
 30
0.0
  0
SPLINE
  5
33B
100
AcDbEntity
  8
0
100
AcDbSpline
 62
7
  6
CONTINUOUS
 70
0
 71
3
 72
15
 73
11
 74
0
 42
0.0000001
 43
0.0000001
 44
0.0000000001
 40
0.0
 40
0.0
 40
0.0
 40
0.0
 40
0.1202033586
 40
0.2411237877
 40
0.3630761606
 40
0.4864191332
 40
0.6115170187
 40
0.7386874239
 40
0.8681506591
 40
1.0
 40
1.0
 40
1.0
 40
1.0
 10
8.8612732343
 20
8.3323821382
 30
0.0
 10
8.8609404186
 20
8.3419486946
 30
0.0
 10
8.8607606302
 20
8.3611604802
 30
0.0
 10
8.8621471316
 20
8.3900576333
 30
0.0
 10
8.8653886475
 20
8.4190618176
 30
0.0
 10
8.8706562081
 20
8.4481080746
 30
0.0
 10
8.8780661825
 20
8.4771133577
 30
0.0
 10
8.8876587915
 20
8.5059853331
 30
0.0
 10
8.8993889041
 20
8.5346350435
 30
0.0
 10
8.9084723597
 20
8.5533733755
 30
0.0
 10
8.9133142965
 20
8.5626900675
 30
0.0
  0
SPLINE
  5
33C
100
AcDbEntity
  8
0
100
AcDbSpline
 62
7
  6
CONTINUOUS
 70
0
 71
3
 72
15
 73
11
 74
0
 42
0.0000001
 43
0.0000001
 44
0.0000000001
 40
0.0
 40
0.0
 40
0.0
 40
0.0
 40
0.134433651
 40
0.2650220305
 40
0.3923609619
 40
0.5170369985
 40
0.6396244895
 40
0.7606602864
 40
0.8806378742
 40
1.0
 40
1.0
 40
1.0
 40
1.0
 10
8.8660562233
 20
7.7797218371
 30
0.0
 10
8.8654996685
 20
7.7810597601
 30
0.0
 10
8.8644806432
 20
7.7837307728
 30
0.0
 10
8.8632209775
 20
7.787770889
 30
0.0
 10
8.8622446856
 20
7.7917806753
 30
0.0
 10
8.8615419048
 20
7.795759689
 30
0.0
 10
8.861101232
 20
7.7997077275
 30
0.0
 10
8.8609113341
 20
7.8036249322
 30
0.0
 10
8.8609605251
 20
7.8075113588
 30
0.0
 10
8.8611451264
 20
7.8100862778
 30
0.0
 10
8.8612732343
 20
7.8113664931
 30
0.0
  0
SPLINE
  5
33D
100
AcDbEntity
  8
0
100
AcDbSpline
 62
7
  6
CONTINUOUS
 70
0
 71
3
 72
41
 73
37
 74
0
 42
0.0000001
 43
0.0000001
 44
0.0000000001
 40
0.0
 40
0.0
 40
0.0
 40
0.0
 40
0.0311444983
 40
0.062442467
 40
0.093887251
 40
0.1254695609
 40
0.157177086
 40
0.1889950997
 40
0.2209066479
 40
0.2528929497
 40
0.284933762
 40
0.3170077852
 40
0.3490930781
 40
0.3811674822
 40
0.4132090489
 40
0.445196464
 40
0.4771094635
 40
0.5089292351
 40
0.540638799
 40
0.5722233621
 40
0.6036706378
 40
0.6349711269
 40
0.6661183495
 40
0.6971090237
 40
0.7279431823
 40
0.7586242225
 40
0.7891588828
 40
0.8195571428
 40
0.8498320452
 40
0.86493089
 40
0.8800050502
 40
0.9100832578
 40
0.9400926753
 40
0.9550812784
 40
0.9700610371
 40
1.0
 40
1.0
 40
1.0
 40
1.0
 10
9.5995152677
 20
7.1110176959
 30
0.0
 10
9.6028292153
 20
7.1107878728
 30
0.0
 10
9.6094590833
 20
7.1100845201
 30
0.0
 10
9.6193235001
 20
7.108312789
 30
0.0
 10
9.6290822746
 20
7.1058310858
 30
0.0
 10
9.6386826682
 20
7.1026528107
 30
0.0
 10
9.648073703
 20
7.0987949643
 30
0.0
 10
9.657205278
 20
7.0942781985
 30
0.0
 10
9.6660287492
 20
7.0891266445
 30
0.0
 10
9.6744971002
 20
7.0833678102
 30
0.0
 10
9.6825652119
 20
7.0770324237
 30
0.0
 10
9.6901900943
 20
7.0701542744
 30
0.0
 10
9.6973311145
 20
7.0627700326
 30
0.0
 10
9.7039502105
 20
7.0549190569
 30
0.0
 10
9.7100120925
 20
7.0466431858
 30
0.0
 10
9.7154844291
 20
7.0379865172
 30
0.0
 10
9.7203380181
 20
7.0289951762
 30
0.0
 10
9.7245469418
 20
7.019717072
 30
0.0
 10
9.728088704
 20
7.0102016456
 30
0.0
 10
9.7309443508
 20
7.0004996103
 30
0.0
 10
9.7330985718
 20
6.9906626844
 30
0.0
 10
9.7345397836
 20
6.9807433198
 30
0.0
 10
9.7352601941
 20
6.9707944251
 30
0.0
 10
9.7352558482
 20
6.9608690896
 30
0.0
 10
9.7345266487
 20
6.9510202931
 30
0.0
 10
9.7330763815
 20
6.9413006629
 30
0.0
 10
9.7309126289
 20
6.9317620526
 30
0.0
 10
9.7280470049
 20
6.92245579
 30
0.0
 10
9.7250834548
 20
6.9149275671
 30
0.0
 10
9.7223790715
 20
6.9090732006
 30
0.0
 10
9.7194604995
 20
6.9033461341
 30
0.0
 10
9.7154082402
 20
6.8964189371
 30
0.0
 10
9.7108347798
 20
6.8898352575
 30
0.0
 10
9.706882642
 20
6.8848028484
 30
0.0
 10
9.7027419614
 20
6.8799347036
 30
0.0
 10
9.6994245652
 20
6.8764689829
 30
0.0
 10
9.6971277603
 20
6.8742504245
 30
0.0
  0
SPLINE
  5
33E
100
AcDbEntity
  8
0
100
AcDbSpline
 62
7
  6
CONTINUOUS
 70
0
 71
3
 72
41
 73
37
 74
0
 42
0.0000001
 43
0.0000001
 44
0.0000000001
 40
0.0
 40
0.0
 40
0.0
 40
0.0
 40
0.0311444983
 40
0.062442467
 40
0.093887251
 40
0.1254695609
 40
0.157177086
 40
0.1889950997
 40
0.2209066479
 40
0.2528929497
 40
0.284933762
 40
0.3170077852
 40
0.3490930781
 40
0.3811674822
 40
0.4132090489
 40
0.445196464
 40
0.4771094635
 40
0.5089292351
 40
0.540638799
 40
0.5722233621
 40
0.6036706378
 40
0.6349711269
 40
0.6661183495
 40
0.6971090237
 40
0.7279431823
 40
0.7586242225
 40
0.7891588828
 40
0.8195571428
 40
0.8498320452
 40
0.86493089
 40
0.8800050502
 40
0.9100832578
 40
0.9400926753
 40
0.9550812784
 40
0.9700610371
 40
1.0
 40
1.0
 40
1.0
 40
1.0
 10
12.338881069
 20
6.9210420323
 30
0.0
 10
12.3421950165
 20
6.9208122093
 30
0.0
 10
12.3488248845
 20
6.9201088565
 30
0.0
 10
12.3586893014
 20
6.9183371255
 30
0.0
 10
12.3684480759
 20
6.9158554222
 30
0.0
 10
12.3780484695
 20
6.9126771472
 30
0.0
 10
12.3874395043
 20
6.9088193008
 30
0.0
 10
12.3965710793
 20
6.904302535
 30
0.0
 10
12.4053945505
 20
6.8991509809
 30
0.0
 10
12.4138629015
 20
6.8933921467
 30
0.0
 10
12.4219310132
 20
6.8870567602
 30
0.0
 10
12.4295558956
 20
6.8801786108
 30
0.0
 10
12.4366969157
 20
6.872794369
 30
0.0
 10
12.4433160118
 20
6.8649433933
 30
0.0
 10
12.4493778938
 20
6.8566675222
 30
0.0
 10
12.4548502304
 20
6.8480108536
 30
0.0
 10
12.4597038194
 20
6.8390195126
 30
0.0
 10
12.4639127431
 20
6.8297414084
 30
0.0
 10
12.4674545053
 20
6.8202259821
 30
0.0
 10
12.4703101521
 20
6.8105239468
 30
0.0
 10
12.4724643731
 20
6.8006870209
 30
0.0
 10
12.4739055849
 20
6.7907676563
 30
0.0
 10
12.4746259954
 20
6.7808187615
 30
0.0
 10
12.4746216495
 20
6.770893426
 30
0.0
 10
12.47389245
 20
6.7610446295
 30
0.0
 10
12.4724421828
 20
6.7513249993
 30
0.0
 10
12.4702784302
 20
6.7417863891
 30
0.0
 10
12.4674128061
 20
6.7324801264
 30
0.0
 10
12.4644492561
 20
6.7249519036
 30
0.0
 10
12.4617448728
 20
6.7190975371
 30
0.0
 10
12.4588263007
 20
6.7133704706
 30
0.0
 10
12.4547740415
 20
6.7064432735
 30
0.0
 10
12.4502005811
 20
6.699859594
 30
0.0
 10
12.4462484433
 20
6.6948271848
 30
0.0
 10
12.4421077627
 20
6.68995904
 30
0.0
 10
12.4387903665
 20
6.6864933193
 30
0.0
 10
12.4364935616
 20
6.6842747609
 30
0.0
  0
SPLINE
  5
33F
100
AcDbEntity
  8
0
100
AcDbSpline
 62
7
  6
CONTINUOUS
 70
0
 71
3
 72
41
 73
37
 74
0
 42
0.0000001
 43
0.0000001
 44
0.0000000001
 40
0.0
 40
0.0
 40
0.0
 40
0.0
 40
0.0311444983
 40
0.062442467
 40
0.093887251
 40
0.1254695609
 40
0.157177086
 40
0.1889950997
 40
0.2209066479
 40
0.2528929497
 40
0.284933762
 40
0.3170077852
 40
0.3490930781
 40
0.3811674822
 40
0.4132090489
 40
0.445196464
 40
0.4771094635
 40
0.5089292351
 40
0.540638799
 40
0.5722233621
 40
0.6036706378
 40
0.6349711269
 40
0.6661183495
 40
0.6971090237
 40
0.7279431823
 40
0.7586242225
 40
0.7891588828
 40
0.8195571428
 40
0.8498320452
 40
0.86493089
 40
0.8800050502
 40
0.9100832578
 40
0.9400926753
 40
0.9550812784
 40
0.9700610371
 40
1.0
 40
1.0
 40
1.0
 40
1.0
 10
12.338881069
 20
9.6604078336
 30
0.0
 10
12.3421950165
 20
9.6601780106
 30
0.0
 10
12.3488248845
 20
9.6594746578
 30
0.0
 10
12.3586893014
 20
9.6577029268
 30
0.0
 10
12.3684480759
 20
9.6552212235
 30
0.0
 10
12.3780484695
 20
9.6520429484
 30
0.0
 10
12.3874395043
 20
9.648185102
 30
0.0
 10
12.3965710793
 20
9.6436683362
 30
0.0
 10
12.4053945505
 20
9.6385167822
 30
0.0
 10
12.4138629015
 20
9.632757948
 30
0.0
 10
12.4219310132
 20
9.6264225615
 30
0.0
 10
12.4295558956
 20
9.6195444121
 30
0.0
 10
12.4366969157
 20
9.6121601703
 30
0.0
 10
12.4433160118
 20
9.6043091946
 30
0.0
 10
12.4493778938
 20
9.5960333235
 30
0.0
 10
12.4548502304
 20
9.5873766549
 30
0.0
 10
12.4597038194
 20
9.5783853139
 30
0.0
 10
12.4639127431
 20
9.5691072097
 30
0.0
 10
12.4674545053
 20
9.5595917834
 30
0.0
 10
12.4703101521
 20
9.5498897481
 30
0.0
 10
12.4724643731
 20
9.5400528222
 30
0.0
 10
12.4739055849
 20
9.5301334576
 30
0.0
 10
12.4746259954
 20
9.5201845628
 30
0.0
 10
12.4746216495
 20
9.5102592273
 30
0.0
 10
12.47389245
 20
9.5004104308
 30
0.0
 10
12.4724421828
 20
9.4906908006
 30
0.0
 10
12.4702784302
 20
9.4811521903
 30
0.0
 10
12.4674128061
 20
9.4718459277
 30
0.0
 10
12.4644492561
 20
9.4643177049
 30
0.0
 10
12.4617448728
 20
9.4584633384
 30
0.0
 10
12.4588263007
 20
9.4527362719
 30
0.0
 10
12.4547740415
 20
9.4458090748
 30
0.0
 10
12.4502005811
 20
9.4392253953
 30
0.0
 10
12.4462484433
 20
9.4341929861
 30
0.0
 10
12.4421077627
 20
9.4293248413
 30
0.0
 10
12.4387903665
 20
9.4258591206
 30
0.0
 10
12.4364935616
 20
9.4236405622
 30
0.0
  0
SPLINE
  5
340
100
AcDbEntity
  8
0
100
AcDbSpline
 62
7
  6
CONTINUOUS
 70
0
 71
3
 72
41
 73
37
 74
0
 42
0.0000001
 43
0.0000001
 44
0.0000000001
 40
0.0
 40
0.0
 40
0.0
 40
0.0
 40
0.0311444983
 40
0.062442467
 40
0.093887251
 40
0.1254695609
 40
0.157177086
 40
0.1889950997
 40
0.2209066479
 40
0.2528929497
 40
0.284933762
 40
0.3170077852
 40
0.3490930781
 40
0.3811674822
 40
0.4132090489
 40
0.445196464
 40
0.4771094635
 40
0.5089292351
 40
0.540638799
 40
0.5722233621
 40
0.6036706378
 40
0.6349711269
 40
0.6661183495
 40
0.6971090237
 40
0.7279431823
 40
0.7586242225
 40
0.7891588828
 40
0.8195571428
 40
0.8498320452
 40
0.86493089
 40
0.8800050502
 40
0.9100832578
 40
0.9400926753
 40
0.9550812784
 40
0.9700610371
 40
1.0
 40
1.0
 40
1.0
 40
1.0
 10
9.5995152677
 20
9.8503834972
 30
0.0
 10
9.6028292153
 20
9.8501536741
 30
0.0
 10
9.6094590833
 20
9.8494503214
 30
0.0
 10
9.6193235001
 20
9.8476785903
 30
0.0
 10
9.6290822746
 20
9.845196887
 30
0.0
 10
9.6386826682
 20
9.842018612
 30
0.0
 10
9.648073703
 20
9.8381607656
 30
0.0
 10
9.657205278
 20
9.8336439998
 30
0.0
 10
9.6660287492
 20
9.8284924458
 30
0.0
 10
9.6744971002
 20
9.8227336115
 30
0.0
 10
9.6825652119
 20
9.816398225
 30
0.0
 10
9.6901900943
 20
9.8095200757
 30
0.0
 10
9.6973311145
 20
9.8021358339
 30
0.0
 10
9.7039502105
 20
9.7942848582
 30
0.0
 10
9.7100120925
 20
9.7860089871
 30
0.0
 10
9.7154844291
 20
9.7773523185
 30
0.0
 10
9.7203380181
 20
9.7683609775
 30
0.0
 10
9.7245469418
 20
9.7590828733
 30
0.0
 10
9.728088704
 20
9.7495674469
 30
0.0
 10
9.7309443508
 20
9.7398654116
 30
0.0
 10
9.7330985718
 20
9.7300284857
 30
0.0
 10
9.7345397836
 20
9.7201091211
 30
0.0
 10
9.7352601941
 20
9.7101602264
 30
0.0
 10
9.7352558482
 20
9.7002348909
 30
0.0
 10
9.7345266487
 20
9.6903860943
 30
0.0
 10
9.7330763815
 20
9.6806664642
 30
0.0
 10
9.7309126289
 20
9.6711278539
 30
0.0
 10
9.7280470049
 20
9.6618215913
 30
0.0
 10
9.7250834548
 20
9.6542933684
 30
0.0
 10
9.7223790715
 20
9.6484390019
 30
0.0
 10
9.7194604995
 20
9.6427119354
 30
0.0
 10
9.7154082402
 20
9.6357847384
 30
0.0
 10
9.7108347798
 20
9.6292010588
 30
0.0
 10
9.706882642
 20
9.6241686497
 30
0.0
 10
9.7027419614
 20
9.6193005049
 30
0.0
 10
9.6994245652
 20
9.6158347842
 30
0.0
 10
9.6971277603
 20
9.6136162258
 30
0.0
  0
SPLINE
  5
341
100
AcDbEntity
  8
0
100
AcDbSpline
 62
7
  6
CONTINUOUS
 70
0
 71
3
 72
37
 73
33
 74
0
 42
0.0000001
 43
0.0000001
 44
0.0000000001
 40
0.0
 40
0.0
 40
0.0
 40
0.0
 40
0.031146624
 40
0.0624481919
 40
0.0938952571
 40
0.1254804469
 40
0.1571906758
 40
0.1890114524
 40
0.2209257687
 40
0.25291484
 40
0.2849584237
 40
0.3170352183
 40
0.381163152
 40
0.4451601237
 40
0.4770758719
 40
0.5088983814
 40
0.5406106743
 40
0.5721979571
 40
0.6036479386
 40
0.6349511145
 40
0.6661010055
 40
0.697094333
 40
0.7279311336
 40
0.7586148063
 40
0.7891520874
 40
0.819552954
 40
0.8498304507
 40
0.8800004308
 40
0.9100812223
 40
0.9400932249
 40
0.9700584477
 40
1.0
 40
1.0
 40
1.0
 40
1.0
 10
11.4521611245
 20
7.672690294
 30
0.0
 10
11.4540008758
 20
7.6725627068
 30
0.0
 10
11.4576815572
 20
7.6721722088
 30
0.0
 10
11.463157927
 20
7.6711886377
 30
0.0
 10
11.4685756725
 20
7.6698108325
 30
0.0
 10
11.4739054517
 20
7.6680463871
 30
0.0
 10
11.4791190193
 20
7.6659046306
 30
0.0
 10
11.4841885357
 20
7.6633970815
 30
0.0
 10
11.4890870101
 20
7.6605370928
 30
0.0
 10
11.4937882861
 20
7.6573400118
 30
0.0
 10
11.4982675238
 20
7.653822661
 30
0.0
 10
11.5039096427
 20
7.6487332236
 30
0.0
 10
11.5102890509
 20
7.6416712284
 30
0.0
 10
11.5156424488
 20
7.6338141086
 30
0.0
 10
11.519237278
 20
7.6271542289
 30
0.0
 10
11.521573996
 20
7.6220031861
 30
0.0
 10
11.5235401847
 20
7.6167205917
 30
0.0
 10
11.5251255032
 20
7.6113343483
 30
0.0
 10
11.5263213945
 20
7.6058732337
 30
0.0
 10
11.5271214416
 20
7.6003663515
 30
0.0
 10
11.5275213232
 20
7.5948430819
 30
0.0
 10
11.5275188472
 20
7.5893328954
 30
0.0
 10
11.5271139617
 20
7.5838652078
 30
0.0
 10
11.5263087596
 20
7.5784692223
 30
0.0
 10
11.5251074684
 20
7.5731737774
 30
0.0
 10
11.523516441
 20
7.5680071894
 30
0.0
 10
11.5215441337
 20
7.562997098
 30
0.0
 10
11.5192010377
 20
7.5581703115
 30
0.0
 10
11.5164996661
 20
7.5535526948
 30
0.0
 10
11.513454352
 20
7.5491689032
 30
0.0
 10
11.5100816823
 20
7.5450427137
 30
0.0
 10
11.5076259154
 20
7.5424773366
 30
0.0
 10
11.5063508005
 20
7.5412456841
 30
0.0
  0
SPLINE
  5
342
100
AcDbEntity
  8
0
100
AcDbSpline
 62
7
  6
CONTINUOUS
 70
0
 71
3
 72
15
 73
11
 74
0
 42
0.0000001
 43
0.0000001
 44
0.0000000001
 40
0.0
 40
0.0
 40
0.0
 40
0.0
 40
0.1266942131
 40
0.2528683794
 40
0.3785207845
 40
0.5036798383
 40
0.6283694263
 40
0.7526243825
 40
0.8764856273
 40
1.0
 40
1.0
 40
1.0
 40
1.0
 10
11.1362442288
 20
7.8307946478
 30
0.0
 10
11.1362442288
 20
7.828388821
 30
0.0
 10
11.1360995081
 20
7.8235857483
 30
0.0
 10
11.1354460675
 20
7.8164234087
 30
0.0
 10
11.1343589821
 20
7.8093431223
 30
0.0
 10
11.1328425122
 20
7.8023710917
 30
0.0
 10
11.1309022573
 20
7.795532453
 30
0.0
 10
11.1285455162
 20
7.7888519439
 30
0.0
 10
11.1257813281
 20
7.7823539922
 30
0.0
 10
11.1236707323
 20
7.7781531829
 30
0.0
 10
11.1225515171
 20
7.7760920023
 30
0.0
  0
SPLINE
  5
343
100
AcDbEntity
  8
0
100
AcDbSpline
 62
7
  6
CONTINUOUS
 70
0
 71
3
 72
32
 73
28
 74
0
 42
0.0000001
 43
0.0000001
 44
0.0000000001
 40
0.0
 40
0.0
 40
0.0
 40
0.0
 40
0.0315752364
 40
0.0474152443
 40
0.0632838754
 40
0.0950930964
 40
0.1269853407
 40
0.1429574527
 40
0.1589411968
 40
0.1909265272
 40
0.2229235328
 40
0.2549114407
 40
0.2868719311
 40
0.3187893076
 40
0.3824199286
 40
0.4457543358
 40
0.5087461671
 40
0.5713721627
 40
0.6025528314
 40
0.6336400781
 40
0.6955238319
 40
0.7570500493
 40
0.7876907322
 40
0.8182487293
 40
0.8791155141
 40
0.9396891496
 40
1.0
 40
1.0
 40
1.0
 40
1.0
 10
10.7074860936
 20
8.4161512595
 30
0.0
 10
10.7099852878
 20
8.4153082827
 30
0.0
 10
10.7136905489
 20
8.4138941309
 30
0.0
 10
10.7185125122
 20
8.4117256581
 30
0.0
 10
10.723265592
 20
8.4093651502
 30
0.0
 10
10.7290460977
 20
8.4060709087
 30
0.0
 10
10.7345733784
 20
8.4023526723
 30
0.0
 10
10.738832155
 20
8.3991405478
 30
0.0
 10
10.7429804652
 20
8.3957746274
 30
0.0
 10
10.7479444183
 20
8.3912964496
 30
0.0
 10
10.7535259065
 20
8.3855342011
 30
0.0
 10
10.758720713
 20
8.3794241663
 30
0.0
 10
10.7635202374
 20
8.3730075702
 30
0.0
 10
10.7693798367
 20
8.3641069629
 30
0.0
 10
10.7757074024
 20
8.352406431
 30
0.0
 10
10.7817303846
 20
8.3376968868
 30
0.0
 10
10.7862298422
 20
8.3225427557
 30
0.0
 10
10.7887628612
 20
8.3096721621
 30
0.0
 10
10.7900836287
 20
8.2993206159
 30
0.0
 10
10.7909428821
 20
8.2889827207
 30
0.0
 10
10.791178832
 20
8.2760628349
 30
0.0
 10
10.7903326204
 20
8.2632068598
 30
0.0
 10
10.7890262973
 20
8.2530364418
 30
0.0
 10
10.7873121842
 20
8.2429827553
 30
0.0
 10
10.7844094659
 20
8.2306061493
 30
0.0
 10
10.7797317554
 20
8.2161458111
 30
0.0
 10
10.7758248492
 20
8.2068188659
 30
0.0
 10
10.7736800741
 20
8.2022603517
 30
0.0
  0
SPLINE
  5
344
100
AcDbEntity
  8
0
100
AcDbSpline
 62
7
  6
CONTINUOUS
 70
0
 71
3
 72
36
 73
32
 74
0
 42
0.0000001
 43
0.0000001
 44
0.0000000001
 40
0.0
 40
0.0
 40
0.0
 40
0.0
 40
0.0154241118
 40
0.0308027929
 40
0.0461357067
 40
0.0614280044
 40
0.0766844159
 40
0.0919090669
 40
0.1071069492
 40
0.1222830176
 40
0.1525804378
 40
0.1828492137
 40
0.2131239209
 40
0.2434341955
 40
0.2738042845
 40
0.3042532039
 40
0.3347952691
 40
0.3654407891
 40
0.3961967699
 40
0.4270675447
 40
0.4891351505
 40
0.5203571784
 40
0.551694385
 40
0.6146836022
 40
0.6780972365
 40
0.7418999102
 40
0.8060486816
 40
0.8704912828
 40
0.902813463
 40
0.9351838882
 40
1.0
 40
1.0
 40
1.0
 40
1.0
 10
11.2114900738
 20
8.2650538769
 30
0.0
 10
11.2118244215
 20
8.2666036722
 30
0.0
 10
11.2125731235
 20
8.2696818731
 30
0.0
 10
11.2139347451
 20
8.2742266737
 30
0.0
 10
11.2155290797
 20
8.2786809059
 30
0.0
 10
11.2173502601
 20
8.283033611
 30
0.0
 10
11.2193914393
 20
8.2872752271
 30
0.0
 10
11.2216451378
 20
8.2913967049
 30
0.0
 10
11.2241027862
 20
8.2953902835
 30
0.0
 10
11.2276368808
 20
8.3005313544
 30
0.0
 10
11.2325217616
 20
8.3066112495
 30
0.0
 10
11.239048229
 20
8.3133077252
 30
0.0
 10
11.2461580054
 20
8.3193820932
 30
0.0
 10
11.2537737901
 20
8.324824125
 30
0.0
 10
11.2618236569
 20
8.3296334838
 30
0.0
 10
11.2702415849
 20
8.3338163398
 30
0.0
 10
11.2789679634
 20
8.3373834734
 30
0.0
 10
11.2879491754
 20
8.3403484668
 30
0.0
 10
11.2971379154
 20
8.3427265127
 30
0.0
 10
11.3096279489
 20
8.3451393089
 30
0.0
 10
11.3223581413
 20
8.3464338431
 30
0.0
 10
11.335170714
 20
8.3466782125
 30
0.0
 10
11.3480738626
 20
8.3462380748
 30
0.0
 10
11.364216867
 20
8.3444281019
 30
0.0
 10
11.3833662956
 20
8.3403386626
 30
0.0
 10
11.4021479858
 20
8.3343908006
 30
0.0
 10
11.4203714363
 20
8.3266332141
 30
0.0
 10
11.43491597
 20
8.3186955825
 30
0.0
 10
11.4460607277
 20
8.3114753208
 30
0.0
 10
11.4568488899
 20
8.3036691954
 30
0.0
 10
11.4644713783
 20
8.2971711823
 30
0.0
 10
11.4692874155
 20
8.2925674501
 30
0.0
  0
SPLINE
  5
345
100
AcDbEntity
  8
0
100
AcDbSpline
 62
7
  6
CONTINUOUS
 70
0
 71
3
 72
18
 73
14
 74
0
 42
0.0000001
 43
0.0000001
 44
0.0000000001
 40
0.0
 40
0.0
 40
0.0
 40
0.0
 40
0.1504680185
 40
0.2917144324
 40
0.4244425615
 40
0.4879099171
 40
0.5496094205
 40
0.6682625585
 40
0.7817882768
 40
0.8371379945
 40
0.8918078237
 40
0.9460192726
 40
1.0
 40
1.0
 40
1.0
 40
1.0
 10
12.9183873104
 20
8.3156405729
 30
0.0
 10
12.9196043792
 20
8.3168161711
 30
0.0
 10
12.9220368669
 20
8.3190219359
 30
0.0
 10
12.9258033153
 20
8.3219613876
 30
0.0
 10
12.9289847248
 20
8.3240403199
 30
0.0
 10
12.931521616
 20
8.3254481084
 30
0.0
 10
12.9339838746
 20
8.3266567353
 30
0.0
 10
12.9370624775
 20
8.3278780117
 30
0.0
 10
12.9401958447
 20
8.3287114136
 30
0.0
 10
12.9426775644
 20
8.329121955
 30
0.0
 10
12.9445168615
 20
8.32930416
 30
0.0
 10
12.9463487183
 20
8.3293629952
 30
0.0
 10
12.9475657583
 20
8.329319937
 30
0.0
 10
12.9481713571
 20
8.3292779353
 30
0.0
  0
SPLINE
  5
346
100
AcDbEntity
  8
0
100
AcDbSpline
 62
7
  6
CONTINUOUS
 70
0
 71
3
 72
15
 73
11
 74
0
 42
0.0000001
 43
0.0000001
 44
0.0000000001
 40
0.0
 40
0.0
 40
0.0
 40
0.0
 40
0.1273482292
 40
0.2538605354
 40
0.3795879276
 40
0.5046050833
 40
0.6290174349
 40
0.7529533662
 40
0.8765605734
 40
1.0
 40
1.0
 40
1.0
 40
1.0
 10
10.2916891126
 20
7.7128618325
 30
0.0
 10
10.2916891126
 20
7.7100746147
 30
0.0
 10
10.2914229905
 20
7.7045146211
 30
0.0
 10
10.2902194733
 20
7.6962815649
 30
0.0
 10
10.2882238377
 20
7.6882553749
 30
0.0
 10
10.2854541054
 20
7.6805111151
 30
0.0
 10
10.2819357064
 20
7.6731201986
 30
0.0
 10
10.2777007006
 20
7.6661508735
 30
0.0
 10
10.2727889081
 20
7.6596684438
 30
0.0
 10
10.269090579
 20
7.6557086042
 30
0.0
 10
10.2671473882
 20
7.6538316341
 30
0.0
  0
SPLINE
  5
347
100
AcDbEntity
  8
0
100
AcDbSpline
 62
7
  6
CONTINUOUS
 70
0
 71
3
 72
15
 73
11
 74
0
 42
0.0000001
 43
0.0000001
 44
0.0000000001
 40
0.0
 40
0.0
 40
0.0
 40
0.0
 40
0.1273482292
 40
0.2538605354
 40
0.3795879276
 40
0.5046050833
 40
0.6290174349
 40
0.7529533662
 40
0.8765605734
 40
1.0
 40
1.0
 40
1.0
 40
1.0
 10
10.2916891126
 20
8.890325467
 30
0.0
 10
10.2916891126
 20
8.8875382492
 30
0.0
 10
10.2914229905
 20
8.8819782556
 30
0.0
 10
10.2902194733
 20
8.8737451994
 30
0.0
 10
10.2882238377
 20
8.8657190094
 30
0.0
 10
10.2854541054
 20
8.8579747496
 30
0.0
 10
10.2819357064
 20
8.8505838331
 30
0.0
 10
10.2777007006
 20
8.843614508
 30
0.0
 10
10.2727889081
 20
8.8371320784
 30
0.0
 10
10.269090579
 20
8.8331722387
 30
0.0
 10
10.2671473882
 20
8.8312952686
 30
0.0
  0
SPLINE
  5
348
100
AcDbEntity
  8
0
100
AcDbSpline
 62
7
  6
CONTINUOUS
 70
0
 71
3
 72
15
 73
11
 74
0
 42
0.0000001
 43
0.0000001
 44
0.0000000001
 40
0.0
 40
0.0
 40
0.0
 40
0.0
 40
0.1273482292
 40
0.2538605354
 40
0.3795879276
 40
0.5046050833
 40
0.6290174349
 40
0.7529533662
 40
0.8765605734
 40
1.0
 40
1.0
 40
1.0
 40
1.0
 10
11.8313748958
 20
8.8144575862
 30
0.0
 10
11.8313748958
 20
8.8116703684
 30
0.0
 10
11.8311087738
 20
8.8061103748
 30
0.0
 10
11.8299052565
 20
8.7978773186
 30
0.0
 10
11.827909621
 20
8.7898511286
 30
0.0
 10
11.8251398886
 20
8.7821068688
 30
0.0
 10
11.8216214897
 20
8.7747159523
 30
0.0
 10
11.8173864838
 20
8.7677466272
 30
0.0
 10
11.8124746914
 20
8.7612641975
 30
0.0
 10
11.8087763623
 20
8.7573043579
 30
0.0
 10
11.8068331715
 20
8.7554273878
 30
0.0
  0
SPLINE
  5
349
100
AcDbEntity
  8
0
100
AcDbSpline
 62
7
  6
CONTINUOUS
 70
0
 71
3
 72
15
 73
11
 74
0
 42
0.0000001
 43
0.0000001
 44
0.0000000001
 40
0.0
 40
0.0
 40
0.0
 40
0.0
 40
0.1273482292
 40
0.2538605354
 40
0.3795879276
 40
0.5046050833
 40
0.6290174349
 40
0.7529533662
 40
0.8765605734
 40
1.0
 40
1.0
 40
1.0
 40
1.0
 10
11.8313748958
 20
7.5761405409
 30
0.0
 10
11.8313748958
 20
7.573353323
 30
0.0
 10
11.8311087738
 20
7.5677933294
 30
0.0
 10
11.8299052565
 20
7.5595602733
 30
0.0
 10
11.827909621
 20
7.5515340833
 30
0.0
 10
11.8251398886
 20
7.5437898234
 30
0.0
 10
11.8216214897
 20
7.536398907
 30
0.0
 10
11.8173864838
 20
7.5294295819
 30
0.0
 10
11.8124746914
 20
7.5229471522
 30
0.0
 10
11.8087763623
 20
7.5189873126
 30
0.0
 10
11.8068331715
 20
7.5171103425
 30
0.0
  0
SPLINE
  5
34A
100
AcDbEntity
  8
0
100
AcDbSpline
 62
7
  6
CONTINUOUS
 70
0
 71
3
 72
34
 73
30
 74
0
 42
0.0000001
 43
0.0000001
 44
0.0000000001
 40
0.0
 40
0.0
 40
0.0
 40
0.0
 40
0.0255774604
 40
0.0532390465
 40
0.082803971
 40
0.1140898233
 40
0.1810672527
 40
0.2526404718
 40
0.3271434862
 40
0.4028175552
 40
0.4779825287
 40
0.5512727128
 40
0.6217749168
 40
0.6889836228
 40
0.7526328575
 40
0.7830680942
 40
0.8125192195
 40
0.8409314593
 40
0.8682282238
 40
0.8943034503
 40
0.9190150989
 40
0.9308061546
 40
0.9421835603
 40
0.9531185265
 40
0.9635774776
 40
0.9735277356
 40
0.982934592
 40
0.9917671297
 40
1.0
 40
1.0
 40
1.0
 40
1.0
 10
11.1362059332
 20
7.8286369746
 30
0.0
 10
11.1353834693
 20
7.8278154327
 30
0.0
 10
11.1336394361
 20
7.8261372739
 30
0.0
 10
11.130836498
 20
7.8236248238
 30
0.0
 10
11.1277452284
 20
7.82104892
 30
0.0
 10
11.1231446172
 20
7.8174991678
 30
0.0
 10
11.1167520654
 20
7.8131555344
 30
0.0
 10
11.1082844597
 20
7.8084299942
 30
0.0
 10
11.0990288846
 20
7.8043960033
 30
0.0
 10
11.0892348669
 20
7.8013285892
 30
0.0
 10
11.079205319
 20
7.7994156135
 30
0.0
 10
11.0692529968
 20
7.7987302251
 30
0.0
 10
11.0596526245
 20
7.7992354214
 30
0.0
 10
11.0506165676
 20
7.8008147704
 30
0.0
 10
11.0435771188
 20
7.8029256471
 30
0.0
 10
11.0383603292
 20
7.8050086854
 30
0.0
 10
11.034723843
 20
7.8067117063
 30
0.0
 10
11.0313184748
 20
7.8085559481
 30
0.0
 10
11.0281586577
 20
7.8105178472
 30
0.0
 10
11.0252620451
 20
7.8125721055
 30
0.0
 10
11.023051332
 20
7.8143653285
 30
0.0
 10
11.0214372412
 20
7.8158255121
 30
0.0
 10
11.0203275701
 20
7.8169082647
 30
0.0
 10
11.0193042163
 20
7.817991088
 30
0.0
 10
11.0183721278
 20
7.8190691016
 30
0.0
 10
11.0175367059
 20
7.8201368449
 30
0.0
 10
11.0168037571
 20
7.8211886343
 30
0.0
 10
11.0161795705
 20
7.8222182131
 30
0.0
 10
11.0158275426
 20
7.8229105216
 30
0.0
 10
11.0156735872
 20
7.8232515634
 30
0.0
  0
SPLINE
  5
34B
100
AcDbEntity
  8
0
100
AcDbSpline
 62
7
  6
CONTINUOUS
 70
0
 71
3
 72
21
 73
17
 74
0
 42
0.0000001
 43
0.0000001
 44
0.0000000001
 40
0.0
 40
0.0
 40
0.0
 40
0.0
 40
0.061653237
 40
0.123329498
 40
0.1850515502
 40
0.2468416698
 40
0.3087213548
 40
0.370711108
 40
0.4328302426
 40
0.495096636
 40
0.5575265765
 40
0.6201345494
 40
0.682933126
 40
0.7459332432
 40
0.8725261314
 40
1.0
 40
1.0
 40
1.0
 40
1.0
 10
9.5019027751
 20
7.076359794
 30
0.0
 10
9.5034794819
 20
7.0778827863
 30
0.0
 10
9.506716069
 20
7.0808451595
 30
0.0
 10
9.5118037739
 20
7.0850221758
 30
0.0
 10
9.51711239
 20
7.0889231212
 30
0.0
 10
9.5226283779
 20
7.0925379789
 30
0.0
 10
9.5283379021
 20
7.0958576606
 30
0.0
 10
9.5342265312
 20
7.0988738471
 30
0.0
 10
9.5402794385
 20
7.1015789444
 30
0.0
 10
9.5464813837
 20
7.1039661099
 30
0.0
 10
9.5528167331
 20
7.1060293952
 30
0.0
 10
9.5592694818
 20
7.1077636121
 30
0.0
 10
9.5658235784
 20
7.1091643772
 30
0.0
 10
9.5746879314
 20
7.1105849433
 30
0.0
 10
9.585944253
 20
7.1115078793
 30
0.0
 10
9.5949936571
 20
7.1113312706
 30
0.0
 10
9.5995152677
 20
7.1110176959
 30
0.0
  0
SPLINE
  5
34C
100
AcDbEntity
  8
0
100
AcDbSpline
 62
7
  6
CONTINUOUS
 70
0
 71
3
 72
21
 73
17
 74
0
 42
0.0000001
 43
0.0000001
 44
0.0000000001
 40
0.0
 40
0.0
 40
0.0
 40
0.0
 40
0.061653237
 40
0.123329498
 40
0.1850515502
 40
0.2468416698
 40
0.3087213548
 40
0.370711108
 40
0.4328302426
 40
0.495096636
 40
0.5575265765
 40
0.6201345494
 40
0.682933126
 40
0.7459332432
 40
0.8725261314
 40
1.0
 40
1.0
 40
1.0
 40
1.0
 10
12.2412685764
 20
6.8863841304
 30
0.0
 10
12.2428452832
 20
6.8879071227
 30
0.0
 10
12.2460818703
 20
6.8908694959
 30
0.0
 10
12.2511695752
 20
6.8950465123
 30
0.0
 10
12.2564781913
 20
6.8989474576
 30
0.0
 10
12.2619941792
 20
6.9025623153
 30
0.0
 10
12.2677037034
 20
6.905881997
 30
0.0
 10
12.2735923324
 20
6.9088981835
 30
0.0
 10
12.2796452398
 20
6.9116032808
 30
0.0
 10
12.285847185
 20
6.9139904463
 30
0.0
 10
12.2921825343
 20
6.9160537316
 30
0.0
 10
12.2986352831
 20
6.9177879485
 30
0.0
 10
12.3051893797
 20
6.9191887137
 30
0.0
 10
12.3140537327
 20
6.9206092797
 30
0.0
 10
12.3253100543
 20
6.9215322157
 30
0.0
 10
12.3343594584
 20
6.9213556071
 30
0.0
 10
12.338881069
 20
6.9210420323
 30
0.0
  0
SPLINE
  5
34D
100
AcDbEntity
  8
0
100
AcDbSpline
 62
7
  6
CONTINUOUS
 70
0
 71
3
 72
21
 73
17
 74
0
 42
0.0000001
 43
0.0000001
 44
0.0000000001
 40
0.0
 40
0.0
 40
0.0
 40
0.0
 40
0.061653237
 40
0.123329498
 40
0.1850515502
 40
0.2468416698
 40
0.3087213548
 40
0.370711108
 40
0.4328302426
 40
0.495096636
 40
0.5575265765
 40
0.6201345494
 40
0.682933126
 40
0.7459332432
 40
0.8725261314
 40
1.0
 40
1.0
 40
1.0
 40
1.0
 10
12.2412685764
 20
9.6257499317
 30
0.0
 10
12.2428452832
 20
9.627272924
 30
0.0
 10
12.2460818703
 20
9.6302352972
 30
0.0
 10
12.2511695752
 20
9.6344123136
 30
0.0
 10
12.2564781913
 20
9.6383132589
 30
0.0
 10
12.2619941792
 20
9.6419281166
 30
0.0
 10
12.2677037034
 20
9.6452477983
 30
0.0
 10
12.2735923324
 20
9.6482639848
 30
0.0
 10
12.2796452398
 20
9.6509690821
 30
0.0
 10
12.285847185
 20
9.6533562476
 30
0.0
 10
12.2921825343
 20
9.6554195329
 30
0.0
 10
12.2986352831
 20
9.6571537498
 30
0.0
 10
12.3051893797
 20
9.658554515
 30
0.0
 10
12.3140537327
 20
9.659975081
 30
0.0
 10
12.3253100543
 20
9.660898017
 30
0.0
 10
12.3343594584
 20
9.6607214084
 30
0.0
 10
12.338881069
 20
9.6604078336
 30
0.0
  0
SPLINE
  5
34E
100
AcDbEntity
  8
0
100
AcDbSpline
 62
7
  6
CONTINUOUS
 70
0
 71
3
 72
21
 73
17
 74
0
 42
0.0000001
 43
0.0000001
 44
0.0000000001
 40
0.0
 40
0.0
 40
0.0
 40
0.0
 40
0.061653237
 40
0.123329498
 40
0.1850515502
 40
0.2468416698
 40
0.3087213548
 40
0.370711108
 40
0.4328302426
 40
0.495096636
 40
0.5575265765
 40
0.6201345494
 40
0.682933126
 40
0.7459332432
 40
0.8725261314
 40
1.0
 40
1.0
 40
1.0
 40
1.0
 10
9.5019027751
 20
9.8157255953
 30
0.0
 10
9.5034794819
 20
9.8172485875
 30
0.0
 10
9.506716069
 20
9.8202109608
 30
0.0
 10
9.5118037739
 20
9.8243879771
 30
0.0
 10
9.51711239
 20
9.8282889225
 30
0.0
 10
9.5226283779
 20
9.8319037802
 30
0.0
 10
9.5283379021
 20
9.8352234619
 30
0.0
 10
9.5342265312
 20
9.8382396483
 30
0.0
 10
9.5402794385
 20
9.8409447457
 30
0.0
 10
9.5464813837
 20
9.8433319112
 30
0.0
 10
9.5528167331
 20
9.8453951965
 30
0.0
 10
9.5592694818
 20
9.8471294133
 30
0.0
 10
9.5658235784
 20
9.8485301785
 30
0.0
 10
9.5746879314
 20
9.8499507446
 30
0.0
 10
9.585944253
 20
9.8508736805
 30
0.0
 10
9.5949936571
 20
9.8506970719
 30
0.0
 10
9.5995152677
 20
9.8503834972
 30
0.0
  0
SPLINE
  5
34F
100
AcDbEntity
  8
0
100
AcDbSpline
 62
7
  6
CONTINUOUS
 70
0
 71
3
 72
39
 73
35
 74
0
 42
0.0000001
 43
0.0000001
 44
0.0000000001
 40
0.0
 40
0.0
 40
0.0
 40
0.0
 40
0.0299424741
 40
0.0599093236
 40
0.0899243299
 40
0.1200101071
 40
0.1501875628
 40
0.1804754121
 40
0.2108897558
 40
0.2414437341
 40
0.2721472619
 40
0.3030068476
 40
0.3340255003
 40
0.3652027176
 40
0.3965345493
 40
0.4280137317
 40
0.459629888
 40
0.4913697842
 40
0.5232176352
 40
0.5551554541
 40
0.5871634377
 40
0.6192203778
 40
0.6513040905
 40
0.68339186
 40
0.715460889
 40
0.7474887514
 40
0.779453839
 40
0.8113357971
 40
0.8431159663
 40
0.8747776774
 40
0.9063069717
 40
0.937691796
 40
0.9689252179
 40
1.0
 40
1.0
 40
1.0
 40
1.0
 10
10.141398252
 20
7.7840167118
 30
0.0
 10
10.1428996201
 20
7.7854669158
 30
0.0
 10
10.146020401
 20
7.7882502974
 30
0.0
 10
10.1510203905
 20
7.7920421495
 30
0.0
 10
10.1563136261
 20
7.7954318203
 30
0.0
 10
10.1618705341
 20
7.7984002929
 30
0.0
 10
10.167660562
 20
7.8009313521
 30
0.0
 10
10.1736517565
 20
7.8030110844
 30
0.0
 10
10.1798111034
 20
7.8046281096
 30
0.0
 10
10.1861046699
 20
7.8057735969
 30
0.0
 10
10.192497805
 20
7.8064413195
 30
0.0
 10
10.198955327
 20
7.8066276896
 30
0.0
 10
10.2054417206
 20
7.8063317695
 30
0.0
 10
10.2119213308
 20
7.8055552687
 30
0.0
 10
10.2183585566
 20
7.8043025312
 30
0.0
 10
10.2247180444
 20
7.8025805089
 30
0.0
 10
10.2309648782
 20
7.8003987213
 30
0.0
 10
10.237064769
 20
7.7977692017
 30
0.0
 10
10.2429842392
 20
7.7947064299
 30
0.0
 10
10.2486908082
 20
7.7912272605
 30
0.0
 10
10.2541531667
 20
7.7873508237
 30
0.0
 10
10.2593413449
 20
7.7830984187
 30
0.0
 10
10.2642268751
 20
7.7784933987
 30
0.0
 10
10.2687829456
 20
7.7735610436
 30
0.0
 10
10.2729845457
 20
7.7683284232
 30
0.0
 10
10.2768086021
 20
7.7628242501
 30
0.0
 10
10.2802341021
 20
7.7570787249
 30
0.0
 10
10.2832422218
 20
7.7511233749
 30
0.0
 10
10.2858164065
 20
7.7449908832
 30
0.0
 10
10.2879425052
 20
7.7387148897
 30
0.0
 10
10.2896087386
 20
7.7323298964
 30
0.0
 10
10.2908059934
 20
7.7258707758
 30
0.0
 10
10.2915274867
 20
7.7193735388
 30
0.0
 10
10.2916891126
 20
7.7150281597
 30
0.0
 10
10.2916891126
 20
7.7128618325
 30
0.0
  0
SPLINE
  5
350
100
AcDbEntity
  8
0
100
AcDbSpline
 62
7
  6
CONTINUOUS
 70
0
 71
3
 72
39
 73
35
 74
0
 42
0.0000001
 43
0.0000001
 44
0.0000000001
 40
0.0
 40
0.0
 40
0.0
 40
0.0
 40
0.0299424741
 40
0.0599093236
 40
0.0899243299
 40
0.1200101071
 40
0.1501875628
 40
0.1804754121
 40
0.2108897558
 40
0.2414437341
 40
0.2721472619
 40
0.3030068476
 40
0.3340255003
 40
0.3652027176
 40
0.3965345493
 40
0.4280137317
 40
0.459629888
 40
0.4913697842
 40
0.5232176352
 40
0.5551554541
 40
0.5871634377
 40
0.6192203778
 40
0.6513040905
 40
0.68339186
 40
0.715460889
 40
0.7474887514
 40
0.779453839
 40
0.8113357971
 40
0.8431159663
 40
0.8747776774
 40
0.9063069717
 40
0.937691796
 40
0.9689252179
 40
1.0
 40
1.0
 40
1.0
 40
1.0
 10
10.141398252
 20
8.9614803463
 30
0.0
 10
10.1428996201
 20
8.9629305503
 30
0.0
 10
10.146020401
 20
8.9657139319
 30
0.0
 10
10.1510203905
 20
8.969505784
 30
0.0
 10
10.1563136261
 20
8.9728954548
 30
0.0
 10
10.1618705341
 20
8.9758639274
 30
0.0
 10
10.167660562
 20
8.9783949866
 30
0.0
 10
10.1736517565
 20
8.980474719
 30
0.0
 10
10.1798111034
 20
8.9820917441
 30
0.0
 10
10.1861046699
 20
8.9832372314
 30
0.0
 10
10.192497805
 20
8.983904954
 30
0.0
 10
10.198955327
 20
8.9840913241
 30
0.0
 10
10.2054417206
 20
8.9837954041
 30
0.0
 10
10.2119213308
 20
8.9830189032
 30
0.0
 10
10.2183585566
 20
8.9817661657
 30
0.0
 10
10.2247180444
 20
8.9800441435
 30
0.0
 10
10.2309648782
 20
8.9778623558
 30
0.0
 10
10.237064769
 20
8.9752328362
 30
0.0
 10
10.2429842392
 20
8.9721700644
 30
0.0
 10
10.2486908082
 20
8.9686908951
 30
0.0
 10
10.2541531667
 20
8.9648144582
 30
0.0
 10
10.2593413449
 20
8.9605620532
 30
0.0
 10
10.2642268751
 20
8.9559570332
 30
0.0
 10
10.2687829456
 20
8.9510246781
 30
0.0
 10
10.2729845457
 20
8.9457920577
 30
0.0
 10
10.2768086021
 20
8.9402878847
 30
0.0
 10
10.2802341021
 20
8.9345423594
 30
0.0
 10
10.2832422218
 20
8.9285870094
 30
0.0
 10
10.2858164065
 20
8.9224545177
 30
0.0
 10
10.2879425052
 20
8.9161785242
 30
0.0
 10
10.2896087386
 20
8.9097935309
 30
0.0
 10
10.2908059934
 20
8.9033344103
 30
0.0
 10
10.2915274867
 20
8.8968371733
 30
0.0
 10
10.2916891126
 20
8.8924917942
 30
0.0
 10
10.2916891126
 20
8.890325467
 30
0.0
  0
SPLINE
  5
351
100
AcDbEntity
  8
0
100
AcDbSpline
 62
7
  6
CONTINUOUS
 70
0
 71
3
 72
39
 73
35
 74
0
 42
0.0000001
 43
0.0000001
 44
0.0000000001
 40
0.0
 40
0.0
 40
0.0
 40
0.0
 40
0.0299424741
 40
0.0599093236
 40
0.0899243299
 40
0.1200101071
 40
0.1501875628
 40
0.1804754121
 40
0.2108897558
 40
0.2414437341
 40
0.2721472619
 40
0.3030068476
 40
0.3340255003
 40
0.3652027176
 40
0.3965345493
 40
0.4280137317
 40
0.459629888
 40
0.4913697842
 40
0.5232176352
 40
0.5551554541
 40
0.5871634377
 40
0.6192203778
 40
0.6513040905
 40
0.68339186
 40
0.715460889
 40
0.7474887514
 40
0.779453839
 40
0.8113357971
 40
0.8431159663
 40
0.8747776774
 40
0.9063069717
 40
0.937691796
 40
0.9689252179
 40
1.0
 40
1.0
 40
1.0
 40
1.0
 10
11.6810840353
 20
8.8856124655
 30
0.0
 10
11.6825854034
 20
8.8870626695
 30
0.0
 10
11.6857061843
 20
8.8898460511
 30
0.0
 10
11.6907061738
 20
8.8936379032
 30
0.0
 10
11.6959994094
 20
8.897027574
 30
0.0
 10
11.7015563173
 20
8.8999960466
 30
0.0
 10
11.7073463453
 20
8.9025271058
 30
0.0
 10
11.7133375397
 20
8.9046068381
 30
0.0
 10
11.7194968866
 20
8.9062238633
 30
0.0
 10
11.7257904532
 20
8.9073693506
 30
0.0
 10
11.7321835883
 20
8.9080370732
 30
0.0
 10
11.7386411103
 20
8.9082234433
 30
0.0
 10
11.7451275039
 20
8.9079275232
 30
0.0
 10
11.751607114
 20
8.9071510224
 30
0.0
 10
11.7580443399
 20
8.9058982849
 30
0.0
 10
11.7644038276
 20
8.9041762626
 30
0.0
 10
11.7706506614
 20
8.901994475
 30
0.0
 10
11.7767505523
 20
8.8993649554
 30
0.0
 10
11.7826700225
 20
8.8963021836
 30
0.0
 10
11.7883765915
 20
8.8928230142
 30
0.0
 10
11.7938389499
 20
8.8889465774
 30
0.0
 10
11.7990271281
 20
8.8846941724
 30
0.0
 10
11.8039126584
 20
8.8800891524
 30
0.0
 10
11.8084687289
 20
8.8751567973
 30
0.0
 10
11.812670329
 20
8.8699241768
 30
0.0
 10
11.8164943853
 20
8.8644200038
 30
0.0
 10
11.8199198854
 20
8.8586744786
 30
0.0
 10
11.822928005
 20
8.8527191286
 30
0.0
 10
11.8255021898
 20
8.8465866368
 30
0.0
 10
11.8276282885
 20
8.8403106434
 30
0.0
 10
11.8292945218
 20
8.8339256501
 30
0.0
 10
11.8304917767
 20
8.8274665295
 30
0.0
 10
11.83121327
 20
8.8209692924
 30
0.0
 10
11.8313748958
 20
8.8166239134
 30
0.0
 10
11.8313748958
 20
8.8144575862
 30
0.0
  0
SPLINE
  5
352
100
AcDbEntity
  8
0
100
AcDbSpline
 62
7
  6
CONTINUOUS
 70
0
 71
3
 72
39
 73
35
 74
0
 42
0.0000001
 43
0.0000001
 44
0.0000000001
 40
0.0
 40
0.0
 40
0.0
 40
0.0
 40
0.0299424741
 40
0.0599093236
 40
0.0899243299
 40
0.1200101071
 40
0.1501875628
 40
0.1804754121
 40
0.2108897558
 40
0.2414437341
 40
0.2721472619
 40
0.3030068476
 40
0.3340255003
 40
0.3652027176
 40
0.3965345493
 40
0.4280137317
 40
0.459629888
 40
0.4913697842
 40
0.5232176352
 40
0.5551554541
 40
0.5871634377
 40
0.6192203778
 40
0.6513040905
 40
0.68339186
 40
0.715460889
 40
0.7474887514
 40
0.779453839
 40
0.8113357971
 40
0.8431159663
 40
0.8747776774
 40
0.9063069717
 40
0.937691796
 40
0.9689252179
 40
1.0
 40
1.0
 40
1.0
 40
1.0
 10
11.6810840353
 20
7.6472954202
 30
0.0
 10
11.6825854034
 20
7.6487456242
 30
0.0
 10
11.6857061843
 20
7.6515290058
 30
0.0
 10
11.6907061738
 20
7.6553208579
 30
0.0
 10
11.6959994094
 20
7.6587105287
 30
0.0
 10
11.7015563173
 20
7.6616790013
 30
0.0
 10
11.7073463453
 20
7.6642100605
 30
0.0
 10
11.7133375397
 20
7.6662897928
 30
0.0
 10
11.7194968866
 20
7.667906818
 30
0.0
 10
11.7257904532
 20
7.6690523053
 30
0.0
 10
11.7321835883
 20
7.6697200279
 30
0.0
 10
11.7386411103
 20
7.669906398
 30
0.0
 10
11.7451275039
 20
7.6696104779
 30
0.0
 10
11.751607114
 20
7.6688339771
 30
0.0
 10
11.7580443399
 20
7.6675812396
 30
0.0
 10
11.7644038276
 20
7.6658592173
 30
0.0
 10
11.7706506614
 20
7.6636774297
 30
0.0
 10
11.7767505523
 20
7.6610479101
 30
0.0
 10
11.7826700225
 20
7.6579851383
 30
0.0
 10
11.7883765915
 20
7.6545059689
 30
0.0
 10
11.7938389499
 20
7.650629532
 30
0.0
 10
11.7990271281
 20
7.646377127
 30
0.0
 10
11.8039126584
 20
7.641772107
 30
0.0
 10
11.8084687289
 20
7.636839752
 30
0.0
 10
11.812670329
 20
7.6316071315
 30
0.0
 10
11.8164943853
 20
7.6261029585
 30
0.0
 10
11.8199198854
 20
7.6203574332
 30
0.0
 10
11.822928005
 20
7.6144020833
 30
0.0
 10
11.8255021898
 20
7.6082695915
 30
0.0
 10
11.8276282885
 20
7.6019935981
 30
0.0
 10
11.8292945218
 20
7.5956086048
 30
0.0
 10
11.8304917767
 20
7.5891494842
 30
0.0
 10
11.83121327
 20
7.5826522471
 30
0.0
 10
11.8313748958
 20
7.578306868
 30
0.0
 10
11.8313748958
 20
7.5761405409
 30
0.0
  0
SPLINE
  5
353
100
AcDbEntity
  8
0
100
AcDbSpline
 62
7
  6
CONTINUOUS
 70
0
 71
3
 72
15
 73
11
 74
0
 42
0.0000001
 43
0.0000001
 44
0.0000000001
 40
0.0
 40
0.0
 40
0.0
 40
0.0
 40
0.1233171148
 40
0.2468171822
 40
0.3706750007
 40
0.4950496181
 40
0.6200773069
 40
0.7458672043
 40
0.8724928123
 40
1.0
 40
1.0
 40
1.0
 40
1.0
 10
11.3979714485
 20
7.653450466
 30
0.0
 10
11.3997217711
 20
7.6551411287
 30
0.0
 10
11.4034102871
 20
7.6583389788
 30
0.0
 10
11.4094302586
 20
7.6625177249
 30
0.0
 10
11.4158808629
 20
7.6660403316
 30
0.0
 10
11.4226960505
 20
7.6688706229
 30
0.0
 10
11.4298070853
 20
7.670980502
 30
0.0
 10
11.4371423394
 20
7.6723488533
 30
0.0
 10
11.4446269364
 20
7.6729623748
 30
0.0
 10
11.449650958
 20
7.6728643746
 30
0.0
 10
11.4521611245
 20
7.672690294
 30
0.0
  0
SPLINE
  5
354
100
AcDbEntity
  8
0
100
AcDbSpline
 62
7
  6
CONTINUOUS
 70
0
 71
3
 72
16
 73
12
 74
0
 42
0.0000001
 43
0.0000001
 44
0.0000000001
 40
0.0
 40
0.0
 40
0.0
 40
0.0
 40
0.1233044511
 40
0.2475458716
 40
0.3724565108
 40
0.4977833677
 40
0.6233166276
 40
0.7489058319
 40
0.874463995
 40
0.9372394717
 40
1.0
 40
1.0
 40
1.0
 40
1.0
 10
11.1075007102
 20
7.9105630524
 30
0.0
 10
11.1034777908
 20
7.9111774702
 30
0.0
 10
11.0954534489
 20
7.9127835142
 30
0.0
 10
11.0836535671
 20
7.9162861619
 30
0.0
 10
11.072158106
 20
7.9208732022
 30
0.0
 10
11.0610939883
 20
7.9265152152
 30
0.0
 10
11.0505832421
 20
7.9331747528
 30
0.0
 10
11.040744473
 20
7.9408046456
 30
0.0
 10
11.0331959183
 20
7.9479279618
 30
0.0
 10
11.0276039594
 20
7.9540476866
 30
0.0
 10
11.0249634027
 20
7.9572432241
 30
0.0
 10
11.0236844322
 20
7.9588725736
 30
0.0
  0
SPLINE
  5
355
100
AcDbEntity
  8
0
100
AcDbSpline
 62
7
  6
CONTINUOUS
 70
0
 71
3
 72
41
 73
37
 74
0
 42
0.0000001
 43
0.0000001
 44
0.0000000001
 40
0.0
 40
0.0
 40
0.0
 40
0.0
 40
0.0301994644
 40
0.060325634
 40
0.0904080169
 40
0.1204773118
 40
0.150564451
 40
0.1806996511
 40
0.2109115107
 40
0.241226187
 40
0.2716666776
 40
0.302252226
 40
0.3329978614
 40
0.3639140761
 40
0.3950066384
 40
0.4262765343
 40
0.4577200287
 40
0.4893288355
 40
0.5210903853
 40
0.5529881809
 40
0.5850022298
 40
0.6171095454
 40
0.6492847098
 40
0.6815004877
 40
0.7137284861
 40
0.7298411
 40
0.7459459572
 40
0.7781120897
 40
0.810205387
 40
0.842199967
 40
0.8740724006
 40
0.9058023224
 40
0.9373732939
 40
0.9530981102
 40
0.9687793064
 40
1.0
 40
1.0
 40
1.0
 40
1.0
 10
10.9066419791
 20
7.9023700349
 30
0.0
 10
10.9081984628
 20
7.9052365024
 30
0.0
 10
10.9115634444
 20
7.9108278686
 30
0.0
 10
10.9173310243
 20
7.9187226812
 30
0.0
 10
10.9237712558
 20
7.9260614303
 30
0.0
 10
10.9308375351
 20
7.9327930417
 30
0.0
 10
10.9384797041
 20
7.9388721185
 30
0.0
 10
10.9466437269
 20
7.9442577672
 30
0.0
 10
10.9552723357
 20
7.9489141822
 30
0.0
 10
10.9643054198
 20
7.9528106965
 30
0.0
 10
10.9736804782
 20
7.9559219198
 30
0.0
 10
10.9833330424
 20
7.9582278057
 30
0.0
 10
10.9931970931
 20
7.9597136975
 30
0.0
 10
11.0032054624
 20
7.9603703445
 30
0.0
 10
11.0132902239
 20
7.9601939032
 30
0.0
 10
11.0233830737
 20
7.9591859207
 30
0.0
 10
11.0334157062
 20
7.9573533069
 30
0.0
 10
11.0433201868
 20
7.9547082928
 30
0.0
 10
11.0530293273
 20
7.9512683769
 30
0.0
 10
11.0624770621
 20
7.9470562584
 30
0.0
 10
11.0715988425
 20
7.9420997421
 30
0.0
 10
11.0803320005
 20
7.9364316648
 30
0.0
 10
11.0886162608
 20
7.9300896318
 30
0.0
 10
11.0963937418
 20
7.9231163391
 30
0.0
 10
11.1024088189
 20
7.9168165363
 30
0.0
 10
11.106915084
 20
7.9115094423
 30
0.0
 10
11.1112072738
 20
7.9060362627
 30
0.0
 10
11.1161606331
 20
7.898896673
 30
0.0
 10
11.1214043791
 20
7.8899076171
 30
0.0
 10
11.125908795
 20
7.8805609774
 30
0.0
 10
11.1296408609
 20
7.8709219094
 30
0.0
 10
11.1325732496
 20
7.8610581073
 30
0.0
 10
11.1343350146
 20
7.8526959241
 30
0.0
 10
11.1353240798
 20
7.8459644084
 30
0.0
 10
11.1360300997
 20
7.8392357927
 30
0.0
 10
11.1362442288
 20
7.8341667395
 30
0.0
 10
11.1362442288
 20
7.8307946478
 30
0.0
  0
SPLINE
  5
356
100
AcDbEntity
  8
0
100
AcDbSpline
 62
7
  6
CONTINUOUS
 70
0
 71
3
 72
28
 73
24
 74
0
 42
0.0000001
 43
0.0000001
 44
0.0000000001
 40
0.0
 40
0.0
 40
0.0
 40
0.0
 40
0.0620666827
 40
0.1239836006
 40
0.1857782652
 40
0.2474825178
 40
0.3091333574
 40
0.370773819
 40
0.432453784
 40
0.49423052
 40
0.5561686253
 40
0.6183389571
 40
0.6808160288
 40
0.7122039853
 40
0.7436960233
 40
0.7753000215
 40
0.8070226812
 40
0.8388688873
 40
0.8708422258
 40
0.9029441578
 40
0.9351729097
 40
0.9675283049
 40
1.0
 40
1.0
 40
1.0
 40
1.0
 10
10.5619784701
 20
8.3395400411
 30
0.0
 10
10.5635651181
 20
8.3429123097
 30
0.0
 10
10.5669505386
 20
8.3495496778
 30
0.0
 10
10.5726633985
 20
8.3591402912
 30
0.0
 10
10.5789998967
 20
8.3683056133
 30
0.0
 10
10.5859542279
 20
8.3769917409
 30
0.0
 10
10.5935196715
 20
8.3851397284
 30
0.0
 10
10.6016868621
 20
8.3926838227
 30
0.0
 10
10.610442179
 20
8.3995509344
 30
0.0
 10
10.6197653182
 20
8.4056601009
 30
0.0
 10
10.6296267111
 20
8.4109226944
 30
0.0
 10
10.639982587
 20
8.4152433322
 30
0.0
 10
10.6489645013
 20
8.417972909
 30
0.0
 10
10.6563194438
 20
8.419588198
 30
0.0
 10
10.6619210984
 20
8.4205059419
 30
0.0
 10
10.6675846535
 20
8.4211168814
 30
0.0
 10
10.673294897
 20
8.4214112889
 30
0.0
 10
10.6790349081
 20
8.4213809033
 30
0.0
 10
10.6847864979
 20
8.4210191381
 30
0.0
 10
10.6905302438
 20
8.4203213804
 30
0.0
 10
10.6962461399
 20
8.4192854713
 30
0.0
 10
10.701913025
 20
8.4179116971
 30
0.0
 10
10.7056385526
 20
8.416774434
 30
0.0
 10
10.7074860936
 20
8.4161512595
 30
0.0
  0
SPLINE
  5
357
100
AcDbEntity
  8
0
100
AcDbSpline
 62
7
  6
CONTINUOUS
 70
0
 71
3
 72
23
 73
19
 74
0
 42
0.0000001
 43
0.0000001
 44
0.0000000001
 40
0.0
 40
0.0
 40
0.0
 40
0.0
 40
0.1269164856
 40
0.1903656558
 40
0.2537656245
 40
0.3802603638
 40
0.4433434273
 40
0.5062579445
 40
0.5689703015
 40
0.6314472942
 40
0.693657565
 40
0.7246589744
 40
0.7555837707
 40
0.8171830148
 40
0.8784511381
 40
0.9089648411
 40
0.9393966743
 40
1.0
 40
1.0
 40
1.0
 40
1.0
 10
11.2534405718
 20
8.1530393505
 30
0.0
 10
11.2496206439
 20
8.1566908848
 30
0.0
 10
11.2441337093
 20
8.162432136
 30
0.0
 10
11.2374061898
 20
8.170584278
 30
0.0
 10
11.2311090831
 20
8.1790513376
 30
0.0
 10
11.2254951784
 20
8.1879940064
 30
0.0
 10
11.2206918953
 20
8.1973512272
 30
0.0
 10
11.2175289928
 20
8.2045495708
 30
0.0
 10
11.2148352332
 20
8.2119096844
 30
0.0
 10
11.2126417576
 20
8.2194038973
 30
0.0
 10
11.2112538767
 20
8.2257420908
 30
0.0
 10
11.2104231776
 20
8.2308446413
 30
0.0
 10
11.2097839259
 20
8.2359490482
 30
0.0
 10
11.2093459058
 20
8.2423441252
 30
0.0
 10
11.2094053576
 20
8.248737292
 30
0.0
 10
11.2097579564
 20
8.2538149942
 30
0.0
 10
11.2103122368
 20
8.2588464875
 30
0.0
 10
11.2109579349
 20
8.2625872646
 30
0.0
 10
11.2114900738
 20
8.2650538769
 30
0.0
  0
SPLINE
  5
358
100
AcDbEntity
  8
0
100
AcDbSpline
 62
7
  6
CONTINUOUS
 70
0
 71
3
 72
80
 73
76
 74
0
 42
0.0000001
 43
0.0000001
 44
0.0000000001
 40
0.0
 40
0.0
 40
0.0
 40
0.0
 40
0.0027164327
 40
0.0054532447
 40
0.0082303176
 40
0.0110666212
 40
0.0139798388
 40
0.016986154
 40
0.0201001347
 40
0.0233346582
 40
0.0267010284
 40
0.0302089968
 40
0.0338669183
 40
0.0376819076
 40
0.0416598906
 40
0.0458058349
 40
0.0501237838
 40
0.0546169826
 40
0.0592880207
 40
0.0641388059
 40
0.0691707482
 40
0.0743847477
 40
0.0853596785
 40
0.0970635549
 40
0.1094903305
 40
0.1226296146
 40
0.1364673135
 40
0.1509861535
 40
0.1661660759
 40
0.1819845508
 40
0.1984168195
 40
0.2154361185
 40
0.2330138792
 40
0.2511198904
 40
0.2697224401
 40
0.2887884373
 40
0.3082835515
 40
0.3281723331
 40
0.348418324
 40
0.368984158
 40
0.3898316649
 40
0.4109219833
 40
0.4536720365
 40
0.4969140898
 40
0.5403224212
 40
0.5835697178
 40
0.6263302119
 40
0.6682828124
 40
0.6888582723
 40
0.7091151075
 40
0.7290159233
 40
0.74852422
 40
0.7676045125
 40
0.7862224423
 40
0.804344885
 40
0.8219400731
 40
0.8389777322
 40
0.8554292445
 40
0.8712678001
 40
0.8864685754
 40
0.9010089485
 40
0.9148687687
 40
0.92803068
 40
0.940480496
 40
0.9522076877
 40
0.9577984663
 40
0.9632066952
 40
0.9684323943
 40
0.9734759977
 40
0.9783383604
 40
0.9830208115
 40
0.987525367
 40
0.9918546057
 40
0.996011597
 40
1.0
 40
1.0
 40
1.0
 40
1.0
 10
12.8886032637
 20
7.4703410248
 30
0.0
 10
12.8877997893
 20
7.4703967503
 30
0.0
 10
12.8861909269
 20
7.4705813469
 30
0.0
 10
12.8837981252
 20
7.4710753343
 30
0.0
 10
12.8814233965
 20
7.4717862627
 30
0.0
 10
12.8790684546
 20
7.4727135212
 30
0.0
 10
12.8767345038
 20
7.4738562372
 30
0.0
 10
12.8744227308
 20
7.4752135145
 30
0.0
 10
12.8721342367
 20
7.4767844339
 30
0.0
 10
12.8698699869
 20
7.478567932
 30
0.0
 10
12.8676310082
 20
7.4805630272
 30
0.0
 10
12.8654182413
 20
7.4827685974
 30
0.0
 10
12.8632326407
 20
7.4851834884
 30
0.0
 10
12.86107522
 20
7.487806507
 30
0.0
 10
12.8589468996
 20
7.4906363053
 30
0.0
 10
12.8568487075
 20
7.4936715161
 30
0.0
 10
12.8547816134
 20
7.4969106326
 30
0.0
 10
12.8527465824
 20
7.5003520529
 30
0.0
 10
12.8507446417
 20
7.5039941035
 30
0.0
 10
12.8487767212
 20
7.5078349615
 30
0.0
 10
12.8468437939
 20
7.5118727493
 30
0.0
 10
12.8442704529
 20
7.517614898
 30
0.0
 10
12.8411585147
 20
7.5252803028
 30
0.0
 10
12.8376397528
 20
7.5350786292
 30
0.0
 10
12.8342824191
 20
7.5456088337
 30
0.0
 10
12.8310932703
 20
7.5568499525
 30
0.0
 10
12.8280787376
 20
7.5687797671
 30
0.0
 10
12.8252449346
 20
7.5813745184
 30
0.0
 10
12.8225976194
 20
7.5946090819
 30
0.0
 10
12.8201421828
 20
7.6084569957
 30
0.0
 10
12.8178836201
 20
7.6228905274
 30
0.0
 10
12.8158265238
 20
7.6378807365
 30
0.0
 10
12.8139750814
 20
7.653397546
 30
0.0
 10
12.8123330634
 20
7.6694098079
 30
0.0
 10
12.8109038181
 20
7.6858853638
 30
0.0
 10
12.8096902508
 20
7.7027911095
 30
0.0
 10
12.8086948313
 20
7.7200930673
 30
0.0
 10
12.8079195898
 20
7.7377564591
 30
0.0
 10
12.8073661113
 20
7.7557457788
 30
0.0
 10
12.8070355373
 20
7.7740248488
 30
0.0
 10
12.8069285247
 20
7.7925569411
 30
0.0
 10
12.807085031
 20
7.8176663514
 30
0.0
 10
12.8078443742
 20
7.8494096118
 30
0.0
 10
12.809633936
 20
7.8877373952
 30
0.0
 10
12.8122918188
 20
7.9261626247
 30
0.0
 10
12.8157966391
 20
7.9643765412
 30
0.0
 10
12.8201201448
 20
8.00207208
 30
0.0
 10
12.8244032224
 20
8.0329975605
 30
0.0
 10
12.8282206916
 20
8.0572446091
 30
0.0
 10
12.8312463663
 20
8.0749960838
 30
0.0
 10
12.8344468687
 20
8.0923952557
 30
0.0
 10
12.8378157739
 20
8.1094071716
 30
0.0
 10
12.8413462728
 20
8.1259976332
 30
0.0
 10
12.8450312357
 20
8.1421333084
 30
0.0
 10
12.8488632201
 20
8.1577817837
 30
0.0
 10
12.8528344865
 20
8.1729116323
 30
0.0
 10
12.8569370163
 20
8.187492483
 30
0.0
 10
12.8611625142
 20
8.2014950909
 30
0.0
 10
12.8655024384
 20
8.2148913971
 30
0.0
 10
12.8699480187
 20
8.2276545822
 30
0.0
 10
12.874490279
 20
8.2397591349
 30
0.0
 10
12.8791200541
 20
8.2511808953
 30
0.0
 10
12.8838280174
 20
8.2618972069
 30
0.0
 10
12.8886046967
 20
8.271886675
 30
0.0
 10
12.892697187
 20
8.2797091961
 30
0.0
 10
12.8960049679
 20
8.2855801023
 30
0.0
 10
12.8984574224
 20
8.2897190133
 30
0.0
 10
12.9009198864
 20
8.2936619826
 30
0.0
 10
12.9033911408
 20
8.2974070537
 30
0.0
 10
12.9058699285
 20
8.3009523725
 30
0.0
 10
12.9083550843
 20
8.3042961752
 30
0.0
 10
12.9108453815
 20
8.3074368623
 30
0.0
 10
12.9133396785
 20
8.3103728787
 30
0.0
 10
12.9158366057
 20
8.3131026311
 30
0.0
 10
12.9175367664
 20
8.3148190104
 30
0.0
 10
12.9183873104
 20
8.3156405729
 30
0.0
  0
SPLINE
  5
359
100
AcDbEntity
  8
0
100
AcDbSpline
 62
7
  6
CONTINUOUS
 70
0
 71
3
 72
11
 73
7
 74
0
 42
0.0000001
 43
0.0000001
 44
0.0000000001
 40
0.0
 40
0.0
 40
0.0
 40
0.0
 40
0.2783980103
 40
0.5363556557
 40
0.7759608084
 40
1.0
 40
1.0
 40
1.0
 40
1.0
 10
12.8708767651
 20
7.509972513
 30
0.0
 10
12.869496189
 20
7.5086389787
 30
0.0
 10
12.8667376305
 20
7.5061685499
 30
0.0
 10
12.8624358062
 20
7.5029734428
 30
0.0
 10
12.8581402579
 20
7.5004432549
 30
0.0
 10
12.855197121
 20
7.4991675774
 30
0.0
 10
12.8537394354
 20
7.4986565424
 30
0.0
  0
SPLINE
  5
35A
100
AcDbEntity
  8
0
100
AcDbSpline
 62
7
  6
CONTINUOUS
 70
0
 71
3
 72
79
 73
75
 74
0
 42
0.0000001
 43
0.0000001
 44
0.0000000001
 40
0.0
 40
0.0
 40
0.0
 40
0.0
 40
0.0039560108
 40
0.0080772526
 40
0.0123672752
 40
0.0168290416
 40
0.0214650553
 40
0.0262773074
 40
0.0312671531
 40
0.0364354308
 40
0.041782613
 40
0.0473087458
 40
0.0588960363
 40
0.0711922394
 40
0.0841874692
 40
0.0978682933
 40
0.112218173
 40
0.1272178823
 40
0.1428458183
 40
0.1590782331
 40
0.1758894199
 40
0.1932519274
 40
0.2111367204
 40
0.2295133047
 40
0.248349839
 40
0.2676132841
 40
0.2872695146
 40
0.3072834118
 40
0.3276189584
 40
0.3691063989
 40
0.4114305973
 40
0.4542815324
 40
0.4973442442
 40
0.5403017884
 40
0.5828381983
 40
0.6246414709
 40
0.6451728663
 40
0.6654072997
 40
0.6853082261
 40
0.7048399086
 40
0.7239675321
 40
0.7426573194
 40
0.7608766185
 40
0.778594011
 40
0.7957794528
 40
0.8124044178
 40
0.8284420169
 40
0.8438671561
 40
0.8586567504
 40
0.8727899539
 40
0.8862483937
 40
0.8990164912
 40
0.9110819013
 40
0.9224360403
 40
0.9278452092
 40
0.9330754179
 40
0.9381269739
 40
0.943000636
 40
0.9476975505
 40
0.9522194153
 40
0.9565684954
 40
0.9607476489
 40
0.964760521
 40
0.9686115289
 40
0.9723060082
 40
0.9758503723
 40
0.9792521397
 40
0.9825201504
 40
0.9856646502
 40
0.9886973594
 40
0.9916316148
 40
0.994482309
 40
0.9972658479
 40
1.0
 40
1.0
 40
1.0
 40
1.0
 10
12.8884436085
 20
7.4986120265
 30
0.0
 10
12.8892583441
 20
7.4993990006
 30
0.0
 10
12.8908869558
 20
7.5010422634
 30
0.0
 10
12.8932794271
 20
7.5036541124
 30
0.0
 10
12.8956694586
 20
7.5064612616
 30
0.0
 10
12.8980557402
 20
7.5094622252
 30
0.0
 10
12.9004372061
 20
7.5126555332
 30
0.0
 10
12.9028127144
 20
7.5160396993
 30
0.0
 10
12.9051811629
 20
7.5196130937
 30
0.0
 10
12.9075414108
 20
7.5233739753
 30
0.0
 10
12.9098922839
 20
7.5273205381
 30
0.0
 10
12.9130630043
 20
7.5329163803
 30
0.0
 10
12.9169868663
 20
7.5403699726
 30
0.0
 10
12.9215686276
 20
7.5498860458
 30
0.0
 10
12.9260860855
 20
7.5600918513
 30
0.0
 10
12.9305303613
 20
7.5709675006
 30
0.0
 10
12.9348927358
 20
7.5824919249
 30
0.0
 10
12.9391646167
 20
7.5946426724
 30
0.0
 10
12.9433375795
 20
7.6073960481
 30
0.0
 10
12.9474033864
 20
7.6207271357
 30
0.0
 10
12.9513540277
 20
7.6346098516
 30
0.0
 10
12.955181712
 20
7.6490170125
 30
0.0
 10
12.9588788868
 20
7.6639203978
 30
0.0
 10
12.962438256
 20
7.6792907986
 30
0.0
 10
12.9658528123
 20
7.6950980715
 30
0.0
 10
12.9691158294
 20
7.7113112123
 30
0.0
 10
12.9722208673
 20
7.7278984111
 30
0.0
 10
12.9751618314
 20
7.744827147
 30
0.0
 10
12.9788812164
 20
7.7679634833
 30
0.0
 10
12.9830708425
 20
7.7974919943
 30
0.0
 10
12.9873289404
 20
7.8335123529
 30
0.0
 10
12.9908166877
 20
7.8700685949
 30
0.0
 10
12.9935066005
 20
7.9068739353
 30
0.0
 10
12.9953776096
 20
7.943639869
 30
0.0
 10
12.99641505
 20
7.9800779535
 30
0.0
 10
12.9965795171
 20
8.0101089551
 30
0.0
 10
12.99628066
 20
8.0337501025
 30
0.0
 10
12.9958464432
 20
8.0511162491
 30
0.0
 10
12.9952017676
 20
8.0681894032
 30
0.0
 10
12.9943478912
 20
8.0849360832
 30
0.0
 10
12.9932865163
 20
8.1013234199
 30
0.0
 10
12.9920197608
 20
8.1173192674
 30
0.0
 10
12.9905501433
 20
8.1328922505
 30
0.0
 10
12.9888805767
 20
8.148011828
 30
0.0
 10
12.9870143747
 20
8.1626483613
 30
0.0
 10
12.9849552537
 20
8.1767731786
 30
0.0
 10
12.9827073046
 20
8.190358625
 30
0.0
 10
12.9802749844
 20
8.2033781196
 30
0.0
 10
12.9776631203
 20
8.2158062215
 30
0.0
 10
12.9748769046
 20
8.2276186978
 30
0.0
 10
12.9719218598
 20
8.2387925452
 30
0.0
 10
12.9688038165
 20
8.2493061303
 30
0.0
 10
12.9655289121
 20
8.2591389702
 30
0.0
 10
12.9626294938
 20
8.2668703343
 30
0.0
 10
12.9602288809
 20
8.2726928607
 30
0.0
 10
12.9584223642
 20
8.2768070205
 30
0.0
 10
12.9565815167
 20
8.2807372776
 30
0.0
 10
12.9547072503
 20
8.2844817527
 30
0.0
 10
12.9528004281
 20
8.2880386173
 30
0.0
 10
12.9508619746
 20
8.2914061611
 30
0.0
 10
12.9488928306
 20
8.2945827764
 30
0.0
 10
12.9468938665
 20
8.2975669075
 30
0.0
 10
12.9448660538
 20
8.3003571468
 30
0.0
 10
12.9428102993
 20
8.3029521448
 30
0.0
 10
12.940727495
 20
8.3053506208
 30
0.0
 10
12.9386186057
 20
8.30755144
 30
0.0
 10
12.9364844914
 20
8.3095534593
 30
0.0
 10
12.9343260735
 20
8.311355646
 30
0.0
 10
12.9321442891
 20
8.3129570434
 30
0.0
 10
12.929940017
 20
8.3143566383
 30
0.0
 10
12.9277142966
 20
8.3155535767
 30
0.0
 10
12.9254680937
 20
8.3165469917
 30
0.0
 10
12.9232027782
 20
8.3173359872
 30
0.0
 10
12.9216698841
 20
8.31772802
 30
0.0
 10
12.9209036266
 20
8.3178885253
 30
0.0
  0
SPLINE
  5
35B
100
AcDbEntity
  8
0
100
AcDbSpline
 62
7
  6
CONTINUOUS
 70
0
 71
3
 72
21
 73
17
 74
0
 42
0.0000001
 43
0.0000001
 44
0.0000000001
 40
0.0
 40
0.0
 40
0.0
 40
0.0
 40
0.061653237
 40
0.123329498
 40
0.1850515502
 40
0.2468416698
 40
0.3087213548
 40
0.370711108
 40
0.4328302426
 40
0.495096636
 40
0.5575265765
 40
0.6201345494
 40
0.682933126
 40
0.7459332432
 40
0.8725261314
 40
1.0
 40
1.0
 40
1.0
 40
1.0
 10
9.6971277603
 20
6.8742504245
 30
0.0
 10
9.6955510535
 20
6.8727274322
 30
0.0
 10
9.6923144664
 20
6.869765059
 30
0.0
 10
9.6872267615
 20
6.8655880427
 30
0.0
 10
9.6819181454
 20
6.8616870973
 30
0.0
 10
9.6764021575
 20
6.8580722396
 30
0.0
 10
9.6706926333
 20
6.8547525579
 30
0.0
 10
9.6648040042
 20
6.8517363714
 30
0.0
 10
9.6587510969
 20
6.8490312741
 30
0.0
 10
9.6525491517
 20
6.8466441086
 30
0.0
 10
9.6462138023
 20
6.8445808233
 30
0.0
 10
9.6397610536
 20
6.8428466064
 30
0.0
 10
9.633206957
 20
6.8414458413
 30
0.0
 10
9.624342604
 20
6.8400252752
 30
0.0
 10
9.6130862824
 20
6.8391023392
 30
0.0
 10
9.6040368783
 20
6.8392789479
 30
0.0
 10
9.5995152677
 20
6.8395925226
 30
0.0
  0
SPLINE
  5
35C
100
AcDbEntity
  8
0
100
AcDbSpline
 62
7
  6
CONTINUOUS
 70
0
 71
3
 72
73
 73
69
 74
0
 42
0.0000001
 43
0.0000001
 44
0.0000000001
 40
0.0
 40
0.0
 40
0.0
 40
0.0
 40
0.003888158
 40
0.00793453
 40
0.0121424545
 40
0.0165147245
 40
0.0210537193
 40
0.0257613561
 40
0.0306389886
 40
0.0356874595
 40
0.0462979645
 40
0.057593527
 40
0.0695694391
 40
0.0822170854
 40
0.0955245076
 40
0.109476859
 40
0.1240567902
 40
0.1392447181
 40
0.1550190179
 40
0.1713562586
 40
0.1882313812
 40
0.2056178167
 40
0.2234876029
 40
0.2418115391
 40
0.260559291
 40
0.279699464
 40
0.2991997122
 40
0.3190268502
 40
0.3595246125
 40
0.4009142557
 40
0.4429084572
 40
0.4852144645
 40
0.5275367606
 40
0.5695796857
 40
0.6110500563
 40
0.6516598133
 40
0.6715543697
 40
0.6911294516
 40
0.7103516841
 40
0.7291885321
 40
0.7476084002
 40
0.7655807029
 40
0.7830759632
 40
0.8000659552
 40
0.816523803
 40
0.832424084
 40
0.8477429844
 40
0.8624584964
 40
0.876550566
 40
0.8900013042
 40
0.9027952922
 40
0.9149199278
 40
0.9263658059
 40
0.9371272639
 40
0.9472031429
 40
0.9519855063
 40
0.9565985865
 40
0.961043988
 40
0.9653238287
 40
0.9694407631
 40
0.973398162
 40
0.977200097
 40
0.9808514547
 40
0.984358102
 40
0.9877268954
 40
0.9909658603
 40
0.9940843021
 40
1.0
 40
1.0
 40
1.0
 40
1.0
 10
12.8708767651
 20
7.509972513
 30
0.0
 10
12.8716501989
 20
7.5107195927
 30
0.0
 10
12.8731962982
 20
7.5122778248
 30
0.0
 10
12.8754687934
 20
7.5147512592
 30
0.0
 10
12.8777391007
 20
7.5174055064
 30
0.0
 10
12.8800060238
 20
7.5202392316
 30
0.0
 10
12.8822685996
 20
7.5232511077
 30
0.0
 10
12.8845257979
 20
7.5264398017
 30
0.0
 10
12.8867766397
 20
7.5298038676
 30
0.0
 10
12.8898184685
 20
7.5346009166
 30
0.0
 10
12.8935897867
 20
7.5410342373
 30
0.0
 10
12.898001428
 20
7.549303721
 30
0.0
 10
12.9023631022
 20
7.5582310394
 30
0.0
 10
12.906666698
 20
7.5677997353
 30
0.0
 10
12.9109042341
 20
7.5779922992
 30
0.0
 10
12.9150678124
 20
7.5887899314
 30
0.0
 10
12.9191496501
 20
7.6001726898
 30
0.0
 10
12.9231420997
 20
7.612119502
 30
0.0
 10
12.9270377
 20
7.6246082059
 30
0.0
 10
12.9308291608
 20
7.6376156093
 30
0.0
 10
12.9345093779
 20
7.6511175447
 30
0.0
 10
12.9380714573
 20
7.6650889057
 30
0.0
 10
12.9415087437
 20
7.6795036924
 30
0.0
 10
12.9448148049
 20
7.6943350743
 30
0.0
 10
12.9479834489
 20
7.709555444
 30
0.0
 10
12.9510087456
 20
7.7251364509
 30
0.0
 10
12.9538850712
 20
7.7410490913
 30
0.0
 10
12.9575399667
 20
7.7628217409
 30
0.0
 10
12.9616894418
 20
7.790647571
 30
0.0
 10
12.9659632239
 20
7.8246440628
 30
0.0
 10
12.969533599
 20
7.8592244006
 30
0.0
 10
12.9723739092
 20
7.8941310503
 30
0.0
 10
12.9744629187
 20
7.9291042034
 30
0.0
 10
12.9757851549
 20
7.9638835421
 30
0.0
 10
12.9763308507
 20
7.9982100375
 30
0.0
 10
12.9761341525
 20
8.0264147923
 30
0.0
 10
12.9755774695
 20
8.0485553907
 30
0.0
 10
12.9749679461
 20
8.0647764841
 30
0.0
 10
12.9741647879
 20
8.0806962573
 30
0.0
 10
12.9731694895
 20
8.0962850788
 30
0.0
 10
12.9719839435
 20
8.11151391
 30
0.0
 10
12.970610383
 20
8.126354393
 30
0.0
 10
12.9690513861
 20
8.1407788953
 30
0.0
 10
12.9673098979
 20
8.1547605733
 30
0.0
 10
12.9653892066
 20
8.168273421
 30
0.0
 10
12.9632929277
 20
8.1812923119
 30
0.0
 10
12.9610250011
 20
8.1937930564
 30
0.0
 10
12.9585897119
 20
8.2057524591
 30
0.0
 10
12.9559916491
 20
8.2171483592
 30
0.0
 10
12.9532356903
 20
8.2279596701
 30
0.0
 10
12.9503270057
 20
8.2381664503
 30
0.0
 10
12.9472710534
 20
8.2477499285
 30
0.0
 10
12.9440735092
 20
8.2566926441
 30
0.0
 10
12.9407402801
 20
8.264978135
 30
0.0
 10
12.9378056165
 20
8.2714306316
 30
0.0
 10
12.9353872879
 20
8.2762427862
 30
0.0
 10
12.9335750758
 20
8.2796151211
 30
0.0
 10
12.931733634
 20
8.2828122052
 30
0.0
 10
12.9298637845
 20
8.2858325951
 30
0.0
 10
12.9279663203
 20
8.2886748825
 30
0.0
 10
12.9260421165
 20
8.2913377924
 30
0.0
 10
12.9240920002
 20
8.2938201074
 30
0.0
 10
12.9221167783
 20
8.2961206539
 30
0.0
 10
12.9201173011
 20
8.2982384167
 30
0.0
 10
12.9180944591
 20
8.3001723129
 30
0.0
 10
12.9160487247
 20
8.3019215796
 30
0.0
 10
12.9133407275
 20
8.3039698602
 30
0.0
 10
12.9112048055
 20
8.3052861729
 30
0.0
 10
12.9097508468
 20
8.3060363315
 30
0.0
  0
SPLINE
  5
35D
100
AcDbEntity
  8
0
100
AcDbSpline
 62
7
  6
CONTINUOUS
 70
0
 71
3
 72
21
 73
17
 74
0
 42
0.0000001
 43
0.0000001
 44
0.0000000001
 40
0.0
 40
0.0
 40
0.0
 40
0.0
 40
0.061653237
 40
0.123329498
 40
0.1850515502
 40
0.2468416698
 40
0.3087213548
 40
0.370711108
 40
0.4328302426
 40
0.495096636
 40
0.5575265765
 40
0.6201345494
 40
0.682933126
 40
0.7459332432
 40
0.8725261314
 40
1.0
 40
1.0
 40
1.0
 40
1.0
 10
12.4364935616
 20
6.6842747609
 30
0.0
 10
12.4349168548
 20
6.6827517687
 30
0.0
 10
12.4316802677
 20
6.6797893954
 30
0.0
 10
12.4265925628
 20
6.6756123791
 30
0.0
 10
12.4212839467
 20
6.6717114338
 30
0.0
 10
12.4157679588
 20
6.6680965761
 30
0.0
 10
12.4100584346
 20
6.6647768944
 30
0.0
 10
12.4041698055
 20
6.6617607079
 30
0.0
 10
12.3981168982
 20
6.6590556105
 30
0.0
 10
12.3919149529
 20
6.656668445
 30
0.0
 10
12.3855796036
 20
6.6546051597
 30
0.0
 10
12.3791268549
 20
6.6528709429
 30
0.0
 10
12.3725727583
 20
6.6514701777
 30
0.0
 10
12.3637084053
 20
6.6500496117
 30
0.0
 10
12.3524520837
 20
6.6491266757
 30
0.0
 10
12.3434026796
 20
6.6493032843
 30
0.0
 10
12.338881069
 20
6.649616859
 30
0.0
  0
SPLINE
  5
35E
100
AcDbEntity
  8
0
100
AcDbSpline
 62
7
  6
CONTINUOUS
 70
0
 71
3
 72
15
 73
11
 74
0
 42
0.0000001
 43
0.0000001
 44
0.0000000001
 40
0.0
 40
0.0
 40
0.0
 40
0.0
 40
0.1273482292
 40
0.2538605354
 40
0.3795879276
 40
0.5046050833
 40
0.6290174349
 40
0.7529533662
 40
0.8765605734
 40
1.0
 40
1.0
 40
1.0
 40
1.0
 10
10.1168565277
 20
7.7249865134
 30
0.0
 10
10.1168565277
 20
7.7277737313
 30
0.0
 10
10.1171226497
 20
7.7333337249
 30
0.0
 10
10.118326167
 20
7.741566781
 30
0.0
 10
10.1203218025
 20
7.749592971
 30
0.0
 10
10.1230915349
 20
7.7573372309
 30
0.0
 10
10.1266099338
 20
7.7647281474
 30
0.0
 10
10.1308449397
 20
7.7716974724
 30
0.0
 10
10.1357567321
 20
7.7781799021
 30
0.0
 10
10.1394550612
 20
7.7821397417
 30
0.0
 10
10.141398252
 20
7.7840167118
 30
0.0
  0
SPLINE
  5
35F
100
AcDbEntity
  8
0
100
AcDbSpline
 62
7
  6
CONTINUOUS
 70
0
 71
3
 72
23
 73
19
 74
0
 42
0.0000001
 43
0.0000001
 44
0.0000000001
 40
0.0
 40
0.0
 40
0.0
 40
0.0
 40
0.0577246198
 40
0.1173320982
 40
0.1785736765
 40
0.2411911447
 40
0.3049184956
 40
0.3694835237
 40
0.434609394
 40
0.5000161937
 40
0.5654224726
 40
0.6305467826
 40
0.6951092183
 40
0.7588329591
 40
0.8214458204
 40
0.8826818227
 40
0.9422827907
 40
1.0
 40
1.0
 40
1.0
 40
1.0
 10
12.8101898315
 20
7.6968475873
 30
0.0
 10
12.8119487367
 20
7.7047627953
 30
0.0
 10
12.8153396073
 20
7.7208928276
 30
0.0
 10
12.8199836846
 20
7.7455441525
 30
0.0
 10
12.824252645
 20
7.770960373
 30
0.0
 10
12.8281267483
 20
7.7970248269
 30
0.0
 10
12.8315881251
 20
7.8236180649
 30
0.0
 10
12.8346208156
 20
7.8506181242
 30
0.0
 10
12.8372108524
 20
7.8779011748
 30
0.0
 10
12.8393463202
 20
7.9053420712
 30
0.0
 10
12.8410174104
 20
7.9328149381
 30
0.0
 10
12.8422164689
 20
7.9601937514
 30
0.0
 10
12.8429380312
 20
7.9873529215
 30
0.0
 10
12.8431788464
 20
8.0141678804
 30
0.0
 10
12.8429378954
 20
8.0405156373
 30
0.0
 10
12.8422163961
 20
8.0662754295
 30
0.0
 10
12.8410178069
 20
8.091328998
 30
0.0
 10
12.8398847448
 20
8.1077706427
 30
0.0
 10
12.8392346756
 20
8.115851781
 30
0.0
  0
SPLINE
  5
360
100
AcDbEntity
  8
0
100
AcDbSpline
 62
7
  6
CONTINUOUS
 70
0
 71
3
 72
21
 73
17
 74
0
 42
0.0000001
 43
0.0000001
 44
0.0000000001
 40
0.0
 40
0.0
 40
0.0
 40
0.0
 40
0.061653237
 40
0.123329498
 40
0.1850515502
 40
0.2468416698
 40
0.3087213548
 40
0.370711108
 40
0.4328302426
 40
0.495096636
 40
0.5575265765
 40
0.6201345494
 40
0.682933126
 40
0.7459332432
 40
0.8725261314
 40
1.0
 40
1.0
 40
1.0
 40
1.0
 10
12.4364935616
 20
9.4236405622
 30
0.0
 10
12.4349168548
 20
9.42211757
 30
0.0
 10
12.4316802677
 20
9.4191551967
 30
0.0
 10
12.4265925628
 20
9.4149781804
 30
0.0
 10
12.4212839467
 20
9.4110772351
 30
0.0
 10
12.4157679588
 20
9.4074623774
 30
0.0
 10
12.4100584346
 20
9.4041426956
 30
0.0
 10
12.4041698055
 20
9.4011265092
 30
0.0
 10
12.3981168982
 20
9.3984214118
 30
0.0
 10
12.3919149529
 20
9.3960342463
 30
0.0
 10
12.3855796036
 20
9.393970961
 30
0.0
 10
12.3791268549
 20
9.3922367442
 30
0.0
 10
12.3725727583
 20
9.390835979
 30
0.0
 10
12.3637084053
 20
9.3894154129
 30
0.0
 10
12.3524520837
 20
9.388492477
 30
0.0
 10
12.3434026796
 20
9.3886690856
 30
0.0
 10
12.338881069
 20
9.3889826603
 30
0.0
  0
SPLINE
  5
361
100
AcDbEntity
  8
0
100
AcDbSpline
 62
7
  6
CONTINUOUS
 70
0
 71
3
 72
21
 73
17
 74
0
 42
0.0000001
 43
0.0000001
 44
0.0000000001
 40
0.0
 40
0.0
 40
0.0
 40
0.0
 40
0.061653237
 40
0.123329498
 40
0.1850515502
 40
0.2468416698
 40
0.3087213548
 40
0.370711108
 40
0.4328302426
 40
0.495096636
 40
0.5575265765
 40
0.6201345494
 40
0.682933126
 40
0.7459332432
 40
0.8725261314
 40
1.0
 40
1.0
 40
1.0
 40
1.0
 10
9.6971277603
 20
9.6136162258
 30
0.0
 10
9.6955510535
 20
9.6120932335
 30
0.0
 10
9.6923144664
 20
9.6091308603
 30
0.0
 10
9.6872267615
 20
9.604953844
 30
0.0
 10
9.6819181454
 20
9.6010528986
 30
0.0
 10
9.6764021575
 20
9.5974380409
 30
0.0
 10
9.6706926333
 20
9.5941183592
 30
0.0
 10
9.6648040042
 20
9.5911021727
 30
0.0
 10
9.6587510969
 20
9.5883970754
 30
0.0
 10
9.6525491517
 20
9.5860099099
 30
0.0
 10
9.6462138023
 20
9.5839466246
 30
0.0
 10
9.6397610536
 20
9.5822124077
 30
0.0
 10
9.633206957
 20
9.5808116426
 30
0.0
 10
9.624342604
 20
9.5793910765
 30
0.0
 10
9.6130862824
 20
9.5784681405
 30
0.0
 10
9.6040368783
 20
9.5786447491
 30
0.0
 10
9.5995152677
 20
9.5789583239
 30
0.0
  0
SPLINE
  5
362
100
AcDbEntity
  8
0
100
AcDbSpline
 62
7
  6
CONTINUOUS
 70
0
 71
3
 72
39
 73
35
 74
0
 42
0.0000001
 43
0.0000001
 44
0.0000000001
 40
0.0
 40
0.0
 40
0.0
 40
0.0
 40
0.0299424741
 40
0.0599093236
 40
0.0899243299
 40
0.1200101071
 40
0.1501875628
 40
0.1804754121
 40
0.2108897558
 40
0.2414437341
 40
0.2721472619
 40
0.3030068476
 40
0.3340255003
 40
0.3652027176
 40
0.3965345493
 40
0.4280137317
 40
0.459629888
 40
0.4913697842
 40
0.5232176352
 40
0.5551554541
 40
0.5871634377
 40
0.6192203778
 40
0.6513040905
 40
0.68339186
 40
0.715460889
 40
0.7474887514
 40
0.779453839
 40
0.8113357971
 40
0.8431159663
 40
0.8747776774
 40
0.9063069717
 40
0.937691796
 40
0.9689252179
 40
1.0
 40
1.0
 40
1.0
 40
1.0
 10
10.2671473882
 20
7.6538316341
 30
0.0
 10
10.2656460201
 20
7.6523814301
 30
0.0
 10
10.2625252392
 20
7.6495980485
 30
0.0
 10
10.2575252497
 20
7.6458061964
 30
0.0
 10
10.2522320141
 20
7.6424165257
 30
0.0
 10
10.2466751062
 20
7.639448053
 30
0.0
 10
10.2408850782
 20
7.6369169938
 30
0.0
 10
10.2348938838
 20
7.6348372615
 30
0.0
 10
10.2287345369
 20
7.6332202363
 30
0.0
 10
10.2224409703
 20
7.632074749
 30
0.0
 10
10.2160478352
 20
7.6314070264
 30
0.0
 10
10.2095903132
 20
7.6312206563
 30
0.0
 10
10.2031039196
 20
7.6315165764
 30
0.0
 10
10.1966243095
 20
7.6322930772
 30
0.0
 10
10.1901870836
 20
7.6335458147
 30
0.0
 10
10.1838275959
 20
7.635267837
 30
0.0
 10
10.1775807621
 20
7.6374496246
 30
0.0
 10
10.1714808712
 20
7.6400791442
 30
0.0
 10
10.165561401
 20
7.643141916
 30
0.0
 10
10.159854832
 20
7.6466210854
 30
0.0
 10
10.1543924736
 20
7.6504975223
 30
0.0
 10
10.1492042954
 20
7.6547499273
 30
0.0
 10
10.1443187651
 20
7.6593549473
 30
0.0
 10
10.1397626946
 20
7.6642873023
 30
0.0
 10
10.1355610945
 20
7.6695199228
 30
0.0
 10
10.1317370382
 20
7.6750240958
 30
0.0
 10
10.1283115381
 20
7.6807696211
 30
0.0
 10
10.1253034185
 20
7.686724971
 30
0.0
 10
10.1227292337
 20
7.6928574628
 30
0.0
 10
10.120603135
 20
7.6991334562
 30
0.0
 10
10.1189369017
 20
7.7055184496
 30
0.0
 10
10.1177396468
 20
7.7119775701
 30
0.0
 10
10.1170181535
 20
7.7184748072
 30
0.0
 10
10.1168565277
 20
7.7228201863
 30
0.0
 10
10.1168565277
 20
7.7249865134
 30
0.0
  0
SPLINE
  5
363
100
AcDbEntity
  8
0
100
AcDbSpline
 62
7
  6
CONTINUOUS
 70
0
 71
3
 72
39
 73
35
 74
0
 42
0.0000001
 43
0.0000001
 44
0.0000000001
 40
0.0
 40
0.0
 40
0.0
 40
0.0
 40
0.0299424741
 40
0.0599093236
 40
0.0899243299
 40
0.1200101071
 40
0.1501875628
 40
0.1804754121
 40
0.2108897558
 40
0.2414437341
 40
0.2721472619
 40
0.3030068476
 40
0.3340255003
 40
0.3652027176
 40
0.3965345493
 40
0.4280137317
 40
0.459629888
 40
0.4913697842
 40
0.5232176352
 40
0.5551554541
 40
0.5871634377
 40
0.6192203778
 40
0.6513040905
 40
0.68339186
 40
0.715460889
 40
0.7474887514
 40
0.779453839
 40
0.8113357971
 40
0.8431159663
 40
0.8747776774
 40
0.9063069717
 40
0.937691796
 40
0.9689252179
 40
1.0
 40
1.0
 40
1.0
 40
1.0
 10
10.2671473882
 20
8.8312952686
 30
0.0
 10
10.2656460201
 20
8.8298450646
 30
0.0
 10
10.2625252392
 20
8.827061683
 30
0.0
 10
10.2575252497
 20
8.8232698309
 30
0.0
 10
10.2522320141
 20
8.8198801602
 30
0.0
 10
10.2466751062
 20
8.8169116875
 30
0.0
 10
10.2408850782
 20
8.8143806283
 30
0.0
 10
10.2348938838
 20
8.812300896
 30
0.0
 10
10.2287345369
 20
8.8106838709
 30
0.0
 10
10.2224409703
 20
8.8095383835
 30
0.0
 10
10.2160478352
 20
8.808870661
 30
0.0
 10
10.2095903132
 20
8.8086842908
 30
0.0
 10
10.2031039196
 20
8.8089802109
 30
0.0
 10
10.1966243095
 20
8.8097567118
 30
0.0
 10
10.1901870836
 20
8.8110094493
 30
0.0
 10
10.1838275959
 20
8.8127314715
 30
0.0
 10
10.1775807621
 20
8.8149132591
 30
0.0
 10
10.1714808712
 20
8.8175427787
 30
0.0
 10
10.165561401
 20
8.8206055505
 30
0.0
 10
10.159854832
 20
8.8240847199
 30
0.0
 10
10.1543924736
 20
8.8279611568
 30
0.0
 10
10.1492042954
 20
8.8322135618
 30
0.0
 10
10.1443187651
 20
8.8368185818
 30
0.0
 10
10.1397626946
 20
8.8417509368
 30
0.0
 10
10.1355610945
 20
8.8469835573
 30
0.0
 10
10.1317370382
 20
8.8524877303
 30
0.0
 10
10.1283115381
 20
8.8582332556
 30
0.0
 10
10.1253034185
 20
8.8641886055
 30
0.0
 10
10.1227292337
 20
8.8703210973
 30
0.0
 10
10.120603135
 20
8.8765970907
 30
0.0
 10
10.1189369017
 20
8.8829820841
 30
0.0
 10
10.1177396468
 20
8.8894412046
 30
0.0
 10
10.1170181535
 20
8.8959384417
 30
0.0
 10
10.1168565277
 20
8.9002838208
 30
0.0
 10
10.1168565277
 20
8.9024501479
 30
0.0
  0
SPLINE
  5
364
100
AcDbEntity
  8
0
100
AcDbSpline
 62
7
  6
CONTINUOUS
 70
0
 71
3
 72
39
 73
35
 74
0
 42
0.0000001
 43
0.0000001
 44
0.0000000001
 40
0.0
 40
0.0
 40
0.0
 40
0.0
 40
0.0299424741
 40
0.0599093236
 40
0.0899243299
 40
0.1200101071
 40
0.1501875628
 40
0.1804754121
 40
0.2108897558
 40
0.2414437341
 40
0.2721472619
 40
0.3030068476
 40
0.3340255003
 40
0.3652027176
 40
0.3965345493
 40
0.4280137317
 40
0.459629888
 40
0.4913697842
 40
0.5232176352
 40
0.5551554541
 40
0.5871634377
 40
0.6192203778
 40
0.6513040905
 40
0.68339186
 40
0.715460889
 40
0.7474887514
 40
0.779453839
 40
0.8113357971
 40
0.8431159663
 40
0.8747776774
 40
0.9063069717
 40
0.937691796
 40
0.9689252179
 40
1.0
 40
1.0
 40
1.0
 40
1.0
 10
11.8068331715
 20
8.7554273878
 30
0.0
 10
11.8053318034
 20
8.7539771838
 30
0.0
 10
11.8022110225
 20
8.7511938022
 30
0.0
 10
11.797211033
 20
8.7474019501
 30
0.0
 10
11.7919177974
 20
8.7440122793
 30
0.0
 10
11.7863608894
 20
8.7410438067
 30
0.0
 10
11.7805708615
 20
8.7385127475
 30
0.0
 10
11.774579667
 20
8.7364330152
 30
0.0
 10
11.7684203201
 20
8.73481599
 30
0.0
 10
11.7621267536
 20
8.7336705027
 30
0.0
 10
11.7557336185
 20
8.7330027801
 30
0.0
 10
11.7492760965
 20
8.73281641
 30
0.0
 10
11.7427897029
 20
8.7331123301
 30
0.0
 10
11.7363100927
 20
8.7338888309
 30
0.0
 10
11.7298728669
 20
8.7351415684
 30
0.0
 10
11.7235133791
 20
8.7368635907
 30
0.0
 10
11.7172665453
 20
8.7390453783
 30
0.0
 10
11.7111666545
 20
8.7416748979
 30
0.0
 10
11.7052471843
 20
8.7447376697
 30
0.0
 10
11.6995406153
 20
8.7482168391
 30
0.0
 10
11.6940782568
 20
8.752093276
 30
0.0
 10
11.6888900786
 20
8.756345681
 30
0.0
 10
11.6840045484
 20
8.7609507009
 30
0.0
 10
11.6794484779
 20
8.765883056
 30
0.0
 10
11.6752468778
 20
8.7711156765
 30
0.0
 10
11.6714228214
 20
8.7766198495
 30
0.0
 10
11.6679973214
 20
8.7823653747
 30
0.0
 10
11.6649892017
 20
8.7883207247
 30
0.0
 10
11.662415017
 20
8.7944532165
 30
0.0
 10
11.6602889183
 20
8.8007292099
 30
0.0
 10
11.6586226849
 20
8.8071142032
 30
0.0
 10
11.6574254301
 20
8.8135733238
 30
0.0
 10
11.6567039368
 20
8.8200705609
 30
0.0
 10
11.6565423109
 20
8.82441594
 30
0.0
 10
11.6565423109
 20
8.8265822671
 30
0.0
  0
SPLINE
  5
365
100
AcDbEntity
  8
0
100
AcDbSpline
 62
7
  6
CONTINUOUS
 70
0
 71
3
 72
36
 73
32
 74
0
 42
0.0000001
 43
0.0000001
 44
0.0000000001
 40
0.0
 40
0.0
 40
0.0
 40
0.0
 40
0.0154241116
 40
0.0308027927
 40
0.0461357066
 40
0.0614280043
 40
0.0766844158
 40
0.0919090669
 40
0.1071069492
 40
0.1222830176
 40
0.1525804379
 40
0.1828492138
 40
0.213123921
 40
0.2434341956
 40
0.2738042846
 40
0.3042532039
 40
0.3347952692
 40
0.3654407891
 40
0.3961967699
 40
0.4270675447
 40
0.4891351505
 40
0.5203571783
 40
0.5516943849
 40
0.6146836021
 40
0.6780972364
 40
0.7418999101
 40
0.8060486815
 40
0.8704912827
 40
0.902813463
 40
0.9351838881
 40
1.0
 40
1.0
 40
1.0
 40
1.0
 10
11.5112379171
 20
8.180552928
 30
0.0
 10
11.5109035693
 20
8.1790031327
 30
0.0
 10
11.5101548663
 20
8.175924932
 30
0.0
 10
11.5087932436
 20
8.1713801317
 30
0.0
 10
11.5071989098
 20
8.1669258992
 30
0.0
 10
11.5053777297
 20
8.1625731938
 30
0.0
 10
11.5033365505
 20
8.1583315776
 30
0.0
 10
11.5010828522
 20
8.1542100996
 30
0.0
 10
11.498625204
 20
8.1502165208
 30
0.0
 10
11.4950911095
 20
8.1450754496
 30
0.0
 10
11.4902062289
 20
8.1389955541
 30
0.0
 10
11.4836797618
 20
8.132299078
 30
0.0
 10
11.4765699855
 20
8.1262247096
 30
0.0
 10
11.4689542008
 20
8.1207826774
 30
0.0
 10
11.460904334
 20
8.1159733183
 30
0.0
 10
11.4524864059
 20
8.1117904619
 30
0.0
 10
11.4437600274
 20
8.1082233281
 30
0.0
 10
11.4347788153
 20
8.1052583343
 30
0.0
 10
11.4255900752
 20
8.1028802882
 30
0.0
 10
11.4131000415
 20
8.1004674918
 30
0.0
 10
11.4003698489
 20
8.0991729574
 30
0.0
 10
11.3875572759
 20
8.0989285877
 30
0.0
 10
11.3746541271
 20
8.0993687253
 30
0.0
 10
11.3585111224
 20
8.1011786981
 30
0.0
 10
11.3393616934
 20
8.1052681373
 30
0.0
 10
11.3205800028
 20
8.1112159993
 30
0.0
 10
11.302356552
 20
8.1189735858
 30
0.0
 10
11.2878120179
 20
8.1269112176
 30
0.0
 10
11.2766672601
 20
8.1341314794
 30
0.0
 10
11.2658790976
 20
8.1419376049
 30
0.0
 10
11.2582566091
 20
8.1484356181
 30
0.0
 10
11.2534405718
 20
8.1530393505
 30
0.0
  0
SPLINE
  5
366
100
AcDbEntity
  8
0
100
AcDbSpline
 62
7
  6
CONTINUOUS
 70
0
 71
3
 72
39
 73
35
 74
0
 42
0.0000001
 43
0.0000001
 44
0.0000000001
 40
0.0
 40
0.0
 40
0.0
 40
0.0
 40
0.0299424741
 40
0.0599093236
 40
0.0899243299
 40
0.1200101071
 40
0.1501875628
 40
0.1804754121
 40
0.2108897558
 40
0.2414437341
 40
0.2721472619
 40
0.3030068476
 40
0.3340255003
 40
0.3652027176
 40
0.3965345493
 40
0.4280137317
 40
0.459629888
 40
0.4913697842
 40
0.5232176352
 40
0.5551554541
 40
0.5871634377
 40
0.6192203778
 40
0.6513040905
 40
0.68339186
 40
0.715460889
 40
0.7474887514
 40
0.779453839
 40
0.8113357971
 40
0.8431159663
 40
0.8747776774
 40
0.9063069717
 40
0.937691796
 40
0.9689252179
 40
1.0
 40
1.0
 40
1.0
 40
1.0
 10
11.8068331715
 20
7.5171103425
 30
0.0
 10
11.8053318034
 20
7.5156601385
 30
0.0
 10
11.8022110225
 20
7.5128767569
 30
0.0
 10
11.797211033
 20
7.5090849048
 30
0.0
 10
11.7919177974
 20
7.505695234
 30
0.0
 10
11.7863608894
 20
7.5027267614
 30
0.0
 10
11.7805708615
 20
7.5001957022
 30
0.0
 10
11.774579667
 20
7.4981159699
 30
0.0
 10
11.7684203201
 20
7.4964989447
 30
0.0
 10
11.7621267536
 20
7.4953534574
 30
0.0
 10
11.7557336185
 20
7.4946857348
 30
0.0
 10
11.7492760965
 20
7.4944993647
 30
0.0
 10
11.7427897029
 20
7.4947952848
 30
0.0
 10
11.7363100927
 20
7.4955717856
 30
0.0
 10
11.7298728669
 20
7.4968245231
 30
0.0
 10
11.7235133791
 20
7.4985465454
 30
0.0
 10
11.7172665453
 20
7.500728333
 30
0.0
 10
11.7111666545
 20
7.5033578526
 30
0.0
 10
11.7052471843
 20
7.5064206244
 30
0.0
 10
11.6995406153
 20
7.5098997938
 30
0.0
 10
11.6940782568
 20
7.5137762306
 30
0.0
 10
11.6888900786
 20
7.5180286356
 30
0.0
 10
11.6840045484
 20
7.5226336556
 30
0.0
 10
11.6794484779
 20
7.5275660107
 30
0.0
 10
11.6752468778
 20
7.5327986311
 30
0.0
 10
11.6714228214
 20
7.5383028042
 30
0.0
 10
11.6679973214
 20
7.5440483294
 30
0.0
 10
11.6649892017
 20
7.5500036794
 30
0.0
 10
11.662415017
 20
7.5561361712
 30
0.0
 10
11.6602889183
 20
7.5624121646
 30
0.0
 10
11.6586226849
 20
7.5687971579
 30
0.0
 10
11.6574254301
 20
7.5752562785
 30
0.0
 10
11.6567039368
 20
7.5817535155
 30
0.0
 10
11.6565423109
 20
7.5860988946
 30
0.0
 10
11.6565423109
 20
7.5882652218
 30
0.0
  0
SPLINE
  5
367
100
AcDbEntity
  8
0
100
AcDbSpline
 62
7
  6
CONTINUOUS
 70
0
 71
3
 72
15
 73
11
 74
0
 42
0.0000001
 43
0.0000001
 44
0.0000000001
 40
0.0
 40
0.0
 40
0.0
 40
0.0
 40
0.1233171148
 40
0.2468171822
 40
0.3706750007
 40
0.4950496181
 40
0.6200773069
 40
0.7458672043
 40
0.8724928123
 40
1.0
 40
1.0
 40
1.0
 40
1.0
 10
11.5063508005
 20
7.5412456841
 30
0.0
 10
11.5046004779
 20
7.5395550215
 30
0.0
 10
11.5009119619
 20
7.5363571714
 30
0.0
 10
11.4948919904
 20
7.5321784252
 30
0.0
 10
11.4884413861
 20
7.5286558185
 30
0.0
 10
11.4816261985
 20
7.5258255272
 30
0.0
 10
11.4745151637
 20
7.5237156482
 30
0.0
 10
11.4671799096
 20
7.5223472969
 30
0.0
 10
11.4596953126
 20
7.5217337753
 30
0.0
 10
11.454671291
 20
7.5218317755
 30
0.0
 10
11.4521611245
 20
7.5220058562
 30
0.0
  0
SPLINE
  5
368
100
AcDbEntity
  8
0
100
AcDbSpline
 62
7
  6
CONTINUOUS
 70
0
 71
3
 72
41
 73
37
 74
0
 42
0.0000001
 43
0.0000001
 44
0.0000000001
 40
0.0
 40
0.0
 40
0.0
 40
0.0
 40
0.0301994645
 40
0.060325634
 40
0.090408017
 40
0.1204773119
 40
0.150564451
 40
0.180699651
 40
0.2109115105
 40
0.2412261865
 40
0.2716666768
 40
0.3022522247
 40
0.3329978596
 40
0.3639140738
 40
0.3950066355
 40
0.4262765307
 40
0.4577200244
 40
0.4893288305
 40
0.5210903797
 40
0.5529881747
 40
0.5850022229
 40
0.6171095381
 40
0.6492847022
 40
0.6815004799
 40
0.7137284784
 40
0.7298410923
 40
0.7459459497
 40
0.7781120826
 40
0.8102053805
 40
0.8421999612
 40
0.8740723959
 40
0.9058023189
 40
0.9373732917
 40
0.9530981088
 40
0.9687793057
 40
1.0
 40
1.0
 40
1.0
 40
1.0
 10
11.1225515171
 20
7.7760920023
 30
0.0
 10
11.1209950338
 20
7.7732255357
 30
0.0
 10
11.1176300532
 20
7.767634171
 30
0.0
 10
11.1118624752
 20
7.7597393604
 30
0.0
 10
11.1054222459
 20
7.7524006129
 30
0.0
 10
11.0983559692
 20
7.7456690028
 30
0.0
 10
11.090713803
 20
7.7395899268
 30
0.0
 10
11.0825497832
 20
7.7342042785
 30
0.0
 10
11.0739211776
 20
7.7295478635
 30
0.0
 10
11.0648880968
 20
7.7256513486
 30
0.0
 10
11.0555130417
 20
7.7225401243
 30
0.0
 10
11.0458604809
 20
7.7202342369
 30
0.0
 10
11.0359964334
 20
7.7187483432
 30
0.0
 10
11.0259880672
 20
7.7180916936
 30
0.0
 10
11.0159033087
 20
7.718268132
 30
0.0
 10
11.0058104616
 20
7.7192761111
 30
0.0
 10
10.9957778315
 20
7.7211087212
 30
0.0
 10
10.9858733529
 20
7.723753731
 30
0.0
 10
10.9761642141
 20
7.7271936424
 30
0.0
 10
10.9667164804
 20
7.731405756
 30
0.0
 10
10.9575947008
 20
7.7363622673
 30
0.0
 10
10.9488615429
 20
7.7420303392
 30
0.0
 10
10.9405772822
 20
7.7483723668
 30
0.0
 10
10.9327998001
 20
7.7553456539
 30
0.0
 10
10.9267847217
 20
7.761645452
 30
0.0
 10
10.9222784551
 20
7.7669525424
 30
0.0
 10
10.9179862638
 20
7.7724257182
 30
0.0
 10
10.9130329019
 20
7.7795653035
 30
0.0
 10
10.9077891523
 20
7.7885543541
 30
0.0
 10
10.903284732
 20
7.7979009888
 30
0.0
 10
10.8995526612
 20
7.8075400522
 30
0.0
 10
10.8966202669
 20
7.81740385
 30
0.0
 10
10.8948584969
 20
7.8257660301
 30
0.0
 10
10.893869427
 20
7.8324975435
 30
0.0
 10
10.8931634024
 20
7.8392261571
 30
0.0
 10
10.8929492708
 20
7.844295209
 30
0.0
 10
10.8929492708
 20
7.8476672998
 30
0.0
  0
SPLINE
  5
369
100
AcDbEntity
  8
0
100
AcDbSpline
 62
7
  6
CONTINUOUS
 70
0
 71
3
 72
15
 73
11
 74
0
 42
0.0000001
 43
0.0000001
 44
0.0000000001
 40
0.0
 40
0.0
 40
0.0
 40
0.0
 40
0.1273482292
 40
0.2538605354
 40
0.3795879276
 40
0.5046050833
 40
0.6290174349
 40
0.7529533662
 40
0.8765605734
 40
1.0
 40
1.0
 40
1.0
 40
1.0
 10
10.1168565277
 20
8.9024501479
 30
0.0
 10
10.1168565277
 20
8.9052373658
 30
0.0
 10
10.1171226497
 20
8.9107973594
 30
0.0
 10
10.118326167
 20
8.9190304155
 30
0.0
 10
10.1203218025
 20
8.9270566055
 30
0.0
 10
10.1230915349
 20
8.9348008654
 30
0.0
 10
10.1266099338
 20
8.9421917819
 30
0.0
 10
10.1308449397
 20
8.9491611069
 30
0.0
 10
10.1357567321
 20
8.9556435366
 30
0.0
 10
10.1394550612
 20
8.9596033762
 30
0.0
 10
10.141398252
 20
8.9614803463
 30
0.0
  0
SPLINE
  5
36A
100
AcDbEntity
  8
0
100
AcDbSpline
 62
7
  6
CONTINUOUS
 70
0
 71
3
 72
15
 73
11
 74
0
 42
0.0000001
 43
0.0000001
 44
0.0000000001
 40
0.0
 40
0.0
 40
0.0
 40
0.0
 40
0.1266942186
 40
0.2528683863
 40
0.3785207934
 40
0.5036798465
 40
0.6283694337
 40
0.7526243882
 40
0.8764856304
 40
1.0
 40
1.0
 40
1.0
 40
1.0
 10
10.8929492708
 20
7.8476672998
 30
0.0
 10
10.8929492708
 20
7.8500731305
 30
0.0
 10
10.8930939835
 20
7.8548762111
 30
0.0
 10
10.8937474192
 20
7.8620385628
 30
0.0
 10
10.8948345045
 20
7.8691188607
 30
0.0
 10
10.8963509729
 20
7.876090903
 30
0.0
 10
10.8982912287
 20
7.882929553
 30
0.0
 10
10.9006479718
 20
7.8896100731
 30
0.0
 10
10.9034121632
 20
7.8961080353
 30
0.0
 10
10.9055227622
 20
7.9003088512
 30
0.0
 10
10.9066419791
 20
7.9023700349
 30
0.0
  0
SPLINE
  5
36B
100
AcDbEntity
  8
0
100
AcDbSpline
 62
7
  6
CONTINUOUS
 70
0
 71
3
 72
41
 73
37
 74
0
 42
0.0000001
 43
0.0000001
 44
0.0000000001
 40
0.0
 40
0.0
 40
0.0
 40
0.0
 40
0.0311444983
 40
0.062442467
 40
0.093887251
 40
0.1254695609
 40
0.157177086
 40
0.1889950997
 40
0.2209066479
 40
0.2528929497
 40
0.284933762
 40
0.3170077852
 40
0.3490930781
 40
0.3811674822
 40
0.4132090489
 40
0.445196464
 40
0.4771094635
 40
0.5089292351
 40
0.540638799
 40
0.5722233621
 40
0.6036706378
 40
0.6349711269
 40
0.6661183495
 40
0.6971090237
 40
0.7279431823
 40
0.7586242225
 40
0.7891588828
 40
0.8195571428
 40
0.8498320452
 40
0.86493089
 40
0.8800050502
 40
0.9100832578
 40
0.9400926753
 40
0.9550812784
 40
0.9700610371
 40
1.0
 40
1.0
 40
1.0
 40
1.0
 10
9.5995152677
 20
6.8395925226
 30
0.0
 10
9.5962013201
 20
6.8398223457
 30
0.0
 10
9.5895714521
 20
6.8405256984
 30
0.0
 10
9.5797070353
 20
6.8422974295
 30
0.0
 10
9.5699482608
 20
6.8447791327
 30
0.0
 10
9.5603478672
 20
6.8479574078
 30
0.0
 10
9.5509568324
 20
6.8518152542
 30
0.0
 10
9.5418252574
 20
6.85633202
 30
0.0
 10
9.5330017862
 20
6.861483574
 30
0.0
 10
9.5245334352
 20
6.8672424082
 30
0.0
 10
9.5164653235
 20
6.8735777947
 30
0.0
 10
9.5088404411
 20
6.8804559441
 30
0.0
 10
9.5016994209
 20
6.8878401859
 30
0.0
 10
9.4950803249
 20
6.8956911616
 30
0.0
 10
9.4890184429
 20
6.9039670327
 30
0.0
 10
9.4835461063
 20
6.9126237013
 30
0.0
 10
9.4786925173
 20
6.9216150423
 30
0.0
 10
9.4744835936
 20
6.9308931465
 30
0.0
 10
9.4709418314
 20
6.9404085729
 30
0.0
 10
9.4680861846
 20
6.9501106082
 30
0.0
 10
9.4659319636
 20
6.959947534
 30
0.0
 10
9.4644907518
 20
6.9698668987
 30
0.0
 10
9.4637703413
 20
6.9798157934
 30
0.0
 10
9.4637746872
 20
6.9897411289
 30
0.0
 10
9.4645038867
 20
6.9995899254
 30
0.0
 10
9.4659541539
 20
7.0093095556
 30
0.0
 10
9.4681179065
 20
7.0188481659
 30
0.0
 10
9.4709835305
 20
7.0281544285
 30
0.0
 10
9.4739470806
 20
7.0356826514
 30
0.0
 10
9.4766514638
 20
7.0415370179
 30
0.0
 10
9.4795700359
 20
7.0472640843
 30
0.0
 10
9.4836222952
 20
7.0541912814
 30
0.0
 10
9.4881957556
 20
7.060774961
 30
0.0
 10
9.4921478934
 20
7.0658073701
 30
0.0
 10
9.496288574
 20
7.0706755149
 30
0.0
 10
9.4996059702
 20
7.0741412356
 30
0.0
 10
9.5019027751
 20
7.076359794
 30
0.0
  0
SPLINE
  5
36C
100
AcDbEntity
  8
0
100
AcDbSpline
 62
7
  6
CONTINUOUS
 70
0
 71
3
 72
28
 73
24
 74
0
 42
0.0000001
 43
0.0000001
 44
0.0000000001
 40
0.0
 40
0.0
 40
0.0
 40
0.0
 40
0.0620666828
 40
0.1239836008
 40
0.1857782655
 40
0.2474825182
 40
0.309133358
 40
0.3707738196
 40
0.4324537848
 40
0.4942305208
 40
0.5561686262
 40
0.618338958
 40
0.6808160297
 40
0.7122039862
 40
0.7436960242
 40
0.7753000223
 40
0.807022682
 40
0.838868888
 40
0.8708422265
 40
0.9029441585
 40
0.9351729102
 40
0.9675283054
 40
1.0
 40
1.0
 40
1.0
 40
1.0
 10
10.7736800741
 20
8.2022603517
 30
0.0
 10
10.7720934261
 20
8.1988880832
 30
0.0
 10
10.7687080057
 20
8.1922507153
 30
0.0
 10
10.762995146
 20
8.1826601022
 30
0.0
 10
10.756658648
 20
8.1734947804
 30
0.0
 10
10.749704317
 20
8.164808653
 30
0.0
 10
10.7421388738
 20
8.1566606656
 30
0.0
 10
10.7339716835
 20
8.1491165714
 30
0.0
 10
10.725216367
 20
8.1422494599
 30
0.0
 10
10.7158932282
 20
8.1361402933
 30
0.0
 10
10.7060318357
 20
8.1308776998
 30
0.0
 10
10.6956759603
 20
8.1265570618
 30
0.0
 10
10.6866940464
 20
8.1238274849
 30
0.0
 10
10.6793391042
 20
8.1222121957
 30
0.0
 10
10.6737374498
 20
8.1212944515
 30
0.0
 10
10.6680738948
 20
8.1206835118
 30
0.0
 10
10.6623636516
 20
8.1203891041
 30
0.0
 10
10.6566236407
 20
8.1204194894
 30
0.0
 10
10.6508720511
 20
8.1207812544
 30
0.0
 10
10.6451283052
 20
8.1214790115
 30
0.0
 10
10.6394124095
 20
8.1225149211
 30
0.0
 10
10.6337455244
 20
8.123888694
 30
0.0
 10
10.6300199963
 20
8.1250259552
 30
0.0
 10
10.6281724553
 20
8.1256491297
 30
0.0
  0
SPLINE
  5
36D
100
AcDbEntity
  8
0
100
AcDbSpline
 62
7
  6
CONTINUOUS
 70
0
 71
3
 72
41
 73
37
 74
0
 42
0.0000001
 43
0.0000001
 44
0.0000000001
 40
0.0
 40
0.0
 40
0.0
 40
0.0
 40
0.0311444983
 40
0.062442467
 40
0.093887251
 40
0.1254695609
 40
0.157177086
 40
0.1889950997
 40
0.2209066479
 40
0.2528929497
 40
0.284933762
 40
0.3170077852
 40
0.3490930781
 40
0.3811674822
 40
0.4132090489
 40
0.445196464
 40
0.4771094635
 40
0.5089292351
 40
0.540638799
 40
0.5722233621
 40
0.6036706378
 40
0.6349711269
 40
0.6661183495
 40
0.6971090237
 40
0.7279431823
 40
0.7586242225
 40
0.7891588828
 40
0.8195571428
 40
0.8498320452
 40
0.86493089
 40
0.8800050502
 40
0.9100832578
 40
0.9400926753
 40
0.9550812784
 40
0.9700610371
 40
1.0
 40
1.0
 40
1.0
 40
1.0
 10
12.338881069
 20
6.649616859
 30
0.0
 10
12.3355671214
 20
6.6498466821
 30
0.0
 10
12.3289372534
 20
6.6505500349
 30
0.0
 10
12.3190728366
 20
6.6523217659
 30
0.0
 10
12.3093140621
 20
6.6548034692
 30
0.0
 10
12.2997136685
 20
6.6579817442
 30
0.0
 10
12.2903226337
 20
6.6618395906
 30
0.0
 10
12.2811910587
 20
6.6663563564
 30
0.0
 10
12.2723675875
 20
6.6715079104
 30
0.0
 10
12.2638992365
 20
6.6772667447
 30
0.0
 10
12.2558311248
 20
6.6836021312
 30
0.0
 10
12.2482062424
 20
6.6904802806
 30
0.0
 10
12.2410652222
 20
6.6978645223
 30
0.0
 10
12.2344461262
 20
6.705715498
 30
0.0
 10
12.2283842442
 20
6.7139913692
 30
0.0
 10
12.2229119076
 20
6.7226480377
 30
0.0
 10
12.2180583186
 20
6.7316393787
 30
0.0
 10
12.2138493949
 20
6.740917483
 30
0.0
 10
12.2103076326
 20
6.7504329093
 30
0.0
 10
12.2074519859
 20
6.7601349446
 30
0.0
 10
12.2052977649
 20
6.7699718705
 30
0.0
 10
12.2038565531
 20
6.7798912351
 30
0.0
 10
12.2031361426
 20
6.7898401299
 30
0.0
 10
12.2031404885
 20
6.7997654653
 30
0.0
 10
12.203869688
 20
6.8096142619
 30
0.0
 10
12.2053199552
 20
6.8193338921
 30
0.0
 10
12.2074837078
 20
6.8288725023
 30
0.0
 10
12.2103493318
 20
6.838178765
 30
0.0
 10
12.2133128819
 20
6.8457069878
 30
0.0
 10
12.2160172651
 20
6.8515613543
 30
0.0
 10
12.2189358372
 20
6.8572884208
 30
0.0
 10
12.2229880965
 20
6.8642156178
 30
0.0
 10
12.2275615569
 20
6.8707992974
 30
0.0
 10
12.2315136947
 20
6.8758317065
 30
0.0
 10
12.2356543753
 20
6.8806998513
 30
0.0
 10
12.2389717715
 20
6.884165572
 30
0.0
 10
12.2412685764
 20
6.8863841304
 30
0.0
  0
SPLINE
  5
36E
100
AcDbEntity
  8
0
100
AcDbSpline
 62
7
  6
CONTINUOUS
 70
0
 71
3
 72
23
 73
19
 74
0
 42
0.0000001
 43
0.0000001
 44
0.0000000001
 40
0.0
 40
0.0
 40
0.0
 40
0.0
 40
0.1269164852
 40
0.1903656552
 40
0.2537656238
 40
0.3802603629
 40
0.4433434262
 40
0.5062579433
 40
0.5689703002
 40
0.6314472929
 40
0.6936575636
 40
0.724658973
 40
0.7555837693
 40
0.8171830135
 40
0.8784511366
 40
0.9089648393
 40
0.939396673
 40
1.0
 40
1.0
 40
1.0
 40
1.0
 10
11.4692874155
 20
8.2925674501
 30
0.0
 10
11.4731073432
 20
8.2889159159
 30
0.0
 10
11.4785942776
 20
8.283174665
 30
0.0
 10
11.485321797
 20
8.2750225234
 30
0.0
 10
11.4916189035
 20
8.2665554642
 30
0.0
 10
11.497232808
 20
8.2576127958
 30
0.0
 10
11.5020360912
 20
8.2482555754
 30
0.0
 10
11.5051989937
 20
8.2410572322
 30
0.0
 10
11.5078927534
 20
8.233697119
 30
0.0
 10
11.5100862291
 20
8.2262029064
 30
0.0
 10
11.5114741101
 20
8.2198647133
 30
0.0
 10
11.5123048094
 20
8.214762163
 30
0.0
 10
11.5129440613
 20
8.2096577562
 30
0.0
 10
11.5133820816
 20
8.2032626795
 30
0.0
 10
11.5133226303
 20
8.196869513
 30
0.0
 10
11.5129700312
 20
8.191791811
 30
0.0
 10
11.5124157515
 20
8.1867603178
 30
0.0
 10
11.5117700559
 20
8.1830195403
 30
0.0
 10
11.5112379171
 20
8.180552928
 30
0.0
  0
SPLINE
  5
36F
100
AcDbEntity
  8
0
100
AcDbSpline
 62
7
  6
CONTINUOUS
 70
0
 71
3
 72
15
 73
11
 74
0
 42
0.0000001
 43
0.0000001
 44
0.0000000001
 40
0.0
 40
0.0
 40
0.0
 40
0.0
 40
0.1273482292
 40
0.2538605354
 40
0.3795879276
 40
0.5046050833
 40
0.6290174349
 40
0.7529533662
 40
0.8765605734
 40
1.0
 40
1.0
 40
1.0
 40
1.0
 10
11.6565423109
 20
8.8265822671
 30
0.0
 10
11.6565423109
 20
8.829369485
 30
0.0
 10
11.656808433
 20
8.8349294785
 30
0.0
 10
11.6580119502
 20
8.8431625347
 30
0.0
 10
11.6600075858
 20
8.8511887247
 30
0.0
 10
11.6627773181
 20
8.8589329846
 30
0.0
 10
11.6662957171
 20
8.866323901
 30
0.0
 10
11.6705307229
 20
8.8732932261
 30
0.0
 10
11.6754425154
 20
8.8797756558
 30
0.0
 10
11.6791408445
 20
8.8837354954
 30
0.0
 10
11.6810840353
 20
8.8856124655
 30
0.0
  0
SPLINE
  5
370
100
AcDbEntity
  8
0
100
AcDbSpline
 62
7
  6
CONTINUOUS
 70
0
 71
3
 72
39
 73
35
 74
0
 42
0.0000001
 43
0.0000001
 44
0.0000000001
 40
0.0
 40
0.0
 40
0.0
 40
0.0
 40
0.0311160054
 40
0.0620232808
 40
0.0927351539
 40
0.1232711756
 40
0.1536587326
 40
0.1839312105
 40
0.2141268386
 40
0.2442870981
 40
0.2744549747
 40
0.3046731306
 40
0.33498209
 40
0.365418544
 40
0.3960138629
 40
0.4267928807
 40
0.457772997
 40
0.4889636213
 40
0.5203659688
 40
0.551973177
 40
0.5837707173
 40
0.6157370643
 40
0.6478445906
 40
0.6800606397
 40
0.7123487305
 40
0.7446698622
 40
0.7769838838
 40
0.8092508928
 40
0.841432625
 40
0.8734938027
 40
0.9054033951
 40
0.9371359477
 40
0.9686717614
 40
1.0
 40
1.0
 40
1.0
 40
1.0
 10
11.6332721613
 20
8.8231050273
 30
0.0
 10
11.6332721613
 20
8.826553186
 30
0.0
 10
11.6336087881
 20
8.8334313618
 30
0.0
 10
11.6351312247
 20
8.8436111153
 30
0.0
 10
11.6376550531
 20
8.853524944
 30
0.0
 10
11.6411564157
 20
8.8630758684
 30
0.0
 10
11.6456018078
 20
8.8721718393
 30
0.0
 10
11.6509485653
 20
8.8807247302
 30
0.0
 10
11.6571451559
 20
8.8886517399
 30
0.0
 10
11.6641317342
 20
8.8958760832
 30
0.0
 10
11.6718407164
 20
8.9023278208
 30
0.0
 10
11.6801974676
 20
8.9079445556
 30
0.0
 10
11.6891210377
 20
8.9126721051
 30
0.0
 10
11.6985250228
 20
8.916465001
 30
0.0
 10
11.7083184472
 20
8.9192869056
 30
0.0
 10
11.7184066752
 20
8.9211109306
 30
0.0
 10
11.7286923404
 20
8.921919875
 30
0.0
 10
11.7390762984
 20
8.9217063759
 30
0.0
 10
11.7494585859
 20
8.9204728936
 30
0.0
 10
11.7597393643
 20
8.9182316635
 30
0.0
 10
11.769819854
 20
8.915004545
 30
0.0
 10
11.7796032724
 20
8.9108228383
 30
0.0
 10
11.7889957407
 20
8.9057269471
 30
0.0
 10
11.7979071528
 20
8.899765972
 30
0.0
 10
11.8062520179
 20
8.8929972457
 30
0.0
 10
11.8139502632
 20
8.8854857961
 30
0.0
 10
11.820928016
 20
8.8773037566
 30
0.0
 10
11.8271182694
 20
8.8685296454
 30
0.0
 10
11.8324615177
 20
8.8592476454
 30
0.0
 10
11.8369063044
 20
8.8495467705
 30
0.0
 10
11.8404097731
 20
8.8395201948
 30
0.0
 10
11.8429379808
 20
8.829263843
 30
0.0
 10
11.8444664358
 20
8.8188774994
 30
0.0
 10
11.8448099298
 20
8.8119065108
 30
0.0
 10
11.8448099298
 20
8.8084348333
 30
0.0
  0
SPLINE
  5
371
100
AcDbEntity
  8
0
100
AcDbSpline
 62
7
  6
CONTINUOUS
 70
0
 71
3
 72
41
 73
37
 74
0
 42
0.0000001
 43
0.0000001
 44
0.0000000001
 40
0.0
 40
0.0
 40
0.0
 40
0.0
 40
0.0311444983
 40
0.062442467
 40
0.093887251
 40
0.1254695609
 40
0.157177086
 40
0.1889950997
 40
0.2209066479
 40
0.2528929497
 40
0.284933762
 40
0.3170077852
 40
0.3490930781
 40
0.3811674822
 40
0.4132090489
 40
0.445196464
 40
0.4771094635
 40
0.5089292351
 40
0.540638799
 40
0.5722233621
 40
0.6036706378
 40
0.6349711269
 40
0.6661183495
 40
0.6971090237
 40
0.7279431823
 40
0.7586242225
 40
0.7891588828
 40
0.8195571428
 40
0.8498320452
 40
0.86493089
 40
0.8800050502
 40
0.9100832578
 40
0.9400926753
 40
0.9550812784
 40
0.9700610371
 40
1.0
 40
1.0
 40
1.0
 40
1.0
 10
9.5995152677
 20
9.5789583239
 30
0.0
 10
9.5962013201
 20
9.5791881469
 30
0.0
 10
9.5895714521
 20
9.5798914997
 30
0.0
 10
9.5797070353
 20
9.5816632308
 30
0.0
 10
9.5699482608
 20
9.584144934
 30
0.0
 10
9.5603478672
 20
9.5873232091
 30
0.0
 10
9.5509568324
 20
9.5911810555
 30
0.0
 10
9.5418252574
 20
9.5956978213
 30
0.0
 10
9.5330017862
 20
9.6008493753
 30
0.0
 10
9.5245334352
 20
9.6066082095
 30
0.0
 10
9.5164653235
 20
9.612943596
 30
0.0
 10
9.5088404411
 20
9.6198217454
 30
0.0
 10
9.5016994209
 20
9.6272059872
 30
0.0
 10
9.4950803249
 20
9.6350569629
 30
0.0
 10
9.4890184429
 20
9.643332834
 30
0.0
 10
9.4835461063
 20
9.6519895026
 30
0.0
 10
9.4786925173
 20
9.6609808436
 30
0.0
 10
9.4744835936
 20
9.6702589478
 30
0.0
 10
9.4709418314
 20
9.6797743742
 30
0.0
 10
9.4680861846
 20
9.6894764095
 30
0.0
 10
9.4659319636
 20
9.6993133353
 30
0.0
 10
9.4644907518
 20
9.7092327
 30
0.0
 10
9.4637703413
 20
9.7191815947
 30
0.0
 10
9.4637746872
 20
9.7291069302
 30
0.0
 10
9.4645038867
 20
9.7389557267
 30
0.0
 10
9.4659541539
 20
9.7486753569
 30
0.0
 10
9.4681179065
 20
9.7582139672
 30
0.0
 10
9.4709835305
 20
9.7675202298
 30
0.0
 10
9.4739470806
 20
9.7750484527
 30
0.0
 10
9.4766514638
 20
9.7809028192
 30
0.0
 10
9.4795700359
 20
9.7866298856
 30
0.0
 10
9.4836222952
 20
9.7935570827
 30
0.0
 10
9.4881957556
 20
9.8001407623
 30
0.0
 10
9.4921478934
 20
9.8051731714
 30
0.0
 10
9.496288574
 20
9.8100413162
 30
0.0
 10
9.4996059702
 20
9.8135070369
 30
0.0
 10
9.5019027751
 20
9.8157255953
 30
0.0
  0
SPLINE
  5
372
100
AcDbEntity
  8
0
100
AcDbSpline
 62
7
  6
CONTINUOUS
 70
0
 71
3
 72
39
 73
35
 74
0
 42
0.0000001
 43
0.0000001
 44
0.0000000001
 40
0.0
 40
0.0
 40
0.0
 40
0.0
 40
0.0311160054
 40
0.0620232808
 40
0.0927351539
 40
0.1232711756
 40
0.1536587326
 40
0.1839312105
 40
0.2141268386
 40
0.2442870981
 40
0.2744549747
 40
0.3046731306
 40
0.33498209
 40
0.365418544
 40
0.3960138629
 40
0.4267928807
 40
0.457772997
 40
0.4889636213
 40
0.5203659688
 40
0.551973177
 40
0.5837707173
 40
0.6157370643
 40
0.6478445906
 40
0.6800606397
 40
0.7123487305
 40
0.7446698622
 40
0.7769838838
 40
0.8092508928
 40
0.841432625
 40
0.8734938027
 40
0.9054033951
 40
0.9371359477
 40
0.9686717614
 40
1.0
 40
1.0
 40
1.0
 40
1.0
 10
10.0935863781
 20
7.7215092736
 30
0.0
 10
10.0935863781
 20
7.7249574323
 30
0.0
 10
10.0939230049
 20
7.7318356081
 30
0.0
 10
10.0954454415
 20
7.7420153616
 30
0.0
 10
10.0979692699
 20
7.7519291903
 30
0.0
 10
10.1014706324
 20
7.7614801147
 30
0.0
 10
10.1059160245
 20
7.7705760856
 30
0.0
 10
10.111262782
 20
7.7791289766
 30
0.0
 10
10.1174593727
 20
7.7870559862
 30
0.0
 10
10.1244459509
 20
7.7942803295
 30
0.0
 10
10.1321549332
 20
7.8007320671
 30
0.0
 10
10.1405116843
 20
7.8063488019
 30
0.0
 10
10.1494352544
 20
7.8110763514
 30
0.0
 10
10.1588392395
 20
7.8148692473
 30
0.0
 10
10.168632664
 20
7.8176911519
 30
0.0
 10
10.178720892
 20
7.8195151769
 30
0.0
 10
10.1890065571
 20
7.8203241213
 30
0.0
 10
10.1993905151
 20
7.8201106222
 30
0.0
 10
10.2097728026
 20
7.8188771399
 30
0.0
 10
10.220053581
 20
7.8166359098
 30
0.0
 10
10.2301340707
 20
7.8134087913
 30
0.0
 10
10.2399174892
 20
7.8092270847
 30
0.0
 10
10.2493099574
 20
7.8041311934
 30
0.0
 10
10.2582213696
 20
7.7981702184
 30
0.0
 10
10.2665662347
 20
7.791401492
 30
0.0
 10
10.27426448
 20
7.7838900424
 30
0.0
 10
10.2812422328
 20
7.7757080029
 30
0.0
 10
10.2874324861
 20
7.7669338917
 30
0.0
 10
10.2927757345
 20
7.7576518917
 30
0.0
 10
10.2972205212
 20
7.7479510168
 30
0.0
 10
10.3007239898
 20
7.7379244412
 30
0.0
 10
10.3032521976
 20
7.7276680893
 30
0.0
 10
10.3047806526
 20
7.7172817457
 30
0.0
 10
10.3051241466
 20
7.7103107571
 30
0.0
 10
10.3051241466
 20
7.7068390796
 30
0.0
  0
SPLINE
  5
373
100
AcDbEntity
  8
0
100
AcDbSpline
 62
7
  6
CONTINUOUS
 70
0
 71
3
 72
39
 73
35
 74
0
 42
0.0000001
 43
0.0000001
 44
0.0000000001
 40
0.0
 40
0.0
 40
0.0
 40
0.0
 40
0.0311160054
 40
0.0620232808
 40
0.0927351539
 40
0.1232711756
 40
0.1536587326
 40
0.1839312105
 40
0.2141268386
 40
0.2442870981
 40
0.2744549747
 40
0.3046731306
 40
0.33498209
 40
0.365418544
 40
0.3960138629
 40
0.4267928807
 40
0.457772997
 40
0.4889636213
 40
0.5203659688
 40
0.551973177
 40
0.5837707173
 40
0.6157370643
 40
0.6478445906
 40
0.6800606397
 40
0.7123487305
 40
0.7446698622
 40
0.7769838838
 40
0.8092508928
 40
0.841432625
 40
0.8734938027
 40
0.9054033951
 40
0.9371359477
 40
0.9686717614
 40
1.0
 40
1.0
 40
1.0
 40
1.0
 10
10.3051241466
 20
7.7068390796
 30
0.0
 10
10.3051241466
 20
7.7033909209
 30
0.0
 10
10.3047875198
 20
7.6965127451
 30
0.0
 10
10.3032650832
 20
7.6863329916
 30
0.0
 10
10.3007412548
 20
7.6764191629
 30
0.0
 10
10.2972398922
 20
7.6668682385
 30
0.0
 10
10.2927945001
 20
7.6577722676
 30
0.0
 10
10.2874477426
 20
7.6492193767
 30
0.0
 10
10.281251152
 20
7.641292367
 30
0.0
 10
10.2742645737
 20
7.6340680237
 30
0.0
 10
10.2665555915
 20
7.6276162861
 30
0.0
 10
10.2581988403
 20
7.6219995513
 30
0.0
 10
10.2492752703
 20
7.6172720018
 30
0.0
 10
10.2398712851
 20
7.6134791059
 30
0.0
 10
10.2300778607
 20
7.6106572013
 30
0.0
 10
10.2199896327
 20
7.6088331763
 30
0.0
 10
10.2097039675
 20
7.6080242319
 30
0.0
 10
10.1993200095
 20
7.608237731
 30
0.0
 10
10.1889377221
 20
7.6094712133
 30
0.0
 10
10.1786569436
 20
7.6117124434
 30
0.0
 10
10.168576454
 20
7.6149395619
 30
0.0
 10
10.1587930355
 20
7.6191212686
 30
0.0
 10
10.1494005672
 20
7.6242171598
 30
0.0
 10
10.1404891551
 20
7.6301781349
 30
0.0
 10
10.13214429
 20
7.6369468612
 30
0.0
 10
10.1244460447
 20
7.6444583108
 30
0.0
 10
10.1174682919
 20
7.6526403503
 30
0.0
 10
10.1112780385
 20
7.6614144615
 30
0.0
 10
10.1059347902
 20
7.6706964615
 30
0.0
 10
10.1014900035
 20
7.6803973364
 30
0.0
 10
10.0979865348
 20
7.690423912
 30
0.0
 10
10.0954583271
 20
7.7006802639
 30
0.0
 10
10.0939298721
 20
7.7110666075
 30
0.0
 10
10.0935863781
 20
7.7180375961
 30
0.0
 10
10.0935863781
 20
7.7215092736
 30
0.0
  0
SPLINE
  5
374
100
AcDbEntity
  8
0
100
AcDbSpline
 62
7
  6
CONTINUOUS
 70
0
 71
3
 72
32
 73
28
 74
0
 42
0.0000001
 43
0.0000001
 44
0.0000000001
 40
0.0
 40
0.0
 40
0.0
 40
0.0
 40
0.0315752368
 40
0.0474152448
 40
0.0632838757
 40
0.0950930966
 40
0.1269853408
 40
0.1429574528
 40
0.1589411969
 40
0.1909265272
 40
0.2229235329
 40
0.2549114407
 40
0.2868719311
 40
0.3187893076
 40
0.3824199286
 40
0.4457543358
 40
0.5087461671
 40
0.5713721628
 40
0.6025528315
 40
0.6336400782
 40
0.695523832
 40
0.7570500494
 40
0.7876907323
 40
0.8182487294
 40
0.8791155142
 40
0.9396891496
 40
1.0
 40
1.0
 40
1.0
 40
1.0
 10
10.6281724553
 20
8.1256491297
 30
0.0
 10
10.6256732611
 20
8.1264921065
 30
0.0
 10
10.6219680005
 20
8.12790626
 30
0.0
 10
10.6171460371
 20
8.1300747327
 30
0.0
 10
10.6123929568
 20
8.13243524
 30
0.0
 10
10.6066124509
 20
8.1357294815
 30
0.0
 10
10.6010851699
 20
8.1394477177
 30
0.0
 10
10.5968263931
 20
8.142659842
 30
0.0
 10
10.5926780827
 20
8.1460257624
 30
0.0
 10
10.5877141293
 20
8.15050394
 30
0.0
 10
10.5821326407
 20
8.1562661884
 30
0.0
 10
10.5769378339
 20
8.1623762232
 30
0.0
 10
10.5721383091
 20
8.1687928192
 30
0.0
 10
10.5662787094
 20
8.1776934266
 30
0.0
 10
10.5599511433
 20
8.1893939586
 30
0.0
 10
10.5539281607
 20
8.204103503
 30
0.0
 10
10.5494287026
 20
8.2192576344
 30
0.0
 10
10.5468956834
 20
8.2321282283
 30
0.0
 10
10.5455749157
 20
8.2424797746
 30
0.0
 10
10.5447156622
 20
8.2528176701
 30
0.0
 10
10.5444797121
 20
8.2657375561
 30
0.0
 10
10.5453259236
 20
8.2785935316
 30
0.0
 10
10.5466322467
 20
8.2887639498
 30
0.0
 10
10.5483463597
 20
8.2988176365
 30
0.0
 10
10.551249078
 20
8.3111942428
 30
0.0
 10
10.5559267886
 20
8.3256545814
 30
0.0
 10
10.5598336949
 20
8.3349815268
 30
0.0
 10
10.5619784701
 20
8.3395400411
 30
0.0
  0
SPLINE
  5
375
100
AcDbEntity
  8
0
100
AcDbSpline
 62
7
  6
CONTINUOUS
 70
0
 71
3
 72
15
 73
11
 74
0
 42
0.0000001
 43
0.0000001
 44
0.0000000001
 40
0.0
 40
0.0
 40
0.0
 40
0.0
 40
0.1273482292
 40
0.2538605354
 40
0.3795879276
 40
0.5046050833
 40
0.6290174349
 40
0.7529533662
 40
0.8765605734
 40
1.0
 40
1.0
 40
1.0
 40
1.0
 10
11.6565423109
 20
7.5882652218
 30
0.0
 10
11.6565423109
 20
7.5910524396
 30
0.0
 10
11.656808433
 20
7.5966124332
 30
0.0
 10
11.6580119502
 20
7.6048454894
 30
0.0
 10
11.6600075858
 20
7.6128716794
 30
0.0
 10
11.6627773181
 20
7.6206159392
 30
0.0
 10
11.6662957171
 20
7.6280068557
 30
0.0
 10
11.6705307229
 20
7.6349761808
 30
0.0
 10
11.6754425154
 20
7.6414586105
 30
0.0
 10
11.6791408445
 20
7.6454184501
 30
0.0
 10
11.6810840353
 20
7.6472954202
 30
0.0
  0
SPLINE
  5
376
100
AcDbEntity
  8
0
100
AcDbSpline
 62
7
  6
CONTINUOUS
 70
0
 71
3
 72
18
 73
14
 74
0
 42
0.0000001
 43
0.0000001
 44
0.0000000001
 40
0.0
 40
0.0
 40
0.0
 40
0.0
 40
0.1504680185
 40
0.2917144324
 40
0.4244425615
 40
0.4879099171
 40
0.5496094205
 40
0.6682625585
 40
0.7817882768
 40
0.8371379945
 40
0.8918078237
 40
0.9460192726
 40
1.0
 40
1.0
 40
1.0
 40
1.0
 10
12.9183873104
 20
7.4839783872
 30
0.0
 10
12.9171702416
 20
7.482802789
 30
0.0
 10
12.9147377539
 20
7.4805970242
 30
0.0
 10
12.9109713055
 20
7.4776575725
 30
0.0
 10
12.907789896
 20
7.4755786401
 30
0.0
 10
12.9052530049
 20
7.4741708517
 30
0.0
 10
12.9027907462
 20
7.4729622247
 30
0.0
 10
12.8997121433
 20
7.4717409484
 30
0.0
 10
12.8965787761
 20
7.4709075465
 30
0.0
 10
12.8940970564
 20
7.4704970051
 30
0.0
 10
12.8922577593
 20
7.4703148001
 30
0.0
 10
12.8904259025
 20
7.4702559649
 30
0.0
 10
12.8892088625
 20
7.4702990231
 30
0.0
 10
12.8886032637
 20
7.4703410248
 30
0.0
  0
SPLINE
  5
377
100
AcDbEntity
  8
0
100
AcDbSpline
 62
7
  6
CONTINUOUS
 70
0
 71
3
 72
39
 73
35
 74
0
 42
0.0000001
 43
0.0000001
 44
0.0000000001
 40
0.0
 40
0.0
 40
0.0
 40
0.0
 40
0.0311160054
 40
0.0620232808
 40
0.0927351539
 40
0.1232711756
 40
0.1536587326
 40
0.1839312105
 40
0.2141268386
 40
0.2442870981
 40
0.2744549747
 40
0.3046731306
 40
0.33498209
 40
0.365418544
 40
0.3960138629
 40
0.4267928807
 40
0.457772997
 40
0.4889636213
 40
0.5203659688
 40
0.551973177
 40
0.5837707173
 40
0.6157370643
 40
0.6478445906
 40
0.6800606397
 40
0.7123487305
 40
0.7446698622
 40
0.7769838838
 40
0.8092508928
 40
0.841432625
 40
0.8734938027
 40
0.9054033951
 40
0.9371359477
 40
0.9686717614
 40
1.0
 40
1.0
 40
1.0
 40
1.0
 10
10.0935863781
 20
8.8989729082
 30
0.0
 10
10.0935863781
 20
8.9024210668
 30
0.0
 10
10.0939230049
 20
8.9092992426
 30
0.0
 10
10.0954454415
 20
8.9194789961
 30
0.0
 10
10.0979692699
 20
8.9293928248
 30
0.0
 10
10.1014706324
 20
8.9389437492
 30
0.0
 10
10.1059160245
 20
8.9480397201
 30
0.0
 10
10.111262782
 20
8.9565926111
 30
0.0
 10
10.1174593727
 20
8.9645196207
 30
0.0
 10
10.1244459509
 20
8.971743964
 30
0.0
 10
10.1321549332
 20
8.9781957016
 30
0.0
 10
10.1405116843
 20
8.9838124364
 30
0.0
 10
10.1494352544
 20
8.9885399859
 30
0.0
 10
10.1588392395
 20
8.9923328818
 30
0.0
 10
10.168632664
 20
8.9951547865
 30
0.0
 10
10.178720892
 20
8.9969788114
 30
0.0
 10
10.1890065571
 20
8.9977877558
 30
0.0
 10
10.1993905151
 20
8.9975742568
 30
0.0
 10
10.2097728026
 20
8.9963407744
 30
0.0
 10
10.220053581
 20
8.9940995443
 30
0.0
 10
10.2301340707
 20
8.9908724258
 30
0.0
 10
10.2399174892
 20
8.9866907192
 30
0.0
 10
10.2493099574
 20
8.9815948279
 30
0.0
 10
10.2582213696
 20
8.9756338529
 30
0.0
 10
10.2665662347
 20
8.9688651265
 30
0.0
 10
10.27426448
 20
8.9613536769
 30
0.0
 10
10.2812422328
 20
8.9531716374
 30
0.0
 10
10.2874324861
 20
8.9443975262
 30
0.0
 10
10.2927757345
 20
8.9351155263
 30
0.0
 10
10.2972205212
 20
8.9254146513
 30
0.0
 10
10.3007239898
 20
8.9153880757
 30
0.0
 10
10.3032521976
 20
8.9051317238
 30
0.0
 10
10.3047806526
 20
8.8947453802
 30
0.0
 10
10.3051241466
 20
8.8877743916
 30
0.0
 10
10.3051241466
 20
8.8843027141
 30
0.0
  0
SPLINE
  5
378
100
AcDbEntity
  8
0
100
AcDbSpline
 62
7
  6
CONTINUOUS
 70
0
 71
3
 72
39
 73
35
 74
0
 42
0.0000001
 43
0.0000001
 44
0.0000000001
 40
0.0
 40
0.0
 40
0.0
 40
0.0
 40
0.0311160054
 40
0.0620232808
 40
0.0927351539
 40
0.1232711756
 40
0.1536587326
 40
0.1839312105
 40
0.2141268386
 40
0.2442870981
 40
0.2744549747
 40
0.3046731306
 40
0.33498209
 40
0.365418544
 40
0.3960138629
 40
0.4267928807
 40
0.457772997
 40
0.4889636213
 40
0.5203659688
 40
0.551973177
 40
0.5837707173
 40
0.6157370643
 40
0.6478445906
 40
0.6800606397
 40
0.7123487305
 40
0.7446698622
 40
0.7769838838
 40
0.8092508928
 40
0.841432625
 40
0.8734938027
 40
0.9054033951
 40
0.9371359477
 40
0.9686717614
 40
1.0
 40
1.0
 40
1.0
 40
1.0
 10
11.8448099298
 20
8.8084348333
 30
0.0
 10
11.8448099298
 20
8.8049866746
 30
0.0
 10
11.8444733031
 20
8.7981084988
 30
0.0
 10
11.8429508664
 20
8.7879287453
 30
0.0
 10
11.840427038
 20
8.7780149166
 30
0.0
 10
11.8369256755
 20
8.7684639922
 30
0.0
 10
11.8324802834
 20
8.7593680213
 30
0.0
 10
11.8271335259
 20
8.7508151303
 30
0.0
 10
11.8209369352
 20
8.7428881207
 30
0.0
 10
11.813950357
 20
8.7356637774
 30
0.0
 10
11.8062413748
 20
8.7292120398
 30
0.0
 10
11.7978846236
 20
8.723595305
 30
0.0
 10
11.7889610535
 20
8.7188677555
 30
0.0
 10
11.7795570684
 20
8.7150748596
 30
0.0
 10
11.7697636439
 20
8.7122529549
 30
0.0
 10
11.7596754159
 20
8.71042893
 30
0.0
 10
11.7493897508
 20
8.7096199856
 30
0.0
 10
11.7390057928
 20
8.7098334846
 30
0.0
 10
11.7286235053
 20
8.711066967
 30
0.0
 10
11.7183427269
 20
8.7133081971
 30
0.0
 10
11.7082622372
 20
8.7165353156
 30
0.0
 10
11.6984788187
 20
8.7207170222
 30
0.0
 10
11.6890863505
 20
8.7258129135
 30
0.0
 10
11.6801749383
 20
8.7317738885
 30
0.0
 10
11.6718300732
 20
8.7385426149
 30
0.0
 10
11.664131828
 20
8.7460540645
 30
0.0
 10
11.6571540751
 20
8.754236104
 30
0.0
 10
11.6509638218
 20
8.7630102152
 30
0.0
 10
11.6456205735
 20
8.7722922151
 30
0.0
 10
11.6411757867
 20
8.7819930901
 30
0.0
 10
11.6376723181
 20
8.7920196657
 30
0.0
 10
11.6351441103
 20
8.8022760176
 30
0.0
 10
11.6336156553
 20
8.8126623612
 30
0.0
 10
11.6332721613
 20
8.8196333498
 30
0.0
 10
11.6332721613
 20
8.8231050273
 30
0.0
  0
SPLINE
  5
379
100
AcDbEntity
  8
0
100
AcDbSpline
 62
7
  6
CONTINUOUS
 70
0
 71
3
 72
18
 73
14
 74
0
 42
0.0000001
 43
0.0000001
 44
0.0000000001
 40
0.0
 40
0.0
 40
0.0
 40
0.0
 40
0.1523991845
 40
0.2920131746
 40
0.4198504016
 40
0.5380633924
 40
0.594698617
 40
0.6503699678
 40
0.7057083187
 40
0.761386796
 40
0.8180732625
 40
0.876400425
 40
1.0
 40
1.0
 40
1.0
 40
1.0
 10
11.0156735872
 20
7.8232515634
 30
0.0
 10
11.0155230618
 20
7.823585007
 30
0.0
 10
11.0152632582
 20
7.8242376562
 30
0.0
 10
11.015000783
 20
7.8252136082
 30
0.0
 10
11.0148907702
 20
7.8261366833
 30
0.0
 10
11.014934809
 20
7.8268671559
 30
0.0
 10
11.0150562444
 20
7.8274080641
 30
0.0
 10
11.015187716
 20
7.827789363
 30
0.0
 10
11.0153612781
 20
7.8281509034
 30
0.0
 10
11.0155766628
 20
7.828492059
 30
0.0
 10
11.0158336857
 20
7.8288123083
 30
0.0
 10
11.0162388978
 20
7.8292183742
 30
0.0
 10
11.0165934902
 20
7.8294788871
 30
0.0
 10
11.0168456643
 20
7.8296352352
 30
0.0
  0
SPLINE
  5
37A
100
AcDbEntity
  8
0
100
AcDbSpline
 62
7
  6
CONTINUOUS
 70
0
 71
3
 72
39
 73
35
 74
0
 42
0.0000001
 43
0.0000001
 44
0.0000000001
 40
0.0
 40
0.0
 40
0.0
 40
0.0
 40
0.0311160054
 40
0.0620232808
 40
0.0927351539
 40
0.1232711756
 40
0.1536587326
 40
0.1839312105
 40
0.2141268386
 40
0.2442870981
 40
0.2744549747
 40
0.3046731306
 40
0.33498209
 40
0.365418544
 40
0.3960138629
 40
0.4267928807
 40
0.457772997
 40
0.4889636213
 40
0.5203659688
 40
0.551973177
 40
0.5837707173
 40
0.6157370643
 40
0.6478445906
 40
0.6800606397
 40
0.7123487305
 40
0.7446698622
 40
0.7769838838
 40
0.8092508928
 40
0.841432625
 40
0.8734938027
 40
0.9054033951
 40
0.9371359477
 40
0.9686717614
 40
1.0
 40
1.0
 40
1.0
 40
1.0
 10
10.3051241466
 20
8.8843027141
 30
0.0
 10
10.3051241466
 20
8.8808545554
 30
0.0
 10
10.3047875198
 20
8.8739763796
 30
0.0
 10
10.3032650832
 20
8.8637966261
 30
0.0
 10
10.3007412548
 20
8.8538827974
 30
0.0
 10
10.2972398922
 20
8.844331873
 30
0.0
 10
10.2927945001
 20
8.8352359021
 30
0.0
 10
10.2874477426
 20
8.8266830112
 30
0.0
 10
10.281251152
 20
8.8187560015
 30
0.0
 10
10.2742645737
 20
8.8115316582
 30
0.0
 10
10.2665555915
 20
8.8050799206
 30
0.0
 10
10.2581988403
 20
8.7994631858
 30
0.0
 10
10.2492752703
 20
8.7947356363
 30
0.0
 10
10.2398712851
 20
8.7909427404
 30
0.0
 10
10.2300778607
 20
8.7881208358
 30
0.0
 10
10.2199896327
 20
8.7862968108
 30
0.0
 10
10.2097039675
 20
8.7854878664
 30
0.0
 10
10.1993200095
 20
8.7857013655
 30
0.0
 10
10.1889377221
 20
8.7869348478
 30
0.0
 10
10.1786569436
 20
8.7891760779
 30
0.0
 10
10.168576454
 20
8.7924031964
 30
0.0
 10
10.1587930355
 20
8.7965849031
 30
0.0
 10
10.1494005672
 20
8.8016807943
 30
0.0
 10
10.1404891551
 20
8.8076417694
 30
0.0
 10
10.13214429
 20
8.8144104957
 30
0.0
 10
10.1244460447
 20
8.8219219453
 30
0.0
 10
10.1174682919
 20
8.8301039848
 30
0.0
 10
10.1112780385
 20
8.838878096
 30
0.0
 10
10.1059347902
 20
8.848160096
 30
0.0
 10
10.1014900035
 20
8.857860971
 30
0.0
 10
10.0979865348
 20
8.8678875466
 30
0.0
 10
10.0954583271
 20
8.8781438984
 30
0.0
 10
10.0939298721
 20
8.888530242
 30
0.0
 10
10.0935863781
 20
8.8955012306
 30
0.0
 10
10.0935863781
 20
8.8989729082
 30
0.0
  0
SPLINE
  5
37B
100
AcDbEntity
  8
0
100
AcDbSpline
 62
7
  6
CONTINUOUS
 70
0
 71
3
 72
72
 73
68
 74
0
 42
0.0000001
 43
0.0000001
 44
0.0000000001
 40
0.0
 40
0.0
 40
0.0
 40
0.0
 40
0.0038577872
 40
0.0078706379
 40
0.0120417989
 40
0.016373998
 40
0.0208695662
 40
0.025530388
 40
0.0303577982
 40
0.0353526471
 40
0.0458457985
 40
0.057010757
 40
0.0688432322
 40
0.0813351508
 40
0.0944752071
 40
0.1082492878
 40
0.1226408497
 40
0.137631187
 40
0.1531996177
 40
0.1693236973
 40
0.1859793989
 40
0.203141239
 40
0.2207823749
 40
0.2388747516
 40
0.2573892106
 40
0.2762955685
 40
0.2955627006
 40
0.3151586557
 40
0.3552048809
 40
0.396165797
 40
0.4377641133
 40
0.4797169416
 40
0.5217383276
 40
0.5635417216
 40
0.6048424552
 40
0.6453602545
 40
0.6652401271
 40
0.6848224416
 40
0.7040745256
 40
0.7229644518
 40
0.7414611486
 40
0.75953448
 40
0.7771553207
 40
0.7942956584
 40
0.81092873
 40
0.827029109
 40
0.8425728172
 40
0.8575374847
 40
0.8719025356
 40
0.8856493411
 40
0.8987614389
 40
0.911224845
 40
0.9230284005
 40
0.9341641721
 40
0.9446280174
 40
0.9544203652
 40
0.9590667794
 40
0.9635480768
 40
0.9678660966
 40
0.9720231996
 40
0.9760223019
 40
0.9798670466
 40
0.9835617895
 40
0.9871117241
 40
0.9905230284
 40
0.9938028811
 40
1.0
 40
1.0
 40
1.0
 40
1.0
 10
12.8884436085
 20
7.48605499
 30
0.0
 10
12.8892516246
 20
7.4868354736
 30
0.0
 10
12.8908668745
 20
7.4884625489
 30
0.0
 10
12.8932415972
 20
7.4910436894
 30
0.0
 10
12.8956140867
 20
7.4938115254
 30
0.0
 10
12.897983126
 20
7.4967646973
 30
0.0
 10
12.900347732
 20
7.4999018572
 30
0.0
 10
12.9027068524
 20
7.5032216499
 30
0.0
 10
12.9050594906
 20
7.5067226031
 30
0.0
 10
12.9082386551
 20
7.5117123148
 30
0.0
 10
12.9121810099
 20
7.5184010766
 30
0.0
 10
12.9167944148
 20
7.5269960124
 30
0.0
 10
12.9213568338
 20
7.5362712789
 30
0.0
 10
12.9258599901
 20
7.5462101851
 30
0.0
 10
12.9302957317
 20
7.5567949847
 30
0.0
 10
12.9346559929
 20
7.5680066234
 30
0.0
 10
12.9389328223
 20
7.5798248912
 30
0.0
 10
12.9431184017
 20
7.5922284371
 30
0.0
 10
12.9472050932
 20
7.6051948076
 30
0.0
 10
12.9511854361
 20
7.6187005013
 30
0.0
 10
12.9550521552
 20
7.6327210268
 30
0.0
 10
12.9587981777
 20
7.6472309424
 30
0.0
 10
12.9624166716
 20
7.6622038963
 30
0.0
 10
12.965901031
 20
7.6776126867
 30
0.0
 10
12.9692448908
 20
7.6934293201
 30
0.0
 10
12.9724421358
 20
7.7096250455
 30
0.0
 10
12.9754869674
 20
7.7261704394
 30
0.0
 10
12.9793639449
 20
7.7488203169
 30
0.0
 10
12.9837805075
 20
7.7777846401
 30
0.0
 10
12.9883551139
 20
7.8131966144
 30
0.0
 10
12.9922082876
 20
7.8492527474
 30
0.0
 10
12.9953119423
 20
7.8856909549
 30
0.0
 10
12.9976434081
 20
7.9222465353
 30
0.0
 10
12.9991858236
 20
7.9586539104
 30
0.0
 10
12.9999280134
 20
7.9946484255
 30
0.0
 10
12.9998752048
 20
8.0242663426
 30
0.0
 10
12.999421165
 20
8.0475529719
 30
0.0
 10
12.9988811866
 20
8.0646427898
 30
0.0
 10
12.9981406863
 20
8.0814365427
 30
0.0
 10
12.9972009991
 20
8.0979037182
 30
0.0
 10
12.9960638662
 20
8.1140143728
 30
0.0
 10
12.9947313844
 20
8.1297392265
 30
0.0
 10
12.9932060027
 20
8.1450496995
 30
0.0
 10
12.9914905161
 20
8.1599179729
 30
0.0
 10
12.989588089
 20
8.1743170461
 30
0.0
 10
12.9875022233
 20
8.1882207837
 30
0.0
 10
12.9852367485
 20
8.2016039578
 30
0.0
 10
12.9827958231
 20
8.2144423072
 30
0.0
 10
12.9801839453
 20
8.2267125917
 30
0.0
 10
12.9774059144
 20
8.2383926308
 30
0.0
 10
12.9744668167
 20
8.249461345
 30
0.0
 10
12.9713720297
 20
8.2598988283
 30
0.0
 10
12.9681272098
 20
8.2696863675
 30
0.0
 10
12.9647382207
 20
8.2788065925
 30
0.0
 10
12.961211157
 20
8.2872431343
 30
0.0
 10
12.9581100274
 20
8.2938019857
 30
0.0
 10
12.9555572484
 20
8.298685221
 30
0.0
 10
12.9536456691
 20
8.3021030021
 30
0.0
 10
12.9517044092
 20
8.3053389801
 30
0.0
 10
12.949734307
 20
8.3083917292
 30
0.0
 10
12.947736174
 20
8.3112598599
 30
0.0
 10
12.945710912
 20
8.3139421135
 30
0.0
 10
12.9436593397
 20
8.316437303
 30
0.0
 10
12.9415823559
 20
8.3187442143
 30
0.0
 10
12.9394805813
 20
8.3208620553
 30
0.0
 10
12.9366997892
 20
8.3233839326
 30
0.0
 10
12.9345005178
 20
8.3250660366
 30
0.0
 10
12.9329958558
 20
8.3260623766
 30
0.0
  0
SPLINE
  5
37C
100
AcDbEntity
  8
0
100
AcDbSpline
 62
7
  6
CONTINUOUS
 70
0
 71
3
 72
11
 73
7
 74
0
 42
0.0000001
 43
0.0000001
 44
0.0000000001
 40
0.0
 40
0.0
 40
0.0
 40
0.0
 40
0.2730455232
 40
0.5298860536
 40
0.7716949754
 40
1.0
 40
1.0
 40
1.0
 40
1.0
 10
12.8884436085
 20
7.48605499
 30
0.0
 10
12.8872650356
 20
7.4849165759
 30
0.0
 10
12.8849094576
 20
7.4827762913
 30
0.0
 10
12.8812656358
 20
7.4799109587
 30
0.0
 10
12.8776264941
 20
7.4774959436
 30
0.0
 10
12.8751395364
 20
7.4761528689
 30
0.0
 10
12.8739017772
 20
7.4755653803
 30
0.0
  0
SPLINE
  5
37D
100
AcDbEntity
  8
0
100
AcDbSpline
 62
7
  6
CONTINUOUS
 70
0
 71
3
 72
11
 73
7
 74
0
 42
0.0000001
 43
0.0000001
 44
0.0000000001
 40
0.0
 40
0.0
 40
0.0
 40
0.0
 40
0.2525443671
 40
0.5033199223
 40
0.7524211827
 40
1.0
 40
1.0
 40
1.0
 40
1.0
 10
11.492536863
 20
7.5610058271
 30
0.0
 10
11.49508063
 20
7.5608294163
 30
0.0
 10
11.5001719724
 20
7.5607334781
 30
0.0
 10
11.507755344
 20
7.5613707827
 30
0.0
 10
11.5151824739
 20
7.5627828059
 30
0.0
 10
11.5199937033
 20
7.5642362031
 30
0.0
 10
11.5223446067
 20
7.565085884
 30
0.0
  0
SPLINE
  5
37E
100
AcDbEntity
  8
0
100
AcDbSpline
 62
7
  6
CONTINUOUS
 70
0
 71
3
 72
27
 73
23
 74
0
 42
0.0000001
 43
0.0000001
 44
0.0000000001
 40
0.0
 40
0.0
 40
0.0
 40
0.0
 40
0.0618985551
 40
0.1242874739
 40
0.1871177107
 40
0.2503123475
 40
0.3137755904
 40
0.3773971129
 40
0.4410581306
 40
0.5046377574
 40
0.5680194301
 40
0.6310971907
 40
0.693781529
 40
0.7560045494
 40
0.7869427751
 40
0.8177522888
 40
0.8484323942
 40
0.8789842966
 40
0.909411086
 40
0.9397177775
 40
0.9699112237
 40
1.0
 40
1.0
 40
1.0
 40
1.0
 10
11.492536863
 20
7.5610058271
 30
0.0
 10
11.4894768139
 20
7.5612180422
 30
0.0
 10
11.4833522474
 20
7.5620179455
 30
0.0
 10
11.4743452072
 20
7.564305875
 30
0.0
 10
11.4656059711
 20
7.5676528514
 30
0.0
 10
11.4572643061
 20
7.5720093047
 30
0.0
 10
11.449441835
 20
7.5773109329
 30
0.0
 10
11.4422531846
 20
7.5834798595
 30
0.0
 10
11.435803589
 20
7.5904256253
 30
0.0
 10
11.430187512
 20
7.5980464601
 30
0.0
 10
11.4254874192
 20
7.6062307756
 30
0.0
 10
11.4217724645
 20
7.6148590151
 30
0.0
 10
11.4190975174
 20
7.6238039181
 30
0.0
 10
11.4177654266
 20
7.6314312634
 30
0.0
 10
11.4172552176
 20
7.6375565132
 30
0.0
 10
11.4171504616
 20
7.6421385223
 30
0.0
 10
11.4173234519
 20
7.6466991821
 30
0.0
 10
11.4177735558
 20
7.6512218952
 30
0.0
 10
11.418499186
 20
7.6556899176
 30
0.0
 10
11.4194976571
 20
7.6600868598
 30
0.0
 10
11.4207652328
 20
7.664396286
 30
0.0
 10
11.4217885195
 20
7.6672053856
 30
0.0
 10
11.4223432447
 20
7.6685894128
 30
0.0
  0
SPLINE
  5
37F
100
AcDbEntity
  8
0
100
AcDbSpline
 62
7
  6
CONTINUOUS
 70
0
 71
3
 72
38
 73
34
 74
0
 42
0.0000001
 43
0.0000001
 44
0.0000000001
 40
0.0
 40
0.0
 40
0.0
 40
0.0
 40
0.0069047659
 40
0.0144370405
 40
0.0226424237
 40
0.0315394432
 40
0.0411261729
 40
0.0513858059
 40
0.0622924968
 40
0.0738162733
 40
0.0859236114
 40
0.0985821929
 40
0.1254218866
 40
0.1540954671
 40
0.1843922122
 40
0.2161308683
 40
0.2491562424
 40
0.2833320006
 40
0.3185338657
 40
0.3546448093
 40
0.391549017
 40
0.4672489989
 40
0.544563156
 40
0.622188714
 40
0.6985513647
 40
0.7718593212
 40
0.8402529321
 40
0.872055671
 40
0.9019971237
 40
0.9299040278
 40
0.9556242977
 40
0.979026654
 40
1.0
 40
1.0
 40
1.0
 40
1.0
 10
11.0168456643
 20
7.8296352352
 30
0.0
 10
11.0170811439
 20
7.8297812328
 30
0.0
 10
11.0175961437
 20
7.8300506246
 30
0.0
 10
11.0184451216
 20
7.830378178
 30
0.0
 10
11.0193971069
 20
7.8306485889
 30
0.0
 10
11.0204465579
 20
7.8308657397
 30
0.0
 10
11.021588204
 20
7.8310334561
 30
0.0
 10
11.0228164691
 20
7.83115609
 30
0.0
 10
11.0241259099
 20
7.8312378544
 30
0.0
 10
11.0255112248
 20
7.8312831177
 30
0.0
 10
11.0269674652
 20
7.8312962565
 30
0.0
 10
11.0290382307
 20
7.8312758267
 30
0.0
 10
11.0317726243
 20
7.8311878688
 30
0.0
 10
11.0352118302
 20
7.8310191726
 30
0.0
 10
11.0388457298
 20
7.8308105103
 30
0.0
 10
11.0426535077
 20
7.830584363
 30
0.0
 10
11.0466173335
 20
7.830360205
 30
0.0
 10
11.0507213653
 20
7.8301550343
 30
0.0
 10
11.0549509088
 20
7.8299838748
 30
0.0
 10
11.0592916815
 20
7.8298599213
 30
0.0
 10
11.0652586647
 20
7.8297720344
 30
0.0
 10
11.0728807365
 20
7.8298382727
 30
0.0
 10
11.0821285745
 20
7.8302505644
 30
0.0
 10
11.0913800887
 20
7.8310260883
 30
0.0
 10
11.1004327475
 20
7.8321591841
 30
0.0
 10
11.1090656793
 20
7.8336016534
 30
0.0
 10
11.1158840657
 20
7.8350179402
 30
0.0
 10
11.1209670557
 20
7.8362157019
 30
0.0
 10
11.1244555953
 20
7.8370945951
 30
0.0
 10
11.1276965653
 20
7.8379557092
 30
0.0
 10
11.1306761783
 20
7.8387779546
 30
0.0
 10
11.1333837131
 20
7.8395399872
 30
0.0
 10
11.1350982382
 20
7.8400208094
 30
0.0
 10
11.1359097158
 20
7.8402439373
 30
0.0
  0
SPLINE
  5
380
100
AcDbEntity
  8
0
100
AcDbSpline
 62
7
  6
CONTINUOUS
 70
0
 71
3
 72
39
 73
35
 74
0
 42
0.0000001
 43
0.0000001
 44
0.0000000001
 40
0.0
 40
0.0
 40
0.0
 40
0.0
 40
0.0311160054
 40
0.0620232808
 40
0.0927351539
 40
0.1232711756
 40
0.1536587326
 40
0.1839312105
 40
0.2141268386
 40
0.2442870981
 40
0.2744549747
 40
0.3046731306
 40
0.33498209
 40
0.365418544
 40
0.3960138629
 40
0.4267928807
 40
0.457772997
 40
0.4889636213
 40
0.5203659688
 40
0.551973177
 40
0.5837707173
 40
0.6157370643
 40
0.6478445906
 40
0.6800606397
 40
0.7123487305
 40
0.7446698622
 40
0.7769838838
 40
0.8092508928
 40
0.841432625
 40
0.8734938027
 40
0.9054033951
 40
0.9371359477
 40
0.9686717614
 40
1.0
 40
1.0
 40
1.0
 40
1.0
 10
11.6332721613
 20
7.584787982
 30
0.0
 10
11.6332721613
 20
7.5882361407
 30
0.0
 10
11.6336087881
 20
7.5951143165
 30
0.0
 10
11.6351312247
 20
7.60529407
 30
0.0
 10
11.6376550531
 20
7.6152078987
 30
0.0
 10
11.6411564157
 20
7.6247588231
 30
0.0
 10
11.6456018078
 20
7.633854794
 30
0.0
 10
11.6509485653
 20
7.6424076849
 30
0.0
 10
11.6571451559
 20
7.6503346946
 30
0.0
 10
11.6641317342
 20
7.6575590378
 30
0.0
 10
11.6718407164
 20
7.6640107755
 30
0.0
 10
11.6801974676
 20
7.6696275103
 30
0.0
 10
11.6891210377
 20
7.6743550598
 30
0.0
 10
11.6985250228
 20
7.6781479556
 30
0.0
 10
11.7083184472
 20
7.6809698603
 30
0.0
 10
11.7184066752
 20
7.6827938853
 30
0.0
 10
11.7286923404
 20
7.6836028297
 30
0.0
 10
11.7390762984
 20
7.6833893306
 30
0.0
 10
11.7494585859
 20
7.6821558483
 30
0.0
 10
11.7597393643
 20
7.6799146182
 30
0.0
 10
11.769819854
 20
7.6766874997
 30
0.0
 10
11.7796032724
 20
7.672505793
 30
0.0
 10
11.7889957407
 20
7.6674099018
 30
0.0
 10
11.7979071528
 20
7.6614489267
 30
0.0
 10
11.8062520179
 20
7.6546802004
 30
0.0
 10
11.8139502632
 20
7.6471687508
 30
0.0
 10
11.820928016
 20
7.6389867113
 30
0.0
 10
11.8271182694
 20
7.6302126
 30
0.0
 10
11.8324615177
 20
7.6209306001
 30
0.0
 10
11.8369063044
 20
7.6112297251
 30
0.0
 10
11.8404097731
 20
7.6012031495
 30
0.0
 10
11.8429379808
 20
7.5909467977
 30
0.0
 10
11.8444664358
 20
7.580560454
 30
0.0
 10
11.8448099298
 20
7.5735894655
 30
0.0
 10
11.8448099298
 20
7.5701177879
 30
0.0
  0
SPLINE
  5
381
100
AcDbEntity
  8
0
100
AcDbSpline
 62
7
  6
CONTINUOUS
 70
0
 71
3
 72
80
 73
76
 74
0
 42
0.0000001
 43
0.0000001
 44
0.0000000001
 40
0.0
 40
0.0
 40
0.0
 40
0.0
 40
0.0027164327
 40
0.0054532447
 40
0.0082303176
 40
0.0110666212
 40
0.0139798388
 40
0.016986154
 40
0.0201001347
 40
0.0233346582
 40
0.0267010284
 40
0.0302089968
 40
0.0338669183
 40
0.0376819076
 40
0.0416598906
 40
0.0458058349
 40
0.0501237838
 40
0.0546169826
 40
0.0592880207
 40
0.0641388059
 40
0.0691707482
 40
0.0743847477
 40
0.0853596785
 40
0.0970635549
 40
0.1094903305
 40
0.1226296146
 40
0.1364673135
 40
0.1509861535
 40
0.1661660759
 40
0.1819845508
 40
0.1984168195
 40
0.2154361185
 40
0.2330138792
 40
0.2511198904
 40
0.2697224401
 40
0.2887884373
 40
0.3082835515
 40
0.3281723331
 40
0.348418324
 40
0.368984158
 40
0.3898316649
 40
0.4109219833
 40
0.4536720365
 40
0.4969140898
 40
0.5403224212
 40
0.5835697178
 40
0.6263302119
 40
0.6682828124
 40
0.6888582723
 40
0.7091151075
 40
0.7290159233
 40
0.74852422
 40
0.7676045125
 40
0.7862224423
 40
0.804344885
 40
0.8219400731
 40
0.8389777322
 40
0.8554292445
 40
0.8712678001
 40
0.8864685754
 40
0.9010089485
 40
0.9148687687
 40
0.92803068
 40
0.940480496
 40
0.9522076877
 40
0.9577984663
 40
0.9632066952
 40
0.9684323943
 40
0.9734759977
 40
0.9783383604
 40
0.9830208115
 40
0.987525367
 40
0.9918546057
 40
0.996011597
 40
1.0
 40
1.0
 40
1.0
 40
1.0
 10
12.9481713571
 20
8.3292779353
 30
0.0
 10
12.9489748315
 20
8.3292222097
 30
0.0
 10
12.9505836939
 20
8.3290376132
 30
0.0
 10
12.9529764956
 20
8.3285436257
 30
0.0
 10
12.9553512243
 20
8.3278326974
 30
0.0
 10
12.9577061663
 20
8.3269054389
 30
0.0
 10
12.960040117
 20
8.3257627229
 30
0.0
 10
12.96235189
 20
8.3244054456
 30
0.0
 10
12.9646403841
 20
8.3228345262
 30
0.0
 10
12.9669046339
 20
8.3210510281
 30
0.0
 10
12.9691436126
 20
8.3190559329
 30
0.0
 10
12.9713563796
 20
8.3168503626
 30
0.0
 10
12.9735419801
 20
8.3144354717
 30
0.0
 10
12.9756994008
 20
8.3118124531
 30
0.0
 10
12.9778277212
 20
8.3089826548
 30
0.0
 10
12.9799259133
 20
8.305947444
 30
0.0
 10
12.9819930074
 20
8.3027083275
 30
0.0
 10
12.9840280384
 20
8.2992669072
 30
0.0
 10
12.9860299791
 20
8.2956248566
 30
0.0
 10
12.9879978996
 20
8.2917839986
 30
0.0
 10
12.9899308269
 20
8.2877462108
 30
0.0
 10
12.992504168
 20
8.2820040621
 30
0.0
 10
12.9956161061
 20
8.2743386573
 30
0.0
 10
12.9991348681
 20
8.2645403309
 30
0.0
 10
13.0024922017
 20
8.2540101263
 30
0.0
 10
13.0056813505
 20
8.2427690076
 30
0.0
 10
13.0086958832
 20
8.230839193
 30
0.0
 10
13.0115296862
 20
8.2182444416
 30
0.0
 10
13.0141770014
 20
8.2050098782
 30
0.0
 10
13.016632438
 20
8.1911619644
 30
0.0
 10
13.0188910007
 20
8.1767284327
 30
0.0
 10
13.020948097
 20
8.1617382236
 30
0.0
 10
13.0227995394
 20
8.1462214141
 30
0.0
 10
13.0244415574
 20
8.1302091522
 30
0.0
 10
13.0258708027
 20
8.1137335963
 30
0.0
 10
13.0270843701
 20
8.0968278506
 30
0.0
 10
13.0280797895
 20
8.0795258928
 30
0.0
 10
13.028855031
 20
8.061862501
 30
0.0
 10
13.0294085095
 20
8.0438731812
 30
0.0
 10
13.0297390835
 20
8.0255941113
 30
0.0
 10
13.0298460961
 20
8.007062019
 30
0.0
 10
13.0296895898
 20
7.9819526087
 30
0.0
 10
13.0289302466
 20
7.9502093482
 30
0.0
 10
13.0271406849
 20
7.9118815649
 30
0.0
 10
13.024482802
 20
7.8734563354
 30
0.0
 10
13.0209779817
 20
7.8352424188
 30
0.0
 10
13.016654476
 20
7.7975468801
 30
0.0
 10
13.0123713984
 20
7.7666213996
 30
0.0
 10
13.0085539292
 20
7.7423743509
 30
0.0
 10
13.0055282545
 20
7.7246228763
 30
0.0
 10
13.0023277521
 20
7.7072237044
 30
0.0
 10
12.998958847
 20
7.6902117885
 30
0.0
 10
12.995428348
 20
7.6736213269
 30
0.0
 10
12.9917433851
 20
7.6574856517
 30
0.0
 10
12.9879114008
 20
7.6418371763
 30
0.0
 10
12.9839401343
 20
7.6267073278
 30
0.0
 10
12.9798376045
 20
7.6121264771
 30
0.0
 10
12.9756121067
 20
7.5981238691
 30
0.0
 10
12.9712721824
 20
7.5847275629
 30
0.0
 10
12.9668266021
 20
7.5719643778
 30
0.0
 10
12.9622843418
 20
7.5598598252
 30
0.0
 10
12.9576545667
 20
7.5484380647
 30
0.0
 10
12.9529466034
 20
7.5377217532
 30
0.0
 10
12.9481699241
 20
7.5277322851
 30
0.0
 10
12.9440774338
 20
7.519909764
 30
0.0
 10
12.9407696529
 20
7.5140388578
 30
0.0
 10
12.9383171984
 20
7.5098999468
 30
0.0
 10
12.9358547345
 20
7.5059569775
 30
0.0
 10
12.93338348
 20
7.5022119064
 30
0.0
 10
12.9309046923
 20
7.4986665875
 30
0.0
 10
12.9284195365
 20
7.4953227849
 30
0.0
 10
12.9259292393
 20
7.4921820978
 30
0.0
 10
12.9234349423
 20
7.4892460813
 30
0.0
 10
12.9209380151
 20
7.4865163289
 30
0.0
 10
12.9192378544
 20
7.4847999497
 30
0.0
 10
12.9183873104
 20
7.4839783872
 30
0.0
  0
SPLINE
  5
382
100
AcDbEntity
  8
0
100
AcDbSpline
 62
7
  6
CONTINUOUS
 70
0
 71
3
 72
15
 73
11
 74
0
 42
0.0000001
 43
0.0000001
 44
0.0000000001
 40
0.0
 40
0.0
 40
0.0
 40
0.0
 40
0.148189077
 40
0.2884124565
 40
0.4211645545
 40
0.5470824521
 40
0.6669392739
 40
0.7816491473
 40
0.892270482
 40
1.0
 40
1.0
 40
1.0
 40
1.0
 10
12.8884436085
 20
7.4986120265
 30
0.0
 10
12.8874084438
 20
7.497612134
 30
0.0
 10
12.8853392415
 20
7.4957212483
 30
0.0
 10
12.8821483258
 20
7.4931573842
 30
0.0
 10
12.8789607537
 20
7.4909492009
 30
0.0
 10
12.8757790284
 20
7.489099095
 30
0.0
 10
12.8726053245
 20
7.4876093298
 30
0.0
 10
12.8694419427
 20
7.4864820204
 30
0.0
 10
12.8662922127
 20
7.4857195606
 30
0.0
 10
12.8641828485
 20
7.4854531502
 30
0.0
 10
12.8631389123
 20
7.48538325
 30
0.0
  0
SPLINE
  5
383
100
AcDbEntity
  8
0
100
AcDbSpline
 62
7
  6
CONTINUOUS
 70
0
 71
3
 72
39
 73
35
 74
0
 42
0.0000001
 43
0.0000001
 44
0.0000000001
 40
0.0
 40
0.0
 40
0.0
 40
0.0
 40
0.0311160054
 40
0.0620232808
 40
0.0927351539
 40
0.1232711756
 40
0.1536587326
 40
0.1839312105
 40
0.2141268386
 40
0.2442870981
 40
0.2744549747
 40
0.3046731306
 40
0.33498209
 40
0.365418544
 40
0.3960138629
 40
0.4267928807
 40
0.457772997
 40
0.4889636213
 40
0.5203659688
 40
0.551973177
 40
0.5837707173
 40
0.6157370643
 40
0.6478445906
 40
0.6800606397
 40
0.7123487305
 40
0.7446698622
 40
0.7769838838
 40
0.8092508928
 40
0.841432625
 40
0.8734938027
 40
0.9054033951
 40
0.9371359477
 40
0.9686717614
 40
1.0
 40
1.0
 40
1.0
 40
1.0
 10
11.8448099298
 20
7.5701177879
 30
0.0
 10
11.8448099298
 20
7.5666696293
 30
0.0
 10
11.8444733031
 20
7.5597914535
 30
0.0
 10
11.8429508664
 20
7.5496116999
 30
0.0
 10
11.840427038
 20
7.5396978713
 30
0.0
 10
11.8369256755
 20
7.5301469469
 30
0.0
 10
11.8324802834
 20
7.521050976
 30
0.0
 10
11.8271335259
 20
7.512498085
 30
0.0
 10
11.8209369352
 20
7.5045710754
 30
0.0
 10
11.813950357
 20
7.4973467321
 30
0.0
 10
11.8062413748
 20
7.4908949945
 30
0.0
 10
11.7978846236
 20
7.4852782597
 30
0.0
 10
11.7889610535
 20
7.4805507102
 30
0.0
 10
11.7795570684
 20
7.4767578143
 30
0.0
 10
11.7697636439
 20
7.4739359096
 30
0.0
 10
11.7596754159
 20
7.4721118847
 30
0.0
 10
11.7493897508
 20
7.4713029403
 30
0.0
 10
11.7390057928
 20
7.4715164393
 30
0.0
 10
11.7286235053
 20
7.4727499217
 30
0.0
 10
11.7183427269
 20
7.4749911518
 30
0.0
 10
11.7082622372
 20
7.4782182702
 30
0.0
 10
11.6984788187
 20
7.4823999769
 30
0.0
 10
11.6890863505
 20
7.4874958682
 30
0.0
 10
11.6801749383
 20
7.4934568432
 30
0.0
 10
11.6718300732
 20
7.5002255695
 30
0.0
 10
11.664131828
 20
7.5077370192
 30
0.0
 10
11.6571540751
 20
7.5159190587
 30
0.0
 10
11.6509638218
 20
7.5246931699
 30
0.0
 10
11.6456205735
 20
7.5339751698
 30
0.0
 10
11.6411757867
 20
7.5436760448
 30
0.0
 10
11.6376723181
 20
7.5537026204
 30
0.0
 10
11.6351441103
 20
7.5639589723
 30
0.0
 10
11.6336156553
 20
7.5743453159
 30
0.0
 10
11.6332721613
 20
7.5813163045
 30
0.0
 10
11.6332721613
 20
7.584787982
 30
0.0
  0
SPLINE
  5
384
100
AcDbEntity
  8
0
100
AcDbSpline
 62
7
  6
CONTINUOUS
 70
0
 71
3
 72
37
 73
33
 74
0
 42
0.0000001
 43
0.0000001
 44
0.0000000001
 40
0.0
 40
0.0
 40
0.0
 40
0.0
 40
0.031146624
 40
0.0624481919
 40
0.0938952571
 40
0.1254804469
 40
0.1571906758
 40
0.1890114524
 40
0.2209257687
 40
0.25291484
 40
0.2849584237
 40
0.3170352183
 40
0.381163152
 40
0.4451601237
 40
0.4770758719
 40
0.5088983814
 40
0.5406106743
 40
0.5721979571
 40
0.6036479386
 40
0.6349511145
 40
0.6661010055
 40
0.697094333
 40
0.7279311336
 40
0.7586148063
 40
0.7891520874
 40
0.819552954
 40
0.8498304507
 40
0.8800004308
 40
0.9100812223
 40
0.9400932249
 40
0.9700584477
 40
1.0
 40
1.0
 40
1.0
 40
1.0
 10
11.4521611245
 20
7.5220058562
 30
0.0
 10
11.4503213732
 20
7.5221334434
 30
0.0
 10
11.4466406918
 20
7.5225239414
 30
0.0
 10
11.441164322
 20
7.5235075124
 30
0.0
 10
11.4357465765
 20
7.5248853177
 30
0.0
 10
11.4304167973
 20
7.5266497631
 30
0.0
 10
11.4252032297
 20
7.5287915195
 30
0.0
 10
11.4201337133
 20
7.5312990686
 30
0.0
 10
11.4152352389
 20
7.5341590574
 30
0.0
 10
11.4105339629
 20
7.5373561384
 30
0.0
 10
11.4060547252
 20
7.5408734891
 30
0.0
 10
11.4004126063
 20
7.5459629266
 30
0.0
 10
11.3940331981
 20
7.5530249218
 30
0.0
 10
11.3886798002
 20
7.5608820415
 30
0.0
 10
11.385084971
 20
7.5675419213
 30
0.0
 10
11.382748253
 20
7.5726929641
 30
0.0
 10
11.3807820643
 20
7.5779755584
 30
0.0
 10
11.3791967458
 20
7.5833618019
 30
0.0
 10
11.3780008545
 20
7.5888229165
 30
0.0
 10
11.3772008074
 20
7.5943297986
 30
0.0
 10
11.3768009258
 20
7.5998530683
 30
0.0
 10
11.3768034018
 20
7.6053632547
 30
0.0
 10
11.3772082873
 20
7.6108309424
 30
0.0
 10
11.3780134894
 20
7.6162269278
 30
0.0
 10
11.3792147806
 20
7.6215223727
 30
0.0
 10
11.380805808
 20
7.6266889607
 30
0.0
 10
11.3827781153
 20
7.6316990522
 30
0.0
 10
11.3851212113
 20
7.6365258386
 30
0.0
 10
11.3878225829
 20
7.6411434553
 30
0.0
 10
11.390867897
 20
7.6455272469
 30
0.0
 10
11.3942405667
 20
7.6496534364
 30
0.0
 10
11.3966963336
 20
7.6522188135
 30
0.0
 10
11.3979714485
 20
7.653450466
 30
0.0
  0
SPLINE
  5
385
100
AcDbEntity
  8
0
100
AcDbSpline
 62
7
  6
CONTINUOUS
 70
0
 71
3
 72
41
 73
37
 74
0
 42
0.0000001
 43
0.0000001
 44
0.0000000001
 40
0.0
 40
0.0
 40
0.0
 40
0.0
 40
0.0311444983
 40
0.062442467
 40
0.093887251
 40
0.1254695609
 40
0.157177086
 40
0.1889950997
 40
0.2209066479
 40
0.2528929497
 40
0.284933762
 40
0.3170077852
 40
0.3490930781
 40
0.3811674822
 40
0.4132090489
 40
0.445196464
 40
0.4771094635
 40
0.5089292351
 40
0.540638799
 40
0.5722233621
 40
0.6036706378
 40
0.6349711269
 40
0.6661183495
 40
0.6971090237
 40
0.7279431823
 40
0.7586242225
 40
0.7891588828
 40
0.8195571428
 40
0.8498320452
 40
0.86493089
 40
0.8800050502
 40
0.9100832578
 40
0.9400926753
 40
0.9550812784
 40
0.9700610371
 40
1.0
 40
1.0
 40
1.0
 40
1.0
 10
12.338881069
 20
9.3889826603
 30
0.0
 10
12.3355671214
 20
9.3892124834
 30
0.0
 10
12.3289372534
 20
9.3899158362
 30
0.0
 10
12.3190728366
 20
9.3916875672
 30
0.0
 10
12.3093140621
 20
9.3941692705
 30
0.0
 10
12.2997136685
 20
9.3973475455
 30
0.0
 10
12.2903226337
 20
9.4012053919
 30
0.0
 10
12.2811910587
 20
9.4057221577
 30
0.0
 10
12.2723675875
 20
9.4108737117
 30
0.0
 10
12.2638992365
 20
9.416632546
 30
0.0
 10
12.2558311248
 20
9.4229679325
 30
0.0
 10
12.2482062424
 20
9.4298460819
 30
0.0
 10
12.2410652222
 20
9.4372303236
 30
0.0
 10
12.2344461262
 20
9.4450812993
 30
0.0
 10
12.2283842442
 20
9.4533571704
 30
0.0
 10
12.2229119076
 20
9.462013839
 30
0.0
 10
12.2180583186
 20
9.47100518
 30
0.0
 10
12.2138493949
 20
9.4802832843
 30
0.0
 10
12.2103076326
 20
9.4897987106
 30
0.0
 10
12.2074519859
 20
9.4995007459
 30
0.0
 10
12.2052977649
 20
9.5093376718
 30
0.0
 10
12.2038565531
 20
9.5192570364
 30
0.0
 10
12.2031361426
 20
9.5292059312
 30
0.0
 10
12.2031404885
 20
9.5391312666
 30
0.0
 10
12.203869688
 20
9.5489800632
 30
0.0
 10
12.2053199552
 20
9.5586996934
 30
0.0
 10
12.2074837078
 20
9.5682383036
 30
0.0
 10
12.2103493318
 20
9.5775445663
 30
0.0
 10
12.2133128819
 20
9.5850727891
 30
0.0
 10
12.2160172651
 20
9.5909271556
 30
0.0
 10
12.2189358372
 20
9.5966542221
 30
0.0
 10
12.2229880965
 20
9.6035814191
 30
0.0
 10
12.2275615569
 20
9.6101650987
 30
0.0
 10
12.2315136947
 20
9.6151975078
 30
0.0
 10
12.2356543753
 20
9.6200656526
 30
0.0
 10
12.2389717715
 20
9.6235313733
 30
0.0
 10
12.2412685764
 20
9.6257499317
 30
0.0
  0
SPLINE
  5
386
100
AcDbEntity
  8
0
100
AcDbSpline
 62
4
  6
CONTINUOUS
 70
0
 71
3
 72
318
 73
314
 74
0
 42
0.0000001
 43
0.0000001
 44
0.0000000001
 40
0.0
 40
0.0
 40
0.0
 40
0.0
 40
0.015625
 40
0.0234375
 40
0.03125
 40
0.0390625
 40
0.046875
 40
0.05078125
 40
0.0546875
 40
0.056640625
 40
0.05859375
 40
0.060546875
 40
0.0615234375
 40
0.0620117188
 40
0.0625
 40
0.0629882812
 40
0.0634765625
 40
0.064453125
 40
0.06640625
 40
0.068359375
 40
0.0703125
 40
0.07421875
 40
0.078125
 40
0.0859375
 40
0.09375
 40
0.1015625
 40
0.109375
 40
0.11328125
 40
0.1171875
 40
0.119140625
 40
0.12109375
 40
0.123046875
 40
0.1240234375
 40
0.1245117188
 40
0.125
 40
0.1254882812
 40
0.1259765625
 40
0.126953125
 40
0.12890625
 40
0.130859375
 40
0.1328125
 40
0.13671875
 40
0.140625
 40
0.1484375
 40
0.15625
 40
0.1640625
 40
0.171875
 40
0.17578125
 40
0.1796875
 40
0.181640625
 40
0.18359375
 40
0.185546875
 40
0.1865234375
 40
0.1870117188
 40
0.1875
 40
0.1879882812
 40
0.1884765625
 40
0.189453125
 40
0.19140625
 40
0.193359375
 40
0.1953125
 40
0.19921875
 40
0.203125
 40
0.2109375
 40
0.21875
 40
0.2265625
 40
0.234375
 40
0.23828125
 40
0.2421875
 40
0.244140625
 40
0.24609375
 40
0.248046875
 40
0.2490234375
 40
0.2495117188
 40
0.25
 40
0.2504882812
 40
0.2509765625
 40
0.251953125
 40
0.25390625
 40
0.255859375
 40
0.2578125
 40
0.26171875
 40
0.265625
 40
0.2734375
 40
0.28125
 40
0.2890625
 40
0.296875
 40
0.30078125
 40
0.3046875
 40
0.306640625
 40
0.30859375
 40
0.310546875
 40
0.3115234375
 40
0.3120117188
 40
0.3125
 40
0.3129882812
 40
0.3134765625
 40
0.314453125
 40
0.31640625
 40
0.318359375
 40
0.3203125
 40
0.32421875
 40
0.328125
 40
0.3359375
 40
0.34375
 40
0.3515625
 40
0.359375
 40
0.36328125
 40
0.3671875
 40
0.369140625
 40
0.37109375
 40
0.373046875
 40
0.3740234375
 40
0.3745117188
 40
0.375
 40
0.3754882812
 40
0.3759765625
 40
0.376953125
 40
0.37890625
 40
0.380859375
 40
0.3828125
 40
0.38671875
 40
0.390625
 40
0.3984375
 40
0.40625
 40
0.4140625
 40
0.421875
 40
0.42578125
 40
0.4296875
 40
0.431640625
 40
0.43359375
 40
0.435546875
 40
0.4365234375
 40
0.4370117188
 40
0.4375
 40
0.4379882812
 40
0.4384765625
 40
0.439453125
 40
0.44140625
 40
0.443359375
 40
0.4453125
 40
0.44921875
 40
0.453125
 40
0.4609375
 40
0.46875
 40
0.4765625
 40
0.484375
 40
0.48828125
 40
0.4921875
 40
0.494140625
 40
0.49609375
 40
0.498046875
 40
0.4990234375
 40
0.4995117188
 40
0.5
 40
0.5004882812
 40
0.5009765625
 40
0.501953125
 40
0.50390625
 40
0.505859375
 40
0.5078125
 40
0.51171875
 40
0.515625
 40
0.5234375
 40
0.53125
 40
0.5390625
 40
0.546875
 40
0.55078125
 40
0.5546875
 40
0.556640625
 40
0.55859375
 40
0.560546875
 40
0.5615234375
 40
0.5620117188
 40
0.5625
 40
0.5629882812
 40
0.5634765625
 40
0.564453125
 40
0.56640625
 40
0.568359375
 40
0.5703125
 40
0.57421875
 40
0.578125
 40
0.5859375
 40
0.59375
 40
0.6015625
 40
0.609375
 40
0.61328125
 40
0.6171875
 40
0.619140625
 40
0.62109375
 40
0.623046875
 40
0.6240234375
 40
0.6245117188
 40
0.625
 40
0.6254882812
 40
0.6259765625
 40
0.626953125
 40
0.62890625
 40
0.630859375
 40
0.6328125
 40
0.63671875
 40
0.640625
 40
0.6484375
 40
0.65625
 40
0.6640625
 40
0.66796875
 40
0.671875
 40
0.67578125
 40
0.6796875
 40
0.681640625
 40
0.68359375
 40
0.685546875
 40
0.6865234375
 40
0.6870117188
 40
0.6875
 40
0.6879882812
 40
0.6884765625
 40
0.689453125
 40
0.69140625
 40
0.693359375
 40
0.6953125
 40
0.69921875
 40
0.703125
 40
0.70703125
 40
0.7109375
 40
0.71875
 40
0.7265625
 40
0.73046875
 40
0.734375
 40
0.73828125
 40
0.7421875
 40
0.744140625
 40
0.74609375
 40
0.748046875
 40
0.7490234375
 40
0.7495117188
 40
0.75
 40
0.7504882812
 40
0.7509765625
 40
0.751953125
 40
0.75390625
 40
0.755859375
 40
0.7578125
 40
0.76171875
 40
0.765625
 40
0.76953125
 40
0.7734375
 40
0.78125
 40
0.7890625
 40
0.796875
 40
0.80078125
 40
0.8046875
 40
0.806640625
 40
0.80859375
 40
0.810546875
 40
0.8115234375
 40
0.8120117188
 40
0.8125
 40
0.8129882812
 40
0.8134765625
 40
0.814453125
 40
0.81640625
 40
0.818359375
 40
0.8203125
 40
0.82421875
 40
0.828125
 40
0.8359375
 40
0.84375
 40
0.8515625
 40
0.859375
 40
0.86328125
 40
0.8671875
 40
0.869140625
 40
0.87109375
 40
0.873046875
 40
0.8740234375
 40
0.8745117188
 40
0.875
 40
0.8754882812
 40
0.8759765625
 40
0.876953125
 40
0.87890625
 40
0.880859375
 40
0.8828125
 40
0.88671875
 40
0.890625
 40
0.8984375
 40
0.90625
 40
0.9140625
 40
0.921875
 40
0.92578125
 40
0.9296875
 40
0.931640625
 40
0.93359375
 40
0.935546875
 40
0.9365234375
 40
0.9370117188
 40
0.9375
 40
0.9379882812
 40
0.9384765625
 40
0.939453125
 40
0.94140625
 40
0.943359375
 40
0.9453125
 40
0.94921875
 40
0.953125
 40
0.95703125
 40
0.9609375
 40
0.96875
 40
0.9765625
 40
0.984375
 40
1.0
 40
1.0
 40
1.0
 40
1.0
 10
10.3568011419
 20
7.2009738268
 30
0.0
 10
10.3570571516
 20
7.1983450832
 30
0.0
 10
10.357441166
 20
7.1944019679
 30
0.0
 10
10.357953186
 20
7.1891444809
 30
0.0
 10
10.3583371989
 20
7.1852013654
 30
0.0
 10
10.3587212197
 20
7.1812582509
 30
0.0
 10
10.3590412127
 20
7.177972319
 30
0.0
 10
10.3592972614
 20
7.1753435805
 30
0.0
 10
10.3594571684
 20
7.1737006031
 30
0.0
 10
10.3595853767
 20
7.1723862575
 30
0.0
 10
10.3596807588
 20
7.1714003987
 30
0.0
 10
10.3597627066
 20
7.1705791665
 30
0.0
 10
10.359815237
 20
7.1700036822
 30
0.0
 10
10.3598528008
 20
7.1696758049
 30
0.0
 10
10.3598597152
 20
7.169427162
 30
0.0
 10
10.3599478902
 20
7.1691889736
 30
0.0
 10
10.3600371124
 20
7.1688677424
 30
0.0
 10
10.3602064574
 20
7.1683072869
 30
0.0
 10
10.3604414745
 20
7.1675057479
 30
0.0
 10
10.3607264502
 20
7.1665442813
 30
0.0
 10
10.3611053857
 20
7.165262193
 30
0.0
 10
10.3615794085
 20
7.1636596282
 30
0.0
 10
10.3623376474
 20
7.161095499
 30
0.0
 10
10.3632855141
 20
7.1578903463
 30
0.0
 10
10.3644229232
 20
7.1540441587
 30
0.0
 10
10.3655603475
 20
7.1501979747
 30
0.0
 10
10.3665081764
 20
7.1469928132
 30
0.0
 10
10.367266491
 20
7.1444287017
 30
0.0
 10
10.3677403212
 20
7.142826092
 30
0.0
 10
10.3681196519
 20
7.1415440957
 30
0.0
 10
10.3684034203
 20
7.1405823483
 30
0.0
 10
10.368642215
 20
7.1397816878
 30
0.0
 10
10.3688048162
 20
7.1392196639
 30
0.0
 10
10.3689048437
 20
7.1389009457
 30
0.0
 10
10.3689598282
 20
7.1386550383
 30
0.0
 10
10.3690914007
 20
7.1384353867
 30
0.0
 10
10.3692401159
 20
7.1381333597
 30
0.0
 10
10.3695128143
 20
7.1376090793
 30
0.0
 10
10.3698958762
 20
7.1368578765
 30
0.0
 10
10.3703583358
 20
7.1359573881
 30
0.0
 10
10.3709739758
 20
7.1347564033
 30
0.0
 10
10.3717438589
 20
7.1332552865
 30
0.0
 10
10.3729754855
 20
7.1308534357
 30
0.0
 10
10.3745150831
 20
7.1278511444
 30
0.0
 10
10.376362571
 20
7.1242483845
 30
0.0
 10
10.3782100733
 20
7.1206456305
 30
0.0
 10
10.3797496347
 20
7.1176433244
 30
0.0
 10
10.3809813338
 20
7.1152415033
 30
0.0
 10
10.3817510327
 20
7.1137403114
 30
0.0
 10
10.3823670506
 20
7.1125394807
 30
0.0
 10
10.3828283556
 20
7.1116385213
 30
0.0
 10
10.38321503
 20
7.1108887919
 30
0.0
 10
10.3834812796
 20
7.1103618813
 30
0.0
 10
10.3836403275
 20
7.1100640685
 30
0.0
 10
10.3837401611
 20
7.1098314721
 30
0.0
 10
10.3839143513
 20
7.1096341836
 30
0.0
 10
10.3841206684
 20
7.1093588165
 30
0.0
 10
10.3844938076
 20
7.1088826622
 30
0.0
 10
10.3850205459
 20
7.1081994418
 30
0.0
 10
10.385655336
 20
7.1073808614
 30
0.0
 10
10.3865007783
 20
7.1062889723
 30
0.0
 10
10.3875579046
 20
7.1049242646
 30
0.0
 10
10.3892491258
 20
7.1027406464
 30
0.0
 10
10.3913632148
 20
7.1000111534
 30
0.0
 10
10.3939000934
 20
7.0967357476
 30
0.0
 10
10.3964369845
 20
7.093460351
 30
0.0
 10
10.3985510425
 20
7.0907308349
 30
0.0
 10
10.4002423256
 20
7.0885472629
 30
0.0
 10
10.4012992948
 20
7.0871824376
 30
0.0
 10
10.4021450594
 20
7.08609079
 30
0.0
 10
10.4027788649
 20
7.085271472
 30
0.0
 10
10.4033086838
 20
7.0845905594
 30
0.0
 10
10.4036763236
 20
7.0841102853
 30
0.0
 10
10.4038914521
 20
7.0838415191
 30
0.0
 10
10.4040385766
 20
7.0836239546
 30
0.0
 10
10.4042400644
 20
7.0834675114
 30
0.0
 10
10.4044897524
 20
7.0832376007
 30
0.0
 10
10.4049355412
 20
7.0828451902
 30
0.0
 10
10.4055677634
 20
7.0822794106
 30
0.0
 10
10.4063284071
 20
7.0816026979
 30
0.0
 10
10.4073419082
 20
7.0806996379
 30
0.0
 10
10.408609021
 20
7.0795710788
 30
0.0
 10
10.4106362693
 20
7.0777652356
 30
0.0
 10
10.4131703753
 20
7.0755079829
 30
0.0
 10
10.4162112818
 20
7.072799256
 30
0.0
 10
10.419252198
 20
7.0700905414
 30
0.0
 10
10.4217862799
 20
7.0678332583
 30
0.0
 10
10.4238135764
 20
7.0660274759
 30
0.0
 10
10.4250805666
 20
7.0648987621
 30
0.0
 10
10.4260943192
 20
7.0639960195
 30
0.0
 10
10.4268541946
 20
7.0633183372
 30
0.0
 10
10.4274888207
 20
7.0627555913
 30
0.0
 10
10.4279303182
 20
7.0623577651
 30
0.0
 10
10.428186882
 20
7.0621365318
 30
0.0
 10
10.4283672493
 20
7.0619534344
 30
0.0
 10
10.4285936992
 20
7.0618359785
 30
0.0
 10
10.4288795582
 20
7.0616564743
 30
0.0
 10
10.4293873008
 20
7.0613530097
 30
0.0
 10
10.4301087318
 20
7.0609139115
 30
0.0
 10
10.430976125
 20
7.060389381
 30
0.0
 10
10.4321320639
 20
7.0596891731
 30
0.0
 10
10.433577188
 20
7.0588141988
 30
0.0
 10
10.4358892744
 20
7.0574140803
 30
0.0
 10
10.4387794211
 20
7.0556639873
 30
0.0
 10
10.4422475798
 20
7.0535638504
 30
0.0
 10
10.445715746
 20
7.0514637268
 30
0.0
 10
10.448605874
 20
7.0497136003
 30
0.0
 10
10.4509179979
 20
7.0483135489
 30
0.0
 10
10.4523630269
 20
7.0474384039
 30
0.0
 10
10.4535191609
 20
7.0467385464
 30
0.0
 10
10.4543859581
 20
7.0462129456
 30
0.0
 10
10.4551092539
 20
7.0457771959
 30
0.0
 10
10.4556136675
 20
7.0454677538
 30
0.0
 10
10.4559048603
 20
7.045297827
 30
0.0
 10
10.4561149267
 20
7.0451509523
 30
0.0
 10
10.4563568275
 20
7.0450783471
 30
0.0
 10
10.4566682578
 20
7.0449556342
 30
0.0
 10
10.4572184343
 20
7.0447529567
 30
0.0
 10
10.4580016959
 20
7.044457107
 30
0.0
 10
10.4589427676
 20
7.0441047884
 30
0.0
 10
10.4601971256
 20
7.0436340868
 30
0.0
 10
10.4617652114
 20
7.0430460329
 30
0.0
 10
10.4642740714
 20
7.042104966
 30
0.0
 10
10.4674101731
 20
7.0409286948
 30
0.0
 10
10.471173483
 20
7.0395171407
 30
0.0
 10
10.4749367983
 20
7.0381056014
 30
0.0
 10
10.4780728866
 20
7.0369292933
 30
0.0
 10
10.4805817734
 20
7.0359883003
 30
0.0
 10
10.4821497912
 20
7.0354000587
 30
0.0
 10
10.4834042888
 20
7.0349297422
 30
0.0
 10
10.4843449337
 20
7.0345762472
 30
0.0
 10
10.4851295307
 20
7.0342840783
 30
0.0
 10
10.4856773233
 20
7.0340748299
 30
0.0
 10
10.4859925732
 20
7.0339626451
 30
0.0
 10
10.4862227412
 20
7.033857701
 30
0.0
 10
10.4864768743
 20
7.0338322858
 30
0.0
 10
10.4868073591
 20
7.0337706583
 30
0.0
 10
10.4873896023
 20
7.0336757349
 30
0.0
 10
10.4882193421
 20
7.0335333729
 30
0.0
 10
10.4892159014
 20
7.0333654308
 30
0.0
 10
10.4905443427
 20
7.0331404977
 30
0.0
 10
10.4922049986
 20
7.0328596773
 30
0.0
 10
10.4948619897
 20
7.0324101712
 30
0.0
 10
10.4981832486
 20
7.0318483555
 30
0.0
 10
10.5021687508
 20
7.031174146
 30
0.0
 10
10.5061542547
 20
7.0304999522
 30
0.0
 10
10.5094755096
 20
7.029938097
 30
0.0
 10
10.5121325087
 20
7.0294886698
 30
0.0
 10
10.5137931444
 20
7.0292076489
 30
0.0
 10
10.5151216271
 20
7.0289831274
 30
0.0
 10
10.51611806
 20
7.028813928
 30
0.0
 10
10.5169481951
 20
7.0286754997
 30
0.0
 10
10.5175297325
 20
7.0285735539
 30
0.0
 10
10.5178613482
 20
7.0285231782
 30
0.0
 10
10.5181120076
 20
7.028463201
 30
0.0
 10
10.5183552225
 20
7.0284880659
 30
0.0
 10
10.5186821057
 20
7.0284916253
 30
0.0
 10
10.5192529416
 20
7.0285116425
 30
0.0
 10
10.5200690538
 20
7.0285330298
 30
0.0
 10
10.5210481178
 20
7.0285617802
 30
0.0
 10
10.5223536311
 20
7.0285990363
 30
0.0
 10
10.5239854902
 20
7.0286459754
 30
0.0
 10
10.526596483
 20
7.0287208717
 30
0.0
 10
10.5298602177
 20
7.0288145633
 30
0.0
 10
10.5337767024
 20
7.0289269607
 30
0.0
 10
10.5376931848
 20
7.0290393742
 30
0.0
 10
10.5409569251
 20
7.0291330257
 30
0.0
 10
10.5435679066
 20
7.0292080022
 30
0.0
 10
10.5451997945
 20
7.0292547374
 30
0.0
 10
10.5465052488
 20
7.0292924121
 30
0.0
 10
10.5474844928
 20
7.0293198834
 30
0.0
 10
10.5483000418
 20
7.0293452727
 30
0.0
 10
10.5488718832
 20
7.0293581458
 30
0.0
 10
10.5491971554
 20
7.0293731519
 30
0.0
 10
10.5494453188
 20
7.0293628561
 30
0.0
 10
10.5496773923
 20
7.0294349368
 30
0.0
 10
10.5499924359
 20
7.0295023106
 30
0.0
 10
10.5505411472
 20
7.0296336023
 30
0.0
 10
10.5513263878
 20
7.0298141628
 30
0.0
 10
10.5522680912
 20
7.0300338312
 30
0.0
 10
10.5535239002
 20
7.030325676
 30
0.0
 10
10.5550935915
 20
7.0306908403
 30
0.0
 10
10.5576051367
 20
7.031274903
 30
0.0
 10
10.5607445545
 20
7.0320050504
 30
0.0
 10
10.5645118625
 20
7.0328811958
 30
0.0
 10
10.5682791659
 20
7.0337573566
 30
0.0
 10
10.5714185952
 20
7.0344874654
 30
0.0
 10
10.5739301175
 20
7.0350716053
 30
0.0
 10
10.5754998669
 20
7.0354365731
 30
0.0
 10
10.5767555566
 20
7.0357288214
 30
0.0
 10
10.5776976246
 20
7.0359472571
 30
0.0
 10
10.5784817245
 20
7.0361316744
 30
0.0
 10
10.579032472
 20
7.0362560811
 30
0.0
 10
10.5793442533
 20
7.0363344864
 30
0.0
 10
10.5795863475
 20
7.0363726817
 30
0.0
 10
10.5797968745
 20
7.036489654
 30
0.0
 10
10.5800885881
 20
7.0366181388
 30
0.0
 10
10.5805939568
 20
7.0368557899
 30
0.0
 10
10.5813185941
 20
7.037188598
 30
0.0
 10
10.5821870109
 20
7.0375908327
 30
0.0
 10
10.5833453009
 20
7.0381261449
 30
0.0
 10
10.5847930262
 20
7.0387956279
 30
0.0
 10
10.5871094633
 20
7.0398666092
 30
0.0
 10
10.5900049834
 20
7.0412054013
 30
0.0
 10
10.5934796185
 20
7.0428119243
 30
0.0
 10
10.5963751461
 20
7.0441506982
 30
0.0
 10
10.5986915668
 20
7.0452217197
 30
0.0
 10
10.6004288875
 20
7.0460249758
 30
0.0
 10
10.602166188
 20
7.0468282705
 30
0.0
 10
10.6036140015
 20
7.0474975626
 30
0.0
 10
10.6047721111
 20
7.0480332654
 30
0.0
 10
10.6056410789
 20
7.0484343073
 30
0.0
 10
10.6063639923
 20
7.0487708474
 30
0.0
 10
10.6068724384
 20
7.0490018362
 30
0.0
 10
10.6071592212
 20
7.0491409956
 30
0.0
 10
10.6073848942
 20
7.0492251788
 30
0.0
 10
10.6075701025
 20
7.0493865247
 30
0.0
 10
10.6078311615
 20
7.0495747373
 30
0.0
 10
10.6082814385
 20
7.0499166497
 30
0.0
 10
10.6089281295
 20
7.0503985398
 30
0.0
 10
10.6097026871
 20
7.0509796142
 30
0.0
 10
10.6107359445
 20
7.0517533998
 30
0.0
 10
10.6120273399
 20
7.0527209681
 30
0.0
 10
10.6135770901
 20
7.0538819059
 30
0.0
 10
10.6151268199
 20
7.0550428823
 30
0.0
 10
10.6171931336
 20
7.0565908373
 30
0.0
 10
10.6197760228
 20
7.0585257861
 30
0.0
 10
10.6223589144
 20
7.0604607318
 30
0.0
 10
10.6244252243
 20
7.0620086916
 30
0.0
 10
10.6259749653
 20
7.0631696537
 30
0.0
 10
10.6275246738
 20
7.0643306452
 30
0.0
 10
10.6288161987
 20
7.0652980465
 30
0.0
 10
10.6298491922
 20
7.0660721728
 30
0.0
 10
10.6306245557
 20
7.0666522066
 30
0.0
 10
10.6312687252
 20
7.0671373522
 30
0.0
 10
10.6317235034
 20
7.067473453
 30
0.0
 10
10.6319773504
 20
7.0676709772
 30
0.0
 10
10.6321847117
 20
7.0678037211
 30
0.0
 10
10.6323271817
 20
7.0679953286
 30
0.0
 10
10.6325397765
 20
7.068230273
 30
0.0
 10
10.6329012714
 20
7.0686509921
 30
0.0
 10
10.6334232063
 20
7.069247018
 30
0.0
 10
10.6340471681
 20
7.0699643899
 30
0.0
 10
10.6348799417
 20
7.0709201379
 30
0.0
 10
10.6359206257
 20
7.0721150794
 30
0.0
 10
10.6371695677
 20
7.0735488993
 30
0.0
 10
10.6384184774
 20
7.0749827486
 30
0.0
 10
10.6400837014
 20
7.0768945376
 30
0.0
 10
10.642165229
 20
7.0792842762
 30
0.0
 10
10.6446630571
 20
7.082151966
 30
0.0
 10
10.6467446006
 20
7.0845416927
 30
0.0
 10
10.6484097896
 20
7.0864535079
 30
0.0
 10
10.6494506373
 20
7.0876483151
 30
0.0
 10
10.6502830759
 20
7.0886043379
 30
0.0
 10
10.6509080607
 20
7.0893208705
 30
0.0
 10
10.6514267951
 20
7.0899195222
 30
0.0
 10
10.6517940034
 20
7.0903355537
 30
0.0
 10
10.6519974439
 20
7.0905780089
 30
0.0
 10
10.6521680328
 20
7.0907465458
 30
0.0
 10
10.6522697843
 20
7.0909659392
 30
0.0
 10
10.6524294642
 20
7.0912407244
 30
0.0
 10
10.6526977167
 20
7.0917298635
 30
0.0
 10
10.6530867834
 20
7.0924243127
 30
0.0
 10
10.65355116
 20
7.0932595013
 30
0.0
 10
10.6541712033
 20
7.0943724401
 30
0.0
 10
10.6549459579
 20
7.0957638347
 30
0.0
 10
10.6561857327
 20
7.0979899425
 30
0.0
 10
10.6577353933
 20
7.1007726199
 30
0.0
 10
10.6595950126
 20
7.1041118135
 30
0.0
 10
10.661454618
 20
7.1074510156
 30
0.0
 10
10.6630043135
 20
7.1102336719
 30
0.0
 10
10.6642440186
 20
7.1124598219
 30
0.0
 10
10.6650189504
 20
7.1138511092
 30
0.0
 10
10.6656386298
 20
7.1149642683
 30
0.0
 10
10.666104118
 20
7.1157987838
 30
0.0
 10
10.666489707
 20
7.1164953389
 30
0.0
 10
10.6667641678
 20
7.1169807186
 30
0.0
 10
10.6669139004
 20
7.1172615274
 30
0.0
 10
10.6670462069
 20
7.1174624183
 30
0.0
 10
10.6671020362
 20
7.1177004474
 30
0.0
 10
10.6672031514
 20
7.1180048652
 30
0.0
 10
10.667367674
 20
7.1185436321
 30
0.0
 10
10.6676092044
 20
7.1193101435
 30
0.0
 10
10.6678962594
 20
7.1202313079
 30
0.0
 10
10.668279971
 20
7.1214590553
 30
0.0
 10
10.6687592778
 20
7.1229939012
 30
0.0
 10
10.6695263546
 20
7.1254495642
 30
0.0
 10
10.6704851364
 20
7.1285191741
 30
0.0
 10
10.671635704
 20
7.1322026919
 30
0.0
 10
10.6727862566
 20
7.1358862162
 30
0.0
 10
10.6737450762
 20
7.1389558101
 30
0.0
 10
10.6745120774
 20
7.1414115051
 30
0.0
 10
10.6749915765
 20
7.1429462695
 30
0.0
 10
10.6753748933
 20
7.144174184
 30
0.0
 10
10.6756631544
 20
7.1450948379
 30
0.0
 10
10.6759009113
 20
7.1458629465
 30
0.0
 10
10.6760721701
 20
7.1463988623
 30
0.0
 10
10.6761624923
 20
7.1467078483
 30
0.0
 10
10.6762514741
 20
7.1469318453
 30
0.0
 10
10.6762592652
 20
7.1471854382
 30
0.0
 10
10.6762979735
 20
7.1475132388
 30
0.0
 10
10.6763525182
 20
7.1480916996
 30
0.0
 10
10.6764373376
 20
7.1489155574
 30
0.0
 10
10.6765361681
 20
7.1499052633
 30
0.0
 10
10.6766689735
 20
7.151224495
 30
0.0
 10
10.6768346263
 20
7.1528736638
 30
0.0
 10
10.6770335615
 20
7.154852611
 30
0.0
 10
10.677232456
 20
7.156831573
 30
0.0
 10
10.6774976629
 20
7.1594701838
 30
0.0
 10
10.6778291667
 20
7.1627684491
 30
0.0
 10
10.6782269733
 20
7.1667263666
 30
0.0
 10
10.6787573814
 20
7.1720035903
 30
0.0
 10
10.6791551877
 20
7.1759615081
 30
0.0
 10
10.6794203918
 20
7.1786001199
 30
0.0
  0
SPLINE
  5
387
100
AcDbEntity
  8
0
100
AcDbSpline
 62
4
  6
CONTINUOUS
 70
0
 71
3
 72
318
 73
314
 74
0
 42
0.0000001
 43
0.0000001
 44
0.0000000001
 40
0.0
 40
0.0
 40
0.0
 40
0.0
 40
0.015625
 40
0.0234375
 40
0.03125
 40
0.0390625
 40
0.046875
 40
0.05078125
 40
0.0546875
 40
0.056640625
 40
0.05859375
 40
0.060546875
 40
0.0615234375
 40
0.0620117188
 40
0.0625
 40
0.0629882812
 40
0.0634765625
 40
0.064453125
 40
0.06640625
 40
0.068359375
 40
0.0703125
 40
0.07421875
 40
0.078125
 40
0.0859375
 40
0.09375
 40
0.1015625
 40
0.109375
 40
0.11328125
 40
0.1171875
 40
0.119140625
 40
0.12109375
 40
0.123046875
 40
0.1240234375
 40
0.1245117188
 40
0.125
 40
0.1254882812
 40
0.1259765625
 40
0.126953125
 40
0.12890625
 40
0.130859375
 40
0.1328125
 40
0.13671875
 40
0.140625
 40
0.1484375
 40
0.15625
 40
0.1640625
 40
0.171875
 40
0.17578125
 40
0.1796875
 40
0.181640625
 40
0.18359375
 40
0.185546875
 40
0.1865234375
 40
0.1870117188
 40
0.1875
 40
0.1879882812
 40
0.1884765625
 40
0.189453125
 40
0.19140625
 40
0.193359375
 40
0.1953125
 40
0.19921875
 40
0.203125
 40
0.2109375
 40
0.21875
 40
0.2265625
 40
0.234375
 40
0.23828125
 40
0.2421875
 40
0.244140625
 40
0.24609375
 40
0.248046875
 40
0.2490234375
 40
0.2495117188
 40
0.25
 40
0.2504882812
 40
0.2509765625
 40
0.251953125
 40
0.25390625
 40
0.255859375
 40
0.2578125
 40
0.26171875
 40
0.265625
 40
0.2734375
 40
0.28125
 40
0.2890625
 40
0.296875
 40
0.30078125
 40
0.3046875
 40
0.306640625
 40
0.30859375
 40
0.310546875
 40
0.3115234375
 40
0.3120117188
 40
0.3125
 40
0.3129882812
 40
0.3134765625
 40
0.314453125
 40
0.31640625
 40
0.318359375
 40
0.3203125
 40
0.32421875
 40
0.328125
 40
0.3359375
 40
0.34375
 40
0.3515625
 40
0.359375
 40
0.36328125
 40
0.3671875
 40
0.369140625
 40
0.37109375
 40
0.373046875
 40
0.3740234375
 40
0.3745117188
 40
0.375
 40
0.3754882812
 40
0.3759765625
 40
0.376953125
 40
0.37890625
 40
0.380859375
 40
0.3828125
 40
0.38671875
 40
0.390625
 40
0.3984375
 40
0.40625
 40
0.4140625
 40
0.421875
 40
0.42578125
 40
0.4296875
 40
0.431640625
 40
0.43359375
 40
0.435546875
 40
0.4365234375
 40
0.4370117188
 40
0.4375
 40
0.4379882812
 40
0.4384765625
 40
0.439453125
 40
0.44140625
 40
0.443359375
 40
0.4453125
 40
0.44921875
 40
0.453125
 40
0.4609375
 40
0.46875
 40
0.4765625
 40
0.484375
 40
0.48828125
 40
0.4921875
 40
0.494140625
 40
0.49609375
 40
0.498046875
 40
0.4990234375
 40
0.4995117188
 40
0.5
 40
0.5004882812
 40
0.5009765625
 40
0.501953125
 40
0.50390625
 40
0.505859375
 40
0.5078125
 40
0.51171875
 40
0.515625
 40
0.5234375
 40
0.53125
 40
0.5390625
 40
0.546875
 40
0.55078125
 40
0.5546875
 40
0.556640625
 40
0.55859375
 40
0.560546875
 40
0.5615234375
 40
0.5620117188
 40
0.5625
 40
0.5629882812
 40
0.5634765625
 40
0.564453125
 40
0.56640625
 40
0.568359375
 40
0.5703125
 40
0.57421875
 40
0.578125
 40
0.5859375
 40
0.59375
 40
0.6015625
 40
0.609375
 40
0.61328125
 40
0.6171875
 40
0.619140625
 40
0.62109375
 40
0.623046875
 40
0.6240234375
 40
0.6245117188
 40
0.625
 40
0.6254882812
 40
0.6259765625
 40
0.626953125
 40
0.62890625
 40
0.630859375
 40
0.6328125
 40
0.63671875
 40
0.640625
 40
0.6484375
 40
0.65625
 40
0.6640625
 40
0.66796875
 40
0.671875
 40
0.67578125
 40
0.6796875
 40
0.681640625
 40
0.68359375
 40
0.685546875
 40
0.6865234375
 40
0.6870117188
 40
0.6875
 40
0.6879882812
 40
0.6884765625
 40
0.689453125
 40
0.69140625
 40
0.693359375
 40
0.6953125
 40
0.69921875
 40
0.703125
 40
0.70703125
 40
0.7109375
 40
0.71875
 40
0.7265625
 40
0.73046875
 40
0.734375
 40
0.73828125
 40
0.7421875
 40
0.744140625
 40
0.74609375
 40
0.748046875
 40
0.7490234375
 40
0.7495117188
 40
0.75
 40
0.7504882812
 40
0.7509765625
 40
0.751953125
 40
0.75390625
 40
0.755859375
 40
0.7578125
 40
0.76171875
 40
0.765625
 40
0.76953125
 40
0.7734375
 40
0.78125
 40
0.7890625
 40
0.796875
 40
0.80078125
 40
0.8046875
 40
0.806640625
 40
0.80859375
 40
0.810546875
 40
0.8115234375
 40
0.8120117188
 40
0.8125
 40
0.8129882812
 40
0.8134765625
 40
0.814453125
 40
0.81640625
 40
0.818359375
 40
0.8203125
 40
0.82421875
 40
0.828125
 40
0.8359375
 40
0.84375
 40
0.8515625
 40
0.859375
 40
0.86328125
 40
0.8671875
 40
0.869140625
 40
0.87109375
 40
0.873046875
 40
0.8740234375
 40
0.8745117188
 40
0.875
 40
0.8754882812
 40
0.8759765625
 40
0.876953125
 40
0.87890625
 40
0.880859375
 40
0.8828125
 40
0.88671875
 40
0.890625
 40
0.8984375
 40
0.90625
 40
0.9140625
 40
0.921875
 40
0.92578125
 40
0.9296875
 40
0.931640625
 40
0.93359375
 40
0.935546875
 40
0.9365234375
 40
0.9370117188
 40
0.9375
 40
0.9379882812
 40
0.9384765625
 40
0.939453125
 40
0.94140625
 40
0.943359375
 40
0.9453125
 40
0.94921875
 40
0.953125
 40
0.95703125
 40
0.9609375
 40
0.96875
 40
0.9765625
 40
0.984375
 40
1.0
 40
1.0
 40
1.0
 40
1.0
 10
10.6794203918
 20
7.1786001058
 30
0.0
 10
10.679164382
 20
7.1812288493
 30
0.0
 10
10.6787803677
 20
7.1851719646
 30
0.0
 10
10.6782683477
 20
7.1904294516
 30
0.0
 10
10.6778843347
 20
7.1943725671
 30
0.0
 10
10.677500314
 20
7.1983156816
 30
0.0
 10
10.6771803209
 20
7.2016016135
 30
0.0
 10
10.6769242722
 20
7.204230352
 30
0.0
 10
10.6767643653
 20
7.2058733295
 30
0.0
 10
10.6766361569
 20
7.2071876751
 30
0.0
 10
10.6765407749
 20
7.2081735339
 30
0.0
 10
10.6764588271
 20
7.208994766
 30
0.0
 10
10.6764062967
 20
7.2095702503
 30
0.0
 10
10.6763687329
 20
7.2098981276
 30
0.0
 10
10.6763618185
 20
7.2101467706
 30
0.0
 10
10.6762736434
 20
7.210384959
 30
0.0
 10
10.6761844213
 20
7.2107061901
 30
0.0
 10
10.6760150762
 20
7.2112666457
 30
0.0
 10
10.6757800592
 20
7.2120681847
 30
0.0
 10
10.6754950834
 20
7.2130296513
 30
0.0
 10
10.6751161479
 20
7.2143117395
 30
0.0
 10
10.6746421252
 20
7.2159143044
 30
0.0
 10
10.6738838863
 20
7.2184784336
 30
0.0
 10
10.6729360195
 20
7.2216835862
 30
0.0
 10
10.6717986104
 20
7.2255297738
 30
0.0
 10
10.6706611862
 20
7.2293759579
 30
0.0
 10
10.6697133573
 20
7.2325811193
 30
0.0
 10
10.6689550426
 20
7.2351452309
 30
0.0
 10
10.6684812124
 20
7.2367478405
 30
0.0
 10
10.6681018817
 20
7.2380298369
 30
0.0
 10
10.6678181134
 20
7.2389915843
 30
0.0
 10
10.6675793186
 20
7.2397922447
 30
0.0
 10
10.6674167174
 20
7.2403542686
 30
0.0
 10
10.66731669
 20
7.2406729868
 30
0.0
 10
10.6672617054
 20
7.2409188943
 30
0.0
 10
10.667130133
 20
7.2411385458
 30
0.0
 10
10.6669814178
 20
7.2414405729
 30
0.0
 10
10.6667087193
 20
7.2419648532
 30
0.0
 10
10.6663256574
 20
7.242716056
 30
0.0
 10
10.6658631978
 20
7.2436165445
 30
0.0
 10
10.6652475579
 20
7.2448175293
 30
0.0
 10
10.6644776748
 20
7.2463186461
 30
0.0
 10
10.6632460481
 20
7.2487204968
 30
0.0
 10
10.6617064505
 20
7.2517227881
 30
0.0
 10
10.6598589627
 20
7.255325548
 30
0.0
 10
10.6580114604
 20
7.258928302
 30
0.0
 10
10.656471899
 20
7.2619306081
 30
0.0
 10
10.6552401999
 20
7.2643324293
 30
0.0
 10
10.6544705009
 20
7.2658336212
 30
0.0
 10
10.6538544831
 20
7.2670344519
 30
0.0
 10
10.653393178
 20
7.2679354112
 30
0.0
 10
10.6530065037
 20
7.2686851406
 30
0.0
 10
10.6527402541
 20
7.2692120512
 30
0.0
 10
10.6525812062
 20
7.269509864
 30
0.0
 10
10.6524813725
 20
7.2697424605
 30
0.0
 10
10.6523071824
 20
7.269939749
 30
0.0
 10
10.6521008653
 20
7.2702151161
 30
0.0
 10
10.651727726
 20
7.2706912704
 30
0.0
 10
10.6512009878
 20
7.2713744908
 30
0.0
 10
10.6505661977
 20
7.2721930712
 30
0.0
 10
10.6497207554
 20
7.2732849602
 30
0.0
 10
10.6486636291
 20
7.2746496679
 30
0.0
 10
10.6469724078
 20
7.2768332862
 30
0.0
 10
10.6448583189
 20
7.2795627792
 30
0.0
 10
10.6423214402
 20
7.282838185
 30
0.0
 10
10.6397845492
 20
7.2861135815
 30
0.0
 10
10.6376704911
 20
7.2888430977
 30
0.0
 10
10.6359792081
 20
7.2910266696
 30
0.0
 10
10.6349222388
 20
7.292391495
 30
0.0
 10
10.6340764742
 20
7.2934831426
 30
0.0
 10
10.6334426687
 20
7.2943024606
 30
0.0
 10
10.6329128499
 20
7.2949833732
 30
0.0
 10
10.63254521
 20
7.2954636473
 30
0.0
 10
10.6323300815
 20
7.2957324134
 30
0.0
 10
10.6321829571
 20
7.2959499779
 30
0.0
 10
10.6319814692
 20
7.2961064211
 30
0.0
 10
10.6317317813
 20
7.2963363318
 30
0.0
 10
10.6312859924
 20
7.2967287423
 30
0.0
 10
10.6306537702
 20
7.2972945219
 30
0.0
 10
10.6298931265
 20
7.2979712346
 30
0.0
 10
10.6288796254
 20
7.2988742946
 30
0.0
 10
10.6276125126
 20
7.3000028538
 30
0.0
 10
10.6255852643
 20
7.301808697
 30
0.0
 10
10.6230511583
 20
7.3040659497
 30
0.0
 10
10.6200102518
 20
7.3067746765
 30
0.0
 10
10.6169693357
 20
7.3094833912
 30
0.0
 10
10.6144352538
 20
7.3117406743
 30
0.0
 10
10.6124079573
 20
7.3135464567
 30
0.0
 10
10.611140967
 20
7.3146751704
 30
0.0
 10
10.6101272144
 20
7.315577913
 30
0.0
 10
10.609367339
 20
7.3162555954
 30
0.0
 10
10.6087327129
 20
7.3168183412
 30
0.0
 10
10.6082912155
 20
7.3172161675
 30
0.0
 10
10.6080346516
 20
7.3174374008
 30
0.0
 10
10.6078542844
 20
7.3176204982
 30
0.0
 10
10.6076278345
 20
7.317737954
 30
0.0
 10
10.6073419754
 20
7.3179174583
 30
0.0
 10
10.6068342329
 20
7.3182209229
 30
0.0
 10
10.6061128018
 20
7.318660021
 30
0.0
 10
10.6052454086
 20
7.3191845516
 30
0.0
 10
10.6040894697
 20
7.3198847594
 30
0.0
 10
10.6026443457
 20
7.3207597337
 30
0.0
 10
10.6003322592
 20
7.3221598522
 30
0.0
 10
10.5974421125
 20
7.3239099452
 30
0.0
 10
10.5939739538
 20
7.3260100822
 30
0.0
 10
10.5905057876
 20
7.3281102057
 30
0.0
 10
10.5876156596
 20
7.3298603323
 30
0.0
 10
10.5853035358
 20
7.3312603837
 30
0.0
 10
10.5838585068
 20
7.3321355286
 30
0.0
 10
10.5827023728
 20
7.3328353862
 30
0.0
 10
10.5818355756
 20
7.3333609869
 30
0.0
 10
10.5811122798
 20
7.3337967366
 30
0.0
 10
10.5806078661
 20
7.3341061787
 30
0.0
 10
10.5803166733
 20
7.3342761056
 30
0.0
 10
10.5801066069
 20
7.3344229802
 30
0.0
 10
10.5798647061
 20
7.3344955854
 30
0.0
 10
10.5795532759
 20
7.3346182983
 30
0.0
 10
10.5790030994
 20
7.3348209759
 30
0.0
 10
10.5782198377
 20
7.3351168256
 30
0.0
 10
10.577278766
 20
7.3354691442
 30
0.0
 10
10.5760244081
 20
7.3359398458
 30
0.0
 10
10.5744563222
 20
7.3365278997
 30
0.0
 10
10.5719474622
 20
7.3374689666
 30
0.0
 10
10.5688113606
 20
7.3386452377
 30
0.0
 10
10.5650480506
 20
7.3400567918
 30
0.0
 10
10.5612847353
 20
7.3414683311
 30
0.0
 10
10.558148647
 20
7.3426446392
 30
0.0
 10
10.5556397603
 20
7.3435856323
 30
0.0
 10
10.5540717425
 20
7.3441738738
 30
0.0
 10
10.5528172449
 20
7.3446441903
 30
0.0
 10
10.5518766
 20
7.3449976853
 30
0.0
 10
10.5510920029
 20
7.3452898543
 30
0.0
 10
10.5505442103
 20
7.3454991026
 30
0.0
 10
10.5502289604
 20
7.3456112875
 30
0.0
 10
10.5499987925
 20
7.3457162315
 30
0.0
 10
10.5497446594
 20
7.3457416468
 30
0.0
 10
10.5494141745
 20
7.3458032743
 30
0.0
 10
10.5488319313
 20
7.3458981976
 30
0.0
 10
10.5480021916
 20
7.3460405597
 30
0.0
 10
10.5470056323
 20
7.3462085018
 30
0.0
 10
10.545677191
 20
7.3464334349
 30
0.0
 10
10.5440165351
 20
7.3467142553
 30
0.0
 10
10.541359544
 20
7.3471637613
 30
0.0
 10
10.5380382851
 20
7.347725577
 30
0.0
 10
10.5340527828
 20
7.3483997866
 30
0.0
 10
10.530067279
 20
7.3490739804
 30
0.0
 10
10.526746024
 20
7.3496358356
 30
0.0
 10
10.524089025
 20
7.3500852627
 30
0.0
 10
10.5224283893
 20
7.3503662836
 30
0.0
 10
10.5210999066
 20
7.3505908052
 30
0.0
 10
10.5201034737
 20
7.3507600046
 30
0.0
 10
10.5192733385
 20
7.3508984328
 30
0.0
 10
10.5186918011
 20
7.3510003787
 30
0.0
 10
10.5183601854
 20
7.3510507544
 30
0.0
 10
10.5181095261
 20
7.3511107316
 30
0.0
 10
10.5178663112
 20
7.3510858666
 30
0.0
 10
10.5175394279
 20
7.3510823073
 30
0.0
 10
10.5169685921
 20
7.3510622901
 30
0.0
 10
10.5161524798
 20
7.3510409027
 30
0.0
 10
10.5151734158
 20
7.3510121524
 30
0.0
 10
10.5138679026
 20
7.3509748963
 30
0.0
 10
10.5122360434
 20
7.3509279572
 30
0.0
 10
10.5096250506
 20
7.3508530609
 30
0.0
 10
10.506361316
 20
7.3507593693
 30
0.0
 10
10.5024448313
 20
7.3506469718
 30
0.0
 10
10.4985283488
 20
7.3505345583
 30
0.0
 10
10.4952646085
 20
7.3504409069
 30
0.0
 10
10.4926536271
 20
7.3503659303
 30
0.0
 10
10.4910217392
 20
7.3503191952
 30
0.0
 10
10.4897162849
 20
7.3502815204
 30
0.0
 10
10.4887370408
 20
7.3502540491
 30
0.0
 10
10.4879214918
 20
7.3502286599
 30
0.0
 10
10.4873496505
 20
7.3502157868
 30
0.0
 10
10.4870243783
 20
7.3502007807
 30
0.0
 10
10.4867762148
 20
7.3502110765
 30
0.0
 10
10.4865441414
 20
7.3501389958
 30
0.0
 10
10.4862290978
 20
7.350071622
 30
0.0
 10
10.4856803864
 20
7.3499403302
 30
0.0
 10
10.4848951459
 20
7.3497597698
 30
0.0
 10
10.4839534424
 20
7.3495401014
 30
0.0
 10
10.4826976334
 20
7.3492482565
 30
0.0
 10
10.4811279422
 20
7.3488830922
 30
0.0
 10
10.478616397
 20
7.3482990296
 30
0.0
 10
10.4754769791
 20
7.3475688822
 30
0.0
 10
10.4717096711
 20
7.3466927368
 30
0.0
 10
10.4679423677
 20
7.3458165759
 30
0.0
 10
10.4648029384
 20
7.3450864672
 30
0.0
 10
10.4622914161
 20
7.3445023272
 30
0.0
 10
10.4607216667
 20
7.3441373595
 30
0.0
 10
10.4594659771
 20
7.3438451112
 30
0.0
 10
10.4585239091
 20
7.3436266754
 30
0.0
 10
10.4577398091
 20
7.3434422582
 30
0.0
 10
10.4571890616
 20
7.3433178515
 30
0.0
 10
10.4568772803
 20
7.3432394461
 30
0.0
 10
10.4566351861
 20
7.3432012509
 30
0.0
 10
10.4564246591
 20
7.3430842785
 30
0.0
 10
10.4561329455
 20
7.3429557937
 30
0.0
 10
10.4556275769
 20
7.3427181427
 30
0.0
 10
10.4549029395
 20
7.3423853346
 30
0.0
 10
10.4540345227
 20
7.3419830999
 30
0.0
 10
10.4528762327
 20
7.3414477876
 30
0.0
 10
10.4514285075
 20
7.3407783046
 30
0.0
 10
10.4491120704
 20
7.3397073234
 30
0.0
 10
10.4462165503
 20
7.3383685312
 30
0.0
 10
10.4427419151
 20
7.3367620083
 30
0.0
 10
10.4398463875
 20
7.3354232344
 30
0.0
 10
10.4375299669
 20
7.3343522129
 30
0.0
 10
10.4357926461
 20
7.3335489567
 30
0.0
 10
10.4340553456
 20
7.332745662
 30
0.0
 10
10.4326075322
 20
7.3320763699
 30
0.0
 10
10.4314494225
 20
7.3315406671
 30
0.0
 10
10.4305804548
 20
7.3311396253
 30
0.0
 10
10.4298575413
 20
7.3308030851
 30
0.0
 10
10.4293490952
 20
7.3305720964
 30
0.0
 10
10.4290623124
 20
7.3304329369
 30
0.0
 10
10.4288366395
 20
7.3303487537
 30
0.0
 10
10.4286514311
 20
7.3301874078
 30
0.0
 10
10.4283903721
 20
7.3299991952
 30
0.0
 10
10.4279400951
 20
7.3296572828
 30
0.0
 10
10.4272934041
 20
7.3291753927
 30
0.0
 10
10.4265188466
 20
7.3285943183
 30
0.0
 10
10.4254855891
 20
7.3278205328
 30
0.0
 10
10.4241941937
 20
7.3268529644
 30
0.0
 10
10.4226444436
 20
7.3256920266
 30
0.0
 10
10.4210947137
 20
7.3245310502
 30
0.0
 10
10.4190284001
 20
7.3229830952
 30
0.0
 10
10.4164455108
 20
7.3210481465
 30
0.0
 10
10.4138626193
 20
7.3191132007
 30
0.0
 10
10.4117963093
 20
7.317565241
 30
0.0
 10
10.4102465683
 20
7.3164042789
 30
0.0
 10
10.4086968598
 20
7.3152432874
 30
0.0
 10
10.407405335
 20
7.3142758861
 30
0.0
 10
10.4063723414
 20
7.3135017598
 30
0.0
 10
10.405596978
 20
7.3129217259
 30
0.0
 10
10.4049528084
 20
7.3124365804
 30
0.0
 10
10.4044980302
 20
7.3121004795
 30
0.0
 10
10.4042441833
 20
7.3119029554
 30
0.0
 10
10.4040368219
 20
7.3117702115
 30
0.0
 10
10.4038943519
 20
7.3115786039
 30
0.0
 10
10.4036817571
 20
7.3113436595
 30
0.0
 10
10.4033202622
 20
7.3109229404
 30
0.0
 10
10.4027983274
 20
7.3103269145
 30
0.0
 10
10.4021743655
 20
7.3096095427
 30
0.0
 10
10.401341592
 20
7.3086537947
 30
0.0
 10
10.400300908
 20
7.3074588531
 30
0.0
 10
10.3990519659
 20
7.3060250332
 30
0.0
 10
10.3978030562
 20
7.3045911839
 30
0.0
 10
10.3961378322
 20
7.302679395
 30
0.0
 10
10.3940563046
 20
7.3002896564
 30
0.0
 10
10.3915584766
 20
7.2974219665
 30
0.0
 10
10.389476933
 20
7.2950322399
 30
0.0
 10
10.387811744
 20
7.2931204247
 30
0.0
 10
10.3867708964
 20
7.2919256174
 30
0.0
 10
10.3859384577
 20
7.2909695947
 30
0.0
 10
10.385313473
 20
7.2902530621
 30
0.0
 10
10.3847947385
 20
7.2896544103
 30
0.0
 10
10.3844275303
 20
7.2892383789
 30
0.0
 10
10.3842240897
 20
7.2889959237
 30
0.0
 10
10.3840535008
 20
7.2888273868
 30
0.0
 10
10.3839517494
 20
7.2886079934
 30
0.0
 10
10.3837920695
 20
7.2883332082
 30
0.0
 10
10.3835238169
 20
7.287844069
 30
0.0
 10
10.3831347502
 20
7.2871496198
 30
0.0
 10
10.3826703736
 20
7.2863144312
 30
0.0
 10
10.3820503304
 20
7.2852014925
 30
0.0
 10
10.3812755758
 20
7.2838100978
 30
0.0
 10
10.380035801
 20
7.2815839901
 30
0.0
 10
10.3784861404
 20
7.2788013127
 30
0.0
 10
10.376626521
 20
7.275462119
 30
0.0
 10
10.3747669156
 20
7.2721229169
 30
0.0
 10
10.3732172201
 20
7.2693402607
 30
0.0
 10
10.3719775151
 20
7.2671141107
 30
0.0
 10
10.3712025832
 20
7.2657228234
 30
0.0
 10
10.3705829038
 20
7.2646096643
 30
0.0
 10
10.3701174157
 20
7.2637751488
 30
0.0
 10
10.3697318267
 20
7.2630785937
 30
0.0
 10
10.3694573658
 20
7.2625932139
 30
0.0
 10
10.3693076332
 20
7.2623124052
 30
0.0
 10
10.3691753267
 20
7.2621115142
 30
0.0
 10
10.3691194974
 20
7.2618734852
 30
0.0
 10
10.3690183823
 20
7.2615690673
 30
0.0
 10
10.3688538596
 20
7.2610303005
 30
0.0
 10
10.3686123293
 20
7.260263789
 30
0.0
 10
10.3683252742
 20
7.2593426246
 30
0.0
 10
10.3679415627
 20
7.2581148772
 30
0.0
 10
10.3674622559
 20
7.2565800314
 30
0.0
 10
10.366695179
 20
7.2541243684
 30
0.0
 10
10.3657363972
 20
7.2510547585
 30
0.0
 10
10.3645858296
 20
7.2473712406
 30
0.0
 10
10.3634352771
 20
7.2436877164
 30
0.0
 10
10.3624764575
 20
7.2406181225
 30
0.0
 10
10.3617094563
 20
7.2381624275
 30
0.0
 10
10.3612299572
 20
7.236627663
 30
0.0
 10
10.3608466404
 20
7.2353997485
 30
0.0
 10
10.3605583793
 20
7.2344790946
 30
0.0
 10
10.3603206223
 20
7.233710986
 30
0.0
 10
10.3601493635
 20
7.2331750703
 30
0.0
 10
10.3600590413
 20
7.2328660842
 30
0.0
 10
10.3599700595
 20
7.2326420872
 30
0.0
 10
10.3599622684
 20
7.2323884943
 30
0.0
 10
10.3599235601
 20
7.2320606938
 30
0.0
 10
10.3598690155
 20
7.231482233
 30
0.0
 10
10.3597841961
 20
7.2306583751
 30
0.0
 10
10.3596853656
 20
7.2296686693
 30
0.0
 10
10.3595525602
 20
7.2283494375
 30
0.0
 10
10.3593869073
 20
7.2267002688
 30
0.0
 10
10.3591879722
 20
7.2247213216
 30
0.0
 10
10.3589890776
 20
7.2227423596
 30
0.0
 10
10.3587238707
 20
7.2201037488
 30
0.0
 10
10.3583923669
 20
7.2168054835
 30
0.0
 10
10.3579945603
 20
7.2128475659
 30
0.0
 10
10.3574641522
 20
7.2075703422
 30
0.0
 10
10.357066346
 20
7.2036124245
 30
0.0
 10
10.3568011419
 20
7.2009738127
 30
0.0
  0
ELLIPSE
  5
388
100
AcDbEntity
  8
0
100
AcDbEllipse
 62
7
  6
CONTINUOUS
 10
11.0145967481
 20
8.653506591
 30
0.0
 11
0.158334148
 21
-0.0304356551
 31
0.0
 40
0.7430545803
 41
0.0
 42
6.2831853072
  0
ENDSEC
  0
SECTION
  2
OBJECTS
  0
DICTIONARY
  5
C
100
AcDbDictionary
280
0
281
1
  3
ACAD_GROUP
350
D
  3
ACAD_MLINESTYLE
350
17
  3
ACAD_LAYOUT
350
1A
  3
ACAD_PLOTSETTINGS
350
19
  3
ACAD_PLOTSTYLENAME
350
E
  3
ACAD_IMAGE_DICT
350
       38A
  3
ACAD_IMAGE_VARS
350
       38B
  3
ACAD_TABLESTYLE
350
       38C
  0
IMAGEDEF_REACTOR
  5
389
100
AcDbRasterImageDefReactor
 90
2
330
281
  0
DICTIONARY
  5
D
102
{ACAD_REACTORS
330
C
102
}
100
AcDbDictionary
280
0
281
1
  0
ACDBDICTIONARYWDFLT
  5
E
102
{ACAD_REACTORS
330
C
102
}
100
AcDbDictionary
281
1
  3
Normal
350
F
100
AcDbDictionaryWithDefault
340
F
  0
DICTIONARY
  5
38A
330
C
100
AcDbDictionary
281
1
  3
WJR_assy_2_img_1
350
       38F
  0
RASTERVARIABLES
  5
38B
330
C
100
AcDbRasterVariables
 90
0
 70
0
 71
1
 72
5
  0
DICTIONARY
  5
17
102
{ACAD_REACTORS
330
C
102
}
100
AcDbDictionary
280
0
281
1
  3
Standard
350
18
  0
DICTIONARY
  5
38C
330
C
100
AcDbDictionary
281
1
  3
Standard
350
       390
  3
Standard1
350
       391
  0
DICTIONARY
  5
19
102
{ACAD_REACTORS
330
C
102
}
100
AcDbDictionary
281
1
  0
DICTIONARY
  5
1A
102
{ACAD_REACTORS
330
C
102
}
100
AcDbDictionary
281
1
  3
Model
350
38D
  3
Layout1
350
38E
  0
ACDBPLACEHOLDER
  5
F
102
{ACAD_REACTORS
330
E
102
}
  0
MLINESTYLE
  5
18
102
{ACAD_REACTORS
330
17
102
}
100
AcDbMlineStyle
  2
STANDARD
 70
0
  3

 62
256
 51
90.0
 52
90.0
 71
2
 49
0.5
 62
256
  6
BYLAYER
 49
-0.5
 62
256
  6
BYLAYER
  0
LAYOUT
  5
38D
102
{ACAD_REACTORS
330
1A
102
}
100
AcDbPlotSettings
  1

  2
none_device
  4
ANSI_C_(22.00_x_17.00_Inches)
  6

 40
0.0
 41
0.0
 42
0.0
 43
0.0
 44
558.8
 45
431.8
 46
0.0
 47
0.0
 48
0.0
 49
0.0
140
0.0
141
0.0
142
1.0
143
1.0
 70
1024
 72
0
 73
0
 74
0
  7

 75
0
147
1.0
148
0.0
149
0.0
100
AcDbLayout
  1
Model
 70
0
 71
0
 10
0.0
 20
0.0
 11
22.0
 21
17.0
 12
0.0
 22
0.0
 32
0.0
 14
0.0
 24
0.0
 34
0.0
 15
0.0
 25
0.0
 35
0.0
146
0.0
 13
0.0
 23
0.0
 33
0.0
 16
1.0
 26
0.0
 36
0.0
 17
0.0
 27
1.0
 37
0.0
 76
0
330
20C
345
0
346
0
  0
LAYOUT
  5
38E
102
{ACAD_REACTORS
330
1A
102
}
100
AcDbPlotSettings
  1

  2
none_device
  4
ANSI_C_(22.00_x_17.00_Inches)
  6

 40
0.0
 41
0.0
 42
0.0
 43
0.0
 44
558.8
 45
431.8
 46
0.0
 47
0.0
 48
0.0
 49
0.0
140
0.0
141
0.0
142
1.0
143
1.0
 70
0
 72
0
 73
0
 74
0
  7

 75
0
147
1.0
148
0.0
149
0.0
100
AcDbLayout
  1
Layout1
 70
0
 71
1
 10
0.0
 20
0.0
 11
22.0
 21
17.0
 12
0.0
 22
0.0
 32
0.0
 14
0.0
 24
0.0
 34
0.0
 15
0.0
 25
0.0
 35
0.0
146
0.0
 13
0.0
 23
0.0
 33
0.0
 16
1.0
 26
0.0
 36
0.0
 17
0.0
 27
1.0
 37
0.0
 76
0
330
20D
345
0
346
0
  0
IMAGEDEF
  5
38F
102
{ACAD_REACTORS
330
38A
330
389
102
}
100
AcDbRasterImageDef
 90
0
  1
WJR_assy_2_img_1.png
 10
369.0
 20
92.0
 11
0.0066666667
 21
0.0066666667
280
1
281
0
  0
TABLESTYLE
  5
390
102
{ACAD_REACTORS
330
38C
330
284
330
285
102
}
330
38C
100
AcDbTableStyle
  3
Standard
 70
0
 71
0
 40
0.06
 41
0.06
280
1
281
1
  7
Standard
140
0.18
170
1
 62
0
 63
7
283
0
  7
Standard
140
0.18
170
1
 62
0
 63
7
283
0
  7
Standard
140
0.18
170
1
 62
0
 63
7
283
0
  0
TABLESTYLE
  5
391
102
{ACAD_REACTORS
330
38C
330
283
102
}
330
38C
100
AcDbTableStyle
  3
Standard1
 70
1
 71
0
 40
0.06
 41
0.06
280
1
281
1
  7
Standard
140
0.18
170
1
 62
0
 63
7
283
0
  7
Standard
140
0.18
170
1
 62
0
 63
7
283
0
  7
Standard
140
0.18
170
1
 62
0
 63
7
283
0
  0
ENDSEC
  0
EOF
