999
DXF file: WJQ_assy_2.dxf
999
Pro/ENGINEER 2014200 by Parametric Technology Corporation
  0
SECTION
  2
HEADER
  9
$ACADVER
  1
AC1021
  9
$DWGCODEPAGE
  3
ANSI_1252
  9
$EXTMAX
 10
22.0
 20
17.0
 30
0.0
  9
$EXTMIN
 10
0.0
 20
0.0
 30
0.0
  9
$LIMMIN
 10
0.0
 20
0.0
  9
$LIMMAX
 10
22.0
 20
17.0
  9
$VIEWCTR
 10
11.0
 20
8.5
  9
$VIEWSIZE
 40
17.0
  9
$CLAYER
  8
0
  9
$LTSCALE
 40
1.21
  9
$CELTYPE
  6
BYLAYER
  9
$DIMSCALE
 40
1.0
  9
$DIMASZ
 40
0.1875
  9
$DIMEXO
 40
0.0625
  9
$DIMDLI
 40
0.836
  9
$DIMEXE
 40
0.125
  9
$DIMCEN
 40
0.198
  9
$DIMLFAC
 40
1.0
  9
$DIMBLK
  1
_FILLED
  9
$DIMTXT
 40
0.1
  9
$DIMTOL
 70
0
  9
$DIMLIM
 70
0
  9
$DIMTFAC
 40
1.0
  9
$DIMGAP
 40
0.09
  9
$DIMDSEP
 70
46
  9
$AUNITS
 70
0
  9
$PDMODE
 70
3
  9
$PDSIZE
 40
0.3125
  9
$HANDSEED
  5
39E
  9
$TILEMODE
 70
1
  9
$MEASUREMENT
 70
0
  9
$INSUNITS
 70
1
  0
ENDSEC
  0
SECTION
  2
CLASSES
  0
CLASS
  1
ACDBDICTIONARYWDFLT
  2
AcDbDictionaryWithDefault
  3
AutoCAD 2000
 90
0
 91
1
280
0
281
0
  0
CLASS
  1
ACDBPLACEHOLDER
  2
AcDbPlaceHolder
  3
AutoCAD 2000
 90
0
 91
1
280
0
281
0
  0
CLASS
  1
LAYOUT
  2
AcDbLayout
  3
AutoCAD 2000
 90
0
 91
0
280
0
281
0
  0
CLASS
  1
RASTERVARIABLES
  2
AcDbRasterVariables
  3
ISM
 90
0
 91
1
280
0
281
0
  0
CLASS
  1
IMAGEDEF
  2
AcDbRasterImageDef
  3
ISM
 90
0
 91
1
280
0
281
0
  0
CLASS
  1
IMAGEDEF_REACTOR
  2
AcDbRasterImageDefReactor
  3
ISM
 90
0
 91
1
280
0
281
0
  0
CLASS
  1
IMAGE
  2
AcDbRasterImage
  3
ISM
 90
127
 91
1
280
0
281
1
  0
CLASS
  1
TABLESTYLE
  2
AcDbTableStyle
  3
ObjectDBX Classes
 90
2047
 91
1
280
0
281
0
  0
CLASS
  1
ACAD_TABLE
  2
AcDbTable
  3
ObjectDBX Classes
 90
1025
 91
3
280
0
281
1
  0
ENDSEC
  0
SECTION
  2
TABLES
  0
TABLE
  2
VPORT
  5
8
100
AcDbSymbolTable
 70
2
  0
VPORT
  5
1F4
100
AcDbSymbolTableRecord
100
AcDbViewportTableRecord
  2
*ACTIVE
 70
0
 10
0.0
 20
0.0
 11
1.0
 21
1.0
 12
11.0
 22
8.5
 13
0.0
 23
0.0
 14
1.0
 24
1.0
 15
0.0
 25
0.0
 16
0.0
 26
0.0
 36
1.0
 17
0.0
 27
0.0
 37
0.0
 40
17.0
 41
1.2941176471
 42
50.0
 43
0.0
 44
0.0
 50
0.0
 51
0.0
 71
0
 72
100
 73
1
 74
1
 75
0
 76
0
 77
0
 78
0
  0
ENDTAB
  0
TABLE
  2
LTYPE
  5
5
100
AcDbSymbolTable
 70
6
  0
LTYPE
  5
14
100
AcDbSymbolTableRecord
100
AcDbLinetypeTableRecord
  2
BYBLOCK
 70
0
  3

 72
65
 73
0
 40
0.0
  0
LTYPE
  5
15
100
AcDbSymbolTableRecord
100
AcDbLinetypeTableRecord
  2
BYLAYER
 70
0
  3

 72
65
 73
0
 40
0.0
  0
LTYPE
  5
16
100
AcDbSymbolTableRecord
100
AcDbLinetypeTableRecord
  2
CONTINUOUS
 70
64
  3
Solid line
 72
65
 73
0
 40
0.0
  0
LTYPE
  5
1F5
100
AcDbSymbolTableRecord
100
AcDbLinetypeTableRecord
  2
CENTER
 70
64
  3
____ _ ____ _ ____ _ ____ _ ____ _ ____ _ ____
 72
65
 73
4
 40
0.6
 49
0.375
 74
0
 49
-0.075
 74
0
 49
0.075
 74
0
 49
-0.075
 74
0
  0
LTYPE
  5
1F6
100
AcDbSymbolTableRecord
100
AcDbLinetypeTableRecord
  2
HIDDEN
 70
64
  3
- - - - - - - - - - - - - - - - - - - -
 72
65
 73
2
 40
0.2
 49
0.1
 74
0
 49
-0.1
 74
0
  0
LTYPE
  5
1F7
100
AcDbSymbolTableRecord
100
AcDbLinetypeTableRecord
  2
PHANTOM
 70
64
  3
_____ _ _ _____ _ _ _____ _ _ _____
 72
65
 73
6
 40
0.8
 49
0.45
 74
0
 49
-0.05
 74
0
 49
0.1
 74
0
 49
-0.05
 74
0
 49
0.1
 74
0
 49
-0.05
 74
0
  0
LTYPE
  5
1F8
100
AcDbSymbolTableRecord
100
AcDbLinetypeTableRecord
  2
DOT
 70
64
  3
. . . . . . . . . . . . . . . . . . . .
 72
65
 73
2
 40
0.2
 49
0.1
 74
0
 49
-0.1
 74
0
  0
LTYPE
  5
1F9
100
AcDbSymbolTableRecord
100
AcDbLinetypeTableRecord
  2
DASHED
 70
64
  3
- - - - - - - - - - - - - - - - - - - -
 72
65
 73
2
 40
0.2
 49
0.1
 74
0
 49
-0.1
 74
0
  0
ENDTAB
  0
TABLE
  2
LAYER
  5
2
100
AcDbSymbolTable
 70
36
  0
LAYER
  5
10
100
AcDbSymbolTableRecord
100
AcDbLayerTableRecord
  2
0
 70
0
 62
7
  6
CONTINUOUS
370
-3
390
F
  0
LAYER
  5
1FA
100
AcDbSymbolTableRecord
100
AcDbLayerTableRecord
  2
DEFAULT_1
 70
0
 62
7
  6
CENTER
370
-3
390
F
  0
LAYER
  5
1FB
100
AcDbSymbolTableRecord
100
AcDbLayerTableRecord
  2
DEFAULT_2
 70
0
 62
8
  6
HIDDEN
370
-3
390
F
  0
LAYER
  5
1FC
100
AcDbSymbolTableRecord
100
AcDbLayerTableRecord
  2
DEFAULT_3
 70
0
 62
7
  6
PHANTOM
370
-3
390
F
  0
LAYER
  5
1FD
100
AcDbSymbolTableRecord
100
AcDbLayerTableRecord
  2
01___PRT_ALL_DTM_PLN
 70
0
 62
7
  6
CONTINUOUS
370
-3
390
F
  0
LAYER
  5
1FE
100
AcDbSymbolTableRecord
100
AcDbLayerTableRecord
  2
01___PRT_DEF_DTM_PLN
 70
0
 62
7
  6
CONTINUOUS
370
-3
390
F
  0
LAYER
  5
1FF
100
AcDbSymbolTableRecord
100
AcDbLayerTableRecord
  2
02___PRT_ALL_AXES
 70
0
 62
7
  6
CONTINUOUS
370
-3
390
F
  0
LAYER
  5
200
100
AcDbSymbolTableRecord
100
AcDbLayerTableRecord
  2
03___PRT_ALL_CURVES
 70
0
 62
7
  6
CONTINUOUS
370
-3
390
F
  0
LAYER
  5
201
100
AcDbSymbolTableRecord
100
AcDbLayerTableRecord
  2
04___PRT_ALL_DTM_PNT
 70
0
 62
7
  6
CONTINUOUS
370
-3
390
F
  0
LAYER
  5
202
100
AcDbSymbolTableRecord
100
AcDbLayerTableRecord
  2
05___PRT_ALL_DTM_CSYS
 70
0
 62
7
  6
CONTINUOUS
370
-3
390
F
  0
LAYER
  5
203
100
AcDbSymbolTableRecord
100
AcDbLayerTableRecord
  2
05___PRT_DEF_DTM_CSYS
 70
0
 62
7
  6
CONTINUOUS
370
-3
390
F
  0
LAYER
  5
204
100
AcDbSymbolTableRecord
100
AcDbLayerTableRecord
  2
06___PRT_ALL_SURFS
 70
0
 62
7
  6
CONTINUOUS
370
-3
390
F
  0
LAYER
  5
205
100
AcDbSymbolTableRecord
100
AcDbLayerTableRecord
  2
DATUM_PLANES
 70
0
 62
7
  6
CONTINUOUS
370
-3
390
F
  0
LAYER
  5
206
100
AcDbSymbolTableRecord
100
AcDbLayerTableRecord
  2
PORT_AREAS
 70
0
 62
7
  6
CONTINUOUS
370
-3
390
F
  0
LAYER
  5
207
100
AcDbSymbolTableRecord
100
AcDbLayerTableRecord
  2
SUNNBOMCOSMETIC
 70
0
 62
7
  6
CONTINUOUS
370
-3
390
F
  0
LAYER
  5
208
100
AcDbSymbolTableRecord
100
AcDbLayerTableRecord
  2
SUNNBOMSTAMPING
 70
0
 62
7
  6
CONTINUOUS
370
-3
390
F
  0
LAYER
  5
209
100
AcDbSymbolTableRecord
100
AcDbLayerTableRecord
  2
THREADS
 70
0
 62
7
  6
CONTINUOUS
370
-3
390
F
  0
ENDTAB
  0
TABLE
  2
STYLE
  5
3
100
AcDbSymbolTable
 70
1
  0
STYLE
  5
11
100
AcDbSymbolTableRecord
100
AcDbTextStyleTableRecord
  2
STANDARD
 70
0
 40
0.0
 41
0.8
 50
0.0
 71
0
 42
0.2
  3
txt
  4

  0
STYLE
  5
20A
100
AcDbSymbolTableRecord
100
AcDbTextStyleTableRecord
  2
TEXTSTYLE_1
 70
0
 40
0.0
 41
0.8
 50
0.0
 71
0
 42
0.2
  3
gdt
  4

  0
ENDTAB
  0
TABLE
  2
VIEW
  5
6
100
AcDbSymbolTable
 70
0
  0
ENDTAB
  0
TABLE
  2
UCS
  5
7
100
AcDbSymbolTable
 70
0
  0
ENDTAB
  0
TABLE
  2
APPID
  5
9
100
AcDbSymbolTable
 70
1
  0
APPID
  5
20B
100
AcDbSymbolTableRecord
100
AcDbRegAppTableRecord
  2
ACAD
 70
0
  0
ENDTAB
  0
TABLE
  2
BLOCK_RECORD
  5
1
100
AcDbSymbolTable
 70
0
  0
BLOCK_RECORD
  5
20C
100
AcDbSymbolTableRecord
100
AcDbBlockTableRecord
  2
*Model_Space
  0
BLOCK_RECORD
  5
20D
100
AcDbSymbolTableRecord
100
AcDbBlockTableRecord
  2
*Paper_Space
  0
BLOCK_RECORD
  5
20E
100
AcDbSymbolTableRecord
100
AcDbBlockTableRecord
  2
SUN_FIRST_THIRD_ANGLE_BL0
  0
BLOCK_RECORD
  5
20F
100
AcDbSymbolTableRecord
100
AcDbBlockTableRecord
  2
*T1
  0
BLOCK_RECORD
  5
210
100
AcDbSymbolTableRecord
100
AcDbBlockTableRecord
  2
*T2
  0
BLOCK_RECORD
  5
211
100
AcDbSymbolTableRecord
100
AcDbBlockTableRecord
  2
*T3
  0
ENDTAB
  0
TABLE
  2
DIMSTYLE
  5
A
100
AcDbSymbolTable
 70
1
100
AcDbDimStyleTable
 71
0
  0
DIMSTYLE
105
212
100
AcDbSymbolTableRecord
100
AcDbDimStyleTableRecord
  2
STANDARD
 70
0
  3

  4

 40
1.0
 41
0.1875
 42
0.0625
 43
0.38
 44
0.125
 45
0.0
 46
0.0
 47
0.001
 48
0.001
140
0.1
141
0.09
142
0.0
143
25.4
144
1.0
145
0.0
146
1.0
147
0.09
 71
0.0
 72
0.0
 73
1
 74
1
 75
0
 76
0
 77
0
 78
4
170
0
171
2
172
0
173
0
174
0
175
0
176
0
177
0
178
0
270
2
271
3
272
3
273
2
274
2
275
0
280
0
281
0
282
0
283
1
284
4
285
0
286
0
287
3
288
0
340
11
278
46
  0
ENDTAB
  0
ENDSEC
  0
SECTION
  2
BLOCKS
  0
BLOCK
  5
20
100
AcDbEntity
  8
0
100
AcDbBlockBegin
  2
*Model_Space
 70
0
 10
0.0
 20
0.0
 30
0.0
  3
*Model_Space
  1

  0
ENDBLK
  5
21
100
AcDbEntity
  8
0
100
AcDbBlockEnd
  0
BLOCK
  5
1C
100
AcDbEntity
  8
0
100
AcDbBlockBegin
  2
*Paper_Space
 70
0
 10
0.0
 20
0.0
 30
0.0
  3
*Paper_Space
  1

  0
ENDBLK
  5
1D
100
AcDbEntity
  8
0
100
AcDbBlockEnd
  0
BLOCK
  5
213
100
AcDbEntity
  8
0
100
AcDbBlockBegin
 62
2
  6
CONTINUOUS
  2
SUN_FIRST_THIRD_ANGLE_BL0
 70
64
 10
20.4816717061
 20
1.2289683772
  3
SUN_FIRST_THIRD_ANGLE_BL0
  1

  0
TEXT
  5
214
100
AcDbEntity
  8
0
100
AcDbText
 62
2
  6
CONTINUOUS
 10
19.4750896608
 20
1.4136269581
  7
STANDARD
 40
0.08
  1
FIRST ANGLE
 41
0.8
 72
0
100
AcDbText
  0
TEXT
  5
215
100
AcDbEntity
  8
0
100
AcDbText
 62
2
  6
CONTINUOUS
 10
20.7842537513
 20
1.4047600029
  7
STANDARD
 40
0.08
  1
THIRD ANGLE
 41
0.8
 72
0
100
AcDbText
  0
LINE
  5
216
100
AcDbEntity
  8
0
100
AcDbLine
 62
7
  6
CONTINUOUS
 10
19.4767170086
 20
1.1727031207
 11
19.6334271527
 21
1.1717972817
  0
LINE
  5
217
100
AcDbEntity
  8
0
100
AcDbLine
 62
7
  6
CONTINUOUS
 10
19.6596964832
 20
1.1717972817
 11
19.6950230232
 21
1.171593082
  0
LINE
  5
218
100
AcDbEntity
  8
0
100
AcDbLine
 62
7
  6
CONTINUOUS
 10
19.7194818561
 20
1.1708914427
 11
19.8852396156
 21
1.1699333054
  0
LINE
  5
219
100
AcDbEntity
  8
0
100
AcDbLine
 62
7
  6
CONTINUOUS
 10
19.4758111696
 20
1.2723454088
 11
19.88525039
 21
1.3511534004
  0
LINE
  5
21A
100
AcDbEntity
  8
0
100
AcDbLine
 62
7
  6
CONTINUOUS
 10
19.88525039
 20
1.3511534004
 11
19.8831348489
 21
0.9851647912
  0
LINE
  5
21B
100
AcDbEntity
  8
0
100
AcDbLine
 62
7
  6
CONTINUOUS
 10
19.8831348489
 20
0.9851647912
 11
19.4767170086
 21
1.0658141206
  0
LINE
  5
21C
100
AcDbEntity
  8
0
100
AcDbLine
 62
7
  6
CONTINUOUS
 10
19.4767170086
 20
1.0658141206
 11
19.4779056764
 21
1.2714536432
  0
CIRCLE
  5
21D
100
AcDbEntity
  8
0
100
AcDbCircle
 62
7
  6
CONTINUOUS
 10
20.2068232291
 20
1.1717972817
 40
0.175742101
  0
CIRCLE
  5
21E
100
AcDbEntity
  8
0
100
AcDbCircle
 62
7
  6
CONTINUOUS
 10
20.2068232291
 20
1.1717972817
 40
0.1005522074
  0
LINE
  5
21F
100
AcDbEntity
  8
0
100
AcDbLine
 62
7
  6
CONTINUOUS
 10
20.2077290681
 20
1.3756110529
 11
20.2071171714
 21
1.2379342989
  0
LINE
  5
220
100
AcDbEntity
  8
0
100
AcDbLine
 62
7
  6
CONTINUOUS
 10
20.2077290681
 20
1.2016899681
 11
20.2074674401
 21
1.1428236749
  0
LINE
  5
221
100
AcDbEntity
  8
0
100
AcDbLine
 62
7
  6
CONTINUOUS
 10
20.208634907
 20
1.101141841
 11
20.2080230104
 21
0.963465087
  0
LINE
  5
222
100
AcDbEntity
  8
0
100
AcDbLine
 62
7
  6
CONTINUOUS
 10
20.0066328138
 20
1.1745147986
 11
20.1443095678
 21
1.1739029019
  0
LINE
  5
223
100
AcDbEntity
  8
0
100
AcDbLine
 62
7
  6
CONTINUOUS
 10
20.1832714155
 20
1.1727031207
 11
20.238153505
 21
1.172335442
  0
LINE
  5
224
100
AcDbEntity
  8
0
100
AcDbLine
 62
7
  6
CONTINUOUS
 10
20.2756669918
 20
1.1717972817
 11
20.407916871
 21
1.1712095044
  0
CIRCLE
  5
225
100
AcDbEntity
  8
0
100
AcDbCircle
 62
7
  6
CONTINUOUS
 10
20.7509457401
 20
1.1693297793
 40
0.1722024983
  0
CIRCLE
  5
226
100
AcDbEntity
  8
0
100
AcDbCircle
 62
7
  6
CONTINUOUS
 10
20.7509457401
 20
1.1693297793
 40
0.0985164967
  0
LINE
  5
227
100
AcDbEntity
  8
0
100
AcDbLine
 62
7
  6
CONTINUOUS
 10
20.7169767782
 20
1.170462078
 11
20.7825395137
 21
1.1682766535
  0
LINE
  5
228
100
AcDbEntity
  8
0
100
AcDbLine
 62
7
  6
CONTINUOUS
 10
20.8177513651
 20
1.1693297793
 11
20.947965719
 21
1.1693297793
  0
LINE
  5
229
100
AcDbEntity
  8
0
100
AcDbLine
 62
7
  6
CONTINUOUS
 10
20.6875370113
 20
1.170462078
 11
20.5573226574
 21
1.170462078
  0
LINE
  5
22A
100
AcDbEntity
  8
0
100
AcDbLine
 62
7
  6
CONTINUOUS
 10
20.7486811426
 20
1.1987695462
 11
20.7486811426
 21
1.1432869085
  0
LINE
  5
22B
100
AcDbEntity
  8
0
100
AcDbLine
 62
7
  6
CONTINUOUS
 10
20.7498134414
 20
1.1059210505
 11
20.7498134414
 21
0.9757066966
  0
LINE
  5
22C
100
AcDbEntity
  8
0
100
AcDbLine
 62
7
  6
CONTINUOUS
 10
20.7486811426
 20
1.2338708068
 11
20.7486811426
 21
1.3640851607
  0
LINE
  5
22D
100
AcDbEntity
  8
0
100
AcDbLine
 62
7
  6
CONTINUOUS
 10
21.0702539817
 20
1.2701043662
 11
21.4790138229
 21
1.3448360823
  0
LINE
  5
22E
100
AcDbEntity
  8
0
100
AcDbLine
 62
7
  6
CONTINUOUS
 10
21.4790138229
 20
1.3448360823
 11
21.4790138229
 21
0.9779712941
  0
LINE
  5
22F
100
AcDbEntity
  8
0
100
AcDbLine
 62
7
  6
CONTINUOUS
 10
21.4790138229
 20
0.9779712941
 11
21.069121683
 21
1.0617614
  0
LINE
  5
230
100
AcDbEntity
  8
0
100
AcDbLine
 62
7
  6
CONTINUOUS
 10
21.0702539817
 20
1.2701043662
 11
21.069121683
 21
1.0617614
  0
LINE
  5
231
100
AcDbEntity
  8
0
100
AcDbLine
 62
7
  6
CONTINUOUS
 10
21.4790138229
 20
1.1693297793
 11
21.3159628059
 21
1.1693297793
  0
LINE
  5
232
100
AcDbEntity
  8
0
100
AcDbLine
 62
7
  6
CONTINUOUS
 10
21.2876553377
 20
1.1693297793
 11
21.2502894796
 21
1.1693297793
  0
LINE
  5
233
100
AcDbEntity
  8
0
100
AcDbLine
 62
7
  6
CONTINUOUS
 10
21.2208497126
 20
1.1659328831
 11
21.0713862804
 21
1.1659328831
  0
LINE
  5
234
100
AcDbEntity
  8
0
100
AcDbLine
 62
7
  6
CONTINUOUS
 10
20.4796138713
 20
1.5284908897
 11
20.4766766948
 21
0.9294458646
  0
ENDBLK
  5
235
100
AcDbEntity
  8
0
  6
BYBLOCK
 62
0
100
AcDbBlockEnd
  0
BLOCK
  5
236
100
AcDbEntity
  8
0
100
AcDbBlockBegin
  2
*T1
 70
1
 10
0.0
 20
0.0
  3
*T1
  1

  0
LINE
  5
237
100
AcDbEntity
  8
0
100
AcDbLine
 62
2
  6
CONTINUOUS
 10
9.275
 20
0.0
 11
-0.0
 21
0.0
  0
LINE
  5
238
100
AcDbEntity
  8
0
100
AcDbLine
 62
2
  6
CONTINUOUS
 10
9.275
 20
0.0
 11
9.275
 21
1.25
  0
LINE
  5
239
100
AcDbEntity
  8
0
100
AcDbLine
 62
2
  6
CONTINUOUS
 10
9.275
 20
0.625
 11
-0.0
 21
0.625
  0
LINE
  5
23A
100
AcDbEntity
  8
0
100
AcDbLine
 62
2
  6
CONTINUOUS
 10
9.275
 20
1.25
 11
-0.0
 21
1.25
  0
LINE
  5
23B
100
AcDbEntity
  8
0
100
AcDbLine
 62
2
  6
CONTINUOUS
 10
6.8
 20
0.0
 11
6.8
 21
1.25
  0
LINE
  5
23C
100
AcDbEntity
  8
0
100
AcDbLine
 62
2
  6
CONTINUOUS
 10
6.4
 20
0.0
 11
6.4
 21
0.625
  0
LINE
  5
23D
100
AcDbEntity
  8
0
100
AcDbLine
 62
2
  6
CONTINUOUS
 10
5.9
 20
0.0
 11
5.9
 21
0.625
  0
LINE
  5
23E
100
AcDbEntity
  8
0
100
AcDbLine
 62
2
  6
CONTINUOUS
 10
5.2
 20
0.0
 11
5.2
 21
0.625
  0
LINE
  5
23F
100
AcDbEntity
  8
0
100
AcDbLine
 62
2
  6
CONTINUOUS
 10
4.1
 20
0.0
 11
4.1
 21
1.25
  0
LINE
  5
240
100
AcDbEntity
  8
0
100
AcDbLine
 62
2
  6
CONTINUOUS
 10
-0.0
 20
0.0
 11
-0.0
 21
1.25
  0
MTEXT
  5
241
100
AcDbEntity
  8
0
100
AcDbMText
 62
2
  6
CONTINUOUS
  7
STANDARD
 71
2
 72
1
 10
6.6
 20
0.325
 30
0.0
 11
1.0
 21
0.0
 31
0.0
 44
0.9
  1
2
 40
0.125
 41
0.2
  0
MTEXT
  5
242
100
AcDbEntity
  8
0
100
AcDbMText
 62
2
  6
CONTINUOUS
  7
STANDARD
 71
2
 72
1
 10
6.15
 20
0.325
 30
0.0
 11
1.0
 21
0.0
 31
0.0
 44
0.9
  1
C
 40
0.125
 41
0.2
  0
MTEXT
  5
243
100
AcDbEntity
  8
0
100
AcDbMText
 62
2
  6
CONTINUOUS
  7
STANDARD
 71
2
 72
1
 10
5.55
 20
0.325
 30
0.0
 11
1.0
 21
0.0
 31
0.0
 44
0.9
  1
1.000
 40
0.125
 41
1.0
  0
MTEXT
  5
244
100
AcDbEntity
  8
0
100
AcDbMText
 62
2
  6
CONTINUOUS
  7
STANDARD
 71
2
 72
1
 10
4.65
 20
0.325
 30
0.0
 11
1.0
 21
0.0
 31
0.0
 44
0.9
  1
Oct-03-22
 40
0.125
 41
1.8
  0
MTEXT
  5
245
100
AcDbEntity
  8
0
100
AcDbMText
 62
2
  6
CONTINUOUS
  7
STANDARD
 71
2
 72
1
 10
2.05
 20
0.4625
 30
0.0
 11
1.0
 21
0.0
 31
0.0
 44
0.9
  1
T-10A Subplate ISO 03\PP to T, check on P, bottom ports
 40
0.125
 41
6.4
  0
MTEXT
  5
246
100
AcDbEntity
  8
0
100
AcDbMText
 62
2
  6
CONTINUOUS
  7
STANDARD
 71
1
 72
1
 10
6.45
 20
0.5625
 30
0.0
 11
1.0
 21
0.0
 31
0.0
 44
0.9
  1
SHEET
 40
0.06
 41
0.48
  0
MTEXT
  5
247
100
AcDbEntity
  8
0
100
AcDbMText
 62
2
  6
CONTINUOUS
  7
STANDARD
 71
1
 72
1
 10
5.95
 20
0.5625
 30
0.0
 11
1.0
 21
0.0
 31
0.0
 44
0.9
  1
DWG SIZE
 40
0.06
 41
0.768
  0
MTEXT
  5
248
100
AcDbEntity
  8
0
100
AcDbMText
 62
2
  6
CONTINUOUS
  7
STANDARD
 71
1
 72
1
 10
5.25
 20
0.5625
 30
0.0
 11
1.0
 21
0.0
 31
0.0
 44
0.9
  1
SCALE
 40
0.06
 41
0.48
  0
MTEXT
  5
249
100
AcDbEntity
  8
0
100
AcDbMText
 62
2
  6
CONTINUOUS
  7
STANDARD
 71
1
 72
1
 10
4.15
 20
0.5625
 30
0.0
 11
1.0
 21
0.0
 31
0.0
 44
0.9
  1
DATE
 40
0.06
 41
0.384
  0
MTEXT
  5
24A
100
AcDbEntity
  8
0
100
AcDbMText
 62
2
  6
CONTINUOUS
  7
STANDARD
 71
1
 72
1
 10
0.05
 20
0.5625
 30
0.0
 11
1.0
 21
0.0
 31
0.0
 44
0.9
  1
DESCRIPTION
 40
0.06
 41
1.056
  0
MTEXT
  5
24B
100
AcDbEntity
  8
0
100
AcDbMText
 62
2
  6
CONTINUOUS
  7
STANDARD
 71
2
 72
1
 10
5.45
 20
1.0375
 30
0.0
 11
1.0
 21
0.0
 31
0.0
 44
0.9
  1
ALL DIMENSIONS IN INCH\PVIEWS ARE THIRD ANGLE
 40
0.12
 41
4.224
  0
MTEXT
  5
24C
100
AcDbEntity
  8
0
100
AcDbMText
 62
2
  6
CONTINUOUS
  7
STANDARD
 71
2
 72
1
 10
2.05
 20
0.95
 30
0.0
 11
1.0
 21
0.0
 31
0.0
 44
0.9
  1
WJQ
 40
0.125
 41
0.6
  0
MTEXT
  5
24D
100
AcDbEntity
  8
0
100
AcDbMText
 62
2
  6
CONTINUOUS
  7
STANDARD
 71
1
 72
1
 10
0.05
 20
1.1875
 30
0.0
 11
1.0
 21
0.0
 31
0.0
 44
0.9
  1
MODEL
 40
0.06
 41
0.48
  0
ENDBLK
  5
24E
100
AcDbEntity
  8
0
  6
BYBLOCK
 62
0
100
AcDbBlockEnd
  0
BLOCK
  5
24F
100
AcDbEntity
  8
0
100
AcDbBlockBegin
  2
*T2
 70
1
 10
0.0
 20
0.0
  3
*T2
  1

  0
LINE
  5
250
100
AcDbEntity
  8
0
100
AcDbLine
 62
2
  6
CONTINUOUS
 10
0.0
 20
0.0
 11
9.055
 21
0.0
  0
LINE
  5
251
100
AcDbEntity
  8
0
100
AcDbLine
 62
2
  6
CONTINUOUS
 10
0.0
 20
0.0
 11
0.0
 21
-2.594
  0
LINE
  5
252
100
AcDbEntity
  8
0
100
AcDbLine
 62
2
  6
CONTINUOUS
 10
0.0
 20
-0.344
 11
9.055
 21
-0.344
  0
LINE
  5
253
100
AcDbEntity
  8
0
100
AcDbLine
 62
2
  6
CONTINUOUS
 10
0.0
 20
-0.594
 11
9.055
 21
-0.594
  0
LINE
  5
254
100
AcDbEntity
  8
0
100
AcDbLine
 62
2
  6
CONTINUOUS
 10
0.0
 20
-0.844
 11
9.055
 21
-0.844
  0
LINE
  5
255
100
AcDbEntity
  8
0
100
AcDbLine
 62
2
  6
CONTINUOUS
 10
0.0
 20
-1.094
 11
9.055
 21
-1.094
  0
LINE
  5
256
100
AcDbEntity
  8
0
100
AcDbLine
 62
2
  6
CONTINUOUS
 10
0.0
 20
-1.344
 11
9.055
 21
-1.344
  0
LINE
  5
257
100
AcDbEntity
  8
0
100
AcDbLine
 62
2
  6
CONTINUOUS
 10
0.0
 20
-1.594
 11
9.055
 21
-1.594
  0
LINE
  5
258
100
AcDbEntity
  8
0
100
AcDbLine
 62
2
  6
CONTINUOUS
 10
0.0
 20
-1.844
 11
9.055
 21
-1.844
  0
LINE
  5
259
100
AcDbEntity
  8
0
100
AcDbLine
 62
2
  6
CONTINUOUS
 10
0.0
 20
-2.094
 11
9.055
 21
-2.094
  0
LINE
  5
25A
100
AcDbEntity
  8
0
100
AcDbLine
 62
2
  6
CONTINUOUS
 10
0.0
 20
-2.344
 11
9.055
 21
-2.344
  0
LINE
  5
25B
100
AcDbEntity
  8
0
100
AcDbLine
 62
2
  6
CONTINUOUS
 10
0.0
 20
-2.594
 11
9.055
 21
-2.594
  0
LINE
  5
25C
100
AcDbEntity
  8
0
100
AcDbLine
 62
2
  6
CONTINUOUS
 10
3.055
 20
0.0
 11
3.055
 21
-2.594
  0
LINE
  5
25D
100
AcDbEntity
  8
0
100
AcDbLine
 62
2
  6
CONTINUOUS
 10
9.055
 20
0.0
 11
9.055
 21
-2.594
  0
MTEXT
  5
25E
100
AcDbEntity
  8
0
100
AcDbMText
 62
2
  6
CONTINUOUS
  7
STANDARD
 71
2
 72
1
 10
1.5275
 20
-0.0995
 30
0.0
 11
1.0
 21
0.0
 31
0.0
 44
0.9
  1
Technical Data
 40
0.145
 41
3.248
  0
MTEXT
  5
25F
100
AcDbEntity
  8
0
100
AcDbMText
 62
2
  6
CONTINUOUS
  7
STANDARD
 71
2
 72
1
 10
4.555
 20
-0.0995
 30
0.0
 11
1.0
 21
0.0
 31
0.0
 44
0.9
  1
U.S. Units
 40
0.145
 41
2.32
  0
MTEXT
  5
260
100
AcDbEntity
  8
0
100
AcDbMText
 62
2
  6
CONTINUOUS
  7
STANDARD
 71
2
 72
1
 10
7.555
 20
-0.0995
 30
0.0
 11
1.0
 21
0.0
 31
0.0
 44
0.9
  1
Metric Units
 40
0.145
 41
2.784
  0
MTEXT
  5
261
100
AcDbEntity
  8
0
100
AcDbMText
 62
2
  6
CONTINUOUS
  7
STANDARD
 71
2
 72
1
 10
1.5275
 20
-0.4065
 30
0.0
 11
1.0
 21
0.0
 31
0.0
 44
0.9
  1
Cavity
 40
0.125
 41
1.2
  0
MTEXT
  5
262
100
AcDbEntity
  8
0
100
AcDbMText
 62
2
  6
CONTINUOUS
  7
STANDARD
 71
2
 72
1
 10
6.055
 20
-0.4065
 30
0.0
 11
1.0
 21
0.0
 31
0.0
 44
0.9
  1
T-10A
 40
0.125
 41
1.0
  0
MTEXT
  5
263
100
AcDbEntity
  8
0
100
AcDbMText
 62
2
  6
CONTINUOUS
  7
STANDARD
 71
2
 72
1
 10
1.5275
 20
-0.6565
 30
0.0
 11
1.0
 21
0.0
 31
0.0
 44
0.9
  1
Body Features
 40
0.125
 41
2.6
  0
MTEXT
  5
264
100
AcDbEntity
  8
0
100
AcDbMText
 62
2
  6
CONTINUOUS
  7
STANDARD
 71
2
 72
1
 10
6.055
 20
-0.6565
 30
0.0
 11
1.0
 21
0.0
 31
0.0
 44
0.9
  1
P to T, check on P, bottom ports
 40
0.125
 41
6.4
  0
MTEXT
  5
265
100
AcDbEntity
  8
0
100
AcDbMText
 62
2
  6
CONTINUOUS
  7
STANDARD
 71
2
 72
1
 10
1.5275
 20
-0.9065
 30
0.0
 11
1.0
 21
0.0
 31
0.0
 44
0.9
  1
Body Type
 40
0.125
 41
1.8
  0
MTEXT
  5
266
100
AcDbEntity
  8
0
100
AcDbMText
 62
2
  6
CONTINUOUS
  7
STANDARD
 71
2
 72
1
 10
6.055
 20
-0.9065
 30
0.0
 11
1.0
 21
0.0
 31
0.0
 44
0.9
  1
Subplate
 40
0.125
 41
1.6
  0
MTEXT
  5
267
100
AcDbEntity
  8
0
100
AcDbMText
 62
2
  6
CONTINUOUS
  7
STANDARD
 71
2
 72
1
 10
1.5275
 20
-1.1565
 30
0.0
 11
1.0
 21
0.0
 31
0.0
 44
0.9
  1
Interface
 40
0.125
 41
1.8
  0
MTEXT
  5
268
100
AcDbEntity
  8
0
100
AcDbMText
 62
2
  6
CONTINUOUS
  7
STANDARD
 71
2
 72
1
 10
6.055
 20
-1.1565
 30
0.0
 11
1.0
 21
0.0
 31
0.0
 44
0.9
  1
ISO 03
 40
0.125
 41
1.2
  0
MTEXT
  5
269
100
AcDbEntity
  8
0
100
AcDbMText
 62
2
  6
CONTINUOUS
  7
STANDARD
 71
2
 72
1
 10
1.5275
 20
-1.4065
 30
0.0
 11
1.0
 21
0.0
 31
0.0
 44
0.9
  1
Open Cavity Quantity
 40
0.125
 41
4.0
  0
MTEXT
  5
26A
100
AcDbEntity
  8
0
100
AcDbMText
 62
2
  6
CONTINUOUS
  7
STANDARD
 71
2
 72
1
 10
6.055
 20
-1.4065
 30
0.0
 11
1.0
 21
0.0
 31
0.0
 44
0.9
  1
1
 40
0.125
 41
0.2
  0
MTEXT
  5
26B
100
AcDbEntity
  8
0
100
AcDbMText
 62
2
  6
CONTINUOUS
  7
STANDARD
 71
2
 72
1
 10
1.5275
 20
-1.6565
 30
0.0
 11
1.0
 21
0.0
 31
0.0
 44
0.9
  1
Weight
 40
0.125
 41
1.2
  0
MTEXT
  5
26C
100
AcDbEntity
  8
0
100
AcDbMText
 62
2
  6
CONTINUOUS
  7
STANDARD
 71
2
 72
1
 10
4.555
 20
-1.6565
 30
0.0
 11
1.0
 21
0.0
 31
0.0
 44
0.9
  1
2.236 lb.
 40
0.125
 41
1.8
  0
MTEXT
  5
26D
100
AcDbEntity
  8
0
100
AcDbMText
 62
2
  6
CONTINUOUS
  7
STANDARD
 71
2
 72
1
 10
7.555
 20
-1.6565
 30
0.0
 11
1.0
 21
0.0
 31
0.0
 44
0.9
  1
1,014 kg.
 40
0.125
 41
1.8
  0
MTEXT
  5
26E
100
AcDbEntity
  8
0
100
AcDbMText
 62
2
  6
CONTINUOUS
  7
STANDARD
 71
2
 72
1
 10
1.5275
 20
-1.9065
 30
0.0
 11
1.0
 21
0.0
 31
0.0
 44
0.9
  1
Mounting Hole Diameter
 40
0.125
 41
4.4
  0
MTEXT
  5
26F
100
AcDbEntity
  8
0
100
AcDbMText
 62
2
  6
CONTINUOUS
  7
STANDARD
 71
2
 72
1
 10
4.555
 20
-1.9065
 30
0.0
 11
1.0
 21
0.0
 31
0.0
 44
0.9
  1
.28 in.
 40
0.125
 41
1.4
  0
MTEXT
  5
270
100
AcDbEntity
  8
0
100
AcDbMText
 62
2
  6
CONTINUOUS
  7
STANDARD
 71
2
 72
1
 10
7.555
 20
-1.9065
 30
0.0
 11
1.0
 21
0.0
 31
0.0
 44
0.9
  1
7,1 mm
 40
0.125
 41
1.2
  0
MTEXT
  5
271
100
AcDbEntity
  8
0
100
AcDbMText
 62
2
  6
CONTINUOUS
  7
STANDARD
 71
2
 72
1
 10
1.5275
 20
-2.1565
 30
0.0
 11
1.0
 21
0.0
 31
0.0
 44
0.9
  1
Mounting Hole Thread
 40
0.125
 41
4.0
  0
MTEXT
  5
272
100
AcDbEntity
  8
0
100
AcDbMText
 62
2
  6
CONTINUOUS
  7
STANDARD
 71
2
 72
1
 10
6.055
 20
-2.1565
 30
0.0
 11
1.0
 21
0.0
 31
0.0
 44
0.9
  1
10-24 UNC - 2B in.
 40
0.125
 41
3.6
  0
MTEXT
  5
273
100
AcDbEntity
  8
0
100
AcDbMText
 62
2
  6
CONTINUOUS
  7
STANDARD
 71
2
 72
1
 10
1.5275
 20
-2.4065
 30
0.0
 11
1.0
 21
0.0
 31
0.0
 44
0.9
  1
Includes integral cartridge(s)
 40
0.125
 41
6.0
  0
MTEXT
  5
274
100
AcDbEntity
  8
0
100
AcDbMText
 62
2
  6
CONTINUOUS
  7
STANDARD
 71
2
 72
1
 10
6.055
 20
-2.4065
 30
0.0
 11
1.0
 21
0.0
 31
0.0
 44
0.9
  1
Yes (see Included Components)
 40
0.125
 41
5.8
  0
ENDBLK
  5
275
100
AcDbEntity
  8
0
  6
BYBLOCK
 62
0
100
AcDbBlockEnd
  0
BLOCK
  5
276
100
AcDbEntity
  8
0
100
AcDbBlockBegin
  2
*T3
 70
1
 10
0.0
 20
0.0
  3
*T3
  1

  0
LINE
  5
277
100
AcDbEntity
  8
0
100
AcDbLine
 62
2
  6
CONTINUOUS
 10
0.0
 20
0.0
 11
4.6
 21
0.0
  0
LINE
  5
278
100
AcDbEntity
  8
0
100
AcDbLine
 62
2
  6
CONTINUOUS
 10
0.0
 20
0.0
 11
0.0
 21
-1.18775
  0
LINE
  5
279
100
AcDbEntity
  8
0
100
AcDbLine
 62
2
  6
CONTINUOUS
 10
0.0
 20
-0.34375
 11
4.6
 21
-0.34375
  0
LINE
  5
27A
100
AcDbEntity
  8
0
100
AcDbLine
 62
2
  6
CONTINUOUS
 10
0.0
 20
-0.68775
 11
4.6
 21
-0.68775
  0
LINE
  5
27B
100
AcDbEntity
  8
0
100
AcDbLine
 62
2
  6
CONTINUOUS
 10
0.0
 20
-0.93775
 11
4.6
 21
-0.93775
  0
LINE
  5
27C
100
AcDbEntity
  8
0
100
AcDbLine
 62
2
  6
CONTINUOUS
 10
0.0
 20
-1.18775
 11
4.6
 21
-1.18775
  0
LINE
  5
27D
100
AcDbEntity
  8
0
100
AcDbLine
 62
2
  6
CONTINUOUS
 10
1.3
 20
-0.34375
 11
1.3
 21
-1.18775
  0
LINE
  5
27E
100
AcDbEntity
  8
0
100
AcDbLine
 62
2
  6
CONTINUOUS
 10
3.3
 20
-0.34375
 11
3.3
 21
-1.18775
  0
LINE
  5
27F
100
AcDbEntity
  8
0
100
AcDbLine
 62
2
  6
CONTINUOUS
 10
4.6
 20
0.0
 11
4.6
 21
-1.18775
  0
MTEXT
  5
280
100
AcDbEntity
  8
0
100
AcDbMText
 62
2
  6
CONTINUOUS
  7
STANDARD
 71
2
 72
1
 10
2.3
 20
-0.099375
 30
0.0
 11
1.0
 21
0.0
 31
0.0
 44
0.9
  1
Port Headings
 40
0.145
 41
3.016
  0
MTEXT
  5
281
100
AcDbEntity
  8
0
100
AcDbMText
 62
2
  6
CONTINUOUS
  7
STANDARD
 71
2
 72
1
 10
0.65
 20
-0.44325
 30
0.0
 11
1.0
 21
0.0
 31
0.0
 44
0.9
  1
Product
 40
0.145
 41
1.624
  0
MTEXT
  5
282
100
AcDbEntity
  8
0
100
AcDbMText
 62
2
  6
CONTINUOUS
  7
STANDARD
 71
2
 72
1
 10
2.3
 20
-0.44325
 30
0.0
 11
1.0
 21
0.0
 31
0.0
 44
0.9
  1
Port
 40
0.145
 41
0.928
  0
MTEXT
  5
283
100
AcDbEntity
  8
0
100
AcDbMText
 62
2
  6
CONTINUOUS
  7
STANDARD
 71
2
 72
1
 10
3.95
 20
-0.44325
 30
0.0
 11
1.0
 21
0.0
 31
0.0
 44
0.9
  1
Size
 40
0.145
 41
0.928
  0
MTEXT
  5
284
100
AcDbEntity
  8
0
100
AcDbMText
 62
2
  6
CONTINUOUS
  7
STANDARD
 71
2
 72
1
 10
0.65
 20
-0.75025
 30
0.0
 11
1.0
 21
0.0
 31
0.0
 44
0.9
  1
WJQ
 40
0.125
 41
0.6
  0
MTEXT
  5
285
100
AcDbEntity
  8
0
100
AcDbMText
 62
2
  6
CONTINUOUS
  7
STANDARD
 71
2
 72
1
 10
2.3
 20
-0.75025
 30
0.0
 11
1.0
 21
0.0
 31
0.0
 44
0.9
  1
Ports A, B, P, T
 40
0.125
 41
3.2
  0
MTEXT
  5
286
100
AcDbEntity
  8
0
100
AcDbMText
 62
2
  6
CONTINUOUS
  7
STANDARD
 71
2
 72
1
 10
3.95
 20
-0.75025
 30
0.0
 11
1.0
 21
0.0
 31
0.0
 44
0.9
  1
SAE 8
 40
0.125
 41
1.0
  0
MTEXT
  5
287
100
AcDbEntity
  8
0
100
AcDbMText
 62
2
  6
CONTINUOUS
  7
STANDARD
 71
2
 72
1
 10
0.65
 20
-1.00025
 30
0.0
 11
1.0
 21
0.0
 31
0.0
 44
0.9
  1
WJQ
 40
0.125
 41
0.6
  0
MTEXT
  5
288
100
AcDbEntity
  8
0
100
AcDbMText
 62
2
  6
CONTINUOUS
  7
STANDARD
 71
2
 72
1
 10
2.3
 20
-1.00025
 30
0.0
 11
1.0
 21
0.0
 31
0.0
 44
0.9
  1
Gage Port
 40
0.125
 41
1.8
  0
MTEXT
  5
289
100
AcDbEntity
  8
0
100
AcDbMText
 62
2
  6
CONTINUOUS
  7
STANDARD
 71
2
 72
1
 10
3.95
 20
-1.00025
 30
0.0
 11
1.0
 21
0.0
 31
0.0
 44
0.9
  1
1/4" NPTF
 40
0.125
 41
1.8
  0
ENDBLK
  5
28A
100
AcDbEntity
  8
0
  6
BYBLOCK
 62
0
100
AcDbBlockEnd
  0
ENDSEC
  0
SECTION
  2
ENTITIES
  0
IMAGE
  5
28B
100
AcDbEntity
  8
0
100
AcDbRasterImage
 62
7
  6
CONTINUOUS
 10
19.2297077316
 20
0.3094318264
 30
0.0
 11
0.0066666667
 21
0.0
 31
0.0
 12
0.0
 22
0.0066666667
 32
0.0
 13
369.0
 23
92.0
340
       39B
 70
9
280
0
281
50
282
50
283
0
360
       395
 71
1
 91
2
 14
-0.5
 24
-0.5
 14
368.5
 24
91.5
  0
INSERT
  5
28C
100
AcDbEntity
  8
0
100
AcDbBlockReference
 62
2
  6
CONTINUOUS
  2
SUN_FIRST_THIRD_ANGLE_BL0
 10
20.4816717061
 20
1.2289683772
  0
ACAD_TABLE
  5
28D
100
AcDbEntity
  8
0
 62
2
  6
CONTINUOUS
100
AcDbBlockReference
  2
*T1
 10
12.42375
 20
0.30125
 30
0.0
100
AcDbTable
342
       39D
343
20F
 11
1.0
 21
0.0
 31
0.0
 90
6
 91
4
 92
6
 93
20
 94
0
 95
0
 96
0
 70
1
 41
0.0
141
0.525
141
0.1
141
0.525
141
0.1
142
4.1
142
1.1
142
0.7
142
0.5
142
0.4
142
2.475
171
1
172
0
173
0
174
0
175
1
176
1
 91
33
178
0
145
0.0
301
CELL_VALUE
 90
4
  1
T-10A Subplate ISO 03\PP to T, check on P, bottom ports
304
ACVALUE_END
170
2
140
0.125
171
1
172
0
173
0
174
0
175
1
176
1
 91
33
178
0
145
0.0
301
CELL_VALUE
 90
4
  1
Oct-03-22
304
ACVALUE_END
170
5
140
0.125
171
1
172
0
173
0
174
0
175
1
176
1
 91
33
178
0
145
0.0
301
CELL_VALUE
 90
4
  1
1.000
304
ACVALUE_END
170
5
140
0.125
171
1
172
0
173
0
174
0
175
1
176
1
 91
33
178
0
145
0.0
301
CELL_VALUE
 90
4
  1
C
304
ACVALUE_END
170
5
140
0.125
171
1
172
0
173
0
174
0
175
1
176
1
 91
33
178
0
145
0.0
301
CELL_VALUE
 90
4
  1
2
304
ACVALUE_END
170
5
140
0.125
171
1
172
0
173
0
174
0
175
1
176
1
 91
33
178
0
145
0.0
301
CELL_VALUE
 90
4
  1
 
304
ACVALUE_END
170
1
140
0.125
171
1
172
0
173
0
174
0
175
1
176
1
 91
33
178
0
145
0.0
301
CELL_VALUE
 90
4
  1
DESCRIPTION
304
ACVALUE_END
170
1
140
0.06
171
1
172
0
173
0
174
0
175
1
176
1
 91
33
178
0
145
0.0
301
CELL_VALUE
 90
4
  1
DATE
304
ACVALUE_END
170
1
140
0.06
171
1
172
0
173
0
174
0
175
1
176
1
 91
33
178
0
145
0.0
301
CELL_VALUE
 90
4
  1
SCALE
304
ACVALUE_END
170
1
140
0.06
171
1
172
0
173
0
174
0
175
1
176
1
 91
33
178
0
145
0.0
301
CELL_VALUE
 90
4
  1
DWG SIZE
304
ACVALUE_END
170
1
140
0.06
171
1
172
0
173
0
174
0
175
1
176
1
 91
33
178
0
145
0.0
301
CELL_VALUE
 90
4
  1
SHEET
304
ACVALUE_END
170
1
140
0.06
171
1
172
0
173
0
174
0
175
1
176
1
 91
33
178
0
145
0.0
301
CELL_VALUE
 90
4
  1
 
304
ACVALUE_END
170
1
140
0.125
171
1
172
0
173
0
174
0
175
1
176
1
 91
33
178
0
145
0.0
301
CELL_VALUE
 90
4
  1
WJQ
304
ACVALUE_END
170
5
140
0.125
171
1
172
0
173
0
174
0
175
4
176
1
 91
33
178
0
145
0.0
301
CELL_VALUE
 90
4
  1
ALL DIMENSIONS IN INCH\PVIEWS ARE THIRD ANGLE
304
ACVALUE_END
170
5
140
0.12
171
1
172
0
173
1
174
0
175
1
176
1
 91
1
178
0
145
0.0
170
1
171
1
172
0
173
1
174
0
175
1
176
1
 91
1
178
0
145
0.0
170
1
171
1
172
0
173
1
174
0
175
1
176
1
 91
1
178
0
145
0.0
170
5
171
1
172
0
173
0
174
0
175
1
176
1
 91
33
178
0
145
0.0
301
CELL_VALUE
 90
4
  1
 
304
ACVALUE_END
170
1
140
0.125
171
1
172
0
173
0
174
0
175
1
176
1
 91
33
178
0
145
0.0
301
CELL_VALUE
 90
4
  1
MODEL
304
ACVALUE_END
170
1
140
0.06
171
1
172
0
173
0
174
0
175
1
176
1
 91
33
178
0
145
0.0
301
CELL_VALUE
 90
4
  1
 
304
ACVALUE_END
170
1
140
0.125
171
1
172
0
173
0
174
0
175
1
176
1
 91
33
178
0
145
0.0
301
CELL_VALUE
 90
4
  1
 
304
ACVALUE_END
170
1
140
0.125
171
1
172
0
173
0
174
0
175
1
176
1
 91
33
178
0
145
0.0
301
CELL_VALUE
 90
4
  1
 
304
ACVALUE_END
170
1
140
0.125
171
1
172
0
173
0
174
0
175
1
176
1
 91
33
178
0
145
0.0
301
CELL_VALUE
 90
4
  1
 
304
ACVALUE_END
170
1
140
0.125
171
1
172
0
173
0
174
0
175
1
176
1
 91
33
178
0
145
0.0
301
CELL_VALUE
 90
4
  1
 
304
ACVALUE_END
170
1
140
0.125
  0
ACAD_TABLE
  5
28E
100
AcDbEntity
  8
0
 62
2
  6
CONTINUOUS
100
AcDbBlockReference
  2
*T2
 10
12.4237499994
 20
16.47875
 30
0.0
100
AcDbTable
342
       39C
343
210
 11
1.0
 21
0.0
 31
0.0
 90
22
 91
10
 92
3
 93
16
 94
0
 95
0
 96
0
 41
0.028
141
0.344
141
0.25
141
0.25
141
0.25
141
0.25
141
0.25
141
0.25
141
0.25
141
0.25
141
0.25
142
3.055
142
3.0
142
3.0
171
1
172
0
173
0
174
0
175
1
176
1
 91
33
178
0
145
0.0
301
CELL_VALUE
 90
4
  1
Technical Data
304
ACVALUE_END
170
5
140
0.145
171
1
172
0
173
0
174
0
175
1
176
1
 91
33
178
0
145
0.0
301
CELL_VALUE
 90
4
  1
U.S. Units
304
ACVALUE_END
170
5
140
0.145
171
1
172
0
173
0
174
0
175
1
176
1
 91
33
178
0
145
0.0
301
CELL_VALUE
 90
4
  1
Metric Units
304
ACVALUE_END
170
5
140
0.145
171
1
172
0
173
0
174
0
175
1
176
1
 91
33
178
0
145
0.0
301
CELL_VALUE
 90
4
  1
Cavity
304
ACVALUE_END
170
5
140
0.125
171
1
172
0
173
0
174
0
175
2
176
1
 91
33
178
0
145
0.0
301
CELL_VALUE
 90
4
  1
T-10A
304
ACVALUE_END
170
5
140
0.125
171
1
172
0
173
1
174
0
175
1
176
1
 91
1
178
0
145
0.0
170
1
171
1
172
0
173
0
174
0
175
1
176
1
 91
33
178
0
145
0.0
301
CELL_VALUE
 90
4
  1
Body Features
304
ACVALUE_END
170
5
140
0.125
171
1
172
0
173
0
174
0
175
2
176
1
 91
33
178
0
145
0.0
301
CELL_VALUE
 90
4
  1
P to T, check on P, bottom ports
304
ACVALUE_END
170
5
140
0.125
171
1
172
0
173
1
174
0
175
1
176
1
 91
1
178
0
145
0.0
170
1
171
1
172
0
173
0
174
0
175
1
176
1
 91
33
178
0
145
0.0
301
CELL_VALUE
 90
4
  1
Body Type
304
ACVALUE_END
170
5
140
0.125
171
1
172
0
173
0
174
0
175
2
176
1
 91
33
178
0
145
0.0
301
CELL_VALUE
 90
4
  1
Subplate
304
ACVALUE_END
170
5
140
0.125
171
1
172
0
173
1
174
0
175
1
176
1
 91
1
178
0
145
0.0
170
1
171
1
172
0
173
0
174
0
175
1
176
1
 91
33
178
0
145
0.0
301
CELL_VALUE
 90
4
  1
Interface
304
ACVALUE_END
170
5
140
0.125
171
1
172
0
173
0
174
0
175
2
176
1
 91
33
178
0
145
0.0
301
CELL_VALUE
 90
4
  1
ISO 03
304
ACVALUE_END
170
5
140
0.125
171
1
172
0
173
1
174
0
175
1
176
1
 91
1
178
0
145
0.0
170
1
171
1
172
0
173
0
174
0
175
1
176
1
 91
33
178
0
145
0.0
301
CELL_VALUE
 90
4
  1
Open Cavity Quantity
304
ACVALUE_END
170
5
140
0.125
171
1
172
0
173
0
174
0
175
2
176
1
 91
33
178
0
145
0.0
301
CELL_VALUE
 90
4
  1
1
304
ACVALUE_END
170
5
140
0.125
171
1
172
0
173
1
174
0
175
1
176
1
 91
1
178
0
145
0.0
170
1
171
1
172
0
173
0
174
0
175
1
176
1
 91
33
178
0
145
0.0
301
CELL_VALUE
 90
4
  1
Weight
304
ACVALUE_END
170
5
140
0.125
171
1
172
0
173
0
174
0
175
1
176
1
 91
33
178
0
145
0.0
301
CELL_VALUE
 90
4
  1
2.236 lb.
304
ACVALUE_END
170
5
140
0.125
171
1
172
0
173
0
174
0
175
1
176
1
 91
33
178
0
145
0.0
301
CELL_VALUE
 90
4
  1
1,014 kg.
304
ACVALUE_END
170
5
140
0.125
171
1
172
0
173
0
174
0
175
1
176
1
 91
33
178
0
145
0.0
301
CELL_VALUE
 90
4
  1
Mounting Hole Diameter
304
ACVALUE_END
170
5
140
0.125
171
1
172
0
173
0
174
0
175
1
176
1
 91
33
178
0
145
0.0
301
CELL_VALUE
 90
4
  1
.28 in.
304
ACVALUE_END
170
5
140
0.125
171
1
172
0
173
0
174
0
175
1
176
1
 91
33
178
0
145
0.0
301
CELL_VALUE
 90
4
  1
7,1 mm
304
ACVALUE_END
170
5
140
0.125
171
1
172
0
173
0
174
0
175
1
176
1
 91
33
178
0
145
0.0
301
CELL_VALUE
 90
4
  1
Mounting Hole Thread
304
ACVALUE_END
170
5
140
0.125
171
1
172
0
173
0
174
0
175
2
176
1
 91
33
178
0
145
0.0
301
CELL_VALUE
 90
4
  1
10-24 UNC - 2B in.
304
ACVALUE_END
170
5
140
0.125
171
1
172
0
173
1
174
0
175
1
176
1
 91
1
178
0
145
0.0
170
1
171
1
172
0
173
0
174
0
175
1
176
1
 91
33
178
0
145
0.0
301
CELL_VALUE
 90
4
  1
Includes integral cartridge(s)
304
ACVALUE_END
170
5
140
0.125
171
1
172
0
173
0
174
0
175
2
176
1
 91
33
178
0
145
0.0
301
CELL_VALUE
 90
4
  1
Yes (see Included Components)
304
ACVALUE_END
170
5
140
0.125
171
1
172
0
173
1
174
0
175
1
176
1
 91
1
178
0
145
0.0
170
1
  0
ACAD_TABLE
  5
28F
100
AcDbEntity
  8
0
 62
2
  6
CONTINUOUS
100
AcDbBlockReference
  2
*T3
 10
0.52125
 20
1.709
 30
0.0
100
AcDbTable
342
       39C
343
211
 11
1.0
 21
0.0
 31
0.0
 90
22
 91
4
 92
3
 93
16
 94
0
 95
0
 96
0
 41
0.05
141
0.34375
141
0.344
141
0.25
141
0.25
142
1.3
142
2.0
142
1.3
171
1
172
0
173
0
174
0
175
3
176
1
 91
33
178
0
145
0.0
301
CELL_VALUE
 90
4
  1
Port Headings
304
ACVALUE_END
170
5
140
0.145
171
1
172
0
173
1
174
0
175
1
176
1
 91
1
178
0
145
0.0
170
1
171
1
172
0
173
1
174
0
175
1
176
1
 91
1
178
0
145
0.0
170
1
171
1
172
0
173
0
174
0
175
1
176
1
 91
33
178
0
145
0.0
301
CELL_VALUE
 90
4
  1
Product
304
ACVALUE_END
170
5
140
0.145
171
1
172
0
173
0
174
0
175
1
176
1
 91
33
178
0
145
0.0
301
CELL_VALUE
 90
4
  1
Port
304
ACVALUE_END
170
5
140
0.145
171
1
172
0
173
0
174
0
175
1
176
1
 91
33
178
0
145
0.0
301
CELL_VALUE
 90
4
  1
Size
304
ACVALUE_END
170
5
140
0.145
171
1
172
0
173
0
174
0
175
1
176
1
 91
33
178
0
145
0.0
301
CELL_VALUE
 90
4
  1
WJQ
304
ACVALUE_END
170
5
140
0.125
171
1
172
0
173
0
174
0
175
1
176
1
 91
33
178
0
145
0.0
301
CELL_VALUE
 90
4
  1
Ports A, B, P, T
304
ACVALUE_END
170
5
140
0.125
171
1
172
0
173
0
174
0
175
1
176
1
 91
33
178
0
145
0.0
301
CELL_VALUE
 90
4
  1
SAE 8
304
ACVALUE_END
170
5
140
0.125
171
1
172
0
173
0
174
0
175
1
176
1
 91
33
178
0
145
0.0
301
CELL_VALUE
 90
4
  1
WJQ
304
ACVALUE_END
170
5
140
0.125
171
1
172
0
173
0
174
0
175
1
176
1
 91
33
178
0
145
0.0
301
CELL_VALUE
 90
4
  1
Gage Port
304
ACVALUE_END
170
5
140
0.125
171
1
172
0
173
0
174
0
175
1
176
1
 91
33
178
0
145
0.0
301
CELL_VALUE
 90
4
  1
1/4" NPTF
304
ACVALUE_END
170
5
140
0.125
  0
MTEXT
  5
290
100
AcDbEntity
  8
0
100
AcDbMText
 62
2
  6
CONTINUOUS
  7
STANDARD
 71
1
 72
1
 10
0.52125
 20
5.75995
 30
0.0
 11
1.0
 21
0.0
 31
0.0
 44
0.6
  3
Notes\P \P1. Important: Carefully consider\P   the maximum system pressure. The\P   pressure rating of the manifold is\P   dependent on the manifold material,\P   with the port type/size a secondary\P   consideration. Manifolds\P   constructed of alu
  1
minum are not\P   rated for pressures higher than\P   3000 psi (210 bar), regardless of\P   the port type/size specified.
 40
0.1
 41
3.04
  0
LINE
  5
291
100
AcDbEntity
  8
0
100
AcDbLine
 62
7
  6
CONTINUOUS
 10
0.30125
 20
0.30125
 11
0.30125
 21
16.69875
  0
LINE
  5
292
100
AcDbEntity
  8
0
100
AcDbLine
 62
7
  6
CONTINUOUS
 10
0.30125
 20
0.30125
 11
21.69875
 21
0.30125
  0
LINE
  5
293
100
AcDbEntity
  8
0
100
AcDbLine
 62
7
  6
CONTINUOUS
 10
0.30125
 20
16.69875
 11
21.69875
 21
16.69875
  0
LINE
  5
294
100
AcDbEntity
  8
0
100
AcDbLine
 62
7
  6
CONTINUOUS
 10
21.69875
 20
0.30125
 11
21.69875
 21
16.69875
  0
LINE
  5
295
100
AcDbEntity
  8
0
100
AcDbLine
 62
7
  6
CONTINUOUS
 10
9.2788278866
 20
10.0575980659
 11
9.7964655496
 21
10.5575976829
  0
LINE
  5
296
100
AcDbEntity
  8
0
100
AcDbLine
 62
7
  6
CONTINUOUS
 10
8.8661341852
 20
7.7795344502
 11
8.8593743956
 21
7.7957754531
  0
LINE
  5
297
100
AcDbEntity
  8
0
100
AcDbLine
 62
7
  6
CONTINUOUS
 10
8.9293399172
 20
8.5915369291
 11
8.9125913011
 21
8.5631399055
  0
LINE
  5
298
100
AcDbEntity
  8
0
100
AcDbLine
 62
7
  6
CONTINUOUS
 10
12.6595684789
 20
6.4424023171
 11
9.2788278866
 21
6.6768574735
  0
LINE
  5
299
100
AcDbEntity
  8
0
100
AcDbLine
 62
4
  6
CONTINUOUS
 10
11.1637631688
 20
6.5925012523
 11
11.1223663383
 21
6.5953721322
  0
LINE
  5
29A
100
AcDbEntity
  8
0
100
AcDbLine
 62
4
  6
CONTINUOUS
 10
11.0726901748
 20
6.5988171859
 11
11.0478520654
 21
6.6005397146
  0
LINE
  5
29B
100
AcDbEntity
  8
0
100
AcDbLine
 62
4
  6
CONTINUOUS
 10
10.9843769584
 20
6.6049417282
 11
10.9512595161
 21
6.6072384307
  0
LINE
  5
29C
100
AcDbEntity
  8
0
100
AcDbLine
 62
4
  6
CONTINUOUS
 10
10.4986542337
 20
6.6386267136
 11
10.4572574169
 21
6.6414975926
  0
LINE
  5
29D
100
AcDbEntity
  8
0
100
AcDbLine
 62
4
  6
CONTINUOUS
 10
10.7608341121
 20
6.6204444773
 11
10.8105103033
 21
6.6169994217
  0
LINE
  5
29E
100
AcDbEntity
  8
0
100
AcDbLine
 62
4
  6
CONTINUOUS
 10
11.2272383311
 20
6.5880992348
 11
11.2769144946
 21
6.5846541812
  0
LINE
  5
29F
100
AcDbEntity
  8
0
100
AcDbLine
 62
4
  6
CONTINUOUS
 10
10.5731685135
 20
6.6665765903
 11
10.6173251217
 21
6.6635143192
  0
LINE
  5
2A0
100
AcDbEntity
  8
0
100
AcDbLine
 62
4
  6
CONTINUOUS
 10
11.2603557735
 20
6.6520374516
 11
11.2272383311
 21
6.654334154
  0
LINE
  5
2A1
100
AcDbEntity
  8
0
100
AcDbLine
 62
4
  6
CONTINUOUS
 10
10.7939515821
 20
6.6843826921
 11
10.7608341121
 21
6.6866793965
  0
LINE
  5
2A2
100
AcDbEntity
  8
0
100
AcDbLine
 62
4
  6
CONTINUOUS
 10
11.5994647285
 20
6.6608096502
 11
11.5849758406
 21
6.661814458
  0
LINE
  5
2A3
100
AcDbEntity
  8
0
100
AcDbLine
 62
4
  6
CONTINUOUS
 10
10.4572574169
 20
6.757408696
 11
10.4986542337
 21
6.754537817
  0
LINE
  5
2A4
100
AcDbEntity
  8
0
100
AcDbLine
 62
4
  6
CONTINUOUS
 10
10.6614817299
 20
6.7432456918
 11
10.7277166422
 21
6.738652285
  0
LINE
  5
2A5
100
AcDbEntity
  8
0
100
AcDbLine
 62
4
  6
CONTINUOUS
 10
10.7608341121
 20
6.7363555807
 11
10.8105103033
 21
6.7329105251
  0
LINE
  5
2A6
100
AcDbEntity
  8
0
100
AcDbLine
 62
4
  6
CONTINUOUS
 10
10.9512595161
 20
6.7231495341
 11
10.9843769584
 21
6.7208528317
  0
LINE
  5
2A7
100
AcDbEntity
  8
0
100
AcDbLine
 62
4
  6
CONTINUOUS
 10
11.0478520654
 20
6.716450818
 11
11.0726901748
 21
6.7147282893
  0
LINE
  5
2A8
100
AcDbEntity
  8
0
100
AcDbLine
 62
4
  6
CONTINUOUS
 10
11.1223663383
 20
6.7112832357
 11
11.1637631688
 21
6.7084123557
  0
LINE
  5
2A9
100
AcDbEntity
  8
0
100
AcDbLine
 62
4
  6
CONTINUOUS
 10
11.2272383311
 20
6.7040103383
 11
11.2769144946
 21
6.7005652846
  0
LINE
  5
2AA
100
AcDbEntity
  8
0
100
AcDbLine
 62
4
  6
CONTINUOUS
 10
10.3910224977
 20
6.6957671875
 11
10.4351791094
 21
6.6706266103
  0
LINE
  5
2AB
100
AcDbEntity
  8
0
100
AcDbLine
 62
7
  6
CONTINUOUS
 10
9.2788278866
 20
6.6768574735
 11
9.2788278866
 21
10.0575980659
  0
LINE
  5
2AC
100
AcDbEntity
  8
0
100
AcDbLine
 62
4
  6
CONTINUOUS
 10
11.5922202845
 20
6.7192676058
 11
11.6211980604
 21
6.7172579903
  0
LINE
  5
2AD
100
AcDbEntity
  8
0
100
AcDbLine
 62
4
  6
CONTINUOUS
 10
11.5849758406
 20
6.7777255614
 11
11.5994647285
 21
6.7767207537
  0
LINE
  5
2AE
100
AcDbEntity
  8
0
100
AcDbLine
 62
4
  6
CONTINUOUS
 10
10.9967960297
 20
6.8590848903
 11
10.9719579204
 21
6.860807419
  0
LINE
  5
2AF
100
AcDbEntity
  8
0
100
AcDbLine
 62
4
  6
CONTINUOUS
 10
10.8808849125
 20
6.8671233535
 11
10.9057230081
 21
6.8654008258
  0
LINE
  5
2B0
100
AcDbEntity
  8
0
100
AcDbLine
 62
4
  6
CONTINUOUS
 10
10.9719579204
 20
6.9767185224
 11
10.9967960297
 21
6.9749959937
  0
LINE
  5
2B1
100
AcDbEntity
  8
0
100
AcDbLine
 62
4
  6
CONTINUOUS
 10
11.310031937
 20
6.654111974
 11
11.3541885452
 21
6.6289713953
  0
LINE
  5
2B2
100
AcDbEntity
  8
0
100
AcDbLine
 62
4
  6
CONTINUOUS
 10
10.4986542337
 20
6.754537817
 11
10.5152129617
 21
6.7368307373
  0
LINE
  5
2B3
100
AcDbEntity
  8
0
100
AcDbLine
 62
7
  6
CONTINUOUS
 10
11.1842989771
 20
10.4613511078
 11
11.1760167743
 21
10.4533511137
  0
LINE
  5
2B4
100
AcDbEntity
  8
0
100
AcDbLine
 62
4
  6
CONTINUOUS
 10
10.7773928411
 20
7.1828448712
 11
10.7939515623
 21
7.18169652
  0
LINE
  5
2B5
100
AcDbEntity
  8
0
100
AcDbLine
 62
4
  6
CONTINUOUS
 10
11.3321103042
 20
7.1719729663
 11
11.2989927513
 21
7.1742696764
  0
LINE
  5
2B6
100
AcDbEntity
  8
0
100
AcDbLine
 62
4
  6
CONTINUOUS
 10
11.1968806467
 20
7.1813511749
 11
11.1803219255
 21
7.1824995261
  0
LINE
  5
2B7
100
AcDbEntity
  8
0
100
AcDbLine
 62
4
  6
CONTINUOUS
 10
11.0561314339
 20
7.191112166
 11
11.0230139915
 21
7.1934088684
  0
LINE
  5
2B8
100
AcDbEntity
  8
0
100
AcDbLine
 62
4
  6
CONTINUOUS
 10
10.8988234999
 20
7.2020215082
 11
10.8657060575
 21
7.2043182107
  0
LINE
  5
2B9
100
AcDbEntity
  8
0
100
AcDbLine
 62
4
  6
CONTINUOUS
 10
10.3385865135
 20
7.2408740752
 11
10.3717039722
 21
7.2385773716
  0
LINE
  5
2BA
100
AcDbEntity
  8
0
100
AcDbLine
 62
4
  6
CONTINUOUS
 10
10.4379388845
 20
7.2339839649
 11
10.462776987
 21
7.2322614366
  0
LINE
  5
2BB
100
AcDbEntity
  8
0
100
AcDbLine
 62
4
  6
CONTINUOUS
 10
11.0975282644
 20
7.188241286
 11
11.138925095
 21
7.1853704061
  0
LINE
  5
2BC
100
AcDbEntity
  8
0
100
AcDbLine
 62
4
  6
CONTINUOUS
 10
11.3735070795
 20
7.1691020902
 11
11.4066245218
 21
7.1668053878
  0
LINE
  5
2BD
100
AcDbEntity
  8
0
100
AcDbLine
 62
4
  6
CONTINUOUS
 10
11.0230139915
 20
7.234805692
 11
11.0561314339
 21
7.2325089896
  0
LINE
  5
2BE
100
AcDbEntity
  8
0
100
AcDbLine
 62
4
  6
CONTINUOUS
 10
11.0478521009
 20
7.2744799869
 11
11.0064552704
 21
7.2773508669
  0
LINE
  5
2BF
100
AcDbEntity
  8
0
100
AcDbLine
 62
4
  6
CONTINUOUS
 10
10.69459918
 20
7.2989781602
 11
10.7359960106
 21
7.2961072802
  0
LINE
  5
2C0
100
AcDbEntity
  8
0
100
AcDbLine
 62
4
  6
CONTINUOUS
 10
10.8657060575
 20
7.2871118579
 11
10.8988234999
 21
7.2848151555
  0
LINE
  5
2C1
100
AcDbEntity
  8
0
100
AcDbLine
 62
4
  6
CONTINUOUS
 10
10.9319409975
 20
7.2825184493
 11
10.9650584398
 21
7.2802217468
  0
LINE
  5
2C2
100
AcDbEntity
  8
0
100
AcDbLine
 62
4
  6
CONTINUOUS
 10
11.2989927513
 20
7.2570633237
 11
11.3321103042
 21
7.2547666136
  0
LINE
  5
2C3
100
AcDbEntity
  8
0
100
AcDbLine
 62
4
  6
CONTINUOUS
 10
11.3735070795
 20
7.2518957375
 11
11.4066245218
 21
7.249599035
  0
LINE
  5
2C4
100
AcDbEntity
  8
0
100
AcDbLine
 62
4
  6
CONTINUOUS
 10
10.3468658784
 20
7.3562110027
 11
10.3799833363
 21
7.3539142992
  0
LINE
  5
2C5
100
AcDbEntity
  8
0
100
AcDbLine
 62
4
  6
CONTINUOUS
 10
11.2465568102
 20
7.2938172247
 11
11.2493165878
 21
7.2936258335
  0
LINE
  5
2C6
100
AcDbEntity
  8
0
100
AcDbLine
 62
4
  6
CONTINUOUS
 10
10.8657060575
 20
7.2043182107
 11
10.8491473364
 21
7.2137459268
  0
LINE
  5
2C7
100
AcDbEntity
  8
0
100
AcDbLine
 62
4
  6
CONTINUOUS
 10
10.9802372809
 20
6.893350703
 11
11.0216341115
 21
6.8573623634
  0
LINE
  5
2C8
100
AcDbEntity
  8
0
100
AcDbLine
 62
4
  6
CONTINUOUS
 10
10.3882627003
 20
7.2705464795
 11
10.3303071486
 21
7.3242418984
  0
LINE
  5
2C9
100
AcDbEntity
  8
0
100
AcDbLine
 62
4
  6
CONTINUOUS
 10
10.3303071486
 20
7.249727616
 11
10.3385865135
 21
7.2408740752
  0
LINE
  5
2CA
100
AcDbEntity
  8
0
100
AcDbLine
 62
4
  6
CONTINUOUS
 10
10.9512595161
 20
6.6072384307
 11
10.9347007949
 21
6.6249455117
  0
LINE
  5
2CB
100
AcDbEntity
  8
0
100
AcDbLine
 62
4
  6
CONTINUOUS
 10
10.4213801564
 20
7.2516910464
 11
10.4379388845
 21
7.2339839649
  0
LINE
  5
2CC
100
AcDbEntity
  8
0
100
AcDbLine
 62
4
  6
CONTINUOUS
 10
11.0478520654
 20
6.6005397146
 11
11.0312933442
 21
6.6182467956
  0
LINE
  5
2CD
100
AcDbEntity
  8
0
100
AcDbLine
 62
4
  6
CONTINUOUS
 10
10.3799833363
 20
7.3539142992
 11
10.3882627003
 21
7.3450607559
  0
LINE
  5
2CE
100
AcDbEntity
  8
0
100
AcDbLine
 62
4
  6
CONTINUOUS
 10
11.4066245218
 20
7.2054424234
 11
11.3735070795
 21
7.2132587018
  0
LINE
  5
2CF
100
AcDbEntity
  8
0
100
AcDbLine
 62
4
  6
CONTINUOUS
 10
11.0230139915
 20
7.1934088684
 11
11.0064552704
 21
7.2028365845
  0
LINE
  5
2D0
100
AcDbEntity
  8
0
100
AcDbLine
 62
4
  6
CONTINUOUS
 10
11.5849758406
 20
6.661814458
 11
11.5704869526
 21
6.6724785247
  0
LINE
  5
2D1
100
AcDbEntity
  8
0
100
AcDbLine
 62
4
  6
CONTINUOUS
 10
11.5994647285
 20
6.7767207537
 11
11.6139536164
 21
6.7660566895
  0
LINE
  5
2D2
100
AcDbEntity
  8
0
100
AcDbLine
 62
4
  6
CONTINUOUS
 10
11.0726901748
 20
6.7147282893
 11
11.089248896
 21
6.69702121
  0
LINE
  5
2D3
100
AcDbEntity
  8
0
100
AcDbLine
 62
4
  6
CONTINUOUS
 10
10.9719579204
 20
6.860807419
 11
10.9553991992
 21
6.8785145
  0
LINE
  5
2D4
100
AcDbEntity
  8
0
100
AcDbLine
 62
4
  6
CONTINUOUS
 10
11.1637631688
 20
6.7084123557
 11
11.18032189
 21
6.6907052764
  0
LINE
  5
2D5
100
AcDbEntity
  8
0
100
AcDbLine
 62
4
  6
CONTINUOUS
 10
10.9967960297
 20
6.9749959937
 11
11.0133547509
 21
6.9572889144
  0
LINE
  5
2D6
100
AcDbEntity
  8
0
100
AcDbLine
 62
4
  6
CONTINUOUS
 10
10.7359960106
 20
7.2961072802
 11
10.7442753712
 21
7.2872537372
  0
LINE
  5
2D7
100
AcDbEntity
  8
0
100
AcDbLine
 62
7
  6
CONTINUOUS
 10
11.7893727144
 20
10.4193891016
 11
11.7810905116
 21
10.4113891075
  0
LINE
  5
2D8
100
AcDbEntity
  8
0
100
AcDbLine
 62
7
  6
CONTINUOUS
 10
9.2788278866
 20
7.6728079883
 11
8.9591814119
 21
7.6949755466
  0
LINE
  5
2D9
100
AcDbEntity
  8
0
100
AcDbLine
 62
7
  6
CONTINUOUS
 10
9.2788278866
 20
7.7824089797
 11
8.8612732343
 21
7.8113664931
  0
LINE
  5
2DA
100
AcDbEntity
  8
0
100
AcDbLine
 62
7
  6
CONTINUOUS
 10
9.2742078545
 20
7.8243392299
 11
8.8536086288
 21
7.8535078853
  0
LINE
  5
2DB
100
AcDbEntity
  8
0
100
AcDbLine
 62
4
  6
CONTINUOUS
 10
11.3735070795
 20
7.2132587018
 11
11.3652277465
 21
7.2193524515
  0
LINE
  5
2DC
100
AcDbEntity
  8
0
100
AcDbLine
 62
4
  6
CONTINUOUS
 10
11.4149038547
 20
7.1993486737
 11
11.4066245218
 21
7.2054424234
  0
LINE
  5
2DD
100
AcDbEntity
  8
0
100
AcDbLine
 62
4
  6
CONTINUOUS
 10
11.0892488762
 20
7.1970948284
 11
11.0975282644
 21
7.188241286
  0
LINE
  5
2DE
100
AcDbEntity
  8
0
100
AcDbLine
 62
4
  6
CONTINUOUS
 10
10.5124531643
 20
7.3447274854
 11
10.570408716
 21
7.2247971508
  0
LINE
  5
2DF
100
AcDbEntity
  8
0
100
AcDbLine
 62
4
  6
CONTINUOUS
 10
10.5952468176
 20
6.7478390986
 11
10.6283642875
 21
6.6296312908
  0
LINE
  5
2E0
100
AcDbEntity
  8
0
100
AcDbLine
 62
4
  6
CONTINUOUS
 10
10.3303071486
 20
7.3242418984
 11
10.3303071486
 21
7.3408006265
  0
LINE
  5
2E1
100
AcDbEntity
  8
0
100
AcDbLine
 62
4
  6
CONTINUOUS
 10
10.3882627003
 20
7.2539877497
 11
10.3882627003
 21
7.2705464795
  0
LINE
  5
2E2
100
AcDbEntity
  8
0
100
AcDbLine
 62
4
  6
CONTINUOUS
 10
10.4213801564
 20
7.35104342
 11
10.4213801564
 21
7.2516910464
  0
LINE
  5
2E3
100
AcDbEntity
  8
0
100
AcDbLine
 62
4
  6
CONTINUOUS
 10
11.1803219255
 20
7.1824995261
 11
11.1720425373
 21
7.1913530685
  0
LINE
  5
2E4
100
AcDbEntity
  8
0
100
AcDbLine
 62
4
  6
CONTINUOUS
 10
11.2989927513
 20
7.1742696764
 11
11.2907134184
 21
7.183123215
  0
LINE
  5
2E5
100
AcDbEntity
  8
0
100
AcDbLine
 62
4
  6
CONTINUOUS
 10
11.3652277465
 20
7.1779556288
 11
11.3735070795
 21
7.1691020902
  0
LINE
  5
2E6
100
AcDbEntity
  8
0
100
AcDbLine
 62
4
  6
CONTINUOUS
 10
11.5704869526
 20
6.6724785247
 11
11.5559980647
 21
6.6928018495
  0
LINE
  5
2E7
100
AcDbEntity
  8
0
100
AcDbLine
 62
4
  6
CONTINUOUS
 10
10.9650584398
 20
7.2802217468
 11
10.9705779951
 21
7.2715595969
  0
LINE
  5
2E8
100
AcDbEntity
  8
0
100
AcDbLine
 62
4
  6
CONTINUOUS
 10
10.77325318
 20
6.9573812868
 11
10.7980912721
 21
6.872865112
  0
LINE
  5
2E9
100
AcDbEntity
  8
0
100
AcDbLine
 62
4
  6
CONTINUOUS
 10
10.7235769923
 20
6.9939437983
 11
10.7484150862
 21
6.8763101672
  0
LINE
  5
2EA
100
AcDbEntity
  8
0
100
AcDbLine
 62
4
  6
CONTINUOUS
 10
10.4572574169
 20
6.6414975926
 11
10.4572574169
 21
6.757408696
  0
LINE
  5
2EB
100
AcDbEntity
  8
0
100
AcDbLine
 62
4
  6
CONTINUOUS
 10
10.4793357082
 20
7.2476718152
 11
10.4793357082
 21
7.3470241888
  0
LINE
  5
2EC
100
AcDbEntity
  8
0
100
AcDbLine
 62
4
  6
CONTINUOUS
 10
10.5124531643
 20
7.228816382
 11
10.5124531643
 21
7.3447274854
  0
LINE
  5
2ED
100
AcDbEntity
  8
0
100
AcDbLine
 62
4
  6
CONTINUOUS
 10
10.5152129617
 20
6.7368307373
 11
10.5152129617
 21
6.6540370917
  0
LINE
  5
2EE
100
AcDbEntity
  8
0
100
AcDbLine
 62
4
  6
CONTINUOUS
 10
10.570408716
 20
7.2247971508
 11
10.570408716
 21
7.3407082543
  0
LINE
  5
2EF
100
AcDbEntity
  8
0
100
AcDbLine
 62
4
  6
CONTINUOUS
 10
11.4066245218
 20
7.249599035
 11
11.4149038547
 21
7.2407454939
  0
LINE
  5
2F0
100
AcDbEntity
  8
0
100
AcDbLine
 62
4
  6
CONTINUOUS
 10
11.6139536164
 20
6.7660566895
 11
11.6211980604
 21
6.7558950224
  0
LINE
  5
2F1
100
AcDbEntity
  8
0
100
AcDbLine
 62
4
  6
CONTINUOUS
 10
11.0561314339
 20
7.2573470852
 11
11.0478521009
 21
7.2744799869
  0
LINE
  5
2F2
100
AcDbEntity
  8
0
100
AcDbLine
 62
4
  6
CONTINUOUS
 10
10.7773928411
 20
7.2932364003
 11
10.8022309505
 21
7.2087202243
  0
LINE
  5
2F3
100
AcDbEntity
  8
0
100
AcDbLine
 62
4
  6
CONTINUOUS
 10
10.6945991998
 20
6.625037884
 11
10.6945991998
 21
6.7409489875
  0
LINE
  5
2F4
100
AcDbEntity
  8
0
100
AcDbLine
 62
4
  6
CONTINUOUS
 10
10.69459918
 20
7.2161845129
 11
10.69459918
 21
7.3320956163
  0
LINE
  5
2F5
100
AcDbEntity
  8
0
100
AcDbLine
 62
4
  6
CONTINUOUS
 10
10.7442753712
 20
7.2872537372
 11
10.7442753712
 21
7.2127394574
  0
LINE
  5
2F6
100
AcDbEntity
  8
0
100
AcDbLine
 62
4
  6
CONTINUOUS
 10
10.7608341121
 20
6.6204444773
 11
10.7608341121
 21
6.7363555807
  0
LINE
  5
2F7
100
AcDbEntity
  8
0
100
AcDbLine
 62
7
  6
CONTINUOUS
 10
9.2742078545
 20
8.2462652089
 11
8.8536086288
 21
8.2754338642
  0
LINE
  5
2F8
100
AcDbEntity
  8
0
100
AcDbLine
 62
7
  6
CONTINUOUS
 10
9.2788278866
 20
8.3034246247
 11
8.8612732343
 21
8.3323821382
  0
LINE
  5
2F9
100
AcDbEntity
  8
0
100
AcDbLine
 62
4
  6
CONTINUOUS
 10
10.8491473364
 20
7.2137459268
 11
10.8491473364
 21
7.2799808417
  0
LINE
  5
2FA
100
AcDbEntity
  8
0
100
AcDbLine
 62
4
  6
CONTINUOUS
 10
10.8988234999
 20
7.3179326117
 11
10.8988234999
 21
7.2020215082
  0
LINE
  5
2FB
100
AcDbEntity
  8
0
100
AcDbLine
 62
4
  6
CONTINUOUS
 10
10.922281743
 20
6.8808112034
 11
10.922281743
 21
6.980163577
  0
LINE
  5
2FC
100
AcDbEntity
  8
0
100
AcDbLine
 62
4
  6
CONTINUOUS
 10
10.9319409975
 20
7.199724802
 11
10.9319409975
 21
7.2825184493
  0
LINE
  5
2FD
100
AcDbEntity
  8
0
100
AcDbLine
 62
4
  6
CONTINUOUS
 10
10.9347007949
 20
6.6249455117
 11
10.9347007949
 21
6.7077391572
  0
LINE
  5
2FE
100
AcDbEntity
  8
0
100
AcDbLine
 62
4
  6
CONTINUOUS
 10
10.9553991992
 20
6.8785145
 11
10.9553991992
 21
6.9613081456
  0
LINE
  5
2FF
100
AcDbEntity
  8
0
100
AcDbLine
 62
4
  6
CONTINUOUS
 10
10.9705779951
 20
7.2715595969
 11
10.9705779951
 21
7.2550008688
  0
LINE
  5
300
100
AcDbEntity
  8
0
100
AcDbLine
 62
4
  6
CONTINUOUS
 10
11.0064552704
 20
7.2028365845
 11
11.0064552704
 21
7.2276746792
  0
LINE
  5
301
100
AcDbEntity
  8
0
100
AcDbLine
 62
4
  6
CONTINUOUS
 10
11.0133547509
 20
6.9572889144
 11
11.0133547509
 21
6.8744952688
  0
LINE
  5
302
100
AcDbEntity
  8
0
100
AcDbLine
 62
7
  6
CONTINUOUS
 10
9.2788278866
 20
8.6157496123
 11
8.9591814119
 21
8.6379171706
  0
LINE
  5
303
100
AcDbEntity
  8
0
100
AcDbLine
 62
7
  6
CONTINUOUS
 10
9.2788278866
 20
8.6316195785
 11
8.974510623
 21
8.6527240524
  0
LINE
  5
304
100
AcDbEntity
  8
0
100
AcDbLine
 62
4
  6
CONTINUOUS
 10
11.0312933442
 20
6.6182467956
 11
11.0312933442
 21
6.7010404412
  0
LINE
  5
305
100
AcDbEntity
  8
0
100
AcDbLine
 62
4
  6
CONTINUOUS
 10
11.0561314339
 20
7.191112166
 11
11.0561314339
 21
7.2573470852
  0
LINE
  5
306
100
AcDbEntity
  8
0
100
AcDbLine
 62
4
  6
CONTINUOUS
 10
11.0892488762
 20
7.2716091108
 11
11.0892488762
 21
7.1970948284
  0
LINE
  5
307
100
AcDbEntity
  8
0
100
AcDbLine
 62
4
  6
CONTINUOUS
 10
11.089248896
 20
6.69702121
 11
11.089248896
 21
6.6142275645
  0
LINE
  5
308
100
AcDbEntity
  8
0
100
AcDbLine
 62
4
  6
CONTINUOUS
 10
11.1223663383
 20
6.5953721322
 11
11.1223663383
 21
6.7112832357
  0
LINE
  5
309
100
AcDbEntity
  8
0
100
AcDbLine
 62
4
  6
CONTINUOUS
 10
11.138925095
 20
7.1853704061
 11
11.138925095
 21
7.2681640533
  0
LINE
  5
30A
100
AcDbEntity
  8
0
100
AcDbLine
 62
4
  6
CONTINUOUS
 10
11.1720425373
 20
7.1913530685
 11
11.1720425373
 21
7.2989848071
  0
LINE
  5
30B
100
AcDbEntity
  8
0
100
AcDbLine
 62
4
  6
CONTINUOUS
 10
11.18032189
 20
6.6907052764
 11
11.18032189
 21
6.6079116309
  0
LINE
  5
30C
100
AcDbEntity
  8
0
100
AcDbLine
 62
4
  6
CONTINUOUS
 10
10.7980912721
 20
6.872865112
 11
10.8229293677
 21
6.9870536877
  0
LINE
  5
30D
100
AcDbEntity
  8
0
100
AcDbLine
 62
4
  6
CONTINUOUS
 10
10.5621293614
 20
6.6342246985
 11
10.5952468176
 21
6.7478390986
  0
LINE
  5
30E
100
AcDbEntity
  8
0
100
AcDbLine
 62
4
  6
CONTINUOUS
 10
10.7939515623
 20
7.18169652
 11
10.8270690046
 21
7.2897913467
  0
LINE
  5
30F
100
AcDbEntity
  8
0
100
AcDbLine
 62
7
  6
CONTINUOUS
 10
12.6595684789
 20
9.8231429095
 11
13.1772061419
 21
10.3231425265
  0
LINE
  5
310
100
AcDbEntity
  8
0
100
AcDbLine
 62
4
  6
CONTINUOUS
 10
11.5559980647
 20
6.6928018495
 11
11.5487536207
 21
6.7222820292
  0
LINE
  5
311
100
AcDbEntity
  8
0
100
AcDbLine
 62
4
  6
CONTINUOUS
 10
11.2272383311
 20
6.5880992348
 11
11.2272383311
 21
6.7040103383
  0
LINE
  5
312
100
AcDbEntity
  8
0
100
AcDbLine
 62
4
  6
CONTINUOUS
 10
11.2465568102
 20
7.1779061213
 11
11.2465568102
 21
7.2606997685
  0
LINE
  5
313
100
AcDbEntity
  8
0
100
AcDbLine
 62
4
  6
CONTINUOUS
 10
11.2465568102
 20
7.2855378572
 11
11.2465568102
 21
7.2938172247
  0
LINE
  5
314
100
AcDbEntity
  8
0
100
AcDbLine
 62
4
  6
CONTINUOUS
 10
11.2907134184
 20
7.183123215
 11
11.2907134184
 21
7.2493581299
  0
LINE
  5
315
100
AcDbEntity
  8
0
100
AcDbLine
 62
4
  6
CONTINUOUS
 10
11.3652277465
 20
7.2193524515
 11
11.3652277465
 21
7.2441905437
  0
LINE
  5
316
100
AcDbEntity
  8
0
100
AcDbLine
 62
4
  6
CONTINUOUS
 10
11.4149038547
 20
7.174510579
 11
11.4149038547
 21
7.1993486737
  0
LINE
  5
317
100
AcDbEntity
  8
0
100
AcDbLine
 62
4
  6
CONTINUOUS
 10
10.7484150862
 20
6.8763101672
 11
10.77325318
 21
6.9573812868
  0
LINE
  5
318
100
AcDbEntity
  8
0
100
AcDbLine
 62
4
  6
CONTINUOUS
 10
10.3303071486
 20
7.3408006265
 11
10.3468658784
 21
7.3562110027
  0
LINE
  5
319
100
AcDbEntity
  8
0
100
AcDbLine
 62
4
  6
CONTINUOUS
 10
11.6211980604
 20
6.7172579903
 11
11.6211980604
 21
6.6786209564
  0
LINE
  5
31A
100
AcDbEntity
  8
0
100
AcDbLine
 62
4
  6
CONTINUOUS
 10
11.2493165878
 20
7.2936258335
 11
11.2465568102
 21
7.2855378572
  0
LINE
  5
31B
100
AcDbEntity
  8
0
100
AcDbLine
 62
4
  6
CONTINUOUS
 10
10.3717039722
 20
7.2385773716
 11
10.3882627003
 21
7.2539877497
  0
LINE
  5
31C
100
AcDbEntity
  8
0
100
AcDbLine
 62
4
  6
CONTINUOUS
 10
10.462776987
 20
7.2322614366
 11
10.4793357082
 21
7.2476718152
  0
LINE
  5
31D
100
AcDbEntity
  8
0
100
AcDbLine
 62
4
  6
CONTINUOUS
 10
11.5487536207
 20
6.7222820292
 11
11.5559980647
 21
6.7507574012
  0
LINE
  5
31E
100
AcDbEntity
  8
0
100
AcDbLine
 62
4
  6
CONTINUOUS
 10
10.5152129617
 20
6.6540370917
 11
10.4986542337
 21
6.6386267136
  0
LINE
  5
31F
100
AcDbEntity
  8
0
100
AcDbLine
 62
4
  6
CONTINUOUS
 10
10.9553991992
 20
6.9613081456
 11
10.9719579204
 21
6.9767185224
  0
LINE
  5
320
100
AcDbEntity
  8
0
100
AcDbLine
 62
4
  6
CONTINUOUS
 10
11.2907134184
 20
7.2493581299
 11
11.2989927513
 21
7.2570633237
  0
LINE
  5
321
100
AcDbEntity
  8
0
100
AcDbLine
 62
4
  6
CONTINUOUS
 10
10.9057230081
 20
6.8654008258
 11
10.922281743
 21
6.8808112034
  0
LINE
  5
322
100
AcDbEntity
  8
0
100
AcDbLine
 62
4
  6
CONTINUOUS
 10
11.3652277465
 20
7.2441905437
 11
11.3735070795
 21
7.2518957375
  0
LINE
  5
323
100
AcDbEntity
  8
0
100
AcDbLine
 62
4
  6
CONTINUOUS
 10
11.0133547509
 20
6.8744952688
 11
10.9967960297
 21
6.8590848903
  0
LINE
  5
324
100
AcDbEntity
  8
0
100
AcDbLine
 62
4
  6
CONTINUOUS
 10
10.8491473364
 20
7.2799808417
 11
10.8657060575
 21
7.2871118579
  0
LINE
  5
325
100
AcDbEntity
  8
0
100
AcDbLine
 62
4
  6
CONTINUOUS
 10
11.0064552704
 20
7.2276746792
 11
11.0230139915
 21
7.234805692
  0
LINE
  5
326
100
AcDbEntity
  8
0
100
AcDbLine
 62
4
  6
CONTINUOUS
 10
11.4066245218
 20
7.1668053878
 11
11.4149038547
 21
7.174510579
  0
LINE
  5
327
100
AcDbEntity
  8
0
100
AcDbLine
 62
4
  6
CONTINUOUS
 10
10.9347007949
 20
6.7077391572
 11
10.9512595161
 21
6.7231495341
  0
LINE
  5
328
100
AcDbEntity
  8
0
100
AcDbLine
 62
4
  6
CONTINUOUS
 10
11.0312933442
 20
6.7010404412
 11
11.0478520654
 21
6.716450818
  0
LINE
  5
329
100
AcDbEntity
  8
0
100
AcDbLine
 62
4
  6
CONTINUOUS
 10
10.4351791094
 20
6.7147832237
 11
10.3910224977
 21
6.6957671875
  0
LINE
  5
32A
100
AcDbEntity
  8
0
100
AcDbLine
 62
4
  6
CONTINUOUS
 10
11.5559980647
 20
6.7507574012
 11
11.5704869526
 21
6.7690711129
  0
LINE
  5
32B
100
AcDbEntity
  8
0
100
AcDbLine
 62
4
  6
CONTINUOUS
 10
11.6211980604
 20
6.6786209564
 11
11.6139536164
 21
6.6694641013
  0
LINE
  5
32C
100
AcDbEntity
  8
0
100
AcDbLine
 62
4
  6
CONTINUOUS
 10
11.089248896
 20
6.6142275645
 11
11.0726901748
 21
6.5988171859
  0
LINE
  5
32D
100
AcDbEntity
  8
0
100
AcDbLine
 62
4
  6
CONTINUOUS
 10
11.18032189
 20
6.6079116309
 11
11.1637631688
 21
6.5925012523
  0
LINE
  5
32E
100
AcDbEntity
  8
0
100
AcDbLine
 62
7
  6
CONTINUOUS
 10
9.2788278866
 20
10.0575980659
 11
12.6595684789
 21
9.8231429095
  0
LINE
  5
32F
100
AcDbEntity
  8
0
100
AcDbLine
 62
7
  6
CONTINUOUS
 10
12.6595684789
 20
9.8231429095
 11
12.6595684789
 21
6.4424023171
  0
LINE
  5
330
100
AcDbEntity
  8
0
100
AcDbLine
 62
4
  6
CONTINUOUS
 10
11.5704869526
 20
6.7690711129
 11
11.5849758406
 21
6.7777255614
  0
LINE
  5
331
100
AcDbEntity
  8
0
100
AcDbLine
 62
4
  6
CONTINUOUS
 10
11.6139536164
 20
6.6694641013
 11
11.5994647285
 21
6.6608096502
  0
LINE
  5
332
100
AcDbEntity
  8
0
100
AcDbLine
 62
4
  6
CONTINUOUS
 10
11.3541885452
 20
6.6289713953
 11
11.310031937
 21
6.6099553606
  0
LINE
  5
333
100
AcDbEntity
  8
0
100
AcDbLine
 62
7
  6
CONTINUOUS
 10
11.7810905116
 20
10.4113891075
 11
11.1760167743
 21
10.4533511137
  0
LINE
  5
334
100
AcDbEntity
  8
0
100
AcDbLine
 62
7
  6
CONTINUOUS
 10
9.7964655496
 20
10.5575976829
 11
11.1842989771
 21
10.4613511078
  0
LINE
  5
335
100
AcDbEntity
  8
0
100
AcDbLine
 62
7
  6
CONTINUOUS
 10
11.7893727144
 20
10.4193891016
 11
13.1772061419
 21
10.3231425265
  0
LINE
  5
336
100
AcDbEntity
  8
0
100
AcDbLine
 62
7
  6
CONTINUOUS
 10
13.1772061419
 20
10.3231425265
 11
13.1772061419
 21
6.9424019341
  0
LINE
  5
337
100
AcDbEntity
  8
0
100
AcDbLine
 62
7
  6
CONTINUOUS
 10
12.6595684789
 20
6.4424023171
 11
13.1772061419
 21
6.9424019341
  0
ARC
  5
338
100
AcDbEntity
  8
0
100
AcDbCircle
 62
7
  6
CONTINUOUS
 10
11.0827815537
 20
8.0321027272
 40
1.8212095964
100
AcDbArc
 50
172.1086598405
 51
173.2467608658
  0
ARC
  5
339
100
AcDbEntity
  8
0
100
AcDbCircle
 62
7
  6
CONTINUOUS
 10
10.6258543149
 20
8.0658991886
 40
1.7845894632
100
AcDbArc
 50
171.4122169565
 51
173.2571553889
  0
ARC
  5
33A
100
AcDbEntity
  8
0
100
AcDbCircle
 62
7
  6
CONTINUOUS
 10
10.1560276778
 20
8.0829780479
 40
0.9075929625
100
AcDbArc
 50
350.490491018
 51
351.617358647
  0
ARC
  5
33B
100
AcDbEntity
  8
0
100
AcDbCircle
 62
7
  6
CONTINUOUS
 10
8.5299996769
 20
7.9237687191
 40
0.8110794027
100
AcDbArc
 50
22.55794781
 51
23.4290998268
  0
ARC
  5
33C
100
AcDbEntity
  8
0
100
AcDbCircle
 62
7
  6
CONTINUOUS
 10
10.240764389
 20
8.0778974306
 40
0.8015486445
100
AcDbArc
 50
350.777096887
 51
351.3286657897
  0
ARC
  5
33D
100
AcDbEntity
  8
0
100
AcDbCircle
 62
7
  6
CONTINUOUS
 10
10.0374371917
 20
7.9409173519
 40
0.7720812649
100
AcDbArc
 50
188.6844208466
 51
190.7152337099
  0
ARC
  5
33E
100
AcDbEntity
  8
0
100
AcDbCircle
 62
7
  6
CONTINUOUS
 10
8.63631844
 20
8.1183778212
 40
0.7023970376
100
AcDbArc
 50
335.2524043549
 51
336.2084171917
  0
ARC
  5
33F
100
AcDbEntity
  8
0
100
AcDbCircle
 62
7
  6
CONTINUOUS
 10
9.4462237154
 20
8.2855030372
 40
0.6006871885
100
AcDbArc
 50
149.3967358243
 51
152.5192948323
  0
SPLINE
  5
340
100
AcDbEntity
  8
0
100
AcDbSpline
 62
7
  6
CONTINUOUS
 70
0
 71
3
 72
9
 73
5
 74
0
 42
0.0000001
 43
0.0000001
 44
0.0000000001
 40
0.0
 40
0.0
 40
0.0
 40
0.0
 40
0.5138686136
 40
1.0
 40
1.0
 40
1.0
 40
1.0
 10
8.9591814119
 20
8.6379171706
 30
0.0
 10
8.9604229751
 20
8.6393975538
 30
0.0
 10
8.9629049966
 20
8.6422240165
 30
0.0
 10
8.9655313557
 20
8.6449176907
 30
0.0
 10
8.9668460174
 20
8.6461875565
 30
0.0
  0
SPLINE
  5
341
100
AcDbEntity
  8
0
100
AcDbSpline
 62
7
  6
CONTINUOUS
 70
0
 71
3
 72
9
 73
5
 74
0
 42
0.0000001
 43
0.0000001
 44
0.0000000001
 40
0.0
 40
0.0
 40
0.0
 40
0.0
 40
0.5141854272
 40
1.0
 40
1.0
 40
1.0
 40
1.0
 10
8.9668460174
 20
8.6461875565
 30
0.0
 10
8.9680884915
 20
8.6473876944
 30
0.0
 10
8.9705717203
 20
8.6496539288
 30
0.0
 10
8.9731983311
 20
8.6517536158
 30
0.0
 10
8.974510623
 20
8.6527240524
 30
0.0
  0
SPLINE
  5
342
100
AcDbEntity
  8
0
100
AcDbSpline
 62
7
  6
CONTINUOUS
 70
0
 71
3
 72
23
 73
19
 74
0
 42
0.0000001
 43
0.0000001
 44
0.0000000001
 40
0.0
 40
0.0
 40
0.0
 40
0.0
 40
0.0812642142
 40
0.1604367687
 40
0.2373793558
 40
0.3119593014
 40
0.3840520109
 40
0.4535453788
 40
0.5203417163
 40
0.5843706334
 40
0.645586596
 40
0.7039844815
 40
0.7595931104
 40
0.8124909527
 40
0.8627952516
 40
0.9106732401
 40
0.9563275844
 40
1.0
 40
1.0
 40
1.0
 40
1.0
 10
8.9591814119
 20
7.6949755466
 30
0.0
 10
8.9562124062
 20
7.6967556759
 30
0.0
 10
8.9503755261
 20
7.7003115915
 30
0.0
 10
8.9418247844
 20
7.7057105808
 30
0.0
 10
8.9336104155
 20
7.7111062332
 30
0.0
 10
8.9257552439
 20
7.7164960872
 30
0.0
 10
8.9182820889
 20
7.7218778909
 30
0.0
 10
8.9112127443
 20
7.7272484184
 30
0.0
 10
8.9045684209
 20
7.7326050798
 30
0.0
 10
8.8983678064
 20
7.7379439389
 30
0.0
 10
8.8926280659
 20
7.7432622787
 30
0.0
 10
8.8873622819
 20
7.7485558334
 30
0.0
 10
8.8825813236
 20
7.7538220106
 30
0.0
 10
8.8782907595
 20
7.7590566935
 30
0.0
 10
8.8744936599
 20
7.7642575831
 30
0.0
 10
8.8711872996
 20
7.7694212482
 30
0.0
 10
8.8683667278
 20
7.7745453534
 30
0.0
 10
8.8667707625
 20
7.7780041296
 30
0.0
 10
8.8660562233
 20
7.7797218371
 30
0.0
  0
SPLINE
  5
343
100
AcDbEntity
  8
0
100
AcDbSpline
 62
7
  6
CONTINUOUS
 70
0
 71
3
 72
9
 73
5
 74
0
 42
0.0000001
 43
0.0000001
 44
0.0000000001
 40
0.0
 40
0.0
 40
0.0
 40
0.0
 40
0.4968425107
 40
1.0
 40
1.0
 40
1.0
 40
1.0
 10
8.9292044281
 20
8.5913071494
 30
0.0
 10
8.9338695755
 20
8.5992128029
 30
0.0
 10
8.9435924765
 20
8.6149295842
 30
0.0
 10
8.9538828833
 20
8.6302788353
 30
0.0
 10
8.9591814119
 20
8.6379171706
 30
0.0
  0
SPLINE
  5
344
100
AcDbEntity
  8
0
100
AcDbSpline
 62
7
  6
CONTINUOUS
 70
0
 71
3
 72
47
 73
43
 74
0
 42
0.0000001
 43
0.0000001
 44
0.0000000001
 40
0.0
 40
0.0
 40
0.0
 40
0.0
 40
0.0097388988
 40
0.0199690999
 40
0.0306877595
 40
0.0418897802
 40
0.053568575
 40
0.0657165706
 40
0.0783244499
 40
0.0913819108
 40
0.1187992554
 40
0.1478685952
 40
0.1784762382
 40
0.2104976166
 40
0.2437982593
 40
0.2782356433
 40
0.3136603381
 40
0.3499166979
 40
0.3868442246
 40
0.4242786017
 40
0.4620524679
 40
0.4999965843
 40
0.5379407604
 40
0.5757147107
 40
0.6131492265
 40
0.6500770032
 40
0.6863335875
 40
0.7217585958
 40
0.7561964584
 40
0.7894974661
 40
0.8215192636
 40
0.8521275775
 40
0.8811974396
 40
0.9086153033
 40
0.9216731908
 40
0.9342814277
 40
0.9464295779
 40
0.9581088402
 40
0.9693112683
 40
0.9800301928
 40
0.9902609016
 40
1.0
 40
1.0
 40
1.0
 40
1.0
 10
8.8593755629
 20
7.7957727323
 30
0.0
 10
8.8583980958
 20
7.7981211466
 30
0.0
 10
8.8564789178
 20
7.8029721858
 30
0.0
 10
8.8537634899
 20
7.8105147499
 30
0.0
 10
8.851143782
 20
7.8184943032
 30
0.0
 10
8.8486227834
 20
7.8269012316
 30
0.0
 10
8.8462034286
 20
7.8357256037
 30
0.0
 10
8.8438888915
 20
7.8449569904
 30
0.0
 10
8.8416817051
 20
7.8545843805
 30
0.0
 10
8.8388392429
 20
7.868155322
 30
0.0
 10
8.8355933052
 20
7.8860310564
 30
0.0
 10
8.832224851
 20
7.9085317018
 30
0.0
 10
8.8293392504
 20
7.9323109196
 30
0.0
 10
8.8269507376
 20
7.9572552582
 30
0.0
 10
8.8250709598
 20
7.9832458443
 30
0.0
 10
8.8237091485
 20
8.0101585934
 30
0.0
 10
8.8228721803
 20
8.037864987
 30
0.0
 10
8.8225641465
 20
8.0662326288
 30
0.0
 10
8.8227865962
 20
8.0951259091
 30
0.0
 10
8.8235386937
 20
8.1244066846
 30
0.0
 10
8.8248168737
 20
8.1539349495
 30
0.0
 10
8.8266149752
 20
8.1835695003
 30
0.0
 10
8.8289245156
 20
8.2131686072
 30
0.0
 10
8.8317344485
 20
8.2425907217
 30
0.0
 10
8.8350311822
 20
8.2716951578
 30
0.0
 10
8.8387989593
 20
8.3003427453
 30
0.0
 10
8.8430197268
 20
8.3283965295
 30
0.0
 10
8.847673041
 20
8.3557224529
 30
0.0
 10
8.852736531
 20
8.3821899418
 30
0.0
 10
8.85818589
 20
8.4076725997
 30
0.0
 10
8.8639946882
 20
8.4320488557
 30
0.0
 10
8.8701348514
 20
8.4552026124
 30
0.0
 10
8.8765769089
 20
8.477023379
 30
0.0
 10
8.8822592702
 20
8.4942803382
 30
0.0
 10
8.8869476869
 20
8.5073294074
 30
0.0
 10
8.8904625752
 20
8.5165602654
 30
0.0
 10
8.8940293177
 20
8.5253840284
 30
0.0
 10
8.8976434644
 20
8.5337903151
 30
0.0
 10
8.9013007526
 20
8.541769124
 30
0.0
 10
8.9049970025
 20
8.5493109432
 30
0.0
 10
8.908727443
 20
8.5564068343
 30
0.0
 10
8.9112978113
 20
8.5609467656
 30
0.0
 10
8.9125900753
 20
8.5631378408
 30
0.0
  0
SPLINE
  5
345
100
AcDbEntity
  8
0
100
AcDbSpline
 62
7
  6
CONTINUOUS
 70
0
 71
3
 72
9
 73
5
 74
0
 42
0.0000001
 43
0.0000001
 44
0.0000000001
 40
0.0
 40
0.0
 40
0.0
 40
0.0
 40
0.4864229748
 40
1.0
 40
1.0
 40
1.0
 40
1.0
 10
8.8612732343
 20
7.8113664931
 30
0.0
 10
8.8598214622
 20
7.8181587466
 30
0.0
 10
8.8570691547
 20
7.8321726917
 30
0.0
 10
8.8547220109
 20
7.8462594906
 30
0.0
 10
8.8536086288
 20
7.8535078853
 30
0.0
  0
SPLINE
  5
346
100
AcDbEntity
  8
0
100
AcDbSpline
 62
7
  6
CONTINUOUS
 70
0
 71
3
 72
21
 73
17
 74
0
 42
0.0000001
 43
0.0000001
 44
0.0000000001
 40
0.0
 40
0.0
 40
0.0
 40
0.0
 40
0.1268939481
 40
0.19018282
 40
0.253348645
 40
0.3163802526
 40
0.3792680625
 40
0.4420048434
 40
0.5045854769
 40
0.5670083659
 40
0.6292751195
 40
0.6913901909
 40
0.7533613917
 40
0.8151980596
 40
0.8769105574
 40
1.0
 40
1.0
 40
1.0
 40
1.0
 10
8.8536086288
 20
7.8535078853
 30
0.0
 10
8.8491737569
 20
7.8710138469
 30
0.0
 10
8.843125438
 20
7.897411004
 30
0.0
 10
8.8365227008
 20
7.9328606279
 30
0.0
 10
8.8323711229
 20
7.9595104782
 30
0.0
 10
8.8290730403
 20
7.9862221337
 30
0.0
 10
8.8266773663
 20
8.0129690584
 30
0.0
 10
8.8252232176
 20
8.0397197532
 30
0.0
 10
8.8247350467
 20
8.0664395433
 30
0.0
 10
8.8252207739
 20
8.0930925205
 30
0.0
 10
8.8266726676
 20
8.1196438593
 30
0.0
 10
8.8290664422
 20
8.1460620564
 30
0.0
 10
8.8323630548
 20
8.1723206241
 30
0.0
 10
8.8365136688
 20
8.1983995713
 30
0.0
 10
8.8431040665
 20
8.2328799874
 30
0.0
 10
8.8491599955
 20
8.2584906095
 30
0.0
 10
8.8536086288
 20
8.2754338642
 30
0.0
  0
SPLINE
  5
347
100
AcDbEntity
  8
0
100
AcDbSpline
 62
7
  6
CONTINUOUS
 70
0
 71
3
 72
15
 73
11
 74
0
 42
0.0000001
 43
0.0000001
 44
0.0000000001
 40
0.0
 40
0.0
 40
0.0
 40
0.0
 40
0.1202033586
 40
0.2411237877
 40
0.3630761606
 40
0.4864191332
 40
0.6115170187
 40
0.7386874239
 40
0.8681506591
 40
1.0
 40
1.0
 40
1.0
 40
1.0
 10
8.8612732343
 20
8.3323821382
 30
0.0
 10
8.8609404186
 20
8.3419486946
 30
0.0
 10
8.8607606302
 20
8.3611604802
 30
0.0
 10
8.8621471316
 20
8.3900576333
 30
0.0
 10
8.8653886475
 20
8.4190618176
 30
0.0
 10
8.8706562081
 20
8.4481080746
 30
0.0
 10
8.8780661825
 20
8.4771133577
 30
0.0
 10
8.8876587915
 20
8.5059853331
 30
0.0
 10
8.8993889041
 20
8.5346350435
 30
0.0
 10
8.9084723597
 20
8.5533733755
 30
0.0
 10
8.9133142965
 20
8.5626900675
 30
0.0
  0
SPLINE
  5
348
100
AcDbEntity
  8
0
100
AcDbSpline
 62
7
  6
CONTINUOUS
 70
0
 71
3
 72
15
 73
11
 74
0
 42
0.0000001
 43
0.0000001
 44
0.0000000001
 40
0.0
 40
0.0
 40
0.0
 40
0.0
 40
0.134433651
 40
0.2650220305
 40
0.3923609619
 40
0.5170369985
 40
0.6396244895
 40
0.7606602864
 40
0.8806378742
 40
1.0
 40
1.0
 40
1.0
 40
1.0
 10
8.8660562233
 20
7.7797218371
 30
0.0
 10
8.8654996685
 20
7.7810597601
 30
0.0
 10
8.8644806432
 20
7.7837307728
 30
0.0
 10
8.8632209775
 20
7.787770889
 30
0.0
 10
8.8622446856
 20
7.7917806753
 30
0.0
 10
8.8615419048
 20
7.795759689
 30
0.0
 10
8.861101232
 20
7.7997077275
 30
0.0
 10
8.8609113341
 20
7.8036249322
 30
0.0
 10
8.8609605251
 20
7.8075113588
 30
0.0
 10
8.8611451264
 20
7.8100862778
 30
0.0
 10
8.8612732343
 20
7.8113664931
 30
0.0
  0
SPLINE
  5
349
100
AcDbEntity
  8
0
100
AcDbSpline
 62
7
  6
CONTINUOUS
 70
0
 71
3
 72
41
 73
37
 74
0
 42
0.0000001
 43
0.0000001
 44
0.0000000001
 40
0.0
 40
0.0
 40
0.0
 40
0.0
 40
0.0311444983
 40
0.062442467
 40
0.093887251
 40
0.1254695609
 40
0.157177086
 40
0.1889950997
 40
0.2209066479
 40
0.2528929497
 40
0.284933762
 40
0.3170077852
 40
0.3490930781
 40
0.3811674822
 40
0.4132090489
 40
0.445196464
 40
0.4771094635
 40
0.5089292351
 40
0.540638799
 40
0.5722233621
 40
0.6036706378
 40
0.6349711269
 40
0.6661183495
 40
0.6971090237
 40
0.7279431823
 40
0.7586242225
 40
0.7891588828
 40
0.8195571428
 40
0.8498320452
 40
0.86493089
 40
0.8800050502
 40
0.9100832578
 40
0.9400926753
 40
0.9550812784
 40
0.9700610371
 40
1.0
 40
1.0
 40
1.0
 40
1.0
 10
9.5995152677
 20
7.1110176959
 30
0.0
 10
9.6028292153
 20
7.1107878728
 30
0.0
 10
9.6094590833
 20
7.1100845201
 30
0.0
 10
9.6193235001
 20
7.108312789
 30
0.0
 10
9.6290822746
 20
7.1058310858
 30
0.0
 10
9.6386826682
 20
7.1026528107
 30
0.0
 10
9.648073703
 20
7.0987949643
 30
0.0
 10
9.657205278
 20
7.0942781985
 30
0.0
 10
9.6660287492
 20
7.0891266445
 30
0.0
 10
9.6744971002
 20
7.0833678102
 30
0.0
 10
9.6825652119
 20
7.0770324237
 30
0.0
 10
9.6901900943
 20
7.0701542744
 30
0.0
 10
9.6973311145
 20
7.0627700326
 30
0.0
 10
9.7039502105
 20
7.0549190569
 30
0.0
 10
9.7100120925
 20
7.0466431858
 30
0.0
 10
9.7154844291
 20
7.0379865172
 30
0.0
 10
9.7203380181
 20
7.0289951762
 30
0.0
 10
9.7245469418
 20
7.019717072
 30
0.0
 10
9.728088704
 20
7.0102016456
 30
0.0
 10
9.7309443508
 20
7.0004996103
 30
0.0
 10
9.7330985718
 20
6.9906626844
 30
0.0
 10
9.7345397836
 20
6.9807433198
 30
0.0
 10
9.7352601941
 20
6.9707944251
 30
0.0
 10
9.7352558482
 20
6.9608690896
 30
0.0
 10
9.7345266487
 20
6.9510202931
 30
0.0
 10
9.7330763815
 20
6.9413006629
 30
0.0
 10
9.7309126289
 20
6.9317620526
 30
0.0
 10
9.7280470049
 20
6.92245579
 30
0.0
 10
9.7250834548
 20
6.9149275671
 30
0.0
 10
9.7223790715
 20
6.9090732006
 30
0.0
 10
9.7194604995
 20
6.9033461341
 30
0.0
 10
9.7154082402
 20
6.8964189371
 30
0.0
 10
9.7108347798
 20
6.8898352575
 30
0.0
 10
9.706882642
 20
6.8848028484
 30
0.0
 10
9.7027419614
 20
6.8799347036
 30
0.0
 10
9.6994245652
 20
6.8764689829
 30
0.0
 10
9.6971277603
 20
6.8742504245
 30
0.0
  0
SPLINE
  5
34A
100
AcDbEntity
  8
0
100
AcDbSpline
 62
7
  6
CONTINUOUS
 70
0
 71
3
 72
41
 73
37
 74
0
 42
0.0000001
 43
0.0000001
 44
0.0000000001
 40
0.0
 40
0.0
 40
0.0
 40
0.0
 40
0.0311444983
 40
0.062442467
 40
0.093887251
 40
0.1254695609
 40
0.157177086
 40
0.1889950997
 40
0.2209066479
 40
0.2528929497
 40
0.284933762
 40
0.3170077852
 40
0.3490930781
 40
0.3811674822
 40
0.4132090489
 40
0.445196464
 40
0.4771094635
 40
0.5089292351
 40
0.540638799
 40
0.5722233621
 40
0.6036706378
 40
0.6349711269
 40
0.6661183495
 40
0.6971090237
 40
0.7279431823
 40
0.7586242225
 40
0.7891588828
 40
0.8195571428
 40
0.8498320452
 40
0.86493089
 40
0.8800050502
 40
0.9100832578
 40
0.9400926753
 40
0.9550812784
 40
0.9700610371
 40
1.0
 40
1.0
 40
1.0
 40
1.0
 10
12.338881069
 20
6.9210420323
 30
0.0
 10
12.3421950165
 20
6.9208122093
 30
0.0
 10
12.3488248845
 20
6.9201088565
 30
0.0
 10
12.3586893014
 20
6.9183371255
 30
0.0
 10
12.3684480759
 20
6.9158554222
 30
0.0
 10
12.3780484695
 20
6.9126771472
 30
0.0
 10
12.3874395043
 20
6.9088193008
 30
0.0
 10
12.3965710793
 20
6.904302535
 30
0.0
 10
12.4053945505
 20
6.8991509809
 30
0.0
 10
12.4138629015
 20
6.8933921467
 30
0.0
 10
12.4219310132
 20
6.8870567602
 30
0.0
 10
12.4295558956
 20
6.8801786108
 30
0.0
 10
12.4366969157
 20
6.872794369
 30
0.0
 10
12.4433160118
 20
6.8649433933
 30
0.0
 10
12.4493778938
 20
6.8566675222
 30
0.0
 10
12.4548502304
 20
6.8480108536
 30
0.0
 10
12.4597038194
 20
6.8390195126
 30
0.0
 10
12.4639127431
 20
6.8297414084
 30
0.0
 10
12.4674545053
 20
6.8202259821
 30
0.0
 10
12.4703101521
 20
6.8105239468
 30
0.0
 10
12.4724643731
 20
6.8006870209
 30
0.0
 10
12.4739055849
 20
6.7907676563
 30
0.0
 10
12.4746259954
 20
6.7808187615
 30
0.0
 10
12.4746216495
 20
6.770893426
 30
0.0
 10
12.47389245
 20
6.7610446295
 30
0.0
 10
12.4724421828
 20
6.7513249993
 30
0.0
 10
12.4702784302
 20
6.7417863891
 30
0.0
 10
12.4674128061
 20
6.7324801264
 30
0.0
 10
12.4644492561
 20
6.7249519036
 30
0.0
 10
12.4617448728
 20
6.7190975371
 30
0.0
 10
12.4588263007
 20
6.7133704706
 30
0.0
 10
12.4547740415
 20
6.7064432735
 30
0.0
 10
12.4502005811
 20
6.699859594
 30
0.0
 10
12.4462484433
 20
6.6948271848
 30
0.0
 10
12.4421077627
 20
6.68995904
 30
0.0
 10
12.4387903665
 20
6.6864933193
 30
0.0
 10
12.4364935616
 20
6.6842747609
 30
0.0
  0
SPLINE
  5
34B
100
AcDbEntity
  8
0
100
AcDbSpline
 62
7
  6
CONTINUOUS
 70
0
 71
3
 72
41
 73
37
 74
0
 42
0.0000001
 43
0.0000001
 44
0.0000000001
 40
0.0
 40
0.0
 40
0.0
 40
0.0
 40
0.0311444983
 40
0.062442467
 40
0.093887251
 40
0.1254695609
 40
0.157177086
 40
0.1889950997
 40
0.2209066479
 40
0.2528929497
 40
0.284933762
 40
0.3170077852
 40
0.3490930781
 40
0.3811674822
 40
0.4132090489
 40
0.445196464
 40
0.4771094635
 40
0.5089292351
 40
0.540638799
 40
0.5722233621
 40
0.6036706378
 40
0.6349711269
 40
0.6661183495
 40
0.6971090237
 40
0.7279431823
 40
0.7586242225
 40
0.7891588828
 40
0.8195571428
 40
0.8498320452
 40
0.86493089
 40
0.8800050502
 40
0.9100832578
 40
0.9400926753
 40
0.9550812784
 40
0.9700610371
 40
1.0
 40
1.0
 40
1.0
 40
1.0
 10
12.338881069
 20
9.6604078336
 30
0.0
 10
12.3421950165
 20
9.6601780106
 30
0.0
 10
12.3488248845
 20
9.6594746578
 30
0.0
 10
12.3586893014
 20
9.6577029268
 30
0.0
 10
12.3684480759
 20
9.6552212235
 30
0.0
 10
12.3780484695
 20
9.6520429484
 30
0.0
 10
12.3874395043
 20
9.648185102
 30
0.0
 10
12.3965710793
 20
9.6436683362
 30
0.0
 10
12.4053945505
 20
9.6385167822
 30
0.0
 10
12.4138629015
 20
9.632757948
 30
0.0
 10
12.4219310132
 20
9.6264225615
 30
0.0
 10
12.4295558956
 20
9.6195444121
 30
0.0
 10
12.4366969157
 20
9.6121601703
 30
0.0
 10
12.4433160118
 20
9.6043091946
 30
0.0
 10
12.4493778938
 20
9.5960333235
 30
0.0
 10
12.4548502304
 20
9.5873766549
 30
0.0
 10
12.4597038194
 20
9.5783853139
 30
0.0
 10
12.4639127431
 20
9.5691072097
 30
0.0
 10
12.4674545053
 20
9.5595917834
 30
0.0
 10
12.4703101521
 20
9.5498897481
 30
0.0
 10
12.4724643731
 20
9.5400528222
 30
0.0
 10
12.4739055849
 20
9.5301334576
 30
0.0
 10
12.4746259954
 20
9.5201845628
 30
0.0
 10
12.4746216495
 20
9.5102592273
 30
0.0
 10
12.47389245
 20
9.5004104308
 30
0.0
 10
12.4724421828
 20
9.4906908006
 30
0.0
 10
12.4702784302
 20
9.4811521903
 30
0.0
 10
12.4674128061
 20
9.4718459277
 30
0.0
 10
12.4644492561
 20
9.4643177049
 30
0.0
 10
12.4617448728
 20
9.4584633384
 30
0.0
 10
12.4588263007
 20
9.4527362719
 30
0.0
 10
12.4547740415
 20
9.4458090748
 30
0.0
 10
12.4502005811
 20
9.4392253953
 30
0.0
 10
12.4462484433
 20
9.4341929861
 30
0.0
 10
12.4421077627
 20
9.4293248413
 30
0.0
 10
12.4387903665
 20
9.4258591206
 30
0.0
 10
12.4364935616
 20
9.4236405622
 30
0.0
  0
SPLINE
  5
34C
100
AcDbEntity
  8
0
100
AcDbSpline
 62
7
  6
CONTINUOUS
 70
0
 71
3
 72
41
 73
37
 74
0
 42
0.0000001
 43
0.0000001
 44
0.0000000001
 40
0.0
 40
0.0
 40
0.0
 40
0.0
 40
0.0311444983
 40
0.062442467
 40
0.093887251
 40
0.1254695609
 40
0.157177086
 40
0.1889950997
 40
0.2209066479
 40
0.2528929497
 40
0.284933762
 40
0.3170077852
 40
0.3490930781
 40
0.3811674822
 40
0.4132090489
 40
0.445196464
 40
0.4771094635
 40
0.5089292351
 40
0.540638799
 40
0.5722233621
 40
0.6036706378
 40
0.6349711269
 40
0.6661183495
 40
0.6971090237
 40
0.7279431823
 40
0.7586242225
 40
0.7891588828
 40
0.8195571428
 40
0.8498320452
 40
0.86493089
 40
0.8800050502
 40
0.9100832578
 40
0.9400926753
 40
0.9550812784
 40
0.9700610371
 40
1.0
 40
1.0
 40
1.0
 40
1.0
 10
9.5995152677
 20
9.8503834972
 30
0.0
 10
9.6028292153
 20
9.8501536741
 30
0.0
 10
9.6094590833
 20
9.8494503214
 30
0.0
 10
9.6193235001
 20
9.8476785903
 30
0.0
 10
9.6290822746
 20
9.845196887
 30
0.0
 10
9.6386826682
 20
9.842018612
 30
0.0
 10
9.648073703
 20
9.8381607656
 30
0.0
 10
9.657205278
 20
9.8336439998
 30
0.0
 10
9.6660287492
 20
9.8284924458
 30
0.0
 10
9.6744971002
 20
9.8227336115
 30
0.0
 10
9.6825652119
 20
9.816398225
 30
0.0
 10
9.6901900943
 20
9.8095200757
 30
0.0
 10
9.6973311145
 20
9.8021358339
 30
0.0
 10
9.7039502105
 20
9.7942848582
 30
0.0
 10
9.7100120925
 20
9.7860089871
 30
0.0
 10
9.7154844291
 20
9.7773523185
 30
0.0
 10
9.7203380181
 20
9.7683609775
 30
0.0
 10
9.7245469418
 20
9.7590828733
 30
0.0
 10
9.728088704
 20
9.7495674469
 30
0.0
 10
9.7309443508
 20
9.7398654116
 30
0.0
 10
9.7330985718
 20
9.7300284857
 30
0.0
 10
9.7345397836
 20
9.7201091211
 30
0.0
 10
9.7352601941
 20
9.7101602264
 30
0.0
 10
9.7352558482
 20
9.7002348909
 30
0.0
 10
9.7345266487
 20
9.6903860943
 30
0.0
 10
9.7330763815
 20
9.6806664642
 30
0.0
 10
9.7309126289
 20
9.6711278539
 30
0.0
 10
9.7280470049
 20
9.6618215913
 30
0.0
 10
9.7250834548
 20
9.6542933684
 30
0.0
 10
9.7223790715
 20
9.6484390019
 30
0.0
 10
9.7194604995
 20
9.6427119354
 30
0.0
 10
9.7154082402
 20
9.6357847384
 30
0.0
 10
9.7108347798
 20
9.6292010588
 30
0.0
 10
9.706882642
 20
9.6241686497
 30
0.0
 10
9.7027419614
 20
9.6193005049
 30
0.0
 10
9.6994245652
 20
9.6158347842
 30
0.0
 10
9.6971277603
 20
9.6136162258
 30
0.0
  0
SPLINE
  5
34D
100
AcDbEntity
  8
0
100
AcDbSpline
 62
7
  6
CONTINUOUS
 70
0
 71
3
 72
37
 73
33
 74
0
 42
0.0000001
 43
0.0000001
 44
0.0000000001
 40
0.0
 40
0.0
 40
0.0
 40
0.0
 40
0.031146624
 40
0.0624481919
 40
0.0938952571
 40
0.1254804469
 40
0.1571906758
 40
0.1890114524
 40
0.2209257687
 40
0.25291484
 40
0.2849584237
 40
0.3170352183
 40
0.381163152
 40
0.4451601237
 40
0.4770758719
 40
0.5088983814
 40
0.5406106743
 40
0.5721979571
 40
0.6036479386
 40
0.6349511145
 40
0.6661010055
 40
0.697094333
 40
0.7279311336
 40
0.7586148063
 40
0.7891520874
 40
0.819552954
 40
0.8498304507
 40
0.8800004308
 40
0.9100812223
 40
0.9400932249
 40
0.9700584477
 40
1.0
 40
1.0
 40
1.0
 40
1.0
 10
11.4521611245
 20
7.672690294
 30
0.0
 10
11.4540008758
 20
7.6725627068
 30
0.0
 10
11.4576815572
 20
7.6721722088
 30
0.0
 10
11.463157927
 20
7.6711886377
 30
0.0
 10
11.4685756725
 20
7.6698108325
 30
0.0
 10
11.4739054517
 20
7.6680463871
 30
0.0
 10
11.4791190193
 20
7.6659046306
 30
0.0
 10
11.4841885357
 20
7.6633970815
 30
0.0
 10
11.4890870101
 20
7.6605370928
 30
0.0
 10
11.4937882861
 20
7.6573400118
 30
0.0
 10
11.4982675238
 20
7.653822661
 30
0.0
 10
11.5039096427
 20
7.6487332236
 30
0.0
 10
11.5102890509
 20
7.6416712284
 30
0.0
 10
11.5156424488
 20
7.6338141086
 30
0.0
 10
11.519237278
 20
7.6271542289
 30
0.0
 10
11.521573996
 20
7.6220031861
 30
0.0
 10
11.5235401847
 20
7.6167205917
 30
0.0
 10
11.5251255032
 20
7.6113343483
 30
0.0
 10
11.5263213945
 20
7.6058732337
 30
0.0
 10
11.5271214416
 20
7.6003663515
 30
0.0
 10
11.5275213232
 20
7.5948430819
 30
0.0
 10
11.5275188472
 20
7.5893328954
 30
0.0
 10
11.5271139617
 20
7.5838652078
 30
0.0
 10
11.5263087596
 20
7.5784692223
 30
0.0
 10
11.5251074684
 20
7.5731737774
 30
0.0
 10
11.523516441
 20
7.5680071894
 30
0.0
 10
11.5215441337
 20
7.562997098
 30
0.0
 10
11.5192010377
 20
7.5581703115
 30
0.0
 10
11.5164996661
 20
7.5535526948
 30
0.0
 10
11.513454352
 20
7.5491689032
 30
0.0
 10
11.5100816823
 20
7.5450427137
 30
0.0
 10
11.5076259154
 20
7.5424773366
 30
0.0
 10
11.5063508005
 20
7.5412456841
 30
0.0
  0
SPLINE
  5
34E
100
AcDbEntity
  8
0
100
AcDbSpline
 62
7
  6
CONTINUOUS
 70
0
 71
3
 72
15
 73
11
 74
0
 42
0.0000001
 43
0.0000001
 44
0.0000000001
 40
0.0
 40
0.0
 40
0.0
 40
0.0
 40
0.1266942131
 40
0.2528683794
 40
0.3785207845
 40
0.5036798383
 40
0.6283694263
 40
0.7526243825
 40
0.8764856273
 40
1.0
 40
1.0
 40
1.0
 40
1.0
 10
11.1362442288
 20
7.8307946478
 30
0.0
 10
11.1362442288
 20
7.828388821
 30
0.0
 10
11.1360995081
 20
7.8235857483
 30
0.0
 10
11.1354460675
 20
7.8164234087
 30
0.0
 10
11.1343589821
 20
7.8093431223
 30
0.0
 10
11.1328425122
 20
7.8023710917
 30
0.0
 10
11.1309022573
 20
7.795532453
 30
0.0
 10
11.1285455162
 20
7.7888519439
 30
0.0
 10
11.1257813281
 20
7.7823539922
 30
0.0
 10
11.1236707323
 20
7.7781531829
 30
0.0
 10
11.1225515171
 20
7.7760920023
 30
0.0
  0
SPLINE
  5
34F
100
AcDbEntity
  8
0
100
AcDbSpline
 62
7
  6
CONTINUOUS
 70
0
 71
3
 72
32
 73
28
 74
0
 42
0.0000001
 43
0.0000001
 44
0.0000000001
 40
0.0
 40
0.0
 40
0.0
 40
0.0
 40
0.0315752364
 40
0.0474152443
 40
0.0632838754
 40
0.0950930964
 40
0.1269853407
 40
0.1429574527
 40
0.1589411968
 40
0.1909265272
 40
0.2229235328
 40
0.2549114407
 40
0.2868719311
 40
0.3187893076
 40
0.3824199286
 40
0.4457543358
 40
0.5087461671
 40
0.5713721627
 40
0.6025528314
 40
0.6336400781
 40
0.6955238319
 40
0.7570500493
 40
0.7876907322
 40
0.8182487293
 40
0.8791155141
 40
0.9396891496
 40
1.0
 40
1.0
 40
1.0
 40
1.0
 10
10.7074860936
 20
8.4161512595
 30
0.0
 10
10.7099852878
 20
8.4153082827
 30
0.0
 10
10.7136905489
 20
8.4138941309
 30
0.0
 10
10.7185125122
 20
8.4117256581
 30
0.0
 10
10.723265592
 20
8.4093651502
 30
0.0
 10
10.7290460977
 20
8.4060709087
 30
0.0
 10
10.7345733784
 20
8.4023526723
 30
0.0
 10
10.738832155
 20
8.3991405478
 30
0.0
 10
10.7429804652
 20
8.3957746274
 30
0.0
 10
10.7479444183
 20
8.3912964496
 30
0.0
 10
10.7535259065
 20
8.3855342011
 30
0.0
 10
10.758720713
 20
8.3794241663
 30
0.0
 10
10.7635202374
 20
8.3730075702
 30
0.0
 10
10.7693798367
 20
8.3641069629
 30
0.0
 10
10.7757074024
 20
8.352406431
 30
0.0
 10
10.7817303846
 20
8.3376968868
 30
0.0
 10
10.7862298422
 20
8.3225427557
 30
0.0
 10
10.7887628612
 20
8.3096721621
 30
0.0
 10
10.7900836287
 20
8.2993206159
 30
0.0
 10
10.7909428821
 20
8.2889827207
 30
0.0
 10
10.791178832
 20
8.2760628349
 30
0.0
 10
10.7903326204
 20
8.2632068598
 30
0.0
 10
10.7890262973
 20
8.2530364418
 30
0.0
 10
10.7873121842
 20
8.2429827553
 30
0.0
 10
10.7844094659
 20
8.2306061493
 30
0.0
 10
10.7797317554
 20
8.2161458111
 30
0.0
 10
10.7758248492
 20
8.2068188659
 30
0.0
 10
10.7736800741
 20
8.2022603517
 30
0.0
  0
SPLINE
  5
350
100
AcDbEntity
  8
0
100
AcDbSpline
 62
7
  6
CONTINUOUS
 70
0
 71
3
 72
36
 73
32
 74
0
 42
0.0000001
 43
0.0000001
 44
0.0000000001
 40
0.0
 40
0.0
 40
0.0
 40
0.0
 40
0.0154241118
 40
0.0308027929
 40
0.0461357067
 40
0.0614280044
 40
0.0766844159
 40
0.0919090669
 40
0.1071069492
 40
0.1222830176
 40
0.1525804378
 40
0.1828492137
 40
0.2131239209
 40
0.2434341955
 40
0.2738042845
 40
0.3042532039
 40
0.3347952691
 40
0.3654407891
 40
0.3961967699
 40
0.4270675447
 40
0.4891351505
 40
0.5203571784
 40
0.551694385
 40
0.6146836022
 40
0.6780972365
 40
0.7418999102
 40
0.8060486816
 40
0.8704912828
 40
0.902813463
 40
0.9351838882
 40
1.0
 40
1.0
 40
1.0
 40
1.0
 10
11.2114900738
 20
8.2650538769
 30
0.0
 10
11.2118244215
 20
8.2666036722
 30
0.0
 10
11.2125731235
 20
8.2696818731
 30
0.0
 10
11.2139347451
 20
8.2742266737
 30
0.0
 10
11.2155290797
 20
8.2786809059
 30
0.0
 10
11.2173502601
 20
8.283033611
 30
0.0
 10
11.2193914393
 20
8.2872752271
 30
0.0
 10
11.2216451378
 20
8.2913967049
 30
0.0
 10
11.2241027862
 20
8.2953902835
 30
0.0
 10
11.2276368808
 20
8.3005313544
 30
0.0
 10
11.2325217616
 20
8.3066112495
 30
0.0
 10
11.239048229
 20
8.3133077252
 30
0.0
 10
11.2461580054
 20
8.3193820932
 30
0.0
 10
11.2537737901
 20
8.324824125
 30
0.0
 10
11.2618236569
 20
8.3296334838
 30
0.0
 10
11.2702415849
 20
8.3338163398
 30
0.0
 10
11.2789679634
 20
8.3373834734
 30
0.0
 10
11.2879491754
 20
8.3403484668
 30
0.0
 10
11.2971379154
 20
8.3427265127
 30
0.0
 10
11.3096279489
 20
8.3451393089
 30
0.0
 10
11.3223581413
 20
8.3464338431
 30
0.0
 10
11.335170714
 20
8.3466782125
 30
0.0
 10
11.3480738626
 20
8.3462380748
 30
0.0
 10
11.364216867
 20
8.3444281019
 30
0.0
 10
11.3833662956
 20
8.3403386626
 30
0.0
 10
11.4021479858
 20
8.3343908006
 30
0.0
 10
11.4203714363
 20
8.3266332141
 30
0.0
 10
11.43491597
 20
8.3186955825
 30
0.0
 10
11.4460607277
 20
8.3114753208
 30
0.0
 10
11.4568488899
 20
8.3036691954
 30
0.0
 10
11.4644713783
 20
8.2971711823
 30
0.0
 10
11.4692874155
 20
8.2925674501
 30
0.0
  0
SPLINE
  5
351
100
AcDbEntity
  8
0
100
AcDbSpline
 62
7
  6
CONTINUOUS
 70
0
 71
3
 72
18
 73
14
 74
0
 42
0.0000001
 43
0.0000001
 44
0.0000000001
 40
0.0
 40
0.0
 40
0.0
 40
0.0
 40
0.1504680185
 40
0.2917144324
 40
0.4244425615
 40
0.4879099171
 40
0.5496094205
 40
0.6682625585
 40
0.7817882768
 40
0.8371379945
 40
0.8918078237
 40
0.9460192726
 40
1.0
 40
1.0
 40
1.0
 40
1.0
 10
12.9183873104
 20
8.3156405729
 30
0.0
 10
12.9196043792
 20
8.3168161711
 30
0.0
 10
12.9220368669
 20
8.3190219359
 30
0.0
 10
12.9258033153
 20
8.3219613876
 30
0.0
 10
12.9289847248
 20
8.3240403199
 30
0.0
 10
12.931521616
 20
8.3254481084
 30
0.0
 10
12.9339838746
 20
8.3266567353
 30
0.0
 10
12.9370624775
 20
8.3278780117
 30
0.0
 10
12.9401958447
 20
8.3287114136
 30
0.0
 10
12.9426775644
 20
8.329121955
 30
0.0
 10
12.9445168615
 20
8.32930416
 30
0.0
 10
12.9463487183
 20
8.3293629952
 30
0.0
 10
12.9475657583
 20
8.329319937
 30
0.0
 10
12.9481713571
 20
8.3292779353
 30
0.0
  0
SPLINE
  5
352
100
AcDbEntity
  8
0
100
AcDbSpline
 62
7
  6
CONTINUOUS
 70
0
 71
3
 72
15
 73
11
 74
0
 42
0.0000001
 43
0.0000001
 44
0.0000000001
 40
0.0
 40
0.0
 40
0.0
 40
0.0
 40
0.1273482292
 40
0.2538605354
 40
0.3795879276
 40
0.5046050833
 40
0.6290174349
 40
0.7529533662
 40
0.8765605734
 40
1.0
 40
1.0
 40
1.0
 40
1.0
 10
10.2865406044
 20
7.7138887551
 30
0.0
 10
10.2865406044
 20
7.7112863252
 30
0.0
 10
10.2862921258
 20
7.70609495
 30
0.0
 10
10.2851683997
 20
7.6984077318
 30
0.0
 10
10.2833050715
 20
7.6909136649
 30
0.0
 10
10.2807189678
 20
7.6836828367
 30
0.0
 10
10.2774338329
 20
7.6767819257
 30
0.0
 10
10.2734796009
 20
7.6702746553
 30
0.0
 10
10.2688934522
 20
7.664222
 30
0.0
 10
10.2654403161
 20
7.6605246912
 30
0.0
 10
10.2636259557
 20
7.6587721611
 30
0.0
  0
SPLINE
  5
353
100
AcDbEntity
  8
0
100
AcDbSpline
 62
7
  6
CONTINUOUS
 70
0
 71
3
 72
15
 73
11
 74
0
 42
0.0000001
 43
0.0000001
 44
0.0000000001
 40
0.0
 40
0.0
 40
0.0
 40
0.0
 40
0.1273482292
 40
0.2538605354
 40
0.3795879276
 40
0.5046050833
 40
0.6290174349
 40
0.7529533662
 40
0.8765605734
 40
1.0
 40
1.0
 40
1.0
 40
1.0
 10
10.2865406044
 20
8.8913523897
 30
0.0
 10
10.2865406044
 20
8.8887499597
 30
0.0
 10
10.2862921258
 20
8.8835585845
 30
0.0
 10
10.2851683997
 20
8.8758713663
 30
0.0
 10
10.2833050715
 20
8.8683772994
 30
0.0
 10
10.2807189678
 20
8.8611464712
 30
0.0
 10
10.2774338329
 20
8.8542455602
 30
0.0
 10
10.2734796009
 20
8.8477382898
 30
0.0
 10
10.2688934522
 20
8.8416856345
 30
0.0
 10
10.2654403161
 20
8.8379883257
 30
0.0
 10
10.2636259557
 20
8.8362357956
 30
0.0
  0
SPLINE
  5
354
100
AcDbEntity
  8
0
100
AcDbSpline
 62
7
  6
CONTINUOUS
 70
0
 71
3
 72
15
 73
11
 74
0
 42
0.0000001
 43
0.0000001
 44
0.0000000001
 40
0.0
 40
0.0
 40
0.0
 40
0.0
 40
0.1273482292
 40
0.2538605354
 40
0.3795879276
 40
0.5046050833
 40
0.6290174349
 40
0.7529533662
 40
0.8765605734
 40
1.0
 40
1.0
 40
1.0
 40
1.0
 10
11.8262263876
 20
8.8154845088
 30
0.0
 10
11.8262263876
 20
8.8128820789
 30
0.0
 10
11.825977909
 20
8.8076907037
 30
0.0
 10
11.8248541829
 20
8.8000034855
 30
0.0
 10
11.8229908547
 20
8.7925094186
 30
0.0
 10
11.820404751
 20
8.7852785903
 30
0.0
 10
11.8171196161
 20
8.7783776794
 30
0.0
 10
11.8131653841
 20
8.771870409
 30
0.0
 10
11.8085792354
 20
8.7658177537
 30
0.0
 10
11.8051260994
 20
8.7621204448
 30
0.0
 10
11.8033117389
 20
8.7603679147
 30
0.0
  0
SPLINE
  5
355
100
AcDbEntity
  8
0
100
AcDbSpline
 62
7
  6
CONTINUOUS
 70
0
 71
3
 72
15
 73
11
 74
0
 42
0.0000001
 43
0.0000001
 44
0.0000000001
 40
0.0
 40
0.0
 40
0.0
 40
0.0
 40
0.1273482292
 40
0.2538605354
 40
0.3795879276
 40
0.5046050833
 40
0.6290174349
 40
0.7529533662
 40
0.8765605734
 40
1.0
 40
1.0
 40
1.0
 40
1.0
 10
11.8262263876
 20
7.5771674635
 30
0.0
 10
11.8262263876
 20
7.5745650336
 30
0.0
 10
11.825977909
 20
7.5693736584
 30
0.0
 10
11.8248541829
 20
7.5616864402
 30
0.0
 10
11.8229908547
 20
7.5541923733
 30
0.0
 10
11.820404751
 20
7.546961545
 30
0.0
 10
11.8171196161
 20
7.5400606341
 30
0.0
 10
11.8131653841
 20
7.5335533637
 30
0.0
 10
11.8085792354
 20
7.5275007084
 30
0.0
 10
11.8051260994
 20
7.5238033995
 30
0.0
 10
11.8033117389
 20
7.5220508694
 30
0.0
  0
SPLINE
  5
356
100
AcDbEntity
  8
0
100
AcDbSpline
 62
7
  6
CONTINUOUS
 70
0
 71
3
 72
30
 73
26
 74
0
 42
0.0000001
 43
0.0000001
 44
0.0000000001
 40
0.0
 40
0.0
 40
0.0
 40
0.0
 40
0.0743365353
 40
0.1506849406
 40
0.2279981805
 40
0.3052146226
 40
0.3813385028
 40
0.4555263553
 40
0.5271410264
 40
0.5957458825
 40
0.661054604
 40
0.7228567651
 40
0.7809365856
 40
0.8085021351
 40
0.8350164832
 40
0.8604206334
 40
0.8846420726
 40
0.9075965545
 40
0.9291887302
 40
0.949314179
 40
0.9678706989
 40
0.9765355131
 40
0.9847795385
 40
0.9925998711
 40
1.0
 40
1.0
 40
1.0
 40
1.0
 10
11.1359229132
 20
7.840009901
 30
0.0
 10
11.1338151713
 20
7.8385882623
 30
0.0
 10
11.1294427218
 20
7.8358511985
 30
0.0
 10
11.1225417553
 20
7.8322049605
 30
0.0
 10
11.1152815052
 20
7.8290774565
 30
0.0
 10
11.1077885935
 20
7.8265787396
 30
0.0
 10
11.1002058964
 20
7.8247828575
 30
0.0
 10
11.0926790412
 20
7.8237223301
 30
0.0
 10
11.0853426675
 20
7.8233883072
 30
0.0
 10
11.0783115035
 20
7.8237386931
 30
0.0
 10
11.0716781418
 20
7.8247083948
 30
0.0
 10
11.0655175802
 20
7.8262186398
 30
0.0
 10
11.0607487009
 20
7.8278845892
 30
0.0
 10
11.0572307208
 20
7.8294171221
 30
0.0
 10
11.054795087
 20
7.8306271278
 30
0.0
 10
11.0525251981
 20
7.8319057832
 30
0.0
 10
11.0504308586
 20
7.833240708
 30
0.0
 10
11.04852319
 20
7.8346187586
 30
0.0
 10
11.0468146085
 20
7.8360260328
 30
0.0
 10
11.045319227
 20
7.8374476267
 30
0.0
 10
11.0442394661
 20
7.8386577377
 30
0.0
 10
11.043502688
 20
7.8396219066
 30
0.0
 10
11.0430269376
 20
7.8403217772
 30
0.0
 10
11.0426175992
 20
7.8410126566
 30
0.0
 10
11.0423841354
 20
7.8414785791
 30
0.0
 10
11.0422801534
 20
7.8417093222
 30
0.0
  0
SPLINE
  5
357
100
AcDbEntity
  8
0
100
AcDbSpline
 62
7
  6
CONTINUOUS
 70
0
 71
3
 72
21
 73
17
 74
0
 42
0.0000001
 43
0.0000001
 44
0.0000000001
 40
0.0
 40
0.0
 40
0.0
 40
0.0
 40
0.061653237
 40
0.123329498
 40
0.1850515502
 40
0.2468416698
 40
0.3087213548
 40
0.370711108
 40
0.4328302426
 40
0.495096636
 40
0.5575265765
 40
0.6201345494
 40
0.682933126
 40
0.7459332432
 40
0.8725261314
 40
1.0
 40
1.0
 40
1.0
 40
1.0
 10
9.5019027751
 20
7.076359794
 30
0.0
 10
9.5034794819
 20
7.0778827863
 30
0.0
 10
9.506716069
 20
7.0808451595
 30
0.0
 10
9.5118037739
 20
7.0850221758
 30
0.0
 10
9.51711239
 20
7.0889231212
 30
0.0
 10
9.5226283779
 20
7.0925379789
 30
0.0
 10
9.5283379021
 20
7.0958576606
 30
0.0
 10
9.5342265312
 20
7.0988738471
 30
0.0
 10
9.5402794385
 20
7.1015789444
 30
0.0
 10
9.5464813837
 20
7.1039661099
 30
0.0
 10
9.5528167331
 20
7.1060293952
 30
0.0
 10
9.5592694818
 20
7.1077636121
 30
0.0
 10
9.5658235784
 20
7.1091643772
 30
0.0
 10
9.5746879314
 20
7.1105849433
 30
0.0
 10
9.585944253
 20
7.1115078793
 30
0.0
 10
9.5949936571
 20
7.1113312706
 30
0.0
 10
9.5995152677
 20
7.1110176959
 30
0.0
  0
SPLINE
  5
358
100
AcDbEntity
  8
0
100
AcDbSpline
 62
7
  6
CONTINUOUS
 70
0
 71
3
 72
21
 73
17
 74
0
 42
0.0000001
 43
0.0000001
 44
0.0000000001
 40
0.0
 40
0.0
 40
0.0
 40
0.0
 40
0.061653237
 40
0.123329498
 40
0.1850515502
 40
0.2468416698
 40
0.3087213548
 40
0.370711108
 40
0.4328302426
 40
0.495096636
 40
0.5575265765
 40
0.6201345494
 40
0.682933126
 40
0.7459332432
 40
0.8725261314
 40
1.0
 40
1.0
 40
1.0
 40
1.0
 10
12.2412685764
 20
6.8863841304
 30
0.0
 10
12.2428452832
 20
6.8879071227
 30
0.0
 10
12.2460818703
 20
6.8908694959
 30
0.0
 10
12.2511695752
 20
6.8950465123
 30
0.0
 10
12.2564781913
 20
6.8989474576
 30
0.0
 10
12.2619941792
 20
6.9025623153
 30
0.0
 10
12.2677037034
 20
6.905881997
 30
0.0
 10
12.2735923324
 20
6.9088981835
 30
0.0
 10
12.2796452398
 20
6.9116032808
 30
0.0
 10
12.285847185
 20
6.9139904463
 30
0.0
 10
12.2921825343
 20
6.9160537316
 30
0.0
 10
12.2986352831
 20
6.9177879485
 30
0.0
 10
12.3051893797
 20
6.9191887137
 30
0.0
 10
12.3140537327
 20
6.9206092797
 30
0.0
 10
12.3253100543
 20
6.9215322157
 30
0.0
 10
12.3343594584
 20
6.9213556071
 30
0.0
 10
12.338881069
 20
6.9210420323
 30
0.0
  0
SPLINE
  5
359
100
AcDbEntity
  8
0
100
AcDbSpline
 62
7
  6
CONTINUOUS
 70
0
 71
3
 72
21
 73
17
 74
0
 42
0.0000001
 43
0.0000001
 44
0.0000000001
 40
0.0
 40
0.0
 40
0.0
 40
0.0
 40
0.061653237
 40
0.123329498
 40
0.1850515502
 40
0.2468416698
 40
0.3087213548
 40
0.370711108
 40
0.4328302426
 40
0.495096636
 40
0.5575265765
 40
0.6201345494
 40
0.682933126
 40
0.7459332432
 40
0.8725261314
 40
1.0
 40
1.0
 40
1.0
 40
1.0
 10
12.2412685764
 20
9.6257499317
 30
0.0
 10
12.2428452832
 20
9.627272924
 30
0.0
 10
12.2460818703
 20
9.6302352972
 30
0.0
 10
12.2511695752
 20
9.6344123136
 30
0.0
 10
12.2564781913
 20
9.6383132589
 30
0.0
 10
12.2619941792
 20
9.6419281166
 30
0.0
 10
12.2677037034
 20
9.6452477983
 30
0.0
 10
12.2735923324
 20
9.6482639848
 30
0.0
 10
12.2796452398
 20
9.6509690821
 30
0.0
 10
12.285847185
 20
9.6533562476
 30
0.0
 10
12.2921825343
 20
9.6554195329
 30
0.0
 10
12.2986352831
 20
9.6571537498
 30
0.0
 10
12.3051893797
 20
9.658554515
 30
0.0
 10
12.3140537327
 20
9.659975081
 30
0.0
 10
12.3253100543
 20
9.660898017
 30
0.0
 10
12.3343594584
 20
9.6607214084
 30
0.0
 10
12.338881069
 20
9.6604078336
 30
0.0
  0
SPLINE
  5
35A
100
AcDbEntity
  8
0
100
AcDbSpline
 62
7
  6
CONTINUOUS
 70
0
 71
3
 72
21
 73
17
 74
0
 42
0.0000001
 43
0.0000001
 44
0.0000000001
 40
0.0
 40
0.0
 40
0.0
 40
0.0
 40
0.061653237
 40
0.123329498
 40
0.1850515502
 40
0.2468416698
 40
0.3087213548
 40
0.370711108
 40
0.4328302426
 40
0.495096636
 40
0.5575265765
 40
0.6201345494
 40
0.682933126
 40
0.7459332432
 40
0.8725261314
 40
1.0
 40
1.0
 40
1.0
 40
1.0
 10
9.5019027751
 20
9.8157255953
 30
0.0
 10
9.5034794819
 20
9.8172485875
 30
0.0
 10
9.506716069
 20
9.8202109608
 30
0.0
 10
9.5118037739
 20
9.8243879771
 30
0.0
 10
9.51711239
 20
9.8282889225
 30
0.0
 10
9.5226283779
 20
9.8319037802
 30
0.0
 10
9.5283379021
 20
9.8352234619
 30
0.0
 10
9.5342265312
 20
9.8382396483
 30
0.0
 10
9.5402794385
 20
9.8409447457
 30
0.0
 10
9.5464813837
 20
9.8433319112
 30
0.0
 10
9.5528167331
 20
9.8453951965
 30
0.0
 10
9.5592694818
 20
9.8471294133
 30
0.0
 10
9.5658235784
 20
9.8485301785
 30
0.0
 10
9.5746879314
 20
9.8499507446
 30
0.0
 10
9.585944253
 20
9.8508736805
 30
0.0
 10
9.5949936571
 20
9.8506970719
 30
0.0
 10
9.5995152677
 20
9.8503834972
 30
0.0
  0
SPLINE
  5
35B
100
AcDbEntity
  8
0
100
AcDbSpline
 62
7
  6
CONTINUOUS
 70
0
 71
3
 72
39
 73
35
 74
0
 42
0.0000001
 43
0.0000001
 44
0.0000000001
 40
0.0
 40
0.0
 40
0.0
 40
0.0
 40
0.0299424741
 40
0.0599093236
 40
0.0899243299
 40
0.1200101071
 40
0.1501875628
 40
0.1804754121
 40
0.2108897558
 40
0.2414437341
 40
0.2721472619
 40
0.3030068476
 40
0.3340255003
 40
0.3652027176
 40
0.3965345493
 40
0.4280137317
 40
0.459629888
 40
0.4913697842
 40
0.5232176352
 40
0.5551554541
 40
0.5871634377
 40
0.6192203778
 40
0.6513040905
 40
0.68339186
 40
0.715460889
 40
0.7474887514
 40
0.779453839
 40
0.8113357971
 40
0.8431159663
 40
0.8747776774
 40
0.9063069717
 40
0.937691796
 40
0.9689252179
 40
1.0
 40
1.0
 40
1.0
 40
1.0
 10
10.1462137787
 20
7.7803261839
 30
0.0
 10
10.1476156086
 20
7.7816802418
 30
0.0
 10
10.150529487
 20
7.7842790898
 30
0.0
 10
10.1551979854
 20
7.7878195484
 30
0.0
 10
10.1601402883
 20
7.7909844896
 30
0.0
 10
10.1653287824
 20
7.7937561574
 30
0.0
 10
10.1707349411
 20
7.7961194116
 30
0.0
 10
10.1763289293
 20
7.7980612611
 30
0.0
 10
10.1820799217
 20
7.7995710802
 30
0.0
 10
10.1879562352
 20
7.8006406236
 30
0.0
 10
10.1939255161
 20
7.8012640773
 30
0.0
 10
10.1999549151
 20
7.8014380913
 30
0.0
 10
10.2060112715
 20
7.8011617903
 30
0.0
 10
10.2120612943
 20
7.8004367701
 30
0.0
 10
10.2180717427
 20
7.7992670871
 30
0.0
 10
10.224009607
 20
7.797659232
 30
0.0
 10
10.229842286
 20
7.7956220933
 30
0.0
 10
10.2355377642
 20
7.7931669065
 30
0.0
 10
10.2410647834
 20
7.7903071914
 30
0.0
 10
10.2463930163
 20
7.7870586852
 30
0.0
 10
10.2514932294
 20
7.7834392497
 30
0.0
 10
10.25633744
 20
7.7794687721
 30
0.0
 10
10.2608990677
 20
7.7751690573
 30
0.0
 10
10.2651530783
 20
7.7705637092
 30
0.0
 10
10.2690761193
 20
7.7656780028
 30
0.0
 10
10.272646647
 20
7.7605387473
 30
0.0
 10
10.2758450421
 20
7.7551741408
 30
0.0
 10
10.2786537284
 20
7.7496136207
 30
0.0
 10
10.281057249
 20
7.743887703
 30
0.0
 10
10.2830423908
 20
7.7380277975
 30
0.0
 10
10.2845981557
 20
7.7320661187
 30
0.0
 10
10.2857160345
 20
7.7260352271
 30
0.0
 10
10.286389694
 20
7.7199687461
 30
0.0
 10
10.2865406044
 20
7.7159114584
 30
0.0
 10
10.2865406044
 20
7.7138887551
 30
0.0
  0
SPLINE
  5
35C
100
AcDbEntity
  8
0
100
AcDbSpline
 62
7
  6
CONTINUOUS
 70
0
 71
3
 72
39
 73
35
 74
0
 42
0.0000001
 43
0.0000001
 44
0.0000000001
 40
0.0
 40
0.0
 40
0.0
 40
0.0
 40
0.0299424741
 40
0.0599093236
 40
0.0899243299
 40
0.1200101071
 40
0.1501875628
 40
0.1804754121
 40
0.2108897558
 40
0.2414437341
 40
0.2721472619
 40
0.3030068476
 40
0.3340255003
 40
0.3652027176
 40
0.3965345493
 40
0.4280137317
 40
0.459629888
 40
0.4913697842
 40
0.5232176352
 40
0.5551554541
 40
0.5871634377
 40
0.6192203778
 40
0.6513040905
 40
0.68339186
 40
0.715460889
 40
0.7474887514
 40
0.779453839
 40
0.8113357971
 40
0.8431159663
 40
0.8747776774
 40
0.9063069717
 40
0.937691796
 40
0.9689252179
 40
1.0
 40
1.0
 40
1.0
 40
1.0
 10
10.1462137787
 20
8.9577898184
 30
0.0
 10
10.1476156086
 20
8.9591438763
 30
0.0
 10
10.150529487
 20
8.9617427243
 30
0.0
 10
10.1551979854
 20
8.9652831829
 30
0.0
 10
10.1601402883
 20
8.9684481241
 30
0.0
 10
10.1653287824
 20
8.9712197919
 30
0.0
 10
10.1707349411
 20
8.9735830461
 30
0.0
 10
10.1763289293
 20
8.9755248956
 30
0.0
 10
10.1820799217
 20
8.9770347147
 30
0.0
 10
10.1879562352
 20
8.9781042581
 30
0.0
 10
10.1939255161
 20
8.9787277118
 30
0.0
 10
10.1999549151
 20
8.9789017258
 30
0.0
 10
10.2060112715
 20
8.9786254248
 30
0.0
 10
10.2120612943
 20
8.9779004047
 30
0.0
 10
10.2180717427
 20
8.9767307216
 30
0.0
 10
10.224009607
 20
8.9751228666
 30
0.0
 10
10.229842286
 20
8.9730857278
 30
0.0
 10
10.2355377642
 20
8.970630541
 30
0.0
 10
10.2410647834
 20
8.9677708259
 30
0.0
 10
10.2463930163
 20
8.9645223197
 30
0.0
 10
10.2514932294
 20
8.9609028842
 30
0.0
 10
10.25633744
 20
8.9569324066
 30
0.0
 10
10.2608990677
 20
8.9526326918
 30
0.0
 10
10.2651530783
 20
8.9480273437
 30
0.0
 10
10.2690761193
 20
8.9431416373
 30
0.0
 10
10.272646647
 20
8.9380023818
 30
0.0
 10
10.2758450421
 20
8.9326377754
 30
0.0
 10
10.2786537284
 20
8.9270772552
 30
0.0
 10
10.281057249
 20
8.9213513375
 30
0.0
 10
10.2830423908
 20
8.915491432
 30
0.0
 10
10.2845981557
 20
8.9095297532
 30
0.0
 10
10.2857160345
 20
8.9034988616
 30
0.0
 10
10.286389694
 20
8.8974323806
 30
0.0
 10
10.2865406044
 20
8.8933750929
 30
0.0
 10
10.2865406044
 20
8.8913523897
 30
0.0
  0
SPLINE
  5
35D
100
AcDbEntity
  8
0
100
AcDbSpline
 62
7
  6
CONTINUOUS
 70
0
 71
3
 72
39
 73
35
 74
0
 42
0.0000001
 43
0.0000001
 44
0.0000000001
 40
0.0
 40
0.0
 40
0.0
 40
0.0
 40
0.0299424741
 40
0.0599093236
 40
0.0899243299
 40
0.1200101071
 40
0.1501875628
 40
0.1804754121
 40
0.2108897558
 40
0.2414437341
 40
0.2721472619
 40
0.3030068476
 40
0.3340255003
 40
0.3652027176
 40
0.3965345493
 40
0.4280137317
 40
0.459629888
 40
0.4913697842
 40
0.5232176352
 40
0.5551554541
 40
0.5871634377
 40
0.6192203778
 40
0.6513040905
 40
0.68339186
 40
0.715460889
 40
0.7474887514
 40
0.779453839
 40
0.8113357971
 40
0.8431159663
 40
0.8747776774
 40
0.9063069717
 40
0.937691796
 40
0.9689252179
 40
1.0
 40
1.0
 40
1.0
 40
1.0
 10
11.685899562
 20
8.8819219376
 30
0.0
 10
11.6873013919
 20
8.8832759955
 30
0.0
 10
11.6902152702
 20
8.8858748435
 30
0.0
 10
11.6948837687
 20
8.8894153021
 30
0.0
 10
11.6998260715
 20
8.8925802433
 30
0.0
 10
11.7050145657
 20
8.8953519111
 30
0.0
 10
11.7104207244
 20
8.8977151653
 30
0.0
 10
11.7160147126
 20
8.8996570148
 30
0.0
 10
11.721765705
 20
8.9011668338
 30
0.0
 10
11.7276420185
 20
8.9022363773
 30
0.0
 10
11.7336112993
 20
8.9028598309
 30
0.0
 10
11.7396406983
 20
8.903033845
 30
0.0
 10
11.7456970548
 20
8.902757544
 30
0.0
 10
11.7517470775
 20
8.9020325238
 30
0.0
 10
11.757757526
 20
8.9008628408
 30
0.0
 10
11.7636953902
 20
8.8992549857
 30
0.0
 10
11.7695280693
 20
8.897217847
 30
0.0
 10
11.7752235475
 20
8.8947626602
 30
0.0
 10
11.7807505666
 20
8.8919029451
 30
0.0
 10
11.7860787996
 20
8.8886544389
 30
0.0
 10
11.7911790127
 20
8.8850350033
 30
0.0
 10
11.7960232233
 20
8.8810645258
 30
0.0
 10
11.800584851
 20
8.876764811
 30
0.0
 10
11.8048388615
 20
8.8721594628
 30
0.0
 10
11.8087619025
 20
8.8672737565
 30
0.0
 10
11.8123324303
 20
8.862134501
 30
0.0
 10
11.8155308254
 20
8.8567698945
 30
0.0
 10
11.8183395117
 20
8.8512093744
 30
0.0
 10
11.8207430322
 20
8.8454834567
 30
0.0
 10
11.8227281741
 20
8.8396235512
 30
0.0
 10
11.824283939
 20
8.8336618723
 30
0.0
 10
11.8254018178
 20
8.8276309808
 30
0.0
 10
11.8260754773
 20
8.8215644998
 30
0.0
 10
11.8262263876
 20
8.8175072121
 30
0.0
 10
11.8262263876
 20
8.8154845088
 30
0.0
  0
SPLINE
  5
35E
100
AcDbEntity
  8
0
100
AcDbSpline
 62
7
  6
CONTINUOUS
 70
0
 71
3
 72
39
 73
35
 74
0
 42
0.0000001
 43
0.0000001
 44
0.0000000001
 40
0.0
 40
0.0
 40
0.0
 40
0.0
 40
0.0299424741
 40
0.0599093236
 40
0.0899243299
 40
0.1200101071
 40
0.1501875628
 40
0.1804754121
 40
0.2108897558
 40
0.2414437341
 40
0.2721472619
 40
0.3030068476
 40
0.3340255003
 40
0.3652027176
 40
0.3965345493
 40
0.4280137317
 40
0.459629888
 40
0.4913697842
 40
0.5232176352
 40
0.5551554541
 40
0.5871634377
 40
0.6192203778
 40
0.6513040905
 40
0.68339186
 40
0.715460889
 40
0.7474887514
 40
0.779453839
 40
0.8113357971
 40
0.8431159663
 40
0.8747776774
 40
0.9063069717
 40
0.937691796
 40
0.9689252179
 40
1.0
 40
1.0
 40
1.0
 40
1.0
 10
11.685899562
 20
7.6436048923
 30
0.0
 10
11.6873013919
 20
7.6449589502
 30
0.0
 10
11.6902152702
 20
7.6475577982
 30
0.0
 10
11.6948837687
 20
7.6510982568
 30
0.0
 10
11.6998260715
 20
7.654263198
 30
0.0
 10
11.7050145657
 20
7.6570348658
 30
0.0
 10
11.7104207244
 20
7.65939812
 30
0.0
 10
11.7160147126
 20
7.6613399695
 30
0.0
 10
11.721765705
 20
7.6628497885
 30
0.0
 10
11.7276420185
 20
7.663919332
 30
0.0
 10
11.7336112993
 20
7.6645427856
 30
0.0
 10
11.7396406983
 20
7.6647167997
 30
0.0
 10
11.7456970548
 20
7.6644404987
 30
0.0
 10
11.7517470775
 20
7.6637154785
 30
0.0
 10
11.757757526
 20
7.6625457954
 30
0.0
 10
11.7636953902
 20
7.6609379404
 30
0.0
 10
11.7695280693
 20
7.6589008017
 30
0.0
 10
11.7752235475
 20
7.6564456149
 30
0.0
 10
11.7807505666
 20
7.6535858998
 30
0.0
 10
11.7860787996
 20
7.6503373936
 30
0.0
 10
11.7911790127
 20
7.646717958
 30
0.0
 10
11.7960232233
 20
7.6427474804
 30
0.0
 10
11.800584851
 20
7.6384477656
 30
0.0
 10
11.8048388615
 20
7.6338424175
 30
0.0
 10
11.8087619025
 20
7.6289567111
 30
0.0
 10
11.8123324303
 20
7.6238174557
 30
0.0
 10
11.8155308254
 20
7.6184528492
 30
0.0
 10
11.8183395117
 20
7.6128923291
 30
0.0
 10
11.8207430322
 20
7.6071664114
 30
0.0
 10
11.8227281741
 20
7.6013065059
 30
0.0
 10
11.824283939
 20
7.595344827
 30
0.0
 10
11.8254018178
 20
7.5893139354
 30
0.0
 10
11.8260754773
 20
7.5832474544
 30
0.0
 10
11.8262263876
 20
7.5791901668
 30
0.0
 10
11.8262263876
 20
7.5771674635
 30
0.0
  0
SPLINE
  5
35F
100
AcDbEntity
  8
0
100
AcDbSpline
 62
7
  6
CONTINUOUS
 70
0
 71
3
 72
15
 73
11
 74
0
 42
0.0000001
 43
0.0000001
 44
0.0000000001
 40
0.0
 40
0.0
 40
0.0
 40
0.0
 40
0.1233171148
 40
0.2468171822
 40
0.3706750007
 40
0.4950496181
 40
0.6200773069
 40
0.7458672043
 40
0.8724928123
 40
1.0
 40
1.0
 40
1.0
 40
1.0
 10
11.3979714485
 20
7.653450466
 30
0.0
 10
11.3997217711
 20
7.6551411287
 30
0.0
 10
11.4034102871
 20
7.6583389788
 30
0.0
 10
11.4094302586
 20
7.6625177249
 30
0.0
 10
11.4158808629
 20
7.6660403316
 30
0.0
 10
11.4226960505
 20
7.6688706229
 30
0.0
 10
11.4298070853
 20
7.670980502
 30
0.0
 10
11.4371423394
 20
7.6723488533
 30
0.0
 10
11.4446269364
 20
7.6729623748
 30
0.0
 10
11.449650958
 20
7.6728643746
 30
0.0
 10
11.4521611245
 20
7.672690294
 30
0.0
  0
SPLINE
  5
360
100
AcDbEntity
  8
0
100
AcDbSpline
 62
7
  6
CONTINUOUS
 70
0
 71
3
 72
16
 73
12
 74
0
 42
0.0000001
 43
0.0000001
 44
0.0000000001
 40
0.0
 40
0.0
 40
0.0
 40
0.0
 40
0.1233044511
 40
0.2475458716
 40
0.3724565108
 40
0.4977833677
 40
0.6233166276
 40
0.7489058319
 40
0.874463995
 40
0.9372394717
 40
1.0
 40
1.0
 40
1.0
 40
1.0
 10
11.1075007102
 20
7.9105630524
 30
0.0
 10
11.1034777908
 20
7.9111774702
 30
0.0
 10
11.0954534489
 20
7.9127835142
 30
0.0
 10
11.0836535671
 20
7.9162861619
 30
0.0
 10
11.072158106
 20
7.9208732022
 30
0.0
 10
11.0610939883
 20
7.9265152152
 30
0.0
 10
11.0505832421
 20
7.9331747528
 30
0.0
 10
11.040744473
 20
7.9408046456
 30
0.0
 10
11.0331959183
 20
7.9479279618
 30
0.0
 10
11.0276039594
 20
7.9540476866
 30
0.0
 10
11.0249634027
 20
7.9572432241
 30
0.0
 10
11.0236844322
 20
7.9588725736
 30
0.0
  0
SPLINE
  5
361
100
AcDbEntity
  8
0
100
AcDbSpline
 62
7
  6
CONTINUOUS
 70
0
 71
3
 72
41
 73
37
 74
0
 42
0.0000001
 43
0.0000001
 44
0.0000000001
 40
0.0
 40
0.0
 40
0.0
 40
0.0
 40
0.0301994644
 40
0.060325634
 40
0.0904080169
 40
0.1204773118
 40
0.150564451
 40
0.1806996511
 40
0.2109115107
 40
0.241226187
 40
0.2716666776
 40
0.302252226
 40
0.3329978614
 40
0.3639140761
 40
0.3950066384
 40
0.4262765343
 40
0.4577200287
 40
0.4893288355
 40
0.5210903853
 40
0.5529881809
 40
0.5850022298
 40
0.6171095454
 40
0.6492847098
 40
0.6815004877
 40
0.7137284861
 40
0.7298411
 40
0.7459459572
 40
0.7781120897
 40
0.810205387
 40
0.842199967
 40
0.8740724006
 40
0.9058023224
 40
0.9373732939
 40
0.9530981102
 40
0.9687793064
 40
1.0
 40
1.0
 40
1.0
 40
1.0
 10
10.9066419791
 20
7.9023700349
 30
0.0
 10
10.9081984628
 20
7.9052365024
 30
0.0
 10
10.9115634444
 20
7.9108278686
 30
0.0
 10
10.9173310243
 20
7.9187226812
 30
0.0
 10
10.9237712558
 20
7.9260614303
 30
0.0
 10
10.9308375351
 20
7.9327930417
 30
0.0
 10
10.9384797041
 20
7.9388721185
 30
0.0
 10
10.9466437269
 20
7.9442577672
 30
0.0
 10
10.9552723357
 20
7.9489141822
 30
0.0
 10
10.9643054198
 20
7.9528106965
 30
0.0
 10
10.9736804782
 20
7.9559219198
 30
0.0
 10
10.9833330424
 20
7.9582278057
 30
0.0
 10
10.9931970931
 20
7.9597136975
 30
0.0
 10
11.0032054624
 20
7.9603703445
 30
0.0
 10
11.0132902239
 20
7.9601939032
 30
0.0
 10
11.0233830737
 20
7.9591859207
 30
0.0
 10
11.0334157062
 20
7.9573533069
 30
0.0
 10
11.0433201868
 20
7.9547082928
 30
0.0
 10
11.0530293273
 20
7.9512683769
 30
0.0
 10
11.0624770621
 20
7.9470562584
 30
0.0
 10
11.0715988425
 20
7.9420997421
 30
0.0
 10
11.0803320005
 20
7.9364316648
 30
0.0
 10
11.0886162608
 20
7.9300896318
 30
0.0
 10
11.0963937418
 20
7.9231163391
 30
0.0
 10
11.1024088189
 20
7.9168165363
 30
0.0
 10
11.106915084
 20
7.9115094423
 30
0.0
 10
11.1112072738
 20
7.9060362627
 30
0.0
 10
11.1161606331
 20
7.898896673
 30
0.0
 10
11.1214043791
 20
7.8899076171
 30
0.0
 10
11.125908795
 20
7.8805609774
 30
0.0
 10
11.1296408609
 20
7.8709219094
 30
0.0
 10
11.1325732496
 20
7.8610581073
 30
0.0
 10
11.1343350146
 20
7.8526959241
 30
0.0
 10
11.1353240798
 20
7.8459644084
 30
0.0
 10
11.1360300997
 20
7.8392357927
 30
0.0
 10
11.1362442288
 20
7.8341667395
 30
0.0
 10
11.1362442288
 20
7.8307946478
 30
0.0
  0
SPLINE
  5
362
100
AcDbEntity
  8
0
100
AcDbSpline
 62
7
  6
CONTINUOUS
 70
0
 71
3
 72
28
 73
24
 74
0
 42
0.0000001
 43
0.0000001
 44
0.0000000001
 40
0.0
 40
0.0
 40
0.0
 40
0.0
 40
0.0620666827
 40
0.1239836006
 40
0.1857782652
 40
0.2474825178
 40
0.3091333574
 40
0.370773819
 40
0.432453784
 40
0.49423052
 40
0.5561686253
 40
0.6183389571
 40
0.6808160288
 40
0.7122039853
 40
0.7436960233
 40
0.7753000215
 40
0.8070226812
 40
0.8388688873
 40
0.8708422258
 40
0.9029441578
 40
0.9351729097
 40
0.9675283049
 40
1.0
 40
1.0
 40
1.0
 40
1.0
 10
10.5619784701
 20
8.3395400411
 30
0.0
 10
10.5635651181
 20
8.3429123097
 30
0.0
 10
10.5669505386
 20
8.3495496778
 30
0.0
 10
10.5726633985
 20
8.3591402912
 30
0.0
 10
10.5789998967
 20
8.3683056133
 30
0.0
 10
10.5859542279
 20
8.3769917409
 30
0.0
 10
10.5935196715
 20
8.3851397284
 30
0.0
 10
10.6016868621
 20
8.3926838227
 30
0.0
 10
10.610442179
 20
8.3995509344
 30
0.0
 10
10.6197653182
 20
8.4056601009
 30
0.0
 10
10.6296267111
 20
8.4109226944
 30
0.0
 10
10.639982587
 20
8.4152433322
 30
0.0
 10
10.6489645013
 20
8.417972909
 30
0.0
 10
10.6563194438
 20
8.419588198
 30
0.0
 10
10.6619210984
 20
8.4205059419
 30
0.0
 10
10.6675846535
 20
8.4211168814
 30
0.0
 10
10.673294897
 20
8.4214112889
 30
0.0
 10
10.6790349081
 20
8.4213809033
 30
0.0
 10
10.6847864979
 20
8.4210191381
 30
0.0
 10
10.6905302438
 20
8.4203213804
 30
0.0
 10
10.6962461399
 20
8.4192854713
 30
0.0
 10
10.701913025
 20
8.4179116971
 30
0.0
 10
10.7056385526
 20
8.416774434
 30
0.0
 10
10.7074860936
 20
8.4161512595
 30
0.0
  0
SPLINE
  5
363
100
AcDbEntity
  8
0
100
AcDbSpline
 62
7
  6
CONTINUOUS
 70
0
 71
3
 72
23
 73
19
 74
0
 42
0.0000001
 43
0.0000001
 44
0.0000000001
 40
0.0
 40
0.0
 40
0.0
 40
0.0
 40
0.1269164856
 40
0.1903656558
 40
0.2537656245
 40
0.3802603638
 40
0.4433434273
 40
0.5062579445
 40
0.5689703015
 40
0.6314472942
 40
0.693657565
 40
0.7246589744
 40
0.7555837707
 40
0.8171830148
 40
0.8784511381
 40
0.9089648411
 40
0.9393966743
 40
1.0
 40
1.0
 40
1.0
 40
1.0
 10
11.2534405718
 20
8.1530393505
 30
0.0
 10
11.2496206439
 20
8.1566908848
 30
0.0
 10
11.2441337093
 20
8.162432136
 30
0.0
 10
11.2374061898
 20
8.170584278
 30
0.0
 10
11.2311090831
 20
8.1790513376
 30
0.0
 10
11.2254951784
 20
8.1879940064
 30
0.0
 10
11.2206918953
 20
8.1973512272
 30
0.0
 10
11.2175289928
 20
8.2045495708
 30
0.0
 10
11.2148352332
 20
8.2119096844
 30
0.0
 10
11.2126417576
 20
8.2194038973
 30
0.0
 10
11.2112538767
 20
8.2257420908
 30
0.0
 10
11.2104231776
 20
8.2308446413
 30
0.0
 10
11.2097839259
 20
8.2359490482
 30
0.0
 10
11.2093459058
 20
8.2423441252
 30
0.0
 10
11.2094053576
 20
8.248737292
 30
0.0
 10
11.2097579564
 20
8.2538149942
 30
0.0
 10
11.2103122368
 20
8.2588464875
 30
0.0
 10
11.2109579349
 20
8.2625872646
 30
0.0
 10
11.2114900738
 20
8.2650538769
 30
0.0
  0
SPLINE
  5
364
100
AcDbEntity
  8
0
100
AcDbSpline
 62
7
  6
CONTINUOUS
 70
0
 71
3
 72
80
 73
76
 74
0
 42
0.0000001
 43
0.0000001
 44
0.0000000001
 40
0.0
 40
0.0
 40
0.0
 40
0.0
 40
0.0027164327
 40
0.0054532447
 40
0.0082303176
 40
0.0110666212
 40
0.0139798388
 40
0.016986154
 40
0.0201001347
 40
0.0233346582
 40
0.0267010284
 40
0.0302089968
 40
0.0338669183
 40
0.0376819076
 40
0.0416598906
 40
0.0458058349
 40
0.0501237838
 40
0.0546169826
 40
0.0592880207
 40
0.0641388059
 40
0.0691707482
 40
0.0743847477
 40
0.0853596785
 40
0.0970635549
 40
0.1094903305
 40
0.1226296146
 40
0.1364673135
 40
0.1509861535
 40
0.1661660759
 40
0.1819845508
 40
0.1984168195
 40
0.2154361185
 40
0.2330138792
 40
0.2511198904
 40
0.2697224401
 40
0.2887884373
 40
0.3082835515
 40
0.3281723331
 40
0.348418324
 40
0.368984158
 40
0.3898316649
 40
0.4109219833
 40
0.4536720365
 40
0.4969140898
 40
0.5403224212
 40
0.5835697178
 40
0.6263302119
 40
0.6682828124
 40
0.6888582723
 40
0.7091151075
 40
0.7290159233
 40
0.74852422
 40
0.7676045125
 40
0.7862224423
 40
0.804344885
 40
0.8219400731
 40
0.8389777322
 40
0.8554292445
 40
0.8712678001
 40
0.8864685754
 40
0.9010089485
 40
0.9148687687
 40
0.92803068
 40
0.940480496
 40
0.9522076877
 40
0.9577984663
 40
0.9632066952
 40
0.9684323943
 40
0.9734759977
 40
0.9783383604
 40
0.9830208115
 40
0.987525367
 40
0.9918546057
 40
0.996011597
 40
1.0
 40
1.0
 40
1.0
 40
1.0
 10
12.8886032637
 20
7.4703410248
 30
0.0
 10
12.8877997893
 20
7.4703967503
 30
0.0
 10
12.8861909269
 20
7.4705813469
 30
0.0
 10
12.8837981252
 20
7.4710753343
 30
0.0
 10
12.8814233965
 20
7.4717862627
 30
0.0
 10
12.8790684546
 20
7.4727135212
 30
0.0
 10
12.8767345038
 20
7.4738562372
 30
0.0
 10
12.8744227308
 20
7.4752135145
 30
0.0
 10
12.8721342367
 20
7.4767844339
 30
0.0
 10
12.8698699869
 20
7.478567932
 30
0.0
 10
12.8676310082
 20
7.4805630272
 30
0.0
 10
12.8654182413
 20
7.4827685974
 30
0.0
 10
12.8632326407
 20
7.4851834884
 30
0.0
 10
12.86107522
 20
7.487806507
 30
0.0
 10
12.8589468996
 20
7.4906363053
 30
0.0
 10
12.8568487075
 20
7.4936715161
 30
0.0
 10
12.8547816134
 20
7.4969106326
 30
0.0
 10
12.8527465824
 20
7.5003520529
 30
0.0
 10
12.8507446417
 20
7.5039941035
 30
0.0
 10
12.8487767212
 20
7.5078349615
 30
0.0
 10
12.8468437939
 20
7.5118727493
 30
0.0
 10
12.8442704529
 20
7.517614898
 30
0.0
 10
12.8411585147
 20
7.5252803028
 30
0.0
 10
12.8376397528
 20
7.5350786292
 30
0.0
 10
12.8342824191
 20
7.5456088337
 30
0.0
 10
12.8310932703
 20
7.5568499525
 30
0.0
 10
12.8280787376
 20
7.5687797671
 30
0.0
 10
12.8252449346
 20
7.5813745184
 30
0.0
 10
12.8225976194
 20
7.5946090819
 30
0.0
 10
12.8201421828
 20
7.6084569957
 30
0.0
 10
12.8178836201
 20
7.6228905274
 30
0.0
 10
12.8158265238
 20
7.6378807365
 30
0.0
 10
12.8139750814
 20
7.653397546
 30
0.0
 10
12.8123330634
 20
7.6694098079
 30
0.0
 10
12.8109038181
 20
7.6858853638
 30
0.0
 10
12.8096902508
 20
7.7027911095
 30
0.0
 10
12.8086948313
 20
7.7200930673
 30
0.0
 10
12.8079195898
 20
7.7377564591
 30
0.0
 10
12.8073661113
 20
7.7557457788
 30
0.0
 10
12.8070355373
 20
7.7740248488
 30
0.0
 10
12.8069285247
 20
7.7925569411
 30
0.0
 10
12.807085031
 20
7.8176663514
 30
0.0
 10
12.8078443742
 20
7.8494096118
 30
0.0
 10
12.809633936
 20
7.8877373952
 30
0.0
 10
12.8122918188
 20
7.9261626247
 30
0.0
 10
12.8157966391
 20
7.9643765412
 30
0.0
 10
12.8201201448
 20
8.00207208
 30
0.0
 10
12.8244032224
 20
8.0329975605
 30
0.0
 10
12.8282206916
 20
8.0572446091
 30
0.0
 10
12.8312463663
 20
8.0749960838
 30
0.0
 10
12.8344468687
 20
8.0923952557
 30
0.0
 10
12.8378157739
 20
8.1094071716
 30
0.0
 10
12.8413462728
 20
8.1259976332
 30
0.0
 10
12.8450312357
 20
8.1421333084
 30
0.0
 10
12.8488632201
 20
8.1577817837
 30
0.0
 10
12.8528344865
 20
8.1729116323
 30
0.0
 10
12.8569370163
 20
8.187492483
 30
0.0
 10
12.8611625142
 20
8.2014950909
 30
0.0
 10
12.8655024384
 20
8.2148913971
 30
0.0
 10
12.8699480187
 20
8.2276545822
 30
0.0
 10
12.874490279
 20
8.2397591349
 30
0.0
 10
12.8791200541
 20
8.2511808953
 30
0.0
 10
12.8838280174
 20
8.2618972069
 30
0.0
 10
12.8886046967
 20
8.271886675
 30
0.0
 10
12.892697187
 20
8.2797091961
 30
0.0
 10
12.8960049679
 20
8.2855801023
 30
0.0
 10
12.8984574224
 20
8.2897190133
 30
0.0
 10
12.9009198864
 20
8.2936619826
 30
0.0
 10
12.9033911408
 20
8.2974070537
 30
0.0
 10
12.9058699285
 20
8.3009523725
 30
0.0
 10
12.9083550843
 20
8.3042961752
 30
0.0
 10
12.9108453815
 20
8.3074368623
 30
0.0
 10
12.9133396785
 20
8.3103728787
 30
0.0
 10
12.9158366057
 20
8.3131026311
 30
0.0
 10
12.9175367664
 20
8.3148190104
 30
0.0
 10
12.9183873104
 20
8.3156405729
 30
0.0
  0
SPLINE
  5
365
100
AcDbEntity
  8
0
100
AcDbSpline
 62
7
  6
CONTINUOUS
 70
0
 71
3
 72
73
 73
69
 74
0
 42
0.0000001
 43
0.0000001
 44
0.0000000001
 40
0.0
 40
0.0
 40
0.0
 40
0.0
 40
0.003888158
 40
0.00793453
 40
0.0121424545
 40
0.0165147245
 40
0.0210537193
 40
0.0257613561
 40
0.0306389886
 40
0.0356874595
 40
0.0462979645
 40
0.057593527
 40
0.0695694391
 40
0.0822170854
 40
0.0955245076
 40
0.109476859
 40
0.1240567902
 40
0.1392447181
 40
0.1550190179
 40
0.1713562586
 40
0.1882313812
 40
0.2056178167
 40
0.2234876029
 40
0.2418115391
 40
0.260559291
 40
0.279699464
 40
0.2991997122
 40
0.3190268502
 40
0.3595246125
 40
0.4009142557
 40
0.4429084572
 40
0.4852144645
 40
0.5275367606
 40
0.5695796857
 40
0.6110500563
 40
0.6516598133
 40
0.6715543697
 40
0.6911294516
 40
0.7103516841
 40
0.7291885321
 40
0.7476084002
 40
0.7655807029
 40
0.7830759632
 40
0.8000659552
 40
0.816523803
 40
0.832424084
 40
0.8477429844
 40
0.8624584964
 40
0.876550566
 40
0.8900013042
 40
0.9027952922
 40
0.9149199278
 40
0.9263658059
 40
0.9371272639
 40
0.9472031429
 40
0.9519855063
 40
0.9565985865
 40
0.961043988
 40
0.9653238287
 40
0.9694407631
 40
0.973398162
 40
0.977200097
 40
0.9808514547
 40
0.984358102
 40
0.9877268954
 40
0.9909658603
 40
0.9940843021
 40
1.0
 40
1.0
 40
1.0
 40
1.0
 10
12.8708767651
 20
7.509972513
 30
0.0
 10
12.8716501989
 20
7.5107195927
 30
0.0
 10
12.8731962982
 20
7.5122778248
 30
0.0
 10
12.8754687934
 20
7.5147512592
 30
0.0
 10
12.8777391007
 20
7.5174055064
 30
0.0
 10
12.8800060238
 20
7.5202392316
 30
0.0
 10
12.8822685996
 20
7.5232511077
 30
0.0
 10
12.8845257979
 20
7.5264398017
 30
0.0
 10
12.8867766397
 20
7.5298038676
 30
0.0
 10
12.8898184685
 20
7.5346009166
 30
0.0
 10
12.8935897867
 20
7.5410342373
 30
0.0
 10
12.898001428
 20
7.549303721
 30
0.0
 10
12.9023631022
 20
7.5582310394
 30
0.0
 10
12.906666698
 20
7.5677997353
 30
0.0
 10
12.9109042341
 20
7.5779922992
 30
0.0
 10
12.9150678124
 20
7.5887899314
 30
0.0
 10
12.9191496501
 20
7.6001726898
 30
0.0
 10
12.9231420997
 20
7.612119502
 30
0.0
 10
12.9270377
 20
7.6246082059
 30
0.0
 10
12.9308291608
 20
7.6376156093
 30
0.0
 10
12.9345093779
 20
7.6511175447
 30
0.0
 10
12.9380714573
 20
7.6650889057
 30
0.0
 10
12.9415087437
 20
7.6795036924
 30
0.0
 10
12.9448148049
 20
7.6943350743
 30
0.0
 10
12.9479834489
 20
7.709555444
 30
0.0
 10
12.9510087456
 20
7.7251364509
 30
0.0
 10
12.9538850712
 20
7.7410490913
 30
0.0
 10
12.9575399667
 20
7.7628217409
 30
0.0
 10
12.9616894418
 20
7.790647571
 30
0.0
 10
12.9659632239
 20
7.8246440628
 30
0.0
 10
12.969533599
 20
7.8592244006
 30
0.0
 10
12.9723739092
 20
7.8941310503
 30
0.0
 10
12.9744629187
 20
7.9291042034
 30
0.0
 10
12.9757851549
 20
7.9638835421
 30
0.0
 10
12.9763308507
 20
7.9982100375
 30
0.0
 10
12.9761341525
 20
8.0264147923
 30
0.0
 10
12.9755774695
 20
8.0485553907
 30
0.0
 10
12.9749679461
 20
8.0647764841
 30
0.0
 10
12.9741647879
 20
8.0806962573
 30
0.0
 10
12.9731694895
 20
8.0962850788
 30
0.0
 10
12.9719839435
 20
8.11151391
 30
0.0
 10
12.970610383
 20
8.126354393
 30
0.0
 10
12.9690513861
 20
8.1407788953
 30
0.0
 10
12.9673098979
 20
8.1547605733
 30
0.0
 10
12.9653892066
 20
8.168273421
 30
0.0
 10
12.9632929277
 20
8.1812923119
 30
0.0
 10
12.9610250011
 20
8.1937930564
 30
0.0
 10
12.9585897119
 20
8.2057524591
 30
0.0
 10
12.9559916491
 20
8.2171483592
 30
0.0
 10
12.9532356903
 20
8.2279596701
 30
0.0
 10
12.9503270057
 20
8.2381664503
 30
0.0
 10
12.9472710534
 20
8.2477499285
 30
0.0
 10
12.9440735092
 20
8.2566926441
 30
0.0
 10
12.9407402801
 20
8.264978135
 30
0.0
 10
12.9378056165
 20
8.2714306316
 30
0.0
 10
12.9353872879
 20
8.2762427862
 30
0.0
 10
12.9335750758
 20
8.2796151211
 30
0.0
 10
12.931733634
 20
8.2828122052
 30
0.0
 10
12.9298637845
 20
8.2858325951
 30
0.0
 10
12.9279663203
 20
8.2886748825
 30
0.0
 10
12.9260421165
 20
8.2913377924
 30
0.0
 10
12.9240920002
 20
8.2938201074
 30
0.0
 10
12.9221167783
 20
8.2961206539
 30
0.0
 10
12.9201173011
 20
8.2982384167
 30
0.0
 10
12.9180944591
 20
8.3001723129
 30
0.0
 10
12.9160487247
 20
8.3019215796
 30
0.0
 10
12.9133407275
 20
8.3039698602
 30
0.0
 10
12.9112048055
 20
8.3052861729
 30
0.0
 10
12.9097508468
 20
8.3060363315
 30
0.0
  0
SPLINE
  5
366
100
AcDbEntity
  8
0
100
AcDbSpline
 62
7
  6
CONTINUOUS
 70
0
 71
3
 72
23
 73
19
 74
0
 42
0.0000001
 43
0.0000001
 44
0.0000000001
 40
0.0
 40
0.0
 40
0.0
 40
0.0
 40
0.0577246198
 40
0.1173320982
 40
0.1785736765
 40
0.2411911447
 40
0.3049184956
 40
0.3694835237
 40
0.434609394
 40
0.5000161937
 40
0.5654224726
 40
0.6305467826
 40
0.6951092183
 40
0.7588329591
 40
0.8214458204
 40
0.8826818227
 40
0.9422827907
 40
1.0
 40
1.0
 40
1.0
 40
1.0
 10
12.8101898315
 20
7.6968475873
 30
0.0
 10
12.8119487367
 20
7.7047627953
 30
0.0
 10
12.8153396073
 20
7.7208928276
 30
0.0
 10
12.8199836846
 20
7.7455441525
 30
0.0
 10
12.824252645
 20
7.770960373
 30
0.0
 10
12.8281267483
 20
7.7970248269
 30
0.0
 10
12.8315881251
 20
7.8236180649
 30
0.0
 10
12.8346208156
 20
7.8506181242
 30
0.0
 10
12.8372108524
 20
7.8779011748
 30
0.0
 10
12.8393463202
 20
7.9053420712
 30
0.0
 10
12.8410174104
 20
7.9328149381
 30
0.0
 10
12.8422164689
 20
7.9601937514
 30
0.0
 10
12.8429380312
 20
7.9873529215
 30
0.0
 10
12.8431788464
 20
8.0141678804
 30
0.0
 10
12.8429378954
 20
8.0405156373
 30
0.0
 10
12.8422163961
 20
8.0662754295
 30
0.0
 10
12.8410178069
 20
8.091328998
 30
0.0
 10
12.8398847448
 20
8.1077706427
 30
0.0
 10
12.8392346756
 20
8.115851781
 30
0.0
  0
SPLINE
  5
367
100
AcDbEntity
  8
0
100
AcDbSpline
 62
7
  6
CONTINUOUS
 70
0
 71
3
 72
21
 73
17
 74
0
 42
0.0000001
 43
0.0000001
 44
0.0000000001
 40
0.0
 40
0.0
 40
0.0
 40
0.0
 40
0.061653237
 40
0.123329498
 40
0.1850515502
 40
0.2468416698
 40
0.3087213548
 40
0.370711108
 40
0.4328302426
 40
0.495096636
 40
0.5575265765
 40
0.6201345494
 40
0.682933126
 40
0.7459332432
 40
0.8725261314
 40
1.0
 40
1.0
 40
1.0
 40
1.0
 10
9.6971277603
 20
6.8742504245
 30
0.0
 10
9.6955510535
 20
6.8727274322
 30
0.0
 10
9.6923144664
 20
6.869765059
 30
0.0
 10
9.6872267615
 20
6.8655880427
 30
0.0
 10
9.6819181454
 20
6.8616870973
 30
0.0
 10
9.6764021575
 20
6.8580722396
 30
0.0
 10
9.6706926333
 20
6.8547525579
 30
0.0
 10
9.6648040042
 20
6.8517363714
 30
0.0
 10
9.6587510969
 20
6.8490312741
 30
0.0
 10
9.6525491517
 20
6.8466441086
 30
0.0
 10
9.6462138023
 20
6.8445808233
 30
0.0
 10
9.6397610536
 20
6.8428466064
 30
0.0
 10
9.633206957
 20
6.8414458413
 30
0.0
 10
9.624342604
 20
6.8400252752
 30
0.0
 10
9.6130862824
 20
6.8391023392
 30
0.0
 10
9.6040368783
 20
6.8392789479
 30
0.0
 10
9.5995152677
 20
6.8395925226
 30
0.0
  0
SPLINE
  5
368
100
AcDbEntity
  8
0
100
AcDbSpline
 62
7
  6
CONTINUOUS
 70
0
 71
3
 72
21
 73
17
 74
0
 42
0.0000001
 43
0.0000001
 44
0.0000000001
 40
0.0
 40
0.0
 40
0.0
 40
0.0
 40
0.061653237
 40
0.123329498
 40
0.1850515502
 40
0.2468416698
 40
0.3087213548
 40
0.370711108
 40
0.4328302426
 40
0.495096636
 40
0.5575265765
 40
0.6201345494
 40
0.682933126
 40
0.7459332432
 40
0.8725261314
 40
1.0
 40
1.0
 40
1.0
 40
1.0
 10
12.4364935616
 20
6.6842747609
 30
0.0
 10
12.4349168548
 20
6.6827517687
 30
0.0
 10
12.4316802677
 20
6.6797893954
 30
0.0
 10
12.4265925628
 20
6.6756123791
 30
0.0
 10
12.4212839467
 20
6.6717114338
 30
0.0
 10
12.4157679588
 20
6.6680965761
 30
0.0
 10
12.4100584346
 20
6.6647768944
 30
0.0
 10
12.4041698055
 20
6.6617607079
 30
0.0
 10
12.3981168982
 20
6.6590556105
 30
0.0
 10
12.3919149529
 20
6.656668445
 30
0.0
 10
12.3855796036
 20
6.6546051597
 30
0.0
 10
12.3791268549
 20
6.6528709429
 30
0.0
 10
12.3725727583
 20
6.6514701777
 30
0.0
 10
12.3637084053
 20
6.6500496117
 30
0.0
 10
12.3524520837
 20
6.6491266757
 30
0.0
 10
12.3434026796
 20
6.6493032843
 30
0.0
 10
12.338881069
 20
6.649616859
 30
0.0
  0
SPLINE
  5
369
100
AcDbEntity
  8
0
100
AcDbSpline
 62
7
  6
CONTINUOUS
 70
0
 71
3
 72
39
 73
35
 74
0
 42
0.0000001
 43
0.0000001
 44
0.0000000001
 40
0.0
 40
0.0
 40
0.0
 40
0.0
 40
0.0311160054
 40
0.0620232808
 40
0.0927351539
 40
0.1232711756
 40
0.1536587326
 40
0.1839312105
 40
0.2141268386
 40
0.2442870981
 40
0.2744549747
 40
0.3046731306
 40
0.33498209
 40
0.365418544
 40
0.3960138629
 40
0.4267928807
 40
0.457772997
 40
0.4889636213
 40
0.5203659688
 40
0.551973177
 40
0.5837707173
 40
0.6157370643
 40
0.6478445906
 40
0.6800606397
 40
0.7123487305
 40
0.7446698622
 40
0.7769838838
 40
0.8092508928
 40
0.841432625
 40
0.8734938027
 40
0.9054033951
 40
0.9371359477
 40
0.9686717614
 40
1.0
 40
1.0
 40
1.0
 40
1.0
 10
11.8414291892
 20
7.5703522431
 30
0.0
 10
11.8414291892
 20
7.5670142995
 30
0.0
 10
11.8411033222
 20
7.5603559741
 30
0.0
 10
11.839629548
 20
7.5505016008
 30
0.0
 10
11.8371863899
 20
7.5409046525
 30
0.0
 10
11.833796943
 20
7.5316590088
 30
0.0
 10
11.8294936411
 20
7.5228537767
 30
0.0
 10
11.8243177845
 20
7.5145742658
 30
0.0
 10
11.8183192584
 20
7.5069006309
 30
0.0
 10
11.8115559954
 20
7.4999072027
 30
0.0
 10
11.804093419
 20
7.493661685
 30
0.0
 10
11.7960037786
 20
7.4882244806
 30
0.0
 10
11.7873654368
 20
7.48364804
 30
0.0
 10
11.7782620357
 20
7.4799763782
 30
0.0
 10
11.7687816431
 20
7.4772446714
 30
0.0
 10
11.7590158698
 20
7.4754789486
 30
0.0
 10
11.7490589703
 20
7.4746958609
 30
0.0
 10
11.7390069196
 20
7.4749025358
 30
0.0
 10
11.7289564861
 20
7.4760965917
 30
0.0
 10
11.719004317
 20
7.4782661844
 30
0.0
 10
11.7092460347
 20
7.4813901529
 30
0.0
 10
11.6997753283
 20
7.4854381977
 30
0.0
 10
11.6906830759
 20
7.4903712066
 30
0.0
 10
11.6820565034
 20
7.4961416482
 30
0.0
 10
11.6739783692
 20
7.5026940226
 30
0.0
 10
11.6665261865
 20
7.5099653802
 30
0.0
 10
11.6597714669
 20
7.5178858933
 30
0.0
 10
11.6537790755
 20
7.5263795535
 30
0.0
 10
11.6486066159
 20
7.5353648685
 30
0.0
 10
11.6443039
 20
7.5447556698
 30
0.0
 10
11.6409124144
 20
7.5544617613
 30
0.0
 10
11.6384650169
 20
7.5643902846
 30
0.0
 10
11.6369854167
 20
7.5744446446
 30
0.0
 10
11.6366529019
 20
7.5811928162
 30
0.0
 10
11.6366529019
 20
7.5845535269
 30
0.0
  0
SPLINE
  5
36A
100
AcDbEntity
  8
0
100
AcDbSpline
 62
7
  6
CONTINUOUS
 70
0
 71
3
 72
21
 73
17
 74
0
 42
0.0000001
 43
0.0000001
 44
0.0000000001
 40
0.0
 40
0.0
 40
0.0
 40
0.0
 40
0.061653237
 40
0.123329498
 40
0.1850515502
 40
0.2468416698
 40
0.3087213548
 40
0.370711108
 40
0.4328302426
 40
0.495096636
 40
0.5575265765
 40
0.6201345494
 40
0.682933126
 40
0.7459332432
 40
0.8725261314
 40
1.0
 40
1.0
 40
1.0
 40
1.0
 10
12.4364935616
 20
9.4236405622
 30
0.0
 10
12.4349168548
 20
9.42211757
 30
0.0
 10
12.4316802677
 20
9.4191551967
 30
0.0
 10
12.4265925628
 20
9.4149781804
 30
0.0
 10
12.4212839467
 20
9.4110772351
 30
0.0
 10
12.4157679588
 20
9.4074623774
 30
0.0
 10
12.4100584346
 20
9.4041426956
 30
0.0
 10
12.4041698055
 20
9.4011265092
 30
0.0
 10
12.3981168982
 20
9.3984214118
 30
0.0
 10
12.3919149529
 20
9.3960342463
 30
0.0
 10
12.3855796036
 20
9.393970961
 30
0.0
 10
12.3791268549
 20
9.3922367442
 30
0.0
 10
12.3725727583
 20
9.390835979
 30
0.0
 10
12.3637084053
 20
9.3894154129
 30
0.0
 10
12.3524520837
 20
9.388492477
 30
0.0
 10
12.3434026796
 20
9.3886690856
 30
0.0
 10
12.338881069
 20
9.3889826603
 30
0.0
  0
SPLINE
  5
36B
100
AcDbEntity
  8
0
100
AcDbSpline
 62
7
  6
CONTINUOUS
 70
0
 71
3
 72
21
 73
17
 74
0
 42
0.0000001
 43
0.0000001
 44
0.0000000001
 40
0.0
 40
0.0
 40
0.0
 40
0.0
 40
0.061653237
 40
0.123329498
 40
0.1850515502
 40
0.2468416698
 40
0.3087213548
 40
0.370711108
 40
0.4328302426
 40
0.495096636
 40
0.5575265765
 40
0.6201345494
 40
0.682933126
 40
0.7459332432
 40
0.8725261314
 40
1.0
 40
1.0
 40
1.0
 40
1.0
 10
9.6971277603
 20
9.6136162258
 30
0.0
 10
9.6955510535
 20
9.6120932335
 30
0.0
 10
9.6923144664
 20
9.6091308603
 30
0.0
 10
9.6872267615
 20
9.604953844
 30
0.0
 10
9.6819181454
 20
9.6010528986
 30
0.0
 10
9.6764021575
 20
9.5974380409
 30
0.0
 10
9.6706926333
 20
9.5941183592
 30
0.0
 10
9.6648040042
 20
9.5911021727
 30
0.0
 10
9.6587510969
 20
9.5883970754
 30
0.0
 10
9.6525491517
 20
9.5860099099
 30
0.0
 10
9.6462138023
 20
9.5839466246
 30
0.0
 10
9.6397610536
 20
9.5822124077
 30
0.0
 10
9.633206957
 20
9.5808116426
 30
0.0
 10
9.624342604
 20
9.5793910765
 30
0.0
 10
9.6130862824
 20
9.5784681405
 30
0.0
 10
9.6040368783
 20
9.5786447491
 30
0.0
 10
9.5995152677
 20
9.5789583239
 30
0.0
  0
SPLINE
  5
36C
100
AcDbEntity
  8
0
100
AcDbSpline
 62
7
  6
CONTINUOUS
 70
0
 71
3
 72
15
 73
11
 74
0
 42
0.0000001
 43
0.0000001
 44
0.0000000001
 40
0.0
 40
0.0
 40
0.0
 40
0.0
 40
0.1273482292
 40
0.2538605354
 40
0.3795879276
 40
0.5046050833
 40
0.6290174349
 40
0.7529533662
 40
0.8765605734
 40
1.0
 40
1.0
 40
1.0
 40
1.0
 10
10.12329913
 20
7.7252095898
 30
0.0
 10
10.12329913
 20
7.7278120197
 30
0.0
 10
10.1235476086
 20
7.733003395
 30
0.0
 10
10.1246713347
 20
7.7406906131
 30
0.0
 10
10.1265346629
 20
7.7481846801
 30
0.0
 10
10.1291207666
 20
7.7554155083
 30
0.0
 10
10.1324059015
 20
7.7623164193
 30
0.0
 10
10.1363601335
 20
7.7688236897
 30
0.0
 10
10.1409462822
 20
7.774876345
 30
0.0
 10
10.1443994183
 20
7.7785736538
 30
0.0
 10
10.1462137787
 20
7.7803261839
 30
0.0
  0
SPLINE
  5
36D
100
AcDbEntity
  8
0
100
AcDbSpline
 62
7
  6
CONTINUOUS
 70
0
 71
3
 72
39
 73
35
 74
0
 42
0.0000001
 43
0.0000001
 44
0.0000000001
 40
0.0
 40
0.0
 40
0.0
 40
0.0
 40
0.0299424741
 40
0.0599093236
 40
0.0899243299
 40
0.1200101071
 40
0.1501875628
 40
0.1804754121
 40
0.2108897558
 40
0.2414437341
 40
0.2721472619
 40
0.3030068476
 40
0.3340255003
 40
0.3652027176
 40
0.3965345493
 40
0.4280137317
 40
0.459629888
 40
0.4913697842
 40
0.5232176352
 40
0.5551554541
 40
0.5871634377
 40
0.6192203778
 40
0.6513040905
 40
0.68339186
 40
0.715460889
 40
0.7474887514
 40
0.779453839
 40
0.8113357971
 40
0.8431159663
 40
0.8747776774
 40
0.9063069717
 40
0.937691796
 40
0.9689252179
 40
1.0
 40
1.0
 40
1.0
 40
1.0
 10
10.2636259557
 20
7.6587721611
 30
0.0
 10
10.2622241258
 20
7.6574181032
 30
0.0
 10
10.2593102474
 20
7.6548192552
 30
0.0
 10
10.254641749
 20
7.6512787966
 30
0.0
 10
10.2496994461
 20
7.6481138554
 30
0.0
 10
10.244510952
 20
7.6453421875
 30
0.0
 10
10.2391047933
 20
7.6429789334
 30
0.0
 10
10.2335108051
 20
7.6410370839
 30
0.0
 10
10.2277598127
 20
7.6395272648
 30
0.0
 10
10.2218834992
 20
7.6384577214
 30
0.0
 10
10.2159142183
 20
7.6378342677
 30
0.0
 10
10.2098848193
 20
7.6376602536
 30
0.0
 10
10.2038284629
 20
7.6379365547
 30
0.0
 10
10.1977784401
 20
7.6386615748
 30
0.0
 10
10.1917679917
 20
7.6398312579
 30
0.0
 10
10.1858301274
 20
7.6414391129
 30
0.0
 10
10.1799974484
 20
7.6434762516
 30
0.0
 10
10.1743019702
 20
7.6459314385
 30
0.0
 10
10.168774951
 20
7.6487911536
 30
0.0
 10
10.1634467181
 20
7.6520396598
 30
0.0
 10
10.158346505
 20
7.6556590953
 30
0.0
 10
10.1535022944
 20
7.6596295729
 30
0.0
 10
10.1489406667
 20
7.6639292877
 30
0.0
 10
10.1446866561
 20
7.6685346358
 30
0.0
 10
10.1407636151
 20
7.6734203422
 30
0.0
 10
10.1371930874
 20
7.6785595977
 30
0.0
 10
10.1339946923
 20
7.6839242041
 30
0.0
 10
10.131186006
 20
7.6894847243
 30
0.0
 10
10.1287824854
 20
7.695210642
 30
0.0
 10
10.1267973436
 20
7.7010705475
 30
0.0
 10
10.1252415787
 20
7.7070322263
 30
0.0
 10
10.1241236999
 20
7.7130631179
 30
0.0
 10
10.1234500404
 20
7.7191295989
 30
0.0
 10
10.12329913
 20
7.7231868866
 30
0.0
 10
10.12329913
 20
7.7252095898
 30
0.0
  0
SPLINE
  5
36E
100
AcDbEntity
  8
0
100
AcDbSpline
 62
7
  6
CONTINUOUS
 70
0
 71
3
 72
39
 73
35
 74
0
 42
0.0000001
 43
0.0000001
 44
0.0000000001
 40
0.0
 40
0.0
 40
0.0
 40
0.0
 40
0.0299424741
 40
0.0599093236
 40
0.0899243299
 40
0.1200101071
 40
0.1501875628
 40
0.1804754121
 40
0.2108897558
 40
0.2414437341
 40
0.2721472619
 40
0.3030068476
 40
0.3340255003
 40
0.3652027176
 40
0.3965345493
 40
0.4280137317
 40
0.459629888
 40
0.4913697842
 40
0.5232176352
 40
0.5551554541
 40
0.5871634377
 40
0.6192203778
 40
0.6513040905
 40
0.68339186
 40
0.715460889
 40
0.7474887514
 40
0.779453839
 40
0.8113357971
 40
0.8431159663
 40
0.8747776774
 40
0.9063069717
 40
0.937691796
 40
0.9689252179
 40
1.0
 40
1.0
 40
1.0
 40
1.0
 10
10.2636259557
 20
8.8362357956
 30
0.0
 10
10.2622241258
 20
8.8348817377
 30
0.0
 10
10.2593102474
 20
8.8322828897
 30
0.0
 10
10.254641749
 20
8.8287424311
 30
0.0
 10
10.2496994461
 20
8.8255774899
 30
0.0
 10
10.244510952
 20
8.8228058221
 30
0.0
 10
10.2391047933
 20
8.8204425679
 30
0.0
 10
10.2335108051
 20
8.8185007184
 30
0.0
 10
10.2277598127
 20
8.8169908993
 30
0.0
 10
10.2218834992
 20
8.8159213559
 30
0.0
 10
10.2159142183
 20
8.8152979022
 30
0.0
 10
10.2098848193
 20
8.8151238882
 30
0.0
 10
10.2038284629
 20
8.8154001892
 30
0.0
 10
10.1977784401
 20
8.8161252093
 30
0.0
 10
10.1917679917
 20
8.8172948924
 30
0.0
 10
10.1858301274
 20
8.8189027474
 30
0.0
 10
10.1799974484
 20
8.8209398862
 30
0.0
 10
10.1743019702
 20
8.823395073
 30
0.0
 10
10.168774951
 20
8.8262547881
 30
0.0
 10
10.1634467181
 20
8.8295032943
 30
0.0
 10
10.158346505
 20
8.8331227298
 30
0.0
 10
10.1535022944
 20
8.8370932074
 30
0.0
 10
10.1489406667
 20
8.8413929222
 30
0.0
 10
10.1446866561
 20
8.8459982703
 30
0.0
 10
10.1407636151
 20
8.8508839767
 30
0.0
 10
10.1371930874
 20
8.8560232322
 30
0.0
 10
10.1339946923
 20
8.8613878386
 30
0.0
 10
10.131186006
 20
8.8669483588
 30
0.0
 10
10.1287824854
 20
8.8726742765
 30
0.0
 10
10.1267973436
 20
8.878534182
 30
0.0
 10
10.1252415787
 20
8.8844958608
 30
0.0
 10
10.1241236999
 20
8.8905267524
 30
0.0
 10
10.1234500404
 20
8.8965932334
 30
0.0
 10
10.12329913
 20
8.9006505211
 30
0.0
 10
10.12329913
 20
8.9026732243
 30
0.0
  0
SPLINE
  5
36F
100
AcDbEntity
  8
0
100
AcDbSpline
 62
7
  6
CONTINUOUS
 70
0
 71
3
 72
39
 73
35
 74
0
 42
0.0000001
 43
0.0000001
 44
0.0000000001
 40
0.0
 40
0.0
 40
0.0
 40
0.0
 40
0.0299424741
 40
0.0599093236
 40
0.0899243299
 40
0.1200101071
 40
0.1501875628
 40
0.1804754121
 40
0.2108897558
 40
0.2414437341
 40
0.2721472619
 40
0.3030068476
 40
0.3340255003
 40
0.3652027176
 40
0.3965345493
 40
0.4280137317
 40
0.459629888
 40
0.4913697842
 40
0.5232176352
 40
0.5551554541
 40
0.5871634377
 40
0.6192203778
 40
0.6513040905
 40
0.68339186
 40
0.715460889
 40
0.7474887514
 40
0.779453839
 40
0.8113357971
 40
0.8431159663
 40
0.8747776774
 40
0.9063069717
 40
0.937691796
 40
0.9689252179
 40
1.0
 40
1.0
 40
1.0
 40
1.0
 10
11.8033117389
 20
8.7603679147
 30
0.0
 10
11.801909909
 20
8.7590138569
 30
0.0
 10
11.7989960307
 20
8.7564150089
 30
0.0
 10
11.7943275322
 20
8.7528745503
 30
0.0
 10
11.7893852294
 20
8.7497096091
 30
0.0
 10
11.7841967352
 20
8.7469379412
 30
0.0
 10
11.7787905765
 20
8.7445746871
 30
0.0
 10
11.7731965884
 20
8.7426328376
 30
0.0
 10
11.7674455959
 20
8.7411230185
 30
0.0
 10
11.7615692824
 20
8.7400534751
 30
0.0
 10
11.7556000016
 20
8.7394300214
 30
0.0
 10
11.7495706026
 20
8.7392560073
 30
0.0
 10
11.7435142461
 20
8.7395323084
 30
0.0
 10
11.7374642234
 20
8.7402573285
 30
0.0
 10
11.7314537749
 20
8.7414270116
 30
0.0
 10
11.7255159107
 20
8.7430348666
 30
0.0
 10
11.7196832316
 20
8.7450720053
 30
0.0
 10
11.7139877534
 20
8.7475271922
 30
0.0
 10
11.7084607343
 20
8.7503869072
 30
0.0
 10
11.7031325014
 20
8.7536354135
 30
0.0
 10
11.6980322882
 20
8.757254849
 30
0.0
 10
11.6931880776
 20
8.7612253266
 30
0.0
 10
11.6886264499
 20
8.7655250414
 30
0.0
 10
11.6843724394
 20
8.7701303895
 30
0.0
 10
11.6804493984
 20
8.7750160959
 30
0.0
 10
11.6768788706
 20
8.7801553513
 30
0.0
 10
11.6736804755
 20
8.7855199578
 30
0.0
 10
11.6708717893
 20
8.791080478
 30
0.0
 10
11.6684682687
 20
8.7968063957
 30
0.0
 10
11.6664831268
 20
8.8026663012
 30
0.0
 10
11.6649273619
 20
8.80862798
 30
0.0
 10
11.6638094831
 20
8.8146588716
 30
0.0
 10
11.6631358236
 20
8.8207253526
 30
0.0
 10
11.6629849133
 20
8.8247826402
 30
0.0
 10
11.6629849133
 20
8.8268053435
 30
0.0
  0
SPLINE
  5
370
100
AcDbEntity
  8
0
100
AcDbSpline
 62
7
  6
CONTINUOUS
 70
0
 71
3
 72
41
 73
37
 74
0
 42
0.0000001
 43
0.0000001
 44
0.0000000001
 40
0.0
 40
0.0
 40
0.0
 40
0.0
 40
0.0311444983
 40
0.062442467
 40
0.093887251
 40
0.1254695609
 40
0.157177086
 40
0.1889950997
 40
0.2209066479
 40
0.2528929497
 40
0.284933762
 40
0.3170077852
 40
0.3490930781
 40
0.3811674822
 40
0.4132090489
 40
0.445196464
 40
0.4771094635
 40
0.5089292351
 40
0.540638799
 40
0.5722233621
 40
0.6036706378
 40
0.6349711269
 40
0.6661183495
 40
0.6971090237
 40
0.7279431823
 40
0.7586242225
 40
0.7891588828
 40
0.8195571428
 40
0.8498320452
 40
0.86493089
 40
0.8800050502
 40
0.9100832578
 40
0.9400926753
 40
0.9550812784
 40
0.9700610371
 40
1.0
 40
1.0
 40
1.0
 40
1.0
 10
9.5995152677
 20
9.5789583239
 30
0.0
 10
9.5962013201
 20
9.5791881469
 30
0.0
 10
9.5895714521
 20
9.5798914997
 30
0.0
 10
9.5797070353
 20
9.5816632308
 30
0.0
 10
9.5699482608
 20
9.584144934
 30
0.0
 10
9.5603478672
 20
9.5873232091
 30
0.0
 10
9.5509568324
 20
9.5911810555
 30
0.0
 10
9.5418252574
 20
9.5956978213
 30
0.0
 10
9.5330017862
 20
9.6008493753
 30
0.0
 10
9.5245334352
 20
9.6066082095
 30
0.0
 10
9.5164653235
 20
9.612943596
 30
0.0
 10
9.5088404411
 20
9.6198217454
 30
0.0
 10
9.5016994209
 20
9.6272059872
 30
0.0
 10
9.4950803249
 20
9.6350569629
 30
0.0
 10
9.4890184429
 20
9.643332834
 30
0.0
 10
9.4835461063
 20
9.6519895026
 30
0.0
 10
9.4786925173
 20
9.6609808436
 30
0.0
 10
9.4744835936
 20
9.6702589478
 30
0.0
 10
9.4709418314
 20
9.6797743742
 30
0.0
 10
9.4680861846
 20
9.6894764095
 30
0.0
 10
9.4659319636
 20
9.6993133353
 30
0.0
 10
9.4644907518
 20
9.7092327
 30
0.0
 10
9.4637703413
 20
9.7191815947
 30
0.0
 10
9.4637746872
 20
9.7291069302
 30
0.0
 10
9.4645038867
 20
9.7389557267
 30
0.0
 10
9.4659541539
 20
9.7486753569
 30
0.0
 10
9.4681179065
 20
9.7582139672
 30
0.0
 10
9.4709835305
 20
9.7675202298
 30
0.0
 10
9.4739470806
 20
9.7750484527
 30
0.0
 10
9.4766514638
 20
9.7809028192
 30
0.0
 10
9.4795700359
 20
9.7866298856
 30
0.0
 10
9.4836222952
 20
9.7935570827
 30
0.0
 10
9.4881957556
 20
9.8001407623
 30
0.0
 10
9.4921478934
 20
9.8051731714
 30
0.0
 10
9.496288574
 20
9.8100413162
 30
0.0
 10
9.4996059702
 20
9.8135070369
 30
0.0
 10
9.5019027751
 20
9.8157255953
 30
0.0
  0
SPLINE
  5
371
100
AcDbEntity
  8
0
100
AcDbSpline
 62
7
  6
CONTINUOUS
 70
0
 71
3
 72
39
 73
35
 74
0
 42
0.0000001
 43
0.0000001
 44
0.0000000001
 40
0.0
 40
0.0
 40
0.0
 40
0.0
 40
0.0299424741
 40
0.0599093236
 40
0.0899243299
 40
0.1200101071
 40
0.1501875628
 40
0.1804754121
 40
0.2108897558
 40
0.2414437341
 40
0.2721472619
 40
0.3030068476
 40
0.3340255003
 40
0.3652027176
 40
0.3965345493
 40
0.4280137317
 40
0.459629888
 40
0.4913697842
 40
0.5232176352
 40
0.5551554541
 40
0.5871634377
 40
0.6192203778
 40
0.6513040905
 40
0.68339186
 40
0.715460889
 40
0.7474887514
 40
0.779453839
 40
0.8113357971
 40
0.8431159663
 40
0.8747776774
 40
0.9063069717
 40
0.937691796
 40
0.9689252179
 40
1.0
 40
1.0
 40
1.0
 40
1.0
 10
11.8033117389
 20
7.5220508694
 30
0.0
 10
11.801909909
 20
7.5206968116
 30
0.0
 10
11.7989960307
 20
7.5180979635
 30
0.0
 10
11.7943275322
 20
7.514557505
 30
0.0
 10
11.7893852294
 20
7.5113925638
 30
0.0
 10
11.7841967352
 20
7.5086208959
 30
0.0
 10
11.7787905765
 20
7.5062576417
 30
0.0
 10
11.7731965884
 20
7.5043157922
 30
0.0
 10
11.7674455959
 20
7.5028059732
 30
0.0
 10
11.7615692824
 20
7.5017364298
 30
0.0
 10
11.7556000016
 20
7.5011129761
 30
0.0
 10
11.7495706026
 20
7.500938962
 30
0.0
 10
11.7435142461
 20
7.5012152631
 30
0.0
 10
11.7374642234
 20
7.5019402832
 30
0.0
 10
11.7314537749
 20
7.5031099663
 30
0.0
 10
11.7255159107
 20
7.5047178213
 30
0.0
 10
11.7196832316
 20
7.50675496
 30
0.0
 10
11.7139877534
 20
7.5092101468
 30
0.0
 10
11.7084607343
 20
7.5120698619
 30
0.0
 10
11.7031325014
 20
7.5153183682
 30
0.0
 10
11.6980322882
 20
7.5189378037
 30
0.0
 10
11.6931880776
 20
7.5229082813
 30
0.0
 10
11.6886264499
 20
7.5272079961
 30
0.0
 10
11.6843724394
 20
7.5318133442
 30
0.0
 10
11.6804493984
 20
7.5366990506
 30
0.0
 10
11.6768788706
 20
7.541838306
 30
0.0
 10
11.6736804755
 20
7.5472029125
 30
0.0
 10
11.6708717893
 20
7.5527634326
 30
0.0
 10
11.6684682687
 20
7.5584893504
 30
0.0
 10
11.6664831268
 20
7.5643492558
 30
0.0
 10
11.6649273619
 20
7.5703109347
 30
0.0
 10
11.6638094831
 20
7.5763418263
 30
0.0
 10
11.6631358236
 20
7.5824083073
 30
0.0
 10
11.6629849133
 20
7.5864655949
 30
0.0
 10
11.6629849133
 20
7.5884882982
 30
0.0
  0
SPLINE
  5
372
100
AcDbEntity
  8
0
100
AcDbSpline
 62
7
  6
CONTINUOUS
 70
0
 71
3
 72
37
 73
33
 74
0
 42
0.0000001
 43
0.0000001
 44
0.0000000001
 40
0.0
 40
0.0
 40
0.0
 40
0.0
 40
0.031146624
 40
0.0624481919
 40
0.0938952571
 40
0.1254804469
 40
0.1571906758
 40
0.1890114524
 40
0.2209257687
 40
0.25291484
 40
0.2849584237
 40
0.3170352183
 40
0.381163152
 40
0.4451601237
 40
0.4770758719
 40
0.5088983814
 40
0.5406106743
 40
0.5721979571
 40
0.6036479386
 40
0.6349511145
 40
0.6661010055
 40
0.697094333
 40
0.7279311336
 40
0.7586148063
 40
0.7891520874
 40
0.819552954
 40
0.8498304507
 40
0.8800004308
 40
0.9100812223
 40
0.9400932249
 40
0.9700584477
 40
1.0
 40
1.0
 40
1.0
 40
1.0
 10
11.4521611245
 20
7.5220058562
 30
0.0
 10
11.4503213732
 20
7.5221334434
 30
0.0
 10
11.4466406918
 20
7.5225239414
 30
0.0
 10
11.441164322
 20
7.5235075124
 30
0.0
 10
11.4357465765
 20
7.5248853177
 30
0.0
 10
11.4304167973
 20
7.5266497631
 30
0.0
 10
11.4252032297
 20
7.5287915195
 30
0.0
 10
11.4201337133
 20
7.5312990686
 30
0.0
 10
11.4152352389
 20
7.5341590574
 30
0.0
 10
11.4105339629
 20
7.5373561384
 30
0.0
 10
11.4060547252
 20
7.5408734891
 30
0.0
 10
11.4004126063
 20
7.5459629266
 30
0.0
 10
11.3940331981
 20
7.5530249218
 30
0.0
 10
11.3886798002
 20
7.5608820415
 30
0.0
 10
11.385084971
 20
7.5675419213
 30
0.0
 10
11.382748253
 20
7.5726929641
 30
0.0
 10
11.3807820643
 20
7.5779755584
 30
0.0
 10
11.3791967458
 20
7.5833618019
 30
0.0
 10
11.3780008545
 20
7.5888229165
 30
0.0
 10
11.3772008074
 20
7.5943297986
 30
0.0
 10
11.3768009258
 20
7.5998530683
 30
0.0
 10
11.3768034018
 20
7.6053632547
 30
0.0
 10
11.3772082873
 20
7.6108309424
 30
0.0
 10
11.3780134894
 20
7.6162269278
 30
0.0
 10
11.3792147806
 20
7.6215223727
 30
0.0
 10
11.380805808
 20
7.6266889607
 30
0.0
 10
11.3827781153
 20
7.6316990522
 30
0.0
 10
11.3851212113
 20
7.6365258386
 30
0.0
 10
11.3878225829
 20
7.6411434553
 30
0.0
 10
11.390867897
 20
7.6455272469
 30
0.0
 10
11.3942405667
 20
7.6496534364
 30
0.0
 10
11.3966963336
 20
7.6522188135
 30
0.0
 10
11.3979714485
 20
7.653450466
 30
0.0
  0
SPLINE
  5
373
100
AcDbEntity
  8
0
100
AcDbSpline
 62
7
  6
CONTINUOUS
 70
0
 71
3
 72
15
 73
11
 74
0
 42
0.0000001
 43
0.0000001
 44
0.0000000001
 40
0.0
 40
0.0
 40
0.0
 40
0.0
 40
0.1233171148
 40
0.2468171822
 40
0.3706750007
 40
0.4950496181
 40
0.6200773069
 40
0.7458672043
 40
0.8724928123
 40
1.0
 40
1.0
 40
1.0
 40
1.0
 10
11.5063508005
 20
7.5412456841
 30
0.0
 10
11.5046004779
 20
7.5395550215
 30
0.0
 10
11.5009119619
 20
7.5363571714
 30
0.0
 10
11.4948919904
 20
7.5321784252
 30
0.0
 10
11.4884413861
 20
7.5286558185
 30
0.0
 10
11.4816261985
 20
7.5258255272
 30
0.0
 10
11.4745151637
 20
7.5237156482
 30
0.0
 10
11.4671799096
 20
7.5223472969
 30
0.0
 10
11.4596953126
 20
7.5217337753
 30
0.0
 10
11.454671291
 20
7.5218317755
 30
0.0
 10
11.4521611245
 20
7.5220058562
 30
0.0
  0
SPLINE
  5
374
100
AcDbEntity
  8
0
100
AcDbSpline
 62
7
  6
CONTINUOUS
 70
0
 71
3
 72
41
 73
37
 74
0
 42
0.0000001
 43
0.0000001
 44
0.0000000001
 40
0.0
 40
0.0
 40
0.0
 40
0.0
 40
0.0301994645
 40
0.060325634
 40
0.090408017
 40
0.1204773119
 40
0.150564451
 40
0.180699651
 40
0.2109115105
 40
0.2412261865
 40
0.2716666768
 40
0.3022522247
 40
0.3329978596
 40
0.3639140738
 40
0.3950066355
 40
0.4262765307
 40
0.4577200244
 40
0.4893288305
 40
0.5210903797
 40
0.5529881747
 40
0.5850022229
 40
0.6171095381
 40
0.6492847022
 40
0.6815004799
 40
0.7137284784
 40
0.7298410923
 40
0.7459459497
 40
0.7781120826
 40
0.8102053805
 40
0.8421999612
 40
0.8740723959
 40
0.9058023189
 40
0.9373732917
 40
0.9530981088
 40
0.9687793057
 40
1.0
 40
1.0
 40
1.0
 40
1.0
 10
11.1225515171
 20
7.7760920023
 30
0.0
 10
11.1209950338
 20
7.7732255357
 30
0.0
 10
11.1176300532
 20
7.767634171
 30
0.0
 10
11.1118624752
 20
7.7597393604
 30
0.0
 10
11.1054222459
 20
7.7524006129
 30
0.0
 10
11.0983559692
 20
7.7456690028
 30
0.0
 10
11.090713803
 20
7.7395899268
 30
0.0
 10
11.0825497832
 20
7.7342042785
 30
0.0
 10
11.0739211776
 20
7.7295478635
 30
0.0
 10
11.0648880968
 20
7.7256513486
 30
0.0
 10
11.0555130417
 20
7.7225401243
 30
0.0
 10
11.0458604809
 20
7.7202342369
 30
0.0
 10
11.0359964334
 20
7.7187483432
 30
0.0
 10
11.0259880672
 20
7.7180916936
 30
0.0
 10
11.0159033087
 20
7.718268132
 30
0.0
 10
11.0058104616
 20
7.7192761111
 30
0.0
 10
10.9957778315
 20
7.7211087212
 30
0.0
 10
10.9858733529
 20
7.723753731
 30
0.0
 10
10.9761642141
 20
7.7271936424
 30
0.0
 10
10.9667164804
 20
7.731405756
 30
0.0
 10
10.9575947008
 20
7.7363622673
 30
0.0
 10
10.9488615429
 20
7.7420303392
 30
0.0
 10
10.9405772822
 20
7.7483723668
 30
0.0
 10
10.9327998001
 20
7.7553456539
 30
0.0
 10
10.9267847217
 20
7.761645452
 30
0.0
 10
10.9222784551
 20
7.7669525424
 30
0.0
 10
10.9179862638
 20
7.7724257182
 30
0.0
 10
10.9130329019
 20
7.7795653035
 30
0.0
 10
10.9077891523
 20
7.7885543541
 30
0.0
 10
10.903284732
 20
7.7979009888
 30
0.0
 10
10.8995526612
 20
7.8075400522
 30
0.0
 10
10.8966202669
 20
7.81740385
 30
0.0
 10
10.8948584969
 20
7.8257660301
 30
0.0
 10
10.893869427
 20
7.8324975435
 30
0.0
 10
10.8931634024
 20
7.8392261571
 30
0.0
 10
10.8929492708
 20
7.844295209
 30
0.0
 10
10.8929492708
 20
7.8476672998
 30
0.0
  0
SPLINE
  5
375
100
AcDbEntity
  8
0
100
AcDbSpline
 62
7
  6
CONTINUOUS
 70
0
 71
3
 72
41
 73
37
 74
0
 42
0.0000001
 43
0.0000001
 44
0.0000000001
 40
0.0
 40
0.0
 40
0.0
 40
0.0
 40
0.0311444983
 40
0.062442467
 40
0.093887251
 40
0.1254695609
 40
0.157177086
 40
0.1889950997
 40
0.2209066479
 40
0.2528929497
 40
0.284933762
 40
0.3170077852
 40
0.3490930781
 40
0.3811674822
 40
0.4132090489
 40
0.445196464
 40
0.4771094635
 40
0.5089292351
 40
0.540638799
 40
0.5722233621
 40
0.6036706378
 40
0.6349711269
 40
0.6661183495
 40
0.6971090237
 40
0.7279431823
 40
0.7586242225
 40
0.7891588828
 40
0.8195571428
 40
0.8498320452
 40
0.86493089
 40
0.8800050502
 40
0.9100832578
 40
0.9400926753
 40
0.9550812784
 40
0.9700610371
 40
1.0
 40
1.0
 40
1.0
 40
1.0
 10
12.338881069
 20
6.649616859
 30
0.0
 10
12.3355671214
 20
6.6498466821
 30
0.0
 10
12.3289372534
 20
6.6505500349
 30
0.0
 10
12.3190728366
 20
6.6523217659
 30
0.0
 10
12.3093140621
 20
6.6548034692
 30
0.0
 10
12.2997136685
 20
6.6579817442
 30
0.0
 10
12.2903226337
 20
6.6618395906
 30
0.0
 10
12.2811910587
 20
6.6663563564
 30
0.0
 10
12.2723675875
 20
6.6715079104
 30
0.0
 10
12.2638992365
 20
6.6772667447
 30
0.0
 10
12.2558311248
 20
6.6836021312
 30
0.0
 10
12.2482062424
 20
6.6904802806
 30
0.0
 10
12.2410652222
 20
6.6978645223
 30
0.0
 10
12.2344461262
 20
6.705715498
 30
0.0
 10
12.2283842442
 20
6.7139913692
 30
0.0
 10
12.2229119076
 20
6.7226480377
 30
0.0
 10
12.2180583186
 20
6.7316393787
 30
0.0
 10
12.2138493949
 20
6.740917483
 30
0.0
 10
12.2103076326
 20
6.7504329093
 30
0.0
 10
12.2074519859
 20
6.7601349446
 30
0.0
 10
12.2052977649
 20
6.7699718705
 30
0.0
 10
12.2038565531
 20
6.7798912351
 30
0.0
 10
12.2031361426
 20
6.7898401299
 30
0.0
 10
12.2031404885
 20
6.7997654653
 30
0.0
 10
12.203869688
 20
6.8096142619
 30
0.0
 10
12.2053199552
 20
6.8193338921
 30
0.0
 10
12.2074837078
 20
6.8288725023
 30
0.0
 10
12.2103493318
 20
6.838178765
 30
0.0
 10
12.2133128819
 20
6.8457069878
 30
0.0
 10
12.2160172651
 20
6.8515613543
 30
0.0
 10
12.2189358372
 20
6.8572884208
 30
0.0
 10
12.2229880965
 20
6.8642156178
 30
0.0
 10
12.2275615569
 20
6.8707992974
 30
0.0
 10
12.2315136947
 20
6.8758317065
 30
0.0
 10
12.2356543753
 20
6.8806998513
 30
0.0
 10
12.2389717715
 20
6.884165572
 30
0.0
 10
12.2412685764
 20
6.8863841304
 30
0.0
  0
SPLINE
  5
376
100
AcDbEntity
  8
0
100
AcDbSpline
 62
7
  6
CONTINUOUS
 70
0
 71
3
 72
28
 73
24
 74
0
 42
0.0000001
 43
0.0000001
 44
0.0000000001
 40
0.0
 40
0.0
 40
0.0
 40
0.0
 40
0.0620666828
 40
0.1239836008
 40
0.1857782655
 40
0.2474825182
 40
0.309133358
 40
0.3707738196
 40
0.4324537848
 40
0.4942305208
 40
0.5561686262
 40
0.618338958
 40
0.6808160297
 40
0.7122039862
 40
0.7436960242
 40
0.7753000223
 40
0.807022682
 40
0.838868888
 40
0.8708422265
 40
0.9029441585
 40
0.9351729102
 40
0.9675283054
 40
1.0
 40
1.0
 40
1.0
 40
1.0
 10
10.7736800741
 20
8.2022603517
 30
0.0
 10
10.7720934261
 20
8.1988880832
 30
0.0
 10
10.7687080057
 20
8.1922507153
 30
0.0
 10
10.762995146
 20
8.1826601022
 30
0.0
 10
10.756658648
 20
8.1734947804
 30
0.0
 10
10.749704317
 20
8.164808653
 30
0.0
 10
10.7421388738
 20
8.1566606656
 30
0.0
 10
10.7339716835
 20
8.1491165714
 30
0.0
 10
10.725216367
 20
8.1422494599
 30
0.0
 10
10.7158932282
 20
8.1361402933
 30
0.0
 10
10.7060318357
 20
8.1308776998
 30
0.0
 10
10.6956759603
 20
8.1265570618
 30
0.0
 10
10.6866940464
 20
8.1238274849
 30
0.0
 10
10.6793391042
 20
8.1222121957
 30
0.0
 10
10.6737374498
 20
8.1212944515
 30
0.0
 10
10.6680738948
 20
8.1206835118
 30
0.0
 10
10.6623636516
 20
8.1203891041
 30
0.0
 10
10.6566236407
 20
8.1204194894
 30
0.0
 10
10.6508720511
 20
8.1207812544
 30
0.0
 10
10.6451283052
 20
8.1214790115
 30
0.0
 10
10.6394124095
 20
8.1225149211
 30
0.0
 10
10.6337455244
 20
8.123888694
 30
0.0
 10
10.6300199963
 20
8.1250259552
 30
0.0
 10
10.6281724553
 20
8.1256491297
 30
0.0
  0
SPLINE
  5
377
100
AcDbEntity
  8
0
100
AcDbSpline
 62
7
  6
CONTINUOUS
 70
0
 71
3
 72
15
 73
11
 74
0
 42
0.0000001
 43
0.0000001
 44
0.0000000001
 40
0.0
 40
0.0
 40
0.0
 40
0.0
 40
0.1266942186
 40
0.2528683863
 40
0.3785207934
 40
0.5036798465
 40
0.6283694337
 40
0.7526243882
 40
0.8764856304
 40
1.0
 40
1.0
 40
1.0
 40
1.0
 10
10.8929492708
 20
7.8476672998
 30
0.0
 10
10.8929492708
 20
7.8500731305
 30
0.0
 10
10.8930939835
 20
7.8548762111
 30
0.0
 10
10.8937474192
 20
7.8620385628
 30
0.0
 10
10.8948345045
 20
7.8691188607
 30
0.0
 10
10.8963509729
 20
7.876090903
 30
0.0
 10
10.8982912287
 20
7.882929553
 30
0.0
 10
10.9006479718
 20
7.8896100731
 30
0.0
 10
10.9034121632
 20
7.8961080353
 30
0.0
 10
10.9055227622
 20
7.9003088512
 30
0.0
 10
10.9066419791
 20
7.9023700349
 30
0.0
  0
SPLINE
  5
378
100
AcDbEntity
  8
0
100
AcDbSpline
 62
7
  6
CONTINUOUS
 70
0
 71
3
 72
23
 73
19
 74
0
 42
0.0000001
 43
0.0000001
 44
0.0000000001
 40
0.0
 40
0.0
 40
0.0
 40
0.0
 40
0.1269164852
 40
0.1903656552
 40
0.2537656238
 40
0.3802603629
 40
0.4433434262
 40
0.5062579433
 40
0.5689703002
 40
0.6314472929
 40
0.6936575636
 40
0.724658973
 40
0.7555837693
 40
0.8171830135
 40
0.8784511366
 40
0.9089648393
 40
0.939396673
 40
1.0
 40
1.0
 40
1.0
 40
1.0
 10
11.4692874155
 20
8.2925674501
 30
0.0
 10
11.4731073432
 20
8.2889159159
 30
0.0
 10
11.4785942776
 20
8.283174665
 30
0.0
 10
11.485321797
 20
8.2750225234
 30
0.0
 10
11.4916189035
 20
8.2665554642
 30
0.0
 10
11.497232808
 20
8.2576127958
 30
0.0
 10
11.5020360912
 20
8.2482555754
 30
0.0
 10
11.5051989937
 20
8.2410572322
 30
0.0
 10
11.5078927534
 20
8.233697119
 30
0.0
 10
11.5100862291
 20
8.2262029064
 30
0.0
 10
11.5114741101
 20
8.2198647133
 30
0.0
 10
11.5123048094
 20
8.214762163
 30
0.0
 10
11.5129440613
 20
8.2096577562
 30
0.0
 10
11.5133820816
 20
8.2032626795
 30
0.0
 10
11.5133226303
 20
8.196869513
 30
0.0
 10
11.5129700312
 20
8.191791811
 30
0.0
 10
11.5124157515
 20
8.1867603178
 30
0.0
 10
11.5117700559
 20
8.1830195403
 30
0.0
 10
11.5112379171
 20
8.180552928
 30
0.0
  0
SPLINE
  5
379
100
AcDbEntity
  8
0
100
AcDbSpline
 62
7
  6
CONTINUOUS
 70
0
 71
3
 72
15
 73
11
 74
0
 42
0.0000001
 43
0.0000001
 44
0.0000000001
 40
0.0
 40
0.0
 40
0.0
 40
0.0
 40
0.1273482292
 40
0.2538605354
 40
0.3795879276
 40
0.5046050833
 40
0.6290174349
 40
0.7529533662
 40
0.8765605734
 40
1.0
 40
1.0
 40
1.0
 40
1.0
 10
10.12329913
 20
8.9026732243
 30
0.0
 10
10.12329913
 20
8.9052756542
 30
0.0
 10
10.1235476086
 20
8.9104670295
 30
0.0
 10
10.1246713347
 20
8.9181542476
 30
0.0
 10
10.1265346629
 20
8.9256483146
 30
0.0
 10
10.1291207666
 20
8.9328791428
 30
0.0
 10
10.1324059015
 20
8.9397800538
 30
0.0
 10
10.1363601335
 20
8.9462873242
 30
0.0
 10
10.1409462822
 20
8.9523399795
 30
0.0
 10
10.1443994183
 20
8.9560372883
 30
0.0
 10
10.1462137787
 20
8.9577898184
 30
0.0
  0
SPLINE
  5
37A
100
AcDbEntity
  8
0
100
AcDbSpline
 62
7
  6
CONTINUOUS
 70
0
 71
3
 72
32
 73
28
 74
0
 42
0.0000001
 43
0.0000001
 44
0.0000000001
 40
0.0
 40
0.0
 40
0.0
 40
0.0
 40
0.0315752368
 40
0.0474152448
 40
0.0632838757
 40
0.0950930966
 40
0.1269853408
 40
0.1429574528
 40
0.1589411969
 40
0.1909265272
 40
0.2229235329
 40
0.2549114407
 40
0.2868719311
 40
0.3187893076
 40
0.3824199286
 40
0.4457543358
 40
0.5087461671
 40
0.5713721628
 40
0.6025528315
 40
0.6336400782
 40
0.695523832
 40
0.7570500494
 40
0.7876907323
 40
0.8182487294
 40
0.8791155142
 40
0.9396891496
 40
1.0
 40
1.0
 40
1.0
 40
1.0
 10
10.6281724553
 20
8.1256491297
 30
0.0
 10
10.6256732611
 20
8.1264921065
 30
0.0
 10
10.6219680005
 20
8.12790626
 30
0.0
 10
10.6171460371
 20
8.1300747327
 30
0.0
 10
10.6123929568
 20
8.13243524
 30
0.0
 10
10.6066124509
 20
8.1357294815
 30
0.0
 10
10.6010851699
 20
8.1394477177
 30
0.0
 10
10.5968263931
 20
8.142659842
 30
0.0
 10
10.5926780827
 20
8.1460257624
 30
0.0
 10
10.5877141293
 20
8.15050394
 30
0.0
 10
10.5821326407
 20
8.1562661884
 30
0.0
 10
10.5769378339
 20
8.1623762232
 30
0.0
 10
10.5721383091
 20
8.1687928192
 30
0.0
 10
10.5662787094
 20
8.1776934266
 30
0.0
 10
10.5599511433
 20
8.1893939586
 30
0.0
 10
10.5539281607
 20
8.204103503
 30
0.0
 10
10.5494287026
 20
8.2192576344
 30
0.0
 10
10.5468956834
 20
8.2321282283
 30
0.0
 10
10.5455749157
 20
8.2424797746
 30
0.0
 10
10.5447156622
 20
8.2528176701
 30
0.0
 10
10.5444797121
 20
8.2657375561
 30
0.0
 10
10.5453259236
 20
8.2785935316
 30
0.0
 10
10.5466322467
 20
8.2887639498
 30
0.0
 10
10.5483463597
 20
8.2988176365
 30
0.0
 10
10.551249078
 20
8.3111942428
 30
0.0
 10
10.5559267886
 20
8.3256545814
 30
0.0
 10
10.5598336949
 20
8.3349815268
 30
0.0
 10
10.5619784701
 20
8.3395400411
 30
0.0
  0
SPLINE
  5
37B
100
AcDbEntity
  8
0
100
AcDbSpline
 62
7
  6
CONTINUOUS
 70
0
 71
3
 72
39
 73
35
 74
0
 42
0.0000001
 43
0.0000001
 44
0.0000000001
 40
0.0
 40
0.0
 40
0.0
 40
0.0
 40
0.0311160054
 40
0.0620232808
 40
0.0927351539
 40
0.1232711756
 40
0.1536587326
 40
0.1839312105
 40
0.2141268386
 40
0.2442870981
 40
0.2744549747
 40
0.3046731306
 40
0.33498209
 40
0.365418544
 40
0.3960138629
 40
0.4267928807
 40
0.457772997
 40
0.4889636213
 40
0.5203659688
 40
0.551973177
 40
0.5837707173
 40
0.6157370643
 40
0.6478445906
 40
0.6800606397
 40
0.7123487305
 40
0.7446698622
 40
0.7769838838
 40
0.8092508928
 40
0.841432625
 40
0.8734938027
 40
0.9054033951
 40
0.9371359477
 40
0.9686717614
 40
1.0
 40
1.0
 40
1.0
 40
1.0
 10
11.6366529019
 20
7.5845535269
 30
0.0
 10
11.6366529019
 20
7.5878914704
 30
0.0
 10
11.6369787689
 20
7.5945497959
 30
0.0
 10
11.6384525432
 20
7.6044041691
 30
0.0
 10
11.6408957013
 20
7.6140011174
 30
0.0
 10
11.6442851481
 20
7.6232467611
 30
0.0
 10
11.6485884501
 20
7.6320519932
 30
0.0
 10
11.6537643066
 20
7.6403315041
 30
0.0
 10
11.6597628328
 20
7.648005139
 30
0.0
 10
11.6665260957
 20
7.6549985672
 30
0.0
 10
11.6739886721
 20
7.6612440849
 30
0.0
 10
11.6820783126
 20
7.6666812894
 30
0.0
 10
11.6907166543
 20
7.67125773
 30
0.0
 10
11.6998200555
 20
7.6749293917
 30
0.0
 10
11.7093004481
 20
7.6776610986
 30
0.0
 10
11.7190662213
 20
7.6794268213
 30
0.0
 10
11.7290231209
 20
7.680209909
 30
0.0
 10
11.7390751716
 20
7.6800032342
 30
0.0
 10
11.7491256051
 20
7.6788091782
 30
0.0
 10
11.7590777742
 20
7.6766395856
 30
0.0
 10
11.7688360564
 20
7.673515617
 30
0.0
 10
11.7783067629
 20
7.6694675722
 30
0.0
 10
11.7873990153
 20
7.6645345634
 30
0.0
 10
11.7960255878
 20
7.6587641217
 30
0.0
 10
11.804103722
 20
7.6522117474
 30
0.0
 10
11.8115559047
 20
7.6449403898
 30
0.0
 10
11.8183106243
 20
7.6370198766
 30
0.0
 10
11.8243030157
 20
7.6285262165
 30
0.0
 10
11.8294754752
 20
7.6195409015
 30
0.0
 10
11.8337781911
 20
7.6101501001
 30
0.0
 10
11.8371696768
 20
7.6004440087
 30
0.0
 10
11.8396170742
 20
7.5905154854
 30
0.0
 10
11.8410966745
 20
7.5804611254
 30
0.0
 10
11.8414291892
 20
7.5737129538
 30
0.0
 10
11.8414291892
 20
7.5703522431
 30
0.0
  0
SPLINE
  5
37C
100
AcDbEntity
  8
0
100
AcDbSpline
 62
7
  6
CONTINUOUS
 70
0
 71
3
 72
15
 73
11
 74
0
 42
0.0000001
 43
0.0000001
 44
0.0000000001
 40
0.0
 40
0.0
 40
0.0
 40
0.0
 40
0.1273482292
 40
0.2538605354
 40
0.3795879276
 40
0.5046050833
 40
0.6290174349
 40
0.7529533662
 40
0.8765605734
 40
1.0
 40
1.0
 40
1.0
 40
1.0
 10
11.6629849133
 20
8.8268053435
 30
0.0
 10
11.6629849133
 20
8.8294077734
 30
0.0
 10
11.6632333919
 20
8.8345991487
 30
0.0
 10
11.664357118
 20
8.8422863668
 30
0.0
 10
11.6662204462
 20
8.8497804338
 30
0.0
 10
11.6688065499
 20
8.857011262
 30
0.0
 10
11.6720916848
 20
8.863912173
 30
0.0
 10
11.6760459168
 20
8.8704194433
 30
0.0
 10
11.6806320655
 20
8.8764720987
 30
0.0
 10
11.6840852015
 20
8.8801694075
 30
0.0
 10
11.685899562
 20
8.8819219376
 30
0.0
  0
SPLINE
  5
37D
100
AcDbEntity
  8
0
100
AcDbSpline
 62
7
  6
CONTINUOUS
 70
0
 71
3
 72
18
 73
14
 74
0
 42
0.0000001
 43
0.0000001
 44
0.0000000001
 40
0.0
 40
0.0
 40
0.0
 40
0.0
 40
0.1504680185
 40
0.2917144324
 40
0.4244425615
 40
0.4879099171
 40
0.5496094205
 40
0.6682625585
 40
0.7817882768
 40
0.8371379945
 40
0.8918078237
 40
0.9460192726
 40
1.0
 40
1.0
 40
1.0
 40
1.0
 10
12.9183873104
 20
7.4839783872
 30
0.0
 10
12.9171702416
 20
7.482802789
 30
0.0
 10
12.9147377539
 20
7.4805970242
 30
0.0
 10
12.9109713055
 20
7.4776575725
 30
0.0
 10
12.907789896
 20
7.4755786401
 30
0.0
 10
12.9052530049
 20
7.4741708517
 30
0.0
 10
12.9027907462
 20
7.4729622247
 30
0.0
 10
12.8997121433
 20
7.4717409484
 30
0.0
 10
12.8965787761
 20
7.4709075465
 30
0.0
 10
12.8940970564
 20
7.4704970051
 30
0.0
 10
12.8922577593
 20
7.4703148001
 30
0.0
 10
12.8904259025
 20
7.4702559649
 30
0.0
 10
12.8892088625
 20
7.4702990231
 30
0.0
 10
12.8886032637
 20
7.4703410248
 30
0.0
  0
SPLINE
  5
37E
100
AcDbEntity
  8
0
100
AcDbSpline
 62
7
  6
CONTINUOUS
 70
0
 71
3
 72
41
 73
37
 74
0
 42
0.0000001
 43
0.0000001
 44
0.0000000001
 40
0.0
 40
0.0
 40
0.0
 40
0.0
 40
0.0311444983
 40
0.062442467
 40
0.093887251
 40
0.1254695609
 40
0.157177086
 40
0.1889950997
 40
0.2209066479
 40
0.2528929497
 40
0.284933762
 40
0.3170077852
 40
0.3490930781
 40
0.3811674822
 40
0.4132090489
 40
0.445196464
 40
0.4771094635
 40
0.5089292351
 40
0.540638799
 40
0.5722233621
 40
0.6036706378
 40
0.6349711269
 40
0.6661183495
 40
0.6971090237
 40
0.7279431823
 40
0.7586242225
 40
0.7891588828
 40
0.8195571428
 40
0.8498320452
 40
0.86493089
 40
0.8800050502
 40
0.9100832578
 40
0.9400926753
 40
0.9550812784
 40
0.9700610371
 40
1.0
 40
1.0
 40
1.0
 40
1.0
 10
12.338881069
 20
9.3889826603
 30
0.0
 10
12.3355671214
 20
9.3892124834
 30
0.0
 10
12.3289372534
 20
9.3899158362
 30
0.0
 10
12.3190728366
 20
9.3916875672
 30
0.0
 10
12.3093140621
 20
9.3941692705
 30
0.0
 10
12.2997136685
 20
9.3973475455
 30
0.0
 10
12.2903226337
 20
9.4012053919
 30
0.0
 10
12.2811910587
 20
9.4057221577
 30
0.0
 10
12.2723675875
 20
9.4108737117
 30
0.0
 10
12.2638992365
 20
9.416632546
 30
0.0
 10
12.2558311248
 20
9.4229679325
 30
0.0
 10
12.2482062424
 20
9.4298460819
 30
0.0
 10
12.2410652222
 20
9.4372303236
 30
0.0
 10
12.2344461262
 20
9.4450812993
 30
0.0
 10
12.2283842442
 20
9.4533571704
 30
0.0
 10
12.2229119076
 20
9.462013839
 30
0.0
 10
12.2180583186
 20
9.47100518
 30
0.0
 10
12.2138493949
 20
9.4802832843
 30
0.0
 10
12.2103076326
 20
9.4897987106
 30
0.0
 10
12.2074519859
 20
9.4995007459
 30
0.0
 10
12.2052977649
 20
9.5093376718
 30
0.0
 10
12.2038565531
 20
9.5192570364
 30
0.0
 10
12.2031361426
 20
9.5292059312
 30
0.0
 10
12.2031404885
 20
9.5391312666
 30
0.0
 10
12.203869688
 20
9.5489800632
 30
0.0
 10
12.2053199552
 20
9.5586996934
 30
0.0
 10
12.2074837078
 20
9.5682383036
 30
0.0
 10
12.2103493318
 20
9.5775445663
 30
0.0
 10
12.2133128819
 20
9.5850727891
 30
0.0
 10
12.2160172651
 20
9.5909271556
 30
0.0
 10
12.2189358372
 20
9.5966542221
 30
0.0
 10
12.2229880965
 20
9.6035814191
 30
0.0
 10
12.2275615569
 20
9.6101650987
 30
0.0
 10
12.2315136947
 20
9.6151975078
 30
0.0
 10
12.2356543753
 20
9.6200656526
 30
0.0
 10
12.2389717715
 20
9.6235313733
 30
0.0
 10
12.2412685764
 20
9.6257499317
 30
0.0
  0
SPLINE
  5
37F
100
AcDbEntity
  8
0
100
AcDbSpline
 62
7
  6
CONTINUOUS
 70
0
 71
3
 72
72
 73
68
 74
0
 42
0.0000001
 43
0.0000001
 44
0.0000000001
 40
0.0
 40
0.0
 40
0.0
 40
0.0
 40
0.0038577872
 40
0.0078706379
 40
0.0120417989
 40
0.016373998
 40
0.0208695662
 40
0.025530388
 40
0.0303577982
 40
0.0353526471
 40
0.0458457985
 40
0.057010757
 40
0.0688432322
 40
0.0813351508
 40
0.0944752071
 40
0.1082492878
 40
0.1226408497
 40
0.137631187
 40
0.1531996177
 40
0.1693236973
 40
0.1859793989
 40
0.203141239
 40
0.2207823749
 40
0.2388747516
 40
0.2573892106
 40
0.2762955685
 40
0.2955627006
 40
0.3151586557
 40
0.3552048809
 40
0.396165797
 40
0.4377641133
 40
0.4797169416
 40
0.5217383276
 40
0.5635417216
 40
0.6048424552
 40
0.6453602545
 40
0.6652401271
 40
0.6848224416
 40
0.7040745256
 40
0.7229644518
 40
0.7414611486
 40
0.75953448
 40
0.7771553207
 40
0.7942956584
 40
0.81092873
 40
0.827029109
 40
0.8425728172
 40
0.8575374847
 40
0.8719025356
 40
0.8856493411
 40
0.8987614389
 40
0.911224845
 40
0.9230284005
 40
0.9341641721
 40
0.9446280174
 40
0.9544203652
 40
0.9590667794
 40
0.9635480768
 40
0.9678660966
 40
0.9720231996
 40
0.9760223019
 40
0.9798670466
 40
0.9835617895
 40
0.9871117241
 40
0.9905230284
 40
0.9938028811
 40
1.0
 40
1.0
 40
1.0
 40
1.0
 10
12.8884436085
 20
7.48605499
 30
0.0
 10
12.8892516246
 20
7.4868354736
 30
0.0
 10
12.8908668745
 20
7.4884625489
 30
0.0
 10
12.8932415972
 20
7.4910436894
 30
0.0
 10
12.8956140867
 20
7.4938115254
 30
0.0
 10
12.897983126
 20
7.4967646973
 30
0.0
 10
12.900347732
 20
7.4999018572
 30
0.0
 10
12.9027068524
 20
7.5032216499
 30
0.0
 10
12.9050594906
 20
7.5067226031
 30
0.0
 10
12.9082386551
 20
7.5117123148
 30
0.0
 10
12.9121810099
 20
7.5184010766
 30
0.0
 10
12.9167944148
 20
7.5269960124
 30
0.0
 10
12.9213568338
 20
7.5362712789
 30
0.0
 10
12.9258599901
 20
7.5462101851
 30
0.0
 10
12.9302957317
 20
7.5567949847
 30
0.0
 10
12.9346559929
 20
7.5680066234
 30
0.0
 10
12.9389328223
 20
7.5798248912
 30
0.0
 10
12.9431184017
 20
7.5922284371
 30
0.0
 10
12.9472050932
 20
7.6051948076
 30
0.0
 10
12.9511854361
 20
7.6187005013
 30
0.0
 10
12.9550521552
 20
7.6327210268
 30
0.0
 10
12.9587981777
 20
7.6472309424
 30
0.0
 10
12.9624166716
 20
7.6622038963
 30
0.0
 10
12.965901031
 20
7.6776126867
 30
0.0
 10
12.9692448908
 20
7.6934293201
 30
0.0
 10
12.9724421358
 20
7.7096250455
 30
0.0
 10
12.9754869674
 20
7.7261704394
 30
0.0
 10
12.9793639449
 20
7.7488203169
 30
0.0
 10
12.9837805075
 20
7.7777846401
 30
0.0
 10
12.9883551139
 20
7.8131966144
 30
0.0
 10
12.9922082876
 20
7.8492527474
 30
0.0
 10
12.9953119423
 20
7.8856909549
 30
0.0
 10
12.9976434081
 20
7.9222465353
 30
0.0
 10
12.9991858236
 20
7.9586539104
 30
0.0
 10
12.9999280134
 20
7.9946484255
 30
0.0
 10
12.9998752048
 20
8.0242663426
 30
0.0
 10
12.999421165
 20
8.0475529719
 30
0.0
 10
12.9988811866
 20
8.0646427898
 30
0.0
 10
12.9981406863
 20
8.0814365427
 30
0.0
 10
12.9972009991
 20
8.0979037182
 30
0.0
 10
12.9960638662
 20
8.1140143728
 30
0.0
 10
12.9947313844
 20
8.1297392265
 30
0.0
 10
12.9932060027
 20
8.1450496995
 30
0.0
 10
12.9914905161
 20
8.1599179729
 30
0.0
 10
12.989588089
 20
8.1743170461
 30
0.0
 10
12.9875022233
 20
8.1882207837
 30
0.0
 10
12.9852367485
 20
8.2016039578
 30
0.0
 10
12.9827958231
 20
8.2144423072
 30
0.0
 10
12.9801839453
 20
8.2267125917
 30
0.0
 10
12.9774059144
 20
8.2383926308
 30
0.0
 10
12.9744668167
 20
8.249461345
 30
0.0
 10
12.9713720297
 20
8.2598988283
 30
0.0
 10
12.9681272098
 20
8.2696863675
 30
0.0
 10
12.9647382207
 20
8.2788065925
 30
0.0
 10
12.961211157
 20
8.2872431343
 30
0.0
 10
12.9581100274
 20
8.2938019857
 30
0.0
 10
12.9555572484
 20
8.298685221
 30
0.0
 10
12.9536456691
 20
8.3021030021
 30
0.0
 10
12.9517044092
 20
8.3053389801
 30
0.0
 10
12.949734307
 20
8.3083917292
 30
0.0
 10
12.947736174
 20
8.3112598599
 30
0.0
 10
12.945710912
 20
8.3139421135
 30
0.0
 10
12.9436593397
 20
8.316437303
 30
0.0
 10
12.9415823559
 20
8.3187442143
 30
0.0
 10
12.9394805813
 20
8.3208620553
 30
0.0
 10
12.9366997892
 20
8.3233839326
 30
0.0
 10
12.9345005178
 20
8.3250660366
 30
0.0
 10
12.9329958558
 20
8.3260623766
 30
0.0
  0
SPLINE
  5
380
100
AcDbEntity
  8
0
100
AcDbSpline
 62
7
  6
CONTINUOUS
 70
0
 71
3
 72
11
 73
7
 74
0
 42
0.0000001
 43
0.0000001
 44
0.0000000001
 40
0.0
 40
0.0
 40
0.0
 40
0.0
 40
0.2730455232
 40
0.5298860536
 40
0.7716949754
 40
1.0
 40
1.0
 40
1.0
 40
1.0
 10
12.8884436085
 20
7.48605499
 30
0.0
 10
12.8872650356
 20
7.4849165759
 30
0.0
 10
12.8849094576
 20
7.4827762913
 30
0.0
 10
12.8812656358
 20
7.4799109587
 30
0.0
 10
12.8776264941
 20
7.4774959436
 30
0.0
 10
12.8751395364
 20
7.4761528689
 30
0.0
 10
12.8739017772
 20
7.4755653803
 30
0.0
  0
SPLINE
  5
381
100
AcDbEntity
  8
0
100
AcDbSpline
 62
7
  6
CONTINUOUS
 70
0
 71
3
 72
15
 73
11
 74
0
 42
0.0000001
 43
0.0000001
 44
0.0000000001
 40
0.0
 40
0.0
 40
0.0
 40
0.0
 40
0.148189077
 40
0.2884124565
 40
0.4211645545
 40
0.5470824521
 40
0.6669392739
 40
0.7816491473
 40
0.892270482
 40
1.0
 40
1.0
 40
1.0
 40
1.0
 10
12.8884436085
 20
7.4986120265
 30
0.0
 10
12.8874084438
 20
7.497612134
 30
0.0
 10
12.8853392415
 20
7.4957212483
 30
0.0
 10
12.8821483258
 20
7.4931573842
 30
0.0
 10
12.8789607537
 20
7.4909492009
 30
0.0
 10
12.8757790284
 20
7.489099095
 30
0.0
 10
12.8726053245
 20
7.4876093298
 30
0.0
 10
12.8694419427
 20
7.4864820204
 30
0.0
 10
12.8662922127
 20
7.4857195606
 30
0.0
 10
12.8641828485
 20
7.4854531502
 30
0.0
 10
12.8631389123
 20
7.48538325
 30
0.0
  0
SPLINE
  5
382
100
AcDbEntity
  8
0
100
AcDbSpline
 62
7
  6
CONTINUOUS
 70
0
 71
3
 72
11
 73
7
 74
0
 42
0.0000001
 43
0.0000001
 44
0.0000000001
 40
0.0
 40
0.0
 40
0.0
 40
0.0
 40
0.2783980103
 40
0.5363556557
 40
0.7759608084
 40
1.0
 40
1.0
 40
1.0
 40
1.0
 10
12.8708767651
 20
7.509972513
 30
0.0
 10
12.869496189
 20
7.5086389787
 30
0.0
 10
12.8667376305
 20
7.5061685499
 30
0.0
 10
12.8624358062
 20
7.5029734428
 30
0.0
 10
12.8581402579
 20
7.5004432549
 30
0.0
 10
12.855197121
 20
7.4991675774
 30
0.0
 10
12.8537394354
 20
7.4986565424
 30
0.0
  0
SPLINE
  5
383
100
AcDbEntity
  8
0
100
AcDbSpline
 62
7
  6
CONTINUOUS
 70
0
 71
3
 72
39
 73
35
 74
0
 42
0.0000001
 43
0.0000001
 44
0.0000000001
 40
0.0
 40
0.0
 40
0.0
 40
0.0
 40
0.0311160054
 40
0.0620232808
 40
0.0927351539
 40
0.1232711756
 40
0.1536587326
 40
0.1839312105
 40
0.2141268386
 40
0.2442870981
 40
0.2744549747
 40
0.3046731306
 40
0.33498209
 40
0.365418544
 40
0.3960138629
 40
0.4267928807
 40
0.457772997
 40
0.4889636213
 40
0.5203659688
 40
0.551973177
 40
0.5837707173
 40
0.6157370643
 40
0.6478445906
 40
0.6800606397
 40
0.7123487305
 40
0.7446698622
 40
0.7769838838
 40
0.8092508928
 40
0.841432625
 40
0.8734938027
 40
0.9054033951
 40
0.9371359477
 40
0.9686717614
 40
1.0
 40
1.0
 40
1.0
 40
1.0
 10
11.8414291892
 20
8.8086692884
 30
0.0
 10
11.8414291892
 20
8.8053313449
 30
0.0
 10
11.8411033222
 20
8.7986730194
 30
0.0
 10
11.839629548
 20
8.7888186462
 30
0.0
 10
11.8371863899
 20
8.7792216978
 30
0.0
 10
11.833796943
 20
8.7699760542
 30
0.0
 10
11.8294936411
 20
8.7611708221
 30
0.0
 10
11.8243177845
 20
8.7528913112
 30
0.0
 10
11.8183192584
 20
8.7452176762
 30
0.0
 10
11.8115559954
 20
8.7382242481
 30
0.0
 10
11.804093419
 20
8.7319787304
 30
0.0
 10
11.7960037786
 20
8.7265415259
 30
0.0
 10
11.7873654368
 20
8.7219650853
 30
0.0
 10
11.7782620357
 20
8.7182934235
 30
0.0
 10
11.7687816431
 20
8.7155617167
 30
0.0
 10
11.7590158698
 20
8.7137959939
 30
0.0
 10
11.7490589703
 20
8.7130129062
 30
0.0
 10
11.7390069196
 20
8.7132195811
 30
0.0
 10
11.7289564861
 20
8.714413637
 30
0.0
 10
11.719004317
 20
8.7165832297
 30
0.0
 10
11.7092460347
 20
8.7197071982
 30
0.0
 10
11.6997753283
 20
8.723755243
 30
0.0
 10
11.6906830759
 20
8.7286882519
 30
0.0
 10
11.6820565034
 20
8.7344586935
 30
0.0
 10
11.6739783692
 20
8.7410110679
 30
0.0
 10
11.6665261865
 20
8.7482824255
 30
0.0
 10
11.6597714669
 20
8.7562029386
 30
0.0
 10
11.6537790755
 20
8.7646965988
 30
0.0
 10
11.6486066159
 20
8.7736819138
 30
0.0
 10
11.6443039
 20
8.7830727152
 30
0.0
 10
11.6409124144
 20
8.7927788066
 30
0.0
 10
11.6384650169
 20
8.8027073299
 30
0.0
 10
11.6369854167
 20
8.8127616899
 30
0.0
 10
11.6366529019
 20
8.8195098615
 30
0.0
 10
11.6366529019
 20
8.8228705722
 30
0.0
  0
SPLINE
  5
384
100
AcDbEntity
  8
0
100
AcDbSpline
 62
7
  6
CONTINUOUS
 70
0
 71
3
 72
16
 73
12
 74
0
 42
0.0000001
 43
0.0000001
 44
0.0000000001
 40
0.0
 40
0.0
 40
0.0
 40
0.0
 40
0.1423887867
 40
0.2742380081
 40
0.3973255023
 40
0.5143625968
 40
0.5717956534
 40
0.6291363039
 40
0.7455665134
 40
0.8680057571
 40
1.0
 40
1.0
 40
1.0
 40
1.0
 10
11.0422801534
 20
7.8417093222
 30
0.0
 10
11.0421469441
 20
7.8420049227
 30
0.0
 10
11.0419199415
 20
7.8425885106
 30
0.0
 10
11.0417046493
 20
7.8434703823
 30
0.0
 10
11.041634276
 20
7.84431846
 30
0.0
 10
11.041702908
 20
7.8449971838
 30
0.0
 10
11.0418349475
 20
7.8455091021
 30
0.0
 10
11.0420179426
 20
7.84600361
 30
0.0
 10
11.0423492684
 20
7.846596847
 30
0.0
 10
11.0428983869
 20
7.8472441875
 30
0.0
 10
11.0433436979
 20
7.8476189354
 30
0.0
 10
11.0435860421
 20
7.8477967147
 30
0.0
  0
SPLINE
  5
385
100
AcDbEntity
  8
0
100
AcDbSpline
 62
7
  6
CONTINUOUS
 70
0
 71
3
 72
36
 73
32
 74
0
 42
0.0000001
 43
0.0000001
 44
0.0000000001
 40
0.0
 40
0.0
 40
0.0
 40
0.0
 40
0.0154241116
 40
0.0308027927
 40
0.0461357066
 40
0.0614280043
 40
0.0766844158
 40
0.0919090669
 40
0.1071069492
 40
0.1222830176
 40
0.1525804379
 40
0.1828492138
 40
0.213123921
 40
0.2434341956
 40
0.2738042846
 40
0.3042532039
 40
0.3347952692
 40
0.3654407891
 40
0.3961967699
 40
0.4270675447
 40
0.4891351505
 40
0.5203571783
 40
0.5516943849
 40
0.6146836021
 40
0.6780972364
 40
0.7418999101
 40
0.8060486815
 40
0.8704912827
 40
0.902813463
 40
0.9351838881
 40
1.0
 40
1.0
 40
1.0
 40
1.0
 10
11.5112379171
 20
8.180552928
 30
0.0
 10
11.5109035693
 20
8.1790031327
 30
0.0
 10
11.5101548663
 20
8.175924932
 30
0.0
 10
11.5087932436
 20
8.1713801317
 30
0.0
 10
11.5071989098
 20
8.1669258992
 30
0.0
 10
11.5053777297
 20
8.1625731938
 30
0.0
 10
11.5033365505
 20
8.1583315776
 30
0.0
 10
11.5010828522
 20
8.1542100996
 30
0.0
 10
11.498625204
 20
8.1502165208
 30
0.0
 10
11.4950911095
 20
8.1450754496
 30
0.0
 10
11.4902062289
 20
8.1389955541
 30
0.0
 10
11.4836797618
 20
8.132299078
 30
0.0
 10
11.4765699855
 20
8.1262247096
 30
0.0
 10
11.4689542008
 20
8.1207826774
 30
0.0
 10
11.460904334
 20
8.1159733183
 30
0.0
 10
11.4524864059
 20
8.1117904619
 30
0.0
 10
11.4437600274
 20
8.1082233281
 30
0.0
 10
11.4347788153
 20
8.1052583343
 30
0.0
 10
11.4255900752
 20
8.1028802882
 30
0.0
 10
11.4131000415
 20
8.1004674918
 30
0.0
 10
11.4003698489
 20
8.0991729574
 30
0.0
 10
11.3875572759
 20
8.0989285877
 30
0.0
 10
11.3746541271
 20
8.0993687253
 30
0.0
 10
11.3585111224
 20
8.1011786981
 30
0.0
 10
11.3393616934
 20
8.1052681373
 30
0.0
 10
11.3205800028
 20
8.1112159993
 30
0.0
 10
11.302356552
 20
8.1189735858
 30
0.0
 10
11.2878120179
 20
8.1269112176
 30
0.0
 10
11.2766672601
 20
8.1341314794
 30
0.0
 10
11.2658790976
 20
8.1419376049
 30
0.0
 10
11.2582566091
 20
8.1484356181
 30
0.0
 10
11.2534405718
 20
8.1530393505
 30
0.0
  0
SPLINE
  5
386
100
AcDbEntity
  8
0
100
AcDbSpline
 62
7
  6
CONTINUOUS
 70
0
 71
3
 72
15
 73
11
 74
0
 42
0.0000001
 43
0.0000001
 44
0.0000000001
 40
0.0
 40
0.0
 40
0.0
 40
0.0
 40
0.1273482292
 40
0.2538605354
 40
0.3795879276
 40
0.5046050833
 40
0.6290174349
 40
0.7529533662
 40
0.8765605734
 40
1.0
 40
1.0
 40
1.0
 40
1.0
 10
11.6629849133
 20
7.5884882982
 30
0.0
 10
11.6629849133
 20
7.5910907281
 30
0.0
 10
11.6632333919
 20
7.5962821033
 30
0.0
 10
11.664357118
 20
7.6039693215
 30
0.0
 10
11.6662204462
 20
7.6114633884
 30
0.0
 10
11.6688065499
 20
7.6186942167
 30
0.0
 10
11.6720916848
 20
7.6255951277
 30
0.0
 10
11.6760459168
 20
7.632102398
 30
0.0
 10
11.6806320655
 20
7.6381550534
 30
0.0
 10
11.6840852015
 20
7.6418523622
 30
0.0
 10
11.685899562
 20
7.6436048923
 30
0.0
  0
SPLINE
  5
387
100
AcDbEntity
  8
0
100
AcDbSpline
 62
7
  6
CONTINUOUS
 70
0
 71
3
 72
41
 73
37
 74
0
 42
0.0000001
 43
0.0000001
 44
0.0000000001
 40
0.0
 40
0.0
 40
0.0
 40
0.0
 40
0.0311444983
 40
0.062442467
 40
0.093887251
 40
0.1254695609
 40
0.157177086
 40
0.1889950997
 40
0.2209066479
 40
0.2528929497
 40
0.284933762
 40
0.3170077852
 40
0.3490930781
 40
0.3811674822
 40
0.4132090489
 40
0.445196464
 40
0.4771094635
 40
0.5089292351
 40
0.540638799
 40
0.5722233621
 40
0.6036706378
 40
0.6349711269
 40
0.6661183495
 40
0.6971090237
 40
0.7279431823
 40
0.7586242225
 40
0.7891588828
 40
0.8195571428
 40
0.8498320452
 40
0.86493089
 40
0.8800050502
 40
0.9100832578
 40
0.9400926753
 40
0.9550812784
 40
0.9700610371
 40
1.0
 40
1.0
 40
1.0
 40
1.0
 10
9.5995152677
 20
6.8395925226
 30
0.0
 10
9.5962013201
 20
6.8398223457
 30
0.0
 10
9.5895714521
 20
6.8405256984
 30
0.0
 10
9.5797070353
 20
6.8422974295
 30
0.0
 10
9.5699482608
 20
6.8447791327
 30
0.0
 10
9.5603478672
 20
6.8479574078
 30
0.0
 10
9.5509568324
 20
6.8518152542
 30
0.0
 10
9.5418252574
 20
6.85633202
 30
0.0
 10
9.5330017862
 20
6.861483574
 30
0.0
 10
9.5245334352
 20
6.8672424082
 30
0.0
 10
9.5164653235
 20
6.8735777947
 30
0.0
 10
9.5088404411
 20
6.8804559441
 30
0.0
 10
9.5016994209
 20
6.8878401859
 30
0.0
 10
9.4950803249
 20
6.8956911616
 30
0.0
 10
9.4890184429
 20
6.9039670327
 30
0.0
 10
9.4835461063
 20
6.9126237013
 30
0.0
 10
9.4786925173
 20
6.9216150423
 30
0.0
 10
9.4744835936
 20
6.9308931465
 30
0.0
 10
9.4709418314
 20
6.9404085729
 30
0.0
 10
9.4680861846
 20
6.9501106082
 30
0.0
 10
9.4659319636
 20
6.959947534
 30
0.0
 10
9.4644907518
 20
6.9698668987
 30
0.0
 10
9.4637703413
 20
6.9798157934
 30
0.0
 10
9.4637746872
 20
6.9897411289
 30
0.0
 10
9.4645038867
 20
6.9995899254
 30
0.0
 10
9.4659541539
 20
7.0093095556
 30
0.0
 10
9.4681179065
 20
7.0188481659
 30
0.0
 10
9.4709835305
 20
7.0281544285
 30
0.0
 10
9.4739470806
 20
7.0356826514
 30
0.0
 10
9.4766514638
 20
7.0415370179
 30
0.0
 10
9.4795700359
 20
7.0472640843
 30
0.0
 10
9.4836222952
 20
7.0541912814
 30
0.0
 10
9.4881957556
 20
7.060774961
 30
0.0
 10
9.4921478934
 20
7.0658073701
 30
0.0
 10
9.496288574
 20
7.0706755149
 30
0.0
 10
9.4996059702
 20
7.0741412356
 30
0.0
 10
9.5019027751
 20
7.076359794
 30
0.0
  0
SPLINE
  5
388
100
AcDbEntity
  8
0
100
AcDbSpline
 62
7
  6
CONTINUOUS
 70
0
 71
3
 72
39
 73
35
 74
0
 42
0.0000001
 43
0.0000001
 44
0.0000000001
 40
0.0
 40
0.0
 40
0.0
 40
0.0
 40
0.0311160054
 40
0.0620232808
 40
0.0927351539
 40
0.1232711756
 40
0.1536587326
 40
0.1839312105
 40
0.2141268386
 40
0.2442870981
 40
0.2744549747
 40
0.3046731306
 40
0.33498209
 40
0.365418544
 40
0.3960138629
 40
0.4267928807
 40
0.457772997
 40
0.4889636213
 40
0.5203659688
 40
0.551973177
 40
0.5837707173
 40
0.6157370643
 40
0.6478445906
 40
0.6800606397
 40
0.7123487305
 40
0.7446698622
 40
0.7769838838
 40
0.8092508928
 40
0.841432625
 40
0.8734938027
 40
0.9054033951
 40
0.9371359477
 40
0.9686717614
 40
1.0
 40
1.0
 40
1.0
 40
1.0
 10
10.0969671187
 20
7.7212748185
 30
0.0
 10
10.0969671187
 20
7.724612762
 30
0.0
 10
10.0972929857
 20
7.7312710875
 30
0.0
 10
10.09876676
 20
7.7411254607
 30
0.0
 10
10.101209918
 20
7.7507224091
 30
0.0
 10
10.1045993649
 20
7.7599680527
 30
0.0
 10
10.1089026668
 20
7.7687732848
 30
0.0
 10
10.1140785234
 20
7.7770527957
 30
0.0
 10
10.1200770495
 20
7.7847264307
 30
0.0
 10
10.1268403125
 20
7.7917198588
 30
0.0
 10
10.1343028889
 20
7.7979653765
 30
0.0
 10
10.1423925293
 20
7.803402581
 30
0.0
 10
10.1510308711
 20
7.8079790216
 30
0.0
 10
10.1601342722
 20
7.8116506834
 30
0.0
 10
10.1696146648
 20
7.8143823902
 30
0.0
 10
10.1793804381
 20
7.816148113
 30
0.0
 10
10.1893373376
 20
7.8169312007
 30
0.0
 10
10.1993893883
 20
7.8167245258
 30
0.0
 10
10.2094398219
 20
7.8155304699
 30
0.0
 10
10.2193919909
 20
7.8133608772
 30
0.0
 10
10.2291502732
 20
7.8102369087
 30
0.0
 10
10.2386209796
 20
7.8061888639
 30
0.0
 10
10.247713232
 20
7.801255855
 30
0.0
 10
10.2563398045
 20
7.7954854134
 30
0.0
 10
10.2644179387
 20
7.788933039
 30
0.0
 10
10.2718701214
 20
7.7816616814
 30
0.0
 10
10.278624841
 20
7.7737411683
 30
0.0
 10
10.2846172324
 20
7.7652475081
 30
0.0
 10
10.289789692
 20
7.7562621931
 30
0.0
 10
10.2940924079
 20
7.7468713917
 30
0.0
 10
10.2974838935
 20
7.7371653003
 30
0.0
 10
10.299931291
 20
7.727236777
 30
0.0
 10
10.3014108913
 20
7.717182417
 30
0.0
 10
10.301743406
 20
7.7104342454
 30
0.0
 10
10.301743406
 20
7.7070735347
 30
0.0
  0
SPLINE
  5
389
100
AcDbEntity
  8
0
100
AcDbSpline
 62
7
  6
CONTINUOUS
 70
0
 71
3
 72
80
 73
76
 74
0
 42
0.0000001
 43
0.0000001
 44
0.0000000001
 40
0.0
 40
0.0
 40
0.0
 40
0.0
 40
0.0027164327
 40
0.0054532447
 40
0.0082303176
 40
0.0110666212
 40
0.0139798388
 40
0.016986154
 40
0.0201001347
 40
0.0233346582
 40
0.0267010284
 40
0.0302089968
 40
0.0338669183
 40
0.0376819076
 40
0.0416598906
 40
0.0458058349
 40
0.0501237838
 40
0.0546169826
 40
0.0592880207
 40
0.0641388059
 40
0.0691707482
 40
0.0743847477
 40
0.0853596785
 40
0.0970635549
 40
0.1094903305
 40
0.1226296146
 40
0.1364673135
 40
0.1509861535
 40
0.1661660759
 40
0.1819845508
 40
0.1984168195
 40
0.2154361185
 40
0.2330138792
 40
0.2511198904
 40
0.2697224401
 40
0.2887884373
 40
0.3082835515
 40
0.3281723331
 40
0.348418324
 40
0.368984158
 40
0.3898316649
 40
0.4109219833
 40
0.4536720365
 40
0.4969140898
 40
0.5403224212
 40
0.5835697178
 40
0.6263302119
 40
0.6682828124
 40
0.6888582723
 40
0.7091151075
 40
0.7290159233
 40
0.74852422
 40
0.7676045125
 40
0.7862224423
 40
0.804344885
 40
0.8219400731
 40
0.8389777322
 40
0.8554292445
 40
0.8712678001
 40
0.8864685754
 40
0.9010089485
 40
0.9148687687
 40
0.92803068
 40
0.940480496
 40
0.9522076877
 40
0.9577984663
 40
0.9632066952
 40
0.9684323943
 40
0.9734759977
 40
0.9783383604
 40
0.9830208115
 40
0.987525367
 40
0.9918546057
 40
0.996011597
 40
1.0
 40
1.0
 40
1.0
 40
1.0
 10
12.9481713571
 20
8.3292779353
 30
0.0
 10
12.9489748315
 20
8.3292222097
 30
0.0
 10
12.9505836939
 20
8.3290376132
 30
0.0
 10
12.9529764956
 20
8.3285436257
 30
0.0
 10
12.9553512243
 20
8.3278326974
 30
0.0
 10
12.9577061663
 20
8.3269054389
 30
0.0
 10
12.960040117
 20
8.3257627229
 30
0.0
 10
12.96235189
 20
8.3244054456
 30
0.0
 10
12.9646403841
 20
8.3228345262
 30
0.0
 10
12.9669046339
 20
8.3210510281
 30
0.0
 10
12.9691436126
 20
8.3190559329
 30
0.0
 10
12.9713563796
 20
8.3168503626
 30
0.0
 10
12.9735419801
 20
8.3144354717
 30
0.0
 10
12.9756994008
 20
8.3118124531
 30
0.0
 10
12.9778277212
 20
8.3089826548
 30
0.0
 10
12.9799259133
 20
8.305947444
 30
0.0
 10
12.9819930074
 20
8.3027083275
 30
0.0
 10
12.9840280384
 20
8.2992669072
 30
0.0
 10
12.9860299791
 20
8.2956248566
 30
0.0
 10
12.9879978996
 20
8.2917839986
 30
0.0
 10
12.9899308269
 20
8.2877462108
 30
0.0
 10
12.992504168
 20
8.2820040621
 30
0.0
 10
12.9956161061
 20
8.2743386573
 30
0.0
 10
12.9991348681
 20
8.2645403309
 30
0.0
 10
13.0024922017
 20
8.2540101263
 30
0.0
 10
13.0056813505
 20
8.2427690076
 30
0.0
 10
13.0086958832
 20
8.230839193
 30
0.0
 10
13.0115296862
 20
8.2182444416
 30
0.0
 10
13.0141770014
 20
8.2050098782
 30
0.0
 10
13.016632438
 20
8.1911619644
 30
0.0
 10
13.0188910007
 20
8.1767284327
 30
0.0
 10
13.020948097
 20
8.1617382236
 30
0.0
 10
13.0227995394
 20
8.1462214141
 30
0.0
 10
13.0244415574
 20
8.1302091522
 30
0.0
 10
13.0258708027
 20
8.1137335963
 30
0.0
 10
13.0270843701
 20
8.0968278506
 30
0.0
 10
13.0280797895
 20
8.0795258928
 30
0.0
 10
13.028855031
 20
8.061862501
 30
0.0
 10
13.0294085095
 20
8.0438731812
 30
0.0
 10
13.0297390835
 20
8.0255941113
 30
0.0
 10
13.0298460961
 20
8.007062019
 30
0.0
 10
13.0296895898
 20
7.9819526087
 30
0.0
 10
13.0289302466
 20
7.9502093482
 30
0.0
 10
13.0271406849
 20
7.9118815649
 30
0.0
 10
13.024482802
 20
7.8734563354
 30
0.0
 10
13.0209779817
 20
7.8352424188
 30
0.0
 10
13.016654476
 20
7.7975468801
 30
0.0
 10
13.0123713984
 20
7.7666213996
 30
0.0
 10
13.0085539292
 20
7.7423743509
 30
0.0
 10
13.0055282545
 20
7.7246228763
 30
0.0
 10
13.0023277521
 20
7.7072237044
 30
0.0
 10
12.998958847
 20
7.6902117885
 30
0.0
 10
12.995428348
 20
7.6736213269
 30
0.0
 10
12.9917433851
 20
7.6574856517
 30
0.0
 10
12.9879114008
 20
7.6418371763
 30
0.0
 10
12.9839401343
 20
7.6267073278
 30
0.0
 10
12.9798376045
 20
7.6121264771
 30
0.0
 10
12.9756121067
 20
7.5981238691
 30
0.0
 10
12.9712721824
 20
7.5847275629
 30
0.0
 10
12.9668266021
 20
7.5719643778
 30
0.0
 10
12.9622843418
 20
7.5598598252
 30
0.0
 10
12.9576545667
 20
7.5484380647
 30
0.0
 10
12.9529466034
 20
7.5377217532
 30
0.0
 10
12.9481699241
 20
7.5277322851
 30
0.0
 10
12.9440774338
 20
7.519909764
 30
0.0
 10
12.9407696529
 20
7.5140388578
 30
0.0
 10
12.9383171984
 20
7.5098999468
 30
0.0
 10
12.9358547345
 20
7.5059569775
 30
0.0
 10
12.93338348
 20
7.5022119064
 30
0.0
 10
12.9309046923
 20
7.4986665875
 30
0.0
 10
12.9284195365
 20
7.4953227849
 30
0.0
 10
12.9259292393
 20
7.4921820978
 30
0.0
 10
12.9234349423
 20
7.4892460813
 30
0.0
 10
12.9209380151
 20
7.4865163289
 30
0.0
 10
12.9192378544
 20
7.4847999497
 30
0.0
 10
12.9183873104
 20
7.4839783872
 30
0.0
  0
SPLINE
  5
38A
100
AcDbEntity
  8
0
100
AcDbSpline
 62
7
  6
CONTINUOUS
 70
0
 71
3
 72
11
 73
7
 74
0
 42
0.0000001
 43
0.0000001
 44
0.0000000001
 40
0.0
 40
0.0
 40
0.0
 40
0.0
 40
0.2525443671
 40
0.5033199223
 40
0.7524211827
 40
1.0
 40
1.0
 40
1.0
 40
1.0
 10
11.492536863
 20
7.5610058271
 30
0.0
 10
11.49508063
 20
7.5608294163
 30
0.0
 10
11.5001719724
 20
7.5607334781
 30
0.0
 10
11.507755344
 20
7.5613707827
 30
0.0
 10
11.5151824739
 20
7.5627828059
 30
0.0
 10
11.5199937033
 20
7.5642362031
 30
0.0
 10
11.5223446067
 20
7.565085884
 30
0.0
  0
SPLINE
  5
38B
100
AcDbEntity
  8
0
100
AcDbSpline
 62
7
  6
CONTINUOUS
 70
0
 71
3
 72
27
 73
23
 74
0
 42
0.0000001
 43
0.0000001
 44
0.0000000001
 40
0.0
 40
0.0
 40
0.0
 40
0.0
 40
0.0618985551
 40
0.1242874739
 40
0.1871177107
 40
0.2503123475
 40
0.3137755904
 40
0.3773971129
 40
0.4410581306
 40
0.5046377574
 40
0.5680194301
 40
0.6310971907
 40
0.693781529
 40
0.7560045494
 40
0.7869427751
 40
0.8177522888
 40
0.8484323942
 40
0.8789842966
 40
0.909411086
 40
0.9397177775
 40
0.9699112237
 40
1.0
 40
1.0
 40
1.0
 40
1.0
 10
11.492536863
 20
7.5610058271
 30
0.0
 10
11.4894768139
 20
7.5612180422
 30
0.0
 10
11.4833522474
 20
7.5620179455
 30
0.0
 10
11.4743452072
 20
7.564305875
 30
0.0
 10
11.4656059711
 20
7.5676528514
 30
0.0
 10
11.4572643061
 20
7.5720093047
 30
0.0
 10
11.449441835
 20
7.5773109329
 30
0.0
 10
11.4422531846
 20
7.5834798595
 30
0.0
 10
11.435803589
 20
7.5904256253
 30
0.0
 10
11.430187512
 20
7.5980464601
 30
0.0
 10
11.4254874192
 20
7.6062307756
 30
0.0
 10
11.4217724645
 20
7.6148590151
 30
0.0
 10
11.4190975174
 20
7.6238039181
 30
0.0
 10
11.4177654266
 20
7.6314312634
 30
0.0
 10
11.4172552176
 20
7.6375565132
 30
0.0
 10
11.4171504616
 20
7.6421385223
 30
0.0
 10
11.4173234519
 20
7.6466991821
 30
0.0
 10
11.4177735558
 20
7.6512218952
 30
0.0
 10
11.418499186
 20
7.6556899176
 30
0.0
 10
11.4194976571
 20
7.6600868598
 30
0.0
 10
11.4207652328
 20
7.664396286
 30
0.0
 10
11.4217885195
 20
7.6672053856
 30
0.0
 10
11.4223432447
 20
7.6685894128
 30
0.0
  0
SPLINE
  5
38C
100
AcDbEntity
  8
0
100
AcDbSpline
 62
7
  6
CONTINUOUS
 70
0
 71
3
 72
30
 73
26
 74
0
 42
0.0000001
 43
0.0000001
 44
0.0000000001
 40
0.0
 40
0.0
 40
0.0
 40
0.0
 40
0.0139144096
 40
0.029551447
 40
0.047019465
 40
0.0663336147
 40
0.0874443995
 40
0.1102674598
 40
0.1347000521
 40
0.1606332001
 40
0.187959034
 40
0.2165728491
 40
0.2463778113
 40
0.2772818454
 40
0.3092003811
 40
0.3420527451
 40
0.4102562438
 40
0.4813022722
 40
0.5545959718
 40
0.6294980313
 40
0.7052926502
 40
0.7811704997
 40
0.8562305481
 40
0.9295040994
 40
1.0
 40
1.0
 40
1.0
 40
1.0
 10
11.0435860421
 20
7.8477967147
 30
0.0
 10
11.0439234794
 20
7.8480442525
 30
0.0
 10
11.0446890992
 20
7.848504042
 30
0.0
 10
11.0459894823
 20
7.8490665395
 30
0.0
 10
11.0474931915
 20
7.8495469762
 30
0.0
 10
11.0491875997
 20
7.8499528762
 30
0.0
 10
11.0510599542
 20
7.8502930211
 30
0.0
 10
11.0530969734
 20
7.8505764761
 30
0.0
 10
11.0552857842
 20
7.8508126018
 30
0.0
 10
11.057614189
 20
7.8510108036
 30
0.0
 10
11.0600708775
 20
7.851180086
 30
0.0
 10
11.0626454815
 20
7.8513293011
 30
0.0
 10
11.0653284978
 20
7.8514665186
 30
0.0
 10
11.0681112247
 20
7.8515996026
 30
0.0
 10
11.0709855718
 20
7.8517356068
 30
0.0
 10
11.0749801324
 20
7.8519322245
 30
0.0
 10
11.080148559
 20
7.852218025
 30
0.0
 10
11.0865258622
 20
7.8526636802
 30
0.0
 10
11.0930941814
 20
7.8532509279
 30
0.0
 10
11.0997891894
 20
7.8540066746
 30
0.0
 10
11.1065392113
 20
7.8549485448
 30
0.0
 10
11.1132644154
 20
7.8560834646
 30
0.0
 10
11.1198780293
 20
7.8574060804
 30
0.0
 10
11.1262894626
 20
7.8588976656
 30
0.0
 10
11.1304689638
 20
7.8600096895
 30
0.0
 10
11.1325090424
 20
7.8605872772
 30
0.0
  0
SPLINE
  5
38D
100
AcDbEntity
  8
0
100
AcDbSpline
 62
7
  6
CONTINUOUS
 70
0
 71
3
 72
39
 73
35
 74
0
 42
0.0000001
 43
0.0000001
 44
0.0000000001
 40
0.0
 40
0.0
 40
0.0
 40
0.0
 40
0.0311160054
 40
0.0620232808
 40
0.0927351539
 40
0.1232711756
 40
0.1536587326
 40
0.1839312105
 40
0.2141268386
 40
0.2442870981
 40
0.2744549747
 40
0.3046731306
 40
0.33498209
 40
0.365418544
 40
0.3960138629
 40
0.4267928807
 40
0.457772997
 40
0.4889636213
 40
0.5203659688
 40
0.551973177
 40
0.5837707173
 40
0.6157370643
 40
0.6478445906
 40
0.6800606397
 40
0.7123487305
 40
0.7446698622
 40
0.7769838838
 40
0.8092508928
 40
0.841432625
 40
0.8734938027
 40
0.9054033951
 40
0.9371359477
 40
0.9686717614
 40
1.0
 40
1.0
 40
1.0
 40
1.0
 10
10.301743406
 20
7.7070735347
 30
0.0
 10
10.301743406
 20
7.7037355912
 30
0.0
 10
10.301417539
 20
7.6970772657
 30
0.0
 10
10.2999437647
 20
7.6872228925
 30
0.0
 10
10.2975006066
 20
7.6776259441
 30
0.0
 10
10.2941111598
 20
7.6683803005
 30
0.0
 10
10.2898078578
 20
7.6595750684
 30
0.0
 10
10.2846320013
 20
7.6512955575
 30
0.0
 10
10.2786334751
 20
7.6436219226
 30
0.0
 10
10.2718702122
 20
7.6366284944
 30
0.0
 10
10.2644076358
 20
7.6303829767
 30
0.0
 10
10.2563179953
 20
7.6249457722
 30
0.0
 10
10.2476796536
 20
7.6203693316
 30
0.0
 10
10.2385762524
 20
7.6166976698
 30
0.0
 10
10.2290958598
 20
7.613965963
 30
0.0
 10
10.2193300866
 20
7.6122002402
 30
0.0
 10
10.209373187
 20
7.6114171525
 30
0.0
 10
10.1993211363
 20
7.6116238274
 30
0.0
 10
10.1892707028
 20
7.6128178833
 30
0.0
 10
10.1793185337
 20
7.614987476
 30
0.0
 10
10.1695602515
 20
7.6181114445
 30
0.0
 10
10.160089545
 20
7.6221594894
 30
0.0
 10
10.1509972926
 20
7.6270924982
 30
0.0
 10
10.1423707201
 20
7.6328629398
 30
0.0
 10
10.1342925859
 20
7.6394153142
 30
0.0
 10
10.1268404032
 20
7.6466866718
 30
0.0
 10
10.1200856836
 20
7.6546071849
 30
0.0
 10
10.1140932922
 20
7.6631008451
 30
0.0
 10
10.1089208327
 20
7.6720861601
 30
0.0
 10
10.1046181168
 20
7.6814769615
 30
0.0
 10
10.1012266311
 20
7.6911830529
 30
0.0
 10
10.0987792337
 20
7.7011115762
 30
0.0
 10
10.0972996334
 20
7.7111659362
 30
0.0
 10
10.0969671187
 20
7.7179141078
 30
0.0
 10
10.0969671187
 20
7.7212748185
 30
0.0
  0
SPLINE
  5
38E
100
AcDbEntity
  8
0
100
AcDbSpline
 62
7
  6
CONTINUOUS
 70
0
 71
3
 72
39
 73
35
 74
0
 42
0.0000001
 43
0.0000001
 44
0.0000000001
 40
0.0
 40
0.0
 40
0.0
 40
0.0
 40
0.0311160054
 40
0.0620232808
 40
0.0927351539
 40
0.1232711756
 40
0.1536587326
 40
0.1839312105
 40
0.2141268386
 40
0.2442870981
 40
0.2744549747
 40
0.3046731306
 40
0.33498209
 40
0.365418544
 40
0.3960138629
 40
0.4267928807
 40
0.457772997
 40
0.4889636213
 40
0.5203659688
 40
0.551973177
 40
0.5837707173
 40
0.6157370643
 40
0.6478445906
 40
0.6800606397
 40
0.7123487305
 40
0.7446698622
 40
0.7769838838
 40
0.8092508928
 40
0.841432625
 40
0.8734938027
 40
0.9054033951
 40
0.9371359477
 40
0.9686717614
 40
1.0
 40
1.0
 40
1.0
 40
1.0
 10
10.0969671187
 20
8.898738453
 30
0.0
 10
10.0969671187
 20
8.9020763965
 30
0.0
 10
10.0972929857
 20
8.908734722
 30
0.0
 10
10.09876676
 20
8.9185890953
 30
0.0
 10
10.101209918
 20
8.9281860436
 30
0.0
 10
10.1045993649
 20
8.9374316872
 30
0.0
 10
10.1089026668
 20
8.9462369194
 30
0.0
 10
10.1140785234
 20
8.9545164302
 30
0.0
 10
10.1200770495
 20
8.9621900652
 30
0.0
 10
10.1268403125
 20
8.9691834933
 30
0.0
 10
10.1343028889
 20
8.9754290111
 30
0.0
 10
10.1423925293
 20
8.9808662155
 30
0.0
 10
10.1510308711
 20
8.9854426561
 30
0.0
 10
10.1601342722
 20
8.9891143179
 30
0.0
 10
10.1696146648
 20
8.9918460247
 30
0.0
 10
10.1793804381
 20
8.9936117475
 30
0.0
 10
10.1893373376
 20
8.9943948352
 30
0.0
 10
10.1993893883
 20
8.9941881603
 30
0.0
 10
10.2094398219
 20
8.9929941044
 30
0.0
 10
10.2193919909
 20
8.9908245117
 30
0.0
 10
10.2291502732
 20
8.9877005432
 30
0.0
 10
10.2386209796
 20
8.9836524984
 30
0.0
 10
10.247713232
 20
8.9787194895
 30
0.0
 10
10.2563398045
 20
8.9729490479
 30
0.0
 10
10.2644179387
 20
8.9663966735
 30
0.0
 10
10.2718701214
 20
8.9591253159
 30
0.0
 10
10.278624841
 20
8.9512048028
 30
0.0
 10
10.2846172324
 20
8.9427111426
 30
0.0
 10
10.289789692
 20
8.9337258276
 30
0.0
 10
10.2940924079
 20
8.9243350262
 30
0.0
 10
10.2974838935
 20
8.9146289348
 30
0.0
 10
10.299931291
 20
8.9047004115
 30
0.0
 10
10.3014108913
 20
8.8946460515
 30
0.0
 10
10.301743406
 20
8.8878978799
 30
0.0
 10
10.301743406
 20
8.8845371692
 30
0.0
  0
SPLINE
  5
38F
100
AcDbEntity
  8
0
100
AcDbSpline
 62
7
  6
CONTINUOUS
 70
0
 71
3
 72
39
 73
35
 74
0
 42
0.0000001
 43
0.0000001
 44
0.0000000001
 40
0.0
 40
0.0
 40
0.0
 40
0.0
 40
0.0311160054
 40
0.0620232808
 40
0.0927351539
 40
0.1232711756
 40
0.1536587326
 40
0.1839312105
 40
0.2141268386
 40
0.2442870981
 40
0.2744549747
 40
0.3046731306
 40
0.33498209
 40
0.365418544
 40
0.3960138629
 40
0.4267928807
 40
0.457772997
 40
0.4889636213
 40
0.5203659688
 40
0.551973177
 40
0.5837707173
 40
0.6157370643
 40
0.6478445906
 40
0.6800606397
 40
0.7123487305
 40
0.7446698622
 40
0.7769838838
 40
0.8092508928
 40
0.841432625
 40
0.8734938027
 40
0.9054033951
 40
0.9371359477
 40
0.9686717614
 40
1.0
 40
1.0
 40
1.0
 40
1.0
 10
10.301743406
 20
8.8845371692
 30
0.0
 10
10.301743406
 20
8.8811992257
 30
0.0
 10
10.301417539
 20
8.8745409002
 30
0.0
 10
10.2999437647
 20
8.864686527
 30
0.0
 10
10.2975006066
 20
8.8550895787
 30
0.0
 10
10.2941111598
 20
8.845843935
 30
0.0
 10
10.2898078578
 20
8.8370387029
 30
0.0
 10
10.2846320013
 20
8.828759192
 30
0.0
 10
10.2786334751
 20
8.8210855571
 30
0.0
 10
10.2718702122
 20
8.8140921289
 30
0.0
 10
10.2644076358
 20
8.8078466112
 30
0.0
 10
10.2563179953
 20
8.8024094067
 30
0.0
 10
10.2476796536
 20
8.7978329661
 30
0.0
 10
10.2385762524
 20
8.7941613044
 30
0.0
 10
10.2290958598
 20
8.7914295975
 30
0.0
 10
10.2193300866
 20
8.7896638747
 30
0.0
 10
10.209373187
 20
8.788880787
 30
0.0
 10
10.1993211363
 20
8.7890874619
 30
0.0
 10
10.1892707028
 20
8.7902815179
 30
0.0
 10
10.1793185337
 20
8.7924511105
 30
0.0
 10
10.1695602515
 20
8.795575079
 30
0.0
 10
10.160089545
 20
8.7996231239
 30
0.0
 10
10.1509972926
 20
8.8045561327
 30
0.0
 10
10.1423707201
 20
8.8103265744
 30
0.0
 10
10.1342925859
 20
8.8168789487
 30
0.0
 10
10.1268404032
 20
8.8241503063
 30
0.0
 10
10.1200856836
 20
8.8320708195
 30
0.0
 10
10.1140932922
 20
8.8405644796
 30
0.0
 10
10.1089208327
 20
8.8495497946
 30
0.0
 10
10.1046181168
 20
8.858940596
 30
0.0
 10
10.1012266311
 20
8.8686466874
 30
0.0
 10
10.0987792337
 20
8.8785752107
 30
0.0
 10
10.0972996334
 20
8.8886295707
 30
0.0
 10
10.0969671187
 20
8.8953777423
 30
0.0
 10
10.0969671187
 20
8.898738453
 30
0.0
  0
SPLINE
  5
390
100
AcDbEntity
  8
0
100
AcDbSpline
 62
7
  6
CONTINUOUS
 70
0
 71
3
 72
79
 73
75
 74
0
 42
0.0000001
 43
0.0000001
 44
0.0000000001
 40
0.0
 40
0.0
 40
0.0
 40
0.0
 40
0.0039560108
 40
0.0080772526
 40
0.0123672752
 40
0.0168290416
 40
0.0214650553
 40
0.0262773074
 40
0.0312671531
 40
0.0364354308
 40
0.041782613
 40
0.0473087458
 40
0.0588960363
 40
0.0711922394
 40
0.0841874692
 40
0.0978682933
 40
0.112218173
 40
0.1272178823
 40
0.1428458183
 40
0.1590782331
 40
0.1758894199
 40
0.1932519274
 40
0.2111367204
 40
0.2295133047
 40
0.248349839
 40
0.2676132841
 40
0.2872695146
 40
0.3072834118
 40
0.3276189584
 40
0.3691063989
 40
0.4114305973
 40
0.4542815324
 40
0.4973442442
 40
0.5403017884
 40
0.5828381983
 40
0.6246414709
 40
0.6451728663
 40
0.6654072997
 40
0.6853082261
 40
0.7048399086
 40
0.7239675321
 40
0.7426573194
 40
0.7608766185
 40
0.778594011
 40
0.7957794528
 40
0.8124044178
 40
0.8284420169
 40
0.8438671561
 40
0.8586567504
 40
0.8727899539
 40
0.8862483937
 40
0.8990164912
 40
0.9110819013
 40
0.9224360403
 40
0.9278452092
 40
0.9330754179
 40
0.9381269739
 40
0.943000636
 40
0.9476975505
 40
0.9522194153
 40
0.9565684954
 40
0.9607476489
 40
0.964760521
 40
0.9686115289
 40
0.9723060082
 40
0.9758503723
 40
0.9792521397
 40
0.9825201504
 40
0.9856646502
 40
0.9886973594
 40
0.9916316148
 40
0.994482309
 40
0.9972658479
 40
1.0
 40
1.0
 40
1.0
 40
1.0
 10
12.8884436085
 20
7.4986120265
 30
0.0
 10
12.8892583441
 20
7.4993990006
 30
0.0
 10
12.8908869558
 20
7.5010422634
 30
0.0
 10
12.8932794271
 20
7.5036541124
 30
0.0
 10
12.8956694586
 20
7.5064612616
 30
0.0
 10
12.8980557402
 20
7.5094622252
 30
0.0
 10
12.9004372061
 20
7.5126555332
 30
0.0
 10
12.9028127144
 20
7.5160396993
 30
0.0
 10
12.9051811629
 20
7.5196130937
 30
0.0
 10
12.9075414108
 20
7.5233739753
 30
0.0
 10
12.9098922839
 20
7.5273205381
 30
0.0
 10
12.9130630043
 20
7.5329163803
 30
0.0
 10
12.9169868663
 20
7.5403699726
 30
0.0
 10
12.9215686276
 20
7.5498860458
 30
0.0
 10
12.9260860855
 20
7.5600918513
 30
0.0
 10
12.9305303613
 20
7.5709675006
 30
0.0
 10
12.9348927358
 20
7.5824919249
 30
0.0
 10
12.9391646167
 20
7.5946426724
 30
0.0
 10
12.9433375795
 20
7.6073960481
 30
0.0
 10
12.9474033864
 20
7.6207271357
 30
0.0
 10
12.9513540277
 20
7.6346098516
 30
0.0
 10
12.955181712
 20
7.6490170125
 30
0.0
 10
12.9588788868
 20
7.6639203978
 30
0.0
 10
12.962438256
 20
7.6792907986
 30
0.0
 10
12.9658528123
 20
7.6950980715
 30
0.0
 10
12.9691158294
 20
7.7113112123
 30
0.0
 10
12.9722208673
 20
7.7278984111
 30
0.0
 10
12.9751618314
 20
7.744827147
 30
0.0
 10
12.9788812164
 20
7.7679634833
 30
0.0
 10
12.9830708425
 20
7.7974919943
 30
0.0
 10
12.9873289404
 20
7.8335123529
 30
0.0
 10
12.9908166877
 20
7.8700685949
 30
0.0
 10
12.9935066005
 20
7.9068739353
 30
0.0
 10
12.9953776096
 20
7.943639869
 30
0.0
 10
12.99641505
 20
7.9800779535
 30
0.0
 10
12.9965795171
 20
8.0101089551
 30
0.0
 10
12.99628066
 20
8.0337501025
 30
0.0
 10
12.9958464432
 20
8.0511162491
 30
0.0
 10
12.9952017676
 20
8.0681894032
 30
0.0
 10
12.9943478912
 20
8.0849360832
 30
0.0
 10
12.9932865163
 20
8.1013234199
 30
0.0
 10
12.9920197608
 20
8.1173192674
 30
0.0
 10
12.9905501433
 20
8.1328922505
 30
0.0
 10
12.9888805767
 20
8.148011828
 30
0.0
 10
12.9870143747
 20
8.1626483613
 30
0.0
 10
12.9849552537
 20
8.1767731786
 30
0.0
 10
12.9827073046
 20
8.190358625
 30
0.0
 10
12.9802749844
 20
8.2033781196
 30
0.0
 10
12.9776631203
 20
8.2158062215
 30
0.0
 10
12.9748769046
 20
8.2276186978
 30
0.0
 10
12.9719218598
 20
8.2387925452
 30
0.0
 10
12.9688038165
 20
8.2493061303
 30
0.0
 10
12.9655289121
 20
8.2591389702
 30
0.0
 10
12.9626294938
 20
8.2668703343
 30
0.0
 10
12.9602288809
 20
8.2726928607
 30
0.0
 10
12.9584223642
 20
8.2768070205
 30
0.0
 10
12.9565815167
 20
8.2807372776
 30
0.0
 10
12.9547072503
 20
8.2844817527
 30
0.0
 10
12.9528004281
 20
8.2880386173
 30
0.0
 10
12.9508619746
 20
8.2914061611
 30
0.0
 10
12.9488928306
 20
8.2945827764
 30
0.0
 10
12.9468938665
 20
8.2975669075
 30
0.0
 10
12.9448660538
 20
8.3003571468
 30
0.0
 10
12.9428102993
 20
8.3029521448
 30
0.0
 10
12.940727495
 20
8.3053506208
 30
0.0
 10
12.9386186057
 20
8.30755144
 30
0.0
 10
12.9364844914
 20
8.3095534593
 30
0.0
 10
12.9343260735
 20
8.311355646
 30
0.0
 10
12.9321442891
 20
8.3129570434
 30
0.0
 10
12.929940017
 20
8.3143566383
 30
0.0
 10
12.9277142966
 20
8.3155535767
 30
0.0
 10
12.9254680937
 20
8.3165469917
 30
0.0
 10
12.9232027782
 20
8.3173359872
 30
0.0
 10
12.9216698841
 20
8.31772802
 30
0.0
 10
12.9209036266
 20
8.3178885253
 30
0.0
  0
SPLINE
  5
391
100
AcDbEntity
  8
0
100
AcDbSpline
 62
7
  6
CONTINUOUS
 70
0
 71
3
 72
39
 73
35
 74
0
 42
0.0000001
 43
0.0000001
 44
0.0000000001
 40
0.0
 40
0.0
 40
0.0
 40
0.0
 40
0.0311160054
 40
0.0620232808
 40
0.0927351539
 40
0.1232711756
 40
0.1536587326
 40
0.1839312105
 40
0.2141268386
 40
0.2442870981
 40
0.2744549747
 40
0.3046731306
 40
0.33498209
 40
0.365418544
 40
0.3960138629
 40
0.4267928807
 40
0.457772997
 40
0.4889636213
 40
0.5203659688
 40
0.551973177
 40
0.5837707173
 40
0.6157370643
 40
0.6478445906
 40
0.6800606397
 40
0.7123487305
 40
0.7446698622
 40
0.7769838838
 40
0.8092508928
 40
0.841432625
 40
0.8734938027
 40
0.9054033951
 40
0.9371359477
 40
0.9686717614
 40
1.0
 40
1.0
 40
1.0
 40
1.0
 10
11.6366529019
 20
8.8228705722
 30
0.0
 10
11.6366529019
 20
8.8262085157
 30
0.0
 10
11.6369787689
 20
8.8328668412
 30
0.0
 10
11.6384525432
 20
8.8427212144
 30
0.0
 10
11.6408957013
 20
8.8523181628
 30
0.0
 10
11.6442851481
 20
8.8615638064
 30
0.0
 10
11.6485884501
 20
8.8703690385
 30
0.0
 10
11.6537643066
 20
8.8786485494
 30
0.0
 10
11.6597628328
 20
8.8863221843
 30
0.0
 10
11.6665260957
 20
8.8933156125
 30
0.0
 10
11.6739886721
 20
8.8995611302
 30
0.0
 10
11.6820783126
 20
8.9049983347
 30
0.0
 10
11.6907166543
 20
8.9095747753
 30
0.0
 10
11.6998200555
 20
8.9132464371
 30
0.0
 10
11.7093004481
 20
8.9159781439
 30
0.0
 10
11.7190662213
 20
8.9177438667
 30
0.0
 10
11.7290231209
 20
8.9185269544
 30
0.0
 10
11.7390751716
 20
8.9183202795
 30
0.0
 10
11.7491256051
 20
8.9171262236
 30
0.0
 10
11.7590777742
 20
8.9149566309
 30
0.0
 10
11.7688360564
 20
8.9118326624
 30
0.0
 10
11.7783067629
 20
8.9077846175
 30
0.0
 10
11.7873990153
 20
8.9028516087
 30
0.0
 10
11.7960255878
 20
8.8970811671
 30
0.0
 10
11.804103722
 20
8.8905287927
 30
0.0
 10
11.8115559047
 20
8.8832574351
 30
0.0
 10
11.8183106243
 20
8.875336922
 30
0.0
 10
11.8243030157
 20
8.8668432618
 30
0.0
 10
11.8294754752
 20
8.8578579468
 30
0.0
 10
11.8337781911
 20
8.8484671454
 30
0.0
 10
11.8371696768
 20
8.838761054
 30
0.0
 10
11.8396170742
 20
8.8288325307
 30
0.0
 10
11.8410966745
 20
8.8187781707
 30
0.0
 10
11.8414291892
 20
8.8120299991
 30
0.0
 10
11.8414291892
 20
8.8086692884
 30
0.0
  0
SPLINE
  5
392
100
AcDbEntity
  8
0
100
AcDbSpline
 62
4
  6
CONTINUOUS
 70
0
 71
3
 72
397
 73
393
 74
0
 42
0.0000001
 43
0.0000001
 44
0.0000000001
 40
0.0
 40
0.0
 40
0.0
 40
0.0
 40
0.015625
 40
0.0234375
 40
0.03125
 40
0.0390625
 40
0.04296875
 40
0.046875
 40
0.05078125
 40
0.0546875
 40
0.056640625
 40
0.05859375
 40
0.0595703125
 40
0.060546875
 40
0.0615234375
 40
0.0620117188
 40
0.0622558594
 40
0.0625
 40
0.0627441406
 40
0.0629882812
 40
0.0634765625
 40
0.064453125
 40
0.0654296875
 40
0.06640625
 40
0.068359375
 40
0.0703125
 40
0.07421875
 40
0.078125
 40
0.08203125
 40
0.0859375
 40
0.09375
 40
0.1015625
 40
0.10546875
 40
0.109375
 40
0.11328125
 40
0.1171875
 40
0.119140625
 40
0.12109375
 40
0.1220703125
 40
0.123046875
 40
0.1240234375
 40
0.1245117188
 40
0.125
 40
0.1254882812
 40
0.1259765625
 40
0.126953125
 40
0.1279296875
 40
0.12890625
 40
0.130859375
 40
0.1328125
 40
0.13671875
 40
0.140625
 40
0.14453125
 40
0.1484375
 40
0.15625
 40
0.1640625
 40
0.16796875
 40
0.171875
 40
0.17578125
 40
0.1796875
 40
0.181640625
 40
0.18359375
 40
0.1845703125
 40
0.185546875
 40
0.1865234375
 40
0.1870117188
 40
0.1872558594
 40
0.1875
 40
0.1877441406
 40
0.1879882812
 40
0.1884765625
 40
0.189453125
 40
0.1904296875
 40
0.19140625
 40
0.193359375
 40
0.1953125
 40
0.19921875
 40
0.203125
 40
0.20703125
 40
0.2109375
 40
0.21875
 40
0.2265625
 40
0.23046875
 40
0.234375
 40
0.23828125
 40
0.2421875
 40
0.244140625
 40
0.24609375
 40
0.2470703125
 40
0.248046875
 40
0.2490234375
 40
0.2495117188
 40
0.2497558594
 40
0.25
 40
0.2502441406
 40
0.2504882812
 40
0.2509765625
 40
0.251953125
 40
0.2529296875
 40
0.25390625
 40
0.255859375
 40
0.2578125
 40
0.26171875
 40
0.265625
 40
0.26953125
 40
0.2734375
 40
0.28125
 40
0.2890625
 40
0.29296875
 40
0.296875
 40
0.30078125
 40
0.3046875
 40
0.306640625
 40
0.30859375
 40
0.3095703125
 40
0.310546875
 40
0.3115234375
 40
0.3120117188
 40
0.3125
 40
0.3129882812
 40
0.3134765625
 40
0.314453125
 40
0.3154296875
 40
0.31640625
 40
0.318359375
 40
0.3203125
 40
0.32421875
 40
0.328125
 40
0.33203125
 40
0.3359375
 40
0.34375
 40
0.3515625
 40
0.35546875
 40
0.359375
 40
0.36328125
 40
0.3671875
 40
0.369140625
 40
0.37109375
 40
0.3720703125
 40
0.373046875
 40
0.3740234375
 40
0.3745117188
 40
0.375
 40
0.3754882812
 40
0.3759765625
 40
0.376953125
 40
0.3779296875
 40
0.37890625
 40
0.380859375
 40
0.3828125
 40
0.38671875
 40
0.390625
 40
0.39453125
 40
0.3984375
 40
0.40625
 40
0.4140625
 40
0.41796875
 40
0.421875
 40
0.42578125
 40
0.4296875
 40
0.431640625
 40
0.43359375
 40
0.4345703125
 40
0.435546875
 40
0.4365234375
 40
0.4370117188
 40
0.4372558594
 40
0.4375
 40
0.4377441406
 40
0.4379882812
 40
0.4384765625
 40
0.439453125
 40
0.4404296875
 40
0.44140625
 40
0.443359375
 40
0.4453125
 40
0.44921875
 40
0.453125
 40
0.45703125
 40
0.4609375
 40
0.46875
 40
0.4765625
 40
0.48046875
 40
0.484375
 40
0.48828125
 40
0.4921875
 40
0.494140625
 40
0.49609375
 40
0.4970703125
 40
0.498046875
 40
0.4990234375
 40
0.4995117188
 40
0.4997558594
 40
0.5
 40
0.5002441406
 40
0.5004882812
 40
0.5009765625
 40
0.501953125
 40
0.5029296875
 40
0.50390625
 40
0.505859375
 40
0.5078125
 40
0.51171875
 40
0.515625
 40
0.51953125
 40
0.5234375
 40
0.53125
 40
0.5390625
 40
0.54296875
 40
0.546875
 40
0.55078125
 40
0.5546875
 40
0.556640625
 40
0.55859375
 40
0.5595703125
 40
0.560546875
 40
0.5615234375
 40
0.5620117188
 40
0.5622558594
 40
0.5625
 40
0.5627441406
 40
0.5629882812
 40
0.5634765625
 40
0.564453125
 40
0.5654296875
 40
0.56640625
 40
0.568359375
 40
0.5703125
 40
0.57421875
 40
0.578125
 40
0.58203125
 40
0.5859375
 40
0.59375
 40
0.6015625
 40
0.60546875
 40
0.609375
 40
0.61328125
 40
0.6171875
 40
0.619140625
 40
0.62109375
 40
0.6220703125
 40
0.623046875
 40
0.6240234375
 40
0.6245117188
 40
0.6247558594
 40
0.625
 40
0.6252441406
 40
0.6254882812
 40
0.6259765625
 40
0.626953125
 40
0.6279296875
 40
0.62890625
 40
0.630859375
 40
0.6328125
 40
0.63671875
 40
0.640625
 40
0.64453125
 40
0.6484375
 40
0.65625
 40
0.6640625
 40
0.66796875
 40
0.671875
 40
0.67578125
 40
0.6796875
 40
0.681640625
 40
0.68359375
 40
0.6845703125
 40
0.685546875
 40
0.6865234375
 40
0.6870117188
 40
0.6872558594
 40
0.6875
 40
0.6877441406
 40
0.6879882812
 40
0.6884765625
 40
0.689453125
 40
0.6904296875
 40
0.69140625
 40
0.693359375
 40
0.6953125
 40
0.69921875
 40
0.703125
 40
0.70703125
 40
0.7109375
 40
0.71875
 40
0.7265625
 40
0.73046875
 40
0.734375
 40
0.73828125
 40
0.7421875
 40
0.744140625
 40
0.74609375
 40
0.7470703125
 40
0.748046875
 40
0.7490234375
 40
0.7495117188
 40
0.7497558594
 40
0.75
 40
0.7502441406
 40
0.7504882812
 40
0.7509765625
 40
0.751953125
 40
0.7529296875
 40
0.75390625
 40
0.755859375
 40
0.7578125
 40
0.76171875
 40
0.765625
 40
0.76953125
 40
0.7734375
 40
0.78125
 40
0.7890625
 40
0.79296875
 40
0.796875
 40
0.80078125
 40
0.8046875
 40
0.806640625
 40
0.80859375
 40
0.8095703125
 40
0.810546875
 40
0.8115234375
 40
0.8120117188
 40
0.8122558594
 40
0.8125
 40
0.8127441406
 40
0.8129882812
 40
0.8134765625
 40
0.814453125
 40
0.8154296875
 40
0.81640625
 40
0.818359375
 40
0.8203125
 40
0.82421875
 40
0.828125
 40
0.83203125
 40
0.8359375
 40
0.84375
 40
0.8515625
 40
0.85546875
 40
0.859375
 40
0.86328125
 40
0.8671875
 40
0.869140625
 40
0.87109375
 40
0.8720703125
 40
0.873046875
 40
0.8740234375
 40
0.8745117188
 40
0.8747558594
 40
0.875
 40
0.8752441406
 40
0.8754882812
 40
0.8759765625
 40
0.876953125
 40
0.8779296875
 40
0.87890625
 40
0.880859375
 40
0.8828125
 40
0.88671875
 40
0.890625
 40
0.89453125
 40
0.8984375
 40
0.90625
 40
0.9140625
 40
0.91796875
 40
0.921875
 40
0.92578125
 40
0.9296875
 40
0.931640625
 40
0.93359375
 40
0.9345703125
 40
0.935546875
 40
0.9365234375
 40
0.9370117188
 40
0.9372558594
 40
0.9375
 40
0.9377441406
 40
0.9379882812
 40
0.9384765625
 40
0.939453125
 40
0.9404296875
 40
0.94140625
 40
0.943359375
 40
0.9453125
 40
0.94921875
 40
0.953125
 40
0.95703125
 40
0.9609375
 40
0.96875
 40
0.9765625
 40
0.984375
 40
1.0
 40
1.0
 40
1.0
 40
1.0
 10
10.253640279
 20
7.3047206683
 30
0.0
 10
10.2539474907
 20
7.3015661762
 30
0.0
 10
10.2544083082
 20
7.296834438
 30
0.0
 10
10.2550227315
 20
7.2905254537
 30
0.0
 10
10.2554835491
 20
7.2857937156
 30
0.0
 10
10.2558675635
 20
7.2818506004
 30
0.0
 10
10.2561747755
 20
7.2786961083
 30
0.0
 10
10.2564051832
 20
7.2763302391
 30
0.0
 10
10.2566355957
 20
7.2739643705
 30
0.0
 10
10.2568275915
 20
7.2719928114
 30
0.0
 10
10.2569812207
 20
7.2704155684
 30
0.0
 10
10.2570771649
 20
7.269429782
 30
0.0
 10
10.2571540898
 20
7.2686411746
 30
0.0
 10
10.2572113191
 20
7.2680496594
 30
0.0
 10
10.2572604878
 20
7.2675569201
 30
0.0
 10
10.257292006
 20
7.2672116295
 30
0.0
 10
10.2573145443
 20
7.2670149032
 30
0.0
 10
10.2573186929
 20
7.2668657174
 30
0.0
 10
10.257371598
 20
7.2667228044
 30
0.0
 10
10.2574251312
 20
7.2665300657
 30
0.0
 10
10.2575267383
 20
7.2661937924
 30
0.0
 10
10.2576677485
 20
7.265712869
 30
0.0
 10
10.2578387339
 20
7.2651359891
 30
0.0
 10
10.2580660952
 20
7.2643667361
 30
0.0
 10
10.2583505089
 20
7.2634051972
 30
0.0
 10
10.2588054522
 20
7.2618667198
 30
0.0
 10
10.259374172
 20
7.2599436282
 30
0.0
 10
10.2600566184
 20
7.2576359161
 30
0.0
 10
10.2607390694
 20
7.2553282045
 30
0.0
 10
10.2616490025
 20
7.2522512556
 30
0.0
 10
10.2627864193
 20
7.2484050694
 30
0.0
 10
10.2639238364
 20
7.2445588835
 30
0.0
 10
10.2648337689
 20
7.2414819343
 30
0.0
 10
10.2655162216
 20
7.2391742235
 30
0.0
 10
10.2661986618
 20
7.2368665085
 30
0.0
 10
10.2667674007
 20
7.2349434258
 30
0.0
 10
10.2672223052
 20
7.2334049301
 30
0.0
 10
10.2675068176
 20
7.2324434378
 30
0.0
 10
10.2677339763
 20
7.2316740893
 30
0.0
 10
10.2679055806
 20
7.2310975014
 30
0.0
 10
10.2680446545
 20
7.2306156643
 30
0.0
 10
10.2681647273
 20
7.2302332161
 30
0.0
 10
10.2682306988
 20
7.2299381238
 30
0.0
 10
10.2683885957
 20
7.2296745453
 30
0.0
 10
10.2685670141
 20
7.2293120992
 30
0.0
 10
10.2688010542
 20
7.2288628184
 30
0.0
 10
10.2690771866
 20
7.2283220648
 30
0.0
 10
10.2694470103
 20
7.2276016247
 30
0.0
 10
10.2699087259
 20
7.2267008812
 30
0.0
 10
10.270647786
 20
7.2252597997
 30
0.0
 10
10.2715715031
 20
7.2234584107
 30
0.0
 10
10.2726800099
 20
7.2212967599
 30
0.0
 10
10.2737885043
 20
7.2191351047
 30
0.0
 10
10.2752665012
 20
7.2162528994
 30
0.0
 10
10.2771139959
 20
7.2126501422
 30
0.0
 10
10.2789614909
 20
7.2090473851
 30
0.0
 10
10.2804394872
 20
7.2061651796
 30
0.0
 10
10.2815479834
 20
7.2040035249
 30
0.0
 10
10.2826564838
 20
7.2018418723
 30
0.0
 10
10.2835802208
 20
7.2000404888
 30
0.0
 10
10.2843192402
 20
7.1985993961
 30
0.0
 10
10.2847810596
 20
7.197698681
 30
0.0
 10
10.2851506703
 20
7.1969781826
 30
0.0
 10
10.2854274533
 20
7.196437607
 30
0.0
 10
10.2856594579
 20
7.1959877694
 30
0.0
 10
10.2858192076
 20
7.1956716231
 30
0.0
 10
10.2859146364
 20
7.1954929354
 30
0.0
 10
10.2859745366
 20
7.1953533775
 30
0.0
 10
10.2860790507
 20
7.1952350044
 30
0.0
 10
10.2862028409
 20
7.1950697842
 30
0.0
 10
10.2864267245
 20
7.1947840916
 30
0.0
 10
10.2867427674
 20
7.1943741594
 30
0.0
 10
10.2871236415
 20
7.1938830112
 30
0.0
 10
10.2876309068
 20
7.1932278778
 30
0.0
 10
10.2882651826
 20
7.1924090532
 30
0.0
 10
10.2892799153
 20
7.1910988823
 30
0.0
 10
10.2905483685
 20
7.1894611864
 30
0.0
 10
10.2920704963
 20
7.1874959437
 30
0.0
 10
10.2935926284
 20
7.1855307031
 30
0.0
 10
10.2956221363
 20
7.1829103815
 30
0.0
 10
10.2981590218
 20
7.1796349798
 30
0.0
 10
10.300695907
 20
7.1763595779
 30
0.0
 10
10.3027254154
 20
7.1737392567
 30
0.0
 10
10.304247546
 20
7.1717740149
 30
0.0
 10
10.3057696796
 20
7.1698087766
 30
0.0
 10
10.3070381146
 20
7.1681710671
 30
0.0
 10
10.3080528844
 20
7.166860924
 30
0.0
 10
10.3086870659
 20
7.1660420288
 30
0.0
 10
10.3091945247
 20
7.1653870403
 30
0.0
 10
10.3095748079
 20
7.1648954495
 30
0.0
 10
10.3098926992
 20
7.1644869019
 30
0.0
 10
10.3101132832
 20
7.1641987375
 30
0.0
 10
10.3102423602
 20
7.1640374778
 30
0.0
 10
10.3103306349
 20
7.1639069391
 30
0.0
 10
10.3104515276
 20
7.1638130732
 30
0.0
 10
10.3106013404
 20
7.1636751268
 30
0.0
 10
10.3108688137
 20
7.1634396805
 30
0.0
 10
10.311248147
 20
7.1631002127
 30
0.0
 10
10.3117045332
 20
7.1626941851
 30
0.0
 10
10.3123126338
 20
7.1621523491
 30
0.0
 10
10.3130729015
 20
7.1614752137
 30
0.0
 10
10.3142892504
 20
7.1603917078
 30
0.0
 10
10.3158097138
 20
7.159037356
 30
0.0
 10
10.3176342582
 20
7.1574121208
 30
0.0
 10
10.3194588058
 20
7.1557868891
 30
0.0
 10
10.3218915347
 20
7.1536199123
 30
0.0
 10
10.3249324462
 20
7.1509111915
 30
0.0
 10
10.3279733579
 20
7.1482024711
 30
0.0
 10
10.3304060866
 20
7.1460354938
 30
0.0
 10
10.332230635
 20
7.1444102635
 30
0.0
 10
10.334055176
 20
7.1427850227
 30
0.0
 10
10.33557565
 20
7.1414306884
 30
0.0
 10
10.3367919772
 20
7.1403471469
 30
0.0
 10
10.3375523003
 20
7.1396701022
 30
0.0
 10
10.3381602872
 20
7.1391280798
 30
0.0
 10
10.3386170207
 20
7.1387226218
 30
0.0
 10
10.3389952675
 20
7.138381372
 30
0.0
 10
10.339303168
 20
7.1381159262
 30
0.0
 10
10.3395196027
 20
7.1378962008
 30
0.0
 10
10.3397913486
 20
7.1377552623
 30
0.0
 10
10.3401343555
 20
7.1375398231
 30
0.0
 10
10.340569743
 20
7.1372799664
 30
0.0
 10
10.3410893706
 20
7.1369640968
 30
0.0
 10
10.3417831985
 20
7.1365443489
 30
0.0
 10
10.342650144
 20
7.1360191808
 30
0.0
 10
10.3440374465
 20
7.1351791819
 30
0.0
 10
10.3457715095
 20
7.1341290905
 30
0.0
 10
10.347852413
 20
7.1328690207
 30
0.0
 10
10.3499333091
 20
7.1316089402
 30
0.0
 10
10.3527078398
 20
7.1299288366
 30
0.0
 10
10.3561760022
 20
7.1278287057
 30
0.0
 10
10.3596441651
 20
7.1257285758
 30
0.0
 10
10.3624186949
 20
7.1240484706
 30
0.0
 10
10.3644995936
 20
7.1227883948
 30
0.0
 10
10.3665804872
 20
7.1215283071
 30
0.0
 10
10.3683145812
 20
7.1204782714
 30
0.0
 10
10.3697018205
 20
7.119638159
 30
0.0
 10
10.3705689269
 20
7.1191132798
 30
0.0
 10
10.3712624245
 20
7.1186929388
 30
0.0
 10
10.3717830612
 20
7.1183788811
 30
0.0
 10
10.3722152916
 20
7.1181133555
 30
0.0
 10
10.3725647395
 20
7.1179094819
 30
0.0
 10
10.372816815
 20
7.1177332227
 30
0.0
 10
10.3731071001
 20
7.1176461061
 30
0.0
 10
10.3734807998
 20
7.117498812
 30
0.0
 10
10.3739525038
 20
7.1173253779
 30
0.0
 10
10.3745165884
 20
7.1171126841
 30
0.0
 10
10.3752693859
 20
7.1168306896
 30
0.0
 10
10.3762101484
 20
7.1164776495
 30
0.0
 10
10.3777154993
 20
7.115913091
 30
0.0
 10
10.379597143
 20
7.1152072881
 30
0.0
 10
10.3818551347
 20
7.1143603695
 30
0.0
 10
10.3841131212
 20
7.1135134389
 30
0.0
 10
10.3871237718
 20
7.1123842023
 30
0.0
 10
10.3908870843
 20
7.1109726552
 30
0.0
 10
10.3946503971
 20
7.1095611083
 30
0.0
 10
10.3976610473
 20
7.1084318712
 30
0.0
 10
10.3999190347
 20
7.1075849422
 30
0.0
 10
10.4021770234
 20
7.1067380177
 30
0.0
 10
10.4040586764
 20
7.1060322331
 30
0.0
 10
10.4055640084
 20
7.1054676373
 30
0.0
 10
10.406504819
 20
7.1051146924
 30
0.0
 10
10.4072575176
 20
7.1048325025
 30
0.0
 10
10.4078219045
 20
7.1046204054
 30
0.0
 10
10.4082926627
 20
7.1044451041
 30
0.0
 10
10.4086213382
 20
7.1043195551
 30
0.0
 10
10.4088104882
 20
7.1042522442
 30
0.0
 10
10.4089485889
 20
7.1041892778
 30
0.0
 10
10.4091010688
 20
7.1041740286
 30
0.0
 10
10.4092993597
 20
7.1041370521
 30
0.0
 10
10.4096487056
 20
7.1040800981
 30
0.0
 10
10.4101465494
 20
7.1039946809
 30
0.0
 10
10.410744485
 20
7.1038939156
 30
0.0
 10
10.4115415497
 20
7.1037589558
 30
0.0
 10
10.4125379432
 20
7.1035904635
 30
0.0
 10
10.4141321378
 20
7.1033207599
 30
0.0
 10
10.4161248931
 20
7.1029836703
 30
0.0
 10
10.4185161943
 20
7.1025791456
 30
0.0
 10
10.4209074969
 20
7.1021746255
 30
0.0
 10
10.4240958998
 20
7.1016352637
 30
0.0
 10
10.4280814036
 20
7.1009610621
 30
0.0
 10
10.4320669074
 20
7.1002868601
 30
0.0
 10
10.4352553104
 20
7.099747499
 30
0.0
 10
10.4376466128
 20
7.0993429769
 30
0.0
 10
10.4400379147
 20
7.0989384597
 30
0.0
 10
10.4420306676
 20
7.0986013469
 30
0.0
 10
10.443624867
 20
7.0983316905
 30
0.0
 10
10.4446212484
 20
7.098163078
 30
0.0
 10
10.445418338
 20
7.0980283651
 30
0.0
 10
10.4460161977
 20
7.0979268454
 30
0.0
 10
10.4465142788
 20
7.0978437885
 30
0.0
 10
10.4468632012
 20
7.097782621
 30
0.0
 10
10.4470621706
 20
7.0977523956
 30
0.0
 10
10.4472125662
 20
7.0977164093
 30
0.0
 10
10.4473584951
 20
7.0977313282
 30
0.0
 10
10.4475546251
 20
7.0977334638
 30
0.0
 10
10.4478971266
 20
7.0977454742
 30
0.0
 10
10.4483867939
 20
7.0977583066
 30
0.0
 10
10.4489742323
 20
7.0977755568
 30
0.0
 10
10.4497575402
 20
7.0977979104
 30
0.0
 10
10.4507366557
 20
7.0978260739
 30
0.0
 10
10.4523032513
 20
7.0978710117
 30
0.0
 10
10.4542614921
 20
7.0979272264
 30
0.0
 10
10.4566113826
 20
7.0979946659
 30
0.0
 10
10.4589612727
 20
7.0980621102
 30
0.0
 10
10.4620944596
 20
7.0981520343
 30
0.0
 10
10.4660109433
 20
7.09826444
 30
0.0
 10
10.4699274269
 20
7.0983768453
 30
0.0
 10
10.4730606138
 20
7.0984667701
 30
0.0
 10
10.4754105042
 20
7.0985342124
 30
0.0
 10
10.4777603936
 20
7.0986016594
 30
0.0
 10
10.4797186377
 20
7.0986578506
 30
0.0
 10
10.4812852266
 20
7.0987028365
 30
0.0
 10
10.4822643593
 20
7.0987308776
 30
0.0
 10
10.4830476318
 20
7.0987534824
 30
0.0
 10
10.4836351782
 20
7.0987699652
 30
0.0
 10
10.4841245076
 20
7.0987851987
 30
0.0
 10
10.4844676124
 20
7.0987929226
 30
0.0
 10
10.4846627757
 20
7.0988019263
 30
0.0
 10
10.4848116738
 20
7.0987957488
 30
0.0
 10
10.4849509178
 20
7.0988389972
 30
0.0
 10
10.485139944
 20
7.0988794215
 30
0.0
 10
10.4854691708
 20
7.0989581965
 30
0.0
 10
10.4859403151
 20
7.0990665328
 30
0.0
 10
10.4865053372
 20
7.0991983338
 30
0.0
 10
10.4872588225
 20
7.0993734407
 30
0.0
 10
10.4882006372
 20
7.0995925393
 30
0.0
 10
10.4897075643
 20
7.0999429769
 30
0.0
 10
10.491591215
 20
7.1003810651
 30
0.0
 10
10.4938515993
 20
7.1009067533
 30
0.0
 10
10.4961119827
 20
7.1014324462
 30
0.0
 10
10.4991258276
 20
7.1021333684
 30
0.0
 10
10.5028931336
 20
7.1030095218
 30
0.0
 10
10.5066604396
 20
7.1038856748
 30
0.0
 10
10.5096742843
 20
7.1045865976
 30
0.0
 10
10.5119346683
 20
7.1051122886
 30
0.0
 10
10.5141950505
 20
7.1056379841
 30
0.0
 10
10.5160787079
 20
7.1060760495
 30
0.0
 10
10.5175856212
 20
7.1064265335
 30
0.0
 10
10.5185274708
 20
7.1066455141
 30
0.0
 10
10.5192808846
 20
7.1068208631
 30
0.0
 10
10.5198461254
 20
7.1069519245
 30
0.0
 10
10.5203165854
 20
7.1070625749
 30
0.0
 10
10.5206470338
 20
7.1071372189
 30
0.0
 10
10.5208341026
 20
7.1071842621
 30
0.0
 10
10.5209793591
 20
7.1072071793
 30
0.0
 10
10.5211056753
 20
7.1072773627
 30
0.0
 10
10.5212807035
 20
7.1073544535
 30
0.0
 10
10.5215839247
 20
7.1074970442
 30
0.0
 10
10.5220187071
 20
7.107696729
 30
0.0
 10
10.5225397571
 20
7.1079380698
 30
0.0
 10
10.5232347311
 20
7.1082592572
 30
0.0
 10
10.5241033662
 20
7.1086609469
 30
0.0
 10
10.5254932284
 20
7.1093035357
 30
0.0
 10
10.5272305404
 20
7.110106811
 30
0.0
 10
10.5293153215
 20
7.1110707245
 30
0.0
 10
10.5314001008
 20
7.1120346425
 30
0.0
 10
10.5341798072
 20
7.113319865
 30
0.0
 10
10.53765444
 20
7.1149263936
 30
0.0
 10
10.5411290729
 20
7.1165329219
 30
0.0
 10
10.5439087791
 20
7.1178181449
 30
0.0
 10
10.5459935593
 20
7.1187820611
 30
0.0
 10
10.5480783371
 20
7.1197459816
 30
0.0
 10
10.5498156592
 20
7.120549235
 30
0.0
 10
10.5512055007
 20
7.1211918685
 30
0.0
 10
10.5520741886
 20
7.1215934442
 30
0.0
 10
10.5527690544
 20
7.1219148658
 30
0.0
 10
10.553290435
 20
7.1221554909
 30
0.0
 10
10.553724183
 20
7.122357415
 30
0.0
 10
10.5540292507
 20
7.1224960082
 30
0.0
 10
10.5542013204
 20
7.1225795039
 30
0.0
 10
10.5543367241
 20
7.1226300138
 30
0.0
 10
10.5544478492
 20
7.1227268213
 30
0.0
 10
10.5546044845
 20
7.1228397489
 30
0.0
 10
10.5548746507
 20
7.1230448963
 30
0.0
 10
10.5552626653
 20
7.1233340304
 30
0.0
 10
10.5557273998
 20
7.123682675
 30
0.0
 10
10.5563473542
 20
7.1241469464
 30
0.0
 10
10.5571221917
 20
7.124727487
 30
0.0
 10
10.5583619906
 20
7.1256562394
 30
0.0
 10
10.559911719
 20
7.1268172185
 30
0.0
 10
10.5617714017
 20
7.1282103769
 30
0.0
 10
10.5636310821
 20
7.1296035397
 30
0.0
 10
10.5661106569
 20
7.1314610885
 30
0.0
 10
10.5692101249
 20
7.1337830252
 30
0.0
 10
10.5723095933
 20
7.1361049615
 30
0.0
 10
10.5747891676
 20
7.1379625109
 30
0.0
 10
10.5766488492
 20
7.1393556721
 30
0.0
 10
10.5785085272
 20
7.1407488366
 30
0.0
 10
10.5800582705
 20
7.1419097965
 30
0.0
 10
10.5812980391
 20
7.1428385881
 30
0.0
 10
10.5820729536
 20
7.1434190291
 30
0.0
 10
10.5826927498
 20
7.1438835048
 30
0.0
 10
10.5831579678
 20
7.1442315251
 30
0.0
 10
10.5835444695
 20
7.1445226124
 30
0.0
 10
10.5838173364
 20
7.144724273
 30
0.0
 10
10.5839696446
 20
7.1448427875
 30
0.0
 10
10.5840940614
 20
7.1449224338
 30
0.0
 10
10.5841795434
 20
7.1450373983
 30
0.0
 10
10.5843071003
 20
7.1451783649
 30
0.0
 10
10.5845239972
 20
7.1454307964
 30
0.0
 10
10.5848371581
 20
7.1457884119
 30
0.0
 10
10.5852115352
 20
7.146218835
 30
0.0
 10
10.5857111993
 20
7.1467922838
 30
0.0
 10
10.58633561
 20
7.1475092484
 30
0.0
 10
10.5873347618
 20
7.148656306
 30
0.0
 10
10.5885836691
 20
7.1500901573
 30
0.0
 10
10.5900823717
 20
7.1518107664
 30
0.0
 10
10.5915810706
 20
7.1535313788
 30
0.0
 10
10.5935793371
 20
7.1558255275
 30
0.0
 10
10.5960771698
 20
7.1586932138
 30
0.0
 10
10.5985750028
 20
7.1615608998
 30
0.0
 10
10.6005732688
 20
7.163855049
 30
0.0
 10
10.6020719693
 20
7.16557566
 30
0.0
 10
10.6035706659
 20
7.167296274
 30
0.0
 10
10.604819592
 20
7.16873011
 30
0.0
 10
10.6058187054
 20
7.169877199
 30
0.0
 10
10.606443214
 20
7.1705940834
 30
0.0
 10
10.6069426771
 20
7.171167697
 30
0.0
 10
10.607317668
 20
7.1715976165
 30
0.0
 10
10.6076289086
 20
7.1719568076
 30
0.0
 10
10.6078492336
 20
7.1722064264
 30
0.0
 10
10.6079712979
 20
7.1723518995
 30
0.0
 10
10.6080736512
 20
7.1724530217
 30
0.0
 10
10.6081347021
 20
7.1725846577
 30
0.0
 10
10.60823051
 20
7.1727495288
 30
0.0
 10
10.6083914615
 20
7.1730430123
 30
0.0
 10
10.6086249016
 20
7.1734596818
 30
0.0
 10
10.6089035275
 20
7.1739607949
 30
0.0
 10
10.6092755534
 20
7.1746285582
 30
0.0
 10
10.6097404062
 20
7.1754633949
 30
0.0
 10
10.610484271
 20
7.1767990596
 30
0.0
 10
10.6114140676
 20
7.1784686658
 30
0.0
 10
10.6125298382
 20
7.1804721824
 30
0.0
 10
10.6136456049
 20
7.1824757019
 30
0.0
 10
10.6151332952
 20
7.1851470602
 30
0.0
 10
10.6169929075
 20
7.1884862585
 30
0.0
 10
10.6188525203
 20
7.1918254565
 30
0.0
 10
10.62034021
 20
7.1944968152
 30
0.0
 10
10.6214559784
 20
7.1965003336
 30
0.0
 10
10.6225717425
 20
7.1985038542
 30
0.0
 10
10.6235015595
 20
7.200173448
 30
0.0
 10
10.6242453825
 20
7.201509138
 30
0.0
 10
10.6247103416
 20
7.2023439103
 30
0.0
 10
10.6250821493
 20
7.2030118057
 30
0.0
 10
10.6253614421
 20
7.203512515
 30
0.0
 10
10.6255927955
 20
7.2039304481
 30
0.0
 10
10.625757472
 20
7.2042216759
 30
0.0
 10
10.6258473116
 20
7.2043901611
 30
0.0
 10
10.6259266955
 20
7.2045106957
 30
0.0
 10
10.6259601931
 20
7.2046535131
 30
0.0
 10
10.6260208622
 20
7.2048361638
 30
0.0
 10
10.6261195757
 20
7.2051594239
 30
0.0
 10
10.6262644939
 20
7.2056193308
 30
0.0
 10
10.626436727
 20
7.2061720294
 30
0.0
 10
10.6266669539
 20
7.2069086778
 30
0.0
 10
10.626954538
 20
7.2078295853
 30
0.0
 10
10.627414784
 20
7.209302983
 30
0.0
 10
10.6279900533
 20
7.2111447488
 30
0.0
 10
10.6286803929
 20
7.2133548598
 30
0.0
 10
10.6293707281
 20
7.2155649729
 30
0.0
 10
10.6302911765
 20
7.2185117897
 30
0.0
 10
10.6314417365
 20
7.2221953109
 30
0.0
 10
10.6325922968
 20
7.2258788319
 30
0.0
 10
10.6335127446
 20
7.2288256489
 30
0.0
 10
10.6342030817
 20
7.2310357612
 30
0.0
 10
10.6348934141
 20
7.2332458752
 30
0.0
 10
10.6354687057
 20
7.2350876316
 30
0.0
 10
10.6359289064
 20
7.2365610485
 30
0.0
 10
10.6362166058
 20
7.2374819072
 30
0.0
 10
10.6364465959
 20
7.2382186558
 30
0.0
 10
10.6366195526
 20
7.2387710482
 30
0.0
 10
10.6367622067
 20
7.2392319133
 30
0.0
 10
10.636864962
 20
7.2395534627
 30
0.0
 10
10.6369191553
 20
7.2397388544
 30
0.0
 10
10.6369725444
 20
7.2398732525
 30
0.0
 10
10.636977219
 20
7.2400254083
 30
0.0
 10
10.637000444
 20
7.2402220886
 30
0.0
 10
10.6370331708
 20
7.2405691651
 30
0.0
 10
10.6370840625
 20
7.2410634798
 30
0.0
 10
10.6371433608
 20
7.2416573033
 30
0.0
 10
10.637223044
 20
7.2424488423
 30
0.0
 10
10.6373224361
 20
7.2434383434
 30
0.0
 10
10.6374815819
 20
7.2450215019
 30
0.0
 10
10.6376804735
 20
7.2470004649
 30
0.0
 10
10.6379191609
 20
7.2493752141
 30
0.0
 10
10.6381578436
 20
7.251749965
 30
0.0
 10
10.6384760889
 20
7.254916299
 30
0.0
 10
10.6388738949
 20
7.2588742166
 30
0.0
 10
10.6393512623
 20
7.2636237177
 30
0.0
 10
10.6399877522
 20
7.2699563859
 30
0.0
 10
10.6404651196
 20
7.274705887
 30
0.0
 10
10.6407833645
 20
7.277872221
 30
0.0
  0
SPLINE
  5
393
100
AcDbEntity
  8
0
100
AcDbSpline
 62
4
  6
CONTINUOUS
 70
0
 71
3
 72
397
 73
393
 74
0
 42
0.0000001
 43
0.0000001
 44
0.0000000001
 40
0.0
 40
0.0
 40
0.0
 40
0.0
 40
0.015625
 40
0.0234375
 40
0.03125
 40
0.0390625
 40
0.04296875
 40
0.046875
 40
0.05078125
 40
0.0546875
 40
0.056640625
 40
0.05859375
 40
0.0595703125
 40
0.060546875
 40
0.0615234375
 40
0.0620117188
 40
0.0622558594
 40
0.0625
 40
0.0627441406
 40
0.0629882812
 40
0.0634765625
 40
0.064453125
 40
0.0654296875
 40
0.06640625
 40
0.068359375
 40
0.0703125
 40
0.07421875
 40
0.078125
 40
0.08203125
 40
0.0859375
 40
0.09375
 40
0.1015625
 40
0.10546875
 40
0.109375
 40
0.11328125
 40
0.1171875
 40
0.119140625
 40
0.12109375
 40
0.1220703125
 40
0.123046875
 40
0.1240234375
 40
0.1245117188
 40
0.125
 40
0.1254882812
 40
0.1259765625
 40
0.126953125
 40
0.1279296875
 40
0.12890625
 40
0.130859375
 40
0.1328125
 40
0.13671875
 40
0.140625
 40
0.14453125
 40
0.1484375
 40
0.15625
 40
0.1640625
 40
0.16796875
 40
0.171875
 40
0.17578125
 40
0.1796875
 40
0.181640625
 40
0.18359375
 40
0.1845703125
 40
0.185546875
 40
0.1865234375
 40
0.1870117188
 40
0.1872558594
 40
0.1875
 40
0.1877441406
 40
0.1879882812
 40
0.1884765625
 40
0.189453125
 40
0.1904296875
 40
0.19140625
 40
0.193359375
 40
0.1953125
 40
0.19921875
 40
0.203125
 40
0.20703125
 40
0.2109375
 40
0.21875
 40
0.2265625
 40
0.23046875
 40
0.234375
 40
0.23828125
 40
0.2421875
 40
0.244140625
 40
0.24609375
 40
0.2470703125
 40
0.248046875
 40
0.2490234375
 40
0.2495117188
 40
0.2497558594
 40
0.25
 40
0.2502441406
 40
0.2504882812
 40
0.2509765625
 40
0.251953125
 40
0.2529296875
 40
0.25390625
 40
0.255859375
 40
0.2578125
 40
0.26171875
 40
0.265625
 40
0.26953125
 40
0.2734375
 40
0.28125
 40
0.2890625
 40
0.29296875
 40
0.296875
 40
0.30078125
 40
0.3046875
 40
0.306640625
 40
0.30859375
 40
0.3095703125
 40
0.310546875
 40
0.3115234375
 40
0.3120117188
 40
0.3125
 40
0.3129882812
 40
0.3134765625
 40
0.314453125
 40
0.3154296875
 40
0.31640625
 40
0.318359375
 40
0.3203125
 40
0.32421875
 40
0.328125
 40
0.33203125
 40
0.3359375
 40
0.34375
 40
0.3515625
 40
0.35546875
 40
0.359375
 40
0.36328125
 40
0.3671875
 40
0.369140625
 40
0.37109375
 40
0.3720703125
 40
0.373046875
 40
0.3740234375
 40
0.3745117188
 40
0.375
 40
0.3754882812
 40
0.3759765625
 40
0.376953125
 40
0.3779296875
 40
0.37890625
 40
0.380859375
 40
0.3828125
 40
0.38671875
 40
0.390625
 40
0.39453125
 40
0.3984375
 40
0.40625
 40
0.4140625
 40
0.41796875
 40
0.421875
 40
0.42578125
 40
0.4296875
 40
0.431640625
 40
0.43359375
 40
0.4345703125
 40
0.435546875
 40
0.4365234375
 40
0.4370117188
 40
0.4372558594
 40
0.4375
 40
0.4377441406
 40
0.4379882812
 40
0.4384765625
 40
0.439453125
 40
0.4404296875
 40
0.44140625
 40
0.443359375
 40
0.4453125
 40
0.44921875
 40
0.453125
 40
0.45703125
 40
0.4609375
 40
0.46875
 40
0.4765625
 40
0.48046875
 40
0.484375
 40
0.48828125
 40
0.4921875
 40
0.494140625
 40
0.49609375
 40
0.4970703125
 40
0.498046875
 40
0.4990234375
 40
0.4995117188
 40
0.4997558594
 40
0.5
 40
0.5002441406
 40
0.5004882812
 40
0.5009765625
 40
0.501953125
 40
0.5029296875
 40
0.50390625
 40
0.505859375
 40
0.5078125
 40
0.51171875
 40
0.515625
 40
0.51953125
 40
0.5234375
 40
0.53125
 40
0.5390625
 40
0.54296875
 40
0.546875
 40
0.55078125
 40
0.5546875
 40
0.556640625
 40
0.55859375
 40
0.5595703125
 40
0.560546875
 40
0.5615234375
 40
0.5620117188
 40
0.5622558594
 40
0.5625
 40
0.5627441406
 40
0.5629882812
 40
0.5634765625
 40
0.564453125
 40
0.5654296875
 40
0.56640625
 40
0.568359375
 40
0.5703125
 40
0.57421875
 40
0.578125
 40
0.58203125
 40
0.5859375
 40
0.59375
 40
0.6015625
 40
0.60546875
 40
0.609375
 40
0.61328125
 40
0.6171875
 40
0.619140625
 40
0.62109375
 40
0.6220703125
 40
0.623046875
 40
0.6240234375
 40
0.6245117188
 40
0.6247558594
 40
0.625
 40
0.6252441406
 40
0.6254882812
 40
0.6259765625
 40
0.626953125
 40
0.6279296875
 40
0.62890625
 40
0.630859375
 40
0.6328125
 40
0.63671875
 40
0.640625
 40
0.64453125
 40
0.6484375
 40
0.65625
 40
0.6640625
 40
0.66796875
 40
0.671875
 40
0.67578125
 40
0.6796875
 40
0.681640625
 40
0.68359375
 40
0.6845703125
 40
0.685546875
 40
0.6865234375
 40
0.6870117188
 40
0.6872558594
 40
0.6875
 40
0.6877441406
 40
0.6879882812
 40
0.6884765625
 40
0.689453125
 40
0.6904296875
 40
0.69140625
 40
0.693359375
 40
0.6953125
 40
0.69921875
 40
0.703125
 40
0.70703125
 40
0.7109375
 40
0.71875
 40
0.7265625
 40
0.73046875
 40
0.734375
 40
0.73828125
 40
0.7421875
 40
0.744140625
 40
0.74609375
 40
0.7470703125
 40
0.748046875
 40
0.7490234375
 40
0.7495117188
 40
0.7497558594
 40
0.75
 40
0.7502441406
 40
0.7504882812
 40
0.7509765625
 40
0.751953125
 40
0.7529296875
 40
0.75390625
 40
0.755859375
 40
0.7578125
 40
0.76171875
 40
0.765625
 40
0.76953125
 40
0.7734375
 40
0.78125
 40
0.7890625
 40
0.79296875
 40
0.796875
 40
0.80078125
 40
0.8046875
 40
0.806640625
 40
0.80859375
 40
0.8095703125
 40
0.810546875
 40
0.8115234375
 40
0.8120117188
 40
0.8122558594
 40
0.8125
 40
0.8127441406
 40
0.8129882812
 40
0.8134765625
 40
0.814453125
 40
0.8154296875
 40
0.81640625
 40
0.818359375
 40
0.8203125
 40
0.82421875
 40
0.828125
 40
0.83203125
 40
0.8359375
 40
0.84375
 40
0.8515625
 40
0.85546875
 40
0.859375
 40
0.86328125
 40
0.8671875
 40
0.869140625
 40
0.87109375
 40
0.8720703125
 40
0.873046875
 40
0.8740234375
 40
0.8745117188
 40
0.8747558594
 40
0.875
 40
0.8752441406
 40
0.8754882812
 40
0.8759765625
 40
0.876953125
 40
0.8779296875
 40
0.87890625
 40
0.880859375
 40
0.8828125
 40
0.88671875
 40
0.890625
 40
0.89453125
 40
0.8984375
 40
0.90625
 40
0.9140625
 40
0.91796875
 40
0.921875
 40
0.92578125
 40
0.9296875
 40
0.931640625
 40
0.93359375
 40
0.9345703125
 40
0.935546875
 40
0.9365234375
 40
0.9370117188
 40
0.9372558594
 40
0.9375
 40
0.9377441406
 40
0.9379882812
 40
0.9384765625
 40
0.939453125
 40
0.9404296875
 40
0.94140625
 40
0.943359375
 40
0.9453125
 40
0.94921875
 40
0.953125
 40
0.95703125
 40
0.9609375
 40
0.96875
 40
0.9765625
 40
0.984375
 40
1.0
 40
1.0
 40
1.0
 40
1.0
 10
10.6407833645
 20
7.2778722041
 30
0.0
 10
10.6404761528
 20
7.2810266962
 30
0.0
 10
10.6400153353
 20
7.2857584344
 30
0.0
 10
10.639400912
 20
7.2920674187
 30
0.0
 10
10.6389400945
 20
7.2967991568
 30
0.0
 10
10.6385560801
 20
7.300742272
 30
0.0
 10
10.6382488681
 20
7.3038967641
 30
0.0
 10
10.6380184603
 20
7.3062626333
 30
0.0
 10
10.6377880479
 20
7.3086285019
 30
0.0
 10
10.637596052
 20
7.310600061
 30
0.0
 10
10.6374424228
 20
7.312177304
 30
0.0
 10
10.6373464787
 20
7.3131630904
 30
0.0
 10
10.6372695537
 20
7.3139516978
 30
0.0
 10
10.6372123244
 20
7.314543213
 30
0.0
 10
10.6371631558
 20
7.3150359523
 30
0.0
 10
10.6371316375
 20
7.3153812429
 30
0.0
 10
10.6371090992
 20
7.3155779692
 30
0.0
 10
10.6371049506
 20
7.315727155
 30
0.0
 10
10.6370520456
 20
7.315870068
 30
0.0
 10
10.6369985123
 20
7.3160628067
 30
0.0
 10
10.6368969053
 20
7.31639908
 30
0.0
 10
10.636755895
 20
7.3168800034
 30
0.0
 10
10.6365849096
 20
7.3174568833
 30
0.0
 10
10.6363575483
 20
7.3182261363
 30
0.0
 10
10.6360731347
 20
7.3191876752
 30
0.0
 10
10.6356181913
 20
7.3207261526
 30
0.0
 10
10.6350494715
 20
7.3226492442
 30
0.0
 10
10.6343670251
 20
7.3249569563
 30
0.0
 10
10.6336845741
 20
7.3272646679
 30
0.0
 10
10.632774641
 20
7.3303416168
 30
0.0
 10
10.6316372242
 20
7.334187803
 30
0.0
 10
10.6304998071
 20
7.3380339889
 30
0.0
 10
10.6295898746
 20
7.3411109381
 30
0.0
 10
10.6289074219
 20
7.3434186489
 30
0.0
 10
10.6282249817
 20
7.3457263639
 30
0.0
 10
10.6276562428
 20
7.3476494466
 30
0.0
 10
10.6272013383
 20
7.3491879423
 30
0.0
 10
10.6269168259
 20
7.3501494346
 30
0.0
 10
10.6266896672
 20
7.3509187831
 30
0.0
 10
10.6265180629
 20
7.351495371
 30
0.0
 10
10.626378989
 20
7.3519772081
 30
0.0
 10
10.6262589162
 20
7.3523596563
 30
0.0
 10
10.6261929447
 20
7.3526547486
 30
0.0
 10
10.6260350478
 20
7.3529183271
 30
0.0
 10
10.6258566294
 20
7.3532807732
 30
0.0
 10
10.6256225894
 20
7.353730054
 30
0.0
 10
10.6253464569
 20
7.3542708076
 30
0.0
 10
10.6249766333
 20
7.3549912477
 30
0.0
 10
10.6245149177
 20
7.3558919912
 30
0.0
 10
10.6237758575
 20
7.3573330727
 30
0.0
 10
10.6228521404
 20
7.3591344617
 30
0.0
 10
10.6217436336
 20
7.3612961125
 30
0.0
 10
10.6206351392
 20
7.3634577677
 30
0.0
 10
10.6191571423
 20
7.366339973
 30
0.0
 10
10.6173096476
 20
7.3699427302
 30
0.0
 10
10.6154621526
 20
7.3735454873
 30
0.0
 10
10.6139841563
 20
7.3764276928
 30
0.0
 10
10.6128756601
 20
7.3785893475
 30
0.0
 10
10.6117671597
 20
7.3807510001
 30
0.0
 10
10.6108434227
 20
7.3825523836
 30
0.0
 10
10.6101044033
 20
7.3839934763
 30
0.0
 10
10.6096425839
 20
7.3848941914
 30
0.0
 10
10.6092729732
 20
7.3856146898
 30
0.0
 10
10.6089961902
 20
7.3861552654
 30
0.0
 10
10.6087641856
 20
7.386605103
 30
0.0
 10
10.6086044359
 20
7.3869212493
 30
0.0
 10
10.6085090071
 20
7.387099937
 30
0.0
 10
10.6084491069
 20
7.3872394949
 30
0.0
 10
10.6083445929
 20
7.387357868
 30
0.0
 10
10.6082208026
 20
7.3875230882
 30
0.0
 10
10.6079969191
 20
7.3878087808
 30
0.0
 10
10.6076808761
 20
7.388218713
 30
0.0
 10
10.6073000021
 20
7.3887098612
 30
0.0
 10
10.6067927367
 20
7.3893649946
 30
0.0
 10
10.606158461
 20
7.3901838192
 30
0.0
 10
10.6051437282
 20
7.3914939901
 30
0.0
 10
10.6038752751
 20
7.393131686
 30
0.0
 10
10.6023531473
 20
7.3950969287
 30
0.0
 10
10.6008310152
 20
7.3970621693
 30
0.0
 10
10.5988015072
 20
7.3996824909
 30
0.0
 10
10.5962646217
 20
7.4029578926
 30
0.0
 10
10.5937277366
 20
7.4062332945
 30
0.0
 10
10.5916982281
 20
7.4088536157
 30
0.0
 10
10.5901760975
 20
7.4108188575
 30
0.0
 10
10.5886539639
 20
7.4127840958
 30
0.0
 10
10.5873855289
 20
7.4144218053
 30
0.0
 10
10.5863707591
 20
7.4157319484
 30
0.0
 10
10.5857365776
 20
7.4165508436
 30
0.0
 10
10.5852291189
 20
7.4172058321
 30
0.0
 10
10.5848488356
 20
7.4176974229
 30
0.0
 10
10.5845309443
 20
7.4181059705
 30
0.0
 10
10.5843103604
 20
7.4183941349
 30
0.0
 10
10.5841812833
 20
7.4185553946
 30
0.0
 10
10.5840930086
 20
7.4186859333
 30
0.0
 10
10.5839721159
 20
7.4187797992
 30
0.0
 10
10.5838223032
 20
7.4189177456
 30
0.0
 10
10.5835548298
 20
7.4191531919
 30
0.0
 10
10.5831754965
 20
7.4194926597
 30
0.0
 10
10.5827191103
 20
7.4198986873
 30
0.0
 10
10.5821110097
 20
7.4204405233
 30
0.0
 10
10.581350742
 20
7.4211176587
 30
0.0
 10
10.5801343931
 20
7.4222011646
 30
0.0
 10
10.5786139297
 20
7.4235555164
 30
0.0
 10
10.5767893853
 20
7.4251807516
 30
0.0
 10
10.5749648378
 20
7.4268059833
 30
0.0
 10
10.5725321088
 20
7.4289729601
 30
0.0
 10
10.5694911973
 20
7.4316816809
 30
0.0
 10
10.5664502856
 20
7.4343904013
 30
0.0
 10
10.564017557
 20
7.4365573786
 30
0.0
 10
10.5621930085
 20
7.4381826089
 30
0.0
 10
10.5603684675
 20
7.4398078497
 30
0.0
 10
10.5588479935
 20
7.441162184
 30
0.0
 10
10.5576316663
 20
7.4422457255
 30
0.0
 10
10.5568713433
 20
7.4429227702
 30
0.0
 10
10.5562633563
 20
7.4434647926
 30
0.0
 10
10.5558066228
 20
7.4438702506
 30
0.0
 10
10.555428376
 20
7.4442115004
 30
0.0
 10
10.5551204755
 20
7.4444769462
 30
0.0
 10
10.5549040408
 20
7.4446966716
 30
0.0
 10
10.554632295
 20
7.4448376101
 30
0.0
 10
10.5542892881
 20
7.4450530493
 30
0.0
 10
10.5538539006
 20
7.445312906
 30
0.0
 10
10.5533342729
 20
7.4456287756
 30
0.0
 10
10.5526404451
 20
7.4460485234
 30
0.0
 10
10.5517734995
 20
7.4465736916
 30
0.0
 10
10.5503861971
 20
7.4474136905
 30
0.0
 10
10.548652134
 20
7.4484637819
 30
0.0
 10
10.5465712305
 20
7.4497238517
 30
0.0
 10
10.5444903345
 20
7.4509839322
 30
0.0
 10
10.5417158038
 20
7.4526640358
 30
0.0
 10
10.5382476414
 20
7.4547641667
 30
0.0
 10
10.5347794784
 20
7.4568642966
 30
0.0
 10
10.5320049486
 20
7.4585444018
 30
0.0
 10
10.5299240499
 20
7.4598044776
 30
0.0
 10
10.5278431563
 20
7.4610645653
 30
0.0
 10
10.5261090623
 20
7.462114601
 30
0.0
 10
10.5247218231
 20
7.4629547134
 30
0.0
 10
10.5238547166
 20
7.4634795926
 30
0.0
 10
10.523161219
 20
7.4638999335
 30
0.0
 10
10.5226405824
 20
7.4642139913
 30
0.0
 10
10.5222083519
 20
7.4644795169
 30
0.0
 10
10.5218589041
 20
7.4646833905
 30
0.0
 10
10.5216068285
 20
7.4648596497
 30
0.0
 10
10.5213165434
 20
7.4649467663
 30
0.0
 10
10.5209428437
 20
7.4650940604
 30
0.0
 10
10.5204711397
 20
7.4652674945
 30
0.0
 10
10.5199070551
 20
7.4654801883
 30
0.0
 10
10.5191542576
 20
7.4657621828
 30
0.0
 10
10.5182134952
 20
7.4661152229
 30
0.0
 10
10.5167081442
 20
7.4666797814
 30
0.0
 10
10.5148265005
 20
7.4673855843
 30
0.0
 10
10.5125685088
 20
7.4682325029
 30
0.0
 10
10.5103105223
 20
7.4690794335
 30
0.0
 10
10.5072998717
 20
7.4702086701
 30
0.0
 10
10.5035365592
 20
7.4716202172
 30
0.0
 10
10.4997732465
 20
7.4730317641
 30
0.0
 10
10.4967625962
 20
7.4741610012
 30
0.0
 10
10.4945046088
 20
7.4750079302
 30
0.0
 10
10.4922466201
 20
7.4758548547
 30
0.0
 10
10.4903649671
 20
7.4765606393
 30
0.0
 10
10.4888596352
 20
7.4771252351
 30
0.0
 10
10.4879188245
 20
7.47747818
 30
0.0
 10
10.487166126
 20
7.4777603699
 30
0.0
 10
10.486601739
 20
7.477972467
 30
0.0
 10
10.4861309808
 20
7.4781477683
 30
0.0
 10
10.4858023053
 20
7.4782733173
 30
0.0
 10
10.4856131554
 20
7.4783406282
 30
0.0
 10
10.4854750546
 20
7.4784035946
 30
0.0
 10
10.4853225747
 20
7.4784188438
 30
0.0
 10
10.4851242838
 20
7.4784558203
 30
0.0
 10
10.4847749379
 20
7.4785127743
 30
0.0
 10
10.4842770941
 20
7.4785981915
 30
0.0
 10
10.4836791585
 20
7.4786989568
 30
0.0
 10
10.4828820938
 20
7.4788339166
 30
0.0
 10
10.4818857003
 20
7.4790024089
 30
0.0
 10
10.4802915057
 20
7.4792721125
 30
0.0
 10
10.4782987504
 20
7.4796092021
 30
0.0
 10
10.4759074492
 20
7.4800137268
 30
0.0
 10
10.4735161467
 20
7.4804182469
 30
0.0
 10
10.4703277437
 20
7.4809576087
 30
0.0
 10
10.4663422399
 20
7.4816318103
 30
0.0
 10
10.4623567361
 20
7.4823060123
 30
0.0
 10
10.4591683331
 20
7.4828453733
 30
0.0
 10
10.4567770308
 20
7.4832498954
 30
0.0
 10
10.4543857288
 20
7.4836544127
 30
0.0
 10
10.4523929759
 20
7.4839915255
 30
0.0
 10
10.4507987765
 20
7.4842611819
 30
0.0
 10
10.4498023951
 20
7.4844297944
 30
0.0
 10
10.4490053056
 20
7.4845645073
 30
0.0
 10
10.4484074458
 20
7.4846660269
 30
0.0
 10
10.4479093647
 20
7.4847490839
 30
0.0
 10
10.4475604423
 20
7.4848102514
 30
0.0
 10
10.4473614729
 20
7.4848404768
 30
0.0
 10
10.4472110773
 20
7.4848764631
 30
0.0
 10
10.4470651484
 20
7.4848615442
 30
0.0
 10
10.4468690184
 20
7.4848594086
 30
0.0
 10
10.4465265169
 20
7.4848473982
 30
0.0
 10
10.4460368496
 20
7.4848345658
 30
0.0
 10
10.4454494112
 20
7.4848173156
 30
0.0
 10
10.4446661033
 20
7.484794962
 30
0.0
 10
10.4436869878
 20
7.4847667985
 30
0.0
 10
10.4421203922
 20
7.4847218607
 30
0.0
 10
10.4401621515
 20
7.484665646
 30
0.0
 10
10.4378122609
 20
7.4845982065
 30
0.0
 10
10.4354623708
 20
7.4845307622
 30
0.0
 10
10.4323291839
 20
7.4844408381
 30
0.0
 10
10.4284127003
 20
7.4843284324
 30
0.0
 10
10.4244962166
 20
7.4842160271
 30
0.0
 10
10.4213630297
 20
7.4841261023
 30
0.0
 10
10.4190131393
 20
7.48405866
 30
0.0
 10
10.4166632499
 20
7.483991213
 30
0.0
 10
10.4147050058
 20
7.4839350218
 30
0.0
 10
10.413138417
 20
7.4838900359
 30
0.0
 10
10.4121592843
 20
7.4838619948
 30
0.0
 10
10.4113760117
 20
7.48383939
 30
0.0
 10
10.4107884653
 20
7.4838229072
 30
0.0
 10
10.4102991359
 20
7.4838076736
 30
0.0
 10
10.4099560311
 20
7.4837999498
 30
0.0
 10
10.4097608678
 20
7.4837909461
 30
0.0
 10
10.4096119697
 20
7.4837971236
 30
0.0
 10
10.4094727257
 20
7.4837538752
 30
0.0
 10
10.4092836995
 20
7.4837134509
 30
0.0
 10
10.4089544727
 20
7.4836346759
 30
0.0
 10
10.4084833284
 20
7.4835263396
 30
0.0
 10
10.4079183064
 20
7.4833945386
 30
0.0
 10
10.407164821
 20
7.4832194317
 30
0.0
 10
10.4062230063
 20
7.4830003331
 30
0.0
 10
10.4047160792
 20
7.4826498955
 30
0.0
 10
10.4028324285
 20
7.4822118073
 30
0.0
 10
10.4005720442
 20
7.4816861191
 30
0.0
 10
10.3983116608
 20
7.4811604262
 30
0.0
 10
10.3952978159
 20
7.480459504
 30
0.0
 10
10.39153051
 20
7.4795833506
 30
0.0
 10
10.3877632039
 20
7.4787071976
 30
0.0
 10
10.3847493592
 20
7.4780062748
 30
0.0
 10
10.3824889752
 20
7.4774805838
 30
0.0
 10
10.3802285931
 20
7.4769548883
 30
0.0
 10
10.3783449356
 20
7.4765168229
 30
0.0
 10
10.3768380223
 20
7.4761663389
 30
0.0
 10
10.3758961727
 20
7.4759473583
 30
0.0
 10
10.3751427589
 20
7.4757720093
 30
0.0
 10
10.3745775181
 20
7.4756409479
 30
0.0
 10
10.3741070582
 20
7.4755302975
 30
0.0
 10
10.3737766097
 20
7.4754556535
 30
0.0
 10
10.3735895409
 20
7.4754086103
 30
0.0
 10
10.3734442844
 20
7.4753856931
 30
0.0
 10
10.3733179682
 20
7.4753155097
 30
0.0
 10
10.37314294
 20
7.4752384189
 30
0.0
 10
10.3728397189
 20
7.4750958282
 30
0.0
 10
10.3724049365
 20
7.4748961434
 30
0.0
 10
10.3718838864
 20
7.4746548026
 30
0.0
 10
10.3711889124
 20
7.4743336152
 30
0.0
 10
10.3703202773
 20
7.4739319255
 30
0.0
 10
10.3689304151
 20
7.4732893367
 30
0.0
 10
10.3671931031
 20
7.4724860614
 30
0.0
 10
10.365108322
 20
7.4715221479
 30
0.0
 10
10.3630235427
 20
7.4705582299
 30
0.0
 10
10.3602438363
 20
7.4692730074
 30
0.0
 10
10.3567692035
 20
7.4676664788
 30
0.0
 10
10.3532945706
 20
7.4660599505
 30
0.0
 10
10.3505148645
 20
7.4647747275
 30
0.0
 10
10.3484300843
 20
7.4638108113
 30
0.0
 10
10.3463453064
 20
7.4628468908
 30
0.0
 10
10.3446079843
 20
7.4620436374
 30
0.0
 10
10.3432181428
 20
7.4614010039
 30
0.0
 10
10.342349455
 20
7.4609994282
 30
0.0
 10
10.3416545892
 20
7.4606780066
 30
0.0
 10
10.3411332085
 20
7.4604373815
 30
0.0
 10
10.3406994605
 20
7.4602354574
 30
0.0
 10
10.3403943928
 20
7.4600968642
 30
0.0
 10
10.3402223232
 20
7.4600133685
 30
0.0
 10
10.3400869194
 20
7.4599628586
 30
0.0
 10
10.3399757944
 20
7.4598660511
 30
0.0
 10
10.339819159
 20
7.4597531235
 30
0.0
 10
10.3395489928
 20
7.4595479761
 30
0.0
 10
10.3391609782
 20
7.459258842
 30
0.0
 10
10.3386962437
 20
7.4589101974
 30
0.0
 10
10.3380762893
 20
7.458445926
 30
0.0
 10
10.3373014519
 20
7.4578653854
 30
0.0
 10
10.3360616529
 20
7.456936633
 30
0.0
 10
10.3345119246
 20
7.4557756539
 30
0.0
 10
10.3326522418
 20
7.4543824955
 30
0.0
 10
10.3307925614
 20
7.4529893327
 30
0.0
 10
10.3283129867
 20
7.4511317839
 30
0.0
 10
10.3252135186
 20
7.4488098472
 30
0.0
 10
10.3221140503
 20
7.4464879109
 30
0.0
 10
10.319634476
 20
7.4446303615
 30
0.0
 10
10.3177747943
 20
7.4432372003
 30
0.0
 10
10.3159151163
 20
7.4418440358
 30
0.0
 10
10.3143653731
 20
7.4406830758
 30
0.0
 10
10.3131256045
 20
7.4397542843
 30
0.0
 10
10.3123506899
 20
7.4391738433
 30
0.0
 10
10.3117308938
 20
7.4387093676
 30
0.0
 10
10.3112656757
 20
7.4383613473
 30
0.0
 10
10.310879174
 20
7.43807026
 30
0.0
 10
10.3106063071
 20
7.4378685994
 30
0.0
 10
10.3104539989
 20
7.4377500849
 30
0.0
 10
10.3103295821
 20
7.4376704386
 30
0.0
 10
10.3102441001
 20
7.4375554741
 30
0.0
 10
10.3101165433
 20
7.4374145074
 30
0.0
 10
10.3098996463
 20
7.437162076
 30
0.0
 10
10.3095864854
 20
7.4368044605
 30
0.0
 10
10.3092121083
 20
7.4363740374
 30
0.0
 10
10.3087124443
 20
7.4358005886
 30
0.0
 10
10.3080880335
 20
7.435083624
 30
0.0
 10
10.3070888817
 20
7.4339365664
 30
0.0
 10
10.3058399745
 20
7.432502715
 30
0.0
 10
10.3043412718
 20
7.430782106
 30
0.0
 10
10.3028425729
 20
7.4290614936
 30
0.0
 10
10.3008443064
 20
7.4267673449
 30
0.0
 10
10.2983464737
 20
7.4238996586
 30
0.0
 10
10.2958486407
 20
7.4210319726
 30
0.0
 10
10.2938503747
 20
7.4187378234
 30
0.0
 10
10.2923516742
 20
7.4170172124
 30
0.0
 10
10.2908529776
 20
7.4152965984
 30
0.0
 10
10.2896040515
 20
7.4138627624
 30
0.0
 10
10.2886049382
 20
7.4127156734
 30
0.0
 10
10.2879804296
 20
7.411998789
 30
0.0
 10
10.2874809664
 20
7.4114251754
 30
0.0
 10
10.2871059756
 20
7.4109952559
 30
0.0
 10
10.2867947349
 20
7.4106360648
 30
0.0
 10
10.28657441
 20
7.410386446
 30
0.0
 10
10.2864523456
 20
7.4102409729
 30
0.0
 10
10.2863499923
 20
7.4101398507
 30
0.0
 10
10.2862889414
 20
7.4100082147
 30
0.0
 10
10.2861931335
 20
7.4098433436
 30
0.0
 10
10.286032182
 20
7.4095498601
 30
0.0
 10
10.285798742
 20
7.4091331906
 30
0.0
 10
10.285520116
 20
7.4086320775
 30
0.0
 10
10.2851480901
 20
7.4079643142
 30
0.0
 10
10.2846832373
 20
7.4071294775
 30
0.0
 10
10.2839393725
 20
7.4057938128
 30
0.0
 10
10.283009576
 20
7.4041242066
 30
0.0
 10
10.2818938053
 20
7.40212069
 30
0.0
 10
10.2807780386
 20
7.4001171705
 30
0.0
 10
10.2792903483
 20
7.3974458122
 30
0.0
 10
10.277430736
 20
7.3941066139
 30
0.0
 10
10.2755711233
 20
7.3907674159
 30
0.0
 10
10.2740834336
 20
7.3880960572
 30
0.0
 10
10.2729676651
 20
7.3860925388
 30
0.0
 10
10.2718519011
 20
7.3840890182
 30
0.0
 10
10.270922084
 20
7.3824194244
 30
0.0
 10
10.270178261
 20
7.3810837344
 30
0.0
 10
10.2697133019
 20
7.3802489621
 30
0.0
 10
10.2693414943
 20
7.3795810667
 30
0.0
 10
10.2690622014
 20
7.3790803574
 30
0.0
 10
10.268830848
 20
7.3786624243
 30
0.0
 10
10.2686661715
 20
7.3783711965
 30
0.0
 10
10.2685763319
 20
7.3782027113
 30
0.0
 10
10.2684969481
 20
7.3780821767
 30
0.0
 10
10.2684634505
 20
7.3779393593
 30
0.0
 10
10.2684027814
 20
7.3777567086
 30
0.0
 10
10.2683040678
 20
7.3774334485
 30
0.0
 10
10.2681591496
 20
7.3769735416
 30
0.0
 10
10.2679869166
 20
7.376420843
 30
0.0
 10
10.2677566896
 20
7.3756841946
 30
0.0
 10
10.2674691056
 20
7.3747632871
 30
0.0
 10
10.2670088595
 20
7.3732898894
 30
0.0
 10
10.2664335902
 20
7.3714481236
 30
0.0
 10
10.2657432506
 20
7.3692380126
 30
0.0
 10
10.2650529155
 20
7.3670278995
 30
0.0
 10
10.264132467
 20
7.3640810827
 30
0.0
 10
10.2629819071
 20
7.3603975615
 30
0.0
 10
10.2618313467
 20
7.3567140405
 30
0.0
 10
10.2609108989
 20
7.3537672235
 30
0.0
 10
10.2602205618
 20
7.3515571112
 30
0.0
 10
10.2595302294
 20
7.3493469972
 30
0.0
 10
10.2589549379
 20
7.3475052408
 30
0.0
 10
10.2584947371
 20
7.3460318239
 30
0.0
 10
10.2582070377
 20
7.3451109652
 30
0.0
 10
10.2579770476
 20
7.3443742166
 30
0.0
 10
10.257804091
 20
7.3438218242
 30
0.0
 10
10.2576614368
 20
7.3433609591
 30
0.0
 10
10.2575586815
 20
7.3430394097
 30
0.0
 10
10.2575044882
 20
7.342854018
 30
0.0
 10
10.2574510991
 20
7.3427196199
 30
0.0
 10
10.2574464245
 20
7.3425674641
 30
0.0
 10
10.2574231995
 20
7.3423707838
 30
0.0
 10
10.2573904727
 20
7.3420237073
 30
0.0
 10
10.2573395811
 20
7.3415293926
 30
0.0
 10
10.2572802828
 20
7.3409355691
 30
0.0
 10
10.2572005996
 20
7.3401440301
 30
0.0
 10
10.2571012075
 20
7.339154529
 30
0.0
 10
10.2569420616
 20
7.3375713705
 30
0.0
 10
10.25674317
 20
7.3355924075
 30
0.0
 10
10.2565044826
 20
7.3332176583
 30
0.0
 10
10.2562657999
 20
7.3308429074
 30
0.0
 10
10.2559475547
 20
7.3276765734
 30
0.0
 10
10.2555497487
 20
7.3237186558
 30
0.0
 10
10.2550723812
 20
7.3189691547
 30
0.0
 10
10.2544358914
 20
7.3126364865
 30
0.0
 10
10.253958524
 20
7.3078869854
 30
0.0
 10
10.253640279
 20
7.3047206514
 30
0.0
  0
ELLIPSE
  5
394
100
AcDbEntity
  8
0
100
AcDbEllipse
 62
7
  6
CONTINUOUS
 10
11.0145967481
 20
8.653506591
 30
0.0
 11
0.158334148
 21
-0.0304356551
 31
0.0
 40
0.7430545803
 41
0.0
 42
6.2831853072
  0
ENDSEC
  0
SECTION
  2
OBJECTS
  0
DICTIONARY
  5
C
100
AcDbDictionary
280
0
281
1
  3
ACAD_GROUP
350
D
  3
ACAD_MLINESTYLE
350
17
  3
ACAD_LAYOUT
350
1A
  3
ACAD_PLOTSETTINGS
350
19
  3
ACAD_PLOTSTYLENAME
350
E
  3
ACAD_IMAGE_DICT
350
       396
  3
ACAD_IMAGE_VARS
350
       397
  3
ACAD_TABLESTYLE
350
       398
  0
IMAGEDEF_REACTOR
  5
395
100
AcDbRasterImageDefReactor
 90
2
330
28B
  0
DICTIONARY
  5
D
102
{ACAD_REACTORS
330
C
102
}
100
AcDbDictionary
280
0
281
1
  0
ACDBDICTIONARYWDFLT
  5
E
102
{ACAD_REACTORS
330
C
102
}
100
AcDbDictionary
281
1
  3
Normal
350
F
100
AcDbDictionaryWithDefault
340
F
  0
DICTIONARY
  5
396
330
C
100
AcDbDictionary
281
1
  3
WJQ_assy_2_img_1
350
       39B
  0
RASTERVARIABLES
  5
397
330
C
100
AcDbRasterVariables
 90
0
 70
0
 71
1
 72
5
  0
DICTIONARY
  5
17
102
{ACAD_REACTORS
330
C
102
}
100
AcDbDictionary
280
0
281
1
  3
Standard
350
18
  0
DICTIONARY
  5
398
330
C
100
AcDbDictionary
281
1
  3
Standard
350
       39C
  3
Standard1
350
       39D
  0
DICTIONARY
  5
19
102
{ACAD_REACTORS
330
C
102
}
100
AcDbDictionary
281
1
  0
DICTIONARY
  5
1A
102
{ACAD_REACTORS
330
C
102
}
100
AcDbDictionary
281
1
  3
Model
350
399
  3
Layout1
350
39A
  0
ACDBPLACEHOLDER
  5
F
102
{ACAD_REACTORS
330
E
102
}
  0
MLINESTYLE
  5
18
102
{ACAD_REACTORS
330
17
102
}
100
AcDbMlineStyle
  2
STANDARD
 70
0
  3

 62
256
 51
90.0
 52
90.0
 71
2
 49
0.5
 62
256
  6
BYLAYER
 49
-0.5
 62
256
  6
BYLAYER
  0
LAYOUT
  5
399
102
{ACAD_REACTORS
330
1A
102
}
100
AcDbPlotSettings
  1

  2
none_device
  4
ANSI_C_(22.00_x_17.00_Inches)
  6

 40
0.0
 41
0.0
 42
0.0
 43
0.0
 44
558.8
 45
431.8
 46
0.0
 47
0.0
 48
0.0
 49
0.0
140
0.0
141
0.0
142
1.0
143
1.0
 70
1024
 72
0
 73
0
 74
0
  7

 75
0
147
1.0
148
0.0
149
0.0
100
AcDbLayout
  1
Model
 70
0
 71
0
 10
0.0
 20
0.0
 11
22.0
 21
17.0
 12
0.0
 22
0.0
 32
0.0
 14
0.0
 24
0.0
 34
0.0
 15
0.0
 25
0.0
 35
0.0
146
0.0
 13
0.0
 23
0.0
 33
0.0
 16
1.0
 26
0.0
 36
0.0
 17
0.0
 27
1.0
 37
0.0
 76
0
330
20C
345
0
346
0
  0
LAYOUT
  5
39A
102
{ACAD_REACTORS
330
1A
102
}
100
AcDbPlotSettings
  1

  2
none_device
  4
ANSI_C_(22.00_x_17.00_Inches)
  6

 40
0.0
 41
0.0
 42
0.0
 43
0.0
 44
558.8
 45
431.8
 46
0.0
 47
0.0
 48
0.0
 49
0.0
140
0.0
141
0.0
142
1.0
143
1.0
 70
0
 72
0
 73
0
 74
0
  7

 75
0
147
1.0
148
0.0
149
0.0
100
AcDbLayout
  1
Layout1
 70
0
 71
1
 10
0.0
 20
0.0
 11
22.0
 21
17.0
 12
0.0
 22
0.0
 32
0.0
 14
0.0
 24
0.0
 34
0.0
 15
0.0
 25
0.0
 35
0.0
146
0.0
 13
0.0
 23
0.0
 33
0.0
 16
1.0
 26
0.0
 36
0.0
 17
0.0
 27
1.0
 37
0.0
 76
0
330
20D
345
0
346
0
  0
IMAGEDEF
  5
39B
102
{ACAD_REACTORS
330
396
330
395
102
}
100
AcDbRasterImageDef
 90
0
  1
WJQ_assy_2_img_1.png
 10
369.0
 20
92.0
 11
0.0066666667
 21
0.0066666667
280
1
281
0
  0
TABLESTYLE
  5
39C
102
{ACAD_REACTORS
330
398
330
28E
330
28F
102
}
330
398
100
AcDbTableStyle
  3
Standard
 70
0
 71
0
 40
0.06
 41
0.06
280
1
281
1
  7
Standard
140
0.18
170
1
 62
0
 63
7
283
0
  7
Standard
140
0.18
170
1
 62
0
 63
7
283
0
  7
Standard
140
0.18
170
1
 62
0
 63
7
283
0
  0
TABLESTYLE
  5
39D
102
{ACAD_REACTORS
330
398
330
28D
102
}
330
398
100
AcDbTableStyle
  3
Standard1
 70
1
 71
0
 40
0.06
 41
0.06
280
1
281
1
  7
Standard
140
0.18
170
1
 62
0
 63
7
283
0
  7
Standard
140
0.18
170
1
 62
0
 63
7
283
0
  7
Standard
140
0.18
170
1
 62
0
 63
7
283
0
  0
ENDSEC
  0
EOF
