999
DXF file: WJD_assy_2.dxf
999
Pro/ENGINEER 2014200 by Parametric Technology Corporation
  0
SECTION
  2
HEADER
  9
$ACADVER
  1
AC1021
  9
$DWGCODEPAGE
  3
ANSI_1252
  9
$EXTMAX
 10
22.0
 20
17.0
 30
0.0
  9
$EXTMIN
 10
0.0
 20
0.0
 30
0.0
  9
$LIMMIN
 10
0.0
 20
0.0
  9
$LIMMAX
 10
22.0
 20
17.0
  9
$VIEWCTR
 10
11.0
 20
8.5
  9
$VIEWSIZE
 40
17.0
  9
$CLAYER
  8
0
  9
$LTSCALE
 40
1.21
  9
$CELTYPE
  6
BYLAYER
  9
$DIMSCALE
 40
1.0
  9
$DIMASZ
 40
0.1875
  9
$DIMEXO
 40
0.0625
  9
$DIMDLI
 40
0.836
  9
$DIMEXE
 40
0.125
  9
$DIMCEN
 40
0.198
  9
$DIMLFAC
 40
1.0
  9
$DIMBLK
  1
_FILLED
  9
$DIMTXT
 40
0.1
  9
$DIMTOL
 70
0
  9
$DIMLIM
 70
0
  9
$DIMTFAC
 40
1.0
  9
$DIMGAP
 40
0.09
  9
$DIMDSEP
 70
46
  9
$AUNITS
 70
0
  9
$PDMODE
 70
3
  9
$PDSIZE
 40
0.3125
  9
$HANDSEED
  5
3A0
  9
$TILEMODE
 70
1
  9
$MEASUREMENT
 70
0
  9
$INSUNITS
 70
1
  0
ENDSEC
  0
SECTION
  2
CLASSES
  0
CLASS
  1
ACDBDICTIONARYWDFLT
  2
AcDbDictionaryWithDefault
  3
AutoCAD 2000
 90
0
 91
1
280
0
281
0
  0
CLASS
  1
ACDBPLACEHOLDER
  2
AcDbPlaceHolder
  3
AutoCAD 2000
 90
0
 91
1
280
0
281
0
  0
CLASS
  1
LAYOUT
  2
AcDbLayout
  3
AutoCAD 2000
 90
0
 91
0
280
0
281
0
  0
CLASS
  1
RASTERVARIABLES
  2
AcDbRasterVariables
  3
ISM
 90
0
 91
1
280
0
281
0
  0
CLASS
  1
IMAGEDEF
  2
AcDbRasterImageDef
  3
ISM
 90
0
 91
1
280
0
281
0
  0
CLASS
  1
IMAGEDEF_REACTOR
  2
AcDbRasterImageDefReactor
  3
ISM
 90
0
 91
1
280
0
281
0
  0
CLASS
  1
IMAGE
  2
AcDbRasterImage
  3
ISM
 90
127
 91
1
280
0
281
1
  0
CLASS
  1
TABLESTYLE
  2
AcDbTableStyle
  3
ObjectDBX Classes
 90
2047
 91
1
280
0
281
0
  0
CLASS
  1
ACAD_TABLE
  2
AcDbTable
  3
ObjectDBX Classes
 90
1025
 91
3
280
0
281
1
  0
ENDSEC
  0
SECTION
  2
TABLES
  0
TABLE
  2
VPORT
  5
8
100
AcDbSymbolTable
 70
2
  0
VPORT
  5
1F4
100
AcDbSymbolTableRecord
100
AcDbViewportTableRecord
  2
*ACTIVE
 70
0
 10
0.0
 20
0.0
 11
1.0
 21
1.0
 12
11.0
 22
8.5
 13
0.0
 23
0.0
 14
1.0
 24
1.0
 15
0.0
 25
0.0
 16
0.0
 26
0.0
 36
1.0
 17
0.0
 27
0.0
 37
0.0
 40
17.0
 41
1.2941176471
 42
50.0
 43
0.0
 44
0.0
 50
0.0
 51
0.0
 71
0
 72
100
 73
1
 74
1
 75
0
 76
0
 77
0
 78
0
  0
ENDTAB
  0
TABLE
  2
LTYPE
  5
5
100
AcDbSymbolTable
 70
6
  0
LTYPE
  5
14
100
AcDbSymbolTableRecord
100
AcDbLinetypeTableRecord
  2
BYBLOCK
 70
0
  3

 72
65
 73
0
 40
0.0
  0
LTYPE
  5
15
100
AcDbSymbolTableRecord
100
AcDbLinetypeTableRecord
  2
BYLAYER
 70
0
  3

 72
65
 73
0
 40
0.0
  0
LTYPE
  5
16
100
AcDbSymbolTableRecord
100
AcDbLinetypeTableRecord
  2
CONTINUOUS
 70
64
  3
Solid line
 72
65
 73
0
 40
0.0
  0
LTYPE
  5
1F5
100
AcDbSymbolTableRecord
100
AcDbLinetypeTableRecord
  2
CENTER
 70
64
  3
____ _ ____ _ ____ _ ____ _ ____ _ ____ _ ____
 72
65
 73
4
 40
0.6
 49
0.375
 74
0
 49
-0.075
 74
0
 49
0.075
 74
0
 49
-0.075
 74
0
  0
LTYPE
  5
1F6
100
AcDbSymbolTableRecord
100
AcDbLinetypeTableRecord
  2
HIDDEN
 70
64
  3
- - - - - - - - - - - - - - - - - - - -
 72
65
 73
2
 40
0.2
 49
0.1
 74
0
 49
-0.1
 74
0
  0
LTYPE
  5
1F7
100
AcDbSymbolTableRecord
100
AcDbLinetypeTableRecord
  2
PHANTOM
 70
64
  3
_____ _ _ _____ _ _ _____ _ _ _____
 72
65
 73
6
 40
0.8
 49
0.45
 74
0
 49
-0.05
 74
0
 49
0.1
 74
0
 49
-0.05
 74
0
 49
0.1
 74
0
 49
-0.05
 74
0
  0
LTYPE
  5
1F8
100
AcDbSymbolTableRecord
100
AcDbLinetypeTableRecord
  2
DOT
 70
64
  3
. . . . . . . . . . . . . . . . . . . .
 72
65
 73
2
 40
0.2
 49
0.1
 74
0
 49
-0.1
 74
0
  0
LTYPE
  5
1F9
100
AcDbSymbolTableRecord
100
AcDbLinetypeTableRecord
  2
DASHED
 70
64
  3
- - - - - - - - - - - - - - - - - - - -
 72
65
 73
2
 40
0.2
 49
0.1
 74
0
 49
-0.1
 74
0
  0
ENDTAB
  0
TABLE
  2
LAYER
  5
2
100
AcDbSymbolTable
 70
36
  0
LAYER
  5
10
100
AcDbSymbolTableRecord
100
AcDbLayerTableRecord
  2
0
 70
0
 62
7
  6
CONTINUOUS
370
-3
390
F
  0
LAYER
  5
1FA
100
AcDbSymbolTableRecord
100
AcDbLayerTableRecord
  2
DEFAULT_1
 70
0
 62
7
  6
CENTER
370
-3
390
F
  0
LAYER
  5
1FB
100
AcDbSymbolTableRecord
100
AcDbLayerTableRecord
  2
DEFAULT_2
 70
0
 62
8
  6
HIDDEN
370
-3
390
F
  0
LAYER
  5
1FC
100
AcDbSymbolTableRecord
100
AcDbLayerTableRecord
  2
DEFAULT_3
 70
0
 62
7
  6
PHANTOM
370
-3
390
F
  0
LAYER
  5
1FD
100
AcDbSymbolTableRecord
100
AcDbLayerTableRecord
  2
DATUM_PLANES
 70
0
 62
7
  6
CONTINUOUS
370
-3
390
F
  0
LAYER
  5
1FE
100
AcDbSymbolTableRecord
100
AcDbLayerTableRecord
  2
DIMENSIONS
 70
0
 62
7
  6
CONTINUOUS
370
-3
390
F
  0
LAYER
  5
1FF
100
AcDbSymbolTableRecord
100
AcDbLayerTableRecord
  2
DTM_500001
 70
0
 62
7
  6
CONTINUOUS
370
-3
390
F
  0
LAYER
  5
200
100
AcDbSymbolTableRecord
100
AcDbLayerTableRecord
  2
PARAMETERDIMENSIONS
 70
0
 62
7
  6
CONTINUOUS
370
-3
390
F
  0
LAYER
  5
201
100
AcDbSymbolTableRecord
100
AcDbLayerTableRecord
  2
PORT_AREAS
 70
0
 62
7
  6
CONTINUOUS
370
-3
390
F
  0
LAYER
  5
202
100
AcDbSymbolTableRecord
100
AcDbLayerTableRecord
  2
SUNNBOMCOSMETIC
 70
0
 62
7
  6
CONTINUOUS
370
-3
390
F
  0
LAYER
  5
203
100
AcDbSymbolTableRecord
100
AcDbLayerTableRecord
  2
SUNNBOMSTAMPING
 70
0
 62
7
  6
CONTINUOUS
370
-3
390
F
  0
LAYER
  5
204
100
AcDbSymbolTableRecord
100
AcDbLayerTableRecord
  2
THREADS
 70
0
 62
7
  6
CONTINUOUS
370
-3
390
F
  0
ENDTAB
  0
TABLE
  2
STYLE
  5
3
100
AcDbSymbolTable
 70
1
  0
STYLE
  5
11
100
AcDbSymbolTableRecord
100
AcDbTextStyleTableRecord
  2
STANDARD
 70
0
 40
0.0
 41
0.8
 50
0.0
 71
0
 42
0.2
  3
txt
  4

  0
STYLE
  5
205
100
AcDbSymbolTableRecord
100
AcDbTextStyleTableRecord
  2
TEXTSTYLE_1
 70
0
 40
0.0
 41
0.8
 50
0.0
 71
0
 42
0.2
  3
gdt
  4

  0
ENDTAB
  0
TABLE
  2
VIEW
  5
6
100
AcDbSymbolTable
 70
0
  0
ENDTAB
  0
TABLE
  2
UCS
  5
7
100
AcDbSymbolTable
 70
0
  0
ENDTAB
  0
TABLE
  2
APPID
  5
9
100
AcDbSymbolTable
 70
1
  0
APPID
  5
206
100
AcDbSymbolTableRecord
100
AcDbRegAppTableRecord
  2
ACAD
 70
0
  0
ENDTAB
  0
TABLE
  2
BLOCK_RECORD
  5
1
100
AcDbSymbolTable
 70
0
  0
BLOCK_RECORD
  5
207
100
AcDbSymbolTableRecord
100
AcDbBlockTableRecord
  2
*Model_Space
  0
BLOCK_RECORD
  5
208
100
AcDbSymbolTableRecord
100
AcDbBlockTableRecord
  2
*Paper_Space
  0
BLOCK_RECORD
  5
209
100
AcDbSymbolTableRecord
100
AcDbBlockTableRecord
  2
SUN_FIRST_THIRD_ANGLE_BL0
  0
BLOCK_RECORD
  5
20A
100
AcDbSymbolTableRecord
100
AcDbBlockTableRecord
  2
*T1
  0
BLOCK_RECORD
  5
20B
100
AcDbSymbolTableRecord
100
AcDbBlockTableRecord
  2
*T2
  0
BLOCK_RECORD
  5
20C
100
AcDbSymbolTableRecord
100
AcDbBlockTableRecord
  2
*T3
  0
ENDTAB
  0
TABLE
  2
DIMSTYLE
  5
A
100
AcDbSymbolTable
 70
1
100
AcDbDimStyleTable
 71
0
  0
DIMSTYLE
105
20D
100
AcDbSymbolTableRecord
100
AcDbDimStyleTableRecord
  2
STANDARD
 70
0
  3

  4

 40
1.0
 41
0.1875
 42
0.0625
 43
0.38
 44
0.125
 45
0.0
 46
0.0
 47
0.001
 48
0.001
140
0.1
141
0.09
142
0.0
143
25.4
144
1.0
145
0.0
146
1.0
147
0.09
 71
0.0
 72
0.0
 73
1
 74
1
 75
0
 76
0
 77
0
 78
4
170
0
171
2
172
0
173
0
174
0
175
0
176
0
177
0
178
0
270
2
271
3
272
3
273
2
274
2
275
0
280
0
281
0
282
0
283
1
284
4
285
0
286
0
287
3
288
0
340
11
278
46
  0
ENDTAB
  0
ENDSEC
  0
SECTION
  2
BLOCKS
  0
BLOCK
  5
20
100
AcDbEntity
  8
0
100
AcDbBlockBegin
  2
*Model_Space
 70
0
 10
0.0
 20
0.0
 30
0.0
  3
*Model_Space
  1

  0
ENDBLK
  5
21
100
AcDbEntity
  8
0
100
AcDbBlockEnd
  0
BLOCK
  5
1C
100
AcDbEntity
  8
0
100
AcDbBlockBegin
  2
*Paper_Space
 70
0
 10
0.0
 20
0.0
 30
0.0
  3
*Paper_Space
  1

  0
ENDBLK
  5
1D
100
AcDbEntity
  8
0
100
AcDbBlockEnd
  0
BLOCK
  5
20E
100
AcDbEntity
  8
0
100
AcDbBlockBegin
 62
2
  6
CONTINUOUS
  2
SUN_FIRST_THIRD_ANGLE_BL0
 70
64
 10
20.4816717061
 20
1.2289683772
  3
SUN_FIRST_THIRD_ANGLE_BL0
  1

  0
TEXT
  5
20F
100
AcDbEntity
  8
0
100
AcDbText
 62
2
  6
CONTINUOUS
 10
19.4750896608
 20
1.4136269581
  7
STANDARD
 40
0.08
  1
FIRST ANGLE
 41
0.8
 72
0
100
AcDbText
  0
TEXT
  5
210
100
AcDbEntity
  8
0
100
AcDbText
 62
2
  6
CONTINUOUS
 10
20.7842537513
 20
1.4047600029
  7
STANDARD
 40
0.08
  1
THIRD ANGLE
 41
0.8
 72
0
100
AcDbText
  0
LINE
  5
211
100
AcDbEntity
  8
0
100
AcDbLine
 62
7
  6
CONTINUOUS
 10
19.4767170086
 20
1.1727031207
 11
19.6334271527
 21
1.1717972817
  0
LINE
  5
212
100
AcDbEntity
  8
0
100
AcDbLine
 62
7
  6
CONTINUOUS
 10
19.6596964832
 20
1.1717972817
 11
19.6950230232
 21
1.171593082
  0
LINE
  5
213
100
AcDbEntity
  8
0
100
AcDbLine
 62
7
  6
CONTINUOUS
 10
19.7194818561
 20
1.1708914427
 11
19.8852396156
 21
1.1699333054
  0
LINE
  5
214
100
AcDbEntity
  8
0
100
AcDbLine
 62
7
  6
CONTINUOUS
 10
19.4758111696
 20
1.2723454088
 11
19.88525039
 21
1.3511534004
  0
LINE
  5
215
100
AcDbEntity
  8
0
100
AcDbLine
 62
7
  6
CONTINUOUS
 10
19.88525039
 20
1.3511534004
 11
19.8831348489
 21
0.9851647912
  0
LINE
  5
216
100
AcDbEntity
  8
0
100
AcDbLine
 62
7
  6
CONTINUOUS
 10
19.8831348489
 20
0.9851647912
 11
19.4767170086
 21
1.0658141206
  0
LINE
  5
217
100
AcDbEntity
  8
0
100
AcDbLine
 62
7
  6
CONTINUOUS
 10
19.4767170086
 20
1.0658141206
 11
19.4779056764
 21
1.2714536432
  0
CIRCLE
  5
218
100
AcDbEntity
  8
0
100
AcDbCircle
 62
7
  6
CONTINUOUS
 10
20.2068232291
 20
1.1717972817
 40
0.175742101
  0
CIRCLE
  5
219
100
AcDbEntity
  8
0
100
AcDbCircle
 62
7
  6
CONTINUOUS
 10
20.2068232291
 20
1.1717972817
 40
0.1005522074
  0
LINE
  5
21A
100
AcDbEntity
  8
0
100
AcDbLine
 62
7
  6
CONTINUOUS
 10
20.2077290681
 20
1.3756110529
 11
20.2071171714
 21
1.2379342989
  0
LINE
  5
21B
100
AcDbEntity
  8
0
100
AcDbLine
 62
7
  6
CONTINUOUS
 10
20.2077290681
 20
1.2016899681
 11
20.2074674401
 21
1.1428236749
  0
LINE
  5
21C
100
AcDbEntity
  8
0
100
AcDbLine
 62
7
  6
CONTINUOUS
 10
20.208634907
 20
1.101141841
 11
20.2080230104
 21
0.963465087
  0
LINE
  5
21D
100
AcDbEntity
  8
0
100
AcDbLine
 62
7
  6
CONTINUOUS
 10
20.0066328138
 20
1.1745147986
 11
20.1443095678
 21
1.1739029019
  0
LINE
  5
21E
100
AcDbEntity
  8
0
100
AcDbLine
 62
7
  6
CONTINUOUS
 10
20.1832714155
 20
1.1727031207
 11
20.238153505
 21
1.172335442
  0
LINE
  5
21F
100
AcDbEntity
  8
0
100
AcDbLine
 62
7
  6
CONTINUOUS
 10
20.2756669918
 20
1.1717972817
 11
20.407916871
 21
1.1712095044
  0
CIRCLE
  5
220
100
AcDbEntity
  8
0
100
AcDbCircle
 62
7
  6
CONTINUOUS
 10
20.7509457401
 20
1.1693297793
 40
0.1722024983
  0
CIRCLE
  5
221
100
AcDbEntity
  8
0
100
AcDbCircle
 62
7
  6
CONTINUOUS
 10
20.7509457401
 20
1.1693297793
 40
0.0985164967
  0
LINE
  5
222
100
AcDbEntity
  8
0
100
AcDbLine
 62
7
  6
CONTINUOUS
 10
20.7169767782
 20
1.170462078
 11
20.7825395137
 21
1.1682766535
  0
LINE
  5
223
100
AcDbEntity
  8
0
100
AcDbLine
 62
7
  6
CONTINUOUS
 10
20.8177513651
 20
1.1693297793
 11
20.947965719
 21
1.1693297793
  0
LINE
  5
224
100
AcDbEntity
  8
0
100
AcDbLine
 62
7
  6
CONTINUOUS
 10
20.6875370113
 20
1.170462078
 11
20.5573226574
 21
1.170462078
  0
LINE
  5
225
100
AcDbEntity
  8
0
100
AcDbLine
 62
7
  6
CONTINUOUS
 10
20.7486811426
 20
1.1987695462
 11
20.7486811426
 21
1.1432869085
  0
LINE
  5
226
100
AcDbEntity
  8
0
100
AcDbLine
 62
7
  6
CONTINUOUS
 10
20.7498134414
 20
1.1059210505
 11
20.7498134414
 21
0.9757066966
  0
LINE
  5
227
100
AcDbEntity
  8
0
100
AcDbLine
 62
7
  6
CONTINUOUS
 10
20.7486811426
 20
1.2338708068
 11
20.7486811426
 21
1.3640851607
  0
LINE
  5
228
100
AcDbEntity
  8
0
100
AcDbLine
 62
7
  6
CONTINUOUS
 10
21.0702539817
 20
1.2701043662
 11
21.4790138229
 21
1.3448360823
  0
LINE
  5
229
100
AcDbEntity
  8
0
100
AcDbLine
 62
7
  6
CONTINUOUS
 10
21.4790138229
 20
1.3448360823
 11
21.4790138229
 21
0.9779712941
  0
LINE
  5
22A
100
AcDbEntity
  8
0
100
AcDbLine
 62
7
  6
CONTINUOUS
 10
21.4790138229
 20
0.9779712941
 11
21.069121683
 21
1.0617614
  0
LINE
  5
22B
100
AcDbEntity
  8
0
100
AcDbLine
 62
7
  6
CONTINUOUS
 10
21.0702539817
 20
1.2701043662
 11
21.069121683
 21
1.0617614
  0
LINE
  5
22C
100
AcDbEntity
  8
0
100
AcDbLine
 62
7
  6
CONTINUOUS
 10
21.4790138229
 20
1.1693297793
 11
21.3159628059
 21
1.1693297793
  0
LINE
  5
22D
100
AcDbEntity
  8
0
100
AcDbLine
 62
7
  6
CONTINUOUS
 10
21.2876553377
 20
1.1693297793
 11
21.2502894796
 21
1.1693297793
  0
LINE
  5
22E
100
AcDbEntity
  8
0
100
AcDbLine
 62
7
  6
CONTINUOUS
 10
21.2208497126
 20
1.1659328831
 11
21.0713862804
 21
1.1659328831
  0
LINE
  5
22F
100
AcDbEntity
  8
0
100
AcDbLine
 62
7
  6
CONTINUOUS
 10
20.4796138713
 20
1.5284908897
 11
20.4766766948
 21
0.9294458646
  0
ENDBLK
  5
230
100
AcDbEntity
  8
0
  6
BYBLOCK
 62
0
100
AcDbBlockEnd
  0
BLOCK
  5
231
100
AcDbEntity
  8
0
100
AcDbBlockBegin
  2
*T1
 70
1
 10
0.0
 20
0.0
  3
*T1
  1

  0
LINE
  5
232
100
AcDbEntity
  8
0
100
AcDbLine
 62
2
  6
CONTINUOUS
 10
9.275
 20
0.0
 11
-0.0
 21
0.0
  0
LINE
  5
233
100
AcDbEntity
  8
0
100
AcDbLine
 62
2
  6
CONTINUOUS
 10
9.275
 20
0.0
 11
9.275
 21
1.25
  0
LINE
  5
234
100
AcDbEntity
  8
0
100
AcDbLine
 62
2
  6
CONTINUOUS
 10
9.275
 20
0.625
 11
-0.0
 21
0.625
  0
LINE
  5
235
100
AcDbEntity
  8
0
100
AcDbLine
 62
2
  6
CONTINUOUS
 10
9.275
 20
1.25
 11
-0.0
 21
1.25
  0
LINE
  5
236
100
AcDbEntity
  8
0
100
AcDbLine
 62
2
  6
CONTINUOUS
 10
6.8
 20
0.0
 11
6.8
 21
1.25
  0
LINE
  5
237
100
AcDbEntity
  8
0
100
AcDbLine
 62
2
  6
CONTINUOUS
 10
6.4
 20
0.0
 11
6.4
 21
0.625
  0
LINE
  5
238
100
AcDbEntity
  8
0
100
AcDbLine
 62
2
  6
CONTINUOUS
 10
5.9
 20
0.0
 11
5.9
 21
0.625
  0
LINE
  5
239
100
AcDbEntity
  8
0
100
AcDbLine
 62
2
  6
CONTINUOUS
 10
5.2
 20
0.0
 11
5.2
 21
0.625
  0
LINE
  5
23A
100
AcDbEntity
  8
0
100
AcDbLine
 62
2
  6
CONTINUOUS
 10
4.1
 20
0.0
 11
4.1
 21
1.25
  0
LINE
  5
23B
100
AcDbEntity
  8
0
100
AcDbLine
 62
2
  6
CONTINUOUS
 10
-0.0
 20
0.0
 11
-0.0
 21
1.25
  0
MTEXT
  5
23C
100
AcDbEntity
  8
0
100
AcDbMText
 62
2
  6
CONTINUOUS
  7
STANDARD
 71
2
 72
1
 10
6.6
 20
0.325
 30
0.0
 11
1.0
 21
0.0
 31
0.0
 44
0.9
  1
2
 40
0.125
 41
0.2
  0
MTEXT
  5
23D
100
AcDbEntity
  8
0
100
AcDbMText
 62
2
  6
CONTINUOUS
  7
STANDARD
 71
2
 72
1
 10
6.15
 20
0.325
 30
0.0
 11
1.0
 21
0.0
 31
0.0
 44
0.9
  1
C
 40
0.125
 41
0.2
  0
MTEXT
  5
23E
100
AcDbEntity
  8
0
100
AcDbMText
 62
2
  6
CONTINUOUS
  7
STANDARD
 71
2
 72
1
 10
5.55
 20
0.325
 30
0.0
 11
1.0
 21
0.0
 31
0.0
 44
0.9
  1
1.000
 40
0.125
 41
1.0
  0
MTEXT
  5
23F
100
AcDbEntity
  8
0
100
AcDbMText
 62
2
  6
CONTINUOUS
  7
STANDARD
 71
2
 72
1
 10
4.65
 20
0.325
 30
0.0
 11
1.0
 21
0.0
 31
0.0
 44
0.9
  1
Mar-18-24
 40
0.125
 41
1.8
  0
MTEXT
  5
240
100
AcDbEntity
  8
0
100
AcDbMText
 62
2
  6
CONTINUOUS
  7
STANDARD
 71
2
 72
1
 10
2.05
 20
0.4625
 30
0.0
 11
1.0
 21
0.0
 31
0.0
 44
0.9
  1
T-22A Gasket mount Sun\PDirect mount, cross pilot
 40
0.125
 41
5.0
  0
MTEXT
  5
241
100
AcDbEntity
  8
0
100
AcDbMText
 62
2
  6
CONTINUOUS
  7
STANDARD
 71
1
 72
1
 10
6.45
 20
0.5625
 30
0.0
 11
1.0
 21
0.0
 31
0.0
 44
0.9
  1
SHEET
 40
0.06
 41
0.48
  0
MTEXT
  5
242
100
AcDbEntity
  8
0
100
AcDbMText
 62
2
  6
CONTINUOUS
  7
STANDARD
 71
1
 72
1
 10
5.95
 20
0.5625
 30
0.0
 11
1.0
 21
0.0
 31
0.0
 44
0.9
  1
DWG SIZE
 40
0.06
 41
0.768
  0
MTEXT
  5
243
100
AcDbEntity
  8
0
100
AcDbMText
 62
2
  6
CONTINUOUS
  7
STANDARD
 71
1
 72
1
 10
5.25
 20
0.5625
 30
0.0
 11
1.0
 21
0.0
 31
0.0
 44
0.9
  1
SCALE
 40
0.06
 41
0.48
  0
MTEXT
  5
244
100
AcDbEntity
  8
0
100
AcDbMText
 62
2
  6
CONTINUOUS
  7
STANDARD
 71
1
 72
1
 10
4.15
 20
0.5625
 30
0.0
 11
1.0
 21
0.0
 31
0.0
 44
0.9
  1
DATE
 40
0.06
 41
0.384
  0
MTEXT
  5
245
100
AcDbEntity
  8
0
100
AcDbMText
 62
2
  6
CONTINUOUS
  7
STANDARD
 71
1
 72
1
 10
0.05
 20
0.5625
 30
0.0
 11
1.0
 21
0.0
 31
0.0
 44
0.9
  1
DESCRIPTION
 40
0.06
 41
1.056
  0
MTEXT
  5
246
100
AcDbEntity
  8
0
100
AcDbMText
 62
2
  6
CONTINUOUS
  7
STANDARD
 71
2
 72
1
 10
5.45
 20
1.0375
 30
0.0
 11
1.0
 21
0.0
 31
0.0
 44
0.9
  1
ALL DIMENSIONS IN INCH\PVIEWS ARE THIRD ANGLE
 40
0.12
 41
4.224
  0
MTEXT
  5
247
100
AcDbEntity
  8
0
100
AcDbMText
 62
2
  6
CONTINUOUS
  7
STANDARD
 71
2
 72
1
 10
2.05
 20
0.95
 30
0.0
 11
1.0
 21
0.0
 31
0.0
 44
0.9
  1
WJD
 40
0.125
 41
0.6
  0
MTEXT
  5
248
100
AcDbEntity
  8
0
100
AcDbMText
 62
2
  6
CONTINUOUS
  7
STANDARD
 71
1
 72
1
 10
0.05
 20
1.1875
 30
0.0
 11
1.0
 21
0.0
 31
0.0
 44
0.9
  1
MODEL
 40
0.06
 41
0.48
  0
ENDBLK
  5
249
100
AcDbEntity
  8
0
  6
BYBLOCK
 62
0
100
AcDbBlockEnd
  0
BLOCK
  5
24A
100
AcDbEntity
  8
0
100
AcDbBlockBegin
  2
*T2
 70
1
 10
0.0
 20
0.0
  3
*T2
  1

  0
LINE
  5
24B
100
AcDbEntity
  8
0
100
AcDbLine
 62
2
  6
CONTINUOUS
 10
0.0
 20
0.0
 11
9.055
 21
0.0
  0
LINE
  5
24C
100
AcDbEntity
  8
0
100
AcDbLine
 62
2
  6
CONTINUOUS
 10
0.0
 20
0.0
 11
0.0
 21
-1.844
  0
LINE
  5
24D
100
AcDbEntity
  8
0
100
AcDbLine
 62
2
  6
CONTINUOUS
 10
0.0
 20
-0.344
 11
9.055
 21
-0.344
  0
LINE
  5
24E
100
AcDbEntity
  8
0
100
AcDbLine
 62
2
  6
CONTINUOUS
 10
0.0
 20
-0.594
 11
9.055
 21
-0.594
  0
LINE
  5
24F
100
AcDbEntity
  8
0
100
AcDbLine
 62
2
  6
CONTINUOUS
 10
0.0
 20
-0.844
 11
9.055
 21
-0.844
  0
LINE
  5
250
100
AcDbEntity
  8
0
100
AcDbLine
 62
2
  6
CONTINUOUS
 10
0.0
 20
-1.094
 11
9.055
 21
-1.094
  0
LINE
  5
251
100
AcDbEntity
  8
0
100
AcDbLine
 62
2
  6
CONTINUOUS
 10
0.0
 20
-1.344
 11
9.055
 21
-1.344
  0
LINE
  5
252
100
AcDbEntity
  8
0
100
AcDbLine
 62
2
  6
CONTINUOUS
 10
0.0
 20
-1.594
 11
9.055
 21
-1.594
  0
LINE
  5
253
100
AcDbEntity
  8
0
100
AcDbLine
 62
2
  6
CONTINUOUS
 10
0.0
 20
-1.844
 11
9.055
 21
-1.844
  0
LINE
  5
254
100
AcDbEntity
  8
0
100
AcDbLine
 62
2
  6
CONTINUOUS
 10
3.055
 20
0.0
 11
3.055
 21
-1.844
  0
LINE
  5
255
100
AcDbEntity
  8
0
100
AcDbLine
 62
2
  6
CONTINUOUS
 10
9.055
 20
0.0
 11
9.055
 21
-1.844
  0
MTEXT
  5
256
100
AcDbEntity
  8
0
100
AcDbMText
 62
2
  6
CONTINUOUS
  7
STANDARD
 71
2
 72
1
 10
1.5275
 20
-0.0995
 30
0.0
 11
1.0
 21
0.0
 31
0.0
 44
0.9
  1
Technical Data
 40
0.145
 41
3.248
  0
MTEXT
  5
257
100
AcDbEntity
  8
0
100
AcDbMText
 62
2
  6
CONTINUOUS
  7
STANDARD
 71
2
 72
1
 10
4.555
 20
-0.0995
 30
0.0
 11
1.0
 21
0.0
 31
0.0
 44
0.9
  1
U.S. Units
 40
0.145
 41
2.32
  0
MTEXT
  5
258
100
AcDbEntity
  8
0
100
AcDbMText
 62
2
  6
CONTINUOUS
  7
STANDARD
 71
2
 72
1
 10
7.555
 20
-0.0995
 30
0.0
 11
1.0
 21
0.0
 31
0.0
 44
0.9
  1
Metric Units
 40
0.145
 41
2.784
  0
MTEXT
  5
259
100
AcDbEntity
  8
0
100
AcDbMText
 62
2
  6
CONTINUOUS
  7
STANDARD
 71
2
 72
1
 10
1.5275
 20
-0.4065
 30
0.0
 11
1.0
 21
0.0
 31
0.0
 44
0.9
  1
Cavity
 40
0.125
 41
1.2
  0
MTEXT
  5
25A
100
AcDbEntity
  8
0
100
AcDbMText
 62
2
  6
CONTINUOUS
  7
STANDARD
 71
2
 72
1
 10
6.055
 20
-0.4065
 30
0.0
 11
1.0
 21
0.0
 31
0.0
 44
0.9
  1
T-22A
 40
0.125
 41
1.0
  0
MTEXT
  5
25B
100
AcDbEntity
  8
0
100
AcDbMText
 62
2
  6
CONTINUOUS
  7
STANDARD
 71
2
 72
1
 10
1.5275
 20
-0.6565
 30
0.0
 11
1.0
 21
0.0
 31
0.0
 44
0.9
  1
Body Features
 40
0.125
 41
2.6
  0
MTEXT
  5
25C
100
AcDbEntity
  8
0
100
AcDbMText
 62
2
  6
CONTINUOUS
  7
STANDARD
 71
2
 72
1
 10
6.055
 20
-0.6565
 30
0.0
 11
1.0
 21
0.0
 31
0.0
 44
0.9
  1
Direct mount, cross pilot
 40
0.125
 41
5.0
  0
MTEXT
  5
25D
100
AcDbEntity
  8
0
100
AcDbMText
 62
2
  6
CONTINUOUS
  7
STANDARD
 71
2
 72
1
 10
1.5275
 20
-0.9065
 30
0.0
 11
1.0
 21
0.0
 31
0.0
 44
0.9
  1
Body Type
 40
0.125
 41
1.8
  0
MTEXT
  5
25E
100
AcDbEntity
  8
0
100
AcDbMText
 62
2
  6
CONTINUOUS
  7
STANDARD
 71
2
 72
1
 10
6.055
 20
-0.9065
 30
0.0
 11
1.0
 21
0.0
 31
0.0
 44
0.9
  1
Gasket mount
 40
0.125
 41
2.4
  0
MTEXT
  5
25F
100
AcDbEntity
  8
0
100
AcDbMText
 62
2
  6
CONTINUOUS
  7
STANDARD
 71
2
 72
1
 10
1.5275
 20
-1.1565
 30
0.0
 11
1.0
 21
0.0
 31
0.0
 44
0.9
  1
Interface
 40
0.125
 41
1.8
  0
MTEXT
  5
260
100
AcDbEntity
  8
0
100
AcDbMText
 62
2
  6
CONTINUOUS
  7
STANDARD
 71
2
 72
1
 10
6.055
 20
-1.1565
 30
0.0
 11
1.0
 21
0.0
 31
0.0
 44
0.9
  1
Sun
 40
0.125
 41
0.6
  0
MTEXT
  5
261
100
AcDbEntity
  8
0
100
AcDbMText
 62
2
  6
CONTINUOUS
  7
STANDARD
 71
2
 72
1
 10
1.5275
 20
-1.4065
 30
0.0
 11
1.0
 21
0.0
 31
0.0
 44
0.9
  1
Open Cavity Quantity
 40
0.125
 41
4.0
  0
MTEXT
  5
262
100
AcDbEntity
  8
0
100
AcDbMText
 62
2
  6
CONTINUOUS
  7
STANDARD
 71
2
 72
1
 10
6.055
 20
-1.4065
 30
0.0
 11
1.0
 21
0.0
 31
0.0
 44
0.9
  1
1
 40
0.125
 41
0.2
  0
MTEXT
  5
263
100
AcDbEntity
  8
0
100
AcDbMText
 62
2
  6
CONTINUOUS
  7
STANDARD
 71
2
 72
1
 10
1.5275
 20
-1.6565
 30
0.0
 11
1.0
 21
0.0
 31
0.0
 44
0.9
  1
Weight
 40
0.125
 41
1.2
  0
MTEXT
  5
264
100
AcDbEntity
  8
0
100
AcDbMText
 62
2
  6
CONTINUOUS
  7
STANDARD
 71
2
 72
1
 10
4.555
 20
-1.6565
 30
0.0
 11
1.0
 21
0.0
 31
0.0
 44
0.9
  1
3.669 lb.
 40
0.125
 41
1.8
  0
MTEXT
  5
265
100
AcDbEntity
  8
0
100
AcDbMText
 62
2
  6
CONTINUOUS
  7
STANDARD
 71
2
 72
1
 10
7.555
 20
-1.6565
 30
0.0
 11
1.0
 21
0.0
 31
0.0
 44
0.9
  1
1,664 kg.
 40
0.125
 41
1.8
  0
ENDBLK
  5
266
100
AcDbEntity
  8
0
  6
BYBLOCK
 62
0
100
AcDbBlockEnd
  0
BLOCK
  5
267
100
AcDbEntity
  8
0
100
AcDbBlockBegin
  2
*T3
 70
1
 10
0.0
 20
0.0
  3
*T3
  1

  0
LINE
  5
268
100
AcDbEntity
  8
0
100
AcDbLine
 62
2
  6
CONTINUOUS
 10
0.0
 20
0.0
 11
4.6
 21
0.0
  0
LINE
  5
269
100
AcDbEntity
  8
0
100
AcDbLine
 62
2
  6
CONTINUOUS
 10
0.0
 20
0.0
 11
0.0
 21
-1.18775
  0
LINE
  5
26A
100
AcDbEntity
  8
0
100
AcDbLine
 62
2
  6
CONTINUOUS
 10
0.0
 20
-0.34375
 11
4.6
 21
-0.34375
  0
LINE
  5
26B
100
AcDbEntity
  8
0
100
AcDbLine
 62
2
  6
CONTINUOUS
 10
0.0
 20
-0.68775
 11
4.6
 21
-0.68775
  0
LINE
  5
26C
100
AcDbEntity
  8
0
100
AcDbLine
 62
2
  6
CONTINUOUS
 10
0.0
 20
-0.93775
 11
4.6
 21
-0.93775
  0
LINE
  5
26D
100
AcDbEntity
  8
0
100
AcDbLine
 62
2
  6
CONTINUOUS
 10
0.0
 20
-1.18775
 11
4.6
 21
-1.18775
  0
LINE
  5
26E
100
AcDbEntity
  8
0
100
AcDbLine
 62
2
  6
CONTINUOUS
 10
1.3
 20
-0.34375
 11
1.3
 21
-1.18775
  0
LINE
  5
26F
100
AcDbEntity
  8
0
100
AcDbLine
 62
2
  6
CONTINUOUS
 10
3.3
 20
-0.34375
 11
3.3
 21
-1.18775
  0
LINE
  5
270
100
AcDbEntity
  8
0
100
AcDbLine
 62
2
  6
CONTINUOUS
 10
4.6
 20
0.0
 11
4.6
 21
-1.18775
  0
MTEXT
  5
271
100
AcDbEntity
  8
0
100
AcDbMText
 62
2
  6
CONTINUOUS
  7
STANDARD
 71
2
 72
1
 10
2.3
 20
-0.099375
 30
0.0
 11
1.0
 21
0.0
 31
0.0
 44
0.9
  1
Port Headings
 40
0.145
 41
3.016
  0
MTEXT
  5
272
100
AcDbEntity
  8
0
100
AcDbMText
 62
2
  6
CONTINUOUS
  7
STANDARD
 71
2
 72
1
 10
0.65
 20
-0.44325
 30
0.0
 11
1.0
 21
0.0
 31
0.0
 44
0.9
  1
Product
 40
0.145
 41
1.624
  0
MTEXT
  5
273
100
AcDbEntity
  8
0
100
AcDbMText
 62
2
  6
CONTINUOUS
  7
STANDARD
 71
2
 72
1
 10
2.3
 20
-0.44325
 30
0.0
 11
1.0
 21
0.0
 31
0.0
 44
0.9
  1
Port
 40
0.145
 41
0.928
  0
MTEXT
  5
274
100
AcDbEntity
  8
0
100
AcDbMText
 62
2
  6
CONTINUOUS
  7
STANDARD
 71
2
 72
1
 10
3.95
 20
-0.44325
 30
0.0
 11
1.0
 21
0.0
 31
0.0
 44
0.9
  1
Size
 40
0.145
 41
0.928
  0
MTEXT
  5
275
100
AcDbEntity
  8
0
100
AcDbMText
 62
2
  6
CONTINUOUS
  7
STANDARD
 71
2
 72
1
 10
0.65
 20
-0.75025
 30
0.0
 11
1.0
 21
0.0
 31
0.0
 44
0.9
  1
WJD
 40
0.125
 41
0.6
  0
MTEXT
  5
276
100
AcDbEntity
  8
0
100
AcDbMText
 62
2
  6
CONTINUOUS
  7
STANDARD
 71
2
 72
1
 10
2.3
 20
-0.75025
 30
0.0
 11
1.0
 21
0.0
 31
0.0
 44
0.9
  1
Ports C2, V1, V2
 40
0.125
 41
3.2
  0
MTEXT
  5
277
100
AcDbEntity
  8
0
100
AcDbMText
 62
2
  6
CONTINUOUS
  7
STANDARD
 71
2
 72
1
 10
3.95
 20
-0.75025
 30
0.0
 11
1.0
 21
0.0
 31
0.0
 44
0.9
  1
1/2" BSPP
 40
0.125
 41
1.8
  0
MTEXT
  5
278
100
AcDbEntity
  8
0
100
AcDbMText
 62
2
  6
CONTINUOUS
  7
STANDARD
 71
2
 72
1
 10
0.65
 20
-1.00025
 30
0.0
 11
1.0
 21
0.0
 31
0.0
 44
0.9
  1
WJD
 40
0.125
 41
0.6
  0
MTEXT
  5
279
100
AcDbEntity
  8
0
100
AcDbMText
 62
2
  6
CONTINUOUS
  7
STANDARD
 71
2
 72
1
 10
2.3
 20
-1.00025
 30
0.0
 11
1.0
 21
0.0
 31
0.0
 44
0.9
  1
Vent Port
 40
0.125
 41
1.8
  0
MTEXT
  5
27A
100
AcDbEntity
  8
0
100
AcDbMText
 62
2
  6
CONTINUOUS
  7
STANDARD
 71
2
 72
1
 10
3.95
 20
-1.00025
 30
0.0
 11
1.0
 21
0.0
 31
0.0
 44
0.9
  1
1/4" BSPP
 40
0.125
 41
1.8
  0
ENDBLK
  5
27B
100
AcDbEntity
  8
0
  6
BYBLOCK
 62
0
100
AcDbBlockEnd
  0
ENDSEC
  0
SECTION
  2
ENTITIES
  0
IMAGE
  5
27C
100
AcDbEntity
  8
0
100
AcDbRasterImage
 62
7
  6
CONTINUOUS
 10
19.2297077316
 20
0.3094318264
 30
0.0
 11
0.0066666667
 21
0.0
 31
0.0
 12
0.0
 22
0.0066666667
 32
0.0
 13
369.0
 23
92.0
340
       39D
 70
9
280
0
281
50
282
50
283
0
360
       397
 71
1
 91
2
 14
-0.5
 24
-0.5
 14
368.5
 24
91.5
  0
INSERT
  5
27D
100
AcDbEntity
  8
0
100
AcDbBlockReference
 62
2
  6
CONTINUOUS
  2
SUN_FIRST_THIRD_ANGLE_BL0
 10
20.4816717061
 20
1.2289683772
  0
ACAD_TABLE
  5
27E
100
AcDbEntity
  8
0
 62
2
  6
CONTINUOUS
100
AcDbBlockReference
  2
*T1
 10
12.42375
 20
0.30125
 30
0.0
100
AcDbTable
342
       39F
343
20A
 11
1.0
 21
0.0
 31
0.0
 90
6
 91
4
 92
6
 93
20
 94
0
 95
0
 96
0
 70
1
 41
0.0
141
0.525
141
0.1
141
0.525
141
0.1
142
4.1
142
1.1
142
0.7
142
0.5
142
0.4
142
2.475
171
1
172
0
173
0
174
0
175
1
176
1
 91
33
178
0
145
0.0
301
CELL_VALUE
 90
4
  1
T-22A Gasket mount Sun\PDirect mount, cross pilot
304
ACVALUE_END
170
2
140
0.125
171
1
172
0
173
0
174
0
175
1
176
1
 91
33
178
0
145
0.0
301
CELL_VALUE
 90
4
  1
Mar-18-24
304
ACVALUE_END
170
5
140
0.125
171
1
172
0
173
0
174
0
175
1
176
1
 91
33
178
0
145
0.0
301
CELL_VALUE
 90
4
  1
1.000
304
ACVALUE_END
170
5
140
0.125
171
1
172
0
173
0
174
0
175
1
176
1
 91
33
178
0
145
0.0
301
CELL_VALUE
 90
4
  1
C
304
ACVALUE_END
170
5
140
0.125
171
1
172
0
173
0
174
0
175
1
176
1
 91
33
178
0
145
0.0
301
CELL_VALUE
 90
4
  1
2
304
ACVALUE_END
170
5
140
0.125
171
1
172
0
173
0
174
0
175
1
176
1
 91
33
178
0
145
0.0
301
CELL_VALUE
 90
4
  1
 
304
ACVALUE_END
170
1
140
0.125
171
1
172
0
173
0
174
0
175
1
176
1
 91
33
178
0
145
0.0
301
CELL_VALUE
 90
4
  1
DESCRIPTION
304
ACVALUE_END
170
1
140
0.06
171
1
172
0
173
0
174
0
175
1
176
1
 91
33
178
0
145
0.0
301
CELL_VALUE
 90
4
  1
DATE
304
ACVALUE_END
170
1
140
0.06
171
1
172
0
173
0
174
0
175
1
176
1
 91
33
178
0
145
0.0
301
CELL_VALUE
 90
4
  1
SCALE
304
ACVALUE_END
170
1
140
0.06
171
1
172
0
173
0
174
0
175
1
176
1
 91
33
178
0
145
0.0
301
CELL_VALUE
 90
4
  1
DWG SIZE
304
ACVALUE_END
170
1
140
0.06
171
1
172
0
173
0
174
0
175
1
176
1
 91
33
178
0
145
0.0
301
CELL_VALUE
 90
4
  1
SHEET
304
ACVALUE_END
170
1
140
0.06
171
1
172
0
173
0
174
0
175
1
176
1
 91
33
178
0
145
0.0
301
CELL_VALUE
 90
4
  1
 
304
ACVALUE_END
170
1
140
0.125
171
1
172
0
173
0
174
0
175
1
176
1
 91
33
178
0
145
0.0
301
CELL_VALUE
 90
4
  1
WJD
304
ACVALUE_END
170
5
140
0.125
171
1
172
0
173
0
174
0
175
4
176
1
 91
33
178
0
145
0.0
301
CELL_VALUE
 90
4
  1
ALL DIMENSIONS IN INCH\PVIEWS ARE THIRD ANGLE
304
ACVALUE_END
170
5
140
0.12
171
1
172
0
173
1
174
0
175
1
176
1
 91
1
178
0
145
0.0
170
1
171
1
172
0
173
1
174
0
175
1
176
1
 91
1
178
0
145
0.0
170
1
171
1
172
0
173
1
174
0
175
1
176
1
 91
1
178
0
145
0.0
170
5
171
1
172
0
173
0
174
0
175
1
176
1
 91
33
178
0
145
0.0
301
CELL_VALUE
 90
4
  1
 
304
ACVALUE_END
170
1
140
0.125
171
1
172
0
173
0
174
0
175
1
176
1
 91
33
178
0
145
0.0
301
CELL_VALUE
 90
4
  1
MODEL
304
ACVALUE_END
170
1
140
0.06
171
1
172
0
173
0
174
0
175
1
176
1
 91
33
178
0
145
0.0
301
CELL_VALUE
 90
4
  1
 
304
ACVALUE_END
170
1
140
0.125
171
1
172
0
173
0
174
0
175
1
176
1
 91
33
178
0
145
0.0
301
CELL_VALUE
 90
4
  1
 
304
ACVALUE_END
170
1
140
0.125
171
1
172
0
173
0
174
0
175
1
176
1
 91
33
178
0
145
0.0
301
CELL_VALUE
 90
4
  1
 
304
ACVALUE_END
170
1
140
0.125
171
1
172
0
173
0
174
0
175
1
176
1
 91
33
178
0
145
0.0
301
CELL_VALUE
 90
4
  1
 
304
ACVALUE_END
170
1
140
0.125
171
1
172
0
173
0
174
0
175
1
176
1
 91
33
178
0
145
0.0
301
CELL_VALUE
 90
4
  1
 
304
ACVALUE_END
170
1
140
0.125
  0
ACAD_TABLE
  5
27F
100
AcDbEntity
  8
0
 62
2
  6
CONTINUOUS
100
AcDbBlockReference
  2
*T2
 10
12.4237499994
 20
16.47875
 30
0.0
100
AcDbTable
342
       39E
343
20B
 11
1.0
 21
0.0
 31
0.0
 90
22
 91
7
 92
3
 93
16
 94
0
 95
0
 96
0
 41
0.028
141
0.344
141
0.25
141
0.25
141
0.25
141
0.25
141
0.25
141
0.25
142
3.055
142
3.0
142
3.0
171
1
172
0
173
0
174
0
175
1
176
1
 91
33
178
0
145
0.0
301
CELL_VALUE
 90
4
  1
Technical Data
304
ACVALUE_END
170
5
140
0.145
171
1
172
0
173
0
174
0
175
1
176
1
 91
33
178
0
145
0.0
301
CELL_VALUE
 90
4
  1
U.S. Units
304
ACVALUE_END
170
5
140
0.145
171
1
172
0
173
0
174
0
175
1
176
1
 91
33
178
0
145
0.0
301
CELL_VALUE
 90
4
  1
Metric Units
304
ACVALUE_END
170
5
140
0.145
171
1
172
0
173
0
174
0
175
1
176
1
 91
33
178
0
145
0.0
301
CELL_VALUE
 90
4
  1
Cavity
304
ACVALUE_END
170
5
140
0.125
171
1
172
0
173
0
174
0
175
2
176
1
 91
33
178
0
145
0.0
301
CELL_VALUE
 90
4
  1
T-22A
304
ACVALUE_END
170
5
140
0.125
171
1
172
0
173
1
174
0
175
1
176
1
 91
1
178
0
145
0.0
170
1
171
1
172
0
173
0
174
0
175
1
176
1
 91
33
178
0
145
0.0
301
CELL_VALUE
 90
4
  1
Body Features
304
ACVALUE_END
170
5
140
0.125
171
1
172
0
173
0
174
0
175
2
176
1
 91
33
178
0
145
0.0
301
CELL_VALUE
 90
4
  1
Direct mount, cross pilot
304
ACVALUE_END
170
5
140
0.125
171
1
172
0
173
1
174
0
175
1
176
1
 91
1
178
0
145
0.0
170
1
171
1
172
0
173
0
174
0
175
1
176
1
 91
33
178
0
145
0.0
301
CELL_VALUE
 90
4
  1
Body Type
304
ACVALUE_END
170
5
140
0.125
171
1
172
0
173
0
174
0
175
2
176
1
 91
33
178
0
145
0.0
301
CELL_VALUE
 90
4
  1
Gasket mount
304
ACVALUE_END
170
5
140
0.125
171
1
172
0
173
1
174
0
175
1
176
1
 91
1
178
0
145
0.0
170
1
171
1
172
0
173
0
174
0
175
1
176
1
 91
33
178
0
145
0.0
301
CELL_VALUE
 90
4
  1
Interface
304
ACVALUE_END
170
5
140
0.125
171
1
172
0
173
0
174
0
175
2
176
1
 91
33
178
0
145
0.0
301
CELL_VALUE
 90
4
  1
Sun
304
ACVALUE_END
170
5
140
0.125
171
1
172
0
173
1
174
0
175
1
176
1
 91
1
178
0
145
0.0
170
1
171
1
172
0
173
0
174
0
175
1
176
1
 91
33
178
0
145
0.0
301
CELL_VALUE
 90
4
  1
Open Cavity Quantity
304
ACVALUE_END
170
5
140
0.125
171
1
172
0
173
0
174
0
175
2
176
1
 91
33
178
0
145
0.0
301
CELL_VALUE
 90
4
  1
1
304
ACVALUE_END
170
5
140
0.125
171
1
172
0
173
1
174
0
175
1
176
1
 91
1
178
0
145
0.0
170
1
171
1
172
0
173
0
174
0
175
1
176
1
 91
33
178
0
145
0.0
301
CELL_VALUE
 90
4
  1
Weight
304
ACVALUE_END
170
5
140
0.125
171
1
172
0
173
0
174
0
175
1
176
1
 91
33
178
0
145
0.0
301
CELL_VALUE
 90
4
  1
3.669 lb.
304
ACVALUE_END
170
5
140
0.125
171
1
172
0
173
0
174
0
175
1
176
1
 91
33
178
0
145
0.0
301
CELL_VALUE
 90
4
  1
1,664 kg.
304
ACVALUE_END
170
5
140
0.125
  0
ACAD_TABLE
  5
280
100
AcDbEntity
  8
0
 62
2
  6
CONTINUOUS
100
AcDbBlockReference
  2
*T3
 10
0.52125
 20
1.709
 30
0.0
100
AcDbTable
342
       39E
343
20C
 11
1.0
 21
0.0
 31
0.0
 90
22
 91
4
 92
3
 93
16
 94
0
 95
0
 96
0
 41
0.05
141
0.34375
141
0.344
141
0.25
141
0.25
142
1.3
142
2.0
142
1.3
171
1
172
0
173
0
174
0
175
3
176
1
 91
33
178
0
145
0.0
301
CELL_VALUE
 90
4
  1
Port Headings
304
ACVALUE_END
170
5
140
0.145
171
1
172
0
173
1
174
0
175
1
176
1
 91
1
178
0
145
0.0
170
1
171
1
172
0
173
1
174
0
175
1
176
1
 91
1
178
0
145
0.0
170
1
171
1
172
0
173
0
174
0
175
1
176
1
 91
33
178
0
145
0.0
301
CELL_VALUE
 90
4
  1
Product
304
ACVALUE_END
170
5
140
0.145
171
1
172
0
173
0
174
0
175
1
176
1
 91
33
178
0
145
0.0
301
CELL_VALUE
 90
4
  1
Port
304
ACVALUE_END
170
5
140
0.145
171
1
172
0
173
0
174
0
175
1
176
1
 91
33
178
0
145
0.0
301
CELL_VALUE
 90
4
  1
Size
304
ACVALUE_END
170
5
140
0.145
171
1
172
0
173
0
174
0
175
1
176
1
 91
33
178
0
145
0.0
301
CELL_VALUE
 90
4
  1
WJD
304
ACVALUE_END
170
5
140
0.125
171
1
172
0
173
0
174
0
175
1
176
1
 91
33
178
0
145
0.0
301
CELL_VALUE
 90
4
  1
Ports C2, V1, V2
304
ACVALUE_END
170
5
140
0.125
171
1
172
0
173
0
174
0
175
1
176
1
 91
33
178
0
145
0.0
301
CELL_VALUE
 90
4
  1
1/2" BSPP
304
ACVALUE_END
170
5
140
0.125
171
1
172
0
173
0
174
0
175
1
176
1
 91
33
178
0
145
0.0
301
CELL_VALUE
 90
4
  1
WJD
304
ACVALUE_END
170
5
140
0.125
171
1
172
0
173
0
174
0
175
1
176
1
 91
33
178
0
145
0.0
301
CELL_VALUE
 90
4
  1
Vent Port
304
ACVALUE_END
170
5
140
0.125
171
1
172
0
173
0
174
0
175
1
176
1
 91
33
178
0
145
0.0
301
CELL_VALUE
 90
4
  1
1/4" BSPP
304
ACVALUE_END
170
5
140
0.125
  0
MTEXT
  5
281
100
AcDbEntity
  8
0
100
AcDbMText
 62
2
  6
CONTINUOUS
  7
STANDARD
 71
1
 72
1
 10
0.52125
 20
5.75995
 30
0.0
 11
1.0
 21
0.0
 31
0.0
 44
0.6
  3
Notes\P \P1. Important: Carefully consider\P   the maximum system pressure. The\P   pressure rating of the manifold is\P   dependent on the manifold material,\P   with the port type/size a secondary\P   consideration. Manifolds\P   constructed of alu
  3
minum are not\P   rated for pressures higher than\P   3000 psi (210 bar), regardless of\P   the port type/size specified.\P2. This drawing is for reference\P   only. It is generated by an\P   automated process and does not fall\P   under Sun's docume
  1
nt control\P   process.
 40
0.1
 41
3.04
  0
LINE
  5
282
100
AcDbEntity
  8
0
100
AcDbLine
 62
7
  6
CONTINUOUS
 10
0.30125
 20
0.30125
 11
0.30125
 21
16.69875
  0
LINE
  5
283
100
AcDbEntity
  8
0
100
AcDbLine
 62
7
  6
CONTINUOUS
 10
0.30125
 20
0.30125
 11
21.69875
 21
0.30125
  0
LINE
  5
284
100
AcDbEntity
  8
0
100
AcDbLine
 62
7
  6
CONTINUOUS
 10
0.30125
 20
16.69875
 11
21.69875
 21
16.69875
  0
LINE
  5
285
100
AcDbEntity
  8
0
100
AcDbLine
 62
7
  6
CONTINUOUS
 10
21.69875
 20
0.30125
 11
21.69875
 21
16.69875
  0
LINE
  5
286
100
AcDbEntity
  8
0
100
AcDbLine
 62
7
  6
CONTINUOUS
 10
8.9762763005
 20
9.3691217228
 11
8.9762763005
 21
6.4713440723
  0
LINE
  5
287
100
AcDbEntity
  8
0
100
AcDbLine
 62
7
  6
CONTINUOUS
 10
8.9762763005
 20
9.3691217228
 11
10.3674275198
 21
10.7128706935
  0
LINE
  5
288
100
AcDbEntity
  8
0
100
AcDbLine
 62
7
  6
CONTINUOUS
 10
11.6325724802
 20
6.2871293065
 11
8.9762763005
 21
6.4713440723
  0
LINE
  5
289
100
AcDbEntity
  8
0
100
AcDbLine
 62
4
  6
CONTINUOUS
 10
10.3961873494
 20
6.9427691363
 11
10.3768688368
 21
6.9441088797
  0
LINE
  5
28A
100
AcDbEntity
  8
0
100
AcDbLine
 62
4
  6
CONTINUOUS
 10
10.3285725414
 20
6.9981693469
 11
10.2995947655
 21
7.0074234065
  0
LINE
  5
28B
100
AcDbEntity
  8
0
100
AcDbLine
 62
4
  6
CONTINUOUS
 10
10.3768688368
 20
6.9441088797
 11
10.3672095736
 21
6.9520231959
  0
LINE
  5
28C
100
AcDbEntity
  8
0
100
AcDbLine
 62
4
  6
CONTINUOUS
 10
10.3478910575
 20
6.9823407154
 11
10.3285725414
 21
6.9981693469
  0
LINE
  5
28D
100
AcDbEntity
  8
0
100
AcDbLine
 62
4
  6
CONTINUOUS
 10
10.2995947655
 20
7.0943567341
 11
10.415505869
 21
7.0500960519
  0
LINE
  5
28E
100
AcDbEntity
  8
0
100
AcDbLine
 62
4
  6
CONTINUOUS
 10
10.3961873494
 20
7.000724688
 11
10.4058466126
 21
6.9928103719
  0
LINE
  5
28F
100
AcDbEntity
  8
0
100
AcDbLine
 62
4
  6
CONTINUOUS
 10
10.415505869
 20
7.1225404915
 11
10.2995947655
 21
7.0943567341
  0
LINE
  5
290
100
AcDbEntity
  8
0
100
AcDbLine
 62
4
  6
CONTINUOUS
 10
10.3672095736
 20
6.9520231959
 11
10.3478910575
 21
6.9823407154
  0
LINE
  5
291
100
AcDbEntity
  8
0
100
AcDbLine
 62
4
  6
CONTINUOUS
 10
10.4058466126
 20
6.9928103719
 11
10.415505869
 21
6.9776516123
  0
LINE
  5
292
100
AcDbEntity
  8
0
100
AcDbLine
 62
4
  6
CONTINUOUS
 10
11.526320612
 20
7.4729274718
 11
11.4104095085
 21
7.4809659341
  0
LINE
  5
293
100
AcDbEntity
  8
0
100
AcDbLine
 62
4
  6
CONTINUOUS
 10
11.4104095085
 20
7.5678992617
 11
11.526320612
 21
7.5598607993
  0
LINE
  5
294
100
AcDbEntity
  8
0
100
AcDbLine
 62
4
  6
CONTINUOUS
 10
11.4104095085
 20
7.6258548134
 11
11.526320612
 21
7.617816351
  0
LINE
  5
295
100
AcDbEntity
  8
0
100
AcDbLine
 62
4
  6
CONTINUOUS
 10
10.2995947655
 20
7.0074234065
 11
10.2995947655
 21
6.9494678548
  0
LINE
  5
296
100
AcDbEntity
  8
0
100
AcDbLine
 62
4
  6
CONTINUOUS
 10
10.415505869
 20
6.9776516123
 11
10.415505869
 21
6.9631627243
  0
LINE
  5
297
100
AcDbEntity
  8
0
100
AcDbLine
 62
7
  6
CONTINUOUS
 10
10.4997250511
 20
9.0888154984
 11
10.5212070141
 21
9.1095654825
  0
LINE
  5
298
100
AcDbEntity
  8
0
100
AcDbLine
 62
4
  6
CONTINUOUS
 10
11.526320612
 20
7.8568830019
 11
11.4104095085
 21
7.8286992444
  0
LINE
  5
299
100
AcDbEntity
  8
0
100
AcDbLine
 62
4
  6
CONTINUOUS
 10
11.4104095085
 20
7.7417659168
 11
11.526320612
 21
7.7337274545
  0
LINE
  5
29A
100
AcDbEntity
  8
0
100
AcDbLine
 62
7
  6
CONTINUOUS
 10
10.6006060751
 20
8.8364599796
 11
10.6407338257
 21
8.8752204126
  0
LINE
  5
29B
100
AcDbEntity
  8
0
100
AcDbLine
 62
7
  6
CONTINUOUS
 10
10.6914031082
 20
8.7777414925
 11
10.7315308588
 21
8.8165019255
  0
LINE
  5
29C
100
AcDbEntity
  8
0
100
AcDbLine
 62
7
  6
CONTINUOUS
 10
10.7315308588
 20
8.8165019255
 11
10.7841827185
 21
8.843249072
  0
LINE
  5
29D
100
AcDbEntity
  8
0
100
AcDbLine
 62
4
  6
CONTINUOUS
 10
11.4104095085
 20
7.8286992444
 11
11.526320612
 21
7.7844385622
  0
LINE
  5
29E
100
AcDbEntity
  8
0
100
AcDbLine
 62
7
  6
CONTINUOUS
 10
10.6407338257
 20
8.9633262829
 11
10.6407338257
 21
8.8752204126
  0
LINE
  5
29F
100
AcDbEntity
  8
0
100
AcDbLine
 62
7
  6
CONTINUOUS
 10
10.8908673936
 20
8.6838751721
 11
10.9123493567
 21
8.7046251562
  0
LINE
  5
2A0
100
AcDbEntity
  8
0
100
AcDbLine
 62
4
  6
CONTINUOUS
 10
10.5024392307
 20
8.2973560914
 11
10.3865281273
 21
8.3053945537
  0
LINE
  5
2A1
100
AcDbEntity
  8
0
100
AcDbLine
 62
4
  6
CONTINUOUS
 10
10.3865281273
 20
8.4213056572
 11
10.5024392307
 21
8.377044975
  0
LINE
  5
2A2
100
AcDbEntity
  8
0
100
AcDbLine
 62
7
  6
CONTINUOUS
 10
13.0237236995
 20
10.5286559277
 11
11.6325724802
 21
9.1849069571
  0
LINE
  5
2A3
100
AcDbEntity
  8
0
100
AcDbLine
 62
4
  6
CONTINUOUS
 10
10.5024392307
 20
8.4494894147
 11
10.3865281273
 21
8.4213056572
  0
LINE
  5
2A4
100
AcDbEntity
  8
0
100
AcDbLine
 62
4
  6
CONTINUOUS
 10
12.8210685544
 20
8.9543918592
 11
12.8521268142
 21
8.9595537401
  0
LINE
  5
2A5
100
AcDbEntity
  8
0
100
AcDbLine
 62
7
  6
CONTINUOUS
 10
10.6407338257
 20
8.8752204126
 11
10.7315308588
 21
8.8165019255
  0
LINE
  5
2A6
100
AcDbEntity
  8
0
100
AcDbLine
 62
4
  6
CONTINUOUS
 10
11.4104095085
 20
7.6838103651
 11
11.4104095085
 21
7.7417659168
  0
LINE
  5
2A7
100
AcDbEntity
  8
0
100
AcDbLine
 62
4
  6
CONTINUOUS
 10
10.415505869
 20
6.9631627243
 11
10.4058466126
 21
6.9493437081
  0
LINE
  5
2A8
100
AcDbEntity
  8
0
100
AcDbLine
 62
4
  6
CONTINUOUS
 10
11.4683650603
 20
7.7377466856
 11
11.4683650603
 21
7.7015244658
  0
LINE
  5
2A9
100
AcDbEntity
  8
0
100
AcDbLine
 62
4
  6
CONTINUOUS
 10
11.526320612
 20
7.7337274545
 11
11.526320612
 21
7.6757719028
  0
LINE
  5
2AA
100
AcDbEntity
  8
0
100
AcDbLine
 62
4
  6
CONTINUOUS
 10
11.526320612
 20
7.5091496916
 11
11.526320612
 21
7.4367052519
  0
LINE
  5
2AB
100
AcDbEntity
  8
0
100
AcDbLine
 62
4
  6
CONTINUOUS
 10
12.9421957676
 20
9.5506289905
 11
12.9266666377
 21
9.535629002
  0
LINE
  5
2AC
100
AcDbEntity
  8
0
100
AcDbLine
 62
7
  6
CONTINUOUS
 10
12.4816135628
 20
9.0180427189
 11
12.4078918699
 21
9.0231553356
  0
LINE
  5
2AD
100
AcDbEntity
  8
0
100
AcDbLine
 62
7
  6
CONTINUOUS
 10
11.6325724802
 20
9.1849069571
 11
11.6325724802
 21
6.2871293065
  0
LINE
  5
2AE
100
AcDbEntity
  8
0
100
AcDbLine
 62
4
  6
CONTINUOUS
 10
12.9266666377
 20
9.477673449
 11
12.9111375078
 21
9.4626734605
  0
LINE
  5
2AF
100
AcDbEntity
  8
0
100
AcDbLine
 62
4
  6
CONTINUOUS
 10
12.9111375078
 20
9.433695684
 11
12.9421957676
 21
9.463695661
  0
LINE
  5
2B0
100
AcDbEntity
  8
0
100
AcDbLine
 62
4
  6
CONTINUOUS
 10
12.7527403829
 20
9.2333654271
 11
12.7837986427
 21
9.2633654041
  0
LINE
  5
2B1
100
AcDbEntity
  8
0
100
AcDbLine
 62
4
  6
CONTINUOUS
 10
12.9421957676
 20
9.405740108
 11
12.9111375078
 21
9.375740131
  0
LINE
  5
2B2
100
AcDbEntity
  8
0
100
AcDbLine
 62
4
  6
CONTINUOUS
 10
12.9421957676
 20
9.3767623315
 11
12.9111375078
 21
9.3467623545
  0
LINE
  5
2B3
100
AcDbEntity
  8
0
100
AcDbLine
 62
4
  6
CONTINUOUS
 10
12.7793617487
 20
9.2011241473
 11
12.7571772774
 21
9.1796955922
  0
LINE
  5
2B4
100
AcDbEntity
  8
0
100
AcDbLine
 62
4
  6
CONTINUOUS
 10
12.9421957676
 20
9.3188067785
 11
12.9111375078
 21
9.2888068014
  0
LINE
  5
2B5
100
AcDbEntity
  8
0
100
AcDbLine
 62
7
  6
CONTINUOUS
 10
12.5263065937
 20
9.0453082937
 11
12.5108126882
 21
9.0308882038
  0
LINE
  5
2B6
100
AcDbEntity
  8
0
100
AcDbLine
 62
7
  6
CONTINUOUS
 10
11.6325724802
 20
9.1849069571
 11
8.9762763005
 21
9.3691217228
  0
LINE
  5
2B7
100
AcDbEntity
  8
0
100
AcDbLine
 62
4
  6
CONTINUOUS
 10
12.7527403829
 20
9.1284934803
 11
12.7837986427
 21
9.1253760004
  0
LINE
  5
2B8
100
AcDbEntity
  8
0
100
AcDbLine
 62
4
  6
CONTINUOUS
 10
12.8210685544
 20
9.0040680463
 11
12.8432530262
 21
9.0006585074
  0
LINE
  5
2B9
100
AcDbEntity
  8
0
100
AcDbLine
 62
4
  6
CONTINUOUS
 10
12.9111375078
 20
9.1728956954
 11
12.9421957676
 21
9.2028956724
  0
LINE
  5
2BA
100
AcDbEntity
  8
0
100
AcDbLine
 62
4
  6
CONTINUOUS
 10
12.7527403829
 20
8.9960236389
 11
12.7837986427
 21
9.0260236159
  0
LINE
  5
2BB
100
AcDbEntity
  8
0
100
AcDbLine
 62
4
  6
CONTINUOUS
 10
12.9111375078
 20
9.1149401424
 11
12.9266666377
 21
9.1299401309
  0
LINE
  5
2BC
100
AcDbEntity
  8
0
100
AcDbLine
 62
4
  6
CONTINUOUS
 10
12.7527403829
 20
8.9297887251
 11
12.7837986427
 21
8.9597887022
  0
LINE
  5
2BD
100
AcDbEntity
  8
0
100
AcDbLine
 62
4
  6
CONTINUOUS
 10
12.9111375078
 20
9.0676097741
 11
12.9266666377
 21
9.0826097626
  0
LINE
  5
2BE
100
AcDbEntity
  8
0
100
AcDbLine
 62
4
  6
CONTINUOUS
 10
12.9266666377
 20
9.0246542096
 11
12.8956083779
 21
8.9946542326
  0
LINE
  5
2BF
100
AcDbEntity
  8
0
100
AcDbLine
 62
4
  6
CONTINUOUS
 10
12.9111375078
 20
8.9710171858
 11
12.9266666377
 21
8.9860171743
  0
LINE
  5
2C0
100
AcDbEntity
  8
0
100
AcDbLine
 62
4
  6
CONTINUOUS
 10
10.4058466126
 20
6.9493437081
 11
10.3961873494
 21
6.9427691363
  0
LINE
  5
2C1
100
AcDbEntity
  8
0
100
AcDbLine
 62
4
  6
CONTINUOUS
 10
11.526320612
 20
7.617816351
 11
11.4104095085
 21
7.5678992617
  0
LINE
  5
2C2
100
AcDbEntity
  8
0
100
AcDbLine
 62
7
  6
CONTINUOUS
 10
12.561283529
 20
9.4057258663
 11
12.4789199735
 21
9.4114377983
  0
LINE
  5
2C3
100
AcDbEntity
  8
0
100
AcDbLine
 62
4
  6
CONTINUOUS
 10
12.8255054489
 20
8.8344870967
 11
12.8521268142
 21
8.8602013626
  0
LINE
  5
2C4
100
AcDbEntity
  8
0
100
AcDbLine
 62
4
  6
CONTINUOUS
 10
12.9421957676
 20
8.9430616098
 11
12.9111375078
 21
8.9130616328
  0
LINE
  5
2C5
100
AcDbEntity
  8
0
100
AcDbLine
 62
4
  6
CONTINUOUS
 10
12.7571772774
 20
8.7602077497
 11
12.7793617487
 21
8.7816363048
  0
LINE
  5
2C6
100
AcDbEntity
  8
0
100
AcDbLine
 62
4
  6
CONTINUOUS
 10
12.8210685544
 20
8.7970839286
 11
12.8521268142
 21
8.8270839057
  0
LINE
  5
2C7
100
AcDbEntity
  8
0
100
AcDbLine
 62
4
  6
CONTINUOUS
 10
12.9266666377
 20
8.8894245859
 11
12.9111375078
 21
8.8744245974
  0
LINE
  5
2C8
100
AcDbEntity
  8
0
100
AcDbLine
 62
4
  6
CONTINUOUS
 10
12.8476899202
 20
8.7648426419
 11
12.8255054489
 21
8.7434140868
  0
LINE
  5
2C9
100
AcDbEntity
  8
0
100
AcDbLine
 62
4
  6
CONTINUOUS
 10
12.7571772774
 20
8.6636151982
 11
12.7793617487
 21
8.6850437532
  0
LINE
  5
2CA
100
AcDbEntity
  8
0
100
AcDbLine
 62
4
  6
CONTINUOUS
 10
12.9111375078
 20
8.7778320091
 11
12.9214902611
 21
8.7878320014
  0
LINE
  5
2CB
100
AcDbEntity
  8
0
100
AcDbLine
 62
4
  6
CONTINUOUS
 10
12.7793617487
 20
8.6270882002
 11
12.7571772774
 21
8.6056596452
  0
LINE
  5
2CC
100
AcDbEntity
  8
0
100
AcDbLine
 62
4
  6
CONTINUOUS
 10
12.7527403829
 20
8.5682564909
 11
12.7837986427
 21
8.5982564679
  0
LINE
  5
2CD
100
AcDbEntity
  8
0
100
AcDbLine
 62
4
  6
CONTINUOUS
 10
12.9266666377
 20
8.7348764446
 11
12.9111375078
 21
8.719876456
  0
LINE
  5
2CE
100
AcDbEntity
  8
0
100
AcDbLine
 62
4
  6
CONTINUOUS
 10
12.9266666377
 20
8.6962394092
 11
12.9111375078
 21
8.6812394207
  0
LINE
  5
2CF
100
AcDbEntity
  8
0
100
AcDbLine
 62
4
  6
CONTINUOUS
 10
12.7793617487
 20
8.5360152042
 11
12.7571772774
 21
8.5145866491
  0
LINE
  5
2D0
100
AcDbEntity
  8
0
100
AcDbLine
 62
7
  6
CONTINUOUS
 10
12.561283529
 20
9.5802789454
 11
12.502382526
 21
9.5843637438
  0
LINE
  5
2D1
100
AcDbEntity
  8
0
100
AcDbLine
 62
4
  6
CONTINUOUS
 10
12.7837986427
 20
9.1253760004
 11
12.7527403829
 21
9.0622585527
  0
LINE
  5
2D2
100
AcDbEntity
  8
0
100
AcDbLine
 62
4
  6
CONTINUOUS
 10
12.8521268142
 20
9.0589061177
 11
12.8210685544
 21
9.0040680463
  0
LINE
  5
2D3
100
AcDbEntity
  8
0
100
AcDbLine
 62
4
  6
CONTINUOUS
 10
12.9111375078
 20
8.6232838677
 11
12.9266666377
 21
8.6382838562
  0
LINE
  5
2D4
100
AcDbEntity
  8
0
100
AcDbLine
 62
4
  6
CONTINUOUS
 10
12.7527403829
 20
8.4633844957
 11
12.7837986427
 21
8.4933844727
  0
LINE
  5
2D5
100
AcDbEntity
  8
0
100
AcDbLine
 62
4
  6
CONTINUOUS
 10
12.9111375078
 20
8.5846468324
 11
12.9421957676
 21
8.6146468094
  0
LINE
  5
2D6
100
AcDbEntity
  8
0
100
AcDbLine
 62
4
  6
CONTINUOUS
 10
12.9111375078
 20
8.546009797
 11
12.9266666377
 21
8.5610097855
  0
LINE
  5
2D7
100
AcDbEntity
  8
0
100
AcDbLine
 62
4
  6
CONTINUOUS
 10
12.9266666377
 20
8.5223727502
 11
12.9111375078
 21
8.5073727617
  0
LINE
  5
2D8
100
AcDbEntity
  8
0
100
AcDbLine
 62
4
  6
CONTINUOUS
 10
12.9266666377
 20
8.4257801618
 11
12.9189020728
 21
8.4182801676
  0
LINE
  5
2D9
100
AcDbEntity
  8
0
100
AcDbLine
 62
4
  6
CONTINUOUS
 10
12.7837986427
 20
9.2219685865
 11
12.7793617487
 21
9.2011241473
  0
LINE
  5
2DA
100
AcDbEntity
  8
0
100
AcDbLine
 62
4
  6
CONTINUOUS
 10
12.8432530262
 20
9.0006585074
 11
12.8210685544
 21
8.9543918592
  0
LINE
  5
2DB
100
AcDbEntity
  8
0
100
AcDbLine
 62
4
  6
CONTINUOUS
 10
12.9189020728
 20
8.3603246146
 11
12.9111375078
 21
8.3528246203
  0
LINE
  5
2DC
100
AcDbEntity
  8
0
100
AcDbLine
 62
7
  6
CONTINUOUS
 10
12.5421496208
 20
9.8909461418
 11
12.4683854475
 21
9.8960617046
  0
LINE
  5
2DD
100
AcDbEntity
  8
0
100
AcDbLine
 62
4
  6
CONTINUOUS
 10
12.7527403829
 20
8.9297887251
 11
12.7527403829
 21
8.8801125329
  0
LINE
  5
2DE
100
AcDbEntity
  8
0
100
AcDbLine
 62
4
  6
CONTINUOUS
 10
12.7527403829
 20
8.4633844957
 11
12.7527403829
 21
8.4137083311
  0
LINE
  5
2DF
100
AcDbEntity
  8
0
100
AcDbLine
 62
4
  6
CONTINUOUS
 10
12.7527403829
 20
8.5268596594
 11
12.7527403829
 21
8.5682564909
  0
LINE
  5
2E0
100
AcDbEntity
  8
0
100
AcDbLine
 62
4
  6
CONTINUOUS
 10
12.7527403829
 20
8.6179326555
 11
12.7527403829
 21
8.6427707654
  0
LINE
  5
2E1
100
AcDbEntity
  8
0
100
AcDbLine
 62
4
  6
CONTINUOUS
 10
12.7527403829
 20
8.7062458739
 11
12.7527403829
 21
8.7393633169
  0
LINE
  5
2E2
100
AcDbEntity
  8
0
100
AcDbLine
 62
4
  6
CONTINUOUS
 10
12.7527403829
 20
9.1919686095
 11
12.7527403829
 21
9.2333654271
  0
LINE
  5
2E3
100
AcDbEntity
  8
0
100
AcDbLine
 62
4
  6
CONTINUOUS
 10
12.7616141718
 20
9.1260257504
 11
12.7616141718
 21
9.0818691412
  0
LINE
  5
2E4
100
AcDbEntity
  8
0
100
AcDbLine
 62
4
  6
CONTINUOUS
 10
12.7704879607
 20
8.4474098974
 11
12.7704879607
 21
8.4805273405
  0
LINE
  5
2E5
100
AcDbEntity
  8
0
100
AcDbLine
 62
4
  6
CONTINUOUS
 10
12.7704879607
 20
8.9138140992
 11
12.7704879607
 21
8.9469315699
  0
LINE
  5
2E6
100
AcDbEntity
  8
0
100
AcDbLine
 62
4
  6
CONTINUOUS
 10
12.7837986427
 20
9.2633654041
 11
12.7837986427
 21
9.2219685865
  0
LINE
  5
2E7
100
AcDbEntity
  8
0
100
AcDbLine
 62
4
  6
CONTINUOUS
 10
12.7837986427
 20
9.0591410867
 11
12.7837986427
 21
8.9929061729
  0
LINE
  5
2E8
100
AcDbEntity
  8
0
100
AcDbLine
 62
4
  6
CONTINUOUS
 10
12.7837986427
 20
8.9597887022
 11
12.7837986427
 21
8.9101125099
  0
LINE
  5
2E9
100
AcDbEntity
  8
0
100
AcDbLine
 62
4
  6
CONTINUOUS
 10
12.7837986427
 20
8.769363294
 11
12.7837986427
 21
8.7362458509
  0
LINE
  5
2EA
100
AcDbEntity
  8
0
100
AcDbLine
 62
4
  6
CONTINUOUS
 10
12.7837986427
 20
8.6727707425
 11
12.7837986427
 21
8.6479326325
  0
LINE
  5
2EB
100
AcDbEntity
  8
0
100
AcDbLine
 62
4
  6
CONTINUOUS
 10
12.7837986427
 20
8.5982564679
 11
12.7837986427
 21
8.5568596364
  0
LINE
  5
2EC
100
AcDbEntity
  8
0
100
AcDbLine
 62
4
  6
CONTINUOUS
 10
12.7837986427
 20
8.4933844727
 11
12.7837986427
 21
8.4437083081
  0
LINE
  5
2ED
100
AcDbEntity
  8
0
100
AcDbLine
 62
4
  6
CONTINUOUS
 10
12.8210685544
 20
8.871598217
 11
12.8210685544
 21
8.8467601209
  0
LINE
  5
2EE
100
AcDbEntity
  8
0
100
AcDbLine
 62
4
  6
CONTINUOUS
 10
12.8210685544
 20
8.7556870972
 11
12.8210685544
 21
8.7970839286
  0
LINE
  5
2EF
100
AcDbEntity
  8
0
100
AcDbLine
 62
4
  6
CONTINUOUS
 10
12.7660510658
 20
9.3124574809
 11
12.7601352067
 21
9.2625865869
  0
LINE
  5
2F0
100
AcDbEntity
  8
0
100
AcDbLine
 62
4
  6
CONTINUOUS
 10
12.7719669254
 20
8.3991623031
 11
12.7660510658
 21
8.349291412
  0
LINE
  5
2F1
100
AcDbEntity
  8
0
100
AcDbLine
 62
4
  6
CONTINUOUS
 10
12.7527403829
 20
8.7393633169
 11
12.7571772774
 21
8.7602077497
  0
LINE
  5
2F2
100
AcDbEntity
  8
0
100
AcDbLine
 62
4
  6
CONTINUOUS
 10
12.7527403829
 20
8.6427707654
 11
12.7571772774
 21
8.6636151982
  0
LINE
  5
2F3
100
AcDbEntity
  8
0
100
AcDbLine
 62
4
  6
CONTINUOUS
 10
12.7837986427
 20
8.6479326325
 11
12.7793617487
 21
8.6270882002
  0
LINE
  5
2F4
100
AcDbEntity
  8
0
100
AcDbLine
 62
4
  6
CONTINUOUS
 10
12.7837986427
 20
8.5568596364
 11
12.7793617487
 21
8.5360152042
  0
LINE
  5
2F5
100
AcDbEntity
  8
0
100
AcDbLine
 62
4
  6
CONTINUOUS
 10
12.8521268142
 20
8.7856870742
 11
12.8476899202
 21
8.7648426419
  0
LINE
  5
2F6
100
AcDbEntity
  8
0
100
AcDbLine
 62
4
  6
CONTINUOUS
 10
12.7571772774
 20
8.5145866491
 11
12.7527403829
 21
8.5268596594
  0
LINE
  5
2F7
100
AcDbEntity
  8
0
100
AcDbLine
 62
4
  6
CONTINUOUS
 10
12.7571772774
 20
8.6056596452
 11
12.7527403829
 21
8.6179326555
  0
LINE
  5
2F8
100
AcDbEntity
  8
0
100
AcDbLine
 62
4
  6
CONTINUOUS
 10
12.7793617487
 20
8.6850437532
 11
12.7837986427
 21
8.6727707425
  0
LINE
  5
2F9
100
AcDbEntity
  8
0
100
AcDbLine
 62
4
  6
CONTINUOUS
 10
12.7793617487
 20
8.7816363048
 11
12.7837986427
 21
8.769363294
  0
LINE
  5
2FA
100
AcDbEntity
  8
0
100
AcDbLine
 62
4
  6
CONTINUOUS
 10
12.8255054489
 20
8.7434140868
 11
12.8210685544
 21
8.7556870972
  0
LINE
  5
2FB
100
AcDbEntity
  8
0
100
AcDbLine
 62
4
  6
CONTINUOUS
 10
12.7660510658
 20
8.349291412
 11
12.7601352067
 21
8.3877337397
  0
LINE
  5
2FC
100
AcDbEntity
  8
0
100
AcDbLine
 62
4
  6
CONTINUOUS
 10
12.8521268142
 20
8.8270839057
 11
12.8521268142
 21
8.7856870742
  0
LINE
  5
2FD
100
AcDbEntity
  8
0
100
AcDbLine
 62
4
  6
CONTINUOUS
 10
12.8956083779
 20
8.9946542326
 11
12.8956083779
 21
9.0332912679
  0
LINE
  5
2FE
100
AcDbEntity
  8
0
100
AcDbLine
 62
4
  6
CONTINUOUS
 10
12.9111375078
 20
8.6812394207
 11
12.9111375078
 21
8.6232838677
  0
LINE
  5
2FF
100
AcDbEntity
  8
0
100
AcDbLine
 62
4
  6
CONTINUOUS
 10
12.9111375078
 20
8.5073727617
 11
12.9111375078
 21
8.4494172087
  0
LINE
  5
300
100
AcDbEntity
  8
0
100
AcDbLine
 62
4
  6
CONTINUOUS
 10
12.9111375078
 20
8.3528246203
 11
12.9111375078
 21
8.4107801733
  0
LINE
  5
301
100
AcDbEntity
  8
0
100
AcDbLine
 62
4
  6
CONTINUOUS
 10
12.9111375078
 20
8.719876456
 11
12.9111375078
 21
8.7778320091
  0
LINE
  5
302
100
AcDbEntity
  8
0
100
AcDbLine
 62
4
  6
CONTINUOUS
 10
12.9111375078
 20
8.9130616328
 11
12.9111375078
 21
8.9710171858
  0
LINE
  5
303
100
AcDbEntity
  8
0
100
AcDbLine
 62
4
  6
CONTINUOUS
 10
12.9111375078
 20
9.0096542211
 11
12.9111375078
 21
9.0676097741
  0
LINE
  5
304
100
AcDbEntity
  8
0
100
AcDbLine
 62
4
  6
CONTINUOUS
 10
12.9111375078
 20
9.375740131
 11
12.9111375078
 21
9.433695684
  0
LINE
  5
305
100
AcDbEntity
  8
0
100
AcDbLine
 62
4
  6
CONTINUOUS
 10
12.9111375078
 20
9.4626734605
 11
12.9111375078
 21
9.5206290135
  0
LINE
  5
306
100
AcDbEntity
  8
0
100
AcDbLine
 62
4
  6
CONTINUOUS
 10
12.9189020728
 20
8.4182801676
 11
12.9189020728
 21
8.3603246146
  0
LINE
  5
307
100
AcDbEntity
  8
0
100
AcDbLine
 62
4
  6
CONTINUOUS
 10
12.9214902611
 20
8.7878320014
 11
12.9214902611
 21
8.7298764484
  0
LINE
  5
308
100
AcDbEntity
  8
0
100
AcDbLine
 62
4
  6
CONTINUOUS
 10
12.9266666377
 20
9.535629002
 11
12.9266666377
 21
9.477673449
  0
LINE
  5
309
100
AcDbEntity
  8
0
100
AcDbLine
 62
4
  6
CONTINUOUS
 10
12.9266666377
 20
8.9860171743
 11
12.9266666377
 21
8.9280616213
  0
LINE
  5
30A
100
AcDbEntity
  8
0
100
AcDbLine
 62
4
  6
CONTINUOUS
 10
12.9266666377
 20
8.8894245859
 11
12.9266666377
 21
8.8314690329
  0
LINE
  5
30B
100
AcDbEntity
  8
0
100
AcDbLine
 62
4
  6
CONTINUOUS
 10
12.9266666377
 20
8.5223727502
 11
12.9266666377
 21
8.4644171972
  0
LINE
  5
30C
100
AcDbEntity
  8
0
100
AcDbLine
 62
4
  6
CONTINUOUS
 10
12.9266666377
 20
8.4257801618
 11
12.9266666377
 21
8.3678246088
  0
LINE
  5
30D
100
AcDbEntity
  8
0
100
AcDbLine
 62
4
  6
CONTINUOUS
 10
12.9266666377
 20
8.7348764446
 11
12.9266666377
 21
8.7735134799
  0
LINE
  5
30E
100
AcDbEntity
  8
0
100
AcDbLine
 62
4
  6
CONTINUOUS
 10
12.9266666377
 20
9.1299401309
 11
12.9266666377
 21
9.1878956839
  0
LINE
  5
30F
100
AcDbEntity
  8
0
100
AcDbLine
 62
4
  6
CONTINUOUS
 10
12.9344312026
 20
8.5757542239
 11
12.9344312026
 21
8.5612653357
  0
LINE
  5
310
100
AcDbEntity
  8
0
100
AcDbLine
 62
4
  6
CONTINUOUS
 10
12.9421957676
 20
9.3767623315
 11
12.9421957676
 21
9.3188067785
  0
LINE
  5
311
100
AcDbEntity
  8
0
100
AcDbLine
 62
4
  6
CONTINUOUS
 10
12.9421957676
 20
9.4926734375
 11
12.9421957676
 21
9.5506289905
  0
LINE
  5
312
100
AcDbEntity
  8
0
100
AcDbLine
 62
7
  6
CONTINUOUS
 10
13.0237236995
 20
10.5286559277
 11
13.0237236995
 21
7.6308782772
  0
LINE
  5
313
100
AcDbEntity
  8
0
100
AcDbLine
 62
4
  6
CONTINUOUS
 10
12.8210685544
 20
8.8467601209
 11
12.8255054489
 21
8.8344870967
  0
LINE
  5
314
100
AcDbEntity
  8
0
100
AcDbLine
 62
4
  6
CONTINUOUS
 10
12.7571772774
 20
9.1796955922
 11
12.7527403829
 21
9.1919686095
  0
LINE
  5
315
100
AcDbEntity
  8
0
100
AcDbLine
 62
4
  6
CONTINUOUS
 10
12.7719669254
 20
9.2740151502
 11
12.7660510658
 21
9.3124574809
  0
LINE
  5
316
100
AcDbEntity
  8
0
100
AcDbLine
 62
7
  6
CONTINUOUS
 10
13.0237236995
 20
7.6308782772
 11
11.6325724802
 21
6.2871293065
  0
LINE
  5
317
100
AcDbEntity
  8
0
100
AcDbLine
 62
7
  6
CONTINUOUS
 10
10.3674275198
 20
10.7128706935
 11
13.0237236995
 21
10.5286559277
  0
LINE
  5
318
100
AcDbEntity
  8
0
100
AcDbLine
 62
7
  6
CONTINUOUS
 10
12.5826511641
 20
9.8577723032
 11
12.5692960798
 21
9.8741930773
  0
ARC
  5
319
100
AcDbEntity
  8
0
100
AcDbCircle
 62
7
  6
CONTINUOUS
 10
9.9900539368
 20
7.6653501163
 40
0.3352763631
100
AcDbArc
 50
173.0084042522
 51
180.0146333932
  0
ARC
  5
31A
100
AcDbEntity
  8
0
100
AcDbCircle
 62
7
  6
CONTINUOUS
 10
10.0798838885
 20
9.0471559194
 40
0.3352752128
100
AcDbArc
 50
173.0095302743
 51
180.0146473769
  0
ARC
  5
31B
100
AcDbEntity
  8
0
100
AcDbCircle
 62
7
  6
CONTINUOUS
 10
10.0324660029
 20
7.7049364862
 40
0.2464528676
100
AcDbArc
 50
266.0327049824
 51
267.0342613424
  0
ARC
  5
31C
100
AcDbEntity
  8
0
100
AcDbCircle
 62
7
  6
CONTINUOUS
 10
10.6702160418
 20
8.9122886905
 40
0.2454156772
100
AcDbArc
 50
127.0407260184
 51
134.0035324119
  0
ARC
  5
31D
100
AcDbEntity
  8
0
100
AcDbCircle
 62
7
  6
CONTINUOUS
 10
10.0121968733
 20
7.7212421873
 40
0.2448872206
100
AcDbArc
 50
187.4226010064
 51
191.2669684579
  0
ARC
  5
31E
100
AcDbEntity
  8
0
100
AcDbCircle
 62
7
  6
CONTINUOUS
 10
10.6837999315
 20
8.8820560167
 40
0.1063129429
100
AcDbArc
 50
85.8453069661
 51
86.0328608706
  0
ARC
  5
31F
100
AcDbEntity
  8
0
100
AcDbCircle
 62
7
  6
CONTINUOUS
 10
10.7001891089
 20
8.8727639255
 40
0.0963460695
100
AcDbArc
 50
328.9767446923
 51
329.2380623156
  0
ARC
  5
320
100
AcDbEntity
  8
0
100
AcDbCircle
 62
7
  6
CONTINUOUS
 10
10.765802756
 20
8.9626334389
 40
0.088904434
100
AcDbArc
 50
167.3123575031
 51
180.0380832975
  0
ARC
  5
321
100
AcDbEntity
  8
0
100
AcDbCircle
 62
7
  6
CONTINUOUS
 10
10.7394272892
 20
8.9133903675
 40
0.0828050957
100
AcDbArc
 50
296.9296325285
 51
302.9427292431
  0
ARC
  5
322
100
AcDbEntity
  8
0
100
AcDbCircle
 62
7
  6
CONTINUOUS
 10
12.5744137413
 20
9.5902690159
 40
0.0647461909
100
AcDbArc
 50
144.1612617984
 51
144.7707072022
  0
SPLINE
  5
323
100
AcDbEntity
  8
0
100
AcDbSpline
 62
7
  6
CONTINUOUS
 70
0
 71
3
 72
17
 73
13
 74
0
 42
0.0000001
 43
0.0000001
 44
0.0000000001
 40
0.0
 40
0.0
 40
0.0
 40
0.0
 40
0.1273148359
 40
0.1907080938
 40
0.253886694
 40
0.3795973721
 40
0.5046020162
 40
0.5668927094
 40
0.6290466736
 40
0.7529728785
 40
0.8765701029
 40
1.0
 40
1.0
 40
1.0
 40
1.0
 10
10.4233880862
 20
8.9052022285
 30
0.0
 10
10.4233880862
 20
8.9138702573
 30
0.0
 10
10.4240116801
 20
8.9268659741
 30
0.0
 10
10.4260961539
 20
8.9440303136
 30
0.0
 10
10.4290013516
 20
8.9609654392
 30
0.0
 10
10.4341663844
 20
8.9817410133
 30
0.0
 10
10.441357332
 20
9.0018421143
 30
0.0
 10
10.4482716856
 20
9.0173612651
 30
0.0
 10
10.4559299723
 20
9.0324444975
 30
0.0
 10
10.4668992267
 20
9.0504973977
 30
0.0
 10
10.4821776035
 20
9.0706594191
 30
0.0
 10
10.4936806813
 20
9.0829772717
 30
0.0
 10
10.4997251037
 20
9.088815444
 30
0.0
  0
SPLINE
  5
324
100
AcDbEntity
  8
0
100
AcDbSpline
 62
7
  6
CONTINUOUS
 70
0
 71
3
 72
17
 73
13
 74
0
 42
0.0000001
 43
0.0000001
 44
0.0000000001
 40
0.0
 40
0.0
 40
0.0
 40
0.0
 40
0.1273148359
 40
0.1907080938
 40
0.253886694
 40
0.3795973721
 40
0.5046020162
 40
0.5668927094
 40
0.6290466736
 40
0.7529728785
 40
0.8765701029
 40
1.0
 40
1.0
 40
1.0
 40
1.0
 10
10.9886863216
 20
8.888238426
 30
0.0
 10
10.9886863216
 20
8.8795703973
 30
0.0
 10
10.9880627277
 20
8.8665746805
 30
0.0
 10
10.9859782539
 20
8.849410341
 30
0.0
 10
10.9830730561
 20
8.8324752154
 30
0.0
 10
10.9779080234
 20
8.8116996413
 30
0.0
 10
10.9707170758
 20
8.7915985403
 30
0.0
 10
10.9638027222
 20
8.7760793895
 30
0.0
 10
10.9561444355
 20
8.7609961571
 30
0.0
 10
10.945175181
 20
8.7429432569
 30
0.0
 10
10.9298968043
 20
8.7227812355
 30
0.0
 10
10.9183937265
 20
8.7104633828
 30
0.0
 10
10.9123493041
 20
8.7046252106
 30
0.0
  0
SPLINE
  5
325
100
AcDbEntity
  8
0
100
AcDbSpline
 62
7
  6
CONTINUOUS
 70
0
 71
3
 72
15
 73
11
 74
0
 42
0.0000001
 43
0.0000001
 44
0.0000000001
 40
0.0
 40
0.0
 40
0.0
 40
0.0
 40
0.1240779082
 40
0.2511222687
 40
0.3805654123
 40
0.5108217155
 40
0.6394948228
 40
0.764424526
 40
0.8845806434
 40
1.0
 40
1.0
 40
1.0
 40
1.0
 10
10.6914031082
 20
8.9874282584
 30
0.0
 10
10.6955338071
 20
8.9856493741
 30
0.0
 10
10.7038444342
 20
8.9819321186
 30
0.0
 10
10.716236661
 20
8.9758651147
 30
0.0
 10
10.728558191
 20
8.9691692777
 30
0.0
 10
10.7405849174
 20
8.9618405923
 30
0.0
 10
10.7520699252
 20
8.9539747004
 30
0.0
 10
10.7628383511
 20
8.9457446751
 30
0.0
 10
10.7728412722
 20
8.9373305418
 30
0.0
 10
10.7791546331
 20
8.9315781262
 30
0.0
 10
10.7822001412
 20
8.9287097713
 30
0.0
  0
SPLINE
  5
326
100
AcDbEntity
  8
0
100
AcDbSpline
 62
7
  6
CONTINUOUS
 70
0
 71
3
 72
15
 73
11
 74
0
 42
0.0000001
 43
0.0000001
 44
0.0000000001
 40
0.0
 40
0.0
 40
0.0
 40
0.0
 40
0.1387139933
 40
0.2777271816
 40
0.4154032633
 40
0.5490459729
 40
0.6755622721
 40
0.7928749108
 40
0.9006876628
 40
1.0
 40
1.0
 40
1.0
 40
1.0
 10
10.6006060751
 20
8.9413033626
 30
0.0
 10
10.6047006579
 20
8.943634615
 30
0.0
 10
10.6129150522
 20
8.9482734606
 30
0.0
 10
10.6252642143
 20
8.9550998383
 30
0.0
 10
10.6375408412
 20
8.961699726
 30
0.0
 10
10.6495354941
 20
8.9679250008
 30
0.0
 10
10.6610148465
 20
8.973637849
 30
0.0
 10
10.6718038726
 20
8.9787641431
 30
0.0
 10
10.6818417331
 20
8.9833137483
 30
0.0
 10
10.6882975995
 20
8.9861109206
 30
0.0
 10
10.6914031082
 20
8.9874282584
 30
0.0
  0
SPLINE
  5
327
100
AcDbEntity
  8
0
100
AcDbSpline
 62
7
  6
CONTINUOUS
 70
0
 71
3
 72
38
 73
34
 74
0
 42
0.0000001
 43
0.0000001
 44
0.0000000001
 40
0.0
 40
0.0
 40
0.0
 40
0.0
 40
0.029944812
 40
0.0599139139
 40
0.0899312717
 40
0.1200193174
 40
0.1350994304
 40
0.150204915
 40
0.1804950416
 40
0.2109117799
 40
0.2414680483
 40
0.2721739917
 40
0.3030358878
 40
0.3340569838
 40
0.365236542
 40
0.3965708423
 40
0.4280523939
 40
0.4596710329
 40
0.4914133205
 40
0.5232636592
 40
0.5552038952
 40
0.5872143744
 40
0.6192737535
 40
0.6513599477
 40
0.6834501859
 40
0.7155217223
 40
0.7475519957
 40
0.7795193843
 40
0.8114039982
 40
0.8431871813
 40
0.8748506854
 40
0.9377293214
 40
1.0
 40
1.0
 40
1.0
 40
1.0
 10
10.890867341
 20
8.6838752265
 30
0.0
 10
10.8861972342
 20
8.6793644749
 30
0.0
 10
10.876489926
 20
8.6707070102
 30
0.0
 10
10.8609377561
 20
8.6589118687
 30
0.0
 10
10.8444731978
 20
8.6483691573
 30
0.0
 10
10.8300782887
 20
8.6406786965
 30
0.0
 10
10.8182059495
 20
8.6352088217
 30
0.0
 10
10.8060885602
 20
8.6301900303
 30
0.0
 10
10.7905426464
 20
8.6247928705
 30
0.0
 10
10.7713842806
 20
8.6197640926
 30
0.0
 10
10.7518081863
 20
8.6162001984
 30
0.0
 10
10.7319223291
 20
8.6141241114
 30
0.0
 10
10.711836243
 20
8.6135435194
 30
0.0
 10
10.6916604009
 20
8.6144648449
 30
0.0
 10
10.6715054829
 20
8.6168792544
 30
0.0
 10
10.6514827052
 20
8.6207767765
 30
0.0
 10
10.6317012999
 20
8.6261322503
 30
0.0
 10
10.612270872
 20
8.6329195735
 30
0.0
 10
10.5932968172
 20
8.6410978384
 30
0.0
 10
10.5748847723
 20
8.6506254011
 30
0.0
 10
10.5571340072
 20
8.6614465207
 30
0.0
 10
10.5401439217
 20
8.6735049299
 30
0.0
 10
10.5240054944
 20
8.6867312636
 30
0.0
 10
10.5088097431
 20
8.7010558619
 30
0.0
 10
10.4946373868
 20
8.7163972814
 30
0.0
 10
10.4815691407
 20
8.7326739755
 30
0.0
 10
10.4696736263
 20
8.7497940576
 30
0.0
 10
10.4590193925
 20
8.7676660035
 30
0.0
 10
10.4496617648
 20
8.7861895808
 30
0.0
 10
10.4416557514
 20
8.8052659152
 30
0.0
 10
10.4328593258
 20
8.8312261235
 30
0.0
 10
10.4254154006
 20
8.8645270062
 30
0.0
 10
10.4233880862
 20
8.8917003028
 30
0.0
 10
10.4233880862
 20
8.9052022285
 30
0.0
  0
SPLINE
  5
328
100
AcDbEntity
  8
0
100
AcDbSpline
 62
7
  6
CONTINUOUS
 70
0
 71
3
 72
11
 73
7
 74
0
 42
0.0000001
 43
0.0000001
 44
0.0000000001
 40
0.0
 40
0.0
 40
0.0
 40
0.0
 40
0.273285813
 40
0.531373461
 40
0.7731427563
 40
1.0
 40
1.0
 40
1.0
 40
1.0
 10
10.785963846
 20
8.8799235397
 30
0.0
 10
10.785963846
 20
8.8843851364
 30
0.0
 10
10.7857916388
 20
8.8930614572
 30
0.0
 10
10.7850125426
 20
8.905663005
 30
0.0
 10
10.7838091505
 20
8.9174687705
 30
0.0
 10
10.7827634564
 20
8.9250492464
 30
0.0
 10
10.7822001412
 20
8.9287097713
 30
0.0
  0
SPLINE
  5
329
100
AcDbEntity
  8
0
100
AcDbSpline
 62
7
  6
CONTINUOUS
 70
0
 71
3
 72
11
 73
7
 74
0
 42
0.0000001
 43
0.0000001
 44
0.0000000001
 40
0.0
 40
0.0
 40
0.0
 40
0.0
 40
0.2492490491
 40
0.5008550969
 40
0.7525085867
 40
1.0
 40
1.0
 40
1.0
 40
1.0
 10
10.7822001412
 20
8.8238663884
 30
0.0
 10
10.7827503067
 20
8.8285043023
 30
0.0
 10
10.7837712612
 20
8.8378343725
 30
0.0
 10
10.7849789359
 20
8.8518846919
 30
0.0
 10
10.7857711336
 20
8.8659322763
 30
0.0
 10
10.785963846
 20
8.8752860431
 30
0.0
 10
10.785963846
 20
8.8799235397
 30
0.0
  0
SPLINE
  5
32A
100
AcDbEntity
  8
0
100
AcDbSpline
 62
7
  6
CONTINUOUS
 70
0
 71
3
 72
38
 73
34
 74
0
 42
0.0000001
 43
0.0000001
 44
0.0000000001
 40
0.0
 40
0.0
 40
0.0
 40
0.0
 40
0.029944812
 40
0.0599139139
 40
0.0899312717
 40
0.1200193174
 40
0.1350994304
 40
0.150204915
 40
0.1804950416
 40
0.2109117799
 40
0.2414680483
 40
0.2721739917
 40
0.3030358878
 40
0.3340569838
 40
0.365236542
 40
0.3965708423
 40
0.4280523939
 40
0.4596710329
 40
0.4914133205
 40
0.5232636592
 40
0.5552038952
 40
0.5872143744
 40
0.6192737535
 40
0.6513599477
 40
0.6834501859
 40
0.7155217223
 40
0.7475519957
 40
0.7795193843
 40
0.8114039982
 40
0.8431871813
 40
0.8748506854
 40
0.9377293214
 40
1.0
 40
1.0
 40
1.0
 40
1.0
 10
10.5212070667
 20
9.1095654281
 30
0.0
 10
10.5258771736
 20
9.1140761797
 30
0.0
 10
10.5355844818
 20
9.1227336444
 30
0.0
 10
10.5511366517
 20
9.1345287859
 30
0.0
 10
10.56760121
 20
9.1450714973
 30
0.0
 10
10.5819961191
 20
9.1527619581
 30
0.0
 10
10.5938684583
 20
9.1582318329
 30
0.0
 10
10.6059858476
 20
9.1632506242
 30
0.0
 10
10.6215317613
 20
9.1686477841
 30
0.0
 10
10.6406901272
 20
9.173676562
 30
0.0
 10
10.6602662214
 20
9.1772404562
 30
0.0
 10
10.6801520787
 20
9.1793165432
 30
0.0
 10
10.7002381648
 20
9.1798971352
 30
0.0
 10
10.7204140069
 20
9.1789758096
 30
0.0
 10
10.7405689249
 20
9.1765614002
 30
0.0
 10
10.7605917026
 20
9.1726638781
 30
0.0
 10
10.7803731079
 20
9.1673084043
 30
0.0
 10
10.7998035358
 20
9.1605210811
 30
0.0
 10
10.8187775906
 20
9.1523428162
 30
0.0
 10
10.8371896355
 20
9.1428152535
 30
0.0
 10
10.8549404006
 20
9.1319941339
 30
0.0
 10
10.8719304861
 20
9.1199357247
 30
0.0
 10
10.8880689133
 20
9.1067093909
 30
0.0
 10
10.9032646647
 20
9.0923847927
 30
0.0
 10
10.917437021
 20
9.0770433731
 30
0.0
 10
10.9305052671
 20
9.0607666791
 30
0.0
 10
10.9424007814
 20
9.043646597
 30
0.0
 10
10.9530550153
 20
9.0257746511
 30
0.0
 10
10.962412643
 20
9.0072510738
 30
0.0
 10
10.9704186564
 20
8.9881747394
 30
0.0
 10
10.979215082
 20
8.9622145311
 30
0.0
 10
10.9866590072
 20
8.9289136484
 30
0.0
 10
10.9886863216
 20
8.9017403517
 30
0.0
 10
10.9886863216
 20
8.888238426
 30
0.0
  0
SPLINE
  5
32B
100
AcDbEntity
  8
0
100
AcDbSpline
 62
7
  6
CONTINUOUS
 70
0
 71
3
 72
58
 73
54
 74
0
 42
0.0000001
 43
0.0000001
 44
0.0000000001
 40
0.0
 40
0.0
 40
0.0
 40
0.0
 40
0.0311050747
 40
0.0465913849
 40
0.0620239958
 40
0.0927286036
 40
0.1232587734
 40
0.1384718947
 40
0.15365164
 40
0.1839187203
 40
0.2141089863
 40
0.2291934423
 40
0.2442743698
 40
0.2744369594
 40
0.2895396578
 40
0.3046601629
 40
0.3198033701
 40
0.3349740324
 40
0.3654051569
 40
0.3806835436
 40
0.3960050873
 40
0.4113725779
 40
0.4267884616
 40
0.4422547481
 40
0.4577727683
 40
0.4889578936
 40
0.5203546646
 40
0.536135202
 40
0.5519654007
 40
0.5678432087
 40
0.5837662338
 40
0.5997314915
 40
0.6157356801
 40
0.6317752642
 40
0.6478462299
 40
0.6639443143
 40
0.6800651446
 40
0.6962040107
 40
0.712356034
 40
0.7285163608
 40
0.74467997
 40
0.7608417622
 40
0.7769967806
 40
0.8092580756
 40
0.8253632397
 40
0.8414426343
 40
0.8574919949
 40
0.8735073043
 40
0.9054108416
 40
0.9371359096
 40
0.9529333306
 40
0.9686826848
 40
1.0
 40
1.0
 40
1.0
 40
1.0
 10
10.9476084432
 20
8.86456024
 30
0.0
 10
10.9476084432
 20
8.8562011049
 30
0.0
 10
10.9469935732
 20
8.8436684323
 30
0.0
 10
10.9449379904
 20
8.8271223619
 30
0.0
 10
10.9420734952
 20
8.810804951
 30
0.0
 10
10.9369818579
 20
8.790801955
 30
0.0
 10
10.9298956386
 20
8.7714772116
 30
0.0
 10
10.9230853298
 20
8.7565814044
 30
0.0
 10
10.9155442231
 20
8.742121673
 30
0.0
 10
10.9047497353
 20
8.7248518085
 30
0.0
 10
10.892221351
 20
8.7088274108
 30
0.0
 10
10.8812517934
 20
8.6968703511
 30
0.0
 10
10.8696740029
 20
8.6855129415
 30
0.0
 10
10.8572103031
 20
8.6750813289
 30
0.0
 10
10.8439797178
 20
8.6656748466
 30
0.0
 10
10.8336820841
 20
8.6591373573
 30
0.0
 10
10.8230414322
 20
8.6531372216
 30
0.0
 10
10.8084182192
 20
8.6458684595
 30
0.0
 10
10.7932127854
 20
8.6397353044
 30
0.0
 10
10.7775698717
 20
8.634787601
 30
0.0
 10
10.7656112325
 20
8.6316676218
 30
0.0
 10
10.7534740078
 20
8.6291510123
 30
0.0
 10
10.7411866471
 20
8.6272450158
 30
0.0
 10
10.7287787064
 20
8.6259540328
 30
0.0
 10
10.7120898501
 20
8.62505361
 30
0.0
 10
10.6910695805
 20
8.6254861575
 30
0.0
 10
10.6701227603
 20
8.627974383
 30
0.0
 10
10.6534911677
 20
8.6311812413
 30
0.0
 10
10.6410848602
 20
8.6341948198
 30
0.0
 10
10.6287996619
 20
8.6378063875
 30
0.0
 10
10.6166649279
 20
8.6420074618
 30
0.0
 10
10.6047094757
 20
8.6467865571
 30
0.0
 10
10.5929624038
 20
8.652133175
 30
0.0
 10
10.5814522407
 20
8.658034786
 30
0.0
 10
10.5702059947
 20
8.6644758523
 30
0.0
 10
10.5592511585
 20
8.6714417241
 30
0.0
 10
10.548614479
 20
8.6789160855
 30
0.0
 10
10.5383206675
 20
8.6868796871
 30
0.0
 10
10.5283949659
 20
8.6953140503
 30
0.0
 10
10.5188617851
 20
8.7041994316
 30
0.0
 10
10.5097430809
 20
8.7135131868
 30
0.0
 10
10.5010609859
 20
8.7232338821
 30
0.0
 10
10.49010324
 20
8.7366974439
 30
0.0
 10
10.4800897339
 20
8.7508890686
 30
0.0
 10
10.4711051259
 20
8.7657008408
 30
0.0
 10
10.4648984026
 20
8.7770861045
 30
0.0
 10
10.4592364915
 20
8.7887249781
 30
0.0
 10
10.4524429236
 20
8.8045220191
 30
0.0
 10
10.4453703435
 20
8.8247586
 30
0.0
 10
10.4402540588
 20
8.8455163444
 30
0.0
 10
10.4373782791
 20
8.8622811347
 30
0.0
 10
10.4353270319
 20
8.8790547254
 30
0.0
 10
10.434701799
 20
8.8917142643
 30
0.0
 10
10.434701799
 20
8.9001304366
 30
0.0
  0
SPLINE
  5
32C
100
AcDbEntity
  8
0
100
AcDbSpline
 62
7
  6
CONTINUOUS
 70
0
 71
3
 72
17
 73
13
 74
0
 42
0.0000001
 43
0.0000001
 44
0.0000000001
 40
0.0
 40
0.0
 40
0.0
 40
0.0
 40
0.1273148359
 40
0.1907080938
 40
0.253886694
 40
0.3795973721
 40
0.5046020162
 40
0.5668927094
 40
0.6290466736
 40
0.7529728785
 40
0.8765701029
 40
1.0
 40
1.0
 40
1.0
 40
1.0
 10
10.9672043586
 20
8.8674884419
 30
0.0
 10
10.9672043586
 20
8.8588204132
 30
0.0
 10
10.9665807647
 20
8.8458246963
 30
0.0
 10
10.9644962909
 20
8.8286603569
 30
0.0
 10
10.9615910931
 20
8.8117252313
 30
0.0
 10
10.9564260604
 20
8.7909496572
 30
0.0
 10
10.9492351128
 20
8.7708485562
 30
0.0
 10
10.9423207592
 20
8.7553294054
 30
0.0
 10
10.9346624724
 20
8.740246173
 30
0.0
 10
10.923693218
 20
8.7221932728
 30
0.0
 10
10.9084148413
 20
8.7020312514
 30
0.0
 10
10.8969117635
 20
8.6897133987
 30
0.0
 10
10.890867341
 20
8.6838752265
 30
0.0
  0
SPLINE
  5
32D
100
AcDbEntity
  8
0
100
AcDbSpline
 62
7
  6
CONTINUOUS
 70
0
 71
3
 72
36
 73
32
 74
0
 42
0.0000001
 43
0.0000001
 44
0.0000000001
 40
0.0
 40
0.0
 40
0.0
 40
0.0
 40
0.0625338227
 40
0.1257372335
 40
0.1894975552
 40
0.2215640161
 40
0.2537059568
 40
0.2858975161
 40
0.3181120251
 40
0.3503211343
 40
0.3824974038
 40
0.4146136919
 40
0.4466447346
 40
0.4785670926
 40
0.5103600254
 40
0.5420062281
 40
0.5734916901
 40
0.6048071065
 40
0.6359468655
 40
0.6669108256
 40
0.6977026941
 40
0.7283317712
 40
0.7588110185
 40
0.789158437
 40
0.8193950483
 40
0.8495457685
 40
0.8796374508
 40
0.9096991784
 40
0.939760337
 40
0.9698508714
 40
1.0
 40
1.0
 40
1.0
 40
1.0
 10
10.5853862368
 20
8.8896804353
 30
0.0
 10
10.5853862368
 20
8.8838856625
 30
0.0
 10
10.5863481144
 20
8.8722129645
 30
0.0
 10
10.5905760757
 20
8.8550993814
 30
0.0
 10
10.5963269046
 20
8.8414598543
 30
0.0
 10
10.6021682028
 20
8.8311291899
 30
0.0
 10
10.6071536563
 20
8.823705651
 30
0.0
 10
10.6127002327
 20
8.8166747542
 30
0.0
 10
10.6187713483
 20
8.810082846
 30
0.0
 10
10.6253259095
 20
8.8039735308
 30
0.0
 10
10.6323210341
 20
8.7983885894
 30
0.0
 10
10.6397089822
 20
8.7933638969
 30
0.0
 10
10.6474416459
 20
8.78893486
 30
0.0
 10
10.6554662253
 20
8.7851289117
 30
0.0
 10
10.6637303395
 20
8.7819740424
 30
0.0
 10
10.6721778046
 20
8.7794887294
 30
0.0
 10
10.6807530642
 20
8.7776924587
 30
0.0
 10
10.689398231
 20
8.7765946526
 30
0.0
 10
10.6980559205
 20
8.77620533
 30
0.0
 10
10.7066680645
 20
8.7765250204
 30
0.0
 10
10.7151770614
 20
8.7775535832
 30
0.0
 10
10.7235259998
 20
8.7792829386
 30
0.0
 10
10.7316588654
 20
8.7817025023
 30
0.0
 10
10.739521096
 20
8.7847959086
 30
0.0
 10
10.7470601414
 20
8.788542307
 30
0.0
 10
10.7542249145
 20
8.7929173948
 30
0.0
 10
10.7609681067
 20
8.797890775
 30
0.0
 10
10.7672432015
 20
8.8034305239
 30
0.0
 10
10.7730097954
 20
8.8094979187
 30
0.0
 10
10.7782268361
 20
8.8160533496
 30
0.0
 10
10.7813137728
 20
8.8207143416
 30
0.0
 10
10.7827536618
 20
8.8231085158
 30
0.0
  0
SPLINE
  5
32E
100
AcDbEntity
  8
0
100
AcDbSpline
 62
7
  6
CONTINUOUS
 70
0
 71
3
 72
13
 73
9
 74
0
 42
0.0000001
 43
0.0000001
 44
0.0000000001
 40
0.0
 40
0.0
 40
0.0
 40
0.0
 40
0.2471902422
 40
0.3714217392
 40
0.4961034506
 40
0.6213001641
 40
0.7470653272
 40
1.0
 40
1.0
 40
1.0
 40
1.0
 10
10.7829792733
 20
8.8234855957
 30
0.0
 10
10.7852550553
 20
8.8273090254
 30
0.0
 10
10.7882815763
 20
8.8333014253
 30
0.0
 10
10.7914757604
 20
8.8416454488
 30
0.0
 10
10.7934535148
 20
8.8480882469
 30
0.0
 10
10.7950007353
 20
8.8546760003
 30
0.0
 10
10.796481217
 20
8.8636292736
 30
0.0
 10
10.7969240053
 20
8.8704573688
 30
0.0
 10
10.7969240053
 20
8.8750102413
 30
0.0
  0
SPLINE
  5
32F
100
AcDbEntity
  8
0
100
AcDbSpline
 62
7
  6
CONTINUOUS
 70
0
 71
3
 72
29
 73
25
 74
0
 42
0.0000001
 43
0.0000001
 44
0.0000000001
 40
0.0
 40
0.0
 40
0.0
 40
0.0
 40
0.061481729
 40
0.1234752844
 40
0.1858649221
 40
0.2172093692
 40
0.2486408718
 40
0.280150293
 40
0.3117259623
 40
0.3433558618
 40
0.3750284812
 40
0.4384330416
 40
0.5018633042
 40
0.5652194035
 40
0.6284044048
 40
0.659915206
 40
0.6913504384
 40
0.7227013043
 40
0.7539594142
 40
0.7851171083
 40
0.8161684715
 40
0.8779121459
 40
0.9391890552
 40
1.0
 40
1.0
 40
1.0
 40
1.0
 10
10.6768983416
 20
8.962574346
 30
0.0
 10
10.6768983416
 20
8.959216085
 30
0.0
 10
10.6772747969
 20
8.9524659859
 30
0.0
 10
10.6789378867
 20
8.9424322202
 30
0.0
 10
10.6812276395
 20
8.93422148
 30
0.0
 10
10.6835807339
 20
8.9277996769
 30
0.0
 10
10.6856065224
 20
8.9230620395
 30
0.0
 10
10.6878831278
 20
8.9184258333
 30
0.0
 10
10.6904032951
 20
8.9139049761
 30
0.0
 10
10.693160107
 20
8.9095137166
 30
0.0
 10
10.6971410389
 20
8.9038491276
 30
0.0
 10
10.7026629208
 20
8.8971587534
 30
0.0
 10
10.7100802506
 20
8.8898591981
 30
0.0
 10
10.7181996343
 20
8.8833686213
 30
0.0
 10
10.7254799393
 20
8.8786972339
 30
0.0
 10
10.7315535613
 20
8.875439553
 30
0.0
 10
10.7362164674
 20
8.8732457741
 30
0.0
 10
10.7409756361
 20
8.8713061126
 30
0.0
 10
10.7458163948
 20
8.8696257735
 30
0.0
 10
10.7507243253
 20
8.8682103484
 30
0.0
 10
10.7573238322
 20
8.8666864501
 30
0.0
 10
10.7656679983
 20
8.8654580383
 30
0.0
 10
10.7757216561
 20
8.8650937947
 30
0.0
 10
10.7823882257
 20
8.8655952725
 30
0.0
 10
10.7856809605
 20
8.8660323825
 30
0.0
  0
SPLINE
  5
330
100
AcDbEntity
  8
0
100
AcDbSpline
 62
7
  6
CONTINUOUS
 70
0
 71
3
 72
13
 73
9
 74
0
 42
0.0000001
 43
0.0000001
 44
0.0000000001
 40
0.0
 40
0.0
 40
0.0
 40
0.0
 40
0.246926451
 40
0.3713323888
 40
0.4962160989
 40
0.6215646734
 40
0.747362257
 40
1.0
 40
1.0
 40
1.0
 40
1.0
 10
10.7969240053
 20
8.8750102413
 30
0.0
 10
10.7969240053
 20
8.8796422071
 30
0.0
 10
10.7964639145
 20
8.8866184202
 30
0.0
 10
10.7949632854
 20
8.8958091395
 30
0.0
 10
10.7933892673
 20
8.902663456
 30
0.0
 10
10.7913783167
 20
8.9094296302
 30
0.0
 10
10.788121257
 20
8.9183053389
 30
0.0
 10
10.785053757
 20
8.9247338943
 30
0.0
 10
10.7827536618
 20
8.9288774001
 30
0.0
  0
LINE
  5
331
100
AcDbEntity
  8
0
100
AcDbLine
 62
7
  6
CONTINUOUS
 10
10.7827536618
 20
8.9288774001
 11
10.7826725303
 21
8.9290233053
  0
SPLINE
  5
332
100
AcDbEntity
  8
0
100
AcDbSpline
 62
7
  6
CONTINUOUS
 70
0
 71
3
 72
20
 73
16
 74
0
 42
0.0000001
 43
0.0000001
 44
0.0000000001
 40
0.0
 40
0.0
 40
0.0
 40
0.0
 40
0.1256947275
 40
0.1887029035
 40
0.2517551898
 40
0.314816636
 40
0.377852192
 40
0.5036526176
 40
0.5664104263
 40
0.6290137721
 40
0.6914344169
 40
0.7536481821
 40
0.815633831
 40
0.8773729789
 40
1.0
 40
1.0
 40
1.0
 40
1.0
 10
10.7826725303
 20
8.9290233053
 30
0.0
 10
10.7803665748
 20
8.9331632351
 30
0.0
 10
10.776516505
 20
8.9391735563
 30
0.0
 10
10.7706873067
 20
8.9466690224
 30
0.0
 10
10.765972682
 20
8.9520241781
 30
0.0
 10
10.7609414431
 20
8.9570843196
 30
0.0
 10
10.753844947
 20
8.963401929
 30
0.0
 10
10.7461928257
 20
8.9690547234
 30
0.0
 10
10.7380878505
 20
8.9739595733
 30
0.0
 10
10.7318133064
 20
8.9772486111
 30
0.0
 10
10.7253664444
 20
8.9801351033
 30
0.0
 10
10.7187741436
 20
8.9826062587
 30
0.0
 10
10.7120642821
 20
8.9846531697
 30
0.0
 10
10.7030233408
 20
8.9867975867
 30
0.0
 10
10.6961132741
 20
8.9877546325
 30
0.0
 10
10.6915022555
 20
8.9880895776
 30
0.0
  0
SPLINE
  5
333
100
AcDbEntity
  8
0
100
AcDbSpline
 62
7
  6
CONTINUOUS
 70
0
 71
3
 72
20
 73
16
 74
0
 42
0.0000001
 43
0.0000001
 44
0.0000000001
 40
0.0
 40
0.0
 40
0.0
 40
0.0
 40
0.1276925278
 40
0.1911445102
 40
0.2543223292
 40
0.3172406664
 40
0.3799179609
 40
0.5045757392
 40
0.6285999534
 40
0.6904979986
 40
0.7523453711
 40
0.8141805457
 40
0.8760420384
 40
0.9379693885
 40
1.0
 40
1.0
 40
1.0
 40
1.0
 10
10.6911551211
 20
8.9881142225
 30
0.0
 10
10.6865811131
 20
8.9884314311
 30
0.0
 10
10.6796918785
 20
8.9884630053
 30
0.0
 10
10.6705963406
 20
8.98759916
 30
0.0
 10
10.6638734472
 20
8.9865044035
 30
0.0
 10
10.6572663481
 20
8.9849675848
 30
0.0
 10
10.6486669113
 20
8.98234144
 30
0.0
 10
10.6383287189
 20
8.977988435
 30
0.0
 10
10.6287140018
 20
8.9722631953
 30
0.0
 10
10.6215816301
 20
8.9669353831
 30
0.0
 10
10.6165304822
 20
8.9625805816
 30
0.0
 10
10.6117963286
 20
8.9578854366
 30
0.0
 10
10.6074000208
 20
8.952868478
 30
0.0
 10
10.6033602719
 20
8.9475518864
 30
0.0
 10
10.6009177316
 20
8.9438260044
 30
0.0
 10
10.5997619492
 20
8.9419220489
 30
0.0
  0
SPLINE
  5
334
100
AcDbEntity
  8
0
100
AcDbSpline
 62
7
  6
CONTINUOUS
 70
0
 71
3
 72
14
 73
10
 74
0
 42
0.0000001
 43
0.0000001
 44
0.0000000001
 40
0.0
 40
0.0
 40
0.0
 40
0.0
 40
0.123468504
 40
0.2472788979
 40
0.3714832915
 40
0.4961398755
 40
0.6213156024
 40
0.7470670297
 40
1.0
 40
1.0
 40
1.0
 40
1.0
 10
10.5997619492
 20
8.9419220489
 30
0.0
 10
10.5985906667
 20
8.9399925597
 30
0.0
 10
10.5963800844
 20
8.9360443181
 30
0.0
 10
10.5934804757
 20
8.9298975102
 30
0.0
 10
10.5910051659
 20
8.923544205
 30
0.0
 10
10.5889659906
 20
8.9170119665
 30
0.0
 10
10.5873701712
 20
8.9103278982
 30
0.0
 10
10.5858429512
 20
8.9012392667
 30
0.0
 10
10.5853862368
 20
8.8943043963
 30
0.0
 10
10.5853862368
 20
8.8896804353
 30
0.0
  0
SPLINE
  5
335
100
AcDbEntity
  8
0
100
AcDbSpline
 62
7
  6
CONTINUOUS
 70
0
 71
3
 72
12
 73
8
 74
0
 42
0.0000001
 43
0.0000001
 44
0.0000000001
 40
0.0
 40
0.0
 40
0.0
 40
0.0
 40
0.2527826259
 40
0.3785345299
 40
0.5037564791
 40
0.7526539816
 40
1.0
 40
1.0
 40
1.0
 40
1.0
 10
10.6407338257
 20
8.9276421041
 30
0.0
 10
10.6407338257
 20
8.9312564938
 30
0.0
 10
10.6410589409
 20
8.9366765871
 30
0.0
 10
10.6421453496
 20
8.9438004085
 30
0.0
 10
10.6436570455
 20
8.9507903615
 30
0.0
 10
10.6463385775
 20
8.9592869915
 30
0.0
 10
10.6493163017
 20
8.9657516033
 30
0.0
 10
10.6509970375
 20
8.968863364
 30
0.0
  0
SPLINE
  5
336
100
AcDbEntity
  8
0
100
AcDbSpline
 62
7
  6
CONTINUOUS
 70
0
 71
3
 72
20
 73
16
 74
0
 42
0.0000001
 43
0.0000001
 44
0.0000000001
 40
0.0
 40
0.0
 40
0.0
 40
0.0
 40
0.1259091026
 40
0.1890323927
 40
0.2521617101
 40
0.3152718565
 40
0.3783395321
 40
0.5041603612
 40
0.5669033968
 40
0.6294733369
 40
0.6918408244
 40
0.7539860229
 40
0.8159009113
 40
0.8775789156
 40
1.0
 40
1.0
 40
1.0
 40
1.0
 10
10.6861323423
 20
8.845861169
 30
0.0
 10
10.6826982807
 20
8.8480819784
 30
0.0
 10
10.6777417025
 20
8.8517398565
 30
0.0
 10
10.6716206893
 20
8.8571869296
 30
0.0
 10
10.6672818162
 20
8.8615520853
 30
0.0
 10
10.6632183246
 20
8.8661721352
 30
0.0
 10
10.6581961281
 20
8.8726401222
 30
0.0
 10
10.6537819483
 20
8.8795480068
 30
0.0
 10
10.6500432748
 20
8.886802147
 30
0.0
 10
10.6475892031
 20
8.8923868493
 30
0.0
 10
10.6454944155
 20
8.8980950921
 30
0.0
 10
10.643768259
 20
8.903903193
 30
0.0
 10
10.6424169975
 20
8.9097873448
 30
0.0
 10
10.6411287897
 20
8.9176770762
 30
0.0
 10
10.6407338257
 20
8.9236658035
 30
0.0
 10
10.6407338257
 20
8.9276421041
 30
0.0
  0
SPLINE
  5
337
100
AcDbEntity
  8
0
100
AcDbSpline
 62
7
  6
CONTINUOUS
 70
0
 71
3
 72
20
 73
16
 74
0
 42
0.0000001
 43
0.0000001
 44
0.0000000001
 40
0.0
 40
0.0
 40
0.0
 40
0.0
 40
0.121457974
 40
0.1825580223
 40
0.2438742662
 40
0.3054345939
 40
0.3672647593
 40
0.4917072804
 40
0.5543868527
 40
0.6173416292
 40
0.6805589591
 40
0.7440285309
 40
0.8077436178
 40
0.8716926135
 40
1.0
 40
1.0
 40
1.0
 40
1.0
 10
10.7769293753
 20
8.8395643734
 30
0.0
 10
10.7734916997
 20
8.8378180341
 30
0.0
 10
10.7681320451
 20
8.8355501454
 30
0.0
 10
10.7607270815
 20
8.8332769497
 30
0.0
 10
10.7550352166
 20
8.8319461745
 30
0.0
 10
10.7492439985
 20
8.8309982233
 30
0.0
 10
10.7414074819
 20
8.8302493239
 30
0.0
 10
10.7334769852
 20
8.8302835369
 30
0.0
 10
10.7255752166
 20
8.8310922338
 30
0.0
 10
10.7196583847
 20
8.8320860086
 30
0.0
 10
10.7137931316
 20
8.83346163
 30
0.0
 10
10.7080040297
 20
8.8352138633
 30
0.0
 10
10.7023144054
 20
8.8373347553
 30
0.0
 10
10.6948895982
 20
8.8406459056
 30
0.0
 10
10.6895526868
 20
8.8436492305
 30
0.0
 10
10.6861323423
 20
8.845861169
 30
0.0
  0
SPLINE
  5
338
100
AcDbEntity
  8
0
100
AcDbSpline
 62
7
  6
CONTINUOUS
 70
0
 71
3
 72
11
 73
7
 74
0
 42
0.0000001
 43
0.0000001
 44
0.0000000001
 40
0.0
 40
0.0
 40
0.0
 40
0.0
 40
0.2268573018
 40
0.4686267122
 40
0.7267143401
 40
1.0
 40
1.0
 40
1.0
 40
1.0
 10
10.6006060751
 20
8.9413033626
 30
0.0
 10
10.6011693905
 20
8.9376428367
 30
0.0
 10
10.6022150851
 20
8.930062358
 30
0.0
 10
10.6034184771
 20
8.91825659
 30
0.0
 10
10.6041975727
 20
8.9056550432
 30
0.0
 10
10.6043697799
 20
8.8969787252
 30
0.0
 10
10.6043697799
 20
8.892517131
 30
0.0
  0
SPLINE
  5
339
100
AcDbEntity
  8
0
100
AcDbSpline
 62
7
  6
CONTINUOUS
 70
0
 71
3
 72
11
 73
7
 74
0
 42
0.0000001
 43
0.0000001
 44
0.0000000001
 40
0.0
 40
0.0
 40
0.0
 40
0.0
 40
0.2474915547
 40
0.4991450787
 40
0.7507510178
 40
1.0
 40
1.0
 40
1.0
 40
1.0
 10
10.6043697799
 20
8.892517131
 30
0.0
 10
10.6043697799
 20
8.8878796317
 30
0.0
 10
10.6041770674
 20
8.8785258616
 30
0.0
 10
10.6033848693
 20
8.864478276
 30
0.0
 10
10.6021771944
 20
8.8504279592
 30
0.0
 10
10.6011562405
 20
8.8410978923
 30
0.0
 10
10.6006060751
 20
8.8364599796
 30
0.0
  0
SPLINE
  5
33A
100
AcDbEntity
  8
0
100
AcDbSpline
 62
7
  6
CONTINUOUS
 70
0
 71
3
 72
15
 73
11
 74
0
 42
0.0000001
 43
0.0000001
 44
0.0000000001
 40
0.0
 40
0.0
 40
0.0
 40
0.0
 40
0.1154193567
 40
0.2355754737
 40
0.3605051764
 40
0.4891782837
 40
0.6194345868
 40
0.748877731
 40
0.8759220919
 40
1.0
 40
1.0
 40
1.0
 40
1.0
 10
10.6914031082
 20
8.7777414925
 30
0.0
 10
10.6883576001
 20
8.7806098474
 30
0.0
 10
10.6820442391
 20
8.786362263
 30
0.0
 10
10.672041318
 20
8.7947763963
 30
0.0
 10
10.6612728922
 20
8.8030064216
 30
0.0
 10
10.6497878844
 20
8.8108723134
 30
0.0
 10
10.637761158
 20
8.8182009989
 30
0.0
 10
10.625439628
 20
8.8248968359
 30
0.0
 10
10.6130474011
 20
8.8309638398
 30
0.0
 10
10.6047367741
 20
8.8346810954
 30
0.0
 10
10.6006060751
 20
8.8364599796
 30
0.0
  0
SPLINE
  5
33B
100
AcDbEntity
  8
0
100
AcDbSpline
 62
7
  6
CONTINUOUS
 70
0
 71
3
 72
15
 73
11
 74
0
 42
0.0000001
 43
0.0000001
 44
0.0000000001
 40
0.0
 40
0.0
 40
0.0
 40
0.0
 40
0.0993123373
 40
0.207125089
 40
0.3244377271
 40
0.4509540262
 40
0.5845967358
 40
0.7222728181
 40
0.8612860067
 40
1.0
 40
1.0
 40
1.0
 40
1.0
 10
10.7822001412
 20
8.8238663884
 30
0.0
 10
10.7790946325
 20
8.8225490506
 30
0.0
 10
10.7726387662
 20
8.8197518782
 30
0.0
 10
10.7626009057
 20
8.8152022731
 30
0.0
 10
10.7518118796
 20
8.810075979
 30
0.0
 10
10.7403325273
 20
8.8043631307
 30
0.0
 10
10.7283378743
 20
8.798137856
 30
0.0
 10
10.7160612473
 20
8.7915379682
 30
0.0
 10
10.7037120853
 20
8.7847115905
 30
0.0
 10
10.6954976909
 20
8.7800727449
 30
0.0
 10
10.6914031082
 20
8.7777414925
 30
0.0
  0
SPLINE
  5
33C
100
AcDbEntity
  8
0
100
AcDbSpline
 62
7
  6
CONTINUOUS
 70
0
 71
3
 72
58
 73
54
 74
0
 42
0.0000001
 43
0.0000001
 44
0.0000000001
 40
0.0
 40
0.0
 40
0.0
 40
0.0
 40
0.0311050747
 40
0.0465913849
 40
0.0620239958
 40
0.0927286036
 40
0.1232587734
 40
0.1384718947
 40
0.15365164
 40
0.1839187203
 40
0.2141089863
 40
0.2291934423
 40
0.2442743698
 40
0.2744369594
 40
0.2895396578
 40
0.3046601629
 40
0.3198033701
 40
0.3349740324
 40
0.3654051569
 40
0.3806835436
 40
0.3960050873
 40
0.4113725779
 40
0.4267884616
 40
0.4422547481
 40
0.4577727683
 40
0.4889578936
 40
0.5203546646
 40
0.536135202
 40
0.5519654007
 40
0.5678432087
 40
0.5837662338
 40
0.5997314915
 40
0.6157356801
 40
0.6317752642
 40
0.6478462299
 40
0.6639443143
 40
0.6800651446
 40
0.6962040107
 40
0.712356034
 40
0.7285163608
 40
0.74467997
 40
0.7608417622
 40
0.7769967806
 40
0.8092580756
 40
0.8253632397
 40
0.8414426343
 40
0.8574919949
 40
0.8735073043
 40
0.9054108416
 40
0.9371359096
 40
0.9529333306
 40
0.9686826848
 40
1.0
 40
1.0
 40
1.0
 40
1.0
 10
10.434701799
 20
8.9001304366
 30
0.0
 10
10.434701799
 20
8.9084895717
 30
0.0
 10
10.435316669
 20
8.9210222443
 30
0.0
 10
10.4373722518
 20
8.9375683147
 30
0.0
 10
10.440236747
 20
8.9538857256
 30
0.0
 10
10.4453283842
 20
8.9738887216
 30
0.0
 10
10.4524146036
 20
8.993213465
 30
0.0
 10
10.4592249123
 20
9.0081092722
 30
0.0
 10
10.466766019
 20
9.0225690036
 30
0.0
 10
10.4775605068
 20
9.0398388681
 30
0.0
 10
10.4900888912
 20
9.0558632658
 30
0.0
 10
10.5010584488
 20
9.0678203255
 30
0.0
 10
10.5126362393
 20
9.0791777351
 30
0.0
 10
10.5250999391
 20
9.0896093477
 30
0.0
 10
10.5383305244
 20
9.09901583
 30
0.0
 10
10.548628158
 20
9.1055533194
 30
0.0
 10
10.55926881
 20
9.111553455
 30
0.0
 10
10.573892023
 20
9.1188222171
 30
0.0
 10
10.5890974568
 20
9.1249553722
 30
0.0
 10
10.6047403704
 20
9.1299030756
 30
0.0
 10
10.6166990097
 20
9.1330230548
 30
0.0
 10
10.6288362344
 20
9.1355396643
 30
0.0
 10
10.6411235951
 20
9.1374456608
 30
0.0
 10
10.6535315358
 20
9.1387366438
 30
0.0
 10
10.670220392
 20
9.1396370667
 30
0.0
 10
10.6912406617
 20
9.1392045191
 30
0.0
 10
10.7121874819
 20
9.1367162936
 30
0.0
 10
10.7288190745
 20
9.1335094353
 30
0.0
 10
10.741225382
 20
9.1304958568
 30
0.0
 10
10.7535105803
 20
9.1268842891
 30
0.0
 10
10.7656453143
 20
9.1226832148
 30
0.0
 10
10.7776007665
 20
9.1179041195
 30
0.0
 10
10.7893478383
 20
9.1125575016
 30
0.0
 10
10.8008580015
 20
9.1066558906
 30
0.0
 10
10.8121042474
 20
9.1002148243
 30
0.0
 10
10.8230590836
 20
9.0932489525
 30
0.0
 10
10.8336957632
 20
9.0857745911
 30
0.0
 10
10.8439895747
 20
9.0778109895
 30
0.0
 10
10.8539152763
 20
9.0693766263
 30
0.0
 10
10.8634484571
 20
9.060491245
 30
0.0
 10
10.8725671613
 20
9.0511774898
 30
0.0
 10
10.8812492563
 20
9.0414567945
 30
0.0
 10
10.8922070021
 20
9.0279932328
 30
0.0
 10
10.9022205082
 20
9.013801608
 30
0.0
 10
10.9112051162
 20
8.9989898358
 30
0.0
 10
10.9174118396
 20
8.9876045721
 30
0.0
 10
10.9230737507
 20
8.9759656985
 30
0.0
 10
10.9298673186
 20
8.9601686575
 30
0.0
 10
10.9369398987
 20
8.9399320766
 30
0.0
 10
10.9420561833
 20
8.9191743322
 30
0.0
 10
10.9449319631
 20
8.9024095419
 30
0.0
 10
10.9469832103
 20
8.8856359512
 30
0.0
 10
10.9476084432
 20
8.8729764123
 30
0.0
 10
10.9476084432
 20
8.86456024
 30
0.0
  0
SPLINE
  5
33D
100
AcDbEntity
  8
0
100
AcDbSpline
 62
7
  6
CONTINUOUS
 70
0
 71
3
 72
40
 73
36
 74
0
 42
0.0000001
 43
0.0000001
 44
0.0000000001
 40
0.0
 40
0.0
 40
0.0
 40
0.0
 40
0.0299255366
 40
0.0449108417
 40
0.0599127274
 40
0.0899706838
 40
0.1201229875
 40
0.1503855907
 40
0.180772436
 40
0.2112944426
 40
0.2419601479
 40
0.2727746579
 40
0.3037405563
 40
0.3348568938
 40
0.3661202519
 40
0.3975238898
 40
0.4290587905
 40
0.4607131116
 40
0.4924730262
 40
0.5243226076
 40
0.5562443177
 40
0.5882193772
 40
0.6202278568
 40
0.6522495171
 40
0.6842635471
 40
0.7162495942
 40
0.7481873288
 40
0.7800579705
 40
0.8118438811
 40
0.8435284573
 40
0.8750953165
 40
0.9065330358
 40
0.9378384093
 40
0.9690035209
 40
1.0
 40
1.0
 40
1.0
 40
1.0
 10
10.5223819218
 20
9.1081813336
 30
0.0
 10
10.527324265
 20
9.1119113039
 30
0.0
 10
10.5349577024
 20
9.117230807
 30
0.0
 10
10.5455136629
 20
9.1237343945
 30
0.0
 10
10.5563305221
 20
9.1298511908
 30
0.0
 10
10.5703008979
 20
9.1367431242
 30
0.0
 10
10.5876746514
 20
9.1437581939
 30
0.0
 10
10.6055851495
 20
9.1494888004
 30
0.0
 10
10.623942093
 20
9.1539066394
 30
0.0
 10
10.6426540304
 20
9.1569902015
 30
0.0
 10
10.6616275685
 20
9.1587233212
 30
0.0
 10
10.6807680374
 20
9.1590991899
 30
0.0
 10
10.6999799316
 20
9.1581138923
 30
0.0
 10
10.7191677444
 20
9.1557753198
 30
0.0
 10
10.7382354001
 20
9.1520920798
 30
0.0
 10
10.7570886975
 20
9.1470862486
 30
0.0
 10
10.7756327176
 20
9.1407791586
 30
0.0
 10
10.7937764824
 20
9.1332061577
 30
0.0
 10
10.8114281346
 20
9.1244013545
 30
0.0
 10
10.828501562
 20
9.1144121665
 30
0.0
 10
10.8449100053
 20
9.1032852417
 30
0.0
 10
10.8605736065
 20
9.0910787578
 30
0.0
 10
10.8754127653
 20
9.0778512601
 30
0.0
 10
10.8893550749
 20
9.063670339
 30
0.0
 10
10.9023299997
 20
9.04860533
 30
0.0
 10
10.9142736576
 20
9.0327320005
 30
0.0
 10
10.9251264055
 20
9.0161290784
 30
0.0
 10
10.9348338535
 20
8.9988789624
 30
0.0
 10
10.9433483298
 20
8.9810677434
 30
0.0
 10
10.9506258089
 20
8.9627838566
 30
0.0
 10
10.9566325499
 20
8.944119491
 30
0.0
 10
10.9613359416
 20
8.925165552
 30
0.0
 10
10.9647144394
 20
8.9060151182
 30
0.0
 10
10.9667475353
 20
8.8867681623
 30
0.0
 10
10.9672043586
 20
8.8739019149
 30
0.0
 10
10.9672043586
 20
8.8674884419
 30
0.0
  0
SPLINE
  5
33E
100
AcDbEntity
  8
0
100
AcDbSpline
 62
7
  6
CONTINUOUS
 70
0
 71
3
 72
21
 73
17
 74
0
 42
0.0000001
 43
0.0000001
 44
0.0000000001
 40
0.0
 40
0.0
 40
0.0
 40
0.0
 40
0.1685616874
 40
0.3287963644
 40
0.4049748023
 40
0.4781590272
 40
0.5480893266
 40
0.6145170882
 40
0.6772087892
 40
0.7359738033
 40
0.790645498
 40
0.8410920653
 40
0.887237413
 40
0.9290500841
 40
0.9665836944
 40
1.0
 40
1.0
 40
1.0
 40
1.0
 10
12.478807875
 20
9.4065476712
 30
0.0
 10
12.478807875
 20
9.3988600948
 30
0.0
 10
12.4790627905
 20
9.3838632918
 30
0.0
 10
12.4800678262
 20
9.3654157002
 30
0.0
 10
12.4812915023
 20
9.3513479972
 30
0.0
 10
12.4823870383
 20
9.3414059292
 30
0.0
 10
12.4836707528
 20
9.3319348779
 30
0.0
 10
12.4851366412
 20
9.3229746818
 30
0.0
 10
12.4867795037
 20
9.3145632803
 30
0.0
 10
12.4885913126
 20
9.3067357437
 30
0.0
 10
12.4905643582
 20
9.2995243215
 30
0.0
 10
12.4926911141
 20
9.2929586382
 30
0.0
 10
12.4949612476
 20
9.2870648881
 30
0.0
 10
12.4973670106
 20
9.28186601
 30
0.0
 10
12.4998987562
 20
9.2773826827
 30
0.0
 10
12.5017700462
 20
9.274732269
 30
0.0
 10
12.5027316942
 20
9.2735499609
 30
0.0
  0
SPLINE
  5
33F
100
AcDbEntity
  8
0
100
AcDbSpline
 62
7
  6
CONTINUOUS
 70
0
 71
3
 72
31
 73
27
 74
0
 42
0.0000001
 43
0.0000001
 44
0.0000000001
 40
0.0
 40
0.0
 40
0.0
 40
0.0
 40
0.0762656208
 40
0.1537943453
 40
0.231828897
 40
0.3096812386
 40
0.3866394395
 40
0.4619996552
 40
0.5350812932
 40
0.6052309703
 40
0.6390124002
 40
0.67183295
 40
0.7036213026
 40
0.7343120691
 40
0.7638431047
 40
0.7921545668
 40
0.8191942183
 40
0.8449146835
 40
0.8692723112
 40
0.8922334625
 40
0.9137722707
 40
0.933869892
 40
0.9525222697
 40
0.9697396624
 40
0.9855480192
 40
1.0
 40
1.0
 40
1.0
 40
1.0
 10
12.6364285434
 20
9.5587975546
 30
0.0
 10
12.6364285434
 20
9.5452453871
 30
0.0
 10
12.6360634053
 20
9.5179154319
 30
0.0
 10
12.6344732287
 20
9.4767468158
 30
0.0
 10
12.6318471879
 20
9.4353485186
 30
0.0
 10
12.6282119371
 20
9.3941284426
 30
0.0
 10
12.623603247
 20
9.3534839078
 30
0.0
 10
12.6180660024
 20
9.3138108606
 30
0.0
 10
12.6116541892
 20
9.2754957289
 30
0.0
 10
12.6055619777
 20
9.2446311807
 30
0.0
 10
12.6002783815
 20
9.2209112019
 30
0.0
 10
12.5961888003
 20
9.2039116258
 30
0.0
 10
12.5919317888
 20
9.1875199631
 30
0.0
 10
12.5875182414
 20
9.1717758888
 30
0.0
 10
12.5829593359
 20
9.1567175626
 30
0.0
 10
12.5782653659
 20
9.1423817994
 30
0.0
 10
12.5734483329
 20
9.1288031677
 30
0.0
 10
12.5685204814
 20
9.1160143166
 30
0.0
 10
12.5634928899
 20
9.1040464502
 30
0.0
 10
12.5583782968
 20
9.0929280925
 30
0.0
 10
12.5531896758
 20
9.0826854422
 30
0.0
 10
12.5479383529
 20
9.0733432198
 30
0.0
 10
12.5426372404
 20
9.064923074
 30
0.0
 10
12.5372988464
 20
9.0574434572
 30
0.0
 10
12.5319342881
 20
9.0509228766
 30
0.0
 10
12.528184607
 20
9.0470566066
 30
0.0
 10
12.5263047009
 20
9.0453070492
 30
0.0
  0
SPLINE
  5
340
100
AcDbEntity
  8
0
100
AcDbSpline
 62
7
  6
CONTINUOUS
 70
0
 71
3
 72
9
 73
5
 74
0
 42
0.0000001
 43
0.0000001
 44
0.0000000001
 40
0.0
 40
0.0
 40
0.0
 40
0.0
 40
0.472811613
 40
1.0
 40
1.0
 40
1.0
 40
1.0
 10
12.5277925467
 20
9.6349663176
 30
0.0
 10
12.5267563036
 20
9.6340018142
 30
0.0
 10
12.5246935143
 20
9.6318221208
 30
0.0
 10
12.5228502888
 20
9.629457884
 30
0.0
 10
12.5219260672
 20
9.6281782933
 30
0.0
  0
SPLINE
  5
341
100
AcDbEntity
  8
0
100
AcDbSpline
 62
7
  6
CONTINUOUS
 70
0
 71
3
 72
27
 73
23
 74
0
 42
0.0000001
 43
0.0000001
 44
0.0000000001
 40
0.0
 40
0.0
 40
0.0
 40
0.0
 40
0.0172741655
 40
0.0358180048
 40
0.0556316233
 40
0.0767049474
 40
0.0990223952
 40
0.122562874
 40
0.1472955395
 40
0.1731849196
 40
0.2282768739
 40
0.2874863661
 40
0.3504051482
 40
0.4165797491
 40
0.4855225363
 40
0.5567161505
 40
0.6296223794
 40
0.7036781592
 40
0.7783108998
 40
0.8529656588
 40
0.9270779667
 40
1.0
 40
1.0
 40
1.0
 40
1.0
 10
12.5215258096
 20
9.6276178568
 30
0.0
 10
12.5207702231
 20
9.6265480306
 30
0.0
 10
12.5192686159
 20
9.6242833298
 30
0.0
 10
12.5171125487
 20
9.6206563801
 30
0.0
 10
12.5149771575
 20
9.616686961
 30
0.0
 10
12.5128666939
 20
9.6123833692
 30
0.0
 10
12.5107855264
 20
9.6077540021
 30
0.0
 10
12.5087383145
 20
9.6028079603
 30
0.0
 10
12.5067288342
 20
9.5975555084
 30
0.0
 10
12.5040495458
 20
9.5900004957
 30
0.0
 10
12.5008423839
 20
9.5798628189
 30
0.0
 10
12.4972817293
 20
9.5669033273
 30
0.0
 10
12.4939640147
 20
9.5530142961
 30
0.0
 10
12.4909161766
 20
9.5383094471
 30
0.0
 10
12.4881643339
 20
9.5229087911
 30
0.0
 10
12.4857305235
 20
9.5069383672
 30
0.0
 10
12.4836359992
 20
9.4905291321
 30
0.0
 10
12.4818969063
 20
9.4738163123
 30
0.0
 10
12.4805285185
 20
9.4569360909
 30
0.0
 10
12.4795413021
 20
9.4400249684
 30
0.0
 10
12.4789448406
 20
9.4232254269
 30
0.0
 10
12.478807875
 20
9.4120767065
 30
0.0
 10
12.478807875
 20
9.4065476712
 30
0.0
  0
SPLINE
  5
342
100
AcDbEntity
  8
0
100
AcDbSpline
 62
7
  6
CONTINUOUS
 70
0
 71
3
 72
11
 73
7
 74
0
 42
0.0000001
 43
0.0000001
 44
0.0000000001
 40
0.0
 40
0.0
 40
0.0
 40
0.0
 40
0.2700422712
 40
0.5282184127
 40
0.7723546838
 40
1.0
 40
1.0
 40
1.0
 40
1.0
 10
12.5207783818
 20
9.2793243568
 30
0.0
 10
12.5182292596
 20
9.280405679
 30
0.0
 10
12.5132620318
 20
9.2825661533
 30
0.0
 10
12.506074744
 20
9.2858945849
 30
0.0
 10
12.4993778102
 20
9.2892401728
 30
0.0
 10
12.4951342536
 20
9.2915668622
 30
0.0
 10
12.4931177599
 20
9.292742653
 30
0.0
  0
SPLINE
  5
343
100
AcDbEntity
  8
0
100
AcDbSpline
 62
7
  6
CONTINUOUS
 70
0
 71
3
 72
15
 73
11
 74
0
 42
0.0000001
 43
0.0000001
 44
0.0000000001
 40
0.0
 40
0.0
 40
0.0
 40
0.0
 40
0.1492710171
 40
0.289709221
 40
0.4220222282
 40
0.547112762
 40
0.6660745533
 40
0.7801970517
 40
0.890959402
 40
1.0
 40
1.0
 40
1.0
 40
1.0
 10
12.5108126896
 20
9.0308887419
 30
0.0
 10
12.5096177272
 20
9.0297765583
 30
0.0
 10
12.5072294595
 20
9.027690191
 30
0.0
 10
12.5035362963
 20
9.024914691
 30
0.0
 10
12.4998480675
 20
9.0225960138
 30
0.0
 10
12.4961682777
 20
9.0207371329
 30
0.0
 10
12.4925001733
 20
9.0193410329
 30
0.0
 10
12.4888472784
 20
9.0184112251
 30
0.0
 10
12.4852150693
 20
9.0179516295
 30
0.0
 10
12.4828032098
 20
9.0179605264
 30
0.0
 10
12.4816135918
 20
9.0180431362
 30
0.0
  0
SPLINE
  5
344
100
AcDbEntity
  8
0
100
AcDbSpline
 62
7
  6
CONTINUOUS
 70
0
 71
3
 72
27
 73
23
 74
0
 42
0.0000001
 43
0.0000001
 44
0.0000000001
 40
0.0
 40
0.0
 40
0.0
 40
0.0
 40
0.0162147681
 40
0.0334280458
 40
0.0516718081
 40
0.0709698948
 40
0.0913394088
 40
0.1127892076
 40
0.1353216315
 40
0.1589353237
 40
0.209381896
 40
0.2640510775
 40
0.3228118294
 40
0.385501843
 40
0.4519210818
 40
0.5218507706
 40
0.5950377861
 40
0.6712138901
 40
0.7501030787
 40
0.8314227517
 40
0.9148505898
 40
1.0
 40
1.0
 40
1.0
 40
1.0
 10
12.5826487525
 20
9.8577752418
 30
0.0
 10
12.5836977605
 20
9.8564854984
 30
0.0
 10
12.5857719688
 20
9.8537538466
 30
0.0
 10
12.5887300918
 20
9.8493558908
 30
0.0
 10
12.591623336
 20
9.8445422789
 30
0.0
 10
12.5944486917
 20
9.8393179199
 30
0.0
 10
12.597203052
 20
9.833687669
 30
0.0
 10
12.5998837713
 20
9.8276574303
 30
0.0
 10
12.6024884183
 20
9.8212336886
 30
0.0
 10
12.6059322903
 20
9.8119468755
 30
0.0
 10
12.6100000631
 20
9.7993842049
 30
0.0
 10
12.6144358177
 20
9.7831732678
 30
0.0
 10
12.6185091029
 20
9.7655769654
 30
0.0
 10
12.6222011205
 20
9.7466685535
 30
0.0
 10
12.6254977203
 20
9.7265264105
 30
0.0
 10
12.6283826662
 20
9.7052350021
 30
0.0
 10
12.6308453099
 20
9.6828842444
 30
0.0
 10
12.6328739882
 20
9.6595679362
 30
0.0
 10
12.6344603156
 20
9.6353818687
 30
0.0
 10
12.6355972205
 20
9.6104263254
 30
0.0
 10
12.6362792687
 20
9.5848123249
 30
0.0
 10
12.6364285434
 20
9.5675278433
 30
0.0
 10
12.6364285434
 20
9.5587975546
 30
0.0
  0
SPLINE
  5
345
100
AcDbEntity
  8
0
100
AcDbSpline
 62
7
  6
CONTINUOUS
 70
0
 71
3
 72
15
 73
11
 74
0
 42
0.0000001
 43
0.0000001
 44
0.0000000001
 40
0.0
 40
0.0
 40
0.0
 40
0.0
 40
0.1090430419
 40
0.2198054539
 40
0.3339231994
 40
0.452887223
 40
0.5779880059
 40
0.7103070969
 40
0.8507361486
 40
1.0
 40
1.0
 40
1.0
 40
1.0
 10
12.5421495919
 20
9.8909457244
 30
0.0
 10
12.5433392221
 20
9.8908631137
 30
0.0
 10
12.5457291368
 20
9.8905385343
 30
0.0
 10
12.5492631238
 20
9.8895823711
 30
0.0
 10
12.5527530022
 20
9.8881581046
 30
0.0
 10
12.5561932316
 20
9.8862687885
 30
0.0
 10
12.5595809382
 20
9.8839191135
 30
0.0
 10
12.5629136211
 20
9.8811133115
 30
0.0
 10
12.566188669
 20
9.8778552076
 30
0.0
 10
12.5682661481
 20
9.8754594715
 30
0.0
 10
12.5692960766
 20
9.8741930536
 30
0.0
  0
SPLINE
  5
346
100
AcDbEntity
  8
0
100
AcDbSpline
 62
7
  6
CONTINUOUS
 70
0
 71
3
 72
39
 73
35
 74
0
 42
0.0000001
 43
0.0000001
 44
0.0000000001
 40
0.0
 40
0.0
 40
0.0
 40
0.0
 40
0.0154361115
 40
0.0224876968
 40
0.0291530353
 40
0.0354908597
 40
0.0415708915
 40
0.0474738374
 40
0.0532886797
 40
0.0591083756
 40
0.0650255691
 40
0.0711284028
 40
0.077496858
 40
0.0841996368
 40
0.0912942181
 40
0.1068282727
 40
0.1243883942
 40
0.1441303714
 40
0.1661343627
 40
0.1904268854
 40
0.2169874925
 40
0.2457720636
 40
0.2767086995
 40
0.3097043823
 40
0.3446553215
 40
0.3814374123
 40
0.4199177276
 40
0.4599540061
 40
0.5440630384
 40
0.6324568902
 40
0.723728931
 40
0.8163990409
 40
0.9090071575
 40
1.0
 40
1.0
 40
1.0
 40
1.0
 10
12.5027316942
 20
9.2735499609
 30
0.0
 10
12.5035928665
 20
9.2724911836
 30
0.0
 10
12.5049458317
 20
9.271020558
 30
0.0
 10
12.5069222401
 20
9.2693615131
 30
0.0
 10
12.5083840201
 20
9.2683525983
 30
0.0
 10
12.5098684275
 20
9.2675434043
 30
0.0
 10
12.5113743117
 20
9.2669360409
 30
0.0
 10
12.5128996727
 20
9.2665323416
 30
0.0
 10
12.5144419134
 20
9.266333117
 30
0.0
 10
12.5159982054
 20
9.2663388075
 30
0.0
 10
12.5175656911
 20
9.2665491916
 30
0.0
 10
12.5191418079
 20
9.2669636002
 30
0.0
 10
12.5207243086
 20
9.2675809232
 30
0.0
 10
12.5223117355
 20
9.2683990784
 30
0.0
 10
12.5244990721
 20
9.269798102
 30
0.0
 10
12.5272370241
 20
9.2720856431
 30
0.0
 10
12.530415468
 20
9.2755214574
 30
0.0
 10
12.5335772839
 20
9.2797134315
 30
0.0
 10
12.5367109181
 20
9.2846459418
 30
0.0
 10
12.539804216
 20
9.2903005809
 30
0.0
 10
12.5428458047
 20
9.29665408
 30
0.0
 10
12.5458216032
 20
9.303680807
 30
0.0
 10
12.5487192229
 20
9.3113511121
 30
0.0
 10
12.5515265915
 20
9.3196324681
 30
0.0
 10
12.5542304014
 20
9.3284898299
 30
0.0
 10
12.5568198679
 20
9.3378850977
 30
0.0
 10
12.5592834143
 20
9.3477780782
 30
0.0
 10
12.5624371995
 20
9.3618075158
 30
0.0
 10
12.5659668328
 20
9.3802703358
 30
0.0
 10
12.56948458
 20
9.403329961
 30
0.0
 10
12.5722886889
 20
9.4272493098
 30
0.0
 10
12.574331627
 20
9.4516193957
 30
0.0
 10
12.5755761584
 20
9.4760182648
 30
0.0
 10
12.5758649368
 20
9.4922524839
 30
0.0
 10
12.5758649368
 20
9.5002975994
 30
0.0
  0
SPLINE
  5
347
100
AcDbEntity
  8
0
100
AcDbSpline
 62
7
  6
CONTINUOUS
 70
0
 71
3
 72
33
 73
29
 74
0
 42
0.0000001
 43
0.0000001
 44
0.0000000001
 40
0.0
 40
0.0
 40
0.0
 40
0.0
 40
0.1056124641
 40
0.2076699554
 40
0.305167057
 40
0.39730514
 40
0.4833444468
 40
0.5625963551
 40
0.5994968149
 40
0.6344975976
 40
0.6675451558
 40
0.6986017549
 40
0.7276432097
 40
0.7546559499
 40
0.7796448267
 40
0.8026448944
 40
0.8237184754
 40
0.8429636001
 40
0.8605339137
 40
0.876650845
 40
0.8916117247
 40
0.9057992803
 40
0.9196709547
 40
0.9337159583
 40
0.9484055614
 40
0.9641484958
 40
0.9812663149
 40
1.0
 40
1.0
 40
1.0
 40
1.0
 10
12.5758649368
 20
9.5002975994
 30
0.0
 10
12.5758649368
 20
9.5061038163
 30
0.0
 10
12.5757177495
 20
9.5175214598
 30
0.0
 10
12.5750395373
 20
9.5342870089
 30
0.0
 10
12.5739114638
 20
9.5502862002
 30
0.0
 10
12.572346211
 20
9.5653639821
 30
0.0
 10
12.5703593927
 20
9.5793799898
 30
0.0
 10
12.5683235314
 20
9.5903126247
 30
0.0
 10
12.5664773551
 20
9.5984158214
 30
0.0
 10
12.5650334485
 20
9.6040028967
 30
0.0
 10
12.5635002028
 20
9.6092322701
 30
0.0
 10
12.5618814019
 20
9.6140918406
 30
0.0
 10
12.5601812537
 20
9.6185706114
 30
0.0
 10
12.5584035489
 20
9.6226581833
 30
0.0
 10
12.5565517043
 20
9.62634501
 30
0.0
 10
12.5546302732
 20
9.6296233511
 30
0.0
 10
12.5526431382
 20
9.632486422
 30
0.0
 10
12.5505928859
 20
9.634927545
 30
0.0
 10
12.5484820015
 20
9.6369408831
 30
0.0
 10
12.5463128603
 20
9.6385210895
 30
0.0
 10
12.5440872745
 20
9.6396605153
 30
0.0
 10
12.5418096943
 20
9.6403482302
 30
0.0
 10
12.5394911365
 20
9.6405769334
 30
0.0
 10
12.5371457507
 20
9.6403450141
 30
0.0
 10
12.534786388
 20
9.6396566569
 30
0.0
 10
12.5324209931
 20
9.6385203892
 30
0.0
 10
12.5300530188
 20
9.6369455018
 30
0.0
 10
12.5285464347
 20
9.6356680136
 30
0.0
 10
12.5277925467
 20
9.6349663176
 30
0.0
  0
SPLINE
  5
348
100
AcDbEntity
  8
0
100
AcDbSpline
 62
7
  6
CONTINUOUS
 70
0
 71
3
 72
22
 73
18
 74
0
 42
0.0000001
 43
0.0000001
 44
0.0000000001
 40
0.0
 40
0.0
 40
0.0
 40
0.0
 40
0.0337174902
 40
0.0699203537
 40
0.1094317108
 40
0.1528956474
 40
0.2007843792
 40
0.2532992782
 40
0.3104967288
 40
0.3723061056
 40
0.4385118041
 40
0.5088414202
 40
0.5829955542
 40
0.6606567531
 40
0.7414892058
 40
0.8251786825
 40
1.0
 40
1.0
 40
1.0
 40
1.0
 10
12.513640648
 20
9.6139907023
 30
0.0
 10
12.5137391174
 20
9.613322792
 30
0.0
 10
12.5140664253
 20
9.6119535098
 30
0.0
 10
12.514916757
 20
9.6099254388
 30
0.0
 10
12.5161418895
 20
9.6078697763
 30
0.0
 10
12.5177438434
 20
9.6057897167
 30
0.0
 10
12.5197222538
 20
9.6036905946
 30
0.0
 10
12.5220653951
 20
9.6015727964
 30
0.0
 10
12.5247611427
 20
9.599441559
 30
0.0
 10
12.5277922094
 20
9.5973022174
 30
0.0
 10
12.5311358279
 20
9.5951571488
 30
0.0
 10
12.5347687387
 20
9.5930110414
 30
0.0
 10
12.5386667851
 20
9.5908673357
 30
0.0
 10
12.5428054514
 20
9.5887282819
 30
0.0
 10
12.5471610427
 20
9.5865958111
 30
0.0
 10
12.5533182891
 20
9.5837217292
 30
0.0
 10
12.5580610029
 20
9.5816459215
 30
0.0
 10
12.561283529
 20
9.5802789454
 30
0.0
  0
SPLINE
  5
349
100
AcDbEntity
  8
0
100
AcDbSpline
 62
7
  6
CONTINUOUS
 70
0
 71
3
 72
23
 73
19
 74
0
 42
0.0000001
 43
0.0000001
 44
0.0000000001
 40
0.0
 40
0.0
 40
0.0
 40
0.0
 40
0.0715380803
 40
0.1420662077
 40
0.2114204066
 40
0.2794229154
 40
0.3459307263
 40
0.3785914714
 40
0.4108382928
 40
0.4740743968
 40
0.5357090605
 40
0.5959022604
 40
0.6549216844
 40
0.713070217
 40
0.7706661925
 40
0.8279754756
 40
0.8852230645
 40
1.0
 40
1.0
 40
1.0
 40
1.0
 10
12.561283529
 20
9.4057258663
 30
0.0
 10
12.5588123335
 20
9.4033984158
 30
0.0
 10
12.5539771955
 20
9.3986984758
 30
0.0
 10
12.5470513231
 20
9.3914364402
 30
0.0
 10
12.540565093
 20
9.3839988292
 30
0.0
 10
12.5345950975
 20
9.3763803719
 30
0.0
 10
12.53009431
 20
9.3698401037
 30
0.0
 10
12.5268403921
 20
9.3645187491
 30
0.0
 10
12.5238680256
 20
9.3592125281
 30
0.0
 10
12.5206255399
 20
9.3524879827
 30
0.0
 10
12.5175318004
 20
9.3442554807
 30
0.0
 10
12.5153064446
 20
9.3359527935
 30
0.0
 10
12.5139391369
 20
9.3276342864
 30
0.0
 10
12.5134067708
 20
9.3193455085
 30
0.0
 10
12.5136401773
 20
9.3111261571
 30
0.0
 10
12.5145696164
 20
9.3030008259
 30
0.0
 10
12.516624072
 20
9.2923061424
 30
0.0
 10
12.5189648957
 20
9.2844600554
 30
0.0
 10
12.5207783818
 20
9.2793243568
 30
0.0
  0
SPLINE
  5
34A
100
AcDbEntity
  8
0
100
AcDbSpline
 62
7
  6
CONTINUOUS
 70
0
 71
3
 72
42
 73
38
 74
0
 42
0.0000001
 43
0.0000001
 44
0.0000000001
 40
0.0
 40
0.0
 40
0.0
 40
0.0
 40
0.0187317918
 40
0.0358459152
 40
0.0515845466
 40
0.0590428417
 40
0.0662861262
 40
0.0733677281
 40
0.0803453143
 40
0.0872795313
 40
0.0942320619
 40
0.1012639729
 40
0.1084341789
 40
0.1157981619
 40
0.1234068684
 40
0.1395232976
 40
0.1570935977
 40
0.1763381572
 40
0.1974103033
 40
0.2204090452
 40
0.2453978239
 40
0.2724087099
 40
0.3014466849
 40
0.3325019809
 40
0.3655490216
 40
0.4005455813
 40
0.4374423964
 40
0.4761812502
 40
0.5166921647
 40
0.5589011869
 40
0.6027280303
 40
0.6480815212
 40
0.6948675949
 40
0.7429904044
 40
0.7923516885
 40
0.8943811518
 40
1.0
 40
1.0
 40
1.0
 40
1.0
 10
12.5263047009
 20
9.0453070492
 30
0.0
 10
12.5246099217
 20
9.0437297825
 30
0.0
 10
12.5212234798
 20
9.0408578621
 30
0.0
 10
12.5159012583
 20
9.0373187706
 30
0.0
 10
12.5113896388
 20
9.035154661
 30
0.0
 10
12.5078177311
 20
9.0339601512
 30
0.0
 10
12.505196274
 20
9.0333306022
 30
0.0
 10
12.5025867223
 20
9.0329528088
 30
0.0
 10
12.4999909793
 20
9.0328276439
 30
0.0
 10
12.4974112552
 20
9.0329550094
 30
0.0
 10
12.4948496882
 20
9.0333346326
 30
0.0
 10
12.4923083669
 20
9.0339659995
 30
0.0
 10
12.4897892594
 20
9.0348484046
 30
0.0
 10
12.4872940585
 20
9.0359811308
 30
0.0
 10
12.4839375883
 20
9.0378595921
 30
0.0
 10
12.4797963202
 20
9.0408769362
 30
0.0
 10
12.4750523202
 20
9.0454034954
 30
0.0
 10
12.4704433851
 20
9.050891796
 30
0.0
 10
12.4659764678
 20
9.0573281681
 30
0.0
 10
12.4616571755
 20
9.0646982549
 30
0.0
 10
12.4574949877
 20
9.0729868936
 30
0.0
 10
12.4534988487
 20
9.0821758355
 30
0.0
 10
12.4496766651
 20
9.092243957
 30
0.0
 10
12.4460381214
 20
9.1031686191
 30
0.0
 10
12.4425921137
 20
9.1149245838
 30
0.0
 10
12.4393458594
 20
9.1274840677
 30
0.0
 10
12.4363077427
 20
9.1408177622
 30
0.0
 10
12.4334854843
 20
9.1548943825
 30
0.0
 10
12.4308849833
 20
9.1696805783
 30
0.0
 10
12.4285129543
 20
9.1851415251
 30
0.0
 10
12.4263756269
 20
9.2012405139
 30
0.0
 10
12.4244772719
 20
9.2179388031
 30
0.0
 10
12.4228227325
 20
9.2351964034
 30
0.0
 10
12.4214164954
 20
9.2529729042
 30
0.0
 10
12.4198591561
 20
9.2775836587
 30
0.0
 10
12.4185746676
 20
9.3093277677
 30
0.0
 10
12.4182442685
 20
9.3349936321
 30
0.0
 10
12.4182442685
 20
9.348047716
 30
0.0
  0
SPLINE
  5
34B
100
AcDbEntity
  8
0
100
AcDbSpline
 62
7
  6
CONTINUOUS
 70
0
 71
3
 72
15
 73
11
 74
0
 42
0.0000001
 43
0.0000001
 44
0.0000000001
 40
0.0
 40
0.0
 40
0.0
 40
0.0
 40
0.1267942165
 40
0.1899740074
 40
0.2529877155
 40
0.3785490277
 40
0.503585981
 40
0.6281816751
 40
0.7524135231
 40
1.0
 40
1.0
 40
1.0
 40
1.0
 10
12.5378978507
 20
9.4946242082
 30
0.0
 10
12.5378978507
 20
9.4984133504
 30
0.0
 10
12.5381131643
 20
9.5040935599
 30
0.0
 10
12.5388227012
 20
9.5116217504
 30
0.0
 10
12.5398062539
 20
9.5190822497
 30
0.0
 10
12.54153145
 20
9.5283026356
 30
0.0
 10
12.5443339742
 20
9.5391668417
 30
0.0
 10
12.5477833114
 20
9.5498005744
 30
0.0
 10
12.5531302925
 20
9.5636442101
 30
0.0
 10
12.5578805691
 20
9.5737090218
 30
0.0
 10
12.561283529
 20
9.5802789454
 30
0.0
  0
SPLINE
  5
34C
100
AcDbEntity
  8
0
100
AcDbSpline
 62
7
  6
CONTINUOUS
 70
0
 71
3
 72
14
 73
10
 74
0
 42
0.0000001
 43
0.0000001
 44
0.0000000001
 40
0.0
 40
0.0
 40
0.0
 40
0.0
 40
0.2522654334
 40
0.5033485803
 40
0.6283249275
 40
0.7527968467
 40
0.8148343934
 40
0.8767298576
 40
1.0
 40
1.0
 40
1.0
 40
1.0
 10
12.561283529
 20
9.4057258663
 30
0.0
 10
12.5578919939
 20
9.4127441402
 30
0.0
 10
12.5515816838
 20
9.4269765622
 30
0.0
 10
12.5452845983
 20
9.4453803447
 30
0.0
 10
12.5415416481
 20
9.4603953271
 30
0.0
 10
12.5398106225
 20
9.4698710351
 30
0.0
 10
12.5388242624
 20
9.4774844107
 30
0.0
 10
12.538115866
 20
9.485090991
 30
0.0
 10
12.5378978507
 20
9.4908152666
 30
0.0
 10
12.5378978507
 20
9.4946242082
 30
0.0
  0
SPLINE
  5
34D
100
AcDbEntity
  8
0
100
AcDbSpline
 62
7
  6
CONTINUOUS
 70
0
 71
3
 72
46
 73
42
 74
0
 42
0.0000001
 43
0.0000001
 44
0.0000000001
 40
0.0
 40
0.0
 40
0.0
 40
0.0
 40
0.0432633845
 40
0.0870807762
 40
0.1756765128
 40
0.2645365654
 40
0.3524521576
 40
0.3956740746
 40
0.4382063385
 40
0.4799034301
 40
0.5206248519
 40
0.5602322888
 40
0.5985948919
 40
0.6355870339
 40
0.6710890565
 40
0.7049918297
 40
0.737191438
 40
0.7675976355
 40
0.7961300391
 40
0.8227214048
 40
0.8473238675
 40
0.8588692426
 40
0.8699076574
 40
0.8804400186
 40
0.8904688119
 40
0.8999984497
 40
0.9090358896
 40
0.9175923185
 40
0.9256829434
 40
0.9333270583
 40
0.9405489368
 40
0.9473790315
 40
0.9538557899
 40
0.96002556
 40
0.9659426907
 40
0.9716695525
 40
0.9772757777
 40
0.9828362687
 40
0.9884276988
 40
0.9941252889
 40
1.0
 40
1.0
 40
1.0
 40
1.0
 10
12.4182442685
 20
9.348047716
 30
0.0
 10
12.4182442685
 20
9.3563525032
 30
0.0
 10
12.4183815856
 20
9.3730687487
 30
0.0
 10
12.4191906684
 20
9.406782757
 30
0.0
 10
12.4211981887
 20
9.4492179821
 30
0.0
 10
12.4251433837
 20
9.5000126646
 30
0.0
 10
12.4296940697
 20
9.5420047801
 30
0.0
 10
12.4340757605
 20
9.5750542258
 30
0.0
 10
12.4376862063
 20
9.5992529302
 30
0.0
 10
12.4416267573
 20
9.6229136144
 30
0.0
 10
12.4458815609
 20
9.6459491993
 30
0.0
 10
12.4504359662
 20
9.6682746419
 30
0.0
 10
12.4552724609
 20
9.6898076894
 30
0.0
 10
12.4603728473
 20
9.7104691019
 30
0.0
 10
12.4657191629
 20
9.7301827511
 30
0.0
 10
12.471290014
 20
9.7488763816
 30
0.0
 10
12.4770661688
 20
9.7664812642
 30
0.0
 10
12.483025156
 20
9.7829331021
 30
0.0
 10
12.4891448671
 20
9.7981722193
 30
0.0
 10
12.4954036523
 20
9.8121427106
 30
0.0
 10
12.5008234817
 20
9.8229038172
 30
0.0
 10
12.505227552
 20
9.83082013
 30
0.0
 10
12.5084807854
 20
9.8362827377
 30
0.0
 10
12.5117512526
 20
9.8413927314
 30
0.0
 10
12.515036087
 20
9.8461455873
 30
0.0
 10
12.5183323436
 20
9.8505368739
 30
0.0
 10
12.5216374563
 20
9.8545622786
 30
0.0
 10
12.5249484445
 20
9.8582183684
 30
0.0
 10
12.5282624258
 20
9.8615022422
 30
0.0
 10
12.5315767683
 20
9.8644109959
 30
0.0
 10
12.5348889527
 20
9.8669417017
 30
0.0
 10
12.538196838
 20
9.8690911863
 30
0.0
 10
12.5414977893
 20
9.8708572356
 30
0.0
 10
12.5447892271
 20
9.8722377686
 30
0.0
 10
12.5480683892
 20
9.8732303246
 30
0.0
 10
12.5513319911
 20
9.8738322496
 30
0.0
 10
12.5545759961
 20
9.8740408192
 30
0.0
 10
12.5577955319
 20
9.8738556434
 30
0.0
 10
12.5609858795
 20
9.8732773193
 30
0.0
 10
12.5641420809
 20
9.8723074732
 30
0.0
 10
12.5661831064
 20
9.8714176218
 30
0.0
 10
12.5671922392
 20
9.870914269
 30
0.0
  0
SPLINE
  5
34E
100
AcDbEntity
  8
0
100
AcDbSpline
 62
7
  6
CONTINUOUS
 70
0
 71
3
 72
11
 73
7
 74
0
 42
0.0000001
 43
0.0000001
 44
0.0000000001
 40
0.0
 40
0.0
 40
0.0
 40
0.0
 40
0.2252265463
 40
0.4652681436
 40
0.7228212449
 40
1.0
 40
1.0
 40
1.0
 40
1.0
 10
12.5671922392
 20
9.870914269
 30
0.0
 10
12.5685646754
 20
9.8702297016
 30
0.0
 10
12.5713029249
 20
9.8686152318
 30
0.0
 10
12.5752178194
 20
9.8656157866
 30
0.0
 10
12.579051622
 20
9.861979194
 30
0.0
 10
12.581457785
 20
9.8592395226
 30
0.0
 10
12.5826487525
 20
9.8577752418
 30
0.0
  0
SPLINE
  5
34F
100
AcDbEntity
  8
0
100
AcDbSpline
 62
7
  6
CONTINUOUS
 70
0
 71
3
 72
45
 73
41
 74
0
 42
0.0000001
 43
0.0000001
 44
0.0000000001
 40
0.0
 40
0.0
 40
0.0
 40
0.0
 40
0.0417575935
 40
0.0840304013
 40
0.1695104933
 40
0.2553475731
 40
0.2980777921
 40
0.340503244
 40
0.3824913988
 40
0.423913659
 40
0.4646425167
 40
0.5045541318
 40
0.543527682
 40
0.5814448034
 40
0.6181943234
 40
0.6536679755
 40
0.6877639067
 40
0.7203883841
 40
0.7514517991
 40
0.7808763831
 40
0.808592311
 40
0.8345396461
 40
0.8586752038
 40
0.8809675081
 40
0.8914197386
 40
0.9014100262
 40
0.9109410936
 40
0.9200173584
 40
0.9286456292
 40
0.9368364183
 40
0.9446033906
 40
0.9519636436
 40
0.9589384152
 40
0.9655540144
 40
0.9718433259
 40
0.9778457232
 40
0.9836071005
 40
0.9891799777
 40
0.9946230461
 40
1.0
 40
1.0
 40
1.0
 40
1.0
 10
12.398648353
 20
9.3451195141
 30
0.0
 10
12.398648353
 20
9.3532781483
 30
0.0
 10
12.3987760318
 20
9.3696963623
 30
0.0
 10
12.399529094
 20
9.402807873
 30
0.0
 10
12.4013994696
 20
9.4445036201
 30
0.0
 10
12.4044707347
 20
9.4862175716
 30
0.0
 10
12.4076445737
 20
9.5194761722
 30
0.0
 10
12.4103652493
 20
9.544169147
 30
0.0
 10
12.4134213962
 20
9.5685653026
 30
0.0
 10
12.4168017346
 20
9.5925839998
 30
0.0
 10
12.4204959166
 20
9.6161458955
 30
0.0
 10
12.4244914221
 20
9.6391731957
 30
0.0
 10
12.4287743895
 20
9.6615897932
 30
0.0
 10
12.4333317526
 20
9.6833214428
 30
0.0
 10
12.4381471693
 20
9.7042964587
 30
0.0
 10
12.4432051275
 20
9.7244455655
 30
0.0
 10
12.4484891725
 20
9.7437022268
 30
0.0
 10
12.4539805118
 20
9.7620031677
 30
0.0
 10
12.4596622512
 20
9.7792879486
 30
0.0
 10
12.4655145309
 20
9.7955000182
 30
0.0
 10
12.4715177176
 20
9.8105864299
 30
0.0
 10
12.4776531385
 20
9.8244978924
 30
0.0
 10
12.4838987677
 20
9.8371896043
 30
0.0
 10
12.4892892905
 20
9.8469148012
 30
0.0
 10
12.4936568725
 20
9.8540323101
 30
0.0
 10
12.4968769191
 20
9.8589251512
 30
0.0
 10
12.5001093287
 20
9.8634841601
 30
0.0
 10
12.503351625
 20
9.8677054335
 30
0.0
 10
12.5066015155
 20
9.8715852654
 30
0.0
 10
12.5098562731
 20
9.8751208192
 30
0.0
 10
12.5131134093
 20
9.8783095409
 30
0.0
 10
12.5163705701
 20
9.8811488655
 30
0.0
 10
12.5196254879
 20
9.8836362088
 30
0.0
 10
12.5228762193
 20
9.8857687863
 30
0.0
 10
12.5261204
 20
9.8875446623
 30
0.0
 10
12.5293557203
 20
9.8889621177
 30
0.0
 10
12.5325797337
 20
9.8900191338
 30
0.0
 10
12.535789818
 20
9.8907135457
 30
0.0
 10
12.5389821591
 20
9.8910429888
 30
0.0
 10
12.5411015619
 20
9.8910185021
 30
0.0
 10
12.5421495919
 20
9.8909457244
 30
0.0
  0
SPLINE
  5
350
100
AcDbEntity
  8
0
100
AcDbSpline
 62
7
  6
CONTINUOUS
 70
0
 71
3
 72
33
 73
29
 74
0
 42
0.0000001
 43
0.0000001
 44
0.0000000001
 40
0.0
 40
0.0
 40
0.0
 40
0.0
 40
0.0126611888
 40
0.0256295287
 40
0.0391901271
 40
0.0535893906
 40
0.0690270472
 40
0.085660288
 40
0.1036096796
 40
0.1229611838
 40
0.1437743872
 40
0.1660905802
 40
0.1899351902
 40
0.2153165822
 40
0.2422333065
 40
0.2706771934
 40
0.3006309966
 40
0.3320682151
 40
0.3649585931
 40
0.3992686535
 40
0.4349577585
 40
0.4719806448
 40
0.5498346311
 40
0.6324085829
 40
0.7192284608
 40
0.8098024865
 40
0.9036089119
 40
1.0
 40
1.0
 40
1.0
 40
1.0
 10
12.4816135918
 20
9.0180431362
 30
0.0
 10
12.4801313357
 20
9.0181460676
 30
0.0
 10
12.4771425892
 20
9.0186018479
 30
0.0
 10
12.4727479503
 20
9.0200160054
 30
0.0
 10
12.4684299775
 20
9.0221562567
 30
0.0
 10
12.4641975474
 20
9.0250123285
 30
0.0
 10
12.4600539078
 20
9.0285740208
 30
0.0
 10
12.4560028842
 20
9.0328337948
 30
0.0
 10
12.4520492367
 20
9.0377849688
 30
0.0
 10
12.4481968951
 20
9.0434190255
 30
0.0
 10
12.4444504953
 20
9.0497269669
 30
0.0
 10
12.4408156943
 20
9.0566995036
 30
0.0
 10
12.4372985669
 20
9.0643261226
 30
0.0
 10
12.4339038236
 20
9.0725942709
 30
0.0
 10
12.4306368773
 20
9.0814906815
 30
0.0
 10
12.4275035539
 20
9.0910014154
 30
0.0
 10
12.4245090843
 20
9.1011110849
 30
0.0
 10
12.4216578359
 20
9.1118028683
 30
0.0
 10
12.4189546305
 20
9.1230593371
 30
0.0
 10
12.416404538
 20
9.1348623373
 30
0.0
 10
12.4140114208
 20
9.1471924615
 30
0.0
 10
12.4109840621
 20
9.1646014711
 30
0.0
 10
12.4076473375
 20
9.1875364552
 30
0.0
 10
12.4043870927
 20
9.2163721319
 30
0.0
 10
12.4018296889
 20
9.2467765596
 30
0.0
 10
12.399992031
 20
9.2785529471
 30
0.0
 10
12.3988886414
 20
9.3114866842
 30
0.0
 10
12.398648353
 20
9.3338077523
 30
0.0
 10
12.398648353
 20
9.3451195141
 30
0.0
  0
SPLINE
  5
351
100
AcDbEntity
  8
0
100
AcDbSpline
 62
7
  6
CONTINUOUS
 70
0
 71
3
 72
61
 73
57
 74
0
 42
0.0000001
 43
0.0000001
 44
0.0000000001
 40
0.0
 40
0.0
 40
0.0
 40
0.0
 40
0.0081437779
 40
0.0169768221
 40
0.026520864
 40
0.0367895896
 40
0.0477882535
 40
0.0595157597
 40
0.0719659078
 40
0.0851281551
 40
0.0989883699
 40
0.1135291231
 40
0.1287302869
 40
0.1445692822
 40
0.1610212227
 40
0.178059342
 40
0.1956550036
 40
0.2137779103
 40
0.2514761113
 40
0.2908853639
 40
0.3317179256
 40
0.3736716501
 40
0.4164332973
 40
0.4596817626
 40
0.5030912704
 40
0.5463345004
 40
0.5890857199
 40
0.6310239422
 40
0.6718360813
 40
0.7112201654
 40
0.7302866913
 40
0.7488897553
 40
0.7669962987
 40
0.7845745492
 40
0.8015943376
 40
0.8180270859
 40
0.8338459997
 40
0.8490263856
 40
0.8635456527
 40
0.8773837462
 40
0.8905234392
 40
0.9029505742
 40
0.9146548141
 40
0.9256300995
 40
0.93587552
 40
0.945396641
 40
0.9542067962
 40
0.9623293437
 40
0.9698004176
 40
0.9766722689
 40
0.9830175554
 40
0.9889330671
 40
0.9917694492
 40
0.9945466048
 40
0.9972834962
 40
1.0
 40
1.0
 40
1.0
 40
1.0
 10
12.0935288238
 20
8.958838114
 30
0.0
 10
12.0926776451
 20
8.9580159384
 30
0.0
 10
12.0909796936
 20
8.9562219083
 30
0.0
 10
12.0885398272
 20
8.9532352895
 30
0.0
 10
12.0861104583
 20
8.9498521206
 30
0.0
 10
12.0836963018
 20
8.946079178
 30
0.0
 10
12.0813017512
 20
8.9419235209
 30
0.0
 10
12.0789315565
 20
8.9373931791
 30
0.0
 10
12.0765903754
 20
8.9324970192
 30
0.0
 10
12.0742828644
 20
8.9272446842
 30
0.0
 10
12.0720136963
 20
8.9216465616
 30
0.0
 10
12.0697874072
 20
8.9157137963
 30
0.0
 10
12.0676084997
 20
8.9094582177
 30
0.0
 10
12.0654813939
 20
8.9028923251
 30
0.0
 10
12.0634103535
 20
8.8960292687
 30
0.0
 10
12.0613995982
 20
8.888882801
 30
0.0
 10
12.0594531574
 20
8.8814672478
 30
0.0
 10
12.0569155853
 20
8.8711044107
 30
0.0
 10
12.0539430193
 20
8.8575866658
 30
0.0
 10
12.0507355121
 20
8.840748923
 30
0.0
 10
12.0478685466
 20
8.8232230442
 30
0.0
 10
12.0453653765
 20
8.8051497616
 30
0.0
 10
12.0432463178
 20
8.7866740995
 30
0.0
 10
12.0415285038
 20
8.7679444313
 30
0.0
 10
12.0402257949
 20
8.7491111889
 30
0.0
 10
12.0393486601
 20
8.7303256499
 30
0.0
 10
12.0389040876
 20
8.7117387137
 30
0.0
 10
12.038895495
 20
8.6934996173
 30
0.0
 10
12.0393227947
 20
8.6757549065
 30
0.0
 10
12.0400464728
 20
8.6613466682
 30
0.0
 10
12.0408481439
 20
8.6501779604
 30
0.0
 10
12.0415486697
 20
8.6421028236
 30
0.0
 10
12.0423534494
 20
8.634254769
 30
0.0
 10
12.0432608953
 20
8.6266495455
 30
0.0
 10
12.0442691278
 20
8.6193024238
 30
0.0
 10
12.0453761021
 20
8.6122281445
 30
0.0
 10
12.0465795842
 20
8.6054408914
 30
0.0
 10
12.0478770912
 20
8.5989542545
 30
0.0
 10
12.0492660115
 20
8.5927812066
 30
0.0
 10
12.0507435194
 20
8.5869340661
 30
0.0
 10
12.0523065936
 20
8.5814244635
 30
0.0
 10
12.0539521177
 20
8.5762633248
 30
0.0
 10
12.0556767573
 20
8.5714608132
 30
0.0
 10
12.0574770883
 20
8.5670263124
 30
0.0
 10
12.0593496395
 20
8.5629684056
 30
0.0
 10
12.0612908297
 20
8.5592947992
 30
0.0
 10
12.063297216
 20
8.5560123734
 30
0.0
 10
12.0653655368
 20
8.5531271763
 30
0.0
 10
12.0674927651
 20
8.5506445333
 30
0.0
 10
12.0696767073
 20
8.5485694097
 30
0.0
 10
12.0719147507
 20
8.5469070693
 30
0.0
 10
12.0738511511
 20
8.5458561202
 30
0.0
 10
12.0754116146
 20
8.545241777
 30
0.0
 10
12.07657556
 20
8.5448932895
 30
0.0
 10
12.0777483261
 20
8.5446511557
 30
0.0
 10
12.0785368748
 20
8.5445606692
 30
0.0
 10
12.0789306789
 20
8.5445333536
 30
0.0
  0
SPLINE
  5
352
100
AcDbEntity
  8
0
100
AcDbSpline
 62
7
  6
CONTINUOUS
 70
0
 71
3
 72
61
 73
57
 74
0
 42
0.0000001
 43
0.0000001
 44
0.0000000001
 40
0.0
 40
0.0
 40
0.0
 40
0.0
 40
0.0081437779
 40
0.0169768221
 40
0.026520864
 40
0.0367895896
 40
0.0477882535
 40
0.0595157597
 40
0.0719659078
 40
0.0851281551
 40
0.0989883699
 40
0.1135291231
 40
0.1287302869
 40
0.1445692822
 40
0.1610212227
 40
0.178059342
 40
0.1956550036
 40
0.2137779103
 40
0.2514761113
 40
0.2908853639
 40
0.3317179256
 40
0.3736716501
 40
0.4164332973
 40
0.4596817626
 40
0.5030912704
 40
0.5463345004
 40
0.5890857199
 40
0.6310239422
 40
0.6718360813
 40
0.7112201654
 40
0.7302866913
 40
0.7488897553
 40
0.7669962987
 40
0.7845745492
 40
0.8015943376
 40
0.8180270859
 40
0.8338459997
 40
0.8490263856
 40
0.8635456527
 40
0.8773837462
 40
0.8905234392
 40
0.9029505742
 40
0.9146548141
 40
0.9256300995
 40
0.93587552
 40
0.945396641
 40
0.9542067962
 40
0.9623293437
 40
0.9698004176
 40
0.9766722689
 40
0.9830175554
 40
0.9889330671
 40
0.9917694492
 40
0.9945466048
 40
0.9972834962
 40
1.0
 40
1.0
 40
1.0
 40
1.0
 10
12.0935288238
 20
7.268467933
 30
0.0
 10
12.0926776451
 20
7.2676457574
 30
0.0
 10
12.0909796936
 20
7.2658517273
 30
0.0
 10
12.0885398272
 20
7.2628651085
 30
0.0
 10
12.0861104583
 20
7.2594819395
 30
0.0
 10
12.0836963018
 20
7.255708997
 30
0.0
 10
12.0813017512
 20
7.2515533399
 30
0.0
 10
12.0789315565
 20
7.2470229981
 30
0.0
 10
12.0765903754
 20
7.2421268382
 30
0.0
 10
12.0742828644
 20
7.2368745032
 30
0.0
 10
12.0720136963
 20
7.2312763806
 30
0.0
 10
12.0697874072
 20
7.2253436153
 30
0.0
 10
12.0676084997
 20
7.2190880367
 30
0.0
 10
12.0654813939
 20
7.2125221441
 30
0.0
 10
12.0634103535
 20
7.2056590877
 30
0.0
 10
12.0613995982
 20
7.19851262
 30
0.0
 10
12.0594531574
 20
7.1910970667
 30
0.0
 10
12.0569155853
 20
7.1807342296
 30
0.0
 10
12.0539430193
 20
7.1672164848
 30
0.0
 10
12.0507355121
 20
7.150378742
 30
0.0
 10
12.0478685466
 20
7.1328528632
 30
0.0
 10
12.0453653765
 20
7.1147795806
 30
0.0
 10
12.0432463178
 20
7.0963039185
 30
0.0
 10
12.0415285038
 20
7.0775742503
 30
0.0
 10
12.0402257949
 20
7.0587410079
 30
0.0
 10
12.0393486601
 20
7.0399554689
 30
0.0
 10
12.0389040876
 20
7.0213685327
 30
0.0
 10
12.038895495
 20
7.0031294363
 30
0.0
 10
12.0393227947
 20
6.9853847254
 30
0.0
 10
12.0400464728
 20
6.9709764872
 30
0.0
 10
12.0408481439
 20
6.9598077793
 30
0.0
 10
12.0415486697
 20
6.9517326426
 30
0.0
 10
12.0423534494
 20
6.943884588
 30
0.0
 10
12.0432608953
 20
6.9362793644
 30
0.0
 10
12.0442691278
 20
6.9289322428
 30
0.0
 10
12.0453761021
 20
6.9218579635
 30
0.0
 10
12.0465795842
 20
6.9150707104
 30
0.0
 10
12.0478770912
 20
6.9085840735
 30
0.0
 10
12.0492660115
 20
6.9024110255
 30
0.0
 10
12.0507435194
 20
6.8965638851
 30
0.0
 10
12.0523065936
 20
6.8910542825
 30
0.0
 10
12.0539521177
 20
6.8858931438
 30
0.0
 10
12.0556767573
 20
6.8810906322
 30
0.0
 10
12.0574770883
 20
6.8766561314
 30
0.0
 10
12.0593496395
 20
6.8725982246
 30
0.0
 10
12.0612908297
 20
6.8689246181
 30
0.0
 10
12.063297216
 20
6.8656421924
 30
0.0
 10
12.0653655368
 20
6.8627569953
 30
0.0
 10
12.0674927651
 20
6.8602743523
 30
0.0
 10
12.0696767073
 20
6.8581992287
 30
0.0
 10
12.0719147507
 20
6.8565368882
 30
0.0
 10
12.0738511511
 20
6.8554859392
 30
0.0
 10
12.0754116146
 20
6.854871596
 30
0.0
 10
12.07657556
 20
6.8545231085
 30
0.0
 10
12.0777483261
 20
6.8542809747
 30
0.0
 10
12.0785368748
 20
6.8541904882
 30
0.0
 10
12.0789306789
 20
6.8541631726
 30
0.0
  0
SPLINE
  5
353
100
AcDbEntity
  8
0
100
AcDbSpline
 62
7
  6
CONTINUOUS
 70
0
 71
3
 72
51
 73
47
 74
0
 42
0.0000001
 43
0.0000001
 44
0.0000000001
 40
0.0
 40
0.0
 40
0.0
 40
0.0
 40
0.0417745182
 40
0.0840381526
 40
0.1266602401
 40
0.1695088421
 40
0.2124510407
 40
0.2553535857
 40
0.2980833694
 40
0.3405079697
 40
0.3824961696
 40
0.4239184888
 40
0.4646477158
 40
0.5045594497
 40
0.543532651
 40
0.5814502093
 40
0.6181995334
 40
0.6536731755
 40
0.6877695033
 40
0.7203934427
 40
0.7514573218
 40
0.7663795148
 40
0.7808827261
 40
0.7949585461
 40
0.8085992857
 40
0.8217979826
 40
0.8345485116
 40
0.8468456263
 40
0.8586850779
 40
0.8700637036
 40
0.8809795661
 40
0.8914321058
 40
0.9014223196
 40
0.9109530019
 40
0.9200289921
 40
0.9286575381
 40
0.9368486523
 40
0.9446156358
 40
0.9519755804
 40
0.9589500677
 40
0.9655657995
 40
0.9778459317
 40
0.9836071722
 40
0.9891799125
 40
0.9946230091
 40
1.0
 40
1.0
 40
1.0
 40
1.0
 10
12.3726649289
 20
9.3260214522
 30
0.0
 10
12.3726649289
 20
9.3356385531
 30
0.0
 10
12.372814968
 20
9.3549856587
 30
0.0
 10
12.3734782523
 20
9.3841381533
 30
0.0
 10
12.3745791522
 20
9.4135248944
 30
0.0
 10
12.3761140442
 20
9.4430485573
 30
0.0
 10
12.3780778664
 20
9.4726115007
 30
0.0
 10
12.3804641221
 20
9.5021159064
 30
0.0
 10
12.3832649089
 20
9.531464166
 30
0.0
 10
12.3864709411
 20
9.5605591867
 30
0.0
 10
12.3900715822
 20
9.5893047205
 30
0.0
 10
12.3940548785
 20
9.6176056833
 30
0.0
 10
12.3984075986
 20
9.6453684736
 30
0.0
 10
12.403115276
 20
9.6725012848
 30
0.0
 10
12.4081622564
 20
9.6989144149
 30
0.0
 10
12.4135317482
 20
9.7245205669
 30
0.0
 10
12.4192058764
 20
9.7492351523
 30
0.0
 10
12.4251657436
 20
9.7729765581
 30
0.0
 10
12.4313914831
 20
9.7956665132
 30
0.0
 10
12.437862359
 20
9.817230079
 30
0.0
 10
12.4435140701
 20
9.8344247708
 30
0.0
 10
12.4481519792
 20
9.8475557381
 30
0.0
 10
12.4516315657
 20
9.8569468768
 30
0.0
 10
12.4551560479
 20
9.8660054347
 30
0.0
 10
12.4587225224
 20
9.8747239548
 30
0.0
 10
12.4623280387
 20
9.8830952519
 30
0.0
 10
12.4659696071
 20
9.89111244
 30
0.0
 10
12.4696442234
 20
9.8987689298
 30
0.0
 10
12.4733488522
 20
9.9060584402
 30
0.0
 10
12.4770804448
 20
9.9129750028
 30
0.0
 10
12.4808359408
 20
9.9195129665
 30
0.0
 10
12.484612268
 20
9.925667009
 30
0.0
 10
12.4884063681
 20
9.931432131
 30
0.0
 10
12.4922151768
 20
9.9368036769
 30
0.0
 10
12.4960356759
 20
9.9417773113
 30
0.0
 10
12.4998648623
 20
9.9463490557
 30
0.0
 10
12.5036997958
 20
9.9505152173
 30
0.0
 10
12.5075376676
 20
9.9542724986
 30
0.0
 10
12.5113754514
 20
9.9576176638
 30
0.0
 10
12.5152113919
 20
9.9605483786
 30
0.0
 10
12.5201932329
 20
9.9638172577
 30
0.0
 10
12.5253009376
 20
9.9663736862
 30
0.0
 10
12.5304745133
 20
9.9680693594
 30
0.0
 10
12.5342571285
 20
9.9688871142
 30
0.0
 10
12.5380185272
 20
9.9692753403
 30
0.0
 10
12.5405158167
 20
9.9692467831
 30
0.0
 10
12.5417507117
 20
9.9691611372
 30
0.0
  0
SPLINE
  5
354
100
AcDbEntity
  8
0
100
AcDbSpline
 62
7
  6
CONTINUOUS
 70
0
 71
3
 72
23
 73
19
 74
0
 42
0.0000001
 43
0.0000001
 44
0.0000000001
 40
0.0
 40
0.0
 40
0.0
 40
0.0
 40
0.0637775561
 40
0.1273446565
 40
0.1907020307
 40
0.2538561431
 40
0.3168131834
 40
0.3795821015
 40
0.4421733894
 40
0.5045993415
 40
0.5668738676
 40
0.6290123791
 40
0.6910316472
 40
0.7529496401
 40
0.8147853492
 40
0.8765585998
 40
0.9382898533
 40
1.0
 40
1.0
 40
1.0
 40
1.0
 10
10.335333996
 20
8.6711670743
 30
0.0
 10
10.335333996
 20
8.661986871
 30
0.0
 10
10.3348946193
 20
8.6436536458
 30
0.0
 10
10.3329113503
 20
8.616265281
 30
0.0
 10
10.3296092927
 20
8.5890940944
 30
0.0
 10
10.3249961935
 20
8.5622037014
 30
0.0
 10
10.3190824803
 20
8.5356557196
 30
0.0
 10
10.3118817947
 20
8.5095114685
 30
0.0
 10
10.3034106399
 20
8.483831195
 30
0.0
 10
10.2936884941
 20
8.4586741292
 30
0.0
 10
10.2827377263
 20
8.4340982869
 30
0.0
 10
10.2705835439
 20
8.4101603518
 30
0.0
 10
10.2572539388
 20
8.3869155459
 30
0.0
 10
10.2427796029
 20
8.3644174823
 30
0.0
 10
10.2271939366
 20
8.3427181139
 30
0.0
 10
10.21053268
 20
8.3218673384
 30
0.0
 10
10.1928349197
 20
8.3019139014
 30
0.0
 10
10.1803702346
 20
8.2892382208
 30
0.0
 10
10.1739813628
 20
8.28306706
 30
0.0
  0
SPLINE
  5
355
100
AcDbEntity
  8
0
100
AcDbSpline
 62
7
  6
CONTINUOUS
 70
0
 71
3
 72
23
 73
19
 74
0
 42
0.0000001
 43
0.0000001
 44
0.0000000001
 40
0.0
 40
0.0
 40
0.0
 40
0.0
 40
0.0637775561
 40
0.1273446565
 40
0.1907020307
 40
0.2538561431
 40
0.3168131834
 40
0.3795821015
 40
0.4421733894
 40
0.5045993415
 40
0.5668738676
 40
0.6290123791
 40
0.6910316472
 40
0.7529496401
 40
0.8147853492
 40
0.8765585998
 40
0.9382898533
 40
1.0
 40
1.0
 40
1.0
 40
1.0
 10
10.2455028939
 20
7.2893613528
 30
0.0
 10
10.2455028939
 20
7.2801811495
 30
0.0
 10
10.2450635172
 20
7.2618479242
 30
0.0
 10
10.2430802482
 20
7.2344595594
 30
0.0
 10
10.2397781906
 20
7.2072883729
 30
0.0
 10
10.2351650914
 20
7.1803979798
 30
0.0
 10
10.2292513782
 20
7.153849998
 30
0.0
 10
10.2220506926
 20
7.127705747
 30
0.0
 10
10.2135795378
 20
7.1020254734
 30
0.0
 10
10.203857392
 20
7.0768684076
 30
0.0
 10
10.1929066242
 20
7.0522925654
 30
0.0
 10
10.1807524418
 20
7.0283546303
 30
0.0
 10
10.1674228367
 20
7.0051098243
 30
0.0
 10
10.1529485008
 20
6.9826117608
 30
0.0
 10
10.1373628345
 20
6.9609123923
 30
0.0
 10
10.1207015779
 20
6.9400616169
 30
0.0
 10
10.1030038176
 20
6.9201081799
 30
0.0
 10
10.0905391325
 20
6.9074324993
 30
0.0
 10
10.0841502607
 20
6.9012613385
 30
0.0
  0
SPLINE
  5
356
100
AcDbEntity
  8
0
100
AcDbSpline
 62
7
  6
CONTINUOUS
 70
0
 71
3
 72
23
 73
19
 74
0
 42
0.0000001
 43
0.0000001
 44
0.0000000001
 40
0.0
 40
0.0
 40
0.0
 40
0.0
 40
0.0637767638
 40
0.1273450118
 40
0.1907019674
 40
0.2538561101
 40
0.3168132145
 40
0.3795820843
 40
0.4421733868
 40
0.5045993403
 40
0.5668738673
 40
0.6290123789
 40
0.6910316481
 40
0.752949645
 40
0.8147853545
 40
0.8765586015
 40
0.9382898522
 40
1.0
 40
1.0
 40
1.0
 40
1.0
 10
11.0211414134
 20
8.8650876393
 30
0.0
 10
11.0211414134
 20
8.8599035994
 30
0.0
 10
11.0208932693
 20
8.8495507124
 30
0.0
 10
11.0197733509
 20
8.834084375
 30
0.0
 10
11.017908641
 20
8.8187406174
 30
0.0
 10
11.0153036318
 20
8.8035555069
 30
0.0
 10
11.0119641245
 20
8.7885637324
 30
0.0
 10
11.0078978528
 20
8.7737999506
 30
0.0
 10
11.0031141717
 20
8.7592981749
 30
0.0
 10
10.997624054
 20
8.7450918495
 30
0.0
 10
10.9914401062
 20
8.7312137532
 30
0.0
 10
10.9845765907
 20
8.7176958833
 30
0.0
 10
10.9770493214
 20
8.7045694185
 30
0.0
 10
10.9688756184
 20
8.6918646395
 30
0.0
 10
10.9600743188
 20
8.6796109029
 30
0.0
 10
10.9506656385
 20
8.6678363639
 30
0.0
 10
10.9406716548
 20
8.6565685422
 30
0.0
 10
10.9336328124
 20
8.649410501
 30
0.0
 10
10.9300249891
 20
8.6459256142
 30
0.0
  0
SPLINE
  5
357
100
AcDbEntity
  8
0
100
AcDbSpline
 62
7
  6
CONTINUOUS
 70
0
 71
3
 72
23
 73
19
 74
0
 42
0.0000001
 43
0.0000001
 44
0.0000000001
 40
0.0
 40
0.0
 40
0.0
 40
0.0
 40
0.0637771735
 40
0.1273448473
 40
0.1907019822
 40
0.253856143
 40
0.3168131975
 40
0.3795820985
 40
0.4421733906
 40
0.5045993374
 40
0.5668738654
 40
0.62901238
 40
0.6910316489
 40
0.7529496402
 40
0.814785347
 40
0.8765585971
 40
0.938289852
 40
1.0
 40
1.0
 40
1.0
 40
1.0
 10
11.2732480165
 20
7.6401966326
 30
0.0
 10
11.2732480165
 20
7.6334079446
 30
0.0
 10
11.2729230819
 20
7.619850568
 30
0.0
 10
11.2714564862
 20
7.5995969697
 30
0.0
 10
11.2690146001
 20
7.5795039327
 30
0.0
 10
11.2656032477
 20
7.5596185959
 30
0.0
 10
11.261230075
 20
7.5399864496
 30
0.0
 10
11.2559051687
 20
7.5206528724
 30
0.0
 10
11.2496407644
 20
7.5016624055
 30
0.0
 10
11.2424512683
 20
7.4830588431
 30
0.0
 10
11.2343532207
 20
7.4648850891
 30
0.0
 10
11.2253652429
 20
7.4471830682
 30
0.0
 10
11.2155080252
 20
7.4299936256
 30
0.0
 10
11.2048042843
 20
7.4133563979
 30
0.0
 10
11.1932787257
 20
7.397309799
 30
0.0
 10
11.1809577795
 20
7.3818907261
 30
0.0
 10
11.1678703417
 20
7.3671352316
 30
0.0
 10
11.1586527341
 20
7.3577616248
 30
0.0
 10
11.1539281833
 20
7.3531980746
 30
0.0
  0
SPLINE
  5
358
100
AcDbEntity
  8
0
100
AcDbSpline
 62
7
  6
CONTINUOUS
 70
0
 71
3
 72
16
 73
12
 74
0
 42
0.0000001
 43
0.0000001
 44
0.0000000001
 40
0.0
 40
0.0
 40
0.0
 40
0.0
 40
0.108143846
 40
0.2181185702
 40
0.33165846
 40
0.4503236032
 40
0.5120296138
 40
0.5755044439
 40
0.7082526723
 40
0.8495205869
 40
1.0
 40
1.0
 40
1.0
 40
1.0
 10
12.1081269687
 20
8.9655221515
 30
0.0
 10
12.1075323902
 20
8.9655633936
 30
0.0
 10
12.1063259557
 20
8.9655647948
 30
0.0
 10
12.1045092578
 20
8.9653221
 30
0.0
 10
12.1026822487
 20
8.964836025
 30
0.0
 10
12.1011732053
 20
8.9642374985
 30
0.0
 10
12.0999664092
 20
8.9636451072
 30
0.0
 10
12.0987229724
 20
8.9629551058
 30
0.0
 10
12.0971636218
 20
8.9619361268
 30
0.0
 10
12.0953175689
 20
8.9604953804
 30
0.0
 10
12.0941253223
 20
8.9594142874
 30
0.0
 10
12.0935288238
 20
8.958838114
 30
0.0
  0
SPLINE
  5
359
100
AcDbEntity
  8
0
100
AcDbSpline
 62
7
  6
CONTINUOUS
 70
0
 71
3
 72
16
 73
12
 74
0
 42
0.0000001
 43
0.0000001
 44
0.0000000001
 40
0.0
 40
0.0
 40
0.0
 40
0.0
 40
0.108143846
 40
0.2181185702
 40
0.33165846
 40
0.4503236032
 40
0.5120296138
 40
0.5755044439
 40
0.7082526723
 40
0.8495205869
 40
1.0
 40
1.0
 40
1.0
 40
1.0
 10
12.1081269687
 20
7.2751519705
 30
0.0
 10
12.1075323902
 20
7.2751932125
 30
0.0
 10
12.1063259557
 20
7.2751946138
 30
0.0
 10
12.1045092578
 20
7.274951919
 30
0.0
 10
12.1026822487
 20
7.274465844
 30
0.0
 10
12.1011732053
 20
7.2738673175
 30
0.0
 10
12.0999664092
 20
7.2732749262
 30
0.0
 10
12.0987229724
 20
7.2725849247
 30
0.0
 10
12.0971636218
 20
7.2715659458
 30
0.0
 10
12.0953175689
 20
7.2701251994
 30
0.0
 10
12.0941253223
 20
7.2690441063
 30
0.0
 10
12.0935288238
 20
7.268467933
 30
0.0
  0
SPLINE
  5
35A
100
AcDbEntity
  8
0
100
AcDbSpline
 62
7
  6
CONTINUOUS
 70
0
 71
3
 72
40
 73
36
 74
0
 42
0.0000001
 43
0.0000001
 44
0.0000000001
 40
0.0
 40
0.0
 40
0.0
 40
0.0
 40
0.0063160317
 40
0.0126709803
 40
0.0191029757
 40
0.0256486833
 40
0.0323427436
 40
0.0392172655
 40
0.0536154772
 40
0.0690526586
 40
0.0856860581
 40
0.1036344402
 40
0.1229845836
 40
0.1437975252
 40
0.1661136309
 40
0.1899565788
 40
0.215336668
 40
0.2422532113
 40
0.2706962166
 40
0.3006479298
 40
0.3320839776
 40
0.3649740847
 40
0.3992827974
 40
0.4349701487
 40
0.4719920266
 40
0.5103004985
 40
0.5498442818
 40
0.5905689983
 40
0.6324173162
 40
0.6753293134
 40
0.7192426811
 40
0.7640927959
 40
0.8098131949
 40
0.9035868196
 40
1.0
 40
1.0
 40
1.0
 40
1.0
 10
12.4704213613
 20
8.9406315697
 30
0.0
 10
12.4695500715
 20
8.9406919978
 30
0.0
 10
12.4678062399
 20
8.9408845382
 30
0.0
 10
12.4652100431
 20
8.9413864405
 30
0.0
 10
12.4626311967
 20
8.9421013395
 30
0.0
 10
12.4600712013
 20
8.9430287024
 30
0.0
 10
12.4575311146
 20
8.94416801
 30
0.0
 10
12.454120295
 20
8.9459964054
 30
0.0
 10
12.4498997282
 20
8.9488434364
 30
0.0
 10
12.4450179449
 20
8.9530400802
 30
0.0
 10
12.4402449327
 20
8.9580598672
 30
0.0
 10
12.4355862176
 20
8.9638934942
 30
0.0
 10
12.4310468108
 20
8.9705318128
 30
0.0
 10
12.4266327015
 20
8.9779646101
 30
0.0
 10
12.4223501568
 20
8.9861804712
 30
0.0
 10
12.4182056154
 20
8.9951665802
 30
0.0
 10
12.4142055748
 20
9.0049087638
 30
0.0
 10
12.4103564796
 20
9.0153914876
 30
0.0
 10
12.4066645774
 20
9.0265978681
 30
0.0
 10
12.4031359326
 20
9.0385097476
 30
0.0
 10
12.3997764013
 20
9.0511077458
 30
0.0
 10
12.3965915518
 20
9.0643712823
 30
0.0
 10
12.3935866646
 20
9.0782786309
 30
0.0
 10
12.3907667547
 20
9.09280698
 30
0.0
 10
12.3881365285
 20
9.1079324633
 30
0.0
 10
12.3857003491
 20
9.1236301994
 30
0.0
 10
12.3834622802
 20
9.1398743532
 30
0.0
 10
12.3814260688
 20
9.1566381766
 30
0.0
 10
12.3795950921
 20
9.1738940466
 30
0.0
 10
12.3779723964
 20
9.1916135228
 30
0.0
 10
12.376560711
 20
9.209767385
 30
0.0
 10
12.3753623504
 20
9.2283257339
 30
0.0
 10
12.3740406348
 20
9.2537831857
 30
0.0
 10
12.3729473827
 20
9.2863893795
 30
0.0
 10
12.3726649289
 20
9.312689408
 30
0.0
 10
12.3726649289
 20
9.3260214522
 30
0.0
  0
SPLINE
  5
35B
100
AcDbEntity
  8
0
100
AcDbSpline
 62
7
  6
CONTINUOUS
 70
0
 71
3
 72
21
 73
17
 74
0
 42
0.0000001
 43
0.0000001
 44
0.0000000001
 40
0.0
 40
0.0
 40
0.0
 40
0.0
 40
0.0617147761
 40
0.1234506677
 40
0.1852285528
 40
0.2470689013
 40
0.30899155
 40
0.3710154761
 40
0.4331586505
 40
0.4954378572
 40
0.5578685131
 40
0.6204644763
 40
0.6832380473
 40
0.746200107
 40
0.8726822618
 40
1.0
 40
1.0
 40
1.0
 40
1.0
 10
11.0234117359
 20
7.5121461736
 30
0.0
 10
11.0259350601
 20
7.5145835189
 30
0.0
 10
11.0308580666
 20
7.5195898695
 30
0.0
 10
11.037847894
 20
7.5274706345
 30
0.0
 10
11.0444283356
 20
7.5357058154
 30
0.0
 10
11.0505840092
 20
7.5442761204
 30
0.0
 10
11.0563007221
 20
7.5531618993
 30
0.0
 10
11.0615653094
 20
7.562342609
 30
0.0
 10
11.0663656977
 20
7.5717970531
 30
0.0
 10
11.0706907473
 20
7.5815034601
 30
0.0
 10
11.0745305481
 20
7.5914394346
 30
0.0
 10
11.0778763036
 20
7.6015819766
 30
0.0
 10
11.0807202629
 20
7.6119080102
 30
0.0
 10
11.0838387977
 20
7.6259075003
 30
0.0
 10
11.0864480171
 20
7.643754595
 30
0.0
 10
11.0871388768
 20
7.6581914691
 30
0.0
 10
11.0871388768
 20
7.6654289974
 30
0.0
  0
SPLINE
  5
35C
100
AcDbEntity
  8
0
100
AcDbSpline
 62
7
  6
CONTINUOUS
 70
0
 71
3
 72
43
 73
39
 74
0
 42
0.0000001
 43
0.0000001
 44
0.0000000001
 40
0.0
 40
0.0
 40
0.0
 40
0.0
 40
0.0149723204
 40
0.0299477006
 40
0.0449291793
 40
0.0599197625
 40
0.0899340837
 40
0.1200191761
 40
0.1350977684
 40
0.1502017219
 40
0.1804888825
 40
0.2109025329
 40
0.2414558125
 40
0.2721586361
 40
0.3030175147
 40
0.3340354591
 40
0.3652119671
 40
0.3965430872
 40
0.4280215545
 40
0.4596369905
 40
0.491376161
 40
0.5232232825
 40
0.5551603712
 40
0.5871676259
 40
0.6192238382
 40
0.6513068229
 40
0.683393863
 40
0.7154621607
 40
0.7474892906
 40
0.7794536471
 40
0.8113348816
 40
0.843114318
 40
0.8747753538
 40
0.9063037992
 40
0.9376882654
 40
0.9533260383
 40
0.9689254782
 40
1.0
 40
1.0
 40
1.0
 40
1.0
 10
10.6968808525
 20
7.8501957993
 30
0.0
 10
10.6988303236
 20
7.8520788447
 30
0.0
 10
10.7028049701
 20
7.8557682571
 30
0.0
 10
10.7089828374
 20
7.8610615845
 30
0.0
 10
10.7153687628
 20
7.8661076888
 30
0.0
 10
10.7241512964
 20
7.8724983689
 30
0.0
 10
10.7356113074
 20
7.8798373235
 30
0.0
 10
10.7476284476
 20
7.8862566222
 30
0.0
 10
10.7575394538
 20
7.8908234436
 30
0.0
 10
10.7676552528
 20
7.8950131332
 30
0.0
 10
10.780633318
 20
7.8995183535
 30
0.0
 10
10.7966268447
 20
7.9037170782
 30
0.0
 10
10.8129693535
 20
7.9066915835
 30
0.0
 10
10.8295702836
 20
7.9084254407
 30
0.0
 10
10.8463384402
 20
7.9089094017
 30
0.0
 10
10.8631815604
 20
7.9081410018
 30
0.0
 10
10.8800070699
 20
7.9061246801
 30
0.0
 10
10.8967225198
 20
7.9028717133
 30
0.0
 10
10.9132361061
 20
7.898400155
 30
0.0
 10
10.929457163
 20
7.8927347282
 30
0.0
 10
10.9452966545
 20
7.8859066861
 30
0.0
 10
10.9606676561
 20
7.8779536381
 30
0.0
 10
10.9754858252
 20
7.8689193422
 30
0.0
 10
10.9896698574
 20
7.8588534654
 30
0.0
 10
11.0031419276
 20
7.8478113119
 30
0.0
 10
11.0158281112
 20
7.8358535221
 30
0.0
 10
11.027658786
 20
7.8230457419
 30
0.0
 10
11.0385690095
 20
7.8094582669
 30
0.0
 10
11.0484988725
 20
7.7951656585
 30
0.0
 10
11.0573938244
 20
7.7802463443
 30
0.0
 10
11.0652049718
 20
7.7647821754
 30
0.0
 10
11.0718893407
 20
7.7488580468
 30
0.0
 10
11.0774101327
 20
7.7325612004
 30
0.0
 10
11.0817368402
 20
7.7159816313
 30
0.0
 10
11.0843308043
 20
7.7019866813
 30
0.0
 10
11.0857859364
 20
7.6907418976
 30
0.0
 10
11.0868244291
 20
7.6795078768
 30
0.0
 10
11.0871388768
 20
7.6710543481
 30
0.0
 10
11.0871388768
 20
7.6654289974
 30
0.0
  0
SPLINE
  5
35D
100
AcDbEntity
  8
0
100
AcDbSpline
 62
7
  6
CONTINUOUS
 70
0
 71
3
 72
39
 73
35
 74
0
 42
0.0000001
 43
0.0000001
 44
0.0000000001
 40
0.0
 40
0.0
 40
0.0
 40
0.0
 40
0.0299424698
 40
0.0599093171
 40
0.0899243244
 40
0.1200101049
 40
0.1501875654
 40
0.1804754197
 40
0.2108897678
 40
0.2414437479
 40
0.2721472748
 40
0.3030068601
 40
0.3340255156
 40
0.3652027379
 40
0.3965345747
 40
0.4280137612
 40
0.4596299196
 40
0.491369815
 40
0.5232176628
 40
0.555155479
 40
0.5871634623
 40
0.619220404
 40
0.6513041182
 40
0.6833918873
 40
0.7154609133
 40
0.74748877
 40
0.7794538516
 40
0.811335809
 40
0.8431159677
 40
0.8747777197
 40
0.9063068786
 40
0.9376920899
 40
0.9689246486
 40
1.0
 40
1.0
 40
1.0
 40
1.0
 10
10.5425530722
 20
7.9861439156
 30
0.0
 10
10.5498525281
 20
7.9931946247
 30
0.0
 10
10.565025442
 20
8.0067269863
 30
0.0
 10
10.5893347854
 20
8.0251624372
 30
0.0
 10
10.6150698726
 20
8.041642508
 30
0.0
 10
10.6420868889
 20
8.0560747756
 30
0.0
 10
10.6702373024
 20
8.0683803915
 30
0.0
 10
10.699365763
 20
8.0784916932
 30
0.0
 10
10.7293117563
 20
8.0863533474
 30
0.0
 10
10.7599102932
 20
8.0919224597
 30
0.0
 10
10.7909929056
 20
8.0951687828
 30
0.0
 10
10.8223885555
 20
8.096074855
 30
0.0
 10
10.8539245741
 20
8.0946360723
 30
0.0
 10
10.8854276089
 20
8.0908607613
 30
0.0
 10
10.9167245726
 20
8.0847700498
 30
0.0
 10
10.9476435784
 20
8.0763977371
 30
0.0
 10
10.9780148633
 20
8.0657900882
 30
0.0
 10
11.007671721
 20
8.0530056249
 30
0.0
 10
11.0364514089
 20
8.0381147857
 30
0.0
 10
11.0641960116
 20
8.0211995001
 30
0.0
 10
11.0907532942
 20
8.0023527482
 30
0.0
 10
11.1159775293
 20
7.9816780643
 30
0.0
 10
11.1397303225
 20
7.9592890098
 30
0.0
 10
11.1618813229
 20
7.9353084994
 30
0.0
 10
11.1823089345
 20
7.9098681443
 30
0.0
 10
11.2009009648
 20
7.8831075333
 30
0.0
 10
11.2175552897
 20
7.8551735162
 30
0.0
 10
11.2321803775
 20
7.8262193694
 30
0.0
 10
11.2446957742
 20
7.7964039803
 30
0.0
 10
11.2550325302
 20
7.7658909188
 30
0.0
 10
11.2631336468
 20
7.7348478161
 30
0.0
 10
11.2689542947
 20
7.703444562
 30
0.0
 10
11.2724623086
 20
7.6718558189
 30
0.0
 10
11.2732480165
 20
7.6507292319
 30
0.0
 10
11.2732480165
 20
7.6401966326
 30
0.0
  0
SPLINE
  5
35E
100
AcDbEntity
  8
0
100
AcDbSpline
 62
7
  6
CONTINUOUS
 70
0
 71
3
 72
46
 73
42
 74
0
 42
0.0000001
 43
0.0000001
 44
0.0000000001
 40
0.0
 40
0.0
 40
0.0
 40
0.0
 40
0.0149720525
 40
0.0299471649
 40
0.0449283772
 40
0.0599186917
 40
0.0749210573
 40
0.0899383484
 40
0.1049733476
 40
0.1200287333
 40
0.1351070597
 40
0.1502107421
 40
0.1653420474
 40
0.1805030776
 40
0.1956957572
 40
0.2109218287
 40
0.2414745667
 40
0.2721768461
 40
0.3030351766
 40
0.3340525707
 40
0.3652285255
 40
0.3965590884
 40
0.4280369959
 40
0.4596518697
 40
0.4913904744
 40
0.523237028
 40
0.5551735471
 40
0.5871802301
 40
0.6192358692
 40
0.6513182802
 40
0.6834047461
 40
0.7154724694
 40
0.7474990252
 40
0.7794628091
 40
0.811343472
 40
0.843122339
 40
0.8747828041
 40
0.9063106918
 40
0.9376946023
 40
0.9689259241
 40
1.0
 40
1.0
 40
1.0
 40
1.0
 10
9.3472348279
 20
9.1389818418
 30
0.0
 10
9.3521707251
 20
9.1437495404
 30
0.0
 10
9.3622342641
 20
9.1530906979
 30
0.0
 10
9.3778760696
 20
9.1664930541
 30
0.0
 10
9.3940445871
 20
9.179269078
 30
0.0
 10
9.4107172003
 20
9.191400959
 30
0.0
 10
9.4278710483
 20
9.2028720877
 30
0.0
 10
9.4454825389
 20
9.2136665999
 30
0.0
 10
9.4635273966
 20
9.2237697194
 30
0.0
 10
9.4819807903
 20
9.2331675479
 30
0.0
 10
9.5008173554
 20
9.241847101
 30
0.0
 10
9.5200111264
 20
9.2497965184
 30
0.0
 10
9.5395357263
 20
9.2570048679
 30
0.0
 10
9.5593642041
 20
9.2634621705
 30
0.0
 10
9.5794696376
 20
9.2691596848
 30
0.0
 10
9.6066363735
 20
9.2757396411
 30
0.0
 10
9.6411618359
 20
9.2820237682
 30
0.0
 10
9.6831930209
 20
9.2864134175
 30
0.0
 10
9.7256487828
 20
9.2876387795
 30
0.0
 10
9.7682940224
 20
9.2856931582
 30
0.0
 10
9.8108947518
 20
9.2805879336
 30
0.0
 10
9.853216798
 20
9.2723516642
 30
0.0
 10
9.8950277405
 20
9.261030005
 30
0.0
 10
9.936098014
 20
9.246685571
 30
0.0
 10
9.9762022082
 20
9.2293975351
 30
0.0
 10
10.0151202168
 20
9.2092610672
 30
0.0
 10
10.0526384894
 20
9.1863869649
 30
0.0
 10
10.0885512014
 20
9.1609010247
 30
0.0
 10
10.1226612806
 20
9.1329432308
 30
0.0
 10
10.1547815459
 20
9.1026671123
 30
0.0
 10
10.184735762
 20
9.0702389223
 30
0.0
 10
10.2123594751
 20
9.0358366126
 30
0.0
 10
10.2375009756
 20
8.9996489537
 30
0.0
 10
10.2600222008
 20
8.9618745481
 30
0.0
 10
10.2797993336
 20
8.9227206393
 30
0.0
 10
10.2967235361
 20
8.8824020745
 30
0.0
 10
10.3107016642
 20
8.8411400804
 30
0.0
 10
10.3216566163
 20
8.7991613405
 30
0.0
 10
10.3295277235
 20
8.756695554
 30
0.0
 10
10.3342714954
 20
8.7139789451
 30
0.0
 10
10.335333996
 20
8.6854100199
 30
0.0
 10
10.335333996
 20
8.6711670743
 30
0.0
  0
SPLINE
  5
35F
100
AcDbEntity
  8
0
100
AcDbSpline
 62
7
  6
CONTINUOUS
 70
0
 71
3
 72
39
 73
35
 74
0
 42
0.0000001
 43
0.0000001
 44
0.0000000001
 40
0.0
 40
0.0
 40
0.0
 40
0.0
 40
0.0299424713
 40
0.0599093189
 40
0.0899243252
 40
0.1200101041
 40
0.1501875624
 40
0.1804754141
 40
0.2108897589
 40
0.2414437364
 40
0.2721472611
 40
0.3030068436
 40
0.3340254952
 40
0.3652027139
 40
0.3965345487
 40
0.4280137345
 40
0.459629892
 40
0.4913697861
 40
0.5232176333
 40
0.5551554497
 40
0.5871634339
 40
0.6192203769
 40
0.6513040927
 40
0.6833918636
 40
0.7154608914
 40
0.7474887506
 40
0.7794538354
 40
0.8113357959
 40
0.8431159558
 40
0.8747777127
 40
0.9063068657
 40
0.9376920949
 40
0.9689246535
 40
1.0
 40
1.0
 40
1.0
 40
1.0
 10
9.5145719707
 20
8.9947449063
 30
0.0
 10
9.5207930932
 20
9.000754055
 30
0.0
 10
9.5337245309
 20
9.0122873771
 30
0.0
 10
9.5544427021
 20
9.0279994908
 30
0.0
 10
9.5763759948
 20
9.0420450978
 30
0.0
 10
9.5994018523
 20
9.0543454115
 30
0.0
 10
9.6233936822
 20
9.0648332312
 30
0.0
 10
9.6482190787
 20
9.0734509021
 30
0.0
 10
9.6737412419
 20
9.0801512632
 30
0.0
 10
9.6998195611
 20
9.0848977325
 30
0.0
 10
9.7263104509
 20
9.0876645379
 30
0.0
 10
9.7530681372
 20
9.0884368086
 30
0.0
 10
9.7799454603
 20
9.0872106442
 30
0.0
 10
9.8067946783
 20
9.0839931166
 30
0.0
 10
9.8334682705
 20
9.0788022157
 30
0.0
 10
9.859819737
 20
9.0716667422
 30
0.0
 10
9.8857044001
 20
9.0626261587
 30
0.0
 10
9.910980183
 20
9.0517303423
 30
0.0
 10
9.935508378
 20
9.0390393096
 30
0.0
 10
9.9591543958
 20
9.0246228854
 30
0.0
 10
9.9817884938
 20
9.008560321
 30
0.0
 10
10.0032864757
 20
8.9909398596
 30
0.0
 10
10.0235303794
 20
8.9718582729
 30
0.0
 10
10.0424091107
 20
8.9514203216
 30
0.0
 10
10.0598190411
 20
8.9297381803
 30
0.0
 10
10.075664571
 20
8.9069308301
 30
0.0
 10
10.0898586499
 20
8.8831234154
 30
0.0
 10
10.1023232463
 20
8.8584465594
 30
0.0
 10
10.1129897893
 20
8.8330356796
 30
0.0
 10
10.1217995353
 20
8.8070301962
 30
0.0
 10
10.128703929
 20
8.7805729738
 30
0.0
 10
10.1336647244
 20
8.7538088002
 30
0.0
 10
10.1366545199
 20
8.7268865382
 30
0.0
 10
10.1373241564
 20
8.7088809023
 30
0.0
 10
10.1373241564
 20
8.699904245
 30
0.0
  0
SPLINE
  5
360
100
AcDbEntity
  8
0
100
AcDbSpline
 62
7
  6
CONTINUOUS
 70
0
 71
3
 72
39
 73
35
 74
0
 42
0.0000001
 43
0.0000001
 44
0.0000000001
 40
0.0
 40
0.0
 40
0.0
 40
0.0
 40
0.029942471
 40
0.0599093185
 40
0.089924325
 40
0.1200101043
 40
0.1501875632
 40
0.1804754155
 40
0.2108897611
 40
0.2414437393
 40
0.2721472649
 40
0.3030068482
 40
0.3340255005
 40
0.3652027199
 40
0.3965345553
 40
0.4280137416
 40
0.4596298994
 40
0.4913697937
 40
0.523217641
 40
0.5551554573
 40
0.5871634413
 40
0.619220384
 40
0.6513040994
 40
0.6833918697
 40
0.715460897
 40
0.7474887556
 40
0.7794538398
 40
0.8113357995
 40
0.8431159588
 40
0.874777715
 40
0.9063068673
 40
0.9376920959
 40
0.968924654
 40
1.0
 40
1.0
 40
1.0
 40
1.0
 10
10.463155644
 20
9.1292650544
 30
0.0
 10
10.4687297727
 20
9.1346492447
 30
0.0
 10
10.480316346
 20
9.1449830874
 30
0.0
 10
10.4988798331
 20
9.1590611206
 30
0.0
 10
10.5185320671
 20
9.1716459642
 30
0.0
 10
10.5391632375
 20
9.1826670253
 30
0.0
 10
10.5606599174
 20
9.1920640923
 30
0.0
 10
10.5829034711
 20
9.1997855069
 30
0.0
 10
10.6057713263
 20
9.2057890126
 30
0.0
 10
10.6291374958
 20
9.2100418323
 30
0.0
 10
10.6528733272
 20
9.2125208744
 30
0.0
 10
10.6768482071
 20
9.2132128145
 30
0.0
 10
10.7009302804
 20
9.2121141579
 30
0.0
 10
10.7249871705
 20
9.2092312413
 30
0.0
 10
10.7488866991
 20
9.2045801837
 30
0.0
 10
10.7724976024
 20
9.1981867904
 30
0.0
 10
10.7956902494
 20
9.19008642
 30
0.0
 10
10.8183373393
 20
9.1803237624
 30
0.0
 10
10.8403145903
 20
9.1689525926
 30
0.0
 10
10.8615014104
 20
9.1560354733
 30
0.0
 10
10.8817815505
 20
9.1416434138
 30
0.0
 10
10.9010437307
 20
9.12585548
 30
0.0
 10
10.9191822572
 20
9.1087583792
 30
0.0
 10
10.9360975897
 20
9.090445977
 30
0.0
 10
10.9516968773
 20
9.0710187817
 30
0.0
 10
10.9658944628
 20
9.0505834003
 30
0.0
 10
10.9786123489
 20
9.029251962
 30
0.0
 10
10.9897806198
 20
9.0071415052
 30
0.0
 10
10.9993378357
 20
8.9843733638
 30
0.0
 10
11.0072313626
 20
8.9610724582
 30
0.0
 10
11.0134176951
 20
8.9373667949
 30
0.0
 10
11.0178625646
 20
8.9133861036
 30
0.0
 10
11.0205414195
 20
8.8892637654
 30
0.0
 10
11.0211414134
 20
8.8731307214
 30
0.0
 10
11.0211414134
 20
8.8650876393
 30
0.0
  0
SPLINE
  5
361
100
AcDbEntity
  8
0
100
AcDbSpline
 62
7
  6
CONTINUOUS
 70
0
 71
3
 72
23
 73
19
 74
0
 42
0.0000001
 43
0.0000001
 44
0.0000000001
 40
0.0
 40
0.0
 40
0.0
 40
0.0
 40
0.0617101471
 40
0.1234413975
 40
0.1852146443
 40
0.247050354
 40
0.3089683512
 40
0.3709876208
 40
0.4331261329
 40
0.4954006604
 40
0.5578266143
 40
0.6204179171
 40
0.6831867871
 40
0.7461438917
 40
0.8092980342
 40
0.8726549895
 40
0.936223237
 40
1.0
 40
1.0
 40
1.0
 40
1.0
 10
10.0356319295
 20
8.4553039744
 30
0.0
 10
10.0396585102
 20
8.4591933564
 30
0.0
 10
10.0475143455
 20
8.4671822399
 30
0.0
 10
10.0586683229
 20
8.4797579291
 30
0.0
 10
10.0691690609
 20
8.4928991494
 30
0.0
 10
10.0789919197
 20
8.5065751869
 30
0.0
 10
10.0881143373
 20
8.5207546183
 30
0.0
 10
10.0965152899
 20
8.5354046799
 30
0.0
 10
10.1041754473
 20
8.5504915761
 30
0.0
 10
10.1110771602
 20
8.5659805095
 30
0.0
 10
10.1172045105
 20
8.581835769
 30
0.0
 10
10.1225434288
 20
8.598020771
 30
0.0
 10
10.1270816687
 20
8.6144981897
 30
0.0
 10
10.1308087894
 20
8.6312300638
 30
0.0
 10
10.1337161594
 20
8.6481777139
 30
0.0
 10
10.1357973043
 20
8.6653024251
 30
0.0
 10
10.1370472105
 20
8.6825639437
 30
0.0
 10
10.1373241564
 20
8.6941184925
 30
0.0
 10
10.1373241564
 20
8.699904245
 30
0.0
  0
SPLINE
  5
362
100
AcDbEntity
  8
0
100
AcDbSpline
 62
7
  6
CONTINUOUS
 70
0
 71
3
 72
23
 73
19
 74
0
 42
0.0000001
 43
0.0000001
 44
0.0000000001
 40
0.0
 40
0.0
 40
0.0
 40
0.0
 40
0.0617101471
 40
0.1234413975
 40
0.1852146443
 40
0.247050354
 40
0.3089683512
 40
0.3709876208
 40
0.4331261329
 40
0.4954006604
 40
0.5578266143
 40
0.6204179171
 40
0.6831867871
 40
0.7461438917
 40
0.8092980342
 40
0.8726549895
 40
0.936223237
 40
1.0
 40
1.0
 40
1.0
 40
1.0
 10
9.9458008274
 20
7.0734982529
 30
0.0
 10
9.9498274081
 20
7.0773876349
 30
0.0
 10
9.9576832434
 20
7.0853765183
 30
0.0
 10
9.9688372208
 20
7.0979522076
 30
0.0
 10
9.9793379588
 20
7.1110934279
 30
0.0
 10
9.9891608176
 20
7.1247694654
 30
0.0
 10
9.9982832352
 20
7.1389488968
 30
0.0
 10
10.0066841878
 20
7.1535989584
 30
0.0
 10
10.0143443452
 20
7.1686858546
 30
0.0
 10
10.0212460581
 20
7.184174788
 30
0.0
 10
10.0273734084
 20
7.2000300474
 30
0.0
 10
10.0327123267
 20
7.2162150494
 30
0.0
 10
10.0372505666
 20
7.2326924682
 30
0.0
 10
10.0409776873
 20
7.2494243422
 30
0.0
 10
10.0438850573
 20
7.2663719924
 30
0.0
 10
10.0459662022
 20
7.2834967036
 30
0.0
 10
10.0472161084
 20
7.3007582222
 30
0.0
 10
10.0474930543
 20
7.312312771
 30
0.0
 10
10.0474930543
 20
7.3180985235
 30
0.0
  0
SPLINE
  5
363
100
AcDbEntity
  8
0
100
AcDbSpline
 62
7
  6
CONTINUOUS
 70
0
 71
3
 72
39
 73
35
 74
0
 42
0.0000001
 43
0.0000001
 44
0.0000000001
 40
0.0
 40
0.0
 40
0.0
 40
0.0
 40
0.0299424713
 40
0.0599093189
 40
0.0899243252
 40
0.1200101041
 40
0.1501875624
 40
0.1804754141
 40
0.2108897589
 40
0.2414437364
 40
0.2721472611
 40
0.3030068436
 40
0.3340254952
 40
0.3652027139
 40
0.3965345487
 40
0.4280137345
 40
0.459629892
 40
0.4913697861
 40
0.5232176333
 40
0.5551554497
 40
0.5871634339
 40
0.6192203769
 40
0.6513040927
 40
0.6833918636
 40
0.7154608914
 40
0.7474887506
 40
0.7794538354
 40
0.8113357959
 40
0.8431159558
 40
0.8747777127
 40
0.9063068657
 40
0.9376920949
 40
0.9689246535
 40
1.0
 40
1.0
 40
1.0
 40
1.0
 10
9.4247408686
 20
7.6129391848
 30
0.0
 10
9.4309619911
 20
7.6189483334
 30
0.0
 10
9.4438934288
 20
7.6304816555
 30
0.0
 10
9.4646116
 20
7.6461937692
 30
0.0
 10
9.4865448927
 20
7.6602393763
 30
0.0
 10
9.5095707502
 20
7.6725396899
 30
0.0
 10
9.5335625801
 20
7.6830275096
 30
0.0
 10
9.5583879766
 20
7.6916451806
 30
0.0
 10
9.5839101398
 20
7.6983455416
 30
0.0
 10
9.609988459
 20
7.7030920109
 30
0.0
 10
9.6364793488
 20
7.7058588164
 30
0.0
 10
9.6632370351
 20
7.7066310871
 30
0.0
 10
9.6901143582
 20
7.7054049227
 30
0.0
 10
9.7169635762
 20
7.702187395
 30
0.0
 10
9.7436371684
 20
7.6969964941
 30
0.0
 10
9.7699886349
 20
7.6898610206
 30
0.0
 10
9.795873298
 20
7.6808204371
 30
0.0
 10
9.8211490809
 20
7.6699246207
 30
0.0
 10
9.8456772759
 20
7.6572335881
 30
0.0
 10
9.8693232937
 20
7.6428171639
 30
0.0
 10
9.8919573917
 20
7.6267545994
 30
0.0
 10
9.9134553736
 20
7.609134138
 30
0.0
 10
9.9336992773
 20
7.5900525513
 30
0.0
 10
9.9525780086
 20
7.5696146
 30
0.0
 10
9.969987939
 20
7.5479324587
 30
0.0
 10
9.9858334689
 20
7.5251251086
 30
0.0
 10
10.0000275478
 20
7.5013176938
 30
0.0
 10
10.0124921442
 20
7.4766408378
 30
0.0
 10
10.0231586872
 20
7.4512299581
 30
0.0
 10
10.0319684332
 20
7.4252244747
 30
0.0
 10
10.0388728269
 20
7.3987672522
 30
0.0
 10
10.0438336223
 20
7.3720030786
 30
0.0
 10
10.0468234178
 20
7.3450808167
 30
0.0
 10
10.0474930543
 20
7.3270751808
 30
0.0
 10
10.0474930543
 20
7.3180985235
 30
0.0
  0
SPLINE
  5
364
100
AcDbEntity
  8
0
100
AcDbSpline
 62
7
  6
CONTINUOUS
 70
0
 71
3
 72
46
 73
42
 74
0
 42
0.0000001
 43
0.0000001
 44
0.0000000001
 40
0.0
 40
0.0
 40
0.0
 40
0.0
 40
0.0149720525
 40
0.0299471649
 40
0.0449283772
 40
0.0599186917
 40
0.0749210573
 40
0.0899383484
 40
0.1049733476
 40
0.1200287333
 40
0.1351070597
 40
0.1502107421
 40
0.1653420474
 40
0.1805030776
 40
0.1956957572
 40
0.2109218287
 40
0.2414745667
 40
0.2721768461
 40
0.3030351766
 40
0.3340525707
 40
0.3652285255
 40
0.3965590884
 40
0.4280369959
 40
0.4596518697
 40
0.4913904744
 40
0.523237028
 40
0.5551735471
 40
0.5871802301
 40
0.6192358692
 40
0.6513182802
 40
0.6834047461
 40
0.7154724694
 40
0.7474990252
 40
0.7794628091
 40
0.811343472
 40
0.843122339
 40
0.8747828041
 40
0.9063106918
 40
0.9376946023
 40
0.9689259241
 40
1.0
 40
1.0
 40
1.0
 40
1.0
 10
9.2574037258
 20
7.7571761203
 30
0.0
 10
9.262339623
 20
7.7619438189
 30
0.0
 10
9.272403162
 20
7.7712849764
 30
0.0
 10
9.2880449675
 20
7.7846873326
 30
0.0
 10
9.304213485
 20
7.7974633565
 30
0.0
 10
9.3208860982
 20
7.8095952375
 30
0.0
 10
9.3380399462
 20
7.8210663662
 30
0.0
 10
9.3556514367
 20
7.8318608784
 30
0.0
 10
9.3736962945
 20
7.8419639978
 30
0.0
 10
9.3921496882
 20
7.8513618263
 30
0.0
 10
9.4109862533
 20
7.8600413794
 30
0.0
 10
9.4301800243
 20
7.8679907969
 30
0.0
 10
9.4497046242
 20
7.8751991463
 30
0.0
 10
9.469533102
 20
7.881656449
 30
0.0
 10
9.4896385355
 20
7.8873539632
 30
0.0
 10
9.5168052714
 20
7.8939339195
 30
0.0
 10
9.5513307338
 20
7.9002180466
 30
0.0
 10
9.5933619188
 20
7.904607696
 30
0.0
 10
9.6358176807
 20
7.9058330579
 30
0.0
 10
9.6784629203
 20
7.9038874367
 30
0.0
 10
9.7210636497
 20
7.898782212
 30
0.0
 10
9.7633856959
 20
7.8905459427
 30
0.0
 10
9.8051966384
 20
7.8792242835
 30
0.0
 10
9.8462669119
 20
7.8648798495
 30
0.0
 10
9.8863711061
 20
7.8475918135
 30
0.0
 10
9.9252891147
 20
7.8274553457
 30
0.0
 10
9.9628073873
 20
7.8045812433
 30
0.0
 10
9.9987200993
 20
7.7790953031
 30
0.0
 10
10.0328301785
 20
7.7511375093
 30
0.0
 10
10.0649504438
 20
7.7208613908
 30
0.0
 10
10.0949046599
 20
7.6884332008
 30
0.0
 10
10.122528373
 20
7.6540308911
 30
0.0
 10
10.1476698735
 20
7.6178432322
 30
0.0
 10
10.1701910987
 20
7.5800688266
 30
0.0
 10
10.1899682315
 20
7.5409149178
 30
0.0
 10
10.206892434
 20
7.500596353
 30
0.0
 10
10.2208705621
 20
7.4593343589
 30
0.0
 10
10.2318255142
 20
7.417355619
 30
0.0
 10
10.2396966214
 20
7.3748898325
 30
0.0
 10
10.2444403933
 20
7.3321732236
 30
0.0
 10
10.2455028939
 20
7.3036042984
 30
0.0
 10
10.2455028939
 20
7.2893613528
 30
0.0
  0
SPLINE
  5
365
100
AcDbEntity
  8
0
100
AcDbSpline
 62
7
  6
CONTINUOUS
 70
0
 71
3
 72
37
 73
33
 74
0
 42
0.0000001
 43
0.0000001
 44
0.0000000001
 40
0.0
 40
0.0
 40
0.0
 40
0.0
 40
0.0306766055
 40
0.0614680457
 40
0.092370498
 40
0.123381978
 40
0.1544975124
 40
0.1857116159
 40
0.2170175392
 40
0.2484075545
 40
0.2798730271
 40
0.311404505
 40
0.3429918322
 40
0.3746242555
 40
0.4062905431
 40
0.4379791063
 40
0.5013555775
 40
0.5646785625
 40
0.5963008557
 40
0.6278753433
 40
0.6593914107
 40
0.6908390652
 40
0.7222090464
 40
0.7534929307
 40
0.784683233
 40
0.8157734959
 40
0.8467583694
 40
0.8776336806
 40
0.9083964914
 40
0.9390451484
 40
0.9695793172
 40
1.0
 40
1.0
 40
1.0
 40
1.0
 10
9.6547775846
 20
7.6652644864
 30
0.0
 10
9.6547775846
 20
7.659146965
 30
0.0
 10
9.6551090685
 20
7.6468865105
 30
0.0
 10
9.6565925756
 20
7.6285175088
 30
0.0
 10
9.6590591449
 20
7.6101866641
 30
0.0
 10
9.6625012968
 20
7.591948202
 30
0.0
 10
9.6669091335
 20
7.5738548297
 30
0.0
 10
9.6722697132
 20
7.5559592911
 30
0.0
 10
9.6785674325
 20
7.5383136031
 30
0.0
 10
9.6857839112
 20
7.5209690847
 30
0.0
 10
9.6938981225
 20
7.5039761652
 30
0.0
 10
9.7028864307
 20
7.4873842619
 30
0.0
 10
9.7127227036
 20
7.4712415908
 30
0.0
 10
9.7233782183
 20
7.4555952037
 30
0.0
 10
9.7348223769
 20
7.4404901941
 30
0.0
 10
9.7510854202
 20
7.421133658
 30
0.0
 10
9.7732096444
 20
7.3985113212
 30
0.0
 10
9.7974865421
 20
7.3782366456
 30
0.0
 10
9.8180282116
 20
7.363571223
 30
0.0
 10
9.833943253
 20
7.3533843247
 30
0.0
 10
9.8503247452
 20
7.3440366926
 30
0.0
 10
9.8671254863
 20
7.3355551653
 30
0.0
 10
9.8842965159
 20
7.3279645512
 30
0.0
 10
9.9017879359
 20
7.321286946
 30
0.0
 10
9.9195488661
 20
7.3155418071
 30
0.0
 10
9.9375276552
 20
7.3107458844
 30
0.0
 10
9.9556720071
 20
7.3069131794
 30
0.0
 10
9.9739291563
 20
7.3040549022
 30
0.0
 10
9.9922459349
 20
7.3021794384
 30
0.0
 10
10.0105692363
 20
7.3012923215
 30
0.0
 10
10.0288450092
 20
7.3013961283
 30
0.0
 10
10.0409857874
 20
7.3021272662
 30
0.0
 10
10.0470289926
 20
7.3026582229
 30
0.0
  0
SPLINE
  5
366
100
AcDbEntity
  8
0
100
AcDbSpline
 62
7
  6
CONTINUOUS
 70
0
 71
3
 72
41
 73
37
 74
0
 42
0.0000001
 43
0.0000001
 44
0.0000000001
 40
0.0
 40
0.0
 40
0.0
 40
0.0
 40
0.0310391977
 40
0.0466190434
 40
0.0622365418
 40
0.0935778872
 40
0.1250600856
 40
0.1566726498
 40
0.1884023779
 40
0.2202338199
 40
0.2521495506
 40
0.2681354246
 40
0.2841351197
 40
0.3161610693
 40
0.348210855
 40
0.3802628938
 40
0.4122955604
 40
0.4442875956
 40
0.4762185089
 40
0.5080689718
 40
0.5398211951
 40
0.5714592845
 40
0.6029695685
 40
0.6343408928
 40
0.6655648745
 40
0.6966361092
 40
0.7275523238
 40
0.7583144704
 40
0.7889267545
 40
0.8193965937
 40
0.8497345022
 40
0.8799539023
 40
0.9100708607
 40
0.9401037563
 40
0.9700728834
 40
1.0
 40
1.0
 40
1.0
 40
1.0
 10
10.4005092903
 20
8.9376030074
 30
0.0
 10
10.4005092903
 20
8.9297642765
 30
0.0
 10
10.4009362863
 20
8.9179853392
 30
0.0
 10
10.4023468927
 20
8.9023290171
 30
0.0
 10
10.4043234828
 20
8.886656439
 30
0.0
 10
10.4078473526
 20
8.8671445258
 30
0.0
 10
10.4137270575
 20
8.8440118974
 30
0.0
 10
10.4212322448
 20
8.8212508066
 30
0.0
 10
10.430323637
 20
8.7989805031
 30
0.0
 10
10.4409533042
 20
8.7773174852
 30
0.0
 10
10.4510430099
 20
8.7598722357
 30
0.0
 10
10.4598239942
 20
8.7463293622
 30
0.0
 10
10.4690744207
 20
8.7330687243
 30
0.0
 10
10.4814810475
 20
8.717078052
 30
0.0
 10
10.4976340667
 20
8.6989315191
 30
0.0
 10
10.5149746336
 20
8.6819129945
 30
0.0
 10
10.5334119294
 20
8.6661118022
 30
0.0
 10
10.5528499399
 20
8.6516102169
 30
0.0
 10
10.573187308
 20
8.6384839576
 30
0.0
 10
10.594318028
 20
8.6268015497
 30
0.0
 10
10.6161319455
 20
8.6166240354
 30
0.0
 10
10.6385153363
 20
8.6080046387
 30
0.0
 10
10.6613514888
 20
8.6009884919
 30
0.0
 10
10.6845213045
 20
8.5956123979
 30
0.0
 10
10.7079039095
 20
8.5919046273
 30
0.0
 10
10.7313772791
 20
8.5898847702
 30
0.0
 10
10.7548188668
 20
8.5895636273
 30
0.0
 10
10.7781062376
 20
8.5909431432
 30
0.0
 10
10.8011177014
 20
8.5940163833
 30
0.0
 10
10.82373295
 20
8.5987675586
 30
0.0
 10
10.8458336751
 20
8.6051720838
 30
0.0
 10
10.8673042346
 20
8.6131967263
 30
0.0
 10
10.8880321063
 20
8.6227996332
 30
0.0
 10
10.9079090835
 20
8.6339310328
 30
0.0
 10
10.9268296528
 20
8.6465316359
 30
0.0
 10
10.9387484102
 20
8.6558746205
 30
0.0
 10
10.9445115268
 20
8.6607642092
 30
0.0
  0
SPLINE
  5
367
100
AcDbEntity
  8
0
100
AcDbSpline
 62
7
  6
CONTINUOUS
 70
0
 71
3
 72
21
 73
17
 74
0
 42
0.0000001
 43
0.0000001
 44
0.0000000001
 40
0.0
 40
0.0
 40
0.0
 40
0.0
 40
0.1272174542
 40
0.2536640213
 40
0.3166262221
 40
0.3794116749
 40
0.4420289346
 40
0.5044876301
 40
0.5667987277
 40
0.6289744589
 40
0.6910281791
 40
0.7529742937
 40
0.8148281145
 40
0.8766057412
 40
0.9383239446
 40
1.0
 40
1.0
 40
1.0
 40
1.0
 10
10.4005092903
 20
8.9376030074
 30
0.0
 10
10.4005092903
 20
8.9471371385
 30
0.0
 10
10.4013478483
 20
8.9661580057
 30
0.0
 10
10.4045135782
 20
8.9897088282
 30
0.0
 10
10.4083001635
 20
9.0082316571
 30
0.0
 10
10.4117556085
 20
9.0219242155
 30
0.0
 10
10.4158235648
 20
9.0354078429
 30
0.0
 10
10.4204960862
 20
9.0486564916
 30
0.0
 10
10.4257640258
 20
9.0616441741
 30
0.0
 10
10.4316171678
 20
9.0743454756
 30
0.0
 10
10.4380440411
 20
9.0867355538
 30
0.0
 10
10.4450320641
 20
9.0987901929
 30
0.0
 10
10.4525676229
 20
9.1104857469
 30
0.0
 10
10.4606360365
 20
9.1217994207
 30
0.0
 10
10.4692212074
 20
9.1327088114
 30
0.0
 10
10.475280205
 20
9.1397004063
 30
0.0
 10
10.4783891973
 20
9.1431208045
 30
0.0
  0
SPLINE
  5
368
100
AcDbEntity
  8
0
100
AcDbSpline
 62
7
  6
CONTINUOUS
 70
0
 71
3
 72
39
 73
35
 74
0
 42
0.0000001
 43
0.0000001
 44
0.0000000001
 40
0.0
 40
0.0
 40
0.0
 40
0.0
 40
0.0310671334
 40
0.0622905265
 40
0.0936657246
 40
0.1251841493
 40
0.1568346575
 40
0.1886032964
 40
0.2204737313
 40
0.2524275828
 40
0.2844448106
 40
0.3165041208
 40
0.3485833906
 40
0.3806601051
 40
0.4127118
 40
0.4447165025
 40
0.4766531657
 40
0.5085020897
 40
0.5402453255
 40
0.5718670518
 40
0.603353918
 40
0.6346953481
 40
0.6658837972
 40
0.6969149566
 40
0.7277878925
 40
0.7585051177
 40
0.7890725882
 40
0.8194996212
 40
0.8497987332
 40
0.8799853939
 40
0.9100776988
 40
0.9400959706
 40
0.9700622943
 40
1.0
 40
1.0
 40
1.0
 40
1.0
 10
10.4273743405
 20
7.7031453547
 30
0.0
 10
10.4273743405
 20
7.6926751123
 30
0.0
 10
10.4281507519
 20
7.6716740012
 30
0.0
 10
10.4316174701
 20
7.6402712027
 30
0.0
 10
10.4373698764
 20
7.6090496734
 30
0.0
 10
10.4453765661
 20
7.5781810226
 30
0.0
 10
10.4555937272
 20
7.5478321963
 30
0.0
 10
10.4679657149
 20
7.5181679695
 30
0.0
 10
10.4824251711
 20
7.4893491758
 30
0.0
 10
10.4988934782
 20
7.4615320983
 30
0.0
 10
10.5172811757
 20
7.4348675702
 30
0.0
 10
10.5374884422
 20
7.4095001854
 30
0.0
 10
10.5594056348
 20
7.3855675257
 30
0.0
 10
10.5829138436
 20
7.3631993912
 30
0.0
 10
10.6078855617
 20
7.3425171233
 30
0.0
 10
10.6341853734
 20
7.3236329622
 30
0.0
 10
10.661670676
 20
7.3066494407
 30
0.0
 10
10.6901924457
 20
7.2916588406
 30
0.0
 10
10.7195960132
 20
7.2787426532
 30
0.0
 10
10.7497219111
 20
7.2679711612
 30
0.0
 10
10.7804067297
 20
7.2594030704
 30
0.0
 10
10.8114839871
 20
7.2530851834
 30
0.0
 10
10.8427850184
 20
7.2490521476
 30
0.0
 10
10.8741398726
 20
7.2473262128
 30
0.0
 10
10.9053782334
 20
7.2479171178
 30
0.0
 10
10.9363303353
 20
7.2508220422
 30
0.0
 10
10.966827876
 20
7.2560255936
 30
0.0
 10
10.9967049306
 20
7.2634998831
 30
0.0
 10
11.0257988515
 20
7.2732045976
 30
0.0
 10
11.053951225
 20
7.2850872661
 30
0.0
 10
11.0810085267
 20
7.2990833543
 30
0.0
 10
11.1068237674
 20
7.3151173231
 30
0.0
 10
11.1312543788
 20
7.3331003209
 30
0.0
 10
11.1465373115
 20
7.3463300591
 30
0.0
 10
11.1538988438
 20
7.3532299088
 30
0.0
  0
SPLINE
  5
369
100
AcDbEntity
  8
0
100
AcDbSpline
 62
7
  6
CONTINUOUS
 70
0
 71
3
 72
23
 73
19
 74
0
 42
0.0000001
 43
0.0000001
 44
0.0000000001
 40
0.0
 40
0.0
 40
0.0
 40
0.0
 40
0.0637638363
 40
0.127322552
 40
0.1906740571
 40
0.2538261219
 40
0.3167841997
 40
0.3795566974
 40
0.4421536728
 40
0.5045867229
 40
0.56686906
 40
0.6290153118
 40
0.6910414237
 40
0.7529645054
 40
0.8148026638
 40
0.8765748327
 40
0.9383005966
 40
1.0
 40
1.0
 40
1.0
 40
1.0
 10
10.4273743405
 20
7.7031453547
 30
0.0
 10
10.4273743405
 20
7.7098103005
 30
0.0
 10
10.4276875536
 20
7.7231209274
 30
0.0
 10
10.4291011274
 20
7.7430082157
 30
0.0
 10
10.4314548683
 20
7.7627423899
 30
0.0
 10
10.4347433245
 20
7.7822787742
 30
0.0
 10
10.4389594285
 20
7.801574332
 30
0.0
 10
10.4440937824
 20
7.8205860724
 30
0.0
 10
10.4501350025
 20
7.8392717831
 30
0.0
 10
10.4570697146
 20
7.8575899348
 30
0.0
 10
10.4648825643
 20
7.8754997989
 30
0.0
 10
10.4735562243
 20
7.8929615598
 30
0.0
 10
10.4830714162
 20
7.9099364065
 30
0.0
 10
10.4934070237
 20
7.9263866091
 30
0.0
 10
10.5045400781
 20
7.9422755459
 30
0.0
 10
10.5164459824
 20
7.9575679982
 30
0.0
 10
10.529097804
 20
7.9722295132
 30
0.0
 10
10.5380129235
 20
7.9815636372
 30
0.0
 10
10.5425836725
 20
7.9861133533
 30
0.0
  0
SPLINE
  5
36A
100
AcDbEntity
  8
0
100
AcDbSpline
 62
7
  6
CONTINUOUS
 70
0
 71
3
 72
39
 73
35
 74
0
 42
0.0000001
 43
0.0000001
 44
0.0000000001
 40
0.0
 40
0.0
 40
0.0
 40
0.0
 40
0.0311159435
 40
0.0620233446
 40
0.0927351373
 40
0.1232711777
 40
0.1536587331
 40
0.1839312108
 40
0.2141268399
 40
0.2442870988
 40
0.274454976
 40
0.3046731308
 40
0.3349820902
 40
0.3654185441
 40
0.3960138642
 40
0.4267928828
 40
0.4577729963
 40
0.4889636214
 40
0.5203659689
 40
0.5519731787
 40
0.5837707188
 40
0.6157370636
 40
0.647844591
 40
0.6800606403
 40
0.712348731
 40
0.744669863
 40
0.7769838843
 40
0.8092508935
 40
0.8414326252
 40
0.8734938001
 40
0.9054034144
 40
0.9371358873
 40
0.968671823
 40
1.0
 40
1.0
 40
1.0
 40
1.0
 10
10.5964113701
 20
7.6914225969
 30
0.0
 10
10.5964113701
 20
7.6997674394
 30
0.0
 10
10.5972260628
 20
7.7164132674
 30
0.0
 10
10.600910421
 20
7.7410492088
 30
0.0
 10
10.6070183655
 20
7.7650415885
 30
0.0
 10
10.6154919987
 20
7.7881556715
 30
0.0
 10
10.6262502326
 20
7.8101687683
 30
0.0
 10
10.6391898846
 20
7.8308675389
 30
0.0
 10
10.6541861705
 20
7.8500516499
 30
0.0
 10
10.6710943492
 20
7.8675352046
 30
0.0
 10
10.6897508112
 20
7.8831489703
 30
0.0
 10
10.7099748862
 20
7.8967420213
 30
0.0
 10
10.7315707499
 20
7.9081831067
 30
0.0
 10
10.7543292416
 20
7.9173622914
 30
0.0
 10
10.7780302376
 20
7.924191519
 30
0.0
 10
10.8024446706
 20
7.9286058124
 30
0.0
 10
10.8273369169
 20
7.9305635815
 30
0.0
 10
10.8524670435
 20
7.9300468692
 30
0.0
 10
10.8775931318
 20
7.9270617539
 30
0.0
 10
10.9024735458
 20
7.9216377238
 30
0.0
 10
10.9268692535
 20
7.9138278163
 30
0.0
 10
10.9505460371
 20
7.9037077398
 30
0.0
 10
10.9732766538
 20
7.8913751904
 30
0.0
 10
10.9948430958
 20
7.8769491002
 30
0.0
 10
11.0150384041
 20
7.8605681292
 30
0.0
 10
11.0336688827
 20
7.8423897598
 30
0.0
 10
11.0505557024
 20
7.8225884908
 30
0.0
 10
11.0655366521
 20
7.8013543197
 30
0.0
 10
11.078467811
 20
7.7788910385
 30
0.0
 10
11.0892245809
 20
7.7554140193
 30
0.0
 10
11.0977033101
 20
7.731148815
 30
0.0
 10
11.1038218524
 20
7.7063274975
 30
0.0
 10
11.1075207771
 20
7.6811915905
 30
0.0
 10
11.1083520884
 20
7.6643211479
 30
0.0
 10
11.1083520884
 20
7.6559193875
 30
0.0
  0
SPLINE
  5
36B
100
AcDbEntity
  8
0
100
AcDbSpline
 62
7
  6
CONTINUOUS
 70
0
 71
3
 72
21
 73
17
 74
0
 42
0.0000001
 43
0.0000001
 44
0.0000000001
 40
0.0
 40
0.0
 40
0.0
 40
0.0
 40
0.1273177382
 40
0.253799893
 40
0.3167619527
 40
0.3795355237
 40
0.4421314869
 40
0.5045621428
 40
0.5668413495
 40
0.6289845239
 40
0.69100845
 40
0.7529310987
 40
0.8147714472
 40
0.8765493323
 40
0.9382852239
 40
1.0
 40
1.0
 40
1.0
 40
1.0
 10
10.6331537116
 20
7.6969129755
 30
0.0
 10
10.6331537116
 20
7.7041505038
 30
0.0
 10
10.6338445712
 20
7.7185873779
 30
0.0
 10
10.6364537906
 20
7.7364344726
 30
0.0
 10
10.6395723255
 20
7.7504339627
 30
0.0
 10
10.6424162848
 20
7.7607599963
 30
0.0
 10
10.6457620403
 20
7.7709025383
 30
0.0
 10
10.6496018411
 20
7.7808385128
 30
0.0
 10
10.6539268907
 20
7.7905449198
 30
0.0
 10
10.658727279
 20
7.7999993639
 30
0.0
 10
10.6639918663
 20
7.8091800736
 30
0.0
 10
10.6697085792
 20
7.8180658525
 30
0.0
 10
10.6758642528
 20
7.8266361575
 30
0.0
 10
10.6824446944
 20
7.8348713384
 30
0.0
 10
10.6894345218
 20
7.8427521034
 30
0.0
 10
10.6943575283
 20
7.847758454
 30
0.0
 10
10.6968808525
 20
7.8501957993
 30
0.0
  0
SPLINE
  5
36C
100
AcDbEntity
  8
0
100
AcDbSpline
 62
7
  6
CONTINUOUS
 70
0
 71
3
 72
11
 73
7
 74
0
 42
0.0000001
 43
0.0000001
 44
0.0000000001
 40
0.0
 40
0.0
 40
0.0
 40
0.0
 40
0.2523604822
 40
0.5030735616
 40
0.7522377093
 40
1.0
 40
1.0
 40
1.0
 40
1.0
 10
10.7970962124
 20
7.8312692805
 30
0.0
 10
10.7970962124
 20
7.8377316525
 30
0.0
 10
10.7977097933
 20
7.8506229542
 30
0.0
 10
10.8004848864
 20
7.8697148698
 30
0.0
 10
10.8050859046
 20
7.8883298878
 30
0.0
 10
10.8093563499
 20
7.9003435187
 30
0.0
 10
10.8117788797
 20
7.9062074414
 30
0.0
  0
SPLINE
  5
36D
100
AcDbEntity
  8
0
100
AcDbSpline
 62
7
  6
CONTINUOUS
 70
0
 71
3
 72
11
 73
7
 74
0
 42
0.0000001
 43
0.0000001
 44
0.0000000001
 40
0.0
 40
0.0
 40
0.0
 40
0.0
 40
0.2519997964
 40
0.5026236031
 40
0.7519288949
 40
1.0
 40
1.0
 40
1.0
 40
1.0
 10
10.7703276923
 20
7.829412874
 30
0.0
 10
10.7703276923
 20
7.8354074231
 30
0.0
 10
10.7708017754
 20
7.8473693722
 30
0.0
 10
10.7729449169
 20
7.86514629
 30
0.0
 10
10.7765042778
 20
7.8825994382
 30
0.0
 10
10.7798155345
 20
7.8939746754
 30
0.0
 10
10.7816985665
 20
7.8995672685
 30
0.0
  0
SPLINE
  5
36E
100
AcDbEntity
  8
0
100
AcDbSpline
 62
7
  6
CONTINUOUS
 70
0
 71
3
 72
39
 73
35
 74
0
 42
0.0000001
 43
0.0000001
 44
0.0000000001
 40
0.0
 40
0.0
 40
0.0
 40
0.0
 40
0.031328177
 40
0.0628641127
 40
0.0945965856
 40
0.1265061999
 40
0.1585673748
 40
0.1907491065
 40
0.2230161157
 40
0.255330137
 40
0.287651269
 40
0.3199393597
 40
0.352155409
 40
0.3842629364
 40
0.4162292812
 40
0.4480268213
 40
0.4796340311
 40
0.5110363786
 40
0.5422270037
 40
0.5732071172
 40
0.6039861358
 40
0.6345814559
 40
0.6650179098
 40
0.6953268692
 40
0.725545024
 40
0.7557129012
 40
0.7858731601
 40
0.8160687892
 40
0.8463412669
 40
0.8767288223
 40
0.9072648627
 40
0.9379766554
 40
0.9688840565
 40
1.0
 40
1.0
 40
1.0
 40
1.0
 10
10.5964113701
 20
7.6914225969
 30
0.0
 10
10.5964113701
 20
7.6830208365
 30
0.0
 10
10.5972426813
 20
7.6661503939
 30
0.0
 10
10.6009416061
 20
7.6410144869
 30
0.0
 10
10.6070601484
 20
7.6161931694
 30
0.0
 10
10.6155388776
 20
7.5919279651
 30
0.0
 10
10.6262956475
 20
7.5684509459
 30
0.0
 10
10.6392268064
 20
7.5459876647
 30
0.0
 10
10.6542077561
 20
7.5247534936
 30
0.0
 10
10.6710945758
 20
7.5049522246
 30
0.0
 10
10.6897250544
 20
7.4867738552
 30
0.0
 10
10.7099203627
 20
7.4703928842
 30
0.0
 10
10.7314868047
 20
7.455966794
 30
0.0
 10
10.7542174214
 20
7.4436342446
 30
0.0
 10
10.777894205
 20
7.4335141681
 30
0.0
 10
10.8022899127
 20
7.4257042606
 30
0.0
 10
10.8271703267
 20
7.4202802305
 30
0.0
 10
10.852296415
 20
7.4172951152
 30
0.0
 10
10.8774265416
 20
7.4167784029
 30
0.0
 10
10.9023187879
 20
7.418736172
 30
0.0
 10
10.9267332209
 20
7.4231504654
 30
0.0
 10
10.9504342169
 20
7.429979693
 30
0.0
 10
10.9731927085
 20
7.4391588777
 30
0.0
 10
10.9947885723
 20
7.4505999631
 30
0.0
 10
11.0150126473
 20
7.4641930141
 30
0.0
 10
11.0336691093
 20
7.4798067798
 30
0.0
 10
11.050577288
 20
7.4972903345
 30
0.0
 10
11.0655735739
 20
7.5164744455
 30
0.0
 10
11.0785132259
 20
7.5371732161
 30
0.0
 10
11.0892714598
 20
7.5591863129
 30
0.0
 10
11.097745093
 20
7.5823003959
 30
0.0
 10
11.1038530375
 20
7.6062927756
 30
0.0
 10
11.1075373957
 20
7.630928717
 30
0.0
 10
11.1083520884
 20
7.647574545
 30
0.0
 10
11.1083520884
 20
7.6559193875
 30
0.0
  0
SPLINE
  5
36F
100
AcDbEntity
  8
0
100
AcDbSpline
 62
7
  6
CONTINUOUS
 70
0
 71
3
 72
43
 73
39
 74
0
 42
0.0000001
 43
0.0000001
 44
0.0000000001
 40
0.0
 40
0.0
 40
0.0
 40
0.0
 40
0.0310745218
 40
0.0466739617
 40
0.0623117346
 40
0.0936962008
 40
0.1252246462
 40
0.156885682
 40
0.1886651184
 40
0.2205463529
 40
0.2525107094
 40
0.2845378393
 40
0.316606137
 40
0.3486931771
 40
0.3807761618
 40
0.4128323741
 40
0.4448396288
 40
0.4767767175
 40
0.508623839
 40
0.5403630095
 40
0.5719784455
 40
0.6034569128
 40
0.6347880329
 40
0.6659645409
 40
0.6969824853
 40
0.7278413639
 40
0.7585441875
 40
0.7890974671
 40
0.8195111175
 40
0.8497982781
 40
0.8649022316
 40
0.8799808239
 40
0.9100659163
 40
0.9400802375
 40
0.9550708207
 40
0.9700522994
 40
0.9850276796
 40
1.0
 40
1.0
 40
1.0
 40
1.0
 10
10.6331537116
 20
7.6969129755
 30
0.0
 10
10.6331537116
 20
7.6912876248
 30
0.0
 10
10.6334681593
 20
7.6828340962
 30
0.0
 10
10.634506652
 20
7.6716000753
 30
0.0
 10
10.6359617841
 20
7.6603552916
 30
0.0
 10
10.6385557482
 20
7.6463603416
 30
0.0
 10
10.6428824557
 20
7.6297807725
 30
0.0
 10
10.6484032477
 20
7.6134839261
 30
0.0
 10
10.6550876166
 20
7.5975597975
 30
0.0
 10
10.662898764
 20
7.5820956286
 30
0.0
 10
10.6717937159
 20
7.5671763145
 30
0.0
 10
10.6817235789
 20
7.552883706
 30
0.0
 10
10.6926338024
 20
7.539296231
 30
0.0
 10
10.7044644772
 20
7.5264884508
 30
0.0
 10
10.7171506608
 20
7.514530661
 30
0.0
 10
10.730622731
 20
7.5034885075
 30
0.0
 10
10.7448067632
 20
7.4934226307
 30
0.0
 10
10.7596249322
 20
7.4843883348
 30
0.0
 10
10.7749959339
 20
7.4764352868
 30
0.0
 10
10.7908354254
 20
7.4696072447
 30
0.0
 10
10.8070564823
 20
7.4639418179
 30
0.0
 10
10.8235700686
 20
7.4594702596
 30
0.0
 10
10.8402855185
 20
7.4562172928
 30
0.0
 10
10.857111028
 20
7.4542009711
 30
0.0
 10
10.8739541482
 20
7.4534325712
 30
0.0
 10
10.8907223048
 20
7.4539165322
 30
0.0
 10
10.9073232349
 20
7.4556503895
 30
0.0
 10
10.9236657437
 20
7.4586248947
 30
0.0
 10
10.9396592704
 20
7.4628236194
 30
0.0
 10
10.9526373356
 20
7.4673288397
 30
0.0
 10
10.9627531346
 20
7.4715185293
 30
0.0
 10
10.9726641408
 20
7.4760853507
 30
0.0
 10
10.984681281
 20
7.4825046494
 30
0.0
 10
10.996141292
 20
7.489843604
 30
0.0
 10
11.0049238256
 20
7.4962342841
 30
0.0
 10
11.011309751
 20
7.5012803885
 30
0.0
 10
11.0174876183
 20
7.5065737158
 30
0.0
 10
11.0214622648
 20
7.5102631282
 30
0.0
 10
11.0234117359
 20
7.5121461736
 30
0.0
  0
SPLINE
  5
370
100
AcDbEntity
  8
0
100
AcDbSpline
 62
7
  6
CONTINUOUS
 70
0
 71
3
 72
39
 73
35
 74
0
 42
0.0000001
 43
0.0000001
 44
0.0000000001
 40
0.0
 40
0.0
 40
0.0
 40
0.0
 40
0.0307904631
 40
0.0617092309
 40
0.0927512335
 40
0.1239135834
 40
0.1551894998
 40
0.1865714492
 40
0.2180502358
 40
0.2496153877
 40
0.2812552864
 40
0.3129573148
 40
0.344708038
 40
0.3764933781
 40
0.4082988023
 40
0.4401095182
 40
0.4719106665
 40
0.5036875128
 40
0.5354256382
 40
0.5671111282
 40
0.5987307624
 40
0.6302721936
 40
0.661724117
 40
0.6930764272
 40
0.724320364
 40
0.7554486477
 40
0.7864555993
 40
0.817337236
 40
0.8480913456
 40
0.8787175381
 40
0.9092172737
 40
0.9395938687
 40
0.9698524706
 40
1.0
 40
1.0
 40
1.0
 40
1.0
 10
10.7703276923
 20
7.829412874
 30
0.0
 10
10.7703276923
 20
7.8248565749
 30
0.0
 10
10.770602827
 20
7.8157226764
 30
0.0
 10
10.7718331977
 20
7.8020451395
 30
0.0
 10
10.7738778246
 20
7.7884093687
 30
0.0
 10
10.7767290094
 20
7.7748653914
 30
0.0
 10
10.7803765806
 20
7.7614617531
 30
0.0
 10
10.7848072531
 20
7.7482469112
 30
0.0
 10
10.7900050277
 20
7.7352685038
 30
0.0
 10
10.7959510901
 20
7.7225733386
 30
0.0
 10
10.8026239522
 20
7.710207192
 30
0.0
 10
10.8099995183
 20
7.6982146555
 30
0.0
 10
10.818051168
 20
7.6866389758
 30
0.0
 10
10.8267498575
 20
7.6755219051
 30
0.0
 10
10.836064195
 20
7.6649035307
 30
0.0
 10
10.8459605724
 20
7.6548221393
 30
0.0
 10
10.8564032951
 20
7.6453140898
 30
0.0
 10
10.8673547058
 20
7.636413682
 30
0.0
 10
10.878775319
 20
7.6281530362
 30
0.0
 10
10.8906239588
 20
7.6205619763
 30
0.0
 10
10.9028578909
 20
7.613667894
 30
0.0
 10
10.9154329975
 20
7.60749568
 30
0.0
 10
10.9283039322
 20
7.6020676336
 30
0.0
 10
10.9414242801
 20
7.5974033827
 30
0.0
 10
10.9547467232
 20
7.5935198182
 30
0.0
 10
10.9682232025
 20
7.5904310104
 30
0.0
 10
10.9818050927
 20
7.5881481514
 30
0.0
 10
10.9954433848
 20
7.5866795414
 30
0.0
 10
11.0090888516
 20
7.5860305512
 30
0.0
 10
11.0226922438
 20
7.5862036071
 30
0.0
 10
11.0362043859
 20
7.587198163
 30
0.0
 10
11.0495766476
 20
7.5890107424
 30
0.0
 10
11.0627600436
 20
7.5916346755
 30
0.0
 10
11.0714080337
 20
7.5939230442
 30
0.0
 10
11.0756828251
 20
7.5951990152
 30
0.0
  0
SPLINE
  5
371
100
AcDbEntity
  8
0
100
AcDbSpline
 62
7
  6
CONTINUOUS
 70
0
 71
3
 72
46
 73
42
 74
0
 42
0.0000001
 43
0.0000001
 44
0.0000000001
 40
0.0
 40
0.0
 40
0.0
 40
0.0
 40
0.031068026
 40
0.0622925822
 40
0.0936691113
 40
0.1251890832
 40
0.1568412556
 40
0.1886116274
 40
0.2204837928
 40
0.2524392973
 40
0.2844580202
 40
0.3165185872
 40
0.3485987977
 40
0.3806760642
 40
0.4127278571
 40
0.4447321485
 40
0.4766678495
 40
0.5085152353
 40
0.5402563478
 40
0.5718753735
 40
0.6033589928
 40
0.6346966811
 40
0.665880965
 40
0.696907628
 40
0.7277758483
 40
0.7584882662
 40
0.7890509803
 40
0.8042818142
 40
0.8194790473
 40
0.8346443638
 40
0.8497796324
 40
0.8648868942
 40
0.8799683589
 40
0.8950263865
 40
0.9100634747
 40
0.9250822492
 40
0.9400854431
 40
0.9550758825
 40
0.9700564729
 40
0.9850301774
 40
1.0
 40
1.0
 40
1.0
 40
1.0
 10
9.1900232961
 20
8.7548818246
 30
0.0
 10
9.1900232961
 20
8.7407012322
 30
0.0
 10
9.191076492
 20
8.7122577831
 30
0.0
 10
9.195778943
 20
8.6697271139
 30
0.0
 10
9.2035817545
 20
8.6274430415
 30
0.0
 10
9.2144421929
 20
8.5856387211
 30
0.0
 10
9.2283006665
 20
8.5445409264
 30
0.0
 10
9.2450813783
 20
8.504373468
 30
0.0
 10
9.2646927408
 20
8.4653548079
 30
0.0
 10
9.2870278383
 20
8.4276972252
 30
0.0
 10
9.3119649165
 20
8.3916055175
 30
0.0
 10
9.3393681735
 20
8.3572759962
 30
0.0
 10
9.3690884843
 20
8.3248954424
 30
0.0
 10
9.4009640968
 20
8.2946400101
 30
0.0
 10
9.4348215776
 20
8.2666743243
 30
0.0
 10
9.4704767828
 20
8.2411506514
 30
0.0
 10
9.507735788
 20
8.2182080174
 30
0.0
 10
9.546395911
 20
8.1979714021
 30
0.0
 10
9.5862468733
 20
8.1805511757
 30
0.0
 10
9.627071903
 20
8.1660424947
 30
0.0
 10
9.6686488521
 20
8.1545246429
 30
0.0
 10
9.7107514307
 20
8.1460607082
 30
0.0
 10
9.7531504645
 20
8.1406972862
 30
0.0
 10
9.7956149136
 20
8.1384640486
 30
0.0
 10
9.8379138244
 20
8.13937375
 30
0.0
 10
9.8798150248
 20
8.1434215583
 30
0.0
 10
9.9142567827
 20
8.1494003728
 30
0.0
 10
9.9413729438
 20
8.1557252281
 30
0.0
 10
9.961448683
 20
8.1612265384
 30
0.0
 10
9.9812560794
 20
8.1674828593
 30
0.0
 10
10.000768492
 20
8.1744857533
 30
0.0
 10
10.0199591815
 20
8.1822257202
 30
0.0
 10
10.0388020335
 20
8.1906921288
 30
0.0
 10
10.0572713109
 20
8.1998735037
 30
0.0
 10
10.0753418088
 20
8.2097573449
 30
0.0
 10
10.0929889136
 20
8.2203301047
 30
0.0
 10
10.1101885109
 20
8.2315774512
 30
0.0
 10
10.1269171218
 20
8.2434840052
 30
0.0
 10
10.1431520443
 20
8.2560335577
 30
0.0
 10
10.1588707539
 20
8.2692087895
 30
0.0
 10
10.1689928882
 20
8.2783986573
 30
0.0
 10
10.1739598571
 20
8.2830907876
 30
0.0
  0
SPLINE
  5
372
100
AcDbEntity
  8
0
100
AcDbSpline
 62
7
  6
CONTINUOUS
 70
0
 71
3
 72
23
 73
19
 74
0
 42
0.0000001
 43
0.0000001
 44
0.0000000001
 40
0.0
 40
0.0
 40
0.0
 40
0.0
 40
0.0637677669
 40
0.1273282749
 40
0.1906815152
 40
0.2538341546
 40
0.3167919791
 40
0.3795636088
 40
0.4421591313
 40
0.5045903572
 40
0.5668706725
 40
0.6290149112
 40
0.6910392311
 40
0.752960959
 40
0.8147984292
 40
0.876570809
 40
0.9382979116
 40
1.0
 40
1.0
 40
1.0
 40
1.0
 10
9.1900232961
 20
8.7548818246
 30
0.0
 10
9.1900232961
 20
8.7639382877
 30
0.0
 10
9.1904509225
 20
8.7820247649
 30
0.0
 10
9.1923810425
 20
8.8090468337
 30
0.0
 10
9.1955947516
 20
8.8358592019
 30
0.0
 10
9.2000846591
 20
8.8624007285
 30
0.0
 10
9.205840922
 20
8.8886122684
 30
0.0
 10
9.2128506129
 20
8.9144348863
 30
0.0
 10
9.2210981019
 20
8.939810675
 30
0.0
 10
9.2305649163
 20
8.9646826845
 30
0.0
 10
9.2412298586
 20
8.9889950975
 30
0.0
 10
9.2530690426
 20
9.012693344
 30
0.0
 10
9.2660559386
 20
9.0357242206
 30
0.0
 10
9.2801614563
 20
9.0580360285
 30
0.0
 10
9.295353924
 20
9.0795786232
 30
0.0
 10
9.3115994177
 20
9.1003038153
 30
0.0
 10
9.3288608612
 20
9.1201644399
 30
0.0
 10
9.3410226297
 20
9.1328014949
 30
0.0
 10
9.3472574917
 20
9.1389592741
 30
0.0
  0
SPLINE
  5
373
100
AcDbEntity
  8
0
100
AcDbSpline
 62
7
  6
CONTINUOUS
 70
0
 71
3
 72
71
 73
67
 74
0
 42
0.0000001
 43
0.0000001
 44
0.0000000001
 40
0.0
 40
0.0
 40
0.0
 40
0.0
 40
0.0155841267
 40
0.0311159948
 40
0.046595237
 40
0.0620238811
 40
0.0774034528
 40
0.0927362808
 40
0.108025123
 40
0.1232731726
 40
0.1384840554
 40
0.1536617766
 40
0.1688106897
 40
0.1839354524
 40
0.1990409778
 40
0.2141323823
 40
0.2292149324
 40
0.2442939895
 40
0.2593749535
 40
0.2744632036
 40
0.2895640407
 40
0.3046826304
 40
0.3198239505
 40
0.3349927386
 40
0.3501934431
 40
0.3654301773
 40
0.3807066784
 40
0.3960262749
 40
0.4113918546
 40
0.4268058385
 40
0.4422701591
 40
0.4577862482
 40
0.4733550284
 40
0.4889769089
 40
0.5046517849
 40
0.520379043
 40
0.5361575757
 40
0.5519857956
 40
0.567861654
 40
0.5837826618
 40
0.599745918
 40
0.6157481409
 40
0.631785699
 40
0.6478546447
 40
0.6639507505
 40
0.6800695507
 40
0.6962063813
 40
0.7123564198
 40
0.7285147273
 40
0.7446762932
 40
0.7608360797
 40
0.7769890647
 40
0.7931302839
 40
0.8092548751
 40
0.8253581231
 40
0.8414355003
 40
0.8574827061
 40
0.8734957059
 40
0.8894707697
 40
0.9054045141
 40
0.921293915
 40
0.9371363644
 40
0.9529297309
 40
0.9686720281
 40
0.9843627508
 40
1.0
 40
1.0
 40
1.0
 40
1.0
 10
9.3638899552
 20
8.7428241309
 30
0.0
 10
9.3638899552
 20
8.7493712567
 30
0.0
 10
9.3642103845
 20
8.7624458743
 30
0.0
 10
9.3656566853
 20
8.781975394
 30
0.0
 10
9.368064664
 20
8.801344535
 30
0.0
 10
9.3714282951
 20
8.8205057592
 30
0.0
 10
9.3757397156
 20
8.839413248
 30
0.0
 10
9.3809885187
 20
8.8580212986
 30
0.0
 10
9.3871620846
 20
8.8762850857
 30
0.0
 10
9.3942455761
 20
8.8941605671
 30
0.0
 10
9.4022219577
 20
8.9116046314
 30
0.0
 10
9.4110720611
 20
8.9285751902
 30
0.0
 10
9.420774556
 20
8.945031314
 30
0.0
 10
9.4313060582
 20
8.9609333124
 30
0.0
 10
9.442641191
 20
8.9762428224
 30
0.0
 10
9.4547526475
 20
8.9909228966
 30
0.0
 10
9.4676112347
 20
9.0049381082
 30
0.0
 10
9.4811859202
 20
9.0182546662
 30
0.0
 10
9.4954439595
 20
9.0308404546
 30
0.0
 10
9.5103509629
 20
9.0426651176
 30
0.0
 10
9.5258709853
 20
9.0537001196
 30
0.0
 10
9.5419665738
 20
9.0639188695
 30
0.0
 10
9.5585988872
 20
9.0732967588
 30
0.0
 10
9.575727803
 20
9.0818111983
 30
0.0
 10
9.5933120103
 20
9.0894416732
 30
0.0
 10
9.6113091026
 20
9.0961697994
 30
0.0
 10
9.6296756645
 20
9.1019794212
 30
0.0
 10
9.6483674068
 20
9.1068565833
 30
0.0
 10
9.6673392671
 20
9.1107895721
 30
0.0
 10
9.6865455172
 20
9.1137689292
 30
0.0
 10
9.7059398629
 20
9.1157875274
 30
0.0
 10
9.725475565
 20
9.116840575
 30
0.0
 10
9.7451055555
 20
9.1169255855
 30
0.0
 10
9.7647825471
 20
9.116042391
 30
0.0
 10
9.7844591414
 20
9.1141931408
 30
0.0
 10
9.8040879503
 20
9.11138236
 30
0.0
 10
9.8236217091
 20
9.1076168716
 30
0.0
 10
9.8430133866
 20
9.1029057822
 30
0.0
 10
9.8622162916
 20
9.0972604514
 30
0.0
 10
9.8811841931
 20
9.0906945036
 30
0.0
 10
9.8998714402
 20
9.0832238041
 30
0.0
 10
9.9182330551
 20
9.0748663694
 30
0.0
 10
9.9362248423
 20
9.0656423373
 30
0.0
 10
9.9538034856
 20
9.0555739111
 30
0.0
 10
9.9709266855
 20
9.0446853652
 30
0.0
 10
9.9875532395
 20
9.0330029378
 30
0.0
 10
10.0036431333
 20
9.0205547609
 30
0.0
 10
10.0191576313
 20
9.0073707929
 30
0.0
 10
10.0340593824
 20
8.9934827668
 30
0.0
 10
10.0483125368
 20
8.9789241366
 30
0.0
 10
10.0618827902
 20
8.9637299492
 30
0.0
 10
10.0747374727
 20
8.9479367727
 30
0.0
 10
10.0868456144
 20
8.9315826031
 30
0.0
 10
10.0981780701
 20
8.9147068112
 30
0.0
 10
10.1087075652
 20
8.8973500231
 30
0.0
 10
10.1184087401
 20
8.8795540111
 30
0.0
 10
10.1272582114
 20
8.8613615988
 30
0.0
 10
10.1352346348
 20
8.8428165657
 30
0.0
 10
10.1423188103
 20
8.8239635596
 30
0.0
 10
10.1484936575
 20
8.8048479609
 30
0.0
 10
10.1537442806
 20
8.7855157868
 30
0.0
 10
10.1580579899
 20
8.7660135393
 30
0.0
 10
10.1614242983
 20
8.7463882972
 30
0.0
 10
10.1638352506
 20
8.7266869445
 30
0.0
 10
10.1652847302
 20
8.7069577966
 30
0.0
 10
10.1656084385
 20
8.6937942086
 30
0.0
 10
10.1656084385
 20
8.6872247652
 30
0.0
  0
SPLINE
  5
374
100
AcDbEntity
  8
0
100
AcDbSpline
 62
7
  6
CONTINUOUS
 70
0
 71
3
 72
23
 73
19
 74
0
 42
0.0000001
 43
0.0000001
 44
0.0000000001
 40
0.0
 40
0.0
 40
0.0
 40
0.0
 40
0.063776763
 40
0.1273450105
 40
0.1907019658
 40
0.2538561083
 40
0.3168132129
 40
0.3795820829
 40
0.4421733857
 40
0.5045993396
 40
0.5668738671
 40
0.6290123792
 40
0.6910316488
 40
0.752949646
 40
0.8147853557
 40
0.8765586025
 40
0.9382898529
 40
1.0
 40
1.0
 40
1.0
 40
1.0
 10
9.4128797438
 20
8.7501446357
 30
0.0
 10
9.4128797438
 20
8.7559303882
 30
0.0
 10
9.4131566897
 20
8.767484937
 30
0.0
 10
9.4144065959
 20
8.7847464556
 30
0.0
 10
9.4164877408
 20
8.8018711668
 30
0.0
 10
9.4193951108
 20
8.818818817
 30
0.0
 10
9.4231222315
 20
8.835550691
 30
0.0
 10
9.4276604714
 20
8.8520281098
 30
0.0
 10
9.4329993897
 20
8.8682131118
 30
0.0
 10
9.43912674
 20
8.8840683713
 30
0.0
 10
9.4460284529
 20
8.8995573046
 30
0.0
 10
9.4536886103
 20
8.9146442008
 30
0.0
 10
9.4620895629
 20
8.9292942624
 30
0.0
 10
9.4712119805
 20
8.9434736938
 30
0.0
 10
9.4810348393
 20
8.9571497313
 30
0.0
 10
9.4915355772
 20
8.9702909516
 30
0.0
 10
9.5026895547
 20
8.9828666409
 30
0.0
 10
9.51054539
 20
8.9908555243
 30
0.0
 10
9.5145719707
 20
8.9947449063
 30
0.0
  0
SPLINE
  5
375
100
AcDbEntity
  8
0
100
AcDbSpline
 62
7
  6
CONTINUOUS
 70
0
 71
3
 72
41
 73
37
 74
0
 42
0.0000001
 43
0.0000001
 44
0.0000000001
 40
0.0
 40
0.0
 40
0.0
 40
0.0
 40
0.0308286609
 40
0.061788499
 40
0.0928764334
 40
0.1240876104
 40
0.1554152687
 40
0.1868509793
 40
0.2183847371
 40
0.2500051361
 40
0.2816995377
 40
0.3134542603
 40
0.3452547762
 40
0.3770859192
 40
0.408932097
 40
0.4407775089
 40
0.4726063648
 40
0.5044031043
 40
0.5361526136
 40
0.567840438
 40
0.5994529883
 40
0.6309777373
 40
0.6624034065
 40
0.6937201388
 40
0.7249196544
 40
0.7559953896
 40
0.7869426129
 40
0.8177585184
 40
0.8484422925
 40
0.86373681
 40
0.8789989221
 40
0.9094241208
 40
0.9397269254
 40
0.9548365614
 40
0.9699184643
 40
1.0
 40
1.0
 40
1.0
 40
1.0
 10
9.6044056791
 20
8.935144494
 30
0.0
 10
9.6044056791
 20
8.9276462377
 30
0.0
 10
9.6048726134
 20
8.9126137701
 30
0.0
 10
9.6069605574
 20
8.8901072837
 30
0.0
 10
9.6104294075
 20
8.8676770412
 30
0.0
 10
9.6152657169
 20
8.8454102631
 30
0.0
 10
9.6214508301
 20
8.8233920541
 30
0.0
 10
9.6289609119
 20
8.8017069545
 30
0.0
 10
9.6377670684
 20
8.7804381056
 30
0.0
 10
9.6478354439
 20
8.7596670735
 30
0.0
 10
9.6591273582
 20
8.7394735018
 30
0.0
 10
9.6715994517
 20
8.719934819
 30
0.0
 10
9.6852038527
 20
8.7011259415
 30
0.0
 10
9.6998883592
 20
8.6831189894
 30
0.0
 10
9.7155966391
 20
8.6659830123
 30
0.0
 10
9.7322684438
 20
8.6497837259
 30
0.0
 10
9.7498398385
 20
8.6345832627
 30
0.0
 10
9.7682434455
 20
8.6204399344
 30
0.0
 10
9.7874087
 20
8.6074080102
 30
0.0
 10
9.8072621192
 20
8.5955375098
 30
0.0
 10
9.8277275814
 20
8.5848740121
 30
0.0
 10
9.8487266151
 20
8.5754584812
 30
0.0
 10
9.8701786981
 20
8.5673271093
 30
0.0
 10
9.8920015587
 20
8.5605111774
 30
0.0
 10
9.9141115059
 20
8.5550369356
 30
0.0
 10
9.9364236814
 20
8.5509254962
 30
0.0
 10
9.9588526255
 20
8.5481927692
 30
0.0
 10
9.981311699
 20
8.5468493296
 30
0.0
 10
10.0000029683
 20
8.5468921248
 30
0.0
 10
10.0148821197
 20
8.5476256938
 30
0.0
 10
10.0296682227
 20
8.548821157
 30
0.0
 10
10.0480127479
 20
8.5511811514
 30
0.0
 10
10.0661338396
 20
8.5546959584
 30
0.0
 10
10.0804290139
 20
8.5581899762
 30
0.0
 10
10.0945520101
 20
8.5621274644
 30
0.0
 10
10.1049877364
 20
8.5655893029
 30
0.0
 10
10.1118534455
 20
8.5681178924
 30
0.0
  0
SPLINE
  5
376
100
AcDbEntity
  8
0
100
AcDbSpline
 62
7
  6
CONTINUOUS
 70
0
 71
3
 72
15
 73
11
 74
0
 42
0.0000001
 43
0.0000001
 44
0.0000000001
 40
0.0
 40
0.0
 40
0.0
 40
0.0
 40
0.1263700535
 40
0.2523341457
 40
0.377885965
 40
0.503042018
 40
0.627813192
 40
0.7522159717
 40
0.8762705593
 40
1.0
 40
1.0
 40
1.0
 40
1.0
 10
9.6044056791
 20
8.935144494
 30
0.0
 10
9.6044056791
 20
8.9408347095
 30
0.0
 10
9.6046735616
 20
8.9521987246
 30
0.0
 10
9.6058824992
 20
8.9691774013
 30
0.0
 10
9.6078955169
 20
8.9860250161
 30
0.0
 10
9.6107079244
 20
9.0027032547
 30
0.0
 10
9.6143136441
 20
9.0191752479
 30
0.0
 10
9.6187046554
 20
9.0354043007
 30
0.0
 10
9.6238709709
 20
9.0513537525
 30
0.0
 10
9.6278298691
 20
9.0617907886
 30
0.0
 10
9.6299343029
 20
9.0669493633
 30
0.0
  0
SPLINE
  5
377
100
AcDbEntity
  8
0
100
AcDbSpline
 62
7
  6
CONTINUOUS
 70
0
 71
3
 72
71
 73
67
 74
0
 42
0.0000001
 43
0.0000001
 44
0.0000000001
 40
0.0
 40
0.0
 40
0.0
 40
0.0
 40
0.0156372492
 40
0.0313279719
 40
0.0470702691
 40
0.0628636356
 40
0.078706085
 40
0.0945954859
 40
0.1105292303
 40
0.1265042941
 40
0.1425172939
 40
0.1585644997
 40
0.1746418769
 40
0.1907451249
 40
0.2068697161
 40
0.2230109353
 40
0.2391639203
 40
0.2553237068
 40
0.2714852727
 40
0.2876435802
 40
0.3037936187
 40
0.3199304493
 40
0.3360492495
 40
0.3521453553
 40
0.368214301
 40
0.3842518591
 40
0.400254082
 40
0.4162173382
 40
0.432138346
 40
0.4480142044
 40
0.4638424243
 40
0.479620957
 40
0.4953482151
 40
0.5110230911
 40
0.5266449716
 40
0.5422137518
 40
0.5577298409
 40
0.5731941615
 40
0.5886081454
 40
0.6039737251
 40
0.6192933216
 40
0.6345698227
 40
0.6498065569
 40
0.6650072614
 40
0.6801760495
 40
0.6953173696
 40
0.7104359593
 40
0.7255367964
 40
0.7406250465
 40
0.7557060105
 40
0.7707850676
 40
0.7858676177
 40
0.8009590222
 40
0.8160645476
 40
0.8311893103
 40
0.8463382234
 40
0.8615159446
 40
0.8767268274
 40
0.891974877
 40
0.9072637192
 40
0.9225965472
 40
0.9379761189
 40
0.953404763
 40
0.9688840052
 40
0.9844158733
 40
1.0
 40
1.0
 40
1.0
 40
1.0
 10
9.3638899552
 20
8.7428241309
 30
0.0
 10
9.3638899552
 20
8.7362546875
 30
0.0
 10
9.3642136635
 20
8.7230910995
 30
0.0
 10
9.3656631431
 20
8.7033619516
 30
0.0
 10
9.3680740954
 20
8.6836605988
 30
0.0
 10
9.3714404037
 20
8.6640353568
 30
0.0
 10
9.3757541131
 20
8.6445331092
 30
0.0
 10
9.3810047362
 20
8.6252009351
 30
0.0
 10
9.3871795834
 20
8.6060853365
 30
0.0
 10
9.3942637589
 20
8.5872323304
 30
0.0
 10
9.4022401822
 20
8.5686872972
 30
0.0
 10
9.4110896536
 20
8.550494885
 30
0.0
 10
9.4207908285
 20
8.532698873
 30
0.0
 10
9.4313203236
 20
8.5153420849
 30
0.0
 10
9.4426527793
 20
8.498466293
 30
0.0
 10
9.454760921
 20
8.4821121234
 30
0.0
 10
9.4676156034
 20
8.4663189468
 30
0.0
 10
9.4811858569
 20
8.4511247594
 30
0.0
 10
9.4954390113
 20
8.4365661292
 30
0.0
 10
9.5103407624
 20
8.4226781032
 30
0.0
 10
9.5258552603
 20
8.4094941351
 30
0.0
 10
9.5419451542
 20
8.3970459583
 30
0.0
 10
9.5585717082
 20
8.3853635309
 30
0.0
 10
9.5756949081
 20
8.374474985
 30
0.0
 10
9.5932735513
 20
8.3644065588
 30
0.0
 10
9.6112653385
 20
8.3551825267
 30
0.0
 10
9.6296269535
 20
8.346825092
 30
0.0
 10
9.6483142006
 20
8.3393543925
 30
0.0
 10
9.667282102
 20
8.3327884447
 30
0.0
 10
9.6864850071
 20
8.3271431139
 30
0.0
 10
9.7058766846
 20
8.3224320245
 30
0.0
 10
9.7254104434
 20
8.318666536
 30
0.0
 10
9.7450392523
 20
8.3158557552
 30
0.0
 10
9.7647158465
 20
8.314006505
 30
0.0
 10
9.7843928382
 20
8.3131233106
 30
0.0
 10
9.8040228287
 20
8.313208321
 30
0.0
 10
9.8235585308
 20
8.3142613687
 30
0.0
 10
9.8429528765
 20
8.3162799669
 30
0.0
 10
9.8621591266
 20
8.319259324
 30
0.0
 10
9.8811309868
 20
8.3231923128
 30
0.0
 10
9.8998227292
 20
8.3280694748
 30
0.0
 10
9.9181892911
 20
8.3338790966
 30
0.0
 10
9.9361863833
 20
8.3406072229
 30
0.0
 10
9.9537705907
 20
8.3482376977
 30
0.0
 10
9.9708995065
 20
8.3567521373
 30
0.0
 10
9.9875318198
 20
8.3661300266
 30
0.0
 10
10.0036274084
 20
8.3763487765
 30
0.0
 10
10.0191474307
 20
8.3873837785
 30
0.0
 10
10.0340544342
 20
8.3992084414
 30
0.0
 10
10.0483124735
 20
8.4117942299
 30
0.0
 10
10.061887159
 20
8.4251107879
 30
0.0
 10
10.0747457461
 20
8.4391259994
 30
0.0
 10
10.0868572027
 20
8.4538060737
 30
0.0
 10
10.0981923355
 20
8.4691155836
 30
0.0
 10
10.1087238376
 20
8.485017582
 30
0.0
 10
10.1184263326
 20
8.5014737058
 30
0.0
 10
10.127276436
 20
8.5184442647
 30
0.0
 10
10.1352528175
 20
8.535888329
 30
0.0
 10
10.1423363091
 20
8.5537638103
 30
0.0
 10
10.1485098749
 20
8.5720275974
 30
0.0
 10
10.1537586781
 20
8.5906356481
 30
0.0
 10
10.1580700986
 20
8.6095431369
 30
0.0
 10
10.1614337296
 20
8.628704361
 30
0.0
 10
10.1638417083
 20
8.6480735021
 30
0.0
 10
10.1652880092
 20
8.6676030217
 30
0.0
 10
10.1656084385
 20
8.6806776394
 30
0.0
 10
10.1656084385
 20
8.6872247652
 30
0.0
  0
SPLINE
  5
378
100
AcDbEntity
  8
0
100
AcDbSpline
 62
7
  6
CONTINUOUS
 70
0
 71
3
 72
61
 73
57
 74
0
 42
0.0000001
 43
0.0000001
 44
0.0000000001
 40
0.0
 40
0.0
 40
0.0
 40
0.0
 40
0.0081437779
 40
0.0169768221
 40
0.026520864
 40
0.0367895896
 40
0.0477882535
 40
0.0595157597
 40
0.0719659078
 40
0.0851281551
 40
0.0989883699
 40
0.1135291231
 40
0.1287302869
 40
0.1445692822
 40
0.1610212227
 40
0.178059342
 40
0.1956550036
 40
0.2137779103
 40
0.2514761113
 40
0.2908853639
 40
0.3317179256
 40
0.3736716501
 40
0.4164332973
 40
0.4596817626
 40
0.5030912704
 40
0.5463345004
 40
0.5890857199
 40
0.6310239422
 40
0.6718360813
 40
0.7112201654
 40
0.7302866913
 40
0.7488897553
 40
0.7669962987
 40
0.7845745492
 40
0.8015943376
 40
0.8180270859
 40
0.8338459997
 40
0.8490263856
 40
0.8635456527
 40
0.8773837462
 40
0.8905234392
 40
0.9029505742
 40
0.9146548141
 40
0.9256300995
 40
0.93587552
 40
0.945396641
 40
0.9542067962
 40
0.9623293437
 40
0.9698004176
 40
0.9766722689
 40
0.9830175554
 40
0.9889330671
 40
0.9917694492
 40
0.9945466048
 40
0.9972834962
 40
1.0
 40
1.0
 40
1.0
 40
1.0
 10
12.0935288238
 20
6.8608472101
 30
0.0
 10
12.0943800025
 20
6.8616693857
 30
0.0
 10
12.096077954
 20
6.8634634158
 30
0.0
 10
12.0985178203
 20
6.8664500346
 30
0.0
 10
12.1009471893
 20
6.8698332036
 30
0.0
 10
12.1033613458
 20
6.8736061461
 30
0.0
 10
12.1057558964
 20
6.8777618032
 30
0.0
 10
12.108126091
 20
6.882292145
 30
0.0
 10
12.1104672721
 20
6.887188305
 30
0.0
 10
12.1127747832
 20
6.8924406399
 30
0.0
 10
12.1150439513
 20
6.8980387625
 30
0.0
 10
12.1172702403
 20
6.9039715279
 30
0.0
 10
12.1194491478
 20
6.9102271064
 30
0.0
 10
12.1215762537
 20
6.916792999
 30
0.0
 10
12.123647294
 20
6.9236560554
 30
0.0
 10
12.1256580493
 20
6.9308025232
 30
0.0
 10
12.1276044901
 20
6.9382180764
 30
0.0
 10
12.1301420623
 20
6.9485809135
 30
0.0
 10
12.1331146282
 20
6.9620986583
 30
0.0
 10
12.1363221355
 20
6.9789364011
 30
0.0
 10
12.1391891009
 20
6.99646228
 30
0.0
 10
12.141692271
 20
7.0145355625
 30
0.0
 10
12.1438113297
 20
7.0330112247
 30
0.0
 10
12.1455291438
 20
7.0517408929
 30
0.0
 10
12.1468318527
 20
7.0705741352
 30
0.0
 10
12.1477089874
 20
7.0893596742
 30
0.0
 10
12.14815356
 20
7.1079466104
 30
0.0
 10
12.1481621526
 20
7.1261857068
 30
0.0
 10
12.1477348528
 20
7.1439304177
 30
0.0
 10
12.1470111747
 20
7.1583386559
 30
0.0
 10
12.1462095037
 20
7.1695073638
 30
0.0
 10
12.1455089778
 20
7.1775825006
 30
0.0
 10
12.1447041981
 20
7.1854305551
 30
0.0
 10
12.1437967523
 20
7.1930357787
 30
0.0
 10
12.1427885197
 20
7.2003829003
 30
0.0
 10
12.1416815455
 20
7.2074571796
 30
0.0
 10
12.1404780634
 20
7.2142444327
 30
0.0
 10
12.1391805564
 20
7.2207310696
 30
0.0
 10
12.137791636
 20
7.2269041176
 30
0.0
 10
12.1363141281
 20
7.232751258
 30
0.0
 10
12.1347510539
 20
7.2382608606
 30
0.0
 10
12.1331055298
 20
7.2434219993
 30
0.0
 10
12.1313808903
 20
7.2482245109
 30
0.0
 10
12.1295805593
 20
7.2526590118
 30
0.0
 10
12.127708008
 20
7.2567169185
 30
0.0
 10
12.1257668178
 20
7.260390525
 30
0.0
 10
12.1237604316
 20
7.2636729507
 30
0.0
 10
12.1216921108
 20
7.2665581478
 30
0.0
 10
12.1195648824
 20
7.2690407908
 30
0.0
 10
12.1173809402
 20
7.2711159144
 30
0.0
 10
12.1151428969
 20
7.2727782549
 30
0.0
 10
12.1132064964
 20
7.2738292039
 30
0.0
 10
12.111646033
 20
7.2744435471
 30
0.0
 10
12.1104820875
 20
7.2747920346
 30
0.0
 10
12.1093093214
 20
7.2750341684
 30
0.0
 10
12.1085207728
 20
7.2751246549
 30
0.0
 10
12.1081269687
 20
7.2751519705
 30
0.0
  0
SPLINE
  5
379
100
AcDbEntity
  8
0
100
AcDbSpline
 62
7
  6
CONTINUOUS
 70
0
 71
3
 72
39
 73
35
 74
0
 42
0.0000001
 43
0.0000001
 44
0.0000000001
 40
0.0
 40
0.0
 40
0.0
 40
0.0
 40
0.0310753465
 40
0.0623079051
 40
0.0936931343
 40
0.1252222873
 40
0.1568840442
 40
0.1886642041
 40
0.2205461646
 40
0.2525112494
 40
0.2845391086
 40
0.3166081364
 40
0.3486959073
 40
0.3807796231
 40
0.4128365661
 40
0.4448445503
 40
0.4767823667
 40
0.5086302139
 40
0.540370108
 40
0.5719862655
 40
0.6034654513
 40
0.6347972861
 40
0.6659745048
 40
0.6969931564
 40
0.7278527389
 40
0.7585562636
 40
0.7891102411
 40
0.8195245859
 40
0.8498124376
 40
0.8799898959
 40
0.9100756748
 40
0.9400906811
 40
0.9700575287
 40
1.0
 40
1.0
 40
1.0
 40
1.0
 10
9.4128797438
 20
8.7501446357
 30
0.0
 10
9.4128797438
 20
8.7411679784
 30
0.0
 10
9.4135493803
 20
8.7231623425
 30
0.0
 10
9.4165391758
 20
8.6962400806
 30
0.0
 10
9.4214999712
 20
8.669475907
 30
0.0
 10
9.4284043649
 20
8.6430186846
 30
0.0
 10
9.4372141109
 20
8.6170132011
 30
0.0
 10
9.4478806539
 20
8.5916023214
 30
0.0
 10
9.4603452503
 20
8.5669254654
 30
0.0
 10
9.4745393292
 20
8.5431180506
 30
0.0
 10
9.4903848591
 20
8.5203107005
 30
0.0
 10
9.5077947895
 20
8.4986285592
 30
0.0
 10
9.5266735208
 20
8.4781906079
 30
0.0
 10
9.5469174245
 20
8.4591090212
 30
0.0
 10
9.5684154064
 20
8.4414885598
 30
0.0
 10
9.5910495044
 20
8.4254259954
 30
0.0
 10
9.6146955222
 20
8.4110095711
 30
0.0
 10
9.6392237172
 20
8.3983185385
 30
0.0
 10
9.6644995001
 20
8.3874227221
 30
0.0
 10
9.6903841632
 20
8.3783821386
 30
0.0
 10
9.7167356297
 20
8.3712466651
 30
0.0
 10
9.7434092219
 20
8.3660557642
 30
0.0
 10
9.7702584399
 20
8.3628382365
 30
0.0
 10
9.797135763
 20
8.3616120721
 30
0.0
 10
9.8238934493
 20
8.3623843428
 30
0.0
 10
9.8503843391
 20
8.3651511483
 30
0.0
 10
9.8764626583
 20
8.3698976176
 30
0.0
 10
9.9019848215
 20
8.3765979786
 30
0.0
 10
9.926810218
 20
8.3852156496
 30
0.0
 10
9.9508020479
 20
8.3957034693
 30
0.0
 10
9.9738279054
 20
8.4080037829
 30
0.0
 10
9.9957611981
 20
8.42204939
 30
0.0
 10
10.0164793693
 20
8.4377615037
 30
0.0
 10
10.029410807
 20
8.4492948258
 30
0.0
 10
10.0356319295
 20
8.4553039744
 30
0.0
  0
SPLINE
  5
37A
100
AcDbEntity
  8
0
100
AcDbSpline
 62
7
  6
CONTINUOUS
 70
0
 71
3
 72
23
 73
19
 74
0
 42
0.0000001
 43
0.0000001
 44
0.0000000001
 40
0.0
 40
0.0
 40
0.0
 40
0.0
 40
0.0637775561
 40
0.1273446565
 40
0.1907020307
 40
0.2538561431
 40
0.3168131834
 40
0.3795821015
 40
0.4421733894
 40
0.5045993415
 40
0.5668738676
 40
0.6290123791
 40
0.6910316472
 40
0.7529496401
 40
0.8147853492
 40
0.8765585998
 40
0.9382898533
 40
1.0
 40
1.0
 40
1.0
 40
1.0
 10
9.1858821946
 20
8.7508818275
 30
0.0
 10
9.1858821946
 20
8.7600620308
 30
0.0
 10
9.1863215714
 20
8.778395256
 30
0.0
 10
9.1883048403
 20
8.8057836208
 30
0.0
 10
9.191606898
 20
8.8329548074
 30
0.0
 10
9.1962199971
 20
8.8598452004
 30
0.0
 10
9.2021337104
 20
8.8863931823
 30
0.0
 10
9.2093343959
 20
8.9125374333
 30
0.0
 10
9.2178055508
 20
8.9382177068
 30
0.0
 10
9.2275276966
 20
8.9633747727
 30
0.0
 10
9.2384784644
 20
8.9879506149
 30
0.0
 10
9.2506326468
 20
9.01188855
 30
0.0
 10
9.2639622518
 20
9.0351333559
 30
0.0
 10
9.2784365877
 20
9.0576314195
 30
0.0
 10
9.2940222541
 20
9.079330788
 30
0.0
 10
9.3106835107
 20
9.1001815634
 30
0.0
 10
9.328381271
 20
9.1201350004
 30
0.0
 10
9.340845956
 20
9.132810681
 30
0.0
 10
9.3472348279
 20
9.1389818418
 30
0.0
  0
SPLINE
  5
37B
100
AcDbEntity
  8
0
100
AcDbSpline
 62
7
  6
CONTINUOUS
 70
0
 71
3
 72
23
 73
19
 74
0
 42
0.0000001
 43
0.0000001
 44
0.0000000001
 40
0.0
 40
0.0
 40
0.0
 40
0.0
 40
0.0637775561
 40
0.1273446565
 40
0.1907020307
 40
0.2538561431
 40
0.3168131834
 40
0.3795821015
 40
0.4421733894
 40
0.5045993415
 40
0.5668738676
 40
0.6290123791
 40
0.6910316472
 40
0.7529496401
 40
0.8147853492
 40
0.8765585998
 40
0.9382898533
 40
1.0
 40
1.0
 40
1.0
 40
1.0
 10
9.0960510925
 20
7.369076106
 30
0.0
 10
9.0960510925
 20
7.3782563092
 30
0.0
 10
9.0964904693
 20
7.3965895345
 30
0.0
 10
9.0984737382
 20
7.4239778993
 30
0.0
 10
9.1017757959
 20
7.4511490858
 30
0.0
 10
9.106388895
 20
7.4780394789
 30
0.0
 10
9.1123026083
 20
7.5045874607
 30
0.0
 10
9.1195032938
 20
7.5307317118
 30
0.0
 10
9.1279744487
 20
7.5564119853
 30
0.0
 10
9.1376965945
 20
7.5815690511
 30
0.0
 10
9.1486473623
 20
7.6061448933
 30
0.0
 10
9.1608015447
 20
7.6300828284
 30
0.0
 10
9.1741311497
 20
7.6533276344
 30
0.0
 10
9.1886054856
 20
7.675825698
 30
0.0
 10
9.204191152
 20
7.6975250664
 30
0.0
 10
9.2208524086
 20
7.7183758419
 30
0.0
 10
9.2385501689
 20
7.7383292789
 30
0.0
 10
9.2510148539
 20
7.7510049595
 30
0.0
 10
9.2574037258
 20
7.7571761203
 30
0.0
  0
SPLINE
  5
37C
100
AcDbEntity
  8
0
100
AcDbSpline
 62
7
  6
CONTINUOUS
 70
0
 71
3
 72
51
 73
47
 74
0
 42
0.0000001
 43
0.0000001
 44
0.0000000001
 40
0.0
 40
0.0
 40
0.0
 40
0.0
 40
0.0417745182
 40
0.0840381526
 40
0.1266602401
 40
0.1695088421
 40
0.2124510407
 40
0.2553535857
 40
0.2980833694
 40
0.3405079697
 40
0.3824961696
 40
0.4239184888
 40
0.4646477158
 40
0.5045594497
 40
0.543532651
 40
0.5814502093
 40
0.6181995334
 40
0.6536731755
 40
0.6877695033
 40
0.7203934427
 40
0.7514573218
 40
0.7663795148
 40
0.7808827261
 40
0.7949585461
 40
0.8085992857
 40
0.8217979826
 40
0.8345485116
 40
0.8468456263
 40
0.8586850779
 40
0.8700637036
 40
0.8809795661
 40
0.8914321058
 40
0.9014223196
 40
0.9109530019
 40
0.9200289921
 40
0.9286575381
 40
0.9368486523
 40
0.9446156358
 40
0.9519755804
 40
0.9589500677
 40
0.9655657995
 40
0.9778459317
 40
0.9836071722
 40
0.9891799125
 40
0.9946230091
 40
1.0
 40
1.0
 40
1.0
 40
1.0
 10
12.6395071441
 20
9.5837712547
 30
0.0
 10
12.6395071441
 20
9.5741541538
 30
0.0
 10
12.639357105
 20
9.5548070481
 30
0.0
 10
12.6386938207
 20
9.5256545536
 30
0.0
 10
12.6375929208
 20
9.4962678125
 30
0.0
 10
12.6360580288
 20
9.4667441496
 30
0.0
 10
12.6340942066
 20
9.4371812062
 30
0.0
 10
12.6317079509
 20
9.4076768005
 30
0.0
 10
12.6289071642
 20
9.3783285409
 30
0.0
 10
12.6257011319
 20
9.3492335201
 30
0.0
 10
12.6221004908
 20
9.3204879864
 30
0.0
 10
12.6181171945
 20
9.2921870236
 30
0.0
 10
12.6137644744
 20
9.2644242333
 30
0.0
 10
12.609056797
 20
9.2372914221
 30
0.0
 10
12.6040098166
 20
9.210878292
 30
0.0
 10
12.5986403248
 20
9.18527214
 30
0.0
 10
12.5929661966
 20
9.1605575546
 30
0.0
 10
12.5870063294
 20
9.1368161488
 30
0.0
 10
12.5807805899
 20
9.1141261937
 30
0.0
 10
12.574309714
 20
9.0925626279
 30
0.0
 10
12.5686580029
 20
9.0753679361
 30
0.0
 10
12.5640200938
 20
9.0622369688
 30
0.0
 10
12.5605405073
 20
9.0528458301
 30
0.0
 10
12.5570160251
 20
9.0437872721
 30
0.0
 10
12.5534495506
 20
9.0350687521
 30
0.0
 10
12.5498440343
 20
9.026697455
 30
0.0
 10
12.5462024659
 20
9.0186802669
 30
0.0
 10
12.5425278496
 20
9.0110237771
 30
0.0
 10
12.5388232208
 20
9.0037342667
 30
0.0
 10
12.5350916283
 20
8.9968177041
 30
0.0
 10
12.5313361322
 20
8.9902797403
 30
0.0
 10
12.527559805
 20
8.9841256979
 30
0.0
 10
12.5237657049
 20
8.9783605759
 30
0.0
 10
12.5199568962
 20
8.97298903
 30
0.0
 10
12.5161363971
 20
8.9680153956
 30
0.0
 10
12.5123072107
 20
8.9634436512
 30
0.0
 10
12.5084722772
 20
8.9592774896
 30
0.0
 10
12.5046344055
 20
8.9555202082
 30
0.0
 10
12.5007966216
 20
8.9521750431
 30
0.0
 10
12.4969606811
 20
8.9492443283
 30
0.0
 10
12.4919788401
 20
8.9459754492
 30
0.0
 10
12.4868711354
 20
8.9434190207
 30
0.0
 10
12.4816975597
 20
8.9417233475
 30
0.0
 10
12.4779149445
 20
8.9409055927
 30
0.0
 10
12.4741535458
 20
8.9405173666
 30
0.0
 10
12.4716562563
 20
8.9405459238
 30
0.0
 10
12.4704213613
 20
8.9406315697
 30
0.0
  0
SPLINE
  5
37D
100
AcDbEntity
  8
0
100
AcDbSpline
 62
7
  6
CONTINUOUS
 70
0
 71
3
 72
37
 73
33
 74
0
 42
0.0000001
 43
0.0000001
 44
0.0000000001
 40
0.0
 40
0.0
 40
0.0
 40
0.0
 40
0.0306766055
 40
0.0614680457
 40
0.092370498
 40
0.123381978
 40
0.1544975124
 40
0.1857116159
 40
0.2170175392
 40
0.2484075545
 40
0.2798730271
 40
0.311404505
 40
0.3429918322
 40
0.3746242555
 40
0.4062905431
 40
0.4379791063
 40
0.5013555775
 40
0.5646785625
 40
0.5963008557
 40
0.6278753433
 40
0.6593914107
 40
0.6908390652
 40
0.7222090464
 40
0.7534929307
 40
0.784683233
 40
0.8157734959
 40
0.8467583694
 40
0.8776336806
 40
0.9083964914
 40
0.9390451484
 40
0.9695793172
 40
1.0
 40
1.0
 40
1.0
 40
1.0
 10
9.7446086867
 20
9.0470702079
 30
0.0
 10
9.7446086867
 20
9.0409526866
 30
0.0
 10
9.7449401706
 20
9.0286922321
 30
0.0
 10
9.7464236777
 20
9.0103232304
 30
0.0
 10
9.748890247
 20
8.9919923856
 30
0.0
 10
9.7523323989
 20
8.9737539235
 30
0.0
 10
9.7567402356
 20
8.9556605512
 30
0.0
 10
9.7621008153
 20
8.9377650126
 30
0.0
 10
9.7683985346
 20
8.9201193247
 30
0.0
 10
9.7756150133
 20
8.9027748063
 30
0.0
 10
9.7837292246
 20
8.8857818867
 30
0.0
 10
9.7927175328
 20
8.8691899835
 30
0.0
 10
9.8025538057
 20
8.8530473123
 30
0.0
 10
9.8132093204
 20
8.8374009252
 30
0.0
 10
9.824653479
 20
8.8222959157
 30
0.0
 10
9.8409165223
 20
8.8029393795
 30
0.0
 10
9.8630407465
 20
8.7803170427
 30
0.0
 10
9.8873176442
 20
8.7600423671
 30
0.0
 10
9.9078593137
 20
8.7453769446
 30
0.0
 10
9.9237743551
 20
8.7351900462
 30
0.0
 10
9.9401558473
 20
8.7258424142
 30
0.0
 10
9.9569565884
 20
8.7173608869
 30
0.0
 10
9.974127618
 20
8.7097702727
 30
0.0
 10
9.991619038
 20
8.7030926675
 30
0.0
 10
10.0093799682
 20
8.6973475286
 30
0.0
 10
10.0273587573
 20
8.692551606
 30
0.0
 10
10.0455031092
 20
8.6887189009
 30
0.0
 10
10.0637602584
 20
8.6858606238
 30
0.0
 10
10.082077037
 20
8.6839851599
 30
0.0
 10
10.1004003384
 20
8.683098043
 30
0.0
 10
10.1186761113
 20
8.6832018498
 30
0.0
 10
10.1308168895
 20
8.6839329878
 30
0.0
 10
10.1368600947
 20
8.6844639445
 30
0.0
  0
SPLINE
  5
37E
100
AcDbEntity
  8
0
100
AcDbSpline
 62
7
  6
CONTINUOUS
 70
0
 71
3
 72
23
 73
19
 74
0
 42
0.0000001
 43
0.0000001
 44
0.0000000001
 40
0.0
 40
0.0
 40
0.0
 40
0.0
 40
0.0637767638
 40
0.1273450118
 40
0.1907019674
 40
0.2538561101
 40
0.3168132145
 40
0.3795820843
 40
0.4421733868
 40
0.5045993403
 40
0.5668738673
 40
0.6290123789
 40
0.6910316481
 40
0.752949645
 40
0.8147853545
 40
0.8765586015
 40
0.9382898522
 40
1.0
 40
1.0
 40
1.0
 40
1.0
 10
10.3720392197
 20
8.9101030293
 30
0.0
 10
10.3720392197
 20
8.9152870692
 30
0.0
 10
10.3722873638
 20
8.9256399562
 30
0.0
 10
10.3734072822
 20
8.9411062936
 30
0.0
 10
10.3752719921
 20
8.9564500512
 30
0.0
 10
10.3778770013
 20
8.9716351616
 30
0.0
 10
10.3812165086
 20
8.9866269361
 30
0.0
 10
10.3852827803
 20
9.001390718
 30
0.0
 10
10.3900664614
 20
9.0158924936
 30
0.0
 10
10.3955565791
 20
9.0300988191
 30
0.0
 10
10.4017405269
 20
9.0439769154
 30
0.0
 10
10.4086040424
 20
9.0574947852
 30
0.0
 10
10.4161313117
 20
9.0706212501
 30
0.0
 10
10.4243050147
 20
9.083326029
 30
0.0
 10
10.4331063143
 20
9.0955797657
 30
0.0
 10
10.4425149945
 20
9.1073543047
 30
0.0
 10
10.4525089783
 20
9.1186221263
 30
0.0
 10
10.4595478207
 20
9.1257801675
 30
0.0
 10
10.463155644
 20
9.1292650544
 30
0.0
  0
SPLINE
  5
37F
100
AcDbEntity
  8
0
100
AcDbSpline
 62
7
  6
CONTINUOUS
 70
0
 71
3
 72
23
 73
19
 74
0
 42
0.0000001
 43
0.0000001
 44
0.0000000001
 40
0.0
 40
0.0
 40
0.0
 40
0.0
 40
0.0607066434
 40
0.1219194725
 40
0.1836148095
 40
0.2457536738
 40
0.3082854525
 40
0.3711482218
 40
0.434270486
 40
0.4975726913
 40
0.5609690629
 40
0.6243700822
 40
0.687684682
 40
0.7508227126
 40
0.813697962
 40
0.8762309052
 40
0.9383505765
 40
1.0
 40
1.0
 40
1.0
 40
1.0
 10
9.7720292514
 20
7.6733959315
 30
0.0
 10
9.7734025203
 20
7.6664971364
 30
0.0
 10
9.7767528489
 20
7.6527528315
 30
0.0
 10
9.7835072926
 20
7.6325533724
 30
0.0
 10
9.7919674038
 20
7.6128249
 30
0.0
 10
9.8020753534
 20
7.5937155771
 30
0.0
 10
9.8137617457
 20
7.575368238
 30
0.0
 10
9.8269452585
 20
7.5579225294
 30
0.0
 10
9.8415328689
 20
7.5415131444
 30
0.0
 10
9.8574199438
 20
7.5262689283
 30
0.0
 10
9.874490508
 20
7.5123115363
 30
0.0
 10
9.8926178319
 20
7.4997542669
 30
0.0
 10
9.9116650644
 20
7.4887007352
 30
0.0
 10
9.9314861311
 20
7.4792434187
 30
0.0
 10
9.951926719
 20
7.4714625081
 30
0.0
 10
9.9728264754
 20
7.4654247388
 30
0.0
 10
9.9940172613
 20
7.4611822147
 30
0.0
 10
10.0082883846
 20
7.459568401
 30
0.0
 10
10.0154146577
 20
7.4590741923
 30
0.0
  0
SPLINE
  5
380
100
AcDbEntity
  8
0
100
AcDbSpline
 62
7
  6
CONTINUOUS
 70
0
 71
3
 72
23
 73
19
 74
0
 42
0.0000001
 43
0.0000001
 44
0.0000000001
 40
0.0
 40
0.0
 40
0.0
 40
0.0
 40
0.0637771735
 40
0.1273448473
 40
0.1907019822
 40
0.253856143
 40
0.3168131975
 40
0.3795820985
 40
0.4421733906
 40
0.5045993374
 40
0.5668738654
 40
0.62901238
 40
0.6910316489
 40
0.7529496402
 40
0.814785347
 40
0.8765585971
 40
0.938289852
 40
1.0
 40
1.0
 40
1.0
 40
1.0
 10
10.423233239
 20
7.6991453576
 30
0.0
 10
10.423233239
 20
7.7059340456
 30
0.0
 10
10.4235581736
 20
7.7194914222
 30
0.0
 10
10.4250247693
 20
7.7397450205
 30
0.0
 10
10.4274666554
 20
7.7598380574
 30
0.0
 10
10.4308780078
 20
7.7797233942
 30
0.0
 10
10.4352511805
 20
7.7993555405
 30
0.0
 10
10.4405760868
 20
7.8186891178
 30
0.0
 10
10.4468404911
 20
7.8376795846
 30
0.0
 10
10.4540299872
 20
7.8562831471
 30
0.0
 10
10.4621280348
 20
7.8744569011
 30
0.0
 10
10.4711160126
 20
7.8921589219
 30
0.0
 10
10.4809732303
 20
7.9093483646
 30
0.0
 10
10.4916769712
 20
7.9259855922
 30
0.0
 10
10.5032025298
 20
7.9420321912
 30
0.0
 10
10.515523476
 20
7.957451264
 30
0.0
 10
10.5286109138
 20
7.9722067586
 30
0.0
 10
10.5378285214
 20
7.9815803653
 30
0.0
 10
10.5425530722
 20
7.9861439156
 30
0.0
  0
SPLINE
  5
381
100
AcDbEntity
  8
0
100
AcDbSpline
 62
7
  6
CONTINUOUS
 70
0
 71
3
 72
46
 73
42
 74
0
 42
0.0000001
 43
0.0000001
 44
0.0000000001
 40
0.0
 40
0.0
 40
0.0
 40
0.0
 40
0.031068026
 40
0.0622925822
 40
0.0936691113
 40
0.1251890832
 40
0.1568412556
 40
0.1886116274
 40
0.2204837928
 40
0.2524392973
 40
0.2844580202
 40
0.3165185872
 40
0.3485987977
 40
0.3806760642
 40
0.4127278571
 40
0.4447321485
 40
0.4766678495
 40
0.5085152353
 40
0.5402563478
 40
0.5718753735
 40
0.6033589928
 40
0.6346966811
 40
0.665880965
 40
0.696907628
 40
0.7277758483
 40
0.7584882662
 40
0.7890509803
 40
0.8042818142
 40
0.8194790473
 40
0.8346443638
 40
0.8497796324
 40
0.8648868942
 40
0.8799683589
 40
0.8950263865
 40
0.9100634747
 40
0.9250822492
 40
0.9400854431
 40
0.9550758825
 40
0.9700564729
 40
0.9850301774
 40
1.0
 40
1.0
 40
1.0
 40
1.0
 10
9.100192194
 20
7.3730761031
 30
0.0
 10
9.100192194
 20
7.3588955107
 30
0.0
 10
9.1012453899
 20
7.3304520616
 30
0.0
 10
9.1059478409
 20
7.2879213923
 30
0.0
 10
9.1137506524
 20
7.24563732
 30
0.0
 10
9.1246110908
 20
7.2038329996
 30
0.0
 10
9.1384695644
 20
7.1627352048
 30
0.0
 10
9.1552502762
 20
7.1225677465
 30
0.0
 10
9.1748616387
 20
7.0835490864
 30
0.0
 10
9.1971967362
 20
7.0458915036
 30
0.0
 10
9.2221338144
 20
7.009799796
 30
0.0
 10
9.2495370714
 20
6.9754702747
 30
0.0
 10
9.2792573822
 20
6.9430897209
 30
0.0
 10
9.3111329947
 20
6.9128342886
 30
0.0
 10
9.3449904755
 20
6.8848686028
 30
0.0
 10
9.3806456807
 20
6.8593449298
 30
0.0
 10
9.4179046859
 20
6.8364022958
 30
0.0
 10
9.4565648089
 20
6.8161656806
 30
0.0
 10
9.4964157712
 20
6.7987454541
 30
0.0
 10
9.5372408009
 20
6.7842367732
 30
0.0
 10
9.57881775
 20
6.7727189214
 30
0.0
 10
9.6209203286
 20
6.7642549867
 30
0.0
 10
9.6633193623
 20
6.7588915647
 30
0.0
 10
9.7057838115
 20
6.7566583271
 30
0.0
 10
9.7480827223
 20
6.7575680285
 30
0.0
 10
9.7899839227
 20
6.7616158368
 30
0.0
 10
9.8244256806
 20
6.7675946513
 30
0.0
 10
9.8515418417
 20
6.7739195065
 30
0.0
 10
9.8716175809
 20
6.7794208169
 30
0.0
 10
9.8914249773
 20
6.7856771378
 30
0.0
 10
9.9109373899
 20
6.7926800317
 30
0.0
 10
9.9301280794
 20
6.8004199986
 30
0.0
 10
9.9489709314
 20
6.8088864073
 30
0.0
 10
9.9674402088
 20
6.8180677822
 30
0.0
 10
9.9855107067
 20
6.8279516233
 30
0.0
 10
10.0031578115
 20
6.8385243832
 30
0.0
 10
10.0203574088
 20
6.8497717296
 30
0.0
 10
10.0370860197
 20
6.8616782836
 30
0.0
 10
10.0533209422
 20
6.8742278362
 30
0.0
 10
10.0690396518
 20
6.8874030679
 30
0.0
 10
10.0791617861
 20
6.8965929357
 30
0.0
 10
10.084128755
 20
6.9012850661
 30
0.0
  0
SPLINE
  5
382
100
AcDbEntity
  8
0
100
AcDbSpline
 62
7
  6
CONTINUOUS
 70
0
 71
3
 72
16
 73
12
 74
0
 42
0.0000001
 43
0.0000001
 44
0.0000000001
 40
0.0
 40
0.0
 40
0.0
 40
0.0
 40
0.108143846
 40
0.2181185702
 40
0.33165846
 40
0.4503236032
 40
0.5120296138
 40
0.5755044439
 40
0.7082526723
 40
0.8495205869
 40
1.0
 40
1.0
 40
1.0
 40
1.0
 10
12.0789306789
 20
8.5445333536
 30
0.0
 10
12.0795252574
 20
8.5444921116
 30
0.0
 10
12.0807316918
 20
8.5444907103
 30
0.0
 10
12.0825483897
 20
8.5447334051
 30
0.0
 10
12.0843753989
 20
8.5452194801
 30
0.0
 10
12.0858844422
 20
8.5458180066
 30
0.0
 10
12.0870912383
 20
8.546410398
 30
0.0
 10
12.0883346751
 20
8.5471003994
 30
0.0
 10
12.0898940258
 20
8.5481193783
 30
0.0
 10
12.0917400786
 20
8.5495601248
 30
0.0
 10
12.0929323252
 20
8.5506412178
 30
0.0
 10
12.0935288238
 20
8.5512173911
 30
0.0
  0
SPLINE
  5
383
100
AcDbEntity
  8
0
100
AcDbSpline
 62
7
  6
CONTINUOUS
 70
0
 71
3
 72
23
 73
19
 74
0
 42
0.0000001
 43
0.0000001
 44
0.0000000001
 40
0.0
 40
0.0
 40
0.0
 40
0.0
 40
0.0637677669
 40
0.1273282749
 40
0.1906815152
 40
0.2538341546
 40
0.3167919791
 40
0.3795636088
 40
0.4421591313
 40
0.5045903572
 40
0.5668706725
 40
0.6290149112
 40
0.6910392311
 40
0.752960959
 40
0.8147984292
 40
0.876570809
 40
0.9382979116
 40
1.0
 40
1.0
 40
1.0
 40
1.0
 10
9.100192194
 20
7.3730761031
 30
0.0
 10
9.100192194
 20
7.3821325662
 30
0.0
 10
9.1006198204
 20
7.4002190434
 30
0.0
 10
9.1025499404
 20
7.4272411122
 30
0.0
 10
9.1057636495
 20
7.4540534803
 30
0.0
 10
9.110253557
 20
7.480595007
 30
0.0
 10
9.1160098199
 20
7.5068065469
 30
0.0
 10
9.1230195108
 20
7.5326291647
 30
0.0
 10
9.1312669998
 20
7.5580049535
 30
0.0
 10
9.1407338142
 20
7.582876963
 30
0.0
 10
9.1513987565
 20
7.607189376
 30
0.0
 10
9.1632379405
 20
7.6308876224
 30
0.0
 10
9.1762248365
 20
7.6539184991
 30
0.0
 10
9.1903303542
 20
7.6762303069
 30
0.0
 10
9.2055228219
 20
7.6977729017
 30
0.0
 10
9.2217683155
 20
7.7184980937
 30
0.0
 10
9.2390297591
 20
7.7383587183
 30
0.0
 10
9.2511915276
 20
7.7509957734
 30
0.0
 10
9.2574263896
 20
7.7571535525
 30
0.0
  0
SPLINE
  5
384
100
AcDbEntity
  8
0
100
AcDbSpline
 62
7
  6
CONTINUOUS
 70
0
 71
3
 72
71
 73
67
 74
0
 42
0.0000001
 43
0.0000001
 44
0.0000000001
 40
0.0
 40
0.0
 40
0.0
 40
0.0
 40
0.0155841267
 40
0.0311159948
 40
0.046595237
 40
0.0620238811
 40
0.0774034528
 40
0.0927362808
 40
0.108025123
 40
0.1232731726
 40
0.1384840554
 40
0.1536617766
 40
0.1688106897
 40
0.1839354524
 40
0.1990409778
 40
0.2141323823
 40
0.2292149324
 40
0.2442939895
 40
0.2593749535
 40
0.2744632036
 40
0.2895640407
 40
0.3046826304
 40
0.3198239505
 40
0.3349927386
 40
0.3501934431
 40
0.3654301773
 40
0.3807066784
 40
0.3960262749
 40
0.4113918546
 40
0.4268058385
 40
0.4422701591
 40
0.4577862482
 40
0.4733550284
 40
0.4889769089
 40
0.5046517849
 40
0.520379043
 40
0.5361575757
 40
0.5519857956
 40
0.567861654
 40
0.5837826618
 40
0.599745918
 40
0.6157481409
 40
0.631785699
 40
0.6478546447
 40
0.6639507505
 40
0.6800695507
 40
0.6962063813
 40
0.7123564198
 40
0.7285147273
 40
0.7446762932
 40
0.7608360797
 40
0.7769890647
 40
0.7931302839
 40
0.8092548751
 40
0.8253581231
 40
0.8414355003
 40
0.8574827061
 40
0.8734957059
 40
0.8894707697
 40
0.9054045141
 40
0.921293915
 40
0.9371363644
 40
0.9529297309
 40
0.9686720281
 40
0.9843627508
 40
1.0
 40
1.0
 40
1.0
 40
1.0
 10
9.2740588531
 20
7.3610184093
 30
0.0
 10
9.2740588531
 20
7.3675655351
 30
0.0
 10
9.2743792824
 20
7.3806401528
 30
0.0
 10
9.2758255832
 20
7.4001696724
 30
0.0
 10
9.2782335619
 20
7.4195388135
 30
0.0
 10
9.281597193
 20
7.4387000376
 30
0.0
 10
9.2859086135
 20
7.4576075264
 30
0.0
 10
9.2911574166
 20
7.4762155771
 30
0.0
 10
9.2973309825
 20
7.4944793642
 30
0.0
 10
9.304414474
 20
7.5123548455
 30
0.0
 10
9.3123908556
 20
7.5297989098
 30
0.0
 10
9.321240959
 20
7.5467694687
 30
0.0
 10
9.3309434539
 20
7.5632255925
 30
0.0
 10
9.3414749561
 20
7.5791275909
 30
0.0
 10
9.3528100889
 20
7.5944371008
 30
0.0
 10
9.3649215454
 20
7.6091171751
 30
0.0
 10
9.3777801326
 20
7.6231323867
 30
0.0
 10
9.3913548181
 20
7.6364489446
 30
0.0
 10
9.4056128574
 20
7.6490347331
 30
0.0
 10
9.4205198608
 20
7.660859396
 30
0.0
 10
9.4360398832
 20
7.6718943981
 30
0.0
 10
9.4521354717
 20
7.6821131479
 30
0.0
 10
9.4687677851
 20
7.6914910372
 30
0.0
 10
9.4858967009
 20
7.7000054768
 30
0.0
 10
9.5034809082
 20
7.7076359517
 30
0.0
 10
9.5214780005
 20
7.7143640779
 30
0.0
 10
9.5398445624
 20
7.7201736997
 30
0.0
 10
9.5585363047
 20
7.7250508618
 30
0.0
 10
9.577508165
 20
7.7289838506
 30
0.0
 10
9.5967144151
 20
7.7319632077
 30
0.0
 10
9.6161087608
 20
7.7339818059
 30
0.0
 10
9.6356444629
 20
7.7350348535
 30
0.0
 10
9.6552744534
 20
7.7351198639
 30
0.0
 10
9.674951445
 20
7.7342366695
 30
0.0
 10
9.6946280393
 20
7.7323874193
 30
0.0
 10
9.7142568482
 20
7.7295766385
 30
0.0
 10
9.733790607
 20
7.7258111501
 30
0.0
 10
9.7531822845
 20
7.7211000606
 30
0.0
 10
9.7723851895
 20
7.7154547298
 30
0.0
 10
9.791353091
 20
7.708888782
 30
0.0
 10
9.8100403381
 20
7.7014180825
 30
0.0
 10
9.828401953
 20
7.6930606479
 30
0.0
 10
9.8463937402
 20
7.6838366157
 30
0.0
 10
9.8639723835
 20
7.6737681895
 30
0.0
 10
9.8810955834
 20
7.6628796436
 30
0.0
 10
9.8977221374
 20
7.6511972162
 30
0.0
 10
9.9138120312
 20
7.6387490394
 30
0.0
 10
9.9293265292
 20
7.6255650714
 30
0.0
 10
9.9442282803
 20
7.6116770453
 30
0.0
 10
9.9584814347
 20
7.5971184151
 30
0.0
 10
9.9720516881
 20
7.5819242277
 30
0.0
 10
9.9849063706
 20
7.5661310512
 30
0.0
 10
9.9970145123
 20
7.5497768815
 30
0.0
 10
10.008346968
 20
7.5329010896
 30
0.0
 10
10.0188764631
 20
7.5155443015
 30
0.0
 10
10.028577638
 20
7.4977482895
 30
0.0
 10
10.0374271093
 20
7.4795558773
 30
0.0
 10
10.0454035327
 20
7.4610108442
 30
0.0
 10
10.0524877082
 20
7.4421578381
 30
0.0
 10
10.0586625554
 20
7.4230422394
 30
0.0
 10
10.0639131785
 20
7.4037100653
 30
0.0
 10
10.0682268878
 20
7.3842078177
 30
0.0
 10
10.0715931962
 20
7.3645825757
 30
0.0
 10
10.0740041485
 20
7.3448812229
 30
0.0
 10
10.0754536281
 20
7.3251520751
 30
0.0
 10
10.0757773364
 20
7.3119884871
 30
0.0
 10
10.0757773364
 20
7.3054190437
 30
0.0
  0
SPLINE
  5
385
100
AcDbEntity
  8
0
100
AcDbSpline
 62
7
  6
CONTINUOUS
 70
0
 71
3
 72
16
 73
12
 74
0
 42
0.0000001
 43
0.0000001
 44
0.0000000001
 40
0.0
 40
0.0
 40
0.0
 40
0.0
 40
0.108143846
 40
0.2181185702
 40
0.33165846
 40
0.4503236032
 40
0.5120296138
 40
0.5755044439
 40
0.7082526723
 40
0.8495205869
 40
1.0
 40
1.0
 40
1.0
 40
1.0
 10
12.0789306789
 20
6.8541631726
 30
0.0
 10
12.0795252574
 20
6.8541219306
 30
0.0
 10
12.0807316918
 20
6.8541205293
 30
0.0
 10
12.0825483897
 20
6.8543632241
 30
0.0
 10
12.0843753989
 20
6.8548492991
 30
0.0
 10
12.0858844422
 20
6.8554478256
 30
0.0
 10
12.0870912383
 20
6.8560402169
 30
0.0
 10
12.0883346751
 20
6.8567302184
 30
0.0
 10
12.0898940258
 20
6.8577491973
 30
0.0
 10
12.0917400786
 20
6.8591899437
 30
0.0
 10
12.0929323252
 20
6.8602710368
 30
0.0
 10
12.0935288238
 20
6.8608472101
 30
0.0
  0
SPLINE
  5
386
100
AcDbEntity
  8
0
100
AcDbSpline
 62
7
  6
CONTINUOUS
 70
0
 71
3
 72
23
 73
19
 74
0
 42
0.0000001
 43
0.0000001
 44
0.0000000001
 40
0.0
 40
0.0
 40
0.0
 40
0.0
 40
0.063776763
 40
0.1273450105
 40
0.1907019658
 40
0.2538561083
 40
0.3168132129
 40
0.3795820829
 40
0.4421733857
 40
0.5045993396
 40
0.5668738671
 40
0.6290123792
 40
0.6910316488
 40
0.752949646
 40
0.8147853557
 40
0.8765586025
 40
0.9382898529
 40
1.0
 40
1.0
 40
1.0
 40
1.0
 10
9.3230486417
 20
7.3683389142
 30
0.0
 10
9.3230486417
 20
7.3741246667
 30
0.0
 10
9.3233255876
 20
7.3856792155
 30
0.0
 10
9.3245754938
 20
7.4029407341
 30
0.0
 10
9.3266566387
 20
7.4200654453
 30
0.0
 10
9.3295640087
 20
7.4370130955
 30
0.0
 10
9.3332911294
 20
7.4537449695
 30
0.0
 10
9.3378293692
 20
7.4702223882
 30
0.0
 10
9.3431682876
 20
7.4864073902
 30
0.0
 10
9.3492956379
 20
7.5022626497
 30
0.0
 10
9.3561973508
 20
7.5177515831
 30
0.0
 10
9.3638575082
 20
7.5328384793
 30
0.0
 10
9.3722584608
 20
7.5474885409
 30
0.0
 10
9.3813808783
 20
7.5616679723
 30
0.0
 10
9.3912037372
 20
7.5753440098
 30
0.0
 10
9.4017044751
 20
7.5884852301
 30
0.0
 10
9.4128584526
 20
7.6010609193
 30
0.0
 10
9.4207142879
 20
7.6090498028
 30
0.0
 10
9.4247408686
 20
7.6129391848
 30
0.0
  0
SPLINE
  5
387
100
AcDbEntity
  8
0
100
AcDbSpline
 62
7
  6
CONTINUOUS
 70
0
 71
3
 72
15
 73
11
 74
0
 42
0.0000001
 43
0.0000001
 44
0.0000000001
 40
0.0
 40
0.0
 40
0.0
 40
0.0
 40
0.1265428107
 40
0.2526177194
 40
0.378226565
 40
0.5033876427
 40
0.6281183223
 40
0.7524436233
 40
0.8763928185
 40
1.0
 40
1.0
 40
1.0
 40
1.0
 10
9.5407854196
 20
7.5551565038
 30
0.0
 10
9.5407854196
 20
7.5612492407
 30
0.0
 10
9.5411130004
 20
7.5734147997
 30
0.0
 10
9.542592015
 20
7.5915739871
 30
0.0
 10
9.545053721
 20
7.6095597361
 30
0.0
 10
9.5484908117
 20
7.6273188652
 30
0.0
 10
9.5528934763
 20
7.6447999476
 30
0.0
 10
9.5582489822
 20
7.6619521657
 30
0.0
 10
9.5645414981
 20
7.6787249118
 30
0.0
 10
9.5693559939
 20
7.6896368258
 30
0.0
 10
9.5719124554
 20
7.6950111711
 30
0.0
  0
SPLINE
  5
388
100
AcDbEntity
  8
0
100
AcDbSpline
 62
7
  6
CONTINUOUS
 70
0
 71
3
 72
40
 73
36
 74
0
 42
0.0000001
 43
0.0000001
 44
0.0000000001
 40
0.0
 40
0.0
 40
0.0
 40
0.0
 40
0.0063160317
 40
0.0126709803
 40
0.0191029757
 40
0.0256486833
 40
0.0323427436
 40
0.0392172655
 40
0.0536154772
 40
0.0690526586
 40
0.0856860581
 40
0.1036344402
 40
0.1229845836
 40
0.1437975252
 40
0.1661136309
 40
0.1899565788
 40
0.215336668
 40
0.2422532113
 40
0.2706962166
 40
0.3006479298
 40
0.3320839776
 40
0.3649740847
 40
0.3992827974
 40
0.4349701487
 40
0.4719920266
 40
0.5103004985
 40
0.5498442818
 40
0.5905689983
 40
0.6324173162
 40
0.6753293134
 40
0.7192426811
 40
0.7640927959
 40
0.8098131949
 40
0.9035868196
 40
1.0
 40
1.0
 40
1.0
 40
1.0
 10
12.5417507117
 20
9.9691611372
 30
0.0
 10
12.5426220016
 20
9.9691007091
 30
0.0
 10
12.5443658331
 20
9.9689081687
 30
0.0
 10
12.5469620299
 20
9.9684062664
 30
0.0
 10
12.5495408763
 20
9.9676913674
 30
0.0
 10
12.5521008717
 20
9.9667640045
 30
0.0
 10
12.5546409584
 20
9.9656246969
 30
0.0
 10
12.558051778
 20
9.9637963015
 30
0.0
 10
12.5622723448
 20
9.9609492705
 30
0.0
 10
12.5671541281
 20
9.9567526267
 30
0.0
 10
12.5719271403
 20
9.9517328397
 30
0.0
 10
12.5765858554
 20
9.9458992127
 30
0.0
 10
12.5811252622
 20
9.939260894
 30
0.0
 10
12.5855393715
 20
9.9318280968
 30
0.0
 10
12.5898219162
 20
9.9236122357
 30
0.0
 10
12.5939664576
 20
9.9146261267
 30
0.0
 10
12.5979664982
 20
9.9048839431
 30
0.0
 10
12.6018155934
 20
9.8944012193
 30
0.0
 10
12.6055074956
 20
9.8831948388
 30
0.0
 10
12.6090361404
 20
9.8712829593
 30
0.0
 10
12.6123956717
 20
9.8586849611
 30
0.0
 10
12.6155805212
 20
9.8454214246
 30
0.0
 10
12.6185854084
 20
9.831514076
 30
0.0
 10
12.6214053183
 20
9.8169857269
 30
0.0
 10
12.6240355445
 20
9.8018602436
 30
0.0
 10
12.6264717239
 20
9.7861625075
 30
0.0
 10
12.6287097928
 20
9.7699183537
 30
0.0
 10
12.6307460042
 20
9.7531545303
 30
0.0
 10
12.6325769809
 20
9.7358986603
 30
0.0
 10
12.6341996766
 20
9.7181791841
 30
0.0
 10
12.6356113621
 20
9.7000253219
 30
0.0
 10
12.6368097226
 20
9.6814669729
 30
0.0
 10
12.6381314382
 20
9.6560095212
 30
0.0
 10
12.6392246903
 20
9.6234033274
 30
0.0
 10
12.6395071441
 20
9.5971032989
 30
0.0
 10
12.6395071441
 20
9.5837712547
 30
0.0
  0
SPLINE
  5
389
100
AcDbEntity
  8
0
100
AcDbSpline
 62
7
  6
CONTINUOUS
 70
0
 71
3
 72
39
 73
35
 74
0
 42
0.0000001
 43
0.0000001
 44
0.0000000001
 40
0.0
 40
0.0
 40
0.0
 40
0.0
 40
0.0300777488
 40
0.0602611862
 40
0.0905595412
 40
0.1209801782
 40
0.1515285009
 40
0.1822078896
 40
0.2130196733
 40
0.2439631372
 40
0.2750355615
 40
0.306232286
 40
0.3375468024
 40
0.3689708696
 40
0.4004946512
 40
0.432106873
 40
0.4637949994
 40
0.4955454202
 40
0.5273436485
 40
0.5591745269
 40
0.5910224408
 40
0.6228715364
 40
0.6547059446
 40
0.6865100023
 40
0.718268471
 40
0.7499667511
 40
0.7815910872
 40
0.8131287704
 40
0.8445683359
 40
0.8758996785
 40
0.9071144902
 40
0.9382054449
 40
0.9691689199
 40
1.0
 40
1.0
 40
1.0
 40
1.0
 10
11.0833646035
 20
7.6250315914
 30
0.0
 10
11.0795005572
 20
7.6235900675
 30
0.0
 10
11.0716621997
 20
7.6209540353
 30
0.0
 10
11.0596532456
 20
7.6177638632
 30
0.0
 10
11.0474176048
 20
7.6153424971
 30
0.0
 10
11.0350031526
 20
7.6136994319
 30
0.0
 10
11.0224576062
 20
7.6128408673
 30
0.0
 10
11.0098293984
 20
7.6127700597
 30
0.0
 10
10.9971672064
 20
7.6134871948
 30
0.0
 10
10.9845198387
 20
7.6149894246
 30
0.0
 10
10.9719360284
 20
7.6172708833
 30
0.0
 10
10.9594642528
 20
7.6203227114
 30
0.0
 10
10.9471525482
 20
7.6241330913
 30
0.0
 10
10.9350483279
 20
7.6286872937
 30
0.0
 10
10.9231982025
 20
7.6339677345
 30
0.0
 10
10.9116477934
 20
7.6399540258
 30
0.0
 10
10.9004415644
 20
7.6466230734
 30
0.0
 10
10.8896226533
 20
7.6539491649
 30
0.0
 10
10.8792327077
 20
7.6619040688
 30
0.0
 10
10.869311727
 20
7.6704571412
 30
0.0
 10
10.8598979114
 20
7.6795754442
 30
0.0
 10
10.8510275106
 20
7.689223865
 30
0.0
 10
10.8427346769
 20
7.6993652464
 30
0.0
 10
10.8350513479
 20
7.7099605418
 30
0.0
 10
10.8280071218
 20
7.7209689615
 30
0.0
 10
10.8216291463
 20
7.7323481283
 30
0.0
 10
10.8159420136
 20
7.7440542375
 30
0.0
 10
10.8109676668
 20
7.7560422269
 30
0.0
 10
10.8067253139
 20
7.7682659324
 30
0.0
 10
10.8032313062
 20
7.7806783085
 30
0.0
 10
10.8004992303
 20
7.793231465
 30
0.0
 10
10.7985395295
 20
7.8058773321
 30
0.0
 10
10.7973600276
 20
7.8185664176
 30
0.0
 10
10.7970962124
 20
7.8270418076
 30
0.0
 10
10.7970962124
 20
7.8312692805
 30
0.0
  0
SPLINE
  5
38A
100
AcDbEntity
  8
0
100
AcDbSpline
 62
7
  6
CONTINUOUS
 70
0
 71
3
 72
15
 73
11
 74
0
 42
0.0000001
 43
0.0000001
 44
0.0000000001
 40
0.0
 40
0.0
 40
0.0
 40
0.0
 40
0.1263700849
 40
0.2523342629
 40
0.3778860945
 40
0.5030421447
 40
0.6278133101
 40
0.7522160592
 40
0.8762706073
 40
1.0
 40
1.0
 40
1.0
 40
1.0
 10
9.514574577
 20
7.5533387724
 30
0.0
 10
9.514574577
 20
7.5590292794
 30
0.0
 10
9.5148424876
 20
7.570393879
 30
0.0
 10
9.516051549
 20
7.587373423
 30
0.0
 10
9.5180647737
 20
7.6042218889
 30
0.0
 10
9.5208774706
 20
7.6209009536
 30
0.0
 10
9.5244835594
 20
7.6373737444
 30
0.0
 10
9.5288750184
 20
7.6536035608
 30
0.0
 10
9.5340418569
 20
7.6695537364
 30
0.0
 10
9.5380011575
 20
7.6799912246
 30
0.0
 10
9.5401058023
 20
7.6851500175
 30
0.0
  0
SPLINE
  5
38B
100
AcDbEntity
  8
0
100
AcDbSpline
 62
7
  6
CONTINUOUS
 70
0
 71
3
 72
39
 73
35
 74
0
 42
0.0000001
 43
0.0000001
 44
0.0000000001
 40
0.0
 40
0.0
 40
0.0
 40
0.0
 40
0.0299424698
 40
0.0599093171
 40
0.0899243244
 40
0.1200101049
 40
0.1501875654
 40
0.1804754197
 40
0.2108897678
 40
0.2414437479
 40
0.2721472748
 40
0.3030068601
 40
0.3340255156
 40
0.3652027379
 40
0.3965345747
 40
0.4280137612
 40
0.4596299196
 40
0.491369815
 40
0.5232176628
 40
0.555155479
 40
0.5871634623
 40
0.619220404
 40
0.6513041182
 40
0.6833918873
 40
0.7154609133
 40
0.74748877
 40
0.7794538516
 40
0.811335809
 40
0.8431159677
 40
0.8747777197
 40
0.9063068786
 40
0.9376920899
 40
0.9689246486
 40
1.0
 40
1.0
 40
1.0
 40
1.0
 10
11.1539281833
 20
7.3531980746
 30
0.0
 10
11.1466287274
 20
7.3461473654
 30
0.0
 10
11.1314558135
 20
7.3326150039
 30
0.0
 10
11.1071464701
 20
7.3141795529
 30
0.0
 10
11.0814113829
 20
7.2976994822
 30
0.0
 10
11.0543943666
 20
7.2832672145
 30
0.0
 10
11.0262439531
 20
7.2709615986
 30
0.0
 10
10.9971154925
 20
7.2608502969
 30
0.0
 10
10.9671694992
 20
7.2529886428
 30
0.0
 10
10.9365709623
 20
7.2474195304
 30
0.0
 10
10.9054883499
 20
7.2441732073
 30
0.0
 10
10.8740927
 20
7.2432671351
 30
0.0
 10
10.8425566814
 20
7.2447059178
 30
0.0
 10
10.8110536466
 20
7.2484812289
 30
0.0
 10
10.7797566829
 20
7.2545719403
 30
0.0
 10
10.7488376771
 20
7.2629442531
 30
0.0
 10
10.7184663922
 20
7.273551902
 30
0.0
 10
10.6888095345
 20
7.2863363652
 30
0.0
 10
10.6600298466
 20
7.3012272045
 30
0.0
 10
10.6322852439
 20
7.31814249
 30
0.0
 10
10.6057279613
 20
7.336989242
 30
0.0
 10
10.5805037262
 20
7.3576639258
 30
0.0
 10
10.556750933
 20
7.3800529803
 30
0.0
 10
10.5345999326
 20
7.4040334907
 30
0.0
 10
10.514172321
 20
7.4294738459
 30
0.0
 10
10.4955802907
 20
7.4562344568
 30
0.0
 10
10.4789259658
 20
7.4841684739
 30
0.0
 10
10.4643008779
 20
7.5131226207
 30
0.0
 10
10.4517854813
 20
7.5429380098
 30
0.0
 10
10.4414487253
 20
7.5734510714
 30
0.0
 10
10.4333476087
 20
7.604494174
 30
0.0
 10
10.4275269608
 20
7.6358974282
 30
0.0
 10
10.4240189469
 20
7.6674861712
 30
0.0
 10
10.423233239
 20
7.6886127583
 30
0.0
 10
10.423233239
 20
7.6991453576
 30
0.0
  0
SPLINE
  5
38C
100
AcDbEntity
  8
0
100
AcDbSpline
 62
7
  6
CONTINUOUS
 70
0
 71
3
 72
71
 73
67
 74
0
 42
0.0000001
 43
0.0000001
 44
0.0000000001
 40
0.0
 40
0.0
 40
0.0
 40
0.0
 40
0.0156372492
 40
0.0313279719
 40
0.0470702691
 40
0.0628636356
 40
0.078706085
 40
0.0945954859
 40
0.1105292303
 40
0.1265042941
 40
0.1425172939
 40
0.1585644997
 40
0.1746418769
 40
0.1907451249
 40
0.2068697161
 40
0.2230109353
 40
0.2391639203
 40
0.2553237068
 40
0.2714852727
 40
0.2876435802
 40
0.3037936187
 40
0.3199304493
 40
0.3360492495
 40
0.3521453553
 40
0.368214301
 40
0.3842518591
 40
0.400254082
 40
0.4162173382
 40
0.432138346
 40
0.4480142044
 40
0.4638424243
 40
0.479620957
 40
0.4953482151
 40
0.5110230911
 40
0.5266449716
 40
0.5422137518
 40
0.5577298409
 40
0.5731941615
 40
0.5886081454
 40
0.6039737251
 40
0.6192933216
 40
0.6345698227
 40
0.6498065569
 40
0.6650072614
 40
0.6801760495
 40
0.6953173696
 40
0.7104359593
 40
0.7255367964
 40
0.7406250465
 40
0.7557060105
 40
0.7707850676
 40
0.7858676177
 40
0.8009590222
 40
0.8160645476
 40
0.8311893103
 40
0.8463382234
 40
0.8615159446
 40
0.8767268274
 40
0.891974877
 40
0.9072637192
 40
0.9225965472
 40
0.9379761189
 40
0.953404763
 40
0.9688840052
 40
0.9844158733
 40
1.0
 40
1.0
 40
1.0
 40
1.0
 10
9.2740588531
 20
7.3610184093
 30
0.0
 10
9.2740588531
 20
7.3544489659
 30
0.0
 10
9.2743825614
 20
7.3412853779
 30
0.0
 10
9.275832041
 20
7.3215562301
 30
0.0
 10
9.2782429933
 20
7.3018548773
 30
0.0
 10
9.2816093016
 20
7.2822296353
 30
0.0
 10
9.285923011
 20
7.2627273877
 30
0.0
 10
9.2911736341
 20
7.2433952136
 30
0.0
 10
9.2973484813
 20
7.2242796149
 30
0.0
 10
9.3044326568
 20
7.2054266088
 30
0.0
 10
9.3124090801
 20
7.1868815757
 30
0.0
 10
9.3212585515
 20
7.1686891634
 30
0.0
 10
9.3309597264
 20
7.1508931515
 30
0.0
 10
9.3414892215
 20
7.1335363634
 30
0.0
 10
9.3528216772
 20
7.1166605715
 30
0.0
 10
9.3649298189
 20
7.1003064018
 30
0.0
 10
9.3777845013
 20
7.0845132253
 30
0.0
 10
9.3913547548
 20
7.0693190379
 30
0.0
 10
9.4056079091
 20
7.0547604077
 30
0.0
 10
9.4205096603
 20
7.0408723816
 30
0.0
 10
9.4360241582
 20
7.0276884136
 30
0.0
 10
9.4521140521
 20
7.0152402368
 30
0.0
 10
9.4687406061
 20
7.0035578093
 30
0.0
 10
9.485863806
 20
6.9926692635
 30
0.0
 10
9.5034424492
 20
6.9826008373
 30
0.0
 10
9.5214342364
 20
6.9733768051
 30
0.0
 10
9.5397958514
 20
6.9650193705
 30
0.0
 10
9.5584830985
 20
6.957548671
 30
0.0
 10
9.5774509999
 20
6.9509827232
 30
0.0
 10
9.596653905
 20
6.9453373923
 30
0.0
 10
9.6160455825
 20
6.9406263029
 30
0.0
 10
9.6355793413
 20
6.9368608145
 30
0.0
 10
9.6552081502
 20
6.9340500337
 30
0.0
 10
9.6748847444
 20
6.9322007835
 30
0.0
 10
9.6945617361
 20
6.9313175891
 30
0.0
 10
9.7141917266
 20
6.9314025995
 30
0.0
 10
9.7337274287
 20
6.9324556471
 30
0.0
 10
9.7531217744
 20
6.9344742453
 30
0.0
 10
9.7723280245
 20
6.9374536024
 30
0.0
 10
9.7912998847
 20
6.9413865912
 30
0.0
 10
9.8099916271
 20
6.9462637533
 30
0.0
 10
9.828358189
 20
6.9520733751
 30
0.0
 10
9.8463552812
 20
6.9588015013
 30
0.0
 10
9.8639394886
 20
6.9664319762
 30
0.0
 10
9.8810684044
 20
6.9749464157
 30
0.0
 10
9.8977007177
 20
6.9843243051
 30
0.0
 10
9.9137963063
 20
6.9945430549
 30
0.0
 10
9.9293163286
 20
7.0055780569
 30
0.0
 10
9.9442233321
 20
7.0174027199
 30
0.0
 10
9.9584813714
 20
7.0299885084
 30
0.0
 10
9.9720560569
 20
7.0433050663
 30
0.0
 10
9.984914644
 20
7.0573202779
 30
0.0
 10
9.9970261006
 20
7.0720003522
 30
0.0
 10
10.0083612334
 20
7.0873098621
 30
0.0
 10
10.0188927355
 20
7.1032118605
 30
0.0
 10
10.0285952305
 20
7.1196679843
 30
0.0
 10
10.0374453339
 20
7.1366385432
 30
0.0
 10
10.0454217154
 20
7.1540826075
 30
0.0
 10
10.052505207
 20
7.1719580888
 30
0.0
 10
10.0586787728
 20
7.1902218759
 30
0.0
 10
10.063927576
 20
7.2088299265
 30
0.0
 10
10.0682389965
 20
7.2277374154
 30
0.0
 10
10.0716026275
 20
7.2468986395
 30
0.0
 10
10.0740106062
 20
7.2662677805
 30
0.0
 10
10.0754569071
 20
7.2857973002
 30
0.0
 10
10.0757773364
 20
7.2988719179
 30
0.0
 10
10.0757773364
 20
7.3054190437
 30
0.0
  0
SPLINE
  5
38D
100
AcDbEntity
  8
0
100
AcDbSpline
 62
7
  6
CONTINUOUS
 70
0
 71
3
 72
39
 73
35
 74
0
 42
0.0000001
 43
0.0000001
 44
0.0000000001
 40
0.0
 40
0.0
 40
0.0
 40
0.0
 40
0.0310753465
 40
0.0623079051
 40
0.0936931343
 40
0.1252222873
 40
0.1568840442
 40
0.1886642041
 40
0.2205461646
 40
0.2525112494
 40
0.2845391086
 40
0.3166081364
 40
0.3486959073
 40
0.3807796231
 40
0.4128365661
 40
0.4448445503
 40
0.4767823667
 40
0.5086302139
 40
0.540370108
 40
0.5719862655
 40
0.6034654513
 40
0.6347972861
 40
0.6659745048
 40
0.6969931564
 40
0.7278527389
 40
0.7585562636
 40
0.7891102411
 40
0.8195245859
 40
0.8498124376
 40
0.8799898959
 40
0.9100756748
 40
0.9400906811
 40
0.9700575287
 40
1.0
 40
1.0
 40
1.0
 40
1.0
 10
9.3230486417
 20
7.3683389142
 30
0.0
 10
9.3230486417
 20
7.3593622569
 30
0.0
 10
9.3237182782
 20
7.341356621
 30
0.0
 10
9.3267080737
 20
7.314434359
 30
0.0
 10
9.3316688691
 20
7.2876701854
 30
0.0
 10
9.3385732628
 20
7.261212963
 30
0.0
 10
9.3473830088
 20
7.2352074796
 30
0.0
 10
9.3580495518
 20
7.2097965998
 30
0.0
 10
9.3705141482
 20
7.1851197438
 30
0.0
 10
9.3847082271
 20
7.1613123291
 30
0.0
 10
9.400553757
 20
7.138504979
 30
0.0
 10
9.4179636874
 20
7.1168228376
 30
0.0
 10
9.4368424187
 20
7.0963848863
 30
0.0
 10
9.4570863224
 20
7.0773032997
 30
0.0
 10
9.4785843043
 20
7.0596828382
 30
0.0
 10
9.5012184023
 20
7.0436202738
 30
0.0
 10
9.5248644201
 20
7.0292038496
 30
0.0
 10
9.5493926151
 20
7.0165128169
 30
0.0
 10
9.574668398
 20
7.0056170005
 30
0.0
 10
9.6005530611
 20
6.996576417
 30
0.0
 10
9.6269045276
 20
6.9894409435
 30
0.0
 10
9.6535781198
 20
6.9842500426
 30
0.0
 10
9.6804273378
 20
6.981032515
 30
0.0
 10
9.7073046609
 20
6.9798063506
 30
0.0
 10
9.7340623472
 20
6.9805786213
 30
0.0
 10
9.760553237
 20
6.9833454267
 30
0.0
 10
9.7866315562
 20
6.9880918961
 30
0.0
 10
9.8121537194
 20
6.9947922571
 30
0.0
 10
9.8369791159
 20
7.003409928
 30
0.0
 10
9.8609709458
 20
7.0138977477
 30
0.0
 10
9.8839968033
 20
7.0261980614
 30
0.0
 10
9.905930096
 20
7.0402436684
 30
0.0
 10
9.9266482672
 20
7.0559557822
 30
0.0
 10
9.9395797049
 20
7.0674891042
 30
0.0
 10
9.9458008274
 20
7.0734982529
 30
0.0
  0
SPLINE
  5
38E
100
AcDbEntity
  8
0
100
AcDbSpline
 62
7
  6
CONTINUOUS
 70
0
 71
3
 72
61
 73
57
 74
0
 42
0.0000001
 43
0.0000001
 44
0.0000000001
 40
0.0
 40
0.0
 40
0.0
 40
0.0
 40
0.0081437779
 40
0.0169768221
 40
0.026520864
 40
0.0367895896
 40
0.0477882535
 40
0.0595157597
 40
0.0719659078
 40
0.0851281551
 40
0.0989883699
 40
0.1135291231
 40
0.1287302869
 40
0.1445692822
 40
0.1610212227
 40
0.178059342
 40
0.1956550036
 40
0.2137779103
 40
0.2514761113
 40
0.2908853639
 40
0.3317179256
 40
0.3736716501
 40
0.4164332973
 40
0.4596817626
 40
0.5030912704
 40
0.5463345004
 40
0.5890857199
 40
0.6310239422
 40
0.6718360813
 40
0.7112201654
 40
0.7302866913
 40
0.7488897553
 40
0.7669962987
 40
0.7845745492
 40
0.8015943376
 40
0.8180270859
 40
0.8338459997
 40
0.8490263856
 40
0.8635456527
 40
0.8773837462
 40
0.8905234392
 40
0.9029505742
 40
0.9146548141
 40
0.9256300995
 40
0.93587552
 40
0.945396641
 40
0.9542067962
 40
0.9623293437
 40
0.9698004176
 40
0.9766722689
 40
0.9830175554
 40
0.9889330671
 40
0.9917694492
 40
0.9945466048
 40
0.9972834962
 40
1.0
 40
1.0
 40
1.0
 40
1.0
 10
12.0935288238
 20
8.5512173911
 30
0.0
 10
12.0943800025
 20
8.5520395667
 30
0.0
 10
12.096077954
 20
8.5538335968
 30
0.0
 10
12.0985178203
 20
8.5568202157
 30
0.0
 10
12.1009471893
 20
8.5602033846
 30
0.0
 10
12.1033613458
 20
8.5639763272
 30
0.0
 10
12.1057558964
 20
8.5681319843
 30
0.0
 10
12.108126091
 20
8.572662326
 30
0.0
 10
12.1104672721
 20
8.577558486
 30
0.0
 10
12.1127747832
 20
8.5828108209
 30
0.0
 10
12.1150439513
 20
8.5884089436
 30
0.0
 10
12.1172702403
 20
8.5943417089
 30
0.0
 10
12.1194491478
 20
8.6005972874
 30
0.0
 10
12.1215762537
 20
8.6071631801
 30
0.0
 10
12.123647294
 20
8.6140262364
 30
0.0
 10
12.1256580493
 20
8.6211727042
 30
0.0
 10
12.1276044901
 20
8.6285882574
 30
0.0
 10
12.1301420623
 20
8.6389510945
 30
0.0
 10
12.1331146282
 20
8.6524688393
 30
0.0
 10
12.1363221355
 20
8.6693065821
 30
0.0
 10
12.1391891009
 20
8.686832461
 30
0.0
 10
12.141692271
 20
8.7049057435
 30
0.0
 10
12.1438113297
 20
8.7233814057
 30
0.0
 10
12.1455291438
 20
8.7421110739
 30
0.0
 10
12.1468318527
 20
8.7609443162
 30
0.0
 10
12.1477089874
 20
8.7797298552
 30
0.0
 10
12.14815356
 20
8.7983167914
 30
0.0
 10
12.1481621526
 20
8.8165558878
 30
0.0
 10
12.1477348528
 20
8.8343005987
 30
0.0
 10
12.1470111747
 20
8.8487088369
 30
0.0
 10
12.1462095037
 20
8.8598775448
 30
0.0
 10
12.1455089778
 20
8.8679526816
 30
0.0
 10
12.1447041981
 20
8.8758007361
 30
0.0
 10
12.1437967523
 20
8.8834059597
 30
0.0
 10
12.1427885197
 20
8.8907530813
 30
0.0
 10
12.1416815455
 20
8.8978273606
 30
0.0
 10
12.1404780634
 20
8.9046146137
 30
0.0
 10
12.1391805564
 20
8.9111012507
 30
0.0
 10
12.137791636
 20
8.9172742986
 30
0.0
 10
12.1363141281
 20
8.923121439
 30
0.0
 10
12.1347510539
 20
8.9286310416
 30
0.0
 10
12.1331055298
 20
8.9337921803
 30
0.0
 10
12.1313808903
 20
8.9385946919
 30
0.0
 10
12.1295805593
 20
8.9430291928
 30
0.0
 10
12.127708008
 20
8.9470870995
 30
0.0
 10
12.1257668178
 20
8.950760706
 30
0.0
 10
12.1237604316
 20
8.9540431317
 30
0.0
 10
12.1216921108
 20
8.9569283288
 30
0.0
 10
12.1195648824
 20
8.9594109718
 30
0.0
 10
12.1173809402
 20
8.9614860954
 30
0.0
 10
12.1151428969
 20
8.9631484359
 30
0.0
 10
12.1132064964
 20
8.9641993849
 30
0.0
 10
12.111646033
 20
8.9648137281
 30
0.0
 10
12.1104820875
 20
8.9651622156
 30
0.0
 10
12.1093093214
 20
8.9654043495
 30
0.0
 10
12.1085207728
 20
8.9654948359
 30
0.0
 10
12.1081269687
 20
8.9655221515
 30
0.0
  0
SPLINE
  5
38F
100
AcDbEntity
  8
0
100
AcDbSpline
 62
7
  6
CONTINUOUS
 70
0
 71
3
 72
39
 73
35
 74
0
 42
0.0000001
 43
0.0000001
 44
0.0000000001
 40
0.0
 40
0.0
 40
0.0
 40
0.0
 40
0.029942471
 40
0.0599093185
 40
0.089924325
 40
0.1200101043
 40
0.1501875632
 40
0.1804754155
 40
0.2108897611
 40
0.2414437393
 40
0.2721472649
 40
0.3030068482
 40
0.3340255005
 40
0.3652027199
 40
0.3965345553
 40
0.4280137416
 40
0.4596298994
 40
0.4913697937
 40
0.523217641
 40
0.5551554573
 40
0.5871634413
 40
0.619220384
 40
0.6513040994
 40
0.6833918697
 40
0.715460897
 40
0.7474887556
 40
0.7794538398
 40
0.8113357995
 40
0.8431159588
 40
0.874777715
 40
0.9063068673
 40
0.9376920959
 40
0.968924654
 40
1.0
 40
1.0
 40
1.0
 40
1.0
 10
10.9300249891
 20
8.6459256142
 30
0.0
 10
10.9244508604
 20
8.6405414239
 30
0.0
 10
10.9128642871
 20
8.6302075811
 30
0.0
 10
10.8943008
 20
8.6161295479
 30
0.0
 10
10.8746485659
 20
8.6035447044
 30
0.0
 10
10.8540173956
 20
8.5925236433
 30
0.0
 10
10.8325207157
 20
8.5831265762
 30
0.0
 10
10.810277162
 20
8.5754051617
 30
0.0
 10
10.7874093067
 20
8.569401656
 30
0.0
 10
10.7640431373
 20
8.5651488362
 30
0.0
 10
10.7403073058
 20
8.5626697942
 30
0.0
 10
10.716332426
 20
8.5619778541
 30
0.0
 10
10.6922503527
 20
8.5630765106
 30
0.0
 10
10.6681934626
 20
8.5659594272
 30
0.0
 10
10.644293934
 20
8.5706104849
 30
0.0
 10
10.6206830307
 20
8.5770038782
 30
0.0
 10
10.5974903837
 20
8.5851042485
 30
0.0
 10
10.5748432938
 20
8.5948669061
 30
0.0
 10
10.5528660428
 20
8.606238076
 30
0.0
 10
10.5316792227
 20
8.6191551953
 30
0.0
 10
10.5113990826
 20
8.6335472548
 30
0.0
 10
10.4921369024
 20
8.6493351886
 30
0.0
 10
10.4739983759
 20
8.6664322893
 30
0.0
 10
10.4570830434
 20
8.6847446916
 30
0.0
 10
10.4414837558
 20
8.7041718869
 30
0.0
 10
10.4272861703
 20
8.7246072682
 30
0.0
 10
10.4145682841
 20
8.7459387065
 30
0.0
 10
10.4034000133
 20
8.7680491634
 30
0.0
 10
10.3938427974
 20
8.7908173047
 30
0.0
 10
10.3859492705
 20
8.8141182104
 30
0.0
 10
10.379762938
 20
8.8378238737
 30
0.0
 10
10.3753180685
 20
8.861804565
 30
0.0
 10
10.3726392135
 20
8.8859269032
 30
0.0
 10
10.3720392197
 20
8.9020599472
 30
0.0
 10
10.3720392197
 20
8.9101030293
 30
0.0
  0
SPLINE
  5
390
100
AcDbEntity
  8
0
100
AcDbSpline
 62
7
  6
CONTINUOUS
 70
0
 71
3
 72
46
 73
42
 74
0
 42
0.0000001
 43
0.0000001
 44
0.0000000001
 40
0.0
 40
0.0
 40
0.0
 40
0.0
 40
0.0149720525
 40
0.0299471649
 40
0.0449283772
 40
0.0599186917
 40
0.0749210573
 40
0.0899383484
 40
0.1049733476
 40
0.1200287333
 40
0.1351070597
 40
0.1502107421
 40
0.1653420474
 40
0.1805030776
 40
0.1956957572
 40
0.2109218287
 40
0.2414745667
 40
0.2721768461
 40
0.3030351766
 40
0.3340525707
 40
0.3652285255
 40
0.3965590884
 40
0.4280369959
 40
0.4596518697
 40
0.4913904744
 40
0.523237028
 40
0.5551735471
 40
0.5871802301
 40
0.6192358692
 40
0.6513182802
 40
0.6834047461
 40
0.7154724694
 40
0.7474990252
 40
0.7794628091
 40
0.811343472
 40
0.843122339
 40
0.8747828041
 40
0.9063106918
 40
0.9376946023
 40
0.9689259241
 40
1.0
 40
1.0
 40
1.0
 40
1.0
 10
10.1739813628
 20
8.28306706
 30
0.0
 10
10.1690454656
 20
8.2782993614
 30
0.0
 10
10.1589819266
 20
8.2689582039
 30
0.0
 10
10.1433401211
 20
8.2555558477
 30
0.0
 10
10.1271716036
 20
8.2427798238
 30
0.0
 10
10.1104989904
 20
8.2306479428
 30
0.0
 10
10.0933451423
 20
8.2191768141
 30
0.0
 10
10.0757336518
 20
8.2083823019
 30
0.0
 10
10.0576887941
 20
8.1982791825
 30
0.0
 10
10.0392354004
 20
8.1888813539
 30
0.0
 10
10.0203988353
 20
8.1802018008
 30
0.0
 10
10.0012050643
 20
8.1722523834
 30
0.0
 10
9.9816804644
 20
8.1650440339
 30
0.0
 10
9.9618519866
 20
8.1585867313
 30
0.0
 10
9.9417465531
 20
8.152889217
 30
0.0
 10
9.9145798172
 20
8.1463092608
 30
0.0
 10
9.8800543547
 20
8.1400251337
 30
0.0
 10
9.8380231698
 20
8.1356354843
 30
0.0
 10
9.7955674079
 20
8.1344101224
 30
0.0
 10
9.7529221683
 20
8.1363557436
 30
0.0
 10
9.7103214389
 20
8.1414609682
 30
0.0
 10
9.6679993927
 20
8.1496972376
 30
0.0
 10
9.6261884502
 20
8.1610188968
 30
0.0
 10
9.5851181767
 20
8.1753633308
 30
0.0
 10
9.5450139825
 20
8.1926513668
 30
0.0
 10
9.5060959739
 20
8.2127878346
 30
0.0
 10
9.4685777012
 20
8.2356619369
 30
0.0
 10
9.4326649893
 20
8.2611478771
 30
0.0
 10
9.39855491
 20
8.289105671
 30
0.0
 10
9.3664346448
 20
8.3193817895
 30
0.0
 10
9.3364804287
 20
8.3518099795
 30
0.0
 10
9.3088567156
 20
8.3862122892
 30
0.0
 10
9.283715215
 20
8.4223999481
 30
0.0
 10
9.2611939898
 20
8.4601743537
 30
0.0
 10
9.2414168571
 20
8.4993282625
 30
0.0
 10
9.2244926546
 20
8.5396468273
 30
0.0
 10
9.2105145265
 20
8.5809088214
 30
0.0
 10
9.1995595744
 20
8.6228875613
 30
0.0
 10
9.1916884672
 20
8.6653533478
 30
0.0
 10
9.1869446953
 20
8.7080699567
 30
0.0
 10
9.1858821946
 20
8.7366388819
 30
0.0
 10
9.1858821946
 20
8.7508818275
 30
0.0
  0
SPLINE
  5
391
100
AcDbEntity
  8
0
100
AcDbSpline
 62
7
  6
CONTINUOUS
 70
0
 71
3
 72
41
 73
37
 74
0
 42
0.0000001
 43
0.0000001
 44
0.0000000001
 40
0.0
 40
0.0
 40
0.0
 40
0.0
 40
0.0300314054
 40
0.0450859098
 40
0.0601668424
 40
0.0904090924
 40
0.1207715188
 40
0.1360021343
 40
0.1512652977
 40
0.1818874143
 40
0.2126447146
 40
0.2435378159
 40
0.2745651437
 40
0.305722985
 40
0.3370055739
 40
0.3684052053
 40
0.3999123757
 40
0.4315159463
 40
0.4632033261
 40
0.494960672
 40
0.5267731031
 40
0.5586249257
 40
0.5904998679
 40
0.6223813189
 40
0.6542525729
 40
0.6860970731
 40
0.7178986549
 40
0.7496417845
 40
0.7813117912
 40
0.8128950906
 40
0.8443793966
 40
0.8757539147
 40
0.9070095313
 40
0.9381389438
 40
0.9691368654
 40
1.0
 40
1.0
 40
1.0
 40
1.0
 10
10.0329161623
 20
7.2177340477
 30
0.0
 10
10.0264721148
 20
7.2149385134
 30
0.0
 10
10.0166524667
 20
7.2110653533
 30
0.0
 10
10.003317588
 20
7.2065620562
 30
0.0
 10
9.9897926715
 20
7.2024899604
 30
0.0
 10
9.9725955412
 20
7.1982321252
 30
0.0
 10
9.9551214968
 20
7.1951075343
 30
0.0
 10
9.9410017578
 20
7.1932890627
 30
0.0
 10
9.9267699953
 20
7.1919239983
 30
0.0
 10
9.9088498026
 20
7.1910797651
 30
0.0
 10
9.8872562406
 20
7.1914474244
 30
0.0
 10
9.8656348502
 20
7.1931928322
 30
0.0
 10
9.8440737453
 20
7.1963088408
 30
0.0
 10
9.8226600444
 20
7.2007826842
 30
0.0
 10
9.8014804446
 20
7.2065961339
 30
0.0
 10
9.780620625
 20
7.2137255483
 30
0.0
 10
9.7601649711
 20
7.2221419779
 30
0.0
 10
9.7401962185
 20
7.2318112815
 30
0.0
 10
9.7207951271
 20
7.2426942655
 30
0.0
 10
9.7020401562
 20
7.2547468428
 30
0.0
 10
9.6840071504
 20
7.2679202103
 30
0.0
 10
9.6667690359
 20
7.2821610455
 30
0.0
 10
9.650395528
 20
7.2974117218
 30
0.0
 10
9.6349528515
 20
7.3136105391
 30
0.0
 10
9.6205034749
 20
7.3306919723
 30
0.0
 10
9.6071058596
 20
7.3485869345
 30
0.0
 10
9.5948142249
 20
7.3672230535
 30
0.0
 10
9.5836783303
 20
7.3865249631
 30
0.0
 10
9.5737432748
 20
7.4064146039
 30
0.0
 10
9.565049315
 20
7.4268115391
 30
0.0
 10
9.5576317039
 20
7.4476332665
 30
0.0
 10
9.5515205438
 20
7.4687955864
 30
0.0
 10
9.5467406726
 20
7.4902127999
 30
0.0
 10
9.5433115449
 20
7.511798565
 30
0.0
 10
9.5412471768
 20
7.5334643539
 30
0.0
 10
9.5407854196
 20
7.5479376658
 30
0.0
 10
9.5407854196
 20
7.5551565038
 30
0.0
  0
SPLINE
  5
392
100
AcDbEntity
  8
0
100
AcDbSpline
 62
7
  6
CONTINUOUS
 70
0
 71
3
 72
41
 73
37
 74
0
 42
0.0000001
 43
0.0000001
 44
0.0000000001
 40
0.0
 40
0.0
 40
0.0
 40
0.0
 40
0.0308284193
 40
0.0617880806
 40
0.0928757377
 40
0.124086657
 40
0.1554140279
 40
0.1868494454
 40
0.2183829021
 40
0.2500029994
 40
0.2816971038
 40
0.3134515397
 40
0.3452517855
 40
0.3770826808
 40
0.4089286394
 40
0.440773866
 40
0.4726025756
 40
0.5043992121
 40
0.5361486656
 40
0.5678364841
 40
0.5994490801
 40
0.6309739272
 40
0.6623997464
 40
0.6937166788
 40
0.7249164417
 40
0.7559924668
 40
0.786940017
 40
0.8177562796
 40
0.8484404325
 40
0.8637351426
 40
0.878997451
 40
0.9094230434
 40
0.9397262326
 40
0.9548360509
 40
0.969918133
 40
1.0
 40
1.0
 40
1.0
 40
1.0
 10
9.514574577
 20
7.5533387724
 30
0.0
 10
9.514574577
 20
7.545841758
 30
0.0
 10
9.5150413611
 20
7.5308117655
 30
0.0
 10
9.5171286116
 20
7.5083089705
 30
0.0
 10
9.5205963363
 20
7.4858823575
 30
0.0
 10
9.5254310641
 20
7.4636191241
 30
0.0
 10
9.5316141761
 20
7.4416043174
 30
0.0
 10
9.5391218385
 20
7.4199224433
 30
0.0
 10
9.547925183
 20
7.3986566017
 30
0.0
 10
9.5579903728
 20
7.3778883206
 30
0.0
 10
9.5692787537
 20
7.3576972071
 30
0.0
 10
9.5817469934
 20
7.3381606548
 30
0.0
 10
9.5953472507
 20
7.3193535472
 30
0.0
 10
9.6100273568
 20
7.301347974
 30
0.0
 10
9.6257310146
 20
7.2842129568
 30
0.0
 10
9.6423980133
 20
7.268014186
 30
0.0
 10
9.6599644575
 20
7.2528137717
 30
0.0
 10
9.6783630102
 20
7.2386700061
 30
0.0
 10
9.6975231496
 20
7.2256371425
 30
0.0
 10
9.7173714366
 20
7.2137651874
 30
0.0
 10
9.7378317939
 20
7.2030997105
 30
0.0
 10
9.7588257956
 20
7.1936816699
 30
0.0
 10
9.7802729651
 20
7.1855472555
 30
0.0
 10
9.8020910768
 20
7.1787277497
 30
0.0
 10
9.8241964853
 20
7.1732494075
 30
0.0
 10
9.8465043776
 20
7.169133351
 30
0.0
 10
9.8689293388
 20
7.1663954985
 30
0.0
 10
9.8913847726
 20
7.1650464563
 30
0.0
 10
9.910073326
 20
7.1650841497
 30
0.0
 10
9.9249505174
 20
7.1658134948
 30
0.0
 10
9.9397348234
 20
7.1670044834
 30
0.0
 10
9.9580773786
 20
7.1693587335
 30
0.0
 10
9.9761969312
 20
7.1728673804
 30
0.0
 10
9.9904911223
 20
7.1763563981
 30
0.0
 10
10.0046133519
 20
7.1802886423
 30
0.0
 10
10.0150486976
 20
7.1837465027
 30
0.0
 10
10.0219142634
 20
7.186272373
 30
0.0
  0
SPLINE
  5
393
100
AcDbEntity
  8
0
100
AcDbSpline
 62
7
  6
CONTINUOUS
 70
0
 71
3
 72
46
 73
42
 74
0
 42
0.0000001
 43
0.0000001
 44
0.0000000001
 40
0.0
 40
0.0
 40
0.0
 40
0.0
 40
0.0149720525
 40
0.0299471649
 40
0.0449283772
 40
0.0599186917
 40
0.0749210573
 40
0.0899383484
 40
0.1049733476
 40
0.1200287333
 40
0.1351070597
 40
0.1502107421
 40
0.1653420474
 40
0.1805030776
 40
0.1956957572
 40
0.2109218287
 40
0.2414745667
 40
0.2721768461
 40
0.3030351766
 40
0.3340525707
 40
0.3652285255
 40
0.3965590884
 40
0.4280369959
 40
0.4596518697
 40
0.4913904744
 40
0.523237028
 40
0.5551735471
 40
0.5871802301
 40
0.6192358692
 40
0.6513182802
 40
0.6834047461
 40
0.7154724694
 40
0.7474990252
 40
0.7794628091
 40
0.811343472
 40
0.843122339
 40
0.8747828041
 40
0.9063106918
 40
0.9376946023
 40
0.9689259241
 40
1.0
 40
1.0
 40
1.0
 40
1.0
 10
10.0841502607
 20
6.9012613385
 30
0.0
 10
10.0792143635
 20
6.8964936399
 30
0.0
 10
10.0691508245
 20
6.8871524824
 30
0.0
 10
10.053509019
 20
6.8737501262
 30
0.0
 10
10.0373405015
 20
6.8609741023
 30
0.0
 10
10.0206678883
 20
6.8488422213
 30
0.0
 10
10.0035140402
 20
6.8373710926
 30
0.0
 10
9.9859025497
 20
6.8265765804
 30
0.0
 10
9.967857692
 20
6.8164734609
 30
0.0
 10
9.9494042983
 20
6.8070756324
 30
0.0
 10
9.9305677332
 20
6.7983960793
 30
0.0
 10
9.9113739622
 20
6.7904466618
 30
0.0
 10
9.8918493623
 20
6.7832383124
 30
0.0
 10
9.8720208845
 20
6.7767810097
 30
0.0
 10
9.851915451
 20
6.7710834955
 30
0.0
 10
9.8247487151
 20
6.7645035392
 30
0.0
 10
9.7902232526
 20
6.7582194121
 30
0.0
 10
9.7481920677
 20
6.7538297628
 30
0.0
 10
9.7057363058
 20
6.7526044008
 30
0.0
 10
9.6630910662
 20
6.7545500221
 30
0.0
 10
9.6204903368
 20
6.7596552467
 30
0.0
 10
9.5781682906
 20
6.7678915161
 30
0.0
 10
9.536357348
 20
6.7792131753
 30
0.0
 10
9.4952870746
 20
6.7935576092
 30
0.0
 10
9.4551828804
 20
6.8108456452
 30
0.0
 10
9.4162648718
 20
6.830982113
 30
0.0
 10
9.3787465991
 20
6.8538562154
 30
0.0
 10
9.3428338872
 20
6.8793421556
 30
0.0
 10
9.3087238079
 20
6.9072999495
 30
0.0
 10
9.2766035427
 20
6.937576068
 30
0.0
 10
9.2466493266
 20
6.9700042579
 30
0.0
 10
9.2190256135
 20
7.0044065677
 30
0.0
 10
9.1938841129
 20
7.0405942266
 30
0.0
 10
9.1713628877
 20
7.0783686322
 30
0.0
 10
9.151585755
 20
7.117522541
 30
0.0
 10
9.1346615525
 20
7.1578411058
 30
0.0
 10
9.1206834244
 20
7.1991030999
 30
0.0
 10
9.1097284723
 20
7.2410818397
 30
0.0
 10
9.1018573651
 20
7.2835476263
 30
0.0
 10
9.0971135932
 20
7.3262642352
 30
0.0
 10
9.0960510925
 20
7.3548331603
 30
0.0
 10
9.0960510925
 20
7.369076106
 30
0.0
  0
SPLINE
  5
394
100
AcDbEntity
  8
0
100
AcDbSpline
 62
7
  6
CONTINUOUS
 70
0
 71
3
 72
47
 73
43
 74
0
 42
0.0000001
 43
0.0000001
 44
0.0000000001
 40
0.0
 40
0.0
 40
0.0
 40
0.0
 40
0.0150835478
 40
0.0301960347
 40
0.0453397024
 40
0.0605166021
 40
0.090971177
 40
0.1215778889
 40
0.1369439635
 40
0.1523508348
 40
0.1677989202
 40
0.183288394
 40
0.2143852741
 40
0.2456437252
 40
0.2770564756
 40
0.3086127186
 40
0.3402984074
 40
0.3720966094
 40
0.4039879108
 40
0.4359508636
 40
0.4679624651
 40
0.4999986637
 40
0.5320348797
 40
0.5640465327
 40
0.5960095699
 40
0.627900987
 40
0.6596993339
 40
0.6913851934
 40
0.7229416286
 40
0.7543545879
 40
0.7856132609
 40
0.8167103713
 40
0.8321999602
 40
0.8476481628
 40
0.863055148
 40
0.878421337
 40
0.9090282681
 40
0.9394830483
 40
0.9546600446
 40
0.9698038029
 40
0.9849163733
 40
1.0
 40
1.0
 40
1.0
 40
1.0
 10
10.1227897482
 20
8.5995582115
 30
0.0
 10
10.1188871201
 20
8.5978644948
 30
0.0
 10
10.111004409
 20
8.5946324804
 30
0.0
 10
10.0989822945
 20
8.5902636087
 30
0.0
 10
10.0867681915
 20
8.5863754144
 30
0.0
 10
10.0702347502
 20
8.581835321
 30
0.0
 10
10.0491709833
 20
8.5773920216
 30
0.0
 10
10.0277690818
 20
8.5746247426
 30
0.0
 10
10.0104954751
 20
8.5734166971
 30
0.0
 10
9.9974616165
 20
8.5730151404
 30
0.0
 10
9.9843872188
 20
8.5731200013
 30
0.0
 10
9.9669058518
 20
8.5739357525
 30
0.0
 10
9.9450458269
 20
8.5762242352
 30
0.0
 10
9.9190031845
 20
8.5809718267
 30
0.0
 10
9.8932652162
 20
8.5876960697
 30
0.0
 10
9.8679858122
 20
8.5963566819
 30
0.0
 10
9.8433147653
 20
8.6069019566
 30
0.0
 10
9.8193985839
 20
8.6192690496
 30
0.0
 10
9.7963791824
 20
8.6333843596
 30
0.0
 10
9.7743931782
 20
8.6491639622
 30
0.0
 10
9.7535710316
 20
8.6665140703
 30
0.0
 10
9.7340363112
 20
8.685331624
 30
0.0
 10
9.7159049706
 20
8.7055048961
 30
0.0
 10
9.6992846689
 20
8.7269141458
 30
0.0
 10
9.6842741439
 20
8.749432321
 30
0.0
 10
9.6709625933
 20
8.7729257809
 30
0.0
 10
9.6594291758
 20
8.7972550951
 30
0.0
 10
9.6497425522
 20
8.8222758937
 30
0.0
 10
9.6419604735
 20
8.8478395854
 30
0.0
 10
9.6361294509
 20
8.8737946806
 30
0.0
 10
9.6322844016
 20
8.8999859815
 30
0.0
 10
9.6307524612
 20
8.9219121768
 30
0.0
 10
9.6305411267
 20
8.9394114205
 30
0.0
 10
9.630887971
 20
8.9524817354
 30
0.0
 10
9.6317395844
 20
8.9654940377
 30
0.0
 10
9.6335435926
 20
8.9827157324
 30
0.0
 10
9.6370485738
 20
9.004009416
 30
0.0
 10
9.6422168674
 20
9.0249072659
 30
0.0
 10
9.6473253468
 20
9.0412741341
 30
0.0
 10
9.6516331578
 20
9.0533467101
 30
0.0
 10
9.6564147006
 20
9.0652108133
 30
0.0
 10
9.6599170755
 20
9.0729772282
 30
0.0
 10
9.6617445835
 20
9.0768190488
 30
0.0
  0
SPLINE
  5
395
100
AcDbEntity
  8
0
100
AcDbSpline
 62
4
  6
CONTINUOUS
 70
0
 71
3
 72
279
 73
275
 74
0
 42
0.0000001
 43
0.0000001
 44
0.0000000001
 40
0.0
 40
0.0
 40
0.0
 40
0.0
 40
0.015625
 40
0.0234375
 40
0.03125
 40
0.0390625
 40
0.046875
 40
0.05078125
 40
0.0546875
 40
0.056640625
 40
0.05859375
 40
0.060546875
 40
0.0615234375
 40
0.0620117188
 40
0.0625
 40
0.0629882812
 40
0.0634765625
 40
0.064453125
 40
0.06640625
 40
0.068359375
 40
0.0703125
 40
0.07421875
 40
0.078125
 40
0.0859375
 40
0.09375
 40
0.1015625
 40
0.109375
 40
0.11328125
 40
0.1171875
 40
0.119140625
 40
0.12109375
 40
0.123046875
 40
0.1240234375
 40
0.1245117188
 40
0.125
 40
0.1254882812
 40
0.1259765625
 40
0.126953125
 40
0.12890625
 40
0.130859375
 40
0.1328125
 40
0.13671875
 40
0.140625
 40
0.1484375
 40
0.15625
 40
0.1640625
 40
0.171875
 40
0.17578125
 40
0.1796875
 40
0.181640625
 40
0.18359375
 40
0.185546875
 40
0.1865234375
 40
0.1870117188
 40
0.1875
 40
0.1879882812
 40
0.1884765625
 40
0.189453125
 40
0.19140625
 40
0.193359375
 40
0.1953125
 40
0.19921875
 40
0.203125
 40
0.2109375
 40
0.21875
 40
0.2265625
 40
0.234375
 40
0.23828125
 40
0.2421875
 40
0.24609375
 40
0.248046875
 40
0.2490234375
 40
0.25
 40
0.2509765625
 40
0.251953125
 40
0.25390625
 40
0.2578125
 40
0.26171875
 40
0.265625
 40
0.2734375
 40
0.28125
 40
0.2890625
 40
0.296875
 40
0.30078125
 40
0.3046875
 40
0.30859375
 40
0.310546875
 40
0.3115234375
 40
0.3125
 40
0.3134765625
 40
0.314453125
 40
0.31640625
 40
0.3203125
 40
0.32421875
 40
0.328125
 40
0.3359375
 40
0.34375
 40
0.3515625
 40
0.359375
 40
0.3671875
 40
0.37109375
 40
0.373046875
 40
0.375
 40
0.376953125
 40
0.37890625
 40
0.3828125
 40
0.390625
 40
0.3984375
 40
0.40625
 40
0.4140625
 40
0.421875
 40
0.4296875
 40
0.43359375
 40
0.435546875
 40
0.4375
 40
0.439453125
 40
0.44140625
 40
0.4453125
 40
0.453125
 40
0.4609375
 40
0.46875
 40
0.4765625
 40
0.484375
 40
0.48828125
 40
0.4921875
 40
0.49609375
 40
0.498046875
 40
0.4990234375
 40
0.5
 40
0.5009765625
 40
0.501953125
 40
0.50390625
 40
0.5078125
 40
0.51171875
 40
0.515625
 40
0.5234375
 40
0.53125
 40
0.5390625
 40
0.546875
 40
0.55078125
 40
0.5546875
 40
0.55859375
 40
0.560546875
 40
0.5615234375
 40
0.5625
 40
0.5634765625
 40
0.564453125
 40
0.56640625
 40
0.5703125
 40
0.57421875
 40
0.578125
 40
0.5859375
 40
0.59375
 40
0.6015625
 40
0.609375
 40
0.61328125
 40
0.6171875
 40
0.619140625
 40
0.62109375
 40
0.623046875
 40
0.6240234375
 40
0.625
 40
0.6259765625
 40
0.626953125
 40
0.62890625
 40
0.630859375
 40
0.6328125
 40
0.63671875
 40
0.640625
 40
0.6484375
 40
0.65625
 40
0.6640625
 40
0.671875
 40
0.67578125
 40
0.6796875
 40
0.681640625
 40
0.68359375
 40
0.685546875
 40
0.6865234375
 40
0.6870117188
 40
0.6875
 40
0.6879882812
 40
0.6884765625
 40
0.689453125
 40
0.69140625
 40
0.693359375
 40
0.6953125
 40
0.69921875
 40
0.703125
 40
0.7109375
 40
0.71875
 40
0.7265625
 40
0.734375
 40
0.73828125
 40
0.7421875
 40
0.744140625
 40
0.74609375
 40
0.748046875
 40
0.7490234375
 40
0.7495117188
 40
0.75
 40
0.7504882812
 40
0.7509765625
 40
0.751953125
 40
0.75390625
 40
0.755859375
 40
0.7578125
 40
0.76171875
 40
0.765625
 40
0.7734375
 40
0.78125
 40
0.7890625
 40
0.796875
 40
0.80078125
 40
0.8046875
 40
0.806640625
 40
0.80859375
 40
0.810546875
 40
0.8115234375
 40
0.8120117188
 40
0.8125
 40
0.8129882812
 40
0.8134765625
 40
0.814453125
 40
0.81640625
 40
0.818359375
 40
0.8203125
 40
0.82421875
 40
0.828125
 40
0.8359375
 40
0.84375
 40
0.8515625
 40
0.859375
 40
0.86328125
 40
0.8671875
 40
0.869140625
 40
0.87109375
 40
0.873046875
 40
0.8740234375
 40
0.8745117188
 40
0.875
 40
0.8754882812
 40
0.8759765625
 40
0.876953125
 40
0.87890625
 40
0.880859375
 40
0.8828125
 40
0.88671875
 40
0.890625
 40
0.8984375
 40
0.90625
 40
0.9140625
 40
0.921875
 40
0.92578125
 40
0.9296875
 40
0.931640625
 40
0.93359375
 40
0.935546875
 40
0.9365234375
 40
0.9370117188
 40
0.9375
 40
0.9379882812
 40
0.9384765625
 40
0.939453125
 40
0.94140625
 40
0.943359375
 40
0.9453125
 40
0.94921875
 40
0.953125
 40
0.9609375
 40
0.96875
 40
0.9765625
 40
0.984375
 40
1.0
 40
1.0
 40
1.0
 40
1.0
 10
12.9266666377
 20
9.593584555
 30
0.0
 10
12.9259125651
 20
9.5925802381
 30
0.0
 10
12.9247814561
 20
9.591073763
 30
0.0
 10
12.9232733109
 20
9.5890651287
 30
0.0
 10
12.9221422019
 20
9.587558655
 30
0.0
 10
12.9210110933
 20
9.5860521734
 30
0.0
 10
12.9200685015
 20
9.5847967968
 30
0.0
 10
12.9193144311
 20
9.5837924401
 30
0.0
 10
12.91884313
 20
9.5831648434
 30
0.0
 10
12.9184661054
 20
9.5826624769
 30
0.0
 10
12.9181832926
 20
9.5822864937
 30
0.0
 10
12.9179477561
 20
9.581970656
 30
0.0
 10
12.9177826042
 20
9.5817545119
 30
0.0
 10
12.9176886632
 20
9.5816232839
 30
0.0
 10
12.9176169918
 20
9.581546602
 30
0.0
 10
12.9175499673
 20
9.5813868223
 30
0.0
 10
12.9174589804
 20
9.5812027682
 30
0.0
 10
12.9173005086
 20
9.5808671686
 30
0.0
 10
12.9170737255
 20
9.5803948011
 30
0.0
 10
12.9168017547
 20
9.5798249379
 30
0.0
 10
12.9164390679
 20
9.579066176
 30
0.0
 10
12.9159857297
 20
9.5781173621
 30
0.0
 10
12.9152603772
 20
9.5765994619
 30
0.0
 10
12.9143536906
 20
9.574702017
 30
0.0
 10
12.9132656647
 20
9.5724251148
 30
0.0
 10
12.9121776402
 20
9.5701481975
 30
0.0
 10
12.9112709502
 20
9.5682507902
 30
0.0
 10
12.9105456044
 20
9.5667328148
 30
0.0
 10
12.9100922493
 20
9.5657841922
 30
0.0
 10
12.9097295971
 20
9.5650250376
 30
0.0
 10
12.909457521
 20
9.5644563742
 30
0.0
 10
12.9092310672
 20
9.563980253
 30
0.0
 10
12.9090720074
 20
9.5636513542
 30
0.0
 10
12.9089819627
 20
9.5634565637
 30
0.0
 10
12.9089120441
 20
9.5633297628
 30
0.0
 10
12.9088512424
 20
9.5631292182
 30
0.0
 10
12.9087669934
 20
9.5628875481
 30
0.0
 10
12.9086210392
 20
9.5624526407
 30
0.0
 10
12.9084117587
 20
9.5618376102
 30
0.0
 10
12.9081609537
 20
9.5610968916
 30
0.0
 10
12.9078264311
 20
9.5601102036
 30
0.0
 10
12.9074083175
 20
9.5588765228
 30
0.0
 10
12.9067393137
 20
9.5569028129
 30
0.0
 10
12.9059030666
 20
9.5544356137
 30
0.0
 10
12.9048995664
 20
9.5514750027
 30
0.0
 10
12.9038960683
 20
9.5485143781
 30
0.0
 10
12.9030598162
 20
9.546047213
 30
0.0
 10
12.9023908223
 20
9.5440734347
 30
0.0
 10
12.9019726834
 20
9.5428399279
 30
0.0
 10
12.9016382129
 20
9.5418528828
 30
0.0
 10
12.9013872487
 20
9.541113255
 30
0.0
 10
12.9011784661
 20
9.5404948117
 30
0.0
 10
12.9010316232
 20
9.5400659967
 30
0.0
 10
12.9009487982
 20
9.5398145651
 30
0.0
 10
12.9008836222
 20
9.5396440048
 30
0.0
 10
12.9008301327
 20
9.539404588
 30
0.0
 10
12.900754737
 20
9.5391093836
 30
0.0
 10
12.9006246937
 20
9.5385815854
 30
0.0
 10
12.9004379247
 20
9.5378334386
 30
0.0
 10
12.9002142268
 20
9.5369331581
 30
0.0
 10
12.8999158146
 20
9.5357336589
 30
0.0
 10
12.8995428501
 20
9.5342339853
 30
0.0
 10
12.8989460785
 20
9.5318346752
 30
0.0
 10
12.8982001247
 20
9.5288354778
 30
0.0
 10
12.8973049709
 20
9.5252364766
 30
0.0
 10
12.8964098371
 20
9.5216374282
 30
0.0
 10
12.8956638335
 20
9.5186383489
 30
0.0
 10
12.8950671615
 20
9.5162388027
 30
0.0
 10
12.8946193003
 20
9.5144399147
 30
0.0
 10
12.8942472186
 20
9.5129383869
 30
0.0
 10
12.8939845321
 20
9.5118921342
 30
0.0
 10
12.8938379064
 20
9.5112867546
 30
0.0
 10
12.8937181315
 20
9.5108539064
 30
0.0
 10
12.8936358388
 20
9.5103400727
 30
0.0
 10
12.8935130409
 20
9.5096832096
 30
0.0
 10
12.8933042362
 20
9.5085205378
 30
0.0
 10
12.8930027591
 20
9.5068664591
 30
0.0
 10
12.8926423497
 20
9.5048786192
 30
0.0
 10
12.8921613275
 20
9.5022291952
 30
0.0
 10
12.8915602143
 20
9.4989170602
 30
0.0
 10
12.890838803
 20
9.4949426581
 30
0.0
 10
12.8901174305
 20
9.4909681847
 30
0.0
 10
12.8895162204
 20
9.4876562278
 30
0.0
 10
12.889035392
 20
9.4850064478
 30
0.0
 10
12.8886743917
 20
9.4830196936
 30
0.0
 10
12.8883747632
 20
9.4813622184
 30
0.0
 10
12.8881626583
 20
9.4802056098
 30
0.0
 10
12.8880451481
 20
9.4795390319
 30
0.0
 10
12.8879466135
 20
9.4790550391
 30
0.0
 10
12.8878878404
 20
9.4785101132
 30
0.0
 10
12.8877956069
 20
9.4778047995
 30
0.0
 10
12.8876406604
 20
9.4765605978
 30
0.0
 10
12.8874159297
 20
9.474788344
 30
0.0
 10
12.8871476994
 20
9.4726594232
 30
0.0
 10
12.8867895518
 20
9.4698216375
 30
0.0
 10
12.8863420546
 20
9.4662741315
 30
0.0
 10
12.8858049201
 20
9.4620172755
 30
0.0
 10
12.885268037
 20
9.4577602529
 30
0.0
 10
12.8847302861
 20
9.4535037454
 30
0.0
 10
12.8842848438
 20
9.4499550778
 30
0.0
 10
12.8839677785
 20
9.4474740989
 30
0.0
 10
12.8837948031
 20
9.4460515757
 30
0.0
 10
12.8836419588
 20
9.4449982638
 30
0.0
 10
12.8835774632
 20
9.4438930402
 30
0.0
 10
12.8834606519
 20
9.4424375161
 30
0.0
 10
12.8832705911
 20
9.4398819122
 30
0.0
 10
12.8829915638
 20
9.4362354616
 30
0.0
 10
12.8826599679
 20
9.4318578271
 30
0.0
 10
12.8823274436
 20
9.4274807083
 30
0.0
 10
12.8819953958
 20
9.4231034204
 30
0.0
 10
12.8816623704
 20
9.4187262931
 30
0.0
 10
12.881387711
 20
9.4150782924
 30
0.0
 10
12.8811898674
 20
9.4125254505
 30
0.0
 10
12.8810855246
 20
9.4110655017
 30
0.0
 10
12.8809827302
 20
9.4099738691
 30
0.0
 10
12.8809737297
 20
9.4088695117
 30
0.0
 10
12.8809290127
 20
9.4074014737
 30
0.0
 10
12.8808660013
 20
9.4048303392
 30
0.0
 10
12.8807680141
 20
9.4011583707
 30
0.0
 10
12.8806538483
 20
9.3967515473
 30
0.0
 10
12.8805387602
 20
9.3923448397
 30
0.0
 10
12.8804239423
 20
9.3879381303
 30
0.0
 10
12.8803281288
 20
9.3842657818
 30
0.0
 10
12.8802516596
 20
9.3813281215
 30
0.0
 10
12.880193842
 20
9.3791242752
 30
0.0
 10
12.8801471373
 20
9.3772896489
 30
0.0
 10
12.8801115469
 20
9.3760016578
 30
0.0
 10
12.8800957329
 20
9.3752715224
 30
0.0
 10
12.8800711301
 20
9.3747074144
 30
0.0
 10
12.880095235
 20
9.3742064024
 30
0.0
 10
12.8801103852
 20
9.3735163779
 30
0.0
 10
12.8801448138
 20
9.3723190891
 30
0.0
 10
12.880189859
 20
9.3706033154
 30
0.0
 10
12.8802456847
 20
9.3685466819
 30
0.0
 10
12.8803195
 20
9.3658037019
 30
0.0
 10
12.8804119829
 20
9.3623752543
 30
0.0
 10
12.8805228648
 20
9.3582609883
 30
0.0
 10
12.8806337948
 20
9.3541467941
 30
0.0
 10
12.8807261577
 20
9.350718167
 30
0.0
 10
12.8808002129
 20
9.347975546
 30
0.0
 10
12.8808553069
 20
9.3459178176
 30
0.0
 10
12.8809026412
 20
9.3442054692
 30
0.0
 10
12.8809329835
 20
9.3430020658
 30
0.0
 10
12.8809546809
 20
9.3423218383
 30
0.0
 10
12.8809586747
 20
9.3417907329
 30
0.0
 10
12.8810096059
 20
9.3413396507
 30
0.0
 10
12.8810611419
 20
9.3407102947
 30
0.0
 10
12.8811589581
 20
9.339621927
 30
0.0
 10
12.8812947073
 20
9.3380603167
 30
0.0
 10
12.8814593135
 20
9.3361892946
 30
0.0
 10
12.8816781921
 20
9.333693582
 30
0.0
 10
12.8819519946
 20
9.3305742892
 30
0.0
 10
12.8822804716
 20
9.3268309924
 30
0.0
 10
12.8826089661
 20
9.3230877208
 30
0.0
 10
12.8828827247
 20
9.3199683651
 30
0.0
 10
12.8831016911
 20
9.3174727782
 30
0.0
 10
12.8832386398
 20
9.3159132737
 30
0.0
 10
12.8833479816
 20
9.3146651262
 30
0.0
 10
12.8834305826
 20
9.3137305047
 30
0.0
 10
12.8834975252
 20
9.3129469166
 30
0.0
 10
12.8835553216
 20
9.3123306698
 30
0.0
 10
12.8835870767
 20
9.3118394558
 30
0.0
 10
12.8836630797
 20
9.3114590458
 30
0.0
 10
12.8837489606
 20
9.3109131271
 30
0.0
 10
12.8838616147
 20
9.3102440084
 30
0.0
 10
12.8839945298
 20
9.3094353818
 30
0.0
 10
12.8841725427
 20
9.3083591983
 30
0.0
 10
12.8843947874
 20
9.3070132893
 30
0.0
 10
12.8847505306
 20
9.3048602146
 30
0.0
 10
12.8851951577
 20
9.3021687413
 30
0.0
 10
12.885728732
 20
9.2989390276
 30
0.0
 10
12.8862623023
 20
9.295709305
 30
0.0
 10
12.8867069392
 20
9.2930178537
 30
0.0
 10
12.8870626628
 20
9.290864735
 30
0.0
 10
12.8872849575
 20
9.2895189381
 30
0.0
 10
12.8874628679
 20
9.2884425244
 30
0.0
 10
12.8875960961
 20
9.2876346011
 30
0.0
 10
12.8877077705
 20
9.2869632821
 30
0.0
 10
12.8877846653
 20
9.2864895311
 30
0.0
 10
12.8878305995
 20
9.2862247929
 30
0.0
 10
12.8878594322
 20
9.2860094028
 30
0.0
 10
12.8879097396
 20
9.2858583702
 30
0.0
 10
12.8879693254
 20
9.2856345448
 30
0.0
 10
12.8880770907
 20
9.2852533096
 30
0.0
 10
12.8882292166
 20
9.2847032197
 30
0.0
 10
12.8884125486
 20
9.2840454524
 30
0.0
 10
12.8886567184
 20
9.2831676118
 30
0.0
 10
12.8889620242
 20
9.282070591
 30
0.0
 10
12.8894504611
 20
9.2803152011
 30
0.0
 10
12.8900610254
 20
9.278121018
 30
0.0
 10
12.8907936943
 20
9.2754879729
 30
0.0
 10
12.8915263669
 20
9.2728549422
 30
0.0
 10
12.8921369221
 20
9.2706607232
 30
0.0
 10
12.892625377
 20
9.2689054051
 30
0.0
 10
12.8929306373
 20
9.2678082019
 30
0.0
 10
12.8931749003
 20
9.2669307355
 30
0.0
 10
12.8933579479
 20
9.2662718249
 30
0.0
 10
12.8935109634
 20
9.2657253121
 30
0.0
 10
12.8936171405
 20
9.2653376912
 30
0.0
 10
12.8936792712
 20
9.2651240973
 30
0.0
 10
12.8937217618
 20
9.2649416368
 30
0.0
 10
12.8937799529
 20
9.2648442847
 30
0.0
 10
12.8938520646
 20
9.2646847952
 30
0.0
 10
12.8939808117
 20
9.2644195201
 30
0.0
 10
12.894163402
 20
9.2640333243
 30
0.0
 10
12.8943830815
 20
9.2635729846
 30
0.0
 10
12.8946757879
 20
9.2629581172
 30
0.0
 10
12.8950417393
 20
9.2621899032
 30
0.0
 10
12.8956272233
 20
9.2609605538
 30
0.0
 10
12.8963590915
 20
9.2594239386
 30
0.0
 10
12.8972373274
 20
9.2575799676
 30
0.0
 10
12.898115566
 20
9.2557360131
 30
0.0
 10
12.8988474272
 20
9.2541993565
 30
0.0
 10
12.8994329252
 20
9.2529700897
 30
0.0
 10
12.8997988411
 20
9.2522016657
 30
0.0
 10
12.9000916202
 20
9.2515872294
 30
0.0
 10
12.9003110778
 20
9.2511255728
 30
0.0
 10
12.9004943624
 20
9.2507434973
 30
0.0
 10
12.9006218701
 20
9.2504708669
 30
0.0
 10
12.9006959675
 20
9.2503231623
 30
0.0
 10
12.9007480589
 20
9.2501896105
 30
0.0
 10
12.9008134593
 20
9.2501431101
 30
0.0
 10
12.9008960175
 20
9.2500507451
 30
0.0
 10
12.9010426572
 20
9.2499032538
 30
0.0
 10
12.9012510117
 20
9.2496851555
 30
0.0
 10
12.9015015212
 20
9.2494266033
 30
0.0
 10
12.9018353647
 20
9.2490807614
 30
0.0
 10
12.902252727
 20
9.2486488376
 30
0.0
 10
12.9029204743
 20
9.2479575479
 30
0.0
 10
12.9037551697
 20
9.2470935089
 30
0.0
 10
12.9047567991
 20
9.2460566285
 30
0.0
 10
12.9057584306
 20
9.2450197653
 30
0.0
 10
12.9065931205
 20
9.2441556834
 30
0.0
 10
12.9072608787
 20
9.2434644793
 30
0.0
 10
12.9076782135
 20
9.243032338
 30
0.0
 10
12.9080121134
 20
9.2426869426
 30
0.0
 10
12.9082624507
 20
9.2424270262
 30
0.0
 10
12.9084713438
 20
9.2422131965
 30
0.0
 10
12.9086170221
 20
9.2420580849
 30
0.0
 10
12.9087011207
 20
9.2419779295
 30
0.0
 10
12.9087617894
 20
9.2418939251
 30
0.0
 10
12.9088316521
 20
9.241901232
 30
0.0
 10
12.9089215954
 20
9.2418791242
 30
0.0
 10
12.9090804904
 20
9.2418552752
 30
0.0
 10
12.9093067021
 20
9.2418134467
 30
0.0
 10
12.9095784904
 20
9.2417665735
 30
0.0
 10
12.9099407581
 20
9.2417029159
 30
0.0
 10
12.9103936326
 20
9.2416237411
 30
0.0
 10
12.9111182096
 20
9.2414968393
 30
0.0
 10
12.9120239385
 20
9.2413382888
 30
0.0
 10
12.9131108097
 20
9.2411479931
 30
0.0
 10
12.9141976825
 20
9.2409577151
 30
0.0
 10
12.9151034075
 20
9.2407991201
 30
0.0
 10
12.9158279922
 20
9.2406723074
 30
0.0
 10
12.9162808471
 20
9.2405929063
 30
0.0
 10
12.9166431551
 20
9.2405297131
 30
0.0
 10
12.9169148202
 20
9.2404814209
 30
0.0
 10
12.9171414175
 20
9.2404440321
 30
0.0
 10
12.917299624
 20
9.2404122576
 30
0.0
 10
12.9173906704
 20
9.2404028484
 30
0.0
 10
12.9174571446
 20
9.240371149
 30
0.0
 10
12.9175305401
 20
9.2404336461
 30
0.0
 10
12.9176259866
 20
9.2404841187
 30
0.0
 10
12.9177941427
 20
9.2405877544
 30
0.0
 10
12.9180337777
 20
9.240727802
 30
0.0
 10
12.9183215914
 20
9.2408992848
 30
0.0
 10
12.918705255
 20
9.2411267319
 30
0.0
 10
12.9191848647
 20
9.2414114506
 30
0.0
 10
12.9199522233
 20
9.2418667715
 30
0.0
 10
12.9209114274
 20
9.2424360012
 30
0.0
 10
12.9220624699
 20
9.2431190431
 30
0.0
 10
12.9232135129
 20
9.2438020941
 30
0.0
 10
12.9247482368
 20
9.2447128255
 30
0.0
 10
12.9258992798
 20
9.2453958748
 30
0.0
 10
12.9266666418
 20
9.2458512409
 30
0.0
  0
SPLINE
  5
396
100
AcDbEntity
  8
0
100
AcDbSpline
 62
4
  6
CONTINUOUS
 70
0
 71
3
 72
279
 73
275
 74
0
 42
0.0000001
 43
0.0000001
 44
0.0000000001
 40
0.0
 40
0.0
 40
0.0
 40
0.0
 40
0.015625
 40
0.0234375
 40
0.03125
 40
0.0390625
 40
0.046875
 40
0.05078125
 40
0.0546875
 40
0.056640625
 40
0.05859375
 40
0.060546875
 40
0.0615234375
 40
0.0620117188
 40
0.0625
 40
0.0629882812
 40
0.0634765625
 40
0.064453125
 40
0.06640625
 40
0.068359375
 40
0.0703125
 40
0.07421875
 40
0.078125
 40
0.0859375
 40
0.09375
 40
0.1015625
 40
0.109375
 40
0.11328125
 40
0.1171875
 40
0.119140625
 40
0.12109375
 40
0.123046875
 40
0.1240234375
 40
0.1245117188
 40
0.125
 40
0.1254882812
 40
0.1259765625
 40
0.126953125
 40
0.12890625
 40
0.130859375
 40
0.1328125
 40
0.13671875
 40
0.140625
 40
0.1484375
 40
0.15625
 40
0.1640625
 40
0.171875
 40
0.17578125
 40
0.1796875
 40
0.181640625
 40
0.18359375
 40
0.185546875
 40
0.1865234375
 40
0.1870117188
 40
0.1875
 40
0.1879882812
 40
0.1884765625
 40
0.189453125
 40
0.19140625
 40
0.193359375
 40
0.1953125
 40
0.19921875
 40
0.203125
 40
0.2109375
 40
0.21875
 40
0.2265625
 40
0.234375
 40
0.23828125
 40
0.2421875
 40
0.24609375
 40
0.248046875
 40
0.2490234375
 40
0.25
 40
0.2509765625
 40
0.251953125
 40
0.25390625
 40
0.2578125
 40
0.26171875
 40
0.265625
 40
0.2734375
 40
0.28125
 40
0.2890625
 40
0.296875
 40
0.30078125
 40
0.3046875
 40
0.30859375
 40
0.310546875
 40
0.3115234375
 40
0.3125
 40
0.3134765625
 40
0.314453125
 40
0.31640625
 40
0.3203125
 40
0.32421875
 40
0.328125
 40
0.3359375
 40
0.34375
 40
0.3515625
 40
0.359375
 40
0.3671875
 40
0.37109375
 40
0.373046875
 40
0.375
 40
0.376953125
 40
0.37890625
 40
0.3828125
 40
0.390625
 40
0.3984375
 40
0.40625
 40
0.4140625
 40
0.421875
 40
0.4296875
 40
0.43359375
 40
0.435546875
 40
0.4375
 40
0.439453125
 40
0.44140625
 40
0.4453125
 40
0.453125
 40
0.4609375
 40
0.46875
 40
0.4765625
 40
0.484375
 40
0.48828125
 40
0.4921875
 40
0.49609375
 40
0.498046875
 40
0.4990234375
 40
0.5
 40
0.5009765625
 40
0.501953125
 40
0.50390625
 40
0.5078125
 40
0.51171875
 40
0.515625
 40
0.5234375
 40
0.53125
 40
0.5390625
 40
0.546875
 40
0.55078125
 40
0.5546875
 40
0.55859375
 40
0.560546875
 40
0.5615234375
 40
0.5625
 40
0.5634765625
 40
0.564453125
 40
0.56640625
 40
0.5703125
 40
0.57421875
 40
0.578125
 40
0.5859375
 40
0.59375
 40
0.6015625
 40
0.609375
 40
0.61328125
 40
0.6171875
 40
0.619140625
 40
0.62109375
 40
0.623046875
 40
0.6240234375
 40
0.625
 40
0.6259765625
 40
0.626953125
 40
0.62890625
 40
0.630859375
 40
0.6328125
 40
0.63671875
 40
0.640625
 40
0.6484375
 40
0.65625
 40
0.6640625
 40
0.671875
 40
0.67578125
 40
0.6796875
 40
0.681640625
 40
0.68359375
 40
0.685546875
 40
0.6865234375
 40
0.6870117188
 40
0.6875
 40
0.6879882812
 40
0.6884765625
 40
0.689453125
 40
0.69140625
 40
0.693359375
 40
0.6953125
 40
0.69921875
 40
0.703125
 40
0.7109375
 40
0.71875
 40
0.7265625
 40
0.734375
 40
0.73828125
 40
0.7421875
 40
0.744140625
 40
0.74609375
 40
0.748046875
 40
0.7490234375
 40
0.7495117188
 40
0.75
 40
0.7504882812
 40
0.7509765625
 40
0.751953125
 40
0.75390625
 40
0.755859375
 40
0.7578125
 40
0.76171875
 40
0.765625
 40
0.7734375
 40
0.78125
 40
0.7890625
 40
0.796875
 40
0.80078125
 40
0.8046875
 40
0.806640625
 40
0.80859375
 40
0.810546875
 40
0.8115234375
 40
0.8120117188
 40
0.8125
 40
0.8129882812
 40
0.8134765625
 40
0.814453125
 40
0.81640625
 40
0.818359375
 40
0.8203125
 40
0.82421875
 40
0.828125
 40
0.8359375
 40
0.84375
 40
0.8515625
 40
0.859375
 40
0.86328125
 40
0.8671875
 40
0.869140625
 40
0.87109375
 40
0.873046875
 40
0.8740234375
 40
0.8745117188
 40
0.875
 40
0.8754882812
 40
0.8759765625
 40
0.876953125
 40
0.87890625
 40
0.880859375
 40
0.8828125
 40
0.88671875
 40
0.890625
 40
0.8984375
 40
0.90625
 40
0.9140625
 40
0.921875
 40
0.92578125
 40
0.9296875
 40
0.931640625
 40
0.93359375
 40
0.935546875
 40
0.9365234375
 40
0.9370117188
 40
0.9375
 40
0.9379882812
 40
0.9384765625
 40
0.939453125
 40
0.94140625
 40
0.943359375
 40
0.9453125
 40
0.94921875
 40
0.953125
 40
0.9609375
 40
0.96875
 40
0.9765625
 40
0.984375
 40
1.0
 40
1.0
 40
1.0
 40
1.0
 10
12.9266666377
 20
9.2458512369
 30
0.0
 10
12.9274207103
 20
9.2468555538
 30
0.0
 10
12.9285518193
 20
9.2483620289
 30
0.0
 10
12.9300599645
 20
9.2503706633
 30
0.0
 10
12.9311910735
 20
9.2518771369
 30
0.0
 10
12.9323221821
 20
9.2533836185
 30
0.0
 10
12.9332647739
 20
9.2546389951
 30
0.0
 10
12.9340188443
 20
9.2556433518
 30
0.0
 10
12.9344901454
 20
9.2562709485
 30
0.0
 10
12.93486717
 20
9.256773315
 30
0.0
 10
12.9351499828
 20
9.2571492982
 30
0.0
 10
12.9353855193
 20
9.257465136
 30
0.0
 10
12.9355506712
 20
9.2576812801
 30
0.0
 10
12.9356446122
 20
9.257812508
 30
0.0
 10
12.9357162836
 20
9.2578891899
 30
0.0
 10
12.9357833081
 20
9.2580489696
 30
0.0
 10
12.935874295
 20
9.2582330238
 30
0.0
 10
12.9360327668
 20
9.2585686234
 30
0.0
 10
12.9362595499
 20
9.2590409909
 30
0.0
 10
12.9365315207
 20
9.259610854
 30
0.0
 10
12.9368942075
 20
9.260369616
 30
0.0
 10
12.9373475457
 20
9.2613184299
 30
0.0
 10
12.9380728982
 20
9.26283633
 30
0.0
 10
12.9389795848
 20
9.2647337749
 30
0.0
 10
12.9400676107
 20
9.2670106772
 30
0.0
 10
12.9411556352
 20
9.2692875945
 30
0.0
 10
12.9420623252
 20
9.2711850017
 30
0.0
 10
12.942787671
 20
9.2727029772
 30
0.0
 10
12.943241026
 20
9.2736515997
 30
0.0
 10
12.9436036783
 20
9.2744107544
 30
0.0
 10
12.9438757544
 20
9.2749794178
 30
0.0
 10
12.9441022082
 20
9.2754555389
 30
0.0
 10
12.944261268
 20
9.2757844377
 30
0.0
 10
12.9443513127
 20
9.2759792282
 30
0.0
 10
12.9444212313
 20
9.2761060292
 30
0.0
 10
12.944482033
 20
9.2763065737
 30
0.0
 10
12.944566282
 20
9.2765482439
 30
0.0
 10
12.9447122362
 20
9.2769831512
 30
0.0
 10
12.9449215167
 20
9.2775981818
 30
0.0
 10
12.9451723217
 20
9.2783389003
 30
0.0
 10
12.9455068443
 20
9.2793255883
 30
0.0
 10
12.9459249578
 20
9.2805592691
 30
0.0
 10
12.9465939617
 20
9.282532979
 30
0.0
 10
12.9474302088
 20
9.2850001783
 30
0.0
 10
12.948433709
 20
9.2879607892
 30
0.0
 10
12.9494372071
 20
9.2909214139
 30
0.0
 10
12.9502734592
 20
9.2933885789
 30
0.0
 10
12.9509424531
 20
9.2953623573
 30
0.0
 10
12.951360592
 20
9.2965958641
 30
0.0
 10
12.9516950625
 20
9.2975829091
 30
0.0
 10
12.9519460267
 20
9.2983225369
 30
0.0
 10
12.9521548093
 20
9.2989409802
 30
0.0
 10
12.9523016522
 20
9.2993697952
 30
0.0
 10
12.9523844772
 20
9.2996212269
 30
0.0
 10
12.9524496532
 20
9.2997917872
 30
0.0
 10
12.9525031427
 20
9.3000312039
 30
0.0
 10
12.9525785384
 20
9.3003264084
 30
0.0
 10
12.9527085817
 20
9.3008542065
 30
0.0
 10
12.9528953507
 20
9.3016023534
 30
0.0
 10
12.9531190486
 20
9.3025026338
 30
0.0
 10
12.9534174608
 20
9.3037021331
 30
0.0
 10
12.9537904253
 20
9.3052018067
 30
0.0
 10
12.9543871969
 20
9.3076011167
 30
0.0
 10
12.9551331507
 20
9.3106003142
 30
0.0
 10
12.9560283045
 20
9.3141993153
 30
0.0
 10
12.9569234383
 20
9.3177983637
 30
0.0
 10
12.9576694419
 20
9.320797443
 30
0.0
 10
12.9582661139
 20
9.3231969893
 30
0.0
 10
12.9587139751
 20
9.3249958773
 30
0.0
 10
12.9590860568
 20
9.326497405
 30
0.0
 10
12.9593487433
 20
9.3275436577
 30
0.0
 10
12.959495369
 20
9.3281490373
 30
0.0
 10
12.9596151439
 20
9.3285818855
 30
0.0
 10
12.9596974366
 20
9.3290957193
 30
0.0
 10
12.9598202345
 20
9.3297525823
 30
0.0
 10
12.9600290392
 20
9.3309152541
 30
0.0
 10
12.9603305163
 20
9.3325693329
 30
0.0
 10
12.9606909257
 20
9.3345571727
 30
0.0
 10
12.9611719479
 20
9.3372065968
 30
0.0
 10
12.9617730611
 20
9.3405187317
 30
0.0
 10
12.9624944724
 20
9.3444931339
 30
0.0
 10
12.9632158449
 20
9.3484676072
 30
0.0
 10
12.963817055
 20
9.3517795642
 30
0.0
 10
12.9642978834
 20
9.3544293442
 30
0.0
 10
12.9646588837
 20
9.3564160983
 30
0.0
 10
12.9649585122
 20
9.3580735736
 30
0.0
 10
12.9651706171
 20
9.3592301822
 30
0.0
 10
12.9652881273
 20
9.35989676
 30
0.0
 10
12.9653866619
 20
9.3603807528
 30
0.0
 10
12.965445435
 20
9.3609256787
 30
0.0
 10
12.9655376684
 20
9.3616309925
 30
0.0
 10
12.965692615
 20
9.3628751942
 30
0.0
 10
12.9659173457
 20
9.3646474479
 30
0.0
 10
12.966185576
 20
9.3667763687
 30
0.0
 10
12.9665437236
 20
9.3696141545
 30
0.0
 10
12.9669912208
 20
9.3731616604
 30
0.0
 10
12.9675283553
 20
9.3774185165
 30
0.0
 10
12.9680652384
 20
9.381675539
 30
0.0
 10
12.9686029893
 20
9.3859320466
 30
0.0
 10
12.9690484316
 20
9.3894807141
 30
0.0
 10
12.9693654969
 20
9.391961693
 30
0.0
 10
12.9695384723
 20
9.3933842163
 30
0.0
 10
12.9696913166
 20
9.3944375281
 30
0.0
 10
12.9697558122
 20
9.3955427517
 30
0.0
 10
12.9698726235
 20
9.3969982758
 30
0.0
 10
12.9700626843
 20
9.3995538797
 30
0.0
 10
12.9703417116
 20
9.4032003304
 30
0.0
 10
12.9706733075
 20
9.4075779649
 30
0.0
 10
12.9710058318
 20
9.4119550837
 30
0.0
 10
12.9713378796
 20
9.4163323716
 30
0.0
 10
12.971670905
 20
9.4207094988
 30
0.0
 10
12.9719455644
 20
9.4243574995
 30
0.0
 10
12.972143408
 20
9.4269103415
 30
0.0
 10
12.9722477508
 20
9.4283702902
 30
0.0
 10
12.9723505452
 20
9.4294619228
 30
0.0
 10
12.9723595457
 20
9.4305662803
 30
0.0
 10
12.9724042627
 20
9.4320343183
 30
0.0
 10
12.9724672741
 20
9.4346054528
 30
0.0
 10
12.9725652613
 20
9.4382774212
 30
0.0
 10
12.9726794271
 20
9.4426842446
 30
0.0
 10
12.9727945152
 20
9.4470909523
 30
0.0
 10
12.972909333
 20
9.4514976617
 30
0.0
 10
12.9730051466
 20
9.4551700102
 30
0.0
 10
12.9730816158
 20
9.4581076705
 30
0.0
 10
12.9731394334
 20
9.4603115167
 30
0.0
 10
12.9731861381
 20
9.462146143
 30
0.0
 10
12.9732217285
 20
9.4634341341
 30
0.0
 10
12.9732375425
 20
9.4641642695
 30
0.0
 10
12.9732621453
 20
9.4647283775
 30
0.0
 10
12.9732380404
 20
9.4652293895
 30
0.0
 10
12.9732228902
 20
9.4659194141
 30
0.0
 10
12.9731884616
 20
9.4671167029
 30
0.0
 10
12.9731434164
 20
9.4688324765
 30
0.0
 10
12.9730875907
 20
9.4708891101
 30
0.0
 10
12.9730137754
 20
9.4736320901
 30
0.0
 10
12.9729212925
 20
9.4770605376
 30
0.0
 10
12.9728104106
 20
9.4811748036
 30
0.0
 10
12.9726994806
 20
9.4852889979
 30
0.0
 10
12.9726071177
 20
9.4887176249
 30
0.0
 10
12.9725330625
 20
9.4914602459
 30
0.0
 10
12.9724779685
 20
9.4935179744
 30
0.0
 10
12.9724306342
 20
9.4952303228
 30
0.0
 10
12.9724002919
 20
9.4964337261
 30
0.0
 10
12.9723785945
 20
9.4971139537
 30
0.0
 10
12.9723746007
 20
9.4976450591
 30
0.0
 10
12.9723236695
 20
9.4980961413
 30
0.0
 10
12.9722721335
 20
9.4987254972
 30
0.0
 10
12.9721743173
 20
9.499813865
 30
0.0
 10
12.9720385681
 20
9.5013754753
 30
0.0
 10
12.9718739619
 20
9.5032464974
 30
0.0
 10
12.9716550833
 20
9.5057422099
 30
0.0
 10
12.9713812808
 20
9.5088615027
 30
0.0
 10
12.9710528038
 20
9.5126047995
 30
0.0
 10
12.9707243093
 20
9.5163480712
 30
0.0
 10
12.9704505507
 20
9.5194674268
 30
0.0
 10
12.9702315843
 20
9.5219630137
 30
0.0
 10
12.9700946356
 20
9.5235225183
 30
0.0
 10
12.9699852938
 20
9.5247706657
 30
0.0
 10
12.9699026928
 20
9.5257052873
 30
0.0
 10
12.9698357502
 20
9.5264888753
 30
0.0
 10
12.9697779538
 20
9.5271051221
 30
0.0
 10
12.9697461987
 20
9.5275963361
 30
0.0
 10
12.9696701957
 20
9.5279767462
 30
0.0
 10
12.9695843148
 20
9.5285226648
 30
0.0
 10
12.9694716607
 20
9.5291917836
 30
0.0
 10
12.9693387456
 20
9.5300004102
 30
0.0
 10
12.9691607327
 20
9.5310765936
 30
0.0
 10
12.968938488
 20
9.5324225027
 30
0.0
 10
12.9685827448
 20
9.5345755773
 30
0.0
 10
12.9681381177
 20
9.5372670506
 30
0.0
 10
12.9676045434
 20
9.5404967644
 30
0.0
 10
12.9670709731
 20
9.543726487
 30
0.0
 10
12.9666263362
 20
9.5464179382
 30
0.0
 10
12.9662706126
 20
9.548571057
 30
0.0
 10
12.9660483179
 20
9.5499168539
 30
0.0
 10
12.9658704075
 20
9.5509932675
 30
0.0
 10
12.9657371793
 20
9.5518011909
 30
0.0
 10
12.9656255049
 20
9.5524725098
 30
0.0
 10
12.9655486101
 20
9.5529462609
 30
0.0
 10
12.9655026759
 20
9.5532109991
 30
0.0
 10
12.9654738432
 20
9.5534263892
 30
0.0
 10
12.9654235358
 20
9.5535774217
 30
0.0
 10
12.96536395
 20
9.5538012471
 30
0.0
 10
12.9652561846
 20
9.5541824823
 30
0.0
 10
12.9651040588
 20
9.5547325722
 30
0.0
 10
12.9649207268
 20
9.5553903395
 30
0.0
 10
12.964676557
 20
9.5562681801
 30
0.0
 10
12.9643712512
 20
9.557365201
 30
0.0
 10
12.9638828142
 20
9.5591205908
 30
0.0
 10
12.96327225
 20
9.561314774
 30
0.0
 10
12.9625395811
 20
9.563947819
 30
0.0
 10
12.9618069085
 20
9.5665808497
 30
0.0
 10
12.9611963532
 20
9.5687750687
 30
0.0
 10
12.9607078984
 20
9.5705303869
 30
0.0
 10
12.960402638
 20
9.57162759
 30
0.0
 10
12.9601583751
 20
9.5725050564
 30
0.0
 10
12.9599753275
 20
9.573163967
 30
0.0
 10
12.9598223119
 20
9.5737104799
 30
0.0
 10
12.9597161349
 20
9.5740981008
 30
0.0
 10
12.9596540042
 20
9.5743116946
 30
0.0
 10
12.9596115136
 20
9.5744941551
 30
0.0
 10
12.9595533225
 20
9.5745915072
 30
0.0
 10
12.9594812108
 20
9.5747509968
 30
0.0
 10
12.9593524637
 20
9.5750162719
 30
0.0
 10
12.9591698734
 20
9.5754024677
 30
0.0
 10
12.9589501939
 20
9.5758628073
 30
0.0
 10
12.9586574875
 20
9.5764776747
 30
0.0
 10
12.9582915361
 20
9.5772458887
 30
0.0
 10
12.9577060521
 20
9.5784752381
 30
0.0
 10
12.9569741839
 20
9.5800118534
 30
0.0
 10
12.956095948
 20
9.5818558244
 30
0.0
 10
12.9552177094
 20
9.5836997789
 30
0.0
 10
12.9544858482
 20
9.5852364354
 30
0.0
 10
12.9539003502
 20
9.5864657022
 30
0.0
 10
12.9535344343
 20
9.5872341262
 30
0.0
 10
12.9532416552
 20
9.5878485625
 30
0.0
 10
12.9530221976
 20
9.5883102191
 30
0.0
 10
12.952838913
 20
9.5886922947
 30
0.0
 10
12.9527114053
 20
9.5889649251
 30
0.0
 10
12.9526373079
 20
9.5891126296
 30
0.0
 10
12.9525852165
 20
9.5892461815
 30
0.0
 10
12.9525198161
 20
9.5892926818
 30
0.0
 10
12.9524372579
 20
9.5893850468
 30
0.0
 10
12.9522906182
 20
9.5895325381
 30
0.0
 10
12.9520822637
 20
9.5897506365
 30
0.0
 10
12.9518317542
 20
9.5900091886
 30
0.0
 10
12.9514979107
 20
9.5903550305
 30
0.0
 10
12.9510805484
 20
9.5907869543
 30
0.0
 10
12.9504128011
 20
9.591478244
 30
0.0
 10
12.9495781057
 20
9.5923422831
 30
0.0
 10
12.9485764763
 20
9.5933791634
 30
0.0
 10
12.9475748448
 20
9.5944160267
 30
0.0
 10
12.9467401549
 20
9.5952801085
 30
0.0
 10
12.9460723967
 20
9.5959713126
 30
0.0
 10
12.9456550619
 20
9.596403454
 30
0.0
 10
12.945321162
 20
9.5967488494
 30
0.0
 10
12.9450708247
 20
9.5970087658
 30
0.0
 10
12.9448619316
 20
9.5972225955
 30
0.0
 10
12.9447162533
 20
9.5973777071
 30
0.0
 10
12.9446321547
 20
9.5974578625
 30
0.0
 10
12.944571486
 20
9.5975418668
 30
0.0
 10
12.9445016233
 20
9.5975345599
 30
0.0
 10
12.94441168
 20
9.5975566678
 30
0.0
 10
12.944252785
 20
9.5975805168
 30
0.0
 10
12.9440265733
 20
9.5976223452
 30
0.0
 10
12.943754785
 20
9.5976692185
 30
0.0
 10
12.9433925173
 20
9.5977328761
 30
0.0
 10
12.9429396428
 20
9.5978120509
 30
0.0
 10
12.9422150658
 20
9.5979389527
 30
0.0
 10
12.9413093369
 20
9.5980975032
 30
0.0
 10
12.9402224657
 20
9.5982877989
 30
0.0
 10
12.9391355929
 20
9.5984780768
 30
0.0
 10
12.9382298679
 20
9.5986366718
 30
0.0
 10
12.9375052832
 20
9.5987634846
 30
0.0
 10
12.9370524283
 20
9.5988428857
 30
0.0
 10
12.9366901203
 20
9.5989060788
 30
0.0
 10
12.9364184552
 20
9.5989543711
 30
0.0
 10
12.9361918579
 20
9.5989917598
 30
0.0
 10
12.9360336514
 20
9.5990235344
 30
0.0
 10
12.935942605
 20
9.5990329435
 30
0.0
 10
12.9358761308
 20
9.599064643
 30
0.0
 10
12.9358027353
 20
9.5990021459
 30
0.0
 10
12.9357072888
 20
9.5989516732
 30
0.0
 10
12.9355391327
 20
9.5988480375
 30
0.0
 10
12.9352994977
 20
9.59870799
 30
0.0
 10
12.935011684
 20
9.5985365072
 30
0.0
 10
12.9346280204
 20
9.59830906
 30
0.0
 10
12.9341484107
 20
9.5980243413
 30
0.0
 10
12.9333810521
 20
9.5975690205
 30
0.0
 10
12.932421848
 20
9.5969997908
 30
0.0
 10
12.9312708055
 20
9.5963167488
 30
0.0
 10
12.9301197625
 20
9.5956336979
 30
0.0
 10
12.9285850386
 20
9.5947229664
 30
0.0
 10
12.9274339956
 20
9.5940399171
 30
0.0
 10
12.9266666336
 20
9.5935845511
 30
0.0
  0
ENDSEC
  0
SECTION
  2
OBJECTS
  0
DICTIONARY
  5
C
100
AcDbDictionary
280
0
281
1
  3
ACAD_GROUP
350
D
  3
ACAD_MLINESTYLE
350
17
  3
ACAD_LAYOUT
350
1A
  3
ACAD_PLOTSETTINGS
350
19
  3
ACAD_PLOTSTYLENAME
350
E
  3
ACAD_IMAGE_DICT
350
       398
  3
ACAD_IMAGE_VARS
350
       399
  3
ACAD_TABLESTYLE
350
       39A
  0
IMAGEDEF_REACTOR
  5
397
100
AcDbRasterImageDefReactor
 90
2
330
27C
  0
DICTIONARY
  5
D
102
{ACAD_REACTORS
330
C
102
}
100
AcDbDictionary
280
0
281
1
  0
ACDBDICTIONARYWDFLT
  5
E
102
{ACAD_REACTORS
330
C
102
}
100
AcDbDictionary
281
1
  3
Normal
350
F
100
AcDbDictionaryWithDefault
340
F
  0
DICTIONARY
  5
398
330
C
100
AcDbDictionary
281
1
  3
WJD_assy_2_img_1
350
       39D
  0
RASTERVARIABLES
  5
399
330
C
100
AcDbRasterVariables
 90
0
 70
0
 71
1
 72
5
  0
DICTIONARY
  5
17
102
{ACAD_REACTORS
330
C
102
}
100
AcDbDictionary
280
0
281
1
  3
Standard
350
18
  0
DICTIONARY
  5
39A
330
C
100
AcDbDictionary
281
1
  3
Standard
350
       39E
  3
Standard1
350
       39F
  0
DICTIONARY
  5
19
102
{ACAD_REACTORS
330
C
102
}
100
AcDbDictionary
281
1
  0
DICTIONARY
  5
1A
102
{ACAD_REACTORS
330
C
102
}
100
AcDbDictionary
281
1
  3
Model
350
39B
  3
Layout1
350
39C
  0
ACDBPLACEHOLDER
  5
F
102
{ACAD_REACTORS
330
E
102
}
  0
MLINESTYLE
  5
18
102
{ACAD_REACTORS
330
17
102
}
100
AcDbMlineStyle
  2
STANDARD
 70
0
  3

 62
256
 51
90.0
 52
90.0
 71
2
 49
0.5
 62
256
  6
BYLAYER
 49
-0.5
 62
256
  6
BYLAYER
  0
LAYOUT
  5
39B
102
{ACAD_REACTORS
330
1A
102
}
100
AcDbPlotSettings
  1

  2
none_device
  4
ANSI_C_(22.00_x_17.00_Inches)
  6

 40
0.0
 41
0.0
 42
0.0
 43
0.0
 44
558.8
 45
431.8
 46
0.0
 47
0.0
 48
0.0
 49
0.0
140
0.0
141
0.0
142
1.0
143
1.0
 70
1024
 72
0
 73
0
 74
0
  7

 75
0
147
1.0
148
0.0
149
0.0
100
AcDbLayout
  1
Model
 70
0
 71
0
 10
0.0
 20
0.0
 11
22.0
 21
17.0
 12
0.0
 22
0.0
 32
0.0
 14
0.0
 24
0.0
 34
0.0
 15
0.0
 25
0.0
 35
0.0
146
0.0
 13
0.0
 23
0.0
 33
0.0
 16
1.0
 26
0.0
 36
0.0
 17
0.0
 27
1.0
 37
0.0
 76
0
330
207
345
0
346
0
  0
LAYOUT
  5
39C
102
{ACAD_REACTORS
330
1A
102
}
100
AcDbPlotSettings
  1

  2
none_device
  4
ANSI_C_(22.00_x_17.00_Inches)
  6

 40
0.0
 41
0.0
 42
0.0
 43
0.0
 44
558.8
 45
431.8
 46
0.0
 47
0.0
 48
0.0
 49
0.0
140
0.0
141
0.0
142
1.0
143
1.0
 70
0
 72
0
 73
0
 74
0
  7

 75
0
147
1.0
148
0.0
149
0.0
100
AcDbLayout
  1
Layout1
 70
0
 71
1
 10
0.0
 20
0.0
 11
22.0
 21
17.0
 12
0.0
 22
0.0
 32
0.0
 14
0.0
 24
0.0
 34
0.0
 15
0.0
 25
0.0
 35
0.0
146
0.0
 13
0.0
 23
0.0
 33
0.0
 16
1.0
 26
0.0
 36
0.0
 17
0.0
 27
1.0
 37
0.0
 76
0
330
208
345
0
346
0
  0
IMAGEDEF
  5
39D
102
{ACAD_REACTORS
330
398
330
397
102
}
100
AcDbRasterImageDef
 90
0
  1
WJD_assy_2_img_1.png
 10
369.0
 20
92.0
 11
0.0066666667
 21
0.0066666667
280
1
281
0
  0
TABLESTYLE
  5
39E
102
{ACAD_REACTORS
330
39A
330
27F
330
280
102
}
330
39A
100
AcDbTableStyle
  3
Standard
 70
0
 71
0
 40
0.06
 41
0.06
280
1
281
1
  7
Standard
140
0.18
170
1
 62
0
 63
7
283
0
  7
Standard
140
0.18
170
1
 62
0
 63
7
283
0
  7
Standard
140
0.18
170
1
 62
0
 63
7
283
0
  0
TABLESTYLE
  5
39F
102
{ACAD_REACTORS
330
39A
330
27E
102
}
330
39A
100
AcDbTableStyle
  3
Standard1
 70
1
 71
0
 40
0.06
 41
0.06
280
1
281
1
  7
Standard
140
0.18
170
1
 62
0
 63
7
283
0
  7
Standard
140
0.18
170
1
 62
0
 63
7
283
0
  7
Standard
140
0.18
170
1
 62
0
 63
7
283
0
  0
ENDSEC
  0
EOF
