999
DXF file: WJC_assy_2.dxf
999
Pro/ENGINEER 2014200 by Parametric Technology Corporation
  0
SECTION
  2
HEADER
  9
$ACADVER
  1
AC1021
  9
$DWGCODEPAGE
  3
ANSI_1252
  9
$EXTMAX
 10
22.0
 20
17.0
 30
0.0
  9
$EXTMIN
 10
0.0
 20
0.0
 30
0.0
  9
$LIMMIN
 10
0.0
 20
0.0
  9
$LIMMAX
 10
22.0
 20
17.0
  9
$VIEWCTR
 10
11.0
 20
8.5
  9
$VIEWSIZE
 40
17.0
  9
$CLAYER
  8
0
  9
$LTSCALE
 40
1.21
  9
$CELTYPE
  6
BYLAYER
  9
$DIMSCALE
 40
1.0
  9
$DIMASZ
 40
0.1875
  9
$DIMEXO
 40
0.0625
  9
$DIMDLI
 40
0.836
  9
$DIMEXE
 40
0.125
  9
$DIMCEN
 40
0.198
  9
$DIMLFAC
 40
1.0
  9
$DIMBLK
  1
_FILLED
  9
$DIMTXT
 40
0.1
  9
$DIMTOL
 70
0
  9
$DIMLIM
 70
0
  9
$DIMTFAC
 40
1.0
  9
$DIMGAP
 40
0.09
  9
$DIMDSEP
 70
46
  9
$AUNITS
 70
0
  9
$PDMODE
 70
3
  9
$PDSIZE
 40
0.3125
  9
$HANDSEED
  5
3CB
  9
$TILEMODE
 70
1
  9
$MEASUREMENT
 70
0
  9
$INSUNITS
 70
1
  0
ENDSEC
  0
SECTION
  2
CLASSES
  0
CLASS
  1
ACDBDICTIONARYWDFLT
  2
AcDbDictionaryWithDefault
  3
AutoCAD 2000
 90
0
 91
1
280
0
281
0
  0
CLASS
  1
ACDBPLACEHOLDER
  2
AcDbPlaceHolder
  3
AutoCAD 2000
 90
0
 91
1
280
0
281
0
  0
CLASS
  1
LAYOUT
  2
AcDbLayout
  3
AutoCAD 2000
 90
0
 91
0
280
0
281
0
  0
CLASS
  1
RASTERVARIABLES
  2
AcDbRasterVariables
  3
ISM
 90
0
 91
1
280
0
281
0
  0
CLASS
  1
IMAGEDEF
  2
AcDbRasterImageDef
  3
ISM
 90
0
 91
1
280
0
281
0
  0
CLASS
  1
IMAGEDEF_REACTOR
  2
AcDbRasterImageDefReactor
  3
ISM
 90
0
 91
1
280
0
281
0
  0
CLASS
  1
IMAGE
  2
AcDbRasterImage
  3
ISM
 90
127
 91
1
280
0
281
1
  0
CLASS
  1
TABLESTYLE
  2
AcDbTableStyle
  3
ObjectDBX Classes
 90
2047
 91
1
280
0
281
0
  0
CLASS
  1
ACAD_TABLE
  2
AcDbTable
  3
ObjectDBX Classes
 90
1025
 91
3
280
0
281
1
  0
ENDSEC
  0
SECTION
  2
TABLES
  0
TABLE
  2
VPORT
  5
8
100
AcDbSymbolTable
 70
2
  0
VPORT
  5
1F4
100
AcDbSymbolTableRecord
100
AcDbViewportTableRecord
  2
*ACTIVE
 70
0
 10
0.0
 20
0.0
 11
1.0
 21
1.0
 12
11.0
 22
8.5
 13
0.0
 23
0.0
 14
1.0
 24
1.0
 15
0.0
 25
0.0
 16
0.0
 26
0.0
 36
1.0
 17
0.0
 27
0.0
 37
0.0
 40
17.0
 41
1.2941176471
 42
50.0
 43
0.0
 44
0.0
 50
0.0
 51
0.0
 71
0
 72
100
 73
1
 74
1
 75
0
 76
0
 77
0
 78
0
  0
ENDTAB
  0
TABLE
  2
LTYPE
  5
5
100
AcDbSymbolTable
 70
6
  0
LTYPE
  5
14
100
AcDbSymbolTableRecord
100
AcDbLinetypeTableRecord
  2
BYBLOCK
 70
0
  3

 72
65
 73
0
 40
0.0
  0
LTYPE
  5
15
100
AcDbSymbolTableRecord
100
AcDbLinetypeTableRecord
  2
BYLAYER
 70
0
  3

 72
65
 73
0
 40
0.0
  0
LTYPE
  5
16
100
AcDbSymbolTableRecord
100
AcDbLinetypeTableRecord
  2
CONTINUOUS
 70
64
  3
Solid line
 72
65
 73
0
 40
0.0
  0
LTYPE
  5
1F5
100
AcDbSymbolTableRecord
100
AcDbLinetypeTableRecord
  2
CENTER
 70
64
  3
____ _ ____ _ ____ _ ____ _ ____ _ ____ _ ____
 72
65
 73
4
 40
0.6
 49
0.375
 74
0
 49
-0.075
 74
0
 49
0.075
 74
0
 49
-0.075
 74
0
  0
LTYPE
  5
1F6
100
AcDbSymbolTableRecord
100
AcDbLinetypeTableRecord
  2
HIDDEN
 70
64
  3
- - - - - - - - - - - - - - - - - - - -
 72
65
 73
2
 40
0.2
 49
0.1
 74
0
 49
-0.1
 74
0
  0
LTYPE
  5
1F7
100
AcDbSymbolTableRecord
100
AcDbLinetypeTableRecord
  2
PHANTOM
 70
64
  3
_____ _ _ _____ _ _ _____ _ _ _____
 72
65
 73
6
 40
0.8
 49
0.45
 74
0
 49
-0.05
 74
0
 49
0.1
 74
0
 49
-0.05
 74
0
 49
0.1
 74
0
 49
-0.05
 74
0
  0
LTYPE
  5
1F8
100
AcDbSymbolTableRecord
100
AcDbLinetypeTableRecord
  2
DOT
 70
64
  3
. . . . . . . . . . . . . . . . . . . .
 72
65
 73
2
 40
0.2
 49
0.1
 74
0
 49
-0.1
 74
0
  0
LTYPE
  5
1F9
100
AcDbSymbolTableRecord
100
AcDbLinetypeTableRecord
  2
DASHED
 70
64
  3
- - - - - - - - - - - - - - - - - - - -
 72
65
 73
2
 40
0.2
 49
0.1
 74
0
 49
-0.1
 74
0
  0
ENDTAB
  0
TABLE
  2
LAYER
  5
2
100
AcDbSymbolTable
 70
36
  0
LAYER
  5
10
100
AcDbSymbolTableRecord
100
AcDbLayerTableRecord
  2
0
 70
0
 62
7
  6
CONTINUOUS
370
-3
390
F
  0
LAYER
  5
1FA
100
AcDbSymbolTableRecord
100
AcDbLayerTableRecord
  2
DEFAULT_1
 70
0
 62
7
  6
CENTER
370
-3
390
F
  0
LAYER
  5
1FB
100
AcDbSymbolTableRecord
100
AcDbLayerTableRecord
  2
DEFAULT_2
 70
0
 62
8
  6
HIDDEN
370
-3
390
F
  0
LAYER
  5
1FC
100
AcDbSymbolTableRecord
100
AcDbLayerTableRecord
  2
DEFAULT_3
 70
0
 62
7
  6
PHANTOM
370
-3
390
F
  0
LAYER
  5
1FD
100
AcDbSymbolTableRecord
100
AcDbLayerTableRecord
  2
DATUM_PLANES
 70
0
 62
7
  6
CONTINUOUS
370
-3
390
F
  0
LAYER
  5
1FE
100
AcDbSymbolTableRecord
100
AcDbLayerTableRecord
  2
DIMENSIONS
 70
0
 62
7
  6
CONTINUOUS
370
-3
390
F
  0
LAYER
  5
1FF
100
AcDbSymbolTableRecord
100
AcDbLayerTableRecord
  2
DTM_500001
 70
0
 62
7
  6
CONTINUOUS
370
-3
390
F
  0
LAYER
  5
200
100
AcDbSymbolTableRecord
100
AcDbLayerTableRecord
  2
PARAMETERDIMENSIONS
 70
0
 62
7
  6
CONTINUOUS
370
-3
390
F
  0
LAYER
  5
201
100
AcDbSymbolTableRecord
100
AcDbLayerTableRecord
  2
PORT_AREAS
 70
0
 62
7
  6
CONTINUOUS
370
-3
390
F
  0
LAYER
  5
202
100
AcDbSymbolTableRecord
100
AcDbLayerTableRecord
  2
SUNNBOMCOSMETIC
 70
0
 62
7
  6
CONTINUOUS
370
-3
390
F
  0
LAYER
  5
203
100
AcDbSymbolTableRecord
100
AcDbLayerTableRecord
  2
SUNNBOMSTAMPING
 70
0
 62
7
  6
CONTINUOUS
370
-3
390
F
  0
LAYER
  5
204
100
AcDbSymbolTableRecord
100
AcDbLayerTableRecord
  2
THREADS
 70
0
 62
7
  6
CONTINUOUS
370
-3
390
F
  0
ENDTAB
  0
TABLE
  2
STYLE
  5
3
100
AcDbSymbolTable
 70
1
  0
STYLE
  5
11
100
AcDbSymbolTableRecord
100
AcDbTextStyleTableRecord
  2
STANDARD
 70
0
 40
0.0
 41
0.8
 50
0.0
 71
0
 42
0.2
  3
txt
  4

  0
STYLE
  5
205
100
AcDbSymbolTableRecord
100
AcDbTextStyleTableRecord
  2
TEXTSTYLE_1
 70
0
 40
0.0
 41
0.8
 50
0.0
 71
0
 42
0.2
  3
gdt
  4

  0
ENDTAB
  0
TABLE
  2
VIEW
  5
6
100
AcDbSymbolTable
 70
0
  0
ENDTAB
  0
TABLE
  2
UCS
  5
7
100
AcDbSymbolTable
 70
0
  0
ENDTAB
  0
TABLE
  2
APPID
  5
9
100
AcDbSymbolTable
 70
1
  0
APPID
  5
206
100
AcDbSymbolTableRecord
100
AcDbRegAppTableRecord
  2
ACAD
 70
0
  0
ENDTAB
  0
TABLE
  2
BLOCK_RECORD
  5
1
100
AcDbSymbolTable
 70
0
  0
BLOCK_RECORD
  5
207
100
AcDbSymbolTableRecord
100
AcDbBlockTableRecord
  2
*Model_Space
  0
BLOCK_RECORD
  5
208
100
AcDbSymbolTableRecord
100
AcDbBlockTableRecord
  2
*Paper_Space
  0
BLOCK_RECORD
  5
209
100
AcDbSymbolTableRecord
100
AcDbBlockTableRecord
  2
SUN_FIRST_THIRD_ANGLE_BL0
  0
BLOCK_RECORD
  5
20A
100
AcDbSymbolTableRecord
100
AcDbBlockTableRecord
  2
*T1
  0
BLOCK_RECORD
  5
20B
100
AcDbSymbolTableRecord
100
AcDbBlockTableRecord
  2
*T2
  0
BLOCK_RECORD
  5
20C
100
AcDbSymbolTableRecord
100
AcDbBlockTableRecord
  2
*T3
  0
ENDTAB
  0
TABLE
  2
DIMSTYLE
  5
A
100
AcDbSymbolTable
 70
1
100
AcDbDimStyleTable
 71
0
  0
DIMSTYLE
105
20D
100
AcDbSymbolTableRecord
100
AcDbDimStyleTableRecord
  2
STANDARD
 70
0
  3

  4

 40
1.0
 41
0.1875
 42
0.0625
 43
0.38
 44
0.125
 45
0.0
 46
0.0
 47
0.001
 48
0.001
140
0.1
141
0.09
142
0.0
143
25.4
144
1.0
145
0.0
146
1.0
147
0.09
 71
0.0
 72
0.0
 73
1
 74
1
 75
0
 76
0
 77
0
 78
4
170
0
171
2
172
0
173
0
174
0
175
0
176
0
177
0
178
0
270
2
271
3
272
3
273
2
274
2
275
0
280
0
281
0
282
0
283
1
284
4
285
0
286
0
287
3
288
0
340
11
278
46
  0
ENDTAB
  0
ENDSEC
  0
SECTION
  2
BLOCKS
  0
BLOCK
  5
20
100
AcDbEntity
  8
0
100
AcDbBlockBegin
  2
*Model_Space
 70
0
 10
0.0
 20
0.0
 30
0.0
  3
*Model_Space
  1

  0
ENDBLK
  5
21
100
AcDbEntity
  8
0
100
AcDbBlockEnd
  0
BLOCK
  5
1C
100
AcDbEntity
  8
0
100
AcDbBlockBegin
  2
*Paper_Space
 70
0
 10
0.0
 20
0.0
 30
0.0
  3
*Paper_Space
  1

  0
ENDBLK
  5
1D
100
AcDbEntity
  8
0
100
AcDbBlockEnd
  0
BLOCK
  5
20E
100
AcDbEntity
  8
0
100
AcDbBlockBegin
 62
2
  6
CONTINUOUS
  2
SUN_FIRST_THIRD_ANGLE_BL0
 70
64
 10
20.4816717061
 20
1.2289683772
  3
SUN_FIRST_THIRD_ANGLE_BL0
  1

  0
TEXT
  5
20F
100
AcDbEntity
  8
0
100
AcDbText
 62
2
  6
CONTINUOUS
 10
19.4750896608
 20
1.4136269581
  7
STANDARD
 40
0.08
  1
FIRST ANGLE
 41
0.8
 72
0
100
AcDbText
  0
TEXT
  5
210
100
AcDbEntity
  8
0
100
AcDbText
 62
2
  6
CONTINUOUS
 10
20.7842537513
 20
1.4047600029
  7
STANDARD
 40
0.08
  1
THIRD ANGLE
 41
0.8
 72
0
100
AcDbText
  0
LINE
  5
211
100
AcDbEntity
  8
0
100
AcDbLine
 62
7
  6
CONTINUOUS
 10
19.4767170086
 20
1.1727031207
 11
19.6334271527
 21
1.1717972817
  0
LINE
  5
212
100
AcDbEntity
  8
0
100
AcDbLine
 62
7
  6
CONTINUOUS
 10
19.6596964832
 20
1.1717972817
 11
19.6950230232
 21
1.171593082
  0
LINE
  5
213
100
AcDbEntity
  8
0
100
AcDbLine
 62
7
  6
CONTINUOUS
 10
19.7194818561
 20
1.1708914427
 11
19.8852396156
 21
1.1699333054
  0
LINE
  5
214
100
AcDbEntity
  8
0
100
AcDbLine
 62
7
  6
CONTINUOUS
 10
19.4758111696
 20
1.2723454088
 11
19.88525039
 21
1.3511534004
  0
LINE
  5
215
100
AcDbEntity
  8
0
100
AcDbLine
 62
7
  6
CONTINUOUS
 10
19.88525039
 20
1.3511534004
 11
19.8831348489
 21
0.9851647912
  0
LINE
  5
216
100
AcDbEntity
  8
0
100
AcDbLine
 62
7
  6
CONTINUOUS
 10
19.8831348489
 20
0.9851647912
 11
19.4767170086
 21
1.0658141206
  0
LINE
  5
217
100
AcDbEntity
  8
0
100
AcDbLine
 62
7
  6
CONTINUOUS
 10
19.4767170086
 20
1.0658141206
 11
19.4779056764
 21
1.2714536432
  0
CIRCLE
  5
218
100
AcDbEntity
  8
0
100
AcDbCircle
 62
7
  6
CONTINUOUS
 10
20.2068232291
 20
1.1717972817
 40
0.175742101
  0
CIRCLE
  5
219
100
AcDbEntity
  8
0
100
AcDbCircle
 62
7
  6
CONTINUOUS
 10
20.2068232291
 20
1.1717972817
 40
0.1005522074
  0
LINE
  5
21A
100
AcDbEntity
  8
0
100
AcDbLine
 62
7
  6
CONTINUOUS
 10
20.2077290681
 20
1.3756110529
 11
20.2071171714
 21
1.2379342989
  0
LINE
  5
21B
100
AcDbEntity
  8
0
100
AcDbLine
 62
7
  6
CONTINUOUS
 10
20.2077290681
 20
1.2016899681
 11
20.2074674401
 21
1.1428236749
  0
LINE
  5
21C
100
AcDbEntity
  8
0
100
AcDbLine
 62
7
  6
CONTINUOUS
 10
20.208634907
 20
1.101141841
 11
20.2080230104
 21
0.963465087
  0
LINE
  5
21D
100
AcDbEntity
  8
0
100
AcDbLine
 62
7
  6
CONTINUOUS
 10
20.0066328138
 20
1.1745147986
 11
20.1443095678
 21
1.1739029019
  0
LINE
  5
21E
100
AcDbEntity
  8
0
100
AcDbLine
 62
7
  6
CONTINUOUS
 10
20.1832714155
 20
1.1727031207
 11
20.238153505
 21
1.172335442
  0
LINE
  5
21F
100
AcDbEntity
  8
0
100
AcDbLine
 62
7
  6
CONTINUOUS
 10
20.2756669918
 20
1.1717972817
 11
20.407916871
 21
1.1712095044
  0
CIRCLE
  5
220
100
AcDbEntity
  8
0
100
AcDbCircle
 62
7
  6
CONTINUOUS
 10
20.7509457401
 20
1.1693297793
 40
0.1722024983
  0
CIRCLE
  5
221
100
AcDbEntity
  8
0
100
AcDbCircle
 62
7
  6
CONTINUOUS
 10
20.7509457401
 20
1.1693297793
 40
0.0985164967
  0
LINE
  5
222
100
AcDbEntity
  8
0
100
AcDbLine
 62
7
  6
CONTINUOUS
 10
20.7169767782
 20
1.170462078
 11
20.7825395137
 21
1.1682766535
  0
LINE
  5
223
100
AcDbEntity
  8
0
100
AcDbLine
 62
7
  6
CONTINUOUS
 10
20.8177513651
 20
1.1693297793
 11
20.947965719
 21
1.1693297793
  0
LINE
  5
224
100
AcDbEntity
  8
0
100
AcDbLine
 62
7
  6
CONTINUOUS
 10
20.6875370113
 20
1.170462078
 11
20.5573226574
 21
1.170462078
  0
LINE
  5
225
100
AcDbEntity
  8
0
100
AcDbLine
 62
7
  6
CONTINUOUS
 10
20.7486811426
 20
1.1987695462
 11
20.7486811426
 21
1.1432869085
  0
LINE
  5
226
100
AcDbEntity
  8
0
100
AcDbLine
 62
7
  6
CONTINUOUS
 10
20.7498134414
 20
1.1059210505
 11
20.7498134414
 21
0.9757066966
  0
LINE
  5
227
100
AcDbEntity
  8
0
100
AcDbLine
 62
7
  6
CONTINUOUS
 10
20.7486811426
 20
1.2338708068
 11
20.7486811426
 21
1.3640851607
  0
LINE
  5
228
100
AcDbEntity
  8
0
100
AcDbLine
 62
7
  6
CONTINUOUS
 10
21.0702539817
 20
1.2701043662
 11
21.4790138229
 21
1.3448360823
  0
LINE
  5
229
100
AcDbEntity
  8
0
100
AcDbLine
 62
7
  6
CONTINUOUS
 10
21.4790138229
 20
1.3448360823
 11
21.4790138229
 21
0.9779712941
  0
LINE
  5
22A
100
AcDbEntity
  8
0
100
AcDbLine
 62
7
  6
CONTINUOUS
 10
21.4790138229
 20
0.9779712941
 11
21.069121683
 21
1.0617614
  0
LINE
  5
22B
100
AcDbEntity
  8
0
100
AcDbLine
 62
7
  6
CONTINUOUS
 10
21.0702539817
 20
1.2701043662
 11
21.069121683
 21
1.0617614
  0
LINE
  5
22C
100
AcDbEntity
  8
0
100
AcDbLine
 62
7
  6
CONTINUOUS
 10
21.4790138229
 20
1.1693297793
 11
21.3159628059
 21
1.1693297793
  0
LINE
  5
22D
100
AcDbEntity
  8
0
100
AcDbLine
 62
7
  6
CONTINUOUS
 10
21.2876553377
 20
1.1693297793
 11
21.2502894796
 21
1.1693297793
  0
LINE
  5
22E
100
AcDbEntity
  8
0
100
AcDbLine
 62
7
  6
CONTINUOUS
 10
21.2208497126
 20
1.1659328831
 11
21.0713862804
 21
1.1659328831
  0
LINE
  5
22F
100
AcDbEntity
  8
0
100
AcDbLine
 62
7
  6
CONTINUOUS
 10
20.4796138713
 20
1.5284908897
 11
20.4766766948
 21
0.9294458646
  0
ENDBLK
  5
230
100
AcDbEntity
  8
0
  6
BYBLOCK
 62
0
100
AcDbBlockEnd
  0
BLOCK
  5
231
100
AcDbEntity
  8
0
100
AcDbBlockBegin
  2
*T1
 70
1
 10
0.0
 20
0.0
  3
*T1
  1

  0
LINE
  5
232
100
AcDbEntity
  8
0
100
AcDbLine
 62
2
  6
CONTINUOUS
 10
9.275
 20
0.0
 11
-0.0
 21
0.0
  0
LINE
  5
233
100
AcDbEntity
  8
0
100
AcDbLine
 62
2
  6
CONTINUOUS
 10
9.275
 20
0.0
 11
9.275
 21
1.25
  0
LINE
  5
234
100
AcDbEntity
  8
0
100
AcDbLine
 62
2
  6
CONTINUOUS
 10
9.275
 20
0.625
 11
-0.0
 21
0.625
  0
LINE
  5
235
100
AcDbEntity
  8
0
100
AcDbLine
 62
2
  6
CONTINUOUS
 10
9.275
 20
1.25
 11
-0.0
 21
1.25
  0
LINE
  5
236
100
AcDbEntity
  8
0
100
AcDbLine
 62
2
  6
CONTINUOUS
 10
6.8
 20
0.0
 11
6.8
 21
1.25
  0
LINE
  5
237
100
AcDbEntity
  8
0
100
AcDbLine
 62
2
  6
CONTINUOUS
 10
6.4
 20
0.0
 11
6.4
 21
0.625
  0
LINE
  5
238
100
AcDbEntity
  8
0
100
AcDbLine
 62
2
  6
CONTINUOUS
 10
5.9
 20
0.0
 11
5.9
 21
0.625
  0
LINE
  5
239
100
AcDbEntity
  8
0
100
AcDbLine
 62
2
  6
CONTINUOUS
 10
5.2
 20
0.0
 11
5.2
 21
0.625
  0
LINE
  5
23A
100
AcDbEntity
  8
0
100
AcDbLine
 62
2
  6
CONTINUOUS
 10
4.1
 20
0.0
 11
4.1
 21
1.25
  0
LINE
  5
23B
100
AcDbEntity
  8
0
100
AcDbLine
 62
2
  6
CONTINUOUS
 10
-0.0
 20
0.0
 11
-0.0
 21
1.25
  0
MTEXT
  5
23C
100
AcDbEntity
  8
0
100
AcDbMText
 62
2
  6
CONTINUOUS
  7
STANDARD
 71
2
 72
1
 10
6.6
 20
0.325
 30
0.0
 11
1.0
 21
0.0
 31
0.0
 44
0.9
  1
2
 40
0.125
 41
0.2
  0
MTEXT
  5
23D
100
AcDbEntity
  8
0
100
AcDbMText
 62
2
  6
CONTINUOUS
  7
STANDARD
 71
2
 72
1
 10
6.15
 20
0.325
 30
0.0
 11
1.0
 21
0.0
 31
0.0
 44
0.9
  1
C
 40
0.125
 41
0.2
  0
MTEXT
  5
23E
100
AcDbEntity
  8
0
100
AcDbMText
 62
2
  6
CONTINUOUS
  7
STANDARD
 71
2
 72
1
 10
5.55
 20
0.325
 30
0.0
 11
1.0
 21
0.0
 31
0.0
 44
0.9
  1
1.000
 40
0.125
 41
1.0
  0
MTEXT
  5
23F
100
AcDbEntity
  8
0
100
AcDbMText
 62
2
  6
CONTINUOUS
  7
STANDARD
 71
2
 72
1
 10
4.65
 20
0.325
 30
0.0
 11
1.0
 21
0.0
 31
0.0
 44
0.9
  1
Jan-29-20
 40
0.125
 41
1.8
  0
MTEXT
  5
240
100
AcDbEntity
  8
0
100
AcDbMText
 62
2
  6
CONTINUOUS
  7
STANDARD
 71
2
 72
1
 10
2.05
 20
0.4625
 30
0.0
 11
1.0
 21
0.0
 31
0.0
 44
0.9
  1
T-22A Gasket mount Sun\PDirect mount, cross pilot
 40
0.125
 41
5.0
  0
MTEXT
  5
241
100
AcDbEntity
  8
0
100
AcDbMText
 62
2
  6
CONTINUOUS
  7
STANDARD
 71
1
 72
1
 10
6.45
 20
0.5625
 30
0.0
 11
1.0
 21
0.0
 31
0.0
 44
0.9
  1
SHEET
 40
0.06
 41
0.48
  0
MTEXT
  5
242
100
AcDbEntity
  8
0
100
AcDbMText
 62
2
  6
CONTINUOUS
  7
STANDARD
 71
1
 72
1
 10
5.95
 20
0.5625
 30
0.0
 11
1.0
 21
0.0
 31
0.0
 44
0.9
  1
DWG SIZE
 40
0.06
 41
0.768
  0
MTEXT
  5
243
100
AcDbEntity
  8
0
100
AcDbMText
 62
2
  6
CONTINUOUS
  7
STANDARD
 71
1
 72
1
 10
5.25
 20
0.5625
 30
0.0
 11
1.0
 21
0.0
 31
0.0
 44
0.9
  1
SCALE
 40
0.06
 41
0.48
  0
MTEXT
  5
244
100
AcDbEntity
  8
0
100
AcDbMText
 62
2
  6
CONTINUOUS
  7
STANDARD
 71
1
 72
1
 10
4.15
 20
0.5625
 30
0.0
 11
1.0
 21
0.0
 31
0.0
 44
0.9
  1
DATE
 40
0.06
 41
0.384
  0
MTEXT
  5
245
100
AcDbEntity
  8
0
100
AcDbMText
 62
2
  6
CONTINUOUS
  7
STANDARD
 71
1
 72
1
 10
0.05
 20
0.5625
 30
0.0
 11
1.0
 21
0.0
 31
0.0
 44
0.9
  1
DESCRIPTION
 40
0.06
 41
1.056
  0
MTEXT
  5
246
100
AcDbEntity
  8
0
100
AcDbMText
 62
2
  6
CONTINUOUS
  7
STANDARD
 71
2
 72
1
 10
5.45
 20
1.0375
 30
0.0
 11
1.0
 21
0.0
 31
0.0
 44
0.9
  1
ALL DIMENSIONS IN INCH\PVIEWS ARE THIRD ANGLE
 40
0.12
 41
4.224
  0
MTEXT
  5
247
100
AcDbEntity
  8
0
100
AcDbMText
 62
2
  6
CONTINUOUS
  7
STANDARD
 71
2
 72
1
 10
2.05
 20
0.95
 30
0.0
 11
1.0
 21
0.0
 31
0.0
 44
0.9
  1
WJC
 40
0.125
 41
0.6
  0
MTEXT
  5
248
100
AcDbEntity
  8
0
100
AcDbMText
 62
2
  6
CONTINUOUS
  7
STANDARD
 71
1
 72
1
 10
0.05
 20
1.1875
 30
0.0
 11
1.0
 21
0.0
 31
0.0
 44
0.9
  1
MODEL
 40
0.06
 41
0.48
  0
ENDBLK
  5
249
100
AcDbEntity
  8
0
  6
BYBLOCK
 62
0
100
AcDbBlockEnd
  0
BLOCK
  5
24A
100
AcDbEntity
  8
0
100
AcDbBlockBegin
  2
*T2
 70
1
 10
0.0
 20
0.0
  3
*T2
  1

  0
LINE
  5
24B
100
AcDbEntity
  8
0
100
AcDbLine
 62
2
  6
CONTINUOUS
 10
0.0
 20
0.0
 11
9.055
 21
0.0
  0
LINE
  5
24C
100
AcDbEntity
  8
0
100
AcDbLine
 62
2
  6
CONTINUOUS
 10
0.0
 20
0.0
 11
0.0
 21
-1.844
  0
LINE
  5
24D
100
AcDbEntity
  8
0
100
AcDbLine
 62
2
  6
CONTINUOUS
 10
0.0
 20
-0.344
 11
9.055
 21
-0.344
  0
LINE
  5
24E
100
AcDbEntity
  8
0
100
AcDbLine
 62
2
  6
CONTINUOUS
 10
0.0
 20
-0.594
 11
9.055
 21
-0.594
  0
LINE
  5
24F
100
AcDbEntity
  8
0
100
AcDbLine
 62
2
  6
CONTINUOUS
 10
0.0
 20
-0.844
 11
9.055
 21
-0.844
  0
LINE
  5
250
100
AcDbEntity
  8
0
100
AcDbLine
 62
2
  6
CONTINUOUS
 10
0.0
 20
-1.094
 11
9.055
 21
-1.094
  0
LINE
  5
251
100
AcDbEntity
  8
0
100
AcDbLine
 62
2
  6
CONTINUOUS
 10
0.0
 20
-1.344
 11
9.055
 21
-1.344
  0
LINE
  5
252
100
AcDbEntity
  8
0
100
AcDbLine
 62
2
  6
CONTINUOUS
 10
0.0
 20
-1.594
 11
9.055
 21
-1.594
  0
LINE
  5
253
100
AcDbEntity
  8
0
100
AcDbLine
 62
2
  6
CONTINUOUS
 10
0.0
 20
-1.844
 11
9.055
 21
-1.844
  0
LINE
  5
254
100
AcDbEntity
  8
0
100
AcDbLine
 62
2
  6
CONTINUOUS
 10
3.055
 20
0.0
 11
3.055
 21
-1.844
  0
LINE
  5
255
100
AcDbEntity
  8
0
100
AcDbLine
 62
2
  6
CONTINUOUS
 10
9.055
 20
0.0
 11
9.055
 21
-1.844
  0
MTEXT
  5
256
100
AcDbEntity
  8
0
100
AcDbMText
 62
2
  6
CONTINUOUS
  7
STANDARD
 71
2
 72
1
 10
1.5275
 20
-0.0995
 30
0.0
 11
1.0
 21
0.0
 31
0.0
 44
0.9
  1
Technical Data
 40
0.145
 41
3.248
  0
MTEXT
  5
257
100
AcDbEntity
  8
0
100
AcDbMText
 62
2
  6
CONTINUOUS
  7
STANDARD
 71
2
 72
1
 10
4.555
 20
-0.0995
 30
0.0
 11
1.0
 21
0.0
 31
0.0
 44
0.9
  1
U.S. Units
 40
0.145
 41
2.32
  0
MTEXT
  5
258
100
AcDbEntity
  8
0
100
AcDbMText
 62
2
  6
CONTINUOUS
  7
STANDARD
 71
2
 72
1
 10
7.555
 20
-0.0995
 30
0.0
 11
1.0
 21
0.0
 31
0.0
 44
0.9
  1
Metric Units
 40
0.145
 41
2.784
  0
MTEXT
  5
259
100
AcDbEntity
  8
0
100
AcDbMText
 62
2
  6
CONTINUOUS
  7
STANDARD
 71
2
 72
1
 10
1.5275
 20
-0.4065
 30
0.0
 11
1.0
 21
0.0
 31
0.0
 44
0.9
  1
Cavity
 40
0.125
 41
1.2
  0
MTEXT
  5
25A
100
AcDbEntity
  8
0
100
AcDbMText
 62
2
  6
CONTINUOUS
  7
STANDARD
 71
2
 72
1
 10
6.055
 20
-0.4065
 30
0.0
 11
1.0
 21
0.0
 31
0.0
 44
0.9
  1
T-22A
 40
0.125
 41
1.0
  0
MTEXT
  5
25B
100
AcDbEntity
  8
0
100
AcDbMText
 62
2
  6
CONTINUOUS
  7
STANDARD
 71
2
 72
1
 10
1.5275
 20
-0.6565
 30
0.0
 11
1.0
 21
0.0
 31
0.0
 44
0.9
  1
Body Features
 40
0.125
 41
2.6
  0
MTEXT
  5
25C
100
AcDbEntity
  8
0
100
AcDbMText
 62
2
  6
CONTINUOUS
  7
STANDARD
 71
2
 72
1
 10
6.055
 20
-0.6565
 30
0.0
 11
1.0
 21
0.0
 31
0.0
 44
0.9
  1
Direct mount, cross pilot
 40
0.125
 41
5.0
  0
MTEXT
  5
25D
100
AcDbEntity
  8
0
100
AcDbMText
 62
2
  6
CONTINUOUS
  7
STANDARD
 71
2
 72
1
 10
1.5275
 20
-0.9065
 30
0.0
 11
1.0
 21
0.0
 31
0.0
 44
0.9
  1
Body Type
 40
0.125
 41
1.8
  0
MTEXT
  5
25E
100
AcDbEntity
  8
0
100
AcDbMText
 62
2
  6
CONTINUOUS
  7
STANDARD
 71
2
 72
1
 10
6.055
 20
-0.9065
 30
0.0
 11
1.0
 21
0.0
 31
0.0
 44
0.9
  1
Gasket mount
 40
0.125
 41
2.4
  0
MTEXT
  5
25F
100
AcDbEntity
  8
0
100
AcDbMText
 62
2
  6
CONTINUOUS
  7
STANDARD
 71
2
 72
1
 10
1.5275
 20
-1.1565
 30
0.0
 11
1.0
 21
0.0
 31
0.0
 44
0.9
  1
Interface
 40
0.125
 41
1.8
  0
MTEXT
  5
260
100
AcDbEntity
  8
0
100
AcDbMText
 62
2
  6
CONTINUOUS
  7
STANDARD
 71
2
 72
1
 10
6.055
 20
-1.1565
 30
0.0
 11
1.0
 21
0.0
 31
0.0
 44
0.9
  1
Sun
 40
0.125
 41
0.6
  0
MTEXT
  5
261
100
AcDbEntity
  8
0
100
AcDbMText
 62
2
  6
CONTINUOUS
  7
STANDARD
 71
2
 72
1
 10
1.5275
 20
-1.4065
 30
0.0
 11
1.0
 21
0.0
 31
0.0
 44
0.9
  1
Open Cavity Quantity
 40
0.125
 41
4.0
  0
MTEXT
  5
262
100
AcDbEntity
  8
0
100
AcDbMText
 62
2
  6
CONTINUOUS
  7
STANDARD
 71
2
 72
1
 10
6.055
 20
-1.4065
 30
0.0
 11
1.0
 21
0.0
 31
0.0
 44
0.9
  1
1
 40
0.125
 41
0.2
  0
MTEXT
  5
263
100
AcDbEntity
  8
0
100
AcDbMText
 62
2
  6
CONTINUOUS
  7
STANDARD
 71
2
 72
1
 10
1.5275
 20
-1.6565
 30
0.0
 11
1.0
 21
0.0
 31
0.0
 44
0.9
  1
Weight
 40
0.125
 41
1.2
  0
MTEXT
  5
264
100
AcDbEntity
  8
0
100
AcDbMText
 62
2
  6
CONTINUOUS
  7
STANDARD
 71
2
 72
1
 10
4.555
 20
-1.6565
 30
0.0
 11
1.0
 21
0.0
 31
0.0
 44
0.9
  1
3.663 lb.
 40
0.125
 41
1.8
  0
MTEXT
  5
265
100
AcDbEntity
  8
0
100
AcDbMText
 62
2
  6
CONTINUOUS
  7
STANDARD
 71
2
 72
1
 10
7.555
 20
-1.6565
 30
0.0
 11
1.0
 21
0.0
 31
0.0
 44
0.9
  1
1,661 kg.
 40
0.125
 41
1.8
  0
ENDBLK
  5
266
100
AcDbEntity
  8
0
  6
BYBLOCK
 62
0
100
AcDbBlockEnd
  0
BLOCK
  5
267
100
AcDbEntity
  8
0
100
AcDbBlockBegin
  2
*T3
 70
1
 10
0.0
 20
0.0
  3
*T3
  1

  0
LINE
  5
268
100
AcDbEntity
  8
0
100
AcDbLine
 62
2
  6
CONTINUOUS
 10
0.0
 20
0.0
 11
4.6
 21
0.0
  0
LINE
  5
269
100
AcDbEntity
  8
0
100
AcDbLine
 62
2
  6
CONTINUOUS
 10
0.0
 20
0.0
 11
0.0
 21
-1.18775
  0
LINE
  5
26A
100
AcDbEntity
  8
0
100
AcDbLine
 62
2
  6
CONTINUOUS
 10
0.0
 20
-0.34375
 11
4.6
 21
-0.34375
  0
LINE
  5
26B
100
AcDbEntity
  8
0
100
AcDbLine
 62
2
  6
CONTINUOUS
 10
0.0
 20
-0.68775
 11
4.6
 21
-0.68775
  0
LINE
  5
26C
100
AcDbEntity
  8
0
100
AcDbLine
 62
2
  6
CONTINUOUS
 10
0.0
 20
-0.93775
 11
4.6
 21
-0.93775
  0
LINE
  5
26D
100
AcDbEntity
  8
0
100
AcDbLine
 62
2
  6
CONTINUOUS
 10
0.0
 20
-1.18775
 11
4.6
 21
-1.18775
  0
LINE
  5
26E
100
AcDbEntity
  8
0
100
AcDbLine
 62
2
  6
CONTINUOUS
 10
1.3
 20
-0.34375
 11
1.3
 21
-1.18775
  0
LINE
  5
26F
100
AcDbEntity
  8
0
100
AcDbLine
 62
2
  6
CONTINUOUS
 10
3.3
 20
-0.34375
 11
3.3
 21
-1.18775
  0
LINE
  5
270
100
AcDbEntity
  8
0
100
AcDbLine
 62
2
  6
CONTINUOUS
 10
4.6
 20
0.0
 11
4.6
 21
-1.18775
  0
MTEXT
  5
271
100
AcDbEntity
  8
0
100
AcDbMText
 62
2
  6
CONTINUOUS
  7
STANDARD
 71
2
 72
1
 10
2.3
 20
-0.099375
 30
0.0
 11
1.0
 21
0.0
 31
0.0
 44
0.9
  1
Port Headings
 40
0.145
 41
3.016
  0
MTEXT
  5
272
100
AcDbEntity
  8
0
100
AcDbMText
 62
2
  6
CONTINUOUS
  7
STANDARD
 71
2
 72
1
 10
0.65
 20
-0.44325
 30
0.0
 11
1.0
 21
0.0
 31
0.0
 44
0.9
  1
Product
 40
0.145
 41
1.624
  0
MTEXT
  5
273
100
AcDbEntity
  8
0
100
AcDbMText
 62
2
  6
CONTINUOUS
  7
STANDARD
 71
2
 72
1
 10
2.3
 20
-0.44325
 30
0.0
 11
1.0
 21
0.0
 31
0.0
 44
0.9
  1
Port
 40
0.145
 41
0.928
  0
MTEXT
  5
274
100
AcDbEntity
  8
0
100
AcDbMText
 62
2
  6
CONTINUOUS
  7
STANDARD
 71
2
 72
1
 10
3.95
 20
-0.44325
 30
0.0
 11
1.0
 21
0.0
 31
0.0
 44
0.9
  1
Size
 40
0.145
 41
0.928
  0
MTEXT
  5
275
100
AcDbEntity
  8
0
100
AcDbMText
 62
2
  6
CONTINUOUS
  7
STANDARD
 71
2
 72
1
 10
0.65
 20
-0.75025
 30
0.0
 11
1.0
 21
0.0
 31
0.0
 44
0.9
  1
WJC
 40
0.125
 41
0.6
  0
MTEXT
  5
276
100
AcDbEntity
  8
0
100
AcDbMText
 62
2
  6
CONTINUOUS
  7
STANDARD
 71
2
 72
1
 10
2.3
 20
-0.75025
 30
0.0
 11
1.0
 21
0.0
 31
0.0
 44
0.9
  1
Ports C2, V1, V2
 40
0.125
 41
3.2
  0
MTEXT
  5
277
100
AcDbEntity
  8
0
100
AcDbMText
 62
2
  6
CONTINUOUS
  7
STANDARD
 71
2
 72
1
 10
3.95
 20
-0.75025
 30
0.0
 11
1.0
 21
0.0
 31
0.0
 44
0.9
  1
SAE 8
 40
0.125
 41
1.0
  0
MTEXT
  5
278
100
AcDbEntity
  8
0
100
AcDbMText
 62
2
  6
CONTINUOUS
  7
STANDARD
 71
2
 72
1
 10
0.65
 20
-1.00025
 30
0.0
 11
1.0
 21
0.0
 31
0.0
 44
0.9
  1
WJC
 40
0.125
 41
0.6
  0
MTEXT
  5
279
100
AcDbEntity
  8
0
100
AcDbMText
 62
2
  6
CONTINUOUS
  7
STANDARD
 71
2
 72
1
 10
2.3
 20
-1.00025
 30
0.0
 11
1.0
 21
0.0
 31
0.0
 44
0.9
  1
Vent Port
 40
0.125
 41
1.8
  0
MTEXT
  5
27A
100
AcDbEntity
  8
0
100
AcDbMText
 62
2
  6
CONTINUOUS
  7
STANDARD
 71
2
 72
1
 10
3.95
 20
-1.00025
 30
0.0
 11
1.0
 21
0.0
 31
0.0
 44
0.9
  1
SAE 6
 40
0.125
 41
1.0
  0
ENDBLK
  5
27B
100
AcDbEntity
  8
0
  6
BYBLOCK
 62
0
100
AcDbBlockEnd
  0
ENDSEC
  0
SECTION
  2
ENTITIES
  0
IMAGE
  5
27C
100
AcDbEntity
  8
0
100
AcDbRasterImage
 62
7
  6
CONTINUOUS
 10
19.2297077316
 20
0.3094318264
 30
0.0
 11
0.0066666667
 21
0.0
 31
0.0
 12
0.0
 22
0.0066666667
 32
0.0
 13
369.0
 23
92.0
340
       3C8
 70
9
280
0
281
50
282
50
283
0
360
       3C2
 71
1
 91
2
 14
-0.5
 24
-0.5
 14
368.5
 24
91.5
  0
INSERT
  5
27D
100
AcDbEntity
  8
0
100
AcDbBlockReference
 62
2
  6
CONTINUOUS
  2
SUN_FIRST_THIRD_ANGLE_BL0
 10
20.4816717061
 20
1.2289683772
  0
ACAD_TABLE
  5
27E
100
AcDbEntity
  8
0
 62
2
  6
CONTINUOUS
100
AcDbBlockReference
  2
*T1
 10
12.42375
 20
0.30125
 30
0.0
100
AcDbTable
342
       3CA
343
20A
 11
1.0
 21
0.0
 31
0.0
 90
6
 91
4
 92
6
 93
20
 94
0
 95
0
 96
0
 70
1
 41
0.0
141
0.525
141
0.1
141
0.525
141
0.1
142
4.1
142
1.1
142
0.7
142
0.5
142
0.4
142
2.475
171
1
172
0
173
0
174
0
175
1
176
1
 91
33
178
0
145
0.0
301
CELL_VALUE
 90
4
  1
T-22A Gasket mount Sun\PDirect mount, cross pilot
304
ACVALUE_END
170
2
140
0.125
171
1
172
0
173
0
174
0
175
1
176
1
 91
33
178
0
145
0.0
301
CELL_VALUE
 90
4
  1
Jan-29-20
304
ACVALUE_END
170
5
140
0.125
171
1
172
0
173
0
174
0
175
1
176
1
 91
33
178
0
145
0.0
301
CELL_VALUE
 90
4
  1
1.000
304
ACVALUE_END
170
5
140
0.125
171
1
172
0
173
0
174
0
175
1
176
1
 91
33
178
0
145
0.0
301
CELL_VALUE
 90
4
  1
C
304
ACVALUE_END
170
5
140
0.125
171
1
172
0
173
0
174
0
175
1
176
1
 91
33
178
0
145
0.0
301
CELL_VALUE
 90
4
  1
2
304
ACVALUE_END
170
5
140
0.125
171
1
172
0
173
0
174
0
175
1
176
1
 91
33
178
0
145
0.0
301
CELL_VALUE
 90
4
  1
 
304
ACVALUE_END
170
1
140
0.125
171
1
172
0
173
0
174
0
175
1
176
1
 91
33
178
0
145
0.0
301
CELL_VALUE
 90
4
  1
DESCRIPTION
304
ACVALUE_END
170
1
140
0.06
171
1
172
0
173
0
174
0
175
1
176
1
 91
33
178
0
145
0.0
301
CELL_VALUE
 90
4
  1
DATE
304
ACVALUE_END
170
1
140
0.06
171
1
172
0
173
0
174
0
175
1
176
1
 91
33
178
0
145
0.0
301
CELL_VALUE
 90
4
  1
SCALE
304
ACVALUE_END
170
1
140
0.06
171
1
172
0
173
0
174
0
175
1
176
1
 91
33
178
0
145
0.0
301
CELL_VALUE
 90
4
  1
DWG SIZE
304
ACVALUE_END
170
1
140
0.06
171
1
172
0
173
0
174
0
175
1
176
1
 91
33
178
0
145
0.0
301
CELL_VALUE
 90
4
  1
SHEET
304
ACVALUE_END
170
1
140
0.06
171
1
172
0
173
0
174
0
175
1
176
1
 91
33
178
0
145
0.0
301
CELL_VALUE
 90
4
  1
 
304
ACVALUE_END
170
1
140
0.125
171
1
172
0
173
0
174
0
175
1
176
1
 91
33
178
0
145
0.0
301
CELL_VALUE
 90
4
  1
WJC
304
ACVALUE_END
170
5
140
0.125
171
1
172
0
173
0
174
0
175
4
176
1
 91
33
178
0
145
0.0
301
CELL_VALUE
 90
4
  1
ALL DIMENSIONS IN INCH\PVIEWS ARE THIRD ANGLE
304
ACVALUE_END
170
5
140
0.12
171
1
172
0
173
1
174
0
175
1
176
1
 91
1
178
0
145
0.0
170
1
171
1
172
0
173
1
174
0
175
1
176
1
 91
1
178
0
145
0.0
170
1
171
1
172
0
173
1
174
0
175
1
176
1
 91
1
178
0
145
0.0
170
5
171
1
172
0
173
0
174
0
175
1
176
1
 91
33
178
0
145
0.0
301
CELL_VALUE
 90
4
  1
 
304
ACVALUE_END
170
1
140
0.125
171
1
172
0
173
0
174
0
175
1
176
1
 91
33
178
0
145
0.0
301
CELL_VALUE
 90
4
  1
MODEL
304
ACVALUE_END
170
1
140
0.06
171
1
172
0
173
0
174
0
175
1
176
1
 91
33
178
0
145
0.0
301
CELL_VALUE
 90
4
  1
 
304
ACVALUE_END
170
1
140
0.125
171
1
172
0
173
0
174
0
175
1
176
1
 91
33
178
0
145
0.0
301
CELL_VALUE
 90
4
  1
 
304
ACVALUE_END
170
1
140
0.125
171
1
172
0
173
0
174
0
175
1
176
1
 91
33
178
0
145
0.0
301
CELL_VALUE
 90
4
  1
 
304
ACVALUE_END
170
1
140
0.125
171
1
172
0
173
0
174
0
175
1
176
1
 91
33
178
0
145
0.0
301
CELL_VALUE
 90
4
  1
 
304
ACVALUE_END
170
1
140
0.125
171
1
172
0
173
0
174
0
175
1
176
1
 91
33
178
0
145
0.0
301
CELL_VALUE
 90
4
  1
 
304
ACVALUE_END
170
1
140
0.125
  0
ACAD_TABLE
  5
27F
100
AcDbEntity
  8
0
 62
2
  6
CONTINUOUS
100
AcDbBlockReference
  2
*T2
 10
12.4237499994
 20
16.47875
 30
0.0
100
AcDbTable
342
       3C9
343
20B
 11
1.0
 21
0.0
 31
0.0
 90
22
 91
7
 92
3
 93
16
 94
0
 95
0
 96
0
 41
0.028
141
0.344
141
0.25
141
0.25
141
0.25
141
0.25
141
0.25
141
0.25
142
3.055
142
3.0
142
3.0
171
1
172
0
173
0
174
0
175
1
176
1
 91
33
178
0
145
0.0
301
CELL_VALUE
 90
4
  1
Technical Data
304
ACVALUE_END
170
5
140
0.145
171
1
172
0
173
0
174
0
175
1
176
1
 91
33
178
0
145
0.0
301
CELL_VALUE
 90
4
  1
U.S. Units
304
ACVALUE_END
170
5
140
0.145
171
1
172
0
173
0
174
0
175
1
176
1
 91
33
178
0
145
0.0
301
CELL_VALUE
 90
4
  1
Metric Units
304
ACVALUE_END
170
5
140
0.145
171
1
172
0
173
0
174
0
175
1
176
1
 91
33
178
0
145
0.0
301
CELL_VALUE
 90
4
  1
Cavity
304
ACVALUE_END
170
5
140
0.125
171
1
172
0
173
0
174
0
175
2
176
1
 91
33
178
0
145
0.0
301
CELL_VALUE
 90
4
  1
T-22A
304
ACVALUE_END
170
5
140
0.125
171
1
172
0
173
1
174
0
175
1
176
1
 91
1
178
0
145
0.0
170
1
171
1
172
0
173
0
174
0
175
1
176
1
 91
33
178
0
145
0.0
301
CELL_VALUE
 90
4
  1
Body Features
304
ACVALUE_END
170
5
140
0.125
171
1
172
0
173
0
174
0
175
2
176
1
 91
33
178
0
145
0.0
301
CELL_VALUE
 90
4
  1
Direct mount, cross pilot
304
ACVALUE_END
170
5
140
0.125
171
1
172
0
173
1
174
0
175
1
176
1
 91
1
178
0
145
0.0
170
1
171
1
172
0
173
0
174
0
175
1
176
1
 91
33
178
0
145
0.0
301
CELL_VALUE
 90
4
  1
Body Type
304
ACVALUE_END
170
5
140
0.125
171
1
172
0
173
0
174
0
175
2
176
1
 91
33
178
0
145
0.0
301
CELL_VALUE
 90
4
  1
Gasket mount
304
ACVALUE_END
170
5
140
0.125
171
1
172
0
173
1
174
0
175
1
176
1
 91
1
178
0
145
0.0
170
1
171
1
172
0
173
0
174
0
175
1
176
1
 91
33
178
0
145
0.0
301
CELL_VALUE
 90
4
  1
Interface
304
ACVALUE_END
170
5
140
0.125
171
1
172
0
173
0
174
0
175
2
176
1
 91
33
178
0
145
0.0
301
CELL_VALUE
 90
4
  1
Sun
304
ACVALUE_END
170
5
140
0.125
171
1
172
0
173
1
174
0
175
1
176
1
 91
1
178
0
145
0.0
170
1
171
1
172
0
173
0
174
0
175
1
176
1
 91
33
178
0
145
0.0
301
CELL_VALUE
 90
4
  1
Open Cavity Quantity
304
ACVALUE_END
170
5
140
0.125
171
1
172
0
173
0
174
0
175
2
176
1
 91
33
178
0
145
0.0
301
CELL_VALUE
 90
4
  1
1
304
ACVALUE_END
170
5
140
0.125
171
1
172
0
173
1
174
0
175
1
176
1
 91
1
178
0
145
0.0
170
1
171
1
172
0
173
0
174
0
175
1
176
1
 91
33
178
0
145
0.0
301
CELL_VALUE
 90
4
  1
Weight
304
ACVALUE_END
170
5
140
0.125
171
1
172
0
173
0
174
0
175
1
176
1
 91
33
178
0
145
0.0
301
CELL_VALUE
 90
4
  1
3.663 lb.
304
ACVALUE_END
170
5
140
0.125
171
1
172
0
173
0
174
0
175
1
176
1
 91
33
178
0
145
0.0
301
CELL_VALUE
 90
4
  1
1,661 kg.
304
ACVALUE_END
170
5
140
0.125
  0
ACAD_TABLE
  5
280
100
AcDbEntity
  8
0
 62
2
  6
CONTINUOUS
100
AcDbBlockReference
  2
*T3
 10
0.52125
 20
1.709
 30
0.0
100
AcDbTable
342
       3C9
343
20C
 11
1.0
 21
0.0
 31
0.0
 90
22
 91
4
 92
3
 93
16
 94
0
 95
0
 96
0
 41
0.05
141
0.34375
141
0.344
141
0.25
141
0.25
142
1.3
142
2.0
142
1.3
171
1
172
0
173
0
174
0
175
3
176
1
 91
33
178
0
145
0.0
301
CELL_VALUE
 90
4
  1
Port Headings
304
ACVALUE_END
170
5
140
0.145
171
1
172
0
173
1
174
0
175
1
176
1
 91
1
178
0
145
0.0
170
1
171
1
172
0
173
1
174
0
175
1
176
1
 91
1
178
0
145
0.0
170
1
171
1
172
0
173
0
174
0
175
1
176
1
 91
33
178
0
145
0.0
301
CELL_VALUE
 90
4
  1
Product
304
ACVALUE_END
170
5
140
0.145
171
1
172
0
173
0
174
0
175
1
176
1
 91
33
178
0
145
0.0
301
CELL_VALUE
 90
4
  1
Port
304
ACVALUE_END
170
5
140
0.145
171
1
172
0
173
0
174
0
175
1
176
1
 91
33
178
0
145
0.0
301
CELL_VALUE
 90
4
  1
Size
304
ACVALUE_END
170
5
140
0.145
171
1
172
0
173
0
174
0
175
1
176
1
 91
33
178
0
145
0.0
301
CELL_VALUE
 90
4
  1
WJC
304
ACVALUE_END
170
5
140
0.125
171
1
172
0
173
0
174
0
175
1
176
1
 91
33
178
0
145
0.0
301
CELL_VALUE
 90
4
  1
Ports C2, V1, V2
304
ACVALUE_END
170
5
140
0.125
171
1
172
0
173
0
174
0
175
1
176
1
 91
33
178
0
145
0.0
301
CELL_VALUE
 90
4
  1
SAE 8
304
ACVALUE_END
170
5
140
0.125
171
1
172
0
173
0
174
0
175
1
176
1
 91
33
178
0
145
0.0
301
CELL_VALUE
 90
4
  1
WJC
304
ACVALUE_END
170
5
140
0.125
171
1
172
0
173
0
174
0
175
1
176
1
 91
33
178
0
145
0.0
301
CELL_VALUE
 90
4
  1
Vent Port
304
ACVALUE_END
170
5
140
0.125
171
1
172
0
173
0
174
0
175
1
176
1
 91
33
178
0
145
0.0
301
CELL_VALUE
 90
4
  1
SAE 6
304
ACVALUE_END
170
5
140
0.125
  0
MTEXT
  5
281
100
AcDbEntity
  8
0
100
AcDbMText
 62
2
  6
CONTINUOUS
  7
STANDARD
 71
1
 72
1
 10
0.52125
 20
5.75995
 30
0.0
 11
1.0
 21
0.0
 31
0.0
 44
0.6
  3
Notes\P \P1. Important: Carefully consider\P   the maximum system pressure. The\P   pressure rating of the manifold is\P   dependent on the manifold material,\P   with the port type/size a secondary\P   consideration. Manifolds\P   constructed of alu
  1
minum are not\P   rated for pressures higher than\P   3000 psi (210 bar), regardless of\P   the port type/size specified.
 40
0.1
 41
3.04
  0
LINE
  5
282
100
AcDbEntity
  8
0
100
AcDbLine
 62
7
  6
CONTINUOUS
 10
0.30125
 20
0.30125
 11
0.30125
 21
16.69875
  0
LINE
  5
283
100
AcDbEntity
  8
0
100
AcDbLine
 62
7
  6
CONTINUOUS
 10
0.30125
 20
0.30125
 11
21.69875
 21
0.30125
  0
LINE
  5
284
100
AcDbEntity
  8
0
100
AcDbLine
 62
7
  6
CONTINUOUS
 10
0.30125
 20
16.69875
 11
21.69875
 21
16.69875
  0
LINE
  5
285
100
AcDbEntity
  8
0
100
AcDbLine
 62
7
  6
CONTINUOUS
 10
21.69875
 20
0.30125
 11
21.69875
 21
16.69875
  0
LINE
  5
286
100
AcDbEntity
  8
0
100
AcDbLine
 62
7
  6
CONTINUOUS
 10
8.9762763005
 20
9.3691217228
 11
8.9762763005
 21
6.4713440723
  0
LINE
  5
287
100
AcDbEntity
  8
0
100
AcDbLine
 62
7
  6
CONTINUOUS
 10
8.9762763005
 20
9.3691217228
 11
10.3674275198
 21
10.7128706935
  0
LINE
  5
288
100
AcDbEntity
  8
0
100
AcDbLine
 62
7
  6
CONTINUOUS
 10
11.6325724802
 20
6.2871293065
 11
8.9762763005
 21
6.4713440723
  0
LINE
  5
289
100
AcDbEntity
  8
0
100
AcDbLine
 62
4
  6
CONTINUOUS
 10
10.3701073985
 20
6.9445777871
 11
10.3507888858
 21
6.9459175305
  0
LINE
  5
28A
100
AcDbEntity
  8
0
100
AcDbLine
 62
4
  6
CONTINUOUS
 10
10.3024925904
 20
6.9999779977
 11
10.2735148146
 21
7.0092320572
  0
LINE
  5
28B
100
AcDbEntity
  8
0
100
AcDbLine
 62
4
  6
CONTINUOUS
 10
10.3507888858
 20
6.9459175305
 11
10.3411296226
 21
6.9538318466
  0
LINE
  5
28C
100
AcDbEntity
  8
0
100
AcDbLine
 62
4
  6
CONTINUOUS
 10
10.3218111065
 20
6.9841493661
 11
10.3024925904
 21
6.9999779977
  0
LINE
  5
28D
100
AcDbEntity
  8
0
100
AcDbLine
 62
4
  6
CONTINUOUS
 10
10.2735148146
 20
7.0961653848
 11
10.389425918
 21
7.0519047026
  0
LINE
  5
28E
100
AcDbEntity
  8
0
100
AcDbLine
 62
4
  6
CONTINUOUS
 10
10.3701073985
 20
7.0025333388
 11
10.3797666617
 21
6.9946190226
  0
LINE
  5
28F
100
AcDbEntity
  8
0
100
AcDbLine
 62
4
  6
CONTINUOUS
 10
10.3411296226
 20
6.9538318466
 11
10.3218111065
 21
6.9841493661
  0
LINE
  5
290
100
AcDbEntity
  8
0
100
AcDbLine
 62
4
  6
CONTINUOUS
 10
10.389425918
 20
7.1243491423
 11
10.2735148146
 21
7.0961653848
  0
LINE
  5
291
100
AcDbEntity
  8
0
100
AcDbLine
 62
4
  6
CONTINUOUS
 10
10.3797666617
 20
6.9946190226
 11
10.389425918
 21
6.979460263
  0
LINE
  5
292
100
AcDbEntity
  8
0
100
AcDbLine
 62
4
  6
CONTINUOUS
 10
11.5456391112
 20
7.4812469789
 11
11.4297280078
 21
7.4892854412
  0
LINE
  5
293
100
AcDbEntity
  8
0
100
AcDbLine
 62
4
  6
CONTINUOUS
 10
11.4297280078
 20
7.5762187688
 11
11.5456391112
 21
7.5681803065
  0
LINE
  5
294
100
AcDbEntity
  8
0
100
AcDbLine
 62
4
  6
CONTINUOUS
 10
11.4297280078
 20
7.6341743205
 11
11.5456391112
 21
7.6261358582
  0
LINE
  5
295
100
AcDbEntity
  8
0
100
AcDbLine
 62
4
  6
CONTINUOUS
 10
10.2735148146
 20
7.0092320572
 11
10.2735148146
 21
6.9512765055
  0
LINE
  5
296
100
AcDbEntity
  8
0
100
AcDbLine
 62
4
  6
CONTINUOUS
 10
10.389425918
 20
6.979460263
 11
10.389425918
 21
6.9649713751
  0
LINE
  5
297
100
AcDbEntity
  8
0
100
AcDbLine
 62
7
  6
CONTINUOUS
 10
10.4997250511
 20
9.0888154984
 11
10.5212070141
 21
9.1095654825
  0
LINE
  5
298
100
AcDbEntity
  8
0
100
AcDbLine
 62
4
  6
CONTINUOUS
 10
11.5456391112
 20
7.865202509
 11
11.4297280078
 21
7.8370187515
  0
LINE
  5
299
100
AcDbEntity
  8
0
100
AcDbLine
 62
4
  6
CONTINUOUS
 10
11.4297280078
 20
7.750085424
 11
11.5456391112
 21
7.7420469616
  0
LINE
  5
29A
100
AcDbEntity
  8
0
100
AcDbLine
 62
7
  6
CONTINUOUS
 10
10.6006060751
 20
8.8364599796
 11
10.6407338257
 21
8.8752204126
  0
LINE
  5
29B
100
AcDbEntity
  8
0
100
AcDbLine
 62
7
  6
CONTINUOUS
 10
10.6914031082
 20
8.7777414925
 11
10.7315308588
 21
8.8165019255
  0
LINE
  5
29C
100
AcDbEntity
  8
0
100
AcDbLine
 62
7
  6
CONTINUOUS
 10
10.7315308588
 20
8.8165019255
 11
10.7841827185
 21
8.843249072
  0
LINE
  5
29D
100
AcDbEntity
  8
0
100
AcDbLine
 62
4
  6
CONTINUOUS
 10
11.4297280078
 20
7.8370187515
 11
11.5456391112
 21
7.7927580694
  0
LINE
  5
29E
100
AcDbEntity
  8
0
100
AcDbLine
 62
7
  6
CONTINUOUS
 10
10.6407338257
 20
8.9633262829
 11
10.6407338257
 21
8.8752204126
  0
LINE
  5
29F
100
AcDbEntity
  8
0
100
AcDbLine
 62
7
  6
CONTINUOUS
 10
10.8908673936
 20
8.6838751721
 11
10.9123493567
 21
8.7046251562
  0
LINE
  5
2A0
100
AcDbEntity
  8
0
100
AcDbLine
 62
4
  6
CONTINUOUS
 10
10.4879503563
 20
8.2983608983
 11
10.3720392528
 21
8.3063993606
  0
LINE
  5
2A1
100
AcDbEntity
  8
0
100
AcDbLine
 62
4
  6
CONTINUOUS
 10
10.3720392528
 20
8.422310464
 11
10.4879503563
 21
8.3780497819
  0
LINE
  5
2A2
100
AcDbEntity
  8
0
100
AcDbLine
 62
7
  6
CONTINUOUS
 10
13.0237236995
 20
10.5286559277
 11
11.6325724802
 21
9.1849069571
  0
LINE
  5
2A3
100
AcDbEntity
  8
0
100
AcDbLine
 62
4
  6
CONTINUOUS
 10
10.4879503563
 20
8.4504942215
 11
10.3720392528
 21
8.422310464
  0
LINE
  5
2A4
100
AcDbEntity
  8
0
100
AcDbLine
 62
4
  6
CONTINUOUS
 10
12.8210685568
 20
8.9502521724
 11
12.8521268159
 21
8.9554140532
  0
LINE
  5
2A5
100
AcDbEntity
  8
0
100
AcDbLine
 62
7
  6
CONTINUOUS
 10
10.6407338257
 20
8.8752204126
 11
10.7315308588
 21
8.8165019255
  0
LINE
  5
2A6
100
AcDbEntity
  8
0
100
AcDbLine
 62
4
  6
CONTINUOUS
 10
10.389425918
 20
6.9649713751
 11
10.3797666617
 21
6.9511523588
  0
LINE
  5
2A7
100
AcDbEntity
  8
0
100
AcDbLine
 62
4
  6
CONTINUOUS
 10
11.4297280078
 20
7.6921298722
 11
11.4297280078
 21
7.750085424
  0
LINE
  5
2A8
100
AcDbEntity
  8
0
100
AcDbLine
 62
4
  6
CONTINUOUS
 10
11.4876835595
 20
7.7460661928
 11
11.4876835595
 21
7.709843973
  0
LINE
  5
2A9
100
AcDbEntity
  8
0
100
AcDbLine
 62
4
  6
CONTINUOUS
 10
11.5456391112
 20
7.7420469616
 11
11.5456391112
 21
7.6840914099
  0
LINE
  5
2AA
100
AcDbEntity
  8
0
100
AcDbLine
 62
4
  6
CONTINUOUS
 10
11.5456391112
 20
7.5174691987
 11
11.5456391112
 21
7.4450247591
  0
LINE
  5
2AB
100
AcDbEntity
  8
0
100
AcDbLine
 62
4
  6
CONTINUOUS
 10
12.9333219795
 20
9.5347441063
 11
12.9377588734
 21
9.539029817
  0
LINE
  5
2AC
100
AcDbEntity
  8
0
100
AcDbLine
 62
7
  6
CONTINUOUS
 10
12.4816135628
 20
9.0180427189
 11
12.4078918699
 21
9.0231553356
  0
LINE
  5
2AD
100
AcDbEntity
  8
0
100
AcDbLine
 62
7
  6
CONTINUOUS
 10
11.6325724802
 20
9.1849069571
 11
11.6325724802
 21
6.2871293065
  0
LINE
  5
2AE
100
AcDbEntity
  8
0
100
AcDbLine
 62
4
  6
CONTINUOUS
 10
12.9155744025
 20
9.4596457107
 11
12.9200112969
 21
9.4639314218
  0
LINE
  5
2AF
100
AcDbEntity
  8
0
100
AcDbLine
 62
4
  6
CONTINUOUS
 10
12.9421957672
 20
9.4522425198
 11
12.9155744025
 21
9.4265282545
  0
LINE
  5
2B0
100
AcDbEntity
  8
0
100
AcDbLine
 62
4
  6
CONTINUOUS
 10
12.7527403868
 20
9.2333654036
 11
12.7837986459
 21
9.2633653799
  0
LINE
  5
2B1
100
AcDbEntity
  8
0
100
AcDbLine
 62
4
  6
CONTINUOUS
 10
12.9155744025
 20
9.3685727028
 11
12.9421957672
 21
9.3942869681
  0
LINE
  5
2B2
100
AcDbEntity
  8
0
100
AcDbLine
 62
4
  6
CONTINUOUS
 10
12.9111375082
 20
9.3311695356
 11
12.9421957672
 21
9.3611695119
  0
LINE
  5
2B3
100
AcDbEntity
  8
0
100
AcDbLine
 62
4
  6
CONTINUOUS
 10
12.779361752
 20
9.2011241245
 11
12.7571772812
 21
9.1796955699
  0
LINE
  5
2B4
100
AcDbEntity
  8
0
100
AcDbLine
 62
4
  6
CONTINUOUS
 10
12.9111375082
 20
9.2732139839
 11
12.9421957672
 21
9.3032139602
  0
LINE
  5
2B5
100
AcDbEntity
  8
0
100
AcDbLine
 62
7
  6
CONTINUOUS
 10
12.5263065937
 20
9.0453082937
 11
12.5108126882
 21
9.0308882038
  0
LINE
  5
2B6
100
AcDbEntity
  8
0
100
AcDbLine
 62
7
  6
CONTINUOUS
 10
11.6325724802
 20
9.1849069571
 11
8.9762763005
 21
9.3691217228
  0
LINE
  5
2B7
100
AcDbEntity
  8
0
100
AcDbLine
 62
4
  6
CONTINUOUS
 10
12.7527403868
 20
9.1284934591
 11
12.7837986459
 21
9.1253759793
  0
LINE
  5
2B8
100
AcDbEntity
  8
0
100
AcDbLine
 62
4
  6
CONTINUOUS
 10
12.8210685568
 20
8.9999283584
 11
12.8432530281
 21
8.9965188196
  0
LINE
  5
2B9
100
AcDbEntity
  8
0
100
AcDbLine
 62
4
  6
CONTINUOUS
 10
12.9037426845
 20
9.042528286
 11
12.9333219795
 21
9.0379822503
  0
LINE
  5
2BA
100
AcDbEntity
  8
0
100
AcDbLine
 62
4
  6
CONTINUOUS
 10
12.9421957672
 20
8.6243060884
 11
12.9399773194
 21
8.6249230098
  0
LINE
  5
2BB
100
AcDbEntity
  8
0
100
AcDbLine
 62
4
  6
CONTINUOUS
 10
12.7527403868
 20
8.9960236207
 11
12.7837986459
 21
9.026023597
  0
LINE
  5
2BC
100
AcDbEntity
  8
0
100
AcDbLine
 62
4
  6
CONTINUOUS
 10
12.9111375082
 20
9.1490235198
 11
12.9421957672
 21
9.1790234962
  0
LINE
  5
2BD
100
AcDbEntity
  8
0
100
AcDbLine
 62
4
  6
CONTINUOUS
 10
12.9311035316
 20
9.1186330275
 11
12.9111375082
 21
9.0993473287
  0
LINE
  5
2BE
100
AcDbEntity
  8
0
100
AcDbLine
 62
4
  6
CONTINUOUS
 10
12.7527403868
 20
8.9297887084
 11
12.7837986459
 21
8.9597886847
  0
LINE
  5
2BF
100
AcDbEntity
  8
0
100
AcDbLine
 62
4
  6
CONTINUOUS
 10
12.9133559553
 20
8.9966182191
 11
12.9311035316
 21
9.0137610623
  0
LINE
  5
2C0
100
AcDbEntity
  8
0
100
AcDbLine
 62
4
  6
CONTINUOUS
 10
12.9421957672
 20
8.9747991764
 11
12.9111375082
 21
8.9447992
  0
LINE
  5
2C1
100
AcDbEntity
  8
0
100
AcDbLine
 62
4
  6
CONTINUOUS
 10
10.3797666617
 20
6.9511523588
 11
10.3701073985
 21
6.9445777871
  0
LINE
  5
2C2
100
AcDbEntity
  8
0
100
AcDbLine
 62
4
  6
CONTINUOUS
 10
11.5456391112
 20
7.6261358582
 11
11.4297280078
 21
7.5762187688
  0
LINE
  5
2C3
100
AcDbEntity
  8
0
100
AcDbLine
 62
7
  6
CONTINUOUS
 10
12.561283529
 20
9.4057258663
 11
12.4789199735
 21
9.4114377983
  0
LINE
  5
2C4
100
AcDbEntity
  8
0
100
AcDbLine
 62
4
  6
CONTINUOUS
 10
12.8255054512
 20
8.8303474126
 11
12.8521268159
 21
8.8560616779
  0
LINE
  5
2C5
100
AcDbEntity
  8
0
100
AcDbLine
 62
4
  6
CONTINUOUS
 10
12.9111375082
 20
8.9116817024
 11
12.9333219795
 21
8.9331102575
  0
LINE
  5
2C6
100
AcDbEntity
  8
0
100
AcDbLine
 62
4
  6
CONTINUOUS
 10
12.7571772812
 20
8.7602077367
 11
12.779361752
 21
8.7816362913
  0
LINE
  5
2C7
100
AcDbEntity
  8
0
100
AcDbLine
 62
4
  6
CONTINUOUS
 10
12.8255054512
 20
8.7972299565
 11
12.847689922
 21
8.8186585111
  0
LINE
  5
2C8
100
AcDbEntity
  8
0
100
AcDbLine
 62
4
  6
CONTINUOUS
 10
12.9311035316
 20
8.8923304036
 11
12.9266666377
 21
8.888044693
  0
LINE
  5
2C9
100
AcDbEntity
  8
0
100
AcDbLine
 62
4
  6
CONTINUOUS
 10
12.9133559553
 20
8.8393102851
 11
12.9200112969
 21
8.8457388517
  0
LINE
  5
2CA
100
AcDbEntity
  8
0
100
AcDbLine
 62
4
  6
CONTINUOUS
 10
12.7571772812
 20
8.6636151874
 11
12.779361752
 21
8.685043742
  0
LINE
  5
2CB
100
AcDbEntity
  8
0
100
AcDbLine
 62
4
  6
CONTINUOUS
 10
12.9111375082
 20
8.787491266
 11
12.9288850856
 21
8.8046341104
  0
LINE
  5
2CC
100
AcDbEntity
  8
0
100
AcDbLine
 62
4
  6
CONTINUOUS
 10
12.9333219795
 20
8.7758023787
 11
12.9133559553
 21
8.7565166792
  0
LINE
  5
2CD
100
AcDbEntity
  8
0
100
AcDbLine
 62
4
  6
CONTINUOUS
 10
12.779361752
 20
8.6270881902
 11
12.7571772812
 21
8.6056596356
  0
LINE
  5
2CE
100
AcDbEntity
  8
0
100
AcDbLine
 62
4
  6
CONTINUOUS
 10
12.7527403868
 20
8.5682564822
 11
12.7837986459
 21
8.5982564586
  0
LINE
  5
2CF
100
AcDbEntity
  8
0
100
AcDbLine
 62
4
  6
CONTINUOUS
 10
12.9111375082
 20
8.7046976049
 11
12.9333219795
 21
8.72612616
  0
LINE
  5
2D0
100
AcDbEntity
  8
0
100
AcDbLine
 62
4
  6
CONTINUOUS
 10
12.9133559553
 20
8.6737230181
 11
12.9421957672
 21
8.7015801389
  0
LINE
  5
2D1
100
AcDbEntity
  8
0
100
AcDbLine
 62
4
  6
CONTINUOUS
 10
12.779361752
 20
8.5360151962
 11
12.7571772812
 21
8.5145866416
  0
LINE
  5
2D2
100
AcDbEntity
  8
0
100
AcDbLine
 62
7
  6
CONTINUOUS
 10
12.561283529
 20
9.5802789454
 11
12.502382526
 21
9.5843637438
  0
LINE
  5
2D3
100
AcDbEntity
  8
0
100
AcDbLine
 62
4
  6
CONTINUOUS
 10
12.7837986459
 20
9.1253759793
 11
12.7527403868
 21
9.062258533
  0
LINE
  5
2D4
100
AcDbEntity
  8
0
100
AcDbLine
 62
4
  6
CONTINUOUS
 10
12.8521268159
 20
9.0547664286
 11
12.8210685568
 21
8.9999283584
  0
LINE
  5
2D5
100
AcDbEntity
  8
0
100
AcDbLine
 62
4
  6
CONTINUOUS
 10
12.7527403868
 20
8.4633844894
 11
12.7837986459
 21
8.4933844657
  0
LINE
  5
2D6
100
AcDbEntity
  8
0
100
AcDbLine
 62
4
  6
CONTINUOUS
 10
12.9111375082
 20
8.5970658897
 11
12.9333219795
 21
8.6184944448
  0
LINE
  5
2D7
100
AcDbEntity
  8
0
100
AcDbLine
 62
4
  6
CONTINUOUS
 10
12.9399773194
 20
8.6249230098
 11
12.9421957672
 21
8.6270658661
  0
LINE
  5
2D8
100
AcDbEntity
  8
0
100
AcDbLine
 62
4
  6
CONTINUOUS
 10
12.9133559553
 20
8.5550521371
 11
12.9311035316
 21
8.5721949803
  0
LINE
  5
2D9
100
AcDbEntity
  8
0
100
AcDbLine
 62
4
  6
CONTINUOUS
 10
12.9244481908
 20
8.4912520862
 11
12.9311035316
 21
8.4976806522
  0
LINE
  5
2DA
100
AcDbEntity
  8
0
100
AcDbLine
 62
4
  6
CONTINUOUS
 10
12.9133559553
 20
8.4308617007
 11
12.9200112969
 21
8.4372902673
  0
LINE
  5
2DB
100
AcDbEntity
  8
0
100
AcDbLine
 62
4
  6
CONTINUOUS
 10
12.7837986459
 20
9.2219685632
 11
12.779361752
 21
9.2011241245
  0
LINE
  5
2DC
100
AcDbEntity
  8
0
100
AcDbLine
 62
4
  6
CONTINUOUS
 10
12.9421957672
 20
9.3611695119
 11
12.9111375082
 21
9.2732139839
  0
LINE
  5
2DD
100
AcDbEntity
  8
0
100
AcDbLine
 62
4
  6
CONTINUOUS
 10
12.8432530281
 20
8.9965188196
 11
12.8210685568
 21
8.9502521724
  0
LINE
  5
2DE
100
AcDbEntity
  8
0
100
AcDbLine
 62
4
  6
CONTINUOUS
 10
12.9333219795
 20
9.0876584138
 11
12.9111375082
 21
9.0413917494
  0
LINE
  5
2DF
100
AcDbEntity
  8
0
100
AcDbLine
 62
7
  6
CONTINUOUS
 10
12.5421496208
 20
9.8909461418
 11
12.4683854475
 21
9.8960617046
  0
LINE
  5
2E0
100
AcDbEntity
  8
0
100
AcDbLine
 62
4
  6
CONTINUOUS
 10
12.7527403868
 20
8.9297887084
 11
12.7527403868
 21
8.8801125172
  0
LINE
  5
2E1
100
AcDbEntity
  8
0
100
AcDbLine
 62
4
  6
CONTINUOUS
 10
12.7527403868
 20
8.4633844894
 11
12.7527403868
 21
8.4137083259
  0
LINE
  5
2E2
100
AcDbEntity
  8
0
100
AcDbLine
 62
4
  6
CONTINUOUS
 10
12.7527403868
 20
8.5268596517
 11
12.7527403868
 21
8.5682564822
  0
LINE
  5
2E3
100
AcDbEntity
  8
0
100
AcDbLine
 62
4
  6
CONTINUOUS
 10
12.7527403868
 20
8.6179326457
 11
12.7527403868
 21
8.6427707551
  0
LINE
  5
2E4
100
AcDbEntity
  8
0
100
AcDbLine
 62
4
  6
CONTINUOUS
 10
12.7527403868
 20
8.7062458621
 11
12.7527403868
 21
8.7393633044
  0
LINE
  5
2E5
100
AcDbEntity
  8
0
100
AcDbLine
 62
4
  6
CONTINUOUS
 10
12.7527403868
 20
9.1919685868
 11
12.7527403868
 21
9.2333654036
  0
LINE
  5
2E6
100
AcDbEntity
  8
0
100
AcDbLine
 62
4
  6
CONTINUOUS
 10
12.7616141755
 20
9.1260257292
 11
12.7616141755
 21
9.081869121
  0
LINE
  5
2E7
100
AcDbEntity
  8
0
100
AcDbLine
 62
4
  6
CONTINUOUS
 10
12.7704879642
 20
8.4474098914
 11
12.7704879642
 21
8.4805273338
  0
LINE
  5
2E8
100
AcDbEntity
  8
0
100
AcDbLine
 62
4
  6
CONTINUOUS
 10
12.7704879642
 20
8.9138140828
 11
12.7704879642
 21
8.9469315528
  0
LINE
  5
2E9
100
AcDbEntity
  8
0
100
AcDbLine
 62
4
  6
CONTINUOUS
 10
12.7837986459
 20
9.2633653799
 11
12.7837986459
 21
9.2219685632
  0
LINE
  5
2EA
100
AcDbEntity
  8
0
100
AcDbLine
 62
4
  6
CONTINUOUS
 10
12.7837986459
 20
9.059141067
 11
12.7837986459
 21
8.9929061547
  0
LINE
  5
2EB
100
AcDbEntity
  8
0
100
AcDbLine
 62
4
  6
CONTINUOUS
 10
12.7837986459
 20
8.9597886847
 11
12.7837986459
 21
8.9101124936
  0
LINE
  5
2EC
100
AcDbEntity
  8
0
100
AcDbLine
 62
4
  6
CONTINUOUS
 10
12.7837986459
 20
8.7693632808
 11
12.7837986459
 21
8.7362458385
  0
LINE
  5
2ED
100
AcDbEntity
  8
0
100
AcDbLine
 62
4
  6
CONTINUOUS
 10
12.7837986459
 20
8.6727707314
 11
12.7837986459
 21
8.6479326221
  0
LINE
  5
2EE
100
AcDbEntity
  8
0
100
AcDbLine
 62
4
  6
CONTINUOUS
 10
12.7837986459
 20
8.5982564586
 11
12.7837986459
 21
8.556859628
  0
LINE
  5
2EF
100
AcDbEntity
  8
0
100
AcDbLine
 62
4
  6
CONTINUOUS
 10
12.7837986459
 20
8.4933844657
 11
12.7837986459
 21
8.4437083022
  0
LINE
  5
2F0
100
AcDbEntity
  8
0
100
AcDbLine
 62
4
  6
CONTINUOUS
 10
12.8210685568
 20
8.8674585321
 11
12.8210685568
 21
8.8426204365
  0
LINE
  5
2F1
100
AcDbEntity
  8
0
100
AcDbLine
 62
4
  6
CONTINUOUS
 10
12.8210685568
 20
8.7432680542
 11
12.8210685568
 21
8.7763855242
  0
LINE
  5
2F2
100
AcDbEntity
  8
0
100
AcDbLine
 62
4
  6
CONTINUOUS
 10
12.7660510694
 20
9.3124574556
 11
12.7601352104
 21
9.2625865627
  0
LINE
  5
2F3
100
AcDbEntity
  8
0
100
AcDbLine
 62
4
  6
CONTINUOUS
 10
12.7719669289
 20
8.3991622982
 11
12.7660510694
 21
8.3492914082
  0
LINE
  5
2F4
100
AcDbEntity
  8
0
100
AcDbLine
 62
4
  6
CONTINUOUS
 10
12.9200112969
 20
9.4639314218
 11
12.9333219795
 21
9.5347441063
  0
LINE
  5
2F5
100
AcDbEntity
  8
0
100
AcDbLine
 62
4
  6
CONTINUOUS
 10
12.9133559553
 20
9.5154584069
 11
12.9111375082
 21
9.5050361864
  0
LINE
  5
2F6
100
AcDbEntity
  8
0
100
AcDbLine
 62
4
  6
CONTINUOUS
 10
12.7527403868
 20
8.7393633044
 11
12.7571772812
 21
8.7602077367
  0
LINE
  5
2F7
100
AcDbEntity
  8
0
100
AcDbLine
 62
4
  6
CONTINUOUS
 10
12.9155744025
 20
9.4265282545
 11
12.9111375082
 21
9.4056838154
  0
LINE
  5
2F8
100
AcDbEntity
  8
0
100
AcDbLine
 62
4
  6
CONTINUOUS
 10
12.7527403868
 20
8.6427707551
 11
12.7571772812
 21
8.6636151874
  0
LINE
  5
2F9
100
AcDbEntity
  8
0
100
AcDbLine
 62
4
  6
CONTINUOUS
 10
12.9421957672
 20
9.49363934
 11
12.9399773194
 21
9.4832171197
  0
LINE
  5
2FA
100
AcDbEntity
  8
0
100
AcDbLine
 62
4
  6
CONTINUOUS
 10
12.7837986459
 20
8.6479326221
 11
12.779361752
 21
8.6270881902
  0
LINE
  5
2FB
100
AcDbEntity
  8
0
100
AcDbLine
 62
4
  6
CONTINUOUS
 10
12.8210685568
 20
8.7763855242
 11
12.8255054512
 21
8.7972299565
  0
LINE
  5
2FC
100
AcDbEntity
  8
0
100
AcDbLine
 62
4
  6
CONTINUOUS
 10
12.7837986459
 20
8.556859628
 11
12.779361752
 21
8.5360151962
  0
LINE
  5
2FD
100
AcDbEntity
  8
0
100
AcDbLine
 62
4
  6
CONTINUOUS
 10
12.9333219795
 20
9.1290552443
 11
12.9311035316
 21
9.1186330275
  0
LINE
  5
2FE
100
AcDbEntity
  8
0
100
AcDbLine
 62
4
  6
CONTINUOUS
 10
12.9133559553
 20
8.7565166792
 11
12.9111375082
 21
8.7460944355
  0
LINE
  5
2FF
100
AcDbEntity
  8
0
100
AcDbLine
 62
4
  6
CONTINUOUS
 10
12.9333219795
 20
8.8999928151
 11
12.9311035316
 21
8.8923304036
  0
LINE
  5
300
100
AcDbEntity
  8
0
100
AcDbLine
 62
4
  6
CONTINUOUS
 10
12.9288850856
 20
8.8046341104
 11
12.9333219795
 21
8.817199154
  0
LINE
  5
301
100
AcDbEntity
  8
0
100
AcDbLine
 62
4
  6
CONTINUOUS
 10
12.7571772812
 20
8.5145866416
 11
12.7527403868
 21
8.5268596517
  0
LINE
  5
302
100
AcDbEntity
  8
0
100
AcDbLine
 62
4
  6
CONTINUOUS
 10
12.7571772812
 20
8.6056596356
 11
12.7527403868
 21
8.6179326457
  0
LINE
  5
303
100
AcDbEntity
  8
0
100
AcDbLine
 62
4
  6
CONTINUOUS
 10
12.779361752
 20
8.685043742
 11
12.7837986459
 21
8.6727707314
  0
LINE
  5
304
100
AcDbEntity
  8
0
100
AcDbLine
 62
4
  6
CONTINUOUS
 10
12.779361752
 20
8.7816362913
 11
12.7837986459
 21
8.7693632808
  0
LINE
  5
305
100
AcDbEntity
  8
0
100
AcDbLine
 62
4
  6
CONTINUOUS
 10
12.9111375082
 20
8.4369981781
 11
12.9133559553
 21
8.4308617007
  0
LINE
  5
306
100
AcDbEntity
  8
0
100
AcDbLine
 62
4
  6
CONTINUOUS
 10
12.9311035316
 20
8.4976806522
 11
12.9333219795
 21
8.4915441755
  0
LINE
  5
307
100
AcDbEntity
  8
0
100
AcDbLine
 62
4
  6
CONTINUOUS
 10
12.7660510694
 20
8.3492914082
 11
12.7601352104
 21
8.3877337351
  0
LINE
  5
308
100
AcDbEntity
  8
0
100
AcDbLine
 62
4
  6
CONTINUOUS
 10
12.8521268159
 20
8.8063855005
 11
12.8521268159
 21
8.7732680306
  0
LINE
  5
309
100
AcDbEntity
  8
0
100
AcDbLine
 62
4
  6
CONTINUOUS
 10
12.9037426845
 20
9.0590870072
 11
12.9037426845
 21
9.042528286
  0
LINE
  5
30A
100
AcDbEntity
  8
0
100
AcDbLine
 62
4
  6
CONTINUOUS
 10
12.9111375082
 20
9.5050361864
 11
12.9111375082
 21
9.4719187277
  0
LINE
  5
30B
100
AcDbEntity
  8
0
100
AcDbLine
 62
4
  6
CONTINUOUS
 10
12.9111375082
 20
9.4056838154
 11
12.9111375082
 21
9.3808457129
  0
LINE
  5
30C
100
AcDbEntity
  8
0
100
AcDbLine
 62
4
  6
CONTINUOUS
 10
12.9111375082
 20
8.7460944355
 11
12.9111375082
 21
8.7046976049
  0
LINE
  5
30D
100
AcDbEntity
  8
0
100
AcDbLine
 62
4
  6
CONTINUOUS
 10
12.9111375082
 20
8.4701156204
 11
12.9111375082
 21
8.4369981781
  0
LINE
  5
30E
100
AcDbEntity
  8
0
100
AcDbLine
 62
4
  6
CONTINUOUS
 10
12.9111375082
 20
8.5115123957
 11
12.9111375082
 21
8.5446299486
  0
LINE
  5
30F
100
AcDbEntity
  8
0
100
AcDbLine
 62
4
  6
CONTINUOUS
 10
12.9111375082
 20
8.6467420532
 11
12.9111375082
 21
8.6633007744
  0
LINE
  5
310
100
AcDbEntity
  8
0
100
AcDbLine
 62
4
  6
CONTINUOUS
 10
12.9111375082
 20
8.787491266
 11
12.9111375082
 21
8.8206087084
  0
LINE
  5
311
100
AcDbEntity
  8
0
100
AcDbLine
 62
4
  6
CONTINUOUS
 10
12.9111375082
 20
8.9447992
 11
12.9111375082
 21
8.9779166423
  0
LINE
  5
312
100
AcDbEntity
  8
0
100
AcDbLine
 62
4
  6
CONTINUOUS
 10
12.9222297438
 20
8.8313229859
 11
12.9222297438
 21
8.7982055436
  0
LINE
  5
313
100
AcDbEntity
  8
0
100
AcDbLine
 62
4
  6
CONTINUOUS
 10
12.9333219795
 20
9.1704520749
 11
12.9333219795
 21
9.1290552443
  0
LINE
  5
314
100
AcDbEntity
  8
0
100
AcDbLine
 62
4
  6
CONTINUOUS
 10
12.9333219795
 20
8.9993451974
 11
12.9333219795
 21
8.9662277551
  0
LINE
  5
315
100
AcDbEntity
  8
0
100
AcDbLine
 62
4
  6
CONTINUOUS
 10
12.9333219795
 20
8.9331102575
 11
12.9333219795
 21
8.8999928151
  0
LINE
  5
316
100
AcDbEntity
  8
0
100
AcDbLine
 62
4
  6
CONTINUOUS
 10
12.9333219795
 20
8.5660585036
 11
12.9333219795
 21
8.5329409507
  0
LINE
  5
317
100
AcDbEntity
  8
0
100
AcDbLine
 62
4
  6
CONTINUOUS
 10
12.9333219795
 20
8.4915441755
 11
12.9333219795
 21
8.4584267331
  0
LINE
  5
318
100
AcDbEntity
  8
0
100
AcDbLine
 62
4
  6
CONTINUOUS
 10
12.9333219795
 20
8.817199154
 11
12.9333219795
 21
8.8585959846
  0
LINE
  5
319
100
AcDbEntity
  8
0
100
AcDbLine
 62
4
  6
CONTINUOUS
 10
12.9421957672
 20
9.5267567978
 11
12.9421957672
 21
9.49363934
  0
LINE
  5
31A
100
AcDbEntity
  8
0
100
AcDbLine
 62
4
  6
CONTINUOUS
 10
12.9421957672
 20
8.6270658661
 11
12.9421957672
 21
8.6243060884
  0
LINE
  5
31B
100
AcDbEntity
  8
0
100
AcDbLine
 62
7
  6
CONTINUOUS
 10
13.0237236995
 20
10.5286559277
 11
13.0237236995
 21
7.6308782772
  0
LINE
  5
31C
100
AcDbEntity
  8
0
100
AcDbLine
 62
4
  6
CONTINUOUS
 10
12.9214902615
 20
8.4469981705
 11
12.9229692261
 21
8.481544183
  0
LINE
  5
31D
100
AcDbEntity
  8
0
100
AcDbLine
 62
4
  6
CONTINUOUS
 10
12.9111375082
 20
8.9779166423
 11
12.9133559553
 21
8.9966182191
  0
LINE
  5
31E
100
AcDbEntity
  8
0
100
AcDbLine
 62
4
  6
CONTINUOUS
 10
12.9111375082
 20
8.8206087084
 11
12.9133559553
 21
8.8393102851
  0
LINE
  5
31F
100
AcDbEntity
  8
0
100
AcDbLine
 62
4
  6
CONTINUOUS
 10
12.9229692261
 20
8.481544183
 11
12.9244481908
 21
8.4912520862
  0
LINE
  5
320
100
AcDbEntity
  8
0
100
AcDbLine
 62
4
  6
CONTINUOUS
 10
12.9200112969
 20
8.4372902673
 11
12.9214902615
 21
8.4469981705
  0
LINE
  5
321
100
AcDbEntity
  8
0
100
AcDbLine
 62
4
  6
CONTINUOUS
 10
12.9111375082
 20
8.6633007744
 11
12.9133559553
 21
8.6737230181
  0
LINE
  5
322
100
AcDbEntity
  8
0
100
AcDbLine
 62
4
  6
CONTINUOUS
 10
12.9111375082
 20
8.5446299486
 11
12.9133559553
 21
8.5550521371
  0
LINE
  5
323
100
AcDbEntity
  8
0
100
AcDbLine
 62
4
  6
CONTINUOUS
 10
12.9133559553
 20
8.4805378089
 11
12.9111375082
 21
8.4701156204
  0
LINE
  5
324
100
AcDbEntity
  8
0
100
AcDbLine
 62
4
  6
CONTINUOUS
 10
12.9333219795
 20
8.4584267331
 11
12.9311035316
 21
8.448004544
  0
LINE
  5
325
100
AcDbEntity
  8
0
100
AcDbLine
 62
4
  6
CONTINUOUS
 10
12.8210685568
 20
8.8426204365
 11
12.8255054512
 21
8.8303474126
  0
LINE
  5
326
100
AcDbEntity
  8
0
100
AcDbLine
 62
4
  6
CONTINUOUS
 10
12.9311035316
 20
8.5721949803
 11
12.9333219795
 21
8.5660585036
  0
LINE
  5
327
100
AcDbEntity
  8
0
100
AcDbLine
 62
4
  6
CONTINUOUS
 10
12.847689922
 20
8.8186585111
 11
12.8521268159
 21
8.8063855005
  0
LINE
  5
328
100
AcDbEntity
  8
0
100
AcDbLine
 62
4
  6
CONTINUOUS
 10
12.7571772812
 20
9.1796955699
 11
12.7527403868
 21
9.1919685868
  0
LINE
  5
329
100
AcDbEntity
  8
0
100
AcDbLine
 62
4
  6
CONTINUOUS
 10
12.7719669289
 20
9.2740151257
 11
12.7660510694
 21
9.3124574556
  0
LINE
  5
32A
100
AcDbEntity
  8
0
100
AcDbLine
 62
4
  6
CONTINUOUS
 10
12.9200112969
 20
8.8457388517
 11
12.9222297438
 21
8.8313229859
  0
LINE
  5
32B
100
AcDbEntity
  8
0
100
AcDbLine
 62
4
  6
CONTINUOUS
 10
12.9311035316
 20
9.0137610623
 11
12.9333219795
 21
8.9993451974
  0
LINE
  5
32C
100
AcDbEntity
  8
0
100
AcDbLine
 62
7
  6
CONTINUOUS
 10
13.0237236995
 20
7.6308782772
 11
11.6325724802
 21
6.2871293065
  0
LINE
  5
32D
100
AcDbEntity
  8
0
100
AcDbLine
 62
7
  6
CONTINUOUS
 10
10.3674275198
 20
10.7128706935
 11
13.0237236995
 21
10.5286559277
  0
LINE
  5
32E
100
AcDbEntity
  8
0
100
AcDbLine
 62
7
  6
CONTINUOUS
 10
12.5826511641
 20
9.8577723032
 11
12.5692960798
 21
9.8741930773
  0
LINE
  5
32F
100
AcDbEntity
  8
0
100
AcDbLine
 62
4
  6
CONTINUOUS
 10
12.9111375082
 20
9.3808457129
 11
12.9155744025
 21
9.3685727028
  0
LINE
  5
330
100
AcDbEntity
  8
0
100
AcDbLine
 62
4
  6
CONTINUOUS
 10
12.9111375082
 20
9.4719187277
 11
12.9155744025
 21
9.4596457107
  0
LINE
  5
331
100
AcDbEntity
  8
0
100
AcDbLine
 62
4
  6
CONTINUOUS
 10
12.9377588734
 20
9.539029817
 11
12.9421957672
 21
9.5267567978
  0
ARC
  5
332
100
AcDbEntity
  8
0
100
AcDbCircle
 62
7
  6
CONTINUOUS
 10
9.8219271146
 20
8.6641167859
 40
0.5136602494
100
AcDbArc
 50
312.7225630331
 51
313.2993710375
  0
ARC
  5
333
100
AcDbEntity
  8
0
100
AcDbCircle
 62
7
  6
CONTINUOUS
 10
9.7320960125
 20
7.2823110643
 40
0.5136602494
100
AcDbArc
 50
312.7225630331
 51
313.2993710375
  0
ARC
  5
334
100
AcDbEntity
  8
0
100
AcDbCircle
 62
7
  6
CONTINUOUS
 10
9.6259941604
 20
7.3921547827
 40
0.5136202164
100
AcDbArc
 50
134.5263148578
 51
135.2912693875
  0
ARC
  5
335
100
AcDbEntity
  8
0
100
AcDbCircle
 62
7
  6
CONTINUOUS
 10
9.7158252625
 20
8.7739605043
 40
0.5136202163
100
AcDbArc
 50
134.5263148578
 51
135.2912693875
  0
ARC
  5
336
100
AcDbEntity
  8
0
100
AcDbCircle
 62
7
  6
CONTINUOUS
 10
10.8123288735
 20
7.7234257841
 40
0.4283870444
100
AcDbArc
 50
134.9146235641
 51
135.5469358756
  0
ARC
  5
337
100
AcDbEntity
  8
0
100
AcDbCircle
 62
7
  6
CONTINUOUS
 10
10.9008056425
 20
7.6318251116
 40
0.4282598037
100
AcDbArc
 50
312.467716482
 51
312.886107345
  0
ARC
  5
338
100
AcDbEntity
  8
0
100
AcDbCircle
 62
7
  6
CONTINUOUS
 10
9.8022279127
 20
8.7212157294
 40
0.3578592638
100
AcDbArc
 50
355.3176972874
 51
357.6904531488
  0
ARC
  5
339
100
AcDbEntity
  8
0
100
AcDbCircle
 62
7
  6
CONTINUOUS
 10
9.7123968105
 20
7.3394100079
 40
0.3578592638
100
AcDbArc
 50
355.3176972874
 51
357.6904531488
  0
ARC
  5
33A
100
AcDbEntity
  8
0
100
AcDbCircle
 62
7
  6
CONTINUOUS
 10
9.9899829714
 20
7.6643189038
 40
0.3202335491
100
AcDbArc
 50
172.5610339655
 51
180.0165891213
  0
ARC
  5
33B
100
AcDbEntity
  8
0
100
AcDbCircle
 62
7
  6
CONTINUOUS
 10
10.0798122428
 20
9.0461247203
 40
0.3202317184
100
AcDbArc
 50
172.5606999393
 51
180.0166062201
  0
ARC
  5
33C
100
AcDbEntity
  8
0
100
AcDbCircle
 62
7
  6
CONTINUOUS
 10
10.8621671536
 20
7.6567987808
 40
0.2928268262
100
AcDbArc
 50
349.335144699
 51
0.0338826872
  0
ARC
  5
33D
100
AcDbEntity
  8
0
100
AcDbCircle
 62
7
  6
CONTINUOUS
 10
10.6702160418
 20
8.9122886905
 40
0.2454156772
100
AcDbArc
 50
127.0407260184
 51
134.0035324119
  0
ARC
  5
33E
100
AcDbEntity
  8
0
100
AcDbCircle
 62
7
  6
CONTINUOUS
 10
10.0301748271
 20
7.7020769476
 40
0.245000595
100
AcDbArc
 50
266.0294027071
 51
270.222943694
  0
ARC
  5
33F
100
AcDbEntity
  8
0
100
AcDbCircle
 62
7
  6
CONTINUOUS
 10
10.0087555235
 20
7.7196948093
 40
0.2437711971
100
AcDbArc
 50
185.0943350006
 51
191.4821445516
  0
ARC
  5
340
100
AcDbEntity
  8
0
100
AcDbCircle
 62
7
  6
CONTINUOUS
 10
10.6837999315
 20
8.8820560167
 40
0.1063129429
100
AcDbArc
 50
85.8453069661
 51
86.0328608706
  0
ARC
  5
341
100
AcDbEntity
  8
0
100
AcDbCircle
 62
7
  6
CONTINUOUS
 10
10.7001891089
 20
8.8727639255
 40
0.0963460695
100
AcDbArc
 50
328.9767446923
 51
329.2380623156
  0
ARC
  5
342
100
AcDbEntity
  8
0
100
AcDbCircle
 62
7
  6
CONTINUOUS
 10
10.765802756
 20
8.9626334389
 40
0.088904434
100
AcDbArc
 50
167.3123575031
 51
180.0380832975
  0
ARC
  5
343
100
AcDbEntity
  8
0
100
AcDbCircle
 62
7
  6
CONTINUOUS
 10
10.7394272892
 20
8.9133903675
 40
0.0828050957
100
AcDbArc
 50
296.9296325285
 51
302.9427292431
  0
ARC
  5
344
100
AcDbEntity
  8
0
100
AcDbCircle
 62
7
  6
CONTINUOUS
 10
12.5744137413
 20
9.5902690159
 40
0.0647461909
100
AcDbArc
 50
144.1612617984
 51
144.7707072022
  0
SPLINE
  5
345
100
AcDbEntity
  8
0
100
AcDbSpline
 62
7
  6
CONTINUOUS
 70
0
 71
3
 72
17
 73
13
 74
0
 42
0.0000001
 43
0.0000001
 44
0.0000000001
 40
0.0
 40
0.0
 40
0.0
 40
0.0
 40
0.1273148359
 40
0.1907080938
 40
0.253886694
 40
0.3795973721
 40
0.5046020162
 40
0.5668927094
 40
0.6290466736
 40
0.7529728785
 40
0.8765701029
 40
1.0
 40
1.0
 40
1.0
 40
1.0
 10
10.4233880862
 20
8.9052022285
 30
0.0
 10
10.4233880862
 20
8.9138702573
 30
0.0
 10
10.4240116801
 20
8.9268659741
 30
0.0
 10
10.4260961539
 20
8.9440303136
 30
0.0
 10
10.4290013516
 20
8.9609654392
 30
0.0
 10
10.4341663844
 20
8.9817410133
 30
0.0
 10
10.441357332
 20
9.0018421143
 30
0.0
 10
10.4482716856
 20
9.0173612651
 30
0.0
 10
10.4559299723
 20
9.0324444975
 30
0.0
 10
10.4668992267
 20
9.0504973977
 30
0.0
 10
10.4821776035
 20
9.0706594191
 30
0.0
 10
10.4936806813
 20
9.0829772717
 30
0.0
 10
10.4997251037
 20
9.088815444
 30
0.0
  0
SPLINE
  5
346
100
AcDbEntity
  8
0
100
AcDbSpline
 62
7
  6
CONTINUOUS
 70
0
 71
3
 72
17
 73
13
 74
0
 42
0.0000001
 43
0.0000001
 44
0.0000000001
 40
0.0
 40
0.0
 40
0.0
 40
0.0
 40
0.1273148359
 40
0.1907080938
 40
0.253886694
 40
0.3795973721
 40
0.5046020162
 40
0.5668927094
 40
0.6290466736
 40
0.7529728785
 40
0.8765701029
 40
1.0
 40
1.0
 40
1.0
 40
1.0
 10
10.9886863216
 20
8.888238426
 30
0.0
 10
10.9886863216
 20
8.8795703973
 30
0.0
 10
10.9880627277
 20
8.8665746805
 30
0.0
 10
10.9859782539
 20
8.849410341
 30
0.0
 10
10.9830730561
 20
8.8324752154
 30
0.0
 10
10.9779080234
 20
8.8116996413
 30
0.0
 10
10.9707170758
 20
8.7915985403
 30
0.0
 10
10.9638027222
 20
8.7760793895
 30
0.0
 10
10.9561444355
 20
8.7609961571
 30
0.0
 10
10.945175181
 20
8.7429432569
 30
0.0
 10
10.9298968043
 20
8.7227812355
 30
0.0
 10
10.9183937265
 20
8.7104633828
 30
0.0
 10
10.9123493041
 20
8.7046252106
 30
0.0
  0
SPLINE
  5
347
100
AcDbEntity
  8
0
100
AcDbSpline
 62
7
  6
CONTINUOUS
 70
0
 71
3
 72
15
 73
11
 74
0
 42
0.0000001
 43
0.0000001
 44
0.0000000001
 40
0.0
 40
0.0
 40
0.0
 40
0.0
 40
0.1240779082
 40
0.2511222687
 40
0.3805654123
 40
0.5108217155
 40
0.6394948228
 40
0.764424526
 40
0.8845806434
 40
1.0
 40
1.0
 40
1.0
 40
1.0
 10
10.6914031082
 20
8.9874282584
 30
0.0
 10
10.6955338071
 20
8.9856493741
 30
0.0
 10
10.7038444342
 20
8.9819321186
 30
0.0
 10
10.716236661
 20
8.9758651147
 30
0.0
 10
10.728558191
 20
8.9691692777
 30
0.0
 10
10.7405849174
 20
8.9618405923
 30
0.0
 10
10.7520699252
 20
8.9539747004
 30
0.0
 10
10.7628383511
 20
8.9457446751
 30
0.0
 10
10.7728412722
 20
8.9373305418
 30
0.0
 10
10.7791546331
 20
8.9315781262
 30
0.0
 10
10.7822001412
 20
8.9287097713
 30
0.0
  0
SPLINE
  5
348
100
AcDbEntity
  8
0
100
AcDbSpline
 62
7
  6
CONTINUOUS
 70
0
 71
3
 72
15
 73
11
 74
0
 42
0.0000001
 43
0.0000001
 44
0.0000000001
 40
0.0
 40
0.0
 40
0.0
 40
0.0
 40
0.1387139933
 40
0.2777271816
 40
0.4154032633
 40
0.5490459729
 40
0.6755622721
 40
0.7928749108
 40
0.9006876628
 40
1.0
 40
1.0
 40
1.0
 40
1.0
 10
10.6006060751
 20
8.9413033626
 30
0.0
 10
10.6047006579
 20
8.943634615
 30
0.0
 10
10.6129150522
 20
8.9482734606
 30
0.0
 10
10.6252642143
 20
8.9550998383
 30
0.0
 10
10.6375408412
 20
8.961699726
 30
0.0
 10
10.6495354941
 20
8.9679250008
 30
0.0
 10
10.6610148465
 20
8.973637849
 30
0.0
 10
10.6718038726
 20
8.9787641431
 30
0.0
 10
10.6818417331
 20
8.9833137483
 30
0.0
 10
10.6882975995
 20
8.9861109206
 30
0.0
 10
10.6914031082
 20
8.9874282584
 30
0.0
  0
SPLINE
  5
349
100
AcDbEntity
  8
0
100
AcDbSpline
 62
7
  6
CONTINUOUS
 70
0
 71
3
 72
38
 73
34
 74
0
 42
0.0000001
 43
0.0000001
 44
0.0000000001
 40
0.0
 40
0.0
 40
0.0
 40
0.0
 40
0.029944812
 40
0.0599139139
 40
0.0899312717
 40
0.1200193174
 40
0.1350994304
 40
0.150204915
 40
0.1804950416
 40
0.2109117799
 40
0.2414680483
 40
0.2721739917
 40
0.3030358878
 40
0.3340569838
 40
0.365236542
 40
0.3965708423
 40
0.4280523939
 40
0.4596710329
 40
0.4914133205
 40
0.5232636592
 40
0.5552038952
 40
0.5872143744
 40
0.6192737535
 40
0.6513599477
 40
0.6834501859
 40
0.7155217223
 40
0.7475519957
 40
0.7795193843
 40
0.8114039982
 40
0.8431871813
 40
0.8748506854
 40
0.9377293214
 40
1.0
 40
1.0
 40
1.0
 40
1.0
 10
10.890867341
 20
8.6838752265
 30
0.0
 10
10.8861972342
 20
8.6793644749
 30
0.0
 10
10.876489926
 20
8.6707070102
 30
0.0
 10
10.8609377561
 20
8.6589118687
 30
0.0
 10
10.8444731978
 20
8.6483691573
 30
0.0
 10
10.8300782887
 20
8.6406786965
 30
0.0
 10
10.8182059495
 20
8.6352088217
 30
0.0
 10
10.8060885602
 20
8.6301900303
 30
0.0
 10
10.7905426464
 20
8.6247928705
 30
0.0
 10
10.7713842806
 20
8.6197640926
 30
0.0
 10
10.7518081863
 20
8.6162001984
 30
0.0
 10
10.7319223291
 20
8.6141241114
 30
0.0
 10
10.711836243
 20
8.6135435194
 30
0.0
 10
10.6916604009
 20
8.6144648449
 30
0.0
 10
10.6715054829
 20
8.6168792544
 30
0.0
 10
10.6514827052
 20
8.6207767765
 30
0.0
 10
10.6317012999
 20
8.6261322503
 30
0.0
 10
10.612270872
 20
8.6329195735
 30
0.0
 10
10.5932968172
 20
8.6410978384
 30
0.0
 10
10.5748847723
 20
8.6506254011
 30
0.0
 10
10.5571340072
 20
8.6614465207
 30
0.0
 10
10.5401439217
 20
8.6735049299
 30
0.0
 10
10.5240054944
 20
8.6867312636
 30
0.0
 10
10.5088097431
 20
8.7010558619
 30
0.0
 10
10.4946373868
 20
8.7163972814
 30
0.0
 10
10.4815691407
 20
8.7326739755
 30
0.0
 10
10.4696736263
 20
8.7497940576
 30
0.0
 10
10.4590193925
 20
8.7676660035
 30
0.0
 10
10.4496617648
 20
8.7861895808
 30
0.0
 10
10.4416557514
 20
8.8052659152
 30
0.0
 10
10.4328593258
 20
8.8312261235
 30
0.0
 10
10.4254154006
 20
8.8645270062
 30
0.0
 10
10.4233880862
 20
8.8917003028
 30
0.0
 10
10.4233880862
 20
8.9052022285
 30
0.0
  0
SPLINE
  5
34A
100
AcDbEntity
  8
0
100
AcDbSpline
 62
7
  6
CONTINUOUS
 70
0
 71
3
 72
11
 73
7
 74
0
 42
0.0000001
 43
0.0000001
 44
0.0000000001
 40
0.0
 40
0.0
 40
0.0
 40
0.0
 40
0.273285813
 40
0.531373461
 40
0.7731427563
 40
1.0
 40
1.0
 40
1.0
 40
1.0
 10
10.785963846
 20
8.8799235397
 30
0.0
 10
10.785963846
 20
8.8843851364
 30
0.0
 10
10.7857916388
 20
8.8930614572
 30
0.0
 10
10.7850125426
 20
8.905663005
 30
0.0
 10
10.7838091505
 20
8.9174687705
 30
0.0
 10
10.7827634564
 20
8.9250492464
 30
0.0
 10
10.7822001412
 20
8.9287097713
 30
0.0
  0
SPLINE
  5
34B
100
AcDbEntity
  8
0
100
AcDbSpline
 62
7
  6
CONTINUOUS
 70
0
 71
3
 72
11
 73
7
 74
0
 42
0.0000001
 43
0.0000001
 44
0.0000000001
 40
0.0
 40
0.0
 40
0.0
 40
0.0
 40
0.2492490491
 40
0.5008550969
 40
0.7525085867
 40
1.0
 40
1.0
 40
1.0
 40
1.0
 10
10.7822001412
 20
8.8238663884
 30
0.0
 10
10.7827503067
 20
8.8285043023
 30
0.0
 10
10.7837712612
 20
8.8378343725
 30
0.0
 10
10.7849789359
 20
8.8518846919
 30
0.0
 10
10.7857711336
 20
8.8659322763
 30
0.0
 10
10.785963846
 20
8.8752860431
 30
0.0
 10
10.785963846
 20
8.8799235397
 30
0.0
  0
SPLINE
  5
34C
100
AcDbEntity
  8
0
100
AcDbSpline
 62
7
  6
CONTINUOUS
 70
0
 71
3
 72
38
 73
34
 74
0
 42
0.0000001
 43
0.0000001
 44
0.0000000001
 40
0.0
 40
0.0
 40
0.0
 40
0.0
 40
0.029944812
 40
0.0599139139
 40
0.0899312717
 40
0.1200193174
 40
0.1350994304
 40
0.150204915
 40
0.1804950416
 40
0.2109117799
 40
0.2414680483
 40
0.2721739917
 40
0.3030358878
 40
0.3340569838
 40
0.365236542
 40
0.3965708423
 40
0.4280523939
 40
0.4596710329
 40
0.4914133205
 40
0.5232636592
 40
0.5552038952
 40
0.5872143744
 40
0.6192737535
 40
0.6513599477
 40
0.6834501859
 40
0.7155217223
 40
0.7475519957
 40
0.7795193843
 40
0.8114039982
 40
0.8431871813
 40
0.8748506854
 40
0.9377293214
 40
1.0
 40
1.0
 40
1.0
 40
1.0
 10
10.5212070667
 20
9.1095654281
 30
0.0
 10
10.5258771736
 20
9.1140761797
 30
0.0
 10
10.5355844818
 20
9.1227336444
 30
0.0
 10
10.5511366517
 20
9.1345287859
 30
0.0
 10
10.56760121
 20
9.1450714973
 30
0.0
 10
10.5819961191
 20
9.1527619581
 30
0.0
 10
10.5938684583
 20
9.1582318329
 30
0.0
 10
10.6059858476
 20
9.1632506242
 30
0.0
 10
10.6215317613
 20
9.1686477841
 30
0.0
 10
10.6406901272
 20
9.173676562
 30
0.0
 10
10.6602662214
 20
9.1772404562
 30
0.0
 10
10.6801520787
 20
9.1793165432
 30
0.0
 10
10.7002381648
 20
9.1798971352
 30
0.0
 10
10.7204140069
 20
9.1789758096
 30
0.0
 10
10.7405689249
 20
9.1765614002
 30
0.0
 10
10.7605917026
 20
9.1726638781
 30
0.0
 10
10.7803731079
 20
9.1673084043
 30
0.0
 10
10.7998035358
 20
9.1605210811
 30
0.0
 10
10.8187775906
 20
9.1523428162
 30
0.0
 10
10.8371896355
 20
9.1428152535
 30
0.0
 10
10.8549404006
 20
9.1319941339
 30
0.0
 10
10.8719304861
 20
9.1199357247
 30
0.0
 10
10.8880689133
 20
9.1067093909
 30
0.0
 10
10.9032646647
 20
9.0923847927
 30
0.0
 10
10.917437021
 20
9.0770433731
 30
0.0
 10
10.9305052671
 20
9.0607666791
 30
0.0
 10
10.9424007814
 20
9.043646597
 30
0.0
 10
10.9530550153
 20
9.0257746511
 30
0.0
 10
10.962412643
 20
9.0072510738
 30
0.0
 10
10.9704186564
 20
8.9881747394
 30
0.0
 10
10.979215082
 20
8.9622145311
 30
0.0
 10
10.9866590072
 20
8.9289136484
 30
0.0
 10
10.9886863216
 20
8.9017403517
 30
0.0
 10
10.9886863216
 20
8.888238426
 30
0.0
  0
SPLINE
  5
34D
100
AcDbEntity
  8
0
100
AcDbSpline
 62
7
  6
CONTINUOUS
 70
0
 71
3
 72
58
 73
54
 74
0
 42
0.0000001
 43
0.0000001
 44
0.0000000001
 40
0.0
 40
0.0
 40
0.0
 40
0.0
 40
0.0311050747
 40
0.0465913849
 40
0.0620239958
 40
0.0927286036
 40
0.1232587734
 40
0.1384718947
 40
0.15365164
 40
0.1839187203
 40
0.2141089863
 40
0.2291934423
 40
0.2442743698
 40
0.2744369594
 40
0.2895396578
 40
0.3046601629
 40
0.3198033701
 40
0.3349740324
 40
0.3654051569
 40
0.3806835436
 40
0.3960050873
 40
0.4113725779
 40
0.4267884616
 40
0.4422547481
 40
0.4577727683
 40
0.4889578936
 40
0.5203546646
 40
0.536135202
 40
0.5519654007
 40
0.5678432087
 40
0.5837662338
 40
0.5997314915
 40
0.6157356801
 40
0.6317752642
 40
0.6478462299
 40
0.6639443143
 40
0.6800651446
 40
0.6962040107
 40
0.712356034
 40
0.7285163608
 40
0.74467997
 40
0.7608417622
 40
0.7769967806
 40
0.8092580756
 40
0.8253632397
 40
0.8414426343
 40
0.8574919949
 40
0.8735073043
 40
0.9054108416
 40
0.9371359096
 40
0.9529333306
 40
0.9686826848
 40
1.0
 40
1.0
 40
1.0
 40
1.0
 10
10.9476084432
 20
8.86456024
 30
0.0
 10
10.9476084432
 20
8.8562011049
 30
0.0
 10
10.9469935732
 20
8.8436684323
 30
0.0
 10
10.9449379904
 20
8.8271223619
 30
0.0
 10
10.9420734952
 20
8.810804951
 30
0.0
 10
10.9369818579
 20
8.790801955
 30
0.0
 10
10.9298956386
 20
8.7714772116
 30
0.0
 10
10.9230853298
 20
8.7565814044
 30
0.0
 10
10.9155442231
 20
8.742121673
 30
0.0
 10
10.9047497353
 20
8.7248518085
 30
0.0
 10
10.892221351
 20
8.7088274108
 30
0.0
 10
10.8812517934
 20
8.6968703511
 30
0.0
 10
10.8696740029
 20
8.6855129415
 30
0.0
 10
10.8572103031
 20
8.6750813289
 30
0.0
 10
10.8439797178
 20
8.6656748466
 30
0.0
 10
10.8336820841
 20
8.6591373573
 30
0.0
 10
10.8230414322
 20
8.6531372216
 30
0.0
 10
10.8084182192
 20
8.6458684595
 30
0.0
 10
10.7932127854
 20
8.6397353044
 30
0.0
 10
10.7775698717
 20
8.634787601
 30
0.0
 10
10.7656112325
 20
8.6316676218
 30
0.0
 10
10.7534740078
 20
8.6291510123
 30
0.0
 10
10.7411866471
 20
8.6272450158
 30
0.0
 10
10.7287787064
 20
8.6259540328
 30
0.0
 10
10.7120898501
 20
8.62505361
 30
0.0
 10
10.6910695805
 20
8.6254861575
 30
0.0
 10
10.6701227603
 20
8.627974383
 30
0.0
 10
10.6534911677
 20
8.6311812413
 30
0.0
 10
10.6410848602
 20
8.6341948198
 30
0.0
 10
10.6287996619
 20
8.6378063875
 30
0.0
 10
10.6166649279
 20
8.6420074618
 30
0.0
 10
10.6047094757
 20
8.6467865571
 30
0.0
 10
10.5929624038
 20
8.652133175
 30
0.0
 10
10.5814522407
 20
8.658034786
 30
0.0
 10
10.5702059947
 20
8.6644758523
 30
0.0
 10
10.5592511585
 20
8.6714417241
 30
0.0
 10
10.548614479
 20
8.6789160855
 30
0.0
 10
10.5383206675
 20
8.6868796871
 30
0.0
 10
10.5283949659
 20
8.6953140503
 30
0.0
 10
10.5188617851
 20
8.7041994316
 30
0.0
 10
10.5097430809
 20
8.7135131868
 30
0.0
 10
10.5010609859
 20
8.7232338821
 30
0.0
 10
10.49010324
 20
8.7366974439
 30
0.0
 10
10.4800897339
 20
8.7508890686
 30
0.0
 10
10.4711051259
 20
8.7657008408
 30
0.0
 10
10.4648984026
 20
8.7770861045
 30
0.0
 10
10.4592364915
 20
8.7887249781
 30
0.0
 10
10.4524429236
 20
8.8045220191
 30
0.0
 10
10.4453703435
 20
8.8247586
 30
0.0
 10
10.4402540588
 20
8.8455163444
 30
0.0
 10
10.4373782791
 20
8.8622811347
 30
0.0
 10
10.4353270319
 20
8.8790547254
 30
0.0
 10
10.434701799
 20
8.8917142643
 30
0.0
 10
10.434701799
 20
8.9001304366
 30
0.0
  0
SPLINE
  5
34E
100
AcDbEntity
  8
0
100
AcDbSpline
 62
7
  6
CONTINUOUS
 70
0
 71
3
 72
17
 73
13
 74
0
 42
0.0000001
 43
0.0000001
 44
0.0000000001
 40
0.0
 40
0.0
 40
0.0
 40
0.0
 40
0.1273148359
 40
0.1907080938
 40
0.253886694
 40
0.3795973721
 40
0.5046020162
 40
0.5668927094
 40
0.6290466736
 40
0.7529728785
 40
0.8765701029
 40
1.0
 40
1.0
 40
1.0
 40
1.0
 10
10.9672043586
 20
8.8674884419
 30
0.0
 10
10.9672043586
 20
8.8588204132
 30
0.0
 10
10.9665807647
 20
8.8458246963
 30
0.0
 10
10.9644962909
 20
8.8286603569
 30
0.0
 10
10.9615910931
 20
8.8117252313
 30
0.0
 10
10.9564260604
 20
8.7909496572
 30
0.0
 10
10.9492351128
 20
8.7708485562
 30
0.0
 10
10.9423207592
 20
8.7553294054
 30
0.0
 10
10.9346624724
 20
8.740246173
 30
0.0
 10
10.923693218
 20
8.7221932728
 30
0.0
 10
10.9084148413
 20
8.7020312514
 30
0.0
 10
10.8969117635
 20
8.6897133987
 30
0.0
 10
10.890867341
 20
8.6838752265
 30
0.0
  0
SPLINE
  5
34F
100
AcDbEntity
  8
0
100
AcDbSpline
 62
7
  6
CONTINUOUS
 70
0
 71
3
 72
36
 73
32
 74
0
 42
0.0000001
 43
0.0000001
 44
0.0000000001
 40
0.0
 40
0.0
 40
0.0
 40
0.0
 40
0.0625338227
 40
0.1257372335
 40
0.1894975552
 40
0.2215640161
 40
0.2537059568
 40
0.2858975161
 40
0.3181120251
 40
0.3503211343
 40
0.3824974038
 40
0.4146136919
 40
0.4466447346
 40
0.4785670926
 40
0.5103600254
 40
0.5420062281
 40
0.5734916901
 40
0.6048071065
 40
0.6359468655
 40
0.6669108256
 40
0.6977026941
 40
0.7283317712
 40
0.7588110185
 40
0.789158437
 40
0.8193950483
 40
0.8495457685
 40
0.8796374508
 40
0.9096991784
 40
0.939760337
 40
0.9698508714
 40
1.0
 40
1.0
 40
1.0
 40
1.0
 10
10.5853862368
 20
8.8896804353
 30
0.0
 10
10.5853862368
 20
8.8838856625
 30
0.0
 10
10.5863481144
 20
8.8722129645
 30
0.0
 10
10.5905760757
 20
8.8550993814
 30
0.0
 10
10.5963269046
 20
8.8414598543
 30
0.0
 10
10.6021682028
 20
8.8311291899
 30
0.0
 10
10.6071536563
 20
8.823705651
 30
0.0
 10
10.6127002327
 20
8.8166747542
 30
0.0
 10
10.6187713483
 20
8.810082846
 30
0.0
 10
10.6253259095
 20
8.8039735308
 30
0.0
 10
10.6323210341
 20
8.7983885894
 30
0.0
 10
10.6397089822
 20
8.7933638969
 30
0.0
 10
10.6474416459
 20
8.78893486
 30
0.0
 10
10.6554662253
 20
8.7851289117
 30
0.0
 10
10.6637303395
 20
8.7819740424
 30
0.0
 10
10.6721778046
 20
8.7794887294
 30
0.0
 10
10.6807530642
 20
8.7776924587
 30
0.0
 10
10.689398231
 20
8.7765946526
 30
0.0
 10
10.6980559205
 20
8.77620533
 30
0.0
 10
10.7066680645
 20
8.7765250204
 30
0.0
 10
10.7151770614
 20
8.7775535832
 30
0.0
 10
10.7235259998
 20
8.7792829386
 30
0.0
 10
10.7316588654
 20
8.7817025023
 30
0.0
 10
10.739521096
 20
8.7847959086
 30
0.0
 10
10.7470601414
 20
8.788542307
 30
0.0
 10
10.7542249145
 20
8.7929173948
 30
0.0
 10
10.7609681067
 20
8.797890775
 30
0.0
 10
10.7672432015
 20
8.8034305239
 30
0.0
 10
10.7730097954
 20
8.8094979187
 30
0.0
 10
10.7782268361
 20
8.8160533496
 30
0.0
 10
10.7813137728
 20
8.8207143416
 30
0.0
 10
10.7827536618
 20
8.8231085158
 30
0.0
  0
SPLINE
  5
350
100
AcDbEntity
  8
0
100
AcDbSpline
 62
7
  6
CONTINUOUS
 70
0
 71
3
 72
13
 73
9
 74
0
 42
0.0000001
 43
0.0000001
 44
0.0000000001
 40
0.0
 40
0.0
 40
0.0
 40
0.0
 40
0.2471902422
 40
0.3714217392
 40
0.4961034506
 40
0.6213001641
 40
0.7470653272
 40
1.0
 40
1.0
 40
1.0
 40
1.0
 10
10.7829792733
 20
8.8234855957
 30
0.0
 10
10.7852550553
 20
8.8273090254
 30
0.0
 10
10.7882815763
 20
8.8333014253
 30
0.0
 10
10.7914757604
 20
8.8416454488
 30
0.0
 10
10.7934535148
 20
8.8480882469
 30
0.0
 10
10.7950007353
 20
8.8546760003
 30
0.0
 10
10.796481217
 20
8.8636292736
 30
0.0
 10
10.7969240053
 20
8.8704573688
 30
0.0
 10
10.7969240053
 20
8.8750102413
 30
0.0
  0
SPLINE
  5
351
100
AcDbEntity
  8
0
100
AcDbSpline
 62
7
  6
CONTINUOUS
 70
0
 71
3
 72
29
 73
25
 74
0
 42
0.0000001
 43
0.0000001
 44
0.0000000001
 40
0.0
 40
0.0
 40
0.0
 40
0.0
 40
0.061481729
 40
0.1234752844
 40
0.1858649221
 40
0.2172093692
 40
0.2486408718
 40
0.280150293
 40
0.3117259623
 40
0.3433558618
 40
0.3750284812
 40
0.4384330416
 40
0.5018633042
 40
0.5652194035
 40
0.6284044048
 40
0.659915206
 40
0.6913504384
 40
0.7227013043
 40
0.7539594142
 40
0.7851171083
 40
0.8161684715
 40
0.8779121459
 40
0.9391890552
 40
1.0
 40
1.0
 40
1.0
 40
1.0
 10
10.6768983416
 20
8.962574346
 30
0.0
 10
10.6768983416
 20
8.959216085
 30
0.0
 10
10.6772747969
 20
8.9524659859
 30
0.0
 10
10.6789378867
 20
8.9424322202
 30
0.0
 10
10.6812276395
 20
8.93422148
 30
0.0
 10
10.6835807339
 20
8.9277996769
 30
0.0
 10
10.6856065224
 20
8.9230620395
 30
0.0
 10
10.6878831278
 20
8.9184258333
 30
0.0
 10
10.6904032951
 20
8.9139049761
 30
0.0
 10
10.693160107
 20
8.9095137166
 30
0.0
 10
10.6971410389
 20
8.9038491276
 30
0.0
 10
10.7026629208
 20
8.8971587534
 30
0.0
 10
10.7100802506
 20
8.8898591981
 30
0.0
 10
10.7181996343
 20
8.8833686213
 30
0.0
 10
10.7254799393
 20
8.8786972339
 30
0.0
 10
10.7315535613
 20
8.875439553
 30
0.0
 10
10.7362164674
 20
8.8732457741
 30
0.0
 10
10.7409756361
 20
8.8713061126
 30
0.0
 10
10.7458163948
 20
8.8696257735
 30
0.0
 10
10.7507243253
 20
8.8682103484
 30
0.0
 10
10.7573238322
 20
8.8666864501
 30
0.0
 10
10.7656679983
 20
8.8654580383
 30
0.0
 10
10.7757216561
 20
8.8650937947
 30
0.0
 10
10.7823882257
 20
8.8655952725
 30
0.0
 10
10.7856809605
 20
8.8660323825
 30
0.0
  0
SPLINE
  5
352
100
AcDbEntity
  8
0
100
AcDbSpline
 62
7
  6
CONTINUOUS
 70
0
 71
3
 72
13
 73
9
 74
0
 42
0.0000001
 43
0.0000001
 44
0.0000000001
 40
0.0
 40
0.0
 40
0.0
 40
0.0
 40
0.246926451
 40
0.3713323888
 40
0.4962160989
 40
0.6215646734
 40
0.747362257
 40
1.0
 40
1.0
 40
1.0
 40
1.0
 10
10.7969240053
 20
8.8750102413
 30
0.0
 10
10.7969240053
 20
8.8796422071
 30
0.0
 10
10.7964639145
 20
8.8866184202
 30
0.0
 10
10.7949632854
 20
8.8958091395
 30
0.0
 10
10.7933892673
 20
8.902663456
 30
0.0
 10
10.7913783167
 20
8.9094296302
 30
0.0
 10
10.788121257
 20
8.9183053389
 30
0.0
 10
10.785053757
 20
8.9247338943
 30
0.0
 10
10.7827536618
 20
8.9288774001
 30
0.0
  0
LINE
  5
353
100
AcDbEntity
  8
0
100
AcDbLine
 62
7
  6
CONTINUOUS
 10
10.7827536618
 20
8.9288774001
 11
10.7826725303
 21
8.9290233053
  0
SPLINE
  5
354
100
AcDbEntity
  8
0
100
AcDbSpline
 62
7
  6
CONTINUOUS
 70
0
 71
3
 72
20
 73
16
 74
0
 42
0.0000001
 43
0.0000001
 44
0.0000000001
 40
0.0
 40
0.0
 40
0.0
 40
0.0
 40
0.1256947275
 40
0.1887029035
 40
0.2517551898
 40
0.314816636
 40
0.377852192
 40
0.5036526176
 40
0.5664104263
 40
0.6290137721
 40
0.6914344169
 40
0.7536481821
 40
0.815633831
 40
0.8773729789
 40
1.0
 40
1.0
 40
1.0
 40
1.0
 10
10.7826725303
 20
8.9290233053
 30
0.0
 10
10.7803665748
 20
8.9331632351
 30
0.0
 10
10.776516505
 20
8.9391735563
 30
0.0
 10
10.7706873067
 20
8.9466690224
 30
0.0
 10
10.765972682
 20
8.9520241781
 30
0.0
 10
10.7609414431
 20
8.9570843196
 30
0.0
 10
10.753844947
 20
8.963401929
 30
0.0
 10
10.7461928257
 20
8.9690547234
 30
0.0
 10
10.7380878505
 20
8.9739595733
 30
0.0
 10
10.7318133064
 20
8.9772486111
 30
0.0
 10
10.7253664444
 20
8.9801351033
 30
0.0
 10
10.7187741436
 20
8.9826062587
 30
0.0
 10
10.7120642821
 20
8.9846531697
 30
0.0
 10
10.7030233408
 20
8.9867975867
 30
0.0
 10
10.6961132741
 20
8.9877546325
 30
0.0
 10
10.6915022555
 20
8.9880895776
 30
0.0
  0
SPLINE
  5
355
100
AcDbEntity
  8
0
100
AcDbSpline
 62
7
  6
CONTINUOUS
 70
0
 71
3
 72
20
 73
16
 74
0
 42
0.0000001
 43
0.0000001
 44
0.0000000001
 40
0.0
 40
0.0
 40
0.0
 40
0.0
 40
0.1276925278
 40
0.1911445102
 40
0.2543223292
 40
0.3172406664
 40
0.3799179609
 40
0.5045757392
 40
0.6285999534
 40
0.6904979986
 40
0.7523453711
 40
0.8141805457
 40
0.8760420384
 40
0.9379693885
 40
1.0
 40
1.0
 40
1.0
 40
1.0
 10
10.6911551211
 20
8.9881142225
 30
0.0
 10
10.6865811131
 20
8.9884314311
 30
0.0
 10
10.6796918785
 20
8.9884630053
 30
0.0
 10
10.6705963406
 20
8.98759916
 30
0.0
 10
10.6638734472
 20
8.9865044035
 30
0.0
 10
10.6572663481
 20
8.9849675848
 30
0.0
 10
10.6486669113
 20
8.98234144
 30
0.0
 10
10.6383287189
 20
8.977988435
 30
0.0
 10
10.6287140018
 20
8.9722631953
 30
0.0
 10
10.6215816301
 20
8.9669353831
 30
0.0
 10
10.6165304822
 20
8.9625805816
 30
0.0
 10
10.6117963286
 20
8.9578854366
 30
0.0
 10
10.6074000208
 20
8.952868478
 30
0.0
 10
10.6033602719
 20
8.9475518864
 30
0.0
 10
10.6009177316
 20
8.9438260044
 30
0.0
 10
10.5997619492
 20
8.9419220489
 30
0.0
  0
SPLINE
  5
356
100
AcDbEntity
  8
0
100
AcDbSpline
 62
7
  6
CONTINUOUS
 70
0
 71
3
 72
14
 73
10
 74
0
 42
0.0000001
 43
0.0000001
 44
0.0000000001
 40
0.0
 40
0.0
 40
0.0
 40
0.0
 40
0.123468504
 40
0.2472788979
 40
0.3714832915
 40
0.4961398755
 40
0.6213156024
 40
0.7470670297
 40
1.0
 40
1.0
 40
1.0
 40
1.0
 10
10.5997619492
 20
8.9419220489
 30
0.0
 10
10.5985906667
 20
8.9399925597
 30
0.0
 10
10.5963800844
 20
8.9360443181
 30
0.0
 10
10.5934804757
 20
8.9298975102
 30
0.0
 10
10.5910051659
 20
8.923544205
 30
0.0
 10
10.5889659906
 20
8.9170119665
 30
0.0
 10
10.5873701712
 20
8.9103278982
 30
0.0
 10
10.5858429512
 20
8.9012392667
 30
0.0
 10
10.5853862368
 20
8.8943043963
 30
0.0
 10
10.5853862368
 20
8.8896804353
 30
0.0
  0
SPLINE
  5
357
100
AcDbEntity
  8
0
100
AcDbSpline
 62
7
  6
CONTINUOUS
 70
0
 71
3
 72
12
 73
8
 74
0
 42
0.0000001
 43
0.0000001
 44
0.0000000001
 40
0.0
 40
0.0
 40
0.0
 40
0.0
 40
0.2527826259
 40
0.3785345299
 40
0.5037564791
 40
0.7526539816
 40
1.0
 40
1.0
 40
1.0
 40
1.0
 10
10.6407338257
 20
8.9276421041
 30
0.0
 10
10.6407338257
 20
8.9312564938
 30
0.0
 10
10.6410589409
 20
8.9366765871
 30
0.0
 10
10.6421453496
 20
8.9438004085
 30
0.0
 10
10.6436570455
 20
8.9507903615
 30
0.0
 10
10.6463385775
 20
8.9592869915
 30
0.0
 10
10.6493163017
 20
8.9657516033
 30
0.0
 10
10.6509970375
 20
8.968863364
 30
0.0
  0
SPLINE
  5
358
100
AcDbEntity
  8
0
100
AcDbSpline
 62
7
  6
CONTINUOUS
 70
0
 71
3
 72
20
 73
16
 74
0
 42
0.0000001
 43
0.0000001
 44
0.0000000001
 40
0.0
 40
0.0
 40
0.0
 40
0.0
 40
0.1259091026
 40
0.1890323927
 40
0.2521617101
 40
0.3152718565
 40
0.3783395321
 40
0.5041603612
 40
0.5669033968
 40
0.6294733369
 40
0.6918408244
 40
0.7539860229
 40
0.8159009113
 40
0.8775789156
 40
1.0
 40
1.0
 40
1.0
 40
1.0
 10
10.6861323423
 20
8.845861169
 30
0.0
 10
10.6826982807
 20
8.8480819784
 30
0.0
 10
10.6777417025
 20
8.8517398565
 30
0.0
 10
10.6716206893
 20
8.8571869296
 30
0.0
 10
10.6672818162
 20
8.8615520853
 30
0.0
 10
10.6632183246
 20
8.8661721352
 30
0.0
 10
10.6581961281
 20
8.8726401222
 30
0.0
 10
10.6537819483
 20
8.8795480068
 30
0.0
 10
10.6500432748
 20
8.886802147
 30
0.0
 10
10.6475892031
 20
8.8923868493
 30
0.0
 10
10.6454944155
 20
8.8980950921
 30
0.0
 10
10.643768259
 20
8.903903193
 30
0.0
 10
10.6424169975
 20
8.9097873448
 30
0.0
 10
10.6411287897
 20
8.9176770762
 30
0.0
 10
10.6407338257
 20
8.9236658035
 30
0.0
 10
10.6407338257
 20
8.9276421041
 30
0.0
  0
SPLINE
  5
359
100
AcDbEntity
  8
0
100
AcDbSpline
 62
7
  6
CONTINUOUS
 70
0
 71
3
 72
20
 73
16
 74
0
 42
0.0000001
 43
0.0000001
 44
0.0000000001
 40
0.0
 40
0.0
 40
0.0
 40
0.0
 40
0.121457974
 40
0.1825580223
 40
0.2438742662
 40
0.3054345939
 40
0.3672647593
 40
0.4917072804
 40
0.5543868527
 40
0.6173416292
 40
0.6805589591
 40
0.7440285309
 40
0.8077436178
 40
0.8716926135
 40
1.0
 40
1.0
 40
1.0
 40
1.0
 10
10.7769293753
 20
8.8395643734
 30
0.0
 10
10.7734916997
 20
8.8378180341
 30
0.0
 10
10.7681320451
 20
8.8355501454
 30
0.0
 10
10.7607270815
 20
8.8332769497
 30
0.0
 10
10.7550352166
 20
8.8319461745
 30
0.0
 10
10.7492439985
 20
8.8309982233
 30
0.0
 10
10.7414074819
 20
8.8302493239
 30
0.0
 10
10.7334769852
 20
8.8302835369
 30
0.0
 10
10.7255752166
 20
8.8310922338
 30
0.0
 10
10.7196583847
 20
8.8320860086
 30
0.0
 10
10.7137931316
 20
8.83346163
 30
0.0
 10
10.7080040297
 20
8.8352138633
 30
0.0
 10
10.7023144054
 20
8.8373347553
 30
0.0
 10
10.6948895982
 20
8.8406459056
 30
0.0
 10
10.6895526868
 20
8.8436492305
 30
0.0
 10
10.6861323423
 20
8.845861169
 30
0.0
  0
SPLINE
  5
35A
100
AcDbEntity
  8
0
100
AcDbSpline
 62
7
  6
CONTINUOUS
 70
0
 71
3
 72
11
 73
7
 74
0
 42
0.0000001
 43
0.0000001
 44
0.0000000001
 40
0.0
 40
0.0
 40
0.0
 40
0.0
 40
0.2268573018
 40
0.4686267122
 40
0.7267143401
 40
1.0
 40
1.0
 40
1.0
 40
1.0
 10
10.6006060751
 20
8.9413033626
 30
0.0
 10
10.6011693905
 20
8.9376428367
 30
0.0
 10
10.6022150851
 20
8.930062358
 30
0.0
 10
10.6034184771
 20
8.91825659
 30
0.0
 10
10.6041975727
 20
8.9056550432
 30
0.0
 10
10.6043697799
 20
8.8969787252
 30
0.0
 10
10.6043697799
 20
8.892517131
 30
0.0
  0
SPLINE
  5
35B
100
AcDbEntity
  8
0
100
AcDbSpline
 62
7
  6
CONTINUOUS
 70
0
 71
3
 72
11
 73
7
 74
0
 42
0.0000001
 43
0.0000001
 44
0.0000000001
 40
0.0
 40
0.0
 40
0.0
 40
0.0
 40
0.2474915547
 40
0.4991450787
 40
0.7507510178
 40
1.0
 40
1.0
 40
1.0
 40
1.0
 10
10.6043697799
 20
8.892517131
 30
0.0
 10
10.6043697799
 20
8.8878796317
 30
0.0
 10
10.6041770674
 20
8.8785258616
 30
0.0
 10
10.6033848693
 20
8.864478276
 30
0.0
 10
10.6021771944
 20
8.8504279592
 30
0.0
 10
10.6011562405
 20
8.8410978923
 30
0.0
 10
10.6006060751
 20
8.8364599796
 30
0.0
  0
SPLINE
  5
35C
100
AcDbEntity
  8
0
100
AcDbSpline
 62
7
  6
CONTINUOUS
 70
0
 71
3
 72
15
 73
11
 74
0
 42
0.0000001
 43
0.0000001
 44
0.0000000001
 40
0.0
 40
0.0
 40
0.0
 40
0.0
 40
0.1154193567
 40
0.2355754737
 40
0.3605051764
 40
0.4891782837
 40
0.6194345868
 40
0.748877731
 40
0.8759220919
 40
1.0
 40
1.0
 40
1.0
 40
1.0
 10
10.6914031082
 20
8.7777414925
 30
0.0
 10
10.6883576001
 20
8.7806098474
 30
0.0
 10
10.6820442391
 20
8.786362263
 30
0.0
 10
10.672041318
 20
8.7947763963
 30
0.0
 10
10.6612728922
 20
8.8030064216
 30
0.0
 10
10.6497878844
 20
8.8108723134
 30
0.0
 10
10.637761158
 20
8.8182009989
 30
0.0
 10
10.625439628
 20
8.8248968359
 30
0.0
 10
10.6130474011
 20
8.8309638398
 30
0.0
 10
10.6047367741
 20
8.8346810954
 30
0.0
 10
10.6006060751
 20
8.8364599796
 30
0.0
  0
SPLINE
  5
35D
100
AcDbEntity
  8
0
100
AcDbSpline
 62
7
  6
CONTINUOUS
 70
0
 71
3
 72
15
 73
11
 74
0
 42
0.0000001
 43
0.0000001
 44
0.0000000001
 40
0.0
 40
0.0
 40
0.0
 40
0.0
 40
0.0993123373
 40
0.207125089
 40
0.3244377271
 40
0.4509540262
 40
0.5845967358
 40
0.7222728181
 40
0.8612860067
 40
1.0
 40
1.0
 40
1.0
 40
1.0
 10
10.7822001412
 20
8.8238663884
 30
0.0
 10
10.7790946325
 20
8.8225490506
 30
0.0
 10
10.7726387662
 20
8.8197518782
 30
0.0
 10
10.7626009057
 20
8.8152022731
 30
0.0
 10
10.7518118796
 20
8.810075979
 30
0.0
 10
10.7403325273
 20
8.8043631307
 30
0.0
 10
10.7283378743
 20
8.798137856
 30
0.0
 10
10.7160612473
 20
8.7915379682
 30
0.0
 10
10.7037120853
 20
8.7847115905
 30
0.0
 10
10.6954976909
 20
8.7800727449
 30
0.0
 10
10.6914031082
 20
8.7777414925
 30
0.0
  0
SPLINE
  5
35E
100
AcDbEntity
  8
0
100
AcDbSpline
 62
7
  6
CONTINUOUS
 70
0
 71
3
 72
58
 73
54
 74
0
 42
0.0000001
 43
0.0000001
 44
0.0000000001
 40
0.0
 40
0.0
 40
0.0
 40
0.0
 40
0.0311050747
 40
0.0465913849
 40
0.0620239958
 40
0.0927286036
 40
0.1232587734
 40
0.1384718947
 40
0.15365164
 40
0.1839187203
 40
0.2141089863
 40
0.2291934423
 40
0.2442743698
 40
0.2744369594
 40
0.2895396578
 40
0.3046601629
 40
0.3198033701
 40
0.3349740324
 40
0.3654051569
 40
0.3806835436
 40
0.3960050873
 40
0.4113725779
 40
0.4267884616
 40
0.4422547481
 40
0.4577727683
 40
0.4889578936
 40
0.5203546646
 40
0.536135202
 40
0.5519654007
 40
0.5678432087
 40
0.5837662338
 40
0.5997314915
 40
0.6157356801
 40
0.6317752642
 40
0.6478462299
 40
0.6639443143
 40
0.6800651446
 40
0.6962040107
 40
0.712356034
 40
0.7285163608
 40
0.74467997
 40
0.7608417622
 40
0.7769967806
 40
0.8092580756
 40
0.8253632397
 40
0.8414426343
 40
0.8574919949
 40
0.8735073043
 40
0.9054108416
 40
0.9371359096
 40
0.9529333306
 40
0.9686826848
 40
1.0
 40
1.0
 40
1.0
 40
1.0
 10
10.434701799
 20
8.9001304366
 30
0.0
 10
10.434701799
 20
8.9084895717
 30
0.0
 10
10.435316669
 20
8.9210222443
 30
0.0
 10
10.4373722518
 20
8.9375683147
 30
0.0
 10
10.440236747
 20
8.9538857256
 30
0.0
 10
10.4453283842
 20
8.9738887216
 30
0.0
 10
10.4524146036
 20
8.993213465
 30
0.0
 10
10.4592249123
 20
9.0081092722
 30
0.0
 10
10.466766019
 20
9.0225690036
 30
0.0
 10
10.4775605068
 20
9.0398388681
 30
0.0
 10
10.4900888912
 20
9.0558632658
 30
0.0
 10
10.5010584488
 20
9.0678203255
 30
0.0
 10
10.5126362393
 20
9.0791777351
 30
0.0
 10
10.5250999391
 20
9.0896093477
 30
0.0
 10
10.5383305244
 20
9.09901583
 30
0.0
 10
10.548628158
 20
9.1055533194
 30
0.0
 10
10.55926881
 20
9.111553455
 30
0.0
 10
10.573892023
 20
9.1188222171
 30
0.0
 10
10.5890974568
 20
9.1249553722
 30
0.0
 10
10.6047403704
 20
9.1299030756
 30
0.0
 10
10.6166990097
 20
9.1330230548
 30
0.0
 10
10.6288362344
 20
9.1355396643
 30
0.0
 10
10.6411235951
 20
9.1374456608
 30
0.0
 10
10.6535315358
 20
9.1387366438
 30
0.0
 10
10.670220392
 20
9.1396370667
 30
0.0
 10
10.6912406617
 20
9.1392045191
 30
0.0
 10
10.7121874819
 20
9.1367162936
 30
0.0
 10
10.7288190745
 20
9.1335094353
 30
0.0
 10
10.741225382
 20
9.1304958568
 30
0.0
 10
10.7535105803
 20
9.1268842891
 30
0.0
 10
10.7656453143
 20
9.1226832148
 30
0.0
 10
10.7776007665
 20
9.1179041195
 30
0.0
 10
10.7893478383
 20
9.1125575016
 30
0.0
 10
10.8008580015
 20
9.1066558906
 30
0.0
 10
10.8121042474
 20
9.1002148243
 30
0.0
 10
10.8230590836
 20
9.0932489525
 30
0.0
 10
10.8336957632
 20
9.0857745911
 30
0.0
 10
10.8439895747
 20
9.0778109895
 30
0.0
 10
10.8539152763
 20
9.0693766263
 30
0.0
 10
10.8634484571
 20
9.060491245
 30
0.0
 10
10.8725671613
 20
9.0511774898
 30
0.0
 10
10.8812492563
 20
9.0414567945
 30
0.0
 10
10.8922070021
 20
9.0279932328
 30
0.0
 10
10.9022205082
 20
9.013801608
 30
0.0
 10
10.9112051162
 20
8.9989898358
 30
0.0
 10
10.9174118396
 20
8.9876045721
 30
0.0
 10
10.9230737507
 20
8.9759656985
 30
0.0
 10
10.9298673186
 20
8.9601686575
 30
0.0
 10
10.9369398987
 20
8.9399320766
 30
0.0
 10
10.9420561833
 20
8.9191743322
 30
0.0
 10
10.9449319631
 20
8.9024095419
 30
0.0
 10
10.9469832103
 20
8.8856359512
 30
0.0
 10
10.9476084432
 20
8.8729764123
 30
0.0
 10
10.9476084432
 20
8.86456024
 30
0.0
  0
SPLINE
  5
35F
100
AcDbEntity
  8
0
100
AcDbSpline
 62
7
  6
CONTINUOUS
 70
0
 71
3
 72
40
 73
36
 74
0
 42
0.0000001
 43
0.0000001
 44
0.0000000001
 40
0.0
 40
0.0
 40
0.0
 40
0.0
 40
0.0299255366
 40
0.0449108417
 40
0.0599127274
 40
0.0899706838
 40
0.1201229875
 40
0.1503855907
 40
0.180772436
 40
0.2112944426
 40
0.2419601479
 40
0.2727746579
 40
0.3037405563
 40
0.3348568938
 40
0.3661202519
 40
0.3975238898
 40
0.4290587905
 40
0.4607131116
 40
0.4924730262
 40
0.5243226076
 40
0.5562443177
 40
0.5882193772
 40
0.6202278568
 40
0.6522495171
 40
0.6842635471
 40
0.7162495942
 40
0.7481873288
 40
0.7800579705
 40
0.8118438811
 40
0.8435284573
 40
0.8750953165
 40
0.9065330358
 40
0.9378384093
 40
0.9690035209
 40
1.0
 40
1.0
 40
1.0
 40
1.0
 10
10.5223819218
 20
9.1081813336
 30
0.0
 10
10.527324265
 20
9.1119113039
 30
0.0
 10
10.5349577024
 20
9.117230807
 30
0.0
 10
10.5455136629
 20
9.1237343945
 30
0.0
 10
10.5563305221
 20
9.1298511908
 30
0.0
 10
10.5703008979
 20
9.1367431242
 30
0.0
 10
10.5876746514
 20
9.1437581939
 30
0.0
 10
10.6055851495
 20
9.1494888004
 30
0.0
 10
10.623942093
 20
9.1539066394
 30
0.0
 10
10.6426540304
 20
9.1569902015
 30
0.0
 10
10.6616275685
 20
9.1587233212
 30
0.0
 10
10.6807680374
 20
9.1590991899
 30
0.0
 10
10.6999799316
 20
9.1581138923
 30
0.0
 10
10.7191677444
 20
9.1557753198
 30
0.0
 10
10.7382354001
 20
9.1520920798
 30
0.0
 10
10.7570886975
 20
9.1470862486
 30
0.0
 10
10.7756327176
 20
9.1407791586
 30
0.0
 10
10.7937764824
 20
9.1332061577
 30
0.0
 10
10.8114281346
 20
9.1244013545
 30
0.0
 10
10.828501562
 20
9.1144121665
 30
0.0
 10
10.8449100053
 20
9.1032852417
 30
0.0
 10
10.8605736065
 20
9.0910787578
 30
0.0
 10
10.8754127653
 20
9.0778512601
 30
0.0
 10
10.8893550749
 20
9.063670339
 30
0.0
 10
10.9023299997
 20
9.04860533
 30
0.0
 10
10.9142736576
 20
9.0327320005
 30
0.0
 10
10.9251264055
 20
9.0161290784
 30
0.0
 10
10.9348338535
 20
8.9988789624
 30
0.0
 10
10.9433483298
 20
8.9810677434
 30
0.0
 10
10.9506258089
 20
8.9627838566
 30
0.0
 10
10.9566325499
 20
8.944119491
 30
0.0
 10
10.9613359416
 20
8.925165552
 30
0.0
 10
10.9647144394
 20
8.9060151182
 30
0.0
 10
10.9667475353
 20
8.8867681623
 30
0.0
 10
10.9672043586
 20
8.8739019149
 30
0.0
 10
10.9672043586
 20
8.8674884419
 30
0.0
  0
SPLINE
  5
360
100
AcDbEntity
  8
0
100
AcDbSpline
 62
7
  6
CONTINUOUS
 70
0
 71
3
 72
21
 73
17
 74
0
 42
0.0000001
 43
0.0000001
 44
0.0000000001
 40
0.0
 40
0.0
 40
0.0
 40
0.0
 40
0.1685616874
 40
0.3287963644
 40
0.4049748023
 40
0.4781590272
 40
0.5480893266
 40
0.6145170882
 40
0.6772087892
 40
0.7359738033
 40
0.790645498
 40
0.8410920653
 40
0.887237413
 40
0.9290500841
 40
0.9665836944
 40
1.0
 40
1.0
 40
1.0
 40
1.0
 10
12.478807875
 20
9.4065476712
 30
0.0
 10
12.478807875
 20
9.3988600948
 30
0.0
 10
12.4790627905
 20
9.3838632918
 30
0.0
 10
12.4800678262
 20
9.3654157002
 30
0.0
 10
12.4812915023
 20
9.3513479972
 30
0.0
 10
12.4823870383
 20
9.3414059292
 30
0.0
 10
12.4836707528
 20
9.3319348779
 30
0.0
 10
12.4851366412
 20
9.3229746818
 30
0.0
 10
12.4867795037
 20
9.3145632803
 30
0.0
 10
12.4885913126
 20
9.3067357437
 30
0.0
 10
12.4905643582
 20
9.2995243215
 30
0.0
 10
12.4926911141
 20
9.2929586382
 30
0.0
 10
12.4949612476
 20
9.2870648881
 30
0.0
 10
12.4973670106
 20
9.28186601
 30
0.0
 10
12.4998987562
 20
9.2773826827
 30
0.0
 10
12.5017700462
 20
9.274732269
 30
0.0
 10
12.5027316942
 20
9.2735499609
 30
0.0
  0
SPLINE
  5
361
100
AcDbEntity
  8
0
100
AcDbSpline
 62
7
  6
CONTINUOUS
 70
0
 71
3
 72
31
 73
27
 74
0
 42
0.0000001
 43
0.0000001
 44
0.0000000001
 40
0.0
 40
0.0
 40
0.0
 40
0.0
 40
0.0762656208
 40
0.1537943453
 40
0.231828897
 40
0.3096812386
 40
0.3866394395
 40
0.4619996552
 40
0.5350812932
 40
0.6052309703
 40
0.6390124002
 40
0.67183295
 40
0.7036213026
 40
0.7343120691
 40
0.7638431047
 40
0.7921545668
 40
0.8191942183
 40
0.8449146835
 40
0.8692723112
 40
0.8922334625
 40
0.9137722707
 40
0.933869892
 40
0.9525222697
 40
0.9697396624
 40
0.9855480192
 40
1.0
 40
1.0
 40
1.0
 40
1.0
 10
12.6364285434
 20
9.5587975546
 30
0.0
 10
12.6364285434
 20
9.5452453871
 30
0.0
 10
12.6360634053
 20
9.5179154319
 30
0.0
 10
12.6344732287
 20
9.4767468158
 30
0.0
 10
12.6318471879
 20
9.4353485186
 30
0.0
 10
12.6282119371
 20
9.3941284426
 30
0.0
 10
12.623603247
 20
9.3534839078
 30
0.0
 10
12.6180660024
 20
9.3138108606
 30
0.0
 10
12.6116541892
 20
9.2754957289
 30
0.0
 10
12.6055619777
 20
9.2446311807
 30
0.0
 10
12.6002783815
 20
9.2209112019
 30
0.0
 10
12.5961888003
 20
9.2039116258
 30
0.0
 10
12.5919317888
 20
9.1875199631
 30
0.0
 10
12.5875182414
 20
9.1717758888
 30
0.0
 10
12.5829593359
 20
9.1567175626
 30
0.0
 10
12.5782653659
 20
9.1423817994
 30
0.0
 10
12.5734483329
 20
9.1288031677
 30
0.0
 10
12.5685204814
 20
9.1160143166
 30
0.0
 10
12.5634928899
 20
9.1040464502
 30
0.0
 10
12.5583782968
 20
9.0929280925
 30
0.0
 10
12.5531896758
 20
9.0826854422
 30
0.0
 10
12.5479383529
 20
9.0733432198
 30
0.0
 10
12.5426372404
 20
9.064923074
 30
0.0
 10
12.5372988464
 20
9.0574434572
 30
0.0
 10
12.5319342881
 20
9.0509228766
 30
0.0
 10
12.528184607
 20
9.0470566066
 30
0.0
 10
12.5263047009
 20
9.0453070492
 30
0.0
  0
SPLINE
  5
362
100
AcDbEntity
  8
0
100
AcDbSpline
 62
7
  6
CONTINUOUS
 70
0
 71
3
 72
9
 73
5
 74
0
 42
0.0000001
 43
0.0000001
 44
0.0000000001
 40
0.0
 40
0.0
 40
0.0
 40
0.0
 40
0.472811613
 40
1.0
 40
1.0
 40
1.0
 40
1.0
 10
12.5277925467
 20
9.6349663176
 30
0.0
 10
12.5267563036
 20
9.6340018142
 30
0.0
 10
12.5246935143
 20
9.6318221208
 30
0.0
 10
12.5228502888
 20
9.629457884
 30
0.0
 10
12.5219260672
 20
9.6281782933
 30
0.0
  0
SPLINE
  5
363
100
AcDbEntity
  8
0
100
AcDbSpline
 62
7
  6
CONTINUOUS
 70
0
 71
3
 72
27
 73
23
 74
0
 42
0.0000001
 43
0.0000001
 44
0.0000000001
 40
0.0
 40
0.0
 40
0.0
 40
0.0
 40
0.0172741655
 40
0.0358180048
 40
0.0556316233
 40
0.0767049474
 40
0.0990223952
 40
0.122562874
 40
0.1472955395
 40
0.1731849196
 40
0.2282768739
 40
0.2874863661
 40
0.3504051482
 40
0.4165797491
 40
0.4855225363
 40
0.5567161505
 40
0.6296223794
 40
0.7036781592
 40
0.7783108998
 40
0.8529656588
 40
0.9270779667
 40
1.0
 40
1.0
 40
1.0
 40
1.0
 10
12.5215258096
 20
9.6276178568
 30
0.0
 10
12.5207702231
 20
9.6265480306
 30
0.0
 10
12.5192686159
 20
9.6242833298
 30
0.0
 10
12.5171125487
 20
9.6206563801
 30
0.0
 10
12.5149771575
 20
9.616686961
 30
0.0
 10
12.5128666939
 20
9.6123833692
 30
0.0
 10
12.5107855264
 20
9.6077540021
 30
0.0
 10
12.5087383145
 20
9.6028079603
 30
0.0
 10
12.5067288342
 20
9.5975555084
 30
0.0
 10
12.5040495458
 20
9.5900004957
 30
0.0
 10
12.5008423839
 20
9.5798628189
 30
0.0
 10
12.4972817293
 20
9.5669033273
 30
0.0
 10
12.4939640147
 20
9.5530142961
 30
0.0
 10
12.4909161766
 20
9.5383094471
 30
0.0
 10
12.4881643339
 20
9.5229087911
 30
0.0
 10
12.4857305235
 20
9.5069383672
 30
0.0
 10
12.4836359992
 20
9.4905291321
 30
0.0
 10
12.4818969063
 20
9.4738163123
 30
0.0
 10
12.4805285185
 20
9.4569360909
 30
0.0
 10
12.4795413021
 20
9.4400249684
 30
0.0
 10
12.4789448406
 20
9.4232254269
 30
0.0
 10
12.478807875
 20
9.4120767065
 30
0.0
 10
12.478807875
 20
9.4065476712
 30
0.0
  0
SPLINE
  5
364
100
AcDbEntity
  8
0
100
AcDbSpline
 62
7
  6
CONTINUOUS
 70
0
 71
3
 72
11
 73
7
 74
0
 42
0.0000001
 43
0.0000001
 44
0.0000000001
 40
0.0
 40
0.0
 40
0.0
 40
0.0
 40
0.2700422712
 40
0.5282184127
 40
0.7723546838
 40
1.0
 40
1.0
 40
1.0
 40
1.0
 10
12.5207783818
 20
9.2793243568
 30
0.0
 10
12.5182292596
 20
9.280405679
 30
0.0
 10
12.5132620318
 20
9.2825661533
 30
0.0
 10
12.506074744
 20
9.2858945849
 30
0.0
 10
12.4993778102
 20
9.2892401728
 30
0.0
 10
12.4951342536
 20
9.2915668622
 30
0.0
 10
12.4931177599
 20
9.292742653
 30
0.0
  0
SPLINE
  5
365
100
AcDbEntity
  8
0
100
AcDbSpline
 62
7
  6
CONTINUOUS
 70
0
 71
3
 72
15
 73
11
 74
0
 42
0.0000001
 43
0.0000001
 44
0.0000000001
 40
0.0
 40
0.0
 40
0.0
 40
0.0
 40
0.1492710171
 40
0.289709221
 40
0.4220222282
 40
0.547112762
 40
0.6660745533
 40
0.7801970517
 40
0.890959402
 40
1.0
 40
1.0
 40
1.0
 40
1.0
 10
12.5108126896
 20
9.0308887419
 30
0.0
 10
12.5096177272
 20
9.0297765583
 30
0.0
 10
12.5072294595
 20
9.027690191
 30
0.0
 10
12.5035362963
 20
9.024914691
 30
0.0
 10
12.4998480675
 20
9.0225960138
 30
0.0
 10
12.4961682777
 20
9.0207371329
 30
0.0
 10
12.4925001733
 20
9.0193410329
 30
0.0
 10
12.4888472784
 20
9.0184112251
 30
0.0
 10
12.4852150693
 20
9.0179516295
 30
0.0
 10
12.4828032098
 20
9.0179605264
 30
0.0
 10
12.4816135918
 20
9.0180431362
 30
0.0
  0
SPLINE
  5
366
100
AcDbEntity
  8
0
100
AcDbSpline
 62
7
  6
CONTINUOUS
 70
0
 71
3
 72
27
 73
23
 74
0
 42
0.0000001
 43
0.0000001
 44
0.0000000001
 40
0.0
 40
0.0
 40
0.0
 40
0.0
 40
0.0162147681
 40
0.0334280458
 40
0.0516718081
 40
0.0709698948
 40
0.0913394088
 40
0.1127892076
 40
0.1353216315
 40
0.1589353237
 40
0.209381896
 40
0.2640510775
 40
0.3228118294
 40
0.385501843
 40
0.4519210818
 40
0.5218507706
 40
0.5950377861
 40
0.6712138901
 40
0.7501030787
 40
0.8314227517
 40
0.9148505898
 40
1.0
 40
1.0
 40
1.0
 40
1.0
 10
12.5826487525
 20
9.8577752418
 30
0.0
 10
12.5836977605
 20
9.8564854984
 30
0.0
 10
12.5857719688
 20
9.8537538466
 30
0.0
 10
12.5887300918
 20
9.8493558908
 30
0.0
 10
12.591623336
 20
9.8445422789
 30
0.0
 10
12.5944486917
 20
9.8393179199
 30
0.0
 10
12.597203052
 20
9.833687669
 30
0.0
 10
12.5998837713
 20
9.8276574303
 30
0.0
 10
12.6024884183
 20
9.8212336886
 30
0.0
 10
12.6059322903
 20
9.8119468755
 30
0.0
 10
12.6100000631
 20
9.7993842049
 30
0.0
 10
12.6144358177
 20
9.7831732678
 30
0.0
 10
12.6185091029
 20
9.7655769654
 30
0.0
 10
12.6222011205
 20
9.7466685535
 30
0.0
 10
12.6254977203
 20
9.7265264105
 30
0.0
 10
12.6283826662
 20
9.7052350021
 30
0.0
 10
12.6308453099
 20
9.6828842444
 30
0.0
 10
12.6328739882
 20
9.6595679362
 30
0.0
 10
12.6344603156
 20
9.6353818687
 30
0.0
 10
12.6355972205
 20
9.6104263254
 30
0.0
 10
12.6362792687
 20
9.5848123249
 30
0.0
 10
12.6364285434
 20
9.5675278433
 30
0.0
 10
12.6364285434
 20
9.5587975546
 30
0.0
  0
SPLINE
  5
367
100
AcDbEntity
  8
0
100
AcDbSpline
 62
7
  6
CONTINUOUS
 70
0
 71
3
 72
15
 73
11
 74
0
 42
0.0000001
 43
0.0000001
 44
0.0000000001
 40
0.0
 40
0.0
 40
0.0
 40
0.0
 40
0.1090430419
 40
0.2198054539
 40
0.3339231994
 40
0.452887223
 40
0.5779880059
 40
0.7103070969
 40
0.8507361486
 40
1.0
 40
1.0
 40
1.0
 40
1.0
 10
12.5421495919
 20
9.8909457244
 30
0.0
 10
12.5433392221
 20
9.8908631137
 30
0.0
 10
12.5457291368
 20
9.8905385343
 30
0.0
 10
12.5492631238
 20
9.8895823711
 30
0.0
 10
12.5527530022
 20
9.8881581046
 30
0.0
 10
12.5561932316
 20
9.8862687885
 30
0.0
 10
12.5595809382
 20
9.8839191135
 30
0.0
 10
12.5629136211
 20
9.8811133115
 30
0.0
 10
12.566188669
 20
9.8778552076
 30
0.0
 10
12.5682661481
 20
9.8754594715
 30
0.0
 10
12.5692960766
 20
9.8741930536
 30
0.0
  0
SPLINE
  5
368
100
AcDbEntity
  8
0
100
AcDbSpline
 62
7
  6
CONTINUOUS
 70
0
 71
3
 72
39
 73
35
 74
0
 42
0.0000001
 43
0.0000001
 44
0.0000000001
 40
0.0
 40
0.0
 40
0.0
 40
0.0
 40
0.0154361115
 40
0.0224876968
 40
0.0291530353
 40
0.0354908597
 40
0.0415708915
 40
0.0474738374
 40
0.0532886797
 40
0.0591083756
 40
0.0650255691
 40
0.0711284028
 40
0.077496858
 40
0.0841996368
 40
0.0912942181
 40
0.1068282727
 40
0.1243883942
 40
0.1441303714
 40
0.1661343627
 40
0.1904268854
 40
0.2169874925
 40
0.2457720636
 40
0.2767086995
 40
0.3097043823
 40
0.3446553215
 40
0.3814374123
 40
0.4199177276
 40
0.4599540061
 40
0.5440630384
 40
0.6324568902
 40
0.723728931
 40
0.8163990409
 40
0.9090071575
 40
1.0
 40
1.0
 40
1.0
 40
1.0
 10
12.5027316942
 20
9.2735499609
 30
0.0
 10
12.5035928665
 20
9.2724911836
 30
0.0
 10
12.5049458317
 20
9.271020558
 30
0.0
 10
12.5069222401
 20
9.2693615131
 30
0.0
 10
12.5083840201
 20
9.2683525983
 30
0.0
 10
12.5098684275
 20
9.2675434043
 30
0.0
 10
12.5113743117
 20
9.2669360409
 30
0.0
 10
12.5128996727
 20
9.2665323416
 30
0.0
 10
12.5144419134
 20
9.266333117
 30
0.0
 10
12.5159982054
 20
9.2663388075
 30
0.0
 10
12.5175656911
 20
9.2665491916
 30
0.0
 10
12.5191418079
 20
9.2669636002
 30
0.0
 10
12.5207243086
 20
9.2675809232
 30
0.0
 10
12.5223117355
 20
9.2683990784
 30
0.0
 10
12.5244990721
 20
9.269798102
 30
0.0
 10
12.5272370241
 20
9.2720856431
 30
0.0
 10
12.530415468
 20
9.2755214574
 30
0.0
 10
12.5335772839
 20
9.2797134315
 30
0.0
 10
12.5367109181
 20
9.2846459418
 30
0.0
 10
12.539804216
 20
9.2903005809
 30
0.0
 10
12.5428458047
 20
9.29665408
 30
0.0
 10
12.5458216032
 20
9.303680807
 30
0.0
 10
12.5487192229
 20
9.3113511121
 30
0.0
 10
12.5515265915
 20
9.3196324681
 30
0.0
 10
12.5542304014
 20
9.3284898299
 30
0.0
 10
12.5568198679
 20
9.3378850977
 30
0.0
 10
12.5592834143
 20
9.3477780782
 30
0.0
 10
12.5624371995
 20
9.3618075158
 30
0.0
 10
12.5659668328
 20
9.3802703358
 30
0.0
 10
12.56948458
 20
9.403329961
 30
0.0
 10
12.5722886889
 20
9.4272493098
 30
0.0
 10
12.574331627
 20
9.4516193957
 30
0.0
 10
12.5755761584
 20
9.4760182648
 30
0.0
 10
12.5758649368
 20
9.4922524839
 30
0.0
 10
12.5758649368
 20
9.5002975994
 30
0.0
  0
SPLINE
  5
369
100
AcDbEntity
  8
0
100
AcDbSpline
 62
7
  6
CONTINUOUS
 70
0
 71
3
 72
33
 73
29
 74
0
 42
0.0000001
 43
0.0000001
 44
0.0000000001
 40
0.0
 40
0.0
 40
0.0
 40
0.0
 40
0.1056124641
 40
0.2076699554
 40
0.305167057
 40
0.39730514
 40
0.4833444468
 40
0.5625963551
 40
0.5994968149
 40
0.6344975976
 40
0.6675451558
 40
0.6986017549
 40
0.7276432097
 40
0.7546559499
 40
0.7796448267
 40
0.8026448944
 40
0.8237184754
 40
0.8429636001
 40
0.8605339137
 40
0.876650845
 40
0.8916117247
 40
0.9057992803
 40
0.9196709547
 40
0.9337159583
 40
0.9484055614
 40
0.9641484958
 40
0.9812663149
 40
1.0
 40
1.0
 40
1.0
 40
1.0
 10
12.5758649368
 20
9.5002975994
 30
0.0
 10
12.5758649368
 20
9.5061038163
 30
0.0
 10
12.5757177495
 20
9.5175214598
 30
0.0
 10
12.5750395373
 20
9.5342870089
 30
0.0
 10
12.5739114638
 20
9.5502862002
 30
0.0
 10
12.572346211
 20
9.5653639821
 30
0.0
 10
12.5703593927
 20
9.5793799898
 30
0.0
 10
12.5683235314
 20
9.5903126247
 30
0.0
 10
12.5664773551
 20
9.5984158214
 30
0.0
 10
12.5650334485
 20
9.6040028967
 30
0.0
 10
12.5635002028
 20
9.6092322701
 30
0.0
 10
12.5618814019
 20
9.6140918406
 30
0.0
 10
12.5601812537
 20
9.6185706114
 30
0.0
 10
12.5584035489
 20
9.6226581833
 30
0.0
 10
12.5565517043
 20
9.62634501
 30
0.0
 10
12.5546302732
 20
9.6296233511
 30
0.0
 10
12.5526431382
 20
9.632486422
 30
0.0
 10
12.5505928859
 20
9.634927545
 30
0.0
 10
12.5484820015
 20
9.6369408831
 30
0.0
 10
12.5463128603
 20
9.6385210895
 30
0.0
 10
12.5440872745
 20
9.6396605153
 30
0.0
 10
12.5418096943
 20
9.6403482302
 30
0.0
 10
12.5394911365
 20
9.6405769334
 30
0.0
 10
12.5371457507
 20
9.6403450141
 30
0.0
 10
12.534786388
 20
9.6396566569
 30
0.0
 10
12.5324209931
 20
9.6385203892
 30
0.0
 10
12.5300530188
 20
9.6369455018
 30
0.0
 10
12.5285464347
 20
9.6356680136
 30
0.0
 10
12.5277925467
 20
9.6349663176
 30
0.0
  0
SPLINE
  5
36A
100
AcDbEntity
  8
0
100
AcDbSpline
 62
7
  6
CONTINUOUS
 70
0
 71
3
 72
22
 73
18
 74
0
 42
0.0000001
 43
0.0000001
 44
0.0000000001
 40
0.0
 40
0.0
 40
0.0
 40
0.0
 40
0.0337174902
 40
0.0699203537
 40
0.1094317108
 40
0.1528956474
 40
0.2007843792
 40
0.2532992782
 40
0.3104967288
 40
0.3723061056
 40
0.4385118041
 40
0.5088414202
 40
0.5829955542
 40
0.6606567531
 40
0.7414892058
 40
0.8251786825
 40
1.0
 40
1.0
 40
1.0
 40
1.0
 10
12.513640648
 20
9.6139907023
 30
0.0
 10
12.5137391174
 20
9.613322792
 30
0.0
 10
12.5140664253
 20
9.6119535098
 30
0.0
 10
12.514916757
 20
9.6099254388
 30
0.0
 10
12.5161418895
 20
9.6078697763
 30
0.0
 10
12.5177438434
 20
9.6057897167
 30
0.0
 10
12.5197222538
 20
9.6036905946
 30
0.0
 10
12.5220653951
 20
9.6015727964
 30
0.0
 10
12.5247611427
 20
9.599441559
 30
0.0
 10
12.5277922094
 20
9.5973022174
 30
0.0
 10
12.5311358279
 20
9.5951571488
 30
0.0
 10
12.5347687387
 20
9.5930110414
 30
0.0
 10
12.5386667851
 20
9.5908673357
 30
0.0
 10
12.5428054514
 20
9.5887282819
 30
0.0
 10
12.5471610427
 20
9.5865958111
 30
0.0
 10
12.5533182891
 20
9.5837217292
 30
0.0
 10
12.5580610029
 20
9.5816459215
 30
0.0
 10
12.561283529
 20
9.5802789454
 30
0.0
  0
SPLINE
  5
36B
100
AcDbEntity
  8
0
100
AcDbSpline
 62
7
  6
CONTINUOUS
 70
0
 71
3
 72
23
 73
19
 74
0
 42
0.0000001
 43
0.0000001
 44
0.0000000001
 40
0.0
 40
0.0
 40
0.0
 40
0.0
 40
0.0715380803
 40
0.1420662077
 40
0.2114204066
 40
0.2794229154
 40
0.3459307263
 40
0.3785914714
 40
0.4108382928
 40
0.4740743968
 40
0.5357090605
 40
0.5959022604
 40
0.6549216844
 40
0.713070217
 40
0.7706661925
 40
0.8279754756
 40
0.8852230645
 40
1.0
 40
1.0
 40
1.0
 40
1.0
 10
12.561283529
 20
9.4057258663
 30
0.0
 10
12.5588123335
 20
9.4033984158
 30
0.0
 10
12.5539771955
 20
9.3986984758
 30
0.0
 10
12.5470513231
 20
9.3914364402
 30
0.0
 10
12.540565093
 20
9.3839988292
 30
0.0
 10
12.5345950975
 20
9.3763803719
 30
0.0
 10
12.53009431
 20
9.3698401037
 30
0.0
 10
12.5268403921
 20
9.3645187491
 30
0.0
 10
12.5238680256
 20
9.3592125281
 30
0.0
 10
12.5206255399
 20
9.3524879827
 30
0.0
 10
12.5175318004
 20
9.3442554807
 30
0.0
 10
12.5153064446
 20
9.3359527935
 30
0.0
 10
12.5139391369
 20
9.3276342864
 30
0.0
 10
12.5134067708
 20
9.3193455085
 30
0.0
 10
12.5136401773
 20
9.3111261571
 30
0.0
 10
12.5145696164
 20
9.3030008259
 30
0.0
 10
12.516624072
 20
9.2923061424
 30
0.0
 10
12.5189648957
 20
9.2844600554
 30
0.0
 10
12.5207783818
 20
9.2793243568
 30
0.0
  0
SPLINE
  5
36C
100
AcDbEntity
  8
0
100
AcDbSpline
 62
7
  6
CONTINUOUS
 70
0
 71
3
 72
42
 73
38
 74
0
 42
0.0000001
 43
0.0000001
 44
0.0000000001
 40
0.0
 40
0.0
 40
0.0
 40
0.0
 40
0.0187317918
 40
0.0358459152
 40
0.0515845466
 40
0.0590428417
 40
0.0662861262
 40
0.0733677281
 40
0.0803453143
 40
0.0872795313
 40
0.0942320619
 40
0.1012639729
 40
0.1084341789
 40
0.1157981619
 40
0.1234068684
 40
0.1395232976
 40
0.1570935977
 40
0.1763381572
 40
0.1974103033
 40
0.2204090452
 40
0.2453978239
 40
0.2724087099
 40
0.3014466849
 40
0.3325019809
 40
0.3655490216
 40
0.4005455813
 40
0.4374423964
 40
0.4761812502
 40
0.5166921647
 40
0.5589011869
 40
0.6027280303
 40
0.6480815212
 40
0.6948675949
 40
0.7429904044
 40
0.7923516885
 40
0.8943811518
 40
1.0
 40
1.0
 40
1.0
 40
1.0
 10
12.5263047009
 20
9.0453070492
 30
0.0
 10
12.5246099217
 20
9.0437297825
 30
0.0
 10
12.5212234798
 20
9.0408578621
 30
0.0
 10
12.5159012583
 20
9.0373187706
 30
0.0
 10
12.5113896388
 20
9.035154661
 30
0.0
 10
12.5078177311
 20
9.0339601512
 30
0.0
 10
12.505196274
 20
9.0333306022
 30
0.0
 10
12.5025867223
 20
9.0329528088
 30
0.0
 10
12.4999909793
 20
9.0328276439
 30
0.0
 10
12.4974112552
 20
9.0329550094
 30
0.0
 10
12.4948496882
 20
9.0333346326
 30
0.0
 10
12.4923083669
 20
9.0339659995
 30
0.0
 10
12.4897892594
 20
9.0348484046
 30
0.0
 10
12.4872940585
 20
9.0359811308
 30
0.0
 10
12.4839375883
 20
9.0378595921
 30
0.0
 10
12.4797963202
 20
9.0408769362
 30
0.0
 10
12.4750523202
 20
9.0454034954
 30
0.0
 10
12.4704433851
 20
9.050891796
 30
0.0
 10
12.4659764678
 20
9.0573281681
 30
0.0
 10
12.4616571755
 20
9.0646982549
 30
0.0
 10
12.4574949877
 20
9.0729868936
 30
0.0
 10
12.4534988487
 20
9.0821758355
 30
0.0
 10
12.4496766651
 20
9.092243957
 30
0.0
 10
12.4460381214
 20
9.1031686191
 30
0.0
 10
12.4425921137
 20
9.1149245838
 30
0.0
 10
12.4393458594
 20
9.1274840677
 30
0.0
 10
12.4363077427
 20
9.1408177622
 30
0.0
 10
12.4334854843
 20
9.1548943825
 30
0.0
 10
12.4308849833
 20
9.1696805783
 30
0.0
 10
12.4285129543
 20
9.1851415251
 30
0.0
 10
12.4263756269
 20
9.2012405139
 30
0.0
 10
12.4244772719
 20
9.2179388031
 30
0.0
 10
12.4228227325
 20
9.2351964034
 30
0.0
 10
12.4214164954
 20
9.2529729042
 30
0.0
 10
12.4198591561
 20
9.2775836587
 30
0.0
 10
12.4185746676
 20
9.3093277677
 30
0.0
 10
12.4182442685
 20
9.3349936321
 30
0.0
 10
12.4182442685
 20
9.348047716
 30
0.0
  0
SPLINE
  5
36D
100
AcDbEntity
  8
0
100
AcDbSpline
 62
7
  6
CONTINUOUS
 70
0
 71
3
 72
15
 73
11
 74
0
 42
0.0000001
 43
0.0000001
 44
0.0000000001
 40
0.0
 40
0.0
 40
0.0
 40
0.0
 40
0.1267942165
 40
0.1899740074
 40
0.2529877155
 40
0.3785490277
 40
0.503585981
 40
0.6281816751
 40
0.7524135231
 40
1.0
 40
1.0
 40
1.0
 40
1.0
 10
12.5378978507
 20
9.4946242082
 30
0.0
 10
12.5378978507
 20
9.4984133504
 30
0.0
 10
12.5381131643
 20
9.5040935599
 30
0.0
 10
12.5388227012
 20
9.5116217504
 30
0.0
 10
12.5398062539
 20
9.5190822497
 30
0.0
 10
12.54153145
 20
9.5283026356
 30
0.0
 10
12.5443339742
 20
9.5391668417
 30
0.0
 10
12.5477833114
 20
9.5498005744
 30
0.0
 10
12.5531302925
 20
9.5636442101
 30
0.0
 10
12.5578805691
 20
9.5737090218
 30
0.0
 10
12.561283529
 20
9.5802789454
 30
0.0
  0
SPLINE
  5
36E
100
AcDbEntity
  8
0
100
AcDbSpline
 62
7
  6
CONTINUOUS
 70
0
 71
3
 72
14
 73
10
 74
0
 42
0.0000001
 43
0.0000001
 44
0.0000000001
 40
0.0
 40
0.0
 40
0.0
 40
0.0
 40
0.2522654334
 40
0.5033485803
 40
0.6283249275
 40
0.7527968467
 40
0.8148343934
 40
0.8767298576
 40
1.0
 40
1.0
 40
1.0
 40
1.0
 10
12.561283529
 20
9.4057258663
 30
0.0
 10
12.5578919939
 20
9.4127441402
 30
0.0
 10
12.5515816838
 20
9.4269765622
 30
0.0
 10
12.5452845983
 20
9.4453803447
 30
0.0
 10
12.5415416481
 20
9.4603953271
 30
0.0
 10
12.5398106225
 20
9.4698710351
 30
0.0
 10
12.5388242624
 20
9.4774844107
 30
0.0
 10
12.538115866
 20
9.485090991
 30
0.0
 10
12.5378978507
 20
9.4908152666
 30
0.0
 10
12.5378978507
 20
9.4946242082
 30
0.0
  0
SPLINE
  5
36F
100
AcDbEntity
  8
0
100
AcDbSpline
 62
7
  6
CONTINUOUS
 70
0
 71
3
 72
46
 73
42
 74
0
 42
0.0000001
 43
0.0000001
 44
0.0000000001
 40
0.0
 40
0.0
 40
0.0
 40
0.0
 40
0.0432633845
 40
0.0870807762
 40
0.1756765128
 40
0.2645365654
 40
0.3524521576
 40
0.3956740746
 40
0.4382063385
 40
0.4799034301
 40
0.5206248519
 40
0.5602322888
 40
0.5985948919
 40
0.6355870339
 40
0.6710890565
 40
0.7049918297
 40
0.737191438
 40
0.7675976355
 40
0.7961300391
 40
0.8227214048
 40
0.8473238675
 40
0.8588692426
 40
0.8699076574
 40
0.8804400186
 40
0.8904688119
 40
0.8999984497
 40
0.9090358896
 40
0.9175923185
 40
0.9256829434
 40
0.9333270583
 40
0.9405489368
 40
0.9473790315
 40
0.9538557899
 40
0.96002556
 40
0.9659426907
 40
0.9716695525
 40
0.9772757777
 40
0.9828362687
 40
0.9884276988
 40
0.9941252889
 40
1.0
 40
1.0
 40
1.0
 40
1.0
 10
12.4182442685
 20
9.348047716
 30
0.0
 10
12.4182442685
 20
9.3563525032
 30
0.0
 10
12.4183815856
 20
9.3730687487
 30
0.0
 10
12.4191906684
 20
9.406782757
 30
0.0
 10
12.4211981887
 20
9.4492179821
 30
0.0
 10
12.4251433837
 20
9.5000126646
 30
0.0
 10
12.4296940697
 20
9.5420047801
 30
0.0
 10
12.4340757605
 20
9.5750542258
 30
0.0
 10
12.4376862063
 20
9.5992529302
 30
0.0
 10
12.4416267573
 20
9.6229136144
 30
0.0
 10
12.4458815609
 20
9.6459491993
 30
0.0
 10
12.4504359662
 20
9.6682746419
 30
0.0
 10
12.4552724609
 20
9.6898076894
 30
0.0
 10
12.4603728473
 20
9.7104691019
 30
0.0
 10
12.4657191629
 20
9.7301827511
 30
0.0
 10
12.471290014
 20
9.7488763816
 30
0.0
 10
12.4770661688
 20
9.7664812642
 30
0.0
 10
12.483025156
 20
9.7829331021
 30
0.0
 10
12.4891448671
 20
9.7981722193
 30
0.0
 10
12.4954036523
 20
9.8121427106
 30
0.0
 10
12.5008234817
 20
9.8229038172
 30
0.0
 10
12.505227552
 20
9.83082013
 30
0.0
 10
12.5084807854
 20
9.8362827377
 30
0.0
 10
12.5117512526
 20
9.8413927314
 30
0.0
 10
12.515036087
 20
9.8461455873
 30
0.0
 10
12.5183323436
 20
9.8505368739
 30
0.0
 10
12.5216374563
 20
9.8545622786
 30
0.0
 10
12.5249484445
 20
9.8582183684
 30
0.0
 10
12.5282624258
 20
9.8615022422
 30
0.0
 10
12.5315767683
 20
9.8644109959
 30
0.0
 10
12.5348889527
 20
9.8669417017
 30
0.0
 10
12.538196838
 20
9.8690911863
 30
0.0
 10
12.5414977893
 20
9.8708572356
 30
0.0
 10
12.5447892271
 20
9.8722377686
 30
0.0
 10
12.5480683892
 20
9.8732303246
 30
0.0
 10
12.5513319911
 20
9.8738322496
 30
0.0
 10
12.5545759961
 20
9.8740408192
 30
0.0
 10
12.5577955319
 20
9.8738556434
 30
0.0
 10
12.5609858795
 20
9.8732773193
 30
0.0
 10
12.5641420809
 20
9.8723074732
 30
0.0
 10
12.5661831064
 20
9.8714176218
 30
0.0
 10
12.5671922392
 20
9.870914269
 30
0.0
  0
SPLINE
  5
370
100
AcDbEntity
  8
0
100
AcDbSpline
 62
7
  6
CONTINUOUS
 70
0
 71
3
 72
11
 73
7
 74
0
 42
0.0000001
 43
0.0000001
 44
0.0000000001
 40
0.0
 40
0.0
 40
0.0
 40
0.0
 40
0.2252265463
 40
0.4652681436
 40
0.7228212449
 40
1.0
 40
1.0
 40
1.0
 40
1.0
 10
12.5671922392
 20
9.870914269
 30
0.0
 10
12.5685646754
 20
9.8702297016
 30
0.0
 10
12.5713029249
 20
9.8686152318
 30
0.0
 10
12.5752178194
 20
9.8656157866
 30
0.0
 10
12.579051622
 20
9.861979194
 30
0.0
 10
12.581457785
 20
9.8592395226
 30
0.0
 10
12.5826487525
 20
9.8577752418
 30
0.0
  0
SPLINE
  5
371
100
AcDbEntity
  8
0
100
AcDbSpline
 62
7
  6
CONTINUOUS
 70
0
 71
3
 72
45
 73
41
 74
0
 42
0.0000001
 43
0.0000001
 44
0.0000000001
 40
0.0
 40
0.0
 40
0.0
 40
0.0
 40
0.0417575935
 40
0.0840304013
 40
0.1695104933
 40
0.2553475731
 40
0.2980777921
 40
0.340503244
 40
0.3824913988
 40
0.423913659
 40
0.4646425167
 40
0.5045541318
 40
0.543527682
 40
0.5814448034
 40
0.6181943234
 40
0.6536679755
 40
0.6877639067
 40
0.7203883841
 40
0.7514517991
 40
0.7808763831
 40
0.808592311
 40
0.8345396461
 40
0.8586752038
 40
0.8809675081
 40
0.8914197386
 40
0.9014100262
 40
0.9109410936
 40
0.9200173584
 40
0.9286456292
 40
0.9368364183
 40
0.9446033906
 40
0.9519636436
 40
0.9589384152
 40
0.9655540144
 40
0.9718433259
 40
0.9778457232
 40
0.9836071005
 40
0.9891799777
 40
0.9946230461
 40
1.0
 40
1.0
 40
1.0
 40
1.0
 10
12.398648353
 20
9.3451195141
 30
0.0
 10
12.398648353
 20
9.3532781483
 30
0.0
 10
12.3987760318
 20
9.3696963623
 30
0.0
 10
12.399529094
 20
9.402807873
 30
0.0
 10
12.4013994696
 20
9.4445036201
 30
0.0
 10
12.4044707347
 20
9.4862175716
 30
0.0
 10
12.4076445737
 20
9.5194761722
 30
0.0
 10
12.4103652493
 20
9.544169147
 30
0.0
 10
12.4134213962
 20
9.5685653026
 30
0.0
 10
12.4168017346
 20
9.5925839998
 30
0.0
 10
12.4204959166
 20
9.6161458955
 30
0.0
 10
12.4244914221
 20
9.6391731957
 30
0.0
 10
12.4287743895
 20
9.6615897932
 30
0.0
 10
12.4333317526
 20
9.6833214428
 30
0.0
 10
12.4381471693
 20
9.7042964587
 30
0.0
 10
12.4432051275
 20
9.7244455655
 30
0.0
 10
12.4484891725
 20
9.7437022268
 30
0.0
 10
12.4539805118
 20
9.7620031677
 30
0.0
 10
12.4596622512
 20
9.7792879486
 30
0.0
 10
12.4655145309
 20
9.7955000182
 30
0.0
 10
12.4715177176
 20
9.8105864299
 30
0.0
 10
12.4776531385
 20
9.8244978924
 30
0.0
 10
12.4838987677
 20
9.8371896043
 30
0.0
 10
12.4892892905
 20
9.8469148012
 30
0.0
 10
12.4936568725
 20
9.8540323101
 30
0.0
 10
12.4968769191
 20
9.8589251512
 30
0.0
 10
12.5001093287
 20
9.8634841601
 30
0.0
 10
12.503351625
 20
9.8677054335
 30
0.0
 10
12.5066015155
 20
9.8715852654
 30
0.0
 10
12.5098562731
 20
9.8751208192
 30
0.0
 10
12.5131134093
 20
9.8783095409
 30
0.0
 10
12.5163705701
 20
9.8811488655
 30
0.0
 10
12.5196254879
 20
9.8836362088
 30
0.0
 10
12.5228762193
 20
9.8857687863
 30
0.0
 10
12.5261204
 20
9.8875446623
 30
0.0
 10
12.5293557203
 20
9.8889621177
 30
0.0
 10
12.5325797337
 20
9.8900191338
 30
0.0
 10
12.535789818
 20
9.8907135457
 30
0.0
 10
12.5389821591
 20
9.8910429888
 30
0.0
 10
12.5411015619
 20
9.8910185021
 30
0.0
 10
12.5421495919
 20
9.8909457244
 30
0.0
  0
SPLINE
  5
372
100
AcDbEntity
  8
0
100
AcDbSpline
 62
7
  6
CONTINUOUS
 70
0
 71
3
 72
33
 73
29
 74
0
 42
0.0000001
 43
0.0000001
 44
0.0000000001
 40
0.0
 40
0.0
 40
0.0
 40
0.0
 40
0.0126611888
 40
0.0256295287
 40
0.0391901271
 40
0.0535893906
 40
0.0690270472
 40
0.085660288
 40
0.1036096796
 40
0.1229611838
 40
0.1437743872
 40
0.1660905802
 40
0.1899351902
 40
0.2153165822
 40
0.2422333065
 40
0.2706771934
 40
0.3006309966
 40
0.3320682151
 40
0.3649585931
 40
0.3992686535
 40
0.4349577585
 40
0.4719806448
 40
0.5498346311
 40
0.6324085829
 40
0.7192284608
 40
0.8098024865
 40
0.9036089119
 40
1.0
 40
1.0
 40
1.0
 40
1.0
 10
12.4816135918
 20
9.0180431362
 30
0.0
 10
12.4801313357
 20
9.0181460676
 30
0.0
 10
12.4771425892
 20
9.0186018479
 30
0.0
 10
12.4727479503
 20
9.0200160054
 30
0.0
 10
12.4684299775
 20
9.0221562567
 30
0.0
 10
12.4641975474
 20
9.0250123285
 30
0.0
 10
12.4600539078
 20
9.0285740208
 30
0.0
 10
12.4560028842
 20
9.0328337948
 30
0.0
 10
12.4520492367
 20
9.0377849688
 30
0.0
 10
12.4481968951
 20
9.0434190255
 30
0.0
 10
12.4444504953
 20
9.0497269669
 30
0.0
 10
12.4408156943
 20
9.0566995036
 30
0.0
 10
12.4372985669
 20
9.0643261226
 30
0.0
 10
12.4339038236
 20
9.0725942709
 30
0.0
 10
12.4306368773
 20
9.0814906815
 30
0.0
 10
12.4275035539
 20
9.0910014154
 30
0.0
 10
12.4245090843
 20
9.1011110849
 30
0.0
 10
12.4216578359
 20
9.1118028683
 30
0.0
 10
12.4189546305
 20
9.1230593371
 30
0.0
 10
12.416404538
 20
9.1348623373
 30
0.0
 10
12.4140114208
 20
9.1471924615
 30
0.0
 10
12.4109840621
 20
9.1646014711
 30
0.0
 10
12.4076473375
 20
9.1875364552
 30
0.0
 10
12.4043870927
 20
9.2163721319
 30
0.0
 10
12.4018296889
 20
9.2467765596
 30
0.0
 10
12.399992031
 20
9.2785529471
 30
0.0
 10
12.3988886414
 20
9.3114866842
 30
0.0
 10
12.398648353
 20
9.3338077523
 30
0.0
 10
12.398648353
 20
9.3451195141
 30
0.0
  0
SPLINE
  5
373
100
AcDbEntity
  8
0
100
AcDbSpline
 62
7
  6
CONTINUOUS
 70
0
 71
3
 72
51
 73
47
 74
0
 42
0.0000001
 43
0.0000001
 44
0.0000000001
 40
0.0
 40
0.0
 40
0.0
 40
0.0
 40
0.0417745182
 40
0.0840381526
 40
0.1266602401
 40
0.1695088421
 40
0.2124510407
 40
0.2553535857
 40
0.2980833694
 40
0.3405079697
 40
0.3824961696
 40
0.4239184888
 40
0.4646477158
 40
0.5045594497
 40
0.543532651
 40
0.5814502093
 40
0.6181995334
 40
0.6536731755
 40
0.6877695033
 40
0.7203934427
 40
0.7514573218
 40
0.7663795148
 40
0.7808827261
 40
0.7949585461
 40
0.8085992857
 40
0.8217979826
 40
0.8345485116
 40
0.8468456263
 40
0.8586850779
 40
0.8700637036
 40
0.8809795661
 40
0.8914321058
 40
0.9014223196
 40
0.9109530019
 40
0.9200289921
 40
0.9286575381
 40
0.9368486523
 40
0.9446156358
 40
0.9519755804
 40
0.9589500677
 40
0.9655657995
 40
0.9778459317
 40
0.9836071722
 40
0.9891799125
 40
0.9946230091
 40
1.0
 40
1.0
 40
1.0
 40
1.0
 10
12.3726649289
 20
9.3260214522
 30
0.0
 10
12.3726649289
 20
9.3356385531
 30
0.0
 10
12.372814968
 20
9.3549856587
 30
0.0
 10
12.3734782523
 20
9.3841381533
 30
0.0
 10
12.3745791522
 20
9.4135248944
 30
0.0
 10
12.3761140442
 20
9.4430485573
 30
0.0
 10
12.3780778664
 20
9.4726115007
 30
0.0
 10
12.3804641221
 20
9.5021159064
 30
0.0
 10
12.3832649089
 20
9.531464166
 30
0.0
 10
12.3864709411
 20
9.5605591867
 30
0.0
 10
12.3900715822
 20
9.5893047205
 30
0.0
 10
12.3940548785
 20
9.6176056833
 30
0.0
 10
12.3984075986
 20
9.6453684736
 30
0.0
 10
12.403115276
 20
9.6725012848
 30
0.0
 10
12.4081622564
 20
9.6989144149
 30
0.0
 10
12.4135317482
 20
9.7245205669
 30
0.0
 10
12.4192058764
 20
9.7492351523
 30
0.0
 10
12.4251657436
 20
9.7729765581
 30
0.0
 10
12.4313914831
 20
9.7956665132
 30
0.0
 10
12.437862359
 20
9.817230079
 30
0.0
 10
12.4435140701
 20
9.8344247708
 30
0.0
 10
12.4481519792
 20
9.8475557381
 30
0.0
 10
12.4516315657
 20
9.8569468768
 30
0.0
 10
12.4551560479
 20
9.8660054347
 30
0.0
 10
12.4587225224
 20
9.8747239548
 30
0.0
 10
12.4623280387
 20
9.8830952519
 30
0.0
 10
12.4659696071
 20
9.89111244
 30
0.0
 10
12.4696442234
 20
9.8987689298
 30
0.0
 10
12.4733488522
 20
9.9060584402
 30
0.0
 10
12.4770804448
 20
9.9129750028
 30
0.0
 10
12.4808359408
 20
9.9195129665
 30
0.0
 10
12.484612268
 20
9.925667009
 30
0.0
 10
12.4884063681
 20
9.931432131
 30
0.0
 10
12.4922151768
 20
9.9368036769
 30
0.0
 10
12.4960356759
 20
9.9417773113
 30
0.0
 10
12.4998648623
 20
9.9463490557
 30
0.0
 10
12.5036997958
 20
9.9505152173
 30
0.0
 10
12.5075376676
 20
9.9542724986
 30
0.0
 10
12.5113754514
 20
9.9576176638
 30
0.0
 10
12.5152113919
 20
9.9605483786
 30
0.0
 10
12.5201932329
 20
9.9638172577
 30
0.0
 10
12.5253009376
 20
9.9663736862
 30
0.0
 10
12.5304745133
 20
9.9680693594
 30
0.0
 10
12.5342571285
 20
9.9688871142
 30
0.0
 10
12.5380185272
 20
9.9692753403
 30
0.0
 10
12.5405158167
 20
9.9692467831
 30
0.0
 10
12.5417507117
 20
9.9691611372
 30
0.0
  0
SPLINE
  5
374
100
AcDbEntity
  8
0
100
AcDbSpline
 62
7
  6
CONTINUOUS
 70
0
 71
3
 72
46
 73
42
 74
0
 42
0.0000001
 43
0.0000001
 44
0.0000000001
 40
0.0
 40
0.0
 40
0.0
 40
0.0
 40
0.0840358155
 40
0.1695038657
 40
0.2553461646
 40
0.2980758532
 40
0.3405003594
 40
0.382488464
 40
0.4239106884
 40
0.4646398251
 40
0.5045514761
 40
0.5435246025
 40
0.5814420909
 40
0.6181913426
 40
0.6536649091
 40
0.6877611648
 40
0.7203850417
 40
0.751448871
 40
0.7808733741
 40
0.8085888695
 40
0.8345368019
 40
0.8468338779
 40
0.8586733281
 40
0.8700519371
 40
0.8809677801
 40
0.8914203277
 40
0.9014105083
 40
0.910941208
 40
0.920017169
 40
0.928645721
 40
0.9368368282
 40
0.9446037978
 40
0.951963758
 40
0.9589382177
 40
0.9655539713
 40
0.971843516
 40
0.9778459691
 40
0.9836071969
 40
0.9891799317
 40
0.9946230211
 40
1.0
 40
1.0
 40
1.0
 40
1.0
 10
12.0166596308
 20
8.6807778094
 30
0.0
 10
12.0166596308
 20
8.691923979
 30
0.0
 10
12.0170093983
 20
8.7144076005
 30
0.0
 10
12.0185273202
 20
8.7482459639
 30
0.0
 10
12.0206120627
 20
8.7765630617
 30
0.0
 10
12.0227666744
 20
8.7991414167
 30
0.0
 10
12.024613818
 20
8.8159042307
 30
0.0
 10
12.0266882836
 20
8.8324656559
 30
0.0
 10
12.0289832189
 20
8.8487709556
 30
0.0
 10
12.0314909906
 20
8.8647661917
 30
0.0
 10
12.0342032667
 20
8.880398475
 30
0.0
 10
12.0371110277
 20
8.8956161234
 30
0.0
 10
12.0402046001
 20
8.9103688411
 30
0.0
 10
12.0434736874
 20
8.9246078888
 30
0.0
 10
12.0469074008
 20
8.9382862544
 30
0.0
 10
12.050494296
 20
8.9513588147
 30
0.0
 10
12.054222414
 20
8.9637825021
 30
0.0
 10
12.058079324
 20
8.9755164337
 30
0.0
 10
12.0620521669
 20
8.9865221651
 30
0.0
 10
12.0661277234
 20
8.9967635133
 30
0.0
 10
12.0696587342
 20
9.0047708004
 30
0.0
 10
12.0725331843
 20
9.010760235
 30
0.0
 10
12.074667578
 20
9.0149600176
 30
0.0
 10
12.0768174912
 20
9.0189449266
 30
0.0
 10
12.0789811873
 20
9.0227117082
 30
0.0
 10
12.0811568643
 20
9.0262573065
 30
0.0
 10
12.0833428118
 20
9.0295788182
 30
0.0
 10
12.0855371974
 20
9.0326735934
 30
0.0
 10
12.0877383532
 20
9.0355390979
 30
0.0
 10
12.089944487
 20
9.0381730702
 30
0.0
 10
12.0921539507
 20
9.0405733722
 30
0.0
 10
12.0943650815
 20
9.0427380739
 30
0.0
 10
12.0965762574
 20
9.0446654296
 30
0.0
 10
12.0987859867
 20
9.0463537465
 30
0.0
 10
12.1009927031
 20
9.0478015766
 30
0.0
 10
12.1031950036
 20
9.0490073413
 30
0.0
 10
12.105391315
 20
9.0499696824
 30
0.0
 10
12.1075799937
 20
9.0506870856
 30
0.0
 10
12.1097592095
 20
9.0511581928
 30
0.0
 10
12.1119263249
 20
9.0513818952
 30
0.0
 10
12.1133651069
 20
9.0513654356
 30
0.0
 10
12.1140765786
 20
9.0513160931
 30
0.0
  0
SPLINE
  5
375
100
AcDbEntity
  8
0
100
AcDbSpline
 62
7
  6
CONTINUOUS
 70
0
 71
3
 72
46
 73
42
 74
0
 42
0.0000001
 43
0.0000001
 44
0.0000000001
 40
0.0
 40
0.0
 40
0.0
 40
0.0
 40
0.0840358155
 40
0.1695038657
 40
0.2553461646
 40
0.2980758532
 40
0.3405003594
 40
0.382488464
 40
0.4239106884
 40
0.4646398251
 40
0.5045514761
 40
0.5435246025
 40
0.5814420909
 40
0.6181913426
 40
0.6536649091
 40
0.6877611648
 40
0.7203850417
 40
0.751448871
 40
0.7808733741
 40
0.8085888695
 40
0.8345368019
 40
0.8468338779
 40
0.8586733281
 40
0.8700519371
 40
0.8809677801
 40
0.8914203277
 40
0.9014105083
 40
0.910941208
 40
0.920017169
 40
0.928645721
 40
0.9368368282
 40
0.9446037978
 40
0.951963758
 40
0.9589382177
 40
0.9655539713
 40
0.971843516
 40
0.9778459691
 40
0.9836071969
 40
0.9891799317
 40
0.9946230211
 40
1.0
 40
1.0
 40
1.0
 40
1.0
 10
12.0166596308
 20
6.9904076284
 30
0.0
 10
12.0166596308
 20
7.001553798
 30
0.0
 10
12.0170093983
 20
7.0240374195
 30
0.0
 10
12.0185273202
 20
7.0578757829
 30
0.0
 10
12.0206120627
 20
7.0861928807
 30
0.0
 10
12.0227666744
 20
7.1087712357
 30
0.0
 10
12.024613818
 20
7.1255340497
 30
0.0
 10
12.0266882836
 20
7.1420954749
 30
0.0
 10
12.0289832189
 20
7.1584007746
 30
0.0
 10
12.0314909906
 20
7.1743960107
 30
0.0
 10
12.0342032667
 20
7.190028294
 30
0.0
 10
12.0371110277
 20
7.2052459424
 30
0.0
 10
12.0402046001
 20
7.2199986601
 30
0.0
 10
12.0434736874
 20
7.2342377078
 30
0.0
 10
12.0469074008
 20
7.2479160734
 30
0.0
 10
12.050494296
 20
7.2609886337
 30
0.0
 10
12.054222414
 20
7.2734123211
 30
0.0
 10
12.058079324
 20
7.2851462527
 30
0.0
 10
12.0620521669
 20
7.2961519841
 30
0.0
 10
12.0661277234
 20
7.3063933322
 30
0.0
 10
12.0696587342
 20
7.3144006194
 30
0.0
 10
12.0725331843
 20
7.320390054
 30
0.0
 10
12.074667578
 20
7.3245898366
 30
0.0
 10
12.0768174912
 20
7.3285747456
 30
0.0
 10
12.0789811873
 20
7.3323415272
 30
0.0
 10
12.0811568643
 20
7.3358871255
 30
0.0
 10
12.0833428118
 20
7.3392086371
 30
0.0
 10
12.0855371974
 20
7.3423034124
 30
0.0
 10
12.0877383532
 20
7.3451689169
 30
0.0
 10
12.089944487
 20
7.3478028892
 30
0.0
 10
12.0921539507
 20
7.3502031912
 30
0.0
 10
12.0943650815
 20
7.3523678928
 30
0.0
 10
12.0965762574
 20
7.3542952486
 30
0.0
 10
12.0987859867
 20
7.3559835655
 30
0.0
 10
12.1009927031
 20
7.3574313956
 30
0.0
 10
12.1031950036
 20
7.3586371603
 30
0.0
 10
12.105391315
 20
7.3595995014
 30
0.0
 10
12.1075799937
 20
7.3603169046
 30
0.0
 10
12.1097592095
 20
7.3607880118
 30
0.0
 10
12.1119263249
 20
7.3610117142
 30
0.0
 10
12.1133651069
 20
7.3609952546
 30
0.0
 10
12.1140765786
 20
7.3609459121
 30
0.0
  0
SPLINE
  5
376
100
AcDbEntity
  8
0
100
AcDbSpline
 62
7
  6
CONTINUOUS
 70
0
 71
3
 72
23
 73
19
 74
0
 42
0.0000001
 43
0.0000001
 44
0.0000000001
 40
0.0
 40
0.0
 40
0.0
 40
0.0
 40
0.0637775561
 40
0.1273446565
 40
0.1907020307
 40
0.2538561431
 40
0.3168131834
 40
0.3795821015
 40
0.4421733894
 40
0.5045993415
 40
0.5668738676
 40
0.6290123791
 40
0.6910316472
 40
0.7529496401
 40
0.8147853492
 40
0.8765585998
 40
0.9382898533
 40
1.0
 40
1.0
 40
1.0
 40
1.0
 10
10.3305043666
 20
8.6715020103
 30
0.0
 10
10.3305043666
 20
8.6623989515
 30
0.0
 10
10.3300686821
 20
8.644219787
 30
0.0
 10
10.3281020793
 20
8.6170615765
 30
0.0
 10
10.32482777
 20
8.5901187193
 30
0.0
 10
10.3202534364
 20
8.5634542959
 30
0.0
 10
10.3143894183
 20
8.5371294064
 30
0.0
 10
10.3072492426
 20
8.5112048549
 30
0.0
 10
10.298849274
 20
8.485740382
 30
0.0
 10
10.2892088269
 20
8.4607947201
 30
0.0
 10
10.2783500823
 20
8.4364253976
 30
0.0
 10
10.2662980359
 20
8.4126886216
 30
0.0
 10
10.2530804444
 20
8.3896391501
 30
0.0
 10
10.2387277415
 20
8.3673301459
 30
0.0
 10
10.2232730472
 20
8.3458131251
 30
0.0
 10
10.2067518011
 20
8.3251375662
 30
0.0
 10
10.1892027615
 20
8.3053518052
 30
0.0
 10
10.1768428217
 20
8.2927826429
 30
0.0
 10
10.1705076379
 20
8.2866633406
 30
0.0
  0
SPLINE
  5
377
100
AcDbEntity
  8
0
100
AcDbSpline
 62
7
  6
CONTINUOUS
 70
0
 71
3
 72
23
 73
19
 74
0
 42
0.0000001
 43
0.0000001
 44
0.0000000001
 40
0.0
 40
0.0
 40
0.0
 40
0.0
 40
0.0637775561
 40
0.1273446565
 40
0.1907020307
 40
0.2538561431
 40
0.3168131834
 40
0.3795821015
 40
0.4421733894
 40
0.5045993415
 40
0.5668738676
 40
0.6290123791
 40
0.6910316472
 40
0.7529496401
 40
0.8147853492
 40
0.8765585998
 40
0.9382898533
 40
1.0
 40
1.0
 40
1.0
 40
1.0
 10
10.2406732645
 20
7.2896962887
 30
0.0
 10
10.2406732645
 20
7.28059323
 30
0.0
 10
10.24023758
 20
7.2624140655
 30
0.0
 10
10.2382709772
 20
7.235255855
 30
0.0
 10
10.2349966679
 20
7.2083129977
 30
0.0
 10
10.2304223343
 20
7.1816485744
 30
0.0
 10
10.2245583162
 20
7.1553236848
 30
0.0
 10
10.2174181405
 20
7.1293991334
 30
0.0
 10
10.2090181719
 20
7.1039346605
 30
0.0
 10
10.1993777248
 20
7.0789889986
 30
0.0
 10
10.1885189802
 20
7.054619676
 30
0.0
 10
10.1764669338
 20
7.0308829
 30
0.0
 10
10.1632493423
 20
7.0078334286
 30
0.0
 10
10.1488966394
 20
6.9855244244
 30
0.0
 10
10.133441945
 20
6.9640074036
 30
0.0
 10
10.116920699
 20
6.9433318447
 30
0.0
 10
10.0993716594
 20
6.9235460836
 30
0.0
 10
10.0870117196
 20
6.9109769214
 30
0.0
 10
10.0806765358
 20
6.9048576191
 30
0.0
  0
SPLINE
  5
378
100
AcDbEntity
  8
0
100
AcDbSpline
 62
7
  6
CONTINUOUS
 70
0
 71
3
 72
23
 73
19
 74
0
 42
0.0000001
 43
0.0000001
 44
0.0000000001
 40
0.0
 40
0.0
 40
0.0
 40
0.0
 40
0.0637767638
 40
0.1273450118
 40
0.1907019674
 40
0.2538561101
 40
0.3168132145
 40
0.3795820843
 40
0.4421733868
 40
0.5045993403
 40
0.5668738673
 40
0.6290123789
 40
0.6910316481
 40
0.752949645
 40
0.8147853545
 40
0.8765586015
 40
0.9382898522
 40
1.0
 40
1.0
 40
1.0
 40
1.0
 10
11.0211414134
 20
8.8650876393
 30
0.0
 10
11.0211414134
 20
8.8599035994
 30
0.0
 10
11.0208932693
 20
8.8495507124
 30
0.0
 10
11.0197733509
 20
8.834084375
 30
0.0
 10
11.017908641
 20
8.8187406174
 30
0.0
 10
11.0153036318
 20
8.8035555069
 30
0.0
 10
11.0119641245
 20
8.7885637324
 30
0.0
 10
11.0078978528
 20
8.7737999506
 30
0.0
 10
11.0031141717
 20
8.7592981749
 30
0.0
 10
10.997624054
 20
8.7450918495
 30
0.0
 10
10.9914401062
 20
8.7312137532
 30
0.0
 10
10.9845765907
 20
8.7176958833
 30
0.0
 10
10.9770493214
 20
8.7045694185
 30
0.0
 10
10.9688756184
 20
8.6918646395
 30
0.0
 10
10.9600743188
 20
8.6796109029
 30
0.0
 10
10.9506656385
 20
8.6678363639
 30
0.0
 10
10.9406716548
 20
8.6565685422
 30
0.0
 10
10.9336328124
 20
8.649410501
 30
0.0
 10
10.9300249891
 20
8.6459256142
 30
0.0
  0
SPLINE
  5
379
100
AcDbEntity
  8
0
100
AcDbSpline
 62
7
  6
CONTINUOUS
 70
0
 71
3
 72
23
 73
19
 74
0
 42
0.0000001
 43
0.0000001
 44
0.0000000001
 40
0.0
 40
0.0
 40
0.0
 40
0.0
 40
0.0637772827
 40
0.1273447928
 40
0.1907019891
 40
0.2538561422
 40
0.3168131889
 40
0.3795820982
 40
0.4421733894
 40
0.5045993375
 40
0.5668738648
 40
0.6290123797
 40
0.6910316513
 40
0.752949645
 40
0.814785352
 40
0.8765586
 40
0.9382898524
 40
1.0
 40
1.0
 40
1.0
 40
1.0
 10
11.3234761624
 20
7.6367132988
 30
0.0
 10
11.3234761624
 20
7.629122317
 30
0.0
 10
11.3231128337
 20
7.6139627486
 30
0.0
 10
11.3214729128
 20
7.5913155986
 30
0.0
 10
11.3187424598
 20
7.568847997
 30
0.0
 10
11.3149279599
 20
7.5466126236
 30
0.0
 10
11.3100379835
 20
7.5246603667
 30
0.0
 10
11.3040838084
 20
7.5030419589
 30
0.0
 10
11.297079097
 20
7.4818072105
 30
0.0
 10
11.2890399673
 20
7.461005091
 30
0.0
 10
11.2799849153
 20
7.4406835729
 30
0.0
 10
11.2699347754
 20
7.4208895292
 30
0.0
 10
11.2589126783
 20
7.4016686321
 30
0.0
 10
11.2469440032
 20
7.383065216
 30
0.0
 10
11.2340563851
 20
7.3651222305
 30
0.0
 10
11.2202793844
 20
7.347880928
 30
0.0
 10
11.2056453189
 20
7.3313816153
 30
0.0
 10
11.1953384234
 20
7.3209002045
 30
0.0
 10
11.1900555349
 20
7.3157973328
 30
0.0
  0
SPLINE
  5
37A
100
AcDbEntity
  8
0
100
AcDbSpline
 62
7
  6
CONTINUOUS
 70
0
 71
3
 72
37
 73
33
 74
0
 42
0.0000001
 43
0.0000001
 44
0.0000000001
 40
0.0
 40
0.0
 40
0.0
 40
0.0
 40
0.0063161109
 40
0.0126711338
 40
0.0191032156
 40
0.0256489994
 40
0.0392093374
 40
0.0536076786
 40
0.0690450798
 40
0.0856786401
 40
0.1036272065
 40
0.1229776037
 40
0.1437907506
 40
0.1661071328
 40
0.1899503416
 40
0.2153307398
 40
0.2422476171
 40
0.2706909087
 40
0.3006430392
 40
0.3320794542
 40
0.3649699263
 40
0.3992791091
 40
0.4349668709
 40
0.4719892129
 40
0.5102981662
 40
0.5498424352
 40
0.5905676756
 40
0.6324164962
 40
0.7192408911
 40
0.8098109239
 40
0.9035854682
 40
1.0
 40
1.0
 40
1.0
 40
1.0
 10
12.0729810689
 20
6.768369231
 30
0.0
 10
12.0724790839
 20
6.768404045
 30
0.0
 10
12.0714743908
 20
6.7685149691
 30
0.0
 10
12.0699786224
 20
6.7688041069
 30
0.0
 10
12.0684928163
 20
6.7692160343
 30
0.0
 10
12.0665032773
 20
6.7699366433
 30
0.0
 10
12.064031157
 20
6.7711617865
 30
0.0
 10
12.0611580311
 20
6.7731002216
 30
0.0
 10
12.0583450524
 20
6.7755182586
 30
0.0
 10
12.0555952363
 20
6.7784102858
 30
0.0
 10
12.052911121
 20
6.7817712753
 30
0.0
 10
12.0502958112
 20
6.7855958721
 30
0.0
 10
12.0477526455
 20
6.7898781905
 30
0.0
 10
12.0452853106
 20
6.794611673
 30
0.0
 10
12.0428974647
 20
6.799788921
 30
0.0
 10
12.0405928818
 20
6.8054017789
 30
0.0
 10
12.0383752695
 20
6.8114412902
 30
0.0
 10
12.036248198
 20
6.8178977256
 30
0.0
 10
12.0342152196
 20
6.8247606361
 30
0.0
 10
12.0322796528
 20
6.8320188423
 30
0.0
 10
12.0304447225
 20
6.8396604912
 30
0.0
 10
12.0287134996
 20
6.8476730703
 30
0.0
 10
12.0270888249
 20
6.8560434316
 30
0.0
 10
12.0255734486
 20
6.8647578251
 30
0.0
 10
12.0241698667
 20
6.8738019188
 30
0.0
 10
12.0228804251
 20
6.8831608231
 30
0.0
 10
12.0217072711
 20
6.8928191413
 30
0.0
 10
12.0202833033
 20
6.9062398455
 30
0.0
 10
12.0188192658
 20
6.9236474526
 30
0.0
 10
12.0175720413
 20
6.9452170665
 30
0.0
 10
12.0168223426
 20
6.9675739561
 30
0.0
 10
12.0166596308
 20
6.9827264929
 30
0.0
 10
12.0166596308
 20
6.9904076284
 30
0.0
  0
SPLINE
  5
37B
100
AcDbEntity
  8
0
100
AcDbSpline
 62
7
  6
CONTINUOUS
 70
0
 71
3
 72
37
 73
33
 74
0
 42
0.0000001
 43
0.0000001
 44
0.0000000001
 40
0.0
 40
0.0
 40
0.0
 40
0.0
 40
0.0063161109
 40
0.0126711338
 40
0.0191032156
 40
0.0256489994
 40
0.0392093374
 40
0.0536076786
 40
0.0690450798
 40
0.0856786401
 40
0.1036272065
 40
0.1229776037
 40
0.1437907506
 40
0.1661071328
 40
0.1899503416
 40
0.2153307398
 40
0.2422476171
 40
0.2706909087
 40
0.3006430392
 40
0.3320794542
 40
0.3649699263
 40
0.3992791091
 40
0.4349668709
 40
0.4719892129
 40
0.5102981662
 40
0.5498424352
 40
0.5905676756
 40
0.6324164962
 40
0.7192408911
 40
0.8098109239
 40
0.9035854682
 40
1.0
 40
1.0
 40
1.0
 40
1.0
 10
12.0729810689
 20
8.458739412
 30
0.0
 10
12.0724790839
 20
8.458774226
 30
0.0
 10
12.0714743908
 20
8.4588851502
 30
0.0
 10
12.0699786224
 20
8.4591742879
 30
0.0
 10
12.0684928163
 20
8.4595862154
 30
0.0
 10
12.0665032773
 20
8.4603068243
 30
0.0
 10
12.064031157
 20
8.4615319675
 30
0.0
 10
12.0611580311
 20
8.4634704027
 30
0.0
 10
12.0583450524
 20
8.4658884396
 30
0.0
 10
12.0555952363
 20
8.4687804669
 30
0.0
 10
12.052911121
 20
8.4721414563
 30
0.0
 10
12.0502958112
 20
8.4759660531
 30
0.0
 10
12.0477526455
 20
8.4802483715
 30
0.0
 10
12.0452853106
 20
8.484981854
 30
0.0
 10
12.0428974647
 20
8.490159102
 30
0.0
 10
12.0405928818
 20
8.4957719599
 30
0.0
 10
12.0383752695
 20
8.5018114713
 30
0.0
 10
12.036248198
 20
8.5082679066
 30
0.0
 10
12.0342152196
 20
8.5151308171
 30
0.0
 10
12.0322796528
 20
8.5223890233
 30
0.0
 10
12.0304447225
 20
8.5300306722
 30
0.0
 10
12.0287134996
 20
8.5380432514
 30
0.0
 10
12.0270888249
 20
8.5464136126
 30
0.0
 10
12.0255734486
 20
8.5551280061
 30
0.0
 10
12.0241698667
 20
8.5641720998
 30
0.0
 10
12.0228804251
 20
8.5735310041
 30
0.0
 10
12.0217072711
 20
8.5831893223
 30
0.0
 10
12.0202833033
 20
8.5966100265
 30
0.0
 10
12.0188192658
 20
8.6140176336
 30
0.0
 10
12.0175720413
 20
8.6355872475
 30
0.0
 10
12.0168223426
 20
8.6579441372
 30
0.0
 10
12.0166596308
 20
8.6730966739
 30
0.0
 10
12.0166596308
 20
8.6807778094
 30
0.0
  0
SPLINE
  5
37C
100
AcDbEntity
  8
0
100
AcDbSpline
 62
7
  6
CONTINUOUS
 70
0
 71
3
 72
46
 73
42
 74
0
 42
0.0000001
 43
0.0000001
 44
0.0000000001
 40
0.0
 40
0.0
 40
0.0
 40
0.0
 40
0.0149720525
 40
0.0299471649
 40
0.0449283772
 40
0.0599186917
 40
0.0749210573
 40
0.0899383484
 40
0.1049733476
 40
0.1200287333
 40
0.1351070597
 40
0.1502107421
 40
0.1653420474
 40
0.1805030776
 40
0.1956957572
 40
0.2109218287
 40
0.2414745667
 40
0.2721768461
 40
0.3030351766
 40
0.3340525707
 40
0.3652285255
 40
0.3965590884
 40
0.4280369959
 40
0.4596518697
 40
0.4913904744
 40
0.523237028
 40
0.5551735471
 40
0.5871802301
 40
0.6192358692
 40
0.6513182802
 40
0.6834047461
 40
0.7154724694
 40
0.7474990252
 40
0.7794628091
 40
0.811343472
 40
0.843122339
 40
0.8747828041
 40
0.9063106918
 40
0.9376946023
 40
0.9689259241
 40
1.0
 40
1.0
 40
1.0
 40
1.0
 10
9.3507085528
 20
9.1353855612
 30
0.0
 10
9.3556029719
 20
9.1401131951
 30
0.0
 10
9.3655819434
 20
9.1493758555
 30
0.0
 10
9.3810923051
 20
9.1626655868
 30
0.0
 10
9.3971249527
 20
9.1753342492
 30
0.0
 10
9.4136574599
 20
9.1873641816
 30
0.0
 10
9.430667158
 20
9.1987389143
 30
0.0
 10
9.4481306528
 20
9.2094427163
 30
0.0
 10
9.4660238731
 20
9.2194609356
 30
0.0
 10
9.4843221962
 20
9.2287797908
 30
0.0
 10
9.5030004708
 20
9.2373864064
 30
0.0
 10
9.5220329497
 20
9.2452690221
 30
0.0
 10
9.5413934773
 20
9.2524167972
 30
0.0
 10
9.5610553293
 20
9.2588198368
 30
0.0
 10
9.5809918095
 20
9.2644694727
 30
0.0
 10
9.6079302535
 20
9.2709941353
 30
0.0
 10
9.642165586
 20
9.2772254546
 30
0.0
 10
9.6838435677
 20
9.2815782161
 30
0.0
 10
9.7259425585
 20
9.2827932809
 30
0.0
 10
9.7682294348
 20
9.2808640094
 30
0.0
 10
9.8104721748
 20
9.2758016858
 30
0.0
 10
9.8524385736
 20
9.2676346288
 30
0.0
 10
9.8938981637
 20
9.2564081096
 30
0.0
 10
9.9346233088
 20
9.2421842171
 30
0.0
 10
9.9743904929
 20
9.2250414587
 30
0.0
 10
10.0129814595
 20
9.2050742049
 30
0.0
 10
10.0501844525
 20
9.1823923219
 30
0.0
 10
10.085795377
 20
9.1571205493
 30
0.0
 10
10.1196188169
 20
9.1293976948
 30
0.0
 10
10.1514691639
 20
9.0993759975
 30
0.0
 10
10.1811716639
 20
9.0672203133
 30
0.0
 10
10.208563245
 20
9.0331070986
 30
0.0
 10
10.2334934724
 20
8.9972235377
 30
0.0
 10
10.2558254436
 20
8.9597665641
 30
0.0
 10
10.275436382
 20
8.9209416797
 30
0.0
 10
10.2922183643
 20
8.8809619264
 30
0.0
 10
10.3060790292
 20
8.8400466718
 30
0.0
 10
10.3169419228
 20
8.7984206944
 30
0.0
 10
10.3247468863
 20
8.7563117632
 30
0.0
 10
10.3294507945
 20
8.7139541174
 30
0.0
 10
10.3305043666
 20
8.6856252673
 30
0.0
 10
10.3305043666
 20
8.6715020103
 30
0.0
  0
SPLINE
  5
37D
100
AcDbEntity
  8
0
100
AcDbSpline
 62
7
  6
CONTINUOUS
 70
0
 71
3
 72
40
 73
36
 74
0
 42
0.0000001
 43
0.0000001
 44
0.0000000001
 40
0.0
 40
0.0
 40
0.0
 40
0.0
 40
0.0063160317
 40
0.0126709803
 40
0.0191029757
 40
0.0256486833
 40
0.0323427436
 40
0.0392172655
 40
0.0536154772
 40
0.0690526586
 40
0.0856860581
 40
0.1036344402
 40
0.1229845836
 40
0.1437975252
 40
0.1661136309
 40
0.1899565788
 40
0.215336668
 40
0.2422532113
 40
0.2706962166
 40
0.3006479298
 40
0.3320839776
 40
0.3649740847
 40
0.3992827974
 40
0.4349701487
 40
0.4719920266
 40
0.5103004985
 40
0.5498442818
 40
0.5905689983
 40
0.6324173162
 40
0.6753293134
 40
0.7192426811
 40
0.7640927959
 40
0.8098131949
 40
0.9035868196
 40
1.0
 40
1.0
 40
1.0
 40
1.0
 10
12.4704213613
 20
8.9406315697
 30
0.0
 10
12.4695500715
 20
8.9406919978
 30
0.0
 10
12.4678062399
 20
8.9408845382
 30
0.0
 10
12.4652100431
 20
8.9413864405
 30
0.0
 10
12.4626311967
 20
8.9421013395
 30
0.0
 10
12.4600712013
 20
8.9430287024
 30
0.0
 10
12.4575311146
 20
8.94416801
 30
0.0
 10
12.454120295
 20
8.9459964054
 30
0.0
 10
12.4498997282
 20
8.9488434364
 30
0.0
 10
12.4450179449
 20
8.9530400802
 30
0.0
 10
12.4402449327
 20
8.9580598672
 30
0.0
 10
12.4355862176
 20
8.9638934942
 30
0.0
 10
12.4310468108
 20
8.9705318128
 30
0.0
 10
12.4266327015
 20
8.9779646101
 30
0.0
 10
12.4223501568
 20
8.9861804712
 30
0.0
 10
12.4182056154
 20
8.9951665802
 30
0.0
 10
12.4142055748
 20
9.0049087638
 30
0.0
 10
12.4103564796
 20
9.0153914876
 30
0.0
 10
12.4066645774
 20
9.0265978681
 30
0.0
 10
12.4031359326
 20
9.0385097476
 30
0.0
 10
12.3997764013
 20
9.0511077458
 30
0.0
 10
12.3965915518
 20
9.0643712823
 30
0.0
 10
12.3935866646
 20
9.0782786309
 30
0.0
 10
12.3907667547
 20
9.09280698
 30
0.0
 10
12.3881365285
 20
9.1079324633
 30
0.0
 10
12.3857003491
 20
9.1236301994
 30
0.0
 10
12.3834622802
 20
9.1398743532
 30
0.0
 10
12.3814260688
 20
9.1566381766
 30
0.0
 10
12.3795950921
 20
9.1738940466
 30
0.0
 10
12.3779723964
 20
9.1916135228
 30
0.0
 10
12.376560711
 20
9.209767385
 30
0.0
 10
12.3753623504
 20
9.2283257339
 30
0.0
 10
12.3740406348
 20
9.2537831857
 30
0.0
 10
12.3729473827
 20
9.2863893795
 30
0.0
 10
12.3726649289
 20
9.312689408
 30
0.0
 10
12.3726649289
 20
9.3260214522
 30
0.0
  0
SPLINE
  5
37E
100
AcDbEntity
  8
0
100
AcDbSpline
 62
7
  6
CONTINUOUS
 70
0
 71
3
 72
37
 73
33
 74
0
 42
0.0000001
 43
0.0000001
 44
0.0000000001
 40
0.0
 40
0.0
 40
0.0
 40
0.0
 40
0.030616614
 40
0.0613389928
 40
0.0921655515
 40
0.1230936758
 40
0.1541197611
 40
0.1852392584
 40
0.2164467243
 40
0.2477358785
 40
0.2790996684
 40
0.3105303452
 40
0.3420195404
 40
0.3735583451
 40
0.4051373921
 40
0.4367469445
 40
0.4999999876
 40
0.5632530336
 40
0.5948625861
 40
0.6264416315
 40
0.6579804366
 40
0.6894696352
 40
0.7209003148
 40
0.7522641052
 40
0.783553257
 40
0.8147607283
 40
0.8458802279
 40
0.8769063008
 40
0.9078345167
 40
0.9386607723
 40
0.9693838013
 40
1.0
 40
1.0
 40
1.0
 40
1.0
 10
9.7553334619
 20
9.1109296088
 30
0.0
 10
9.7618824511
 20
9.1107025197
 30
0.0
 10
9.7749939475
 20
9.1099176914
 30
0.0
 10
9.7946095635
 20
9.1077589127
 30
0.0
 10
9.8141606549
 20
9.1046219518
 30
0.0
 10
9.8335973904
 20
9.1005147775
 30
0.0
 10
9.8528710654
 20
9.0954477736
 30
0.0
 10
9.8719331651
 20
9.0894337269
 30
0.0
 10
9.8907357697
 20
9.0824877927
 30
0.0
 10
9.9092315899
 20
9.0746274532
 30
0.0
 10
9.9273741299
 20
9.0658725168
 30
0.0
 10
9.9451177759
 20
9.0562450443
 30
0.0
 10
9.9624179487
 20
9.0457692407
 30
0.0
 10
9.9792310528
 20
9.034471558
 30
0.0
 10
9.9955151839
 20
9.0223800317
 30
0.0
 10
10.0164683923
 20
9.0052396781
 30
0.0
 10
10.041131294
 20
8.9819893679
 30
0.0
 10
10.0635130051
 20
8.9565355905
 30
0.0
 10
10.0799169417
 20
8.9350009775
 30
0.0
 10
10.0914369002
 20
8.9183076117
 30
0.0
 10
10.1021451848
 20
8.901113114
 30
0.0
 10
10.1120152059
 20
8.8834603183
 30
0.0
 10
10.1210220121
 20
8.8653936995
 30
0.0
 10
10.129142972
 20
8.8469586599
 30
0.0
 10
10.1363576438
 20
8.8282015592
 30
0.0
 10
10.1426478537
 20
8.8091695536
 30
0.0
 10
10.1479977395
 20
8.7899105016
 30
0.0
 10
10.1523938088
 20
8.7704727963
 30
0.0
 10
10.1558249086
 20
8.7509054464
 30
0.0
 10
10.1582825425
 20
8.7312573051
 30
0.0
 10
10.159760226
 20
8.711578672
 30
0.0
 10
10.1600902754
 20
8.6984478051
 30
0.0
 10
10.160090281
 20
8.6918949687
 30
0.0
  0
SPLINE
  5
37F
100
AcDbEntity
  8
0
100
AcDbSpline
 62
7
  6
CONTINUOUS
 70
0
 71
3
 72
39
 73
35
 74
0
 42
0.0000001
 43
0.0000001
 44
0.0000000001
 40
0.0
 40
0.0
 40
0.0
 40
0.0
 40
0.0299424711
 40
0.0599093187
 40
0.0899243254
 40
0.120010105
 40
0.1501875638
 40
0.1804754155
 40
0.2108897596
 40
0.2414437359
 40
0.2721472599
 40
0.303006843
 40
0.3340254958
 40
0.3652027155
 40
0.3965345503
 40
0.4280137351
 40
0.4596298915
 40
0.4913697854
 40
0.523217633
 40
0.5551554502
 40
0.5871634346
 40
0.6192203772
 40
0.6513040926
 40
0.6833918634
 40
0.7154608915
 40
0.747488751
 40
0.7794538358
 40
0.811335796
 40
0.8431159553
 40
0.8747777133
 40
0.9063068641
 40
0.9376920954
 40
0.9689246611
 40
1.0
 40
1.0
 40
1.0
 40
1.0
 10
9.5655733927
 20
9.0022986368
 30
0.0
 10
9.5712968151
 20
9.0078270641
 30
0.0
 10
9.5831937455
 20
9.0184377126
 30
0.0
 10
9.6022544502
 20
9.0328928729
 30
0.0
 10
9.6224330813
 20
9.0458148305
 30
0.0
 10
9.6436168743
 20
9.0571311122
 30
0.0
 10
9.665689363
 20
9.0667798955
 30
0.0
 10
9.6885287304
 20
9.0747081439
 30
0.0
 10
9.7120091188
 20
9.0808724793
 30
0.0
 10
9.736001169
 20
9.0852392455
 30
0.0
 10
9.7603727861
 20
9.0877847194
 30
0.0
 10
9.7849898581
 20
9.0884952096
 30
0.0
 10
9.8097169957
 20
9.0873671269
 30
0.0
 10
9.8344182751
 20
9.0844069871
 30
0.0
 10
9.858957978
 20
9.0796313508
 30
0.0
 10
9.8832013284
 20
9.0730667228
 30
0.0
 10
9.907015222
 20
9.0647493981
 30
0.0
 10
9.9302689462
 20
9.0547252564
 30
0.0
 10
9.9528348868
 20
9.0430495076
 30
0.0
 10
9.9745892178
 20
9.0297863874
 30
0.0
 10
9.99541258
 20
9.0150088168
 30
0.0
 10
10.0151907217
 20
8.998797991
 30
0.0
 10
10.0338151173
 20
8.9812429364
 30
0.0
 10
10.0511835562
 20
8.962440027
 30
0.0
 10
10.067200697
 20
8.9424924605
 30
0.0
 10
10.0817785853
 20
8.9215096986
 30
0.0
 10
10.0948371313
 20
8.899606873
 30
0.0
 10
10.1063045525
 20
8.8769041621
 30
0.0
 10
10.1161177734
 20
8.8535261535
 30
0.0
 10
10.1242227418
 20
8.82960111
 30
0.0
 10
10.1305747881
 20
8.8052604662
 30
0.0
 10
10.1351387209
 20
8.7806374247
 30
0.0
 10
10.1378893313
 20
8.7558689431
 30
0.0
 10
10.1385053967
 20
8.7393037583
 30
0.0
 10
10.1385053967
 20
8.7310452356
 30
0.0
  0
SPLINE
  5
380
100
AcDbEntity
  8
0
100
AcDbSpline
 62
7
  6
CONTINUOUS
 70
0
 71
3
 72
21
 73
17
 74
0
 42
0.0000001
 43
0.0000001
 44
0.0000000001
 40
0.0
 40
0.0
 40
0.0
 40
0.0
 40
0.0617147819
 40
0.1234506692
 40
0.185228552
 40
0.2470689061
 40
0.3089915516
 40
0.3710154745
 40
0.4331586551
 40
0.4954378585
 40
0.5578685076
 40
0.6204644887
 40
0.6832380492
 40
0.7462000649
 40
0.8726823101
 40
1.0
 40
1.0
 40
1.0
 40
1.0
 10
11.0690448133
 20
7.5291129309
 30
0.0
 10
11.0717775125
 20
7.5317525321
 30
0.0
 10
11.0771090328
 20
7.5371742946
 30
0.0
 10
11.0846788438
 20
7.545709016
 30
0.0
 10
11.0918053507
 20
7.5546275182
 30
0.0
 10
11.0984718026
 20
7.5639089858
 30
0.0
 10
11.1046628673
 20
7.5735321031
 30
0.0
 10
11.1103643273
 20
7.5834746027
 30
0.0
 10
11.1155630341
 20
7.5937135713
 30
0.0
 10
11.1202469614
 20
7.6042254067
 30
0.0
 10
11.1244054036
 20
7.6149858488
 30
0.0
 10
11.1280287733
 20
7.6259700106
 30
0.0
 10
11.1311087169
 20
7.6371528836
 30
0.0
 10
11.1344860411
 20
7.6523140322
 30
0.0
 10
11.1373117523
 20
7.6716420591
 30
0.0
 10
11.1380599444
 20
7.6872768884
 30
0.0
 10
11.1380599444
 20
7.6951149746
 30
0.0
  0
SPLINE
  5
381
100
AcDbEntity
  8
0
100
AcDbSpline
 62
7
  6
CONTINUOUS
 70
0
 71
3
 72
23
 73
19
 74
0
 42
0.0000001
 43
0.0000001
 44
0.0000000001
 40
0.0
 40
0.0
 40
0.0
 40
0.0
 40
0.0617101467
 40
0.1234414005
 40
0.1852146478
 40
0.2470503543
 40
0.3089683505
 40
0.3709876232
 40
0.433126136
 40
0.4954006598
 40
0.5578266145
 40
0.6204179204
 40
0.6831867797
 40
0.7461439117
 40
0.8092980272
 40
0.8726549309
 40
0.9362234023
 40
1.0
 40
1.0
 40
1.0
 40
1.0
 10
10.044948541
 20
8.5060129937
 30
0.0
 10
10.0486529886
 20
8.509591232
 30
0.0
 10
10.0558803852
 20
8.5169409769
 30
0.0
 10
10.0661420338
 20
8.5285106223
 30
0.0
 10
10.0758027018
 20
8.5406005533
 30
0.0
 10
10.0848397301
 20
8.5531825082
 30
0.0
 10
10.0932323737
 20
8.5662275726
 30
0.0
 10
10.1009612415
 20
8.5797056349
 30
0.0
 10
10.1080085768
 20
8.593585584
 30
0.0
 10
10.1143581556
 20
8.6078354009
 30
0.0
 10
10.1199953302
 20
8.622422235
 30
0.0
 10
10.124907126
 20
8.6373124394
 30
0.0
 10
10.1290823041
 20
8.6524716669
 30
0.0
 10
10.1325112565
 20
8.6678649897
 30
0.0
 10
10.1351860417
 20
8.6834568227
 30
0.0
 10
10.1371006951
 20
8.6992115693
 30
0.0
 10
10.1382506007
 20
8.7150921675
 30
0.0
 10
10.1385053967
 20
8.725722357
 30
0.0
 10
10.1385053967
 20
8.7310452356
 30
0.0
  0
SPLINE
  5
382
100
AcDbEntity
  8
0
100
AcDbSpline
 62
7
  6
CONTINUOUS
 70
0
 71
3
 72
41
 73
37
 74
0
 42
0.0000001
 43
0.0000001
 44
0.0000000001
 40
0.0
 40
0.0
 40
0.0
 40
0.0
 40
0.0299421703
 40
0.059908717
 40
0.0899234222
 40
0.1200088997
 40
0.1501860561
 40
0.1804736046
 40
0.2108876447
 40
0.2414413155
 40
0.2721445324
 40
0.3030038059
 40
0.334022147
 40
0.3651990535
 40
0.3965305738
 40
0.4280094428
 40
0.4596252819
 40
0.4913648568
 40
0.5232123838
 40
0.555149879
 40
0.5871575408
 40
0.6192141606
 40
0.6512975532
 40
0.6833850012
 40
0.7154537065
 40
0.7314764076
 40
0.7474860748
 40
0.7794508379
 40
0.8113324782
 40
0.8431123185
 40
0.8747737598
 40
0.9063025992
 40
0.9376874875
 40
0.9533254756
 40
0.9689250475
 40
1.0
 40
1.0
 40
1.0
 40
1.0
 10
10.7154188008
 20
7.8952134967
 30
0.0
 10
10.7196408585
 20
7.8992917167
 30
0.0
 10
10.7284170069
 20
7.9071189846
 30
0.0
 10
10.7424777279
 20
7.9177822852
 30
0.0
 10
10.7573631213
 20
7.9273145735
 30
0.0
 10
10.7729900029
 20
7.9356623877
 30
0.0
 10
10.7892724601
 20
7.9427801181
 30
0.0
 10
10.8061206312
 20
7.9486286391
 30
0.0
 10
10.8234416728
 20
7.9531759506
 30
0.0
 10
10.8411401579
 20
7.9563972262
 30
0.0
 10
10.8591186416
 20
7.9582749681
 30
0.0
 10
10.8772781918
 20
7.9587990817
 30
0.0
 10
10.8955189354
 20
7.9579669194
 30
0.0
 10
10.913740604
 20
7.9557832829
 30
0.0
 10
10.9318430806
 20
7.9522603865
 30
0.0
 10
10.9497269427
 20
7.9474177815
 30
0.0
 10
10.9672940015
 20
7.9412822426
 30
0.0
 10
10.9844478329
 20
7.9338876166
 30
0.0
 10
11.0010942998
 20
7.9252746329
 30
0.0
 10
11.0171420595
 20
7.9154906832
 30
0.0
 10
11.0325030675
 20
7.9045895467
 30
0.0
 10
11.0470930174
 20
7.8926311502
 30
0.0
 10
11.060831938
 20
7.8796810404
 30
0.0
 10
11.0736441044
 20
7.865810779
 30
0.0
 10
11.083494183
 20
7.8535434748
 30
0.0
 10
11.0908432796
 20
7.8433468958
 30
0.0
 10
11.0978225815
 20
7.8329182496
 30
0.0
 10
11.1058468369
 20
7.8194594876
 30
0.0
 10
11.1143059437
 20
7.8027124106
 30
0.0
 10
11.1215450284
 20
7.7854668421
 30
0.0
 10
11.1275239136
 20
7.767817726
 30
0.0
 10
11.1322096555
 20
7.7498623981
 30
0.0
 10
11.1350188587
 20
7.7347061596
 30
0.0
 10
11.136594739
 20
7.7225283041
 30
0.0
 10
11.1377194061
 20
7.710362102
 30
0.0
 10
11.1380599444
 20
7.7012071166
 30
0.0
 10
11.1380599444
 20
7.6951149746
 30
0.0
  0
SPLINE
  5
383
100
AcDbEntity
  8
0
100
AcDbSpline
 62
7
  6
CONTINUOUS
 70
0
 71
3
 72
37
 73
33
 74
0
 42
0.0000001
 43
0.0000001
 44
0.0000000001
 40
0.0
 40
0.0
 40
0.0
 40
0.0
 40
0.0303256471
 40
0.0607661969
 40
0.0913243287
 40
0.1220012298
 40
0.1527965994
 40
0.1837086685
 40
0.2147342376
 40
0.24586873
 40
0.2771062605
 40
0.3084397198
 40
0.3398608716
 40
0.3713604574
 40
0.4029283107
 40
0.4345534785
 40
0.4979071037
 40
0.5613448462
 40
0.5930741635
 40
0.6247861712
 40
0.6564682729
 40
0.6881082124
 40
0.7196942138
 40
0.7512151181
 40
0.7826605114
 40
0.8140208536
 40
0.8452875953
 40
0.8764532488
 40
0.907511713
 40
0.9384575198
 40
0.9692882695
 40
1.0
 40
1.0
 40
1.0
 40
1.0
 10
10.7916720467
 20
7.9735090449
 30
0.0
 10
10.7971131277
 20
7.974342845
 30
0.0
 10
10.808066448
 20
7.9757006618
 30
0.0
 10
10.8246151982
 20
7.9768010177
 30
0.0
 10
10.8412638919
 20
7.9769658569
 30
0.0
 10
10.8579597511
 20
7.9761946184
 30
0.0
 10
10.8746507617
 20
7.9744898183
 30
0.0
 10
10.8912846934
 20
7.9718568416
 30
0.0
 10
10.9078095686
 20
7.9683039784
 30
0.0
 10
10.9241737374
 20
7.9638423799
 30
0.0
 10
10.9403260676
 20
7.9584860416
 30
0.0
 10
10.9562160877
 20
7.9522517676
 30
0.0
 10
10.9717941888
 20
7.9451590594
 30
0.0
 10
10.9870115941
 20
7.9372302103
 30
0.0
 10
11.0018211964
 20
7.9284896682
 30
0.0
 10
11.0209690725
 20
7.9157853842
 30
0.0
 10
11.0436501048
 20
7.8980187005
 30
0.0
 10
11.0643681372
 20
7.8779708536
 30
0.0
 10
11.0796223232
 20
7.8607046808
 30
0.0
 10
11.0903686352
 20
7.8471795097
 30
0.0
 10
11.1003835835
 20
7.8331246275
 30
0.0
 10
11.1096362866
 20
7.8185835639
 30
0.0
 10
11.1180977115
 20
7.8036018441
 30
0.0
 10
11.1257414282
 20
7.788226238
 30
0.0
 10
11.1325435142
 20
7.7725047807
 30
0.0
 10
11.1384826765
 20
7.7564865777
 30
0.0
 10
11.1435402974
 20
7.7402216777
 30
0.0
 10
11.1477005666
 20
7.7237608732
 30
0.0
 10
11.1509503583
 20
7.7071557055
 30
0.0
 10
11.153279616
 20
7.6904577461
 30
0.0
 10
11.1546807742
 20
7.6737200402
 30
0.0
 10
11.1549939286
 20
7.6625466253
 30
0.0
 10
11.1549939286
 20
7.6569719482
 30
0.0
  0
SPLINE
  5
384
100
AcDbEntity
  8
0
100
AcDbSpline
 62
7
  6
CONTINUOUS
 70
0
 71
3
 72
39
 73
35
 74
0
 42
0.0000001
 43
0.0000001
 44
0.0000000001
 40
0.0
 40
0.0
 40
0.0
 40
0.0
 40
0.0299424706
 40
0.059909318
 40
0.0899243245
 40
0.120010104
 40
0.1501875638
 40
0.1804754172
 40
0.2108897627
 40
0.2414437402
 40
0.2721472662
 40
0.3030068506
 40
0.3340255036
 40
0.3652027233
 40
0.3965345594
 40
0.4280137458
 40
0.459629903
 40
0.4913697971
 40
0.523217645
 40
0.5551554619
 40
0.5871634456
 40
0.6192203877
 40
0.6513041028
 40
0.6833918731
 40
0.7154609003
 40
0.7474887587
 40
0.7794538419
 40
0.8113358007
 40
0.8431159608
 40
0.874777714
 40
0.9063068772
 40
0.9376920832
 40
0.968924649
 40
1.0
 40
1.0
 40
1.0
 40
1.0
 10
10.5064257206
 20
8.0235446573
 30
0.0
 10
10.5145878379
 20
8.0314286468
 30
0.0
 10
10.5315539002
 20
8.0465603297
 30
0.0
 10
10.5587361526
 20
8.0671745771
 30
0.0
 10
10.5875126341
 20
8.0856023783
 30
0.0
 10
10.6177225574
 20
8.1017403587
 30
0.0
 10
10.6491998485
 20
8.115500316
 30
0.0
 10
10.6817707729
 20
8.1268066367
 30
0.0
 10
10.7152558416
 20
8.1355974765
 30
0.0
 10
10.7494705811
 20
8.1418248338
 30
0.0
 10
10.7842266163
 20
8.1454548445
 30
0.0
 10
10.8193326854
 20
8.146468022
 30
0.0
 10
10.8545957151
 20
8.1448592647
 30
0.0
 10
10.8898218698
 20
8.1406378461
 30
0.0
 10
10.9248175971
 20
8.1338273424
 30
0.0
 10
10.9593906964
 20
8.12446558
 30
0.0
 10
10.9933513544
 20
8.1126043341
 30
0.0
 10
11.026513164
 20
8.0983090274
 30
0.0
 10
11.0586941229
 20
8.0816583673
 30
0.0
 10
11.0897176618
 20
8.0627439946
 30
0.0
 10
11.11941357
 20
8.0416699042
 30
0.0
 10
11.1476189084
 20
8.0185518727
 30
0.0
 10
11.174178884
 20
7.9935168314
 30
0.0
 10
11.198947754
 20
7.9667022426
 30
0.0
 10
11.2217895656
 20
7.9382552848
 30
0.0
 10
11.2425788858
 20
7.9083320545
 30
0.0
 10
11.2612014771
 20
7.8770967257
 30
0.0
 10
11.2775550008
 20
7.8447207
 30
0.0
 10
11.2915495055
 20
7.8113816489
 30
0.0
 10
11.3031079082
 20
7.7772624763
 30
0.0
 10
11.3121664431
 20
7.7425506178
 30
0.0
 10
11.318674995
 20
7.7074360412
 30
0.0
 10
11.3225975951
 20
7.6721140551
 30
0.0
 10
11.3234761624
 20
7.6484906688
 30
0.0
 10
11.3234761624
 20
7.6367132988
 30
0.0
  0
SPLINE
  5
385
100
AcDbEntity
  8
0
100
AcDbSpline
 62
7
  6
CONTINUOUS
 70
0
 71
3
 72
39
 73
35
 74
0
 42
0.0000001
 43
0.0000001
 44
0.0000000001
 40
0.0
 40
0.0
 40
0.0
 40
0.0
 40
0.029942471
 40
0.0599093185
 40
0.089924325
 40
0.1200101043
 40
0.1501875632
 40
0.1804754155
 40
0.2108897611
 40
0.2414437393
 40
0.2721472649
 40
0.3030068482
 40
0.3340255005
 40
0.3652027199
 40
0.3965345553
 40
0.4280137416
 40
0.4596298994
 40
0.4913697937
 40
0.523217641
 40
0.5551554573
 40
0.5871634413
 40
0.619220384
 40
0.6513040994
 40
0.6833918697
 40
0.715460897
 40
0.7474887556
 40
0.7794538398
 40
0.8113357995
 40
0.8431159588
 40
0.874777715
 40
0.9063068673
 40
0.9376920959
 40
0.968924654
 40
1.0
 40
1.0
 40
1.0
 40
1.0
 10
10.463155644
 20
9.1292650544
 30
0.0
 10
10.4687297727
 20
9.1346492447
 30
0.0
 10
10.480316346
 20
9.1449830874
 30
0.0
 10
10.4988798331
 20
9.1590611206
 30
0.0
 10
10.5185320671
 20
9.1716459642
 30
0.0
 10
10.5391632375
 20
9.1826670253
 30
0.0
 10
10.5606599174
 20
9.1920640923
 30
0.0
 10
10.5829034711
 20
9.1997855069
 30
0.0
 10
10.6057713263
 20
9.2057890126
 30
0.0
 10
10.6291374958
 20
9.2100418323
 30
0.0
 10
10.6528733272
 20
9.2125208744
 30
0.0
 10
10.6768482071
 20
9.2132128145
 30
0.0
 10
10.7009302804
 20
9.2121141579
 30
0.0
 10
10.7249871705
 20
9.2092312413
 30
0.0
 10
10.7488866991
 20
9.2045801837
 30
0.0
 10
10.7724976024
 20
9.1981867904
 30
0.0
 10
10.7956902494
 20
9.19008642
 30
0.0
 10
10.8183373393
 20
9.1803237624
 30
0.0
 10
10.8403145903
 20
9.1689525926
 30
0.0
 10
10.8615014104
 20
9.1560354733
 30
0.0
 10
10.8817815505
 20
9.1416434138
 30
0.0
 10
10.9010437307
 20
9.12585548
 30
0.0
 10
10.9191822572
 20
9.1087583792
 30
0.0
 10
10.9360975897
 20
9.090445977
 30
0.0
 10
10.9516968773
 20
9.0710187817
 30
0.0
 10
10.9658944628
 20
9.0505834003
 30
0.0
 10
10.9786123489
 20
9.029251962
 30
0.0
 10
10.9897806198
 20
9.0071415052
 30
0.0
 10
10.9993378357
 20
8.9843733638
 30
0.0
 10
11.0072313626
 20
8.9610724582
 30
0.0
 10
11.0134176951
 20
8.9373667949
 30
0.0
 10
11.0178625646
 20
8.9133861036
 30
0.0
 10
11.0205414195
 20
8.8892637654
 30
0.0
 10
11.0211414134
 20
8.8731307214
 30
0.0
 10
11.0211414134
 20
8.8650876393
 30
0.0
  0
SPLINE
  5
386
100
AcDbEntity
  8
0
100
AcDbSpline
 62
7
  6
CONTINUOUS
 70
0
 71
3
 72
23
 73
19
 74
0
 42
0.0000001
 43
0.0000001
 44
0.0000000001
 40
0.0
 40
0.0
 40
0.0
 40
0.0
 40
0.0617101467
 40
0.1234414005
 40
0.1852146478
 40
0.2470503543
 40
0.3089683505
 40
0.3709876232
 40
0.433126136
 40
0.4954006598
 40
0.5578266145
 40
0.6204179204
 40
0.6831867797
 40
0.7461439117
 40
0.8092980272
 40
0.8726549309
 40
0.9362234023
 40
1.0
 40
1.0
 40
1.0
 40
1.0
 10
9.9551174389
 20
7.1242072722
 30
0.0
 10
9.9588218865
 20
7.1277855104
 30
0.0
 10
9.9660492831
 20
7.1351352553
 30
0.0
 10
9.9763109317
 20
7.1467049008
 30
0.0
 10
9.9859715997
 20
7.1587948318
 30
0.0
 10
9.995008628
 20
7.1713767867
 30
0.0
 10
10.0034012716
 20
7.1844218511
 30
0.0
 10
10.0111301394
 20
7.1978999134
 30
0.0
 10
10.0181774747
 20
7.2117798625
 30
0.0
 10
10.0245270535
 20
7.2260296793
 30
0.0
 10
10.0301642281
 20
7.2406165135
 30
0.0
 10
10.0350760239
 20
7.2555067179
 30
0.0
 10
10.039251202
 20
7.2706659453
 30
0.0
 10
10.0426801544
 20
7.2860592682
 30
0.0
 10
10.0453549396
 20
7.3016511012
 30
0.0
 10
10.047269593
 20
7.3174058478
 30
0.0
 10
10.0484194986
 20
7.3332864459
 30
0.0
 10
10.0486742946
 20
7.3439166355
 30
0.0
 10
10.0486742946
 20
7.349239514
 30
0.0
  0
SPLINE
  5
387
100
AcDbEntity
  8
0
100
AcDbSpline
 62
7
  6
CONTINUOUS
 70
0
 71
3
 72
46
 73
42
 74
0
 42
0.0000001
 43
0.0000001
 44
0.0000000001
 40
0.0
 40
0.0
 40
0.0
 40
0.0
 40
0.0149720525
 40
0.0299471649
 40
0.0449283772
 40
0.0599186917
 40
0.0749210573
 40
0.0899383484
 40
0.1049733476
 40
0.1200287333
 40
0.1351070597
 40
0.1502107421
 40
0.1653420474
 40
0.1805030776
 40
0.1956957572
 40
0.2109218287
 40
0.2414745667
 40
0.2721768461
 40
0.3030351766
 40
0.3340525707
 40
0.3652285255
 40
0.3965590884
 40
0.4280369959
 40
0.4596518697
 40
0.4913904744
 40
0.523237028
 40
0.5551735471
 40
0.5871802301
 40
0.6192358692
 40
0.6513182802
 40
0.6834047461
 40
0.7154724694
 40
0.7474990252
 40
0.7794628091
 40
0.811343472
 40
0.843122339
 40
0.8747828041
 40
0.9063106918
 40
0.9376946023
 40
0.9689259241
 40
1.0
 40
1.0
 40
1.0
 40
1.0
 10
9.2608774507
 20
7.7535798397
 30
0.0
 10
9.2657718698
 20
7.7583074736
 30
0.0
 10
9.2757508413
 20
7.767570134
 30
0.0
 10
9.291261203
 20
7.7808598653
 30
0.0
 10
9.3072938506
 20
7.7935285277
 30
0.0
 10
9.3238263578
 20
7.8055584601
 30
0.0
 10
9.3408360559
 20
7.8169331928
 30
0.0
 10
9.3582995507
 20
7.8276369948
 30
0.0
 10
9.376192771
 20
7.837655214
 30
0.0
 10
9.3944910941
 20
7.8469740692
 30
0.0
 10
9.4131693687
 20
7.8555806849
 30
0.0
 10
9.4322018476
 20
7.8634633005
 30
0.0
 10
9.4515623752
 20
7.8706110756
 30
0.0
 10
9.4712242272
 20
7.8770141152
 30
0.0
 10
9.4911607074
 20
7.8826637512
 30
0.0
 10
9.5180991514
 20
7.8891884137
 30
0.0
 10
9.5523344839
 20
7.895419733
 30
0.0
 10
9.5940124656
 20
7.8997724946
 30
0.0
 10
9.6361114564
 20
7.9009875594
 30
0.0
 10
9.6783983327
 20
7.8990582879
 30
0.0
 10
9.7206410727
 20
7.8939959643
 30
0.0
 10
9.7626074715
 20
7.8858289073
 30
0.0
 10
9.8040670616
 20
7.874602388
 30
0.0
 10
9.8447922067
 20
7.8603784956
 30
0.0
 10
9.8845593908
 20
7.8432357372
 30
0.0
 10
9.9231503574
 20
7.8232684834
 30
0.0
 10
9.9603533504
 20
7.8005866004
 30
0.0
 10
9.9959642749
 20
7.7753148277
 30
0.0
 10
10.0297877148
 20
7.7475919733
 30
0.0
 10
10.0616380618
 20
7.717570276
 30
0.0
 10
10.0913405618
 20
7.6854145918
 30
0.0
 10
10.1187321429
 20
7.6513013771
 30
0.0
 10
10.1436623703
 20
7.6154178162
 30
0.0
 10
10.1659943415
 20
7.5779608425
 30
0.0
 10
10.1856052799
 20
7.5391359582
 30
0.0
 10
10.2023872622
 20
7.4991562049
 30
0.0
 10
10.2162479271
 20
7.4582409502
 30
0.0
 10
10.2271108207
 20
7.4166149729
 30
0.0
 10
10.2349157842
 20
7.3745060417
 30
0.0
 10
10.2396196924
 20
7.3321483959
 30
0.0
 10
10.2406732645
 20
7.3038195457
 30
0.0
 10
10.2406732645
 20
7.2896962887
 30
0.0
  0
SPLINE
  5
388
100
AcDbEntity
  8
0
100
AcDbSpline
 62
7
  6
CONTINUOUS
 70
0
 71
3
 72
39
 73
35
 74
0
 42
0.0000001
 43
0.0000001
 44
0.0000000001
 40
0.0
 40
0.0
 40
0.0
 40
0.0
 40
0.0299424711
 40
0.0599093187
 40
0.0899243254
 40
0.120010105
 40
0.1501875638
 40
0.1804754155
 40
0.2108897596
 40
0.2414437359
 40
0.2721472599
 40
0.303006843
 40
0.3340254958
 40
0.3652027155
 40
0.3965345503
 40
0.4280137351
 40
0.4596298915
 40
0.4913697854
 40
0.523217633
 40
0.5551554502
 40
0.5871634346
 40
0.6192203772
 40
0.6513040926
 40
0.6833918634
 40
0.7154608915
 40
0.747488751
 40
0.7794538358
 40
0.811335796
 40
0.8431159553
 40
0.8747777133
 40
0.9063068641
 40
0.9376920954
 40
0.9689246611
 40
1.0
 40
1.0
 40
1.0
 40
1.0
 10
9.4757422906
 20
7.6204929153
 30
0.0
 10
9.481465713
 20
7.6260213426
 30
0.0
 10
9.4933626434
 20
7.636631991
 30
0.0
 10
9.5124233481
 20
7.6510871514
 30
0.0
 10
9.5326019792
 20
7.6640091089
 30
0.0
 10
9.5537857722
 20
7.6753253907
 30
0.0
 10
9.5758582609
 20
7.6849741739
 30
0.0
 10
9.5986976283
 20
7.6929024224
 30
0.0
 10
9.6221780167
 20
7.6990667578
 30
0.0
 10
9.6461700669
 20
7.7034335239
 30
0.0
 10
9.670541684
 20
7.7059789979
 30
0.0
 10
9.695158756
 20
7.706689488
 30
0.0
 10
9.7198858936
 20
7.7055614053
 30
0.0
 10
9.744587173
 20
7.7026012656
 30
0.0
 10
9.7691268759
 20
7.6978256293
 30
0.0
 10
9.7933702263
 20
7.6912610013
 30
0.0
 10
9.8171841199
 20
7.6829436765
 30
0.0
 10
9.8404378441
 20
7.6729195349
 30
0.0
 10
9.8630037847
 20
7.661243786
 30
0.0
 10
9.8847581157
 20
7.6479806658
 30
0.0
 10
9.9055814779
 20
7.6332030953
 30
0.0
 10
9.9253596196
 20
7.6169922694
 30
0.0
 10
9.9439840152
 20
7.5994372148
 30
0.0
 10
9.9613524541
 20
7.5806343054
 30
0.0
 10
9.9773695949
 20
7.560686739
 30
0.0
 10
9.9919474832
 20
7.5397039771
 30
0.0
 10
10.0050060292
 20
7.5178011514
 30
0.0
 10
10.0164734504
 20
7.4950984406
 30
0.0
 10
10.0262866713
 20
7.4717204319
 30
0.0
 10
10.0343916397
 20
7.4477953884
 30
0.0
 10
10.040743686
 20
7.4234547446
 30
0.0
 10
10.0453076188
 20
7.3988317031
 30
0.0
 10
10.0480582292
 20
7.3740632216
 30
0.0
 10
10.0486742946
 20
7.3574980367
 30
0.0
 10
10.0486742946
 20
7.349239514
 30
0.0
  0
SPLINE
  5
389
100
AcDbEntity
  8
0
100
AcDbSpline
 62
7
  6
CONTINUOUS
 70
0
 71
3
 72
37
 73
33
 74
0
 42
0.0000001
 43
0.0000001
 44
0.0000000001
 40
0.0
 40
0.0
 40
0.0
 40
0.0
 40
0.030616614
 40
0.0613389928
 40
0.0921655515
 40
0.1230936758
 40
0.1541197611
 40
0.1852392584
 40
0.2164467243
 40
0.2477358785
 40
0.2790996684
 40
0.3105303452
 40
0.3420195404
 40
0.3735583451
 40
0.4051373921
 40
0.4367469445
 40
0.4999999876
 40
0.5632530336
 40
0.5948625861
 40
0.6264416315
 40
0.6579804366
 40
0.6894696352
 40
0.7209003148
 40
0.7522641052
 40
0.783553257
 40
0.8147607283
 40
0.8458802279
 40
0.8769063008
 40
0.9078345167
 40
0.9386607723
 40
0.9693838013
 40
1.0
 40
1.0
 40
1.0
 40
1.0
 10
9.6655023598
 20
7.7291238873
 30
0.0
 10
9.672051349
 20
7.7288967982
 30
0.0
 10
9.6851628454
 20
7.7281119698
 30
0.0
 10
9.7047784614
 20
7.7259531912
 30
0.0
 10
9.7243295528
 20
7.7228162303
 30
0.0
 10
9.7437662883
 20
7.718709056
 30
0.0
 10
9.7630399633
 20
7.713642052
 30
0.0
 10
9.782102063
 20
7.7076280054
 30
0.0
 10
9.8009046676
 20
7.7006820712
 30
0.0
 10
9.8194004878
 20
7.6928217317
 30
0.0
 10
9.8375430278
 20
7.6840667953
 30
0.0
 10
9.8552866738
 20
7.6744393228
 30
0.0
 10
9.8725868466
 20
7.6639635191
 30
0.0
 10
9.8893999507
 20
7.6526658365
 30
0.0
 10
9.9056840818
 20
7.6405743102
 30
0.0
 10
9.9266372902
 20
7.6234339566
 30
0.0
 10
9.9513001919
 20
7.6001836464
 30
0.0
 10
9.973681903
 20
7.5747298689
 30
0.0
 10
9.9900858396
 20
7.553195256
 30
0.0
 10
10.0016057981
 20
7.5365018902
 30
0.0
 10
10.0123140827
 20
7.5193073925
 30
0.0
 10
10.0221841038
 20
7.5016545968
 30
0.0
 10
10.03119091
 20
7.483587978
 30
0.0
 10
10.0393118699
 20
7.4651529384
 30
0.0
 10
10.0465265417
 20
7.4463958376
 30
0.0
 10
10.0528167516
 20
7.4273638321
 30
0.0
 10
10.0581666374
 20
7.40810478
 30
0.0
 10
10.0625627067
 20
7.3886670747
 30
0.0
 10
10.0659938065
 20
7.3690997248
 30
0.0
 10
10.0684514404
 20
7.3494515835
 30
0.0
 10
10.0699291239
 20
7.3297729504
 30
0.0
 10
10.0702591733
 20
7.3166420836
 30
0.0
 10
10.0702591789
 20
7.3100892472
 30
0.0
  0
SPLINE
  5
38A
100
AcDbEntity
  8
0
100
AcDbSpline
 62
7
  6
CONTINUOUS
 70
0
 71
3
 72
46
 73
42
 74
0
 42
0.0000001
 43
0.0000001
 44
0.0000000001
 40
0.0
 40
0.0
 40
0.0
 40
0.0
 40
0.0840358155
 40
0.1695038657
 40
0.2553461646
 40
0.2980758532
 40
0.3405003594
 40
0.382488464
 40
0.4239106884
 40
0.4646398251
 40
0.5045514761
 40
0.5435246025
 40
0.5814420909
 40
0.6181913426
 40
0.6536649091
 40
0.6877611648
 40
0.7203850417
 40
0.751448871
 40
0.7808733741
 40
0.8085888695
 40
0.8345368019
 40
0.8468338779
 40
0.8586733281
 40
0.8700519371
 40
0.8809677801
 40
0.8914203277
 40
0.9014105083
 40
0.910941208
 40
0.920017169
 40
0.928645721
 40
0.9368368282
 40
0.9446037978
 40
0.951963758
 40
0.9589382177
 40
0.9655539713
 40
0.971843516
 40
0.9778459691
 40
0.9836071969
 40
0.9891799317
 40
0.9946230211
 40
1.0
 40
1.0
 40
1.0
 40
1.0
 10
12.1703980167
 20
8.8292776957
 30
0.0
 10
12.1703980167
 20
8.8181315261
 30
0.0
 10
12.1700482493
 20
8.7956479047
 30
0.0
 10
12.1685303273
 20
8.7618095412
 30
0.0
 10
12.1664455849
 20
8.7334924434
 30
0.0
 10
12.1642909732
 20
8.7109140884
 30
0.0
 10
12.1624438295
 20
8.6941512745
 30
0.0
 10
12.160369364
 20
8.6775898492
 30
0.0
 10
12.1580744287
 20
8.6612845495
 30
0.0
 10
12.1555666569
 20
8.6452893134
 30
0.0
 10
12.1528543809
 20
8.6296570302
 30
0.0
 10
12.1499466199
 20
8.6144393818
 30
0.0
 10
12.1468530475
 20
8.5996866641
 30
0.0
 10
12.1435839601
 20
8.5854476163
 30
0.0
 10
12.1401502467
 20
8.5717692507
 30
0.0
 10
12.1365633516
 20
8.5586966905
 30
0.0
 10
12.1328352335
 20
8.546273003
 30
0.0
 10
12.1289783235
 20
8.5345390715
 30
0.0
 10
12.1250054807
 20
8.5235333401
 30
0.0
 10
12.1209299242
 20
8.5132919919
 30
0.0
 10
12.1173989134
 20
8.5052847047
 30
0.0
 10
12.1145244633
 20
8.4992952701
 30
0.0
 10
12.1123900695
 20
8.4950954876
 30
0.0
 10
12.1102401563
 20
8.4911105785
 30
0.0
 10
12.1080764603
 20
8.487343797
 30
0.0
 10
12.1059007833
 20
8.4837981986
 30
0.0
 10
12.1037148358
 20
8.480476687
 30
0.0
 10
12.1015204501
 20
8.4773819118
 30
0.0
 10
12.0993192944
 20
8.4745164072
 30
0.0
 10
12.0971131606
 20
8.4718824349
 30
0.0
 10
12.0949036968
 20
8.4694821329
 30
0.0
 10
12.092692566
 20
8.4673174313
 30
0.0
 10
12.0904813901
 20
8.4653900755
 30
0.0
 10
12.0882716608
 20
8.4637017586
 30
0.0
 10
12.0860649444
 20
8.4622539285
 30
0.0
 10
12.083862644
 20
8.4610481638
 30
0.0
 10
12.0816663325
 20
8.4600858227
 30
0.0
 10
12.0794776538
 20
8.4593684196
 30
0.0
 10
12.0772984381
 20
8.4588973124
 30
0.0
 10
12.0751313227
 20
8.4586736099
 30
0.0
 10
12.0736925406
 20
8.4586900696
 30
0.0
 10
12.0729810689
 20
8.458739412
 30
0.0
  0
SPLINE
  5
38B
100
AcDbEntity
  8
0
100
AcDbSpline
 62
7
  6
CONTINUOUS
 70
0
 71
3
 72
15
 73
11
 74
0
 42
0.0000001
 43
0.0000001
 44
0.0000000001
 40
0.0
 40
0.0
 40
0.0
 40
0.0
 40
0.1266122987
 40
0.2527332007
 40
0.3783630562
 40
0.5035243451
 40
0.6282370273
 40
0.7525302343
 40
0.8764380608
 40
1.0
 40
1.0
 40
1.0
 40
1.0
 10
10.7815151327
 20
7.8472191123
 30
0.0
 10
10.7815151327
 20
7.8516363814
 30
0.0
 10
10.7817652323
 20
7.8604558792
 30
0.0
 10
10.7828945098
 20
7.8736148266
 30
0.0
 10
10.7847738124
 20
7.8866371329
 30
0.0
 10
10.7873969095
 20
7.899480051
 30
0.0
 10
10.790755529
 20
7.9121023549
 30
0.0
 10
10.7948389008
 20
7.924463326
 30
0.0
 10
10.7996336302
 20
7.9365225069
 30
0.0
 10
10.8032994273
 20
7.9443461475
 30
0.0
 10
10.8052449576
 20
7.9481930059
 30
0.0
  0
SPLINE
  5
38C
100
AcDbEntity
  8
0
100
AcDbSpline
 62
7
  6
CONTINUOUS
 70
0
 71
3
 72
15
 73
11
 74
0
 42
0.0000001
 43
0.0000001
 44
0.0000000001
 40
0.0
 40
0.0
 40
0.0
 40
0.0
 40
0.1264492302
 40
0.2524682104
 40
0.3780467841
 40
0.5032057328
 40
0.6279587774
 40
0.7523252638
 40
0.876329771
 40
1.0
 40
1.0
 40
1.0
 40
1.0
 10
10.7685741804
 20
7.8472191115
 30
0.0
 10
10.7685741804
 20
7.8513348894
 30
0.0
 10
10.7687806968
 20
7.8595539737
 30
0.0
 10
10.7697127345
 20
7.8718286805
 30
0.0
 10
10.7712644662
 20
7.8839985717
 30
0.0
 10
10.773431796
 20
7.8960321432
 30
0.0
 10
10.7762093527
 20
7.9078992147
 30
0.0
 10
10.7795901401
 20
7.9195697467
 30
0.0
 10
10.7835654378
 20
7.9310137669
 30
0.0
 10
10.7866096378
 20
7.9384832124
 30
0.0
 10
10.7882270535
 20
7.9421692949
 30
0.0
  0
SPLINE
  5
38D
100
AcDbEntity
  8
0
100
AcDbSpline
 62
7
  6
CONTINUOUS
 70
0
 71
3
 72
39
 73
35
 74
0
 42
0.0000001
 43
0.0000001
 44
0.0000000001
 40
0.0
 40
0.0
 40
0.0
 40
0.0
 40
0.0308439016
 40
0.0618212756
 40
0.0929276159
 40
0.1241588159
 40
0.1555074717
 40
0.1869649967
 40
0.2185209981
 40
0.2501636947
 40
0.2818800296
 40
0.313655885
 40
0.3454762892
 40
0.3773256352
 40
0.4091879047
 40
0.4410468958
 40
0.472886453
 40
0.5046906964
 40
0.5364442485
 40
0.5681324565
 40
0.5997416085
 40
0.6312591375
 40
0.6626738141
 40
0.6939759228
 40
0.7251574222
 40
0.7562120832
 40
0.7871356055
 40
0.8179257081
 40
0.8485821918
 40
0.8791069692
 40
0.9095040612
 40
0.9397795586
 40
0.9699415478
 40
1.0
 40
1.0
 40
1.0
 40
1.0
 10
10.7685741804
 20
7.8472191115
 30
0.0
 10
10.7685741804
 20
7.8420690834
 30
0.0
 10
10.7688987825
 20
7.8317438949
 30
0.0
 10
10.7703500026
 20
7.8162862589
 30
0.0
 10
10.7727609696
 20
7.8008830209
 30
0.0
 10
10.7761219323
 20
7.7855956292
 30
0.0
 10
10.7804197399
 20
7.7704838334
 30
0.0
 10
10.785637361
 20
7.7556070915
 30
0.0
 10
10.7917542702
 20
7.741023807
 30
0.0
 10
10.7987463743
 20
7.7267912595
 30
0.0
 10
10.8065861719
 20
7.7129653411
 30
0.0
 10
10.8152428287
 20
7.6996003434
 30
0.0
 10
10.8246823128
 20
7.6867487457
 30
0.0
 10
10.8348675287
 20
7.6744610136
 30
0.0
 10
10.8457584615
 20
7.6627854018
 30
0.0
 10
10.8573123332
 20
7.6517677669
 30
0.0
 10
10.8694837688
 20
7.6414513889
 30
0.0
 10
10.882224973
 20
7.6318768023
 30
0.0
 10
10.8954859167
 20
7.6230816394
 30
0.0
 10
10.9092145273
 20
7.6151004765
 30
0.0
 10
10.9233568932
 20
7.6079646976
 30
0.0
 10
10.9378574778
 20
7.601702379
 30
0.0
 10
10.9526593341
 20
7.596338177
 30
0.0
 10
10.9677043261
 20
7.591893232
 30
0.0
 10
10.982933354
 20
7.5883850844
 30
0.0
 10
10.9982865839
 20
7.5858276049
 30
0.0
 10
11.0137036797
 20
7.5842309387
 30
0.0
 10
11.0291240391
 20
7.5836014599
 30
0.0
 10
11.0444870246
 20
7.5839417346
 30
0.0
 10
11.0597322268
 20
7.5852505289
 30
0.0
 10
11.0747996056
 20
7.5875227721
 30
0.0
 10
11.0896300773
 20
7.5907497066
 30
0.0
 10
11.104164443
 20
7.5949184223
 30
0.0
 10
11.113635512
 20
7.5983207116
 30
0.0
 10
11.118300243
 20
7.6001725893
 30
0.0
  0
SPLINE
  5
38E
100
AcDbEntity
  8
0
100
AcDbSpline
 62
7
  6
CONTINUOUS
 70
0
 71
3
 72
39
 73
35
 74
0
 42
0.0000001
 43
0.0000001
 44
0.0000000001
 40
0.0
 40
0.0
 40
0.0
 40
0.0
 40
0.0310606061
 40
0.0622767298
 40
0.0936439742
 40
0.1251538911
 40
0.1567954808
 40
0.1885549796
 40
0.2204162644
 40
0.2523611871
 40
0.2843699492
 40
0.3164215008
 40
0.3484939569
 40
0.3805650259
 40
0.4126124435
 40
0.4446144054
 40
0.4765499939
 40
0.5083995941
 40
0.5401452898
 40
0.5717712344
 40
0.6032639908
 40
0.6346128348
 40
0.6658100122
 40
0.6968509408
 40
0.7277343543
 40
0.7584623793
 40
0.7890405432
 40
0.8194777013
 40
0.8497858843
 40
0.8799800665
 40
0.9100778568
 40
0.9400991163
 40
0.970065509
 40
1.0
 40
1.0
 40
1.0
 40
1.0
 10
10.3812872959
 20
7.7106286854
 30
0.0
 10
10.3812872959
 20
7.6989759428
 30
0.0
 10
10.3821473277
 20
7.6756033315
 30
0.0
 10
10.3859875832
 20
7.6406529999
 30
0.0
 10
10.3923600557
 20
7.6059016924
 30
0.0
 10
10.4012302754
 20
7.57153864
 30
0.0
 10
10.4125501751
 20
7.5377479592
 30
0.0
 10
10.4262586627
 20
7.5047114026
 30
0.0
 10
10.4422817937
 20
7.4726064156
 30
0.0
 10
10.4605332662
 20
7.4416054842
 30
0.0
 10
10.4809148604
 20
7.4118751425
 30
0.0
 10
10.5033169737
 20
7.3835751204
 30
0.0
 10
10.5276191585
 20
7.3568574553
 30
0.0
 10
10.5536907913
 20
7.3318656966
 30
0.0
 10
10.5813917861
 20
7.3087341618
 30
0.0
 10
10.6105733323
 20
7.2875872198
 30
0.0
 10
10.6410786818
 20
7.2685386309
 30
0.0
 10
10.6727439513
 20
7.2516908875
 30
0.0
 10
10.7053990298
 20
7.2371347163
 30
0.0
 10
10.7388684741
 20
7.2249485912
 30
0.0
 10
10.7729724387
 20
7.2151983192
 30
0.0
 10
10.8075276157
 20
7.2079366522
 30
0.0
 10
10.8423482096
 20
7.203202974
 30
0.0
 10
10.8772469351
 20
7.2010231329
 30
0.0
 10
10.9120360054
 20
7.2014092757
 30
0.0
 10
10.9465281288
 20
7.2043597792
 30
0.0
 10
10.9805375139
 20
7.209859173
 30
0.0
 10
11.0138808785
 20
7.2178782387
 30
0.0
 10
11.046378417
 20
7.228374151
 30
0.0
 10
11.0778548391
 20
7.2412907373
 30
0.0
 10
11.1081400941
 20
7.256558538
 30
0.0
 10
11.1370712106
 20
7.2740959158
 30
0.0
 10
11.1644899422
 20
7.2938065549
 30
0.0
 10
11.1816717234
 20
7.3083334978
 30
0.0
 10
11.1899558178
 20
7.3159158912
 30
0.0
  0
SPLINE
  5
38F
100
AcDbEntity
  8
0
100
AcDbSpline
 62
7
  6
CONTINUOUS
 70
0
 71
3
 72
23
 73
19
 74
0
 42
0.0000001
 43
0.0000001
 44
0.0000000001
 40
0.0
 40
0.0
 40
0.0
 40
0.0
 40
0.0637531719
 40
0.1273041304
 40
0.1906509356
 40
0.2538009977
 40
0.3167595257
 40
0.379534579
 40
0.4421357789
 40
0.5045742374
 40
0.5668626196
 40
0.6290149568
 40
0.6910465583
 40
0.7529738687
 40
0.8148143132
 40
0.8765861366
 40
0.9383082393
 40
1.0
 40
1.0
 40
1.0
 40
1.0
 10
10.3812872959
 20
7.7106286854
 30
0.0
 10
10.3812872959
 20
7.717972214
 30
0.0
 10
10.3816273478
 20
7.7326383058
 30
0.0
 10
10.3831620111
 20
7.7545527835
 30
0.0
 10
10.385717459
 20
7.7763024164
 30
0.0
 10
10.3892879489
 20
7.7978394063
 30
0.0
 10
10.3938660257
 20
7.8191176871
 30
0.0
 10
10.3994417853
 20
7.8400912317
 30
0.0
 10
10.4060032257
 20
7.8607148291
 30
0.0
 10
10.4135362412
 20
7.8809439786
 30
0.0
 10
10.4220246338
 20
7.9007350171
 30
0.0
 10
10.4314501355
 20
7.9200452257
 30
0.0
 10
10.4417924057
 20
7.9388329362
 30
0.0
 10
10.4530291603
 20
7.9570576072
 30
0.0
 10
10.4651361494
 20
7.9746798547
 30
0.0
 10
10.478087413
 20
7.9916617526
 30
0.0
 10
10.4918545096
 20
8.0079661529
 30
0.0
 10
10.5015591909
 20
8.0183633375
 30
0.0
 10
10.5065357552
 20
8.0234358316
 30
0.0
  0
SPLINE
  5
390
100
AcDbEntity
  8
0
100
AcDbSpline
 62
7
  6
CONTINUOUS
 70
0
 71
3
 72
23
 73
19
 74
0
 42
0.0000001
 43
0.0000001
 44
0.0000000001
 40
0.0
 40
0.0
 40
0.0
 40
0.0
 40
0.0638356382
 40
0.127301092
 40
0.1904139417
 40
0.253199943
 40
0.3156955122
 40
0.3779457597
 40
0.4400033574
 40
0.5019269783
 40
0.5637795032
 40
0.625626056
 40
0.6875319481
 40
0.7495606195
 40
0.8117716505
 40
0.8742189298
 40
0.9369490542
 40
1.0
 40
1.0
 40
1.0
 40
1.0
 10
10.5580517325
 20
7.6983700301
 30
0.0
 10
10.5580517325
 20
7.7067485172
 30
0.0
 10
10.5587560781
 20
7.7234658337
 30
0.0
 10
10.5619403777
 20
7.7482837576
 30
0.0
 10
10.5672270085
 20
7.7726016988
 30
0.0
 10
10.5745789072
 20
7.7962436506
 30
0.0
 10
10.5839439922
 20
7.8190410708
 30
0.0
 10
10.5952557127
 20
7.8408306621
 30
0.0
 10
10.6084334961
 20
7.8614564363
 30
0.0
 10
10.6233833226
 20
7.8807706065
 30
0.0
 10
10.6399983313
 20
7.8986347967
 30
0.0
 10
10.6581595952
 20
7.9149210884
 30
0.0
 10
10.6777370484
 20
7.9295129187
 30
0.0
 10
10.6985905152
 20
7.9423059407
 30
0.0
 10
10.7205704325
 20
7.9532088215
 30
0.0
 10
10.7435200237
 20
7.9621440327
 30
0.0
 10
10.7672726546
 20
7.9690477151
 30
0.0
 10
10.7834920395
 20
7.9722555274
 30
0.0
 10
10.7916720467
 20
7.9735090449
 30
0.0
  0
SPLINE
  5
391
100
AcDbEntity
  8
0
100
AcDbSpline
 62
7
  6
CONTINUOUS
 70
0
 71
3
 72
23
 73
19
 74
0
 42
0.0000001
 43
0.0000001
 44
0.0000000001
 40
0.0
 40
0.0
 40
0.0
 40
0.0
 40
0.0638713843
 40
0.1273879769
 40
0.1905653729
 40
0.2534259935
 40
0.3160019854
 40
0.3783331314
 40
0.4404661537
 40
0.5024534051
 40
0.5643514187
 40
0.6262193019
 40
0.6881170342
 40
0.7501037312
 40
0.8122359414
 40
0.874566039
 40
0.9371407705
 40
1.0
 40
1.0
 40
1.0
 40
1.0
 10
10.6072498005
 20
7.7233607218
 30
0.0
 10
10.6072498005
 20
7.7307932222
 30
0.0
 10
10.6078476791
 20
7.7456241774
 30
0.0
 10
10.6105503663
 20
7.7676583097
 30
0.0
 10
10.615039004
 20
7.7892808635
 30
0.0
 10
10.621284786
 20
7.8103486297
 30
0.0
 10
10.6292471681
 20
7.8307241775
 30
0.0
 10
10.6388744298
 20
7.8502739507
 30
0.0
 10
10.6501038183
 20
7.8688698877
 30
0.0
 10
10.6628620006
 20
7.886390098
 30
0.0
 10
10.6770655446
 20
7.9027197337
 30
0.0
 10
10.6926214714
 20
7.9177517603
 30
0.0
 10
10.7094278633
 20
7.9313876856
 30
0.0
 10
10.7273746089
 20
7.9435382414
 30
0.0
 10
10.7463439156
 20
7.9541239655
 30
0.0
 10
10.7662119726
 20
7.9630758715
 30
0.0
 10
10.7868466677
 20
7.9703352297
 30
0.0
 10
10.8009945296
 20
7.9740070779
 30
0.0
 10
10.8081450478
 20
7.9755482491
 30
0.0
  0
SPLINE
  5
392
100
AcDbEntity
  8
0
100
AcDbSpline
 62
7
  6
CONTINUOUS
 70
0
 71
3
 72
21
 73
17
 74
0
 42
0.0000001
 43
0.0000001
 44
0.0000000001
 40
0.0
 40
0.0
 40
0.0
 40
0.0
 40
0.1273176899
 40
0.2537999351
 40
0.3167619508
 40
0.3795355113
 40
0.4421314924
 40
0.5045621415
 40
0.5668413449
 40
0.6289845255
 40
0.6910084484
 40
0.7529310939
 40
0.814771448
 40
0.8765493308
 40
0.9382852181
 40
1.0
 40
1.0
 40
1.0
 40
1.0
 10
10.6464036697
 20
7.7292114531
 30
0.0
 10
10.6464036697
 20
7.7370495393
 30
0.0
 10
10.6471518619
 20
7.7526843685
 30
0.0
 10
10.649977573
 20
7.7720123955
 30
0.0
 10
10.6533548972
 20
7.7871735441
 30
0.0
 10
10.6564348408
 20
7.7983564171
 30
0.0
 10
10.6600582106
 20
7.8093405788
 30
0.0
 10
10.6642166527
 20
7.8201010209
 30
0.0
 10
10.6689005801
 20
7.8306128564
 30
0.0
 10
10.6740992868
 20
7.8408518249
 30
0.0
 10
10.6798007468
 20
7.8507943245
 30
0.0
 10
10.6859918115
 20
7.8604174418
 30
0.0
 10
10.6926582635
 20
7.8696989094
 30
0.0
 10
10.6997847703
 20
7.8786174117
 30
0.0
 10
10.7073545813
 20
7.8871521331
 30
0.0
 10
10.7126861016
 20
7.8925738956
 30
0.0
 10
10.7154188008
 20
7.8952134967
 30
0.0
  0
SPLINE
  5
393
100
AcDbEntity
  8
0
100
AcDbSpline
 62
7
  6
CONTINUOUS
 70
0
 71
3
 72
39
 73
35
 74
0
 42
0.0000001
 43
0.0000001
 44
0.0000000001
 40
0.0
 40
0.0
 40
0.0
 40
0.0
 40
0.0313078535
 40
0.0628116495
 40
0.0945020872
 40
0.1263628551
 40
0.1583723983
 40
0.1905044215
 40
0.2227287691
 40
0.2550124094
 40
0.2873204793
 40
0.3196173606
 40
0.3518677791
 40
0.3840378981
 40
0.4160963737
 40
0.4480153573
 40
0.4797714252
 40
0.5113463823
 40
0.5427279459
 40
0.5739102587
 40
0.6048941968
 40
0.6356874823
 40
0.6663045304
 40
0.6967660574
 40
0.727098437
 40
0.7573327991
 40
0.7875039323
 40
0.8176490002
 40
0.847806151
 40
0.8780130772
 40
0.9083055939
 40
0.9387163172
 40
0.9692734856
 40
1.0
 40
1.0
 40
1.0
 40
1.0
 10
10.5580517325
 20
7.6983700301
 30
0.0
 10
10.5580517325
 20
7.6891495872
 30
0.0
 10
10.55891007
 20
7.6706400707
 30
0.0
 10
10.5627325399
 20
7.6430355273
 30
0.0
 10
10.5690605869
 20
7.615726569
 30
0.0
 10
10.5778398069
 20
7.5889487601
 30
0.0
 10
10.5889947644
 20
7.5629291589
 30
0.0
 10
10.6024301721
 20
7.5378893798
 30
0.0
 10
10.6180312885
 20
7.5140423052
 30
0.0
 10
10.6356651299
 20
7.4915907618
 30
0.0
 10
10.6551815918
 20
7.4707257817
 30
0.0
 10
10.676414498
 20
7.4516248276
 30
0.0
 10
10.6991832825
 20
7.4344505691
 30
0.0
 10
10.7232942821
 20
7.4193493238
 30
0.0
 10
10.7485424132
 20
7.406449831
 30
0.0
 10
10.7747129763
 20
7.3958623842
 30
0.0
 10
10.8015832723
 20
7.3876775371
 30
0.0
 10
10.8289246096
 20
7.3819656375
 30
0.0
 10
10.8565041305
 20
7.3787761121
 30
0.0
 10
10.8840867574
 20
7.3781368296
 30
0.0
 10
10.9114371876
 20
7.3800541891
 30
0.0
 10
10.9383218482
 20
7.3845126244
 30
0.0
 10
10.9645109152
 20
7.3914748557
 30
0.0
 10
10.9897802223
 20
7.4008822311
 30
0.0
 10
11.0139133366
 20
7.4126548166
 30
0.0
 10
11.0367033381
 20
7.4266924161
 30
0.0
 10
11.0579547465
 20
7.4428751395
 30
0.0
 10
11.0774853498
 20
7.4610644359
 30
0.0
 10
11.095127633
 20
7.4811045015
 30
0.0
 10
11.1107305951
 20
7.5028234583
 30
0.0
 10
11.1241607936
 20
7.5260347989
 30
0.0
 10
11.1353037768
 20
7.5505403213
 30
0.0
 10
11.144064282
 20
7.5761268639
 30
0.0
 10
11.1482559715
 20
7.5937151747
 30
0.0
 10
11.149935835
 20
7.6026071195
 30
0.0
  0
SPLINE
  5
394
100
AcDbEntity
  8
0
100
AcDbSpline
 62
7
  6
CONTINUOUS
 70
0
 71
3
 72
52
 73
48
 74
0
 42
0.0000001
 43
0.0000001
 44
0.0000000001
 40
0.0
 40
0.0
 40
0.0
 40
0.0
 40
0.0312930868
 40
0.0627784334
 40
0.0944473706
 40
0.1262843917
 40
0.1582691028
 40
0.1903765468
 40
0.2225780445
 40
0.2548420923
 40
0.2871353223
 40
0.319423501
 40
0.3516725448
 40
0.3838495328
 40
0.4159236937
 40
0.4478673545
 40
0.4796568098
 40
0.5112731021
 40
0.5427026945
 40
0.5739379865
 40
0.6049776637
 40
0.6204296292
 40
0.6358351582
 40
0.6511958955
 40
0.6665138664
 40
0.6817914623
 40
0.6970314333
 40
0.7122368574
 40
0.7274111147
 40
0.7425578689
 40
0.7576810281
 40
0.7727847095
 40
0.7878732115
 40
0.8029509693
 40
0.8180225123
 40
0.8330924306
 40
0.8481653292
 40
0.8632457819
 40
0.8783382969
 40
0.893447274
 40
0.9085769591
 40
0.9237314135
 40
0.9389144783
 40
0.9541297321
 40
0.9693804748
 40
0.9846696891
 40
1.0
 40
1.0
 40
1.0
 40
1.0
 10
10.6072498005
 20
7.7233607218
 30
0.0
 10
10.6072498005
 20
7.7149738596
 30
0.0
 10
10.6080157223
 20
7.6981390337
 30
0.0
 10
10.6114275473
 20
7.6730251391
 30
0.0
 10
10.6170770592
 20
7.6481671186
 30
0.0
 10
10.6249175757
 20
7.6237714216
 30
0.0
 10
10.6348842292
 20
7.6000372535
 30
0.0
 10
10.6468949562
 20
7.5771592047
 30
0.0
 10
10.6608511085
 20
7.555324619
 30
0.0
 10
10.6766380856
 20
7.5347122916
 30
0.0
 10
10.694126424
 20
7.5154910199
 30
0.0
 10
10.7131728631
 20
7.4978183227
 30
0.0
 10
10.7336213467
 20
7.4818390098
 30
0.0
 10
10.7553044047
 20
7.4676841126
 30
0.0
 10
10.7780445215
 20
7.455469897
 30
0.0
 10
10.8016554362
 20
7.4452967299
 30
0.0
 10
10.82594377
 20
7.4372483742
 30
0.0
 10
10.8507104181
 20
7.4313913674
 30
0.0
 10
10.8757527
 20
7.4277743443
 30
0.0
 10
10.9008637443
 20
7.4264273845
 30
0.0
 10
10.9217126024
 20
7.4272083737
 30
0.0
 10
10.9382122501
 20
7.4289749314
 30
0.0
 10
10.9504590903
 20
7.430863616
 30
0.0
 10
10.9625691516
 20
7.4333140279
 30
0.0
 10
10.9745178584
 20
7.4363211947
 30
0.0
 10
10.9862805397
 20
7.4398789828
 30
0.0
 10
10.9978330507
 20
7.4439800204
 30
0.0
 10
11.0091516077
 20
7.4486159444
 30
0.0
 10
11.0202129156
 20
7.4537772583
 30
0.0
 10
11.0309942516
 20
7.4594532908
 30
0.0
 10
11.0414734098
 20
7.4656324326
 30
0.0
 10
11.0516288152
 20
7.4723019981
 30
0.0
 10
11.0614396154
 20
7.4794482124
 30
0.0
 10
11.0708855902
 20
7.4870564315
 30
0.0
 10
11.0799472918
 20
7.4951110157
 30
0.0
 10
11.0886061277
 20
7.5035953413
 30
0.0
 10
11.0968442418
 20
7.512492001
 30
0.0
 10
11.1046446791
 20
7.521782693
 30
0.0
 10
11.1119914539
 20
7.5314482552
 30
0.0
 10
11.1188694081
 20
7.5414688415
 30
0.0
 10
11.1252643968
 20
7.5518238319
 30
0.0
 10
11.1311633375
 20
7.5624918835
 30
0.0
 10
11.1365540525
 20
7.5734510886
 30
0.0
 10
11.1414254648
 20
7.5846788718
 30
0.0
 10
11.145767657
 20
7.596152204
 30
0.0
 10
11.149571565
 20
7.6078471654
 30
0.0
 10
11.1517406524
 20
7.6157653478
 30
0.0
 10
11.1527332543
 20
7.6197523232
 30
0.0
  0
SPLINE
  5
395
100
AcDbEntity
  8
0
100
AcDbSpline
 62
7
  6
CONTINUOUS
 70
0
 71
3
 72
41
 73
37
 74
0
 42
0.0000001
 43
0.0000001
 44
0.0000000001
 40
0.0
 40
0.0
 40
0.0
 40
0.0
 40
0.0310749525
 40
0.0466745244
 40
0.0623125125
 40
0.0936974008
 40
0.1252262402
 40
0.1568876815
 40
0.1886675218
 40
0.2205491621
 40
0.2525139252
 40
0.2685235924
 40
0.2845462935
 40
0.3166149988
 40
0.3487024468
 40
0.3807858394
 40
0.4128424592
 40
0.444850121
 40
0.4767876162
 40
0.5086351432
 40
0.5403747181
 40
0.5719905572
 40
0.6034694262
 40
0.6348009465
 40
0.665977853
 40
0.6969961941
 40
0.7278554676
 40
0.7585586845
 40
0.7891123553
 40
0.8195263954
 40
0.8498139439
 40
0.8799911003
 40
0.9100765778
 40
0.940091283
 40
0.9700578297
 40
1.0
 40
1.0
 40
1.0
 40
1.0
 10
10.6464036697
 20
7.7292114531
 30
0.0
 10
10.6464036697
 20
7.7231193111
 30
0.0
 10
10.6467442081
 20
7.7139643257
 30
0.0
 10
10.6478688751
 20
7.7017981236
 30
0.0
 10
10.6494447554
 20
7.6896202681
 30
0.0
 10
10.6522539587
 20
7.6744640296
 30
0.0
 10
10.6569397006
 20
7.6565087017
 30
0.0
 10
10.6629185857
 20
7.6388595855
 30
0.0
 10
10.6701576705
 20
7.621614017
 30
0.0
 10
10.6786167772
 20
7.6048669401
 30
0.0
 10
10.6866410326
 20
7.5914081781
 30
0.0
 10
10.6936203345
 20
7.5809795318
 30
0.0
 10
10.7009694311
 20
7.5707829529
 30
0.0
 10
10.7108195097
 20
7.5585156486
 30
0.0
 10
10.7236316762
 20
7.5446453873
 30
0.0
 10
10.7373705967
 20
7.5316952775
 30
0.0
 10
10.7519605467
 20
7.519736881
 30
0.0
 10
10.7673215546
 20
7.5088357444
 30
0.0
 10
10.7833693143
 20
7.4990517947
 30
0.0
 10
10.8000157813
 20
7.4904388111
 30
0.0
 10
10.8171696126
 20
7.483044185
 30
0.0
 10
10.8347366714
 20
7.4769086461
 30
0.0
 10
10.8526205336
 20
7.4720660412
 30
0.0
 10
10.8707230102
 20
7.4685431448
 30
0.0
 10
10.8889446788
 20
7.4663595083
 30
0.0
 10
10.9071854223
 20
7.465527346
 30
0.0
 10
10.9253449725
 20
7.4660514595
 30
0.0
 10
10.9433234563
 20
7.4679292015
 30
0.0
 10
10.9610219414
 20
7.471150477
 30
0.0
 10
10.9783429829
 20
7.4756977885
 30
0.0
 10
10.995191154
 20
7.4815463096
 30
0.0
 10
11.0114736113
 20
7.48866404
 30
0.0
 10
11.0271004928
 20
7.4970118542
 30
0.0
 10
11.0419858863
 20
7.5065441425
 30
0.0
 10
11.0560466073
 20
7.5172074431
 30
0.0
 10
11.0648227557
 20
7.525034711
 30
0.0
 10
11.0690448133
 20
7.5291129309
 30
0.0
  0
SPLINE
  5
396
100
AcDbEntity
  8
0
100
AcDbSpline
 62
7
  6
CONTINUOUS
 70
0
 71
3
 72
42
 73
38
 74
0
 42
0.0000001
 43
0.0000001
 44
0.0000000001
 40
0.0
 40
0.0
 40
0.0
 40
0.0
 40
0.0308788479
 40
0.0463717882
 40
0.0618980413
 40
0.0930463597
 40
0.1243222198
 40
0.1557180665
 40
0.1872244611
 40
0.2188302372
 40
0.2505226943
 40
0.2822878039
 40
0.3141104326
 40
0.3459745779
 40
0.3778636125
 40
0.4097605356
 40
0.4416482282
 40
0.4735097096
 40
0.5053283927
 40
0.5370883341
 40
0.5687744791
 40
0.6003728954
 40
0.6318709956
 40
0.6632577427
 40
0.6945238386
 40
0.7256618891
 40
0.7566665444
 40
0.7875346117
 40
0.8182651349
 40
0.8488594402
 40
0.8641086116
 40
0.8793252793
 40
0.9096602607
 40
0.9398765828
 40
0.9549454716
 40
0.9699886651
 40
1.0
 40
1.0
 40
1.0
 40
1.0
 10
9.6142308621
 20
8.9146348925
 30
0.0
 10
9.6142308621
 20
8.9074642295
 30
0.0
 10
9.6145787349
 20
8.8966917059
 30
0.0
 10
9.6157292766
 20
8.8823621978
 30
0.0
 10
9.6173415331
 20
8.8680138018
 30
0.0
 10
9.6202170863
 20
8.8501288972
 30
0.0
 10
9.6250210796
 20
8.8288641054
 30
0.0
 10
9.6311623015
 20
8.8078593774
 30
0.0
 10
9.6386151373
 20
8.7872022681
 30
0.0
 10
9.6473486247
 20
8.7669782083
 30
0.0
 10
9.6573264922
 20
8.7472710068
 30
0.0
 10
9.6685073354
 20
8.7281622769
 30
0.0
 10
9.6808447806
 20
8.709731164
 30
0.0
 10
9.6942876787
 20
8.6920540036
 30
0.0
 10
9.7087803152
 20
8.6752040131
 30
0.0
 10
9.7242626396
 20
8.6592509894
 30
0.0
 10
9.7406705128
 20
8.6442610223
 30
0.0
 10
9.7579359706
 20
8.6302962232
 30
0.0
 10
9.7759875026
 20
8.6174144692
 30
0.0
 10
9.7947503467
 20
8.6056691651
 30
0.0
 10
9.8141467949
 20
8.595109023
 30
0.0
 10
9.8340965132
 20
8.5857778616
 30
0.0
 10
9.8545168699
 20
8.5777144246
 30
0.0
 10
9.8753232762
 20
8.5709522205
 30
0.0
 10
9.8964295276
 20
8.5655193819
 30
0.0
 10
9.9177481757
 20
8.5614385502
 30
0.0
 10
9.9391908182
 20
8.5587267702
 30
0.0
 10
9.960668716
 20
8.5573954479
 30
0.0
 10
9.9820922154
 20
8.5574501846
 30
0.0
 10
9.9998473041
 20
8.5586523446
 30
0.0
 10
10.0139321089
 20
8.5603060719
 30
0.0
 10
10.0278952854
 20
8.5624137744
 30
0.0
 10
10.0451548944
 20
8.5659017593
 30
0.0
 10
10.062110552
 20
8.5705240232
 30
0.0
 10
10.0754259575
 20
8.5748866083
 30
0.0
 10
10.088541487
 20
8.5796790207
 30
0.0
 10
10.0981835031
 20
8.5837677456
 30
0.0
 10
10.1045031896
 20
8.5867056783
 30
0.0
  0
SPLINE
  5
397
100
AcDbEntity
  8
0
100
AcDbSpline
 62
7
  6
CONTINUOUS
 70
0
 71
3
 72
15
 73
11
 74
0
 42
0.0000001
 43
0.0000001
 44
0.0000000001
 40
0.0
 40
0.0
 40
0.0
 40
0.0
 40
0.1266152035
 40
0.2527357682
 40
0.3783668823
 40
0.5035279721
 40
0.6282401516
 40
0.7525325052
 40
0.8764392196
 40
1.0
 40
1.0
 40
1.0
 40
1.0
 10
9.6142308621
 20
8.9146348925
 30
0.0
 10
9.6142308621
 20
8.9209409625
 30
0.0
 10
9.6145883672
 20
8.9335314795
 30
0.0
 10
9.6162027684
 20
8.9523167145
 30
0.0
 10
9.6188892759
 20
8.9709063974
 30
0.0
 10
9.6226391149
 20
8.9892394545
 30
0.0
 10
9.6274403245
 20
9.0072567757
 30
0.0
 10
9.6332774773
 20
9.024900124
 30
0.0
 10
9.6401313861
 20
9.0421115806
 30
0.0
 10
9.6453714045
 20
9.0532769959
 30
0.0
 10
9.6481523905
 20
9.0587667271
 30
0.0
  0
SPLINE
  5
398
100
AcDbEntity
  8
0
100
AcDbSpline
 62
7
  6
CONTINUOUS
 70
0
 71
3
 72
39
 73
35
 74
0
 42
0.0000001
 43
0.0000001
 44
0.0000000001
 40
0.0
 40
0.0
 40
0.0
 40
0.0
 40
0.0310630578
 40
0.0622819388
 40
0.0936521555
 40
0.1251652834
 40
0.1568102289
 40
0.188573168
 40
0.2204378975
 40
0.2523861836
 40
0.2843981362
 40
0.3164526134
 40
0.3485276414
 40
0.3806008451
 40
0.4126498846
 40
0.4446528922
 40
0.4765889011
 40
0.508438265
 40
0.5401830549
 40
0.5718074316
 40
0.6032979907
 40
0.6346440642
 40
0.665837975
 40
0.6968752412
 40
0.7277547221
 40
0.7584786892
 40
0.7890528285
 40
0.8194861688
 40
0.8497909234
 40
0.8799822518
 40
0.9100779454
 40
0.9400980396
 40
0.9700643569
 40
1.0
 40
1.0
 40
1.0
 40
1.0
 10
9.1989940269
 20
8.7585468856
 30
0.0
 10
9.1989940269
 20
8.7445483434
 30
0.0
 10
9.2000290326
 20
8.7164704515
 30
0.0
 10
9.2046504704
 20
8.6744847218
 30
0.0
 10
9.2123191354
 20
8.632739299
 30
0.0
 10
9.2229934025
 20
8.5914623194
 30
0.0
 10
9.236615229
 20
8.5508757107
 30
0.0
 10
9.2531107731
 20
8.511198536
 30
0.0
 10
9.2723907953
 20
8.4726446704
 30
0.0
 10
9.2943511279
 20
8.4354220049
 30
0.0
 10
9.3188731253
 20
8.3997311772
 30
0.0
 10
9.3458244233
 20
8.3657645885
 30
0.0
 10
9.3750596527
 20
8.3337053963
 30
0.0
 10
9.4064211311
 20
8.3037264718
 30
0.0
 10
9.4397397273
 20
8.2759894768
 30
0.0
 10
9.4748358267
 20
8.2506440712
 30
0.0
 10
9.5115202559
 20
8.2278270976
 30
0.0
 10
9.5495952299
 20
8.2076617425
 30
0.0
 10
9.5888554851
 20
8.1902569851
 30
0.0
 10
9.6290893632
 20
8.1757070348
 30
0.0
 10
9.6700798909
 20
8.164090715
 30
0.0
 10
9.7116059576
 20
8.1554710529
 30
0.0
 10
9.753443511
 20
8.1498950198
 30
0.0
 10
9.7953667268
 20
8.1473932321
 30
0.0
 10
9.8371492114
 20
8.1479796467
 30
0.0
 10
9.8785652317
 20
8.1516516052
 30
0.0
 10
9.9193909039
 20
8.1583898359
 30
0.0
 10
9.9594054211
 20
8.1681584097
 30
0.0
 10
9.998392243
 20
8.180904929
 30
0.0
 10
10.0361403273
 20
8.1965609348
 30
0.0
 10
10.0724450068
 20
8.2150419463
 30
0.0
 10
10.107110239
 20
8.2362487596
 30
0.0
 10
10.1399457206
 20
8.260064523
 30
0.0
 10
10.1605086673
 20
8.2776049804
 30
0.0
 10
10.1704194105
 20
8.2867575784
 30
0.0
  0
SPLINE
  5
399
100
AcDbEntity
  8
0
100
AcDbSpline
 62
7
  6
CONTINUOUS
 70
0
 71
3
 72
23
 73
19
 74
0
 42
0.0000001
 43
0.0000001
 44
0.0000000001
 40
0.0
 40
0.0
 40
0.0
 40
0.0
 40
0.0637575956
 40
0.1273109781
 40
0.1906597819
 40
0.2538106238
 40
0.3167689832
 40
0.3795431323
 40
0.4421427602
 40
0.5045791999
 40
0.5668653144
 40
0.6290153633
 40
0.6910448924
 40
0.7529705889
 40
0.8148101327
 40
0.8765820317
 40
0.9383054452
 40
1.0
 40
1.0
 40
1.0
 40
1.0
 10
9.1989940269
 20
8.7585468856
 30
0.0
 10
9.1989940269
 20
8.767402463
 30
0.0
 10
9.1994063666
 20
8.7850880925
 30
0.0
 10
9.2012674089
 20
8.8115135751
 30
0.0
 10
9.2043662185
 20
8.8377384771
 30
0.0
 10
9.2086958438
 20
8.8637046277
 30
0.0
 10
9.2142470686
 20
8.8893557827
 30
0.0
 10
9.2210077739
 20
8.9146358535
 30
0.0
 10
9.2289632902
 20
8.9394897219
 30
0.0
 10
9.2380962918
 20
8.9638631542
 30
0.0
 10
9.2483868945
 20
8.9877029654
 30
0.0
 10
9.2598126915
 20
9.0109571264
 30
0.0
 10
9.2723487933
 20
9.0335748729
 30
0.0
 10
9.2859678996
 20
9.0555068361
 30
0.0
 10
9.3006402591
 20
9.0767051014
 30
0.0
 10
9.3163340228
 20
9.0971235599
 30
0.0
 10
9.3330143657
 20
9.1167170297
 30
0.0
 10
9.3447709992
 20
9.1292039232
 30
0.0
 10
9.3507993379
 20
9.1352938698
 30
0.0
  0
SPLINE
  5
39A
100
AcDbEntity
  8
0
100
AcDbSpline
 62
7
  6
CONTINUOUS
 70
0
 71
3
 72
39
 73
35
 74
0
 42
0.0000001
 43
0.0000001
 44
0.0000000001
 40
0.0
 40
0.0
 40
0.0
 40
0.0
 40
0.0318884563
 40
0.0636724765
 40
0.0953509826
 40
0.1269280613
 40
0.1584066029
 40
0.1897910437
 40
0.2210866934
 40
0.2522996694
 40
0.2834369347
 40
0.3145061915
 40
0.3455158256
 40
0.376474823
 40
0.4073926788
 40
0.4382793037
 40
0.4691449285
 40
0.5000000004
 40
0.5308550738
 40
0.5617207005
 40
0.5926073246
 40
0.6235251778
 40
0.6544841749
 40
0.6854938115
 40
0.7165630687
 40
0.7477003312
 40
0.7789133067
 40
0.8102089522
 40
0.8415934072
 40
0.8730719456
 40
0.9046489353
 40
0.9363278013
 40
0.9681109986
 40
1.0
 40
1.0
 40
1.0
 40
1.0
 10
9.3776903153
 20
8.7461542559
 30
0.0
 10
9.3776903153
 20
8.7524028825
 30
0.0
 10
9.3779894108
 20
8.7648817882
 30
0.0
 10
9.379339318
 20
8.7835242252
 30
0.0
 10
9.3815869518
 20
8.8020188977
 30
0.0
 10
9.3847269107
 20
8.8203223625
 30
0.0
 10
9.3887521944
 20
8.838392786
 30
0.0
 10
9.3936534932
 20
8.8561883946
 30
0.0
 10
9.3994195325
 20
8.8736681925
 30
0.0
 10
9.4060370689
 20
8.8907918703
 30
0.0
 10
9.4134909017
 20
8.9075199238
 30
0.0
 10
9.4217638753
 20
8.9238137674
 30
0.0
 10
9.4308369142
 20
8.9396358274
 30
0.0
 10
9.4406891182
 20
8.9549496054
 30
0.0
 10
9.4512978037
 20
8.969719759
 30
0.0
 10
9.4626385284
 20
8.9839121993
 30
0.0
 10
9.4746851172
 20
8.997494203
 30
0.0
 10
9.4874097871
 20
9.0104344408
 30
0.0
 10
9.5007831991
 20
9.0227030538
 30
0.0
 10
9.5147745219
 20
9.0342717206
 30
0.0
 10
9.5293514547
 20
9.0451137871
 30
0.0
 10
9.5444803624
 20
9.0552042651
 30
0.0
 10
9.5601263463
 20
9.0645198925
 30
0.0
 10
9.5762533272
 20
9.0730391736
 30
0.0
 10
9.592824088
 20
9.0807425046
 30
0.0
 10
9.6098003977
 20
9.0876121671
 30
0.0
 10
9.6271431037
 20
9.093632352
 30
0.0
 10
9.6448122211
 20
9.0987891847
 30
0.0
 10
9.6627669999
 20
9.10307082
 30
0.0
 10
9.6809660484
 20
9.1064674546
 30
0.0
 10
9.6993673768
 20
9.1089713032
 30
0.0
 10
9.7179287273
 20
9.1105766104
 30
0.0
 10
9.7366067604
 20
9.1112797227
 30
0.0
 10
9.7490884818
 20
9.1111461563
 30
0.0
 10
9.7553334619
 20
9.1109296088
 30
0.0
  0
SPLINE
  5
39B
100
AcDbEntity
  8
0
100
AcDbSpline
 62
7
  6
CONTINUOUS
 70
0
 71
3
 72
39
 73
35
 74
0
 42
0.0000001
 43
0.0000001
 44
0.0000000001
 40
0.0
 40
0.0
 40
0.0
 40
0.0
 40
0.0319058366
 40
0.0637100101
 40
0.09541079
 40
0.1270123302
 40
0.1585173253
 40
0.189929824
 40
0.2212548283
 40
0.2524980284
 40
0.2836659254
 40
0.3147657303
 40
0.3458052964
 40
0.3767930508
 40
0.4077379194
 40
0.4386492464
 40
0.4695366997
 40
0.5004101755
 40
0.531279708
 40
0.5621553731
 40
0.5930471854
 40
0.6239649989
 40
0.6549184164
 40
0.6859166993
 40
0.7169686747
 40
0.7480826496
 40
0.7792663419
 40
0.810526812
 40
0.8418703945
 40
0.8733026424
 40
0.9048282921
 40
0.9364512255
 40
0.9681744334
 40
1.0
 40
1.0
 40
1.0
 40
1.0
 10
9.4346304834
 20
8.7716798269
 30
0.0
 10
9.4346304834
 20
8.7773356471
 30
0.0
 10
9.4348947711
 20
8.7886310907
 30
0.0
 10
9.4360874517
 20
8.8055081001
 30
0.0
 10
9.4380734402
 20
8.8222563657
 30
0.0
 10
9.4408481738
 20
8.8388383409
 30
0.0
 10
9.4444057532
 20
8.8552179596
 30
0.0
 10
9.4487383279
 20
8.8713591433
 30
0.0
 10
9.4538363974
 20
8.887226456
 30
0.0
 10
9.4596888516
 20
8.9027850243
 30
0.0
 10
9.4662828485
 20
8.9180006571
 30
0.0
 10
9.4736038957
 20
8.9328399325
 30
0.0
 10
9.4816359407
 20
8.9472702353
 30
0.0
 10
9.4903613957
 20
8.9612598222
 30
0.0
 10
9.4997610728
 20
8.9747779581
 30
0.0
 10
9.5098143129
 20
8.9877949415
 30
0.0
 10
9.5204990499
 20
9.000282147
 30
0.0
 10
9.5317918337
 20
9.0122121002
 30
0.0
 10
9.5436678119
 20
9.0235586109
 30
0.0
 10
9.55610088
 20
9.0342967505
 30
0.0
 10
9.5690637346
 20
9.0444028955
 30
0.0
 10
9.5825278842
 20
9.0538548339
 30
0.0
 10
9.5964637066
 20
9.0626318399
 30
0.0
 10
9.6108405731
 20
9.0707146401
 30
0.0
 10
9.6256269045
 20
9.0780854501
 30
0.0
 10
9.6407901887
 20
9.0847281144
 30
0.0
 10
9.6562970897
 20
9.0906280906
 30
0.0
 10
9.6721135396
 20
9.095772433
 30
0.0
 10
9.6882047949
 20
9.1001498283
 30
0.0
 10
9.7045354992
 20
9.1037507352
 30
0.0
 10
9.7210697443
 20
9.1065672921
 30
0.0
 10
9.7377713528
 20
9.1085933235
 30
0.0
 10
9.7546031575
 20
9.1098243819
 30
0.0
 10
9.7658694555
 20
9.1101129151
 30
0.0
 10
9.7715110342
 20
9.1101247261
 30
0.0
  0
SPLINE
  5
39C
100
AcDbEntity
  8
0
100
AcDbSpline
 62
7
  6
CONTINUOUS
 70
0
 71
3
 72
23
 73
19
 74
0
 42
0.0000001
 43
0.0000001
 44
0.0000000001
 40
0.0
 40
0.0
 40
0.0
 40
0.0
 40
0.0637765977
 40
0.1273450691
 40
0.1907019728
 40
0.2538560883
 40
0.3168132203
 40
0.3795820796
 40
0.4421733855
 40
0.5045993402
 40
0.566873864
 40
0.6290123768
 40
0.6910316495
 40
0.7529496457
 40
0.8147853522
 40
0.8765585995
 40
0.9382898533
 40
1.0
 40
1.0
 40
1.0
 40
1.0
 10
9.472016537
 20
8.777266395
 30
0.0
 10
9.472016537
 20
8.7825892735
 30
0.0
 10
9.472271333
 20
8.793219463
 30
0.0
 10
9.4734212386
 20
8.8091000612
 30
0.0
 10
9.475335892
 20
8.8248548078
 30
0.0
 10
9.4780106772
 20
8.8404466408
 30
0.0
 10
9.4814396296
 20
8.8558399637
 30
0.0
 10
9.4856148077
 20
8.8709991911
 30
0.0
 10
9.4905266035
 20
8.8858893955
 30
0.0
 10
9.4961637781
 20
8.9004762297
 30
0.0
 10
9.5025133569
 20
8.9147260465
 30
0.0
 10
9.5095606922
 20
8.9286059956
 30
0.0
 10
9.51728956
 20
8.9420840579
 30
0.0
 10
9.5256822036
 20
8.9551291223
 30
0.0
 10
9.5347192319
 20
8.9677110772
 30
0.0
 10
9.5443798998
 20
8.9798010082
 30
0.0
 10
9.5546415485
 20
8.9913706536
 30
0.0
 10
9.5618689451
 20
8.9987203986
 30
0.0
 10
9.5655733927
 20
9.0022986368
 30
0.0
  0
SPLINE
  5
39D
100
AcDbEntity
  8
0
100
AcDbSpline
 62
7
  6
CONTINUOUS
 70
0
 71
3
 72
46
 73
42
 74
0
 42
0.0000001
 43
0.0000001
 44
0.0000000001
 40
0.0
 40
0.0
 40
0.0
 40
0.0
 40
0.0840358155
 40
0.1695038657
 40
0.2553461646
 40
0.2980758532
 40
0.3405003594
 40
0.382488464
 40
0.4239106884
 40
0.4646398251
 40
0.5045514761
 40
0.5435246025
 40
0.5814420909
 40
0.6181913426
 40
0.6536649091
 40
0.6877611648
 40
0.7203850417
 40
0.751448871
 40
0.7808733741
 40
0.8085888695
 40
0.8345368019
 40
0.8468338779
 40
0.8586733281
 40
0.8700519371
 40
0.8809677801
 40
0.8914203277
 40
0.9014105083
 40
0.910941208
 40
0.920017169
 40
0.928645721
 40
0.9368368282
 40
0.9446037978
 40
0.951963758
 40
0.9589382177
 40
0.9655539713
 40
0.971843516
 40
0.9778459691
 40
0.9836071969
 40
0.9891799317
 40
0.9946230211
 40
1.0
 40
1.0
 40
1.0
 40
1.0
 10
12.1703980167
 20
7.1389075147
 30
0.0
 10
12.1703980167
 20
7.1277613451
 30
0.0
 10
12.1700482493
 20
7.1052777236
 30
0.0
 10
12.1685303273
 20
7.0714393602
 30
0.0
 10
12.1664455849
 20
7.0431222624
 30
0.0
 10
12.1642909732
 20
7.0205439074
 30
0.0
 10
12.1624438295
 20
7.0037810934
 30
0.0
 10
12.160369364
 20
6.9872196682
 30
0.0
 10
12.1580744287
 20
6.9709143685
 30
0.0
 10
12.1555666569
 20
6.9549191324
 30
0.0
 10
12.1528543809
 20
6.9392868491
 30
0.0
 10
12.1499466199
 20
6.9240692007
 30
0.0
 10
12.1468530475
 20
6.909316483
 30
0.0
 10
12.1435839601
 20
6.8950774353
 30
0.0
 10
12.1401502467
 20
6.8813990697
 30
0.0
 10
12.1365633516
 20
6.8683265094
 30
0.0
 10
12.1328352335
 20
6.855902822
 30
0.0
 10
12.1289783235
 20
6.8441688905
 30
0.0
 10
12.1250054807
 20
6.833163159
 30
0.0
 10
12.1209299242
 20
6.8229218109
 30
0.0
 10
12.1173989134
 20
6.8149145237
 30
0.0
 10
12.1145244633
 20
6.8089250891
 30
0.0
 10
12.1123900695
 20
6.8047253066
 30
0.0
 10
12.1102401563
 20
6.8007403975
 30
0.0
 10
12.1080764603
 20
6.7969736159
 30
0.0
 10
12.1059007833
 20
6.7934280176
 30
0.0
 10
12.1037148358
 20
6.790106506
 30
0.0
 10
12.1015204501
 20
6.7870117307
 30
0.0
 10
12.0993192944
 20
6.7841462262
 30
0.0
 10
12.0971131606
 20
6.7815122539
 30
0.0
 10
12.0949036968
 20
6.7791119519
 30
0.0
 10
12.092692566
 20
6.7769472503
 30
0.0
 10
12.0904813901
 20
6.7750198945
 30
0.0
 10
12.0882716608
 20
6.7733315776
 30
0.0
 10
12.0860649444
 20
6.7718837475
 30
0.0
 10
12.083862644
 20
6.7706779828
 30
0.0
 10
12.0816663325
 20
6.7697156417
 30
0.0
 10
12.0794776538
 20
6.7689982386
 30
0.0
 10
12.0772984381
 20
6.7685271313
 30
0.0
 10
12.0751313227
 20
6.7683034289
 30
0.0
 10
12.0736925406
 20
6.7683198885
 30
0.0
 10
12.0729810689
 20
6.768369231
 30
0.0
  0
SPLINE
  5
39E
100
AcDbEntity
  8
0
100
AcDbSpline
 62
7
  6
CONTINUOUS
 70
0
 71
3
 72
71
 73
67
 74
0
 42
0.0000001
 43
0.0000001
 44
0.0000000001
 40
0.0
 40
0.0
 40
0.0
 40
0.0
 40
0.0156372492
 40
0.0313279719
 40
0.0470702691
 40
0.0628636356
 40
0.078706085
 40
0.0945954859
 40
0.1105292303
 40
0.1265042941
 40
0.1425172939
 40
0.1585644997
 40
0.1746418769
 40
0.1907451249
 40
0.2068697161
 40
0.2230109353
 40
0.2391639203
 40
0.2553237068
 40
0.2714852727
 40
0.2876435802
 40
0.3037936187
 40
0.3199304493
 40
0.3360492495
 40
0.3521453553
 40
0.368214301
 40
0.3842518591
 40
0.400254082
 40
0.4162173382
 40
0.432138346
 40
0.4480142044
 40
0.4638424243
 40
0.479620957
 40
0.4953482151
 40
0.5110230911
 40
0.5266449716
 40
0.5422137518
 40
0.5577298409
 40
0.5731941615
 40
0.5886081454
 40
0.6039737251
 40
0.6192933216
 40
0.6345698227
 40
0.6498065569
 40
0.6650072614
 40
0.6801760495
 40
0.6953173696
 40
0.7104359593
 40
0.7255367964
 40
0.7406250465
 40
0.7557060105
 40
0.7707850676
 40
0.7858676177
 40
0.8009590222
 40
0.8160645476
 40
0.8311893103
 40
0.8463382234
 40
0.8615159446
 40
0.8767268274
 40
0.891974877
 40
0.9072637192
 40
0.9225965472
 40
0.9379761189
 40
0.953404763
 40
0.9688840052
 40
0.9844158733
 40
1.0
 40
1.0
 40
1.0
 40
1.0
 10
9.3776903153
 20
8.7461542559
 30
0.0
 10
9.3776903153
 20
8.7397431124
 30
0.0
 10
9.3780062234
 20
8.7268967193
 30
0.0
 10
9.3794207758
 20
8.7076429726
 30
0.0
 10
9.3817736329
 20
8.6884163512
 30
0.0
 10
9.3850588254
 20
8.6692640065
 30
0.0
 10
9.3892685899
 20
8.6502316926
 30
0.0
 10
9.394392692
 20
8.6313653541
 30
0.0
 10
9.4004187477
 20
8.6127103722
 30
0.0
 10
9.4073322202
 20
8.5943116554
 30
0.0
 10
9.4151164405
 20
8.5762134906
 30
0.0
 10
9.4237526716
 20
8.5584594497
 30
0.0
 10
9.4332200832
 20
8.5410922573
 30
0.0
 10
9.4434958556
 20
8.5241537051
 30
0.0
 10
9.45455524
 20
8.5076845587
 30
0.0
 10
9.4663716193
 20
8.4917244655
 30
0.0
 10
9.4789165504
 20
8.4763118474
 30
0.0
 10
9.4921598097
 20
8.461483785
 30
0.0
 10
9.5060695146
 20
8.4472759652
 30
0.0
 10
9.5206121874
 20
8.4337225903
 30
0.0
 10
9.535752842
 20
8.4208563083
 30
0.0
 10
9.5514550276
 20
8.4087080875
 30
0.0
 10
9.5676809418
 20
8.3973071644
 30
0.0
 10
9.5843915345
 20
8.3866809931
 30
0.0
 10
9.6015465959
 20
8.3768551796
 30
0.0
 10
9.6191048461
 20
8.3678534133
 30
0.0
 10
9.6370240125
 20
8.3596973626
 30
0.0
 10
9.6552609644
 20
8.3524066799
 30
0.0
 10
9.673771808
 20
8.3459989477
 30
0.0
 10
9.6925119925
 20
8.340489649
 30
0.0
 10
9.7114364007
 20
8.3358920798
 30
0.0
 10
9.7304994665
 20
8.332217326
 30
0.0
 10
9.7496552921
 20
8.3294742749
 30
0.0
 10
9.7688577515
 20
8.3276695849
 30
0.0
 10
9.7880605987
 20
8.3268076723
 30
0.0
 10
9.8072175775
 20
8.3268906343
 30
0.0
 10
9.8262825397
 20
8.3279183073
 30
0.0
 10
9.8452095518
 20
8.3298882645
 30
0.0
 10
9.8639530007
 20
8.3327958299
 30
0.0
 10
9.8824677077
 20
8.3366340479
 30
0.0
 10
9.9007090466
 20
8.341393688
 30
0.0
 10
9.9186330407
 20
8.3470633189
 30
0.0
 10
9.9361964681
 20
8.3536293216
 30
0.0
 10
9.9533569596
 20
8.3610759296
 30
0.0
 10
9.9700731305
 20
8.369385202
 30
0.0
 10
9.9863046652
 20
8.378537118
 30
0.0
 10
10.0020124082
 20
8.3885096329
 30
0.0
 10
10.0171584541
 20
8.3992787313
 30
0.0
 10
10.0317062527
 20
8.4108184626
 30
0.0
 10
10.0456207247
 20
8.4231009791
 30
0.0
 10
10.0588683094
 20
8.4360966561
 30
0.0
 10
10.0714170511
 20
8.4497741518
 30
0.0
 10
10.0832366653
 20
8.4641004893
 30
0.0
 10
10.0942986624
 20
8.4790410954
 30
0.0
 10
10.1045763934
 20
8.4945599131
 30
0.0
 10
10.1140450933
 20
8.5106195038
 30
0.0
 10
10.1226819411
 20
8.5271811335
 30
0.0
 10
10.1304661207
 20
8.5442048589
 30
0.0
 10
10.1373789258
 20
8.5616496058
 30
0.0
 10
10.143403731
 20
8.5794733016
 30
0.0
 10
10.1485260569
 20
8.5976329655
 30
0.0
 10
10.1527335878
 20
8.6160848522
 30
0.0
 10
10.1560161675
 20
8.6347843601
 30
0.0
 10
10.1583661226
 20
8.6536867748
 30
0.0
 10
10.1597775728
 20
8.6727457036
 30
0.0
 10
10.160090281
 20
8.6855052703
 30
0.0
 10
10.160090281
 20
8.691894634
 30
0.0
  0
SPLINE
  5
39F
100
AcDbEntity
  8
0
100
AcDbSpline
 62
7
  6
CONTINUOUS
 70
0
 71
3
 72
66
 73
62
 74
0
 42
0.0000001
 43
0.0000001
 44
0.0000000001
 40
0.0
 40
0.0
 40
0.0
 40
0.0
 40
0.015635587
 40
0.031323452
 40
0.047061473
 40
0.0628493738
 40
0.0786852998
 40
0.0945672413
 40
0.1104928061
 40
0.12645918
 40
0.1424632178
 40
0.1585014475
 40
0.1745701099
 40
0.1906651911
 40
0.222909381
 40
0.255206261
 40
0.2875181719
 40
0.3198069602
 40
0.3520352326
 40
0.3681195842
 40
0.3841757819
 40
0.4001999131
 40
0.4161883382
 40
0.4321377212
 40
0.4480450574
 40
0.4639077035
 40
0.4797234067
 40
0.4954903253
 40
0.5112070457
 40
0.5268726015
 40
0.5424864899
 40
0.5580486771
 40
0.5735596011
 40
0.5890201756
 40
0.6044317882
 40
0.6197962889
 40
0.6351159744
 40
0.650393574
 40
0.6656322277
 40
0.6808354566
 40
0.6960071287
 40
0.7111514264
 40
0.726272807
 40
0.7413759582
 40
0.7564657493
 40
0.7715471851
 40
0.7866253567
 40
0.8017053883
 40
0.8167923842
 40
0.8318913771
 40
0.8470072798
 40
0.8621448352
 40
0.8773085674
 40
0.8925027372
 40
0.9077313031
 40
0.9229978876
 40
0.9383057384
 40
0.95365768
 40
0.9690561918
 40
0.9845031564
 40
1.0
 40
1.0
 40
1.0
 40
1.0
 10
9.4346304834
 20
8.7716798269
 30
0.0
 10
9.4346304834
 20
8.7658893024
 30
0.0
 10
9.4349084125
 20
8.7542870214
 30
0.0
 10
9.4361530236
 20
8.7368964438
 30
0.0
 10
9.4382234391
 20
8.7195275926
 30
0.0
 10
9.4411146422
 20
8.7022209529
 30
0.0
 10
9.444820175
 20
8.6850157151
 30
0.0
 10
9.4493314612
 20
8.6679512973
 30
0.0
 10
9.4546381512
 20
8.6510666539
 30
0.0
 10
9.4607281202
 20
8.6344003667
 30
0.0
 10
9.4675874722
 20
8.6179904926
 30
0.0
 10
9.4752004071
 20
8.6018745997
 30
0.0
 10
9.4835497865
 20
8.5860891176
 30
0.0
 10
9.495643656
 20
8.5655216891
 30
0.0
 10
9.5125042799
 20
8.5408209028
 30
0.0
 10
9.5353199582
 20
8.5130838018
 30
0.0
 10
9.560528613
 20
8.4874763289
 30
0.0
 10
9.5878978558
 20
8.4642343359
 30
0.0
 10
9.6123220608
 20
8.4469976678
 30
0.0
 10
9.6326869194
 20
8.4345935129
 30
0.0
 10
9.6483293616
 20
8.4260077668
 30
0.0
 10
9.6643122564
 20
8.4181547486
 30
0.0
 10
9.6805994526
 20
8.4110521015
 30
0.0
 10
9.6971536513
 20
8.404716146
 30
0.0
 10
9.7139370764
 20
8.3991613914
 30
0.0
 10
9.7309113799
 20
8.3944005649
 30
0.0
 10
9.7480377763
 20
8.3904445382
 30
0.0
 10
9.7652771384
 20
8.3873023811
 30
0.0
 10
9.7825900814
 20
8.3849813413
 30
0.0
 10
9.7999370386
 20
8.3834867563
 30
0.0
 10
9.8172783621
 20
8.3828220453
 30
0.0
 10
9.834574417
 20
8.3829887662
 30
0.0
 10
9.8517856621
 20
8.3839866135
 30
0.0
 10
9.8688727434
 20
8.3858133364
 30
0.0
 10
9.8857965915
 20
8.3884647661
 30
0.0
 10
9.9025185027
 20
8.3919348808
 30
0.0
 10
9.9190002175
 20
8.3962158201
 30
0.0
 10
9.9352040305
 20
8.4012978134
 30
0.0
 10
9.9510928753
 20
8.4071692426
 30
0.0
 10
9.9666303933
 20
8.4138167113
 30
0.0
 10
9.9817810068
 20
8.4212250758
 30
0.0
 10
9.9965100443
 20
8.4293773895
 30
0.0
 10
10.0107838039
 20
8.4382549963
 30
0.0
 10
10.02456961
 20
8.4478376032
 30
0.0
 10
10.037835879
 20
8.4581033257
 30
0.0
 10
10.0505522563
 20
8.4690286549
 30
0.0
 10
10.0626896496
 20
8.4805885739
 30
0.0
 10
10.0742202757
 20
8.4927566334
 30
0.0
 10
10.0851177154
 20
8.5055050085
 30
0.0
 10
10.0953570564
 20
8.5188044941
 30
0.0
 10
10.104914892
 20
8.5326246345
 30
0.0
 10
10.1137693575
 20
8.5469338003
 30
0.0
 10
10.1219001741
 20
8.5616992557
 30
0.0
 10
10.1292887887
 20
8.5768871831
 30
0.0
 10
10.1359183388
 20
8.5924628156
 30
0.0
 10
10.1417736768
 20
8.6083905134
 30
0.0
 10
10.146841398
 20
8.624633847
 30
0.0
 10
10.1511100008
 20
8.6411556123
 30
0.0
 10
10.1545697407
 20
8.6579181434
 30
0.0
 10
10.1572127249
 20
8.6748825275
 30
0.0
 10
10.1584243023
 20
8.6862834571
 30
0.0
 10
10.1588928742
 20
8.6920034389
 30
0.0
  0
SPLINE
  5
3A0
100
AcDbEntity
  8
0
100
AcDbSpline
 62
7
  6
CONTINUOUS
 70
0
 71
3
 72
39
 73
35
 74
0
 42
0.0000001
 43
0.0000001
 44
0.0000000001
 40
0.0
 40
0.0
 40
0.0
 40
0.0
 40
0.0310753389
 40
0.0623079046
 40
0.0936931359
 40
0.1252222867
 40
0.1568840447
 40
0.188664204
 40
0.2205461642
 40
0.252511249
 40
0.2845391085
 40
0.3166081366
 40
0.3486959074
 40
0.3807796228
 40
0.4128365654
 40
0.4448445498
 40
0.476782367
 40
0.5086302146
 40
0.5403701085
 40
0.5719862649
 40
0.6034654497
 40
0.6347972845
 40
0.6659745042
 40
0.696993157
 40
0.7278527401
 40
0.7585562641
 40
0.7891102404
 40
0.8195245845
 40
0.8498124362
 40
0.879989895
 40
0.9100756746
 40
0.9400906813
 40
0.9700575289
 40
1.0
 40
1.0
 40
1.0
 40
1.0
 10
9.472016537
 20
8.777266395
 30
0.0
 10
9.472016537
 20
8.7690078723
 30
0.0
 10
9.4726326024
 20
8.7524426874
 30
0.0
 10
9.4753832128
 20
8.7276742059
 30
0.0
 10
9.4799471455
 20
8.7030511644
 30
0.0
 10
9.4862991919
 20
8.6787105206
 30
0.0
 10
9.4944041603
 20
8.6547854771
 30
0.0
 10
9.5042173812
 20
8.6314074684
 30
0.0
 10
9.5156848024
 20
8.6087047576
 30
0.0
 10
9.5287433483
 20
8.5868019319
 30
0.0
 10
9.5433212367
 20
8.56581917
 30
0.0
 10
9.5593383775
 20
8.5458716036
 30
0.0
 10
9.5767068164
 20
8.5270686942
 30
0.0
 10
9.595331212
 20
8.5095136396
 30
0.0
 10
9.6151093536
 20
8.4933028137
 30
0.0
 10
9.6359327159
 20
8.4785252432
 30
0.0
 10
9.6576870469
 20
8.4652621229
 30
0.0
 10
9.6802529875
 20
8.4535863741
 30
0.0
 10
9.7035067117
 20
8.4435622325
 30
0.0
 10
9.7273206053
 20
8.4352449077
 30
0.0
 10
9.7515639557
 20
8.4286802797
 30
0.0
 10
9.7761036586
 20
8.4239046434
 30
0.0
 10
9.800804938
 20
8.4209445037
 30
0.0
 10
9.8255320756
 20
8.419816421
 30
0.0
 10
9.8501491476
 20
8.4205269111
 30
0.0
 10
9.8745207647
 20
8.4230723851
 30
0.0
 10
9.8985128149
 20
8.4274391512
 30
0.0
 10
9.9219932033
 20
8.4336034866
 30
0.0
 10
9.9448325707
 20
8.4415317351
 30
0.0
 10
9.9669050594
 20
8.4511805183
 30
0.0
 10
9.9880888524
 20
8.4624968001
 30
0.0
 10
10.0082674835
 20
8.4754187576
 30
0.0
 10
10.0273281882
 20
8.489873918
 30
0.0
 10
10.0392251186
 20
8.5004845664
 30
0.0
 10
10.044948541
 20
8.5060129937
 30
0.0
  0
SPLINE
  5
3A1
100
AcDbEntity
  8
0
100
AcDbSpline
 62
7
  6
CONTINUOUS
 70
0
 71
3
 72
23
 73
19
 74
0
 42
0.0000001
 43
0.0000001
 44
0.0000000001
 40
0.0
 40
0.0
 40
0.0
 40
0.0
 40
0.0637775561
 40
0.1273446565
 40
0.1907020307
 40
0.2538561431
 40
0.3168131834
 40
0.3795821015
 40
0.4421733894
 40
0.5045993415
 40
0.5668738676
 40
0.6290123791
 40
0.6910316472
 40
0.7529496401
 40
0.8147853492
 40
0.8765585998
 40
0.9382898533
 40
1.0
 40
1.0
 40
1.0
 40
1.0
 10
9.1907118241
 20
8.7505468916
 30
0.0
 10
9.1907118241
 20
8.7596499503
 30
0.0
 10
9.1911475086
 20
8.7778291148
 30
0.0
 10
9.1931141114
 20
8.8049873253
 30
0.0
 10
9.1963884206
 20
8.8319301825
 30
0.0
 10
9.2009627543
 20
8.8585946059
 30
0.0
 10
9.2068267724
 20
8.8849194954
 30
0.0
 10
9.213966948
 20
8.9108440469
 30
0.0
 10
9.2223669167
 20
8.9363085198
 30
0.0
 10
9.2320073638
 20
8.9612541817
 30
0.0
 10
9.2428661084
 20
8.9856235043
 30
0.0
 10
9.2549181548
 20
9.0093602802
 30
0.0
 10
9.2681357463
 20
9.0324097517
 30
0.0
 10
9.2824884492
 20
9.0547187559
 30
0.0
 10
9.2979431435
 20
9.0762357767
 30
0.0
 10
9.3144643896
 20
9.0969113356
 30
0.0
 10
9.3320134292
 20
9.1166970966
 30
0.0
 10
9.344373369
 20
9.1292662589
 30
0.0
 10
9.3507085528
 20
9.1353855612
 30
0.0
  0
SPLINE
  5
3A2
100
AcDbEntity
  8
0
100
AcDbSpline
 62
7
  6
CONTINUOUS
 70
0
 71
3
 72
23
 73
19
 74
0
 42
0.0000001
 43
0.0000001
 44
0.0000000001
 40
0.0
 40
0.0
 40
0.0
 40
0.0
 40
0.0606965827
 40
0.1219006364
 40
0.183588535
 40
0.2457213916
 40
0.3082487066
 40
0.3711086646
 40
0.434229843
 40
0.4975327082
 40
0.560931429
 40
0.6243363334
 40
0.6876560936
 40
0.7508001887
 40
0.8136819297
 40
0.8762212223
 40
0.9383464661
 40
1.0
 40
1.0
 40
1.0
 40
1.0
 10
9.7698629712
 20
7.6711690945
 30
0.0
 10
9.7712579225
 20
7.6642912338
 30
0.0
 10
9.7746484094
 20
7.6505904011
 30
0.0
 10
9.7814529912
 20
7.6304593471
 30
0.0
 10
9.7899534144
 20
7.6108013192
 30
0.0
 10
9.8000919252
 20
7.5917632145
 30
0.0
 10
9.8117993372
 20
7.5734866537
 30
0.0
 10
9.8249946553
 20
7.5561101132
 30
0.0
 10
9.8395852924
 20
7.5397671792
 30
0.0
 10
9.8554671496
 20
7.5245856671
 30
0.0
 10
9.8725248717
 20
7.5106862896
 30
0.0
 10
9.8906324199
 20
7.4981814985
 30
0.0
 10
9.9096536941
 20
7.4871741658
 30
0.0
 10
9.9294434182
 20
7.4777561324
 30
0.0
 10
9.9498481152
 20
7.4700070586
 30
0.0
 10
9.9707082941
 20
7.463993256
 30
0.0
 10
9.9918567195
 20
7.4597665089
 30
0.0
 10
10.0060984133
 20
7.458157605
 30
0.0
 10
10.0132098735
 20
7.4576644236
 30
0.0
  0
SPLINE
  5
3A3
100
AcDbEntity
  8
0
100
AcDbSpline
 62
7
  6
CONTINUOUS
 70
0
 71
3
 72
23
 73
19
 74
0
 42
0.0000001
 43
0.0000001
 44
0.0000000001
 40
0.0
 40
0.0
 40
0.0
 40
0.0
 40
0.0637775561
 40
0.1273446565
 40
0.1907020307
 40
0.2538561431
 40
0.3168131834
 40
0.3795821015
 40
0.4421733894
 40
0.5045993415
 40
0.5668738676
 40
0.6290123791
 40
0.6910316472
 40
0.7529496401
 40
0.8147853492
 40
0.8765585998
 40
0.9382898533
 40
1.0
 40
1.0
 40
1.0
 40
1.0
 10
9.100880722
 20
7.36874117
 30
0.0
 10
9.100880722
 20
7.3778442287
 30
0.0
 10
9.1013164065
 20
7.3960233933
 30
0.0
 10
9.1032830093
 20
7.4231816038
 30
0.0
 10
9.1065573185
 20
7.450124461
 30
0.0
 10
9.1111316522
 20
7.4767888844
 30
0.0
 10
9.1169956703
 20
7.5031137739
 30
0.0
 10
9.1241358459
 20
7.5290383253
 30
0.0
 10
9.1325358146
 20
7.5545027983
 30
0.0
 10
9.1421762617
 20
7.5794484602
 30
0.0
 10
9.1530350063
 20
7.6038177827
 30
0.0
 10
9.1650870527
 20
7.6275545587
 30
0.0
 10
9.1783046442
 20
7.6506040301
 30
0.0
 10
9.1926573471
 20
7.6729130344
 30
0.0
 10
9.2081120414
 20
7.6944300552
 30
0.0
 10
9.2246332875
 20
7.715105614
 30
0.0
 10
9.2421823271
 20
7.7348913751
 30
0.0
 10
9.2545422669
 20
7.7474605374
 30
0.0
 10
9.2608774507
 20
7.7535798397
 30
0.0
  0
SPLINE
  5
3A4
100
AcDbEntity
  8
0
100
AcDbSpline
 62
7
  6
CONTINUOUS
 70
0
 71
3
 72
37
 73
33
 74
0
 42
0.0000001
 43
0.0000001
 44
0.0000000001
 40
0.0
 40
0.0
 40
0.0
 40
0.0
 40
0.0306805685
 40
0.061476437
 40
0.0923838033
 40
0.1234006137
 40
0.154521846
 40
0.1857419454
 40
0.2170540787
 40
0.2484504261
 40
0.2799222502
 40
0.3114599901
 40
0.343053376
 40
0.374691539
 40
0.40636313
 40
0.4380564448
 40
0.50144015
 40
0.5647669131
 40
0.5963896814
 40
0.6279635573
 40
0.659477882
 40
0.6909226371
 40
0.722288556
 40
0.7535672288
 40
0.7847512041
 40
0.8158340809
 40
0.8468105881
 40
0.8776766549
 40
0.9084294679
 40
0.9390675175
 40
0.9695906331
 40
1.0
 40
1.0
 40
1.0
 40
1.0
 10
9.7595805379
 20
9.0460319065
 30
0.0
 10
9.7595805379
 20
9.0401593372
 30
0.0
 10
9.7599001015
 20
9.0283896978
 30
0.0
 10
9.7613302281
 20
9.0107563668
 30
0.0
 10
9.7637079949
 20
8.9931602599
 30
0.0
 10
9.7670261371
 20
8.9756538648
 30
0.0
 10
9.7712750282
 20
8.9582882068
 30
0.0
 10
9.7764420861
 20
8.9411143353
 30
0.0
 10
9.7825121459
 20
8.9241825936
 30
0.0
 10
9.789467342
 20
8.9075426421
 30
0.0
 10
9.7972872369
 20
8.8912432716
 30
0.0
 10
9.8059488581
 20
8.875332284
 30
0.0
 10
9.8154268088
 20
8.8598563079
 30
0.0
 10
9.8256931759
 20
8.8448608323
 30
0.0
 10
9.8367182348
 20
8.8303894455
 30
0.0
 10
9.8523837028
 20
8.8118528204
 30
0.0
 10
9.8736910405
 20
8.7902046085
 30
0.0
 10
9.8970653711
 20
8.770827223
 30
0.0
 10
9.9168382576
 20
8.7568286539
 30
0.0
 10
9.9321546716
 20
8.7471151713
 30
0.0
 10
9.9479169106
 20
8.7382130698
 30
0.0
 10
9.9640791716
 20
8.7301481235
 30
0.0
 10
9.9805939535
 20
8.7229441191
 30
0.0
 10
9.9974128608
 20
8.7166222106
 30
0.0
 10
10.0144865564
 20
8.7112009839
 30
0.0
 10
10.031764964
 20
8.7066963763
 30
0.0
 10
10.0491973972
 20
8.70312165
 30
0.0
 10
10.0667327302
 20
8.70048735
 30
0.0
 10
10.0843194628
 20
8.6988012654
 30
0.0
 10
10.101906173
 20
8.6980684364
 30
0.0
 10
10.1194405399
 20
8.6982909982
 30
0.0
 10
10.1310840483
 20
8.6990775134
 30
0.0
 10
10.1368784198
 20
8.6996300763
 30
0.0
  0
SPLINE
  5
3A5
100
AcDbEntity
  8
0
100
AcDbSpline
 62
7
  6
CONTINUOUS
 70
0
 71
3
 72
23
 73
19
 74
0
 42
0.0000001
 43
0.0000001
 44
0.0000000001
 40
0.0
 40
0.0
 40
0.0
 40
0.0
 40
0.0637767638
 40
0.1273450118
 40
0.1907019674
 40
0.2538561101
 40
0.3168132145
 40
0.3795820843
 40
0.4421733868
 40
0.5045993403
 40
0.5668738673
 40
0.6290123789
 40
0.6910316481
 40
0.752949645
 40
0.8147853545
 40
0.8765586015
 40
0.9382898522
 40
1.0
 40
1.0
 40
1.0
 40
1.0
 10
10.3720392197
 20
8.9101030293
 30
0.0
 10
10.3720392197
 20
8.9152870692
 30
0.0
 10
10.3722873638
 20
8.9256399562
 30
0.0
 10
10.3734072822
 20
8.9411062936
 30
0.0
 10
10.3752719921
 20
8.9564500512
 30
0.0
 10
10.3778770013
 20
8.9716351616
 30
0.0
 10
10.3812165086
 20
8.9866269361
 30
0.0
 10
10.3852827803
 20
9.001390718
 30
0.0
 10
10.3900664614
 20
9.0158924936
 30
0.0
 10
10.3955565791
 20
9.0300988191
 30
0.0
 10
10.4017405269
 20
9.0439769154
 30
0.0
 10
10.4086040424
 20
9.0574947852
 30
0.0
 10
10.4161313117
 20
9.0706212501
 30
0.0
 10
10.4243050147
 20
9.083326029
 30
0.0
 10
10.4331063143
 20
9.0955797657
 30
0.0
 10
10.4425149945
 20
9.1073543047
 30
0.0
 10
10.4525089783
 20
9.1186221263
 30
0.0
 10
10.4595478207
 20
9.1257801675
 30
0.0
 10
10.463155644
 20
9.1292650544
 30
0.0
  0
SPLINE
  5
3A6
100
AcDbEntity
  8
0
100
AcDbSpline
 62
7
  6
CONTINUOUS
 70
0
 71
3
 72
23
 73
19
 74
0
 42
0.0000001
 43
0.0000001
 44
0.0000000001
 40
0.0
 40
0.0
 40
0.0
 40
0.0
 40
0.0637772827
 40
0.1273447928
 40
0.1907019891
 40
0.2538561422
 40
0.3168131889
 40
0.3795820982
 40
0.4421733894
 40
0.5045993375
 40
0.5668738648
 40
0.6290123797
 40
0.6910316513
 40
0.752949645
 40
0.814785352
 40
0.8765586
 40
0.9382898524
 40
1.0
 40
1.0
 40
1.0
 40
1.0
 10
10.3730050931
 20
7.7026286913
 30
0.0
 10
10.3730050931
 20
7.7102196731
 30
0.0
 10
10.3733684218
 20
7.7253792415
 30
0.0
 10
10.3750083427
 20
7.7480263916
 30
0.0
 10
10.3777387957
 20
7.7704939931
 30
0.0
 10
10.3815532956
 20
7.7927293666
 30
0.0
 10
10.386443272
 20
7.8146816234
 30
0.0
 10
10.3923974471
 20
7.8363000313
 30
0.0
 10
10.3994021585
 20
7.8575347797
 30
0.0
 10
10.4074412882
 20
7.8783368992
 30
0.0
 10
10.4164963402
 20
7.8986584173
 30
0.0
 10
10.4265464801
 20
7.9184524609
 30
0.0
 10
10.4375685772
 20
7.9376733581
 30
0.0
 10
10.4495372523
 20
7.9562767741
 30
0.0
 10
10.4624248704
 20
7.9742197597
 30
0.0
 10
10.4762018711
 20
7.9914610622
 30
0.0
 10
10.4908359366
 20
8.0079603748
 30
0.0
 10
10.5011428321
 20
8.0184417856
 30
0.0
 10
10.5064257206
 20
8.0235446573
 30
0.0
  0
SPLINE
  5
3A7
100
AcDbEntity
  8
0
100
AcDbSpline
 62
7
  6
CONTINUOUS
 70
0
 71
3
 72
17
 73
13
 74
0
 42
0.0000001
 43
0.0000001
 44
0.0000000001
 40
0.0
 40
0.0
 40
0.0
 40
0.0
 40
0.1267165027
 40
0.2528980224
 40
0.3785554011
 40
0.4412018378
 40
0.5037255101
 40
0.6284048786
 40
0.7526449149
 40
0.8146212605
 40
0.8765043241
 40
1.0
 40
1.0
 40
1.0
 40
1.0
 10
9.5337172456
 20
7.5328291715
 30
0.0
 10
9.5337172456
 20
7.539449117
 30
0.0
 10
9.5341217461
 20
7.5526648124
 30
0.0
 10
9.5359486923
 20
7.5723686539
 30
0.0
 10
9.5384842728
 20
7.588613205
 30
0.0
 10
9.5411143866
 20
7.6014522123
 30
0.0
 10
9.5441365279
 20
7.6141521637
 30
0.0
 10
9.5486536373
 20
7.6297951462
 30
0.0
 10
9.5541503737
 20
7.6450911427
 30
0.0
 10
9.5591177227
 20
7.6570649906
 30
0.0
 10
9.56445214
 20
7.6688366663
 30
0.0
 10
9.5688763847
 20
7.677461661
 30
0.0
 10
9.5720062585
 20
7.6831033005
 30
0.0
  0
SPLINE
  5
3A8
100
AcDbEntity
  8
0
100
AcDbSpline
 62
7
  6
CONTINUOUS
 70
0
 71
3
 72
15
 73
11
 74
0
 42
0.0000001
 43
0.0000001
 44
0.0000000001
 40
0.0
 40
0.0
 40
0.0
 40
0.0
 40
0.1266150087
 40
0.2527357848
 40
0.3783667694
 40
0.5035278968
 40
0.6282400792
 40
0.7525324537
 40
0.8764391947
 40
1.0
 40
1.0
 40
1.0
 40
1.0
 10
9.52439976
 20
7.532829171
 30
0.0
 10
9.52439976
 20
7.5391350454
 30
0.0
 10
9.5247572474
 20
7.5517251917
 30
0.0
 10
9.5263715462
 20
7.5705098715
 30
0.0
 10
9.5290579012
 20
7.5890990224
 30
0.0
 10
9.5328075125
 20
7.6074315578
 30
0.0
 10
9.5376084375
 20
7.6254483887
 30
0.0
 10
9.5434452467
 20
7.6430912752
 30
0.0
 10
9.5502987469
 20
7.6603023109
 30
0.0
 10
9.5555384827
 20
7.6714674588
 30
0.0
 10
9.5583192972
 20
7.676957075
 30
0.0
  0
SPLINE
  5
3A9
100
AcDbEntity
  8
0
100
AcDbSpline
 62
7
  6
CONTINUOUS
 70
0
 71
3
 72
42
 73
38
 74
0
 42
0.0000001
 43
0.0000001
 44
0.0000000001
 40
0.0
 40
0.0
 40
0.0
 40
0.0
 40
0.0308791337
 40
0.0463722729
 40
0.0618986966
 40
0.0930473667
 40
0.1243236254
 40
0.1557198834
 40
0.1872267064
 40
0.2188329172
 40
0.2505258083
 40
0.2822913422
 40
0.3141143769
 40
0.3459789006
 40
0.377868277
 40
0.4097654967
 40
0.441653433
 40
0.473515098
 40
0.5053338984
 40
0.5370938864
 40
0.568780004
 40
0.6003783173
 40
0.6318762391
 40
0.6632627349
 40
0.6945285106
 40
0.7256661782
 40
0.7566703966
 40
0.787537983
 40
0.8182679936
 40
0.8488617688
 40
0.8641106776
 40
0.8793270792
 40
0.9096615429
 40
0.9398773798
 40
0.954946048
 40
0.969989031
 40
1.0
 40
1.0
 40
1.0
 40
1.0
 10
9.52439976
 20
7.532829171
 30
0.0
 10
9.52439976
 20
7.5256568715
 30
0.0
 10
9.5247477941
 20
7.5148818747
 30
0.0
 10
9.5258988585
 20
7.5005490974
 30
0.0
 10
9.5275118504
 20
7.486197433
 30
0.0
 10
9.5303887165
 20
7.4683084995
 30
0.0
 10
9.5351948843
 20
7.4470390222
 30
0.0
 10
9.541338876
 20
7.4260298053
 30
0.0
 10
9.5487950458
 20
7.4053684659
 30
0.0
 10
9.5575324071
 20
7.3851404901
 30
0.0
 10
9.5675146544
 20
7.3654297414
 30
0.0
 10
9.5787003467
 20
7.3463178852
 30
0.0
 10
9.5910430689
 20
7.3278841156
 30
0.0
 10
9.6044916266
 20
7.3102048142
 30
0.0
 10
9.6189902565
 20
7.2933532405
 30
0.0
 10
9.6344788559
 20
7.2773992298
 30
0.0
 10
9.6508932305
 20
7.2624089063
 30
0.0
 10
9.668165358
 20
7.2484444111
 30
0.0
 10
9.6862236681
 20
7.2355636466
 30
0.0
 10
9.7049933361
 20
7.2238200379
 30
0.0
 10
9.7243965907
 20
7.2132623123
 30
0.0
 10
9.7443530327
 20
7.2039342986
 30
0.0
 10
9.7647799651
 20
7.1958747452
 30
0.0
 10
9.7855927331
 20
7.1891171601
 30
0.0
 10
9.8067050664
 20
7.1836896696
 30
0.0
 10
9.8280294515
 20
7.1796149035
 30
0.0
 10
9.849477422
 20
7.1769098883
 30
0.0
 10
9.8709601754
 20
7.1755860123
 30
0.0
 10
9.8923879991
 20
7.1756488298
 30
0.0
 10
9.9101461991
 20
7.1768582907
 30
0.0
 10
9.9242331756
 20
7.1785180467
 30
0.0
 10
9.9381982758
 20
7.1806320932
 30
0.0
 10
9.9554598801
 20
7.1841282077
 30
0.0
 10
9.9724168814
 20
7.188759111
 30
0.0
 10
9.9857329941
 20
7.1931287086
 30
0.0
 10
9.9988489185
 20
7.1979284087
 30
0.0
 10
10.0084909439
 20
7.2020226509
 30
0.0
 10
10.014810469
 20
7.2049643467
 30
0.0
  0
SPLINE
  5
3AA
100
AcDbEntity
  8
0
100
AcDbSpline
 62
7
  6
CONTINUOUS
 70
0
 71
3
 72
39
 73
35
 74
0
 42
0.0000001
 43
0.0000001
 44
0.0000000001
 40
0.0
 40
0.0
 40
0.0
 40
0.0
 40
0.0310630578
 40
0.0622819388
 40
0.0936521555
 40
0.1251652834
 40
0.1568102289
 40
0.188573168
 40
0.2204378975
 40
0.2523861836
 40
0.2843981362
 40
0.3164526134
 40
0.3485276414
 40
0.3806008451
 40
0.4126498846
 40
0.4446528922
 40
0.4765889011
 40
0.508438265
 40
0.5401830549
 40
0.5718074316
 40
0.6032979907
 40
0.6346440642
 40
0.665837975
 40
0.6968752412
 40
0.7277547221
 40
0.7584786892
 40
0.7890528285
 40
0.8194861688
 40
0.8497909234
 40
0.8799822518
 40
0.9100779454
 40
0.9400980396
 40
0.9700643569
 40
1.0
 40
1.0
 40
1.0
 40
1.0
 10
9.1091629248
 20
7.3767411641
 30
0.0
 10
9.1091629248
 20
7.3627426219
 30
0.0
 10
9.1101979305
 20
7.33466473
 30
0.0
 10
9.1148193683
 20
7.2926790003
 30
0.0
 10
9.1224880333
 20
7.2509335774
 30
0.0
 10
9.1331623004
 20
7.2096565979
 30
0.0
 10
9.1467841269
 20
7.1690699891
 30
0.0
 10
9.163279671
 20
7.1293928144
 30
0.0
 10
9.1825596932
 20
7.0908389489
 30
0.0
 10
9.2045200258
 20
7.0536162834
 30
0.0
 10
9.2290420232
 20
7.0179254557
 30
0.0
 10
9.2559933212
 20
6.983958867
 30
0.0
 10
9.2852285506
 20
6.9518996748
 30
0.0
 10
9.316590029
 20
6.9219207503
 30
0.0
 10
9.3499086252
 20
6.8941837553
 30
0.0
 10
9.3850047246
 20
6.8688383497
 30
0.0
 10
9.4216891538
 20
6.8460213761
 30
0.0
 10
9.4597641278
 20
6.825856021
 30
0.0
 10
9.499024383
 20
6.8084512635
 30
0.0
 10
9.5392582611
 20
6.7939013133
 30
0.0
 10
9.5802487888
 20
6.7822849934
 30
0.0
 10
9.6217748555
 20
6.7736653313
 30
0.0
 10
9.6636124089
 20
6.7680892983
 30
0.0
 10
9.7055356247
 20
6.7655875106
 30
0.0
 10
9.7473181093
 20
6.7661739252
 30
0.0
 10
9.7887341296
 20
6.7698458837
 30
0.0
 10
9.8295598018
 20
6.7765841143
 30
0.0
 10
9.869574319
 20
6.7863526882
 30
0.0
 10
9.9085611409
 20
6.7990992074
 30
0.0
 10
9.9463092252
 20
6.8147552133
 30
0.0
 10
9.9826139047
 20
6.8332362248
 30
0.0
 10
10.0172791369
 20
6.8544430381
 30
0.0
 10
10.0501146185
 20
6.8782588015
 30
0.0
 10
10.0706775652
 20
6.8957992589
 30
0.0
 10
10.0805883084
 20
6.9049518569
 30
0.0
  0
SPLINE
  5
3AB
100
AcDbEntity
  8
0
100
AcDbSpline
 62
7
  6
CONTINUOUS
 70
0
 71
3
 72
23
 73
19
 74
0
 42
0.0000001
 43
0.0000001
 44
0.0000000001
 40
0.0
 40
0.0
 40
0.0
 40
0.0
 40
0.0637575956
 40
0.1273109781
 40
0.1906597819
 40
0.2538106238
 40
0.3167689832
 40
0.3795431323
 40
0.4421427602
 40
0.5045791999
 40
0.5668653144
 40
0.6290153633
 40
0.6910448924
 40
0.7529705889
 40
0.8148101327
 40
0.8765820317
 40
0.9383054452
 40
1.0
 40
1.0
 40
1.0
 40
1.0
 10
9.1091629248
 20
7.3767411641
 30
0.0
 10
9.1091629248
 20
7.3855967415
 30
0.0
 10
9.1095752645
 20
7.403282371
 30
0.0
 10
9.1114363068
 20
7.4297078536
 30
0.0
 10
9.1145351164
 20
7.4559327556
 30
0.0
 10
9.1188647417
 20
7.4818989062
 30
0.0
 10
9.1244159665
 20
7.5075500611
 30
0.0
 10
9.1311766718
 20
7.5328301319
 30
0.0
 10
9.1391321881
 20
7.5576840004
 30
0.0
 10
9.1482651897
 20
7.5820574326
 30
0.0
 10
9.1585557924
 20
7.6058972439
 30
0.0
 10
9.1699815894
 20
7.6291514048
 30
0.0
 10
9.1825176912
 20
7.6517691514
 30
0.0
 10
9.1961367975
 20
7.6737011145
 30
0.0
 10
9.210809157
 20
7.6948993799
 30
0.0
 10
9.2265029207
 20
7.7153178384
 30
0.0
 10
9.2431832636
 20
7.7349113082
 30
0.0
 10
9.2549398971
 20
7.7473982016
 30
0.0
 10
9.2609682358
 20
7.7534881483
 30
0.0
  0
SPLINE
  5
3AC
100
AcDbEntity
  8
0
100
AcDbSpline
 62
7
  6
CONTINUOUS
 70
0
 71
3
 72
39
 73
35
 74
0
 42
0.0000001
 43
0.0000001
 44
0.0000000001
 40
0.0
 40
0.0
 40
0.0
 40
0.0
 40
0.0318884563
 40
0.0636724765
 40
0.0953509826
 40
0.1269280613
 40
0.1584066029
 40
0.1897910437
 40
0.2210866934
 40
0.2522996694
 40
0.2834369347
 40
0.3145061915
 40
0.3455158256
 40
0.376474823
 40
0.4073926788
 40
0.4382793037
 40
0.4691449285
 40
0.5000000004
 40
0.5308550738
 40
0.5617207005
 40
0.5926073246
 40
0.6235251778
 40
0.6544841749
 40
0.6854938115
 40
0.7165630687
 40
0.7477003312
 40
0.7789133067
 40
0.8102089522
 40
0.8415934072
 40
0.8730719456
 40
0.9046489353
 40
0.9363278013
 40
0.9681109986
 40
1.0
 40
1.0
 40
1.0
 40
1.0
 10
9.2878592132
 20
7.3643485344
 30
0.0
 10
9.2878592132
 20
7.370597161
 30
0.0
 10
9.2881583087
 20
7.3830760666
 30
0.0
 10
9.2895082159
 20
7.4017185037
 30
0.0
 10
9.2917558497
 20
7.4202131761
 30
0.0
 10
9.2948958086
 20
7.438516641
 30
0.0
 10
9.2989210923
 20
7.4565870644
 30
0.0
 10
9.3038223911
 20
7.4743826731
 30
0.0
 10
9.3095884304
 20
7.491862471
 30
0.0
 10
9.3162059668
 20
7.5089861488
 30
0.0
 10
9.3236597996
 20
7.5257142023
 30
0.0
 10
9.3319327732
 20
7.5420080458
 30
0.0
 10
9.3410058121
 20
7.5578301058
 30
0.0
 10
9.3508580161
 20
7.5731438838
 30
0.0
 10
9.3614667016
 20
7.5879140375
 30
0.0
 10
9.3728074263
 20
7.6021064778
 30
0.0
 10
9.3848540151
 20
7.6156884814
 30
0.0
 10
9.397578685
 20
7.6286287193
 30
0.0
 10
9.410952097
 20
7.6408973323
 30
0.0
 10
9.4249434198
 20
7.6524659991
 30
0.0
 10
9.4395203526
 20
7.6633080655
 30
0.0
 10
9.4546492603
 20
7.6733985436
 30
0.0
 10
9.4702952442
 20
7.682714171
 30
0.0
 10
9.4864222251
 20
7.6912334521
 30
0.0
 10
9.5029929859
 20
7.6989367831
 30
0.0
 10
9.5199692956
 20
7.7058064456
 30
0.0
 10
9.5373120016
 20
7.7118266305
 30
0.0
 10
9.554981119
 20
7.7169834632
 30
0.0
 10
9.5729358978
 20
7.7212650985
 30
0.0
 10
9.5911349463
 20
7.7246617331
 30
0.0
 10
9.6095362747
 20
7.7271655817
 30
0.0
 10
9.6280976252
 20
7.7287708889
 30
0.0
 10
9.6467756583
 20
7.7294740012
 30
0.0
 10
9.6592573797
 20
7.7293404347
 30
0.0
 10
9.6655023598
 20
7.7291238873
 30
0.0
  0
SPLINE
  5
3AD
100
AcDbEntity
  8
0
100
AcDbSpline
 62
7
  6
CONTINUOUS
 70
0
 71
3
 72
39
 73
35
 74
0
 42
0.0000001
 43
0.0000001
 44
0.0000000001
 40
0.0
 40
0.0
 40
0.0
 40
0.0
 40
0.0319058366
 40
0.0637100101
 40
0.09541079
 40
0.1270123302
 40
0.1585173253
 40
0.189929824
 40
0.2212548283
 40
0.2524980284
 40
0.2836659254
 40
0.3147657303
 40
0.3458052964
 40
0.3767930508
 40
0.4077379194
 40
0.4386492464
 40
0.4695366997
 40
0.5004101755
 40
0.531279708
 40
0.5621553731
 40
0.5930471854
 40
0.6239649989
 40
0.6549184164
 40
0.6859166993
 40
0.7169686747
 40
0.7480826496
 40
0.7792663419
 40
0.810526812
 40
0.8418703945
 40
0.8733026424
 40
0.9048282921
 40
0.9364512255
 40
0.9681744334
 40
1.0
 40
1.0
 40
1.0
 40
1.0
 10
9.3447993813
 20
7.3898741054
 30
0.0
 10
9.3447993813
 20
7.3955299256
 30
0.0
 10
9.345063669
 20
7.4068253692
 30
0.0
 10
9.3462563496
 20
7.4237023786
 30
0.0
 10
9.3482423381
 20
7.4404506442
 30
0.0
 10
9.3510170717
 20
7.4570326194
 30
0.0
 10
9.3545746511
 20
7.4734122381
 30
0.0
 10
9.3589072258
 20
7.4895534218
 30
0.0
 10
9.3640052953
 20
7.5054207345
 30
0.0
 10
9.3698577495
 20
7.5209793027
 30
0.0
 10
9.3764517464
 20
7.5361949356
 30
0.0
 10
9.3837727936
 20
7.551034211
 30
0.0
 10
9.3918048386
 20
7.5654645138
 30
0.0
 10
9.4005302936
 20
7.5794541007
 30
0.0
 10
9.4099299707
 20
7.5929722366
 30
0.0
 10
9.4199832108
 20
7.60598922
 30
0.0
 10
9.4306679478
 20
7.6184764255
 30
0.0
 10
9.4419607316
 20
7.6304063787
 30
0.0
 10
9.4538367098
 20
7.6417528893
 30
0.0
 10
9.4662697779
 20
7.652491029
 30
0.0
 10
9.4792326325
 20
7.662597174
 30
0.0
 10
9.4926967821
 20
7.6720491124
 30
0.0
 10
9.5066326045
 20
7.6808261183
 30
0.0
 10
9.521009471
 20
7.6889089186
 30
0.0
 10
9.5357958024
 20
7.6962797285
 30
0.0
 10
9.5509590866
 20
7.7029223928
 30
0.0
 10
9.5664659876
 20
7.7088223691
 30
0.0
 10
9.5822824375
 20
7.7139667115
 30
0.0
 10
9.5983736928
 20
7.7183441067
 30
0.0
 10
9.6147043971
 20
7.7219450136
 30
0.0
 10
9.6312386422
 20
7.7247615705
 30
0.0
 10
9.6479402507
 20
7.7267876019
 30
0.0
 10
9.6647720554
 20
7.7280186604
 30
0.0
 10
9.6760383534
 20
7.7283071936
 30
0.0
 10
9.6816799321
 20
7.7283190045
 30
0.0
  0
SPLINE
  5
3AE
100
AcDbEntity
  8
0
100
AcDbSpline
 62
7
  6
CONTINUOUS
 70
0
 71
3
 72
23
 73
19
 74
0
 42
0.0000001
 43
0.0000001
 44
0.0000000001
 40
0.0
 40
0.0
 40
0.0
 40
0.0
 40
0.0637765977
 40
0.1273450691
 40
0.1907019728
 40
0.2538560883
 40
0.3168132203
 40
0.3795820796
 40
0.4421733855
 40
0.5045993402
 40
0.566873864
 40
0.6290123768
 40
0.6910316495
 40
0.7529496457
 40
0.8147853522
 40
0.8765585995
 40
0.9382898533
 40
1.0
 40
1.0
 40
1.0
 40
1.0
 10
9.3821854349
 20
7.3954606734
 30
0.0
 10
9.3821854349
 20
7.400783552
 30
0.0
 10
9.3824402309
 20
7.4114137415
 30
0.0
 10
9.3835901365
 20
7.4272943397
 30
0.0
 10
9.3855047899
 20
7.4430490863
 30
0.0
 10
9.3881795751
 20
7.4586409193
 30
0.0
 10
9.3916085275
 20
7.4740342421
 30
0.0
 10
9.3957837056
 20
7.4891934696
 30
0.0
 10
9.4006955014
 20
7.504083674
 30
0.0
 10
9.406332676
 20
7.5186705081
 30
0.0
 10
9.4126822548
 20
7.532920325
 30
0.0
 10
9.4197295901
 20
7.5468002741
 30
0.0
 10
9.4274584579
 20
7.5602783364
 30
0.0
 10
9.4358511015
 20
7.5733234008
 30
0.0
 10
9.4448881298
 20
7.5859053557
 30
0.0
 10
9.4545487977
 20
7.5979952867
 30
0.0
 10
9.4648104464
 20
7.6095649321
 30
0.0
 10
9.472037843
 20
7.616914677
 30
0.0
 10
9.4757422906
 20
7.6204929153
 30
0.0
  0
SPLINE
  5
3AF
100
AcDbEntity
  8
0
100
AcDbSpline
 62
7
  6
CONTINUOUS
 70
0
 71
3
 72
71
 73
67
 74
0
 42
0.0000001
 43
0.0000001
 44
0.0000000001
 40
0.0
 40
0.0
 40
0.0
 40
0.0
 40
0.0156372492
 40
0.0313279719
 40
0.0470702691
 40
0.0628636356
 40
0.078706085
 40
0.0945954859
 40
0.1105292303
 40
0.1265042941
 40
0.1425172939
 40
0.1585644997
 40
0.1746418769
 40
0.1907451249
 40
0.2068697161
 40
0.2230109353
 40
0.2391639203
 40
0.2553237068
 40
0.2714852727
 40
0.2876435802
 40
0.3037936187
 40
0.3199304493
 40
0.3360492495
 40
0.3521453553
 40
0.368214301
 40
0.3842518591
 40
0.400254082
 40
0.4162173382
 40
0.432138346
 40
0.4480142044
 40
0.4638424243
 40
0.479620957
 40
0.4953482151
 40
0.5110230911
 40
0.5266449716
 40
0.5422137518
 40
0.5577298409
 40
0.5731941615
 40
0.5886081454
 40
0.6039737251
 40
0.6192933216
 40
0.6345698227
 40
0.6498065569
 40
0.6650072614
 40
0.6801760495
 40
0.6953173696
 40
0.7104359593
 40
0.7255367964
 40
0.7406250465
 40
0.7557060105
 40
0.7707850676
 40
0.7858676177
 40
0.8009590222
 40
0.8160645476
 40
0.8311893103
 40
0.8463382234
 40
0.8615159446
 40
0.8767268274
 40
0.891974877
 40
0.9072637192
 40
0.9225965472
 40
0.9379761189
 40
0.953404763
 40
0.9688840052
 40
0.9844158733
 40
1.0
 40
1.0
 40
1.0
 40
1.0
 10
9.2878592132
 20
7.3643485344
 30
0.0
 10
9.2878592132
 20
7.3579373908
 30
0.0
 10
9.2881751213
 20
7.3450909977
 30
0.0
 10
9.2895896737
 20
7.325837251
 30
0.0
 10
9.2919425308
 20
7.3066106296
 30
0.0
 10
9.2952277233
 20
7.287458285
 30
0.0
 10
9.2994374878
 20
7.2684259711
 30
0.0
 10
9.3045615899
 20
7.2495596325
 30
0.0
 10
9.3105876456
 20
7.2309046507
 30
0.0
 10
9.3175011181
 20
7.2125059339
 30
0.0
 10
9.3252853384
 20
7.194407769
 30
0.0
 10
9.3339215695
 20
7.1766537282
 30
0.0
 10
9.3433889811
 20
7.1592865357
 30
0.0
 10
9.3536647535
 20
7.1423479835
 30
0.0
 10
9.3647241379
 20
7.1258788372
 30
0.0
 10
9.3765405172
 20
7.1099187439
 30
0.0
 10
9.3890854483
 20
7.0945061259
 30
0.0
 10
9.4023287076
 20
7.0796780635
 30
0.0
 10
9.4162384125
 20
7.0654702436
 30
0.0
 10
9.4307810853
 20
7.0519168688
 30
0.0
 10
9.4459217399
 20
7.0390505868
 30
0.0
 10
9.4616239255
 20
7.026902366
 30
0.0
 10
9.4778498397
 20
7.0155014428
 30
0.0
 10
9.4945604324
 20
7.0048752716
 30
0.0
 10
9.5117154938
 20
6.995049458
 30
0.0
 10
9.529273744
 20
6.9860476917
 30
0.0
 10
9.5471929104
 20
6.977891641
 30
0.0
 10
9.5654298623
 20
6.9706009584
 30
0.0
 10
9.5839407059
 20
6.9641932262
 30
0.0
 10
9.6026808904
 20
6.9586839275
 30
0.0
 10
9.6216052986
 20
6.9540863583
 30
0.0
 10
9.6406683644
 20
6.9504116045
 30
0.0
 10
9.6598241899
 20
6.9476685533
 30
0.0
 10
9.6790266494
 20
6.9458638634
 30
0.0
 10
9.6982294966
 20
6.9450019508
 30
0.0
 10
9.7173864754
 20
6.9450849127
 30
0.0
 10
9.7364514376
 20
6.9461125857
 30
0.0
 10
9.7553784497
 20
6.948082543
 30
0.0
 10
9.7741218986
 20
6.9509901084
 30
0.0
 10
9.7926366056
 20
6.9548283264
 30
0.0
 10
9.8108779445
 20
6.9595879664
 30
0.0
 10
9.8288019386
 20
6.9652575974
 30
0.0
 10
9.846365366
 20
6.9718236001
 30
0.0
 10
9.8635258575
 20
6.9792702081
 30
0.0
 10
9.8802420284
 20
6.9875794804
 30
0.0
 10
9.8964735631
 20
6.9967313965
 30
0.0
 10
9.9121813061
 20
7.0067039114
 30
0.0
 10
9.927327352
 20
7.0174730098
 30
0.0
 10
9.9418751506
 20
7.0290127411
 30
0.0
 10
9.9557896226
 20
7.0412952575
 30
0.0
 10
9.9690372073
 20
7.0542909346
 30
0.0
 10
9.981585949
 20
7.0679684302
 30
0.0
 10
9.9934055632
 20
7.0822947678
 30
0.0
 10
10.0044675603
 20
7.0972353738
 30
0.0
 10
10.0147452913
 20
7.1127541915
 30
0.0
 10
10.0242139912
 20
7.1288137823
 30
0.0
 10
10.032850839
 20
7.145375412
 30
0.0
 10
10.0406350186
 20
7.1623991374
 30
0.0
 10
10.0475478237
 20
7.1798438842
 30
0.0
 10
10.0535726289
 20
7.1976675801
 30
0.0
 10
10.0586949548
 20
7.215827244
 30
0.0
 10
10.0629024857
 20
7.2342791306
 30
0.0
 10
10.0661850654
 20
7.2529786385
 30
0.0
 10
10.0685350205
 20
7.2718810533
 30
0.0
 10
10.0699464707
 20
7.2909399821
 30
0.0
 10
10.0702591789
 20
7.3036995487
 30
0.0
 10
10.0702591789
 20
7.3100889125
 30
0.0
  0
SPLINE
  5
3B0
100
AcDbEntity
  8
0
100
AcDbSpline
 62
7
  6
CONTINUOUS
 70
0
 71
3
 72
66
 73
62
 74
0
 42
0.0000001
 43
0.0000001
 44
0.0000000001
 40
0.0
 40
0.0
 40
0.0
 40
0.0
 40
0.015635587
 40
0.031323452
 40
0.047061473
 40
0.0628493738
 40
0.0786852998
 40
0.0945672413
 40
0.1104928061
 40
0.12645918
 40
0.1424632178
 40
0.1585014475
 40
0.1745701099
 40
0.1906651911
 40
0.222909381
 40
0.255206261
 40
0.2875181719
 40
0.3198069602
 40
0.3520352326
 40
0.3681195842
 40
0.3841757819
 40
0.4001999131
 40
0.4161883382
 40
0.4321377212
 40
0.4480450574
 40
0.4639077035
 40
0.4797234067
 40
0.4954903253
 40
0.5112070457
 40
0.5268726015
 40
0.5424864899
 40
0.5580486771
 40
0.5735596011
 40
0.5890201756
 40
0.6044317882
 40
0.6197962889
 40
0.6351159744
 40
0.650393574
 40
0.6656322277
 40
0.6808354566
 40
0.6960071287
 40
0.7111514264
 40
0.726272807
 40
0.7413759582
 40
0.7564657493
 40
0.7715471851
 40
0.7866253567
 40
0.8017053883
 40
0.8167923842
 40
0.8318913771
 40
0.8470072798
 40
0.8621448352
 40
0.8773085674
 40
0.8925027372
 40
0.9077313031
 40
0.9229978876
 40
0.9383057384
 40
0.95365768
 40
0.9690561918
 40
0.9845031564
 40
1.0
 40
1.0
 40
1.0
 40
1.0
 10
9.3447993813
 20
7.3898741054
 30
0.0
 10
9.3447993813
 20
7.3840835808
 30
0.0
 10
9.3450773104
 20
7.3724812999
 30
0.0
 10
9.3463219215
 20
7.3550907223
 30
0.0
 10
9.348392337
 20
7.3377218711
 30
0.0
 10
9.3512835401
 20
7.3204152314
 30
0.0
 10
9.3549890729
 20
7.3032099936
 30
0.0
 10
9.3595003591
 20
7.2861455757
 30
0.0
 10
9.3648070491
 20
7.2692609324
 30
0.0
 10
9.3708970181
 20
7.2525946451
 30
0.0
 10
9.3777563701
 20
7.236184771
 30
0.0
 10
9.385369305
 20
7.2200688782
 30
0.0
 10
9.3937186844
 20
7.2042833961
 30
0.0
 10
9.4058125539
 20
7.1837159675
 30
0.0
 10
9.4226731778
 20
7.1590151813
 30
0.0
 10
9.4454888561
 20
7.1312780803
 30
0.0
 10
9.4706975109
 20
7.1056706074
 30
0.0
 10
9.4980667537
 20
7.0824286144
 30
0.0
 10
9.5224909587
 20
7.0651919463
 30
0.0
 10
9.5428558173
 20
7.0527877914
 30
0.0
 10
9.5584982595
 20
7.0442020453
 30
0.0
 10
9.5744811543
 20
7.0363490271
 30
0.0
 10
9.5907683505
 20
7.0292463799
 30
0.0
 10
9.6073225492
 20
7.0229104245
 30
0.0
 10
9.6241059743
 20
7.0173556698
 30
0.0
 10
9.6410802778
 20
7.0125948434
 30
0.0
 10
9.6582066742
 20
7.0086388167
 30
0.0
 10
9.6754460363
 20
7.0054966596
 30
0.0
 10
9.6927589793
 20
7.0031756198
 30
0.0
 10
9.7101059365
 20
7.0016810348
 30
0.0
 10
9.72744726
 20
7.0010163238
 30
0.0
 10
9.7447433149
 20
7.0011830446
 30
0.0
 10
9.76195456
 20
7.002180892
 30
0.0
 10
9.7790416413
 20
7.0040076148
 30
0.0
 10
9.7959654894
 20
7.0066590446
 30
0.0
 10
9.8126874006
 20
7.0101291592
 30
0.0
 10
9.8291691154
 20
7.0144100986
 30
0.0
 10
9.8453729284
 20
7.0194920919
 30
0.0
 10
9.8612617732
 20
7.025363521
 30
0.0
 10
9.8767992912
 20
7.0320109897
 30
0.0
 10
9.8919499047
 20
7.0394193543
 30
0.0
 10
9.9066789422
 20
7.047571668
 30
0.0
 10
9.9209527018
 20
7.0564492747
 30
0.0
 10
9.9347385079
 20
7.0660318816
 30
0.0
 10
9.9480047769
 20
7.0762976042
 30
0.0
 10
9.9607211542
 20
7.0872229334
 30
0.0
 10
9.9728585475
 20
7.0987828524
 30
0.0
 10
9.9843891736
 20
7.1109509118
 30
0.0
 10
9.9952866133
 20
7.1236992869
 30
0.0
 10
10.0055259543
 20
7.1369987726
 30
0.0
 10
10.0150837899
 20
7.150818913
 30
0.0
 10
10.0239382554
 20
7.1651280788
 30
0.0
 10
10.032069072
 20
7.1798935341
 30
0.0
 10
10.0394576866
 20
7.1950814615
 30
0.0
 10
10.0460872367
 20
7.2106570941
 30
0.0
 10
10.0519425747
 20
7.2265847919
 30
0.0
 10
10.0570102959
 20
7.2428281254
 30
0.0
 10
10.0612788987
 20
7.2593498908
 30
0.0
 10
10.0647386386
 20
7.2761124218
 30
0.0
 10
10.0673816228
 20
7.293076806
 30
0.0
 10
10.0685932002
 20
7.3044777356
 30
0.0
 10
10.0690617721
 20
7.3101977174
 30
0.0
  0
SPLINE
  5
3B1
100
AcDbEntity
  8
0
100
AcDbSpline
 62
7
  6
CONTINUOUS
 70
0
 71
3
 72
39
 73
35
 74
0
 42
0.0000001
 43
0.0000001
 44
0.0000000001
 40
0.0
 40
0.0
 40
0.0
 40
0.0
 40
0.0310753389
 40
0.0623079046
 40
0.0936931359
 40
0.1252222867
 40
0.1568840447
 40
0.188664204
 40
0.2205461642
 40
0.252511249
 40
0.2845391085
 40
0.3166081366
 40
0.3486959074
 40
0.3807796228
 40
0.4128365654
 40
0.4448445498
 40
0.476782367
 40
0.5086302146
 40
0.5403701085
 40
0.5719862649
 40
0.6034654497
 40
0.6347972845
 40
0.6659745042
 40
0.696993157
 40
0.7278527401
 40
0.7585562641
 40
0.7891102404
 40
0.8195245845
 40
0.8498124362
 40
0.879989895
 40
0.9100756746
 40
0.9400906813
 40
0.9700575289
 40
1.0
 40
1.0
 40
1.0
 40
1.0
 10
9.3821854349
 20
7.3954606734
 30
0.0
 10
9.3821854349
 20
7.3872021507
 30
0.0
 10
9.3828015003
 20
7.3706369659
 30
0.0
 10
9.3855521107
 20
7.3458684843
 30
0.0
 10
9.3901160434
 20
7.3212454428
 30
0.0
 10
9.3964680898
 20
7.296904799
 30
0.0
 10
9.4045730582
 20
7.2729797555
 30
0.0
 10
9.4143862791
 20
7.2496017469
 30
0.0
 10
9.4258537003
 20
7.226899036
 30
0.0
 10
9.4389122462
 20
7.2049962104
 30
0.0
 10
9.4534901346
 20
7.1840134485
 30
0.0
 10
9.4695072754
 20
7.164065882
 30
0.0
 10
9.4868757143
 20
7.1452629726
 30
0.0
 10
9.5055001099
 20
7.127707918
 30
0.0
 10
9.5252782515
 20
7.1114970922
 30
0.0
 10
9.5461016138
 20
7.0967195216
 30
0.0
 10
9.5678559448
 20
7.0834564014
 30
0.0
 10
9.5904218854
 20
7.0717806526
 30
0.0
 10
9.6136756096
 20
7.0617565109
 30
0.0
 10
9.6374895032
 20
7.0534391862
 30
0.0
 10
9.6617328536
 20
7.0468745582
 30
0.0
 10
9.6862725565
 20
7.0420989219
 30
0.0
 10
9.7109738359
 20
7.0391387821
 30
0.0
 10
9.7357009735
 20
7.0380106994
 30
0.0
 10
9.7603180455
 20
7.0387211896
 30
0.0
 10
9.7846896626
 20
7.0412666635
 30
0.0
 10
9.8086817128
 20
7.0456334297
 30
0.0
 10
9.8321621012
 20
7.0517977651
 30
0.0
 10
9.8550014686
 20
7.0597260135
 30
0.0
 10
9.8770739573
 20
7.0693747968
 30
0.0
 10
9.8982577503
 20
7.0806910785
 30
0.0
 10
9.9184363814
 20
7.093613036
 30
0.0
 10
9.9374970861
 20
7.1080681964
 30
0.0
 10
9.9493940165
 20
7.1186788449
 30
0.0
 10
9.9551174389
 20
7.1242072722
 30
0.0
  0
SPLINE
  5
3B2
100
AcDbEntity
  8
0
100
AcDbSpline
 62
7
  6
CONTINUOUS
 70
0
 71
3
 72
37
 73
33
 74
0
 42
0.0000001
 43
0.0000001
 44
0.0000000001
 40
0.0
 40
0.0
 40
0.0
 40
0.0
 40
0.0306805685
 40
0.061476437
 40
0.0923838033
 40
0.1234006137
 40
0.154521846
 40
0.1857419454
 40
0.2170540787
 40
0.2484504261
 40
0.2799222502
 40
0.3114599901
 40
0.343053376
 40
0.374691539
 40
0.40636313
 40
0.4380564448
 40
0.50144015
 40
0.5647669131
 40
0.5963896814
 40
0.6279635573
 40
0.659477882
 40
0.6909226371
 40
0.722288556
 40
0.7535672288
 40
0.7847512041
 40
0.8158340809
 40
0.8468105881
 40
0.8776766549
 40
0.9084294679
 40
0.9390675175
 40
0.9695906331
 40
1.0
 40
1.0
 40
1.0
 40
1.0
 10
9.6697494358
 20
7.664226185
 30
0.0
 10
9.6697494358
 20
7.6583536157
 30
0.0
 10
9.6700689994
 20
7.6465839762
 30
0.0
 10
9.671499126
 20
7.6289506453
 30
0.0
 10
9.6738768927
 20
7.6113545384
 30
0.0
 10
9.677195035
 20
7.5938481432
 30
0.0
 10
9.6814439261
 20
7.5764824853
 30
0.0
 10
9.686610984
 20
7.5593086137
 30
0.0
 10
9.6926810438
 20
7.5423768721
 30
0.0
 10
9.6996362399
 20
7.5257369206
 30
0.0
 10
9.7074561348
 20
7.50943755
 30
0.0
 10
9.716117756
 20
7.4935265625
 30
0.0
 10
9.7255957067
 20
7.4780505864
 30
0.0
 10
9.7358620738
 20
7.4630551107
 30
0.0
 10
9.7468871327
 20
7.448583724
 30
0.0
 10
9.7625526007
 20
7.4300470989
 30
0.0
 10
9.7838599384
 20
7.408398887
 30
0.0
 10
9.8072342689
 20
7.3890215015
 30
0.0
 10
9.8270071555
 20
7.3750229324
 30
0.0
 10
9.8423235695
 20
7.3653094498
 30
0.0
 10
9.8580858085
 20
7.3564073482
 30
0.0
 10
9.8742480695
 20
7.3483424019
 30
0.0
 10
9.8907628514
 20
7.3411383975
 30
0.0
 10
9.9075817587
 20
7.3348164891
 30
0.0
 10
9.9246554543
 20
7.3293952624
 30
0.0
 10
9.9419338619
 20
7.3248906548
 30
0.0
 10
9.9593662951
 20
7.3213159285
 30
0.0
 10
9.9769016281
 20
7.3186816284
 30
0.0
 10
9.9944883607
 20
7.3169955439
 30
0.0
 10
10.0120750709
 20
7.3162627149
 30
0.0
 10
10.0296094378
 20
7.3164852767
 30
0.0
 10
10.0412529462
 20
7.3172717919
 30
0.0
 10
10.0470473177
 20
7.3178243547
 30
0.0
  0
SPLINE
  5
3B3
100
AcDbEntity
  8
0
100
AcDbSpline
 62
7
  6
CONTINUOUS
 70
0
 71
3
 72
41
 73
37
 74
0
 42
0.0000001
 43
0.0000001
 44
0.0000000001
 40
0.0
 40
0.0
 40
0.0
 40
0.0
 40
0.0310391977
 40
0.0466190434
 40
0.0622365418
 40
0.0935778872
 40
0.1250600856
 40
0.1566726498
 40
0.1884023779
 40
0.2202338199
 40
0.2521495506
 40
0.2681354246
 40
0.2841351197
 40
0.3161610693
 40
0.348210855
 40
0.3802628938
 40
0.4122955604
 40
0.4442875956
 40
0.4762185089
 40
0.5080689718
 40
0.5398211951
 40
0.5714592845
 40
0.6029695685
 40
0.6343408928
 40
0.6655648745
 40
0.6966361092
 40
0.7275523238
 40
0.7583144704
 40
0.7889267545
 40
0.8193965937
 40
0.8497345022
 40
0.8799539023
 40
0.9100708607
 40
0.9401037563
 40
0.9700728834
 40
1.0
 40
1.0
 40
1.0
 40
1.0
 10
10.4005092903
 20
8.9376030074
 30
0.0
 10
10.4005092903
 20
8.9297642765
 30
0.0
 10
10.4009362863
 20
8.9179853392
 30
0.0
 10
10.4023468927
 20
8.9023290171
 30
0.0
 10
10.4043234828
 20
8.886656439
 30
0.0
 10
10.4078473526
 20
8.8671445258
 30
0.0
 10
10.4137270575
 20
8.8440118974
 30
0.0
 10
10.4212322448
 20
8.8212508066
 30
0.0
 10
10.430323637
 20
8.7989805031
 30
0.0
 10
10.4409533042
 20
8.7773174852
 30
0.0
 10
10.4510430099
 20
8.7598722357
 30
0.0
 10
10.4598239942
 20
8.7463293622
 30
0.0
 10
10.4690744207
 20
8.7330687243
 30
0.0
 10
10.4814810475
 20
8.717078052
 30
0.0
 10
10.4976340667
 20
8.6989315191
 30
0.0
 10
10.5149746336
 20
8.6819129945
 30
0.0
 10
10.5334119294
 20
8.6661118022
 30
0.0
 10
10.5528499399
 20
8.6516102169
 30
0.0
 10
10.573187308
 20
8.6384839576
 30
0.0
 10
10.594318028
 20
8.6268015497
 30
0.0
 10
10.6161319455
 20
8.6166240354
 30
0.0
 10
10.6385153363
 20
8.6080046387
 30
0.0
 10
10.6613514888
 20
8.6009884919
 30
0.0
 10
10.6845213045
 20
8.5956123979
 30
0.0
 10
10.7079039095
 20
8.5919046273
 30
0.0
 10
10.7313772791
 20
8.5898847702
 30
0.0
 10
10.7548188668
 20
8.5895636273
 30
0.0
 10
10.7781062376
 20
8.5909431432
 30
0.0
 10
10.8011177014
 20
8.5940163833
 30
0.0
 10
10.82373295
 20
8.5987675586
 30
0.0
 10
10.8458336751
 20
8.6051720838
 30
0.0
 10
10.8673042346
 20
8.6131967263
 30
0.0
 10
10.8880321063
 20
8.6227996332
 30
0.0
 10
10.9079090835
 20
8.6339310328
 30
0.0
 10
10.9268296528
 20
8.6465316359
 30
0.0
 10
10.9387484102
 20
8.6558746205
 30
0.0
 10
10.9445115268
 20
8.6607642092
 30
0.0
  0
SPLINE
  5
3B4
100
AcDbEntity
  8
0
100
AcDbSpline
 62
7
  6
CONTINUOUS
 70
0
 71
3
 72
21
 73
17
 74
0
 42
0.0000001
 43
0.0000001
 44
0.0000000001
 40
0.0
 40
0.0
 40
0.0
 40
0.0
 40
0.1272174542
 40
0.2536640213
 40
0.3166262221
 40
0.3794116749
 40
0.4420289346
 40
0.5044876301
 40
0.5667987277
 40
0.6289744589
 40
0.6910281791
 40
0.7529742937
 40
0.8148281145
 40
0.8766057412
 40
0.9383239446
 40
1.0
 40
1.0
 40
1.0
 40
1.0
 10
10.4005092903
 20
8.9376030074
 30
0.0
 10
10.4005092903
 20
8.9471371385
 30
0.0
 10
10.4013478483
 20
8.9661580057
 30
0.0
 10
10.4045135782
 20
8.9897088282
 30
0.0
 10
10.4083001635
 20
9.0082316571
 30
0.0
 10
10.4117556085
 20
9.0219242155
 30
0.0
 10
10.4158235648
 20
9.0354078429
 30
0.0
 10
10.4204960862
 20
9.0486564916
 30
0.0
 10
10.4257640258
 20
9.0616441741
 30
0.0
 10
10.4316171678
 20
9.0743454756
 30
0.0
 10
10.4380440411
 20
9.0867355538
 30
0.0
 10
10.4450320641
 20
9.0987901929
 30
0.0
 10
10.4525676229
 20
9.1104857469
 30
0.0
 10
10.4606360365
 20
9.1217994207
 30
0.0
 10
10.4692212074
 20
9.1327088114
 30
0.0
 10
10.475280205
 20
9.1397004063
 30
0.0
 10
10.4783891973
 20
9.1431208045
 30
0.0
  0
SPLINE
  5
3B5
100
AcDbEntity
  8
0
100
AcDbSpline
 62
7
  6
CONTINUOUS
 70
0
 71
3
 72
37
 73
33
 74
0
 42
0.0000001
 43
0.0000001
 44
0.0000000001
 40
0.0
 40
0.0
 40
0.0
 40
0.0
 40
0.0063161109
 40
0.0126711338
 40
0.0191032156
 40
0.0256489994
 40
0.0392093374
 40
0.0536076786
 40
0.0690450798
 40
0.0856786401
 40
0.1036272065
 40
0.1229776037
 40
0.1437907506
 40
0.1661071328
 40
0.1899503416
 40
0.2153307398
 40
0.2422476171
 40
0.2706909087
 40
0.3006430392
 40
0.3320794542
 40
0.3649699263
 40
0.3992791091
 40
0.4349668709
 40
0.4719892129
 40
0.5102981662
 40
0.5498424352
 40
0.5905676756
 40
0.6324164962
 40
0.7192408911
 40
0.8098109239
 40
0.9035854682
 40
1.0
 40
1.0
 40
1.0
 40
1.0
 10
12.1140765786
 20
7.3609459121
 30
0.0
 10
12.1145785636
 20
7.3609110981
 30
0.0
 10
12.1155832568
 20
7.360800174
 30
0.0
 10
12.1170790251
 20
7.3605110362
 30
0.0
 10
12.1185648312
 20
7.3600991088
 30
0.0
 10
12.1205543702
 20
7.3593784998
 30
0.0
 10
12.1230264906
 20
7.3581533566
 30
0.0
 10
12.1258996165
 20
7.3562149215
 30
0.0
 10
12.1287125951
 20
7.3537968845
 30
0.0
 10
12.1314624112
 20
7.3509048573
 30
0.0
 10
12.1341465266
 20
7.3475438678
 30
0.0
 10
12.1367618363
 20
7.343719271
 30
0.0
 10
12.139305002
 20
7.3394369526
 30
0.0
 10
12.1417723369
 20
7.3347034701
 30
0.0
 10
12.1441601828
 20
7.3295262221
 30
0.0
 10
12.1464647657
 20
7.3239133642
 30
0.0
 10
12.1486823781
 20
7.3178738529
 30
0.0
 10
12.1508094496
 20
7.3114174175
 30
0.0
 10
12.1528424279
 20
7.304554507
 30
0.0
 10
12.1547779948
 20
7.2972963008
 30
0.0
 10
12.156612925
 20
7.2896546519
 30
0.0
 10
12.1583441479
 20
7.2816420728
 30
0.0
 10
12.1599688226
 20
7.2732717115
 30
0.0
 10
12.1614841989
 20
7.264557318
 30
0.0
 10
12.1628877808
 20
7.2555132243
 30
0.0
 10
12.1641772225
 20
7.24615432
 30
0.0
 10
12.1653503764
 20
7.2364960018
 30
0.0
 10
12.1667743442
 20
7.2230752976
 30
0.0
 10
12.1682383818
 20
7.2056676905
 30
0.0
 10
12.1694856062
 20
7.1840980766
 30
0.0
 10
12.170235305
 20
7.161741187
 30
0.0
 10
12.1703980167
 20
7.1465886502
 30
0.0
 10
12.1703980167
 20
7.1389075147
 30
0.0
  0
SPLINE
  5
3B6
100
AcDbEntity
  8
0
100
AcDbSpline
 62
7
  6
CONTINUOUS
 70
0
 71
3
 72
37
 73
33
 74
0
 42
0.0000001
 43
0.0000001
 44
0.0000000001
 40
0.0
 40
0.0
 40
0.0
 40
0.0
 40
0.0063161109
 40
0.0126711338
 40
0.0191032156
 40
0.0256489994
 40
0.0392093374
 40
0.0536076786
 40
0.0690450798
 40
0.0856786401
 40
0.1036272065
 40
0.1229776037
 40
0.1437907506
 40
0.1661071328
 40
0.1899503416
 40
0.2153307398
 40
0.2422476171
 40
0.2706909087
 40
0.3006430392
 40
0.3320794542
 40
0.3649699263
 40
0.3992791091
 40
0.4349668709
 40
0.4719892129
 40
0.5102981662
 40
0.5498424352
 40
0.5905676756
 40
0.6324164962
 40
0.7192408911
 40
0.8098109239
 40
0.9035854682
 40
1.0
 40
1.0
 40
1.0
 40
1.0
 10
12.1140765786
 20
9.0513160931
 30
0.0
 10
12.1145785636
 20
9.0512812792
 30
0.0
 10
12.1155832568
 20
9.051170355
 30
0.0
 10
12.1170790251
 20
9.0508812173
 30
0.0
 10
12.1185648312
 20
9.0504692898
 30
0.0
 10
12.1205543702
 20
9.0497486808
 30
0.0
 10
12.1230264906
 20
9.0485235376
 30
0.0
 10
12.1258996165
 20
9.0465851025
 30
0.0
 10
12.1287125951
 20
9.0441670656
 30
0.0
 10
12.1314624112
 20
9.0412750383
 30
0.0
 10
12.1341465266
 20
9.0379140489
 30
0.0
 10
12.1367618363
 20
9.034089452
 30
0.0
 10
12.139305002
 20
9.0298071336
 30
0.0
 10
12.1417723369
 20
9.0250736511
 30
0.0
 10
12.1441601828
 20
9.0198964032
 30
0.0
 10
12.1464647657
 20
9.0142835452
 30
0.0
 10
12.1486823781
 20
9.0082440339
 30
0.0
 10
12.1508094496
 20
9.0017875985
 30
0.0
 10
12.1528424279
 20
8.994924688
 30
0.0
 10
12.1547779948
 20
8.9876664818
 30
0.0
 10
12.156612925
 20
8.980024833
 30
0.0
 10
12.1583441479
 20
8.9720122538
 30
0.0
 10
12.1599688226
 20
8.9636418926
 30
0.0
 10
12.1614841989
 20
8.954927499
 30
0.0
 10
12.1628877808
 20
8.9458834053
 30
0.0
 10
12.1641772225
 20
8.936524501
 30
0.0
 10
12.1653503764
 20
8.9268661828
 30
0.0
 10
12.1667743442
 20
8.9134454786
 30
0.0
 10
12.1682383818
 20
8.8960378716
 30
0.0
 10
12.1694856062
 20
8.8744682576
 30
0.0
 10
12.170235305
 20
8.852111368
 30
0.0
 10
12.1703980167
 20
8.8369588312
 30
0.0
 10
12.1703980167
 20
8.8292776957
 30
0.0
  0
SPLINE
  5
3B7
100
AcDbEntity
  8
0
100
AcDbSpline
 62
7
  6
CONTINUOUS
 70
0
 71
3
 72
46
 73
42
 74
0
 42
0.0000001
 43
0.0000001
 44
0.0000000001
 40
0.0
 40
0.0
 40
0.0
 40
0.0
 40
0.0149720525
 40
0.0299471649
 40
0.0449283772
 40
0.0599186917
 40
0.0749210573
 40
0.0899383484
 40
0.1049733476
 40
0.1200287333
 40
0.1351070597
 40
0.1502107421
 40
0.1653420474
 40
0.1805030776
 40
0.1956957572
 40
0.2109218287
 40
0.2414745667
 40
0.2721768461
 40
0.3030351766
 40
0.3340525707
 40
0.3652285255
 40
0.3965590884
 40
0.4280369959
 40
0.4596518697
 40
0.4913904744
 40
0.523237028
 40
0.5551735471
 40
0.5871802301
 40
0.6192358692
 40
0.6513182802
 40
0.6834047461
 40
0.7154724694
 40
0.7474990252
 40
0.7794628091
 40
0.811343472
 40
0.843122339
 40
0.8747828041
 40
0.9063106918
 40
0.9376946023
 40
0.9689259241
 40
1.0
 40
1.0
 40
1.0
 40
1.0
 10
10.1705076379
 20
8.2866633406
 30
0.0
 10
10.1656132188
 20
8.2819357067
 30
0.0
 10
10.1556342473
 20
8.2726730463
 30
0.0
 10
10.1401238856
 20
8.259383315
 30
0.0
 10
10.1240912379
 20
8.2467146526
 30
0.0
 10
10.1075587307
 20
8.2346847202
 30
0.0
 10
10.0905490327
 20
8.2233099875
 30
0.0
 10
10.0730855379
 20
8.2126061855
 30
0.0
 10
10.0551923176
 20
8.2025879662
 30
0.0
 10
10.0368939945
 20
8.1932691111
 30
0.0
 10
10.0182157198
 20
8.1846624954
 30
0.0
 10
9.999183241
 20
8.1767798798
 30
0.0
 10
9.9798227134
 20
8.1696321047
 30
0.0
 10
9.9601608614
 20
8.1632290651
 30
0.0
 10
9.9402243811
 20
8.1575794291
 30
0.0
 10
9.9132859372
 20
8.1510547666
 30
0.0
 10
9.8790506046
 20
8.1448234472
 30
0.0
 10
9.837372623
 20
8.1404706857
 30
0.0
 10
9.7952736321
 20
8.1392556209
 30
0.0
 10
9.7529867559
 20
8.1411848924
 30
0.0
 10
9.7107440158
 20
8.146247216
 30
0.0
 10
9.6687776171
 20
8.154414273
 30
0.0
 10
9.627318027
 20
8.1656407922
 30
0.0
 10
9.5865928819
 20
8.1798646847
 30
0.0
 10
9.5468256978
 20
8.1970074431
 30
0.0
 10
9.5082347312
 20
8.2169746969
 30
0.0
 10
9.4710317382
 20
8.2396565799
 30
0.0
 10
9.4354208137
 20
8.2649283525
 30
0.0
 10
9.4015973738
 20
8.292651207
 30
0.0
 10
9.3697470268
 20
8.3226729043
 30
0.0
 10
9.3400445268
 20
8.3548285885
 30
0.0
 10
9.3126529457
 20
8.3889418032
 30
0.0
 10
9.2877227182
 20
8.4248253641
 30
0.0
 10
9.265390747
 20
8.4622823377
 30
0.0
 10
9.2457798087
 20
8.5011072221
 30
0.0
 10
9.2289978264
 20
8.5410869754
 30
0.0
 10
9.2151371615
 20
8.58200223
 30
0.0
 10
9.2042742678
 20
8.6236282074
 30
0.0
 10
9.1964693044
 20
8.6657371386
 30
0.0
 10
9.1917653962
 20
8.7080947844
 30
0.0
 10
9.1907118241
 20
8.7364236346
 30
0.0
 10
9.1907118241
 20
8.7505468916
 30
0.0
  0
SPLINE
  5
3B8
100
AcDbEntity
  8
0
100
AcDbSpline
 62
7
  6
CONTINUOUS
 70
0
 71
3
 72
40
 73
36
 74
0
 42
0.0000001
 43
0.0000001
 44
0.0000000001
 40
0.0
 40
0.0
 40
0.0
 40
0.0
 40
0.0063160317
 40
0.0126709803
 40
0.0191029757
 40
0.0256486833
 40
0.0323427436
 40
0.0392172655
 40
0.0536154772
 40
0.0690526586
 40
0.0856860581
 40
0.1036344402
 40
0.1229845836
 40
0.1437975252
 40
0.1661136309
 40
0.1899565788
 40
0.215336668
 40
0.2422532113
 40
0.2706962166
 40
0.3006479298
 40
0.3320839776
 40
0.3649740847
 40
0.3992827974
 40
0.4349701487
 40
0.4719920266
 40
0.5103004985
 40
0.5498442818
 40
0.5905689983
 40
0.6324173162
 40
0.6753293134
 40
0.7192426811
 40
0.7640927959
 40
0.8098131949
 40
0.9035868196
 40
1.0
 40
1.0
 40
1.0
 40
1.0
 10
12.5417507117
 20
9.9691611372
 30
0.0
 10
12.5426220016
 20
9.9691007091
 30
0.0
 10
12.5443658331
 20
9.9689081687
 30
0.0
 10
12.5469620299
 20
9.9684062664
 30
0.0
 10
12.5495408763
 20
9.9676913674
 30
0.0
 10
12.5521008717
 20
9.9667640045
 30
0.0
 10
12.5546409584
 20
9.9656246969
 30
0.0
 10
12.558051778
 20
9.9637963015
 30
0.0
 10
12.5622723448
 20
9.9609492705
 30
0.0
 10
12.5671541281
 20
9.9567526267
 30
0.0
 10
12.5719271403
 20
9.9517328397
 30
0.0
 10
12.5765858554
 20
9.9458992127
 30
0.0
 10
12.5811252622
 20
9.939260894
 30
0.0
 10
12.5855393715
 20
9.9318280968
 30
0.0
 10
12.5898219162
 20
9.9236122357
 30
0.0
 10
12.5939664576
 20
9.9146261267
 30
0.0
 10
12.5979664982
 20
9.9048839431
 30
0.0
 10
12.6018155934
 20
9.8944012193
 30
0.0
 10
12.6055074956
 20
9.8831948388
 30
0.0
 10
12.6090361404
 20
9.8712829593
 30
0.0
 10
12.6123956717
 20
9.8586849611
 30
0.0
 10
12.6155805212
 20
9.8454214246
 30
0.0
 10
12.6185854084
 20
9.831514076
 30
0.0
 10
12.6214053183
 20
9.8169857269
 30
0.0
 10
12.6240355445
 20
9.8018602436
 30
0.0
 10
12.6264717239
 20
9.7861625075
 30
0.0
 10
12.6287097928
 20
9.7699183537
 30
0.0
 10
12.6307460042
 20
9.7531545303
 30
0.0
 10
12.6325769809
 20
9.7358986603
 30
0.0
 10
12.6341996766
 20
9.7181791841
 30
0.0
 10
12.6356113621
 20
9.7000253219
 30
0.0
 10
12.6368097226
 20
9.6814669729
 30
0.0
 10
12.6381314382
 20
9.6560095212
 30
0.0
 10
12.6392246903
 20
9.6234033274
 30
0.0
 10
12.6395071441
 20
9.5971032989
 30
0.0
 10
12.6395071441
 20
9.5837712547
 30
0.0
  0
SPLINE
  5
3B9
100
AcDbEntity
  8
0
100
AcDbSpline
 62
7
  6
CONTINUOUS
 70
0
 71
3
 72
39
 73
35
 74
0
 42
0.0000001
 43
0.0000001
 44
0.0000000001
 40
0.0
 40
0.0
 40
0.0
 40
0.0
 40
0.0300134533
 40
0.0601237001
 40
0.0903427092
 40
0.1206805318
 40
0.1511451484
 40
0.1817423563
 40
0.2124756989
 40
0.2433464359
 40
0.2743535525
 40
0.3054938064
 40
0.3367618081
 40
0.3681501338
 40
0.3996494653
 40
0.4312487554
 40
0.4629354157
 40
0.4946955213
 40
0.5265140329
 40
0.5583750297
 40
0.5902619525
 40
0.6221578539
 40
0.6540456522
 40
0.6859083868
 40
0.7177294729
 40
0.7494929507
 40
0.7811837305
 40
0.8127878223
 40
0.8442925732
 40
0.8756868215
 40
0.9069612483
 40
0.93810808
 40
0.969122378
 40
1.0
 40
1.0
 40
1.0
 40
1.0
 10
11.1249533065
 20
7.6169788444
 30
0.0
 10
11.1205198686
 20
7.6149305671
 30
0.0
 10
11.1114959721
 20
7.6111286898
 30
0.0
 10
11.0975841595
 20
7.6063460293
 30
0.0
 10
11.0833313159
 20
7.6024935458
 30
0.0
 10
11.0687973357
 20
7.5995874779
 30
0.0
 10
11.0540422262
 20
7.5976396572
 30
0.0
 10
11.0391271661
 20
7.5966580688
 30
0.0
 10
11.0241138998
 20
7.5966466605
 30
0.0
 10
11.0090645768
 20
7.5976053727
 30
0.0
 10
10.9940414699
 20
7.599530131
 30
0.0
 10
10.9791067265
 20
7.6024128721
 30
0.0
 10
10.9643221115
 20
7.606241578
 30
0.0
 10
10.9497487557
 20
7.6110003289
 30
0.0
 10
10.935446905
 20
7.6166693703
 30
0.0
 10
10.9214756747
 20
7.623225196
 30
0.0
 10
10.9078928073
 20
7.6306406454
 30
0.0
 10
10.8947544366
 20
7.6388850163
 30
0.0
 10
10.8821148582
 20
7.6479241915
 30
0.0
 10
10.8700263071
 20
7.657720779
 30
0.0
 10
10.8585387437
 20
7.6682342657
 30
0.0
 10
10.8476996495
 20
7.6794211845
 30
0.0
 10
10.8375538303
 20
7.69123529
 30
0.0
 10
10.8281432334
 20
7.7036277507
 30
0.0
 10
10.8195067763
 20
7.7165473493
 30
0.0
 10
10.8116801858
 20
7.7299406924
 30
0.0
 10
10.8046958533
 20
7.743752429
 30
0.0
 10
10.7985826954
 20
7.757925479
 30
0.0
 10
10.7933660517
 20
7.7724012582
 30
0.0
 10
10.7890675366
 20
7.7871199526
 30
0.0
 10
10.7857050464
 20
7.8020206322
 30
0.0
 10
10.7832924939
 20
7.8170419582
 30
0.0
 10
10.7818400582
 20
7.8321209159
 30
0.0
 10
10.7815151327
 20
7.8421947672
 30
0.0
 10
10.7815151327
 20
7.8472191123
 30
0.0
  0
SPLINE
  5
3BA
100
AcDbEntity
  8
0
100
AcDbSpline
 62
7
  6
CONTINUOUS
 70
0
 71
3
 72
39
 73
35
 74
0
 42
0.0000001
 43
0.0000001
 44
0.0000000001
 40
0.0
 40
0.0
 40
0.0
 40
0.0
 40
0.0299424706
 40
0.059909318
 40
0.0899243245
 40
0.120010104
 40
0.1501875638
 40
0.1804754172
 40
0.2108897627
 40
0.2414437402
 40
0.2721472662
 40
0.3030068506
 40
0.3340255036
 40
0.3652027233
 40
0.3965345594
 40
0.4280137458
 40
0.459629903
 40
0.4913697971
 40
0.523217645
 40
0.5551554619
 40
0.5871634456
 40
0.6192203877
 40
0.6513041028
 40
0.6833918731
 40
0.7154609003
 40
0.7474887587
 40
0.7794538419
 40
0.8113358007
 40
0.8431159608
 40
0.874777714
 40
0.9063068772
 40
0.9376920832
 40
0.968924649
 40
1.0
 40
1.0
 40
1.0
 40
1.0
 10
11.1900555349
 20
7.3157973328
 30
0.0
 10
11.1818934176
 20
7.3079133433
 30
0.0
 10
11.1649273553
 20
7.2927816605
 30
0.0
 10
11.1377451029
 20
7.2721674131
 30
0.0
 10
11.1089686214
 20
7.2537396118
 30
0.0
 10
11.0787586981
 20
7.2376016314
 30
0.0
 10
11.047281407
 20
7.2238416741
 30
0.0
 10
11.0147104826
 20
7.2125353534
 30
0.0
 10
10.9812254139
 20
7.2037445137
 30
0.0
 10
10.9470106744
 20
7.1975171563
 30
0.0
 10
10.9122546392
 20
7.1938871457
 30
0.0
 10
10.8771485701
 20
7.1928739681
 30
0.0
 10
10.8418855404
 20
7.1944827255
 30
0.0
 10
10.8066593857
 20
7.198704144
 30
0.0
 10
10.7716636584
 20
7.2055146478
 30
0.0
 10
10.7370905591
 20
7.2148764101
 30
0.0
 10
10.7031299011
 20
7.226737656
 30
0.0
 10
10.6699680915
 20
7.2410329627
 30
0.0
 10
10.6377871326
 20
7.2576836229
 30
0.0
 10
10.6067635937
 20
7.2765979955
 30
0.0
 10
10.5770676855
 20
7.297672086
 30
0.0
 10
10.5488623471
 20
7.3207901175
 30
0.0
 10
10.5223023715
 20
7.3458251587
 30
0.0
 10
10.4975335015
 20
7.3726397475
 30
0.0
 10
10.4746916899
 20
7.4010867053
 30
0.0
 10
10.4539023697
 20
7.4310099356
 30
0.0
 10
10.4352797784
 20
7.4622452645
 30
0.0
 10
10.4189262547
 20
7.4946212902
 30
0.0
 10
10.40493175
 20
7.5279603412
 30
0.0
 10
10.3933733473
 20
7.5620795138
 30
0.0
 10
10.3843148124
 20
7.5967913724
 30
0.0
 10
10.3778062605
 20
7.631905949
 30
0.0
 10
10.3738836604
 20
7.6672279351
 30
0.0
 10
10.3730050931
 20
7.6908513213
 30
0.0
 10
10.3730050931
 20
7.7026286913
 30
0.0
  0
SPLINE
  5
3BB
100
AcDbEntity
  8
0
100
AcDbSpline
 62
7
  6
CONTINUOUS
 70
0
 71
3
 72
47
 73
43
 74
0
 42
0.0000001
 43
0.0000001
 44
0.0000000001
 40
0.0
 40
0.0
 40
0.0
 40
0.0
 40
0.0150702784
 40
0.0301671002
 40
0.0452932249
 40
0.0604512066
 40
0.0908651099
 40
0.1214313102
 40
0.136778559
 40
0.1521678385
 40
0.167599899
 40
0.1830752085
 40
0.2141497193
 40
0.2453958142
 40
0.2768071413
 40
0.3083731733
 40
0.3400795338
 40
0.3719084023
 40
0.4038389856
 40
0.435848047
 40
0.4679104825
 40
0.4999999243
 40
0.5320893672
 40
0.564151806
 40
0.5961608729
 40
0.6280914627
 40
0.6599203395
 40
0.6916267107
 40
0.7231927548
 40
0.7546040937
 40
0.7858502008
 40
0.8169247258
 40
0.8324000404
 40
0.8478321094
 40
0.8632213944
 40
0.8785686494
 40
0.9091348613
 40
0.9395487762
 40
0.9547067617
 40
0.9698328927
 40
0.9849297181
 40
1.0
 40
1.0
 40
1.0
 40
1.0
 10
10.1107468661
 20
8.5999931001
 30
0.0
 10
10.1069613402
 20
8.5980633774
 30
0.0
 10
10.0992998234
 20
8.5943624428
 30
0.0
 10
10.0875709701
 20
8.5893022254
 30
0.0
 10
10.0756140895
 20
8.5847362576
 30
0.0
 10
10.0593783442
 20
8.5793122005
 30
0.0
 10
10.0386019696
 20
8.5738052812
 30
0.0
 10
10.0173864681
 20
8.5700430426
 30
0.0
 10
10.0002097515
 20
8.5680835371
 30
0.0
 10
9.9872231146
 20
8.567140651
 30
0.0
 10
9.9741727342
 20
8.5667283243
 30
0.0
 10
9.9566939444
 20
8.5668869517
 30
0.0
 10
9.9347873181
 20
8.568418652
 30
0.0
 10
9.908629036
 20
8.5723664541
 30
0.0
 10
9.882729068
 20
8.5784003708
 30
0.0
 10
9.8572573293
 20
8.5864806921
 30
0.0
 10
9.832379413
 20
8.5965544233
 30
0.0
 10
9.8082574089
 20
8.6085556821
 30
0.0
 10
9.7850483398
 20
8.6224060631
 30
0.0
 10
9.7629032818
 20
8.6380151586
 30
0.0
 10
9.741966389
 20
8.6552811933
 30
0.0
 10
9.7223739858
 20
8.6740916752
 30
0.0
 10
9.7042536554
 20
8.6943240783
 30
0.0
 10
9.6877234067
 20
8.7158466348
 30
0.0
 10
9.6728909609
 20
8.7385192232
 30
0.0
 10
9.6598530615
 20
8.7621942619
 30
0.0
 10
9.6486948082
 20
8.7867176188
 30
0.0
 10
9.6394890882
 20
8.8119296386
 30
0.0
 10
9.6322961541
 20
8.8376660584
 30
0.0
 10
9.6271632555
 20
8.8637595526
 30
0.0
 10
9.6241241813
 20
8.8900389245
 30
0.0
 10
9.6233523938
 20
8.9119854766
 30
0.0
 10
9.623799494
 20
8.9294592746
 30
0.0
 10
9.6246637033
 20
8.9424875412
 30
0.0
 10
9.6260560253
 20
8.955433713
 30
0.0
 10
9.6286094587
 20
8.9725322349
 30
0.0
 10
9.6331045523
 20
8.9936046444
 30
0.0
 10
9.63932799
 20
9.0141777591
 30
0.0
 10
9.6453113496
 20
9.0302158208
 30
0.0
 10
9.6502888174
 20
9.0420073424
 30
0.0
 10
9.6557524241
 20
9.0535538089
 30
0.0
 10
9.6597165505
 20
9.0610825201
 30
0.0
 10
9.6617762884
 20
9.064798906
 30
0.0
  0
SPLINE
  5
3BC
100
AcDbEntity
  8
0
100
AcDbSpline
 62
7
  6
CONTINUOUS
 70
0
 71
3
 72
39
 73
35
 74
0
 42
0.0000001
 43
0.0000001
 44
0.0000000001
 40
0.0
 40
0.0
 40
0.0
 40
0.0
 40
0.029942471
 40
0.0599093185
 40
0.089924325
 40
0.1200101043
 40
0.1501875632
 40
0.1804754155
 40
0.2108897611
 40
0.2414437393
 40
0.2721472649
 40
0.3030068482
 40
0.3340255005
 40
0.3652027199
 40
0.3965345553
 40
0.4280137416
 40
0.4596298994
 40
0.4913697937
 40
0.523217641
 40
0.5551554573
 40
0.5871634413
 40
0.619220384
 40
0.6513040994
 40
0.6833918697
 40
0.715460897
 40
0.7474887556
 40
0.7794538398
 40
0.8113357995
 40
0.8431159588
 40
0.874777715
 40
0.9063068673
 40
0.9376920959
 40
0.968924654
 40
1.0
 40
1.0
 40
1.0
 40
1.0
 10
10.9300249891
 20
8.6459256142
 30
0.0
 10
10.9244508604
 20
8.6405414239
 30
0.0
 10
10.9128642871
 20
8.6302075811
 30
0.0
 10
10.8943008
 20
8.6161295479
 30
0.0
 10
10.8746485659
 20
8.6035447044
 30
0.0
 10
10.8540173956
 20
8.5925236433
 30
0.0
 10
10.8325207157
 20
8.5831265762
 30
0.0
 10
10.810277162
 20
8.5754051617
 30
0.0
 10
10.7874093067
 20
8.569401656
 30
0.0
 10
10.7640431373
 20
8.5651488362
 30
0.0
 10
10.7403073058
 20
8.5626697942
 30
0.0
 10
10.716332426
 20
8.5619778541
 30
0.0
 10
10.6922503527
 20
8.5630765106
 30
0.0
 10
10.6681934626
 20
8.5659594272
 30
0.0
 10
10.644293934
 20
8.5706104849
 30
0.0
 10
10.6206830307
 20
8.5770038782
 30
0.0
 10
10.5974903837
 20
8.5851042485
 30
0.0
 10
10.5748432938
 20
8.5948669061
 30
0.0
 10
10.5528660428
 20
8.606238076
 30
0.0
 10
10.5316792227
 20
8.6191551953
 30
0.0
 10
10.5113990826
 20
8.6335472548
 30
0.0
 10
10.4921369024
 20
8.6493351886
 30
0.0
 10
10.4739983759
 20
8.6664322893
 30
0.0
 10
10.4570830434
 20
8.6847446916
 30
0.0
 10
10.4414837558
 20
8.7041718869
 30
0.0
 10
10.4272861703
 20
8.7246072682
 30
0.0
 10
10.4145682841
 20
8.7459387065
 30
0.0
 10
10.4034000133
 20
8.7680491634
 30
0.0
 10
10.3938427974
 20
8.7908173047
 30
0.0
 10
10.3859492705
 20
8.8141182104
 30
0.0
 10
10.379762938
 20
8.8378238737
 30
0.0
 10
10.3753180685
 20
8.861804565
 30
0.0
 10
10.3726392135
 20
8.8859269032
 30
0.0
 10
10.3720392197
 20
8.9020599472
 30
0.0
 10
10.3720392197
 20
8.9101030293
 30
0.0
  0
SPLINE
  5
3BD
100
AcDbEntity
  8
0
100
AcDbSpline
 62
7
  6
CONTINUOUS
 70
0
 71
3
 72
42
 73
38
 74
0
 42
0.0000001
 43
0.0000001
 44
0.0000000001
 40
0.0
 40
0.0
 40
0.0
 40
0.0
 40
0.0299864921
 40
0.0450152435
 40
0.0600685138
 40
0.0902505673
 40
0.1205485945
 40
0.1357462743
 40
0.1509762803
 40
0.1815321516
 40
0.2122252962
 40
0.2430580988
 40
0.2740305352
 40
0.3051402045
 40
0.3363824012
 40
0.3677502226
 40
0.3992347081
 40
0.4308250077
 40
0.4625085754
 40
0.4942713838
 40
0.5260981569
 40
0.5579726173
 40
0.5898777448
 40
0.6217960433
 40
0.6537098128
 40
0.6856014231
 40
0.7174535878
 40
0.7492496336
 40
0.7809737634
 40
0.8126113098
 40
0.8441489735
 40
0.8755750544
 40
0.9068796326
 40
0.938054818
 40
0.9535937632
 40
0.9690987753
 40
1.0
 40
1.0
 40
1.0
 40
1.0
 10
10.0209830648
 20
7.2182217046
 30
0.0
 10
10.0148449567
 20
7.2150907549
 30
0.0
 10
10.005462876
 20
7.2107091101
 30
0.0
 10
9.9926693743
 20
7.2055224275
 30
0.0
 10
9.9796622842
 20
7.2007632151
 30
0.0
 10
9.9630634543
 20
7.1956418024
 30
0.0
 10
9.9461224292
 20
7.1916544703
 30
0.0
 10
9.9323929898
 20
7.1891483051
 30
0.0
 10
9.918528456
 20
7.1870965221
 30
0.0
 10
9.9010224124
 20
7.185399543
 30
0.0
 10
9.8798578181
 20
7.1847593878
 30
0.0
 10
9.8586010004
 20
7.1855153575
 30
0.0
 10
9.8373436936
 20
7.187664157
 30
0.0
 10
9.8161768474
 20
7.1911963916
 30
0.0
 10
9.7951912015
 20
7.1960967866
 30
0.0
 10
9.774476642
 20
7.2023442093
 30
0.0
 10
9.7541218898
 20
7.2099117758
 30
0.0
 10
9.7342141066
 20
7.2187669641
 30
0.0
 10
9.7148385302
 20
7.2288717559
 30
0.0
 10
9.6960781128
 20
7.2401827994
 30
0.0
 10
9.6780131692
 20
7.2526515948
 30
0.0
 10
9.660721037
 20
7.2662247015
 30
0.0
 10
9.6442757479
 20
7.2808439657
 30
0.0
 10
9.6287477144
 20
7.2964467677
 30
0.0
 10
9.6142034298
 20
7.3129662884
 30
0.0
 10
9.6007051869
 20
7.3303317932
 30
0.0
 10
9.5883108123
 20
7.3484689321
 30
0.0
 10
9.5770734207
 20
7.3673000563
 30
0.0
 10
9.567041189
 20
7.3867445435
 30
0.0
 10
9.5582571499
 20
7.4067191564
 30
0.0
 10
9.5507590112
 20
7.4271383326
 30
0.0
 10
9.5445789786
 20
7.4479147803
 30
0.0
 10
9.5397436871
 20
7.4689589838
 30
0.0
 10
9.5368489277
 20
7.4866649296
 30
0.0
 10
9.5352258131
 20
7.5008719341
 30
0.0
 10
9.5340675154
 20
7.5150606986
 30
0.0
 10
9.5337172456
 20
7.5257284611
 30
0.0
 10
9.5337172456
 20
7.5328291715
 30
0.0
  0
SPLINE
  5
3BE
100
AcDbEntity
  8
0
100
AcDbSpline
 62
7
  6
CONTINUOUS
 70
0
 71
3
 72
51
 73
47
 74
0
 42
0.0000001
 43
0.0000001
 44
0.0000000001
 40
0.0
 40
0.0
 40
0.0
 40
0.0
 40
0.0417745182
 40
0.0840381526
 40
0.1266602401
 40
0.1695088421
 40
0.2124510407
 40
0.2553535857
 40
0.2980833694
 40
0.3405079697
 40
0.3824961696
 40
0.4239184888
 40
0.4646477158
 40
0.5045594497
 40
0.543532651
 40
0.5814502093
 40
0.6181995334
 40
0.6536731755
 40
0.6877695033
 40
0.7203934427
 40
0.7514573218
 40
0.7663795148
 40
0.7808827261
 40
0.7949585461
 40
0.8085992857
 40
0.8217979826
 40
0.8345485116
 40
0.8468456263
 40
0.8586850779
 40
0.8700637036
 40
0.8809795661
 40
0.8914321058
 40
0.9014223196
 40
0.9109530019
 40
0.9200289921
 40
0.9286575381
 40
0.9368486523
 40
0.9446156358
 40
0.9519755804
 40
0.9589500677
 40
0.9655657995
 40
0.9778459317
 40
0.9836071722
 40
0.9891799125
 40
0.9946230091
 40
1.0
 40
1.0
 40
1.0
 40
1.0
 10
12.6395071441
 20
9.5837712547
 30
0.0
 10
12.6395071441
 20
9.5741541538
 30
0.0
 10
12.639357105
 20
9.5548070481
 30
0.0
 10
12.6386938207
 20
9.5256545536
 30
0.0
 10
12.6375929208
 20
9.4962678125
 30
0.0
 10
12.6360580288
 20
9.4667441496
 30
0.0
 10
12.6340942066
 20
9.4371812062
 30
0.0
 10
12.6317079509
 20
9.4076768005
 30
0.0
 10
12.6289071642
 20
9.3783285409
 30
0.0
 10
12.6257011319
 20
9.3492335201
 30
0.0
 10
12.6221004908
 20
9.3204879864
 30
0.0
 10
12.6181171945
 20
9.2921870236
 30
0.0
 10
12.6137644744
 20
9.2644242333
 30
0.0
 10
12.609056797
 20
9.2372914221
 30
0.0
 10
12.6040098166
 20
9.210878292
 30
0.0
 10
12.5986403248
 20
9.18527214
 30
0.0
 10
12.5929661966
 20
9.1605575546
 30
0.0
 10
12.5870063294
 20
9.1368161488
 30
0.0
 10
12.5807805899
 20
9.1141261937
 30
0.0
 10
12.574309714
 20
9.0925626279
 30
0.0
 10
12.5686580029
 20
9.0753679361
 30
0.0
 10
12.5640200938
 20
9.0622369688
 30
0.0
 10
12.5605405073
 20
9.0528458301
 30
0.0
 10
12.5570160251
 20
9.0437872721
 30
0.0
 10
12.5534495506
 20
9.0350687521
 30
0.0
 10
12.5498440343
 20
9.026697455
 30
0.0
 10
12.5462024659
 20
9.0186802669
 30
0.0
 10
12.5425278496
 20
9.0110237771
 30
0.0
 10
12.5388232208
 20
9.0037342667
 30
0.0
 10
12.5350916283
 20
8.9968177041
 30
0.0
 10
12.5313361322
 20
8.9902797403
 30
0.0
 10
12.527559805
 20
8.9841256979
 30
0.0
 10
12.5237657049
 20
8.9783605759
 30
0.0
 10
12.5199568962
 20
8.97298903
 30
0.0
 10
12.5161363971
 20
8.9680153956
 30
0.0
 10
12.5123072107
 20
8.9634436512
 30
0.0
 10
12.5084722772
 20
8.9592774896
 30
0.0
 10
12.5046344055
 20
8.9555202082
 30
0.0
 10
12.5007966216
 20
8.9521750431
 30
0.0
 10
12.4969606811
 20
8.9492443283
 30
0.0
 10
12.4919788401
 20
8.9459754492
 30
0.0
 10
12.4868711354
 20
8.9434190207
 30
0.0
 10
12.4816975597
 20
8.9417233475
 30
0.0
 10
12.4779149445
 20
8.9409055927
 30
0.0
 10
12.4741535458
 20
8.9405173666
 30
0.0
 10
12.4716562563
 20
8.9405459238
 30
0.0
 10
12.4704213613
 20
8.9406315697
 30
0.0
  0
SPLINE
  5
3BF
100
AcDbEntity
  8
0
100
AcDbSpline
 62
7
  6
CONTINUOUS
 70
0
 71
3
 72
46
 73
42
 74
0
 42
0.0000001
 43
0.0000001
 44
0.0000000001
 40
0.0
 40
0.0
 40
0.0
 40
0.0
 40
0.0149720525
 40
0.0299471649
 40
0.0449283772
 40
0.0599186917
 40
0.0749210573
 40
0.0899383484
 40
0.1049733476
 40
0.1200287333
 40
0.1351070597
 40
0.1502107421
 40
0.1653420474
 40
0.1805030776
 40
0.1956957572
 40
0.2109218287
 40
0.2414745667
 40
0.2721768461
 40
0.3030351766
 40
0.3340525707
 40
0.3652285255
 40
0.3965590884
 40
0.4280369959
 40
0.4596518697
 40
0.4913904744
 40
0.523237028
 40
0.5551735471
 40
0.5871802301
 40
0.6192358692
 40
0.6513182802
 40
0.6834047461
 40
0.7154724694
 40
0.7474990252
 40
0.7794628091
 40
0.811343472
 40
0.843122339
 40
0.8747828041
 40
0.9063106918
 40
0.9376946023
 40
0.9689259241
 40
1.0
 40
1.0
 40
1.0
 40
1.0
 10
10.0806765358
 20
6.9048576191
 30
0.0
 10
10.0757821167
 20
6.9001299851
 30
0.0
 10
10.0658031452
 20
6.8908673248
 30
0.0
 10
10.0502927835
 20
6.8775775934
 30
0.0
 10
10.0342601358
 20
6.8649089311
 30
0.0
 10
10.0177276286
 20
6.8528789987
 30
0.0
 10
10.0007179306
 20
6.841504266
 30
0.0
 10
9.9832544358
 20
6.830800464
 30
0.0
 10
9.9653612155
 20
6.8207822447
 30
0.0
 10
9.9470628924
 20
6.8114633895
 30
0.0
 10
9.9283846177
 20
6.8028567738
 30
0.0
 10
9.9093521389
 20
6.7949741582
 30
0.0
 10
9.8899916113
 20
6.7878263831
 30
0.0
 10
9.8703297593
 20
6.7814233435
 30
0.0
 10
9.850393279
 20
6.7757737076
 30
0.0
 10
9.8234548351
 20
6.769249045
 30
0.0
 10
9.7892195025
 20
6.7630177257
 30
0.0
 10
9.7475415209
 20
6.7586649642
 30
0.0
 10
9.70544253
 20
6.7574498994
 30
0.0
 10
9.6631556538
 20
6.7593791709
 30
0.0
 10
9.6209129137
 20
6.7644414945
 30
0.0
 10
9.578946515
 20
6.7726085515
 30
0.0
 10
9.5374869249
 20
6.7838350707
 30
0.0
 10
9.4967617798
 20
6.7980589632
 30
0.0
 10
9.4569945957
 20
6.8152017216
 30
0.0
 10
9.4184036291
 20
6.8351689754
 30
0.0
 10
9.3812006361
 20
6.8578508584
 30
0.0
 10
9.3455897116
 20
6.883122631
 30
0.0
 10
9.3117662717
 20
6.9108454854
 30
0.0
 10
9.2799159247
 20
6.9408671828
 30
0.0
 10
9.2502134247
 20
6.9730228669
 30
0.0
 10
9.2228218436
 20
7.0071360816
 30
0.0
 10
9.1978916161
 20
7.0430196426
 30
0.0
 10
9.1755596449
 20
7.0804766162
 30
0.0
 10
9.1559487066
 20
7.1193015005
 30
0.0
 10
9.1391667243
 20
7.1592812539
 30
0.0
 10
9.1253060594
 20
7.2001965085
 30
0.0
 10
9.1144431657
 20
7.2418224859
 30
0.0
 10
9.1066382023
 20
7.283931417
 30
0.0
 10
9.1019342941
 20
7.3262890629
 30
0.0
 10
9.100880722
 20
7.354617913
 30
0.0
 10
9.100880722
 20
7.36874117
 30
0.0
  0
SPLINE
  5
3C0
100
AcDbEntity
  8
0
100
AcDbSpline
 62
4
  6
CONTINUOUS
 70
0
 71
3
 72
281
 73
277
 74
0
 42
0.0000001
 43
0.0000001
 44
0.0000000001
 40
0.0
 40
0.0
 40
0.0
 40
0.0
 40
0.015625
 40
0.0234375
 40
0.03125
 40
0.0390625
 40
0.046875
 40
0.05078125
 40
0.0546875
 40
0.056640625
 40
0.05859375
 40
0.060546875
 40
0.0615234375
 40
0.0620117188
 40
0.0625
 40
0.0629882812
 40
0.0634765625
 40
0.064453125
 40
0.06640625
 40
0.068359375
 40
0.0703125
 40
0.07421875
 40
0.078125
 40
0.0859375
 40
0.09375
 40
0.1015625
 40
0.109375
 40
0.11328125
 40
0.1171875
 40
0.119140625
 40
0.12109375
 40
0.123046875
 40
0.1240234375
 40
0.1245117188
 40
0.125
 40
0.1254882812
 40
0.1259765625
 40
0.126953125
 40
0.12890625
 40
0.130859375
 40
0.1328125
 40
0.13671875
 40
0.140625
 40
0.1484375
 40
0.15625
 40
0.1640625
 40
0.171875
 40
0.17578125
 40
0.1796875
 40
0.181640625
 40
0.18359375
 40
0.185546875
 40
0.1865234375
 40
0.1870117188
 40
0.1875
 40
0.1879882812
 40
0.1884765625
 40
0.189453125
 40
0.19140625
 40
0.193359375
 40
0.1953125
 40
0.19921875
 40
0.203125
 40
0.2109375
 40
0.21875
 40
0.2265625
 40
0.234375
 40
0.23828125
 40
0.2421875
 40
0.24609375
 40
0.248046875
 40
0.2490234375
 40
0.25
 40
0.2509765625
 40
0.251953125
 40
0.25390625
 40
0.2578125
 40
0.26171875
 40
0.265625
 40
0.2734375
 40
0.28125
 40
0.2890625
 40
0.296875
 40
0.30078125
 40
0.3046875
 40
0.30859375
 40
0.310546875
 40
0.3115234375
 40
0.3125
 40
0.3134765625
 40
0.314453125
 40
0.31640625
 40
0.3203125
 40
0.32421875
 40
0.328125
 40
0.3359375
 40
0.34375
 40
0.3515625
 40
0.359375
 40
0.3671875
 40
0.37109375
 40
0.373046875
 40
0.375
 40
0.376953125
 40
0.37890625
 40
0.3828125
 40
0.390625
 40
0.3984375
 40
0.40625
 40
0.4140625
 40
0.421875
 40
0.4296875
 40
0.43359375
 40
0.435546875
 40
0.4375
 40
0.439453125
 40
0.44140625
 40
0.4453125
 40
0.453125
 40
0.4609375
 40
0.46875
 40
0.4765625
 40
0.484375
 40
0.48828125
 40
0.4921875
 40
0.49609375
 40
0.498046875
 40
0.4990234375
 40
0.5
 40
0.5009765625
 40
0.501953125
 40
0.50390625
 40
0.5078125
 40
0.51171875
 40
0.515625
 40
0.5234375
 40
0.53125
 40
0.5390625
 40
0.546875
 40
0.55078125
 40
0.5546875
 40
0.55859375
 40
0.560546875
 40
0.5615234375
 40
0.5625
 40
0.5634765625
 40
0.564453125
 40
0.56640625
 40
0.5703125
 40
0.57421875
 40
0.578125
 40
0.5859375
 40
0.59375
 40
0.6015625
 40
0.609375
 40
0.61328125
 40
0.6171875
 40
0.619140625
 40
0.62109375
 40
0.623046875
 40
0.6240234375
 40
0.6245117188
 40
0.625
 40
0.6254882812
 40
0.6259765625
 40
0.626953125
 40
0.62890625
 40
0.630859375
 40
0.6328125
 40
0.63671875
 40
0.640625
 40
0.6484375
 40
0.65625
 40
0.6640625
 40
0.671875
 40
0.67578125
 40
0.6796875
 40
0.681640625
 40
0.68359375
 40
0.685546875
 40
0.6865234375
 40
0.6870117188
 40
0.6875
 40
0.6879882812
 40
0.6884765625
 40
0.689453125
 40
0.69140625
 40
0.693359375
 40
0.6953125
 40
0.69921875
 40
0.703125
 40
0.7109375
 40
0.71875
 40
0.7265625
 40
0.734375
 40
0.73828125
 40
0.7421875
 40
0.744140625
 40
0.74609375
 40
0.748046875
 40
0.7490234375
 40
0.7495117188
 40
0.75
 40
0.7504882812
 40
0.7509765625
 40
0.751953125
 40
0.75390625
 40
0.755859375
 40
0.7578125
 40
0.76171875
 40
0.765625
 40
0.7734375
 40
0.78125
 40
0.7890625
 40
0.796875
 40
0.80078125
 40
0.8046875
 40
0.806640625
 40
0.80859375
 40
0.810546875
 40
0.8115234375
 40
0.8120117188
 40
0.8125
 40
0.8129882812
 40
0.8134765625
 40
0.814453125
 40
0.81640625
 40
0.818359375
 40
0.8203125
 40
0.82421875
 40
0.828125
 40
0.8359375
 40
0.84375
 40
0.8515625
 40
0.859375
 40
0.86328125
 40
0.8671875
 40
0.869140625
 40
0.87109375
 40
0.873046875
 40
0.8740234375
 40
0.8745117188
 40
0.875
 40
0.8754882812
 40
0.8759765625
 40
0.876953125
 40
0.87890625
 40
0.880859375
 40
0.8828125
 40
0.88671875
 40
0.890625
 40
0.8984375
 40
0.90625
 40
0.9140625
 40
0.921875
 40
0.92578125
 40
0.9296875
 40
0.931640625
 40
0.93359375
 40
0.935546875
 40
0.9365234375
 40
0.9370117188
 40
0.9375
 40
0.9379882812
 40
0.9384765625
 40
0.939453125
 40
0.94140625
 40
0.943359375
 40
0.9453125
 40
0.94921875
 40
0.953125
 40
0.9609375
 40
0.96875
 40
0.9765625
 40
0.984375
 40
1.0
 40
1.0
 40
1.0
 40
1.0
 10
12.9266666377
 20
9.6049824666
 30
0.0
 10
12.9258271035
 20
9.6038643272
 30
0.0
 10
12.9245678023
 20
9.6021871182
 30
0.0
 10
12.922888734
 20
9.5999508387
 30
0.0
 10
12.9216294326
 20
9.5982736314
 30
0.0
 10
12.9203701318
 20
9.5965964153
 30
0.0
 10
12.9193207129
 20
9.5951987627
 30
0.0
 10
12.9184811812
 20
9.5940805789
 30
0.0
 10
12.917956466
 20
9.5933818546
 30
0.0
 10
12.9175367119
 20
9.5928225533
 30
0.0
 10
12.917221847
 20
9.5924039587
 30
0.0
 10
12.9169596164
 20
9.592052326
 30
0.0
 10
12.9167757473
 20
9.5918116855
 30
0.0
 10
12.9166711597
 20
9.5916655851
 30
0.0
 10
12.9165913655
 20
9.5915802126
 30
0.0
 10
12.9165167449
 20
9.5914023245
 30
0.0
 10
12.9164154462
 20
9.5911974109
 30
0.0
 10
12.9162390142
 20
9.5908237767
 30
0.0
 10
12.915986529
 20
9.5902978742
 30
0.0
 10
12.9156837348
 20
9.5896634266
 30
0.0
 10
12.9152799436
 20
9.5888186716
 30
0.0
 10
12.9147752271
 20
9.5877623255
 30
0.0
 10
12.913967668
 20
9.5860723967
 30
0.0
 10
12.9129582236
 20
9.5839599081
 30
0.0
 10
12.9117468881
 20
9.581424957
 30
0.0
 10
12.9105355541
 20
9.5788899891
 30
0.0
 10
12.909526106
 20
9.5767775424
 30
0.0
 10
12.9087185543
 20
9.5750875298
 30
0.0
 10
12.9082138191
 20
9.5740313967
 30
0.0
 10
12.9078100662
 20
9.5731862046
 30
0.0
 10
12.9075071549
 20
9.5725530926
 30
0.0
 10
12.9072550363
 20
9.5720230111
 30
0.0
 10
12.9070779497
 20
9.5716568372
 30
0.0
 10
12.9069776999
 20
9.5714399704
 30
0.0
 10
12.9068998573
 20
9.5712987986
 30
0.0
 10
12.9068321647
 20
9.5710755257
 30
0.0
 10
12.9067383675
 20
9.5708064663
 30
0.0
 10
12.9065758719
 20
9.5703222695
 30
0.0
 10
12.9063428729
 20
9.5696375355
 30
0.0
 10
12.9060636433
 20
9.5688128688
 30
0.0
 10
12.9056912081
 20
9.5677143562
 30
0.0
 10
12.9052257084
 20
9.5663408583
 30
0.0
 10
12.9044808841
 20
9.5641434614
 30
0.0
 10
12.9035498624
 20
9.5613966462
 30
0.0
 10
12.9024326322
 20
9.5581004994
 30
0.0
 10
12.9013154043
 20
9.5548043374
 30
0.0
 10
12.900384377
 20
9.5520575603
 30
0.0
 10
12.8996395638
 20
9.5498600872
 30
0.0
 10
12.8991740358
 20
9.548486783
 30
0.0
 10
12.8988016587
 20
9.5473878728
 30
0.0
 10
12.8985222519
 20
9.5465644206
 30
0.0
 10
12.8982898073
 20
9.5458758871
 30
0.0
 10
12.8981263221
 20
9.545398473
 30
0.0
 10
12.8980341104
 20
9.5451185458
 30
0.0
 10
12.8979615478
 20
9.5449286553
 30
0.0
 10
12.8979019961
 20
9.5446621047
 30
0.0
 10
12.8978180555
 20
9.5443334438
 30
0.0
 10
12.897673274
 20
9.5437458285
 30
0.0
 10
12.8974653378
 20
9.5429128917
 30
0.0
 10
12.8972162876
 20
9.5419105795
 30
0.0
 10
12.8968840553
 20
9.540575137
 30
0.0
 10
12.8964688216
 20
9.5389055004
 30
0.0
 10
12.8958044158
 20
9.5362342686
 30
0.0
 10
12.8949739206
 20
9.5328951622
 30
0.0
 10
12.8939773161
 20
9.5288882744
 30
0.0
 10
12.8929807337
 20
9.5248813339
 30
0.0
 10
12.8921501831
 20
9.521542359
 30
0.0
 10
12.8914858883
 20
9.5188708643
 30
0.0
 10
12.8909872695
 20
9.5168681024
 30
0.0
 10
12.8905730186
 20
9.5151964015
 30
0.0
 10
12.890280561
 20
9.5140315735
 30
0.0
 10
12.8901173177
 20
9.5133575842
 30
0.0
 10
12.8899839683
 20
9.5128756799
 30
0.0
 10
12.8898923491
 20
9.5123036116
 30
0.0
 10
12.8897556341
 20
9.5115723042
 30
0.0
 10
12.8895231649
 20
9.5102778629
 30
0.0
 10
12.8891875203
 20
9.5084363219
 30
0.0
 10
12.8887862646
 20
9.5062231936
 30
0.0
 10
12.8882507265
 20
9.5032735016
 30
0.0
 10
12.8875814872
 20
9.4995859914
 30
0.0
 10
12.886778316
 20
9.4951611571
 30
0.0
 10
12.8859751879
 20
9.4907362436
 30
0.0
 10
12.8853058407
 20
9.4870489316
 30
0.0
 10
12.8847705184
 20
9.4840988432
 30
0.0
 10
12.8843686047
 20
9.4818869237
 30
0.0
 10
12.8840350183
 20
9.4800416013
 30
0.0
 10
12.883798875
 20
9.4787539104
 30
0.0
 10
12.8836680469
 20
9.4780117871
 30
0.0
 10
12.8835583451
 20
9.4774729418
 30
0.0
 10
12.883492911
 20
9.4768662576
 30
0.0
 10
12.8833902244
 20
9.4760810083
 30
0.0
 10
12.8832177173
 20
9.4746957971
 30
0.0
 10
12.8829675171
 20
9.472722688
 30
0.0
 10
12.8826688874
 20
9.4703524896
 30
0.0
 10
12.8822701498
 20
9.4671930882
 30
0.0
 10
12.8817719361
 20
9.4632435316
 30
0.0
 10
12.8811739264
 20
9.458504232
 30
0.0
 10
12.8805761967
 20
9.453764747
 30
0.0
 10
12.8799775006
 20
9.4490258354
 30
0.0
 10
12.8794815749
 20
9.4450749856
 30
0.0
 10
12.8791285755
 20
9.4423128291
 30
0.0
 10
12.8789359962
 20
9.4407290866
 30
0.0
 10
12.8787658296
 20
9.4395563994
 30
0.0
 10
12.8786940245
 20
9.4383259172
 30
0.0
 10
12.8785639746
 20
9.4367054337
 30
0.0
 10
12.8783523736
 20
9.4338601948
 30
0.0
 10
12.8780417232
 20
9.4298004798
 30
0.0
 10
12.8776725464
 20
9.4249267135
 30
0.0
 10
12.8773023361
 20
9.4200535214
 30
0.0
 10
12.8769326562
 20
9.4151801409
 30
0.0
 10
12.8765618879
 20
9.4103069394
 30
0.0
 10
12.8762561005
 20
9.4062454987
 30
0.0
 10
12.8760358345
 20
9.4034033347
 30
0.0
 10
12.8759196662
 20
9.4017779252
 30
0.0
 10
12.8758052218
 20
9.4005625742
 30
0.0
 10
12.8757952013
 20
9.3993330563
 30
0.0
 10
12.8757454164
 20
9.3976986407
 30
0.0
 10
12.8756752637
 20
9.394836111
 30
0.0
 10
12.8755661712
 20
9.3907479862
 30
0.0
 10
12.8754390666
 20
9.3858417229
 30
0.0
 10
12.8753109353
 20
9.3809355885
 30
0.0
 10
12.8751831047
 20
9.3760294522
 30
0.0
 10
12.8750764323
 20
9.3719409043
 30
0.0
 10
12.8749912966
 20
9.3686703092
 30
0.0
 10
12.8749269263
 20
9.3662166938
 30
0.0
 10
12.8748749284
 20
9.3641741432
 30
0.0
 10
12.8748353044
 20
9.3627401798
 30
0.0
 10
12.8748176982
 20
9.3619272958
 30
0.0
 10
12.874790307
 20
9.3612992556
 30
0.0
 10
12.8748171439
 20
9.3607414622
 30
0.0
 10
12.874834011
 20
9.3599732349
 30
0.0
 10
12.8748723416
 20
9.3586402533
 30
0.0
 10
12.8749224919
 20
9.3567300254
 30
0.0
 10
12.8749846445
 20
9.3544403068
 30
0.0
 10
12.8750668256
 20
9.3513864558
 30
0.0
 10
12.8751697898
 20
9.3475694509
 30
0.0
 10
12.8752932384
 20
9.3429889015
 30
0.0
 10
12.8754167404
 20
9.3384084321
 30
0.0
 10
12.8755195711
 20
9.3345912274
 30
0.0
 10
12.8756020192
 20
9.331537776
 30
0.0
 10
12.8756633572
 20
9.3292468384
 30
0.0
 10
12.875716056
 20
9.3273404239
 30
0.0
 10
12.8757498371
 20
9.3260006349
 30
0.0
 10
12.8757739936
 20
9.3252433149
 30
0.0
 10
12.8757784401
 20
9.3246520176
 30
0.0
 10
12.8758351435
 20
9.3241498127
 30
0.0
 10
12.8758925202
 20
9.3234491298
 30
0.0
 10
12.8760014222
 20
9.3222374137
 30
0.0
 10
12.8761525564
 20
9.3204988209
 30
0.0
 10
12.8763358179
 20
9.3184157498
 30
0.0
 10
12.8765795027
 20
9.3156371897
 30
0.0
 10
12.8768843366
 20
9.3121643783
 30
0.0
 10
12.877250039
 20
9.3079968365
 30
0.0
 10
12.87761577
 20
9.3038293452
 30
0.0
 10
12.8779205325
 20
9.3003564073
 30
0.0
 10
12.8781643602
 20
9.2975781003
 30
0.0
 10
12.8783167149
 20
9.2958415644
 30
0.0
 10
12.8784386844
 20
9.2944525504
 30
0.0
 10
12.8785299269
 20
9.2934102023
 30
0.0
 10
12.8786067087
 20
9.2925434479
 30
0.0
 10
12.8786589913
 20
9.2919330521
 30
0.0
 10
12.878691154
 20
9.2915899813
 30
0.0
 10
12.8787088337
 20
9.2913165455
 30
0.0
 10
12.8787511393
 20
9.2911047773
 30
0.0
 10
12.878798957
 20
9.2908009093
 30
0.0
 10
12.8788866401
 20
9.2902791623
 30
0.0
 10
12.8790098093
 20
9.2895285699
 30
0.0
 10
12.879158508
 20
9.2886301017
 30
0.0
 10
12.8793564601
 20
9.2874313607
 30
0.0
 10
12.8796040073
 20
9.2859332028
 30
0.0
 10
12.880000023
 20
9.2835360001
 30
0.0
 10
12.8804950633
 20
9.2805395487
 30
0.0
 10
12.8810891022
 20
9.2769437829
 30
0.0
 10
12.8816831457
 20
9.27334803
 30
0.0
 10
12.8821781744
 20
9.2703515465
 30
0.0
 10
12.8825742133
 20
9.2679544079
 30
0.0
 10
12.8828217014
 20
9.2664560873
 30
0.0
 10
12.883019775
 20
9.2652576802
 30
0.0
 10
12.8831681024
 20
9.2643581922
 30
0.0
 10
12.8832924332
 20
9.2636107904
 30
0.0
 10
12.8833780427
 20
9.2630833476
 30
0.0
 10
12.8834291828
 20
9.2627886058
 30
0.0
 10
12.8834612832
 20
9.2625488048
 30
0.0
 10
12.8835172921
 20
9.2623806552
 30
0.0
 10
12.883583631
 20
9.2621314629
 30
0.0
 10
12.8837036097
 20
9.2617070211
 30
0.0
 10
12.8838729765
 20
9.2610945877
 30
0.0
 10
12.8840770861
 20
9.2603622734
 30
0.0
 10
12.8843489285
 20
9.2593849442
 30
0.0
 10
12.8846888356
 20
9.2581635944
 30
0.0
 10
12.8852326287
 20
9.2562092604
 30
0.0
 10
12.8859123902
 20
9.2537664032
 30
0.0
 10
12.886728095
 20
9.2508349465
 30
0.0
 10
12.8875438037
 20
9.2479035057
 30
0.0
 10
12.8882235552
 20
9.2454606086
 30
0.0
 10
12.8887673683
 20
9.2435063544
 30
0.0
 10
12.8891072248
 20
9.2422848016
 30
0.0
 10
12.8893791709
 20
9.241307889
 30
0.0
 10
12.8895829639
 20
9.2405743019
 30
0.0
 10
12.8897533212
 20
9.239965851
 30
0.0
 10
12.8898715316
 20
9.2395342997
 30
0.0
 10
12.8899407038
 20
9.2392964985
 30
0.0
 10
12.88998801
 20
9.2390933592
 30
0.0
 10
12.8900527962
 20
9.2389849739
 30
0.0
 10
12.8901330805
 20
9.2388074088
 30
0.0
 10
12.8902764189
 20
9.2385120692
 30
0.0
 10
12.8904797028
 20
9.2380821046
 30
0.0
 10
12.8907242792
 20
9.2375695931
 30
0.0
 10
12.8910501591
 20
9.2368850408
 30
0.0
 10
12.8914575849
 20
9.2360297625
 30
0.0
 10
12.8921094238
 20
9.2346610869
 30
0.0
 10
12.892924237
 20
9.232950322
 30
0.0
 10
12.8939020062
 20
9.2308973676
 30
0.0
 10
12.8948797786
 20
9.2288444316
 30
0.0
 10
12.8956945841
 20
9.2271336207
 30
0.0
 10
12.8963464384
 20
9.2257650371
 30
0.0
 10
12.8967538249
 20
9.224909525
 30
0.0
 10
12.8970797856
 20
9.2242254526
 30
0.0
 10
12.897324115
 20
9.223711475
 30
0.0
 10
12.8975281718
 20
9.2232860975
 30
0.0
 10
12.8976701304
 20
9.222982569
 30
0.0
 10
12.8977526256
 20
9.2228181246
 30
0.0
 10
12.8978106206
 20
9.2226694369
 30
0.0
 10
12.897883433
 20
9.2226176665
 30
0.0
 10
12.8979753478
 20
9.2225148335
 30
0.0
 10
12.8981386067
 20
9.2223506265
 30
0.0
 10
12.8983705747
 20
9.2221078103
 30
0.0
 10
12.8986494752
 20
9.2218199556
 30
0.0
 10
12.8990211544
 20
9.2214349183
 30
0.0
 10
12.8994858177
 20
9.2209540432
 30
0.0
 10
12.9002292431
 20
9.2201844073
 30
0.0
 10
12.9011585372
 20
9.2192224439
 30
0.0
 10
12.9022736846
 20
9.2180680504
 30
0.0
 10
12.9033888343
 20
9.216913676
 30
0.0
 10
12.9043181224
 20
9.2159516649
 30
0.0
 10
12.9050615598
 20
9.2151821244
 30
0.0
 10
12.9055261926
 20
9.214701007
 30
0.0
 10
12.9058979345
 20
9.2143164668
 30
0.0
 10
12.9061766433
 20
9.2140270932
 30
0.0
 10
12.906409211
 20
9.2137890295
 30
0.0
 10
12.9065713995
 20
9.2136163386
 30
0.0
 10
12.9066650292
 20
9.2135270989
 30
0.0
 10
12.9067325737
 20
9.2134335741
 30
0.0
 10
12.9068103542
 20
9.2134417091
 30
0.0
 10
12.9069104911
 20
9.2134170957
 30
0.0
 10
12.9070873942
 20
9.2133905438
 30
0.0
 10
12.9073392431
 20
9.2133439748
 30
0.0
 10
12.9076418341
 20
9.2132917892
 30
0.0
 10
12.9080451588
 20
9.2132209171
 30
0.0
 10
12.9085493591
 20
9.2131327692
 30
0.0
 10
12.9093560548
 20
9.2129914852
 30
0.0
 10
12.9103644329
 20
9.2128149656
 30
0.0
 10
12.9115744829
 20
9.2126031031
 30
0.0
 10
12.9127845345
 20
9.2123912603
 30
0.0
 10
12.9137929084
 20
9.2122146912
 30
0.0
 10
12.9145996126
 20
9.2120735064
 30
0.0
 10
12.9151037911
 20
9.2119851065
 30
0.0
 10
12.9155071607
 20
9.2119147514
 30
0.0
 10
12.9158096144
 20
9.2118609861
 30
0.0
 10
12.9160618928
 20
9.2118193599
 30
0.0
 10
12.9162380293
 20
9.2117839842
 30
0.0
 10
12.9163393944
 20
9.2117735087
 30
0.0
 10
12.9164134023
 20
9.2117382167
 30
0.0
 10
12.916495116
 20
9.2118077968
 30
0.0
 10
12.9166013797
 20
9.2118639896
 30
0.0
 10
12.9167885935
 20
9.2119793707
 30
0.0
 10
12.9170553871
 20
9.2121352903
 30
0.0
 10
12.9173758197
 20
9.2123262078
 30
0.0
 10
12.9178029652
 20
9.2125794323
 30
0.0
 10
12.9183369306
 20
9.2128964191
 30
0.0
 10
12.9191912565
 20
9.213403343
 30
0.0
 10
12.9202591704
 20
9.2140370854
 30
0.0
 10
12.9215406643
 20
9.2147975388
 30
0.0
 10
12.9228221589
 20
9.2155580021
 30
0.0
 10
12.9245308181
 20
9.2165719498
 30
0.0
 10
12.9258123126
 20
9.2173324113
 30
0.0
 10
12.9266666422
 20
9.2178393855
 30
0.0
  0
SPLINE
  5
3C1
100
AcDbEntity
  8
0
100
AcDbSpline
 62
4
  6
CONTINUOUS
 70
0
 71
3
 72
281
 73
277
 74
0
 42
0.0000001
 43
0.0000001
 44
0.0000000001
 40
0.0
 40
0.0
 40
0.0
 40
0.0
 40
0.015625
 40
0.0234375
 40
0.03125
 40
0.0390625
 40
0.046875
 40
0.05078125
 40
0.0546875
 40
0.056640625
 40
0.05859375
 40
0.060546875
 40
0.0615234375
 40
0.0620117188
 40
0.0625
 40
0.0629882812
 40
0.0634765625
 40
0.064453125
 40
0.06640625
 40
0.068359375
 40
0.0703125
 40
0.07421875
 40
0.078125
 40
0.0859375
 40
0.09375
 40
0.1015625
 40
0.109375
 40
0.11328125
 40
0.1171875
 40
0.119140625
 40
0.12109375
 40
0.123046875
 40
0.1240234375
 40
0.1245117188
 40
0.125
 40
0.1254882812
 40
0.1259765625
 40
0.126953125
 40
0.12890625
 40
0.130859375
 40
0.1328125
 40
0.13671875
 40
0.140625
 40
0.1484375
 40
0.15625
 40
0.1640625
 40
0.171875
 40
0.17578125
 40
0.1796875
 40
0.181640625
 40
0.18359375
 40
0.185546875
 40
0.1865234375
 40
0.1870117188
 40
0.1875
 40
0.1879882812
 40
0.1884765625
 40
0.189453125
 40
0.19140625
 40
0.193359375
 40
0.1953125
 40
0.19921875
 40
0.203125
 40
0.2109375
 40
0.21875
 40
0.2265625
 40
0.234375
 40
0.23828125
 40
0.2421875
 40
0.24609375
 40
0.248046875
 40
0.2490234375
 40
0.25
 40
0.2509765625
 40
0.251953125
 40
0.25390625
 40
0.2578125
 40
0.26171875
 40
0.265625
 40
0.2734375
 40
0.28125
 40
0.2890625
 40
0.296875
 40
0.30078125
 40
0.3046875
 40
0.30859375
 40
0.310546875
 40
0.3115234375
 40
0.3125
 40
0.3134765625
 40
0.314453125
 40
0.31640625
 40
0.3203125
 40
0.32421875
 40
0.328125
 40
0.3359375
 40
0.34375
 40
0.3515625
 40
0.359375
 40
0.3671875
 40
0.37109375
 40
0.373046875
 40
0.375
 40
0.376953125
 40
0.37890625
 40
0.3828125
 40
0.390625
 40
0.3984375
 40
0.40625
 40
0.4140625
 40
0.421875
 40
0.4296875
 40
0.43359375
 40
0.435546875
 40
0.4375
 40
0.439453125
 40
0.44140625
 40
0.4453125
 40
0.453125
 40
0.4609375
 40
0.46875
 40
0.4765625
 40
0.484375
 40
0.48828125
 40
0.4921875
 40
0.49609375
 40
0.498046875
 40
0.4990234375
 40
0.5
 40
0.5009765625
 40
0.501953125
 40
0.50390625
 40
0.5078125
 40
0.51171875
 40
0.515625
 40
0.5234375
 40
0.53125
 40
0.5390625
 40
0.546875
 40
0.55078125
 40
0.5546875
 40
0.55859375
 40
0.560546875
 40
0.5615234375
 40
0.5625
 40
0.5634765625
 40
0.564453125
 40
0.56640625
 40
0.5703125
 40
0.57421875
 40
0.578125
 40
0.5859375
 40
0.59375
 40
0.6015625
 40
0.609375
 40
0.61328125
 40
0.6171875
 40
0.619140625
 40
0.62109375
 40
0.623046875
 40
0.6240234375
 40
0.6245117188
 40
0.625
 40
0.6254882812
 40
0.6259765625
 40
0.626953125
 40
0.62890625
 40
0.630859375
 40
0.6328125
 40
0.63671875
 40
0.640625
 40
0.6484375
 40
0.65625
 40
0.6640625
 40
0.671875
 40
0.67578125
 40
0.6796875
 40
0.681640625
 40
0.68359375
 40
0.685546875
 40
0.6865234375
 40
0.6870117188
 40
0.6875
 40
0.6879882812
 40
0.6884765625
 40
0.689453125
 40
0.69140625
 40
0.693359375
 40
0.6953125
 40
0.69921875
 40
0.703125
 40
0.7109375
 40
0.71875
 40
0.7265625
 40
0.734375
 40
0.73828125
 40
0.7421875
 40
0.744140625
 40
0.74609375
 40
0.748046875
 40
0.7490234375
 40
0.7495117188
 40
0.75
 40
0.7504882812
 40
0.7509765625
 40
0.751953125
 40
0.75390625
 40
0.755859375
 40
0.7578125
 40
0.76171875
 40
0.765625
 40
0.7734375
 40
0.78125
 40
0.7890625
 40
0.796875
 40
0.80078125
 40
0.8046875
 40
0.806640625
 40
0.80859375
 40
0.810546875
 40
0.8115234375
 40
0.8120117188
 40
0.8125
 40
0.8129882812
 40
0.8134765625
 40
0.814453125
 40
0.81640625
 40
0.818359375
 40
0.8203125
 40
0.82421875
 40
0.828125
 40
0.8359375
 40
0.84375
 40
0.8515625
 40
0.859375
 40
0.86328125
 40
0.8671875
 40
0.869140625
 40
0.87109375
 40
0.873046875
 40
0.8740234375
 40
0.8745117188
 40
0.875
 40
0.8754882812
 40
0.8759765625
 40
0.876953125
 40
0.87890625
 40
0.880859375
 40
0.8828125
 40
0.88671875
 40
0.890625
 40
0.8984375
 40
0.90625
 40
0.9140625
 40
0.921875
 40
0.92578125
 40
0.9296875
 40
0.931640625
 40
0.93359375
 40
0.935546875
 40
0.9365234375
 40
0.9370117188
 40
0.9375
 40
0.9379882812
 40
0.9384765625
 40
0.939453125
 40
0.94140625
 40
0.943359375
 40
0.9453125
 40
0.94921875
 40
0.953125
 40
0.9609375
 40
0.96875
 40
0.9765625
 40
0.984375
 40
1.0
 40
1.0
 40
1.0
 40
1.0
 10
12.9266666377
 20
9.2178393811
 30
0.0
 10
12.9275061719
 20
9.2189575206
 30
0.0
 10
12.9287654731
 20
9.2206347295
 30
0.0
 10
12.9304445414
 20
9.222871009
 30
0.0
 10
12.9317038428
 20
9.2245482163
 30
0.0
 10
12.9329631436
 20
9.2262254325
 30
0.0
 10
12.9340125625
 20
9.227623085
 30
0.0
 10
12.9348520942
 20
9.2287412688
 30
0.0
 10
12.9353768094
 20
9.2294399931
 30
0.0
 10
12.9357965635
 20
9.2299992944
 30
0.0
 10
12.9361114284
 20
9.2304178891
 30
0.0
 10
12.936373659
 20
9.2307695218
 30
0.0
 10
12.9365575281
 20
9.2310101622
 30
0.0
 10
12.9366621157
 20
9.2311562627
 30
0.0
 10
12.9367419099
 20
9.2312416352
 30
0.0
 10
12.9368165305
 20
9.2314195232
 30
0.0
 10
12.9369178292
 20
9.2316244368
 30
0.0
 10
12.9370942612
 20
9.231998071
 30
0.0
 10
12.9373467464
 20
9.2325239735
 30
0.0
 10
12.9376495406
 20
9.2331584212
 30
0.0
 10
12.9380533318
 20
9.2340031761
 30
0.0
 10
12.9385580483
 20
9.2350595222
 30
0.0
 10
12.9393656074
 20
9.236749451
 30
0.0
 10
12.9403750518
 20
9.2388619396
 30
0.0
 10
12.9415863873
 20
9.2413968907
 30
0.0
 10
12.9427977213
 20
9.2439318586
 30
0.0
 10
12.9438071694
 20
9.2460443053
 30
0.0
 10
12.9446147211
 20
9.2477343179
 30
0.0
 10
12.9451194563
 20
9.248790451
 30
0.0
 10
12.9455232092
 20
9.2496356432
 30
0.0
 10
12.9458261205
 20
9.2502687551
 30
0.0
 10
12.946078239
 20
9.2507988366
 30
0.0
 10
12.9462553257
 20
9.2511650106
 30
0.0
 10
12.9463555755
 20
9.2513818774
 30
0.0
 10
12.9464334181
 20
9.2515230491
 30
0.0
 10
12.9465011107
 20
9.251746322
 30
0.0
 10
12.9465949079
 20
9.2520153814
 30
0.0
 10
12.9467574035
 20
9.2524995783
 30
0.0
 10
12.9469904025
 20
9.2531843123
 30
0.0
 10
12.9472696321
 20
9.2540089789
 30
0.0
 10
12.9476420672
 20
9.2551074915
 30
0.0
 10
12.948107567
 20
9.2564809894
 30
0.0
 10
12.9488523913
 20
9.2586783864
 30
0.0
 10
12.949783413
 20
9.2614252015
 30
0.0
 10
12.9509006432
 20
9.2647213483
 30
0.0
 10
12.9520178711
 20
9.2680175103
 30
0.0
 10
12.9529488984
 20
9.2707642874
 30
0.0
 10
12.9536937116
 20
9.2729617606
 30
0.0
 10
12.9541592396
 20
9.2743350648
 30
0.0
 10
12.9545316167
 20
9.2754339749
 30
0.0
 10
12.9548110235
 20
9.2762574271
 30
0.0
 10
12.9550434681
 20
9.2769459607
 30
0.0
 10
12.9552069533
 20
9.2774233747
 30
0.0
 10
12.955299165
 20
9.2777033019
 30
0.0
 10
12.9553717276
 20
9.2778931924
 30
0.0
 10
12.9554312793
 20
9.278159743
 30
0.0
 10
12.9555152199
 20
9.278488404
 30
0.0
 10
12.9556600014
 20
9.2790760192
 30
0.0
 10
12.9558679376
 20
9.2799089561
 30
0.0
 10
12.9561169878
 20
9.2809112683
 30
0.0
 10
12.9564492201
 20
9.2822467107
 30
0.0
 10
12.9568644538
 20
9.2839163473
 30
0.0
 10
12.9575288596
 20
9.2865875791
 30
0.0
 10
12.9583593548
 20
9.2899266855
 30
0.0
 10
12.9593559593
 20
9.2939335734
 30
0.0
 10
12.9603525417
 20
9.2979405138
 30
0.0
 10
12.9611830923
 20
9.3012794887
 30
0.0
 10
12.9618473871
 20
9.3039509835
 30
0.0
 10
12.9623460059
 20
9.3059537454
 30
0.0
 10
12.9627602568
 20
9.3076254463
 30
0.0
 10
12.9630527144
 20
9.3087902743
 30
0.0
 10
12.9632159577
 20
9.3094642635
 30
0.0
 10
12.9633493071
 20
9.3099461678
 30
0.0
 10
12.9634409263
 20
9.3105182361
 30
0.0
 10
12.9635776413
 20
9.3112495435
 30
0.0
 10
12.9638101105
 20
9.3125439848
 30
0.0
 10
12.9641457551
 20
9.3143855258
 30
0.0
 10
12.9645470108
 20
9.3165986541
 30
0.0
 10
12.9650825489
 20
9.3195483462
 30
0.0
 10
12.9657517882
 20
9.3232358563
 30
0.0
 10
12.9665549594
 20
9.3276606906
 30
0.0
 10
12.9673580875
 20
9.3320856042
 30
0.0
 10
12.9680274347
 20
9.3357729161
 30
0.0
 10
12.968562757
 20
9.3387230045
 30
0.0
 10
12.9689646707
 20
9.3409349241
 30
0.0
 10
12.9692982571
 20
9.3427802465
 30
0.0
 10
12.9695344004
 20
9.3440679373
 30
0.0
 10
12.9696652285
 20
9.3448100607
 30
0.0
 10
12.9697749303
 20
9.345348906
 30
0.0
 10
12.9698403644
 20
9.3459555901
 30
0.0
 10
12.969943051
 20
9.3467408394
 30
0.0
 10
12.9701155581
 20
9.3481260506
 30
0.0
 10
12.9703657583
 20
9.3500991597
 30
0.0
 10
12.970664388
 20
9.3524693582
 30
0.0
 10
12.9710631256
 20
9.3556287596
 30
0.0
 10
12.9715613393
 20
9.3595783161
 30
0.0
 10
12.972159349
 20
9.3643176157
 30
0.0
 10
12.9727570787
 20
9.3690571007
 30
0.0
 10
12.9733557748
 20
9.3737960124
 30
0.0
 10
12.9738517005
 20
9.3777468622
 30
0.0
 10
12.9742046999
 20
9.3805090186
 30
0.0
 10
12.9743972792
 20
9.3820927611
 30
0.0
 10
12.9745674458
 20
9.3832654483
 30
0.0
 10
12.9746392509
 20
9.3844959306
 30
0.0
 10
12.9747693008
 20
9.386116414
 30
0.0
 10
12.9749809018
 20
9.3889616529
 30
0.0
 10
12.9752915522
 20
9.3930213679
 30
0.0
 10
12.975660729
 20
9.3978951342
 30
0.0
 10
12.9760309393
 20
9.4027683264
 30
0.0
 10
12.9764006192
 20
9.4076417068
 30
0.0
 10
12.9767713875
 20
9.4125149083
 30
0.0
 10
12.9770771749
 20
9.416576349
 30
0.0
 10
12.9772974409
 20
9.419418513
 30
0.0
 10
12.9774136092
 20
9.4210439226
 30
0.0
 10
12.9775280536
 20
9.4222592735
 30
0.0
 10
12.9775380741
 20
9.4234887914
 30
0.0
 10
12.977587859
 20
9.4251232071
 30
0.0
 10
12.9776580117
 20
9.4279857367
 30
0.0
 10
12.9777671042
 20
9.4320738615
 30
0.0
 10
12.9778942088
 20
9.4369801248
 30
0.0
 10
12.9780223401
 20
9.4418862592
 30
0.0
 10
12.9781501707
 20
9.4467923956
 30
0.0
 10
12.9782568431
 20
9.4508809434
 30
0.0
 10
12.9783419788
 20
9.4541515385
 30
0.0
 10
12.9784063491
 20
9.4566051539
 30
0.0
 10
12.978458347
 20
9.4586477045
 30
0.0
 10
12.978497971
 20
9.4600816679
 30
0.0
 10
12.9785155772
 20
9.460894552
 30
0.0
 10
12.9785429684
 20
9.4615225922
 30
0.0
 10
12.9785161315
 20
9.4620803855
 30
0.0
 10
12.9784992644
 20
9.4628486129
 30
0.0
 10
12.9784609338
 20
9.4641815944
 30
0.0
 10
12.9784107835
 20
9.4660918223
 30
0.0
 10
12.9783486309
 20
9.468381541
 30
0.0
 10
12.9782664498
 20
9.471435392
 30
0.0
 10
12.9781634856
 20
9.4752523968
 30
0.0
 10
12.978040037
 20
9.4798329462
 30
0.0
 10
12.977916535
 20
9.4844134157
 30
0.0
 10
12.9778137043
 20
9.4882306204
 30
0.0
 10
12.9777312562
 20
9.4912840717
 30
0.0
 10
12.9776699182
 20
9.4935750093
 30
0.0
 10
12.9776172194
 20
9.4954814238
 30
0.0
 10
12.9775834383
 20
9.4968212129
 30
0.0
 10
12.9775592818
 20
9.4975785328
 30
0.0
 10
12.9775548353
 20
9.4981698302
 30
0.0
 10
12.9774981319
 20
9.498672035
 30
0.0
 10
12.9774407552
 20
9.499372718
 30
0.0
 10
12.9773318532
 20
9.500584434
 30
0.0
 10
12.977180719
 20
9.5023230268
 30
0.0
 10
12.9769974575
 20
9.504406098
 30
0.0
 10
12.9767537727
 20
9.5071846581
 30
0.0
 10
12.9764489388
 20
9.5106574695
 30
0.0
 10
12.9760832364
 20
9.5148250113
 30
0.0
 10
12.9757175054
 20
9.5189925025
 30
0.0
 10
12.9754127429
 20
9.5224654404
 30
0.0
 10
12.9751689152
 20
9.5252437475
 30
0.0
 10
12.9750165605
 20
9.5269802833
 30
0.0
 10
12.974894591
 20
9.5283692973
 30
0.0
 10
12.9748033485
 20
9.5294116454
 30
0.0
 10
12.9747265667
 20
9.5302783998
 30
0.0
 10
12.9746742841
 20
9.5308887957
 30
0.0
 10
12.9746421214
 20
9.5312318664
 30
0.0
 10
12.9746244417
 20
9.5315053022
 30
0.0
 10
12.9745821361
 20
9.5317170705
 30
0.0
 10
12.9745343184
 20
9.5320209385
 30
0.0
 10
12.9744466353
 20
9.5325426854
 30
0.0
 10
12.9743234661
 20
9.5332932779
 30
0.0
 10
12.9741747674
 20
9.5341917461
 30
0.0
 10
12.9739768153
 20
9.535390487
 30
0.0
 10
12.9737292681
 20
9.5368886449
 30
0.0
 10
12.9733332524
 20
9.5392858476
 30
0.0
 10
12.9728382121
 20
9.5422822991
 30
0.0
 10
12.9722441732
 20
9.5458780648
 30
0.0
 10
12.9716501297
 20
9.5494738177
 30
0.0
 10
12.971155101
 20
9.5524703012
 30
0.0
 10
12.9707590621
 20
9.5548674399
 30
0.0
 10
12.970511574
 20
9.5563657604
 30
0.0
 10
12.9703135004
 20
9.5575641676
 30
0.0
 10
12.970165173
 20
9.5584636556
 30
0.0
 10
12.9700408422
 20
9.5592110573
 30
0.0
 10
12.9699552327
 20
9.5597385001
 30
0.0
 10
12.9699040926
 20
9.560033242
 30
0.0
 10
12.9698719922
 20
9.5602730429
 30
0.0
 10
12.9698159833
 20
9.5604411925
 30
0.0
 10
12.9697496444
 20
9.5606903848
 30
0.0
 10
12.9696296657
 20
9.5611148266
 30
0.0
 10
12.9694602989
 20
9.5617272601
 30
0.0
 10
12.9692561893
 20
9.5624595743
 30
0.0
 10
12.9689843469
 20
9.5634369035
 30
0.0
 10
12.9686444398
 20
9.5646582534
 30
0.0
 10
12.9681006467
 20
9.5666125874
 30
0.0
 10
12.9674208852
 20
9.5690554445
 30
0.0
 10
12.9666051804
 20
9.5719869013
 30
0.0
 10
12.9657894717
 20
9.574918342
 30
0.0
 10
12.9651097202
 20
9.5773612392
 30
0.0
 10
12.9645659071
 20
9.5793154933
 30
0.0
 10
12.9642260506
 20
9.5805370461
 30
0.0
 10
12.9639541045
 20
9.5815139587
 30
0.0
 10
12.9637503115
 20
9.5822475458
 30
0.0
 10
12.9635799542
 20
9.5828559968
 30
0.0
 10
12.9634617437
 20
9.583287548
 30
0.0
 10
12.9633925716
 20
9.5835253492
 30
0.0
 10
12.9633452654
 20
9.5837284885
 30
0.0
 10
12.9632804792
 20
9.5838368739
 30
0.0
 10
12.9632001949
 20
9.5840144389
 30
0.0
 10
12.9630568565
 20
9.5843097785
 30
0.0
 10
12.9628535726
 20
9.5847397431
 30
0.0
 10
12.9626089962
 20
9.5852522546
 30
0.0
 10
12.9622831163
 20
9.585936807
 30
0.0
 10
12.9618756905
 20
9.5867920852
 30
0.0
 10
12.9612238516
 20
9.5881607608
 30
0.0
 10
12.9604090384
 20
9.5898715258
 30
0.0
 10
12.9594312692
 20
9.5919244801
 30
0.0
 10
12.9584534968
 20
9.5939774161
 30
0.0
 10
12.9576386913
 20
9.595688227
 30
0.0
 10
12.956986837
 20
9.5970568106
 30
0.0
 10
12.9565794505
 20
9.5979123227
 30
0.0
 10
12.9562534898
 20
9.5985963951
 30
0.0
 10
12.9560091604
 20
9.5991103728
 30
0.0
 10
12.9558051036
 20
9.5995357502
 30
0.0
 10
12.955663145
 20
9.5998392787
 30
0.0
 10
12.9555806498
 20
9.6000037231
 30
0.0
 10
12.9555226548
 20
9.6001524108
 30
0.0
 10
12.9554498424
 20
9.6002041812
 30
0.0
 10
12.9553579276
 20
9.6003070142
 30
0.0
 10
12.9551946687
 20
9.6004712213
 30
0.0
 10
12.9549627007
 20
9.6007140374
 30
0.0
 10
12.9546838002
 20
9.6010018921
 30
0.0
 10
12.954312121
 20
9.6013869294
 30
0.0
 10
12.9538474577
 20
9.6018678046
 30
0.0
 10
12.9531040323
 20
9.6026374404
 30
0.0
 10
12.9521747382
 20
9.6035994039
 30
0.0
 10
12.9510595908
 20
9.6047537973
 30
0.0
 10
12.9499444411
 20
9.6059081717
 30
0.0
 10
12.949015153
 20
9.6068701828
 30
0.0
 10
12.9482717156
 20
9.6076397234
 30
0.0
 10
12.9478070828
 20
9.6081208407
 30
0.0
 10
12.9474353409
 20
9.6085053809
 30
0.0
 10
12.9471566321
 20
9.6087947545
 30
0.0
 10
12.9469240644
 20
9.6090328182
 30
0.0
 10
12.9467618759
 20
9.6092055092
 30
0.0
 10
12.9466682462
 20
9.6092947488
 30
0.0
 10
12.9466007017
 20
9.6093882737
 30
0.0
 10
12.9465229212
 20
9.6093801386
 30
0.0
 10
12.9464227843
 20
9.609404752
 30
0.0
 10
12.9462458812
 20
9.609431304
 30
0.0
 10
12.9459940323
 20
9.6094778729
 30
0.0
 10
12.9456914413
 20
9.6095300585
 30
0.0
 10
12.9452881166
 20
9.6096009306
 30
0.0
 10
12.9447839163
 20
9.6096890786
 30
0.0
 10
12.9439772206
 20
9.6098303625
 30
0.0
 10
12.9429688425
 20
9.6100068821
 30
0.0
 10
12.9417587925
 20
9.6102187447
 30
0.0
 10
12.9405487409
 20
9.6104305874
 30
0.0
 10
12.939540367
 20
9.6106071565
 30
0.0
 10
12.9387336628
 20
9.6107483414
 30
0.0
 10
12.9382294843
 20
9.6108367413
 30
0.0
 10
12.9378261147
 20
9.6109070963
 30
0.0
 10
12.937523661
 20
9.6109608617
 30
0.0
 10
12.9372713826
 20
9.6110024878
 30
0.0
 10
12.9370952461
 20
9.6110378635
 30
0.0
 10
12.936993881
 20
9.611048339
 30
0.0
 10
12.9369198731
 20
9.6110836311
 30
0.0
 10
12.9368381594
 20
9.611014051
 30
0.0
 10
12.9367318957
 20
9.6109578581
 30
0.0
 10
12.9365446819
 20
9.610842477
 30
0.0
 10
12.9362778883
 20
9.6106865574
 30
0.0
 10
12.9359574557
 20
9.6104956399
 30
0.0
 10
12.9355303102
 20
9.6102424154
 30
0.0
 10
12.9349963448
 20
9.6099254286
 30
0.0
 10
12.9341420188
 20
9.6094185047
 30
0.0
 10
12.933074105
 20
9.6087847623
 30
0.0
 10
12.9317926111
 20
9.608024309
 30
0.0
 10
12.9305111165
 20
9.6072638456
 30
0.0
 10
12.9288024573
 20
9.6062498979
 30
0.0
 10
12.9275209628
 20
9.6054894364
 30
0.0
 10
12.9266666332
 20
9.6049824622
 30
0.0
  0
ENDSEC
  0
SECTION
  2
OBJECTS
  0
DICTIONARY
  5
C
100
AcDbDictionary
280
0
281
1
  3
ACAD_GROUP
350
D
  3
ACAD_MLINESTYLE
350
17
  3
ACAD_LAYOUT
350
1A
  3
ACAD_PLOTSETTINGS
350
19
  3
ACAD_PLOTSTYLENAME
350
E
  3
ACAD_IMAGE_DICT
350
       3C3
  3
ACAD_IMAGE_VARS
350
       3C4
  3
ACAD_TABLESTYLE
350
       3C5
  0
IMAGEDEF_REACTOR
  5
3C2
100
AcDbRasterImageDefReactor
 90
2
330
27C
  0
DICTIONARY
  5
D
102
{ACAD_REACTORS
330
C
102
}
100
AcDbDictionary
280
0
281
1
  0
ACDBDICTIONARYWDFLT
  5
E
102
{ACAD_REACTORS
330
C
102
}
100
AcDbDictionary
281
1
  3
Normal
350
F
100
AcDbDictionaryWithDefault
340
F
  0
DICTIONARY
  5
3C3
330
C
100
AcDbDictionary
281
1
  3
WJC_assy_2_img_1
350
       3C8
  0
RASTERVARIABLES
  5
3C4
330
C
100
AcDbRasterVariables
 90
0
 70
0
 71
1
 72
5
  0
DICTIONARY
  5
17
102
{ACAD_REACTORS
330
C
102
}
100
AcDbDictionary
280
0
281
1
  3
Standard
350
18
  0
DICTIONARY
  5
3C5
330
C
100
AcDbDictionary
281
1
  3
Standard
350
       3C9
  3
Standard1
350
       3CA
  0
DICTIONARY
  5
19
102
{ACAD_REACTORS
330
C
102
}
100
AcDbDictionary
281
1
  0
DICTIONARY
  5
1A
102
{ACAD_REACTORS
330
C
102
}
100
AcDbDictionary
281
1
  3
Model
350
3C6
  3
Layout1
350
3C7
  0
ACDBPLACEHOLDER
  5
F
102
{ACAD_REACTORS
330
E
102
}
  0
MLINESTYLE
  5
18
102
{ACAD_REACTORS
330
17
102
}
100
AcDbMlineStyle
  2
STANDARD
 70
0
  3

 62
256
 51
90.0
 52
90.0
 71
2
 49
0.5
 62
256
  6
BYLAYER
 49
-0.5
 62
256
  6
BYLAYER
  0
LAYOUT
  5
3C6
102
{ACAD_REACTORS
330
1A
102
}
100
AcDbPlotSettings
  1

  2
none_device
  4
ANSI_C_(22.00_x_17.00_Inches)
  6

 40
0.0
 41
0.0
 42
0.0
 43
0.0
 44
558.8
 45
431.8
 46
0.0
 47
0.0
 48
0.0
 49
0.0
140
0.0
141
0.0
142
1.0
143
1.0
 70
1024
 72
0
 73
0
 74
0
  7

 75
0
147
1.0
148
0.0
149
0.0
100
AcDbLayout
  1
Model
 70
0
 71
0
 10
0.0
 20
0.0
 11
22.0
 21
17.0
 12
0.0
 22
0.0
 32
0.0
 14
0.0
 24
0.0
 34
0.0
 15
0.0
 25
0.0
 35
0.0
146
0.0
 13
0.0
 23
0.0
 33
0.0
 16
1.0
 26
0.0
 36
0.0
 17
0.0
 27
1.0
 37
0.0
 76
0
330
207
345
0
346
0
  0
LAYOUT
  5
3C7
102
{ACAD_REACTORS
330
1A
102
}
100
AcDbPlotSettings
  1

  2
none_device
  4
ANSI_C_(22.00_x_17.00_Inches)
  6

 40
0.0
 41
0.0
 42
0.0
 43
0.0
 44
558.8
 45
431.8
 46
0.0
 47
0.0
 48
0.0
 49
0.0
140
0.0
141
0.0
142
1.0
143
1.0
 70
0
 72
0
 73
0
 74
0
  7

 75
0
147
1.0
148
0.0
149
0.0
100
AcDbLayout
  1
Layout1
 70
0
 71
1
 10
0.0
 20
0.0
 11
22.0
 21
17.0
 12
0.0
 22
0.0
 32
0.0
 14
0.0
 24
0.0
 34
0.0
 15
0.0
 25
0.0
 35
0.0
146
0.0
 13
0.0
 23
0.0
 33
0.0
 16
1.0
 26
0.0
 36
0.0
 17
0.0
 27
1.0
 37
0.0
 76
0
330
208
345
0
346
0
  0
IMAGEDEF
  5
3C8
102
{ACAD_REACTORS
330
3C3
330
3C2
102
}
100
AcDbRasterImageDef
 90
0
  1
WJC_assy_2_img_1.png
 10
369.0
 20
92.0
 11
0.0066666667
 21
0.0066666667
280
1
281
0
  0
TABLESTYLE
  5
3C9
102
{ACAD_REACTORS
330
3C5
330
27F
330
280
102
}
330
3C5
100
AcDbTableStyle
  3
Standard
 70
0
 71
0
 40
0.06
 41
0.06
280
1
281
1
  7
Standard
140
0.18
170
1
 62
0
 63
7
283
0
  7
Standard
140
0.18
170
1
 62
0
 63
7
283
0
  7
Standard
140
0.18
170
1
 62
0
 63
7
283
0
  0
TABLESTYLE
  5
3CA
102
{ACAD_REACTORS
330
3C5
330
27E
102
}
330
3C5
100
AcDbTableStyle
  3
Standard1
 70
1
 71
0
 40
0.06
 41
0.06
280
1
281
1
  7
Standard
140
0.18
170
1
 62
0
 63
7
283
0
  7
Standard
140
0.18
170
1
 62
0
 63
7
283
0
  7
Standard
140
0.18
170
1
 62
0
 63
7
283
0
  0
ENDSEC
  0
EOF
