999
DXF file: WGJ_assy_2.dxf
999
Pro/ENGINEER 2014200 by Parametric Technology Corporation
  0
SECTION
  2
HEADER
  9
$ACADVER
  1
AC1021
  9
$DWGCODEPAGE
  3
ANSI_1252
  9
$EXTMAX
 10
22.0
 20
17.0
 30
0.0
  9
$EXTMIN
 10
0.0
 20
0.0
 30
0.0
  9
$LIMMIN
 10
0.0
 20
0.0
  9
$LIMMAX
 10
22.0
 20
17.0
  9
$VIEWCTR
 10
11.0
 20
8.5
  9
$VIEWSIZE
 40
17.0
  9
$CLAYER
  8
0
  9
$LTSCALE
 40
1.21
  9
$CELTYPE
  6
BYLAYER
  9
$DIMSCALE
 40
1.0
  9
$DIMASZ
 40
0.1875
  9
$DIMEXO
 40
0.0625
  9
$DIMDLI
 40
0.836
  9
$DIMEXE
 40
0.125
  9
$DIMCEN
 40
0.198
  9
$DIMLFAC
 40
1.0
  9
$DIMBLK
  1
_FILLED
  9
$DIMTXT
 40
0.1
  9
$DIMTOL
 70
0
  9
$DIMLIM
 70
0
  9
$DIMTFAC
 40
1.0
  9
$DIMGAP
 40
0.09
  9
$DIMDSEP
 70
46
  9
$AUNITS
 70
0
  9
$PDMODE
 70
3
  9
$PDSIZE
 40
0.3125
  9
$HANDSEED
  5
2E4
  9
$TILEMODE
 70
1
  9
$MEASUREMENT
 70
0
  9
$INSUNITS
 70
1
  0
ENDSEC
  0
SECTION
  2
CLASSES
  0
CLASS
  1
ACDBDICTIONARYWDFLT
  2
AcDbDictionaryWithDefault
  3
AutoCAD 2000
 90
0
 91
1
280
0
281
0
  0
CLASS
  1
ACDBPLACEHOLDER
  2
AcDbPlaceHolder
  3
AutoCAD 2000
 90
0
 91
1
280
0
281
0
  0
CLASS
  1
LAYOUT
  2
AcDbLayout
  3
AutoCAD 2000
 90
0
 91
0
280
0
281
0
  0
CLASS
  1
RASTERVARIABLES
  2
AcDbRasterVariables
  3
ISM
 90
0
 91
1
280
0
281
0
  0
CLASS
  1
IMAGEDEF
  2
AcDbRasterImageDef
  3
ISM
 90
0
 91
1
280
0
281
0
  0
CLASS
  1
IMAGEDEF_REACTOR
  2
AcDbRasterImageDefReactor
  3
ISM
 90
0
 91
1
280
0
281
0
  0
CLASS
  1
IMAGE
  2
AcDbRasterImage
  3
ISM
 90
127
 91
1
280
0
281
1
  0
CLASS
  1
TABLESTYLE
  2
AcDbTableStyle
  3
ObjectDBX Classes
 90
2047
 91
1
280
0
281
0
  0
CLASS
  1
ACAD_TABLE
  2
AcDbTable
  3
ObjectDBX Classes
 90
1025
 91
3
280
0
281
1
  0
ENDSEC
  0
SECTION
  2
TABLES
  0
TABLE
  2
VPORT
  5
8
100
AcDbSymbolTable
 70
2
  0
VPORT
  5
1F4
100
AcDbSymbolTableRecord
100
AcDbViewportTableRecord
  2
*ACTIVE
 70
0
 10
0.0
 20
0.0
 11
1.0
 21
1.0
 12
11.0
 22
8.5
 13
0.0
 23
0.0
 14
1.0
 24
1.0
 15
0.0
 25
0.0
 16
0.0
 26
0.0
 36
1.0
 17
0.0
 27
0.0
 37
0.0
 40
17.0
 41
1.2941176471
 42
50.0
 43
0.0
 44
0.0
 50
0.0
 51
0.0
 71
0
 72
100
 73
1
 74
1
 75
0
 76
0
 77
0
 78
0
  0
ENDTAB
  0
TABLE
  2
LTYPE
  5
5
100
AcDbSymbolTable
 70
6
  0
LTYPE
  5
14
100
AcDbSymbolTableRecord
100
AcDbLinetypeTableRecord
  2
BYBLOCK
 70
0
  3

 72
65
 73
0
 40
0.0
  0
LTYPE
  5
15
100
AcDbSymbolTableRecord
100
AcDbLinetypeTableRecord
  2
BYLAYER
 70
0
  3

 72
65
 73
0
 40
0.0
  0
LTYPE
  5
16
100
AcDbSymbolTableRecord
100
AcDbLinetypeTableRecord
  2
CONTINUOUS
 70
64
  3
Solid line
 72
65
 73
0
 40
0.0
  0
LTYPE
  5
1F5
100
AcDbSymbolTableRecord
100
AcDbLinetypeTableRecord
  2
CENTER
 70
64
  3
____ _ ____ _ ____ _ ____ _ ____ _ ____ _ ____
 72
65
 73
4
 40
0.6
 49
0.375
 74
0
 49
-0.075
 74
0
 49
0.075
 74
0
 49
-0.075
 74
0
  0
LTYPE
  5
1F6
100
AcDbSymbolTableRecord
100
AcDbLinetypeTableRecord
  2
HIDDEN
 70
64
  3
- - - - - - - - - - - - - - - - - - - -
 72
65
 73
2
 40
0.2
 49
0.1
 74
0
 49
-0.1
 74
0
  0
LTYPE
  5
1F7
100
AcDbSymbolTableRecord
100
AcDbLinetypeTableRecord
  2
PHANTOM
 70
64
  3
_____ _ _ _____ _ _ _____ _ _ _____
 72
65
 73
6
 40
0.8
 49
0.45
 74
0
 49
-0.05
 74
0
 49
0.1
 74
0
 49
-0.05
 74
0
 49
0.1
 74
0
 49
-0.05
 74
0
  0
LTYPE
  5
1F8
100
AcDbSymbolTableRecord
100
AcDbLinetypeTableRecord
  2
DOT
 70
64
  3
. . . . . . . . . . . . . . . . . . . .
 72
65
 73
2
 40
0.2
 49
0.1
 74
0
 49
-0.1
 74
0
  0
LTYPE
  5
1F9
100
AcDbSymbolTableRecord
100
AcDbLinetypeTableRecord
  2
DASHED
 70
64
  3
- - - - - - - - - - - - - - - - - - - -
 72
65
 73
2
 40
0.2
 49
0.1
 74
0
 49
-0.1
 74
0
  0
ENDTAB
  0
TABLE
  2
LAYER
  5
2
100
AcDbSymbolTable
 70
36
  0
LAYER
  5
10
100
AcDbSymbolTableRecord
100
AcDbLayerTableRecord
  2
0
 70
0
 62
7
  6
CONTINUOUS
370
-3
390
F
  0
LAYER
  5
1FA
100
AcDbSymbolTableRecord
100
AcDbLayerTableRecord
  2
DEFAULT_1
 70
0
 62
7
  6
CENTER
370
-3
390
F
  0
LAYER
  5
1FB
100
AcDbSymbolTableRecord
100
AcDbLayerTableRecord
  2
DEFAULT_2
 70
0
 62
8
  6
HIDDEN
370
-3
390
F
  0
LAYER
  5
1FC
100
AcDbSymbolTableRecord
100
AcDbLayerTableRecord
  2
DEFAULT_3
 70
0
 62
7
  6
PHANTOM
370
-3
390
F
  0
LAYER
  5
1FD
100
AcDbSymbolTableRecord
100
AcDbLayerTableRecord
  2
DATUM_PLANES
 70
0
 62
7
  6
CONTINUOUS
370
-3
390
F
  0
LAYER
  5
1FE
100
AcDbSymbolTableRecord
100
AcDbLayerTableRecord
  2
DIMENSIONS
 70
0
 62
7
  6
CONTINUOUS
370
-3
390
F
  0
LAYER
  5
1FF
100
AcDbSymbolTableRecord
100
AcDbLayerTableRecord
  2
DTM_500001
 70
0
 62
7
  6
CONTINUOUS
370
-3
390
F
  0
LAYER
  5
200
100
AcDbSymbolTableRecord
100
AcDbLayerTableRecord
  2
PARAMETERDIMENSIONS
 70
0
 62
7
  6
CONTINUOUS
370
-3
390
F
  0
LAYER
  5
201
100
AcDbSymbolTableRecord
100
AcDbLayerTableRecord
  2
PORT_AREAS
 70
0
 62
7
  6
CONTINUOUS
370
-3
390
F
  0
LAYER
  5
202
100
AcDbSymbolTableRecord
100
AcDbLayerTableRecord
  2
SUNNBOMCOSMETIC
 70
0
 62
7
  6
CONTINUOUS
370
-3
390
F
  0
LAYER
  5
203
100
AcDbSymbolTableRecord
100
AcDbLayerTableRecord
  2
SUNNBOMSTAMPING
 70
0
 62
7
  6
CONTINUOUS
370
-3
390
F
  0
LAYER
  5
204
100
AcDbSymbolTableRecord
100
AcDbLayerTableRecord
  2
THREADS
 70
0
 62
7
  6
CONTINUOUS
370
-3
390
F
  0
ENDTAB
  0
TABLE
  2
STYLE
  5
3
100
AcDbSymbolTable
 70
1
  0
STYLE
  5
11
100
AcDbSymbolTableRecord
100
AcDbTextStyleTableRecord
  2
STANDARD
 70
0
 40
0.0
 41
0.8
 50
0.0
 71
0
 42
0.2
  3
txt
  4

  0
STYLE
  5
205
100
AcDbSymbolTableRecord
100
AcDbTextStyleTableRecord
  2
TEXTSTYLE_1
 70
0
 40
0.0
 41
0.8
 50
0.0
 71
0
 42
0.2
  3
gdt
  4

  0
ENDTAB
  0
TABLE
  2
VIEW
  5
6
100
AcDbSymbolTable
 70
0
  0
ENDTAB
  0
TABLE
  2
UCS
  5
7
100
AcDbSymbolTable
 70
0
  0
ENDTAB
  0
TABLE
  2
APPID
  5
9
100
AcDbSymbolTable
 70
1
  0
APPID
  5
206
100
AcDbSymbolTableRecord
100
AcDbRegAppTableRecord
  2
ACAD
 70
0
  0
ENDTAB
  0
TABLE
  2
BLOCK_RECORD
  5
1
100
AcDbSymbolTable
 70
0
  0
BLOCK_RECORD
  5
207
100
AcDbSymbolTableRecord
100
AcDbBlockTableRecord
  2
*Model_Space
  0
BLOCK_RECORD
  5
208
100
AcDbSymbolTableRecord
100
AcDbBlockTableRecord
  2
*Paper_Space
  0
BLOCK_RECORD
  5
209
100
AcDbSymbolTableRecord
100
AcDbBlockTableRecord
  2
SUN_FIRST_THIRD_ANGLE_BL0
  0
BLOCK_RECORD
  5
20A
100
AcDbSymbolTableRecord
100
AcDbBlockTableRecord
  2
*T1
  0
BLOCK_RECORD
  5
20B
100
AcDbSymbolTableRecord
100
AcDbBlockTableRecord
  2
*T2
  0
BLOCK_RECORD
  5
20C
100
AcDbSymbolTableRecord
100
AcDbBlockTableRecord
  2
*T3
  0
ENDTAB
  0
TABLE
  2
DIMSTYLE
  5
A
100
AcDbSymbolTable
 70
1
100
AcDbDimStyleTable
 71
0
  0
DIMSTYLE
105
20D
100
AcDbSymbolTableRecord
100
AcDbDimStyleTableRecord
  2
STANDARD
 70
0
  3

  4

 40
1.0
 41
0.1875
 42
0.0625
 43
0.38
 44
0.125
 45
0.0
 46
0.0
 47
0.001
 48
0.001
140
0.1
141
0.09
142
0.0
143
25.4
144
1.0
145
0.0
146
1.0
147
0.09
 71
0.0
 72
0.0
 73
1
 74
1
 75
0
 76
0
 77
0
 78
4
170
0
171
2
172
0
173
0
174
0
175
0
176
0
177
0
178
0
270
2
271
3
272
3
273
2
274
2
275
0
280
0
281
0
282
0
283
1
284
4
285
0
286
0
287
3
288
0
340
11
278
46
  0
ENDTAB
  0
ENDSEC
  0
SECTION
  2
BLOCKS
  0
BLOCK
  5
20
100
AcDbEntity
  8
0
100
AcDbBlockBegin
  2
*Model_Space
 70
0
 10
0.0
 20
0.0
 30
0.0
  3
*Model_Space
  1

  0
ENDBLK
  5
21
100
AcDbEntity
  8
0
100
AcDbBlockEnd
  0
BLOCK
  5
1C
100
AcDbEntity
  8
0
100
AcDbBlockBegin
  2
*Paper_Space
 70
0
 10
0.0
 20
0.0
 30
0.0
  3
*Paper_Space
  1

  0
ENDBLK
  5
1D
100
AcDbEntity
  8
0
100
AcDbBlockEnd
  0
BLOCK
  5
20E
100
AcDbEntity
  8
0
100
AcDbBlockBegin
 62
2
  6
CONTINUOUS
  2
SUN_FIRST_THIRD_ANGLE_BL0
 70
64
 10
20.4816717061
 20
1.2289683772
  3
SUN_FIRST_THIRD_ANGLE_BL0
  1

  0
TEXT
  5
20F
100
AcDbEntity
  8
0
100
AcDbText
 62
2
  6
CONTINUOUS
 10
19.4750896608
 20
1.4136269581
  7
STANDARD
 40
0.08
  1
FIRST ANGLE
 41
0.8
 72
0
100
AcDbText
  0
TEXT
  5
210
100
AcDbEntity
  8
0
100
AcDbText
 62
2
  6
CONTINUOUS
 10
20.7842537513
 20
1.4047600029
  7
STANDARD
 40
0.08
  1
THIRD ANGLE
 41
0.8
 72
0
100
AcDbText
  0
LINE
  5
211
100
AcDbEntity
  8
0
100
AcDbLine
 62
7
  6
CONTINUOUS
 10
19.4767170086
 20
1.1727031207
 11
19.6334271527
 21
1.1717972817
  0
LINE
  5
212
100
AcDbEntity
  8
0
100
AcDbLine
 62
7
  6
CONTINUOUS
 10
19.6596964832
 20
1.1717972817
 11
19.6950230232
 21
1.171593082
  0
LINE
  5
213
100
AcDbEntity
  8
0
100
AcDbLine
 62
7
  6
CONTINUOUS
 10
19.7194818561
 20
1.1708914427
 11
19.8852396156
 21
1.1699333054
  0
LINE
  5
214
100
AcDbEntity
  8
0
100
AcDbLine
 62
7
  6
CONTINUOUS
 10
19.4758111696
 20
1.2723454088
 11
19.88525039
 21
1.3511534004
  0
LINE
  5
215
100
AcDbEntity
  8
0
100
AcDbLine
 62
7
  6
CONTINUOUS
 10
19.88525039
 20
1.3511534004
 11
19.8831348489
 21
0.9851647912
  0
LINE
  5
216
100
AcDbEntity
  8
0
100
AcDbLine
 62
7
  6
CONTINUOUS
 10
19.8831348489
 20
0.9851647912
 11
19.4767170086
 21
1.0658141206
  0
LINE
  5
217
100
AcDbEntity
  8
0
100
AcDbLine
 62
7
  6
CONTINUOUS
 10
19.4767170086
 20
1.0658141206
 11
19.4779056764
 21
1.2714536432
  0
CIRCLE
  5
218
100
AcDbEntity
  8
0
100
AcDbCircle
 62
7
  6
CONTINUOUS
 10
20.2068232291
 20
1.1717972817
 40
0.175742101
  0
CIRCLE
  5
219
100
AcDbEntity
  8
0
100
AcDbCircle
 62
7
  6
CONTINUOUS
 10
20.2068232291
 20
1.1717972817
 40
0.1005522074
  0
LINE
  5
21A
100
AcDbEntity
  8
0
100
AcDbLine
 62
7
  6
CONTINUOUS
 10
20.2077290681
 20
1.3756110529
 11
20.2071171714
 21
1.2379342989
  0
LINE
  5
21B
100
AcDbEntity
  8
0
100
AcDbLine
 62
7
  6
CONTINUOUS
 10
20.2077290681
 20
1.2016899681
 11
20.2074674401
 21
1.1428236749
  0
LINE
  5
21C
100
AcDbEntity
  8
0
100
AcDbLine
 62
7
  6
CONTINUOUS
 10
20.208634907
 20
1.101141841
 11
20.2080230104
 21
0.963465087
  0
LINE
  5
21D
100
AcDbEntity
  8
0
100
AcDbLine
 62
7
  6
CONTINUOUS
 10
20.0066328138
 20
1.1745147986
 11
20.1443095678
 21
1.1739029019
  0
LINE
  5
21E
100
AcDbEntity
  8
0
100
AcDbLine
 62
7
  6
CONTINUOUS
 10
20.1832714155
 20
1.1727031207
 11
20.238153505
 21
1.172335442
  0
LINE
  5
21F
100
AcDbEntity
  8
0
100
AcDbLine
 62
7
  6
CONTINUOUS
 10
20.2756669918
 20
1.1717972817
 11
20.407916871
 21
1.1712095044
  0
CIRCLE
  5
220
100
AcDbEntity
  8
0
100
AcDbCircle
 62
7
  6
CONTINUOUS
 10
20.7509457401
 20
1.1693297793
 40
0.1722024983
  0
CIRCLE
  5
221
100
AcDbEntity
  8
0
100
AcDbCircle
 62
7
  6
CONTINUOUS
 10
20.7509457401
 20
1.1693297793
 40
0.0985164967
  0
LINE
  5
222
100
AcDbEntity
  8
0
100
AcDbLine
 62
7
  6
CONTINUOUS
 10
20.7169767782
 20
1.170462078
 11
20.7825395137
 21
1.1682766535
  0
LINE
  5
223
100
AcDbEntity
  8
0
100
AcDbLine
 62
7
  6
CONTINUOUS
 10
20.8177513651
 20
1.1693297793
 11
20.947965719
 21
1.1693297793
  0
LINE
  5
224
100
AcDbEntity
  8
0
100
AcDbLine
 62
7
  6
CONTINUOUS
 10
20.6875370113
 20
1.170462078
 11
20.5573226574
 21
1.170462078
  0
LINE
  5
225
100
AcDbEntity
  8
0
100
AcDbLine
 62
7
  6
CONTINUOUS
 10
20.7486811426
 20
1.1987695462
 11
20.7486811426
 21
1.1432869085
  0
LINE
  5
226
100
AcDbEntity
  8
0
100
AcDbLine
 62
7
  6
CONTINUOUS
 10
20.7498134414
 20
1.1059210505
 11
20.7498134414
 21
0.9757066966
  0
LINE
  5
227
100
AcDbEntity
  8
0
100
AcDbLine
 62
7
  6
CONTINUOUS
 10
20.7486811426
 20
1.2338708068
 11
20.7486811426
 21
1.3640851607
  0
LINE
  5
228
100
AcDbEntity
  8
0
100
AcDbLine
 62
7
  6
CONTINUOUS
 10
21.0702539817
 20
1.2701043662
 11
21.4790138229
 21
1.3448360823
  0
LINE
  5
229
100
AcDbEntity
  8
0
100
AcDbLine
 62
7
  6
CONTINUOUS
 10
21.4790138229
 20
1.3448360823
 11
21.4790138229
 21
0.9779712941
  0
LINE
  5
22A
100
AcDbEntity
  8
0
100
AcDbLine
 62
7
  6
CONTINUOUS
 10
21.4790138229
 20
0.9779712941
 11
21.069121683
 21
1.0617614
  0
LINE
  5
22B
100
AcDbEntity
  8
0
100
AcDbLine
 62
7
  6
CONTINUOUS
 10
21.0702539817
 20
1.2701043662
 11
21.069121683
 21
1.0617614
  0
LINE
  5
22C
100
AcDbEntity
  8
0
100
AcDbLine
 62
7
  6
CONTINUOUS
 10
21.4790138229
 20
1.1693297793
 11
21.3159628059
 21
1.1693297793
  0
LINE
  5
22D
100
AcDbEntity
  8
0
100
AcDbLine
 62
7
  6
CONTINUOUS
 10
21.2876553377
 20
1.1693297793
 11
21.2502894796
 21
1.1693297793
  0
LINE
  5
22E
100
AcDbEntity
  8
0
100
AcDbLine
 62
7
  6
CONTINUOUS
 10
21.2208497126
 20
1.1659328831
 11
21.0713862804
 21
1.1659328831
  0
LINE
  5
22F
100
AcDbEntity
  8
0
100
AcDbLine
 62
7
  6
CONTINUOUS
 10
20.4796138713
 20
1.5284908897
 11
20.4766766948
 21
0.9294458646
  0
ENDBLK
  5
230
100
AcDbEntity
  8
0
  6
BYBLOCK
 62
0
100
AcDbBlockEnd
  0
BLOCK
  5
231
100
AcDbEntity
  8
0
100
AcDbBlockBegin
  2
*T1
 70
1
 10
0.0
 20
0.0
  3
*T1
  1

  0
LINE
  5
232
100
AcDbEntity
  8
0
100
AcDbLine
 62
2
  6
CONTINUOUS
 10
9.275
 20
0.0
 11
-0.0
 21
0.0
  0
LINE
  5
233
100
AcDbEntity
  8
0
100
AcDbLine
 62
2
  6
CONTINUOUS
 10
9.275
 20
0.0
 11
9.275
 21
1.25
  0
LINE
  5
234
100
AcDbEntity
  8
0
100
AcDbLine
 62
2
  6
CONTINUOUS
 10
9.275
 20
0.625
 11
-0.0
 21
0.625
  0
LINE
  5
235
100
AcDbEntity
  8
0
100
AcDbLine
 62
2
  6
CONTINUOUS
 10
9.275
 20
1.25
 11
-0.0
 21
1.25
  0
LINE
  5
236
100
AcDbEntity
  8
0
100
AcDbLine
 62
2
  6
CONTINUOUS
 10
6.8
 20
0.0
 11
6.8
 21
1.25
  0
LINE
  5
237
100
AcDbEntity
  8
0
100
AcDbLine
 62
2
  6
CONTINUOUS
 10
6.4
 20
0.0
 11
6.4
 21
0.625
  0
LINE
  5
238
100
AcDbEntity
  8
0
100
AcDbLine
 62
2
  6
CONTINUOUS
 10
5.9
 20
0.0
 11
5.9
 21
0.625
  0
LINE
  5
239
100
AcDbEntity
  8
0
100
AcDbLine
 62
2
  6
CONTINUOUS
 10
5.2
 20
0.0
 11
5.2
 21
0.625
  0
LINE
  5
23A
100
AcDbEntity
  8
0
100
AcDbLine
 62
2
  6
CONTINUOUS
 10
4.1
 20
0.0
 11
4.1
 21
1.25
  0
LINE
  5
23B
100
AcDbEntity
  8
0
100
AcDbLine
 62
2
  6
CONTINUOUS
 10
-0.0
 20
0.0
 11
-0.0
 21
1.25
  0
MTEXT
  5
23C
100
AcDbEntity
  8
0
100
AcDbMText
 62
2
  6
CONTINUOUS
  7
STANDARD
 71
2
 72
1
 10
6.6
 20
0.325
 30
0.0
 11
1.0
 21
0.0
 31
0.0
 44
0.9
  1
2
 40
0.125
 41
0.2
  0
MTEXT
  5
23D
100
AcDbEntity
  8
0
100
AcDbMText
 62
2
  6
CONTINUOUS
  7
STANDARD
 71
2
 72
1
 10
6.15
 20
0.325
 30
0.0
 11
1.0
 21
0.0
 31
0.0
 44
0.9
  1
C
 40
0.125
 41
0.2
  0
MTEXT
  5
23E
100
AcDbEntity
  8
0
100
AcDbMText
 62
2
  6
CONTINUOUS
  7
STANDARD
 71
2
 72
1
 10
5.55
 20
0.325
 30
0.0
 11
1.0
 21
0.0
 31
0.0
 44
0.9
  1
1.000
 40
0.125
 41
1.0
  0
MTEXT
  5
23F
100
AcDbEntity
  8
0
100
AcDbMText
 62
2
  6
CONTINUOUS
  7
STANDARD
 71
2
 72
1
 10
4.65
 20
0.325
 30
0.0
 11
1.0
 21
0.0
 31
0.0
 44
0.9
  1
Oct-23-19
 40
0.125
 41
1.8
  0
MTEXT
  5
240
100
AcDbEntity
  8
0
100
AcDbMText
 62
2
  6
CONTINUOUS
  7
STANDARD
 71
2
 72
1
 10
2.05
 20
0.4625
 30
0.0
 11
1.0
 21
0.0
 31
0.0
 44
0.9
  1
T-2A Sandwich ISO 05\POn P, port 3 to T
 40
0.125
 41
4.0
  0
MTEXT
  5
241
100
AcDbEntity
  8
0
100
AcDbMText
 62
2
  6
CONTINUOUS
  7
STANDARD
 71
1
 72
1
 10
6.45
 20
0.5625
 30
0.0
 11
1.0
 21
0.0
 31
0.0
 44
0.9
  1
SHEET
 40
0.06
 41
0.48
  0
MTEXT
  5
242
100
AcDbEntity
  8
0
100
AcDbMText
 62
2
  6
CONTINUOUS
  7
STANDARD
 71
1
 72
1
 10
5.95
 20
0.5625
 30
0.0
 11
1.0
 21
0.0
 31
0.0
 44
0.9
  1
DWG SIZE
 40
0.06
 41
0.768
  0
MTEXT
  5
243
100
AcDbEntity
  8
0
100
AcDbMText
 62
2
  6
CONTINUOUS
  7
STANDARD
 71
1
 72
1
 10
5.25
 20
0.5625
 30
0.0
 11
1.0
 21
0.0
 31
0.0
 44
0.9
  1
SCALE
 40
0.06
 41
0.48
  0
MTEXT
  5
244
100
AcDbEntity
  8
0
100
AcDbMText
 62
2
  6
CONTINUOUS
  7
STANDARD
 71
1
 72
1
 10
4.15
 20
0.5625
 30
0.0
 11
1.0
 21
0.0
 31
0.0
 44
0.9
  1
DATE
 40
0.06
 41
0.384
  0
MTEXT
  5
245
100
AcDbEntity
  8
0
100
AcDbMText
 62
2
  6
CONTINUOUS
  7
STANDARD
 71
1
 72
1
 10
0.05
 20
0.5625
 30
0.0
 11
1.0
 21
0.0
 31
0.0
 44
0.9
  1
DESCRIPTION
 40
0.06
 41
1.056
  0
MTEXT
  5
246
100
AcDbEntity
  8
0
100
AcDbMText
 62
2
  6
CONTINUOUS
  7
STANDARD
 71
2
 72
1
 10
5.45
 20
1.0375
 30
0.0
 11
1.0
 21
0.0
 31
0.0
 44
0.9
  1
ALL DIMENSIONS IN INCH\PVIEWS ARE THIRD ANGLE
 40
0.12
 41
4.224
  0
MTEXT
  5
247
100
AcDbEntity
  8
0
100
AcDbMText
 62
2
  6
CONTINUOUS
  7
STANDARD
 71
2
 72
1
 10
2.05
 20
0.95
 30
0.0
 11
1.0
 21
0.0
 31
0.0
 44
0.9
  1
WGJ
 40
0.125
 41
0.6
  0
MTEXT
  5
248
100
AcDbEntity
  8
0
100
AcDbMText
 62
2
  6
CONTINUOUS
  7
STANDARD
 71
1
 72
1
 10
0.05
 20
1.1875
 30
0.0
 11
1.0
 21
0.0
 31
0.0
 44
0.9
  1
MODEL
 40
0.06
 41
0.48
  0
ENDBLK
  5
249
100
AcDbEntity
  8
0
  6
BYBLOCK
 62
0
100
AcDbBlockEnd
  0
BLOCK
  5
24A
100
AcDbEntity
  8
0
100
AcDbBlockBegin
  2
*T2
 70
1
 10
0.0
 20
0.0
  3
*T2
  1

  0
LINE
  5
24B
100
AcDbEntity
  8
0
100
AcDbLine
 62
2
  6
CONTINUOUS
 10
0.0
 20
0.0
 11
9.055
 21
0.0
  0
LINE
  5
24C
100
AcDbEntity
  8
0
100
AcDbLine
 62
2
  6
CONTINUOUS
 10
0.0
 20
0.0
 11
0.0
 21
-2.094
  0
LINE
  5
24D
100
AcDbEntity
  8
0
100
AcDbLine
 62
2
  6
CONTINUOUS
 10
0.0
 20
-0.344
 11
9.055
 21
-0.344
  0
LINE
  5
24E
100
AcDbEntity
  8
0
100
AcDbLine
 62
2
  6
CONTINUOUS
 10
0.0
 20
-0.594
 11
9.055
 21
-0.594
  0
LINE
  5
24F
100
AcDbEntity
  8
0
100
AcDbLine
 62
2
  6
CONTINUOUS
 10
0.0
 20
-0.844
 11
9.055
 21
-0.844
  0
LINE
  5
250
100
AcDbEntity
  8
0
100
AcDbLine
 62
2
  6
CONTINUOUS
 10
0.0
 20
-1.094
 11
9.055
 21
-1.094
  0
LINE
  5
251
100
AcDbEntity
  8
0
100
AcDbLine
 62
2
  6
CONTINUOUS
 10
0.0
 20
-1.344
 11
9.055
 21
-1.344
  0
LINE
  5
252
100
AcDbEntity
  8
0
100
AcDbLine
 62
2
  6
CONTINUOUS
 10
0.0
 20
-1.594
 11
9.055
 21
-1.594
  0
LINE
  5
253
100
AcDbEntity
  8
0
100
AcDbLine
 62
2
  6
CONTINUOUS
 10
0.0
 20
-1.844
 11
9.055
 21
-1.844
  0
LINE
  5
254
100
AcDbEntity
  8
0
100
AcDbLine
 62
2
  6
CONTINUOUS
 10
0.0
 20
-2.094
 11
9.055
 21
-2.094
  0
LINE
  5
255
100
AcDbEntity
  8
0
100
AcDbLine
 62
2
  6
CONTINUOUS
 10
3.055
 20
0.0
 11
3.055
 21
-2.094
  0
LINE
  5
256
100
AcDbEntity
  8
0
100
AcDbLine
 62
2
  6
CONTINUOUS
 10
9.055
 20
0.0
 11
9.055
 21
-2.094
  0
MTEXT
  5
257
100
AcDbEntity
  8
0
100
AcDbMText
 62
2
  6
CONTINUOUS
  7
STANDARD
 71
2
 72
1
 10
1.5275
 20
-0.0995
 30
0.0
 11
1.0
 21
0.0
 31
0.0
 44
0.9
  1
Technical Data
 40
0.145
 41
3.248
  0
MTEXT
  5
258
100
AcDbEntity
  8
0
100
AcDbMText
 62
2
  6
CONTINUOUS
  7
STANDARD
 71
2
 72
1
 10
4.555
 20
-0.0995
 30
0.0
 11
1.0
 21
0.0
 31
0.0
 44
0.9
  1
U.S. Units
 40
0.145
 41
2.32
  0
MTEXT
  5
259
100
AcDbEntity
  8
0
100
AcDbMText
 62
2
  6
CONTINUOUS
  7
STANDARD
 71
2
 72
1
 10
7.555
 20
-0.0995
 30
0.0
 11
1.0
 21
0.0
 31
0.0
 44
0.9
  1
Metric Units
 40
0.145
 41
2.784
  0
MTEXT
  5
25A
100
AcDbEntity
  8
0
100
AcDbMText
 62
2
  6
CONTINUOUS
  7
STANDARD
 71
2
 72
1
 10
1.5275
 20
-0.4065
 30
0.0
 11
1.0
 21
0.0
 31
0.0
 44
0.9
  1
Cavity
 40
0.125
 41
1.2
  0
MTEXT
  5
25B
100
AcDbEntity
  8
0
100
AcDbMText
 62
2
  6
CONTINUOUS
  7
STANDARD
 71
2
 72
1
 10
6.055
 20
-0.4065
 30
0.0
 11
1.0
 21
0.0
 31
0.0
 44
0.9
  1
T-2A
 40
0.125
 41
0.8
  0
MTEXT
  5
25C
100
AcDbEntity
  8
0
100
AcDbMText
 62
2
  6
CONTINUOUS
  7
STANDARD
 71
2
 72
1
 10
1.5275
 20
-0.6565
 30
0.0
 11
1.0
 21
0.0
 31
0.0
 44
0.9
  1
Body Features
 40
0.125
 41
2.6
  0
MTEXT
  5
25D
100
AcDbEntity
  8
0
100
AcDbMText
 62
2
  6
CONTINUOUS
  7
STANDARD
 71
2
 72
1
 10
6.055
 20
-0.6565
 30
0.0
 11
1.0
 21
0.0
 31
0.0
 44
0.9
  1
On P, port 3 to T
 40
0.125
 41
3.4
  0
MTEXT
  5
25E
100
AcDbEntity
  8
0
100
AcDbMText
 62
2
  6
CONTINUOUS
  7
STANDARD
 71
2
 72
1
 10
1.5275
 20
-0.9065
 30
0.0
 11
1.0
 21
0.0
 31
0.0
 44
0.9
  1
Body Type
 40
0.125
 41
1.8
  0
MTEXT
  5
25F
100
AcDbEntity
  8
0
100
AcDbMText
 62
2
  6
CONTINUOUS
  7
STANDARD
 71
2
 72
1
 10
6.055
 20
-0.9065
 30
0.0
 11
1.0
 21
0.0
 31
0.0
 44
0.9
  1
Sandwich
 40
0.125
 41
1.6
  0
MTEXT
  5
260
100
AcDbEntity
  8
0
100
AcDbMText
 62
2
  6
CONTINUOUS
  7
STANDARD
 71
2
 72
1
 10
1.5275
 20
-1.1565
 30
0.0
 11
1.0
 21
0.0
 31
0.0
 44
0.9
  1
Interface
 40
0.125
 41
1.8
  0
MTEXT
  5
261
100
AcDbEntity
  8
0
100
AcDbMText
 62
2
  6
CONTINUOUS
  7
STANDARD
 71
2
 72
1
 10
6.055
 20
-1.1565
 30
0.0
 11
1.0
 21
0.0
 31
0.0
 44
0.9
  1
ISO 05
 40
0.125
 41
1.2
  0
MTEXT
  5
262
100
AcDbEntity
  8
0
100
AcDbMText
 62
2
  6
CONTINUOUS
  7
STANDARD
 71
2
 72
1
 10
1.5275
 20
-1.4065
 30
0.0
 11
1.0
 21
0.0
 31
0.0
 44
0.9
  1
Open Cavity Quantity
 40
0.125
 41
4.0
  0
MTEXT
  5
263
100
AcDbEntity
  8
0
100
AcDbMText
 62
2
  6
CONTINUOUS
  7
STANDARD
 71
2
 72
1
 10
6.055
 20
-1.4065
 30
0.0
 11
1.0
 21
0.0
 31
0.0
 44
0.9
  1
1
 40
0.125
 41
0.2
  0
MTEXT
  5
264
100
AcDbEntity
  8
0
100
AcDbMText
 62
2
  6
CONTINUOUS
  7
STANDARD
 71
2
 72
1
 10
1.5275
 20
-1.6565
 30
0.0
 11
1.0
 21
0.0
 31
0.0
 44
0.9
  1
Stack Height
 40
0.125
 41
2.4
  0
MTEXT
  5
265
100
AcDbEntity
  8
0
100
AcDbMText
 62
2
  6
CONTINUOUS
  7
STANDARD
 71
2
 72
1
 10
4.555
 20
-1.6565
 30
0.0
 11
1.0
 21
0.0
 31
0.0
 44
0.9
  1
2.44 in.
 40
0.125
 41
1.6
  0
MTEXT
  5
266
100
AcDbEntity
  8
0
100
AcDbMText
 62
2
  6
CONTINUOUS
  7
STANDARD
 71
2
 72
1
 10
7.555
 20
-1.6565
 30
0.0
 11
1.0
 21
0.0
 31
0.0
 44
0.9
  1
62 mm
 40
0.125
 41
1.0
  0
MTEXT
  5
267
100
AcDbEntity
  8
0
100
AcDbMText
 62
2
  6
CONTINUOUS
  7
STANDARD
 71
2
 72
1
 10
1.5275
 20
-1.9065
 30
0.0
 11
1.0
 21
0.0
 31
0.0
 44
0.9
  1
Weight
 40
0.125
 41
1.2
  0
MTEXT
  5
268
100
AcDbEntity
  8
0
100
AcDbMText
 62
2
  6
CONTINUOUS
  7
STANDARD
 71
2
 72
1
 10
4.555
 20
-1.9065
 30
0.0
 11
1.0
 21
0.0
 31
0.0
 44
0.9
  1
1.592 lb.
 40
0.125
 41
1.8
  0
MTEXT
  5
269
100
AcDbEntity
  8
0
100
AcDbMText
 62
2
  6
CONTINUOUS
  7
STANDARD
 71
2
 72
1
 10
7.555
 20
-1.9065
 30
0.0
 11
1.0
 21
0.0
 31
0.0
 44
0.9
  1
0,722 kg.
 40
0.125
 41
1.8
  0
ENDBLK
  5
26A
100
AcDbEntity
  8
0
  6
BYBLOCK
 62
0
100
AcDbBlockEnd
  0
BLOCK
  5
26B
100
AcDbEntity
  8
0
100
AcDbBlockBegin
  2
*T3
 70
1
 10
0.0
 20
0.0
  3
*T3
  1

  0
LINE
  5
26C
100
AcDbEntity
  8
0
100
AcDbLine
 62
2
  6
CONTINUOUS
 10
0.0
 20
0.0
 11
4.6
 21
0.0
  0
LINE
  5
26D
100
AcDbEntity
  8
0
100
AcDbLine
 62
2
  6
CONTINUOUS
 10
0.0
 20
0.0
 11
0.0
 21
-0.93775
  0
LINE
  5
26E
100
AcDbEntity
  8
0
100
AcDbLine
 62
2
  6
CONTINUOUS
 10
0.0
 20
-0.34375
 11
4.6
 21
-0.34375
  0
LINE
  5
26F
100
AcDbEntity
  8
0
100
AcDbLine
 62
2
  6
CONTINUOUS
 10
0.0
 20
-0.68775
 11
4.6
 21
-0.68775
  0
LINE
  5
270
100
AcDbEntity
  8
0
100
AcDbLine
 62
2
  6
CONTINUOUS
 10
0.0
 20
-0.93775
 11
4.6
 21
-0.93775
  0
LINE
  5
271
100
AcDbEntity
  8
0
100
AcDbLine
 62
2
  6
CONTINUOUS
 10
1.3
 20
-0.34375
 11
1.3
 21
-0.93775
  0
LINE
  5
272
100
AcDbEntity
  8
0
100
AcDbLine
 62
2
  6
CONTINUOUS
 10
3.3
 20
-0.34375
 11
3.3
 21
-0.93775
  0
LINE
  5
273
100
AcDbEntity
  8
0
100
AcDbLine
 62
2
  6
CONTINUOUS
 10
4.6
 20
0.0
 11
4.6
 21
-0.93775
  0
MTEXT
  5
274
100
AcDbEntity
  8
0
100
AcDbMText
 62
2
  6
CONTINUOUS
  7
STANDARD
 71
2
 72
1
 10
2.3
 20
-0.099375
 30
0.0
 11
1.0
 21
0.0
 31
0.0
 44
0.9
  1
Port Headings
 40
0.145
 41
3.016
  0
MTEXT
  5
275
100
AcDbEntity
  8
0
100
AcDbMText
 62
2
  6
CONTINUOUS
  7
STANDARD
 71
2
 72
1
 10
0.65
 20
-0.44325
 30
0.0
 11
1.0
 21
0.0
 31
0.0
 44
0.9
  1
Product
 40
0.145
 41
1.624
  0
MTEXT
  5
276
100
AcDbEntity
  8
0
100
AcDbMText
 62
2
  6
CONTINUOUS
  7
STANDARD
 71
2
 72
1
 10
2.3
 20
-0.44325
 30
0.0
 11
1.0
 21
0.0
 31
0.0
 44
0.9
  1
Port
 40
0.145
 41
0.928
  0
MTEXT
  5
277
100
AcDbEntity
  8
0
100
AcDbMText
 62
2
  6
CONTINUOUS
  7
STANDARD
 71
2
 72
1
 10
3.95
 20
-0.44325
 30
0.0
 11
1.0
 21
0.0
 31
0.0
 44
0.9
  1
Size
 40
0.145
 41
0.928
  0
MTEXT
  5
278
100
AcDbEntity
  8
0
100
AcDbMText
 62
2
  6
CONTINUOUS
  7
STANDARD
 71
2
 72
1
 10
0.65
 20
-0.75025
 30
0.0
 11
1.0
 21
0.0
 31
0.0
 44
0.9
  1
WGJ
 40
0.125
 41
0.6
  0
MTEXT
  5
279
100
AcDbEntity
  8
0
100
AcDbMText
 62
2
  6
CONTINUOUS
  7
STANDARD
 71
2
 72
1
 10
2.3
 20
-0.75025
 30
0.0
 11
1.0
 21
0.0
 31
0.0
 44
0.9
  1
Gage Port (Plugged)
 40
0.125
 41
3.8
  0
MTEXT
  5
27A
100
AcDbEntity
  8
0
100
AcDbMText
 62
2
  6
CONTINUOUS
  7
STANDARD
 71
2
 72
1
 10
3.95
 20
-0.75025
 30
0.0
 11
1.0
 21
0.0
 31
0.0
 44
0.9
  1
SAE 6
 40
0.125
 41
1.0
  0
ENDBLK
  5
27B
100
AcDbEntity
  8
0
  6
BYBLOCK
 62
0
100
AcDbBlockEnd
  0
ENDSEC
  0
SECTION
  2
ENTITIES
  0
IMAGE
  5
27C
100
AcDbEntity
  8
0
100
AcDbRasterImage
 62
7
  6
CONTINUOUS
 10
19.2297077316
 20
0.3094318264
 30
0.0
 11
0.0066666667
 21
0.0
 31
0.0
 12
0.0
 22
0.0066666667
 32
0.0
 13
369.0
 23
92.0
340
       2E1
 70
9
280
0
281
50
282
50
283
0
360
       2DB
 71
1
 91
2
 14
-0.5
 24
-0.5
 14
368.5
 24
91.5
  0
INSERT
  5
27D
100
AcDbEntity
  8
0
100
AcDbBlockReference
 62
2
  6
CONTINUOUS
  2
SUN_FIRST_THIRD_ANGLE_BL0
 10
20.4816717061
 20
1.2289683772
  0
ACAD_TABLE
  5
27E
100
AcDbEntity
  8
0
 62
2
  6
CONTINUOUS
100
AcDbBlockReference
  2
*T1
 10
12.42375
 20
0.30125
 30
0.0
100
AcDbTable
342
       2E3
343
20A
 11
1.0
 21
0.0
 31
0.0
 90
6
 91
4
 92
6
 93
20
 94
0
 95
0
 96
0
 70
1
 41
0.0
141
0.525
141
0.1
141
0.525
141
0.1
142
4.1
142
1.1
142
0.7
142
0.5
142
0.4
142
2.475
171
1
172
0
173
0
174
0
175
1
176
1
 91
33
178
0
145
0.0
301
CELL_VALUE
 90
4
  1
T-2A Sandwich ISO 05\POn P, port 3 to T
304
ACVALUE_END
170
2
140
0.125
171
1
172
0
173
0
174
0
175
1
176
1
 91
33
178
0
145
0.0
301
CELL_VALUE
 90
4
  1
Oct-23-19
304
ACVALUE_END
170
5
140
0.125
171
1
172
0
173
0
174
0
175
1
176
1
 91
33
178
0
145
0.0
301
CELL_VALUE
 90
4
  1
1.000
304
ACVALUE_END
170
5
140
0.125
171
1
172
0
173
0
174
0
175
1
176
1
 91
33
178
0
145
0.0
301
CELL_VALUE
 90
4
  1
C
304
ACVALUE_END
170
5
140
0.125
171
1
172
0
173
0
174
0
175
1
176
1
 91
33
178
0
145
0.0
301
CELL_VALUE
 90
4
  1
2
304
ACVALUE_END
170
5
140
0.125
171
1
172
0
173
0
174
0
175
1
176
1
 91
33
178
0
145
0.0
301
CELL_VALUE
 90
4
  1
 
304
ACVALUE_END
170
1
140
0.125
171
1
172
0
173
0
174
0
175
1
176
1
 91
33
178
0
145
0.0
301
CELL_VALUE
 90
4
  1
DESCRIPTION
304
ACVALUE_END
170
1
140
0.06
171
1
172
0
173
0
174
0
175
1
176
1
 91
33
178
0
145
0.0
301
CELL_VALUE
 90
4
  1
DATE
304
ACVALUE_END
170
1
140
0.06
171
1
172
0
173
0
174
0
175
1
176
1
 91
33
178
0
145
0.0
301
CELL_VALUE
 90
4
  1
SCALE
304
ACVALUE_END
170
1
140
0.06
171
1
172
0
173
0
174
0
175
1
176
1
 91
33
178
0
145
0.0
301
CELL_VALUE
 90
4
  1
DWG SIZE
304
ACVALUE_END
170
1
140
0.06
171
1
172
0
173
0
174
0
175
1
176
1
 91
33
178
0
145
0.0
301
CELL_VALUE
 90
4
  1
SHEET
304
ACVALUE_END
170
1
140
0.06
171
1
172
0
173
0
174
0
175
1
176
1
 91
33
178
0
145
0.0
301
CELL_VALUE
 90
4
  1
 
304
ACVALUE_END
170
1
140
0.125
171
1
172
0
173
0
174
0
175
1
176
1
 91
33
178
0
145
0.0
301
CELL_VALUE
 90
4
  1
WGJ
304
ACVALUE_END
170
5
140
0.125
171
1
172
0
173
0
174
0
175
4
176
1
 91
33
178
0
145
0.0
301
CELL_VALUE
 90
4
  1
ALL DIMENSIONS IN INCH\PVIEWS ARE THIRD ANGLE
304
ACVALUE_END
170
5
140
0.12
171
1
172
0
173
1
174
0
175
1
176
1
 91
1
178
0
145
0.0
170
1
171
1
172
0
173
1
174
0
175
1
176
1
 91
1
178
0
145
0.0
170
1
171
1
172
0
173
1
174
0
175
1
176
1
 91
1
178
0
145
0.0
170
5
171
1
172
0
173
0
174
0
175
1
176
1
 91
33
178
0
145
0.0
301
CELL_VALUE
 90
4
  1
 
304
ACVALUE_END
170
1
140
0.125
171
1
172
0
173
0
174
0
175
1
176
1
 91
33
178
0
145
0.0
301
CELL_VALUE
 90
4
  1
MODEL
304
ACVALUE_END
170
1
140
0.06
171
1
172
0
173
0
174
0
175
1
176
1
 91
33
178
0
145
0.0
301
CELL_VALUE
 90
4
  1
 
304
ACVALUE_END
170
1
140
0.125
171
1
172
0
173
0
174
0
175
1
176
1
 91
33
178
0
145
0.0
301
CELL_VALUE
 90
4
  1
 
304
ACVALUE_END
170
1
140
0.125
171
1
172
0
173
0
174
0
175
1
176
1
 91
33
178
0
145
0.0
301
CELL_VALUE
 90
4
  1
 
304
ACVALUE_END
170
1
140
0.125
171
1
172
0
173
0
174
0
175
1
176
1
 91
33
178
0
145
0.0
301
CELL_VALUE
 90
4
  1
 
304
ACVALUE_END
170
1
140
0.125
171
1
172
0
173
0
174
0
175
1
176
1
 91
33
178
0
145
0.0
301
CELL_VALUE
 90
4
  1
 
304
ACVALUE_END
170
1
140
0.125
  0
ACAD_TABLE
  5
27F
100
AcDbEntity
  8
0
 62
2
  6
CONTINUOUS
100
AcDbBlockReference
  2
*T2
 10
12.4237499994
 20
16.47875
 30
0.0
100
AcDbTable
342
       2E2
343
20B
 11
1.0
 21
0.0
 31
0.0
 90
22
 91
8
 92
3
 93
16
 94
0
 95
0
 96
0
 41
0.028
141
0.344
141
0.25
141
0.25
141
0.25
141
0.25
141
0.25
141
0.25
141
0.25
142
3.055
142
3.0
142
3.0
171
1
172
0
173
0
174
0
175
1
176
1
 91
33
178
0
145
0.0
301
CELL_VALUE
 90
4
  1
Technical Data
304
ACVALUE_END
170
5
140
0.145
171
1
172
0
173
0
174
0
175
1
176
1
 91
33
178
0
145
0.0
301
CELL_VALUE
 90
4
  1
U.S. Units
304
ACVALUE_END
170
5
140
0.145
171
1
172
0
173
0
174
0
175
1
176
1
 91
33
178
0
145
0.0
301
CELL_VALUE
 90
4
  1
Metric Units
304
ACVALUE_END
170
5
140
0.145
171
1
172
0
173
0
174
0
175
1
176
1
 91
33
178
0
145
0.0
301
CELL_VALUE
 90
4
  1
Cavity
304
ACVALUE_END
170
5
140
0.125
171
1
172
0
173
0
174
0
175
2
176
1
 91
33
178
0
145
0.0
301
CELL_VALUE
 90
4
  1
T-2A
304
ACVALUE_END
170
5
140
0.125
171
1
172
0
173
1
174
0
175
1
176
1
 91
1
178
0
145
0.0
170
1
171
1
172
0
173
0
174
0
175
1
176
1
 91
33
178
0
145
0.0
301
CELL_VALUE
 90
4
  1
Body Features
304
ACVALUE_END
170
5
140
0.125
171
1
172
0
173
0
174
0
175
2
176
1
 91
33
178
0
145
0.0
301
CELL_VALUE
 90
4
  1
On P, port 3 to T
304
ACVALUE_END
170
5
140
0.125
171
1
172
0
173
1
174
0
175
1
176
1
 91
1
178
0
145
0.0
170
1
171
1
172
0
173
0
174
0
175
1
176
1
 91
33
178
0
145
0.0
301
CELL_VALUE
 90
4
  1
Body Type
304
ACVALUE_END
170
5
140
0.125
171
1
172
0
173
0
174
0
175
2
176
1
 91
33
178
0
145
0.0
301
CELL_VALUE
 90
4
  1
Sandwich
304
ACVALUE_END
170
5
140
0.125
171
1
172
0
173
1
174
0
175
1
176
1
 91
1
178
0
145
0.0
170
1
171
1
172
0
173
0
174
0
175
1
176
1
 91
33
178
0
145
0.0
301
CELL_VALUE
 90
4
  1
Interface
304
ACVALUE_END
170
5
140
0.125
171
1
172
0
173
0
174
0
175
2
176
1
 91
33
178
0
145
0.0
301
CELL_VALUE
 90
4
  1
ISO 05
304
ACVALUE_END
170
5
140
0.125
171
1
172
0
173
1
174
0
175
1
176
1
 91
1
178
0
145
0.0
170
1
171
1
172
0
173
0
174
0
175
1
176
1
 91
33
178
0
145
0.0
301
CELL_VALUE
 90
4
  1
Open Cavity Quantity
304
ACVALUE_END
170
5
140
0.125
171
1
172
0
173
0
174
0
175
2
176
1
 91
33
178
0
145
0.0
301
CELL_VALUE
 90
4
  1
1
304
ACVALUE_END
170
5
140
0.125
171
1
172
0
173
1
174
0
175
1
176
1
 91
1
178
0
145
0.0
170
1
171
1
172
0
173
0
174
0
175
1
176
1
 91
33
178
0
145
0.0
301
CELL_VALUE
 90
4
  1
Stack Height
304
ACVALUE_END
170
5
140
0.125
171
1
172
0
173
0
174
0
175
1
176
1
 91
33
178
0
145
0.0
301
CELL_VALUE
 90
4
  1
2.44 in.
304
ACVALUE_END
170
5
140
0.125
171
1
172
0
173
0
174
0
175
1
176
1
 91
33
178
0
145
0.0
301
CELL_VALUE
 90
4
  1
62 mm
304
ACVALUE_END
170
5
140
0.125
171
1
172
0
173
0
174
0
175
1
176
1
 91
33
178
0
145
0.0
301
CELL_VALUE
 90
4
  1
Weight
304
ACVALUE_END
170
5
140
0.125
171
1
172
0
173
0
174
0
175
1
176
1
 91
33
178
0
145
0.0
301
CELL_VALUE
 90
4
  1
1.592 lb.
304
ACVALUE_END
170
5
140
0.125
171
1
172
0
173
0
174
0
175
1
176
1
 91
33
178
0
145
0.0
301
CELL_VALUE
 90
4
  1
0,722 kg.
304
ACVALUE_END
170
5
140
0.125
  0
ACAD_TABLE
  5
280
100
AcDbEntity
  8
0
 62
2
  6
CONTINUOUS
100
AcDbBlockReference
  2
*T3
 10
0.52125
 20
1.459
 30
0.0
100
AcDbTable
342
       2E2
343
20C
 11
1.0
 21
0.0
 31
0.0
 90
22
 91
3
 92
3
 93
16
 94
0
 95
0
 96
0
 41
0.05
141
0.34375
141
0.344
141
0.25
142
1.3
142
2.0
142
1.3
171
1
172
0
173
0
174
0
175
3
176
1
 91
33
178
0
145
0.0
301
CELL_VALUE
 90
4
  1
Port Headings
304
ACVALUE_END
170
5
140
0.145
171
1
172
0
173
1
174
0
175
1
176
1
 91
1
178
0
145
0.0
170
1
171
1
172
0
173
1
174
0
175
1
176
1
 91
1
178
0
145
0.0
170
1
171
1
172
0
173
0
174
0
175
1
176
1
 91
33
178
0
145
0.0
301
CELL_VALUE
 90
4
  1
Product
304
ACVALUE_END
170
5
140
0.145
171
1
172
0
173
0
174
0
175
1
176
1
 91
33
178
0
145
0.0
301
CELL_VALUE
 90
4
  1
Port
304
ACVALUE_END
170
5
140
0.145
171
1
172
0
173
0
174
0
175
1
176
1
 91
33
178
0
145
0.0
301
CELL_VALUE
 90
4
  1
Size
304
ACVALUE_END
170
5
140
0.145
171
1
172
0
173
0
174
0
175
1
176
1
 91
33
178
0
145
0.0
301
CELL_VALUE
 90
4
  1
WGJ
304
ACVALUE_END
170
5
140
0.125
171
1
172
0
173
0
174
0
175
1
176
1
 91
33
178
0
145
0.0
301
CELL_VALUE
 90
4
  1
Gage Port (Plugged)
304
ACVALUE_END
170
5
140
0.125
171
1
172
0
173
0
174
0
175
1
176
1
 91
33
178
0
145
0.0
301
CELL_VALUE
 90
4
  1
SAE 6
304
ACVALUE_END
170
5
140
0.125
  0
MTEXT
  5
281
100
AcDbEntity
  8
0
100
AcDbMText
 62
2
  6
CONTINUOUS
  7
STANDARD
 71
1
 72
1
 10
0.52125
 20
5.75995
 30
0.0
 11
1.0
 21
0.0
 31
0.0
 44
0.6
  3
Notes\P \P1. Important: Carefully consider\P   the maximum system pressure. The\P   pressure rating of the manifold is\P   dependent on the manifold material,\P   with the port type/size a secondary\P   consideration. Manifolds\P   constructed of alu
  1
minum are not\P   rated for pressures higher than\P   3000 psi (210 bar), regardless of\P   the port type/size specified.
 40
0.1
 41
3.04
  0
LINE
  5
282
100
AcDbEntity
  8
0
100
AcDbLine
 62
7
  6
CONTINUOUS
 10
0.30125
 20
0.30125
 11
0.30125
 21
16.69875
  0
LINE
  5
283
100
AcDbEntity
  8
0
100
AcDbLine
 62
7
  6
CONTINUOUS
 10
0.30125
 20
0.30125
 11
21.69875
 21
0.30125
  0
LINE
  5
284
100
AcDbEntity
  8
0
100
AcDbLine
 62
7
  6
CONTINUOUS
 10
0.30125
 20
16.69875
 11
21.69875
 21
16.69875
  0
LINE
  5
285
100
AcDbEntity
  8
0
100
AcDbLine
 62
7
  6
CONTINUOUS
 10
21.69875
 20
0.30125
 11
21.69875
 21
16.69875
  0
LINE
  5
286
100
AcDbEntity
  8
0
100
AcDbLine
 62
7
  6
CONTINUOUS
 10
9.6381780579
 20
9.9612077781
 11
10.0667820429
 21
10.375207461
  0
LINE
  5
287
100
AcDbEntity
  8
0
100
AcDbLine
 62
7
  6
CONTINUOUS
 10
9.6681217603
 20
9.9890748777
 11
10.0967257453
 21
10.4030745606
  0
LINE
  5
288
100
AcDbEntity
  8
0
100
AcDbLine
 62
7
  6
CONTINUOUS
 10
10.0667820429
 20
10.375207461
 11
10.067716833
 21
10.376093604
  0
LINE
  5
289
100
AcDbEntity
  8
0
100
AcDbLine
 62
7
  6
CONTINUOUS
 10
10.0967257453
 20
10.4030745606
 11
10.0975842897
 21
10.4038882779
  0
LINE
  5
28A
100
AcDbEntity
  8
0
100
AcDbLine
 62
7
  6
CONTINUOUS
 10
10.0967183237
 20
10.4030825356
 11
10.0667820429
 21
10.375207461
  0
LINE
  5
28B
100
AcDbEntity
  8
0
100
AcDbLine
 62
7
  6
CONTINUOUS
 10
9.6681217603
 20
9.9890748777
 11
9.6381780579
 21
9.9612077781
  0
LINE
  5
28C
100
AcDbEntity
  8
0
100
AcDbLine
 62
7
  6
CONTINUOUS
 10
9.4770924947
 20
9.5961858837
 11
9.6254002642
 21
9.739440197
  0
LINE
  5
28D
100
AcDbEntity
  8
0
100
AcDbLine
 62
7
  6
CONTINUOUS
 10
11.8919072035
 20
6.5309402355
 11
9.4770924947
 21
6.6984082043
  0
LINE
  5
28E
100
AcDbEntity
  8
0
100
AcDbLine
 62
7
  6
CONTINUOUS
 10
9.4770924947
 20
9.5961858837
 11
9.4770924947
 21
6.6984082043
  0
LINE
  5
28F
100
AcDbEntity
  8
0
100
AcDbLine
 62
7
  6
CONTINUOUS
 10
9.6254002642
 20
9.6646624033
 11
9.6254002642
 21
9.9360875828
  0
LINE
  5
290
100
AcDbEntity
  8
0
100
AcDbLine
 62
7
  6
CONTINUOUS
 10
9.9113665862
 20
9.8800313511
 11
9.9033432024
 21
9.8423376546
  0
LINE
  5
291
100
AcDbEntity
  8
0
100
AcDbLine
 62
7
  6
CONTINUOUS
 10
9.9033432024
 20
9.8423376546
 11
9.9033432024
 21
9.5709124751
  0
LINE
  5
292
100
AcDbEntity
  8
0
100
AcDbLine
 62
7
  6
CONTINUOUS
 10
11.4283212816
 20
10.0952971174
 11
11.4268195187
 21
10.0938736402
  0
LINE
  5
293
100
AcDbEntity
  8
0
100
AcDbLine
 62
7
  6
CONTINUOUS
 10
12.3309123138
 20
10.2481331958
 11
11.9023083289
 21
9.8341335129
  0
LINE
  5
294
100
AcDbEntity
  8
0
100
AcDbLine
 62
7
  6
CONTINUOUS
 10
12.3608560162
 20
10.2161128906
 11
11.9322520313
 21
9.8021132077
  0
LINE
  5
295
100
AcDbEntity
  8
0
100
AcDbLine
 62
7
  6
CONTINUOUS
 10
12.3608560162
 20
9.9446877111
 11
11.9322520313
 21
9.5306880282
  0
LINE
  5
296
100
AcDbEntity
  8
0
100
AcDbLine
 62
7
  6
CONTINUOUS
 10
12.5229075053
 20
10.0382174389
 11
11.8919072035
 21
9.4287179148
  0
LINE
  5
297
100
AcDbEntity
  8
0
100
AcDbLine
 62
7
  6
CONTINUOUS
 10
11.4809961469
 20
9.7711771713
 11
11.4729727631
 21
9.7334834749
  0
LINE
  5
298
100
AcDbEntity
  8
0
100
AcDbLine
 62
7
  6
CONTINUOUS
 10
11.4729727631
 20
9.7334834749
 11
11.4729727631
 21
9.4620582954
  0
LINE
  5
299
100
AcDbEntity
  8
0
100
AcDbLine
 62
7
  6
CONTINUOUS
 10
11.8919072035
 20
9.4287179148
 11
11.8919072035
 21
6.5309402355
  0
LINE
  5
29A
100
AcDbEntity
  8
0
100
AcDbLine
 62
7
  6
CONTINUOUS
 10
11.9322520313
 20
9.8021132077
 11
11.9322520313
 21
9.5306880282
  0
LINE
  5
29B
100
AcDbEntity
  8
0
100
AcDbLine
 62
7
  6
CONTINUOUS
 10
11.8919072035
 20
9.4287179148
 11
9.4770924947
 21
9.5961858837
  0
LINE
  5
29C
100
AcDbEntity
  8
0
100
AcDbLine
 62
7
  6
CONTINUOUS
 10
11.4729727631
 20
9.4620582954
 11
9.9033432024
 21
9.5709124751
  0
LINE
  5
29D
100
AcDbEntity
  8
0
100
AcDbLine
 62
7
  6
CONTINUOUS
 10
11.4729727631
 20
9.7334834749
 11
9.9033432024
 21
9.8423376546
  0
LINE
  5
29E
100
AcDbEntity
  8
0
100
AcDbLine
 62
7
  6
CONTINUOUS
 10
11.4809961469
 20
9.7711771713
 11
9.9113665862
 21
9.8800313511
  0
LINE
  5
29F
100
AcDbEntity
  8
0
100
AcDbLine
 62
7
  6
CONTINUOUS
 10
12.3608560162
 20
10.2161128906
 11
12.3608560162
 21
9.9446877111
  0
LINE
  5
2A0
100
AcDbEntity
  8
0
100
AcDbLine
 62
7
  6
CONTINUOUS
 10
12.3736338099
 20
9.9698079064
 11
12.3736338099
 21
10.2412330859
  0
LINE
  5
2A1
100
AcDbEntity
  8
0
100
AcDbLine
 62
7
  6
CONTINUOUS
 10
12.5229075053
 20
10.0382174389
 11
12.5229075053
 21
7.1404397595
  0
LINE
  5
2A2
100
AcDbEntity
  8
0
100
AcDbLine
 62
7
  6
CONTINUOUS
 10
12.3736338099
 20
10.0485696048
 11
12.5229075053
 21
10.0382174389
  0
LINE
  5
2A3
100
AcDbEntity
  8
0
100
AcDbLine
 62
7
  6
CONTINUOUS
 10
11.9023083289
 20
9.8341335129
 11
11.9322520313
 21
9.8021132077
  0
LINE
  5
2A4
100
AcDbEntity
  8
0
100
AcDbLine
 62
7
  6
CONTINUOUS
 10
10.5180379272
 20
10.4660309022
 11
12.0876674879
 21
10.3571767224
  0
LINE
  5
2A5
100
AcDbEntity
  8
0
100
AcDbLine
 62
7
  6
CONTINUOUS
 10
12.5229075053
 20
7.1404397595
 11
11.8919072035
 21
6.5309402355
  0
LINE
  5
2A6
100
AcDbEntity
  8
0
100
AcDbLine
 62
7
  6
CONTINUOUS
 10
12.3309123138
 20
10.2481331958
 11
12.3608560162
 21
10.2161128906
  0
LINE
  5
2A7
100
AcDbEntity
  8
0
100
AcDbLine
 62
7
  6
CONTINUOUS
 10
12.3599212261
 20
10.2672394242
 11
12.3300547997
 21
10.2950332693
  0
SPLINE
  5
2A8
100
AcDbEntity
  8
0
100
AcDbSpline
 62
7
  6
CONTINUOUS
 70
0
 71
3
 72
56
 73
52
 74
0
 42
0.0000001
 43
0.0000001
 44
0.0000000001
 40
0.0
 40
0.0
 40
0.0
 40
0.0
 40
0.031072346
 40
0.0465152317
 40
0.0618873124
 40
0.0924244558
 40
0.1227285839
 40
0.1378086476
 40
0.152843805
 40
0.1678401144
 40
0.1828038429
 40
0.2126503375
 40
0.2275575076
 40
0.2424602021
 40
0.2573657768
 40
0.2722815596
 40
0.2872148075
 40
0.3021724288
 40
0.3171611944
 40
0.3321875086
 40
0.3472571497
 40
0.3623756664
 40
0.3927682644
 40
0.4234071833
 40
0.4388308412
 40
0.4543232404
 40
0.485507794
 40
0.5169699549
 40
0.5328065592
 40
0.5487076996
 40
0.5806824155
 40
0.6128739827
 40
0.6290441713
 40
0.6452543848
 40
0.6777639099
 40
0.7103643313
 40
0.7266873147
 40
0.7430142246
 40
0.7756456102
 40
0.791945892
 40
0.80822475
 40
0.8244760382
 40
0.8406940716
 40
0.8568734333
 40
0.8730088969
 40
0.8890954876
 40
0.905128265
 40
0.9370074718
 40
0.9528594107
 40
0.9686481654
 40
1.0
 40
1.0
 40
1.0
 40
1.0
 10
10.3005603361
 20
8.0915134306
 30
0.0
 10
10.3005602014
 20
8.0834998001
 30
0.0
 10
10.2999720853
 20
8.0714920598
 30
0.0
 10
10.2980026102
 20
8.055648277
 30
0.0
 10
10.2952638125
 20
8.0400581262
 30
0.0
 10
10.2904024883
 20
8.0209763299
 30
0.0
 10
10.2836413684
 20
8.0025609231
 30
0.0
 10
10.2771496146
 20
7.9883888023
 30
0.0
 10
10.2717582188
 20
7.9780729435
 30
0.0
 10
10.2658513984
 20
7.9680779165
 30
0.0
 10
10.2573163022
 20
7.955224013
 30
0.0
 10
10.2477916246
 20
7.9430776825
 30
0.0
 10
10.2373658007
 20
7.9317559375
 30
0.0
 10
10.2291125737
 20
7.9236931751
 30
0.0
 10
10.2204442288
 20
7.9160757983
 30
0.0
 10
10.2113795761
 20
7.908921662
 30
0.0
 10
10.2019394164
 20
7.902247702
 30
0.0
 10
10.1921459183
 20
7.8960686283
 30
0.0
 10
10.1820208166
 20
7.890400062
 30
0.0
 10
10.1715874823
 20
7.8852557126
 30
0.0
 10
10.1608699895
 20
7.8806470609
 30
0.0
 10
10.1462108712
 20
7.8752248977
 30
0.0
 10
10.1272842735
 20
7.8698459387
 30
0.0
 10
10.1078323467
 20
7.8664073394
 30
0.0
 10
10.0920305818
 20
7.8648239569
 30
0.0
 10
10.0760288244
 20
7.8640239633
 30
0.0
 10
10.0558478894
 20
7.8645170705
 30
0.0
 10
10.0357244001
 20
7.8669875526
 30
0.0
 10
10.0197257728
 20
7.8701324558
 30
0.0
 10
10.0037675044
 20
7.8740709849
 30
0.0
 10
9.9840917006
 20
7.8804444182
 30
0.0
 10
9.965037641
 20
7.8886627327
 30
0.0
 10
9.950236358
 20
7.8963063901
 30
0.0
 10
9.9357337965
 20
7.9046682152
 30
0.0
 10
9.9183053266
 20
7.916390825
 30
0.0
 10
9.9020010657
 20
7.9296779583
 30
0.0
 10
9.8897091712
 20
7.9411789992
 30
0.0
 10
9.8779500261
 20
7.9532344842
 30
0.0
 10
9.8670301528
 20
7.966078133
 30
0.0
 10
9.8570385235
 20
7.9796117645
 30
0.0
 10
9.8500267523
 20
7.9900783318
 30
0.0
 10
9.8435141683
 20
8.0008374222
 30
0.0
 10
9.8375162887
 20
8.0118626079
 30
0.0
 10
9.8320465187
 20
8.0231259436
 30
0.0
 10
9.8271192012
 20
8.03459998
 30
0.0
 10
9.8227455476
 20
8.046256331
 30
0.0
 10
9.8176749039
 20
8.0619682606
 30
0.0
 10
9.8137345713
 20
8.0779643537
 30
0.0
 10
9.8109652225
 20
8.0941159072
 30
0.0
 10
9.8089928152
 20
8.110246164
 30
0.0
 10
9.8083916446
 20
8.1224142364
 30
0.0
 10
9.8083914973
 20
8.1304999476
 30
0.0
  0
SPLINE
  5
2A9
100
AcDbEntity
  8
0
100
AcDbSpline
 62
7
  6
CONTINUOUS
 70
0
 71
3
 72
56
 73
52
 74
0
 42
0.0000001
 43
0.0000001
 44
0.0000000001
 40
0.0
 40
0.0
 40
0.0
 40
0.0
 40
0.0310723444
 40
0.0465152282
 40
0.0618873079
 40
0.0924244521
 40
0.1227285817
 40
0.1378086463
 40
0.1528438045
 40
0.1678401149
 40
0.1828038444
 40
0.2126503405
 40
0.227557511
 40
0.2424602055
 40
0.2573657799
 40
0.272281562
 40
0.2872148089
 40
0.3021724291
 40
0.3171611937
 40
0.3321875071
 40
0.3472571476
 40
0.362375664
 40
0.3927682619
 40
0.4234071812
 40
0.4388308394
 40
0.454323239
 40
0.4855077933
 40
0.5169699546
 40
0.532806559
 40
0.5487076994
 40
0.5806824153
 40
0.6128739824
 40
0.6290441709
 40
0.6452543843
 40
0.6777639093
 40
0.7103643307
 40
0.7266873141
 40
0.7430142241
 40
0.7756456098
 40
0.7919458916
 40
0.8082247496
 40
0.8244760379
 40
0.8406940714
 40
0.8568734332
 40
0.8730088968
 40
0.8890954876
 40
0.905128265
 40
0.9370074719
 40
0.9528594107
 40
0.9686481654
 40
1.0
 40
1.0
 40
1.0
 40
1.0
 10
9.8083914952
 20
8.130499847
 30
0.0
 10
9.8083916298
 20
8.1385134771
 30
0.0
 10
9.8089797455
 20
8.1505212164
 30
0.0
 10
9.8109492207
 20
8.1663649981
 30
0.0
 10
9.8136880182
 20
8.1819551483
 30
0.0
 10
9.8185493422
 20
8.2010369451
 30
0.0
 10
9.8253104622
 20
8.2194523527
 30
0.0
 10
9.8318022162
 20
8.2336244744
 30
0.0
 10
9.8371936124
 20
8.2439403338
 30
0.0
 10
9.8431004332
 20
8.2539353613
 30
0.0
 10
9.8516355298
 20
8.2667892656
 30
0.0
 10
9.8611602081
 20
8.2789355965
 30
0.0
 10
9.8715860323
 20
8.2902573419
 30
0.0
 10
9.8798392595
 20
8.2983201041
 30
0.0
 10
9.8885076043
 20
8.3059374807
 30
0.0
 10
9.8975722566
 20
8.3130916167
 30
0.0
 10
9.9070124158
 20
8.3197655762
 30
0.0
 10
9.9168059132
 20
8.3259446494
 30
0.0
 10
9.9269310143
 20
8.3316132152
 30
0.0
 10
9.937364348
 20
8.3367575645
 30
0.0
 10
9.9480818403
 20
8.3413662161
 30
0.0
 10
9.9627409585
 20
8.3467883791
 30
0.0
 10
9.981667556
 20
8.3521673385
 30
0.0
 10
10.001119483
 20
8.3556059379
 30
0.0
 10
10.0169212482
 20
8.3571893205
 30
0.0
 10
10.0329230059
 20
8.3579893141
 30
0.0
 10
10.0531039413
 20
8.3574962071
 30
0.0
 10
10.0732274309
 20
8.355025725
 30
0.0
 10
10.0892260583
 20
8.3518808217
 30
0.0
 10
10.1051843268
 20
8.3479422926
 30
0.0
 10
10.1248601306
 20
8.3415688593
 30
0.0
 10
10.1439141901
 20
8.3333505449
 30
0.0
 10
10.158715473
 20
8.3257068875
 30
0.0
 10
10.1732180344
 20
8.3173450625
 30
0.0
 10
10.1906465044
 20
8.3056224528
 30
0.0
 10
10.2069507653
 20
8.2923353195
 30
0.0
 10
10.2192426598
 20
8.2808342786
 30
0.0
 10
10.2310018049
 20
8.2687787936
 30
0.0
 10
10.2419216783
 20
8.2559351448
 30
0.0
 10
10.2519133076
 20
8.2424015133
 30
0.0
 10
10.2589250788
 20
8.2319349459
 30
0.0
 10
10.2654376628
 20
8.2211758554
 30
0.0
 10
10.2714355425
 20
8.2101506697
 30
0.0
 10
10.2769053125
 20
8.1988873339
 30
0.0
 10
10.2818326301
 20
8.1874132976
 30
0.0
 10
10.2862062837
 20
8.1757569465
 30
0.0
 10
10.2912769274
 20
8.1600450168
 30
0.0
 10
10.2952172599
 20
8.1440489238
 30
0.0
 10
10.2979866088
 20
8.1278973703
 30
0.0
 10
10.2999590161
 20
8.1117671135
 30
0.0
 10
10.3005601866
 20
8.0995990411
 30
0.0
 10
10.300560334
 20
8.0915133298
 30
0.0
  0
SPLINE
  5
2AA
100
AcDbEntity
  8
0
100
AcDbSpline
 62
7
  6
CONTINUOUS
 70
0
 71
3
 72
56
 73
52
 74
0
 42
0.0000001
 43
0.0000001
 44
0.0000000001
 40
0.0
 40
0.0
 40
0.0
 40
0.0
 40
0.031072346
 40
0.0465152317
 40
0.0618873124
 40
0.0924244558
 40
0.1227285839
 40
0.1378086476
 40
0.152843805
 40
0.1678401144
 40
0.1828038429
 40
0.2126503375
 40
0.2275575076
 40
0.2424602021
 40
0.2573657768
 40
0.2722815596
 40
0.2872148075
 40
0.3021724288
 40
0.3171611944
 40
0.3321875086
 40
0.3472571497
 40
0.3623756664
 40
0.3927682644
 40
0.4234071833
 40
0.4388308412
 40
0.4543232404
 40
0.485507794
 40
0.5169699549
 40
0.5328065592
 40
0.5487076996
 40
0.5806824155
 40
0.6128739827
 40
0.6290441713
 40
0.6452543848
 40
0.6777639099
 40
0.7103643313
 40
0.7266873147
 40
0.7430142246
 40
0.7756456102
 40
0.791945892
 40
0.80822475
 40
0.8244760382
 40
0.8406940716
 40
0.8568734333
 40
0.8730088969
 40
0.8890954876
 40
0.905128265
 40
0.9370074718
 40
0.9528594107
 40
0.9686481654
 40
1.0
 40
1.0
 40
1.0
 40
1.0
 10
11.2964299395
 20
7.1164111953
 30
0.0
 10
11.2964298048
 20
7.1083975648
 30
0.0
 10
11.2958416887
 20
7.0963898245
 30
0.0
 10
11.2938722136
 20
7.0805460417
 30
0.0
 10
11.291133416
 20
7.0649558909
 30
0.0
 10
11.2862720917
 20
7.0458740946
 30
0.0
 10
11.2795109718
 20
7.0274586878
 30
0.0
 10
11.273019218
 20
7.013286567
 30
0.0
 10
11.2676278222
 20
7.0029707082
 30
0.0
 10
11.2617210018
 20
6.9929756812
 30
0.0
 10
11.2531859056
 20
6.9801217777
 30
0.0
 10
11.243661228
 20
6.9679754472
 30
0.0
 10
11.2332354041
 20
6.9566537022
 30
0.0
 10
11.2249821771
 20
6.9485909398
 30
0.0
 10
11.2163138322
 20
6.940973563
 30
0.0
 10
11.2072491795
 20
6.9338194266
 30
0.0
 10
11.1978090198
 20
6.9271454667
 30
0.0
 10
11.1880155217
 20
6.920966393
 30
0.0
 10
11.17789042
 20
6.9152978267
 30
0.0
 10
11.1674570857
 20
6.9101534773
 30
0.0
 10
11.156739593
 20
6.9055448255
 30
0.0
 10
11.1420804746
 20
6.9001226624
 30
0.0
 10
11.1231538769
 20
6.8947437034
 30
0.0
 10
11.1037019501
 20
6.8913051041
 30
0.0
 10
11.0879001852
 20
6.8897217216
 30
0.0
 10
11.0718984278
 20
6.888921728
 30
0.0
 10
11.0517174928
 20
6.8894148352
 30
0.0
 10
11.0315940035
 20
6.8918853173
 30
0.0
 10
11.0155953763
 20
6.8950302205
 30
0.0
 10
10.9996371078
 20
6.8989687496
 30
0.0
 10
10.979961304
 20
6.9053421829
 30
0.0
 10
10.9609072444
 20
6.9135604974
 30
0.0
 10
10.9461059614
 20
6.9212041548
 30
0.0
 10
10.9316034
 20
6.9295659799
 30
0.0
 10
10.91417493
 20
6.9412885896
 30
0.0
 10
10.8978706691
 20
6.954575723
 30
0.0
 10
10.8855787746
 20
6.9660767639
 30
0.0
 10
10.8738196295
 20
6.9781322489
 30
0.0
 10
10.8628997562
 20
6.9909758977
 30
0.0
 10
10.8529081269
 20
7.0045095291
 30
0.0
 10
10.8458963557
 20
7.0149760965
 30
0.0
 10
10.8393837717
 20
7.0257351869
 30
0.0
 10
10.8333858921
 20
7.0367603726
 30
0.0
 10
10.8279161221
 20
7.0480237083
 30
0.0
 10
10.8229888046
 20
7.0594977447
 30
0.0
 10
10.818615151
 20
7.0711540957
 30
0.0
 10
10.8135445073
 20
7.0868660253
 30
0.0
 10
10.8096041747
 20
7.1028621184
 30
0.0
 10
10.8068348259
 20
7.1190136718
 30
0.0
 10
10.8048624186
 20
7.1351439287
 30
0.0
 10
10.804261248
 20
7.1473120011
 30
0.0
 10
10.8042611007
 20
7.1553977123
 30
0.0
  0
SPLINE
  5
2AB
100
AcDbEntity
  8
0
100
AcDbSpline
 62
7
  6
CONTINUOUS
 70
0
 71
3
 72
56
 73
52
 74
0
 42
0.0000001
 43
0.0000001
 44
0.0000000001
 40
0.0
 40
0.0
 40
0.0
 40
0.0
 40
0.0310723444
 40
0.0465152282
 40
0.0618873079
 40
0.0924244521
 40
0.1227285817
 40
0.1378086463
 40
0.1528438045
 40
0.1678401149
 40
0.1828038444
 40
0.2126503405
 40
0.227557511
 40
0.2424602055
 40
0.2573657799
 40
0.272281562
 40
0.2872148089
 40
0.3021724291
 40
0.3171611937
 40
0.3321875071
 40
0.3472571476
 40
0.362375664
 40
0.3927682619
 40
0.4234071812
 40
0.4388308394
 40
0.454323239
 40
0.4855077933
 40
0.5169699546
 40
0.532806559
 40
0.5487076994
 40
0.5806824153
 40
0.6128739824
 40
0.6290441709
 40
0.6452543843
 40
0.6777639093
 40
0.7103643307
 40
0.7266873141
 40
0.7430142241
 40
0.7756456098
 40
0.7919458916
 40
0.8082247496
 40
0.8244760379
 40
0.8406940714
 40
0.8568734332
 40
0.8730088968
 40
0.8890954876
 40
0.905128265
 40
0.9370074719
 40
0.9528594107
 40
0.9686481654
 40
1.0
 40
1.0
 40
1.0
 40
1.0
 10
10.8042610986
 20
7.1553976117
 30
0.0
 10
10.8042612332
 20
7.1634112418
 30
0.0
 10
10.8048493489
 20
7.1754189811
 30
0.0
 10
10.8068188242
 20
7.1912627628
 30
0.0
 10
10.8095576216
 20
7.206852913
 30
0.0
 10
10.8144189456
 20
7.2259347098
 30
0.0
 10
10.8211800656
 20
7.2443501174
 30
0.0
 10
10.8276718197
 20
7.258522239
 30
0.0
 10
10.8330632158
 20
7.2688380985
 30
0.0
 10
10.8389700366
 20
7.278833126
 30
0.0
 10
10.8475051332
 20
7.2916870303
 30
0.0
 10
10.8570298115
 20
7.3038333611
 30
0.0
 10
10.8674556357
 20
7.3151551066
 30
0.0
 10
10.8757088629
 20
7.3232178688
 30
0.0
 10
10.8843772078
 20
7.3308352454
 30
0.0
 10
10.89344186
 20
7.3379893814
 30
0.0
 10
10.9028820192
 20
7.3446633409
 30
0.0
 10
10.9126755166
 20
7.3508424141
 30
0.0
 10
10.9228006177
 20
7.3565109799
 30
0.0
 10
10.9332339514
 20
7.3616553291
 30
0.0
 10
10.9439514437
 20
7.3662639808
 30
0.0
 10
10.9586105619
 20
7.3716861438
 30
0.0
 10
10.9775371594
 20
7.3770651032
 30
0.0
 10
10.9969890864
 20
7.3805037026
 30
0.0
 10
11.0127908516
 20
7.3820870852
 30
0.0
 10
11.0287926093
 20
7.3828870788
 30
0.0
 10
11.0489735447
 20
7.3823939718
 30
0.0
 10
11.0690970343
 20
7.3799234897
 30
0.0
 10
11.0850956617
 20
7.3767785864
 30
0.0
 10
11.1010539302
 20
7.3728400573
 30
0.0
 10
11.120729734
 20
7.366466624
 30
0.0
 10
11.1397837935
 20
7.3582483096
 30
0.0
 10
11.1545850764
 20
7.3506046522
 30
0.0
 10
11.1690876378
 20
7.3422428272
 30
0.0
 10
11.1865161078
 20
7.3305202174
 30
0.0
 10
11.2028203687
 20
7.3172330842
 30
0.0
 10
11.2151122632
 20
7.3057320433
 30
0.0
 10
11.2268714083
 20
7.2936765583
 30
0.0
 10
11.2377912817
 20
7.2808329094
 30
0.0
 10
11.247782911
 20
7.267299278
 30
0.0
 10
11.2547946822
 20
7.2568327106
 30
0.0
 10
11.2613072663
 20
7.2460736201
 30
0.0
 10
11.2673051459
 20
7.2350484344
 30
0.0
 10
11.2727749159
 20
7.2237850986
 30
0.0
 10
11.2777022335
 20
7.2123110623
 30
0.0
 10
11.2820758871
 20
7.2006547112
 30
0.0
 10
11.2871465308
 20
7.1849427815
 30
0.0
 10
11.2910868634
 20
7.1689466885
 30
0.0
 10
11.2938562122
 20
7.152795135
 30
0.0
 10
11.2958286195
 20
7.1366648781
 30
0.0
 10
11.29642979
 20
7.1244968058
 30
0.0
 10
11.2964299374
 20
7.1164110945
 30
0.0
  0
SPLINE
  5
2AC
100
AcDbEntity
  8
0
100
AcDbSpline
 62
7
  6
CONTINUOUS
 70
0
 71
3
 72
56
 73
52
 74
0
 42
0.0000001
 43
0.0000001
 44
0.0000000001
 40
0.0
 40
0.0
 40
0.0
 40
0.0
 40
0.031072346
 40
0.0465152317
 40
0.0618873124
 40
0.0924244558
 40
0.1227285839
 40
0.1378086476
 40
0.152843805
 40
0.1678401144
 40
0.1828038429
 40
0.2126503375
 40
0.2275575076
 40
0.2424602021
 40
0.2573657768
 40
0.2722815596
 40
0.2872148075
 40
0.3021724288
 40
0.3171611944
 40
0.3321875086
 40
0.3472571497
 40
0.3623756664
 40
0.3927682644
 40
0.4234071833
 40
0.4388308412
 40
0.4543232404
 40
0.485507794
 40
0.5169699549
 40
0.5328065592
 40
0.5487076996
 40
0.5806824155
 40
0.6128739827
 40
0.6290441713
 40
0.6452543848
 40
0.6777639099
 40
0.7103643313
 40
0.7266873147
 40
0.7430142246
 40
0.7756456102
 40
0.791945892
 40
0.80822475
 40
0.8244760382
 40
0.8406940716
 40
0.8568734333
 40
0.8730088969
 40
0.8890954876
 40
0.905128265
 40
0.9370074718
 40
0.9528594107
 40
0.9686481654
 40
1.0
 40
1.0
 40
1.0
 40
1.0
 10
10.8743202934
 20
7.6585911452
 30
0.0
 10
10.8743201587
 20
7.6505775146
 30
0.0
 10
10.8737320426
 20
7.6385697744
 30
0.0
 10
10.8717625675
 20
7.6227259916
 30
0.0
 10
10.8690237699
 20
7.6071358408
 30
0.0
 10
10.8641624456
 20
7.5880540445
 30
0.0
 10
10.8574013257
 20
7.5696386377
 30
0.0
 10
10.8509095719
 20
7.5554665169
 30
0.0
 10
10.8455181761
 20
7.5451506581
 30
0.0
 10
10.8396113557
 20
7.5351556311
 30
0.0
 10
10.8310762595
 20
7.5223017276
 30
0.0
 10
10.8215515819
 20
7.5101553971
 30
0.0
 10
10.811125758
 20
7.4988336521
 30
0.0
 10
10.802872531
 20
7.4907708897
 30
0.0
 10
10.7942041861
 20
7.4831535128
 30
0.0
 10
10.7851395334
 20
7.4759993765
 30
0.0
 10
10.7756993737
 20
7.4693254166
 30
0.0
 10
10.7659058756
 20
7.4631463428
 30
0.0
 10
10.7557807739
 20
7.4574777766
 30
0.0
 10
10.7453474396
 20
7.4523334272
 30
0.0
 10
10.7346299469
 20
7.4477247754
 30
0.0
 10
10.7199708285
 20
7.4423026123
 30
0.0
 10
10.7010442308
 20
7.4369236532
 30
0.0
 10
10.681592304
 20
7.4334850539
 30
0.0
 10
10.6657905391
 20
7.4319016715
 30
0.0
 10
10.6497887817
 20
7.4311016779
 30
0.0
 10
10.6296078467
 20
7.4315947851
 30
0.0
 10
10.6094843574
 20
7.4340652671
 30
0.0
 10
10.5934857301
 20
7.4372101704
 30
0.0
 10
10.5775274617
 20
7.4411486995
 30
0.0
 10
10.5578516579
 20
7.4475221328
 30
0.0
 10
10.5387975983
 20
7.4557404473
 30
0.0
 10
10.5239963153
 20
7.4633841047
 30
0.0
 10
10.5094937539
 20
7.4717459298
 30
0.0
 10
10.4920652839
 20
7.4834685395
 30
0.0
 10
10.475761023
 20
7.4967556729
 30
0.0
 10
10.4634691285
 20
7.5082567138
 30
0.0
 10
10.4517099834
 20
7.5203121988
 30
0.0
 10
10.4407901101
 20
7.5331558476
 30
0.0
 10
10.4307984808
 20
7.546689479
 30
0.0
 10
10.4237867096
 20
7.5571560464
 30
0.0
 10
10.4172741256
 20
7.5679151368
 30
0.0
 10
10.411276246
 20
7.5789403225
 30
0.0
 10
10.405806476
 20
7.5902036582
 30
0.0
 10
10.4008791585
 20
7.6016776945
 30
0.0
 10
10.3965055049
 20
7.6133340456
 30
0.0
 10
10.3914348612
 20
7.6290459752
 30
0.0
 10
10.3874945286
 20
7.6450420683
 30
0.0
 10
10.3847251798
 20
7.6611936217
 30
0.0
 10
10.3827527725
 20
7.6773238786
 30
0.0
 10
10.3821516019
 20
7.689491951
 30
0.0
 10
10.3821514546
 20
7.6975776622
 30
0.0
  0
SPLINE
  5
2AD
100
AcDbEntity
  8
0
100
AcDbSpline
 62
7
  6
CONTINUOUS
 70
0
 71
3
 72
56
 73
52
 74
0
 42
0.0000001
 43
0.0000001
 44
0.0000000001
 40
0.0
 40
0.0
 40
0.0
 40
0.0
 40
0.0310723444
 40
0.0465152282
 40
0.0618873079
 40
0.0924244521
 40
0.1227285817
 40
0.1378086463
 40
0.1528438045
 40
0.1678401149
 40
0.1828038444
 40
0.2126503405
 40
0.227557511
 40
0.2424602055
 40
0.2573657799
 40
0.272281562
 40
0.2872148089
 40
0.3021724291
 40
0.3171611937
 40
0.3321875071
 40
0.3472571476
 40
0.362375664
 40
0.3927682619
 40
0.4234071812
 40
0.4388308394
 40
0.454323239
 40
0.4855077933
 40
0.5169699546
 40
0.532806559
 40
0.5487076994
 40
0.5806824153
 40
0.6128739824
 40
0.6290441709
 40
0.6452543843
 40
0.6777639093
 40
0.7103643307
 40
0.7266873141
 40
0.7430142241
 40
0.7756456098
 40
0.7919458916
 40
0.8082247496
 40
0.8244760379
 40
0.8406940714
 40
0.8568734332
 40
0.8730088968
 40
0.8890954876
 40
0.905128265
 40
0.9370074719
 40
0.9528594107
 40
0.9686481654
 40
1.0
 40
1.0
 40
1.0
 40
1.0
 10
10.3821514525
 20
7.6975775616
 30
0.0
 10
10.3821515871
 20
7.7055911917
 30
0.0
 10
10.3827397028
 20
7.717598931
 30
0.0
 10
10.3847091781
 20
7.7334427127
 30
0.0
 10
10.3874479755
 20
7.7490328629
 30
0.0
 10
10.3923092995
 20
7.7681146596
 30
0.0
 10
10.3990704195
 20
7.7865300673
 30
0.0
 10
10.4055621736
 20
7.8007021889
 30
0.0
 10
10.4109535697
 20
7.8110180483
 30
0.0
 10
10.4168603905
 20
7.8210130759
 30
0.0
 10
10.4253954871
 20
7.8338669802
 30
0.0
 10
10.4349201654
 20
7.846013311
 30
0.0
 10
10.4453459896
 20
7.8573350565
 30
0.0
 10
10.4535992168
 20
7.8653978187
 30
0.0
 10
10.4622675617
 20
7.8730151953
 30
0.0
 10
10.4713322139
 20
7.8801693313
 30
0.0
 10
10.4807723731
 20
7.8868432908
 30
0.0
 10
10.4905658705
 20
7.893022364
 30
0.0
 10
10.5006909716
 20
7.8986909298
 30
0.0
 10
10.5111243053
 20
7.903835279
 30
0.0
 10
10.5218417976
 20
7.9084439307
 30
0.0
 10
10.5365009158
 20
7.9138660937
 30
0.0
 10
10.5554275133
 20
7.9192450531
 30
0.0
 10
10.5748794403
 20
7.9226836524
 30
0.0
 10
10.5906812055
 20
7.9242670351
 30
0.0
 10
10.6066829632
 20
7.9250670287
 30
0.0
 10
10.6268638986
 20
7.9245739217
 30
0.0
 10
10.6469873882
 20
7.9221034395
 30
0.0
 10
10.6629860156
 20
7.9189585363
 30
0.0
 10
10.6789442841
 20
7.9150200072
 30
0.0
 10
10.6986200879
 20
7.9086465739
 30
0.0
 10
10.7176741474
 20
7.9004282594
 30
0.0
 10
10.7324754303
 20
7.8927846021
 30
0.0
 10
10.7469779917
 20
7.8844227771
 30
0.0
 10
10.7644064617
 20
7.8727001673
 30
0.0
 10
10.7807107226
 20
7.8594130341
 30
0.0
 10
10.7930026171
 20
7.8479119932
 30
0.0
 10
10.8047617622
 20
7.8358565082
 30
0.0
 10
10.8156816356
 20
7.8230128593
 30
0.0
 10
10.8256732649
 20
7.8094792278
 30
0.0
 10
10.8326850361
 20
7.7990126605
 30
0.0
 10
10.8391976202
 20
7.78825357
 30
0.0
 10
10.8451954998
 20
7.7772283843
 30
0.0
 10
10.8506652698
 20
7.7659650485
 30
0.0
 10
10.8555925874
 20
7.7544910122
 30
0.0
 10
10.859966241
 20
7.7428346611
 30
0.0
 10
10.8650368847
 20
7.7271227314
 30
0.0
 10
10.8689772173
 20
7.7111266383
 30
0.0
 10
10.8717465661
 20
7.6949750849
 30
0.0
 10
10.8737189734
 20
7.678844828
 30
0.0
 10
10.8743201439
 20
7.6666767557
 30
0.0
 10
10.8743202913
 20
7.6585910444
 30
0.0
  0
SPLINE
  5
2AE
100
AcDbEntity
  8
0
100
AcDbSpline
 62
7
  6
CONTINUOUS
 70
0
 71
3
 72
56
 73
52
 74
0
 42
0.0000001
 43
0.0000001
 44
0.0000000001
 40
0.0
 40
0.0
 40
0.0
 40
0.0
 40
0.031072346
 40
0.0465152317
 40
0.0618873124
 40
0.0924244558
 40
0.1227285839
 40
0.1378086476
 40
0.152843805
 40
0.1678401144
 40
0.1828038429
 40
0.2126503375
 40
0.2275575076
 40
0.2424602021
 40
0.2573657768
 40
0.2722815596
 40
0.2872148075
 40
0.3021724288
 40
0.3171611944
 40
0.3321875086
 40
0.3472571497
 40
0.3623756664
 40
0.3927682644
 40
0.4234071833
 40
0.4388308412
 40
0.4543232404
 40
0.485507794
 40
0.5169699549
 40
0.5328065592
 40
0.5487076996
 40
0.5806824155
 40
0.6128739827
 40
0.6290441713
 40
0.6452543848
 40
0.6777639099
 40
0.7103643313
 40
0.7266873147
 40
0.7430142246
 40
0.7756456102
 40
0.791945892
 40
0.80822475
 40
0.8244760382
 40
0.8406940716
 40
0.8568734333
 40
0.8730088969
 40
0.8890954876
 40
0.905128265
 40
0.9370074718
 40
0.9528594107
 40
0.9686481654
 40
1.0
 40
1.0
 40
1.0
 40
1.0
 10
10.8743202934
 20
8.4438889686
 30
0.0
 10
10.8743201587
 20
8.4358753381
 30
0.0
 10
10.8737320426
 20
8.4238675979
 30
0.0
 10
10.8717625675
 20
8.408023815
 30
0.0
 10
10.8690237699
 20
8.3924336643
 30
0.0
 10
10.8641624456
 20
8.373351868
 30
0.0
 10
10.8574013257
 20
8.3549364611
 30
0.0
 10
10.8509095719
 20
8.3407643403
 30
0.0
 10
10.8455181761
 20
8.3304484815
 30
0.0
 10
10.8396113557
 20
8.3204534546
 30
0.0
 10
10.8310762595
 20
8.307599551
 30
0.0
 10
10.8215515819
 20
8.2954532206
 30
0.0
 10
10.811125758
 20
8.2841314755
 30
0.0
 10
10.802872531
 20
8.2760687132
 30
0.0
 10
10.7942041861
 20
8.2684513363
 30
0.0
 10
10.7851395334
 20
8.2612972
 30
0.0
 10
10.7756993737
 20
8.25462324
 30
0.0
 10
10.7659058756
 20
8.2484441663
 30
0.0
 10
10.7557807739
 20
8.2427756
 30
0.0
 10
10.7453474396
 20
8.2376312506
 30
0.0
 10
10.7346299469
 20
8.2330225989
 30
0.0
 10
10.7199708285
 20
8.2276004358
 30
0.0
 10
10.7010442308
 20
8.2222214767
 30
0.0
 10
10.681592304
 20
8.2187828774
 30
0.0
 10
10.6657905391
 20
8.217199495
 30
0.0
 10
10.6497887817
 20
8.2163995014
 30
0.0
 10
10.6296078467
 20
8.2168926085
 30
0.0
 10
10.6094843574
 20
8.2193630906
 30
0.0
 10
10.5934857301
 20
8.2225079938
 30
0.0
 10
10.5775274617
 20
8.2264465229
 30
0.0
 10
10.5578516579
 20
8.2328199562
 30
0.0
 10
10.5387975983
 20
8.2410382707
 30
0.0
 10
10.5239963153
 20
8.2486819281
 30
0.0
 10
10.5094937539
 20
8.2570437532
 30
0.0
 10
10.4920652839
 20
8.268766363
 30
0.0
 10
10.475761023
 20
8.2820534963
 30
0.0
 10
10.4634691285
 20
8.2935545372
 30
0.0
 10
10.4517099834
 20
8.3056100222
 30
0.0
 10
10.4407901101
 20
8.318453671
 30
0.0
 10
10.4307984808
 20
8.3319873025
 30
0.0
 10
10.4237867096
 20
8.3424538698
 30
0.0
 10
10.4172741256
 20
8.3532129603
 30
0.0
 10
10.411276246
 20
8.3642381459
 30
0.0
 10
10.405806476
 20
8.3755014817
 30
0.0
 10
10.4008791585
 20
8.386975518
 30
0.0
 10
10.3965055049
 20
8.3986318691
 30
0.0
 10
10.3914348612
 20
8.4143437987
 30
0.0
 10
10.3874945286
 20
8.4303398917
 30
0.0
 10
10.3847251798
 20
8.4464914452
 30
0.0
 10
10.3827527725
 20
8.462621702
 30
0.0
 10
10.3821516019
 20
8.4747897744
 30
0.0
 10
10.3821514546
 20
8.4828754857
 30
0.0
  0
SPLINE
  5
2AF
100
AcDbEntity
  8
0
100
AcDbSpline
 62
7
  6
CONTINUOUS
 70
0
 71
3
 72
56
 73
52
 74
0
 42
0.0000001
 43
0.0000001
 44
0.0000000001
 40
0.0
 40
0.0
 40
0.0
 40
0.0
 40
0.0310723444
 40
0.0465152282
 40
0.0618873079
 40
0.0924244521
 40
0.1227285817
 40
0.1378086463
 40
0.1528438045
 40
0.1678401149
 40
0.1828038444
 40
0.2126503405
 40
0.227557511
 40
0.2424602055
 40
0.2573657799
 40
0.272281562
 40
0.2872148089
 40
0.3021724291
 40
0.3171611937
 40
0.3321875071
 40
0.3472571476
 40
0.362375664
 40
0.3927682619
 40
0.4234071812
 40
0.4388308394
 40
0.454323239
 40
0.4855077933
 40
0.5169699546
 40
0.532806559
 40
0.5487076994
 40
0.5806824153
 40
0.6128739824
 40
0.6290441709
 40
0.6452543843
 40
0.6777639093
 40
0.7103643307
 40
0.7266873141
 40
0.7430142241
 40
0.7756456098
 40
0.7919458916
 40
0.8082247496
 40
0.8244760379
 40
0.8406940714
 40
0.8568734332
 40
0.8730088968
 40
0.8890954876
 40
0.905128265
 40
0.9370074719
 40
0.9528594107
 40
0.9686481654
 40
1.0
 40
1.0
 40
1.0
 40
1.0
 10
10.3821514525
 20
8.482875385
 30
0.0
 10
10.3821515871
 20
8.4908890151
 30
0.0
 10
10.3827397028
 20
8.5028967545
 30
0.0
 10
10.3847091781
 20
8.5187405361
 30
0.0
 10
10.3874479755
 20
8.5343306864
 30
0.0
 10
10.3923092995
 20
8.5534124831
 30
0.0
 10
10.3990704195
 20
8.5718278908
 30
0.0
 10
10.4055621736
 20
8.5860000124
 30
0.0
 10
10.4109535697
 20
8.5963158718
 30
0.0
 10
10.4168603905
 20
8.6063108994
 30
0.0
 10
10.4253954871
 20
8.6191648036
 30
0.0
 10
10.4349201654
 20
8.6313111345
 30
0.0
 10
10.4453459896
 20
8.6426328799
 30
0.0
 10
10.4535992168
 20
8.6506956422
 30
0.0
 10
10.4622675617
 20
8.6583130187
 30
0.0
 10
10.4713322139
 20
8.6654671547
 30
0.0
 10
10.4807723731
 20
8.6721411142
 30
0.0
 10
10.4905658705
 20
8.6783201874
 30
0.0
 10
10.5006909716
 20
8.6839887533
 30
0.0
 10
10.5111243053
 20
8.6891331025
 30
0.0
 10
10.5218417976
 20
8.6937417541
 30
0.0
 10
10.5365009158
 20
8.6991639171
 30
0.0
 10
10.5554275133
 20
8.7045428765
 30
0.0
 10
10.5748794403
 20
8.7079814759
 30
0.0
 10
10.5906812055
 20
8.7095648585
 30
0.0
 10
10.6066829632
 20
8.7103648521
 30
0.0
 10
10.6268638986
 20
8.7098717451
 30
0.0
 10
10.6469873882
 20
8.707401263
 30
0.0
 10
10.6629860156
 20
8.7042563598
 30
0.0
 10
10.6789442841
 20
8.7003178306
 30
0.0
 10
10.6986200879
 20
8.6939443974
 30
0.0
 10
10.7176741474
 20
8.6857260829
 30
0.0
 10
10.7324754303
 20
8.6780824255
 30
0.0
 10
10.7469779917
 20
8.6697206005
 30
0.0
 10
10.7644064617
 20
8.6579979908
 30
0.0
 10
10.7807107226
 20
8.6447108575
 30
0.0
 10
10.7930026171
 20
8.6332098166
 30
0.0
 10
10.8047617622
 20
8.6211543316
 30
0.0
 10
10.8156816356
 20
8.6083106828
 30
0.0
 10
10.8256732649
 20
8.5947770513
 30
0.0
 10
10.8326850361
 20
8.5843104839
 30
0.0
 10
10.8391976202
 20
8.5735513934
 30
0.0
 10
10.8451954998
 20
8.5625262078
 30
0.0
 10
10.8506652698
 20
8.551262872
 30
0.0
 10
10.8555925874
 20
8.5397888356
 30
0.0
 10
10.859966241
 20
8.5281324845
 30
0.0
 10
10.8650368847
 20
8.5124205549
 30
0.0
 10
10.8689772173
 20
8.4964244618
 30
0.0
 10
10.8717465661
 20
8.4802729083
 30
0.0
 10
10.8737189734
 20
8.4641426515
 30
0.0
 10
10.8743201439
 20
8.4519745791
 30
0.0
 10
10.8743202913
 20
8.4438888679
 30
0.0
  0
SPLINE
  5
2B0
100
AcDbEntity
  8
0
100
AcDbSpline
 62
7
  6
CONTINUOUS
 70
0
 71
3
 72
56
 73
52
 74
0
 42
0.0000001
 43
0.0000001
 44
0.0000000001
 40
0.0
 40
0.0
 40
0.0
 40
0.0
 40
0.031072346
 40
0.0465152317
 40
0.0618873124
 40
0.0924244558
 40
0.1227285839
 40
0.1378086476
 40
0.152843805
 40
0.1678401144
 40
0.1828038429
 40
0.2126503375
 40
0.2275575076
 40
0.2424602021
 40
0.2573657768
 40
0.2722815596
 40
0.2872148075
 40
0.3021724288
 40
0.3171611944
 40
0.3321875086
 40
0.3472571497
 40
0.3623756664
 40
0.3927682644
 40
0.4234071833
 40
0.4388308412
 40
0.4543232404
 40
0.485507794
 40
0.5169699549
 40
0.5328065592
 40
0.5487076996
 40
0.5806824155
 40
0.6128739827
 40
0.6290441713
 40
0.6452543848
 40
0.6777639099
 40
0.7103643313
 40
0.7266873147
 40
0.7430142246
 40
0.7756456102
 40
0.791945892
 40
0.80822475
 40
0.8244760382
 40
0.8406940716
 40
0.8568734333
 40
0.8730088969
 40
0.8890954876
 40
0.905128265
 40
0.9370074718
 40
0.9528594107
 40
0.9686481654
 40
1.0
 40
1.0
 40
1.0
 40
1.0
 10
11.2964299395
 20
8.9275222269
 30
0.0
 10
11.2964298048
 20
8.9195085964
 30
0.0
 10
11.2958416887
 20
8.9075008561
 30
0.0
 10
11.2938722136
 20
8.8916570733
 30
0.0
 10
11.291133416
 20
8.8760669225
 30
0.0
 10
11.2862720917
 20
8.8569851262
 30
0.0
 10
11.2795109718
 20
8.8385697194
 30
0.0
 10
11.273019218
 20
8.8243975986
 30
0.0
 10
11.2676278222
 20
8.8140817398
 30
0.0
 10
11.2617210018
 20
8.8040867128
 30
0.0
 10
11.2531859056
 20
8.7912328093
 30
0.0
 10
11.243661228
 20
8.7790864788
 30
0.0
 10
11.2332354041
 20
8.7677647338
 30
0.0
 10
11.2249821771
 20
8.7597019714
 30
0.0
 10
11.2163138322
 20
8.7520845946
 30
0.0
 10
11.2072491795
 20
8.7449304583
 30
0.0
 10
11.1978090198
 20
8.7382564983
 30
0.0
 10
11.1880155217
 20
8.7320774246
 30
0.0
 10
11.17789042
 20
8.7264088583
 30
0.0
 10
11.1674570857
 20
8.7212645089
 30
0.0
 10
11.156739593
 20
8.7166558572
 30
0.0
 10
11.1420804746
 20
8.711233694
 30
0.0
 10
11.1231538769
 20
8.705854735
 30
0.0
 10
11.1037019501
 20
8.7024161357
 30
0.0
 10
11.0879001852
 20
8.7008327532
 30
0.0
 10
11.0718984278
 20
8.7000327596
 30
0.0
 10
11.0517174928
 20
8.7005258668
 30
0.0
 10
11.0315940035
 20
8.7029963489
 30
0.0
 10
11.0155953763
 20
8.7061412521
 30
0.0
 10
10.9996371078
 20
8.7100797812
 30
0.0
 10
10.979961304
 20
8.7164532145
 30
0.0
 10
10.9609072444
 20
8.724671529
 30
0.0
 10
10.9461059614
 20
8.7323151864
 30
0.0
 10
10.9316034
 20
8.7406770115
 30
0.0
 10
10.91417493
 20
8.7523996212
 30
0.0
 10
10.8978706691
 20
8.7656867546
 30
0.0
 10
10.8855787746
 20
8.7771877955
 30
0.0
 10
10.8738196295
 20
8.7892432805
 30
0.0
 10
10.8628997562
 20
8.8020869293
 30
0.0
 10
10.8529081269
 20
8.8156205608
 30
0.0
 10
10.8458963557
 20
8.8260871281
 30
0.0
 10
10.8393837717
 20
8.8368462185
 30
0.0
 10
10.8333858921
 20
8.8478714042
 30
0.0
 10
10.8279161221
 20
8.8591347399
 30
0.0
 10
10.8229888046
 20
8.8706087763
 30
0.0
 10
10.818615151
 20
8.8822651273
 30
0.0
 10
10.8135445073
 20
8.8979770569
 30
0.0
 10
10.8096041747
 20
8.91397315
 30
0.0
 10
10.8068348259
 20
8.9301247035
 30
0.0
 10
10.8048624186
 20
8.9462549603
 30
0.0
 10
10.804261248
 20
8.9584230327
 30
0.0
 10
10.8042611007
 20
8.9665087439
 30
0.0
  0
SPLINE
  5
2B1
100
AcDbEntity
  8
0
100
AcDbSpline
 62
7
  6
CONTINUOUS
 70
0
 71
3
 72
56
 73
52
 74
0
 42
0.0000001
 43
0.0000001
 44
0.0000000001
 40
0.0
 40
0.0
 40
0.0
 40
0.0
 40
0.0310723444
 40
0.0465152282
 40
0.0618873079
 40
0.0924244521
 40
0.1227285817
 40
0.1378086463
 40
0.1528438045
 40
0.1678401149
 40
0.1828038444
 40
0.2126503405
 40
0.227557511
 40
0.2424602055
 40
0.2573657799
 40
0.272281562
 40
0.2872148089
 40
0.3021724291
 40
0.3171611937
 40
0.3321875071
 40
0.3472571476
 40
0.362375664
 40
0.3927682619
 40
0.4234071812
 40
0.4388308394
 40
0.454323239
 40
0.4855077933
 40
0.5169699546
 40
0.532806559
 40
0.5487076994
 40
0.5806824153
 40
0.6128739824
 40
0.6290441709
 40
0.6452543843
 40
0.6777639093
 40
0.7103643307
 40
0.7266873141
 40
0.7430142241
 40
0.7756456098
 40
0.7919458916
 40
0.8082247496
 40
0.8244760379
 40
0.8406940714
 40
0.8568734332
 40
0.8730088968
 40
0.8890954876
 40
0.905128265
 40
0.9370074719
 40
0.9528594107
 40
0.9686481654
 40
1.0
 40
1.0
 40
1.0
 40
1.0
 10
10.8042610986
 20
8.9665086433
 30
0.0
 10
10.8042612332
 20
8.9745222734
 30
0.0
 10
10.8048493489
 20
8.9865300127
 30
0.0
 10
10.8068188242
 20
9.0023737944
 30
0.0
 10
10.8095576216
 20
9.0179639446
 30
0.0
 10
10.8144189456
 20
9.0370457414
 30
0.0
 10
10.8211800656
 20
9.055461149
 30
0.0
 10
10.8276718197
 20
9.0696332707
 30
0.0
 10
10.8330632158
 20
9.0799491301
 30
0.0
 10
10.8389700366
 20
9.0899441576
 30
0.0
 10
10.8475051332
 20
9.1027980619
 30
0.0
 10
10.8570298115
 20
9.1149443927
 30
0.0
 10
10.8674556357
 20
9.1262661382
 30
0.0
 10
10.8757088629
 20
9.1343289004
 30
0.0
 10
10.8843772078
 20
9.141946277
 30
0.0
 10
10.89344186
 20
9.149100413
 30
0.0
 10
10.9028820192
 20
9.1557743725
 30
0.0
 10
10.9126755166
 20
9.1619534457
 30
0.0
 10
10.9228006177
 20
9.1676220115
 30
0.0
 10
10.9332339514
 20
9.1727663607
 30
0.0
 10
10.9439514437
 20
9.1773750124
 30
0.0
 10
10.9586105619
 20
9.1827971754
 30
0.0
 10
10.9775371594
 20
9.1881761348
 30
0.0
 10
10.9969890864
 20
9.1916147342
 30
0.0
 10
11.0127908516
 20
9.1931981168
 30
0.0
 10
11.0287926093
 20
9.1939981104
 30
0.0
 10
11.0489735447
 20
9.1935050034
 30
0.0
 10
11.0690970343
 20
9.1910345213
 30
0.0
 10
11.0850956617
 20
9.187889618
 30
0.0
 10
11.1010539302
 20
9.1839510889
 30
0.0
 10
11.120729734
 20
9.1775776556
 30
0.0
 10
11.1397837935
 20
9.1693593412
 30
0.0
 10
11.1545850764
 20
9.1617156838
 30
0.0
 10
11.1690876378
 20
9.1533538588
 30
0.0
 10
11.1865161078
 20
9.1416312491
 30
0.0
 10
11.2028203687
 20
9.1283441158
 30
0.0
 10
11.2151122632
 20
9.1168430749
 30
0.0
 10
11.2268714083
 20
9.1047875899
 30
0.0
 10
11.2377912817
 20
9.091943941
 30
0.0
 10
11.247782911
 20
9.0784103096
 30
0.0
 10
11.2547946822
 20
9.0679437422
 30
0.0
 10
11.2613072663
 20
9.0571846517
 30
0.0
 10
11.2673051459
 20
9.046159466
 30
0.0
 10
11.2727749159
 20
9.0348961302
 30
0.0
 10
11.2777022335
 20
9.0234220939
 30
0.0
 10
11.2820758871
 20
9.0117657428
 30
0.0
 10
11.2871465308
 20
8.9960538131
 30
0.0
 10
11.2910868634
 20
8.9800577201
 30
0.0
 10
11.2938562122
 20
8.9639061666
 30
0.0
 10
11.2958286195
 20
8.9477759097
 30
0.0
 10
11.29642979
 20
8.9356078374
 30
0.0
 10
11.2964299374
 20
8.9275221261
 30
0.0
  0
SPLINE
  5
2B2
100
AcDbEntity
  8
0
100
AcDbSpline
 62
7
  6
CONTINUOUS
 70
0
 71
3
 72
15
 73
11
 74
0
 42
0.0000001
 43
0.0000001
 44
0.0000000001
 40
0.0
 40
0.0
 40
0.0
 40
0.0
 40
0.1273482789
 40
0.2538606571
 40
0.3795878378
 40
0.5046051156
 40
0.629017439
 40
0.7529533823
 40
0.8765605864
 40
1.0
 40
1.0
 40
1.0
 40
1.0
 10
11.6953411885
 20
9.0192742835
 30
0.0
 10
11.6953411885
 20
9.0149471998
 30
0.0
 10
11.6949280382
 20
9.006315453
 30
0.0
 10
11.6930596336
 20
8.993533851
 30
0.0
 10
11.6899614944
 20
8.9810733963
 30
0.0
 10
11.6856616065
 20
8.9690506239
 30
0.0
 10
11.6801994063
 20
8.9575764074
 30
0.0
 10
11.673624722
 20
8.9467566858
 30
0.0
 10
11.6659993526
 20
8.936692841
 30
0.0
 10
11.6602578303
 20
8.9305452616
 30
0.0
 10
11.6572410945
 20
8.9276312986
 30
0.0
  0
SPLINE
  5
2B3
100
AcDbEntity
  8
0
100
AcDbSpline
 62
7
  6
CONTINUOUS
 70
0
 71
3
 72
15
 73
11
 74
0
 42
0.0000001
 43
0.0000001
 44
0.0000000001
 40
0.0
 40
0.0
 40
0.0
 40
0.0
 40
0.1273482789
 40
0.2538606571
 40
0.3795878378
 40
0.5046051156
 40
0.629017439
 40
0.7529533823
 40
0.8765605864
 40
1.0
 40
1.0
 40
1.0
 40
1.0
 10
9.9450835965
 20
9.1406550598
 30
0.0
 10
9.9450835965
 20
9.136327976
 30
0.0
 10
9.9446704462
 20
9.1276962293
 30
0.0
 10
9.9428020416
 20
9.1149146272
 30
0.0
 10
9.9397039024
 20
9.1024541725
 30
0.0
 10
9.9354040145
 20
9.0904314002
 30
0.0
 10
9.9299418142
 20
9.0789571836
 30
0.0
 10
9.92336713
 20
9.0681374621
 30
0.0
 10
9.9157417606
 20
9.0580736172
 30
0.0
 10
9.9100002383
 20
9.0519260379
 30
0.0
 10
9.9069835025
 20
9.0490120749
 30
0.0
  0
SPLINE
  5
2B4
100
AcDbEntity
  8
0
100
AcDbSpline
 62
7
  6
CONTINUOUS
 70
0
 71
3
 72
15
 73
11
 74
0
 42
0.0000001
 43
0.0000001
 44
0.0000000001
 40
0.0
 40
0.0
 40
0.0
 40
0.0
 40
0.1273482789
 40
0.2538606571
 40
0.3795878378
 40
0.5046051156
 40
0.629017439
 40
0.7529533823
 40
0.8765605864
 40
1.0
 40
1.0
 40
1.0
 40
1.0
 10
11.6953411885
 20
6.966681781
 30
0.0
 10
11.6953411885
 20
6.9623546973
 30
0.0
 10
11.6949280382
 20
6.9537229505
 30
0.0
 10
11.6930596336
 20
6.9409413485
 30
0.0
 10
11.6899614944
 20
6.9284808938
 30
0.0
 10
11.6856616065
 20
6.9164581215
 30
0.0
 10
11.6801994063
 20
6.9049839049
 30
0.0
 10
11.673624722
 20
6.8941641833
 30
0.0
 10
11.6659993526
 20
6.8841003385
 30
0.0
 10
11.6602578303
 20
6.8779527591
 30
0.0
 10
11.6572410945
 20
6.8750387961
 30
0.0
  0
SPLINE
  5
2B5
100
AcDbEntity
  8
0
100
AcDbSpline
 62
7
  6
CONTINUOUS
 70
0
 71
3
 72
15
 73
11
 74
0
 42
0.0000001
 43
0.0000001
 44
0.0000000001
 40
0.0
 40
0.0
 40
0.0
 40
0.0
 40
0.1273482789
 40
0.2538606571
 40
0.3795878378
 40
0.5046051156
 40
0.629017439
 40
0.7529533823
 40
0.8765605864
 40
1.0
 40
1.0
 40
1.0
 40
1.0
 10
9.9450835965
 20
7.0880625573
 30
0.0
 10
9.9450835965
 20
7.0837354736
 30
0.0
 10
9.9446704462
 20
7.0751037268
 30
0.0
 10
9.9428020416
 20
7.0623221248
 30
0.0
 10
9.9397039024
 20
7.04986167
 30
0.0
 10
9.9354040145
 20
7.0378388977
 30
0.0
 10
9.9299418142
 20
7.0263646812
 30
0.0
 10
9.92336713
 20
7.0155449596
 30
0.0
 10
9.9157417606
 20
7.0054811147
 30
0.0
 10
9.9100002383
 20
6.9993335354
 30
0.0
 10
9.9069835025
 20
6.9964195724
 30
0.0
  0
SPLINE
  5
2B6
100
AcDbEntity
  8
0
100
AcDbSpline
 62
7
  6
CONTINUOUS
 70
0
 71
3
 72
32
 73
28
 74
0
 42
0.0000001
 43
0.0000001
 44
0.0000000001
 40
0.0
 40
0.0
 40
0.0
 40
0.0
 40
0.0845017374
 40
0.167300855
 40
0.2480795303
 40
0.3265298693
 40
0.4023572177
 40
0.4752815404
 40
0.545039923
 40
0.5786558619
 40
0.6113908052
 40
0.6432178835
 40
0.6741118203
 40
0.704049142
 40
0.7330081882
 40
0.760969474
 40
0.7879156344
 40
0.8138319636
 40
0.8387063238
 40
0.8625298908
 40
0.8852970833
 40
0.9070065571
 40
0.9276612459
 40
0.94726967
 40
0.9658462264
 40
0.9834129037
 40
1.0
 40
1.0
 40
1.0
 40
1.0
 10
12.0876674879
 20
10.3571767224
 30
0.0
 10
12.0947884921
 20
10.3566828791
 30
0.0
 10
12.1088787163
 20
10.3555801597
 30
0.0
 10
12.129738138
 20
10.3535581344
 30
0.0
 10
12.1500468817
 20
10.3511914191
 30
0.0
 10
12.169719634
 20
10.348490061
 30
0.0
 10
12.1886739058
 20
10.3454655613
 30
0.0
 10
12.2068301201
 20
10.3421307567
 30
0.0
 10
12.221406356
 20
10.3390685075
 30
0.0
 10
12.2326058732
 20
10.336466131
 30
0.0
 10
12.2406557628
 20
10.3344699303
 30
0.0
 10
12.2484513028
 20
10.3324073613
 30
0.0
 10
12.2559843288
 20
10.3302805719
 30
0.0
 10
12.2632469447
 20
10.3280918232
 30
0.0
 10
12.2702315443
 20
10.3258434019
 30
0.0
 10
12.2769308236
 20
10.3235377031
 30
0.0
 10
12.2833377776
 20
10.3211771205
 30
0.0
 10
12.289445729
 20
10.3187641752
 30
0.0
 10
12.295248308
 20
10.3163013505
 30
0.0
 10
12.3007395001
 20
10.3137912759
 30
0.0
 10
12.3059136021
 20
10.3112365026
 30
0.0
 10
12.3107652963
 20
10.3086397425
 30
0.0
 10
12.3152895767
 20
10.3060035788
 30
0.0
 10
12.3194818383
 20
10.3033307745
 30
0.0
 10
12.3233378305
 20
10.300623852
 30
0.0
 10
12.3268535135
 20
10.2978856963
 30
0.0
 10
12.3290290967
 20
10.2959877808
 30
0.0
 10
12.3300548168
 20
10.2950332399
 30
0.0
  0
SPLINE
  5
2B7
100
AcDbEntity
  8
0
100
AcDbSpline
 62
7
  6
CONTINUOUS
 70
0
 71
3
 72
11
 73
7
 74
0
 42
0.0000001
 43
0.0000001
 44
0.0000000001
 40
0.0
 40
0.0
 40
0.0
 40
0.0
 40
0.2474189598
 40
0.4958787302
 40
0.746405906
 40
1.0
 40
1.0
 40
1.0
 40
1.0
 10
11.3868338986
 20
10.0757359995
 30
0.0
 10
11.3868338959
 20
10.0749245243
 30
0.0
 10
11.3867790598
 20
10.0732976381
 30
0.0
 10
11.3865325601
 20
10.0708602892
 30
0.0
 10
11.3861218996
 20
10.0684246621
 30
0.0
 10
11.3857415142
 20
10.0668142544
 30
0.0
 10
11.3855250878
 20
10.0660111781
 30
0.0
  0
SPLINE
  5
2B8
100
AcDbEntity
  8
0
100
AcDbSpline
 62
7
  6
CONTINUOUS
 70
0
 71
3
 72
75
 73
71
 74
0
 42
0.0000001
 43
0.0000001
 44
0.0000000001
 40
0.0
 40
0.0
 40
0.0
 40
0.0
 40
0.0038007379
 40
0.007741699
 40
0.0118259331
 40
0.0160561268
 40
0.0204345643
 40
0.0249630406
 40
0.0296428723
 40
0.034475051
 40
0.0394602141
 40
0.0445987276
 40
0.0553354255
 40
0.0666834942
 40
0.0786373216
 40
0.0911884062
 40
0.1043257371
 40
0.1180360992
 40
0.1323043071
 40
0.1471134139
 40
0.1624448894
 40
0.1782787634
 40
0.1945937478
 40
0.2113673381
 40
0.2285759229
 40
0.2461948781
 40
0.264198649
 40
0.2825608248
 40
0.3012542093
 40
0.3202509022
 40
0.3395223676
 40
0.3590395
 40
0.3787726854
 40
0.4187660246
 40
0.4592584549
 40
0.5000014192
 40
0.5407443709
 40
0.5812367611
 40
0.6212300368
 40
0.6409631795
 40
0.660480262
 40
0.6797516734
 40
0.6987483076
 40
0.7174416268
 40
0.7358037281
 40
0.7538074197
 40
0.7714262932
 40
0.7886347921
 40
0.8054082893
 40
0.8217231717
 40
0.8375569421
 40
0.852888313
 40
0.8676973113
 40
0.881965403
 40
0.8956756426
 40
0.9088128529
 40
0.9213638169
 40
0.933317521
 40
0.9446654589
 40
0.9554020248
 40
0.960540483
 40
0.9655255788
 40
0.97035769
 40
0.9750374515
 40
0.9795658617
 40
0.9839442735
 40
0.9881744261
 40
0.9922585448
 40
0.996199314
 40
1.0
 40
1.0
 40
1.0
 40
1.0
 10
11.4268196242
 20
10.0938736326
 30
0.0
 10
11.4257077614
 20
10.0928389615
 30
0.0
 10
11.4234007758
 20
10.090776449
 30
0.0
 10
11.4197646609
 20
10.0877565147
 30
0.0
 10
11.4158926209
 20
10.0847564787
 30
0.0
 10
11.4117863797
 20
10.0817775923
 30
0.0
 10
11.4074475449
 20
10.0788210054
 30
0.0
 10
11.4028778576
 20
10.0758878915
 30
0.0
 10
11.3980791885
 20
10.0729793982
 30
0.0
 10
11.3930534815
 20
10.07009677
 30
0.0
 10
11.3878028005
 20
10.0672411168
 30
0.0
 10
11.3803961003
 20
10.0634150962
 30
0.0
 10
11.3705805128
 20
10.0587179688
 30
0.0
 10
11.3581069448
 20
10.0532870056
 30
0.0
 10
11.3447921129
 20
10.0479909951
 30
0.0
 10
11.3306578253
 20
10.0428386601
 30
0.0
 10
11.3157270508
 20
10.0378384842
 30
0.0
 10
11.3000241965
 20
10.0329987373
 30
0.0
 10
11.2835749709
 20
10.0283274252
 30
0.0
 10
11.2664063553
 20
10.0238322819
 30
0.0
 10
11.2485465388
 20
10.0195207561
 30
0.0
 10
11.230024868
 20
10.0153999954
 30
0.0
 10
11.2108717991
 20
10.0114768347
 30
0.0
 10
11.1911188481
 20
10.0077577714
 30
0.0
 10
11.170798532
 20
10.0042489668
 30
0.0
 10
11.1499443084
 20
10.0009562346
 30
0.0
 10
11.1285905206
 20
9.9978850325
 30
0.0
 10
11.1067723435
 20
9.9950404501
 30
0.0
 10
11.0845257264
 20
9.9924271937
 30
0.0
 10
11.0618873257
 20
9.9900495878
 30
0.0
 10
11.0388944548
 20
9.9879115751
 30
0.0
 10
11.0155849735
 20
9.9860166761
 30
0.0
 10
10.9839949837
 20
9.983808814
 30
0.0
 10
10.943999451
 20
9.9816844617
 30
0.0
 10
10.8955759452
 20
9.9801547572
 30
0.0
 10
10.8468313498
 20
9.979643776
 30
0.0
 10
10.7980867715
 20
9.9801548619
 30
0.0
 10
10.7496633157
 20
9.9816846775
 30
0.0
 10
10.709667846
 20
9.9838091122
 30
0.0
 10
10.6780779236
 20
9.9860170462
 30
0.0
 10
10.6547685054
 20
9.9879119987
 30
0.0
 10
10.6317757044
 20
9.9900500606
 30
0.0
 10
10.6091373803
 20
9.9924277145
 30
0.0
 10
10.5868908486
 20
9.9950410186
 30
0.0
 10
10.5650727664
 20
9.9978856516
 30
0.0
 10
10.5437190804
 20
10.0009569018
 30
0.0
 10
10.5228649638
 20
10.0042496782
 30
0.0
 10
10.5025447608
 20
10.0077585257
 30
0.0
 10
10.4827919321
 20
10.0114776316
 30
0.0
 10
10.4636389944
 20
10.0154008379
 30
0.0
 10
10.4451174596
 20
10.0195216391
 30
0.0
 10
10.4272577824
 20
10.0238332024
 30
0.0
 10
10.4100893121
 20
10.0283283817
 30
0.0
 10
10.393640241
 20
10.0329997302
 30
0.0
 10
10.3779375487
 20
10.0378395151
 30
0.0
 10
10.363006938
 20
10.0428397226
 30
0.0
 10
10.3488728159
 20
10.0479920866
 30
0.0
 10
10.3355581562
 20
10.053288125
 30
0.0
 10
10.3230847681
 20
10.0587191156
 30
0.0
 10
10.3132693367
 20
10.0634162742
 30
0.0
 10
10.3058627538
 20
10.0672423005
 30
0.0
 10
10.3006121702
 20
10.070097974
 30
0.0
 10
10.2955865614
 20
10.0729806086
 30
0.0
 10
10.2907879866
 20
10.0758891004
 30
0.0
 10
10.2862183935
 20
10.0788222413
 30
0.0
 10
10.2818796337
 20
10.0817788441
 30
0.0
 10
10.2777734983
 20
10.0847577525
 30
0.0
 10
10.2739016056
 20
10.0877577506
 30
0.0
 10
10.2702656274
 20
10.0907776252
 30
0.0
 10
10.2679587554
 20
10.0928401191
 30
0.0
 10
10.2668469263
 20
10.0938747959
 30
0.0
  0
SPLINE
  5
2B9
100
AcDbEntity
  8
0
100
AcDbSpline
 62
7
  6
CONTINUOUS
 70
0
 71
3
 72
11
 73
7
 74
0
 42
0.0000001
 43
0.0000001
 44
0.0000000001
 40
0.0
 40
0.0
 40
0.0
 40
0.0
 40
0.2474314543
 40
0.495898719
 40
0.7464232897
 40
1.0
 40
1.0
 40
1.0
 40
1.0
 10
10.3068339009
 20
10.0757359995
 30
0.0
 10
10.3068338983
 20
10.0749265504
 30
0.0
 10
10.3068884567
 20
10.0733037448
 30
0.0
 10
10.3071337384
 20
10.0708724962
 30
0.0
 10
10.3075423417
 20
10.0684429531
 30
0.0
 10
10.3079208327
 20
10.0668365021
 30
0.0
 10
10.3081361913
 20
10.0660353914
 30
0.0
  0
SPLINE
  5
2BA
100
AcDbEntity
  8
0
100
AcDbSpline
 62
7
  6
CONTINUOUS
 70
0
 71
3
 72
18
 73
14
 74
0
 42
0.0000001
 43
0.0000001
 44
0.0000000001
 40
0.0
 40
0.0
 40
0.0
 40
0.0
 40
0.0548626221
 40
0.1099291996
 40
0.1654012684
 40
0.2214754896
 40
0.3361336267
 40
0.4553633642
 40
0.5171046005
 40
0.5804361693
 40
0.7123314363
 40
0.8519591016
 40
1.0
 40
1.0
 40
1.0
 40
1.0
 10
9.6254002753
 20
9.9360875828
 30
0.0
 10
9.6254002724
 20
9.936617187
 30
0.0
 10
9.625433875
 20
9.9376786707
 30
0.0
 10
9.6255850185
 20
9.9392691592
 30
0.0
 10
9.6258368761
 20
9.9408587635
 30
0.0
 10
9.6263101084
 20
9.9429916672
 30
0.0
 10
9.6271627126
 20
9.9456649123
 30
0.0
 10
9.6283303699
 20
9.9482750643
 30
0.0
 10
9.6294539539
 20
9.9503494106
 30
0.0
 10
9.630740507
 20
9.9524713058
 30
0.0
 10
9.6326086104
 20
9.9551149073
 30
0.0
 10
9.6352130927
 20
9.9582215268
 30
0.0
 10
9.6371501854
 20
9.9602149295
 30
0.0
 10
9.6381780579
 20
9.9612077781
 30
0.0
  0
SPLINE
  5
2BB
100
AcDbEntity
  8
0
100
AcDbSpline
 62
7
  6
CONTINUOUS
 70
0
 71
3
 72
41
 73
37
 74
0
 42
0.0000001
 43
0.0000001
 44
0.0000000001
 40
0.0
 40
0.0
 40
0.0
 40
0.0
 40
0.007274041
 40
0.0148710582
 40
0.0227989434
 40
0.0310643193
 40
0.0396725751
 40
0.0486277016
 40
0.0579322029
 40
0.0675876404
 40
0.0775945651
 40
0.0879527025
 40
0.0986610992
 40
0.1097179479
 40
0.1328661912
 40
0.1573729109
 40
0.1832046291
 40
0.2103210901
 40
0.2386760817
 40
0.2682181136
 40
0.2988910312
 40
0.3306344938
 40
0.363384376
 40
0.397073102
 40
0.4316300211
 40
0.4669817303
 40
0.5030523587
 40
0.5397638242
 40
0.5770361082
 40
0.6147875425
 40
0.6529350598
 40
0.6913944367
 40
0.7689060225
 40
0.8466364977
 40
0.9238956881
 40
1.0
 40
1.0
 40
1.0
 40
1.0
 10
10.0975841673
 20
10.4038882867
 30
0.0
 10
10.0983503084
 20
10.4046012238
 30
0.0
 10
10.0999518383
 20
10.4060212585
 30
0.0
 10
10.102498307
 20
10.4080902413
 30
0.0
 10
10.1052387525
 20
10.4101423617
 30
0.0
 10
10.1081714179
 20
10.4121763824
 30
0.0
 10
10.1112946419
 20
10.4141911931
 30
0.0
 10
10.1146066374
 20
10.4161856298
 30
0.0
 10
10.1181054511
 20
10.4181585883
 30
0.0
 10
10.1217890451
 20
10.4201088529
 30
0.0
 10
10.1256552388
 20
10.4220352984
 30
0.0
 10
10.1297017526
 20
10.4239368006
 30
0.0
 10
10.1339262225
 20
10.4258122164
 30
0.0
 10
10.139884171
 20
10.4283148698
 30
0.0
 10
10.1477646765
 20
10.431361918
 30
0.0
 10
10.1577495733
 20
10.4348434905
 30
0.0
 10
10.1683787753
 20
10.4381955877
 30
0.0
 10
10.179627125
 20
10.4414101917
 30
0.0
 10
10.1914681078
 20
10.4444796006
 30
0.0
 10
10.2038736933
 20
10.4473964646
 30
0.0
 10
10.2168144911
 20
10.45015379
 30
0.0
 10
10.2302598119
 20
10.4527449638
 30
0.0
 10
10.2441777452
 20
10.4551637672
 30
0.0
 10
10.258535233
 20
10.4574044094
 30
0.0
 10
10.273298158
 20
10.4594615248
 30
0.0
 10
10.2884314332
 20
10.4613301858
 30
0.0
 10
10.3038990842
 20
10.4630059123
 30
0.0
 10
10.3196643306
 20
10.4644846913
 30
0.0
 10
10.3356896794
 20
10.4657629913
 30
0.0
 10
10.3519370063
 20
10.466837748
 30
0.0
 10
10.368367698
 20
10.4677064097
 30
0.0
 10
10.3905242127
 20
10.468589202
 30
0.0
 10
10.4183900959
 20
10.4691628747
 30
0.0
 10
10.4518440318
 20
10.4690090792
 30
0.0
 10
10.4850809534
 20
10.4680161724
 30
0.0
 10
10.5071147604
 20
10.4667884264
 30
0.0
 10
10.5180379272
 20
10.4660309022
 30
0.0
  0
SPLINE
  5
2BC
100
AcDbEntity
  8
0
100
AcDbSpline
 62
7
  6
CONTINUOUS
 70
0
 71
3
 72
18
 73
14
 74
0
 42
0.0000001
 43
0.0000001
 44
0.0000000001
 40
0.0
 40
0.0
 40
0.0
 40
0.0
 40
0.1492375281
 40
0.289655037
 40
0.421961834
 40
0.4853619434
 40
0.5470838486
 40
0.6660306073
 40
0.780131264
 40
0.8358489547
 40
0.8909261061
 40
0.94557164
 40
1.0
 40
1.0
 40
1.0
 40
1.0
 10
12.3599212219
 20
10.2672394239
 30
0.0
 10
12.3610227155
 20
10.2662143616
 30
0.0
 10
12.3630985689
 20
10.2641562322
 30
0.0
 10
12.3658932866
 20
10.2609431963
 30
0.0
 10
12.3678997053
 20
10.258205899
 30
0.0
 10
12.3692816169
 20
10.2560077374
 30
0.0
 10
12.3704869176
 20
10.2538613626
 30
0.0
 10
12.3717401271
 20
10.2511597416
 30
0.0
 10
12.3726565072
 20
10.2483883243
 30
0.0
 10
12.3731649542
 20
10.246177259
 30
0.0
 10
12.373435408
 20
10.2445300877
 30
0.0
 10
12.3735976946
 20
10.2428819214
 30
0.0
 10
12.3736337959
 20
10.2417818546
 30
0.0
 10
12.3736337988
 20
10.2412330859
 30
0.0
  0
SPLINE
  5
2BD
100
AcDbEntity
  8
0
100
AcDbSpline
 62
7
  6
CONTINUOUS
 70
0
 71
3
 72
41
 73
37
 74
0
 42
0.0000001
 43
0.0000001
 44
0.0000000001
 40
0.0
 40
0.0
 40
0.0
 40
0.0
 40
0.029942123
 40
0.0449237706
 40
0.0599145177
 40
0.0899291716
 40
0.1200145961
 40
0.1350933574
 40
0.1501974726
 40
0.1804849654
 40
0.2108989488
 40
0.2414525624
 40
0.2721557217
 40
0.3030149378
 40
0.3340332219
 40
0.3652100719
 40
0.3965415365
 40
0.4280203507
 40
0.4596361361
 40
0.4913756582
 40
0.5232231336
 40
0.5551605782
 40
0.5871681905
 40
0.6192247616
 40
0.6513081064
 40
0.6833955071
 40
0.7154641657
 40
0.7474916563
 40
0.7794563734
 40
0.811337967
 40
0.843117763
 40
0.8747791516
 40
0.9063079641
 40
0.9376927517
 40
0.9689251728
 40
1.0
 40
1.0
 40
1.0
 40
1.0
 10
11.4620161094
 20
9.1297406681
 30
0.0
 10
11.464346956
 20
9.1319921085
 30
0.0
 10
11.4679805865
 20
9.1352328814
 30
0.0
 10
11.4730694301
 20
9.1392539661
 30
0.0
 10
11.4783203403
 20
9.1430749467
 30
0.0
 10
11.4851719118
 20
9.1474626929
 30
0.0
 10
11.49235663
 20
9.151300697
 30
0.0
 10
11.4982821544
 20
9.1540310878
 30
0.0
 10
11.5043301012
 20
9.156536053
 30
0.0
 10
11.5120893358
 20
9.1592296364
 30
0.0
 10
11.5216514314
 20
9.1617399981
 30
0.0
 10
11.5314221803
 20
9.1635184246
 30
0.0
 10
11.541347436
 20
9.1645550998
 30
0.0
 10
11.5513726758
 20
9.1648444923
 30
0.0
 10
11.5614427378
 20
9.164385129
 30
0.0
 10
11.5715022738
 20
9.1631796634
 30
0.0
 10
11.5814960108
 20
9.1612348375
 30
0.0
 10
11.5913690613
 20
9.1585614448
 30
0.0
 10
11.6010672181
 20
9.1551742665
 30
0.0
 10
11.6105372487
 20
9.151091988
 30
0.0
 10
11.6197271828
 20
9.1463370949
 30
0.0
 10
11.6285865938
 20
9.1409357491
 30
0.0
 10
11.6370668716
 20
9.134917645
 30
0.0
 10
11.6451214863
 20
9.1283158478
 30
0.0
 10
11.65270624
 20
9.1211666129
 30
0.0
 10
11.659779507
 20
9.1135091883
 30
0.0
 10
11.6663024597
 20
9.1053856021
 30
0.0
 10
11.6722392796
 20
9.096840433
 30
0.0
 10
11.6775573521
 20
9.0879205698
 30
0.0
 10
11.6822274448
 20
9.0786749546
 30
0.0
 10
11.6862238657
 20
9.0691543244
 30
0.0
 10
11.689524607
 20
9.0594109122
 30
0.0
 10
11.6921114599
 20
9.0494982529
 30
0.0
 10
11.6939701287
 20
9.039470567
 30
0.0
 10
11.6950902905
 20
9.0293836653
 30
0.0
 10
11.6953411885
 20
9.0226375294
 30
0.0
 10
11.6953411885
 20
9.0192742835
 30
0.0
  0
SPLINE
  5
2BE
100
AcDbEntity
  8
0
100
AcDbSpline
 62
7
  6
CONTINUOUS
 70
0
 71
3
 72
41
 73
37
 74
0
 42
0.0000001
 43
0.0000001
 44
0.0000000001
 40
0.0
 40
0.0
 40
0.0
 40
0.0
 40
0.029942123
 40
0.0449237706
 40
0.0599145177
 40
0.0899291716
 40
0.1200145961
 40
0.1350933574
 40
0.1501974726
 40
0.1804849654
 40
0.2108989488
 40
0.2414525624
 40
0.2721557217
 40
0.3030149378
 40
0.3340332219
 40
0.3652100719
 40
0.3965415365
 40
0.4280203507
 40
0.4596361361
 40
0.4913756582
 40
0.5232231336
 40
0.5551605782
 40
0.5871681905
 40
0.6192247616
 40
0.6513081064
 40
0.6833955071
 40
0.7154641657
 40
0.7474916563
 40
0.7794563734
 40
0.811337967
 40
0.843117763
 40
0.8747791516
 40
0.9063079641
 40
0.9376927517
 40
0.9689251728
 40
1.0
 40
1.0
 40
1.0
 40
1.0
 10
9.7117585173
 20
9.2511214444
 30
0.0
 10
9.714089364
 20
9.2533728848
 30
0.0
 10
9.7177229945
 20
9.2566136577
 30
0.0
 10
9.7228118381
 20
9.2606347423
 30
0.0
 10
9.7280627483
 20
9.264455723
 30
0.0
 10
9.7349143198
 20
9.2688434691
 30
0.0
 10
9.742099038
 20
9.2726814733
 30
0.0
 10
9.7480245624
 20
9.2754118641
 30
0.0
 10
9.7540725092
 20
9.2779168293
 30
0.0
 10
9.7618317438
 20
9.2806104126
 30
0.0
 10
9.7713938394
 20
9.2831207744
 30
0.0
 10
9.7811645883
 20
9.2848992008
 30
0.0
 10
9.791089844
 20
9.285935876
 30
0.0
 10
9.8011150838
 20
9.2862252686
 30
0.0
 10
9.8111851458
 20
9.2857659053
 30
0.0
 10
9.8212446818
 20
9.2845604397
 30
0.0
 10
9.8312384188
 20
9.2826156137
 30
0.0
 10
9.8411114693
 20
9.2799422211
 30
0.0
 10
9.8508096261
 20
9.2765550428
 30
0.0
 10
9.8602796567
 20
9.2724727643
 30
0.0
 10
9.8694695908
 20
9.2677178712
 30
0.0
 10
9.8783290018
 20
9.2623165253
 30
0.0
 10
9.8868092796
 20
9.2562984213
 30
0.0
 10
9.8948638943
 20
9.2496966241
 30
0.0
 10
9.902448648
 20
9.2425473891
 30
0.0
 10
9.909521915
 20
9.2348899646
 30
0.0
 10
9.9160448677
 20
9.2267663783
 30
0.0
 10
9.9219816876
 20
9.2182212093
 30
0.0
 10
9.9272997601
 20
9.2093013461
 30
0.0
 10
9.9319698528
 20
9.2000557309
 30
0.0
 10
9.9359662736
 20
9.1905351006
 30
0.0
 10
9.939267015
 20
9.1807916885
 30
0.0
 10
9.9418538679
 20
9.1708790291
 30
0.0
 10
9.9437125367
 20
9.1608513433
 30
0.0
 10
9.9448326985
 20
9.1507644416
 30
0.0
 10
9.9450835965
 20
9.1440183057
 30
0.0
 10
9.9450835965
 20
9.1406550598
 30
0.0
  0
SPLINE
  5
2BF
100
AcDbEntity
  8
0
100
AcDbSpline
 62
7
  6
CONTINUOUS
 70
0
 71
3
 72
41
 73
37
 74
0
 42
0.0000001
 43
0.0000001
 44
0.0000000001
 40
0.0
 40
0.0
 40
0.0
 40
0.0
 40
0.029942123
 40
0.0449237706
 40
0.0599145177
 40
0.0899291716
 40
0.1200145961
 40
0.1350933574
 40
0.1501974726
 40
0.1804849654
 40
0.2108989488
 40
0.2414525624
 40
0.2721557217
 40
0.3030149378
 40
0.3340332219
 40
0.3652100719
 40
0.3965415365
 40
0.4280203507
 40
0.4596361361
 40
0.4913756582
 40
0.5232231336
 40
0.5551605782
 40
0.5871681905
 40
0.6192247616
 40
0.6513081064
 40
0.6833955071
 40
0.7154641657
 40
0.7474916563
 40
0.7794563734
 40
0.811337967
 40
0.843117763
 40
0.8747791516
 40
0.9063079641
 40
0.9376927517
 40
0.9689251728
 40
1.0
 40
1.0
 40
1.0
 40
1.0
 10
11.4620161094
 20
7.0771481656
 30
0.0
 10
11.464346956
 20
7.079399606
 30
0.0
 10
11.4679805865
 20
7.082640379
 30
0.0
 10
11.4730694301
 20
7.0866614636
 30
0.0
 10
11.4783203403
 20
7.0904824442
 30
0.0
 10
11.4851719118
 20
7.0948701904
 30
0.0
 10
11.49235663
 20
7.0987081945
 30
0.0
 10
11.4982821544
 20
7.1014385854
 30
0.0
 10
11.5043301012
 20
7.1039435505
 30
0.0
 10
11.5120893358
 20
7.1066371339
 30
0.0
 10
11.5216514314
 20
7.1091474956
 30
0.0
 10
11.5314221803
 20
7.1109259221
 30
0.0
 10
11.541347436
 20
7.1119625973
 30
0.0
 10
11.5513726758
 20
7.1122519898
 30
0.0
 10
11.5614427378
 20
7.1117926265
 30
0.0
 10
11.5715022738
 20
7.1105871609
 30
0.0
 10
11.5814960108
 20
7.108642335
 30
0.0
 10
11.5913690613
 20
7.1059689423
 30
0.0
 10
11.6010672181
 20
7.102581764
 30
0.0
 10
11.6105372487
 20
7.0984994855
 30
0.0
 10
11.6197271828
 20
7.0937445924
 30
0.0
 10
11.6285865938
 20
7.0883432466
 30
0.0
 10
11.6370668716
 20
7.0823251425
 30
0.0
 10
11.6451214863
 20
7.0757233454
 30
0.0
 10
11.65270624
 20
7.0685741104
 30
0.0
 10
11.659779507
 20
7.0609166859
 30
0.0
 10
11.6663024597
 20
7.0527930996
 30
0.0
 10
11.6722392796
 20
7.0442479306
 30
0.0
 10
11.6775573521
 20
7.0353280673
 30
0.0
 10
11.6822274448
 20
7.0260824521
 30
0.0
 10
11.6862238657
 20
7.0165618219
 30
0.0
 10
11.689524607
 20
7.0068184097
 30
0.0
 10
11.6921114599
 20
6.9969057504
 30
0.0
 10
11.6939701287
 20
6.9868780645
 30
0.0
 10
11.6950902905
 20
6.9767911628
 30
0.0
 10
11.6953411885
 20
6.970045027
 30
0.0
 10
11.6953411885
 20
6.966681781
 30
0.0
  0
SPLINE
  5
2C0
100
AcDbEntity
  8
0
100
AcDbSpline
 62
7
  6
CONTINUOUS
 70
0
 71
3
 72
41
 73
37
 74
0
 42
0.0000001
 43
0.0000001
 44
0.0000000001
 40
0.0
 40
0.0
 40
0.0
 40
0.0
 40
0.029942123
 40
0.0449237706
 40
0.0599145177
 40
0.0899291716
 40
0.1200145961
 40
0.1350933574
 40
0.1501974726
 40
0.1804849654
 40
0.2108989488
 40
0.2414525624
 40
0.2721557217
 40
0.3030149378
 40
0.3340332219
 40
0.3652100719
 40
0.3965415365
 40
0.4280203507
 40
0.4596361361
 40
0.4913756582
 40
0.5232231336
 40
0.5551605782
 40
0.5871681905
 40
0.6192247616
 40
0.6513081064
 40
0.6833955071
 40
0.7154641657
 40
0.7474916563
 40
0.7794563734
 40
0.811337967
 40
0.843117763
 40
0.8747791516
 40
0.9063079641
 40
0.9376927517
 40
0.9689251728
 40
1.0
 40
1.0
 40
1.0
 40
1.0
 10
9.7117585173
 20
7.1985289419
 30
0.0
 10
9.714089364
 20
7.2007803823
 30
0.0
 10
9.7177229945
 20
7.2040211552
 30
0.0
 10
9.7228118381
 20
7.2080422398
 30
0.0
 10
9.7280627483
 20
7.2118632205
 30
0.0
 10
9.7349143198
 20
7.2162509667
 30
0.0
 10
9.742099038
 20
7.2200889708
 30
0.0
 10
9.7480245624
 20
7.2228193616
 30
0.0
 10
9.7540725092
 20
7.2253243268
 30
0.0
 10
9.7618317438
 20
7.2280179102
 30
0.0
 10
9.7713938394
 20
7.2305282719
 30
0.0
 10
9.7811645883
 20
7.2323066983
 30
0.0
 10
9.791089844
 20
7.2333433735
 30
0.0
 10
9.8011150838
 20
7.2336327661
 30
0.0
 10
9.8111851458
 20
7.2331734028
 30
0.0
 10
9.8212446818
 20
7.2319679372
 30
0.0
 10
9.8312384188
 20
7.2300231112
 30
0.0
 10
9.8411114693
 20
7.2273497186
 30
0.0
 10
9.8508096261
 20
7.2239625403
 30
0.0
 10
9.8602796567
 20
7.2198802618
 30
0.0
 10
9.8694695908
 20
7.2151253687
 30
0.0
 10
9.8783290018
 20
7.2097240229
 30
0.0
 10
9.8868092796
 20
7.2037059188
 30
0.0
 10
9.8948638943
 20
7.1971041216
 30
0.0
 10
9.902448648
 20
7.1899548866
 30
0.0
 10
9.909521915
 20
7.1822974621
 30
0.0
 10
9.9160448677
 20
7.1741738759
 30
0.0
 10
9.9219816876
 20
7.1656287068
 30
0.0
 10
9.9272997601
 20
7.1567088436
 30
0.0
 10
9.9319698528
 20
7.1474632284
 30
0.0
 10
9.9359662736
 20
7.1379425981
 30
0.0
 10
9.939267015
 20
7.128199186
 30
0.0
 10
9.9418538679
 20
7.1182865266
 30
0.0
 10
9.9437125367
 20
7.1082588408
 30
0.0
 10
9.9448326985
 20
7.0981719391
 30
0.0
 10
9.9450835965
 20
7.0914258032
 30
0.0
 10
9.9450835965
 20
7.0880625573
 30
0.0
  0
SPLINE
  5
2C1
100
AcDbEntity
  8
0
100
AcDbSpline
 62
7
  6
CONTINUOUS
 70
0
 71
3
 72
41
 73
37
 74
0
 42
0.0000001
 43
0.0000001
 44
0.0000000001
 40
0.0
 40
0.0
 40
0.0
 40
0.0
 40
0.0071758425
 40
0.0146741453
 40
0.0225035656
 40
0.0306713257
 40
0.0391834036
 40
0.0480443729
 40
0.0572572157
 40
0.0668238661
 40
0.0767452117
 40
0.087021259
 40
0.0976512753
 40
0.1086336553
 40
0.1316452786
 40
0.1560326285
 40
0.1817628121
 40
0.2087958578
 40
0.2370856249
 40
0.2665805114
 40
0.2972240455
 40
0.3289554128
 40
0.3617098907
 40
0.3954192316
 40
0.4300120033
 40
0.4654138991
 40
0.5015480605
 40
0.5383353682
 40
0.5756947176
 40
0.6135432851
 40
0.6517967846
 40
0.6903697386
 40
0.7681261117
 40
0.8461161118
 40
0.923638923
 40
1.0
 40
1.0
 40
1.0
 40
1.0
 10
11.9322520313
 20
9.8021132077
 30
0.0
 10
11.9314403272
 20
9.8013291617
 30
0.0
 10
11.9297400772
 20
9.7997672111
 30
0.0
 10
11.9270283607
 20
9.797491463
 30
0.0
 10
11.9241019593
 20
9.7952337746
 30
0.0
 10
11.9209627775
 20
9.7929956
 30
0.0
 10
11.9176126542
 20
9.7907781527
 30
0.0
 10
11.9140535155
 20
9.7885827374
 30
0.0
 10
11.9102874808
 20
9.7864105748
 30
0.0
 10
11.9063167702
 20
9.7842630076
 30
0.0
 10
11.9021437581
 20
9.7821412949
 30
0.0
 10
11.8977709332
 20
9.78004669
 30
0.0
 10
11.8932008827
 20
9.7779804584
 30
0.0
 10
11.8867473529
 20
9.7752219122
 30
0.0
 10
11.8781999409
 20
9.7718626605
 30
0.0
 10
11.8673564791
 20
9.7680241022
 30
0.0
 10
11.8557982459
 20
9.7643270813
 30
0.0
 10
11.8435529249
 20
9.7607805402
 30
0.0
 10
11.8306497131
 20
9.7573930798
 30
0.0
 10
11.8171195116
 20
9.7541729202
 30
0.0
 10
11.8029947598
 20
9.7511278727
 30
0.0
 10
11.7883093643
 20
9.7482653273
 30
0.0
 10
11.7730986019
 20
9.7455922305
 30
0.0
 10
11.7573990317
 20
9.7431150694
 30
0.0
 10
11.7412484065
 20
9.7408398555
 30
0.0
 10
11.7246855809
 20
9.7387721016
 30
0.0
 10
11.7077504112
 20
9.7369168181
 30
0.0
 10
11.6904836561
 20
9.7352785012
 30
0.0
 10
11.6729268738
 20
9.7338611196
 30
0.0
 10
11.6551223382
 20
9.7326681169
 30
0.0
 10
11.6371128803
 20
9.7317023563
 30
0.0
 10
11.6128212006
 20
9.7307183172
 30
0.0
 10
11.582264054
 20
9.7300728442
 30
0.0
 10
11.5455745703
 20
9.7302275133
 30
0.0
 10
11.5091202856
 20
9.7313080177
 30
0.0
 10
11.4849531925
 20
9.7326526293
 30
0.0
 10
11.4729727631
 20
9.7334834749
 30
0.0
  0
SPLINE
  5
2C2
100
AcDbEntity
  8
0
100
AcDbSpline
 62
7
  6
CONTINUOUS
 70
0
 71
3
 72
15
 73
11
 74
0
 42
0.0000001
 43
0.0000001
 44
0.0000000001
 40
0.0
 40
0.0
 40
0.0
 40
0.0
 40
0.1273482789
 40
0.2538606571
 40
0.3795878378
 40
0.5046051156
 40
0.629017439
 40
0.7529533823
 40
0.8765605864
 40
1.0
 40
1.0
 40
1.0
 40
1.0
 10
9.6736584233
 20
7.106885957
 30
0.0
 10
9.6736584233
 20
7.1112130407
 30
0.0
 10
9.6740715736
 20
7.1198447875
 30
0.0
 10
9.6759399782
 20
7.1326263895
 30
0.0
 10
9.6790381174
 20
7.1450868442
 30
0.0
 10
9.6833380053
 20
7.1571096165
 30
0.0
 10
9.6888002056
 20
7.1685838331
 30
0.0
 10
9.6953748898
 20
7.1794035547
 30
0.0
 10
9.7030002592
 20
7.1894673995
 30
0.0
 10
9.7087417815
 20
7.1956149789
 30
0.0
 10
9.7117585173
 20
7.1985289419
 30
0.0
  0
SPLINE
  5
2C3
100
AcDbEntity
  8
0
100
AcDbSpline
 62
7
  6
CONTINUOUS
 70
0
 71
3
 72
98
 73
94
 74
0
 42
0.0000001
 43
0.0000001
 44
0.0000000001
 40
0.0
 40
0.0
 40
0.0
 40
0.0
 40
0.0041939553
 40
0.0085762448
 40
0.0131519833
 40
0.0179255157
 40
0.0229003708
 40
0.0280790893
 40
0.0334634539
 40
0.0390545758
 40
0.044853011
 40
0.050858763
 40
0.0570713666
 40
0.0634899249
 40
0.0701131495
 40
0.0769394067
 40
0.0839667195
 40
0.091192834
 40
0.1062306023
 40
0.1220298185
 40
0.1385635086
 40
0.1558015131
 40
0.1737108355
 40
0.1922559366
 40
0.2113989882
 40
0.2311000984
 40
0.2513175161
 40
0.2720078189
 40
0.2931260908
 40
0.3146260906
 40
0.3364604144
 40
0.3585806542
 40
0.3809375523
 40
0.4034811538
 40
0.426160958
 40
0.4489260676
 40
0.4717253378
 40
0.4945075251
 40
0.5172214354
 40
0.5398160724
 40
0.5622407867
 40
0.5844454248
 40
0.6063804801
 40
0.6279972441
 40
0.649247961
 40
0.6700859842
 40
0.6904659376
 40
0.7103438814
 40
0.7296774872
 40
0.7484262213
 40
0.7665515437
 40
0.7840171253
 40
0.8007890915
 40
0.8168363012
 40
0.8321306757
 40
0.8394879179
 40
0.8466480404
 40
0.8536085741
 40
0.8603673616
 40
0.8669225327
 40
0.8732725674
 40
0.8794163035
 40
0.8853529823
 40
0.8910822945
 40
0.8966044104
 40
0.9019200692
 40
0.9070305995
 40
0.9119380552
 40
0.9166452379
 40
0.9211558794
 40
0.925474681
 40
0.9296075392
 40
0.9335616146
 40
0.9373455889
 40
0.940969761
 40
0.9444462997
 40
0.9477893305
 40
0.9510151011
 40
0.9541419633
 40
0.9571903194
 40
0.9601823634
 40
0.963141701
 40
0.9660927997
 40
0.969060351
 40
0.9720685997
 40
0.9751407383
 40
0.9782984034
 40
0.981561333
 40
0.9849471444
 40
0.9884713895
 40
0.9921476219
 40
0.9959873773
 40
1.0
 40
1.0
 40
1.0
 40
1.0
 10
10.2653465179
 20
10.1759496912
 30
0.0
 10
10.266649605
 20
10.1772083768
 30
0.0
 10
10.2693790887
 20
10.1797158608
 30
0.0
 10
10.2737322933
 20
10.1833691914
 30
0.0
 10
10.2784301108
 20
10.1869934657
 30
0.0
 10
10.2834695021
 20
10.190586481
 30
0.0
 10
10.28884759
 20
10.1941462036
 30
0.0
 10
10.2945611915
 20
10.1976706337
 30
0.0
 10
10.3006069491
 20
10.2011576467
 30
0.0
 10
10.306981252
 20
10.2046052152
 30
0.0
 10
10.3136803243
 20
10.2080112695
 30
0.0
 10
10.3207001731
 20
10.2113738025
 30
0.0
 10
10.3280366165
 20
10.2146907923
 30
0.0
 10
10.3356852702
 20
10.2179602525
 30
0.0
 10
10.3436415593
 20
10.2211802288
 30
0.0
 10
10.35190072
 20
10.2243487649
 30
0.0
 10
10.3604578101
 20
10.2274640009
 30
0.0
 10
10.3724169013
 20
10.2315989878
 30
0.0
 10
10.3880803965
 20
10.2366090174
 30
0.0
 10
10.4077381328
 20
10.2423023987
 30
0.0
 10
10.428452116
 20
10.2477403994
 30
0.0
 10
10.4501725872
 20
10.2529098335
 30
0.0
 10
10.4728475202
 20
10.2577981521
 30
0.0
 10
10.4964224749
 20
10.2623934913
 30
0.0
 10
10.5208408225
 20
10.2666846997
 30
0.0
 10
10.5460438673
 20
10.2706613664
 30
0.0
 10
10.5719710015
 20
10.2743138467
 30
0.0
 10
10.5985598542
 20
10.2776332845
 30
0.0
 10
10.625746446
 20
10.2806116337
 30
0.0
 10
10.6534653465
 20
10.2832416767
 30
0.0
 10
10.6816498339
 20
10.2855170413
 30
0.0
 10
10.710232058
 20
10.2874322161
 30
0.0
 10
10.7391432046
 20
10.2889825626
 30
0.0
 10
10.7683136634
 20
10.2901643266
 30
0.0
 10
10.7976731961
 20
10.2909746467
 30
0.0
 10
10.827151107
 20
10.2914115612
 30
0.0
 10
10.8566764138
 20
10.2914740122
 30
0.0
 10
10.8861780197
 20
10.2911618487
 30
0.0
 10
10.9155848852
 20
10.2904758263
 30
0.0
 10
10.9448262
 20
10.2894176061
 30
0.0
 10
10.9738315547
 20
10.2879897502
 30
0.0
 10
11.0025311108
 20
10.2861957162
 30
0.0
 10
11.0308557703
 20
10.2840398487
 30
0.0
 10
11.0587373433
 20
10.2815273696
 30
0.0
 10
11.0861087138
 20
10.2786643657
 30
0.0
 10
11.1129040029
 20
10.2754577744
 30
0.0
 10
11.1390587299
 20
10.2719153675
 30
0.0
 10
11.1645099705
 20
10.2680457334
 30
0.0
 10
11.1891965121
 20
10.2638582563
 30
0.0
 10
11.2130590043
 20
10.2593630942
 30
0.0
 10
11.2360401144
 20
10.2545711548
 30
0.0
 10
11.2580846514
 20
10.2494940671
 30
0.0
 10
11.2791397869
 20
10.2441441576
 30
0.0
 10
11.2991549253
 20
10.2385343957
 30
0.0
 10
11.3151276716
 20
10.2335926956
 30
0.0
 10
11.3273421198
 20
10.2295102992
 30
0.0
 10
11.3360949919
 20
10.2264316785
 30
0.0
 10
11.3445533327
 20
10.2232984767
 30
0.0
 10
11.3527120844
 20
10.2201125804
 30
0.0
 10
11.3605663533
 20
10.2168758936
 30
0.0
 10
11.3681114411
 20
10.2135903713
 30
0.0
 10
11.3753428366
 20
10.2102579815
 30
0.0
 10
11.3822562206
 20
10.2068807142
 30
0.0
 10
11.3888474775
 20
10.2034605999
 30
0.0
 10
11.3951126771
 20
10.1999996507
 30
0.0
 10
11.4010481127
 20
10.1964999485
 30
0.0
 10
11.40665025
 20
10.1929635131
 30
0.0
 10
11.4119158013
 20
10.1893924603
 30
0.0
 10
11.4168416295
 20
10.1857888001
 30
0.0
 10
11.4214248672
 20
10.1821546571
 30
0.0
 10
11.4256627646
 20
10.1784920108
 30
0.0
 10
11.4295528577
 20
10.1748029624
 30
0.0
 10
11.4330927518
 20
10.1710894441
 30
0.0
 10
11.4362803361
 20
10.1673535077
 30
0.0
 10
11.4391135059
 20
10.1635970455
 30
0.0
 10
11.4415904112
 20
10.1598220781
 30
0.0
 10
11.4437091496
 20
10.1560305404
 30
0.0
 10
11.4454680411
 20
10.1522245488
 30
0.0
 10
11.4468653643
 20
10.1484062877
 30
0.0
 10
11.4478996645
 20
10.1445782161
 30
0.0
 10
11.4485696238
 20
10.1407430114
 30
0.0
 10
11.4488743571
 20
10.1369036267
 30
0.0
 10
11.4488134051
 20
10.1330631811
 30
0.0
 10
11.4483868561
 20
10.129224851
 30
0.0
 10
11.4475953443
 20
10.1253917067
 30
0.0
 10
11.4464398796
 20
10.1215666215
 30
0.0
 10
11.4449218687
 20
10.1177521821
 30
0.0
 10
11.4430428291
 20
10.1139507829
 30
0.0
 10
11.4408045384
 20
10.110164546
 30
0.0
 10
11.4382086807
 20
10.1063955337
 30
0.0
 10
11.4352570988
 20
10.1026456215
 30
0.0
 10
11.4319518837
 20
10.0989170196
 30
0.0
 10
11.4295680276
 20
10.0965013816
 30
0.0
 10
11.4283212816
 20
10.0952971174
 30
0.0
  0
SPLINE
  5
2C4
100
AcDbEntity
  8
0
100
AcDbSpline
 62
7
  6
CONTINUOUS
 70
0
 71
3
 72
90
 73
86
 74
0
 42
0.0000001
 43
0.0000001
 44
0.0000000001
 40
0.0
 40
0.0
 40
0.0
 40
0.0
 40
0.0039801748
 40
0.0081241083
 40
0.0124359664
 40
0.0169193203
 40
0.0215771904
 40
0.0264119283
 40
0.0314251927
 40
0.0366181713
 40
0.0419915586
 40
0.0475456759
 40
0.0532804473
 40
0.0591954422
 40
0.0652899509
 40
0.0715629324
 40
0.0846386029
 40
0.0984099133
 40
0.1128604822
 40
0.1279710057
 40
0.1437195952
 40
0.1600820547
 40
0.1770321104
 40
0.1945416053
 40
0.2125806785
 40
0.23111792
 40
0.2501205111
 40
0.2695543539
 40
0.2893841927
 40
0.3095737274
 40
0.3300857268
 40
0.3508821391
 40
0.3719241968
 40
0.3931725203
 40
0.4145872192
 40
0.436127993
 40
0.4577542321
 40
0.479425119
 40
0.5010997286
 40
0.5227371263
 40
0.5442964677
 40
0.565737098
 40
0.5870186528
 40
0.60810116
 40
0.6289451394
 40
0.6495117046
 40
0.6697626658
 40
0.6896606345
 40
0.709169133
 40
0.7282527076
 40
0.746877041
 40
0.7650090726
 40
0.7826171259
 40
0.7996710471
 40
0.8161423571
 40
0.832004426
 40
0.8472326642
 40
0.8618047444
 40
0.8757008693
 40
0.8889040976
 40
0.8952416822
 40
0.9014012287
 40
0.9073815977
 40
0.9131819755
 40
0.9188018145
 40
0.9242409107
 40
0.9294994355
 40
0.934577928
 40
0.9394774225
 40
0.9441993994
 40
0.9487459379
 40
0.9531197181
 40
0.9573241223
 40
0.9613633455
 40
0.9652424329
 40
0.9689674742
 40
0.9725456325
 40
0.9759853347
 40
0.9824864939
 40
0.9855753492
 40
0.9885738133
 40
0.9914977343
 40
0.9943643337
 40
0.9971920087
 40
1.0
 40
1.0
 40
1.0
 40
1.0
 10
10.3252339227
 20
10.1119090808
 30
0.0
 10
10.3263034258
 20
10.1129421416
 30
0.0
 10
10.3285350047
 20
10.1150009589
 30
0.0
 10
10.3320780683
 20
10.1180080202
 30
0.0
 10
10.3358813144
 20
10.1209935172
 30
0.0
 10
10.3399426555
 20
10.1239558535
 30
0.0
 10
10.3442601049
 20
10.1268936529
 30
0.0
 10
10.3488315546
 20
10.1298054781
 30
0.0
 10
10.3536547153
 20
10.1326899448
 30
0.0
 10
10.3587271961
 20
10.135545551
 30
0.0
 10
10.3640464356
 20
10.1383709209
 30
0.0
 10
10.369609785
 20
10.1411646135
 30
0.0
 10
10.3754144539
 20
10.1439252367
 30
0.0
 10
10.3814575222
 20
10.1466514133
 30
0.0
 10
10.3877359701
 20
10.1493417544
 30
0.0
 10
10.396538903
 20
10.1529289799
 30
0.0
 10
10.4081155004
 20
10.1573039443
 30
0.0
 10
10.4227079319
 20
10.1623199048
 30
0.0
 10
10.4381574966
 20
10.1671617033
 30
0.0
 10
10.4544330438
 20
10.1718194994
 30
0.0
 10
10.4715019009
 20
10.1762838126
 30
0.0
 10
10.4893296855
 20
10.1805455502
 30
0.0
 10
10.5078804588
 20
10.1845960286
 30
0.0
 10
10.5271167838
 20
10.1884269989
 30
0.0
 10
10.5469998151
 20
10.1920306585
 30
0.0
 10
10.5674893824
 20
10.1953996689
 30
0.0
 10
10.5885440754
 20
10.1985271705
 30
0.0
 10
10.6101213302
 20
10.2014067963
 30
0.0
 10
10.6321775154
 20
10.2040326837
 30
0.0
 10
10.654668022
 20
10.2063994906
 30
0.0
 10
10.6775473552
 20
10.2085024038
 30
0.0
 10
10.7007692294
 20
10.2103371465
 30
0.0
 10
10.724286663
 20
10.2118999877
 30
0.0
 10
10.7480520741
 20
10.213187749
 30
0.0
 10
10.7720173759
 20
10.2141978106
 30
0.0
 10
10.7961340749
 20
10.2149281179
 30
0.0
 10
10.8203533692
 20
10.2153771881
 30
0.0
 10
10.8446262491
 20
10.2155441094
 30
0.0
 10
10.8689035964
 20
10.2154285428
 30
0.0
 10
10.8931362838
 20
10.2150307228
 30
0.0
 10
10.9172752744
 20
10.2143514574
 30
0.0
 10
10.9412717212
 20
10.2133921255
 30
0.0
 10
10.965077067
 20
10.2121546781
 30
0.0
 10
10.9886431442
 20
10.2106416329
 30
0.0
 10
11.0119222715
 20
10.2088560669
 30
0.0
 10
11.0348673513
 20
10.2068016113
 30
0.0
 10
11.0574319641
 20
10.2044824441
 30
0.0
 10
11.0795704644
 20
10.2019032815
 30
0.0
 10
11.1012380751
 20
10.1990693702
 30
0.0
 10
11.1223909806
 20
10.1959864794
 30
0.0
 10
11.1429864163
 20
10.1926608851
 30
0.0
 10
11.1629827558
 20
10.1890993583
 30
0.0
 10
11.1823395966
 20
10.1853091515
 30
0.0
 10
11.2010178462
 20
10.181297984
 30
0.0
 10
11.2189798051
 20
10.1770740248
 30
0.0
 10
11.236189257
 20
10.1726458799
 30
0.0
 10
11.2526115283
 20
10.1680225695
 30
0.0
 10
11.2682136388
 20
10.1632135054
 30
0.0
 10
11.2829641227
 20
10.1582284637
 30
0.0
 10
11.2946765724
 20
10.153878774
 30
0.0
 10
11.3035909488
 20
10.1503109379
 30
0.0
 10
11.3099542102
 20
10.1476339649
 30
0.0
 10
11.3160832267
 20
10.1449206599
 30
0.0
 10
11.3219749351
 20
10.1421724081
 30
0.0
 10
11.327626369
 20
10.1393905767
 30
0.0
 10
11.3330346922
 20
10.1365765595
 30
0.0
 10
11.3381972064
 20
10.1337317933
 30
0.0
 10
11.3431113104
 20
10.130857651
 30
0.0
 10
11.3477745752
 20
10.1279556172
 30
0.0
 10
11.3521846528
 20
10.1250270736
 30
0.0
 10
11.3563393657
 20
10.1220734933
 30
0.0
 10
11.3602366444
 20
10.1190963034
 30
0.0
 10
11.3638745384
 20
10.1160969178
 30
0.0
 10
11.3672512605
 20
10.1130768147
 30
0.0
 10
11.3703650913
 20
10.1100373231
 30
0.0
 10
11.373214434
 20
10.1069800137
 30
0.0
 10
11.3757980092
 20
10.1039058643
 30
0.0
 10
11.3788288186
 20
10.099863743
 30
0.0
 10
11.3814024434
 20
10.0957126472
 30
0.0
 10
11.383445812
 20
10.0914729313
 30
0.0
 10
11.3846803849
 20
10.0883373346
 30
0.0
 10
11.3856418191
 20
10.0851941196
 30
0.0
 10
11.3863292635
 20
10.0820447925
 30
0.0
 10
11.3867420178
 20
10.0788916143
 30
0.0
 10
11.386833902
 20
10.0767850419
 30
0.0
 10
11.3868338986
 20
10.0757359995
 30
0.0
  0
SPLINE
  5
2C5
100
AcDbEntity
  8
0
100
AcDbSpline
 62
7
  6
CONTINUOUS
 70
0
 71
3
 72
29
 73
25
 74
0
 42
0.0000001
 43
0.0000001
 44
0.0000000001
 40
0.0
 40
0.0
 40
0.0
 40
0.0
 40
0.0749503018
 40
0.1455451337
 40
0.2121258776
 40
0.2751189758
 40
0.3350444582
 40
0.3640579848
 40
0.3925445726
 40
0.4205959445
 40
0.4483085348
 40
0.4757828051
 40
0.5031221121
 40
0.5304314619
 40
0.5578162633
 40
0.5853809369
 40
0.6132277198
 40
0.6414555022
 40
0.6701587554
 40
0.7293215645
 40
0.7913859933
 40
0.8569000361
 40
0.9263186416
 40
1.0
 40
1.0
 40
1.0
 40
1.0
 10
10.2668469263
 20
10.0938747959
 30
0.0
 10
10.2651085855
 20
10.0954925094
 30
0.0
 10
10.2618293205
 20
10.0987403504
 30
0.0
 10
10.2574045286
 20
10.1038073281
 30
0.0
 10
10.2536313855
 20
10.1089146358
 30
0.0
 10
10.2505155371
 20
10.1140571459
 30
0.0
 10
10.2484488886
 20
10.1184158381
 30
0.0
 10
10.2471448564
 20
10.12190205
 30
0.0
 10
10.2463438939
 20
10.1244932035
 30
0.0
 10
10.2457099685
 20
10.1270878077
 30
0.0
 10
10.2452433484
 20
10.129685155
 30
0.0
 10
10.244944245
 20
10.1322844124
 30
0.0
 10
10.2448127513
 20
10.1348847519
 30
0.0
 10
10.2448489697
 20
10.1374853341
 30
0.0
 10
10.2450528867
 20
10.1400853075
 30
0.0
 10
10.2454243665
 20
10.1426838425
 30
0.0
 10
10.2459632645
 20
10.1452800965
 30
0.0
 10
10.2466694083
 20
10.1478733329
 30
0.0
 10
10.2478450117
 20
10.151360479
 30
0.0
 10
10.2497510938
 20
10.1557230459
 30
0.0
 10
10.252679299
 20
10.1608748856
 30
0.0
 10
10.2562663667
 20
10.1659928122
 30
0.0
 10
10.2605065673
 20
10.1710715484
 30
0.0
 10
10.2636674773
 20
10.1743278624
 30
0.0
 10
10.2653465179
 20
10.1759496912
 30
0.0
  0
SPLINE
  5
2C6
100
AcDbEntity
  8
0
100
AcDbSpline
 62
7
  6
CONTINUOUS
 70
0
 71
3
 72
41
 73
37
 74
0
 42
0.0000001
 43
0.0000001
 44
0.0000000001
 40
0.0
 40
0.0
 40
0.0
 40
0.0
 40
0.0071758902
 40
0.0146741867
 40
0.0225035649
 40
0.0306712991
 40
0.0391833969
 40
0.0480443768
 40
0.0572572179
 40
0.0668238706
 40
0.0767452001
 40
0.0870212655
 40
0.0976512713
 40
0.1086336532
 40
0.1316452661
 40
0.1560326197
 40
0.1817628146
 40
0.2087958703
 40
0.2370856338
 40
0.2665805046
 40
0.2972240311
 40
0.3289554059
 40
0.3617098967
 40
0.3954192431
 40
0.4300120068
 40
0.465413893
 40
0.5015480521
 40
0.5383353662
 40
0.5756947223
 40
0.613543289
 40
0.6517967845
 40
0.6903697365
 40
0.7681261105
 40
0.8461161116
 40
0.9236389843
 40
1.0
 40
1.0
 40
1.0
 40
1.0
 10
11.9322520313
 20
9.5306880282
 30
0.0
 10
11.9314403218
 20
9.529903977
 30
0.0
 10
11.9297400684
 20
9.5283420205
 30
0.0
 10
11.9270283526
 20
9.5260662715
 30
0.0
 10
11.9241019561
 20
9.523808596
 30
0.0
 10
11.9209627831
 20
9.5215704221
 30
0.0
 10
11.9176126563
 20
9.5193529788
 30
0.0
 10
11.9140535169
 20
9.5171575562
 30
0.0
 10
11.9102874817
 20
9.5149853907
 30
0.0
 10
11.9063167689
 20
9.5128378328
 30
0.0
 10
11.9021437612
 20
9.5107161097
 30
0.0
 10
11.8977709321
 20
9.5086215168
 30
0.0
 10
11.8932008846
 20
9.5065552751
 30
0.0
 10
11.8867473553
 20
9.5037967351
 30
0.0
 10
11.8781999466
 20
9.5004374774
 30
0.0
 10
11.8673564831
 20
9.4965989212
 30
0.0
 10
11.8557982453
 20
9.4929019019
 30
0.0
 10
11.8435529206
 20
9.4893553634
 30
0.0
 10
11.8306497104
 20
9.4859679027
 30
0.0
 10
11.8171195143
 20
9.4827477391
 30
0.0
 10
11.8029947653
 20
9.4797026894
 30
0.0
 10
11.7883093675
 20
9.4768401458
 30
0.0
 10
11.7730986003
 20
9.4741670524
 30
0.0
 10
11.757399028
 20
9.4716898936
 30
0.0
 10
11.7412484052
 20
9.4694146772
 30
0.0
 10
11.7246855832
 20
9.4673469199
 30
0.0
 10
11.7077504145
 20
9.4654916348
 30
0.0
 10
11.6904836574
 20
9.4638533202
 30
0.0
 10
11.6729268728
 20
9.4624359425
 30
0.0
 10
11.6551223368
 20
9.46124294
 30
0.0
 10
11.6371128802
 20
9.4602771771
 30
0.0
 10
11.6128212013
 20
9.4592931347
 30
0.0
 10
11.5822640547
 20
9.4586476645
 30
0.0
 10
11.545574561
 20
9.458802335
 30
0.0
 10
11.509120276
 20
9.4598828382
 30
0.0
 10
11.4849531829
 20
9.4612274504
 30
0.0
 10
11.4729727631
 20
9.4620582954
 30
0.0
  0
SPLINE
  5
2C7
100
AcDbEntity
  8
0
100
AcDbSpline
 62
7
  6
CONTINUOUS
 70
0
 71
3
 72
54
 73
50
 74
0
 42
0.0000001
 43
0.0000001
 44
0.0000000001
 40
0.0
 40
0.0
 40
0.0
 40
0.0
 40
0.052784991
 40
0.1048060923
 40
0.1559445044
 40
0.2060905216
 40
0.2551340321
 40
0.3029694639
 40
0.3494949945
 40
0.3946130603
 40
0.438230921
 40
0.4802611185
 40
0.5206221511
 40
0.559239105
 40
0.5960444107
 40
0.6309787921
 40
0.663992489
 40
0.6950468015
 40
0.709831479
 40
0.7241178387
 40
0.7379051855
 40
0.751193962
 40
0.7639858374
 40
0.7762841535
 40
0.7880937245
 40
0.7994213683
 40
0.8102760565
 40
0.8206690605
 40
0.830614617
 40
0.8401299511
 40
0.8492359035
 40
0.8579573592
 40
0.8663234793
 40
0.8743683592
 40
0.8821310443
 40
0.8896557027
 40
0.8969914552
 40
0.9041916844
 40
0.9113132101
 40
0.9184149027
 40
0.9255561887
 40
0.9327954181
 40
0.9401884307
 40
0.9477872381
 40
0.9637758035
 40
0.972256837
 40
0.9811038595
 40
0.9903441354
 40
1.0
 40
1.0
 40
1.0
 40
1.0
 10
9.9113665862
 20
9.8800313511
 30
0.0
 10
9.9059650277
 20
9.8804059504
 30
0.0
 10
9.8952449309
 20
9.8812218946
 30
0.0
 10
9.879312641
 20
9.8826575782
 30
0.0
 10
9.8636717674
 20
9.8842936043
 30
0.0
 10
9.8483602164
 20
9.8861259264
 30
0.0
 10
9.833414645
 20
9.8881501624
 30
0.0
 10
9.8188710838
 20
9.8903613853
 30
0.0
 10
9.8047644913
 20
9.89275423
 30
0.0
 10
9.7911287791
 20
9.8953228929
 30
0.0
 10
9.777996716
 20
9.8980611405
 30
0.0
 10
9.7653998349
 20
9.9009623354
 30
0.0
 10
9.7533683495
 20
9.9040194305
 30
0.0
 10
9.7419310682
 20
9.9072250043
 30
0.0
 10
9.731115346
 20
9.9105712818
 30
0.0
 10
9.7209469232
 20
9.9140501685
 30
0.0
 10
9.7114501197
 20
9.9176532595
 30
0.0
 10
9.703996945
 20
9.9208015994
 30
0.0
 10
9.6983951622
 20
9.923382939
 30
0.0
 10
9.6944446551
 20
9.9253128259
 30
0.0
 10
9.6906782263
 20
9.9272671793
 30
0.0
 10
9.6870981045
 20
9.9292448486
 30
0.0
 10
9.6837064372
 20
9.9312447001
 30
0.0
 10
9.6805052068
 20
9.9332655008
 30
0.0
 10
9.6774963261
 20
9.935306114
 30
0.0
 10
9.6746815671
 20
9.937365347
 30
0.0
 10
9.672062569
 20
9.9394419938
 30
0.0
 10
9.6696409187
 20
9.9415349412
 30
0.0
 10
9.6674180098
 20
9.9436429695
 30
0.0
 10
9.6653952015
 20
9.9457649684
 30
0.0
 10
9.6635737474
 20
9.9478998103
 30
0.0
 10
9.6619547626
 20
9.9500463347
 30
0.0
 10
9.660539417
 20
9.9522034806
 30
0.0
 10
9.6593286933
 20
9.9543700618
 30
0.0
 10
9.658323611
 20
9.9565449154
 30
0.0
 10
9.6575251562
 20
9.9587267837
 30
0.0
 10
9.6569341052
 20
9.9609142471
 30
0.0
 10
9.6565512883
 20
9.9631057971
 30
0.0
 10
9.6563771569
 20
9.9652997296
 30
0.0
 10
9.656411965
 20
9.9674942688
 30
0.0
 10
9.6566557344
 20
9.969687602
 30
0.0
 10
9.657107994
 20
9.971877957
 30
0.0
 10
9.6577683258
 20
9.9740638003
 30
0.0
 10
9.6589444792
 20
9.9770194143
 30
0.0
 10
9.6605323418
 20
9.9799171327
 30
0.0
 10
9.6624717304
 20
9.9827327751
 30
0.0
 10
9.6641585155
 20
9.9848758146
 30
0.0
 10
9.6660471757
 20
9.9870063865
 30
0.0
 10
9.6674093597
 20
9.9883867515
 30
0.0
 10
9.6681217603
 20
9.9890748777
 30
0.0
  0
SPLINE
  5
2C8
100
AcDbEntity
  8
0
100
AcDbSpline
 62
7
  6
CONTINUOUS
 70
0
 71
3
 72
18
 73
14
 74
0
 42
0.0000001
 43
0.0000001
 44
0.0000000001
 40
0.0
 40
0.0
 40
0.0
 40
0.0
 40
0.0548626421
 40
0.1099292106
 40
0.1654012798
 40
0.2214755109
 40
0.3361334555
 40
0.4553634493
 40
0.5171048472
 40
0.5804364723
 40
0.7123312612
 40
0.8519581829
 40
1.0
 40
1.0
 40
1.0
 40
1.0
 10
12.3736337981
 20
9.9698079064
 30
0.0
 10
12.373633798
 20
9.969278302
 30
0.0
 10
12.3736001903
 20
9.9682168187
 30
0.0
 10
12.373449063
 20
9.9666263285
 30
0.0
 10
12.3731972018
 20
9.9650367243
 30
0.0
 10
12.3727239583
 20
9.9629038253
 30
0.0
 10
12.3718713757
 20
9.9602305724
 30
0.0
 10
12.3707036986
 20
9.9576204261
 30
0.0
 10
12.3695801171
 20
9.9555460735
 30
0.0
 10
12.3682935655
 20
9.9534241801
 30
0.0
 10
12.3664254668
 20
9.9507805892
 30
0.0
 10
12.3638209931
 20
9.9476739661
 30
0.0
 10
12.3618838951
 20
9.9456805659
 30
0.0
 10
12.3608560162
 20
9.9446877111
 30
0.0
  0
SPLINE
  5
2C9
100
AcDbEntity
  8
0
100
AcDbSpline
 62
7
  6
CONTINUOUS
 70
0
 71
3
 72
18
 73
14
 74
0
 42
0.0000001
 43
0.0000001
 44
0.0000000001
 40
0.0
 40
0.0
 40
0.0
 40
0.0
 40
0.0548626221
 40
0.1099291996
 40
0.1654012684
 40
0.2214754896
 40
0.3361336267
 40
0.4553633642
 40
0.5171046005
 40
0.5804361693
 40
0.7123314363
 40
0.8519591016
 40
1.0
 40
1.0
 40
1.0
 40
1.0
 10
12.3736337988
 20
10.2412330859
 30
0.0
 10
12.3736338017
 20
10.2407034817
 30
0.0
 10
12.3736001992
 20
10.239641998
 30
0.0
 10
12.3734490556
 20
10.2380515095
 30
0.0
 10
12.373197198
 20
10.2364619052
 30
0.0
 10
12.3727239657
 20
10.2343290015
 30
0.0
 10
12.3718713615
 20
10.2316557564
 30
0.0
 10
12.3707037042
 20
10.2290456044
 30
0.0
 10
12.3695801202
 20
10.2269712581
 30
0.0
 10
12.3682935671
 20
10.224849363
 30
0.0
 10
12.3664254637
 20
10.2222057614
 30
0.0
 10
12.3638209814
 20
10.2190991419
 30
0.0
 10
12.3618838887
 20
10.2171057392
 30
0.0
 10
12.3608560162
 20
10.2161128906
 30
0.0
  0
SPLINE
  5
2CA
100
AcDbEntity
  8
0
100
AcDbSpline
 62
7
  6
CONTINUOUS
 70
0
 71
3
 72
40
 73
36
 74
0
 42
0.0000001
 43
0.0000001
 44
0.0000000001
 40
0.0
 40
0.0
 40
0.0
 40
0.0
 40
0.0958312793
 40
0.1891000446
 40
0.2345965891
 40
0.279241512
 40
0.3229681675
 40
0.3657118109
 40
0.4074099461
 40
0.4480024746
 40
0.4874320226
 40
0.5256441407
 40
0.5625874576
 40
0.5982141394
 40
0.6324802032
 40
0.6653457683
 40
0.6967756912
 40
0.7267401448
 40
0.7552151418
 40
0.7821835616
 40
0.8076363113
 40
0.8315735468
 40
0.8540066404
 40
0.8749606632
 40
0.8944772684
 40
0.9126187468
 40
0.9294730511
 40
0.9451593172
 40
0.9598338268
 40
0.9668558706
 40
0.9737029056
 40
0.980406309
 40
0.9869997194
 40
0.9935186515
 40
1.0
 40
1.0
 40
1.0
 40
1.0
 10
9.9033432024
 20
9.8423376546
 30
0.0
 10
9.8935759316
 20
9.8430150171
 30
0.0
 10
9.8743167236
 20
9.8445664735
 30
0.0
 10
9.8504757987
 20
9.8470544047
 30
0.0
 10
9.8318784896
 20
9.849352844
 30
0.0
 10
9.8183275618
 20
9.8512072842
 30
0.0
 10
9.8050811279
 20
9.8532033902
 30
0.0
 10
9.7921612937
 20
9.8553378226
 30
0.0
 10
9.7795896518
 20
9.8576069794
 30
0.0
 10
9.7673872047
 20
9.860007064
 30
0.0
 10
9.7555743245
 20
9.8625340326
 30
0.0
 10
9.7441707231
 20
9.8651836239
 30
0.0
 10
9.7331954255
 20
9.8679513998
 30
0.0
 10
9.7226667213
 20
9.8708327021
 30
0.0
 10
9.7126021333
 20
9.8738226716
 30
0.0
 10
9.7030183989
 20
9.876916303
 30
0.0
 10
9.6939314206
 20
9.8801084065
 30
0.0
 10
9.68535623
 20
9.883393618
 30
0.0
 10
9.6773069772
 20
9.886766472
 30
0.0
 10
9.6697968816
 20
9.890221379
 30
0.0
 10
9.6628381859
 20
9.8937526327
 30
0.0
 10
9.6564421618
 20
9.8973545196
 30
0.0
 10
9.6506190728
 20
9.9010213397
 30
0.0
 10
9.6453781406
 20
9.904747435
 30
0.0
 10
9.6407276204
 20
9.9085274058
 30
0.0
 10
9.6366749318
 20
9.9123561063
 30
0.0
 10
9.6332267083
 20
9.9162290298
 30
0.0
 10
9.6303896559
 20
9.9201412684
 30
0.0
 10
9.628513128
 20
9.9234801421
 30
0.0
 10
9.6273433332
 20
9.9261535775
 30
0.0
 10
9.6266350987
 20
9.9281343856
 30
0.0
 10
9.6260837162
 20
9.9301190938
 30
0.0
 10
9.6256895321
 20
9.9321068886
 30
0.0
 10
9.6254529273
 20
9.9340966242
 30
0.0
 10
9.6254002788
 20
9.9354254072
 30
0.0
 10
9.6254002753
 20
9.9360875828
 30
0.0
  0
SPLINE
  5
2CB
100
AcDbEntity
  8
0
100
AcDbSpline
 62
7
  6
CONTINUOUS
 70
0
 71
3
 72
23
 73
19
 74
0
 42
0.0000001
 43
0.0000001
 44
0.0000000001
 40
0.0
 40
0.0
 40
0.0
 40
0.0
 40
0.0749625009
 40
0.1455684839
 40
0.2121600745
 40
0.2751631548
 40
0.3350982506
 40
0.3925832742
 40
0.4483295117
 40
0.5031237972
 40
0.5577983643
 40
0.613191491
 40
0.670106811
 40
0.729278715
 40
0.7913522906
 40
0.8568775564
 40
0.9263090861
 40
1.0
 40
1.0
 40
1.0
 40
1.0
 10
12.3300548168
 20
10.2950332399
 30
0.0
 10
12.3310481619
 20
10.2941088275
 30
0.0
 10
12.3329220556
 20
10.2922529354
 30
0.0
 10
12.3354505034
 20
10.2893574703
 30
0.0
 10
12.3376066144
 20
10.2864390841
 30
0.0
 10
12.3393871454
 20
10.2835002867
 30
0.0
 10
12.3407891557
 20
10.280543697
 30
0.0
 10
12.3418094721
 20
10.2775723258
 30
0.0
 10
12.3424452405
 20
10.2745900043
 30
0.0
 10
12.3426941961
 20
10.2716014539
 30
0.0
 10
12.3425553591
 20
10.2686121103
 30
0.0
 10
12.3420293055
 20
10.2656274914
 30
0.0
 10
12.3411179128
 20
10.2626525921
 30
0.0
 10
12.3398240494
 20
10.2596914644
 30
0.0
 10
12.338150726
 20
10.256747355
 30
0.0
 10
12.3361009764
 20
10.2538228366
 30
0.0
 10
12.3336779558
 20
10.2509206955
 30
0.0
 10
12.33187174
 20
10.2490599304
 30
0.0
 10
12.3309123138
 20
10.2481331958
 30
0.0
  0
SPLINE
  5
2CC
100
AcDbEntity
  8
0
100
AcDbSpline
 62
7
  6
CONTINUOUS
 70
0
 71
3
 72
41
 73
37
 74
0
 42
0.0000001
 43
0.0000001
 44
0.0000000001
 40
0.0
 40
0.0
 40
0.0
 40
0.0
 40
0.029942123
 40
0.0449237706
 40
0.0599145177
 40
0.0899291716
 40
0.1200145961
 40
0.1350933574
 40
0.1501974726
 40
0.1804849654
 40
0.2108989488
 40
0.2414525624
 40
0.2721557217
 40
0.3030149378
 40
0.3340332219
 40
0.3652100719
 40
0.3965415365
 40
0.4280203507
 40
0.4596361361
 40
0.4913756582
 40
0.5232231336
 40
0.5551605782
 40
0.5871681905
 40
0.6192247616
 40
0.6513081064
 40
0.6833955071
 40
0.7154641657
 40
0.7474916563
 40
0.7794563734
 40
0.811337967
 40
0.843117763
 40
0.8747791516
 40
0.9063079641
 40
0.9376927517
 40
0.9689251728
 40
1.0
 40
1.0
 40
1.0
 40
1.0
 10
11.6572410945
 20
8.9276312986
 30
0.0
 10
11.6549102478
 20
8.9253798582
 30
0.0
 10
11.6512766173
 20
8.9221390853
 30
0.0
 10
11.6461877738
 20
8.9181180006
 30
0.0
 10
11.6409368635
 20
8.91429702
 30
0.0
 10
11.634085292
 20
8.9099092738
 30
0.0
 10
11.6269005738
 20
8.9060712697
 30
0.0
 10
11.6209750494
 20
8.9033408789
 30
0.0
 10
11.6149271026
 20
8.9008359137
 30
0.0
 10
11.607167868
 20
8.8981423303
 30
0.0
 10
11.5976057725
 20
8.8956319686
 30
0.0
 10
11.5878350235
 20
8.8938535421
 30
0.0
 10
11.5779097679
 20
8.8928168669
 30
0.0
 10
11.567884528
 20
8.8925274744
 30
0.0
 10
11.5578144661
 20
8.8929868377
 30
0.0
 10
11.54775493
 20
8.8941923033
 30
0.0
 10
11.537761193
 20
8.8961371292
 30
0.0
 10
11.5278881425
 20
8.8988105219
 30
0.0
 10
11.5181899857
 20
8.9021977002
 30
0.0
 10
11.5087199551
 20
8.9062799787
 30
0.0
 10
11.499530021
 20
8.9110348718
 30
0.0
 10
11.49067061
 20
8.9164362176
 30
0.0
 10
11.4821903322
 20
8.9224543217
 30
0.0
 10
11.4741357175
 20
8.9290561189
 30
0.0
 10
11.4665509638
 20
8.9362053538
 30
0.0
 10
11.4594776968
 20
8.9438627784
 30
0.0
 10
11.4529547441
 20
8.9519863646
 30
0.0
 10
11.4470179243
 20
8.9605315337
 30
0.0
 10
11.4416998517
 20
8.9694513969
 30
0.0
 10
11.437029759
 20
8.9786970121
 30
0.0
 10
11.4330333382
 20
8.9882176423
 30
0.0
 10
11.4297325968
 20
8.9979610545
 30
0.0
 10
11.4271457439
 20
9.0078737138
 30
0.0
 10
11.4252870751
 20
9.0179013997
 30
0.0
 10
11.4241669133
 20
9.0279883014
 30
0.0
 10
11.4239160153
 20
9.0347344373
 30
0.0
 10
11.4239160153
 20
9.0380976832
 30
0.0
  0
SPLINE
  5
2CD
100
AcDbEntity
  8
0
100
AcDbSpline
 62
7
  6
CONTINUOUS
 70
0
 71
3
 72
41
 73
37
 74
0
 42
0.0000001
 43
0.0000001
 44
0.0000000001
 40
0.0
 40
0.0
 40
0.0
 40
0.0
 40
0.029942123
 40
0.0449237706
 40
0.0599145177
 40
0.0899291716
 40
0.1200145961
 40
0.1350933574
 40
0.1501974726
 40
0.1804849654
 40
0.2108989488
 40
0.2414525624
 40
0.2721557217
 40
0.3030149378
 40
0.3340332219
 40
0.3652100719
 40
0.3965415365
 40
0.4280203507
 40
0.4596361361
 40
0.4913756582
 40
0.5232231336
 40
0.5551605782
 40
0.5871681905
 40
0.6192247616
 40
0.6513081064
 40
0.6833955071
 40
0.7154641657
 40
0.7474916563
 40
0.7794563734
 40
0.811337967
 40
0.843117763
 40
0.8747791516
 40
0.9063079641
 40
0.9376927517
 40
0.9689251728
 40
1.0
 40
1.0
 40
1.0
 40
1.0
 10
9.9069835025
 20
9.0490120749
 30
0.0
 10
9.9046526558
 20
9.0467606344
 30
0.0
 10
9.9010190253
 20
9.0435198615
 30
0.0
 10
9.8959301817
 20
9.0394987769
 30
0.0
 10
9.8906792715
 20
9.0356777962
 30
0.0
 10
9.8838277
 20
9.0312900501
 30
0.0
 10
9.8766429818
 20
9.027452046
 30
0.0
 10
9.8707174574
 20
9.0247216551
 30
0.0
 10
9.8646695106
 20
9.02221669
 30
0.0
 10
9.856910276
 20
9.0195231066
 30
0.0
 10
9.8473481804
 20
9.0170127449
 30
0.0
 10
9.8375774315
 20
9.0152343184
 30
0.0
 10
9.8276521758
 20
9.0141976432
 30
0.0
 10
9.817626936
 20
9.0139082506
 30
0.0
 10
9.807556874
 20
9.0143676139
 30
0.0
 10
9.797497338
 20
9.0155730796
 30
0.0
 10
9.787503601
 20
9.0175179055
 30
0.0
 10
9.7776305505
 20
9.0201912982
 30
0.0
 10
9.7679323937
 20
9.0235784765
 30
0.0
 10
9.7584623631
 20
9.027660755
 30
0.0
 10
9.749272429
 20
9.032415648
 30
0.0
 10
9.740413018
 20
9.0378169939
 30
0.0
 10
9.7319327402
 20
9.0438350979
 30
0.0
 10
9.7238781255
 20
9.0504368951
 30
0.0
 10
9.7162933718
 20
9.0575861301
 30
0.0
 10
9.7092201048
 20
9.0652435546
 30
0.0
 10
9.7026971521
 20
9.0733671409
 30
0.0
 10
9.6967603322
 20
9.0819123099
 30
0.0
 10
9.6914422597
 20
9.0908321732
 30
0.0
 10
9.686772167
 20
9.1000777883
 30
0.0
 10
9.6827757462
 20
9.1095984186
 30
0.0
 10
9.6794750048
 20
9.1193418308
 30
0.0
 10
9.6768881519
 20
9.1292544901
 30
0.0
 10
9.6750294831
 20
9.139282176
 30
0.0
 10
9.6739093213
 20
9.1493690777
 30
0.0
 10
9.6736584233
 20
9.1561152135
 30
0.0
 10
9.6736584233
 20
9.1594784595
 30
0.0
  0
SPLINE
  5
2CE
100
AcDbEntity
  8
0
100
AcDbSpline
 62
7
  6
CONTINUOUS
 70
0
 71
3
 72
41
 73
37
 74
0
 42
0.0000001
 43
0.0000001
 44
0.0000000001
 40
0.0
 40
0.0
 40
0.0
 40
0.0
 40
0.029942123
 40
0.0449237706
 40
0.0599145177
 40
0.0899291716
 40
0.1200145961
 40
0.1350933574
 40
0.1501974726
 40
0.1804849654
 40
0.2108989488
 40
0.2414525624
 40
0.2721557217
 40
0.3030149378
 40
0.3340332219
 40
0.3652100719
 40
0.3965415365
 40
0.4280203507
 40
0.4596361361
 40
0.4913756582
 40
0.5232231336
 40
0.5551605782
 40
0.5871681905
 40
0.6192247616
 40
0.6513081064
 40
0.6833955071
 40
0.7154641657
 40
0.7474916563
 40
0.7794563734
 40
0.811337967
 40
0.843117763
 40
0.8747791516
 40
0.9063079641
 40
0.9376927517
 40
0.9689251728
 40
1.0
 40
1.0
 40
1.0
 40
1.0
 10
11.6572410945
 20
6.8750387961
 30
0.0
 10
11.6549102478
 20
6.8727873557
 30
0.0
 10
11.6512766173
 20
6.8695465828
 30
0.0
 10
11.6461877738
 20
6.8655254981
 30
0.0
 10
11.6409368635
 20
6.8617045175
 30
0.0
 10
11.634085292
 20
6.8573167713
 30
0.0
 10
11.6269005738
 20
6.8534787672
 30
0.0
 10
11.6209750494
 20
6.8507483764
 30
0.0
 10
11.6149271026
 20
6.8482434112
 30
0.0
 10
11.607167868
 20
6.8455498278
 30
0.0
 10
11.5976057725
 20
6.8430394661
 30
0.0
 10
11.5878350235
 20
6.8412610396
 30
0.0
 10
11.5779097679
 20
6.8402243645
 30
0.0
 10
11.567884528
 20
6.8399349719
 30
0.0
 10
11.5578144661
 20
6.8403943352
 30
0.0
 10
11.54775493
 20
6.8415998008
 30
0.0
 10
11.537761193
 20
6.8435446267
 30
0.0
 10
11.5278881425
 20
6.8462180194
 30
0.0
 10
11.5181899857
 20
6.8496051977
 30
0.0
 10
11.5087199551
 20
6.8536874762
 30
0.0
 10
11.499530021
 20
6.8584423693
 30
0.0
 10
11.49067061
 20
6.8638437151
 30
0.0
 10
11.4821903322
 20
6.8698618192
 30
0.0
 10
11.4741357175
 20
6.8764636164
 30
0.0
 10
11.4665509638
 20
6.8836128513
 30
0.0
 10
11.4594776968
 20
6.8912702759
 30
0.0
 10
11.4529547441
 20
6.8993938621
 30
0.0
 10
11.4470179243
 20
6.9079390312
 30
0.0
 10
11.4416998517
 20
6.9168588944
 30
0.0
 10
11.437029759
 20
6.9261045096
 30
0.0
 10
11.4330333382
 20
6.9356251399
 30
0.0
 10
11.4297325968
 20
6.945368552
 30
0.0
 10
11.4271457439
 20
6.9552812114
 30
0.0
 10
11.4252870751
 20
6.9653088972
 30
0.0
 10
11.4241669133
 20
6.9753957989
 30
0.0
 10
11.4239160153
 20
6.9821419348
 30
0.0
 10
11.4239160153
 20
6.9855051807
 30
0.0
  0
SPLINE
  5
2CF
100
AcDbEntity
  8
0
100
AcDbSpline
 62
7
  6
CONTINUOUS
 70
0
 71
3
 72
41
 73
37
 74
0
 42
0.0000001
 43
0.0000001
 44
0.0000000001
 40
0.0
 40
0.0
 40
0.0
 40
0.0
 40
0.029942123
 40
0.0449237706
 40
0.0599145177
 40
0.0899291716
 40
0.1200145961
 40
0.1350933574
 40
0.1501974726
 40
0.1804849654
 40
0.2108989488
 40
0.2414525624
 40
0.2721557217
 40
0.3030149378
 40
0.3340332219
 40
0.3652100719
 40
0.3965415365
 40
0.4280203507
 40
0.4596361361
 40
0.4913756582
 40
0.5232231336
 40
0.5551605782
 40
0.5871681905
 40
0.6192247616
 40
0.6513081064
 40
0.6833955071
 40
0.7154641657
 40
0.7474916563
 40
0.7794563734
 40
0.811337967
 40
0.843117763
 40
0.8747791516
 40
0.9063079641
 40
0.9376927517
 40
0.9689251728
 40
1.0
 40
1.0
 40
1.0
 40
1.0
 10
9.9069835025
 20
6.9964195724
 30
0.0
 10
9.9046526558
 20
6.994168132
 30
0.0
 10
9.9010190253
 20
6.990927359
 30
0.0
 10
9.8959301817
 20
6.9869062744
 30
0.0
 10
9.8906792715
 20
6.9830852938
 30
0.0
 10
9.8838277
 20
6.9786975476
 30
0.0
 10
9.8766429818
 20
6.9748595435
 30
0.0
 10
9.8707174574
 20
6.9721291526
 30
0.0
 10
9.8646695106
 20
6.9696241875
 30
0.0
 10
9.856910276
 20
6.9669306041
 30
0.0
 10
9.8473481804
 20
6.9644202424
 30
0.0
 10
9.8375774315
 20
6.9626418159
 30
0.0
 10
9.8276521758
 20
6.9616051407
 30
0.0
 10
9.817626936
 20
6.9613157481
 30
0.0
 10
9.807556874
 20
6.9617751115
 30
0.0
 10
9.797497338
 20
6.9629805771
 30
0.0
 10
9.787503601
 20
6.964925403
 30
0.0
 10
9.7776305505
 20
6.9675987957
 30
0.0
 10
9.7679323937
 20
6.970985974
 30
0.0
 10
9.7584623631
 20
6.9750682525
 30
0.0
 10
9.749272429
 20
6.9798231456
 30
0.0
 10
9.740413018
 20
6.9852244914
 30
0.0
 10
9.7319327402
 20
6.9912425955
 30
0.0
 10
9.7238781255
 20
6.9978443926
 30
0.0
 10
9.7162933718
 20
7.0049936276
 30
0.0
 10
9.7092201048
 20
7.0126510521
 30
0.0
 10
9.7026971521
 20
7.0207746384
 30
0.0
 10
9.6967603322
 20
7.0293198074
 30
0.0
 10
9.6914422597
 20
7.0382396707
 30
0.0
 10
9.686772167
 20
7.0474852859
 30
0.0
 10
9.6827757462
 20
7.0570059161
 30
0.0
 10
9.6794750048
 20
7.0667493283
 30
0.0
 10
9.6768881519
 20
7.0766619876
 30
0.0
 10
9.6750294831
 20
7.0866896735
 30
0.0
 10
9.6739093213
 20
7.0967765752
 30
0.0
 10
9.6736584233
 20
7.103522711
 30
0.0
 10
9.6736584233
 20
7.106885957
 30
0.0
  0
SPLINE
  5
2D0
100
AcDbEntity
  8
0
100
AcDbSpline
 62
7
  6
CONTINUOUS
 70
0
 71
3
 72
40
 73
36
 74
0
 42
0.0000001
 43
0.0000001
 44
0.0000000001
 40
0.0
 40
0.0
 40
0.0
 40
0.0
 40
0.0958312272
 40
0.1891000849
 40
0.2345965837
 40
0.2792415009
 40
0.3229681813
 40
0.3657118147
 40
0.4074099328
 40
0.4480024856
 40
0.4874320345
 40
0.5256441238
 40
0.5625874617
 40
0.5982141609
 40
0.632480187
 40
0.6653457617
 40
0.6967757204
 40
0.726740135
 40
0.7552151246
 40
0.7821835904
 40
0.8076363126
 40
0.8315735236
 40
0.8540066602
 40
0.8749606757
 40
0.8944772468
 40
0.912618755
 40
0.9294730678
 40
0.945159305
 40
0.9598338272
 40
0.9668558624
 40
0.9737029125
 40
0.9804063087
 40
0.9869997163
 40
0.9935186521
 40
1.0
 40
1.0
 40
1.0
 40
1.0
 10
9.9033432024
 20
9.5709124751
 30
0.0
 10
9.8935759369
 20
9.5715898373
 30
0.0
 10
9.8743167249
 20
9.5731412955
 30
0.0
 10
9.8504757999
 20
9.5756292219
 30
0.0
 10
9.831878487
 20
9.5779276646
 30
0.0
 10
9.8183275623
 20
9.5797821077
 30
0.0
 10
9.8050811265
 20
9.5817782073
 30
0.0
 10
9.7921612928
 20
9.5839126419
 30
0.0
 10
9.7795896523
 20
9.5861818045
 30
0.0
 10
9.7673872029
 20
9.5885818815
 30
0.0
 10
9.7555743228
 20
9.5911088498
 30
0.0
 10
9.7441707242
 20
9.5937584497
 30
0.0
 10
9.7331954241
 20
9.5965262196
 30
0.0
 10
9.7226667182
 20
9.5994075166
 30
0.0
 10
9.7126021346
 20
9.6023974971
 30
0.0
 10
9.7030183988
 20
9.6054911263
 30
0.0
 10
9.6939314158
 20
9.6086832187
 30
0.0
 10
9.6853562306
 20
9.6119684419
 30
0.0
 10
9.6773069794
 20
9.6153412989
 30
0.0
 10
9.6697968756
 20
9.6187961908
 30
0.0
 10
9.6628381846
 20
9.6223274533
 30
0.0
 10
9.656442167
 20
9.6259293489
 30
0.0
 10
9.6506190671
 20
9.6295961537
 30
0.0
 10
9.6453781354
 20
9.6333222513
 30
0.0
 10
9.6407276285
 20
9.637102236
 30
0.0
 10
9.6366749287
 20
9.640930924
 30
0.0
 10
9.633226696
 20
9.6448038432
 30
0.0
 10
9.6303896713
 20
9.6487160987
 30
0.0
 10
9.6285131178
 20
9.6520549564
 30
0.0
 10
9.6273433463
 20
9.6547284036
 30
0.0
 10
9.6266350837
 20
9.6567092015
 30
0.0
 10
9.6260837175
 20
9.6586939157
 30
0.0
 10
9.625689542
 20
9.6606817104
 30
0.0
 10
9.6254529127
 20
9.6626714434
 30
0.0
 10
9.625400276
 20
9.6640002278
 30
0.0
 10
9.6254002761
 20
9.6646624033
 30
0.0
  0
SPLINE
  5
2D1
100
AcDbEntity
  8
0
100
AcDbSpline
 62
7
  6
CONTINUOUS
 70
0
 71
3
 72
18
 73
14
 74
0
 42
0.0000001
 43
0.0000001
 44
0.0000000001
 40
0.0
 40
0.0
 40
0.0
 40
0.0
 40
0.1480419794
 40
0.2876656806
 40
0.4195583389
 40
0.5445936257
 40
0.6638224884
 40
0.7216612743
 40
0.7785268772
 40
0.834600505
 40
0.8900719288
 40
0.9451379383
 40
1.0
 40
1.0
 40
1.0
 40
1.0
 10
10.3252339227
 20
10.1119090808
 30
0.0
 10
10.3237537592
 20
10.1104793526
 30
0.0
 10
10.3209643526
 20
10.1076089087
 30
0.0
 10
10.3172138202
 20
10.1031351801
 30
0.0
 10
10.314028451
 20
10.0986275551
 30
0.0
 10
10.3114130924
 20
10.0940905662
 30
0.0
 10
10.3096947896
 20
10.0902489313
 30
0.0
 10
10.3086221806
 20
10.0871774204
 30
0.0
 10
10.3079700548
 20
10.0848933128
 30
0.0
 10
10.3074625765
 20
10.0826064748
 30
0.0
 10
10.3070999562
 20
10.0803174797
 30
0.0
 10
10.3068823161
 20
10.0780271644
 30
0.0
 10
10.3068339034
 20
10.0764986302
 30
0.0
 10
10.3068339009
 20
10.0757359995
 30
0.0
  0
SPLINE
  5
2D2
100
AcDbEntity
  8
0
100
AcDbSpline
 62
7
  6
CONTINUOUS
 70
0
 71
3
 72
15
 73
11
 74
0
 42
0.0000001
 43
0.0000001
 44
0.0000000001
 40
0.0
 40
0.0
 40
0.0
 40
0.0
 40
0.1273482789
 40
0.2538606571
 40
0.3795878378
 40
0.5046051156
 40
0.629017439
 40
0.7529533823
 40
0.8765605864
 40
1.0
 40
1.0
 40
1.0
 40
1.0
 10
11.4239160153
 20
9.0380976832
 30
0.0
 10
11.4239160153
 20
9.0424247669
 30
0.0
 10
11.4243291656
 20
9.0510565137
 30
0.0
 10
11.4261975702
 20
9.0638381157
 30
0.0
 10
11.4292957094
 20
9.0762985704
 30
0.0
 10
11.4335955973
 20
9.0883213427
 30
0.0
 10
11.4390577976
 20
9.0997955593
 30
0.0
 10
11.4456324818
 20
9.1106152809
 30
0.0
 10
11.4532578512
 20
9.1206791257
 30
0.0
 10
11.4589993735
 20
9.1268267051
 30
0.0
 10
11.4620161094
 20
9.1297406681
 30
0.0
  0
SPLINE
  5
2D3
100
AcDbEntity
  8
0
100
AcDbSpline
 62
7
  6
CONTINUOUS
 70
0
 71
3
 72
15
 73
11
 74
0
 42
0.0000001
 43
0.0000001
 44
0.0000000001
 40
0.0
 40
0.0
 40
0.0
 40
0.0
 40
0.1273482789
 40
0.2538606571
 40
0.3795878378
 40
0.5046051156
 40
0.629017439
 40
0.7529533823
 40
0.8765605864
 40
1.0
 40
1.0
 40
1.0
 40
1.0
 10
9.6736584233
 20
9.1594784595
 30
0.0
 10
9.6736584233
 20
9.1638055432
 30
0.0
 10
9.6740715736
 20
9.17243729
 30
0.0
 10
9.6759399782
 20
9.185218892
 30
0.0
 10
9.6790381174
 20
9.1976793467
 30
0.0
 10
9.6833380053
 20
9.209702119
 30
0.0
 10
9.6888002056
 20
9.2211763356
 30
0.0
 10
9.6953748898
 20
9.2319960571
 30
0.0
 10
9.7030002592
 20
9.242059902
 30
0.0
 10
9.7087417815
 20
9.2482074814
 30
0.0
 10
9.7117585173
 20
9.2511214444
 30
0.0
  0
SPLINE
  5
2D4
100
AcDbEntity
  8
0
100
AcDbSpline
 62
7
  6
CONTINUOUS
 70
0
 71
3
 72
15
 73
11
 74
0
 42
0.0000001
 43
0.0000001
 44
0.0000000001
 40
0.0
 40
0.0
 40
0.0
 40
0.0
 40
0.1273482789
 40
0.2538606571
 40
0.3795878378
 40
0.5046051156
 40
0.629017439
 40
0.7529533823
 40
0.8765605864
 40
1.0
 40
1.0
 40
1.0
 40
1.0
 10
11.4239160153
 20
6.9855051807
 30
0.0
 10
11.4239160153
 20
6.9898322644
 30
0.0
 10
11.4243291656
 20
6.9984640112
 30
0.0
 10
11.4261975702
 20
7.0112456132
 30
0.0
 10
11.4292957094
 20
7.0237060679
 30
0.0
 10
11.4335955973
 20
7.0357288403
 30
0.0
 10
11.4390577976
 20
7.0472030568
 30
0.0
 10
11.4456324818
 20
7.0580227784
 30
0.0
 10
11.4532578512
 20
7.0680866233
 30
0.0
 10
11.4589993735
 20
7.0742342026
 30
0.0
 10
11.4620161094
 20
7.0771481656
 30
0.0
  0
SPLINE
  5
2D5
100
AcDbEntity
  8
0
100
AcDbSpline
 62
7
  6
CONTINUOUS
 70
0
 71
3
 72
41
 73
37
 74
0
 42
0.0000001
 43
0.0000001
 44
0.0000000001
 40
0.0
 40
0.0
 40
0.0
 40
0.0
 40
0.0071757878
 40
0.0146740945
 40
0.0225035609
 40
0.0306713549
 40
0.0391834197
 40
0.0480443679
 40
0.0572572149
 40
0.0668238567
 40
0.076745221
 40
0.0870212626
 40
0.0976512706
 40
0.1086336674
 40
0.131645286
 40
0.1560326206
 40
0.1817627982
 40
0.2087958624
 40
0.2370856423
 40
0.2665805176
 40
0.2972240341
 40
0.3289554007
 40
0.3617098966
 40
0.3954192459
 40
0.4300120062
 40
0.4654138894
 40
0.5015480547
 40
0.5383353725
 40
0.5756947244
 40
0.6135432851
 40
0.6517967806
 40
0.6903697378
 40
0.7681261148
 40
0.8461161177
 40
0.9236388544
 40
1.0
 40
1.0
 40
1.0
 40
1.0
 10
11.9023083289
 20
9.8341335129
 30
0.0
 10
11.9015637313
 20
9.8334142869
 30
0.0
 10
11.9000040394
 20
9.8319814639
 30
0.0
 10
11.8975164909
 20
9.8298938462
 30
0.0
 10
11.8948320007
 20
9.8278227796
 30
0.0
 10
11.8919523144
 20
9.8257696249
 30
0.0
 10
11.8888791363
 20
9.8237354843
 30
0.0
 10
11.8856142226
 20
9.82172156
 30
0.0
 10
11.8821595128
 20
9.8197289717
 30
0.0
 10
11.878517052
 20
9.8177589243
 30
0.0
 10
11.8746890037
 20
9.8158126149
 30
0.0
 10
11.8706776671
 20
9.8138911599
 30
0.0
 10
11.8664854079
 20
9.8119957344
 30
0.0
 10
11.8605653654
 20
9.8094652375
 30
0.0
 10
11.8527245425
 20
9.8063836779
 30
0.0
 10
11.8427774778
 20
9.8028624392
 30
0.0
 10
11.8321747267
 20
9.7994710356
 30
0.0
 10
11.8209416802
 20
9.7962176803
 30
0.0
 10
11.8091051301
 20
9.7931102532
 30
0.0
 10
11.7966934284
 20
9.7901562908
 30
0.0
 10
11.7837363279
 20
9.7873629628
 30
0.0
 10
11.7702649254
 20
9.7847370535
 30
0.0
 10
11.7563115813
 20
9.7822849382
 30
0.0
 10
11.7419098396
 20
9.7800125587
 30
0.0
 10
11.7270943356
 20
9.7779254259
 30
0.0
 10
11.7119007071
 20
9.7760286012
 30
0.0
 10
11.6963655111
 20
9.774326689
 30
0.0
 10
11.6805261383
 20
9.7728238106
 30
0.0
 10
11.6644207157
 20
9.7715236016
 30
0.0
 10
11.6480880231
 20
9.7704292171
 30
0.0
 10
11.6315673484
 20
9.7695432886
 30
0.0
 10
11.6092837803
 20
9.7686405996
 30
0.0
 10
11.5812526898
 20
9.7680484903
 30
0.0
 10
11.5475962132
 20
9.7681903666
 30
0.0
 10
11.5141554832
 20
9.7691815524
 30
0.0
 10
11.491986204
 20
9.7704150083
 30
0.0
 10
11.4809961469
 20
9.7711771713
 30
0.0
  0
ELLIPSE
  5
2D6
100
AcDbEntity
  8
0
100
AcDbEllipse
 62
7
  6
CONTINUOUS
 10
11.0595207904
 20
8.9561230229
 30
0.0
 11
-0.0674179439
 21
0.17038255
 31
0.0
 40
0.9414322895
 41
0.0
 42
6.2831853072
  0
ELLIPSE
  5
2D7
100
AcDbEntity
  8
0
100
AcDbEllipse
 62
7
  6
CONTINUOUS
 10
10.6366282378
 20
8.4721783774
 30
0.0
 11
0.2088210678
 21
-0.0427957609
 31
0.0
 40
0.8076728902
 41
0.0
 42
6.2831853072
  0
ELLIPSE
  5
2D8
100
AcDbEntity
  8
0
100
AcDbEllipse
 62
7
  6
CONTINUOUS
 10
10.0636859957
 20
8.1198976094
 30
0.0
 11
0.1402151373
 21
0.1203808277
 31
0.0
 40
0.9712406307
 41
0.0
 42
6.2831853072
  0
ELLIPSE
  5
2D9
100
AcDbEntity
  8
0
100
AcDbEllipse
 62
7
  6
CONTINUOUS
 10
10.6366282378
 20
7.6868805539
 30
0.0
 11
0.2088210678
 21
-0.0427957609
 31
0.0
 40
0.8076728902
 41
0.0
 42
6.2831853072
  0
ELLIPSE
  5
2DA
100
AcDbEntity
  8
0
100
AcDbEllipse
 62
7
  6
CONTINUOUS
 10
11.0618846572
 20
7.1444823746
 30
0.0
 11
0.1538065104
 21
-0.156119538
 31
0.0
 40
0.9329558235
 41
0.0
 42
6.2831853072
  0
ENDSEC
  0
SECTION
  2
OBJECTS
  0
DICTIONARY
  5
C
100
AcDbDictionary
280
0
281
1
  3
ACAD_GROUP
350
D
  3
ACAD_MLINESTYLE
350
17
  3
ACAD_LAYOUT
350
1A
  3
ACAD_PLOTSETTINGS
350
19
  3
ACAD_PLOTSTYLENAME
350
E
  3
ACAD_IMAGE_DICT
350
       2DC
  3
ACAD_IMAGE_VARS
350
       2DD
  3
ACAD_TABLESTYLE
350
       2DE
  0
IMAGEDEF_REACTOR
  5
2DB
100
AcDbRasterImageDefReactor
 90
2
330
27C
  0
DICTIONARY
  5
D
102
{ACAD_REACTORS
330
C
102
}
100
AcDbDictionary
280
0
281
1
  0
ACDBDICTIONARYWDFLT
  5
E
102
{ACAD_REACTORS
330
C
102
}
100
AcDbDictionary
281
1
  3
Normal
350
F
100
AcDbDictionaryWithDefault
340
F
  0
DICTIONARY
  5
2DC
330
C
100
AcDbDictionary
281
1
  3
WGJ_assy_2_img_1
350
       2E1
  0
RASTERVARIABLES
  5
2DD
330
C
100
AcDbRasterVariables
 90
0
 70
0
 71
1
 72
5
  0
DICTIONARY
  5
17
102
{ACAD_REACTORS
330
C
102
}
100
AcDbDictionary
280
0
281
1
  3
Standard
350
18
  0
DICTIONARY
  5
2DE
330
C
100
AcDbDictionary
281
1
  3
Standard
350
       2E2
  3
Standard1
350
       2E3
  0
DICTIONARY
  5
19
102
{ACAD_REACTORS
330
C
102
}
100
AcDbDictionary
281
1
  0
DICTIONARY
  5
1A
102
{ACAD_REACTORS
330
C
102
}
100
AcDbDictionary
281
1
  3
Model
350
2DF
  3
Layout1
350
2E0
  0
ACDBPLACEHOLDER
  5
F
102
{ACAD_REACTORS
330
E
102
}
  0
MLINESTYLE
  5
18
102
{ACAD_REACTORS
330
17
102
}
100
AcDbMlineStyle
  2
STANDARD
 70
0
  3

 62
256
 51
90.0
 52
90.0
 71
2
 49
0.5
 62
256
  6
BYLAYER
 49
-0.5
 62
256
  6
BYLAYER
  0
LAYOUT
  5
2DF
102
{ACAD_REACTORS
330
1A
102
}
100
AcDbPlotSettings
  1

  2
none_device
  4
ANSI_C_(22.00_x_17.00_Inches)
  6

 40
0.0
 41
0.0
 42
0.0
 43
0.0
 44
558.8
 45
431.8
 46
0.0
 47
0.0
 48
0.0
 49
0.0
140
0.0
141
0.0
142
1.0
143
1.0
 70
1024
 72
0
 73
0
 74
0
  7

 75
0
147
1.0
148
0.0
149
0.0
100
AcDbLayout
  1
Model
 70
0
 71
0
 10
0.0
 20
0.0
 11
22.0
 21
17.0
 12
0.0
 22
0.0
 32
0.0
 14
0.0
 24
0.0
 34
0.0
 15
0.0
 25
0.0
 35
0.0
146
0.0
 13
0.0
 23
0.0
 33
0.0
 16
1.0
 26
0.0
 36
0.0
 17
0.0
 27
1.0
 37
0.0
 76
0
330
207
345
0
346
0
  0
LAYOUT
  5
2E0
102
{ACAD_REACTORS
330
1A
102
}
100
AcDbPlotSettings
  1

  2
none_device
  4
ANSI_C_(22.00_x_17.00_Inches)
  6

 40
0.0
 41
0.0
 42
0.0
 43
0.0
 44
558.8
 45
431.8
 46
0.0
 47
0.0
 48
0.0
 49
0.0
140
0.0
141
0.0
142
1.0
143
1.0
 70
0
 72
0
 73
0
 74
0
  7

 75
0
147
1.0
148
0.0
149
0.0
100
AcDbLayout
  1
Layout1
 70
0
 71
1
 10
0.0
 20
0.0
 11
22.0
 21
17.0
 12
0.0
 22
0.0
 32
0.0
 14
0.0
 24
0.0
 34
0.0
 15
0.0
 25
0.0
 35
0.0
146
0.0
 13
0.0
 23
0.0
 33
0.0
 16
1.0
 26
0.0
 36
0.0
 17
0.0
 27
1.0
 37
0.0
 76
0
330
208
345
0
346
0
  0
IMAGEDEF
  5
2E1
102
{ACAD_REACTORS
330
2DC
330
2DB
102
}
100
AcDbRasterImageDef
 90
0
  1
WGJ_assy_2_img_1.png
 10
369.0
 20
92.0
 11
0.0066666667
 21
0.0066666667
280
1
281
0
  0
TABLESTYLE
  5
2E2
102
{ACAD_REACTORS
330
2DE
330
27F
330
280
102
}
330
2DE
100
AcDbTableStyle
  3
Standard
 70
0
 71
0
 40
0.06
 41
0.06
280
1
281
1
  7
Standard
140
0.18
170
1
 62
0
 63
7
283
0
  7
Standard
140
0.18
170
1
 62
0
 63
7
283
0
  7
Standard
140
0.18
170
1
 62
0
 63
7
283
0
  0
TABLESTYLE
  5
2E3
102
{ACAD_REACTORS
330
2DE
330
27E
102
}
330
2DE
100
AcDbTableStyle
  3
Standard1
 70
1
 71
0
 40
0.06
 41
0.06
280
1
281
1
  7
Standard
140
0.18
170
1
 62
0
 63
7
283
0
  7
Standard
140
0.18
170
1
 62
0
 63
7
283
0
  7
Standard
140
0.18
170
1
 62
0
 63
7
283
0
  0
ENDSEC
  0
EOF
