999
DXF file: WDA_assy_2.dxf
999
Pro/ENGINEER 2014200 by Parametric Technology Corporation
  0
SECTION
  2
HEADER
  9
$ACADVER
  1
AC1021
  9
$DWGCODEPAGE
  3
ANSI_1252
  9
$EXTMAX
 10
22.0
 20
17.0
 30
0.0
  9
$EXTMIN
 10
0.0
 20
0.0
 30
0.0
  9
$LIMMIN
 10
0.0
 20
0.0
  9
$LIMMAX
 10
22.0
 20
17.0
  9
$VIEWCTR
 10
11.0
 20
8.5
  9
$VIEWSIZE
 40
17.0
  9
$CLAYER
  8
0
  9
$LTSCALE
 40
1.21
  9
$CELTYPE
  6
BYLAYER
  9
$DIMSCALE
 40
1.0
  9
$DIMASZ
 40
0.1875
  9
$DIMEXO
 40
0.0625
  9
$DIMDLI
 40
0.836
  9
$DIMEXE
 40
0.125
  9
$DIMCEN
 40
0.198
  9
$DIMLFAC
 40
1.0
  9
$DIMBLK
  1
_FILLED
  9
$DIMTXT
 40
0.1
  9
$DIMTOL
 70
0
  9
$DIMLIM
 70
0
  9
$DIMTFAC
 40
1.0
  9
$DIMGAP
 40
0.09
  9
$DIMDSEP
 70
46
  9
$AUNITS
 70
0
  9
$PDMODE
 70
3
  9
$PDSIZE
 40
0.3125
  9
$HANDSEED
  5
3C3
  9
$TILEMODE
 70
1
  9
$MEASUREMENT
 70
0
  9
$INSUNITS
 70
1
  0
ENDSEC
  0
SECTION
  2
CLASSES
  0
CLASS
  1
ACDBDICTIONARYWDFLT
  2
AcDbDictionaryWithDefault
  3
AutoCAD 2000
 90
0
 91
1
280
0
281
0
  0
CLASS
  1
ACDBPLACEHOLDER
  2
AcDbPlaceHolder
  3
AutoCAD 2000
 90
0
 91
1
280
0
281
0
  0
CLASS
  1
LAYOUT
  2
AcDbLayout
  3
AutoCAD 2000
 90
0
 91
0
280
0
281
0
  0
CLASS
  1
RASTERVARIABLES
  2
AcDbRasterVariables
  3
ISM
 90
0
 91
1
280
0
281
0
  0
CLASS
  1
IMAGEDEF
  2
AcDbRasterImageDef
  3
ISM
 90
0
 91
1
280
0
281
0
  0
CLASS
  1
IMAGEDEF_REACTOR
  2
AcDbRasterImageDefReactor
  3
ISM
 90
0
 91
1
280
0
281
0
  0
CLASS
  1
IMAGE
  2
AcDbRasterImage
  3
ISM
 90
127
 91
1
280
0
281
1
  0
CLASS
  1
TABLESTYLE
  2
AcDbTableStyle
  3
ObjectDBX Classes
 90
2047
 91
1
280
0
281
0
  0
CLASS
  1
ACAD_TABLE
  2
AcDbTable
  3
ObjectDBX Classes
 90
1025
 91
3
280
0
281
1
  0
ENDSEC
  0
SECTION
  2
TABLES
  0
TABLE
  2
VPORT
  5
8
100
AcDbSymbolTable
 70
2
  0
VPORT
  5
1F4
100
AcDbSymbolTableRecord
100
AcDbViewportTableRecord
  2
*ACTIVE
 70
0
 10
0.0
 20
0.0
 11
1.0
 21
1.0
 12
11.0
 22
8.5
 13
0.0
 23
0.0
 14
1.0
 24
1.0
 15
0.0
 25
0.0
 16
0.0
 26
0.0
 36
1.0
 17
0.0
 27
0.0
 37
0.0
 40
17.0
 41
1.2941176471
 42
50.0
 43
0.0
 44
0.0
 50
0.0
 51
0.0
 71
0
 72
100
 73
1
 74
1
 75
0
 76
0
 77
0
 78
0
  0
ENDTAB
  0
TABLE
  2
LTYPE
  5
5
100
AcDbSymbolTable
 70
6
  0
LTYPE
  5
14
100
AcDbSymbolTableRecord
100
AcDbLinetypeTableRecord
  2
BYBLOCK
 70
0
  3

 72
65
 73
0
 40
0.0
  0
LTYPE
  5
15
100
AcDbSymbolTableRecord
100
AcDbLinetypeTableRecord
  2
BYLAYER
 70
0
  3

 72
65
 73
0
 40
0.0
  0
LTYPE
  5
16
100
AcDbSymbolTableRecord
100
AcDbLinetypeTableRecord
  2
CONTINUOUS
 70
64
  3
Solid line
 72
65
 73
0
 40
0.0
  0
LTYPE
  5
1F5
100
AcDbSymbolTableRecord
100
AcDbLinetypeTableRecord
  2
CENTER
 70
64
  3
____ _ ____ _ ____ _ ____ _ ____ _ ____ _ ____
 72
65
 73
4
 40
0.6
 49
0.375
 74
0
 49
-0.075
 74
0
 49
0.075
 74
0
 49
-0.075
 74
0
  0
LTYPE
  5
1F6
100
AcDbSymbolTableRecord
100
AcDbLinetypeTableRecord
  2
HIDDEN
 70
64
  3
- - - - - - - - - - - - - - - - - - - -
 72
65
 73
2
 40
0.2
 49
0.1
 74
0
 49
-0.1
 74
0
  0
LTYPE
  5
1F7
100
AcDbSymbolTableRecord
100
AcDbLinetypeTableRecord
  2
PHANTOM
 70
64
  3
_____ _ _ _____ _ _ _____ _ _ _____
 72
65
 73
6
 40
0.8
 49
0.45
 74
0
 49
-0.05
 74
0
 49
0.1
 74
0
 49
-0.05
 74
0
 49
0.1
 74
0
 49
-0.05
 74
0
  0
LTYPE
  5
1F8
100
AcDbSymbolTableRecord
100
AcDbLinetypeTableRecord
  2
DOT
 70
64
  3
. . . . . . . . . . . . . . . . . . . .
 72
65
 73
2
 40
0.2
 49
0.1
 74
0
 49
-0.1
 74
0
  0
LTYPE
  5
1F9
100
AcDbSymbolTableRecord
100
AcDbLinetypeTableRecord
  2
DASHED
 70
64
  3
- - - - - - - - - - - - - - - - - - - -
 72
65
 73
2
 40
0.2
 49
0.1
 74
0
 49
-0.1
 74
0
  0
ENDTAB
  0
TABLE
  2
LAYER
  5
2
100
AcDbSymbolTable
 70
36
  0
LAYER
  5
10
100
AcDbSymbolTableRecord
100
AcDbLayerTableRecord
  2
0
 70
0
 62
7
  6
CONTINUOUS
370
-3
390
F
  0
LAYER
  5
1FA
100
AcDbSymbolTableRecord
100
AcDbLayerTableRecord
  2
DEFAULT_1
 70
0
 62
7
  6
CENTER
370
-3
390
F
  0
LAYER
  5
1FB
100
AcDbSymbolTableRecord
100
AcDbLayerTableRecord
  2
DEFAULT_2
 70
0
 62
8
  6
HIDDEN
370
-3
390
F
  0
LAYER
  5
1FC
100
AcDbSymbolTableRecord
100
AcDbLayerTableRecord
  2
DEFAULT_3
 70
0
 62
7
  6
PHANTOM
370
-3
390
F
  0
LAYER
  5
1FD
100
AcDbSymbolTableRecord
100
AcDbLayerTableRecord
  2
DATUM_PLANES
 70
0
 62
7
  6
CONTINUOUS
370
-3
390
F
  0
LAYER
  5
1FE
100
AcDbSymbolTableRecord
100
AcDbLayerTableRecord
  2
DIMENSIONS
 70
0
 62
7
  6
CONTINUOUS
370
-3
390
F
  0
LAYER
  5
1FF
100
AcDbSymbolTableRecord
100
AcDbLayerTableRecord
  2
DTM_500001
 70
0
 62
7
  6
CONTINUOUS
370
-3
390
F
  0
LAYER
  5
200
100
AcDbSymbolTableRecord
100
AcDbLayerTableRecord
  2
PARAMETERDIMENSIONS
 70
0
 62
7
  6
CONTINUOUS
370
-3
390
F
  0
LAYER
  5
201
100
AcDbSymbolTableRecord
100
AcDbLayerTableRecord
  2
PORT_AREAS
 70
0
 62
7
  6
CONTINUOUS
370
-3
390
F
  0
LAYER
  5
202
100
AcDbSymbolTableRecord
100
AcDbLayerTableRecord
  2
SUNNBOMCOSMETIC
 70
0
 62
7
  6
CONTINUOUS
370
-3
390
F
  0
LAYER
  5
203
100
AcDbSymbolTableRecord
100
AcDbLayerTableRecord
  2
SUNNBOMSTAMPING
 70
0
 62
7
  6
CONTINUOUS
370
-3
390
F
  0
LAYER
  5
204
100
AcDbSymbolTableRecord
100
AcDbLayerTableRecord
  2
THREADS
 70
0
 62
7
  6
CONTINUOUS
370
-3
390
F
  0
ENDTAB
  0
TABLE
  2
STYLE
  5
3
100
AcDbSymbolTable
 70
1
  0
STYLE
  5
11
100
AcDbSymbolTableRecord
100
AcDbTextStyleTableRecord
  2
STANDARD
 70
0
 40
0.0
 41
0.8
 50
0.0
 71
0
 42
0.2
  3
txt
  4

  0
STYLE
  5
205
100
AcDbSymbolTableRecord
100
AcDbTextStyleTableRecord
  2
TEXTSTYLE_1
 70
0
 40
0.0
 41
0.8
 50
0.0
 71
0
 42
0.2
  3
gdt
  4

  0
ENDTAB
  0
TABLE
  2
VIEW
  5
6
100
AcDbSymbolTable
 70
0
  0
ENDTAB
  0
TABLE
  2
UCS
  5
7
100
AcDbSymbolTable
 70
0
  0
ENDTAB
  0
TABLE
  2
APPID
  5
9
100
AcDbSymbolTable
 70
1
  0
APPID
  5
206
100
AcDbSymbolTableRecord
100
AcDbRegAppTableRecord
  2
ACAD
 70
0
  0
ENDTAB
  0
TABLE
  2
BLOCK_RECORD
  5
1
100
AcDbSymbolTable
 70
0
  0
BLOCK_RECORD
  5
207
100
AcDbSymbolTableRecord
100
AcDbBlockTableRecord
  2
*Model_Space
  0
BLOCK_RECORD
  5
208
100
AcDbSymbolTableRecord
100
AcDbBlockTableRecord
  2
*Paper_Space
  0
BLOCK_RECORD
  5
209
100
AcDbSymbolTableRecord
100
AcDbBlockTableRecord
  2
SUN_FIRST_THIRD_ANGLE_BL0
  0
BLOCK_RECORD
  5
20A
100
AcDbSymbolTableRecord
100
AcDbBlockTableRecord
  2
*T1
  0
BLOCK_RECORD
  5
20B
100
AcDbSymbolTableRecord
100
AcDbBlockTableRecord
  2
*T2
  0
BLOCK_RECORD
  5
20C
100
AcDbSymbolTableRecord
100
AcDbBlockTableRecord
  2
*T3
  0
ENDTAB
  0
TABLE
  2
DIMSTYLE
  5
A
100
AcDbSymbolTable
 70
1
100
AcDbDimStyleTable
 71
0
  0
DIMSTYLE
105
20D
100
AcDbSymbolTableRecord
100
AcDbDimStyleTableRecord
  2
STANDARD
 70
0
  3

  4

 40
1.0
 41
0.1875
 42
0.0625
 43
0.38
 44
0.125
 45
0.0
 46
0.0
 47
0.001
 48
0.001
140
0.1
141
0.09
142
0.0
143
25.4
144
1.0
145
0.0
146
1.0
147
0.09
 71
0.0
 72
0.0
 73
1
 74
1
 75
0
 76
0
 77
0
 78
4
170
0
171
2
172
0
173
0
174
0
175
0
176
0
177
0
178
0
270
2
271
3
272
3
273
2
274
2
275
0
280
0
281
0
282
0
283
1
284
4
285
0
286
0
287
3
288
0
340
11
278
46
  0
ENDTAB
  0
ENDSEC
  0
SECTION
  2
BLOCKS
  0
BLOCK
  5
20
100
AcDbEntity
  8
0
100
AcDbBlockBegin
  2
*Model_Space
 70
0
 10
0.0
 20
0.0
 30
0.0
  3
*Model_Space
  1

  0
ENDBLK
  5
21
100
AcDbEntity
  8
0
100
AcDbBlockEnd
  0
BLOCK
  5
1C
100
AcDbEntity
  8
0
100
AcDbBlockBegin
  2
*Paper_Space
 70
0
 10
0.0
 20
0.0
 30
0.0
  3
*Paper_Space
  1

  0
ENDBLK
  5
1D
100
AcDbEntity
  8
0
100
AcDbBlockEnd
  0
BLOCK
  5
20E
100
AcDbEntity
  8
0
100
AcDbBlockBegin
 62
2
  6
CONTINUOUS
  2
SUN_FIRST_THIRD_ANGLE_BL0
 70
64
 10
20.4816717061
 20
1.2289683772
  3
SUN_FIRST_THIRD_ANGLE_BL0
  1

  0
TEXT
  5
20F
100
AcDbEntity
  8
0
100
AcDbText
 62
2
  6
CONTINUOUS
 10
19.4750896608
 20
1.4136269581
  7
STANDARD
 40
0.08
  1
FIRST ANGLE
 41
0.8
 72
0
100
AcDbText
  0
TEXT
  5
210
100
AcDbEntity
  8
0
100
AcDbText
 62
2
  6
CONTINUOUS
 10
20.7842537513
 20
1.4047600029
  7
STANDARD
 40
0.08
  1
THIRD ANGLE
 41
0.8
 72
0
100
AcDbText
  0
LINE
  5
211
100
AcDbEntity
  8
0
100
AcDbLine
 62
7
  6
CONTINUOUS
 10
19.4767170086
 20
1.1727031207
 11
19.6334271527
 21
1.1717972817
  0
LINE
  5
212
100
AcDbEntity
  8
0
100
AcDbLine
 62
7
  6
CONTINUOUS
 10
19.6596964832
 20
1.1717972817
 11
19.6950230232
 21
1.171593082
  0
LINE
  5
213
100
AcDbEntity
  8
0
100
AcDbLine
 62
7
  6
CONTINUOUS
 10
19.7194818561
 20
1.1708914427
 11
19.8852396156
 21
1.1699333054
  0
LINE
  5
214
100
AcDbEntity
  8
0
100
AcDbLine
 62
7
  6
CONTINUOUS
 10
19.4758111696
 20
1.2723454088
 11
19.88525039
 21
1.3511534004
  0
LINE
  5
215
100
AcDbEntity
  8
0
100
AcDbLine
 62
7
  6
CONTINUOUS
 10
19.88525039
 20
1.3511534004
 11
19.8831348489
 21
0.9851647912
  0
LINE
  5
216
100
AcDbEntity
  8
0
100
AcDbLine
 62
7
  6
CONTINUOUS
 10
19.8831348489
 20
0.9851647912
 11
19.4767170086
 21
1.0658141206
  0
LINE
  5
217
100
AcDbEntity
  8
0
100
AcDbLine
 62
7
  6
CONTINUOUS
 10
19.4767170086
 20
1.0658141206
 11
19.4779056764
 21
1.2714536432
  0
CIRCLE
  5
218
100
AcDbEntity
  8
0
100
AcDbCircle
 62
7
  6
CONTINUOUS
 10
20.2068232291
 20
1.1717972817
 40
0.175742101
  0
CIRCLE
  5
219
100
AcDbEntity
  8
0
100
AcDbCircle
 62
7
  6
CONTINUOUS
 10
20.2068232291
 20
1.1717972817
 40
0.1005522074
  0
LINE
  5
21A
100
AcDbEntity
  8
0
100
AcDbLine
 62
7
  6
CONTINUOUS
 10
20.2077290681
 20
1.3756110529
 11
20.2071171714
 21
1.2379342989
  0
LINE
  5
21B
100
AcDbEntity
  8
0
100
AcDbLine
 62
7
  6
CONTINUOUS
 10
20.2077290681
 20
1.2016899681
 11
20.2074674401
 21
1.1428236749
  0
LINE
  5
21C
100
AcDbEntity
  8
0
100
AcDbLine
 62
7
  6
CONTINUOUS
 10
20.208634907
 20
1.101141841
 11
20.2080230104
 21
0.963465087
  0
LINE
  5
21D
100
AcDbEntity
  8
0
100
AcDbLine
 62
7
  6
CONTINUOUS
 10
20.0066328138
 20
1.1745147986
 11
20.1443095678
 21
1.1739029019
  0
LINE
  5
21E
100
AcDbEntity
  8
0
100
AcDbLine
 62
7
  6
CONTINUOUS
 10
20.1832714155
 20
1.1727031207
 11
20.238153505
 21
1.172335442
  0
LINE
  5
21F
100
AcDbEntity
  8
0
100
AcDbLine
 62
7
  6
CONTINUOUS
 10
20.2756669918
 20
1.1717972817
 11
20.407916871
 21
1.1712095044
  0
CIRCLE
  5
220
100
AcDbEntity
  8
0
100
AcDbCircle
 62
7
  6
CONTINUOUS
 10
20.7509457401
 20
1.1693297793
 40
0.1722024983
  0
CIRCLE
  5
221
100
AcDbEntity
  8
0
100
AcDbCircle
 62
7
  6
CONTINUOUS
 10
20.7509457401
 20
1.1693297793
 40
0.0985164967
  0
LINE
  5
222
100
AcDbEntity
  8
0
100
AcDbLine
 62
7
  6
CONTINUOUS
 10
20.7169767782
 20
1.170462078
 11
20.7825395137
 21
1.1682766535
  0
LINE
  5
223
100
AcDbEntity
  8
0
100
AcDbLine
 62
7
  6
CONTINUOUS
 10
20.8177513651
 20
1.1693297793
 11
20.947965719
 21
1.1693297793
  0
LINE
  5
224
100
AcDbEntity
  8
0
100
AcDbLine
 62
7
  6
CONTINUOUS
 10
20.6875370113
 20
1.170462078
 11
20.5573226574
 21
1.170462078
  0
LINE
  5
225
100
AcDbEntity
  8
0
100
AcDbLine
 62
7
  6
CONTINUOUS
 10
20.7486811426
 20
1.1987695462
 11
20.7486811426
 21
1.1432869085
  0
LINE
  5
226
100
AcDbEntity
  8
0
100
AcDbLine
 62
7
  6
CONTINUOUS
 10
20.7498134414
 20
1.1059210505
 11
20.7498134414
 21
0.9757066966
  0
LINE
  5
227
100
AcDbEntity
  8
0
100
AcDbLine
 62
7
  6
CONTINUOUS
 10
20.7486811426
 20
1.2338708068
 11
20.7486811426
 21
1.3640851607
  0
LINE
  5
228
100
AcDbEntity
  8
0
100
AcDbLine
 62
7
  6
CONTINUOUS
 10
21.0702539817
 20
1.2701043662
 11
21.4790138229
 21
1.3448360823
  0
LINE
  5
229
100
AcDbEntity
  8
0
100
AcDbLine
 62
7
  6
CONTINUOUS
 10
21.4790138229
 20
1.3448360823
 11
21.4790138229
 21
0.9779712941
  0
LINE
  5
22A
100
AcDbEntity
  8
0
100
AcDbLine
 62
7
  6
CONTINUOUS
 10
21.4790138229
 20
0.9779712941
 11
21.069121683
 21
1.0617614
  0
LINE
  5
22B
100
AcDbEntity
  8
0
100
AcDbLine
 62
7
  6
CONTINUOUS
 10
21.0702539817
 20
1.2701043662
 11
21.069121683
 21
1.0617614
  0
LINE
  5
22C
100
AcDbEntity
  8
0
100
AcDbLine
 62
7
  6
CONTINUOUS
 10
21.4790138229
 20
1.1693297793
 11
21.3159628059
 21
1.1693297793
  0
LINE
  5
22D
100
AcDbEntity
  8
0
100
AcDbLine
 62
7
  6
CONTINUOUS
 10
21.2876553377
 20
1.1693297793
 11
21.2502894796
 21
1.1693297793
  0
LINE
  5
22E
100
AcDbEntity
  8
0
100
AcDbLine
 62
7
  6
CONTINUOUS
 10
21.2208497126
 20
1.1659328831
 11
21.0713862804
 21
1.1659328831
  0
LINE
  5
22F
100
AcDbEntity
  8
0
100
AcDbLine
 62
7
  6
CONTINUOUS
 10
20.4796138713
 20
1.5284908897
 11
20.4766766948
 21
0.9294458646
  0
ENDBLK
  5
230
100
AcDbEntity
  8
0
  6
BYBLOCK
 62
0
100
AcDbBlockEnd
  0
BLOCK
  5
231
100
AcDbEntity
  8
0
100
AcDbBlockBegin
  2
*T1
 70
1
 10
0.0
 20
0.0
  3
*T1
  1

  0
LINE
  5
232
100
AcDbEntity
  8
0
100
AcDbLine
 62
2
  6
CONTINUOUS
 10
9.275
 20
0.0
 11
-0.0
 21
0.0
  0
LINE
  5
233
100
AcDbEntity
  8
0
100
AcDbLine
 62
2
  6
CONTINUOUS
 10
9.275
 20
0.0
 11
9.275
 21
1.25
  0
LINE
  5
234
100
AcDbEntity
  8
0
100
AcDbLine
 62
2
  6
CONTINUOUS
 10
9.275
 20
0.625
 11
-0.0
 21
0.625
  0
LINE
  5
235
100
AcDbEntity
  8
0
100
AcDbLine
 62
2
  6
CONTINUOUS
 10
9.275
 20
1.25
 11
-0.0
 21
1.25
  0
LINE
  5
236
100
AcDbEntity
  8
0
100
AcDbLine
 62
2
  6
CONTINUOUS
 10
6.8
 20
0.0
 11
6.8
 21
1.25
  0
LINE
  5
237
100
AcDbEntity
  8
0
100
AcDbLine
 62
2
  6
CONTINUOUS
 10
6.4
 20
0.0
 11
6.4
 21
0.625
  0
LINE
  5
238
100
AcDbEntity
  8
0
100
AcDbLine
 62
2
  6
CONTINUOUS
 10
5.9
 20
0.0
 11
5.9
 21
0.625
  0
LINE
  5
239
100
AcDbEntity
  8
0
100
AcDbLine
 62
2
  6
CONTINUOUS
 10
5.2
 20
0.0
 11
5.2
 21
0.625
  0
LINE
  5
23A
100
AcDbEntity
  8
0
100
AcDbLine
 62
2
  6
CONTINUOUS
 10
4.1
 20
0.0
 11
4.1
 21
1.25
  0
LINE
  5
23B
100
AcDbEntity
  8
0
100
AcDbLine
 62
2
  6
CONTINUOUS
 10
-0.0
 20
0.0
 11
-0.0
 21
1.25
  0
MTEXT
  5
23C
100
AcDbEntity
  8
0
100
AcDbMText
 62
2
  6
CONTINUOUS
  7
STANDARD
 71
2
 72
1
 10
6.6
 20
0.325
 30
0.0
 11
1.0
 21
0.0
 31
0.0
 44
0.9
  1
2
 40
0.125
 41
0.2
  0
MTEXT
  5
23D
100
AcDbEntity
  8
0
100
AcDbMText
 62
2
  6
CONTINUOUS
  7
STANDARD
 71
2
 72
1
 10
6.15
 20
0.325
 30
0.0
 11
1.0
 21
0.0
 31
0.0
 44
0.9
  1
C
 40
0.125
 41
0.2
  0
MTEXT
  5
23E
100
AcDbEntity
  8
0
100
AcDbMText
 62
2
  6
CONTINUOUS
  7
STANDARD
 71
2
 72
1
 10
5.55
 20
0.325
 30
0.0
 11
1.0
 21
0.0
 31
0.0
 44
0.9
  1
2.000
 40
0.125
 41
1.0
  0
MTEXT
  5
23F
100
AcDbEntity
  8
0
100
AcDbMText
 62
2
  6
CONTINUOUS
  7
STANDARD
 71
2
 72
1
 10
4.65
 20
0.325
 30
0.0
 11
1.0
 21
0.0
 31
0.0
 44
0.9
  1
Oct-01-19
 40
0.125
 41
1.8
  0
MTEXT
  5
240
100
AcDbEntity
  8
0
100
AcDbMText
 62
2
  6
CONTINUOUS
  7
STANDARD
 71
2
 72
1
 10
2.05
 20
0.4625
 30
0.0
 11
1.0
 21
0.0
 31
0.0
 44
0.9
  1
T-21A Gasket mount Sun\PDirect mount, cross pilot
 40
0.125
 41
5.0
  0
MTEXT
  5
241
100
AcDbEntity
  8
0
100
AcDbMText
 62
2
  6
CONTINUOUS
  7
STANDARD
 71
1
 72
1
 10
6.45
 20
0.5625
 30
0.0
 11
1.0
 21
0.0
 31
0.0
 44
0.9
  1
SHEET
 40
0.06
 41
0.48
  0
MTEXT
  5
242
100
AcDbEntity
  8
0
100
AcDbMText
 62
2
  6
CONTINUOUS
  7
STANDARD
 71
1
 72
1
 10
5.95
 20
0.5625
 30
0.0
 11
1.0
 21
0.0
 31
0.0
 44
0.9
  1
DWG SIZE
 40
0.06
 41
0.768
  0
MTEXT
  5
243
100
AcDbEntity
  8
0
100
AcDbMText
 62
2
  6
CONTINUOUS
  7
STANDARD
 71
1
 72
1
 10
5.25
 20
0.5625
 30
0.0
 11
1.0
 21
0.0
 31
0.0
 44
0.9
  1
SCALE
 40
0.06
 41
0.48
  0
MTEXT
  5
244
100
AcDbEntity
  8
0
100
AcDbMText
 62
2
  6
CONTINUOUS
  7
STANDARD
 71
1
 72
1
 10
4.15
 20
0.5625
 30
0.0
 11
1.0
 21
0.0
 31
0.0
 44
0.9
  1
DATE
 40
0.06
 41
0.384
  0
MTEXT
  5
245
100
AcDbEntity
  8
0
100
AcDbMText
 62
2
  6
CONTINUOUS
  7
STANDARD
 71
1
 72
1
 10
0.05
 20
0.5625
 30
0.0
 11
1.0
 21
0.0
 31
0.0
 44
0.9
  1
DESCRIPTION
 40
0.06
 41
1.056
  0
MTEXT
  5
246
100
AcDbEntity
  8
0
100
AcDbMText
 62
2
  6
CONTINUOUS
  7
STANDARD
 71
2
 72
1
 10
5.45
 20
1.0375
 30
0.0
 11
1.0
 21
0.0
 31
0.0
 44
0.9
  1
ALL DIMENSIONS IN INCH\PVIEWS ARE THIRD ANGLE
 40
0.12
 41
4.224
  0
MTEXT
  5
247
100
AcDbEntity
  8
0
100
AcDbMText
 62
2
  6
CONTINUOUS
  7
STANDARD
 71
2
 72
1
 10
2.05
 20
0.95
 30
0.0
 11
1.0
 21
0.0
 31
0.0
 44
0.9
  1
WDA
 40
0.125
 41
0.6
  0
MTEXT
  5
248
100
AcDbEntity
  8
0
100
AcDbMText
 62
2
  6
CONTINUOUS
  7
STANDARD
 71
1
 72
1
 10
0.05
 20
1.1875
 30
0.0
 11
1.0
 21
0.0
 31
0.0
 44
0.9
  1
MODEL
 40
0.06
 41
0.48
  0
ENDBLK
  5
249
100
AcDbEntity
  8
0
  6
BYBLOCK
 62
0
100
AcDbBlockEnd
  0
BLOCK
  5
24A
100
AcDbEntity
  8
0
100
AcDbBlockBegin
  2
*T2
 70
1
 10
0.0
 20
0.0
  3
*T2
  1

  0
LINE
  5
24B
100
AcDbEntity
  8
0
100
AcDbLine
 62
2
  6
CONTINUOUS
 10
0.0
 20
0.0
 11
9.055
 21
0.0
  0
LINE
  5
24C
100
AcDbEntity
  8
0
100
AcDbLine
 62
2
  6
CONTINUOUS
 10
0.0
 20
0.0
 11
0.0
 21
-1.844
  0
LINE
  5
24D
100
AcDbEntity
  8
0
100
AcDbLine
 62
2
  6
CONTINUOUS
 10
0.0
 20
-0.344
 11
9.055
 21
-0.344
  0
LINE
  5
24E
100
AcDbEntity
  8
0
100
AcDbLine
 62
2
  6
CONTINUOUS
 10
0.0
 20
-0.594
 11
9.055
 21
-0.594
  0
LINE
  5
24F
100
AcDbEntity
  8
0
100
AcDbLine
 62
2
  6
CONTINUOUS
 10
0.0
 20
-0.844
 11
9.055
 21
-0.844
  0
LINE
  5
250
100
AcDbEntity
  8
0
100
AcDbLine
 62
2
  6
CONTINUOUS
 10
0.0
 20
-1.094
 11
9.055
 21
-1.094
  0
LINE
  5
251
100
AcDbEntity
  8
0
100
AcDbLine
 62
2
  6
CONTINUOUS
 10
0.0
 20
-1.344
 11
9.055
 21
-1.344
  0
LINE
  5
252
100
AcDbEntity
  8
0
100
AcDbLine
 62
2
  6
CONTINUOUS
 10
0.0
 20
-1.594
 11
9.055
 21
-1.594
  0
LINE
  5
253
100
AcDbEntity
  8
0
100
AcDbLine
 62
2
  6
CONTINUOUS
 10
0.0
 20
-1.844
 11
9.055
 21
-1.844
  0
LINE
  5
254
100
AcDbEntity
  8
0
100
AcDbLine
 62
2
  6
CONTINUOUS
 10
3.055
 20
0.0
 11
3.055
 21
-1.844
  0
LINE
  5
255
100
AcDbEntity
  8
0
100
AcDbLine
 62
2
  6
CONTINUOUS
 10
9.055
 20
0.0
 11
9.055
 21
-1.844
  0
MTEXT
  5
256
100
AcDbEntity
  8
0
100
AcDbMText
 62
2
  6
CONTINUOUS
  7
STANDARD
 71
2
 72
1
 10
1.5275
 20
-0.0995
 30
0.0
 11
1.0
 21
0.0
 31
0.0
 44
0.9
  1
Technical Data
 40
0.145
 41
3.248
  0
MTEXT
  5
257
100
AcDbEntity
  8
0
100
AcDbMText
 62
2
  6
CONTINUOUS
  7
STANDARD
 71
2
 72
1
 10
4.555
 20
-0.0995
 30
0.0
 11
1.0
 21
0.0
 31
0.0
 44
0.9
  1
U.S. Units
 40
0.145
 41
2.32
  0
MTEXT
  5
258
100
AcDbEntity
  8
0
100
AcDbMText
 62
2
  6
CONTINUOUS
  7
STANDARD
 71
2
 72
1
 10
7.555
 20
-0.0995
 30
0.0
 11
1.0
 21
0.0
 31
0.0
 44
0.9
  1
Metric Units
 40
0.145
 41
2.784
  0
MTEXT
  5
259
100
AcDbEntity
  8
0
100
AcDbMText
 62
2
  6
CONTINUOUS
  7
STANDARD
 71
2
 72
1
 10
1.5275
 20
-0.4065
 30
0.0
 11
1.0
 21
0.0
 31
0.0
 44
0.9
  1
Cavity
 40
0.125
 41
1.2
  0
MTEXT
  5
25A
100
AcDbEntity
  8
0
100
AcDbMText
 62
2
  6
CONTINUOUS
  7
STANDARD
 71
2
 72
1
 10
6.055
 20
-0.4065
 30
0.0
 11
1.0
 21
0.0
 31
0.0
 44
0.9
  1
T-21A
 40
0.125
 41
1.0
  0
MTEXT
  5
25B
100
AcDbEntity
  8
0
100
AcDbMText
 62
2
  6
CONTINUOUS
  7
STANDARD
 71
2
 72
1
 10
1.5275
 20
-0.6565
 30
0.0
 11
1.0
 21
0.0
 31
0.0
 44
0.9
  1
Body Features
 40
0.125
 41
2.6
  0
MTEXT
  5
25C
100
AcDbEntity
  8
0
100
AcDbMText
 62
2
  6
CONTINUOUS
  7
STANDARD
 71
2
 72
1
 10
6.055
 20
-0.6565
 30
0.0
 11
1.0
 21
0.0
 31
0.0
 44
0.9
  1
Direct mount, cross pilot
 40
0.125
 41
5.0
  0
MTEXT
  5
25D
100
AcDbEntity
  8
0
100
AcDbMText
 62
2
  6
CONTINUOUS
  7
STANDARD
 71
2
 72
1
 10
1.5275
 20
-0.9065
 30
0.0
 11
1.0
 21
0.0
 31
0.0
 44
0.9
  1
Body Type
 40
0.125
 41
1.8
  0
MTEXT
  5
25E
100
AcDbEntity
  8
0
100
AcDbMText
 62
2
  6
CONTINUOUS
  7
STANDARD
 71
2
 72
1
 10
6.055
 20
-0.9065
 30
0.0
 11
1.0
 21
0.0
 31
0.0
 44
0.9
  1
Gasket mount
 40
0.125
 41
2.4
  0
MTEXT
  5
25F
100
AcDbEntity
  8
0
100
AcDbMText
 62
2
  6
CONTINUOUS
  7
STANDARD
 71
2
 72
1
 10
1.5275
 20
-1.1565
 30
0.0
 11
1.0
 21
0.0
 31
0.0
 44
0.9
  1
Interface
 40
0.125
 41
1.8
  0
MTEXT
  5
260
100
AcDbEntity
  8
0
100
AcDbMText
 62
2
  6
CONTINUOUS
  7
STANDARD
 71
2
 72
1
 10
6.055
 20
-1.1565
 30
0.0
 11
1.0
 21
0.0
 31
0.0
 44
0.9
  1
Sun
 40
0.125
 41
0.6
  0
MTEXT
  5
261
100
AcDbEntity
  8
0
100
AcDbMText
 62
2
  6
CONTINUOUS
  7
STANDARD
 71
2
 72
1
 10
1.5275
 20
-1.4065
 30
0.0
 11
1.0
 21
0.0
 31
0.0
 44
0.9
  1
Open Cavity Quantity
 40
0.125
 41
4.0
  0
MTEXT
  5
262
100
AcDbEntity
  8
0
100
AcDbMText
 62
2
  6
CONTINUOUS
  7
STANDARD
 71
2
 72
1
 10
6.055
 20
-1.4065
 30
0.0
 11
1.0
 21
0.0
 31
0.0
 44
0.9
  1
1
 40
0.125
 41
0.2
  0
MTEXT
  5
263
100
AcDbEntity
  8
0
100
AcDbMText
 62
2
  6
CONTINUOUS
  7
STANDARD
 71
2
 72
1
 10
1.5275
 20
-1.6565
 30
0.0
 11
1.0
 21
0.0
 31
0.0
 44
0.9
  1
Weight
 40
0.125
 41
1.2
  0
MTEXT
  5
264
100
AcDbEntity
  8
0
100
AcDbMText
 62
2
  6
CONTINUOUS
  7
STANDARD
 71
2
 72
1
 10
4.555
 20
-1.6565
 30
0.0
 11
1.0
 21
0.0
 31
0.0
 44
0.9
  1
2.453 lb.
 40
0.125
 41
1.8
  0
MTEXT
  5
265
100
AcDbEntity
  8
0
100
AcDbMText
 62
2
  6
CONTINUOUS
  7
STANDARD
 71
2
 72
1
 10
7.555
 20
-1.6565
 30
0.0
 11
1.0
 21
0.0
 31
0.0
 44
0.9
  1
1,113 kg.
 40
0.125
 41
1.8
  0
ENDBLK
  5
266
100
AcDbEntity
  8
0
  6
BYBLOCK
 62
0
100
AcDbBlockEnd
  0
BLOCK
  5
267
100
AcDbEntity
  8
0
100
AcDbBlockBegin
  2
*T3
 70
1
 10
0.0
 20
0.0
  3
*T3
  1

  0
LINE
  5
268
100
AcDbEntity
  8
0
100
AcDbLine
 62
2
  6
CONTINUOUS
 10
0.0
 20
0.0
 11
4.6
 21
0.0
  0
LINE
  5
269
100
AcDbEntity
  8
0
100
AcDbLine
 62
2
  6
CONTINUOUS
 10
0.0
 20
0.0
 11
0.0
 21
-0.93775
  0
LINE
  5
26A
100
AcDbEntity
  8
0
100
AcDbLine
 62
2
  6
CONTINUOUS
 10
0.0
 20
-0.34375
 11
4.6
 21
-0.34375
  0
LINE
  5
26B
100
AcDbEntity
  8
0
100
AcDbLine
 62
2
  6
CONTINUOUS
 10
0.0
 20
-0.68775
 11
4.6
 21
-0.68775
  0
LINE
  5
26C
100
AcDbEntity
  8
0
100
AcDbLine
 62
2
  6
CONTINUOUS
 10
0.0
 20
-0.93775
 11
4.6
 21
-0.93775
  0
LINE
  5
26D
100
AcDbEntity
  8
0
100
AcDbLine
 62
2
  6
CONTINUOUS
 10
1.3
 20
-0.34375
 11
1.3
 21
-0.93775
  0
LINE
  5
26E
100
AcDbEntity
  8
0
100
AcDbLine
 62
2
  6
CONTINUOUS
 10
3.3
 20
-0.34375
 11
3.3
 21
-0.93775
  0
LINE
  5
26F
100
AcDbEntity
  8
0
100
AcDbLine
 62
2
  6
CONTINUOUS
 10
4.6
 20
0.0
 11
4.6
 21
-0.93775
  0
MTEXT
  5
270
100
AcDbEntity
  8
0
100
AcDbMText
 62
2
  6
CONTINUOUS
  7
STANDARD
 71
2
 72
1
 10
2.3
 20
-0.099375
 30
0.0
 11
1.0
 21
0.0
 31
0.0
 44
0.9
  1
Port Headings
 40
0.145
 41
3.016
  0
MTEXT
  5
271
100
AcDbEntity
  8
0
100
AcDbMText
 62
2
  6
CONTINUOUS
  7
STANDARD
 71
2
 72
1
 10
0.65
 20
-0.44325
 30
0.0
 11
1.0
 21
0.0
 31
0.0
 44
0.9
  1
Product
 40
0.145
 41
1.624
  0
MTEXT
  5
272
100
AcDbEntity
  8
0
100
AcDbMText
 62
2
  6
CONTINUOUS
  7
STANDARD
 71
2
 72
1
 10
2.3
 20
-0.44325
 30
0.0
 11
1.0
 21
0.0
 31
0.0
 44
0.9
  1
Port
 40
0.145
 41
0.928
  0
MTEXT
  5
273
100
AcDbEntity
  8
0
100
AcDbMText
 62
2
  6
CONTINUOUS
  7
STANDARD
 71
2
 72
1
 10
3.95
 20
-0.44325
 30
0.0
 11
1.0
 21
0.0
 31
0.0
 44
0.9
  1
Size
 40
0.145
 41
0.928
  0
MTEXT
  5
274
100
AcDbEntity
  8
0
100
AcDbMText
 62
2
  6
CONTINUOUS
  7
STANDARD
 71
2
 72
1
 10
0.65
 20
-0.75025
 30
0.0
 11
1.0
 21
0.0
 31
0.0
 44
0.9
  1
WDA
 40
0.125
 41
0.6
  0
MTEXT
  5
275
100
AcDbEntity
  8
0
100
AcDbMText
 62
2
  6
CONTINUOUS
  7
STANDARD
 71
2
 72
1
 10
2.3
 20
-0.75025
 30
0.0
 11
1.0
 21
0.0
 31
0.0
 44
0.9
  1
All Other Ports
 40
0.125
 41
3.0
  0
MTEXT
  5
276
100
AcDbEntity
  8
0
100
AcDbMText
 62
2
  6
CONTINUOUS
  7
STANDARD
 71
2
 72
1
 10
3.95
 20
-0.75025
 30
0.0
 11
1.0
 21
0.0
 31
0.0
 44
0.9
  1
SAE 6
 40
0.125
 41
1.0
  0
ENDBLK
  5
277
100
AcDbEntity
  8
0
  6
BYBLOCK
 62
0
100
AcDbBlockEnd
  0
ENDSEC
  0
SECTION
  2
ENTITIES
  0
IMAGE
  5
278
100
AcDbEntity
  8
0
100
AcDbRasterImage
 62
7
  6
CONTINUOUS
 10
19.2297077316
 20
0.3094318264
 30
0.0
 11
0.0066666667
 21
0.0
 31
0.0
 12
0.0
 22
0.0066666667
 32
0.0
 13
369.0
 23
92.0
340
       3C0
 70
9
280
0
281
50
282
50
283
0
360
       3BA
 71
1
 91
2
 14
-0.5
 24
-0.5
 14
368.5
 24
91.5
  0
INSERT
  5
279
100
AcDbEntity
  8
0
100
AcDbBlockReference
 62
2
  6
CONTINUOUS
  2
SUN_FIRST_THIRD_ANGLE_BL0
 10
20.4816717061
 20
1.2289683772
  0
ACAD_TABLE
  5
27A
100
AcDbEntity
  8
0
 62
2
  6
CONTINUOUS
100
AcDbBlockReference
  2
*T1
 10
12.42375
 20
0.30125
 30
0.0
100
AcDbTable
342
       3C2
343
20A
 11
1.0
 21
0.0
 31
0.0
 90
6
 91
4
 92
6
 93
20
 94
0
 95
0
 96
0
 70
1
 41
0.0
141
0.525
141
0.1
141
0.525
141
0.1
142
4.1
142
1.1
142
0.7
142
0.5
142
0.4
142
2.475
171
1
172
0
173
0
174
0
175
1
176
1
 91
33
178
0
145
0.0
301
CELL_VALUE
 90
4
  1
T-21A Gasket mount Sun\PDirect mount, cross pilot
304
ACVALUE_END
170
2
140
0.125
171
1
172
0
173
0
174
0
175
1
176
1
 91
33
178
0
145
0.0
301
CELL_VALUE
 90
4
  1
Oct-01-19
304
ACVALUE_END
170
5
140
0.125
171
1
172
0
173
0
174
0
175
1
176
1
 91
33
178
0
145
0.0
301
CELL_VALUE
 90
4
  1
2.000
304
ACVALUE_END
170
5
140
0.125
171
1
172
0
173
0
174
0
175
1
176
1
 91
33
178
0
145
0.0
301
CELL_VALUE
 90
4
  1
C
304
ACVALUE_END
170
5
140
0.125
171
1
172
0
173
0
174
0
175
1
176
1
 91
33
178
0
145
0.0
301
CELL_VALUE
 90
4
  1
2
304
ACVALUE_END
170
5
140
0.125
171
1
172
0
173
0
174
0
175
1
176
1
 91
33
178
0
145
0.0
301
CELL_VALUE
 90
4
  1
 
304
ACVALUE_END
170
1
140
0.125
171
1
172
0
173
0
174
0
175
1
176
1
 91
33
178
0
145
0.0
301
CELL_VALUE
 90
4
  1
DESCRIPTION
304
ACVALUE_END
170
1
140
0.06
171
1
172
0
173
0
174
0
175
1
176
1
 91
33
178
0
145
0.0
301
CELL_VALUE
 90
4
  1
DATE
304
ACVALUE_END
170
1
140
0.06
171
1
172
0
173
0
174
0
175
1
176
1
 91
33
178
0
145
0.0
301
CELL_VALUE
 90
4
  1
SCALE
304
ACVALUE_END
170
1
140
0.06
171
1
172
0
173
0
174
0
175
1
176
1
 91
33
178
0
145
0.0
301
CELL_VALUE
 90
4
  1
DWG SIZE
304
ACVALUE_END
170
1
140
0.06
171
1
172
0
173
0
174
0
175
1
176
1
 91
33
178
0
145
0.0
301
CELL_VALUE
 90
4
  1
SHEET
304
ACVALUE_END
170
1
140
0.06
171
1
172
0
173
0
174
0
175
1
176
1
 91
33
178
0
145
0.0
301
CELL_VALUE
 90
4
  1
 
304
ACVALUE_END
170
1
140
0.125
171
1
172
0
173
0
174
0
175
1
176
1
 91
33
178
0
145
0.0
301
CELL_VALUE
 90
4
  1
WDA
304
ACVALUE_END
170
5
140
0.125
171
1
172
0
173
0
174
0
175
4
176
1
 91
33
178
0
145
0.0
301
CELL_VALUE
 90
4
  1
ALL DIMENSIONS IN INCH\PVIEWS ARE THIRD ANGLE
304
ACVALUE_END
170
5
140
0.12
171
1
172
0
173
1
174
0
175
1
176
1
 91
1
178
0
145
0.0
170
1
171
1
172
0
173
1
174
0
175
1
176
1
 91
1
178
0
145
0.0
170
1
171
1
172
0
173
1
174
0
175
1
176
1
 91
1
178
0
145
0.0
170
5
171
1
172
0
173
0
174
0
175
1
176
1
 91
33
178
0
145
0.0
301
CELL_VALUE
 90
4
  1
 
304
ACVALUE_END
170
1
140
0.125
171
1
172
0
173
0
174
0
175
1
176
1
 91
33
178
0
145
0.0
301
CELL_VALUE
 90
4
  1
MODEL
304
ACVALUE_END
170
1
140
0.06
171
1
172
0
173
0
174
0
175
1
176
1
 91
33
178
0
145
0.0
301
CELL_VALUE
 90
4
  1
 
304
ACVALUE_END
170
1
140
0.125
171
1
172
0
173
0
174
0
175
1
176
1
 91
33
178
0
145
0.0
301
CELL_VALUE
 90
4
  1
 
304
ACVALUE_END
170
1
140
0.125
171
1
172
0
173
0
174
0
175
1
176
1
 91
33
178
0
145
0.0
301
CELL_VALUE
 90
4
  1
 
304
ACVALUE_END
170
1
140
0.125
171
1
172
0
173
0
174
0
175
1
176
1
 91
33
178
0
145
0.0
301
CELL_VALUE
 90
4
  1
 
304
ACVALUE_END
170
1
140
0.125
171
1
172
0
173
0
174
0
175
1
176
1
 91
33
178
0
145
0.0
301
CELL_VALUE
 90
4
  1
 
304
ACVALUE_END
170
1
140
0.125
  0
ACAD_TABLE
  5
27B
100
AcDbEntity
  8
0
 62
2
  6
CONTINUOUS
100
AcDbBlockReference
  2
*T2
 10
12.4237499994
 20
16.47875
 30
0.0
100
AcDbTable
342
       3C1
343
20B
 11
1.0
 21
0.0
 31
0.0
 90
22
 91
7
 92
3
 93
16
 94
0
 95
0
 96
0
 41
0.028
141
0.344
141
0.25
141
0.25
141
0.25
141
0.25
141
0.25
141
0.25
142
3.055
142
3.0
142
3.0
171
1
172
0
173
0
174
0
175
1
176
1
 91
33
178
0
145
0.0
301
CELL_VALUE
 90
4
  1
Technical Data
304
ACVALUE_END
170
5
140
0.145
171
1
172
0
173
0
174
0
175
1
176
1
 91
33
178
0
145
0.0
301
CELL_VALUE
 90
4
  1
U.S. Units
304
ACVALUE_END
170
5
140
0.145
171
1
172
0
173
0
174
0
175
1
176
1
 91
33
178
0
145
0.0
301
CELL_VALUE
 90
4
  1
Metric Units
304
ACVALUE_END
170
5
140
0.145
171
1
172
0
173
0
174
0
175
1
176
1
 91
33
178
0
145
0.0
301
CELL_VALUE
 90
4
  1
Cavity
304
ACVALUE_END
170
5
140
0.125
171
1
172
0
173
0
174
0
175
2
176
1
 91
33
178
0
145
0.0
301
CELL_VALUE
 90
4
  1
T-21A
304
ACVALUE_END
170
5
140
0.125
171
1
172
0
173
1
174
0
175
1
176
1
 91
1
178
0
145
0.0
170
1
171
1
172
0
173
0
174
0
175
1
176
1
 91
33
178
0
145
0.0
301
CELL_VALUE
 90
4
  1
Body Features
304
ACVALUE_END
170
5
140
0.125
171
1
172
0
173
0
174
0
175
2
176
1
 91
33
178
0
145
0.0
301
CELL_VALUE
 90
4
  1
Direct mount, cross pilot
304
ACVALUE_END
170
5
140
0.125
171
1
172
0
173
1
174
0
175
1
176
1
 91
1
178
0
145
0.0
170
1
171
1
172
0
173
0
174
0
175
1
176
1
 91
33
178
0
145
0.0
301
CELL_VALUE
 90
4
  1
Body Type
304
ACVALUE_END
170
5
140
0.125
171
1
172
0
173
0
174
0
175
2
176
1
 91
33
178
0
145
0.0
301
CELL_VALUE
 90
4
  1
Gasket mount
304
ACVALUE_END
170
5
140
0.125
171
1
172
0
173
1
174
0
175
1
176
1
 91
1
178
0
145
0.0
170
1
171
1
172
0
173
0
174
0
175
1
176
1
 91
33
178
0
145
0.0
301
CELL_VALUE
 90
4
  1
Interface
304
ACVALUE_END
170
5
140
0.125
171
1
172
0
173
0
174
0
175
2
176
1
 91
33
178
0
145
0.0
301
CELL_VALUE
 90
4
  1
Sun
304
ACVALUE_END
170
5
140
0.125
171
1
172
0
173
1
174
0
175
1
176
1
 91
1
178
0
145
0.0
170
1
171
1
172
0
173
0
174
0
175
1
176
1
 91
33
178
0
145
0.0
301
CELL_VALUE
 90
4
  1
Open Cavity Quantity
304
ACVALUE_END
170
5
140
0.125
171
1
172
0
173
0
174
0
175
2
176
1
 91
33
178
0
145
0.0
301
CELL_VALUE
 90
4
  1
1
304
ACVALUE_END
170
5
140
0.125
171
1
172
0
173
1
174
0
175
1
176
1
 91
1
178
0
145
0.0
170
1
171
1
172
0
173
0
174
0
175
1
176
1
 91
33
178
0
145
0.0
301
CELL_VALUE
 90
4
  1
Weight
304
ACVALUE_END
170
5
140
0.125
171
1
172
0
173
0
174
0
175
1
176
1
 91
33
178
0
145
0.0
301
CELL_VALUE
 90
4
  1
2.453 lb.
304
ACVALUE_END
170
5
140
0.125
171
1
172
0
173
0
174
0
175
1
176
1
 91
33
178
0
145
0.0
301
CELL_VALUE
 90
4
  1
1,113 kg.
304
ACVALUE_END
170
5
140
0.125
  0
ACAD_TABLE
  5
27C
100
AcDbEntity
  8
0
 62
2
  6
CONTINUOUS
100
AcDbBlockReference
  2
*T3
 10
0.52125
 20
1.459
 30
0.0
100
AcDbTable
342
       3C1
343
20C
 11
1.0
 21
0.0
 31
0.0
 90
22
 91
3
 92
3
 93
16
 94
0
 95
0
 96
0
 41
0.05
141
0.34375
141
0.344
141
0.25
142
1.3
142
2.0
142
1.3
171
1
172
0
173
0
174
0
175
3
176
1
 91
33
178
0
145
0.0
301
CELL_VALUE
 90
4
  1
Port Headings
304
ACVALUE_END
170
5
140
0.145
171
1
172
0
173
1
174
0
175
1
176
1
 91
1
178
0
145
0.0
170
1
171
1
172
0
173
1
174
0
175
1
176
1
 91
1
178
0
145
0.0
170
1
171
1
172
0
173
0
174
0
175
1
176
1
 91
33
178
0
145
0.0
301
CELL_VALUE
 90
4
  1
Product
304
ACVALUE_END
170
5
140
0.145
171
1
172
0
173
0
174
0
175
1
176
1
 91
33
178
0
145
0.0
301
CELL_VALUE
 90
4
  1
Port
304
ACVALUE_END
170
5
140
0.145
171
1
172
0
173
0
174
0
175
1
176
1
 91
33
178
0
145
0.0
301
CELL_VALUE
 90
4
  1
Size
304
ACVALUE_END
170
5
140
0.145
171
1
172
0
173
0
174
0
175
1
176
1
 91
33
178
0
145
0.0
301
CELL_VALUE
 90
4
  1
WDA
304
ACVALUE_END
170
5
140
0.125
171
1
172
0
173
0
174
0
175
1
176
1
 91
33
178
0
145
0.0
301
CELL_VALUE
 90
4
  1
All Other Ports
304
ACVALUE_END
170
5
140
0.125
171
1
172
0
173
0
174
0
175
1
176
1
 91
33
178
0
145
0.0
301
CELL_VALUE
 90
4
  1
SAE 6
304
ACVALUE_END
170
5
140
0.125
  0
MTEXT
  5
27D
100
AcDbEntity
  8
0
100
AcDbMText
 62
2
  6
CONTINUOUS
  7
STANDARD
 71
1
 72
1
 10
0.52125
 20
5.75995
 30
0.0
 11
1.0
 21
0.0
 31
0.0
 44
0.6
  3
Notes\P \P1. Important: Carefully consider\P   the maximum system pressure. The\P   pressure rating of the manifold is\P   dependent on the manifold material,\P   with the port type/size a secondary\P   consideration. Manifolds\P   constructed of alu
  1
minum are not\P   rated for pressures higher than\P   3000 psi (210 bar), regardless of\P   the port type/size specified.
 40
0.1
 41
3.04
  0
LINE
  5
27E
100
AcDbEntity
  8
0
100
AcDbLine
 62
7
  6
CONTINUOUS
 10
0.30125
 20
0.30125
 11
0.30125
 21
16.69875
  0
LINE
  5
27F
100
AcDbEntity
  8
0
100
AcDbLine
 62
7
  6
CONTINUOUS
 10
0.30125
 20
0.30125
 11
21.69875
 21
0.30125
  0
LINE
  5
280
100
AcDbEntity
  8
0
100
AcDbLine
 62
7
  6
CONTINUOUS
 10
0.30125
 20
16.69875
 11
21.69875
 21
16.69875
  0
LINE
  5
281
100
AcDbEntity
  8
0
100
AcDbLine
 62
7
  6
CONTINUOUS
 10
21.69875
 20
0.30125
 11
21.69875
 21
16.69875
  0
LINE
  5
282
100
AcDbEntity
  8
0
100
AcDbLine
 62
7
  6
CONTINUOUS
 10
7.4156832813
 20
5.0610009616
 11
7.4156832813
 21
9.8906303793
  0
LINE
  5
283
100
AcDbEntity
  8
0
100
AcDbLine
 62
7
  6
CONTINUOUS
 10
7.4156832813
 20
9.8906303793
 11
9.8744621806
 21
12.2656285599
  0
LINE
  5
284
100
AcDbEntity
  8
0
100
AcDbLine
 62
7
  6
CONTINUOUS
 10
12.1255378194
 20
4.7343714401
 11
7.4156832813
 21
5.0610009616
  0
LINE
  5
285
100
AcDbEntity
  8
0
100
AcDbLine
 62
4
  6
CONTINUOUS
 10
9.569698074
 20
6.3894860891
 11
9.5117425223
 21
6.4079942082
  0
LINE
  5
286
100
AcDbEntity
  8
0
100
AcDbLine
 62
4
  6
CONTINUOUS
 10
9.6662906648
 20
6.2813651546
 11
9.6469721383
 21
6.2971937869
  0
LINE
  5
287
100
AcDbEntity
  8
0
100
AcDbLine
 62
4
  6
CONTINUOUS
 10
9.6083351062
 20
6.3578288259
 11
9.569698074
 21
6.3894860891
  0
LINE
  5
288
100
AcDbEntity
  8
0
100
AcDbLine
 62
4
  6
CONTINUOUS
 10
9.70492769
 20
6.3945967713
 11
9.7242462165
 21
6.378768139
  0
LINE
  5
289
100
AcDbEntity
  8
0
100
AcDbLine
 62
4
  6
CONTINUOUS
 10
9.70492769
 20
6.2786856678
 11
9.6662906648
 21
6.2813651546
  0
LINE
  5
28A
100
AcDbEntity
  8
0
100
AcDbLine
 62
4
  6
CONTINUOUS
 10
9.5117425223
 20
6.5818608633
 11
9.7435647291
 21
6.493339499
  0
LINE
  5
28B
100
AcDbEntity
  8
0
100
AcDbLine
 62
4
  6
CONTINUOUS
 10
9.6469721383
 20
6.2971937869
 11
9.6083351062
 21
6.3578288259
  0
LINE
  5
28C
100
AcDbEntity
  8
0
100
AcDbLine
 62
4
  6
CONTINUOUS
 10
9.7242462165
 20
6.378768139
 11
9.7435647291
 21
6.3484506197
  0
LINE
  5
28D
100
AcDbEntity
  8
0
100
AcDbLine
 62
4
  6
CONTINUOUS
 10
11.8686014886
 20
6.7468268995
 11
11.6367792818
 21
6.7629038242
  0
LINE
  5
28E
100
AcDbEntity
  8
0
100
AcDbLine
 62
4
  6
CONTINUOUS
 10
9.5117425223
 20
6.4079942082
 11
9.5117425223
 21
6.2920831047
  0
LINE
  5
28F
100
AcDbEntity
  8
0
100
AcDbLine
 62
4
  6
CONTINUOUS
 10
9.7435647291
 20
6.6382283783
 11
9.5117425223
 21
6.5818608633
  0
LINE
  5
290
100
AcDbEntity
  8
0
100
AcDbLine
 62
4
  6
CONTINUOUS
 10
11.6367792818
 20
6.9367704793
 11
11.8686014886
 21
6.9206935547
  0
LINE
  5
291
100
AcDbEntity
  8
0
100
AcDbLine
 62
4
  6
CONTINUOUS
 10
11.6367792818
 20
7.0526815827
 11
11.8686014886
 21
7.0366046581
  0
LINE
  5
292
100
AcDbEntity
  8
0
100
AcDbLine
 62
4
  6
CONTINUOUS
 10
9.7435647291
 20
6.3484506197
 11
9.7435647291
 21
6.3194728439
  0
LINE
  5
293
100
AcDbEntity
  8
0
100
AcDbLine
 62
7
  6
CONTINUOUS
 10
10.3118962121
 20
9.3404679409
 11
10.3548601382
 21
9.3819679091
  0
LINE
  5
294
100
AcDbEntity
  8
0
100
AcDbLine
 62
4
  6
CONTINUOUS
 10
11.8686014886
 20
7.5147379598
 11
11.6367792818
 21
7.4583704448
  0
LINE
  5
295
100
AcDbEntity
  8
0
100
AcDbLine
 62
4
  6
CONTINUOUS
 10
11.6367792818
 20
7.2845037896
 11
11.8686014886
 21
7.268426865
  0
LINE
  5
296
100
AcDbEntity
  8
0
100
AcDbLine
 62
7
  6
CONTINUOUS
 10
10.4855655604
 20
8.9425485216
 11
10.5658210616
 21
9.0200693875
  0
LINE
  5
297
100
AcDbEntity
  8
0
100
AcDbLine
 62
4
  6
CONTINUOUS
 10
11.6367792818
 20
7.4583704448
 11
11.8686014886
 21
7.3698490805
  0
LINE
  5
298
100
AcDbEntity
  8
0
100
AcDbLine
 62
7
  6
CONTINUOUS
 10
10.624847927
 20
9.1182133904
 11
10.5658210616
 21
9.0200693875
  0
LINE
  5
299
100
AcDbEntity
  8
0
100
AcDbLine
 62
7
  6
CONTINUOUS
 10
10.5904089433
 20
8.7536835422
 11
10.6706644445
 21
8.8312044081
  0
LINE
  5
29A
100
AcDbEntity
  8
0
100
AcDbLine
 62
7
  6
CONTINUOUS
 10
12.1255378194
 20
9.5640008577
 11
14.5843167187
 21
11.9389990384
  0
LINE
  5
29B
100
AcDbEntity
  8
0
100
AcDbLine
 62
7
  6
CONTINUOUS
 10
11.0941808971
 20
8.5305872882
 11
11.1371448232
 21
8.5720872564
  0
LINE
  5
29C
100
AcDbEntity
  8
0
100
AcDbLine
 62
4
  6
CONTINUOUS
 10
9.5117425223
 20
8.9966756297
 11
9.7435647291
 21
8.9081542654
  0
LINE
  5
29D
100
AcDbEntity
  8
0
100
AcDbLine
 62
7
  6
CONTINUOUS
 10
10.5658210616
 20
9.0200693875
 11
10.6706644445
 21
8.8312044081
  0
LINE
  5
29E
100
AcDbEntity
  8
0
100
AcDbLine
 62
4
  6
CONTINUOUS
 10
9.7435647291
 20
6.3194728439
 11
9.7242462165
 21
6.2918348114
  0
LINE
  5
29F
100
AcDbEntity
  8
0
100
AcDbLine
 62
7
  6
CONTINUOUS
 10
13.5465019304
 20
10.3972596604
 11
13.5457695902
 21
10.3965684116
  0
LINE
  5
2A0
100
AcDbEntity
  8
0
100
AcDbLine
 62
4
  6
CONTINUOUS
 10
14.2437111411
 20
9.3745708592
 11
14.3058276593
 21
9.3848946208
  0
LINE
  5
2A1
100
AcDbEntity
  8
0
100
AcDbLine
 62
4
  6
CONTINUOUS
 10
9.7435647291
 20
8.7487764982
 11
9.5117425223
 21
8.7648534228
  0
LINE
  5
2A2
100
AcDbEntity
  8
0
100
AcDbLine
 62
7
  6
CONTINUOUS
 10
10.6706644445
 20
8.8312044081
 11
10.8509651699
 21
8.8187005103
  0
LINE
  5
2A3
100
AcDbEntity
  8
0
100
AcDbLine
 62
4
  6
CONTINUOUS
 10
11.6367792818
 20
7.1685926862
 11
11.6367792818
 21
7.2845037896
  0
LINE
  5
2A4
100
AcDbEntity
  8
0
100
AcDbLine
 62
4
  6
CONTINUOUS
 10
11.7526903852
 20
7.2764653273
 11
11.7526903852
 21
7.2040208876
  0
LINE
  5
2A5
100
AcDbEntity
  8
0
100
AcDbLine
 62
4
  6
CONTINUOUS
 10
11.8686014886
 20
7.268426865
 11
11.8686014886
 21
7.1525157615
  0
LINE
  5
2A6
100
AcDbEntity
  8
0
100
AcDbLine
 62
4
  6
CONTINUOUS
 10
11.8686014886
 20
6.8192713392
 11
11.8686014886
 21
6.6743824599
  0
LINE
  5
2A7
100
AcDbEntity
  8
0
100
AcDbLine
 62
4
  6
CONTINUOUS
 10
14.4682179864
 20
10.4966382895
 11
14.4770917742
 21
10.5052097108
  0
LINE
  5
2A8
100
AcDbEntity
  8
0
100
AcDbLine
 62
4
  6
CONTINUOUS
 10
14.4327228325
 20
10.3464414981
 11
14.4415966212
 21
10.3550129203
  0
LINE
  5
2A9
100
AcDbEntity
  8
0
100
AcDbLine
 62
7
  6
CONTINUOUS
 10
13.5457695902
 20
9.4760410446
 11
13.544156084
 21
9.474515371
  0
LINE
  5
2AA
100
AcDbEntity
  8
0
100
AcDbLine
 62
7
  6
CONTINUOUS
 10
13.5441668456
 20
9.4745211451
 11
13.5131790347
 21
9.4456809654
  0
LINE
  5
2AB
100
AcDbEntity
  8
0
100
AcDbLine
 62
4
  6
CONTINUOUS
 10
9.7435647291
 20
9.0530431447
 11
9.5117425223
 21
8.9966756297
  0
LINE
  5
2AC
100
AcDbEntity
  8
0
100
AcDbLine
 62
4
  6
CONTINUOUS
 10
14.2437111411
 20
8.9992396757
 11
14.3058276593
 21
8.9930046884
  0
LINE
  5
2AD
100
AcDbEntity
  8
0
100
AcDbLine
 62
7
  6
CONTINUOUS
 10
12.1255378194
 20
9.5640008577
 11
12.1255378194
 21
4.7343714401
  0
LINE
  5
2AE
100
AcDbEntity
  8
0
100
AcDbLine
 62
4
  6
CONTINUOUS
 10
14.485965562
 20
10.3316351163
 11
14.4327228325
 21
10.2802065858
  0
LINE
  5
2AF
100
AcDbEntity
  8
0
100
AcDbLine
 62
4
  6
CONTINUOUS
 10
14.1070548012
 20
9.8938808839
 11
14.1691713193
 21
9.9538808366
  0
LINE
  5
2B0
100
AcDbEntity
  8
0
100
AcDbLine
 62
4
  6
CONTINUOUS
 10
14.4327228325
 20
10.1642954824
 11
14.485965562
 21
10.2157240129
  0
LINE
  5
2B1
100
AcDbEntity
  8
0
100
AcDbLine
 62
4
  6
CONTINUOUS
 10
14.4238490438
 20
10.0894891479
 11
14.485965562
 21
10.1494891006
  0
LINE
  5
2B2
100
AcDbEntity
  8
0
100
AcDbLine
 62
4
  6
CONTINUOUS
 10
14.1602975315
 20
9.8293983257
 11
14.1159285899
 21
9.7865412165
  0
LINE
  5
2B3
100
AcDbEntity
  8
0
100
AcDbLine
 62
4
  6
CONTINUOUS
 10
14.4238490438
 20
9.9735780445
 11
14.485965562
 21
10.0335779972
  0
LINE
  5
2B4
100
AcDbEntity
  8
0
100
AcDbLine
 62
4
  6
CONTINUOUS
 10
9.7242462165
 20
6.2918348114
 11
9.70492769
 21
6.2786856678
  0
LINE
  5
2B5
100
AcDbEntity
  8
0
100
AcDbLine
 62
7
  6
CONTINUOUS
 10
13.4672613243
 20
9.4254805228
 11
13.4110358796
 21
9.4293797707
  0
LINE
  5
2B6
100
AcDbEntity
  8
0
100
AcDbLine
 62
7
  6
CONTINUOUS
 10
7.4156832813
 20
9.8906303793
 11
12.1255378194
 21
9.5640008577
  0
LINE
  5
2B7
100
AcDbEntity
  8
0
100
AcDbLine
 62
4
  6
CONTINUOUS
 10
14.485965562
 20
8.6757622536
 11
14.4815286663
 21
8.6769960964
  0
LINE
  5
2B8
100
AcDbEntity
  8
0
100
AcDbLine
 62
4
  6
CONTINUOUS
 10
14.1070548012
 20
9.4191973181
 11
14.1691713193
 21
9.4791972708
  0
LINE
  5
2B9
100
AcDbEntity
  8
0
100
AcDbLine
 62
4
  6
CONTINUOUS
 10
14.4238490438
 20
9.7251971164
 11
14.485965562
 21
9.7851970691
  0
LINE
  5
2BA
100
AcDbEntity
  8
0
100
AcDbLine
 62
4
  6
CONTINUOUS
 10
14.4637810907
 20
9.6644161318
 11
14.4238490438
 21
9.6258447342
  0
LINE
  5
2BB
100
AcDbEntity
  8
0
100
AcDbLine
 62
4
  6
CONTINUOUS
 10
14.1070548012
 20
9.2867274935
 11
14.1691713193
 21
9.3467274462
  0
LINE
  5
2BC
100
AcDbEntity
  8
0
100
AcDbLine
 62
4
  6
CONTINUOUS
 10
14.4282859382
 20
9.4203865149
 11
14.4637810907
 21
9.4546722014
  0
LINE
  5
2BD
100
AcDbEntity
  8
0
100
AcDbLine
 62
4
  6
CONTINUOUS
 10
14.2437111411
 20
9.2089835784
 11
14.3058276593
 21
9.2689835311
  0
LINE
  5
2BE
100
AcDbEntity
  8
0
100
AcDbLine
 62
4
  6
CONTINUOUS
 10
11.8686014886
 20
7.0366046581
 11
11.6367792818
 21
6.9367704793
  0
LINE
  5
2BF
100
AcDbEntity
  8
0
100
AcDbLine
 62
7
  6
CONTINUOUS
 10
13.5750856677
 20
9.9048489768
 11
13.4778280121
 21
9.9115938181
  0
LINE
  5
2C0
100
AcDbEntity
  8
0
100
AcDbLine
 62
4
  6
CONTINUOUS
 10
14.1070548012
 20
9.6841369949
 11
14.1691713193
 21
9.6779020353
  0
LINE
  5
2C1
100
AcDbEntity
  8
0
100
AcDbLine
 62
4
  6
CONTINUOUS
 10
14.2437111411
 20
9.4739232311
 11
14.2880800837
 21
9.4671041535
  0
LINE
  5
2C2
100
AcDbEntity
  8
0
100
AcDbLine
 62
4
  6
CONTINUOUS
 10
14.4090593966
 20
9.5122066488
 11
14.4682179864
 21
9.5031145773
  0
LINE
  5
2C3
100
AcDbEntity
  8
0
100
AcDbLine
 62
4
  6
CONTINUOUS
 10
14.485965562
 20
9.3767484295
 11
14.4238490438
 21
9.3167484768
  0
LINE
  5
2C4
100
AcDbEntity
  8
0
100
AcDbLine
 62
4
  6
CONTINUOUS
 10
14.2969538715
 20
9.1445010064
 11
14.2525849298
 21
9.1016438972
  0
LINE
  5
2C5
100
AcDbEntity
  8
0
100
AcDbLine
 62
4
  6
CONTINUOUS
 10
14.4238490438
 20
9.2505134816
 11
14.4682179864
 21
9.2933705917
  0
LINE
  5
2C6
100
AcDbEntity
  8
0
100
AcDbLine
 62
4
  6
CONTINUOUS
 10
14.1159285899
 20
8.9475655502
 11
14.1602975315
 21
8.9904226593
  0
LINE
  5
2C7
100
AcDbEntity
  8
0
100
AcDbLine
 62
4
  6
CONTINUOUS
 10
14.4637810907
 20
9.211810884
 11
14.4549073029
 21
9.2032394627
  0
LINE
  5
2C8
100
AcDbEntity
  8
0
100
AcDbLine
 62
4
  6
CONTINUOUS
 10
14.4282859382
 20
9.1057706469
 11
14.4415966212
 21
9.1186277802
  0
LINE
  5
2C9
100
AcDbEntity
  8
0
100
AcDbLine
 62
4
  6
CONTINUOUS
 10
14.1159285899
 20
8.7543804515
 11
14.1602975315
 21
8.7972375607
  0
LINE
  5
2CA
100
AcDbEntity
  8
0
100
AcDbLine
 62
4
  6
CONTINUOUS
 10
14.4238490438
 20
9.0021326088
 11
14.4593441987
 21
9.0364182976
  0
LINE
  5
2CB
100
AcDbEntity
  8
0
100
AcDbLine
 62
4
  6
CONTINUOUS
 10
14.4682179864
 20
8.9787548342
 11
14.4282859382
 21
8.9401834352
  0
LINE
  5
2CC
100
AcDbEntity
  8
0
100
AcDbLine
 62
4
  6
CONTINUOUS
 10
14.1602975315
 20
8.6813264572
 11
14.1159285899
 21
8.638469348
  0
LINE
  5
2CD
100
AcDbEntity
  8
0
100
AcDbLine
 62
4
  6
CONTINUOUS
 10
14.1070548012
 20
8.5636630412
 11
14.1691713193
 21
8.6236629939
  0
LINE
  5
2CE
100
AcDbEntity
  8
0
100
AcDbLine
 62
7
  6
CONTINUOUS
 10
13.6124429483
 20
10.1824148119
 11
13.4796434012
 21
10.1916244917
  0
LINE
  5
2CF
100
AcDbEntity
  8
0
100
AcDbLine
 62
4
  6
CONTINUOUS
 10
14.1691713193
 20
9.6779020353
 11
14.1070548012
 21
9.5516671427
  0
LINE
  5
2D0
100
AcDbEntity
  8
0
100
AcDbLine
 62
4
  6
CONTINUOUS
 10
14.3058276593
 20
9.5835993715
 11
14.2437111411
 21
9.4739232311
  0
LINE
  5
2D1
100
AcDbEntity
  8
0
100
AcDbLine
 62
4
  6
CONTINUOUS
 10
14.4238490438
 20
8.8365452866
 11
14.4682179864
 21
8.8794023967
  0
LINE
  5
2D2
100
AcDbEntity
  8
0
100
AcDbLine
 62
4
  6
CONTINUOUS
 10
14.4282859382
 20
8.774596113
 11
14.485965562
 21
8.8303103546
  0
LINE
  5
2D3
100
AcDbEntity
  8
0
100
AcDbLine
 62
4
  6
CONTINUOUS
 10
14.1602975315
 20
8.4991804691
 11
14.1159285899
 21
8.4563233599
  0
LINE
  5
2D4
100
AcDbEntity
  8
0
100
AcDbLine
 62
4
  6
CONTINUOUS
 10
14.1070548012
 20
8.3539190555
 11
14.1691713193
 21
8.4139190082
  0
LINE
  5
2D5
100
AcDbEntity
  8
0
100
AcDbLine
 62
4
  6
CONTINUOUS
 10
14.4238490438
 20
8.6212818562
 11
14.4682179864
 21
8.6641389663
  0
LINE
  5
2D6
100
AcDbEntity
  8
0
100
AcDbLine
 62
4
  6
CONTINUOUS
 10
14.4815286663
 20
8.6769960964
 11
14.485965562
 21
8.6812818089
  0
LINE
  5
2D7
100
AcDbEntity
  8
0
100
AcDbLine
 62
4
  6
CONTINUOUS
 10
14.4282859382
 20
8.5372543509
 11
14.4637810907
 21
8.5715400374
  0
LINE
  5
2D8
100
AcDbEntity
  8
0
100
AcDbLine
 62
4
  6
CONTINUOUS
 10
14.450470409
 20
8.4096542492
 11
14.4637810907
 21
8.4225113811
  0
LINE
  5
2D9
100
AcDbEntity
  8
0
100
AcDbLine
 62
7
  6
CONTINUOUS
 10
13.5624585995
 20
10.7981835055
 11
13.506210443
 21
10.8020843285
  0
LINE
  5
2DA
100
AcDbEntity
  8
0
100
AcDbLine
 62
4
  6
CONTINUOUS
 10
14.1691713193
 20
9.8710872031
 11
14.1602975315
 21
9.8293983257
  0
LINE
  5
2DB
100
AcDbEntity
  8
0
100
AcDbLine
 62
4
  6
CONTINUOUS
 10
14.485965562
 20
10.1494891006
 11
14.4238490438
 21
9.9735780445
  0
LINE
  5
2DC
100
AcDbEntity
  8
0
100
AcDbLine
 62
4
  6
CONTINUOUS
 10
14.2880800837
 20
9.4671041535
 11
14.2437111411
 21
9.3745708592
  0
LINE
  5
2DD
100
AcDbEntity
  8
0
100
AcDbLine
 62
4
  6
CONTINUOUS
 10
14.4682179864
 20
9.6024669043
 11
14.4238490438
 21
9.5099335755
  0
LINE
  5
2DE
100
AcDbEntity
  8
0
100
AcDbLine
 62
4
  6
CONTINUOUS
 10
14.3058276593
 20
8.9930046884
 11
14.2437111411
 21
8.8667698511
  0
LINE
  5
2DF
100
AcDbEntity
  8
0
100
AcDbLine
 62
4
  6
CONTINUOUS
 10
14.4282859382
 20
8.2888734781
 11
14.4415966212
 21
8.3017306114
  0
LINE
  5
2E0
100
AcDbEntity
  8
0
100
AcDbLine
 62
4
  6
CONTINUOUS
 10
14.1070548012
 20
9.2867274935
 11
14.1070548012
 21
9.1873751113
  0
LINE
  5
2E1
100
AcDbEntity
  8
0
100
AcDbLine
 62
4
  6
CONTINUOUS
 10
14.1070548012
 20
8.3539190555
 11
14.1070548012
 21
8.2545667285
  0
LINE
  5
2E2
100
AcDbEntity
  8
0
100
AcDbLine
 62
4
  6
CONTINUOUS
 10
14.1070548012
 20
8.4808693801
 11
14.1070548012
 21
8.5636630412
  0
LINE
  5
2E3
100
AcDbEntity
  8
0
100
AcDbLine
 62
4
  6
CONTINUOUS
 10
14.1070548012
 20
8.6630153682
 11
14.1070548012
 21
8.7126915869
  0
LINE
  5
2E4
100
AcDbEntity
  8
0
100
AcDbLine
 62
4
  6
CONTINUOUS
 10
14.1070548012
 20
8.839641801
 11
14.1070548012
 21
8.9058766856
  0
LINE
  5
2E5
100
AcDbEntity
  8
0
100
AcDbLine
 62
4
  6
CONTINUOUS
 10
14.1070548012
 20
9.8110872504
 11
14.1070548012
 21
9.8938808839
  0
LINE
  5
2E6
100
AcDbEntity
  8
0
100
AcDbLine
 62
4
  6
CONTINUOUS
 10
14.1248023786
 20
9.6792015352
 11
14.1248023786
 21
9.5908883188
  0
LINE
  5
2E7
100
AcDbEntity
  8
0
100
AcDbLine
 62
4
  6
CONTINUOUS
 10
14.142549956
 20
8.3219698596
 11
14.142549956
 21
8.3882047443
  0
LINE
  5
2E8
100
AcDbEntity
  8
0
100
AcDbLine
 62
4
  6
CONTINUOUS
 10
14.142549956
 20
9.2547782424
 11
14.142549956
 21
9.3210131823
  0
LINE
  5
2E9
100
AcDbEntity
  8
0
100
AcDbLine
 62
4
  6
CONTINUOUS
 10
14.1336761663
 20
10.052064988
 11
14.1218444484
 21
9.9523232021
  0
LINE
  5
2EA
100
AcDbEntity
  8
0
100
AcDbLine
 62
4
  6
CONTINUOUS
 10
14.1455078852
 20
8.2254746731
 11
14.1336761663
 21
8.1257328931
  0
LINE
  5
2EB
100
AcDbEntity
  8
0
100
AcDbLine
 62
4
  6
CONTINUOUS
 10
14.4415966212
 20
10.3550129203
 11
14.4682179864
 21
10.4966382895
  0
LINE
  5
2EC
100
AcDbEntity
  8
0
100
AcDbLine
 62
4
  6
CONTINUOUS
 10
14.4282859382
 20
10.4580668905
 11
14.4238490438
 21
10.4372224496
  0
LINE
  5
2ED
100
AcDbEntity
  8
0
100
AcDbLine
 62
4
  6
CONTINUOUS
 10
14.1070548012
 20
8.9058766856
 11
14.1159285899
 21
8.9475655502
  0
LINE
  5
2EE
100
AcDbEntity
  8
0
100
AcDbLine
 62
4
  6
CONTINUOUS
 10
14.4327228325
 20
10.2802065858
 11
14.4238490438
 21
10.2385177075
  0
LINE
  5
2EF
100
AcDbEntity
  8
0
100
AcDbLine
 62
4
  6
CONTINUOUS
 10
14.1070548012
 20
8.7126915869
 11
14.1159285899
 21
8.7543804515
  0
LINE
  5
2F0
100
AcDbEntity
  8
0
100
AcDbLine
 62
4
  6
CONTINUOUS
 10
14.485965562
 20
10.4144287567
 11
14.4815286663
 21
10.3935843162
  0
LINE
  5
2F1
100
AcDbEntity
  8
0
100
AcDbLine
 62
4
  6
CONTINUOUS
 10
14.1691713193
 20
8.7230153209
 11
14.1602975315
 21
8.6813264572
  0
LINE
  5
2F2
100
AcDbEntity
  8
0
100
AcDbLine
 62
4
  6
CONTINUOUS
 10
14.3058276593
 20
9.18618987
 11
14.2969538715
 21
9.1445010064
  0
LINE
  5
2F3
100
AcDbEntity
  8
0
100
AcDbLine
 62
4
  6
CONTINUOUS
 10
14.1691713193
 20
8.5408693328
 11
14.1602975315
 21
8.4991804691
  0
LINE
  5
2F4
100
AcDbEntity
  8
0
100
AcDbLine
 62
4
  6
CONTINUOUS
 10
14.4682179864
 20
9.6852605654
 11
14.4637810907
 21
9.6644161318
  0
LINE
  5
2F5
100
AcDbEntity
  8
0
100
AcDbLine
 62
4
  6
CONTINUOUS
 10
14.4682179864
 20
9.227135707
 11
14.4637810907
 21
9.211810884
  0
LINE
  5
2F6
100
AcDbEntity
  8
0
100
AcDbLine
 62
4
  6
CONTINUOUS
 10
14.4593441987
 20
9.0364182976
 11
14.4682179864
 21
9.0615483848
  0
LINE
  5
2F7
100
AcDbEntity
  8
0
100
AcDbLine
 62
4
  6
CONTINUOUS
 10
14.1159285899
 20
8.4563233599
 11
14.1070548012
 21
8.4808693801
  0
LINE
  5
2F8
100
AcDbEntity
  8
0
100
AcDbLine
 62
4
  6
CONTINUOUS
 10
14.1159285899
 20
8.638469348
 11
14.1070548012
 21
8.6630153682
  0
LINE
  5
2F9
100
AcDbEntity
  8
0
100
AcDbLine
 62
4
  6
CONTINUOUS
 10
14.1602975315
 20
8.7972375607
 11
14.1691713193
 21
8.7726915396
  0
LINE
  5
2FA
100
AcDbEntity
  8
0
100
AcDbLine
 62
4
  6
CONTINUOUS
 10
14.1602975315
 20
8.9904226593
 11
14.1691713193
 21
8.9658766383
  0
LINE
  5
2FB
100
AcDbEntity
  8
0
100
AcDbLine
 62
4
  6
CONTINUOUS
 10
14.4238490438
 20
8.3011464329
 11
14.4282859382
 21
8.2888734781
  0
LINE
  5
2FC
100
AcDbEntity
  8
0
100
AcDbLine
 62
4
  6
CONTINUOUS
 10
14.1336761663
 20
8.1257328931
 11
14.1218444484
 21
8.2026175469
  0
LINE
  5
2FD
100
AcDbEntity
  8
0
100
AcDbLine
 62
4
  6
CONTINUOUS
 10
14.1691713193
 20
9.9538808366
 11
14.1691713193
 21
9.8710872031
  0
LINE
  5
2FE
100
AcDbEntity
  8
0
100
AcDbLine
 62
4
  6
CONTINUOUS
 10
14.1691713193
 20
9.5454322107
 11
14.1691713193
 21
9.4129623862
  0
LINE
  5
2FF
100
AcDbEntity
  8
0
100
AcDbLine
 62
4
  6
CONTINUOUS
 10
14.1691713193
 20
9.3467274462
 11
14.1691713193
 21
9.247375064
  0
LINE
  5
300
100
AcDbEntity
  8
0
100
AcDbLine
 62
4
  6
CONTINUOUS
 10
14.1691713193
 20
8.9658766383
 11
14.1691713193
 21
8.8996417537
  0
LINE
  5
301
100
AcDbEntity
  8
0
100
AcDbLine
 62
4
  6
CONTINUOUS
 10
14.1691713193
 20
8.7726915396
 11
14.1691713193
 21
8.7230153209
  0
LINE
  5
302
100
AcDbEntity
  8
0
100
AcDbLine
 62
4
  6
CONTINUOUS
 10
14.1691713193
 20
8.6236629939
 11
14.1691713193
 21
8.5408693328
  0
LINE
  5
303
100
AcDbEntity
  8
0
100
AcDbLine
 62
4
  6
CONTINUOUS
 10
14.1691713193
 20
8.4139190082
 11
14.1691713193
 21
8.3145666812
  0
LINE
  5
304
100
AcDbEntity
  8
0
100
AcDbLine
 62
4
  6
CONTINUOUS
 10
14.2437111411
 20
9.1261899173
 11
14.2437111411
 21
9.2089835784
  0
LINE
  5
305
100
AcDbEntity
  8
0
100
AcDbLine
 62
4
  6
CONTINUOUS
 10
14.2614587185
 20
8.9943041883
 11
14.2614587185
 21
8.9059909719
  0
LINE
  5
306
100
AcDbEntity
  8
0
100
AcDbLine
 62
4
  6
CONTINUOUS
 10
14.3058276593
 20
9.2689835311
 11
14.3058276593
 21
9.18618987
  0
LINE
  5
307
100
AcDbEntity
  8
0
100
AcDbLine
 62
4
  6
CONTINUOUS
 10
14.4090593966
 20
9.5453240912
 11
14.4090593966
 21
9.5122066488
  0
LINE
  5
308
100
AcDbEntity
  8
0
100
AcDbLine
 62
4
  6
CONTINUOUS
 10
14.4238490438
 20
10.4372224496
 11
14.4238490438
 21
10.3709875321
  0
LINE
  5
309
100
AcDbEntity
  8
0
100
AcDbLine
 62
4
  6
CONTINUOUS
 10
14.4238490438
 20
10.2385177075
 11
14.4238490438
 21
10.1888415025
  0
LINE
  5
30A
100
AcDbEntity
  8
0
100
AcDbLine
 62
4
  6
CONTINUOUS
 10
14.4238490438
 20
8.9193389477
 11
14.4238490438
 21
8.8365452866
  0
LINE
  5
30B
100
AcDbEntity
  8
0
100
AcDbLine
 62
4
  6
CONTINUOUS
 10
14.4238490438
 20
8.3673813176
 11
14.4238490438
 21
8.3011464329
  0
LINE
  5
30C
100
AcDbEntity
  8
0
100
AcDbLine
 62
4
  6
CONTINUOUS
 10
14.4238490438
 20
8.4501748681
 11
14.4238490438
 21
8.5164099739
  0
LINE
  5
30D
100
AcDbEntity
  8
0
100
AcDbLine
 62
4
  6
CONTINUOUS
 10
14.4238490438
 20
8.7206341832
 11
14.4238490438
 21
8.7537516255
  0
LINE
  5
30E
100
AcDbEntity
  8
0
100
AcDbLine
 62
4
  6
CONTINUOUS
 10
14.4238490438
 20
9.0021326088
 11
14.4238490438
 21
9.0683674935
  0
LINE
  5
30F
100
AcDbEntity
  8
0
100
AcDbLine
 62
4
  6
CONTINUOUS
 10
14.4238490438
 20
9.3167484768
 11
14.4238490438
 21
9.3829833614
  0
LINE
  5
310
100
AcDbEntity
  8
0
100
AcDbLine
 62
4
  6
CONTINUOUS
 10
14.4460335151
 20
9.0897960485
 11
14.4460335151
 21
9.0235611639
  0
LINE
  5
311
100
AcDbEntity
  8
0
100
AcDbLine
 62
4
  6
CONTINUOUS
 10
14.4682179864
 20
9.7680542265
 11
14.4682179864
 21
9.6852605654
  0
LINE
  5
312
100
AcDbEntity
  8
0
100
AcDbLine
 62
4
  6
CONTINUOUS
 10
14.4682179864
 20
9.4258404715
 11
14.4682179864
 21
9.3596055869
  0
LINE
  5
313
100
AcDbEntity
  8
0
100
AcDbLine
 62
4
  6
CONTINUOUS
 10
14.4682179864
 20
9.2933705917
 11
14.4682179864
 21
9.227135707
  0
LINE
  5
314
100
AcDbEntity
  8
0
100
AcDbLine
 62
4
  6
CONTINUOUS
 10
14.4682179864
 20
8.559267084
 11
14.4682179864
 21
8.4930319782
  0
LINE
  5
315
100
AcDbEntity
  8
0
100
AcDbLine
 62
4
  6
CONTINUOUS
 10
14.4682179864
 20
8.4102384277
 11
14.4682179864
 21
8.344003543
  0
LINE
  5
316
100
AcDbEntity
  8
0
100
AcDbLine
 62
4
  6
CONTINUOUS
 10
14.4682179864
 20
9.0615483848
 11
14.4682179864
 21
9.1443420459
  0
LINE
  5
317
100
AcDbEntity
  8
0
100
AcDbLine
 62
4
  6
CONTINUOUS
 10
14.485965562
 20
10.4806636725
 11
14.485965562
 21
10.4144287567
  0
LINE
  5
318
100
AcDbEntity
  8
0
100
AcDbLine
 62
4
  6
CONTINUOUS
 10
14.485965562
 20
8.6812818089
 11
14.485965562
 21
8.6757622536
  0
LINE
  5
319
100
AcDbEntity
  8
0
100
AcDbLine
 62
4
  6
CONTINUOUS
 10
14.4445545505
 20
8.3211464178
 11
14.4475124798
 21
8.3902384428
  0
LINE
  5
31A
100
AcDbEntity
  8
0
100
AcDbLine
 62
4
  6
CONTINUOUS
 10
14.4238490438
 20
9.3829833614
 11
14.4282859382
 21
9.4203865149
  0
LINE
  5
31B
100
AcDbEntity
  8
0
100
AcDbLine
 62
4
  6
CONTINUOUS
 10
14.4238490438
 20
9.0683674935
 11
14.4282859382
 21
9.1057706469
  0
LINE
  5
31C
100
AcDbEntity
  8
0
100
AcDbLine
 62
4
  6
CONTINUOUS
 10
14.4475124798
 20
8.3902384428
 11
14.450470409
 21
8.4096542492
  0
LINE
  5
31D
100
AcDbEntity
  8
0
100
AcDbLine
 62
4
  6
CONTINUOUS
 10
14.4415966212
 20
8.3017306114
 11
14.4445545505
 21
8.3211464178
  0
LINE
  5
31E
100
AcDbEntity
  8
0
100
AcDbLine
 62
4
  6
CONTINUOUS
 10
14.4282859382
 20
8.9401834352
 11
14.4238490438
 21
8.9193389477
  0
LINE
  5
31F
100
AcDbEntity
  8
0
100
AcDbLine
 62
4
  6
CONTINUOUS
 10
14.4238490438
 20
8.7537516255
 11
14.4282859382
 21
8.774596113
  0
LINE
  5
320
100
AcDbEntity
  8
0
100
AcDbLine
 62
4
  6
CONTINUOUS
 10
14.4238490438
 20
8.5164099739
 11
14.4282859382
 21
8.5372543509
  0
LINE
  5
321
100
AcDbEntity
  8
0
100
AcDbLine
 62
4
  6
CONTINUOUS
 10
14.4282859382
 20
8.3882256946
 11
14.4238490438
 21
8.3673813176
  0
LINE
  5
322
100
AcDbEntity
  8
0
100
AcDbLine
 62
4
  6
CONTINUOUS
 10
14.4682179864
 20
8.344003543
 11
14.4637810907
 21
8.3231591647
  0
LINE
  5
323
100
AcDbEntity
  8
0
100
AcDbLine
 62
7
  6
CONTINUOUS
 10
12.1255378194
 20
4.7343714401
 11
14.5843167187
 21
7.1093696207
  0
LINE
  5
324
100
AcDbEntity
  8
0
100
AcDbLine
 62
7
  6
CONTINUOUS
 10
13.631858514
 20
10.7389965668
 11
13.6051483454
 21
10.771838115
  0
LINE
  5
325
100
AcDbEntity
  8
0
100
AcDbLine
 62
4
  6
CONTINUOUS
 10
14.4637810907
 20
8.4225113811
 11
14.4682179864
 21
8.4102384277
  0
LINE
  5
326
100
AcDbEntity
  8
0
100
AcDbLine
 62
4
  6
CONTINUOUS
 10
14.2525849298
 20
9.1016438972
 11
14.2437111411
 21
9.1261899173
  0
LINE
  5
327
100
AcDbEntity
  8
0
100
AcDbLine
 62
4
  6
CONTINUOUS
 10
14.4637810907
 20
8.5715400374
 11
14.4682179864
 21
8.559267084
  0
LINE
  5
328
100
AcDbEntity
  8
0
100
AcDbLine
 62
4
  6
CONTINUOUS
 10
14.1159285899
 20
9.7865412165
 11
14.1070548012
 21
9.8110872504
  0
LINE
  5
329
100
AcDbEntity
  8
0
100
AcDbLine
 62
4
  6
CONTINUOUS
 10
14.1455078852
 20
9.9751803282
 11
14.1336761663
 21
10.052064988
  0
LINE
  5
32A
100
AcDbEntity
  8
0
100
AcDbLine
 62
4
  6
CONTINUOUS
 10
14.4415966212
 20
9.1186277802
 11
14.4460335151
 21
9.0897960485
  0
LINE
  5
32B
100
AcDbEntity
  8
0
100
AcDbLine
 62
7
  6
CONTINUOUS
 10
14.5843167187
 20
11.9389990384
 11
14.5843167187
 21
7.1093696207
  0
LINE
  5
32C
100
AcDbEntity
  8
0
100
AcDbLine
 62
7
  6
CONTINUOUS
 10
9.8744621806
 20
12.2656285599
 11
14.5843167187
 21
11.9389990384
  0
LINE
  5
32D
100
AcDbEntity
  8
0
100
AcDbLine
 62
4
  6
CONTINUOUS
 10
14.4238490438
 20
10.1888415025
 11
14.4327228325
 21
10.1642954824
  0
LINE
  5
32E
100
AcDbEntity
  8
0
100
AcDbLine
 62
4
  6
CONTINUOUS
 10
14.4238490438
 20
10.3709875321
 11
14.4327228325
 21
10.3464414981
  0
LINE
  5
32F
100
AcDbEntity
  8
0
100
AcDbLine
 62
4
  6
CONTINUOUS
 10
14.4637810907
 20
9.4546722014
 11
14.4682179864
 21
9.4258404715
  0
LINE
  5
330
100
AcDbEntity
  8
0
100
AcDbLine
 62
4
  6
CONTINUOUS
 10
14.4770917742
 20
10.5052097108
 11
14.485965562
 21
10.4806636725
  0
ARC
  5
331
100
AcDbEntity
  8
0
100
AcDbCircle
 62
7
  6
CONTINUOUS
 10
8.5070118787
 20
6.6414093437
 40
0.7052750106
100
AcDbArc
 50
135.1096730594
 51
135.8777547641
  0
ARC
  5
332
100
AcDbEntity
  8
0
100
AcDbCircle
 62
7
  6
CONTINUOUS
 10
8.5070118787
 20
9.056223995
 40
0.7052750105
100
AcDbArc
 50
135.1096730594
 51
135.8777547642
  0
ARC
  5
333
100
AcDbEntity
  8
0
100
AcDbCircle
 62
7
  6
CONTINUOUS
 10
10.6494354257
 20
7.2790953303
 40
0.7052750105
100
AcDbArc
 50
135.1096730594
 51
135.8777547642
  0
ARC
  5
334
100
AcDbEntity
  8
0
100
AcDbCircle
 62
7
  6
CONTINUOUS
 10
8.6526099697
 20
8.9054882837
 40
0.7051538656
100
AcDbArc
 50
312.1372861842
 51
312.7623082606
  0
ARC
  5
335
100
AcDbEntity
  8
0
100
AcDbCircle
 62
7
  6
CONTINUOUS
 10
8.6526099698
 20
6.4906736324
 40
0.7051538655
100
AcDbArc
 50
312.1372861842
 51
312.7623082606
  0
ARC
  5
336
100
AcDbEntity
  8
0
100
AcDbCircle
 62
7
  6
CONTINUOUS
 10
10.7950335168
 20
7.1283596189
 40
0.7051538655
100
AcDbArc
 50
312.1372861842
 51
312.7623082606
  0
ARC
  5
337
100
AcDbEntity
  8
0
100
AcDbCircle
 62
7
  6
CONTINUOUS
 10
8.591089
 20
8.9389930324
 40
0.587550303
100
AcDbArc
 50
349.337719347
 51
0.0364164443
  0
ARC
  5
338
100
AcDbEntity
  8
0
100
AcDbCircle
 62
7
  6
CONTINUOUS
 10
10.7335125471
 20
7.1618643677
 40
0.587550303
100
AcDbArc
 50
349.337719347
 51
0.0364164443
  0
ARC
  5
339
100
AcDbEntity
  8
0
100
AcDbCircle
 62
7
  6
CONTINUOUS
 10
8.591089
 20
6.5241783812
 40
0.587550303
100
AcDbArc
 50
349.337719347
 51
0.0364164443
  0
ARC
  5
33A
100
AcDbEntity
  8
0
100
AcDbCircle
 62
7
  6
CONTINUOUS
 10
10.7533816892
 20
8.8833971005
 40
0.4905285445
100
AcDbArc
 50
314.0079595978
 51
320.9194365638
  0
ARC
  5
33B
100
AcDbEntity
  8
0
100
AcDbCircle
 62
7
  6
CONTINUOUS
 10
10.6951894826
 20
8.912857367
 40
0.2111046379
100
AcDbArc
 50
0.0000161697
 51
0.1942870741
  0
ARC
  5
33C
100
AcDbEntity
  8
0
100
AcDbCircle
 62
7
  6
CONTINUOUS
 10
10.6765944677
 20
8.9455994387
 40
0.1934361971
100
AcDbArc
 50
116.670196073
 51
116.9298134186
  0
ARC
  5
33D
100
AcDbEntity
  8
0
100
AcDbCircle
 62
7
  6
CONTINUOUS
 10
10.7597504313
 20
9.0221224848
 40
0.1651298769
100
AcDbArc
 50
144.2241106635
 51
148.9755858344
  0
SPLINE
  5
33E
100
AcDbEntity
  8
0
100
AcDbSpline
 62
7
  6
CONTINUOUS
 70
0
 71
3
 72
51
 73
47
 74
0
 42
0.0000001
 43
0.0000001
 44
0.0000000001
 40
0.0
 40
0.0
 40
0.0
 40
0.0
 40
0.0076479094
 40
0.0158893423
 40
0.0247404381
 40
0.0342110478
 40
0.0443062054
 40
0.0550262338
 40
0.0663678318
 40
0.0783253192
 40
0.0908911114
 40
0.104053973
 40
0.1177988645
 40
0.1321096001
 40
0.1623578
 40
0.1946409547
 40
0.2287793342
 40
0.2645763993
 40
0.3018184817
 40
0.3402820124
 40
0.3797304723
 40
0.4199219543
 40
0.4606063028
 40
0.5015310078
 40
0.5424409274
 40
0.5830808676
 40
0.6231987916
 40
0.6625451213
 40
0.7008786465
 40
0.7379641813
 40
0.7735790982
 40
0.8075119806
 40
0.8395673716
 40
0.8695683306
 40
0.8837487003
 40
0.897359464
 40
0.910385206
 40
0.9228115898
 40
0.9346272652
 40
0.9458248285
 40
0.9563989656
 40
0.9663468307
 40
0.9756697242
 40
0.9843758673
 40
0.9924791127
 40
1.0
 40
1.0
 40
1.0
 40
1.0
 10
13.5457695902
 20
10.3965684116
 30
0.0
 10
13.5446852649
 20
10.3955210337
 30
0.0
 10
13.5425207764
 20
10.3932524991
 30
0.0
 10
13.5393971644
 20
10.3895034813
 30
0.0
 10
13.5362830919
 20
10.3852906988
 30
0.0
 10
13.5331845433
 20
10.3806216615
 30
0.0
 10
13.5301076151
 20
10.3755036448
 30
0.0
 10
13.5270571793
 20
10.3699454536
 30
0.0
 10
13.5240377662
 20
10.3639564114
 30
0.0
 10
13.5210541429
 20
10.3575459516
 30
0.0
 10
13.5181113579
 20
10.3507239426
 30
0.0
 10
13.5152142139
 20
10.3435014763
 30
0.0
 10
13.5123671404
 20
10.3358908207
 30
0.0
 10
13.5085739788
 20
10.3250410782
 30
0.0
 10
13.5040130244
 20
10.3105926818
 30
0.0
 10
13.4989084499
 20
10.2922301111
 30
0.0
 10
13.4941108521
 20
10.2726571112
 30
0.0
 10
13.4896527248
 20
10.2520033101
 30
0.0
 10
13.4855632935
 20
10.2304052536
 30
0.0
 10
13.4818712549
 20
10.2080061341
 30
0.0
 10
13.4785998021
 20
10.1849545085
 30
0.0
 10
13.4757726317
 20
10.1614033153
 30
0.0
 10
13.4734066621
 20
10.1375089502
 30
0.0
 10
13.4715197552
 20
10.1134299627
 30
0.0
 10
13.4701223719
 20
10.089326381
 30
0.0
 10
13.4692257811
 20
10.0653580907
 30
0.0
 10
13.4688339879
 20
10.0416844313
 30
0.0
 10
13.4689511063
 20
10.0184623622
 30
0.0
 10
13.469574802
 20
9.9958462001
 30
0.0
 10
13.4707016738
 20
9.9739857886
 30
0.0
 10
13.4723232957
 20
9.953026195
 30
0.0
 10
13.4744285497
 20
9.933105987
 30
0.0
 10
13.4770034397
 20
9.914357178
 30
0.0
 10
13.4795704416
 20
9.8995460288
 30
0.0
 10
13.4818642429
 20
9.8883864887
 30
0.0
 10
13.4836578574
 20
9.8805423264
 30
0.0
 10
13.4855540316
 20
9.873078477
 30
0.0
 10
13.4875499745
 20
9.8660075567
 30
0.0
 10
13.4896425699
 20
9.8593412853
 30
0.0
 10
13.4918278294
 20
9.8530901763
 30
0.0
 10
13.4941020816
 20
9.847264228
 30
0.0
 10
13.496461767
 20
9.8418731389
 30
0.0
 10
13.4989036717
 20
9.8369259514
 30
0.0
 10
13.5014235312
 20
9.8324299482
 30
0.0
 10
13.5040172018
 20
9.8283921336
 30
0.0
 10
13.505860229
 20
9.8259201886
 30
0.0
 10
13.5067957234
 20
9.8247700827
 30
0.0
  0
SPLINE
  5
33F
100
AcDbEntity
  8
0
100
AcDbSpline
 62
7
  6
CONTINUOUS
 70
0
 71
3
 72
13
 73
9
 74
0
 42
0.0000001
 43
0.0000001
 44
0.0000000001
 40
0.0
 40
0.0
 40
0.0
 40
0.0
 40
0.2698085008
 40
0.5278890716
 40
0.6518692545
 40
0.7720769954
 40
0.8882197149
 40
1.0
 40
1.0
 40
1.0
 40
1.0
 10
13.5750856677
 20
10.3878119186
 30
0.0
 10
13.5707754222
 20
10.3865538734
 30
0.0
 10
13.5623658544
 20
10.3840105043
 30
0.0
 10
13.5520618797
 20
10.3806123408
 30
0.0
 10
13.5441886774
 20
10.3778042086
 30
0.0
 10
13.5385777156
 20
10.3756875603
 30
0.0
 10
13.5332000173
 20
10.3735311555
 30
0.0
 10
13.5297133007
 20
10.3720366078
 30
0.0
 10
13.5280138246
 20
10.3712801673
 30
0.0
  0
SPLINE
  5
340
100
AcDbEntity
  8
0
100
AcDbSpline
 62
7
  6
CONTINUOUS
 70
0
 71
3
 72
57
 73
53
 74
0
 42
0.0000001
 43
0.0000001
 44
0.0000000001
 40
0.0
 40
0.0
 40
0.0
 40
0.0
 40
0.0075206938
 40
0.0156241014
 40
0.0243315401
 40
0.0336555214
 40
0.0436031767
 40
0.0541774702
 40
0.0653760278
 40
0.077192624
 40
0.0896190592
 40
0.1026449487
 40
0.1162562121
 40
0.1304371569
 40
0.1451712296
 40
0.1604399192
 40
0.1762222695
 40
0.1924966817
 40
0.2092410023
 40
0.2264310861
 40
0.2620456537
 40
0.2991316772
 40
0.3374645182
 40
0.376811015
 40
0.4169281429
 40
0.4575678171
 40
0.4984769648
 40
0.5394009943
 40
0.58008463
 40
0.6202751746
 40
0.6597229417
 40
0.698185461
 40
0.7354267501
 40
0.7712228899
 40
0.7885119832
 40
0.8053614336
 40
0.8217469981
 40
0.8376449349
 40
0.8530336786
 40
0.8678932336
 40
0.8822041759
 40
0.8959483276
 40
0.9091104961
 40
0.9216769731
 40
0.9336352807
 40
0.944976123
 40
0.9556945877
 40
0.965788291
 40
0.9752579131
 40
0.9841085552
 40
0.9923504306
 40
1.0
 40
1.0
 40
1.0
 40
1.0
 10
13.6318606251
 20
10.7389931759
 30
0.0
 10
13.6339266523
 20
10.7364527902
 30
0.0
 10
13.6379977083
 20
10.730993126
 30
0.0
 10
13.6437264784
 20
10.7220739054
 30
0.0
 10
13.6492911416
 20
10.7121414807
 30
0.0
 10
13.6546839774
 20
10.7012130098
 30
0.0
 10
13.6598966528
 20
10.6893052822
 30
0.0
 10
13.6649197281
 20
10.6764366972
 30
0.0
 10
13.6697456385
 20
10.6626283372
 30
0.0
 10
13.6743669758
 20
10.6479031156
 30
0.0
 10
13.6787757075
 20
10.6322847839
 30
0.0
 10
13.6829636754
 20
10.615798635
 30
0.0
 10
13.6869248166
 20
10.5984722241
 30
0.0
 10
13.6906526191
 20
10.5803343494
 30
0.0
 10
13.6941402353
 20
10.561414636
 30
0.0
 10
13.6973815966
 20
10.5417443214
 30
0.0
 10
13.7003720462
 20
10.521356335
 30
0.0
 10
13.7031064725
 20
10.5002844934
 30
0.0
 10
13.7055796017
 20
10.4785634383
 30
0.0
 10
13.7085586062
 20
10.4484283324
 30
0.0
 10
13.7115779811
 20
10.4094020107
 30
0.0
 10
13.7140655048
 20
10.3611182236
 30
0.0
 10
13.7154437598
 20
10.3111647735
 30
0.0
 10
13.7157007836
 20
10.2598736345
 30
0.0
 10
13.7148362533
 20
10.2075848394
 30
0.0
 10
13.7128543614
 20
10.1546457623
 30
0.0
 10
13.7097686984
 20
10.101407707
 30
0.0
 10
13.7055997627
 20
10.048224308
 30
0.0
 10
13.7003745461
 20
9.9954486179
 30
0.0
 10
13.6941292636
 20
9.9434310589
 30
0.0
 10
13.6869037363
 20
9.8925169486
 30
0.0
 10
13.678748702
 20
9.8430439995
 30
0.0
 10
13.6697161075
 20
9.79534075
 30
0.0
 10
13.66141765
 20
9.756893496
 30
0.0
 10
13.6543655282
 20
9.72727146
 30
0.0
 10
13.6489579405
 20
9.705947798
 30
0.0
 10
13.6433798025
 20
9.6852948423
 30
0.0
 10
13.637639665
 20
9.6653472005
 30
0.0
 10
13.6317473514
 20
9.6461378038
 30
0.0
 10
13.6257131339
 20
9.6276980728
 30
0.0
 10
13.6195469134
 20
9.6100587344
 30
0.0
 10
13.6132581631
 20
9.5932494076
 30
0.0
 10
13.6068582248
 20
9.5772974891
 30
0.0
 10
13.6003581579
 20
9.5622290968
 30
0.0
 10
13.5937683877
 20
9.5480694956
 30
0.0
 10
13.5870992441
 20
9.5348419366
 30
0.0
 10
13.5803620375
 20
9.52256693
 30
0.0
 10
13.5735673403
 20
9.5112636903
 30
0.0
 10
13.5667249682
 20
9.5009514374
 30
0.0
 10
13.5598468929
 20
9.4916468848
 30
0.0
 10
13.552946771
 20
9.4833660114
 30
0.0
 10
13.5481651123
 20
9.4783549414
 30
0.0
 10
13.5457695902
 20
9.4760410446
 30
0.0
  0
SPLINE
  5
341
100
AcDbEntity
  8
0
100
AcDbSpline
 62
7
  6
CONTINUOUS
 70
0
 71
3
 72
16
 73
12
 74
0
 42
0.0000001
 43
0.0000001
 44
0.0000000001
 40
0.0
 40
0.0
 40
0.0
 40
0.0
 40
0.1491769314
 40
0.2895973161
 40
0.4219490506
 40
0.48537778
 40
0.5471266964
 40
0.666107749
 40
0.7802246869
 40
0.8909748487
 40
1.0
 40
1.0
 40
1.0
 40
1.0
 10
13.513179035
 20
9.4456810636
 30
0.0
 10
13.5113008699
 20
9.4439332713
 30
0.0
 10
13.5075458459
 20
9.4406540908
 30
0.0
 10
13.5017385884
 20
9.4362910798
 30
0.0
 10
13.4968368751
 20
9.4332084419
 30
0.0
 10
13.4929283557
 20
9.4311216624
 30
0.0
 10
13.4891297705
 20
9.4293286063
 30
0.0
 10
13.4843805917
 20
9.4275207034
 30
0.0
 10
13.4786358451
 20
9.4260596933
 30
0.0
 10
13.4729243075
 20
9.4253373956
 30
0.0
 10
13.4691318798
 20
9.4253507477
 30
0.0
 10
13.4672613183
 20
9.4254804359
 30
0.0
  0
SPLINE
  5
342
100
AcDbEntity
  8
0
100
AcDbSpline
 62
7
  6
CONTINUOUS
 70
0
 71
3
 72
16
 73
12
 74
0
 42
0.0000001
 43
0.0000001
 44
0.0000000001
 40
0.0
 40
0.0
 40
0.0
 40
0.0
 40
0.1090299121
 40
0.2197874449
 40
0.3339055687
 40
0.4528620072
 40
0.5145856865
 40
0.5779866132
 40
0.7103007537
 40
0.8507367287
 40
1.0
 40
1.0
 40
1.0
 40
1.0
 10
13.5624586056
 20
10.7981835925
 30
0.0
 10
13.564329261
 20
10.7980538978
 30
0.0
 10
13.5680875035
 20
10.7975436692
 30
0.0
 10
13.5736446315
 20
10.7960386302
 30
0.0
 10
13.5791321182
 20
10.7937979326
 30
0.0
 10
13.5835858755
 20
10.7913528423
 30
0.0
 10
13.5871002445
 20
10.7890544715
 30
0.0
 10
13.5906828558
 20
10.7864501371
 30
0.0
 10
13.595111907
 20
10.782721319
 30
0.0
 10
13.6002613994
 20
10.777596871
 30
0.0
 10
13.6035284678
 20
10.7738289591
 30
0.0
 10
13.6051482478
 20
10.7718374012
 30
0.0
  0
SPLINE
  5
343
100
AcDbEntity
  8
0
100
AcDbSpline
 62
7
  6
CONTINUOUS
 70
0
 71
3
 72
63
 73
59
 74
0
 42
0.0000001
 43
0.0000001
 44
0.0000000001
 40
0.0
 40
0.0
 40
0.0
 40
0.0
 40
0.0086004066
 40
0.0180006849
 40
0.0282235439
 40
0.0392808046
 40
0.0511752622
 40
0.0639021651
 40
0.0774520839
 40
0.0918113379
 40
0.1069584115
 40
0.1228677473
 40
0.1395121561
 40
0.1568611888
 40
0.174879905
 40
0.1935321619
 40
0.212780813
 40
0.2325850871
 40
0.2736872338
 40
0.3164860025
 40
0.3606035913
 40
0.4056492914
 40
0.4512197712
 40
0.4969070084
 40
0.5423005376
 40
0.5869945363
 40
0.6305894699
 40
0.6727008411
 40
0.712959374
 40
0.7510208664
 40
0.7691277982
 40
0.7865699772
 40
0.803312502
 40
0.8193232889
 40
0.8345753823
 40
0.8490438754
 40
0.8627061845
 40
0.8755462086
 40
0.8875537661
 40
0.8987230373
 40
0.9090555628
 40
0.91856534
 40
0.9272776946
 40
0.9352326038
 40
0.9424928644
 40
0.9491493438
 40
0.9553242039
 40
0.9582819501
 40
0.961181384
 40
0.9640470391
 40
0.9669043239
 40
0.969778876
 40
0.9726958879
 40
0.975679489
 40
0.9787521909
 40
0.9852375144
 40
0.9922879865
 40
1.0
 40
1.0
 40
1.0
 40
1.0
 10
13.5457695902
 20
9.8228084368
 30
0.0
 10
13.5470807558
 20
9.8240749256
 30
0.0
 10
13.5496952662
 20
9.8268616034
 30
0.0
 10
13.5534382381
 20
9.831534168
 30
0.0
 10
13.5571640756
 20
9.8368690717
 30
0.0
 10
13.5608620112
 20
9.8428535653
 30
0.0
 10
13.5645230489
 20
9.8494737125
 30
0.0
 10
13.5681396238
 20
9.8567135378
 30
0.0
 10
13.5717033999
 20
9.8645568426
 30
0.0
 10
13.5752055081
 20
9.8729859574
 30
0.0
 10
13.5786382688
 20
9.8819807541
 30
0.0
 10
13.5819935509
 20
9.8915196262
 30
0.0
 10
13.5852627117
 20
9.9015801748
 30
0.0
 10
13.5884375478
 20
9.9121385476
 30
0.0
 10
13.5915111297
 20
9.9231692068
 30
0.0
 10
13.5944760005
 20
9.9346458584
 30
0.0
 10
13.5973244738
 20
9.9465414404
 30
0.0
 10
13.6010040823
 20
9.9631286112
 30
0.0
 10
13.6052498302
 20
9.9846999206
 30
0.0
 10
13.6097208553
 20
10.0114673588
 30
0.0
 10
13.6135874692
 20
10.0391728732
 30
0.0
 10
13.6168110528
 20
10.067551666
 30
0.0
 10
13.6193611615
 20
10.0963328131
 30
0.0
 10
13.6212134045
 20
10.1252411446
 30
0.0
 10
13.6223493112
 20
10.154000598
 30
0.0
 10
13.6227596232
 20
10.1823361666
 30
0.0
 10
13.6224389065
 20
10.2099773622
 30
0.0
 10
13.6213928496
 20
10.236660207
 30
0.0
 10
13.6196300531
 20
10.2621299975
 30
0.0
 10
13.617547489
 20
10.282467127
 30
0.0
 10
13.6155152254
 20
10.2979376707
 30
0.0
 10
13.6138504302
 20
10.3088965533
 30
0.0
 10
13.612023463
 20
10.3193789323
 30
0.0
 10
13.6100381724
 20
10.3293597204
 30
0.0
 10
13.6079001264
 20
10.3388154847
 30
0.0
 10
13.60561465
 20
10.347723877
 30
0.0
 10
13.6031864638
 20
10.3560634647
 30
0.0
 10
13.6006215912
 20
10.363814737
 30
0.0
 10
13.5979267845
 20
10.3709600783
 30
0.0
 10
13.5951081668
 20
10.3774828697
 30
0.0
 10
13.5921711534
 20
10.3833677791
 30
0.0
 10
13.5891229668
 20
10.3886023106
 30
0.0
 10
13.5859698017
 20
10.3931755671
 30
0.0
 10
13.5827159172
 20
10.397076826
 30
0.0
 10
13.5793649133
 20
10.4002967274
 30
0.0
 10
13.5759219179
 20
10.4028267315
 30
0.0
 10
13.5729336472
 20
10.4043722208
 30
0.0
 10
13.570527172
 20
10.4052263154
 30
0.0
 10
13.5687318122
 20
10.4056798754
 30
0.0
 10
13.5669220859
 20
10.4059548113
 30
0.0
 10
13.565099357
 20
10.4060509416
 30
0.0
 10
13.5632651284
 20
10.4059681516
 30
0.0
 10
13.5614208615
 20
10.4057065231
 30
0.0
 10
13.5595678286
 20
10.4052662273
 30
0.0
 10
13.5570425458
 20
10.4044264554
 30
0.0
 10
13.5538532812
 20
10.4029001509
 30
0.0
 10
13.5500918524
 20
10.4004029938
 30
0.0
 10
13.5476988154
 20
10.3983760778
 30
0.0
 10
13.5465019382
 20
10.3972627258
 30
0.0
  0
SPLINE
  5
344
100
AcDbEntity
  8
0
100
AcDbSpline
 62
7
  6
CONTINUOUS
 70
0
 71
3
 72
23
 73
19
 74
0
 42
0.0000001
 43
0.0000001
 44
0.0000000001
 40
0.0
 40
0.0
 40
0.0
 40
0.0
 40
0.074268336
 40
0.144063996
 40
0.2097651649
 40
0.2718372069
 40
0.3308445251
 40
0.3874574953
 40
0.442452966
 40
0.4966870178
 40
0.551052246
 40
0.6064353138
 40
0.6636760912
 40
0.723525645
 40
0.7866121066
 40
0.8534536872
 40
0.9244708493
 40
1.0
 40
1.0
 40
1.0
 40
1.0
 10
13.5067957234
 20
9.8247700827
 30
0.0
 10
13.5075071078
 20
9.8238954998
 30
0.0
 10
13.508942291
 20
9.8222426766
 30
0.0
 10
13.511206919
 20
9.8199996524
 30
0.0
 10
13.5135120831
 20
9.8180748452
 30
0.0
 10
13.5158558797
 20
9.8164708902
 30
0.0
 10
13.518236427
 20
9.8151906389
 30
0.0
 10
13.5206515673
 20
9.8142376606
 30
0.0
 10
13.5230980513
 20
9.8136148911
 30
0.0
 10
13.5255716744
 20
9.8133238278
 30
0.0
 10
13.5280678514
 20
9.8133652652
 30
0.0
 10
13.5305820104
 20
9.8137388565
 30
0.0
 10
13.53310998
 20
9.8144435797
 30
0.0
 10
13.5356480517
 20
9.8154771763
 30
0.0
 10
13.5381935338
 20
9.8168357461
 30
0.0
 10
13.5407438151
 20
9.8185161874
 30
0.0
 10
13.5432961889
 20
9.820515568
 30
0.0
 10
13.5449449586
 20
9.8220119037
 30
0.0
 10
13.5457695902
 20
9.8228084368
 30
0.0
  0
SPLINE
  5
345
100
AcDbEntity
  8
0
100
AcDbSpline
 62
7
  6
CONTINUOUS
 70
0
 71
3
 72
15
 73
11
 74
0
 42
0.0000001
 43
0.0000001
 44
0.0000000001
 40
0.0
 40
0.0
 40
0.0
 40
0.0
 40
0.1100563345
 40
0.2219596939
 40
0.3369704035
 40
0.4563513173
 40
0.5813426279
 40
0.7130499011
 40
0.8523530408
 40
1.0
 40
1.0
 40
1.0
 40
1.0
 10
13.4915772043
 20
9.8545585513
 30
0.0
 10
13.4916194697
 20
9.8552694529
 30
0.0
 10
13.4917803187
 20
9.8566998933
 30
0.0
 10
13.4922559186
 20
9.858831972
 30
0.0
 10
13.4929743689
 20
9.8609588659
 30
0.0
 10
13.493941996
 20
9.8630777693
 30
0.0
 10
13.4951652784
 20
9.8651856663
 30
0.0
 10
13.4966476808
 20
9.8672796849
 30
0.0
 10
13.4983891152
 20
9.8693582575
 30
0.0
 10
13.499683898
 20
9.8706915903
 30
0.0
 10
13.5003710737
 20
9.8713553511
 30
0.0
  0
SPLINE
  5
346
100
AcDbEntity
  8
0
100
AcDbSpline
 62
7
  6
CONTINUOUS
 70
0
 71
3
 72
20
 73
16
 74
0
 42
0.0000001
 43
0.0000001
 44
0.0000000001
 40
0.0
 40
0.0
 40
0.0
 40
0.0
 40
0.042522867
 40
0.0879822098
 40
0.1364348703
 40
0.1878933464
 40
0.2423073998
 40
0.2995935928
 40
0.3596445314
 40
0.4223237846
 40
0.4874786173
 40
0.5549493343
 40
0.6962289999
 40
0.8449497461
 40
1.0
 40
1.0
 40
1.0
 40
1.0
 10
13.5003710737
 20
9.8713553511
 30
0.0
 10
13.5012122412
 20
9.8721678566
 30
0.0
 10
13.5030188134
 20
9.8737812922
 30
0.0
 10
13.5059756707
 20
9.8760948964
 30
0.0
 10
13.5092598367
 20
9.8783783684
 30
0.0
 10
13.5128608383
 20
9.8806277821
 30
0.0
 10
13.5167645715
 20
9.882843017
 30
0.0
 10
13.5209562301
 20
9.885022804
 30
0.0
 10
13.5254201836
 20
9.8871657809
 30
0.0
 10
13.5301393467
 20
9.8892722303
 30
0.0
 10
13.5350964158
 20
9.8913422069
 30
0.0
 10
13.542108698
 20
9.8940960293
 30
0.0
 10
13.5513603908
 20
9.8974283902
 30
0.0
 10
13.5629934292
 20
9.9012393662
 30
0.0
 10
13.5709921478
 20
9.9036541881
 30
0.0
 10
13.5750856677
 20
9.9048489768
 30
0.0
  0
SPLINE
  5
347
100
AcDbEntity
  8
0
100
AcDbSpline
 62
7
  6
CONTINUOUS
 70
0
 71
3
 72
25
 73
21
 74
0
 42
0.0000001
 43
0.0000001
 44
0.0000000001
 40
0.0
 40
0.0
 40
0.0
 40
0.0
 40
0.1279425473
 40
0.1917579223
 40
0.2554080094
 40
0.3188697189
 40
0.3505212739
 40
0.3821092145
 40
0.4136323806
 40
0.4450875537
 40
0.5077647137
 40
0.5701387126
 40
0.6012203941
 40
0.6322275139
 40
0.6940248984
 40
0.7555767291
 40
0.8169123492
 40
0.878080316
 40
0.9391019228
 40
1.0
 40
1.0
 40
1.0
 40
1.0
 10
13.6124429483
 20
10.1824148119
 30
0.0
 10
13.6055724526
 20
10.1720028858
 30
0.0
 10
13.5957804989
 20
10.1560466849
 30
0.0
 10
13.5841781849
 20
10.1340035251
 30
0.0
 10
13.5763410525
 20
10.1171083837
 30
0.0
 10
13.5706352432
 20
10.1027077518
 30
0.0
 10
13.5666336819
 20
10.091018411
 30
0.0
 10
13.5639312797
 20
10.0821811709
 30
0.0
 10
13.5615425418
 20
10.0732736395
 30
0.0
 10
13.5587933275
 20
10.0613324463
 30
0.0
 10
13.5561813479
 20
10.0462829215
 30
0.0
 10
13.5547222293
 20
10.0311145587
 30
0.0
 10
13.5542338048
 20
10.0189868772
 30
0.0
 10
13.5541916129
 20
10.0069055786
 30
0.0
 10
13.5549523718
 20
9.9918617025
 30
0.0
 10
13.5570591131
 20
9.9739665316
 30
0.0
 10
13.5602444409
 20
9.9562957606
 30
0.0
 10
13.5643732593
 20
9.9388768344
 30
0.0
 10
13.5693218905
 20
9.9217192429
 30
0.0
 10
13.5730976555
 20
9.9104438629
 30
0.0
 10
13.5750856677
 20
9.9048489768
 30
0.0
  0
SPLINE
  5
348
100
AcDbEntity
  8
0
100
AcDbSpline
 62
7
  6
CONTINUOUS
 70
0
 71
3
 72
28
 73
24
 74
0
 42
0.0000001
 43
0.0000001
 44
0.0000000001
 40
0.0
 40
0.0
 40
0.0
 40
0.0
 40
0.0573235499
 40
0.1144478612
 40
0.1714705345
 40
0.228539411
 40
0.2571692763
 40
0.2859057363
 40
0.3438219073
 40
0.3731058123
 40
0.4026590159
 40
0.4627025824
 40
0.5242565139
 40
0.55566581
 40
0.5875071459
 40
0.6197859503
 40
0.6525001235
 40
0.6856394178
 40
0.7191868719
 40
0.7874381702
 40
0.8571126283
 40
0.9280239753
 40
1.0
 40
1.0
 40
1.0
 40
1.0
 10
13.5750856677
 20
10.3878119186
 30
0.0
 10
13.5731037031
 20
10.3840110306
 30
0.0
 10
13.5693365493
 20
10.3763209616
 30
0.0
 10
13.5643827564
 20
10.3644850277
 30
0.0
 10
13.5602477835
 20
10.3523563096
 30
0.0
 10
13.5575914789
 20
10.3420059379
 30
0.0
 10
13.556007475
 20
10.333593743
 30
0.0
 10
13.5547979245
 20
10.3250560225
 30
0.0
 10
13.5541907944
 20
10.31639137
 30
0.0
 10
13.5542344799
 20
10.3076577219
 30
0.0
 10
13.5547267012
 20
10.2987782436
 30
0.0
 10
13.556205543
 20
10.2875519993
 30
0.0
 10
13.5588184198
 20
10.276393947
 30
0.0
 10
13.5615553461
 20
10.2674690641
 30
0.0
 10
13.5639460972
 20
10.2607349454
 30
0.0
 10
13.5666499114
 20
10.2540154655
 30
0.0
 10
13.5696499618
 20
10.2473166471
 30
0.0
 10
13.5729304837
 20
10.2406449217
 30
0.0
 10
13.577684991
 20
10.2317429309
 30
0.0
 10
13.5842531429
 20
10.2207211061
 30
0.0
 10
13.5929447037
 20
10.2077397242
 30
0.0
 10
13.6023694322
 20
10.1949346351
 30
0.0
 10
13.6090252599
 20
10.1865727594
 30
0.0
 10
13.6124429483
 20
10.1824148119
 30
0.0
  0
SPLINE
  5
349
100
AcDbEntity
  8
0
100
AcDbSpline
 62
7
  6
CONTINUOUS
 70
0
 71
3
 72
85
 73
81
 74
0
 42
0.0000001
 43
0.0000001
 44
0.0000000001
 40
0.0
 40
0.0
 40
0.0
 40
0.0
 40
0.0039460569
 40
0.0077168218
 40
0.0113216028
 40
0.0147714202
 40
0.0180792332
 40
0.0212601527
 40
0.024331883
 40
0.0273148494
 40
0.0302314645
 40
0.0331057523
 40
0.0359628666
 40
0.0388284778
 40
0.0417280314
 40
0.0446858833
 40
0.0477247907
 40
0.0508655772
 40
0.0541269529
 40
0.0575254834
 40
0.0610755605
 40
0.0647892172
 40
0.0686765564
 40
0.0727460621
 40
0.077004822
 40
0.0814587302
 40
0.0861125649
 40
0.0909697297
 40
0.0960326959
 40
0.1013032715
 40
0.1067827044
 40
0.112471769
 40
0.124478416
 40
0.1373182061
 40
0.150979478
 40
0.1654467045
 40
0.1806980343
 40
0.1967081183
 40
0.2134496107
 40
0.2308905882
 40
0.2489965726
 40
0.2677319647
 40
0.2870577523
 40
0.3069328863
 40
0.3273156626
 40
0.3481619067
 40
0.3694258102
 40
0.4130192155
 40
0.457710883
 40
0.4803450664
 40
0.503103594
 40
0.5487887963
 40
0.5943575721
 40
0.6169708238
 40
0.6394022577
 40
0.6835182819
 40
0.7051061543
 40
0.7263162166
 40
0.7471018482
 40
0.7674183933
 40
0.7872216716
 40
0.8064692497
 40
0.8251215173
 40
0.8431396733
 40
0.860487112
 40
0.8771311168
 40
0.8930403788
 40
0.9081863073
 40
0.9225452759
 40
0.9360961751
 40
0.948822219
 40
0.9607147307
 40
0.9663475907
 40
0.9717712951
 40
0.9769864538
 40
0.9819943089
 40
0.9867966875
 40
0.9913960821
 40
0.995795777
 40
1.0
 40
1.0
 40
1.0
 40
1.0
 10
13.5441560734
 20
9.4745112153
 30
0.0
 10
13.5428034235
 20
9.4732527807
 30
0.0
 10
13.5400987332
 20
9.4708545524
 30
0.0
 10
13.5359479699
 20
9.4675535211
 30
0.0
 10
13.5318005258
 20
9.4646347196
 30
0.0
 10
13.5276591023
 20
9.4621005812
 30
0.0
 10
13.5235262561
 20
9.459953501
 30
0.0
 10
13.5194044416
 20
9.458196124
 30
0.0
 10
13.5152961193
 20
9.456830806
 30
0.0
 10
13.5112040779
 20
9.4558584794
 30
0.0
 10
13.5071310039
 20
9.4552800984
 30
0.0
 10
13.5030798745
 20
9.4550964534
 30
0.0
 10
13.4990538968
 20
9.4553080669
 30
0.0
 10
13.4950564109
 20
9.4559151522
 30
0.0
 10
13.4910908236
 20
9.4569172778
 30
0.0
 10
13.4871601115
 20
9.4583125276
 30
0.0
 10
13.4832669561
 20
9.4600990036
 30
0.0
 10
13.4794137535
 20
9.4622747964
 30
0.0
 10
13.4756026754
 20
9.4648381237
 30
0.0
 10
13.4718358119
 20
9.4677873525
 30
0.0
 10
13.4681153431
 20
9.4711207485
 30
0.0
 10
13.4644428299
 20
9.4748356261
 30
0.0
 10
13.460820048
 20
9.4789293921
 30
0.0
 10
13.457248848
 20
9.4833994808
 30
0.0
 10
13.4537311424
 20
9.4882433767
 30
0.0
 10
13.4502689166
 20
9.4934585455
 30
0.0
 10
13.4468643617
 20
9.4990422164
 30
0.0
 10
13.4435191419
 20
9.5049908638
 30
0.0
 10
13.4402350827
 20
9.5113007312
 30
0.0
 10
13.4370140921
 20
9.5179679921
 30
0.0
 10
13.4338580282
 20
9.5249888251
 30
0.0
 10
13.4296636269
 20
9.5349968577
 30
0.0
 10
13.4246170077
 20
9.5483786414
 30
0.0
 10
13.4189523975
 20
9.5654991102
 30
0.0
 10
13.4135885954
 20
9.5839188804
 30
0.0
 10
13.4085400685
 20
9.6035947651
 30
0.0
 10
13.4038177246
 20
9.6244800413
 30
0.0
 10
13.3994327111
 20
9.6465251009
 30
0.0
 10
13.3953970871
 20
9.6696778592
 30
0.0
 10
13.3917196623
 20
9.6938829854
 30
0.0
 10
13.3884089392
 20
9.7190826665
 30
0.0
 10
13.3854742326
 20
9.7452169438
 30
0.0
 10
13.3829219311
 20
9.7722233095
 30
0.0
 10
13.3807576998
 20
9.800037134
 30
0.0
 10
13.3789879673
 20
9.8285920156
 30
0.0
 10
13.3776164485
 20
9.8578197
 30
0.0
 10
13.376311838
 20
9.8979254709
 30
0.0
 10
13.375718452
 20
9.9492188118
 30
0.0
 10
13.3764686171
 20
10.0011509146
 30
0.0
 10
13.3778678551
 20
10.043305529
 30
0.0
 10
13.3798097301
 20
10.0859043118
 30
0.0
 10
13.3832235111
 20
10.1391805777
 30
0.0
 10
13.3879283359
 20
10.1922901488
 30
0.0
 10
13.3924594025
 20
10.2344731251
 30
0.0
 10
13.3974390306
 20
10.2759203176
 30
0.0
 10
13.4031431955
 20
10.3167942662
 30
0.0
 10
13.4095850139
 20
10.3569746932
 30
0.0
 10
13.4147068669
 20
10.3863012373
 30
0.0
 10
13.4201419841
 20
10.4149657221
 30
0.0
 10
13.4258762821
 20
10.4428998872
 30
0.0
 10
13.4318965148
 20
10.4700367656
 30
0.0
 10
13.4381888275
 20
10.4963113654
 30
0.0
 10
13.4447368919
 20
10.5216612021
 30
0.0
 10
13.4515253832
 20
10.5460255847
 30
0.0
 10
13.4585387977
 20
10.5693461656
 30
0.0
 10
13.4657590349
 20
10.5915678176
 30
0.0
 10
13.4731691152
 20
10.6126375553
 30
0.0
 10
13.4807522733
 20
10.6325048675
 30
0.0
 10
13.4884886399
 20
10.6511230927
 30
0.0
 10
13.496359677
 20
10.6684482733
 30
0.0
 10
13.5043480101
 20
10.6844389796
 30
0.0
 10
13.5112050778
 20
10.6968381051
 30
0.0
 10
13.5167487265
 20
10.7060433421
 30
0.0
 10
13.5208488186
 20
10.7124653745
 30
0.0
 10
13.5249644034
 20
10.7185269736
 30
0.0
 10
13.5290925642
 20
10.7242246236
 30
0.0
 10
13.5332304115
 20
10.7295548467
 30
0.0
 10
13.5373751443
 20
10.7345142377
 30
0.0
 10
13.5415238146
 20
10.7390992178
 30
0.0
 10
13.5443538176
 20
10.7419682723
 30
0.0
 10
13.5457695902
 20
10.7433358038
 30
0.0
  0
SPLINE
  5
34A
100
AcDbEntity
  8
0
100
AcDbSpline
 62
7
  6
CONTINUOUS
 70
0
 71
3
 72
23
 73
19
 74
0
 42
0.0000001
 43
0.0000001
 44
0.0000000001
 40
0.0
 40
0.0
 40
0.0
 40
0.0
 40
0.0415367791
 40
0.0838058025
 40
0.1274952316
 40
0.1732217331
 40
0.2215175375
 40
0.272827497
 40
0.3275047997
 40
0.3858249089
 40
0.4480024283
 40
0.5142025682
 40
0.5845411539
 40
0.6590909568
 40
0.7378980211
 40
0.8209876793
 40
0.9083632726
 40
1.0
 40
1.0
 40
1.0
 40
1.0
 10
13.4672613183
 20
9.4254804359
 30
0.0
 10
13.4652861372
 20
9.4256173774
 30
0.0
 10
13.461314884
 20
9.4261715511
 30
0.0
 10
13.455449889
 20
9.4278278761
 30
0.0
 10
13.4496641638
 20
9.4303042014
 30
0.0
 10
13.4439668416
 20
9.4335925834
 30
0.0
 10
13.4383632917
 20
9.4376859396
 30
0.0
 10
13.4328592293
 20
9.4425782103
 30
0.0
 10
13.4274583839
 20
9.4482613346
 30
0.0
 10
13.4221649063
 20
9.454727636
 30
0.0
 10
13.4169836133
 20
9.4619698172
 30
0.0
 10
13.4119202398
 20
9.4699804685
 30
0.0
 10
13.406980009
 20
9.47875044
 30
0.0
 10
13.4021676527
 20
9.4882691128
 30
0.0
 10
13.3974886422
 20
9.4985255664
 30
0.0
 10
13.3929486592
 20
9.5095085466
 30
0.0
 10
13.3885535132
 20
9.5212055226
 30
0.0
 10
13.3857882474
 20
9.5292793476
 30
0.0
 10
13.3844272442
 20
9.5334299258
 30
0.0
  0
SPLINE
  5
34B
100
AcDbEntity
  8
0
100
AcDbSpline
 62
7
  6
CONTINUOUS
 70
0
 71
3
 72
15
 73
11
 74
0
 42
0.0000001
 43
0.0000001
 44
0.0000000001
 40
0.0
 40
0.0
 40
0.0
 40
0.0
 40
0.1492237372
 40
0.2914941679
 40
0.4267900104
 40
0.5551134534
 40
0.676499477
 40
0.7910224215
 40
0.8987991048
 40
1.0
 40
1.0
 40
1.0
 40
1.0
 10
13.4667453579
 20
10.705194416
 30
0.0
 10
13.4686552653
 20
10.7090396093
 30
0.0
 10
13.4724861068
 20
10.7165017939
 30
0.0
 10
13.4784180923
 20
10.7272555184
 30
0.0
 10
13.4843928745
 20
10.7372921542
 30
0.0
 10
13.4904042031
 20
10.7465996191
 30
0.0
 10
13.4964451044
 20
10.7551667003
 30
0.0
 10
13.5025072983
 20
10.7629837978
 30
0.0
 10
13.5085825397
 20
10.7700408249
 30
0.0
 10
13.5127657042
 20
10.7743661243
 30
0.0
 10
13.5148599619
 20
10.776389022
 30
0.0
  0
SPLINE
  5
34C
100
AcDbEntity
  8
0
100
AcDbSpline
 62
7
  6
CONTINUOUS
 70
0
 71
3
 72
23
 73
19
 74
0
 42
0.0000001
 43
0.0000001
 44
0.0000000001
 40
0.0
 40
0.0
 40
0.0
 40
0.0
 40
0.0755493506
 40
0.1465781137
 40
0.2134209155
 40
0.2764972924
 40
0.3363264137
 40
0.393550056
 40
0.4489238843
 40
0.5032842931
 40
0.5575175409
 40
0.6125176493
 40
0.6691350224
 40
0.7281410513
 40
0.790210366
 40
0.8559157723
 40
0.9257235102
 40
1.0
 40
1.0
 40
1.0
 40
1.0
 10
13.5457695902
 20
10.7433358038
 30
0.0
 10
13.5475917181
 20
10.7450958443
 30
0.0
 10
13.5512345939
 20
10.748402126
 30
0.0
 10
13.5568734903
 20
10.7528198493
 30
0.0
 10
13.5625071182
 20
10.7565322284
 30
0.0
 10
13.5681294804
 20
10.7595326719
 30
0.0
 10
13.5737354302
 20
10.76181359
 30
0.0
 10
13.5793186494
 20
10.7633684531
 30
0.0
 10
13.5848714657
 20
10.7641934126
 30
0.0
 10
13.5903851138
 20
10.7642849949
 30
0.0
 10
13.595849406
 20
10.7636415539
 30
0.0
 10
13.6012535919
 20
10.7622639576
 30
0.0
 10
13.6065887043
 20
10.7601582613
 30
0.0
 10
13.611847862
 20
10.7573309845
 30
0.0
 10
13.617025763
 20
10.7537882386
 30
0.0
 10
13.6221175587
 20
10.7495350024
 30
0.0
 10
13.6271190514
 20
10.7445777508
 30
0.0
 10
13.630289125
 20
10.7409254915
 30
0.0
 10
13.6318606251
 20
10.7389931759
 30
0.0
  0
SPLINE
  5
34D
100
AcDbEntity
  8
0
100
AcDbSpline
 62
7
  6
CONTINUOUS
 70
0
 71
3
 72
17
 73
13
 74
0
 42
0.0000001
 43
0.0000001
 44
0.0000000001
 40
0.0
 40
0.0
 40
0.0
 40
0.0
 40
0.1503824987
 40
0.2916131423
 40
0.4243865528
 40
0.4878859743
 40
0.5496162545
 40
0.6683083772
 40
0.7818474148
 40
0.8918106403
 40
0.9460210325
 40
1.0
 40
1.0
 40
1.0
 40
1.0
 10
13.5148599619
 20
10.776389022
 30
0.0
 10
13.5168037624
 20
10.7782665892
 30
0.0
 10
13.520689906
 20
10.7817899028
 30
0.0
 10
13.5267084188
 20
10.7864860185
 30
0.0
 10
13.53179302
 20
10.7898091882
 30
0.0
 10
13.5358483264
 20
10.7920605736
 30
0.0
 10
13.539784181
 20
10.7939937372
 30
0.0
 10
13.544705616
 20
10.7959465016
 30
0.0
 10
13.5506627467
 20
10.7975312352
 30
0.0
 10
13.555625243
 20
10.7981935638
 30
0.0
 10
13.5595459939
 20
10.798319399
 30
0.0
 10
13.5614908737
 20
10.7982506865
 30
0.0
 10
13.5624586056
 20
10.7981835925
 30
0.0
  0
SPLINE
  5
34E
100
AcDbEntity
  8
0
100
AcDbSpline
 62
7
  6
CONTINUOUS
 70
0
 71
3
 72
59
 73
55
 74
0
 42
0.0000001
 43
0.0000001
 44
0.0000000001
 40
0.0
 40
0.0
 40
0.0
 40
0.0
 40
0.0311322829
 40
0.0624363742
 40
0.0938813008
 40
0.1254584073
 40
0.157162211
 40
0.1889779177
 40
0.2208868241
 40
0.2528701084
 40
0.2688858219
 40
0.2849126181
 40
0.3009477636
 40
0.3169884637
 40
0.3490708353
 40
0.3651116875
 40
0.3811470337
 40
0.3971741272
 40
0.4131903361
 40
0.4291930363
 40
0.4451796074
 40
0.4611475164
 40
0.4770944087
 40
0.4930180215
 40
0.5089161278
 40
0.5247866157
 40
0.540627598
 40
0.5564373559
 40
0.5722142367
 40
0.5879567259
 40
0.6036635642
 40
0.63496127
 40
0.6505554416
 40
0.666110719
 40
0.6816268764
 40
0.6971037981
 40
0.7125415269
 40
0.7279403733
 40
0.743300953
 40
0.7586239982
 40
0.7739103911
 40
0.7891612643
 40
0.8043780481
 40
0.8195622797
 40
0.8347156224
 40
0.8498399573
 40
0.8649374268
 40
0.8800102516
 40
0.895060739
 40
0.9100913671
 40
0.9400981012
 40
0.955085347
 40
0.9700637171
 40
1.0
 40
1.0
 40
1.0
 40
1.0
 10
10.7030385546
 20
8.3917113421
 30
0.0
 10
10.6897631576
 20
8.392631994
 30
0.0
 10
10.6631969707
 20
8.395452988
 30
0.0
 10
10.623667264
 20
8.4025487649
 30
0.0
 10
10.5845588577
 20
8.4124953426
 30
0.0
 10
10.5460887097
 20
8.4252303803
 30
0.0
 10
10.5084596653
 20
8.4406909879
 30
0.0
 10
10.4718671245
 20
8.458788257
 30
0.0
 10
10.4365115252
 20
8.4794322942
 30
0.0
 10
10.4082428573
 20
8.4986550671
 30
0.0
 10
10.3864286525
 20
8.5151885164
 30
0.0
 10
10.370481698
 20
8.5281571636
 30
0.0
 10
10.3549782701
 20
8.5416692725
 30
0.0
 10
10.3349273545
 20
8.5603843787
 30
0.0
 10
10.3158443039
 20
8.5801188264
 30
0.0
 10
10.2978102701
 20
8.6007845944
 30
0.0
 10
10.2848240451
 20
8.6167315508
 30
0.0
 10
10.2723968896
 20
8.6331042971
 30
0.0
 10
10.2605452658
 20
8.6498813711
 30
0.0
 10
10.2492839129
 20
8.6670394821
 30
0.0
 10
10.2386277626
 20
8.6845557427
 30
0.0
 10
10.2285919895
 20
8.702407344
 30
0.0
 10
10.2191905047
 20
8.7205706946
 30
0.0
 10
10.2104344977
 20
8.7390208481
 30
0.0
 10
10.2023355172
 20
8.7577331572
 30
0.0
 10
10.1949052384
 20
8.7766830243
 30
0.0
 10
10.1881544209
 20
8.7958454209
 30
0.0
 10
10.1820905703
 20
8.8151942699
 30
0.0
 10
10.1767215842
 20
8.834703596
 30
0.0
 10
10.1720553174
 20
8.8543480494
 30
0.0
 10
10.166787375
 20
8.8806506651
 30
0.0
 10
10.1629360833
 20
8.9071571823
 30
0.0
 10
10.1605302499
 20
8.9337455635
 30
0.0
 10
10.1594533988
 20
8.9536680424
 30
0.0
 10
10.1591021559
 20
8.9735660438
 30
0.0
 10
10.1594765007
 20
8.9934134984
 30
0.0
 10
10.1605764381
 20
9.0131837921
 30
0.0
 10
10.1624020658
 20
9.0328504186
 30
0.0
 10
10.1649495023
 20
9.0523872091
 30
0.0
 10
10.1682147963
 20
9.0717682041
 30
0.0
 10
10.1721939528
 20
9.090967484
 30
0.0
 10
10.1768832879
 20
9.1099590212
 30
0.0
 10
10.1822753069
 20
9.1287177105
 30
0.0
 10
10.1883621205
 20
9.1472187463
 30
0.0
 10
10.1951358634
 20
9.1654373685
 30
0.0
 10
10.202589064
 20
9.1833486022
 30
0.0
 10
10.2107108409
 20
9.200928888
 30
0.0
 10
10.2194894489
 20
9.2181550468
 30
0.0
 10
10.2289136536
 20
9.2350044485
 30
0.0
 10
10.2423151119
 20
9.2569207798
 30
0.0
 10
10.2569710464
 20
9.2780176704
 30
0.0
 10
10.2728067747
 20
9.2981832345
 30
0.0
 10
10.2893993831
 20
9.3176903867
 30
0.0
 10
10.3026931859
 20
9.3315773015
 30
0.0
 10
10.3118966448
 20
9.340467493
 30
0.0
  0
SPLINE
  5
34F
100
AcDbEntity
  8
0
100
AcDbSpline
 62
7
  6
CONTINUOUS
 70
0
 71
3
 72
59
 73
55
 74
0
 42
0.0000001
 43
0.0000001
 44
0.0000000001
 40
0.0
 40
0.0
 40
0.0
 40
0.0
 40
0.0311322829
 40
0.0624363742
 40
0.0938813008
 40
0.1254584073
 40
0.157162211
 40
0.1889779177
 40
0.2208868241
 40
0.2528701084
 40
0.2688858219
 40
0.2849126181
 40
0.3009477636
 40
0.3169884637
 40
0.3490708353
 40
0.3651116875
 40
0.3811470337
 40
0.3971741272
 40
0.4131903361
 40
0.4291930363
 40
0.4451796074
 40
0.4611475164
 40
0.4770944087
 40
0.4930180215
 40
0.5089161278
 40
0.5247866157
 40
0.540627598
 40
0.5564373559
 40
0.5722142367
 40
0.5879567259
 40
0.6036635642
 40
0.63496127
 40
0.6505554416
 40
0.666110719
 40
0.6816268764
 40
0.6971037981
 40
0.7125415269
 40
0.7279403733
 40
0.743300953
 40
0.7586239982
 40
0.7739103911
 40
0.7891612643
 40
0.8043780481
 40
0.8195622797
 40
0.8347156224
 40
0.8498399573
 40
0.8649374268
 40
0.8800102516
 40
0.895060739
 40
0.9100913671
 40
0.9400981012
 40
0.955085347
 40
0.9700637171
 40
1.0
 40
1.0
 40
1.0
 40
1.0
 10
10.7460024807
 20
9.5208438552
 30
0.0
 10
10.7592778777
 20
9.5199232033
 30
0.0
 10
10.7858440647
 20
9.5171022092
 30
0.0
 10
10.8253737713
 20
9.5100064324
 30
0.0
 10
10.8644821777
 20
9.5000598547
 30
0.0
 10
10.9029523256
 20
9.4873248169
 30
0.0
 10
10.9405813701
 20
9.4718642094
 30
0.0
 10
10.9771739108
 20
9.4537669403
 30
0.0
 10
11.0125295101
 20
9.4331229031
 30
0.0
 10
11.0407981781
 20
9.4139001301
 30
0.0
 10
11.0626123828
 20
9.3973666809
 30
0.0
 10
11.0785593374
 20
9.3843980337
 30
0.0
 10
11.0940627652
 20
9.3708859248
 30
0.0
 10
11.1141136809
 20
9.3521708186
 30
0.0
 10
11.1331967314
 20
9.3324363709
 30
0.0
 10
11.1512307652
 20
9.3117706029
 30
0.0
 10
11.1642169902
 20
9.2958236464
 30
0.0
 10
11.1766441457
 20
9.2794509002
 30
0.0
 10
11.1884957696
 20
9.2626738262
 30
0.0
 10
11.1997571224
 20
9.2455157152
 30
0.0
 10
11.2104132727
 20
9.2279994545
 30
0.0
 10
11.2204490459
 20
9.2101478533
 30
0.0
 10
11.2298505306
 20
9.1919845027
 30
0.0
 10
11.2386065376
 20
9.1735343492
 30
0.0
 10
11.2467055181
 20
9.1548220401
 30
0.0
 10
11.2541357969
 20
9.135872173
 30
0.0
 10
11.2608866144
 20
9.1167097763
 30
0.0
 10
11.2669504651
 20
9.0973609273
 30
0.0
 10
11.2723194511
 20
9.0778516013
 30
0.0
 10
11.276985718
 20
9.0582071479
 30
0.0
 10
11.2822536604
 20
9.0319045322
 30
0.0
 10
11.2861049521
 20
9.005398015
 30
0.0
 10
11.2885107854
 20
8.9788096338
 30
0.0
 10
11.2895876365
 20
8.9588871549
 30
0.0
 10
11.2899388795
 20
8.9389891535
 30
0.0
 10
11.2895645346
 20
8.9191416988
 30
0.0
 10
11.2884645972
 20
8.8993714052
 30
0.0
 10
11.2866389696
 20
8.8797047787
 30
0.0
 10
11.2840915331
 20
8.8601679882
 30
0.0
 10
11.280826239
 20
8.8407869932
 30
0.0
 10
11.2768470825
 20
8.8215877133
 30
0.0
 10
11.2721577474
 20
8.802596176
 30
0.0
 10
11.2667657285
 20
8.7838374868
 30
0.0
 10
11.2606789149
 20
8.765336451
 30
0.0
 10
11.2539051719
 20
8.7471178287
 30
0.0
 10
11.2464519713
 20
8.7292065951
 30
0.0
 10
11.2383301945
 20
8.7116263093
 30
0.0
 10
11.2295515864
 20
8.6944001505
 30
0.0
 10
11.2201273818
 20
8.6775507487
 30
0.0
 10
11.2067259235
 20
8.6556344175
 30
0.0
 10
11.1920699889
 20
8.6345375269
 30
0.0
 10
11.1762342606
 20
8.6143719628
 30
0.0
 10
11.1596416522
 20
8.5948648106
 30
0.0
 10
11.1463478495
 20
8.5809778958
 30
0.0
 10
11.1371443906
 20
8.5720877043
 30
0.0
  0
SPLINE
  5
350
100
AcDbEntity
  8
0
100
AcDbSpline
 62
7
  6
CONTINUOUS
 70
0
 71
3
 72
15
 73
11
 74
0
 42
0.0000001
 43
0.0000001
 44
0.0000000001
 40
0.0
 40
0.0
 40
0.0
 40
0.0
 40
0.0990493905
 40
0.2066666987
 40
0.3238642713
 40
0.4503538694
 40
0.5840557736
 40
0.7218634703
 40
0.8610624569
 40
1.0
 40
1.0
 40
1.0
 40
1.0
 10
10.9049390921
 20
8.9134648684
 30
0.0
 10
10.9018322971
 20
8.9075068511
 30
0.0
 10
10.8952652947
 20
8.8951193633
 30
0.0
 10
10.8846886654
 20
8.8758612026
 30
0.0
 10
10.8728848735
 20
8.8551564351
 30
0.0
 10
10.8598490459
 20
8.8331209388
 30
0.0
 10
10.8457559059
 20
8.8100901269
 30
0.0
 10
10.8309102006
 20
8.786512003
 30
0.0
 10
10.8156305691
 20
8.7627894278
 30
0.0
 10
10.8052868646
 20
8.7470086773
 30
0.0
 10
10.8000957092
 20
8.7391417156
 30
0.0
  0
SPLINE
  5
351
100
AcDbEntity
  8
0
100
AcDbSpline
 62
7
  6
CONTINUOUS
 70
0
 71
3
 72
16
 73
12
 74
0
 42
0.0000001
 43
0.0000001
 44
0.0000000001
 40
0.0
 40
0.0
 40
0.0
 40
0.0
 40
0.0568203632
 40
0.1148013582
 40
0.2344680642
 40
0.3590834873
 40
0.4876536601
 40
0.6180302345
 40
0.7477956069
 40
0.8753224375
 40
1.0
 40
1.0
 40
1.0
 40
1.0
 10
10.8000957092
 20
9.1023298478
 30
0.0
 10
10.8027081624
 20
9.0991515464
 30
0.0
 10
10.8079340892
 20
9.0926866876
 30
0.0
 10
10.8183665748
 20
9.0792923253
 30
0.0
 10
10.8312946626
 20
9.0616237974
 30
0.0
 10
10.8462062041
 20
9.0391052768
 30
0.0
 10
10.8603250681
 20
9.0151740311
 30
0.0
 10
10.8733318521
 20
8.990200156
 30
0.0
 10
10.8850677171
 20
8.9646905414
 30
0.0
 10
10.8955659703
 20
8.9390962928
 30
0.0
 10
10.9019165173
 20
8.9219713364
 30
0.0
 10
10.9049390921
 20
8.9134648684
 30
0.0
  0
SPLINE
  5
352
100
AcDbEntity
  8
0
100
AcDbSpline
 62
7
  6
CONTINUOUS
 70
0
 71
3
 72
13
 73
9
 74
0
 42
0.0000001
 43
0.0000001
 44
0.0000000001
 40
0.0
 40
0.0
 40
0.0
 40
0.0
 40
0.1120229119
 40
0.2274286538
 40
0.4694282775
 40
0.7273369597
 40
0.8620712305
 40
1.0
 40
1.0
 40
1.0
 40
1.0
 10
10.8000957092
 20
9.1023298478
 30
0.0
 10
10.796510976
 20
9.1031525722
 30
0.0
 10
10.7892201221
 20
9.104766407
 30
0.0
 10
10.7741177248
 20
9.1078442837
 30
0.0
 10
10.7542140054
 20
9.1113332787
 30
0.0
 10
10.7335541009
 20
9.114092133
 30
0.0
 10
10.7162218658
 20
9.115846082
 30
0.0
 10
10.707297358
 20
9.1165583827
 30
0.0
 10
10.7027797358
 20
9.1168716808
 30
0.0
  0
SPLINE
  5
353
100
AcDbEntity
  8
0
100
AcDbSpline
 62
7
  6
CONTINUOUS
 70
0
 71
3
 72
23
 73
19
 74
0
 42
0.0000001
 43
0.0000001
 44
0.0000000001
 40
0.0
 40
0.0
 40
0.0
 40
0.0
 40
0.0616482049
 40
0.1233194645
 40
0.1850366601
 40
0.2468215803
 40
0.3086958874
 40
0.3706805387
 40
0.4327949852
 40
0.4950576208
 40
0.5574833124
 40
0.620084195
 40
0.682872566
 40
0.7458647459
 40
0.8090766705
 40
0.8725171946
 40
0.9361676357
 40
1.0
 40
1.0
 40
1.0
 40
1.0
 10
10.3548605708
 20
9.3819674612
 30
0.0
 10
10.3611784714
 20
9.3880703131
 30
0.0
 10
10.374147331
 20
9.3999412624
 30
0.0
 10
10.3945349515
 20
9.4166780583
 30
0.0
 10
10.415807222
 20
9.4323091315
 30
0.0
 10
10.4379096213
 20
9.4467950501
 30
0.0
 10
10.460788619
 20
9.4600963871
 30
0.0
 10
10.4843849081
 20
9.4721822856
 30
0.0
 10
10.508639245
 20
9.4830228172
 30
0.0
 10
10.5334918396
 20
9.4925871759
 30
0.0
 10
10.5588781678
 20
9.500854585
 30
0.0
 10
10.5847337875
 20
9.5078048027
 30
0.0
 10
10.6109948451
 20
9.513417173
 30
0.0
 10
10.6375964197
 20
9.5176802578
 30
0.0
 10
10.6644739323
 20
9.5205831832
 30
0.0
 10
10.6915583155
 20
9.5221149479
 30
0.0
 10
10.7187729995
 20
9.5222769808
 30
0.0
 10
10.7369289433
 20
9.5214731071
 30
0.0
 10
10.7460024807
 20
9.5208438552
 30
0.0
  0
SPLINE
  5
354
100
AcDbEntity
  8
0
100
AcDbSpline
 62
7
  6
CONTINUOUS
 70
0
 71
3
 72
14
 73
10
 74
0
 42
0.0000001
 43
0.0000001
 44
0.0000000001
 40
0.0
 40
0.0
 40
0.0
 40
0.0
 40
0.1231136216
 40
0.2478936142
 40
0.3735912418
 40
0.499638844
 40
0.6255751812
 40
0.7510900589
 40
1.0
 40
1.0
 40
1.0
 40
1.0
 10
10.7027797358
 20
9.1168716808
 30
0.0
 10
10.6981765123
 20
9.1171909155
 30
0.0
 10
10.6889007096
 20
9.1177355279
 30
0.0
 10
10.6749083958
 20
9.1182812461
 30
0.0
 10
10.6607984572
 20
9.1185687039
 30
0.0
 10
10.6466424993
 20
9.1186186587
 30
0.0
 10
10.6324943716
 20
9.1184517742
 30
0.0
 10
10.6137465464
 20
9.1179752973
 30
0.0
 10
10.5997249926
 20
9.1173650843
 30
0.0
 10
10.5904089433
 20
9.1168716744
 30
0.0
  0
SPLINE
  5
355
100
AcDbEntity
  8
0
100
AcDbSpline
 62
7
  6
CONTINUOUS
 70
0
 71
3
 72
23
 73
19
 74
0
 42
0.0000001
 43
0.0000001
 44
0.0000000001
 40
0.0
 40
0.0
 40
0.0
 40
0.0
 40
0.0616482049
 40
0.1233194645
 40
0.1850366601
 40
0.2468215803
 40
0.3086958874
 40
0.3706805387
 40
0.4327949852
 40
0.4950576208
 40
0.5574833124
 40
0.620084195
 40
0.682872566
 40
0.7458647459
 40
0.8090766705
 40
0.8725171946
 40
0.9361676357
 40
1.0
 40
1.0
 40
1.0
 40
1.0
 10
11.0941804645
 20
8.530587736
 30
0.0
 10
11.087862564
 20
8.5244848842
 30
0.0
 10
11.0748937043
 20
8.5126139349
 30
0.0
 10
11.0545060839
 20
8.495877139
 30
0.0
 10
11.0332338133
 20
8.4802460658
 30
0.0
 10
11.011131414
 20
8.4657601472
 30
0.0
 10
10.9882524163
 20
8.4524588102
 30
0.0
 10
10.9646561272
 20
8.4403729117
 30
0.0
 10
10.9404017903
 20
8.4295323801
 30
0.0
 10
10.9155491957
 20
8.4199680214
 30
0.0
 10
10.8901628675
 20
8.4117006123
 30
0.0
 10
10.8643072479
 20
8.4047503946
 30
0.0
 10
10.8380461902
 20
8.3991380243
 30
0.0
 10
10.8114446156
 20
8.3948749395
 30
0.0
 10
10.784567103
 20
8.3919720141
 30
0.0
 10
10.7574827198
 20
8.3904402494
 30
0.0
 10
10.7302680358
 20
8.3902782165
 30
0.0
 10
10.712112092
 20
8.3910820902
 30
0.0
 10
10.7030385546
 20
8.3917113421
 30
0.0
  0
SPLINE
  5
356
100
AcDbEntity
  8
0
100
AcDbSpline
 62
7
  6
CONTINUOUS
 70
0
 71
3
 72
66
 73
62
 74
0
 42
0.0000001
 43
0.0000001
 44
0.0000000001
 40
0.0
 40
0.0
 40
0.0
 40
0.0
 40
0.0313892319
 40
0.0471734483
 40
0.0630045494
 40
0.0947922188
 40
0.1107556328
 40
0.126758753
 40
0.1427973822
 40
0.1588672385
 40
0.174964115
 40
0.1910835842
 40
0.2072211173
 40
0.2233719516
 40
0.2395310416
 40
0.2556933588
 40
0.2718539342
 40
0.2880076864
 40
0.3041496364
 40
0.32027501
 40
0.3363790385
 40
0.3524571444
 40
0.368505122
 40
0.3845189036
 40
0.4004946911
 40
0.4164291943
 40
0.4323193802
 40
0.4481625505
 40
0.4639566204
 40
0.4796998632
 40
0.4953909309
 40
0.5110291558
 40
0.5266142955
 40
0.542146505
 40
0.5576266393
 40
0.5730560022
 40
0.5884362808
 40
0.6037698305
 40
0.619059427
 40
0.6343081765
 40
0.6495197715
 40
0.6646982401
 40
0.6798478494
 40
0.6949733256
 40
0.7100795921
 40
0.7251716853
 40
0.7402549452
 40
0.7553347395
 40
0.7704164033
 40
0.7855053917
 40
0.8006069684
 40
0.8157262041
 40
0.83086817
 40
0.8460376768
 40
0.8612392288
 40
0.8764770253
 40
0.9070640933
 40
0.9378335392
 40
0.9533006817
 40
0.9688224861
 40
1.0
 40
1.0
 40
1.0
 40
1.0
 10
10.694756352
 20
8.4146209765
 30
0.0
 10
10.6779244728
 20
8.4157882713
 30
0.0
 10
10.6526933791
 20
8.4187883303
 30
0.0
 10
10.6194298333
 20
8.425197752
 30
0.0
 10
10.5863021679
 20
8.4332459575
 30
0.0
 10
10.5536947251
 20
8.4436841687
 30
0.0
 10
10.5218662038
 20
8.4564104022
 30
0.0
 10
10.4983717361
 20
8.4671041628
 30
0.0
 10
10.4753501887
 20
8.4789053593
 30
0.0
 10
10.4528580562
 20
8.4917888102
 30
0.0
 10
10.4309488138
 20
8.505721176
 30
0.0
 10
10.4096743411
 20
8.5206681941
 30
0.0
 10
10.3890875568
 20
8.5365964351
 30
0.0
 10
10.3692367777
 20
8.5534658334
 30
0.0
 10
10.3501689437
 20
8.5712349882
 30
0.0
 10
10.3319321821
 20
8.589863446
 30
0.0
 10
10.3145691971
 20
8.6093049915
 30
0.0
 10
10.2981206073
 20
8.629511974
 30
0.0
 10
10.282628431
 20
8.6504377324
 30
0.0
 10
10.2681288365
 20
8.6720308926
 30
0.0
 10
10.2546552703
 20
8.6942386576
 30
0.0
 10
10.2422428042
 20
8.7170091814
 30
0.0
 10
10.2309203664
 20
8.740286961
 30
0.0
 10
10.2207134493
 20
8.7640152379
 30
0.0
 10
10.2116493813
 20
8.7881381057
 30
0.0
 10
10.2037492709
 20
8.8125970542
 30
0.0
 10
10.1970300815
 20
8.8373326496
 30
0.0
 10
10.1915107954
 20
8.8622861451
 30
0.0
 10
10.187204285
 20
8.8873971949
 30
0.0
 10
10.1841185941
 20
8.9126050341
 30
0.0
 10
10.1822639254
 20
8.9378493625
 30
0.0
 10
10.1816446583
 20
8.9630692019
 30
0.0
 10
10.1822597317
 20
8.9882038324
 30
0.0
 10
10.1841103234
 20
9.01319273
 30
0.0
 10
10.1871922278
 20
9.0379754949
 30
0.0
 10
10.1914953012
 20
9.0624928281
 30
0.0
 10
10.197011645
 20
9.0866853287
 30
0.0
 10
10.2037285393
 20
9.110494374
 30
0.0
 10
10.2116269884
 20
9.1338634299
 30
0.0
 10
10.2206901655
 20
9.1567355569
 30
0.0
 10
10.2308970696
 20
9.1790550776
 30
0.0
 10
10.2422202918
 20
9.200769502
 30
0.0
 10
10.2546344322
 20
9.2218256514
 30
0.0
 10
10.2681106006
 20
9.2421719135
 30
0.0
 10
10.2826136017
 20
9.2617610246
 30
0.0
 10
10.2981100131
 20
9.2805448014
 30
0.0
 10
10.3145636137
 20
9.2984767509
 30
0.0
 10
10.3319322595
 20
9.3155158809
 30
0.0
 10
10.3501752832
 20
9.3316201185
 30
0.0
 10
10.3692498207
 20
9.3467490413
 30
0.0
 10
10.3891076693
 20
9.3608688442
 30
0.0
 10
10.4097017698
 20
9.3739445846
 30
0.0
 10
10.4309835909
 20
9.3859428132
 30
0.0
 10
10.4529000476
 20
9.3968374786
 30
0.0
 10
10.4753997843
 20
9.4066016667
 30
0.0
 10
10.506137689
 20
9.4180911218
 30
0.0
 10
10.5457719458
 20
9.429515001
 30
0.0
 10
10.5864804724
 20
9.4368737667
 30
0.0
 10
10.6195108772
 20
9.4403117509
 30
0.0
 10
10.6528881968
 20
9.4421081523
 30
0.0
 10
10.6780380025
 20
9.4415936863
 30
0.0
 10
10.694756352
 20
9.4404342648
 30
0.0
  0
SPLINE
  5
357
100
AcDbEntity
  8
0
100
AcDbSpline
 62
7
  6
CONTINUOUS
 70
0
 71
3
 72
33
 73
29
 74
0
 42
0.0000001
 43
0.0000001
 44
0.0000000001
 40
0.0
 40
0.0
 40
0.0
 40
0.0
 40
0.0607663237
 40
0.091331568
 40
0.1220124065
 40
0.1528084241
 40
0.1837173208
 40
0.2147358851
 40
0.2458601834
 40
0.2770843894
 40
0.3084013868
 40
0.3712616898
 40
0.4343894808
 40
0.4977003293
 40
0.5294057045
 40
0.5611213219
 40
0.5928355414
 40
0.6245364484
 40
0.6562120085
 40
0.6878507642
 40
0.7194411705
 40
0.7509711995
 40
0.782429246
 40
0.813806578
 40
0.8450987421
 40
0.8763022432
 40
0.9384000084
 40
1.0
 40
1.0
 40
1.0
 40
1.0
 10
10.6688370688
 20
9.1183903878
 30
0.0
 10
10.6677252059
 20
9.111958061
 30
0.0
 10
10.6665933312
 20
9.1021859591
 30
0.0
 10
10.6661563575
 20
9.089082016
 30
0.0
 10
10.6663662416
 20
9.0791914597
 30
0.0
 10
10.6671123796
 20
9.0692905077
 30
0.0
 10
10.6683915595
 20
9.0594075366
 30
0.0
 10
10.6702013219
 20
9.0495720149
 30
0.0
 10
10.6725372719
 20
9.0398133136
 30
0.0
 10
10.6753905492
 20
9.0301595125
 30
0.0
 10
10.6798776953
 20
9.0174524436
 30
0.0
 10
10.6867439124
 20
9.0019759457
 30
0.0
 10
10.6968663712
 20
8.9843003442
 30
0.0
 10
10.7067877435
 20
8.9704704465
 30
0.0
 10
10.7155428232
 20
8.9600389425
 30
0.0
 10
10.7225049327
 20
8.9525511756
 30
0.0
 10
10.7298378313
 20
8.9454272628
 30
0.0
 10
10.7375188687
 20
8.9386866073
 30
0.0
 10
10.7455256423
 20
8.9323493155
 30
0.0
 10
10.7538358296
 20
8.9264358764
 30
0.0
 10
10.7624237057
 20
8.9209625464
 30
0.0
 10
10.7712630881
 20
8.9159446107
 30
0.0
 10
10.7803282673
 20
8.9113977788
 30
0.0
 10
10.7895932421
 20
8.9073366059
 30
0.0
 10
10.799031138
 20
8.9037712885
 30
0.0
 10
10.8117864977
 20
8.899699637
 30
0.0
 10
10.8280197398
 20
8.8958993704
 30
0.0
 10
10.8412354441
 20
8.8942557883
 30
0.0
 10
10.8478368591
 20
8.8937979786
 30
0.0
  0
SPLINE
  5
358
100
AcDbEntity
  8
0
100
AcDbSpline
 62
7
  6
CONTINUOUS
 70
0
 71
3
 72
15
 73
11
 74
0
 42
0.0000001
 43
0.0000001
 44
0.0000000001
 40
0.0
 40
0.0
 40
0.0
 40
0.0
 40
0.1267721213
 40
0.2530848049
 40
0.3788484787
 40
0.5040309115
 40
0.6286806203
 40
0.7528576716
 40
0.876615375
 40
1.0
 40
1.0
 40
1.0
 40
1.0
 10
10.694756352
 20
9.1390653892
 30
0.0
 10
10.6901926433
 20
9.1393818834
 30
0.0
 10
10.6810585235
 20
9.139718941
 30
0.0
 10
10.6673836479
 20
9.1393341663
 30
0.0
 10
10.6538198394
 20
9.1380576627
 30
0.0
 10
10.6404302111
 20
9.1358916478
 30
0.0
 10
10.6272708285
 20
9.1328491042
 30
0.0
 10
10.6143957142
 20
9.1289401073
 30
0.0
 10
10.6018588644
 20
9.1241826418
 30
0.0
 10
10.5937485256
 20
9.1204534833
 30
0.0
 10
10.589769813
 20
9.1184549901
 30
0.0
  0
SPLINE
  5
359
100
AcDbEntity
  8
0
100
AcDbSpline
 62
7
  6
CONTINUOUS
 70
0
 71
3
 72
44
 73
40
 74
0
 42
0.0000001
 43
0.0000001
 44
0.0000000001
 40
0.0
 40
0.0
 40
0.0
 40
0.0
 40
0.0301887775
 40
0.060307189
 40
0.0903838176
 40
0.1204483681
 40
0.150530331
 40
0.1806592903
 40
0.1957536387
 40
0.2108700789
 40
0.2411744884
 40
0.2563750715
 40
0.2716091147
 40
0.3021796441
 40
0.3175266352
 40
0.3329146523
 40
0.3638118197
 40
0.3948836434
 40
0.4261319821
 40
0.4575531672
 40
0.4891397401
 40
0.5208793779
 40
0.5527562983
 40
0.584751048
 40
0.6168412608
 40
0.6490024641
 40
0.6812080575
 40
0.7134308435
 40
0.7295427041
 40
0.7456483331
 40
0.7778217557
 40
0.8099305437
 40
0.8419493306
 40
0.8738525474
 40
0.9056216359
 40
0.937248854
 40
0.9530093839
 40
0.9687263067
 40
1.0
 40
1.0
 40
1.0
 40
1.0
 10
10.5889874678
 20
9.1180597991
 30
0.0
 10
10.5840003137
 20
9.1155264055
 30
0.0
 10
10.5742520401
 20
9.1100299703
 30
0.0
 10
10.5604175556
 20
9.1005556539
 30
0.0
 10
10.5474828088
 20
9.0899198015
 30
0.0
 10
10.5355326706
 20
9.0781984158
 30
0.0
 10
10.5246504645
 20
9.0654672458
 30
0.0
 10
10.5165340275
 20
9.0540936884
 30
0.0
 10
10.5106455361
 20
9.0445859352
 30
0.0
 10
10.5051605384
 20
9.0348028423
 30
0.0
 10
10.5003078099
 20
9.0246541868
 30
0.0
 10
10.4961151411
 20
9.0142068721
 30
0.0
 10
10.4923578322
 20
9.0035428399
 30
0.0
 10
10.4892790737
 20
8.9926215152
 30
0.0
 10
10.4868923664
 20
8.9815129818
 30
0.0
 10
10.4849643502
 20
8.9702539579
 30
0.0
 10
10.4834333532
 20
8.9559843731
 30
0.0
 10
10.4830113301
 20
8.9386981572
 30
0.0
 10
10.4840078899
 20
8.9213380641
 30
0.0
 10
10.486411211
 20
8.9040204313
 30
0.0
 10
10.4902103901
 20
8.8868616186
 30
0.0
 10
10.4953741678
 20
8.8699749584
 30
0.0
 10
10.5018733501
 20
8.8534748545
 30
0.0
 10
10.509659222
 20
8.8374694302
 30
0.0
 10
10.5186841732
 20
8.8220676236
 30
0.0
 10
10.5288842019
 20
8.8073699918
 30
0.0
 10
10.5401936028
 20
8.7934768613
 30
0.0
 10
10.5504804939
 20
8.7826436738
 30
0.0
 10
10.5591857437
 20
8.7744676063
 30
0.0
 10
10.5681906021
 20
8.7666366834
 30
0.0
 10
10.5799835181
 20
8.7575117612
 30
0.0
 10
10.5949055527
 20
8.7476960656
 30
0.0
 10
10.6104960112
 20
8.7390829366
 30
0.0
 10
10.6266488803
 20
8.7317274569
 30
0.0
 10
10.6432588763
 20
8.7256820582
 30
0.0
 10
10.6574097171
 20
8.7217619174
 30
0.0
 10
10.6688477443
 20
8.7193208404
 30
0.0
 10
10.6803088972
 20
8.7173497276
 30
0.0
 10
10.6889754833
 20
8.7163907568
 30
0.0
 10
10.694756352
 20
8.7159898522
 30
0.0
  0
SPLINE
  5
35A
100
AcDbEntity
  8
0
100
AcDbSpline
 62
7
  6
CONTINUOUS
 70
0
 71
3
 72
11
 73
7
 74
0
 42
0.0000001
 43
0.0000001
 44
0.0000000001
 40
0.0
 40
0.0
 40
0.0
 40
0.0
 40
0.2483001361
 40
0.4978174108
 40
0.748450087
 40
1.0
 40
1.0
 40
1.0
 40
1.0
 10
10.8969326511
 20
8.8971558142
 30
0.0
 10
10.8929357921
 20
8.8963105159
 30
0.0
 10
10.8848596507
 20
8.8948989065
 30
0.0
 10
10.8726007325
 20
8.8936355192
 30
0.0
 10
10.8602305647
 20
8.8932214305
 30
0.0
 10
10.8519656783
 20
8.8935116441
 30
0.0
 10
10.8478368591
 20
8.8937979786
 30
0.0
  0
SPLINE
  5
35B
100
AcDbEntity
  8
0
100
AcDbSpline
 62
7
  6
CONTINUOUS
 70
0
 71
3
 72
15
 73
11
 74
0
 42
0.0000001
 43
0.0000001
 44
0.0000000001
 40
0.0
 40
0.0
 40
0.0
 40
0.0
 40
0.123395243
 40
0.2471616739
 40
0.3713457372
 40
0.4960009522
 40
0.6211855472
 40
0.7469455322
 40
0.8732462823
 40
1.0
 40
1.0
 40
1.0
 40
1.0
 10
10.8646919606
 20
8.84115733
 30
0.0
 10
10.8613041379
 20
8.8394823515
 30
0.0
 10
10.8544016643
 20
8.8363577229
 30
0.0
 10
10.8437402236
 20
8.832373741
 30
0.0
 10
10.8327980838
 20
8.8291027595
 30
0.0
 10
10.8216201032
 20
8.8265590707
 30
0.0
 10
10.8102510173
 20
8.8247510805
 30
0.0
 10
10.7987374726
 20
8.8236895525
 30
0.0
 10
10.7871319518
 20
8.8233760035
 30
0.0
 10
10.7793806586
 20
8.8236649131
 30
0.0
 10
10.7755078275
 20
8.8239334948
 30
0.0
  0
SPLINE
  5
35C
100
AcDbEntity
  8
0
100
AcDbSpline
 62
7
  6
CONTINUOUS
 70
0
 71
3
 72
15
 73
11
 74
0
 42
0.0000001
 43
0.0000001
 44
0.0000000001
 40
0.0
 40
0.0
 40
0.0
 40
0.0
 40
0.1267968404
 40
0.2531255205
 40
0.3788942022
 40
0.5040739396
 40
0.6287161924
 40
0.7528830504
 40
0.8766282758
 40
1.0
 40
1.0
 40
1.0
 40
1.0
 10
10.694756352
 20
8.7159898522
 30
0.0
 10
10.6993908128
 20
8.7156684512
 30
0.0
 10
10.7086666348
 20
8.7153308237
 30
0.0
 10
10.722552176
 20
8.7157425776
 30
0.0
 10
10.7363212019
 20
8.7170740929
 30
0.0
 10
10.7499078431
 20
8.719322491
 30
0.0
 10
10.7632535989
 20
8.7224741454
 30
0.0
 10
10.7763018202
 20
8.7265184414
 30
0.0
 10
10.7889961581
 20
8.7314356718
 30
0.0
 10
10.7971995221
 20
8.7352873143
 30
0.0
 10
10.8012211664
 20
8.7373507345
 30
0.0
  0
SPLINE
  5
35D
100
AcDbEntity
  8
0
100
AcDbSpline
 62
7
  6
CONTINUOUS
 70
0
 71
3
 72
21
 73
17
 74
0
 42
0.0000001
 43
0.0000001
 44
0.0000000001
 40
0.0
 40
0.0
 40
0.0
 40
0.0
 40
0.0621604898
 40
0.1241984835
 40
0.1861504711
 40
0.2480554595
 40
0.3099518597
 40
0.3718783665
 40
0.4959005071
 40
0.620486259
 40
0.683105919
 40
0.7459548873
 40
0.8090539876
 40
0.8724203926
 40
0.9360668682
 40
1.0
 40
1.0
 40
1.0
 40
1.0
 10
10.8012211664
 20
8.7373507345
 30
0.0
 10
10.805189221
 20
8.739386659
 30
0.0
 10
10.8129794073
 20
8.7437304494
 30
0.0
 10
10.8241741142
 20
8.7510332491
 30
0.0
 10
10.834819032
 20
8.7590874387
 30
0.0
 10
10.8448671914
 20
8.7678588656
 30
0.0
 10
10.8542786164
 20
8.7773085903
 30
0.0
 10
10.8659232505
 20
8.7907638555
 30
0.0
 10
10.878708151
 20
8.8091046633
 30
0.0
 10
10.8888518463
 20
8.8290820612
 30
0.0
 10
10.8952986411
 20
8.8458369383
 30
0.0
 10
10.8992893582
 20
8.8587756348
 30
0.0
 10
10.9024118144
 20
8.8720050821
 30
0.0
 10
10.9046498663
 20
8.8854707636
 30
0.0
 10
10.905995493
 20
8.899113961
 30
0.0
 10
10.9062941205
 20
8.908270373
 30
0.0
 10
10.9062941205
 20
8.9128574266
 30
0.0
  0
SPLINE
  5
35E
100
AcDbEntity
  8
0
100
AcDbSpline
 62
7
  6
CONTINUOUS
 70
0
 71
3
 72
23
 73
19
 74
0
 42
0.0000001
 43
0.0000001
 44
0.0000000001
 40
0.0
 40
0.0
 40
0.0
 40
0.0
 40
0.0611123718
 40
0.1224974328
 40
0.1841476917
 40
0.2460524529
 40
0.3081953791
 40
0.3705571335
 40
0.4331151964
 40
0.4958427636
 40
0.5587116368
 40
0.6216909416
 40
0.6847475563
 40
0.7478483251
 40
0.8109582777
 40
0.8740423262
 40
0.9370672663
 40
1.0
 40
1.0
 40
1.0
 40
1.0
 10
10.9062929068
 20
8.9135732107
 30
0.0
 10
10.9062772941
 20
8.918177802
 30
0.0
 10
10.90594404
 20
8.927409227
 30
0.0
 10
10.9045507864
 20
8.941223112
 30
0.0
 10
10.9022673832
 20
8.9549791029
 30
0.0
 10
10.8991025779
 20
8.968617718
 30
0.0
 10
10.8950728792
 20
8.9820821789
 30
0.0
 10
10.8901922058
 20
8.9953144658
 30
0.0
 10
10.8844829015
 20
9.0082589054
 30
0.0
 10
10.8779701804
 20
9.0208613282
 30
0.0
 10
10.8706788043
 20
9.0330667431
 30
0.0
 10
10.8626426436
 20
9.0448251193
 30
0.0
 10
10.8538944875
 20
9.05608602
 30
0.0
 10
10.8444704853
 20
9.0668007589
 30
0.0
 10
10.8344130134
 20
9.0769260958
 30
0.0
 10
10.8237622395
 20
9.0864170856
 30
0.0
 10
10.812564772
 20
9.0952339539
 30
0.0
 10
10.8047588499
 20
9.1006441356
 30
0.0
 10
10.8007805031
 20
9.10322429
 30
0.0
  0
LINE
  5
35F
100
AcDbEntity
  8
0
100
AcDbLine
 62
7
  6
CONTINUOUS
 10
10.8007805031
 20
9.10322429
 11
10.8005252363
 21
9.103389605
  0
SPLINE
  5
360
100
AcDbEntity
  8
0
100
AcDbSpline
 62
7
  6
CONTINUOUS
 70
0
 71
3
 72
14
 73
10
 74
0
 42
0.0000001
 43
0.0000001
 44
0.0000000001
 40
0.0
 40
0.0
 40
0.0
 40
0.0
 40
0.2524683501
 40
0.37822438
 40
0.5035561126
 40
0.6284438742
 40
0.7528706101
 40
0.8767610755
 40
1.0
 40
1.0
 40
1.0
 40
1.0
 10
10.8005252363
 20
9.103389605
 30
0.0
 10
10.7925552349
 20
9.1085436798
 30
0.0
 10
10.7801221628
 20
9.1155411202
 30
0.0
 10
10.7628247034
 20
9.123253887
 30
0.0
 10
10.7495711939
 20
9.1281948042
 30
0.0
 10
10.7360820218
 20
9.1322781203
 30
0.0
 10
10.7224127002
 20
9.1354831979
 30
0.0
 10
10.7086283157
 20
9.1377980203
 30
0.0
 10
10.6993783136
 20
9.138744855
 30
0.0
 10
10.694756352
 20
9.1390653892
 30
0.0
  0
SPLINE
  5
361
100
AcDbEntity
  8
0
100
AcDbSpline
 62
7
  6
CONTINUOUS
 70
0
 71
3
 72
20
 73
16
 74
0
 42
0.0000001
 43
0.0000001
 44
0.0000000001
 40
0.0
 40
0.0
 40
0.0
 40
0.0
 40
0.064283381
 40
0.1284469336
 40
0.1924130566
 40
0.2561327067
 40
0.3195962377
 40
0.3827990426
 40
0.5083222639
 40
0.6327140719
 40
0.6945237837
 40
0.7560701403
 40
0.81738136
 40
0.8784876953
 40
1.0
 40
1.0
 40
1.0
 40
1.0
 10
10.618242753
 20
8.9256368978
 30
0.0
 10
10.6162657269
 20
8.9291983148
 30
0.0
 10
10.6125343972
 20
8.9364386625
 30
0.0
 10
10.6076261033
 20
8.9476075623
 30
0.0
 10
10.6034345318
 20
8.9590273896
 30
0.0
 10
10.5999820799
 20
8.9706454881
 30
0.0
 10
10.5972803369
 20
8.9824117482
 30
0.0
 10
10.5947031158
 20
8.9981918392
 30
0.0
 10
10.5933933794
 20
9.0180486697
 30
0.0
 10
10.5946858578
 20
9.0378207755
 30
0.0
 10
10.5972705914
 20
9.0533153864
 30
0.0
 10
10.5999698451
 20
9.0647106719
 30
0.0
 10
10.6034209922
 20
9.0758553243
 30
0.0
 10
10.6089952752
 20
9.0902805554
 30
0.0
 10
10.6142743362
 20
9.100632675
 30
0.0
 10
10.618242753
 20
9.1072309639
 30
0.0
  0
SPLINE
  5
362
100
AcDbEntity
  8
0
100
AcDbSpline
 62
7
  6
CONTINUOUS
 70
0
 71
3
 72
22
 73
18
 74
0
 42
0.0000001
 43
0.0000001
 44
0.0000000001
 40
0.0
 40
0.0
 40
0.0
 40
0.0
 40
0.1225783061
 40
0.1843271989
 40
0.2463048976
 40
0.3085027642
 40
0.3709108754
 40
0.4335077155
 40
0.4962624701
 40
0.5591432843
 40
0.622115833
 40
0.6851434569
 40
0.7481951323
 40
0.8112474555
 40
0.8742753569
 40
0.9372202319
 40
1.0
 40
1.0
 40
1.0
 40
1.0
 10
10.7755078275
 20
8.8239334948
 30
0.0
 10
10.7675555589
 20
8.8244849865
 30
0.0
 10
10.7556338123
 20
8.8261015294
 30
0.0
 10
10.740032549
 20
8.8297599018
 30
0.0
 10
10.7284518378
 20
8.8332654548
 30
0.0
 10
10.7170752282
 20
8.8375066009
 30
0.0
 10
10.7059492921
 20
8.8424677035
 30
0.0
 10
10.6951207651
 20
8.848126408
 30
0.0
 10
10.6846354213
 20
8.8544579086
 30
0.0
 10
10.6745402783
 20
8.8614376139
 30
0.0
 10
10.6648770725
 20
8.8690326431
 30
0.0
 10
10.65568749
 20
8.8772111225
 30
0.0
 10
10.6470112459
 20
8.8859395668
 30
0.0
 10
10.6388829504
 20
8.8951804483
 30
0.0
 10
10.631339901
 20
8.9048963494
 30
0.0
 10
10.6244151853
 20
8.9150401049
 30
0.0
 10
10.62022427
 20
8.9220673911
 30
0.0
 10
10.618242753
 20
8.9256368978
 30
0.0
  0
SPLINE
  5
363
100
AcDbEntity
  8
0
100
AcDbSpline
 62
7
  6
CONTINUOUS
 70
0
 71
3
 72
15
 73
11
 74
0
 42
0.0000001
 43
0.0000001
 44
0.0000000001
 40
0.0
 40
0.0
 40
0.0
 40
0.0
 40
0.1389375432
 40
0.2781365294
 40
0.4159442255
 40
0.5496461298
 40
0.676135728
 40
0.7933333011
 40
0.9009506095
 40
1.0
 40
1.0
 40
1.0
 40
1.0
 10
10.4855655604
 20
8.9425485216
 30
0.0
 10
10.4907567158
 20
8.9504154833
 30
0.0
 10
10.5011004202
 20
8.9661962338
 30
0.0
 10
10.5163800517
 20
8.9899188089
 30
0.0
 10
10.531225757
 20
9.0134969328
 30
0.0
 10
10.545318897
 20
9.0365277447
 30
0.0
 10
10.5583547246
 20
9.058563241
 30
0.0
 10
10.5701585165
 20
9.0792680086
 30
0.0
 10
10.5807351459
 20
9.0985261693
 30
0.0
 10
10.5873021483
 20
9.1109136571
 30
0.0
 10
10.5904089433
 20
9.1168716744
 30
0.0
  0
SPLINE
  5
364
100
AcDbEntity
  8
0
100
AcDbSpline
 62
7
  6
CONTINUOUS
 70
0
 71
3
 72
23
 73
19
 74
0
 42
0.0000001
 43
0.0000001
 44
0.0000000001
 40
0.0
 40
0.0
 40
0.0
 40
0.0
 40
0.0616482049
 40
0.1233194645
 40
0.1850366601
 40
0.2468215803
 40
0.3086958874
 40
0.3706805387
 40
0.4327949852
 40
0.4950576208
 40
0.5574833124
 40
0.620084195
 40
0.682872566
 40
0.7458647459
 40
0.8090766705
 40
0.8725171946
 40
0.9361676357
 40
1.0
 40
1.0
 40
1.0
 40
1.0
 10
10.3118966448
 20
9.340467493
 30
0.0
 10
10.3182145453
 20
9.3465703449
 30
0.0
 10
10.331183405
 20
9.3584412942
 30
0.0
 10
10.3515710254
 20
9.37517809
 30
0.0
 10
10.372843296
 20
9.3908091633
 30
0.0
 10
10.3949456953
 20
9.4052950819
 30
0.0
 10
10.417824693
 20
9.4185964189
 30
0.0
 10
10.4414209821
 20
9.4306823173
 30
0.0
 10
10.465675319
 20
9.441522849
 30
0.0
 10
10.4905279136
 20
9.4510872077
 30
0.0
 10
10.5159142418
 20
9.4593546168
 30
0.0
 10
10.5417698614
 20
9.4663048345
 30
0.0
 10
10.5680309191
 20
9.4719172048
 30
0.0
 10
10.5946324937
 20
9.4761802896
 30
0.0
 10
10.6215100063
 20
9.479083215
 30
0.0
 10
10.6485943895
 20
9.4806149797
 30
0.0
 10
10.6758090735
 20
9.4807770126
 30
0.0
 10
10.6939650173
 20
9.4799731389
 30
0.0
 10
10.7030385546
 20
9.479343887
 30
0.0
  0
SPLINE
  5
365
100
AcDbEntity
  8
0
100
AcDbSpline
 62
7
  6
CONTINUOUS
 70
0
 71
3
 72
16
 73
12
 74
0
 42
0.0000001
 43
0.0000001
 44
0.0000000001
 40
0.0
 40
0.0
 40
0.0
 40
0.0
 40
0.1246775626
 40
0.2522043928
 40
0.3819697647
 40
0.512346339
 40
0.6409165119
 40
0.7655319355
 40
0.8851986419
 40
0.9431796369
 40
1.0
 40
1.0
 40
1.0
 40
1.0
 10
10.5904089433
 20
8.7536835422
 30
0.0
 10
10.5873863685
 20
8.7621900102
 30
0.0
 10
10.5810358214
 20
8.7793149666
 30
0.0
 10
10.5705375682
 20
8.8049092151
 30
0.0
 10
10.5588017033
 20
8.8304188297
 30
0.0
 10
10.5457949194
 20
8.8553927048
 30
0.0
 10
10.5316760554
 20
8.8793239505
 30
0.0
 10
10.5167645138
 20
8.9018424711
 30
0.0
 10
10.503836426
 20
8.9195109991
 30
0.0
 10
10.4934039404
 20
8.9329053615
 30
0.0
 10
10.4881780136
 20
8.9393702202
 30
0.0
 10
10.4855655604
 20
8.9425485216
 30
0.0
  0
SPLINE
  5
366
100
AcDbEntity
  8
0
100
AcDbSpline
 62
7
  6
CONTINUOUS
 70
0
 71
3
 72
13
 73
9
 74
0
 42
0.0000001
 43
0.0000001
 44
0.0000000001
 40
0.0
 40
0.0
 40
0.0
 40
0.0
 40
0.1379287965
 40
0.272663193
 40
0.5305718957
 40
0.7725714046
 40
0.8879771085
 40
1.0
 40
1.0
 40
1.0
 40
1.0
 10
10.7027797358
 20
8.7536835486
 30
0.0
 10
10.7072973589
 20
8.7533702504
 30
0.0
 10
10.7162218715
 20
8.7526579476
 30
0.0
 10
10.7335541125
 20
8.7509040007
 30
0.0
 10
10.7542140179
 20
8.7481451441
 30
0.0
 10
10.7741177329
 20
8.7446561496
 30
0.0
 10
10.7892201245
 20
8.7415782739
 30
0.0
 10
10.7965109766
 20
8.7399644398
 30
0.0
 10
10.8000957092
 20
8.7391417156
 30
0.0
  0
SPLINE
  5
367
100
AcDbEntity
  8
0
100
AcDbSpline
 62
7
  6
CONTINUOUS
 70
0
 71
3
 72
14
 73
10
 74
0
 42
0.0000001
 43
0.0000001
 44
0.0000000001
 40
0.0
 40
0.0
 40
0.0
 40
0.0
 40
0.2489100079
 40
0.3744249398
 40
0.5003613314
 40
0.6264089266
 40
0.7521065273
 40
0.8768864172
 40
1.0
 40
1.0
 40
1.0
 40
1.0
 10
10.5904089433
 20
8.7536835422
 30
0.0
 10
10.5997249951
 20
8.7541769523
 30
0.0
 10
10.6137465534
 20
8.7547871661
 30
0.0
 10
10.6324943852
 20
8.7552636418
 30
0.0
 10
10.6466425167
 20
8.7554305268
 30
0.0
 10
10.6607984754
 20
8.7553805714
 30
0.0
 10
10.6749084089
 20
8.7550931129
 30
0.0
 10
10.6889007165
 20
8.754547397
 30
0.0
 10
10.6981765138
 20
8.7540027832
 30
0.0
 10
10.7027797358
 20
8.7536835486
 30
0.0
  0
SPLINE
  5
368
100
AcDbEntity
  8
0
100
AcDbSpline
 62
7
  6
CONTINUOUS
 70
0
 71
3
 72
66
 73
62
 74
0
 42
0.0000001
 43
0.0000001
 44
0.0000000001
 40
0.0
 40
0.0
 40
0.0
 40
0.0
 40
0.0313892319
 40
0.0471734483
 40
0.0630045494
 40
0.0947922188
 40
0.1107556328
 40
0.126758753
 40
0.1427973822
 40
0.1588672385
 40
0.174964115
 40
0.1910835842
 40
0.2072211173
 40
0.2233719516
 40
0.2395310416
 40
0.2556933588
 40
0.2718539342
 40
0.2880076864
 40
0.3041496364
 40
0.32027501
 40
0.3363790385
 40
0.3524571444
 40
0.368505122
 40
0.3845189036
 40
0.4004946911
 40
0.4164291943
 40
0.4323193802
 40
0.4481625505
 40
0.4639566204
 40
0.4796998632
 40
0.4953909309
 40
0.5110291558
 40
0.5266142955
 40
0.542146505
 40
0.5576266393
 40
0.5730560022
 40
0.5884362808
 40
0.6037698305
 40
0.619059427
 40
0.6343081765
 40
0.6495197715
 40
0.6646982401
 40
0.6798478494
 40
0.6949733256
 40
0.7100795921
 40
0.7251716853
 40
0.7402549452
 40
0.7553347395
 40
0.7704164033
 40
0.7855053917
 40
0.8006069684
 40
0.8157262041
 40
0.83086817
 40
0.8460376768
 40
0.8612392288
 40
0.8764770253
 40
0.9070640933
 40
0.9378335392
 40
0.9533006817
 40
0.9688224861
 40
1.0
 40
1.0
 40
1.0
 40
1.0
 10
10.694756352
 20
9.4404342648
 30
0.0
 10
10.7115882313
 20
9.43926697
 30
0.0
 10
10.736819325
 20
9.4362669111
 30
0.0
 10
10.7700828708
 20
9.4298574893
 30
0.0
 10
10.8032105362
 20
9.4218092838
 30
0.0
 10
10.835817979
 20
9.4113710726
 30
0.0
 10
10.8676465003
 20
9.3986448391
 30
0.0
 10
10.891140968
 20
9.3879510785
 30
0.0
 10
10.9141625154
 20
9.376149882
 30
0.0
 10
10.9366546479
 20
9.3632664311
 30
0.0
 10
10.9585638903
 20
9.3493340654
 30
0.0
 10
10.979838363
 20
9.3343870472
 30
0.0
 10
11.0004251473
 20
9.3184588062
 30
0.0
 10
11.0202759264
 20
9.3015894079
 30
0.0
 10
11.0393437604
 20
9.2838202531
 30
0.0
 10
11.057580522
 20
9.2651917953
 30
0.0
 10
11.0749435069
 20
9.2457502498
 30
0.0
 10
11.0913920968
 20
9.2255432673
 30
0.0
 10
11.106884273
 20
9.204617509
 30
0.0
 10
11.1213838675
 20
9.1830243487
 30
0.0
 10
11.1348574338
 20
9.1608165837
 30
0.0
 10
11.1472698999
 20
9.1380460599
 30
0.0
 10
11.1585923377
 20
9.1147682803
 30
0.0
 10
11.1687992548
 20
9.0910400034
 30
0.0
 10
11.1778633227
 20
9.0669171356
 30
0.0
 10
11.1857634331
 20
9.0424581871
 30
0.0
 10
11.1924826226
 20
9.0177225917
 30
0.0
 10
11.1980019086
 20
8.9927690963
 30
0.0
 10
11.202308419
 20
8.9676580465
 30
0.0
 10
11.2053941099
 20
8.9424502072
 30
0.0
 10
11.2072487787
 20
8.9172058788
 30
0.0
 10
11.2078680458
 20
8.8919860395
 30
0.0
 10
11.2072529724
 20
8.8668514089
 30
0.0
 10
11.2054023807
 20
8.8418625113
 30
0.0
 10
11.2023204763
 20
8.8170797465
 30
0.0
 10
11.1980174028
 20
8.7925624132
 30
0.0
 10
11.192501059
 20
8.7683699126
 30
0.0
 10
11.1857841648
 20
8.7445608673
 30
0.0
 10
11.1778857157
 20
8.7211918114
 30
0.0
 10
11.1688225386
 20
8.6983196845
 30
0.0
 10
11.1586156345
 20
8.6760001637
 30
0.0
 10
11.1472924122
 20
8.6542857394
 30
0.0
 10
11.1348782718
 20
8.6332295899
 30
0.0
 10
11.1214021034
 20
8.6128833278
 30
0.0
 10
11.1068991024
 20
8.5932942167
 30
0.0
 10
11.0914026909
 20
8.5745104399
 30
0.0
 10
11.0749490904
 20
8.5565784905
 30
0.0
 10
11.0575804446
 20
8.5395393604
 30
0.0
 10
11.0393374209
 20
8.5234351229
 30
0.0
 10
11.0202628834
 20
8.5083062
 30
0.0
 10
11.0004050348
 20
8.4941863971
 30
0.0
 10
10.9798109343
 20
8.4811106567
 30
0.0
 10
10.9585291132
 20
8.4691124281
 30
0.0
 10
10.9366126565
 20
8.4582177628
 30
0.0
 10
10.9141129197
 20
8.4484535746
 30
0.0
 10
10.8833750151
 20
8.4369641195
 30
0.0
 10
10.8437407582
 20
8.4255402403
 30
0.0
 10
10.8030322316
 20
8.4181814746
 30
0.0
 10
10.7700018268
 20
8.4147434905
 30
0.0
 10
10.7366245073
 20
8.412947089
 30
0.0
 10
10.7114747016
 20
8.413461555
 30
0.0
 10
10.694756352
 20
8.4146209765
 30
0.0
  0
SPLINE
  5
369
100
AcDbEntity
  8
0
100
AcDbSpline
 62
7
  6
CONTINUOUS
 70
0
 71
3
 72
48
 73
44
 74
0
 42
0.0000001
 43
0.0000001
 44
0.0000000001
 40
0.0
 40
0.0
 40
0.0
 40
0.0
 40
0.0310641289
 40
0.0466623032
 40
0.0622976282
 40
0.0779662267
 40
0.0936665963
 40
0.1093984811
 40
0.1251614885
 40
0.1567739125
 40
0.1884967449
 40
0.2043964948
 40
0.2203175331
 40
0.2522108023
 40
0.2681828666
 40
0.2841674683
 40
0.3161605366
 40
0.3481743355
 40
0.380188979
 40
0.4121843742
 40
0.4441409293
 40
0.4760396708
 40
0.5078625487
 40
0.5395930816
 40
0.5712161079
 40
0.6027188151
 40
0.6184237047
 40
0.6340946027
 40
0.6653263084
 40
0.6808901082
 40
0.6964169838
 40
0.7273545292
 40
0.7427697494
 40
0.7581479226
 40
0.7887904552
 40
0.8192923625
 40
0.834495533
 40
0.8496669669
 40
0.8799154749
 40
0.9100562917
 40
0.9401052937
 40
0.9700800588
 40
1.0
 40
1.0
 40
1.0
 40
1.0
 10
10.7030385546
 20
9.479343887
 30
0.0
 10
10.71567323
 20
9.4784676693
 30
0.0
 10
10.73461465
 20
9.4764900684
 30
0.0
 10
10.7597113165
 20
9.4725613421
 30
0.0
 10
10.7784957187
 20
9.4689611577
 30
0.0
 10
10.7971869246
 20
9.4647146626
 30
0.0
 10
10.8157617193
 20
9.4598276669
 30
0.0
 10
10.8341984569
 20
9.454307019
 30
0.0
 10
10.8585890337
 20
9.4461033717
 30
0.0
 10
10.8886243613
 20
9.4342919401
 30
0.0
 10
10.9178613481
 20
9.4204938239
 30
0.0
 10
10.9407198296
 20
9.4082920179
 30
0.0
 10
10.9632240653
 20
9.3953098815
 30
0.0
 10
10.9851031792
 20
9.3812113832
 30
0.0
 10
11.0062731378
 20
9.3660559501
 30
0.0
 10
11.0269699948
 20
9.3501928841
 30
0.0
 10
11.0518749158
 20
9.3290984463
 30
0.0
 10
11.0800634734
 20
9.3018933242
 30
0.0
 10
11.1064276366
 20
9.2729144272
 30
0.0
 10
11.1308439251
 20
9.2423063816
 30
0.0
 10
11.1531889432
 20
9.2102124561
 30
0.0
 10
11.1733609789
 20
9.1767920286
 30
0.0
 10
11.1912557493
 20
9.1422024465
 30
0.0
 10
11.2067933892
 20
9.1066140292
 30
0.0
 10
11.2198922699
 20
9.0701968265
 30
0.0
 10
11.2287369298
 20
9.0392709138
 30
0.0
 10
11.2345328454
 20
9.014294328
 30
0.0
 10
11.2394587608
 20
8.9892447948
 30
0.0
 10
11.2431002457
 20
8.9640148804
 30
0.0
 10
11.2454325755
 20
8.9387088161
 30
0.0
 10
11.2468842824
 20
8.9134572269
 30
0.0
 10
11.2470261319
 20
8.8882048106
 30
0.0
 10
11.2458487147
 20
8.863060171
 30
0.0
 10
11.2437983932
 20
8.8380918387
 30
0.0
 10
11.2396027005
 20
8.8071487149
 30
0.0
 10
11.2332324966
 20
8.7766512434
 30
0.0
 10
11.2268521274
 20
8.7526607273
 30
0.0
 10
11.2196418794
 20
8.7290146439
 30
0.0
 10
11.2090627881
 20
8.7000500315
 30
0.0
 10
11.1939033935
 20
8.6664029909
 30
0.0
 10
11.1763703201
 20
8.634054435
 30
0.0
 10
11.1565433622
 20
8.6031681694
 30
0.0
 10
11.1418496314
 20
8.5836310057
 30
0.0
 10
11.1341595281
 20
8.5741617689
 30
0.0
  0
SPLINE
  5
36A
100
AcDbEntity
  8
0
100
AcDbSpline
 62
7
  6
CONTINUOUS
 70
0
 71
3
 72
26
 73
22
 74
0
 42
0.0000001
 43
0.0000001
 44
0.0000000001
 40
0.0
 40
0.0
 40
0.0
 40
0.0
 40
0.0637763288
 40
0.127342888
 40
0.1906991365
 40
0.253852345
 40
0.2853569163
 40
0.3168132564
 40
0.3795812268
 40
0.4421715818
 40
0.5045965961
 40
0.5668701919
 40
0.6290077774
 40
0.6910261213
 40
0.7219986711
 40
0.7529482414
 40
0.8147830235
 40
0.8765553475
 40
0.9074270132
 40
0.9382907755
 40
1.0
 40
1.0
 40
1.0
 40
1.0
 10
9.3456031616
 20
8.9106389194
 30
0.0
 10
9.3456031616
 20
8.8981415714
 30
0.0
 10
9.3450050028
 20
8.8731837666
 30
0.0
 10
9.3423051136
 20
8.8358987293
 30
0.0
 10
9.3378099267
 20
8.7989097325
 30
0.0
 10
9.3325722204
 20
8.7683784541
 30
0.0
 10
9.3274953653
 20
8.7441905168
 30
0.0
 10
9.3218398178
 20
8.7202088915
 30
0.0
 10
9.3136766614
 20
8.6905699834
 30
0.0
 10
9.3021445923
 20
8.6556106699
 30
0.0
 10
9.2889094325
 20
8.6213632103
 30
0.0
 10
9.2740016768
 20
8.5879069919
 30
0.0
 10
9.2574559143
 20
8.5553195463
 30
0.0
 10
9.2423269142
 20
8.5289369305
 30
0.0
 10
9.229446415
 20
8.5083443327
 30
0.0
 10
9.2160639511
 20
8.4881174236
 30
0.0
 10
9.1983876721
 20
8.4635072192
 30
0.0
 10
9.1794820816
 20
8.4398478224
 30
0.0
 10
9.1636548767
 20
8.4215350361
 30
0.0
 10
9.1473709938
 20
8.4036445778
 30
0.0
 10
9.1346446888
 20
8.3907027277
 30
0.0
 10
9.1259472504
 20
8.3823016584
 30
0.0
  0
SPLINE
  5
36B
100
AcDbEntity
  8
0
100
AcDbSpline
 62
7
  6
CONTINUOUS
 70
0
 71
3
 72
23
 73
19
 74
0
 42
0.0000001
 43
0.0000001
 44
0.0000000001
 40
0.0
 40
0.0
 40
0.0
 40
0.0
 40
0.063776909
 40
0.1273449468
 40
0.1907019575
 40
0.2538561145
 40
0.3168131979
 40
0.3795820804
 40
0.4421733815
 40
0.5045993354
 40
0.5668738682
 40
0.6290123838
 40
0.6910316538
 40
0.75294965
 40
0.8147853622
 40
0.8765586114
 40
0.9382898593
 40
1.0
 40
1.0
 40
1.0
 40
1.0
 10
11.3547289367
 20
8.8930122226
 30
0.0
 10
11.3547289367
 20
8.8826441832
 30
0.0
 10
11.3542326648
 20
8.8619385473
 30
0.0
 10
11.3519928412
 20
8.8310060652
 30
0.0
 10
11.3482634714
 20
8.8003187597
 30
0.0
 10
11.3430535178
 20
8.7699487129
 30
0.0
 10
11.3363745952
 20
8.7399653369
 30
0.0
 10
11.3282421508
 20
8.7104379436
 30
0.0
 10
11.3186748915
 20
8.6814345551
 30
0.0
 10
11.3076947911
 20
8.6530220536
 30
0.0
 10
11.2953270712
 20
8.6252659864
 30
0.0
 10
11.2816001958
 20
8.5982303753
 30
0.0
 10
11.2665458195
 20
8.5719775674
 30
0.0
 10
11.250198606
 20
8.546568108
 30
0.0
 10
11.2325962457
 20
8.5220606921
 30
0.0
 10
11.2137790965
 20
8.4985116813
 30
0.0
 10
11.1937913239
 20
8.4759761177
 30
0.0
 10
11.1797138295
 20
8.4616600235
 30
0.0
 10
11.1724982461
 20
8.4546902751
 30
0.0
  0
SPLINE
  5
36C
100
AcDbEntity
  8
0
100
AcDbSpline
 62
7
  6
CONTINUOUS
 70
0
 71
3
 72
26
 73
22
 74
0
 42
0.0000001
 43
0.0000001
 44
0.0000000001
 40
0.0
 40
0.0
 40
0.0
 40
0.0
 40
0.0637763288
 40
0.127342888
 40
0.1906991365
 40
0.253852345
 40
0.2853569163
 40
0.3168132564
 40
0.3795812268
 40
0.4421715818
 40
0.5045965961
 40
0.5668701919
 40
0.6290077774
 40
0.6910261213
 40
0.7219986711
 40
0.7529482414
 40
0.8147830235
 40
0.8765553475
 40
0.9074270132
 40
0.9382907755
 40
1.0
 40
1.0
 40
1.0
 40
1.0
 10
9.3456031616
 20
6.4958242682
 30
0.0
 10
9.3456031616
 20
6.4833269201
 30
0.0
 10
9.3450050028
 20
6.4583691153
 30
0.0
 10
9.3423051136
 20
6.421084078
 30
0.0
 10
9.3378099267
 20
6.3840950813
 30
0.0
 10
9.3325722204
 20
6.3535638029
 30
0.0
 10
9.3274953653
 20
6.3293758655
 30
0.0
 10
9.3218398178
 20
6.3053942403
 30
0.0
 10
9.3136766614
 20
6.2757553321
 30
0.0
 10
9.3021445923
 20
6.2407960187
 30
0.0
 10
9.2889094325
 20
6.2065485591
 30
0.0
 10
9.2740016768
 20
6.1730923406
 30
0.0
 10
9.2574559143
 20
6.140504895
 30
0.0
 10
9.2423269142
 20
6.1141222793
 30
0.0
 10
9.229446415
 20
6.0935296815
 30
0.0
 10
9.2160639511
 20
6.0733027724
 30
0.0
 10
9.1983876721
 20
6.0486925679
 30
0.0
 10
9.1794820816
 20
6.0250331712
 30
0.0
 10
9.1636548767
 20
6.0067203849
 30
0.0
 10
9.1473709938
 20
5.9888299265
 30
0.0
 10
9.1346446888
 20
5.9758880764
 30
0.0
 10
9.1259472504
 20
5.9674870072
 30
0.0
  0
SPLINE
  5
36D
100
AcDbEntity
  8
0
100
AcDbSpline
 62
7
  6
CONTINUOUS
 70
0
 71
3
 72
26
 73
22
 74
0
 42
0.0000001
 43
0.0000001
 44
0.0000000001
 40
0.0
 40
0.0
 40
0.0
 40
0.0
 40
0.0637763288
 40
0.127342888
 40
0.1906991365
 40
0.253852345
 40
0.2853569163
 40
0.3168132564
 40
0.3795812268
 40
0.4421715818
 40
0.5045965961
 40
0.5668701919
 40
0.6290077774
 40
0.6910261213
 40
0.7219986711
 40
0.7529482414
 40
0.8147830235
 40
0.8765553475
 40
0.9074270132
 40
0.9382907755
 40
1.0
 40
1.0
 40
1.0
 40
1.0
 10
11.4880267086
 20
7.1335102548
 30
0.0
 10
11.4880267086
 20
7.1210129067
 30
0.0
 10
11.4874285498
 20
7.0960551019
 30
0.0
 10
11.4847286606
 20
7.0587700646
 30
0.0
 10
11.4802334737
 20
7.0217810678
 30
0.0
 10
11.4749957674
 20
6.9912497895
 30
0.0
 10
11.4699189123
 20
6.9670618521
 30
0.0
 10
11.4642633648
 20
6.9430802269
 30
0.0
 10
11.4561002084
 20
6.9134413187
 30
0.0
 10
11.4445681394
 20
6.8784820053
 30
0.0
 10
11.4313329796
 20
6.8442345456
 30
0.0
 10
11.4164252238
 20
6.8107783272
 30
0.0
 10
11.3998794613
 20
6.7781908816
 30
0.0
 10
11.3847504612
 20
6.7518082658
 30
0.0
 10
11.3718699621
 20
6.7312156681
 30
0.0
 10
11.3584874981
 20
6.7109887589
 30
0.0
 10
11.3408112191
 20
6.6863785545
 30
0.0
 10
11.3219056286
 20
6.6627191577
 30
0.0
 10
11.3060784237
 20
6.6444063714
 30
0.0
 10
11.2897945408
 20
6.6265159131
 30
0.0
 10
11.2770682359
 20
6.613574063
 30
0.0
 10
11.2683707974
 20
6.6051729937
 30
0.0
  0
SPLINE
  5
36E
100
AcDbEntity
  8
0
100
AcDbSpline
 62
7
  6
CONTINUOUS
 70
0
 71
3
 72
56
 73
52
 74
0
 42
0.0000001
 43
0.0000001
 44
0.0000000001
 40
0.0
 40
0.0
 40
0.0
 40
0.0
 40
0.0417736882
 40
0.084036569
 40
0.126657816
 40
0.1695056114
 40
0.2124469876
 40
0.2553487175
 40
0.2980776897
 40
0.3405014874
 40
0.382488896
 40
0.4239104382
 40
0.4646389059
 40
0.5045499007
 40
0.5435223862
 40
0.5814392545
 40
0.618187917
 40
0.6536609283
 40
0.6877566583
 40
0.7042583751
 40
0.7203806689
 40
0.736112881
 40
0.7514447564
 40
0.7663667196
 40
0.7808696734
 40
0.7949452813
 40
0.8085857852
 40
0.8217842875
 40
0.8345346038
 40
0.8468315409
 40
0.8586708034
 40
0.870049268
 40
0.8809649654
 40
0.8914173597
 40
0.9014074321
 40
0.9109379838
 40
0.9200138552
 40
0.928642284
 40
0.9368332998
 40
0.9446001777
 40
0.9519600405
 40
0.9589344314
 40
0.9655500921
 40
0.9718395715
 40
0.9778419465
 40
0.9836030969
 40
0.9891757603
 40
0.9919106346
 40
0.9946208937
 40
0.9973146057
 40
1.0
 40
1.0
 40
1.0
 40
1.0
 10
13.3554448544
 20
9.9058488355
 30
0.0
 10
13.3554448544
 20
9.9209600442
 30
0.0
 10
13.3556806096
 20
9.9513598967
 30
0.0
 10
13.3567228141
 20
9.9971668145
 30
0.0
 10
13.358452643
 20
10.0433418164
 30
0.0
 10
13.3608643911
 20
10.0897319419
 30
0.0
 10
13.3639501133
 20
10.1361837992
 30
0.0
 10
13.3676995965
 20
10.1825436749
 30
0.0
 10
13.3721004264
 20
10.2286582042
 30
0.0
 10
13.3771380115
 20
10.2743748251
 30
0.0
 10
13.3827956392
 20
10.3195423057
 30
0.0
 10
13.3890545268
 20
10.3640112423
 30
0.0
 10
13.395893884
 20
10.4076345608
 30
0.0
 10
13.4032909804
 20
10.4502680067
 30
0.0
 10
13.4112212181
 20
10.4917706364
 30
0.0
 10
13.419658214
 20
10.532005269
 30
0.0
 10
13.4285738776
 20
10.5708390385
 30
0.0
 10
13.4379385303
 20
10.6081435436
 30
0.0
 10
13.4461776537
 20
10.6381718457
 30
0.0
 10
13.4529822335
 20
10.66132849
 30
0.0
 10
13.4581227076
 20
10.6780490089
 30
0.0
 10
13.4633514208
 20
10.6942981707
 30
0.0
 10
13.4686641705
 20
10.7100625566
 30
0.0
 10
13.4740564395
 20
10.7253291575
 30
0.0
 10
13.4795238624
 20
10.7400853591
 30
0.0
 10
13.4850618056
 20
10.7543190036
 30
0.0
 10
13.4906657788
 20
10.7680183407
 30
0.0
 10
13.4963310474
 20
10.7811721043
 30
0.0
 10
13.5020530124
 20
10.7937694527
 30
0.0
 10
13.5078268624
 20
10.8058000535
 30
0.0
 10
13.5136479084
 20
10.8172540168
 30
0.0
 10
13.5195112915
 20
10.8281219833
 30
0.0
 10
13.5254122583
 20
10.8383950576
 30
0.0
 10
13.531345941
 20
10.8480648888
 30
0.0
 10
13.5373075584
 20
10.8571236147
 30
0.0
 10
13.5432922881
 20
10.8655639197
 30
0.0
 10
13.5492953793
 20
10.8733790023
 30
0.0
 10
13.5553121331
 20
10.8805625843
 30
0.0
 10
13.5613379162
 20
10.8871089188
 30
0.0
 10
13.5673682582
 20
10.8930127049
 30
0.0
 10
13.573398752
 20
10.8982691544
 30
0.0
 10
13.5794252413
 20
10.9028737477
 30
0.0
 10
13.5854435913
 20
10.9068223849
 30
0.0
 10
13.5914498079
 20
10.9101109297
 30
0.0
 10
13.5974398315
 20
10.9127355501
 30
0.0
 10
13.603408666
 20
10.9146921293
 30
0.0
 10
13.6083934454
 20
10.915769716
 30
0.0
 10
13.6123471547
 20
10.9162863437
 30
0.0
 10
13.615284898
 20
10.9165039203
 30
0.0
 10
13.6182122226
 20
10.9165537566
 30
0.0
 10
13.6201577435
 20
10.9164750761
 30
0.0
 10
13.6211268303
 20
10.9164078732
 30
0.0
  0
SPLINE
  5
36F
100
AcDbEntity
  8
0
100
AcDbSpline
 62
7
  6
CONTINUOUS
 70
0
 71
3
 72
52
 73
48
 74
0
 42
0.0000001
 43
0.0000001
 44
0.0000000001
 40
0.0
 40
0.0
 40
0.0
 40
0.0
 40
0.0417736292
 40
0.0840373446
 40
0.1266586052
 40
0.1695067922
 40
0.2124484278
 40
0.2553504556
 40
0.2980797169
 40
0.3405037987
 40
0.3824914834
 40
0.4239132935
 40
0.4646420229
 40
0.5045532747
 40
0.5435260114
 40
0.5814431205
 40
0.6181920046
 40
0.6536652163
 40
0.6877611311
 40
0.7203846817
 40
0.7514482003
 40
0.7663702348
 40
0.7808732728
 40
0.7949489244
 40
0.8085895246
 40
0.8217880475
 40
0.8345384568
 40
0.8468354098
 40
0.8586747416
 40
0.8700532367
 40
0.8809689705
 40
0.8914214137
 40
0.9014114943
 40
0.9109420987
 40
0.920017969
 40
0.9286464346
 40
0.9368374599
 40
0.9446043519
 40
0.9519642384
 40
0.9589386284
 40
0.9655543158
 40
0.9718437976
 40
0.9778461907
 40
0.9836073608
 40
0.9891800399
 40
0.9946230749
 40
1.0
 40
1.0
 40
1.0
 40
1.0
 10
12.7645615144
 20
8.7323615595
 30
0.0
 10
12.7645615144
 20
8.7422677312
 30
0.0
 10
12.7647160754
 20
8.7621966045
 30
0.0
 10
12.7653992826
 20
8.7922256167
 30
0.0
 10
12.7665333091
 20
8.8224960327
 30
0.0
 10
12.7681143351
 20
8.8529073381
 30
0.0
 10
12.7701372083
 20
8.8833591785
 30
0.0
 10
12.7725952047
 20
8.913750696
 30
0.0
 10
12.7754802002
 20
8.9439813815
 30
0.0
 10
12.7787826285
 20
8.9739512114
 30
0.0
 10
12.7824915321
 20
9.0035610453
 30
0.0
 10
12.7865945954
 20
9.0327129414
 30
0.0
 10
12.7910781881
 20
9.0613104857
 30
0.0
 10
12.7959274087
 20
9.089259113
 30
0.0
 10
12.801126133
 20
9.116466424
 30
0.0
 10
12.8066570655
 20
9.1428424943
 30
0.0
 10
12.8125017972
 20
9.1683001884
 30
0.0
 10
12.8186408614
 20
9.1927554389
 30
0.0
 10
12.8250537919
 20
9.2161276245
 30
0.0
 10
12.8317192264
 20
9.2383395583
 30
0.0
 10
12.8375408708
 20
9.2560512612
 30
0.0
 10
12.8423182186
 20
9.2695770572
 30
0.0
 10
12.8459024275
 20
9.2792505702
 30
0.0
 10
12.8495328893
 20
9.2885815005
 30
0.0
 10
12.8532065774
 20
9.2975621765
 30
0.0
 10
12.8569205272
 20
9.3061851783
 30
0.0
 10
12.8606715586
 20
9.3144434382
 30
0.0
 10
12.8644566842
 20
9.3223301402
 30
0.0
 10
12.8682726855
 20
9.3298388403
 30
0.0
 10
12.8721164788
 20
9.3369633752
 30
0.0
 10
12.8759849027
 20
9.3436979239
 30
0.0
 10
12.87987475
 20
9.3500370241
 30
0.0
 10
12.8837829591
 20
9.3559754842
 30
0.0
 10
12.8877062547
 20
9.3615085672
 30
0.0
 10
12.8916416543
 20
9.3666317419
 30
0.0
 10
12.8955859541
 20
9.3713409652
 30
0.0
 10
12.8995362076
 20
9.3756324142
 30
0.0
 10
12.9034894414
 20
9.3795026384
 30
0.0
 10
12.9074427559
 20
9.3829485168
 30
0.0
 10
12.911393484
 20
9.3859670228
 30
0.0
 10
12.9153388254
 20
9.3885555676
 30
0.0
 10
12.9192762717
 20
9.3907113287
 30
0.0
 10
12.9232030104
 20
9.3924318779
 30
0.0
 10
12.9271161026
 20
9.3937145078
 30
0.0
 10
12.9310122762
 20
9.3945567904
 30
0.0
 10
12.9348868158
 20
9.3949567432
 30
0.0
 10
12.9374591838
 20
9.3949273154
 30
0.0
 10
12.9387312089
 20
9.3948390971
 30
0.0
  0
SPLINE
  5
370
100
AcDbEntity
  8
0
100
AcDbSpline
 62
7
  6
CONTINUOUS
 70
0
 71
3
 72
52
 73
48
 74
0
 42
0.0000001
 43
0.0000001
 44
0.0000000001
 40
0.0
 40
0.0
 40
0.0
 40
0.0
 40
0.0417736292
 40
0.0840373446
 40
0.1266586052
 40
0.1695067922
 40
0.2124484278
 40
0.2553504556
 40
0.2980797169
 40
0.3405037987
 40
0.3824914834
 40
0.4239132935
 40
0.4646420229
 40
0.5045532747
 40
0.5435260114
 40
0.5814431205
 40
0.6181920046
 40
0.6536652163
 40
0.6877611311
 40
0.7203846817
 40
0.7514482003
 40
0.7663702348
 40
0.7808732728
 40
0.7949489244
 40
0.8085895246
 40
0.8217880475
 40
0.8345384568
 40
0.8468354098
 40
0.8586747416
 40
0.8700532367
 40
0.8809689705
 40
0.8914214137
 40
0.9014114943
 40
0.9109420987
 40
0.920017969
 40
0.9286464346
 40
0.9368374599
 40
0.9446043519
 40
0.9519642384
 40
0.9589386284
 40
0.9655543158
 40
0.9718437976
 40
0.9778461907
 40
0.9836073608
 40
0.9891800399
 40
0.9946230749
 40
1.0
 40
1.0
 40
1.0
 40
1.0
 10
12.7645615144
 20
5.9543587885
 30
0.0
 10
12.7645615144
 20
5.9642649602
 30
0.0
 10
12.7647160754
 20
5.9841938335
 30
0.0
 10
12.7653992826
 20
6.0142228457
 30
0.0
 10
12.7665333091
 20
6.0444932617
 30
0.0
 10
12.7681143351
 20
6.0749045671
 30
0.0
 10
12.7701372083
 20
6.1053564075
 30
0.0
 10
12.7725952047
 20
6.135747925
 30
0.0
 10
12.7754802002
 20
6.1659786105
 30
0.0
 10
12.7787826285
 20
6.1959484404
 30
0.0
 10
12.7824915321
 20
6.2255582743
 30
0.0
 10
12.7865945954
 20
6.2547101704
 30
0.0
 10
12.7910781881
 20
6.2833077147
 30
0.0
 10
12.7959274087
 20
6.311256342
 30
0.0
 10
12.801126133
 20
6.338463653
 30
0.0
 10
12.8066570655
 20
6.3648397233
 30
0.0
 10
12.8125017972
 20
6.3902974174
 30
0.0
 10
12.8186408614
 20
6.4147526678
 30
0.0
 10
12.8250537919
 20
6.4381248535
 30
0.0
 10
12.8317192264
 20
6.4603367873
 30
0.0
 10
12.8375408708
 20
6.4780484902
 30
0.0
 10
12.8423182186
 20
6.4915742862
 30
0.0
 10
12.8459024275
 20
6.5012477992
 30
0.0
 10
12.8495328893
 20
6.5105787295
 30
0.0
 10
12.8532065774
 20
6.5195594055
 30
0.0
 10
12.8569205272
 20
6.5281824073
 30
0.0
 10
12.8606715586
 20
6.5364406672
 30
0.0
 10
12.8644566842
 20
6.5443273692
 30
0.0
 10
12.8682726855
 20
6.5518360693
 30
0.0
 10
12.8721164788
 20
6.5589606042
 30
0.0
 10
12.8759849027
 20
6.5656951529
 30
0.0
 10
12.87987475
 20
6.5720342531
 30
0.0
 10
12.8837829591
 20
6.5779727132
 30
0.0
 10
12.8877062547
 20
6.5835057962
 30
0.0
 10
12.8916416543
 20
6.5886289709
 30
0.0
 10
12.8955859541
 20
6.5933381942
 30
0.0
 10
12.8995362076
 20
6.5976296432
 30
0.0
 10
12.9034894414
 20
6.6014998674
 30
0.0
 10
12.9074427559
 20
6.6049457458
 30
0.0
 10
12.911393484
 20
6.6079642518
 30
0.0
 10
12.9153388254
 20
6.6105527966
 30
0.0
 10
12.9192762717
 20
6.6127085577
 30
0.0
 10
12.9232030104
 20
6.6144291069
 30
0.0
 10
12.9271161026
 20
6.6157117368
 30
0.0
 10
12.9310122762
 20
6.6165540194
 30
0.0
 10
12.9348868158
 20
6.6169539722
 30
0.0
 10
12.9374591838
 20
6.6169245444
 30
0.0
 10
12.9387312089
 20
6.6168363261
 30
0.0
  0
SPLINE
  5
371
100
AcDbEntity
  8
0
100
AcDbSpline
 62
7
  6
CONTINUOUS
 70
0
 71
3
 72
51
 73
47
 74
0
 42
0.0000001
 43
0.0000001
 44
0.0000000001
 40
0.0
 40
0.0
 40
0.0
 40
0.0
 40
0.014971649
 40
0.0299463566
 40
0.0449271647
 40
0.0599170747
 40
0.0749190347
 40
0.0899359204
 40
0.1049705134
 40
0.1200254923
 40
0.1351034113
 40
0.1502066853
 40
0.1653375821
 40
0.1804982021
 40
0.1956904707
 40
0.2109161316
 40
0.2261767282
 40
0.2414736061
 40
0.2568079029
 40
0.272180538
 40
0.2875922205
 40
0.3030434356
 40
0.3185344485
 40
0.3340653085
 40
0.34963584
 40
0.365245656
 40
0.3965753731
 40
0.4280524305
 40
0.4596664495
 40
0.4914041969
 40
0.5232498909
 40
0.5551855477
 40
0.5871913667
 40
0.6192461407
 40
0.6513276859
 40
0.683413286
 40
0.7154801443
 40
0.7475058366
 40
0.779468758
 40
0.8113485605
 40
0.8431265712
 40
0.8747861831
 40
0.9063132139
 40
0.9376962973
 40
0.9689267507
 40
1.0
 40
1.0
 40
1.0
 40
1.0
 10
8.0004591415
 20
9.5474954243
 30
0.0
 10
8.0071785977
 20
9.553985912
 30
0.0
 10
8.0208785462
 20
9.5667024536
 30
0.0
 10
8.0421724265
 20
9.5849477034
 30
0.0
 10
8.0641833139
 20
9.6023403399
 30
0.0
 10
8.0868805009
 20
9.6188560094
 30
0.0
 10
8.1102327797
 20
9.6344722168
 30
0.0
 10
8.1342080807
 20
9.6491673001
 30
0.0
 10
8.15877335
 20
9.6629211494
 30
0.0
 10
8.1838947682
 20
9.6757148764
 30
0.0
 10
8.2095378281
 20
9.6875307521
 30
0.0
 10
8.2356671608
 20
9.698352702
 30
0.0
 10
8.2622468534
 20
9.7081657579
 30
0.0
 10
8.2892403351
 20
9.7169564061
 30
0.0
 10
8.3166104215
 20
9.7247127137
 30
0.0
 10
8.3443195033
 20
9.7314238588
 30
0.0
 10
8.372329428
 20
9.7370807343
 30
0.0
 10
8.4006016619
 20
9.7416756148
 30
0.0
 10
8.4290973342
 20
9.7452020494
 30
0.0
 10
8.457777225
 20
9.7476553914
 30
0.0
 10
8.4866019029
 20
9.7490321912
 30
0.0
 10
8.5155317113
 20
9.7493305443
 30
0.0
 10
8.5445269014
 20
9.7485502034
 30
0.0
 10
8.5735474683
 20
9.7466921186
 30
0.0
 10
8.6025539884
 20
9.7437588592
 30
0.0
 10
8.6411993232
 20
9.7384141557
 30
0.0
 10
8.6892760567
 20
9.7290582579
 30
0.0
 10
8.7461938872
 20
9.7136457573
 30
0.0
 10
8.8021050762
 20
9.694118054
 30
0.0
 10
8.8567006441
 20
9.6705831093
 30
0.0
 10
8.9096815165
 20
9.643170434
 30
0.0
 10
8.9607568481
 20
9.6120309189
 30
0.0
 10
9.009646455
 20
9.5773357697
 30
0.0
 10
9.0560820726
 20
9.5392755959
 30
0.0
 10
9.0998088618
 20
9.4980593695
 30
0.0
 10
9.1405868795
 20
9.4539134001
 30
0.0
 10
9.178192301
 20
9.407079994
 30
0.0
 10
9.2124186207
 20
9.3578161393
 30
0.0
 10
9.2430777651
 20
9.3063921222
 30
0.0
 10
9.2700012491
 20
9.2530901287
 30
0.0
 10
9.2930409824
 20
9.1982026666
 30
0.0
 10
9.3120700601
 20
9.142030858
 30
0.0
 10
9.3269835018
 20
9.0848832861
 30
0.0
 10
9.3376988006
 20
9.0270727026
 30
0.0
 10
9.3441567398
 20
8.9689206523
 30
0.0
 10
9.3456031616
 20
8.930028492
 30
0.0
 10
9.3456031616
 20
8.9106389194
 30
0.0
  0
SPLINE
  5
372
100
AcDbEntity
  8
0
100
AcDbSpline
 62
7
  6
CONTINUOUS
 70
0
 71
3
 72
43
 73
39
 74
0
 42
0.0000001
 43
0.0000001
 44
0.0000000001
 40
0.0
 40
0.0
 40
0.0
 40
0.0
 40
0.0303239898
 40
0.045530401
 40
0.0607659342
 40
0.0913223937
 40
0.121997618
 40
0.1373812139
 40
0.1527942605
 40
0.183704641
 40
0.2147285121
 40
0.2458612967
 40
0.2770971121
 40
0.3084288516
 40
0.3398482799
 40
0.3713461375
 40
0.402912256
 40
0.4345356823
 40
0.4662048093
 40
0.4979075103
 40
0.5296312779
 40
0.561363366
 40
0.5930909333
 40
0.6248011893
 40
0.6564815403
 40
0.6881197319
 40
0.7197039892
 40
0.7354737542
 40
0.7512259091
 40
0.7826695662
 40
0.8140281743
 40
0.8452931895
 40
0.8764571224
 40
0.9075138606
 40
0.938458003
 40
0.9538882677
 40
0.9692899011
 40
1.0
 40
1.0
 40
1.0
 40
1.0
 10
8.4496509838
 20
9.5744901614
 30
0.0
 10
8.4605683266
 20
9.5761631067
 30
0.0
 10
8.4770375321
 20
9.5782044063
 30
0.0
 10
8.4991001635
 20
9.5799879038
 30
0.0
 10
8.5212897025
 20
9.5811496029
 30
0.0
 10
8.5491552674
 20
9.5814254166
 30
0.0
 10
8.5770461633
 20
9.5801367943
 30
0.0
 10
8.5993519517
 20
9.5781721375
 30
0.0
 10
8.6216798313
 20
9.5755806497
 30
0.0
 10
8.6495205254
 20
9.5711735848
 30
0.0
 10
8.6826766406
 20
9.5640447089
 30
0.0
 10
8.7155108136
 20
9.5550924571
 30
0.0
 10
8.7479197973
 20
9.5443450015
 30
0.0
 10
8.7798025115
 20
9.531835997
 30
0.0
 10
8.8110593043
 20
9.5176046165
 30
0.0
 10
8.8415925403
 20
9.5016953859
 30
0.0
 10
8.8713068403
 20
9.4841580819
 30
0.0
 10
8.9001093967
 20
9.4650475614
 30
0.0
 10
8.9279102467
 20
9.444423576
 30
0.0
 10
8.9546225541
 20
9.4223505908
 30
0.0
 10
8.9801628766
 20
9.3988975815
 30
0.0
 10
9.0044514228
 20
9.3741378275
 30
0.0
 10
9.0274123036
 20
9.3481486646
 30
0.0
 10
9.0489737614
 20
9.3210113291
 30
0.0
 10
9.0690684995
 20
9.2928104552
 30
0.0
 10
9.0876334404
 20
9.2636346758
 30
0.0
 10
9.1017892035
 20
9.2385704037
 30
0.0
 10
9.1122922869
 20
9.21812298
 30
0.0
 10
9.1222289113
 20
9.1974511905
 30
0.0
 10
9.1335960461
 20
9.1711786624
 30
0.0
 10
9.1455125296
 20
9.1390390291
 30
0.0
 10
9.1556604588
 20
9.1064040251
 30
0.0
 10
9.1640078493
 20
9.0733759561
 30
0.0
 10
9.1705284002
 20
9.0400585983
 30
0.0
 10
9.1744267664
 20
9.0121114103
 30
0.0
 10
9.1766116739
 20
8.9897147152
 30
0.0
 10
9.1781707491
 20
8.9673518013
 30
0.0
 10
9.1786416493
 20
8.950551882
 30
0.0
 10
9.1786416493
 20
8.9393664732
 30
0.0
  0
SPLINE
  5
373
100
AcDbEntity
  8
0
100
AcDbSpline
 62
7
  6
CONTINUOUS
 70
0
 71
3
 72
45
 73
41
 74
0
 42
0.0000001
 43
0.0000001
 44
0.0000000001
 40
0.0
 40
0.0
 40
0.0
 40
0.0
 40
0.0149721389
 40
0.029947335
 40
0.0449286323
 40
0.0599190314
 40
0.0749214812
 40
0.0899388568
 40
0.1049739399
 40
0.1200294111
 40
0.13510782
 40
0.1502115886
 40
0.1653429771
 40
0.1805040922
 40
0.2109173723
 40
0.24147028
 40
0.2721727304
 40
0.303031234
 40
0.3340488013
 40
0.36522493
 40
0.3965556684
 40
0.4280337518
 40
0.4596488018
 40
0.4913875846
 40
0.5232343172
 40
0.555171016
 40
0.5871778802
 40
0.6192337016
 40
0.6513162951
 40
0.6834029437
 40
0.7154708497
 40
0.7474975879
 40
0.7794615532
 40
0.8113423973
 40
0.8431214438
 40
0.8747820955
 40
0.9063101417
 40
0.9376942701
 40
0.9689257752
 40
1.0
 40
1.0
 40
1.0
 40
1.0
 10
8.2946779501
 20
9.4145904725
 30
0.0
 10
8.2989087295
 20
9.4186770699
 30
0.0
 10
8.3075345724
 20
9.4266838448
 30
0.0
 10
8.3209418641
 20
9.4381715708
 30
0.0
 10
8.3348005332
 20
9.4491225516
 30
0.0
 10
8.3490913713
 20
9.459521299
 30
0.0
 10
8.3637946292
 20
9.4693537856
 30
0.0
 10
8.3788902156
 20
9.478606217
 30
0.0
 10
8.3943571939
 20
9.4872661468
 30
0.0
 10
8.4101744236
 20
9.4953213863
 30
0.0
 10
8.4263200277
 20
9.5027611241
 30
0.0
 10
8.4427717994
 20
9.509574896
 30
0.0
 10
8.4595073628
 20
9.5157535692
 30
0.0
 10
8.4821894689
 20
9.5231403664
 30
0.0
 10
8.5111488126
 20
9.5307433626
 30
0.0
 10
8.5466144825
 20
9.5371982734
 30
0.0
 10
8.5826423186
 20
9.5409612223
 30
0.0
 10
8.6190327118
 20
9.5420114854
 30
0.0
 10
8.6555858883
 20
9.5403438937
 30
0.0
 10
8.6921008187
 20
9.5359680354
 30
0.0
 10
8.7283769022
 20
9.5289083984
 30
0.0
 10
8.7642148967
 20
9.5192041605
 30
0.0
 10
8.7994180409
 20
9.5069089774
 30
0.0
 10
8.833793108
 20
9.4920906746
 30
0.0
 10
8.8671514536
 20
9.474830872
 30
0.0
 10
8.8993100361
 20
9.4552245325
 30
0.0
 10
8.9300924073
 20
9.4333794423
 30
0.0
 10
8.9593296684
 20
9.4094156221
 30
0.0
 10
8.9868613849
 20
9.3834646717
 30
0.0
 10
9.0125364613
 20
9.3556690588
 30
0.0
 10
9.0362139607
 20
9.3261813416
 30
0.0
 10
9.0577638686
 20
9.2951633371
 30
0.0
 10
9.0770678013
 20
9.2627852455
 30
0.0
 10
9.0940196469
 20
9.2292247206
 30
0.0
 10
9.1085261578
 20
9.1946659295
 30
0.0
 10
9.1205074229
 20
9.1592984767
 30
0.0
 10
9.1298974087
 20
9.1233166584
 30
0.0
 10
9.1366440969
 20
9.0869173699
 30
0.0
 10
9.1407102046
 20
9.0503030912
 30
0.0
 10
9.1416209117
 20
9.0258154249
 30
0.0
 10
9.1416209117
 20
9.0136071845
 30
0.0
  0
SPLINE
  5
374
100
AcDbEntity
  8
0
100
AcDbSpline
 62
7
  6
CONTINUOUS
 70
0
 71
3
 72
23
 73
19
 74
0
 42
0.0000001
 43
0.0000001
 44
0.0000000001
 40
0.0
 40
0.0
 40
0.0
 40
0.0
 40
0.0617101425
 40
0.1234413926
 40
0.1852146455
 40
0.2470503552
 40
0.3089683456
 40
0.3709876175
 40
0.433126137
 40
0.4954006583
 40
0.5578266139
 40
0.620417918
 40
0.6831867633
 40
0.7461439667
 40
0.8092979859
 40
0.8726548131
 40
0.9362237855
 40
1.0
 40
1.0
 40
1.0
 40
1.0
 10
9.0033194721
 20
8.6809508278
 30
0.0
 10
9.008795638
 20
8.6862403698
 30
0.0
 10
9.019479539
 20
8.6971052852
 30
0.0
 10
9.0346489985
 20
8.714208176
 30
0.0
 10
9.0489299938
 20
8.7320802457
 30
0.0
 10
9.0622890338
 20
8.7506796898
 30
0.0
 10
9.0746955506
 20
8.7699636954
 30
0.0
 10
9.0861208867
 20
8.7898877575
 30
0.0
 10
9.0965386554
 20
8.8104059607
 30
0.0
 10
9.105924961
 20
8.8314709191
 30
0.0
 10
9.1142582119
 20
8.8530340503
 30
0.0
 10
9.1215191332
 20
8.8750456537
 30
0.0
 10
9.1276911144
 20
8.8974549594
 30
0.0
 10
9.1327599878
 20
8.9202103031
 30
0.0
 10
9.1367140525
 20
8.9432590809
 30
0.0
 10
9.1395444041
 20
8.9665487486
 30
0.0
 10
9.1412442372
 20
8.9900244218
 30
0.0
 10
9.1416209117
 20
9.0057386288
 30
0.0
 10
9.1416209117
 20
9.0136071845
 30
0.0
  0
SPLINE
  5
375
100
AcDbEntity
  8
0
100
AcDbSpline
 62
7
  6
CONTINUOUS
 70
0
 71
3
 72
46
 73
42
 74
0
 42
0.0000001
 43
0.0000001
 44
0.0000000001
 40
0.0
 40
0.0
 40
0.0
 40
0.0
 40
0.006315901
 40
0.0126707127
 40
0.0191025808
 40
0.0256481471
 40
0.0323420418
 40
0.039216438
 40
0.0536143007
 40
0.0611950826
 40
0.0690568839
 40
0.0772180043
 40
0.085694446
 40
0.094499905
 40
0.1036460391
 40
0.1131428464
 40
0.1229986863
 40
0.1332203494
 40
0.1438134657
 40
0.1547825726
 40
0.1661309915
 40
0.189973408
 40
0.2153529628
 40
0.2422689457
 40
0.2707112921
 40
0.3006624273
 40
0.3320977976
 40
0.3649871768
 40
0.3992952195
 40
0.4349817954
 40
0.4720029071
 40
0.5103105874
 40
0.5498535424
 40
0.5905774295
 40
0.6324248595
 40
0.6753360048
 40
0.7192484167
 40
0.7640976385
 40
0.8098172438
 40
0.903588672
 40
1.0
 40
1.0
 40
1.0
 40
1.0
 10
12.8652574188
 20
5.5573810477
 30
0.0
 10
12.8643599305
 20
5.5574432908
 30
0.0
 10
12.8625636644
 20
5.5576416066
 30
0.0
 10
12.8598893962
 20
5.5581585643
 30
0.0
 10
12.8572330135
 20
5.5588949866
 30
0.0
 10
12.8545960505
 20
5.5598502178
 30
0.0
 10
12.8519795407
 20
5.5610237399
 30
0.0
 10
12.8484663174
 20
5.5629070946
 30
0.0
 10
12.8450484351
 20
5.5652124897
 30
0.0
 10
12.841740853
 20
5.5678841727
 30
0.0
 10
12.8392425065
 20
5.5701366997
 30
0.0
 10
12.836770805
 20
5.5726020564
 30
0.0
 10
12.8343264369
 20
5.5752794384
 30
0.0
 10
12.83191037
 20
5.5781676539
 30
0.0
 10
12.8295234581
 20
5.5812654994
 30
0.0
 10
12.8271666611
 20
5.5845717471
 30
0.0
 10
12.8248409098
 20
5.5880850655
 30
0.0
 10
12.8225470634
 20
5.59180399
 30
0.0
 10
12.8202860568
 20
5.5957270276
 30
0.0
 10
12.818058811
 20
5.5998526221
 30
0.0
 10
12.8150863039
 20
5.605718109
 30
0.0
 10
12.8114715666
 20
5.6135557548
 30
0.0
 10
12.8073512704
 20
5.6235907223
 30
0.0
 10
12.8033864429
 20
5.6343886782
 30
0.0
 10
12.7995834984
 20
5.6459319899
 30
0.0
 10
12.795948779
 20
5.6582020455
 30
0.0
 10
12.7924882203
 20
5.6711788374
 30
0.0
 10
12.7892075874
 20
5.6848411795
 30
0.0
 10
12.7861123707
 20
5.6991666998
 30
0.0
 10
12.7832076494
 20
5.7141318911
 30
0.0
 10
12.7804983398
 20
5.7297121707
 30
0.0
 10
12.7779889074
 20
5.7458819129
 30
0.0
 10
12.7756835342
 20
5.7626145037
 30
0.0
 10
12.7735861076
 20
5.7798823889
 30
0.0
 10
12.7717000562
 20
5.797657119
 30
0.0
 10
12.7700285822
 20
5.8159093902
 30
0.0
 10
12.7685744469
 20
5.8346091151
 30
0.0
 10
12.7673400347
 20
5.8537255049
 30
0.0
 10
12.7659786077
 20
5.8799484162
 30
0.0
 10
12.7648524509
 20
5.9135350338
 30
0.0
 10
12.7645615144
 20
5.9406258493
 30
0.0
 10
12.7645615144
 20
5.9543587885
 30
0.0
  0
SPLINE
  5
376
100
AcDbEntity
  8
0
100
AcDbSpline
 62
7
  6
CONTINUOUS
 70
0
 71
3
 72
46
 73
42
 74
0
 42
0.0000001
 43
0.0000001
 44
0.0000000001
 40
0.0
 40
0.0
 40
0.0
 40
0.0
 40
0.006315901
 40
0.0126707127
 40
0.0191025808
 40
0.0256481471
 40
0.0323420418
 40
0.039216438
 40
0.0536143007
 40
0.0611950826
 40
0.0690568839
 40
0.0772180043
 40
0.085694446
 40
0.094499905
 40
0.1036460391
 40
0.1131428464
 40
0.1229986863
 40
0.1332203494
 40
0.1438134657
 40
0.1547825726
 40
0.1661309915
 40
0.189973408
 40
0.2153529628
 40
0.2422689457
 40
0.2707112921
 40
0.3006624273
 40
0.3320977976
 40
0.3649871768
 40
0.3992952195
 40
0.4349817954
 40
0.4720029071
 40
0.5103105874
 40
0.5498535424
 40
0.5905774295
 40
0.6324248595
 40
0.6753360048
 40
0.7192484167
 40
0.7640976385
 40
0.8098172438
 40
0.903588672
 40
1.0
 40
1.0
 40
1.0
 40
1.0
 10
12.8652574188
 20
8.3353838187
 30
0.0
 10
12.8643599305
 20
8.3354460618
 30
0.0
 10
12.8625636644
 20
8.3356443776
 30
0.0
 10
12.8598893962
 20
8.3361613353
 30
0.0
 10
12.8572330135
 20
8.3368977576
 30
0.0
 10
12.8545960505
 20
8.3378529888
 30
0.0
 10
12.8519795407
 20
8.3390265109
 30
0.0
 10
12.8484663174
 20
8.3409098656
 30
0.0
 10
12.8450484351
 20
8.3432152607
 30
0.0
 10
12.841740853
 20
8.3458869437
 30
0.0
 10
12.8392425065
 20
8.3481394707
 30
0.0
 10
12.836770805
 20
8.3506048274
 30
0.0
 10
12.8343264369
 20
8.3532822094
 30
0.0
 10
12.83191037
 20
8.3561704249
 30
0.0
 10
12.8295234581
 20
8.3592682704
 30
0.0
 10
12.8271666611
 20
8.3625745181
 30
0.0
 10
12.8248409098
 20
8.3660878365
 30
0.0
 10
12.8225470634
 20
8.369806761
 30
0.0
 10
12.8202860568
 20
8.3737297986
 30
0.0
 10
12.818058811
 20
8.3778553931
 30
0.0
 10
12.8150863039
 20
8.38372088
 30
0.0
 10
12.8114715666
 20
8.3915585258
 30
0.0
 10
12.8073512704
 20
8.4015934933
 30
0.0
 10
12.8033864429
 20
8.4123914492
 30
0.0
 10
12.7995834984
 20
8.4239347609
 30
0.0
 10
12.795948779
 20
8.4362048165
 30
0.0
 10
12.7924882203
 20
8.4491816084
 30
0.0
 10
12.7892075874
 20
8.4628439505
 30
0.0
 10
12.7861123707
 20
8.4771694708
 30
0.0
 10
12.7832076494
 20
8.4921346621
 30
0.0
 10
12.7804983398
 20
8.5077149417
 30
0.0
 10
12.7779889074
 20
8.5238846839
 30
0.0
 10
12.7756835342
 20
8.5406172747
 30
0.0
 10
12.7735861076
 20
8.5578851599
 30
0.0
 10
12.7717000562
 20
8.57565989
 30
0.0
 10
12.7700285822
 20
8.5939121612
 30
0.0
 10
12.7685744469
 20
8.6126118861
 30
0.0
 10
12.7673400347
 20
8.6317282759
 30
0.0
 10
12.7659786077
 20
8.6579511872
 30
0.0
 10
12.7648524509
 20
8.6915378048
 30
0.0
 10
12.7645615144
 20
8.7186286203
 30
0.0
 10
12.7645615144
 20
8.7323615595
 30
0.0
  0
SPLINE
  5
377
100
AcDbEntity
  8
0
100
AcDbSpline
 62
7
  6
CONTINUOUS
 70
0
 71
3
 72
48
 73
44
 74
0
 42
0.0000001
 43
0.0000001
 44
0.0000000001
 40
0.0
 40
0.0
 40
0.0
 40
0.0
 40
0.0149718897
 40
0.0299468369
 40
0.0449278839
 40
0.0599180336
 40
0.0749202322
 40
0.0899373568
 40
0.1049721887
 40
0.1200274064
 40
0.1351055645
 40
0.1502090774
 40
0.1653402142
 40
0.180501073
 40
0.1956935825
 40
0.2109194836
 40
0.2261803205
 40
0.2414774416
 40
0.2568119786
 40
0.2721848576
 40
0.3030428416
 40
0.3340598877
 40
0.365235493
 40
0.3965657058
 40
0.4280432614
 40
0.4596577825
 40
0.4913960356
 40
0.5232422374
 40
0.5551784039
 40
0.5871847345
 40
0.6192400218
 40
0.6513220815
 40
0.6834081967
 40
0.7154755701
 40
0.7475017768
 40
0.7794652126
 40
0.8113455287
 40
0.8431240501
 40
0.8747841728
 40
0.9063117021
 40
0.9376953081
 40
0.9689262526
 40
1.0
 40
1.0
 40
1.0
 40
1.0
 10
10.2387552398
 20
9.4213649501
 30
0.0
 10
10.2443298971
 20
9.4267496788
 30
0.0
 10
10.2556956928
 20
9.4372998428
 30
0.0
 10
10.2733617377
 20
9.4524367089
 30
0.0
 10
10.2916225434
 20
9.4668663339
 30
0.0
 10
10.3104527891
 20
9.4805683262
 30
0.0
 10
10.3298265037
 20
9.4935241226
 30
0.0
 10
10.3497170948
 20
9.5057157394
 30
0.0
 10
10.3700971629
 20
9.5171264508
 30
0.0
 10
10.3909386184
 20
9.5277406451
 30
0.0
 10
10.4122128649
 20
9.5375435486
 30
0.0
 10
10.4338905227
 20
9.5465219085
 30
0.0
 10
10.4559418432
 20
9.554663191
 30
0.0
 10
10.4783364366
 20
9.5619563176
 30
0.0
 10
10.5010434908
 20
9.5683912896
 30
0.0
 10
10.5240317889
 20
9.5739591307
 30
0.0
 10
10.5472696839
 20
9.5786524191
 30
0.0
 10
10.5707251397
 20
9.5824644869
 30
0.0
 10
10.5943662861
 20
9.585390278
 30
0.0
 10
10.6261275593
 20
9.5881074534
 30
0.0
 10
10.6661412693
 20
9.5892627269
 30
0.0
 10
10.7143043825
 20
9.5870654138
 30
0.0
 10
10.76241857
 20
9.5812997213
 30
0.0
 10
10.8102176567
 20
9.5719977068
 30
0.0
 10
10.8574396126
 20
9.55921105
 30
0.0
 10
10.9038250386
 20
9.5430104248
 30
0.0
 10
10.9491193545
 20
9.5234851818
 30
0.0
 10
10.9930739816
 20
9.5007428747
 30
0.0
 10
11.0354477464
 20
9.4749086534
 30
0.0
 10
11.0760081558
 20
9.4461245479
 30
0.0
 10
11.1145326615
 20
9.4145487019
 30
0.0
 10
11.150809861
 20
9.3803545088
 30
0.0
 10
11.1846406462
 20
9.3437296763
 30
0.0
 10
11.2158393252
 20
9.3048752382
 30
0.0
 10
11.244234592
 20
9.2640044179
 30
0.0
 10
11.2696704576
 20
9.2213414784
 30
0.0
 10
11.292007099
 20
9.1771205005
 30
0.0
 10
11.3111216179
 20
9.1315841435
 30
0.0
 10
11.3269087323
 20
9.084982244
 30
0.0
 10
11.339281438
 20
9.037570825
 30
0.0
 10
11.348171211
 20
8.9896093493
 30
0.0
 10
11.353528943
 20
8.9413645766
 30
0.0
 10
11.3547289367
 20
8.9090984218
 30
0.0
 10
11.3547289367
 20
8.8930122226
 30
0.0
  0
SPLINE
  5
378
100
AcDbEntity
  8
0
100
AcDbSpline
 62
7
  6
CONTINUOUS
 70
0
 71
3
 72
51
 73
47
 74
0
 42
0.0000001
 43
0.0000001
 44
0.0000000001
 40
0.0
 40
0.0
 40
0.0
 40
0.0
 40
0.0063158655
 40
0.0126706318
 40
0.0191024376
 40
0.0256479646
 40
0.0323418026
 40
0.0392161087
 40
0.0536138572
 40
0.0611945363
 40
0.0690562626
 40
0.0772173127
 40
0.0856936584
 40
0.0944990189
 40
0.1036450659
 40
0.113141796
 40
0.1229975191
 40
0.133219072
 40
0.1438121299
 40
0.1547811124
 40
0.1661293961
 40
0.1778595522
 40
0.1899731907
 40
0.2024711797
 40
0.2153538132
 40
0.2286206204
 40
0.2422705968
 40
0.270712786
 40
0.3006636547
 40
0.3320987777
 40
0.3649879575
 40
0.3992957302
 40
0.4349820786
 40
0.4720029295
 40
0.5103103706
 40
0.549853079
 40
0.5905766853
 40
0.63242389
 40
0.6753347462
 40
0.7192469347
 40
0.7640958651
 40
0.8098150804
 40
0.8563358892
 40
0.903587821
 40
0.9515017896
 40
1.0
 40
1.0
 40
1.0
 40
1.0
 10
13.5090493854
 20
9.3002894876
 30
0.0
 10
13.5076803316
 20
9.3003844268
 30
0.0
 10
13.5049402639
 20
9.3006869747
 30
0.0
 10
13.5008608602
 20
9.3014754841
 30
0.0
 10
13.4968087145
 20
9.3025987238
 30
0.0
 10
13.4927862384
 20
9.3040558881
 30
0.0
 10
13.4887949443
 20
9.3058459666
 30
0.0
 10
13.4834357265
 20
9.3087187496
 30
0.0
 10
13.4782220514
 20
9.3122354921
 30
0.0
 10
13.4731765238
 20
9.3163108407
 30
0.0
 10
13.4693654858
 20
9.3197468806
 30
0.0
 10
13.4655950894
 20
9.3235075748
 30
0.0
 10
13.4618663691
 20
9.3275916776
 30
0.0
 10
13.4581808266
 20
9.331997396
 30
0.0
 10
13.4545397604
 20
9.3367229006
 30
0.0
 10
13.4509446489
 20
9.3417663165
 30
0.0
 10
13.4473968636
 20
9.3471255786
 30
0.0
 10
13.4438977508
 20
9.3527984874
 30
0.0
 10
13.4404487729
 20
9.3587827873
 30
0.0
 10
13.437051275
 20
9.3650760266
 30
0.0
 10
13.43370659
 20
9.371675632
 30
0.0
 10
13.4304161446
 20
9.3785789509
 30
0.0
 10
13.4271812332
 20
9.3857831451
 30
0.0
 10
13.424003152
 20
9.3932852659
 30
0.0
 10
13.4208832772
 20
9.4010822681
 30
0.0
 10
13.4178228084
 20
9.4091709497
 30
0.0
 10
13.413767462
 20
9.4204959567
 30
0.0
 10
13.408868485
 20
9.4353666155
 30
0.0
 10
13.403323937
 20
9.4540835156
 30
0.0
 10
13.3980450916
 20
9.4738786603
 30
0.0
 10
13.3930407427
 20
9.4947195278
 30
0.0
 10
13.3883191771
 20
9.5165720363
 30
0.0
 10
13.3838882462
 20
9.5394003145
 30
0.0
 10
13.3797553687
 20
9.563166872
 30
0.0
 10
13.3759274105
 20
9.5878326163
 30
0.0
 10
13.3724107325
 20
9.6133569455
 30
0.0
 10
13.3692112268
 20
9.6396978307
 30
0.0
 10
13.3663342198
 20
9.6668118735
 30
0.0
 10
13.3637844821
 20
9.6946543792
 30
0.0
 10
13.3615662871
 20
9.7231794417
 30
0.0
 10
13.3596833347
 20
9.7523400526
 30
0.0
 10
13.358138752
 20
9.7820880904
 30
0.0
 10
13.3569351227
 20
9.8123743871
 30
0.0
 10
13.356074443
 20
9.8431494225
 30
0.0
 10
13.3555582255
 20
9.8743618154
 30
0.0
 10
13.3554448544
 20
9.8953109104
 30
0.0
 10
13.3554448544
 20
9.9058488355
 30
0.0
  0
SPLINE
  5
379
100
AcDbEntity
  8
0
100
AcDbSpline
 62
7
  6
CONTINUOUS
 70
0
 71
3
 72
23
 73
19
 74
0
 42
0.0000001
 43
0.0000001
 44
0.0000000001
 40
0.0
 40
0.0
 40
0.0
 40
0.0
 40
0.0617101425
 40
0.1234413926
 40
0.1852146455
 40
0.2470503552
 40
0.3089683456
 40
0.3709876175
 40
0.433126137
 40
0.4954006583
 40
0.5578266139
 40
0.620417918
 40
0.6831867633
 40
0.7461439667
 40
0.8092979859
 40
0.8726548131
 40
0.9362237855
 40
1.0
 40
1.0
 40
1.0
 40
1.0
 10
11.1457430191
 20
6.9038221631
 30
0.0
 10
11.151219185
 20
6.9091117051
 30
0.0
 10
11.161903086
 20
6.9199766205
 30
0.0
 10
11.1770725455
 20
6.9370795114
 30
0.0
 10
11.1913535408
 20
6.954951581
 30
0.0
 10
11.2047125808
 20
6.9735510252
 30
0.0
 10
11.2171190976
 20
6.9928350307
 30
0.0
 10
11.2285444337
 20
7.0127590928
 30
0.0
 10
11.2389622024
 20
7.0332772961
 30
0.0
 10
11.248348508
 20
7.0543422545
 30
0.0
 10
11.2566817589
 20
7.0759053856
 30
0.0
 10
11.2639426802
 20
7.097916989
 30
0.0
 10
11.2701146614
 20
7.1203262947
 30
0.0
 10
11.2751835349
 20
7.1430816385
 30
0.0
 10
11.2791375995
 20
7.1661304163
 30
0.0
 10
11.2819679511
 20
7.1894200839
 30
0.0
 10
11.2836677843
 20
7.2128957572
 30
0.0
 10
11.2840444587
 20
7.2286099642
 30
0.0
 10
11.2840444587
 20
7.2364785198
 30
0.0
  0
SPLINE
  5
37A
100
AcDbEntity
  8
0
100
AcDbSpline
 62
7
  6
CONTINUOUS
 70
0
 71
3
 72
51
 73
47
 74
0
 42
0.0000001
 43
0.0000001
 44
0.0000000001
 40
0.0
 40
0.0
 40
0.0
 40
0.0
 40
0.014971649
 40
0.0299463566
 40
0.0449271647
 40
0.0599170747
 40
0.0749190347
 40
0.0899359204
 40
0.1049705134
 40
0.1200254923
 40
0.1351034113
 40
0.1502066853
 40
0.1653375821
 40
0.1804982021
 40
0.1956904707
 40
0.2109161316
 40
0.2261767282
 40
0.2414736061
 40
0.2568079029
 40
0.272180538
 40
0.2875922205
 40
0.3030434356
 40
0.3185344485
 40
0.3340653085
 40
0.34963584
 40
0.365245656
 40
0.3965753731
 40
0.4280524305
 40
0.4596664495
 40
0.4914041969
 40
0.5232498909
 40
0.5551855477
 40
0.5871913667
 40
0.6192461407
 40
0.6513276859
 40
0.683413286
 40
0.7154801443
 40
0.7475058366
 40
0.779468758
 40
0.8113485605
 40
0.8431265712
 40
0.8747861831
 40
0.9063132139
 40
0.9376962973
 40
0.9689267507
 40
1.0
 40
1.0
 40
1.0
 40
1.0
 10
8.0004591415
 20
7.1326807731
 30
0.0
 10
8.0071785977
 20
7.1391712608
 30
0.0
 10
8.0208785462
 20
7.1518878023
 30
0.0
 10
8.0421724265
 20
7.1701330522
 30
0.0
 10
8.0641833139
 20
7.1875256887
 30
0.0
 10
8.0868805009
 20
7.2040413582
 30
0.0
 10
8.1102327797
 20
7.2196575656
 30
0.0
 10
8.1342080807
 20
7.2343526488
 30
0.0
 10
8.15877335
 20
7.2481064981
 30
0.0
 10
8.1838947682
 20
7.2609002252
 30
0.0
 10
8.2095378281
 20
7.2727161009
 30
0.0
 10
8.2356671608
 20
7.2835380507
 30
0.0
 10
8.2622468534
 20
7.2933511067
 30
0.0
 10
8.2892403351
 20
7.3021417549
 30
0.0
 10
8.3166104215
 20
7.3098980625
 30
0.0
 10
8.3443195033
 20
7.3166092076
 30
0.0
 10
8.372329428
 20
7.322266083
 30
0.0
 10
8.4006016619
 20
7.3268609635
 30
0.0
 10
8.4290973342
 20
7.3303873981
 30
0.0
 10
8.457777225
 20
7.3328407402
 30
0.0
 10
8.4866019029
 20
7.33421754
 30
0.0
 10
8.5155317113
 20
7.3345158931
 30
0.0
 10
8.5445269014
 20
7.3337355521
 30
0.0
 10
8.5735474683
 20
7.3318774674
 30
0.0
 10
8.6025539884
 20
7.328944208
 30
0.0
 10
8.6411993232
 20
7.3235995045
 30
0.0
 10
8.6892760567
 20
7.3142436066
 30
0.0
 10
8.7461938872
 20
7.298831106
 30
0.0
 10
8.8021050762
 20
7.2793034028
 30
0.0
 10
8.8567006441
 20
7.255768458
 30
0.0
 10
8.9096815165
 20
7.2283557827
 30
0.0
 10
8.9607568481
 20
7.1972162676
 30
0.0
 10
9.009646455
 20
7.1625211184
 30
0.0
 10
9.0560820726
 20
7.1244609447
 30
0.0
 10
9.0998088618
 20
7.0832447183
 30
0.0
 10
9.1405868795
 20
7.0390987489
 30
0.0
 10
9.178192301
 20
6.9922653428
 30
0.0
 10
9.2124186207
 20
6.943001488
 30
0.0
 10
9.2430777651
 20
6.891577471
 30
0.0
 10
9.2700012491
 20
6.8382754775
 30
0.0
 10
9.2930409824
 20
6.7833880154
 30
0.0
 10
9.3120700601
 20
6.7272162068
 30
0.0
 10
9.3269835018
 20
6.6700686348
 30
0.0
 10
9.3376988006
 20
6.6122580514
 30
0.0
 10
9.3441567398
 20
6.5541060011
 30
0.0
 10
9.3456031616
 20
6.5152138408
 30
0.0
 10
9.3456031616
 20
6.4958242682
 30
0.0
  0
SPLINE
  5
37B
100
AcDbEntity
  8
0
100
AcDbSpline
 62
7
  6
CONTINUOUS
 70
0
 71
3
 72
43
 73
39
 74
0
 42
0.0000001
 43
0.0000001
 44
0.0000000001
 40
0.0
 40
0.0
 40
0.0
 40
0.0
 40
0.0303239898
 40
0.045530401
 40
0.0607659342
 40
0.0913223937
 40
0.121997618
 40
0.1373812139
 40
0.1527942605
 40
0.183704641
 40
0.2147285121
 40
0.2458612967
 40
0.2770971121
 40
0.3084288516
 40
0.3398482799
 40
0.3713461375
 40
0.402912256
 40
0.4345356823
 40
0.4662048093
 40
0.4979075103
 40
0.5296312779
 40
0.561363366
 40
0.5930909333
 40
0.6248011893
 40
0.6564815403
 40
0.6881197319
 40
0.7197039892
 40
0.7354737542
 40
0.7512259091
 40
0.7826695662
 40
0.8140281743
 40
0.8452931895
 40
0.8764571224
 40
0.9075138606
 40
0.938458003
 40
0.9538882677
 40
0.9692899011
 40
1.0
 40
1.0
 40
1.0
 40
1.0
 10
8.4496509838
 20
7.1596755101
 30
0.0
 10
8.4605683266
 20
7.1613484554
 30
0.0
 10
8.4770375321
 20
7.163389755
 30
0.0
 10
8.4991001635
 20
7.1651732526
 30
0.0
 10
8.5212897025
 20
7.1663349517
 30
0.0
 10
8.5491552674
 20
7.1666107654
 30
0.0
 10
8.5770461633
 20
7.165322143
 30
0.0
 10
8.5993519517
 20
7.1633574862
 30
0.0
 10
8.6216798313
 20
7.1607659985
 30
0.0
 10
8.6495205254
 20
7.1563589336
 30
0.0
 10
8.6826766406
 20
7.1492300577
 30
0.0
 10
8.7155108136
 20
7.1402778059
 30
0.0
 10
8.7479197973
 20
7.1295303503
 30
0.0
 10
8.7798025115
 20
7.1170213458
 30
0.0
 10
8.8110593043
 20
7.1027899652
 30
0.0
 10
8.8415925403
 20
7.0868807347
 30
0.0
 10
8.8713068403
 20
7.0693434307
 30
0.0
 10
8.9001093967
 20
7.0502329101
 30
0.0
 10
8.9279102467
 20
7.0296089248
 30
0.0
 10
8.9546225541
 20
7.0075359395
 30
0.0
 10
8.9801628766
 20
6.9840829303
 30
0.0
 10
9.0044514228
 20
6.9593231763
 30
0.0
 10
9.0274123036
 20
6.9333340134
 30
0.0
 10
9.0489737614
 20
6.9061966779
 30
0.0
 10
9.0690684995
 20
6.8779958039
 30
0.0
 10
9.0876334404
 20
6.8488200246
 30
0.0
 10
9.1017892035
 20
6.8237557525
 30
0.0
 10
9.1122922869
 20
6.8033083287
 30
0.0
 10
9.1222289113
 20
6.7826365392
 30
0.0
 10
9.1335960461
 20
6.7563640112
 30
0.0
 10
9.1455125296
 20
6.7242243779
 30
0.0
 10
9.1556604588
 20
6.6915893739
 30
0.0
 10
9.1640078493
 20
6.6585613048
 30
0.0
 10
9.1705284002
 20
6.6252439471
 30
0.0
 10
9.1744267664
 20
6.597296759
 30
0.0
 10
9.1766116739
 20
6.574900064
 30
0.0
 10
9.1781707491
 20
6.55253715
 30
0.0
 10
9.1786416493
 20
6.5357372308
 30
0.0
 10
9.1786416493
 20
6.524551822
 30
0.0
  0
SPLINE
  5
37C
100
AcDbEntity
  8
0
100
AcDbSpline
 62
7
  6
CONTINUOUS
 70
0
 71
3
 72
45
 73
41
 74
0
 42
0.0000001
 43
0.0000001
 44
0.0000000001
 40
0.0
 40
0.0
 40
0.0
 40
0.0
 40
0.0149721389
 40
0.029947335
 40
0.0449286323
 40
0.0599190314
 40
0.0749214812
 40
0.0899388568
 40
0.1049739399
 40
0.1200294111
 40
0.13510782
 40
0.1502115886
 40
0.1653429771
 40
0.1805040922
 40
0.2109173723
 40
0.24147028
 40
0.2721727304
 40
0.303031234
 40
0.3340488013
 40
0.36522493
 40
0.3965556684
 40
0.4280337518
 40
0.4596488018
 40
0.4913875846
 40
0.5232343172
 40
0.555171016
 40
0.5871778802
 40
0.6192337016
 40
0.6513162951
 40
0.6834029437
 40
0.7154708497
 40
0.7474975879
 40
0.7794615532
 40
0.8113423973
 40
0.8431214438
 40
0.8747820955
 40
0.9063101417
 40
0.9376942701
 40
0.9689257752
 40
1.0
 40
1.0
 40
1.0
 40
1.0
 10
10.4371014972
 20
7.6374618078
 30
0.0
 10
10.4413322765
 20
7.6415484052
 30
0.0
 10
10.4499581194
 20
7.6495551801
 30
0.0
 10
10.4633654111
 20
7.6610429061
 30
0.0
 10
10.4772240802
 20
7.6719938869
 30
0.0
 10
10.4915149183
 20
7.6823926344
 30
0.0
 10
10.5062181762
 20
7.6922251209
 30
0.0
 10
10.5213137626
 20
7.7014775524
 30
0.0
 10
10.5367807409
 20
7.7101374821
 30
0.0
 10
10.5525979706
 20
7.7181927216
 30
0.0
 10
10.5687435747
 20
7.7256324594
 30
0.0
 10
10.5851953464
 20
7.7324462314
 30
0.0
 10
10.6019309098
 20
7.7386249045
 30
0.0
 10
10.6246130159
 20
7.7460117017
 30
0.0
 10
10.6535723596
 20
7.7536146979
 30
0.0
 10
10.6890380296
 20
7.7600696087
 30
0.0
 10
10.7250658656
 20
7.7638325576
 30
0.0
 10
10.7614562588
 20
7.7648828207
 30
0.0
 10
10.7980094353
 20
7.763215229
 30
0.0
 10
10.8345243657
 20
7.7588393707
 30
0.0
 10
10.8708004492
 20
7.7517797337
 30
0.0
 10
10.9066384437
 20
7.7420754959
 30
0.0
 10
10.9418415879
 20
7.7297803127
 30
0.0
 10
10.976216655
 20
7.71496201
 30
0.0
 10
11.0095750006
 20
7.6977022073
 30
0.0
 10
11.0417335832
 20
7.6780958678
 30
0.0
 10
11.0725159543
 20
7.6562507776
 30
0.0
 10
11.1017532154
 20
7.6322869574
 30
0.0
 10
11.129284932
 20
7.606336007
 30
0.0
 10
11.1549600083
 20
7.5785403941
 30
0.0
 10
11.1786375077
 20
7.5490526769
 30
0.0
 10
11.2001874156
 20
7.5180346724
 30
0.0
 10
11.2194913483
 20
7.4856565808
 30
0.0
 10
11.2364431939
 20
7.4520960559
 30
0.0
 10
11.2509497048
 20
7.4175372648
 30
0.0
 10
11.2629309699
 20
7.382169812
 30
0.0
 10
11.2723209558
 20
7.3461879937
 30
0.0
 10
11.2790676439
 20
7.3097887052
 30
0.0
 10
11.2831337516
 20
7.2731744266
 30
0.0
 10
11.2840444587
 20
7.2486867602
 30
0.0
 10
11.2840444587
 20
7.2364785198
 30
0.0
  0
SPLINE
  5
37D
100
AcDbEntity
  8
0
100
AcDbSpline
 62
7
  6
CONTINUOUS
 70
0
 71
3
 72
43
 73
39
 74
0
 42
0.0000001
 43
0.0000001
 44
0.0000000001
 40
0.0
 40
0.0
 40
0.0
 40
0.0
 40
0.0303239898
 40
0.045530401
 40
0.0607659342
 40
0.0913223937
 40
0.121997618
 40
0.1373812139
 40
0.1527942605
 40
0.183704641
 40
0.2147285121
 40
0.2458612967
 40
0.2770971121
 40
0.3084288516
 40
0.3398482799
 40
0.3713461375
 40
0.402912256
 40
0.4345356823
 40
0.4662048093
 40
0.4979075103
 40
0.5296312779
 40
0.561363366
 40
0.5930909333
 40
0.6248011893
 40
0.6564815403
 40
0.6881197319
 40
0.7197039892
 40
0.7354737542
 40
0.7512259091
 40
0.7826695662
 40
0.8140281743
 40
0.8452931895
 40
0.8764571224
 40
0.9075138606
 40
0.938458003
 40
0.9538882677
 40
0.9692899011
 40
1.0
 40
1.0
 40
1.0
 40
1.0
 10
10.5920745308
 20
7.7973614967
 30
0.0
 10
10.6029918736
 20
7.799034442
 30
0.0
 10
10.6194610791
 20
7.8010757416
 30
0.0
 10
10.6415237105
 20
7.8028592391
 30
0.0
 10
10.6637132495
 20
7.8040209383
 30
0.0
 10
10.6915788145
 20
7.8042967519
 30
0.0
 10
10.7194697103
 20
7.8030081296
 30
0.0
 10
10.7417754987
 20
7.8010434728
 30
0.0
 10
10.7641033783
 20
7.798451985
 30
0.0
 10
10.7919440724
 20
7.7940449201
 30
0.0
 10
10.8251001876
 20
7.7869160442
 30
0.0
 10
10.8579343606
 20
7.7779637924
 30
0.0
 10
10.8903433443
 20
7.7672163368
 30
0.0
 10
10.9222260585
 20
7.7547073323
 30
0.0
 10
10.9534828513
 20
7.7404759518
 30
0.0
 10
10.9840160873
 20
7.7245667212
 30
0.0
 10
11.0137303873
 20
7.7070294172
 30
0.0
 10
11.0425329437
 20
7.6879188967
 30
0.0
 10
11.0703337937
 20
7.6672949114
 30
0.0
 10
11.0970461011
 20
7.6452219261
 30
0.0
 10
11.1225864236
 20
7.6217689168
 30
0.0
 10
11.1468749698
 20
7.5970091628
 30
0.0
 10
11.1698358506
 20
7.57102
 30
0.0
 10
11.1913973084
 20
7.5438826644
 30
0.0
 10
11.2114920465
 20
7.5156817905
 30
0.0
 10
11.2300569874
 20
7.4865060111
 30
0.0
 10
11.2442127505
 20
7.461441739
 30
0.0
 10
11.2547158339
 20
7.4409943153
 30
0.0
 10
11.2646524584
 20
7.4203225258
 30
0.0
 10
11.2760195931
 20
7.3940499978
 30
0.0
 10
11.2879360766
 20
7.3619103645
 30
0.0
 10
11.2980840058
 20
7.3292753605
 30
0.0
 10
11.3064313963
 20
7.2962472914
 30
0.0
 10
11.3129519472
 20
7.2629299336
 30
0.0
 10
11.3168503134
 20
7.2349827456
 30
0.0
 10
11.3190352209
 20
7.2125860506
 30
0.0
 10
11.3205942961
 20
7.1902231366
 30
0.0
 10
11.3210651964
 20
7.1734232173
 30
0.0
 10
11.3210651964
 20
7.1622378085
 30
0.0
  0
SPLINE
  5
37E
100
AcDbEntity
  8
0
100
AcDbSpline
 62
7
  6
CONTINUOUS
 70
0
 71
3
 72
45
 73
41
 74
0
 42
0.0000001
 43
0.0000001
 44
0.0000000001
 40
0.0
 40
0.0
 40
0.0
 40
0.0
 40
0.0149721389
 40
0.029947335
 40
0.0449286323
 40
0.0599190314
 40
0.0749214812
 40
0.0899388568
 40
0.1049739399
 40
0.1200294111
 40
0.13510782
 40
0.1502115886
 40
0.1653429771
 40
0.1805040922
 40
0.2109173723
 40
0.24147028
 40
0.2721727304
 40
0.303031234
 40
0.3340488013
 40
0.36522493
 40
0.3965556684
 40
0.4280337518
 40
0.4596488018
 40
0.4913875846
 40
0.5232343172
 40
0.555171016
 40
0.5871778802
 40
0.6192337016
 40
0.6513162951
 40
0.6834029437
 40
0.7154708497
 40
0.7474975879
 40
0.7794615532
 40
0.8113423973
 40
0.8431214438
 40
0.8747820955
 40
0.9063101417
 40
0.9376942701
 40
0.9689257752
 40
1.0
 40
1.0
 40
1.0
 40
1.0
 10
8.2946779501
 20
6.9997758213
 30
0.0
 10
8.2989087295
 20
7.0038624186
 30
0.0
 10
8.3075345724
 20
7.0118691936
 30
0.0
 10
8.3209418641
 20
7.0233569196
 30
0.0
 10
8.3348005332
 20
7.0343079004
 30
0.0
 10
8.3490913713
 20
7.0447066478
 30
0.0
 10
8.3637946292
 20
7.0545391343
 30
0.0
 10
8.3788902156
 20
7.0637915658
 30
0.0
 10
8.3943571939
 20
7.0724514956
 30
0.0
 10
8.4101744236
 20
7.0805067351
 30
0.0
 10
8.4263200277
 20
7.0879464728
 30
0.0
 10
8.4427717994
 20
7.0947602448
 30
0.0
 10
8.4595073628
 20
7.1009389179
 30
0.0
 10
8.4821894689
 20
7.1083257152
 30
0.0
 10
8.5111488126
 20
7.1159287114
 30
0.0
 10
8.5466144825
 20
7.1223836221
 30
0.0
 10
8.5826423186
 20
7.126146571
 30
0.0
 10
8.6190327118
 20
7.1271968342
 30
0.0
 10
8.6555858883
 20
7.1255292424
 30
0.0
 10
8.6921008187
 20
7.1211533841
 30
0.0
 10
8.7283769022
 20
7.1140937472
 30
0.0
 10
8.7642148967
 20
7.1043895093
 30
0.0
 10
8.7994180409
 20
7.0920943261
 30
0.0
 10
8.833793108
 20
7.0772760234
 30
0.0
 10
8.8671514536
 20
7.0600162207
 30
0.0
 10
8.8993100361
 20
7.0404098812
 30
0.0
 10
8.9300924073
 20
7.0185647911
 30
0.0
 10
8.9593296684
 20
6.9946009708
 30
0.0
 10
8.9868613849
 20
6.9686500205
 30
0.0
 10
9.0125364613
 20
6.9408544076
 30
0.0
 10
9.0362139607
 20
6.9113666903
 30
0.0
 10
9.0577638686
 20
6.8803486858
 30
0.0
 10
9.0770678013
 20
6.8479705943
 30
0.0
 10
9.0940196469
 20
6.8144100694
 30
0.0
 10
9.1085261578
 20
6.7798512783
 30
0.0
 10
9.1205074229
 20
6.7444838254
 30
0.0
 10
9.1298974087
 20
6.7085020072
 30
0.0
 10
9.1366440969
 20
6.6721027187
 30
0.0
 10
9.1407102046
 20
6.63548844
 30
0.0
 10
9.1416209117
 20
6.6110007737
 30
0.0
 10
9.1416209117
 20
6.5987925333
 30
0.0
  0
SPLINE
  5
37F
100
AcDbEntity
  8
0
100
AcDbSpline
 62
7
  6
CONTINUOUS
 70
0
 71
3
 72
51
 73
47
 74
0
 42
0.0000001
 43
0.0000001
 44
0.0000000001
 40
0.0
 40
0.0
 40
0.0
 40
0.0
 40
0.014971649
 40
0.0299463566
 40
0.0449271647
 40
0.0599170747
 40
0.0749190347
 40
0.0899359204
 40
0.1049705134
 40
0.1200254923
 40
0.1351034113
 40
0.1502066853
 40
0.1653375821
 40
0.1804982021
 40
0.1956904707
 40
0.2109161316
 40
0.2261767282
 40
0.2414736061
 40
0.2568079029
 40
0.272180538
 40
0.2875922205
 40
0.3030434356
 40
0.3185344485
 40
0.3340653085
 40
0.34963584
 40
0.365245656
 40
0.3965753731
 40
0.4280524305
 40
0.4596664495
 40
0.4914041969
 40
0.5232498909
 40
0.5551855477
 40
0.5871913667
 40
0.6192461407
 40
0.6513276859
 40
0.683413286
 40
0.7154801443
 40
0.7475058366
 40
0.779468758
 40
0.8113485605
 40
0.8431265712
 40
0.8747861831
 40
0.9063132139
 40
0.9376962973
 40
0.9689267507
 40
1.0
 40
1.0
 40
1.0
 40
1.0
 10
10.1428826885
 20
7.7703667596
 30
0.0
 10
10.1496021447
 20
7.7768572474
 30
0.0
 10
10.1633020932
 20
7.7895737889
 30
0.0
 10
10.1845959735
 20
7.8078190387
 30
0.0
 10
10.2066068609
 20
7.8252116753
 30
0.0
 10
10.2293040479
 20
7.8417273447
 30
0.0
 10
10.2526563267
 20
7.8573435521
 30
0.0
 10
10.2766316277
 20
7.8720386354
 30
0.0
 10
10.301196897
 20
7.8857924847
 30
0.0
 10
10.3263183153
 20
7.8985862117
 30
0.0
 10
10.3519613752
 20
7.9104020874
 30
0.0
 10
10.3780907078
 20
7.9212240373
 30
0.0
 10
10.4046704004
 20
7.9310370932
 30
0.0
 10
10.4316638821
 20
7.9398277414
 30
0.0
 10
10.4590339685
 20
7.947584049
 30
0.0
 10
10.4867430503
 20
7.9542951941
 30
0.0
 10
10.514752975
 20
7.9599520696
 30
0.0
 10
10.5430252089
 20
7.9645469501
 30
0.0
 10
10.5715208812
 20
7.9680733847
 30
0.0
 10
10.600200772
 20
7.9705267267
 30
0.0
 10
10.6290254499
 20
7.9719035265
 30
0.0
 10
10.6579552583
 20
7.9722018796
 30
0.0
 10
10.6869504484
 20
7.9714215387
 30
0.0
 10
10.7159710153
 20
7.9695634539
 30
0.0
 10
10.7449775354
 20
7.9666301945
 30
0.0
 10
10.7836228702
 20
7.961285491
 30
0.0
 10
10.8316996037
 20
7.9519295932
 30
0.0
 10
10.8886174342
 20
7.9365170926
 30
0.0
 10
10.9445286232
 20
7.9169893893
 30
0.0
 10
10.9991241911
 20
7.8934544446
 30
0.0
 10
11.0521050635
 20
7.8660417693
 30
0.0
 10
11.1031803951
 20
7.8349022542
 30
0.0
 10
11.152070002
 20
7.800207105
 30
0.0
 10
11.1985056196
 20
7.7621469312
 30
0.0
 10
11.2422324088
 20
7.7209307048
 30
0.0
 10
11.2830104265
 20
7.6767847354
 30
0.0
 10
11.320615848
 20
7.6299513294
 30
0.0
 10
11.3548421677
 20
7.5806874746
 30
0.0
 10
11.3855013121
 20
7.5292634575
 30
0.0
 10
11.4124247961
 20
7.475961464
 30
0.0
 10
11.4354645295
 20
7.4210740019
 30
0.0
 10
11.4544936071
 20
7.3649021933
 30
0.0
 10
11.4694070488
 20
7.3077546214
 30
0.0
 10
11.4801223476
 20
7.2499440379
 30
0.0
 10
11.4865802868
 20
7.1917919877
 30
0.0
 10
11.4880267086
 20
7.1528998273
 30
0.0
 10
11.4880267086
 20
7.1335102548
 30
0.0
  0
SPLINE
  5
380
100
AcDbEntity
  8
0
100
AcDbSpline
 62
7
  6
CONTINUOUS
 70
0
 71
3
 72
23
 73
19
 74
0
 42
0.0000001
 43
0.0000001
 44
0.0000000001
 40
0.0
 40
0.0
 40
0.0
 40
0.0
 40
0.0617101425
 40
0.1234413926
 40
0.1852146455
 40
0.2470503552
 40
0.3089683456
 40
0.3709876175
 40
0.433126137
 40
0.4954006583
 40
0.5578266139
 40
0.620417918
 40
0.6831867633
 40
0.7461439667
 40
0.8092979859
 40
0.8726548131
 40
0.9362237855
 40
1.0
 40
1.0
 40
1.0
 40
1.0
 10
9.0033194721
 20
6.2661361766
 30
0.0
 10
9.008795638
 20
6.2714257185
 30
0.0
 10
9.019479539
 20
6.2822906339
 30
0.0
 10
9.0346489985
 20
6.2993935248
 30
0.0
 10
9.0489299938
 20
6.3172655945
 30
0.0
 10
9.0622890338
 20
6.3358650386
 30
0.0
 10
9.0746955506
 20
6.3551490442
 30
0.0
 10
9.0861208867
 20
6.3750731063
 30
0.0
 10
9.0965386554
 20
6.3955913095
 30
0.0
 10
9.105924961
 20
6.4166562679
 30
0.0
 10
9.1142582119
 20
6.438219399
 30
0.0
 10
9.1215191332
 20
6.4602310024
 30
0.0
 10
9.1276911144
 20
6.4826403082
 30
0.0
 10
9.1327599878
 20
6.5053956519
 30
0.0
 10
9.1367140525
 20
6.5284444297
 30
0.0
 10
9.1395444041
 20
6.5517340974
 30
0.0
 10
9.1412442372
 20
6.5752097706
 30
0.0
 10
9.1416209117
 20
6.5909239776
 30
0.0
 10
9.1416209117
 20
6.5987925333
 30
0.0
  0
SPLINE
  5
381
100
AcDbEntity
  8
0
100
AcDbSpline
 62
7
  6
CONTINUOUS
 70
0
 71
3
 72
71
 73
67
 74
0
 42
0.0000001
 43
0.0000001
 44
0.0000000001
 40
0.0
 40
0.0
 40
0.0
 40
0.0
 40
0.0156238041
 40
0.0312976481
 40
0.0470189411
 40
0.0627877428
 40
0.0786025526
 40
0.0944615167
 40
0.1103626241
 40
0.1263034444
 40
0.1422812487
 40
0.1582930359
 40
0.1743355332
 40
0.1904052386
 40
0.2064984463
 40
0.2226112679
 40
0.238739671
 40
0.2548795082
 40
0.2710265423
 40
0.2871764849
 40
0.3033250281
 40
0.3194678696
 40
0.3356007526
 40
0.3517194962
 40
0.3678200205
 40
0.3838983855
 40
0.3999508197
 40
0.4159737424
 40
0.4319638007
 40
0.4479178949
 40
0.4638331958
 40
0.4797071784
 40
0.4955376424
 40
0.5113227236
 40
0.5270609204
 40
0.5427511096
 40
0.5583925493
 40
0.5739848961
 40
0.5895282147
 40
0.6050229709
 40
0.6204700372
 40
0.6358706948
 40
0.6512266161
 40
0.6665398572
 40
0.6818128502
 40
0.6970483766
 40
0.7122495457
 40
0.7274197769
 40
0.7425627653
 40
0.7576824475
 40
0.7727829744
 40
0.7878686719
 40
0.802943997
 40
0.8180135034
 40
0.8330818005
 40
0.8481535055
 40
0.8632332041
 40
0.8783254122
 40
0.8934345299
 40
0.9085648005
 40
0.92372028
 40
0.9389047964
 40
0.9541219118
 40
0.9693749059
 40
0.9846667366
 40
1.0
 40
1.0
 40
1.0
 40
1.0
 10
10.216143644
 20
7.2924541695
 30
0.0
 10
10.216143644
 20
7.2839973533
 30
0.0
 10
10.2165291265
 20
7.2670541688
 30
0.0
 10
10.2182556462
 20
7.2416543194
 30
0.0
 10
10.2211282808
 20
7.2162789894
 30
0.0
 10
10.2251407862
 20
7.1909817453
 30
0.0
 10
10.2302848915
 20
7.1658141055
 30
0.0
 10
10.2365499587
 20
7.1408280869
 30
0.0
 10
10.2439231034
 20
7.1160752229
 30
0.0
 10
10.2523890503
 20
7.0916064902
 30
0.0
 10
10.2619302649
 20
7.0674722956
 30
0.0
 10
10.2725271662
 20
7.0437224169
 30
0.0
 10
10.2841578538
 20
7.0204057811
 30
0.0
 10
10.2967982641
 20
6.9975703935
 30
0.0
 10
10.310422427
 20
6.9752633584
 30
0.0
 10
10.3250022427
 20
6.9535306424
 30
0.0
 10
10.3405075695
 20
6.9324169669
 30
0.0
 10
10.356906522
 20
6.9119658899
 30
0.0
 10
10.3741653183
 20
6.8922195759
 30
0.0
 10
10.3922483007
 20
6.8732186377
 30
0.0
 10
10.4111182574
 20
6.8550022772
 30
0.0
 10
10.4307363419
 20
6.8376080852
 30
0.0
 10
10.4510620437
 20
6.8210718174
 30
0.0
 10
10.4720535142
 20
6.805427591
 30
0.0
 10
10.4936675501
 20
6.7907077318
 30
0.0
 10
10.5158595409
 20
6.7769424816
 30
0.0
 10
10.5385837765
 20
6.7641602388
 30
0.0
 10
10.561793485
 20
6.7523874657
 30
0.0
 10
10.585440782
 20
6.741648338
 30
0.0
 10
10.6094769438
 20
6.7319650064
 30
0.0
 10
10.6338524836
 20
6.7233575755
 30
0.0
 10
10.6585171274
 20
6.7158437156
 30
0.0
 10
10.6834200413
 20
6.7094389165
 30
0.0
 10
10.7085099299
 20
6.7041565445
 30
0.0
 10
10.7337350545
 20
6.700007445
 30
0.0
 10
10.7590434133
 20
6.6970001559
 30
0.0
 10
10.7843828458
 20
6.6951410472
 30
0.0
 10
10.8097010966
 20
6.6944339424
 30
0.0
 10
10.8349459618
 20
6.6948802643
 30
0.0
 10
10.8600653787
 20
6.6964792569
 30
0.0
 10
10.8850075318
 20
6.699227649
 30
0.0
 10
10.9097209856
 20
6.7031197173
 30
0.0
 10
10.9341547418
 20
6.7081475806
 30
0.0
 10
10.9582583745
 20
6.7143009269
 30
0.0
 10
10.9819821752
 20
6.7215669878
 30
0.0
 10
11.0052771623
 20
6.7299308912
 30
0.0
 10
11.0280952278
 20
6.7393754637
 30
0.0
 10
11.050389319
 20
6.7498811261
 30
0.0
 10
11.0721133917
 20
6.7614262821
 30
0.0
 10
11.0932225469
 20
6.7739872018
 30
0.0
 10
11.113673269
 20
6.7875378597
 30
0.0
 10
11.1334233208
 20
6.8020503324
 30
0.0
 10
11.1524318511
 20
6.8174947616
 30
0.0
 10
11.1706596954
 20
6.8338391643
 30
0.0
 10
11.1880692238
 20
6.8510498123
 30
0.0
 10
11.2046244013
 20
6.8690912647
 30
0.0
 10
11.2202911432
 20
6.8879261852
 30
0.0
 10
11.2350371385
 20
6.9075156776
 30
0.0
 10
11.2488318494
 20
6.9278193738
 30
0.0
 10
11.2616468988
 20
6.9487952901
 30
0.0
 10
11.2734559016
 20
6.9704000954
 30
0.0
 10
11.2842343953
 20
6.9925892615
 30
0.0
 10
11.2939602164
 20
7.0153168936
 30
0.0
 10
11.3026134405
 20
7.0385362404
 30
0.0
 10
11.3101759567
 20
7.0621987191
 30
0.0
 10
11.3144745543
 20
7.0782158252
 30
0.0
 10
11.3164376525
 20
7.0862798705
 30
0.0
  0
SPLINE
  5
382
100
AcDbEntity
  8
0
100
AcDbSpline
 62
7
  6
CONTINUOUS
 70
0
 71
3
 72
45
 73
41
 74
0
 42
0.0000001
 43
0.0000001
 44
0.0000000001
 40
0.0
 40
0.0
 40
0.0
 40
0.0
 40
0.0310742248
 40
0.0623057299
 40
0.0936898583
 40
0.1252179045
 40
0.1568785562
 40
0.1886576027
 40
0.2205384468
 40
0.2525024121
 40
0.2845291503
 40
0.3165970563
 40
0.3486837049
 40
0.3807662984
 40
0.4128221198
 40
0.444828984
 40
0.4767656828
 40
0.5086124154
 40
0.5403511982
 40
0.5719662482
 40
0.6034443316
 40
0.63477507
 40
0.6659511987
 40
0.696968766
 40
0.7278272696
 40
0.75852972
 40
0.7890826277
 40
0.8194959078
 40
0.8346570229
 40
0.8497884114
 40
0.86489218
 40
0.8799705889
 40
0.8950260601
 40
0.9100611432
 40
0.9250785188
 40
0.9400809686
 40
0.9550713677
 40
0.970052665
 40
0.9850278611
 40
1.0
 40
1.0
 40
1.0
 40
1.0
 10
10.2988000576
 20
7.3048054511
 30
0.0
 10
10.2988000576
 20
7.2925972108
 30
0.0
 10
10.2997107647
 20
7.2681095444
 30
0.0
 10
10.3037768724
 20
7.2314952657
 30
0.0
 10
10.3105235606
 20
7.1950959772
 30
0.0
 10
10.3199135464
 20
7.159114159
 30
0.0
 10
10.3318948115
 20
7.1237467061
 30
0.0
 10
10.3464013224
 20
7.0891879151
 30
0.0
 10
10.363353168
 20
7.0556273901
 30
0.0
 10
10.3826571007
 20
7.0232492986
 30
0.0
 10
10.4042070086
 20
6.9922312941
 30
0.0
 10
10.427884508
 20
6.9627435769
 30
0.0
 10
10.4535595844
 20
6.934947964
 30
0.0
 10
10.4810913009
 20
6.9089970136
 30
0.0
 10
10.510328562
 20
6.8850331933
 30
0.0
 10
10.5411109331
 20
6.8631881032
 30
0.0
 10
10.5732695157
 20
6.8435817637
 30
0.0
 10
10.6066278613
 20
6.826321961
 30
0.0
 10
10.6410029284
 20
6.8115036583
 30
0.0
 10
10.6762060726
 20
6.7992084751
 30
0.0
 10
10.7120440671
 20
6.7895042373
 30
0.0
 10
10.7483201506
 20
6.7824446003
 30
0.0
 10
10.784835081
 20
6.778068742
 30
0.0
 10
10.8213882575
 20
6.7764011502
 30
0.0
 10
10.8577786507
 20
6.7774514134
 30
0.0
 10
10.8938064868
 20
6.7812143623
 30
0.0
 10
10.9292721567
 20
6.7876692731
 30
0.0
 10
10.9582315004
 20
6.7952722692
 30
0.0
 10
10.9809136065
 20
6.8026590665
 30
0.0
 10
10.9976491699
 20
6.8088377396
 30
0.0
 10
11.0141009416
 20
6.8156515116
 30
0.0
 10
11.0302465457
 20
6.8230912493
 30
0.0
 10
11.0460637754
 20
6.8311464889
 30
0.0
 10
11.0615307537
 20
6.8398064186
 30
0.0
 10
11.0766263401
 20
6.8490588501
 30
0.0
 10
11.091329598
 20
6.8588913366
 30
0.0
 10
11.1056204361
 20
6.8692900841
 30
0.0
 10
11.1194791052
 20
6.8802410648
 30
0.0
 10
11.1328863969
 20
6.8917287908
 30
0.0
 10
11.1415122398
 20
6.8997355658
 30
0.0
 10
11.1457430191
 20
6.9038221631
 30
0.0
  0
SPLINE
  5
383
100
AcDbEntity
  8
0
100
AcDbSpline
 62
7
  6
CONTINUOUS
 70
0
 71
3
 72
42
 73
38
 74
0
 42
0.0000001
 43
0.0000001
 44
0.0000000001
 40
0.0
 40
0.0
 40
0.0
 40
0.0
 40
0.0308424116
 40
0.0618178513
 40
0.0929224213
 40
0.1241516126
 40
0.1554982149
 40
0.1869536099
 40
0.2185074466
 40
0.2501479734
 40
0.2818621683
 40
0.3136359511
 40
0.3454543869
 40
0.3773019047
 40
0.4091625199
 40
0.4410200621
 40
0.4728584048
 40
0.5046616939
 40
0.5364145743
 40
0.5681024104
 40
0.5997115004
 40
0.6312292799
 40
0.6626445143
 40
0.6939474751
 40
0.7251301
 40
0.7561861316
 40
0.7871112339
 40
0.8179030828
 40
0.8485614279
 40
0.8638429617
 40
0.8790919941
 40
0.9094909979
 40
0.939768332
 40
0.9548658048
 40
0.9699360236
 40
0.9849802897
 40
1.0
 40
1.0
 40
1.0
 40
1.0
 10
10.5453279224
 20
7.5429330968
 30
0.0
 10
10.5453279224
 20
7.5326227302
 30
0.0
 10
10.5459771239
 20
7.5119518381
 30
0.0
 10
10.5488797009
 20
7.4810056338
 30
0.0
 10
10.5537017825
 20
7.4501680347
 30
0.0
 10
10.5604240631
 20
7.4195617293
 30
0.0
 10
10.5690201797
 20
7.3893061916
 30
0.0
 10
10.5794561882
 20
7.3595202027
 30
0.0
 10
10.5916910862
 20
7.3303204809
 30
0.0
 10
10.6056767779
 20
7.30182149
 30
0.0
 10
10.6213583504
 20
7.2741349264
 30
0.0
 10
10.6386742538
 20
7.2473693012
 30
0.0
 10
10.6575565546
 20
7.2216295161
 30
0.0
 10
10.677931196
 20
7.197016456
 30
0.0
 10
10.6997182884
 20
7.1736265973
 30
0.0
 10
10.7228324157
 20
7.1515516283
 30
0.0
 10
10.7471829726
 20
7.1308780948
 30
0.0
 10
10.772674517
 20
7.1116870641
 30
0.0
 10
10.7992071415
 20
7.0940538094
 30
0.0
 10
10.8266768614
 20
7.0780475159
 30
0.0
 10
10.8549760186
 20
7.0637310114
 30
0.0
 10
10.8839936994
 20
7.0511605204
 30
0.0
 10
10.9136161661
 20
7.0403854442
 30
0.0
 10
10.9437272921
 20
7.0314481659
 30
0.0
 10
10.9742090368
 20
7.0243838851
 30
0.0
 10
11.0049418114
 20
7.0192204694
 30
0.0
 10
11.0358052862
 20
7.0159783726
 30
0.0
 10
11.0666775846
 20
7.0146704318
 30
0.0
 10
11.0923415336
 20
7.0151975118
 30
0.0
 10
11.112751983
 20
7.0165906181
 30
0.0
 10
11.1330215108
 20
7.0186241133
 30
0.0
 10
11.1581438999
 20
7.0223671757
 30
0.0
 10
11.182923675
 20
7.0277113456
 30
0.0
 10
11.2024474701
 20
7.0329301192
 30
0.0
 10
11.2169164647
 20
7.0373081012
 30
0.0
 10
11.2312095651
 20
7.0421487023
 30
0.0
 10
11.2406196208
 20
7.0456841637
 30
0.0
 10
11.2452900512
 20
7.0475273093
 30
0.0
  0
SPLINE
  5
384
100
AcDbEntity
  8
0
100
AcDbSpline
 62
7
  6
CONTINUOUS
 70
0
 71
3
 72
26
 73
22
 74
0
 42
0.0000001
 43
0.0000001
 44
0.0000000001
 40
0.0
 40
0.0
 40
0.0
 40
0.0
 40
0.0637763288
 40
0.127342888
 40
0.1906991365
 40
0.253852345
 40
0.2853569163
 40
0.3168132564
 40
0.3795812268
 40
0.4421715818
 40
0.5045965961
 40
0.5668701919
 40
0.6290077774
 40
0.6910261213
 40
0.7219986711
 40
0.7529482414
 40
0.8147830235
 40
0.8765553475
 40
0.9074270132
 40
0.9382907755
 40
1.0
 40
1.0
 40
1.0
 40
1.0
 10
7.7808032303
 20
9.0191581633
 30
0.0
 10
7.7808032303
 20
9.0316555114
 30
0.0
 10
7.7814013891
 20
9.0566133161
 30
0.0
 10
7.7841012783
 20
9.0938983535
 30
0.0
 10
7.7885964652
 20
9.1308873502
 30
0.0
 10
7.7938341715
 20
9.1614186286
 30
0.0
 10
7.7989110266
 20
9.185606566
 30
0.0
 10
7.8045665741
 20
9.2095881912
 30
0.0
 10
7.8127297305
 20
9.2392270993
 30
0.0
 10
7.8242617996
 20
9.2741864128
 30
0.0
 10
7.8374969593
 20
9.3084338724
 30
0.0
 10
7.8524047151
 20
9.3418900909
 30
0.0
 10
7.8689504776
 20
9.3744775365
 30
0.0
 10
7.8840794777
 20
9.4008601522
 30
0.0
 10
7.8969599769
 20
9.42145275
 30
0.0
 10
7.9103424408
 20
9.4416796591
 30
0.0
 10
7.9280187198
 20
9.4662898636
 30
0.0
 10
7.9469243103
 20
9.4899492603
 30
0.0
 10
7.9627515152
 20
9.5082620466
 30
0.0
 10
7.9790353981
 20
9.526152505
 30
0.0
 10
7.9917617031
 20
9.539094355
 30
0.0
 10
8.0004591415
 20
9.5474954243
 30
0.0
  0
SPLINE
  5
385
100
AcDbEntity
  8
0
100
AcDbSpline
 62
7
  6
CONTINUOUS
 70
0
 71
3
 72
51
 73
47
 74
0
 42
0.0000001
 43
0.0000001
 44
0.0000000001
 40
0.0
 40
0.0
 40
0.0
 40
0.0
 40
0.0310553671
 40
0.062265879
 40
0.093627172
 40
0.1251308531
 40
0.1567659986
 40
0.1885189355
 40
0.2203736447
 40
0.2523120912
 40
0.2843145952
 40
0.3163602268
 40
0.3484272181
 40
0.3804933875
 40
0.4125365701
 40
0.4445350456
 40
0.4764679617
 40
0.5083157466
 40
0.5400605025
 40
0.5716863734
 40
0.6031798841
 40
0.6345302405
 40
0.6501516925
 40
0.6657346688
 40
0.6812786845
 40
0.6967834532
 40
0.7122489023
 40
0.7276751701
 40
0.7430626019
 40
0.7584117619
 40
0.7737234179
 40
0.7889985479
 40
0.8042383353
 40
0.819444156
 40
0.8346175846
 40
0.8497603753
 40
0.8648744582
 40
0.8799619321
 40
0.8950250442
 40
0.9100661887
 40
0.9250878858
 40
0.9400927688
 40
0.9550835739
 40
0.9700631161
 40
0.9850342799
 40
1.0
 40
1.0
 40
1.0
 40
1.0
 10
7.7973676359
 20
9.0351581514
 30
0.0
 10
7.7973676359
 20
9.016017807
 30
0.0
 10
7.7987770339
 20
8.9776271384
 30
0.0
 10
7.8050704865
 20
8.9202183365
 30
0.0
 10
7.8155139582
 20
8.8631342787
 30
0.0
 10
7.8300512187
 20
8.8066843838
 30
0.0
 10
7.8486038478
 20
8.751169728
 30
0.0
 10
7.8710721821
 20
8.6968875497
 30
0.0
 10
7.8973355794
 20
8.6441280786
 30
0.0
 10
7.9272532267
 20
8.5931734737
 30
0.0
 10
7.9606648556
 20
8.5442962075
 30
0.0
 10
7.9973916116
 20
8.4977576775
 30
0.0
 10
8.0372369381
 20
8.4538067695
 30
0.0
 10
8.079987641
 20
8.4126785426
 30
0.0
 10
8.1254150615
 20
8.3745930267
 30
0.0
 10
8.1732762745
 20
8.3397540489
 30
0.0
 10
8.2233153605
 20
8.3083481705
 30
0.0
 10
8.2752647669
 20
8.2805436016
 30
0.0
 10
8.3288465386
 20
8.2564893955
 30
0.0
 10
8.3837746551
 20
8.2363145585
 30
0.0
 10
8.4397533145
 20
8.2201277813
 30
0.0
 10
8.4870921394
 20
8.2100216654
 30
0.0
 10
8.5251827127
 20
8.204015245
 30
0.0
 10
8.5537934128
 20
8.2005562901
 30
0.0
 10
8.5824387356
 20
8.1981430671
 30
0.0
 10
8.6110807751
 20
8.1967789383
 30
0.0
 10
8.6396810139
 20
8.1964656105
 30
0.0
 10
8.6682011636
 20
8.1972035627
 30
0.0
 10
8.6966029843
 20
8.1989919295
 30
0.0
 10
8.7248484255
 20
8.2018281359
 30
0.0
 10
8.7528996069
 20
8.2057086203
 30
0.0
 10
8.7807189407
 20
8.2106280591
 30
0.0
 10
8.8082691384
 20
8.2165798854
 30
0.0
 10
8.8355132307
 20
8.2235562752
 30
0.0
 10
8.8624147444
 20
8.2315476854
 30
0.0
 10
8.888937553
 20
8.2405436211
 30
0.0
 10
8.9150461207
 20
8.2505319335
 30
0.0
 10
8.9407054555
 20
8.2614992151
 30
0.0
 10
8.9658810748
 20
8.2734309325
 30
0.0
 10
8.9905393129
 20
8.2863108948
 30
0.0
 10
9.0146470134
 20
8.3001220104
 30
0.0
 10
9.0381718796
 20
8.3148457124
 30
0.0
 10
9.0610823776
 20
8.3304621739
 30
0.0
 10
9.0833477706
 20
8.3469507277
 30
0.0
 10
9.1049379317
 20
8.3642886887
 30
0.0
 10
9.118864455
 20
8.3764005675
 30
0.0
 10
9.1257042773
 20
8.3825889145
 30
0.0
  0
SPLINE
  5
386
100
AcDbEntity
  8
0
100
AcDbSpline
 62
7
  6
CONTINUOUS
 70
0
 71
3
 72
24
 73
20
 74
0
 42
0.0000001
 43
0.0000001
 44
0.0000000001
 40
0.0
 40
0.0
 40
0.0
 40
0.0
 40
0.0637474987
 40
0.1272943527
 40
0.190638431
 40
0.253787108
 40
0.3167454653
 40
0.3795213722
 40
0.4421242608
 40
0.5045650044
 40
0.5668560054
 40
0.6290110116
 40
0.6910450283
 40
0.7220239883
 40
0.7529788289
 40
0.8148202128
 40
0.8765917405
 40
0.938311984
 40
1.0
 40
1.0
 40
1.0
 40
1.0
 10
7.7973676359
 20
9.0351581514
 30
0.0
 10
7.7973676359
 20
9.0471605829
 30
0.0
 10
7.7979194077
 20
9.0711314161
 30
0.0
 10
7.8004095099
 20
9.1069508688
 30
0.0
 10
7.8045559864
 20
9.1425039537
 30
0.0
 10
7.8103496422
 20
9.1777136473
 30
0.0
 10
7.8177785649
 20
9.2125057414
 30
0.0
 10
7.8268269036
 20
9.2468060623
 30
0.0
 10
7.8374754668
 20
9.2805417485
 30
0.0
 10
7.8497016791
 20
9.3136410275
 30
0.0
 10
7.8634797186
 20
9.3460336048
 30
0.0
 10
7.8787800574
 20
9.3776501331
 30
0.0
 10
7.8927789513
 20
9.4033073894
 30
0.0
 10
7.9047037279
 20
9.4233744049
 30
0.0
 10
7.9170972352
 20
9.4431125484
 30
0.0
 10
7.9334760379
 20
9.4671834458
 30
0.0
 10
7.9545102312
 20
9.4950434011
 30
0.0
 10
7.9768730896
 20
9.5218103833
 30
0.0
 10
7.992639908
 20
9.5388928417
 30
0.0
 10
8.0007259429
 20
9.5472305038
 30
0.0
  0
SPLINE
  5
387
100
AcDbEntity
  8
0
100
AcDbSpline
 62
7
  6
CONTINUOUS
 70
0
 71
3
 72
39
 73
35
 74
0
 42
0.0000001
 43
0.0000001
 44
0.0000000001
 40
0.0
 40
0.0
 40
0.0
 40
0.0
 40
0.0319626175
 40
0.0638343392
 40
0.0956118706
 40
0.1272988767
 40
0.1588977439
 40
0.1904110967
 40
0.2218426931
 40
0.2531968037
 40
0.2844782285
 40
0.3156923576
 40
0.3468451025
 40
0.3779428343
 40
0.4089923551
 40
0.4400008512
 40
0.4709758206
 40
0.5019250281
 40
0.532856448
 40
0.5637781865
 40
0.5946984296
 40
0.6256253803
 40
0.6565671803
 40
0.6875318569
 40
0.718527262
 40
0.7495609961
 40
0.7806403631
 40
0.8117723154
 40
0.8429633849
 40
0.8742196533
 40
0.9055467047
 40
0.9369495694
 40
0.9684327137
 40
1.0
 40
1.0
 40
1.0
 40
1.0
 10
7.9808935538
 20
9.0224305858
 30
0.0
 10
7.9808935538
 20
9.0308501048
 30
0.0
 10
7.9812483717
 20
9.0476674016
 30
0.0
 10
7.9828489807
 20
9.0728096197
 30
0.0
 10
7.9855148974
 20
9.0977888112
 30
0.0
 10
7.9892411822
 20
9.1225592146
 30
0.0
 10
7.9940211022
 20
9.1470772473
 30
0.0
 10
7.9998463407
 20
9.1712990212
 30
0.0
 10
8.0067065237
 20
9.1951812425
 30
0.0
 10
8.0145892908
 20
9.2186813511
 30
0.0
 10
8.0234807513
 20
9.2417573428
 30
0.0
 10
8.0333650356
 20
9.2643680079
 30
0.0
 10
8.0442244097
 20
9.2864730275
 30
0.0
 10
8.0560396683
 20
9.3080328476
 30
0.0
 10
8.0687896537
 20
9.3290089983
 30
0.0
 10
8.0824515599
 20
9.349364059
 30
0.0
 10
8.0970011545
 20
9.3690615701
 30
0.0
 10
8.1124123448
 20
9.3880664323
 30
0.0
 10
8.1286576196
 20
9.4063447107
 30
0.0
 10
8.145708084
 20
9.4238636529
 30
0.0
 10
8.1635331599
 20
9.4405920943
 30
0.0
 10
8.1821010633
 20
9.4565001208
 30
0.0
 10
8.2013786898
 20
9.4715592478
 30
0.0
 10
8.2213314985
 20
9.4857427311
 30
0.0
 10
8.2419239268
 20
9.4990251573
 30
0.0
 10
8.2631192016
 20
9.5113827951
 30
0.0
 10
8.2848793938
 20
9.5227937282
 30
0.0
 10
8.3071657188
 20
9.5332374593
 30
0.0
 10
8.3299383443
 20
9.5426954057
 30
0.0
 10
8.3531565822
 20
9.5511508072
 30
0.0
 10
8.3767789912
 20
9.5585884217
 30
0.0
 10
8.4007635158
 20
9.5649951314
 30
0.0
 10
8.4250667266
 20
9.5703595012
 30
0.0
 10
8.4414315453
 20
9.5732306359
 30
0.0
 10
8.4496509838
 20
9.5744901614
 30
0.0
  0
SPLINE
  5
388
100
AcDbEntity
  8
0
100
AcDbSpline
 62
7
  6
CONTINUOUS
 70
0
 71
3
 72
39
 73
35
 74
0
 42
0.0000001
 43
0.0000001
 44
0.0000000001
 40
0.0
 40
0.0
 40
0.0
 40
0.0
 40
0.03197751
 40
0.0638683309
 40
0.0956684864
 40
0.1273812813
 40
0.15900925
 40
0.1905545316
 40
0.2220204016
 40
0.2534107062
 40
0.2847296874
 40
0.3159821338
 40
0.3471733017
 40
0.3783088782
 40
0.4093949518
 40
0.4404379546
 40
0.4714446421
 40
0.5024220245
 40
0.5333773226
 40
0.5643179277
 40
0.5952513261
 40
0.6261850638
 40
0.657126686
 40
0.688083671
 40
0.719063397
 40
0.7500730696
 40
0.7811196755
 40
0.8122099453
 40
0.8433502806
 40
0.8745467356
 40
0.9058049634
 40
0.9371301692
 40
0.9685271037
 40
1.0
 40
1.0
 40
1.0
 40
1.0
 10
8.073720097
 20
9.0695828342
 30
0.0
 10
8.073720097
 20
9.0771057043
 30
0.0
 10
8.0740242556
 20
9.0921328591
 30
0.0
 10
8.0753960714
 20
9.1146034785
 30
0.0
 10
8.0776811672
 20
9.1369375015
 30
0.0
 10
8.0808755951
 20
9.1590971648
 30
0.0
 10
8.0849739463
 20
9.1810466729
 30
0.0
 10
8.0899698669
 20
9.2027498836
 30
0.0
 10
8.0958549261
 20
9.2241711239
 30
0.0
 10
8.102619555
 20
9.2452752211
 30
0.0
 10
8.11025275
 20
9.2660274848
 30
0.0
 10
8.1187418097
 20
9.2863938866
 30
0.0
 10
8.1280730319
 20
9.3063408747
 30
0.0
 10
8.1382309391
 20
9.3258357488
 30
0.0
 10
8.1491989029
 20
9.3448464628
 30
0.0
 10
8.1609590161
 20
9.3633417135
 30
0.0
 10
8.1734917843
 20
9.3812912297
 30
0.0
 10
8.1867768219
 20
9.3986653812
 30
0.0
 10
8.2007921855
 20
9.4154357027
 30
0.0
 10
8.2155148548
 20
9.4315746449
 30
0.0
 10
8.2309207545
 20
9.4470555772
 30
0.0
 10
8.2469844043
 20
9.4618532322
 30
0.0
 10
8.263679561
 20
9.4759431382
 30
0.0
 10
8.2809787143
 20
9.4893022269
 30
0.0
 10
8.2988534128
 20
9.5019086
 30
0.0
 10
8.3172743886
 20
9.5137413931
 30
0.0
 10
8.3362112383
 20
9.5247813833
 30
0.0
 10
8.3556329462
 20
9.5350102803
 30
0.0
 10
8.3755075594
 20
9.5444113474
 30
0.0
 10
8.3958023975
 20
9.55296925
 30
0.0
 10
8.4164841609
 20
9.5606697386
 30
0.0
 10
8.4375189183
 20
9.5675004443
 30
0.0
 10
8.4588716748
 20
9.5734498996
 30
0.0
 10
8.4732787152
 20
9.5768183077
 30
0.0
 10
8.4805220879
 20
9.5783529395
 30
0.0
  0
SPLINE
  5
389
100
AcDbEntity
  8
0
100
AcDbSpline
 62
7
  6
CONTINUOUS
 70
0
 71
3
 72
23
 73
19
 74
0
 42
0.0000001
 43
0.0000001
 44
0.0000000001
 40
0.0
 40
0.0
 40
0.0
 40
0.0
 40
0.0637762145
 40
0.1273451869
 40
0.1907020141
 40
0.2538560333
 40
0.3168132367
 40
0.379582082
 40
0.4421733861
 40
0.5045993417
 40
0.566873863
 40
0.6290123825
 40
0.6910316544
 40
0.7529496448
 40
0.8147853545
 40
0.8765586074
 40
0.9382898575
 40
1.0
 40
1.0
 40
1.0
 40
1.0
 10
8.1563765105
 20
9.0819341158
 30
0.0
 10
8.1563765105
 20
9.0898026715
 30
0.0
 10
8.156753185
 20
9.1055168785
 30
0.0
 10
8.1584530181
 20
9.1289925517
 30
0.0
 10
8.1612833698
 20
9.1522822194
 30
0.0
 10
8.1652374344
 20
9.1753309972
 30
0.0
 10
8.1703063079
 20
9.1980863409
 30
0.0
 10
8.1764782891
 20
9.2204956467
 30
0.0
 10
8.1837392104
 20
9.2425072501
 30
0.0
 10
8.1920724613
 20
9.2640703812
 30
0.0
 10
8.2014587669
 20
9.2851353396
 30
0.0
 10
8.2118765356
 20
9.3056535429
 30
0.0
 10
8.2233018717
 20
9.325577605
 30
0.0
 10
8.2357083884
 20
9.3448616105
 30
0.0
 10
8.2490674285
 20
9.3634610546
 30
0.0
 10
8.2633484238
 20
9.3813331243
 30
0.0
 10
8.2785178833
 20
9.3984360152
 30
0.0
 10
8.2892017843
 20
9.4093009306
 30
0.0
 10
8.2946779501
 20
9.4145904725
 30
0.0
  0
SPLINE
  5
38A
100
AcDbEntity
  8
0
100
AcDbSpline
 62
7
  6
CONTINUOUS
 70
0
 71
3
 72
25
 73
21
 74
0
 42
0.0000001
 43
0.0000001
 44
0.0000000001
 40
0.0
 40
0.0
 40
0.0
 40
0.0
 40
0.061512192
 40
0.1233712619
 40
0.1855473793
 40
0.2480030943
 40
0.3106938135
 40
0.3735690806
 40
0.4365738996
 40
0.4996500887
 40
0.5627377872
 40
0.625776908
 40
0.6887086976
 40
0.7514771633
 40
0.8140305962
 40
0.8763228191
 40
0.9073647768
 40
0.9383274946
 40
0.9692068896
 40
1.0
 40
1.0
 40
1.0
 40
1.0
 10
8.7874528435
 20
7.0958553265
 30
0.0
 10
8.7889292399
 20
7.0857665716
 30
0.0
 10
8.7927174045
 20
7.0656437069
 30
0.0
 10
8.8008253791
 20
7.0359431686
 30
0.0
 10
8.8113232389
 20
7.0068328057
 30
0.0
 10
8.8241404806
 20
6.9785161979
 30
0.0
 10
8.8391914079
 20
6.9511887188
 30
0.0
 10
8.8563748244
 20
6.925040586
 30
0.0
 10
8.8755747192
 20
6.9002543919
 30
0.0
 10
8.8966608278
 20
6.8770041062
 30
0.0
 10
8.9194893205
 20
6.8554536733
 30
0.0
 10
8.9439037179
 20
6.8357557639
 30
0.0
 10
8.9697357226
 20
6.8180506262
 30
0.0
 10
8.9968068757
 20
6.8024647654
 30
0.0
 10
9.0249276478
 20
6.7891104984
 30
0.0
 10
9.0491061805
 20
6.7799095016
 30
0.0
 10
9.0687743131
 20
6.7737570887
 30
0.0
 10
9.0836468582
 20
6.7697578205
 30
0.0
 10
9.0986290818
 20
6.7663760901
 30
0.0
 10
9.1086881273
 20
6.7645347023
 30
0.0
 10
9.1137268141
 20
6.7637192808
 30
0.0
  0
SPLINE
  5
38B
100
AcDbEntity
  8
0
100
AcDbSpline
 62
7
  6
CONTINUOUS
 70
0
 71
3
 72
15
 73
11
 74
0
 42
0.0000001
 43
0.0000001
 44
0.0000000001
 40
0.0
 40
0.0
 40
0.0
 40
0.0
 40
0.1266071124
 40
0.2527239339
 40
0.3783523621
 40
0.5035136392
 40
0.6282277683
 40
0.7525235357
 40
0.8764345907
 40
1.0
 40
1.0
 40
1.0
 40
1.0
 10
8.4298215561
 20
9.320061763
 30
0.0
 10
8.4298215561
 20
9.3288606788
 30
0.0
 10
8.4303177167
 20
9.3464285927
 30
0.0
 10
8.4325580856
 20
9.3726413689
 30
0.0
 10
8.4362864323
 20
9.3985837135
 30
0.0
 10
8.441490561
 20
9.4241712097
 30
0.0
 10
8.448154149
 20
9.4493223415
 30
0.0
 10
8.4562559945
 20
9.4739566503
 30
0.0
 10
8.4657697508
 20
9.4979941569
 30
0.0
 10
8.4730439499
 20
9.5135925348
 30
0.0
 10
8.4769046823
 20
9.521263279
 30
0.0
  0
SPLINE
  5
38C
100
AcDbEntity
  8
0
100
AcDbSpline
 62
7
  6
CONTINUOUS
 70
0
 71
3
 72
42
 73
38
 74
0
 42
0.0000001
 43
0.0000001
 44
0.0000000001
 40
0.0
 40
0.0
 40
0.0
 40
0.0
 40
0.0308424245
 40
0.0618178166
 40
0.0929223934
 40
0.1241515646
 40
0.1554981559
 40
0.1869535363
 40
0.2185073588
 40
0.2501478712
 40
0.2818620516
 40
0.3136358201
 40
0.3454542424
 40
0.3773017478
 40
0.4091623524
 40
0.4410198863
 40
0.472858223
 40
0.5046615084
 40
0.5364143873
 40
0.5681022241
 40
0.5997113167
 40
0.6312291009
 40
0.6626443418
 40
0.6939473111
 40
0.7251299466
 40
0.7561859911
 40
0.7871111087
 40
0.8179029751
 40
0.8485613395
 40
0.8638428818
 40
0.8790919247
 40
0.9094909485
 40
0.9397683015
 40
0.9548657798
 40
0.9699360092
 40
0.9849802806
 40
1.0
 40
1.0
 40
1.0
 40
1.0
 10
8.4029043754
 20
9.3200617615
 30
0.0
 10
8.4029043754
 20
9.3097514676
 30
0.0
 10
8.403553563
 20
9.2890807413
 30
0.0
 10
8.4064561018
 20
9.2581347764
 30
0.0
 10
8.4112780989
 20
9.2272974209
 30
0.0
 10
8.4180002808
 20
9.196691342
 30
0.0
 10
8.4265962628
 20
9.1664360265
 30
0.0
 10
8.4370321145
 20
9.1366502468
 30
0.0
 10
8.4492668289
 20
9.1074507204
 30
0.0
 10
8.4632523134
 20
9.0789519084
 30
0.0
 10
8.4789336556
 20
9.0512655045
 30
0.0
 10
8.4962493071
 20
9.024500017
 30
0.0
 10
8.5151313357
 20
8.998760345
 30
0.0
 10
8.5355056864
 20
8.9741473703
 30
0.0
 10
8.557292471
 20
8.9507575661
 30
0.0
 10
8.5804062796
 20
8.9286826213
 30
0.0
 10
8.604756511
 20
8.9080090828
 30
0.0
 10
8.6302477253
 20
8.8888180167
 30
0.0
 10
8.6567800177
 20
8.8711846953
 30
0.0
 10
8.6842494056
 20
8.8551783031
 30
0.0
 10
8.7125482335
 20
8.840861667
 30
0.0
 10
8.7415655899
 20
8.8282910105
 30
0.0
 10
8.7711877399
 20
8.817515734
 30
0.0
 10
8.8012985596
 20
8.8085782196
 30
0.0
 10
8.8317800117
 20
8.8015136655
 30
0.0
 10
8.8625125106
 20
8.7963499398
 30
0.0
 10
8.8933757306
 20
8.7931074895
 30
0.0
 10
8.9242477979
 20
8.7917991756
 30
0.0
 10
8.94991158
 20
8.7923258709
 30
0.0
 10
8.9703219029
 20
8.7937187659
 30
0.0
 10
8.9905913281
 20
8.7957518865
 30
0.0
 10
9.0157135925
 20
8.7994946141
 30
0.0
 10
9.040493287
 20
8.8048383326
 30
0.0
 10
9.0600170051
 20
8.8100568535
 30
0.0
 10
9.0744859852
 20
8.814434517
 30
0.0
 10
9.0887790527
 20
8.8192748932
 30
0.0
 10
9.0981890971
 20
8.8228101818
 30
0.0
 10
9.1028595323
 20
8.8246532213
 30
0.0
  0
SPLINE
  5
38D
100
AcDbEntity
  8
0
100
AcDbSpline
 62
7
  6
CONTINUOUS
 70
0
 71
3
 72
15
 73
11
 74
0
 42
0.0000001
 43
0.0000001
 44
0.0000000001
 40
0.0
 40
0.0
 40
0.0
 40
0.0
 40
0.1264388356
 40
0.2524490496
 40
0.3780240831
 40
0.5031828875
 40
0.627938411
 40
0.7523100754
 40
0.876321593
 40
1.0
 40
1.0
 40
1.0
 40
1.0
 10
8.4029043754
 20
9.3200617615
 30
0.0
 10
8.4029043754
 20
9.3282368458
 30
0.0
 10
8.4033109317
 20
9.3445622928
 30
0.0
 10
8.4051458974
 20
9.3689448877
 30
0.0
 10
8.4082009139
 20
9.3931221498
 30
0.0
 10
8.4124680401
 20
9.4170327133
 30
0.0
 10
8.4179369874
 20
9.4406175696
 30
0.0
 10
8.4245941792
 20
9.4638180691
 30
0.0
 10
8.4324227169
 20
9.4865757105
 30
0.0
 10
8.4384181989
 20
9.5014351657
 30
0.0
 10
8.4416039127
 20
9.5087698039
 30
0.0
  0
SPLINE
  5
38E
100
AcDbEntity
  8
0
100
AcDbSpline
 62
7
  6
CONTINUOUS
 70
0
 71
3
 72
71
 73
67
 74
0
 42
0.0000001
 43
0.0000001
 44
0.0000000001
 40
0.0
 40
0.0
 40
0.0
 40
0.0
 40
0.0156285045
 40
0.0313077472
 40
0.0470353508
 40
0.0628112648
 40
0.0786338451
 40
0.0945012052
 40
0.110411213
 40
0.1263613118
 40
0.1423486395
 40
0.1583700446
 40
0.1744221007
 40
0.1905011378
 40
0.2066032781
 40
0.2227244643
 40
0.2388604878
 40
0.2550070265
 40
0.2711596794
 40
0.2873139954
 40
0.3034655103
 40
0.3196097848
 40
0.3357424332
 40
0.3518591579
 40
0.3679557883
 40
0.3840283094
 40
0.4000728909
 40
0.4160859246
 40
0.4320640527
 40
0.4480041898
 40
0.4639035553
 40
0.4797596998
 40
0.4955705211
 40
0.5113342853
 40
0.5270496515
 40
0.5427156799
 40
0.5583318408
 40
0.5738980308
 40
0.5894145757
 40
0.6048822258
 40
0.6203021584
 40
0.6356759746
 40
0.651005683
 40
0.6662936848
 40
0.6815427619
 40
0.6967560518
 40
0.7119370167
 40
0.7270894189
 40
0.742217289
 40
0.7573248853
 40
0.7724166545
 40
0.7874971953
 40
0.8025712132
 40
0.8176434729
 40
0.8327187559
 40
0.8478018176
 40
0.8628973387
 40
0.8780098801
 40
0.8931438437
 40
0.9083034326
 40
0.923492608
 40
0.9387150538
 40
0.9539741543
 40
0.9692729545
 40
0.9846141165
 40
1.0
 40
1.0
 40
1.0
 40
1.0
 10
7.9808935538
 20
9.0224305858
 30
0.0
 10
7.9808935538
 20
9.0131928636
 30
0.0
 10
7.9813219715
 20
8.9946846404
 30
0.0
 10
7.9832407239
 20
8.9669399545
 30
0.0
 10
7.9864329887
 20
8.939224581
 30
0.0
 10
7.990891555
 20
8.9115989779
 30
0.0
 10
7.9966070361
 20
8.8841214614
 30
0.0
 10
8.0035671151
 20
8.8568508185
 30
0.0
 10
8.0117569048
 20
8.8298452178
 30
0.0
 10
8.0211589879
 20
8.8031622799
 30
0.0
 10
8.031753168
 20
8.7768588973
 30
0.0
 10
8.0435168151
 20
8.750991168
 30
0.0
 10
8.0564249021
 20
8.7256143098
 30
0.0
 10
8.0704498098
 20
8.700782424
 30
0.0
 10
8.0855615599
 20
8.6765484456
 30
0.0
 10
8.101727965
 20
8.6529640988
 30
0.0
 10
8.1189145446
 20
8.6300797039
 30
0.0
 10
8.1370845543
 20
8.6079440156
 30
0.0
 10
8.1561992512
 20
8.5866042585
 30
0.0
 10
8.1762179255
 20
8.5661060164
 30
0.0
 10
8.1970978066
 20
8.5464929535
 30
0.0
 10
8.2187943445
 20
8.5278068884
 30
0.0
 10
8.241261322
 20
8.5100877567
 30
0.0
 10
8.2644508027
 20
8.4933733516
 30
0.0
 10
8.2883132853
 20
8.4776992781
 30
0.0
 10
8.3127979054
 20
8.4630990258
 30
0.0
 10
8.3378524713
 20
8.4496038193
 30
0.0
 10
8.3634234954
 20
8.437242382
 30
0.0
 10
8.3894564419
 20
8.426041107
 30
0.0
 10
8.415895821
 20
8.4160240152
 30
0.0
 10
8.4426852084
 20
8.4072124537
 30
0.0
 10
8.4697674453
 20
8.3996252082
 30
0.0
 10
8.497084778
 20
8.3932785777
 30
0.0
 10
8.5245789255
 20
8.3881861746
 30
0.0
 10
8.552191207
 20
8.3843588171
 30
0.0
 10
8.57986271
 20
8.3818047426
 30
0.0
 10
8.6075343851
 20
8.3805295494
 30
0.0
 10
8.6351471629
 20
8.3805359171
 30
0.0
 10
8.6626421075
 20
8.3818238584
 30
0.0
 10
8.6899605151
 20
8.3843907729
 30
0.0
 10
8.7170440522
 20
8.3882312135
 30
0.0
 10
8.7438348966
 20
8.3933369556
 30
0.0
 10
8.7702758249
 20
8.3996971984
 30
0.0
 10
8.7963103357
 20
8.4072984772
 30
0.0
 10
8.821882838
 20
8.4161245022
 30
0.0
 10
8.8469387018
 20
8.4261564655
 30
0.0
 10
8.8714243448
 20
8.4373730759
 30
0.0
 10
8.8952874618
 20
8.4497503449
 30
0.0
 10
8.918477083
 20
8.4632618126
 30
0.0
 10
8.9409436084
 20
8.477878703
 30
0.0
 10
8.962638997
 20
8.4935698241
 30
0.0
 10
8.9835169361
 20
8.5103015792
 30
0.0
 10
9.0035327941
 20
8.5280382453
 30
0.0
 10
9.0226437228
 20
8.5467419959
 30
0.0
 10
9.0408089472
 20
8.5663727873
 30
0.0
 10
9.0579896793
 20
8.5868886498
 30
0.0
 10
9.0741491408
 20
8.6082457961
 30
0.0
 10
9.0892528291
 20
8.6303985595
 30
0.0
 10
9.1032685608
 20
8.6532995459
 30
0.0
 10
9.1161663769
 20
8.6768998404
 30
0.0
 10
9.1279186848
 20
8.7011490295
 30
0.0
 10
9.1385005159
 20
8.7259952564
 30
0.0
 10
9.1478892972
 20
8.7513853815
 30
0.0
 10
9.1560649585
 20
8.7772653919
 30
0.0
 10
9.1630100022
 20
8.8035792096
 30
0.0
 10
9.1668045326
 20
8.8213488601
 30
0.0
 10
9.1684927634
 20
8.8302851015
 30
0.0
  0
SPLINE
  5
38F
100
AcDbEntity
  8
0
100
AcDbSpline
 62
7
  6
CONTINUOUS
 70
0
 71
3
 72
71
 73
67
 74
0
 42
0.0000001
 43
0.0000001
 44
0.0000000001
 40
0.0
 40
0.0
 40
0.0
 40
0.0
 40
0.0156238041
 40
0.0312976481
 40
0.0470189411
 40
0.0627877428
 40
0.0786025526
 40
0.0944615167
 40
0.1103626241
 40
0.1263034444
 40
0.1422812487
 40
0.1582930359
 40
0.1743355332
 40
0.1904052386
 40
0.2064984463
 40
0.2226112679
 40
0.238739671
 40
0.2548795082
 40
0.2710265423
 40
0.2871764849
 40
0.3033250281
 40
0.3194678696
 40
0.3356007526
 40
0.3517194962
 40
0.3678200205
 40
0.3838983855
 40
0.3999508197
 40
0.4159737424
 40
0.4319638007
 40
0.4479178949
 40
0.4638331958
 40
0.4797071784
 40
0.4955376424
 40
0.5113227236
 40
0.5270609204
 40
0.5427511096
 40
0.5583925493
 40
0.5739848961
 40
0.5895282147
 40
0.6050229709
 40
0.6204700372
 40
0.6358706948
 40
0.6512266161
 40
0.6665398572
 40
0.6818128502
 40
0.6970483766
 40
0.7122495457
 40
0.7274197769
 40
0.7425627653
 40
0.7576824475
 40
0.7727829744
 40
0.7878686719
 40
0.802943997
 40
0.8180135034
 40
0.8330818005
 40
0.8481535055
 40
0.8632332041
 40
0.8783254122
 40
0.8934345299
 40
0.9085648005
 40
0.92372028
 40
0.9389047964
 40
0.9541219118
 40
0.9693749059
 40
0.9846667366
 40
1.0
 40
1.0
 40
1.0
 40
1.0
 10
8.073720097
 20
9.0695828342
 30
0.0
 10
8.073720097
 20
9.061126018
 30
0.0
 10
8.0741055795
 20
9.0441828335
 30
0.0
 10
8.0758320992
 20
9.0187829841
 30
0.0
 10
8.0787047337
 20
8.9934076541
 30
0.0
 10
8.0827172392
 20
8.96811041
 30
0.0
 10
8.0878613445
 20
8.9429427701
 30
0.0
 10
8.0941264116
 20
8.9179567516
 30
0.0
 10
8.1014995564
 20
8.8932038875
 30
0.0
 10
8.1099655033
 20
8.8687351549
 30
0.0
 10
8.1195067179
 20
8.8446009603
 30
0.0
 10
8.1301036192
 20
8.8208510815
 30
0.0
 10
8.1417343068
 20
8.7975344458
 30
0.0
 10
8.1543747171
 20
8.7746990581
 30
0.0
 10
8.16799888
 20
8.7523920231
 30
0.0
 10
8.1825786957
 20
8.7306593071
 30
0.0
 10
8.1980840225
 20
8.7095456316
 30
0.0
 10
8.214482975
 20
8.6890945545
 30
0.0
 10
8.2317417713
 20
8.6693482405
 30
0.0
 10
8.2498247537
 20
8.6503473024
 30
0.0
 10
8.2686947104
 20
8.6321309419
 30
0.0
 10
8.2883127949
 20
8.6147367499
 30
0.0
 10
8.3086384967
 20
8.5982004821
 30
0.0
 10
8.3296299672
 20
8.5825562557
 30
0.0
 10
8.3512440031
 20
8.5678363964
 30
0.0
 10
8.3734359938
 20
8.5540711463
 30
0.0
 10
8.3961602295
 20
8.5412889035
 30
0.0
 10
8.419369938
 20
8.5295161304
 30
0.0
 10
8.443017235
 20
8.5187770027
 30
0.0
 10
8.4670533968
 20
8.5090936711
 30
0.0
 10
8.4914289366
 20
8.5004862402
 30
0.0
 10
8.5160935804
 20
8.4929723803
 30
0.0
 10
8.5409964943
 20
8.4865675812
 30
0.0
 10
8.5660863829
 20
8.4812852092
 30
0.0
 10
8.5913115074
 20
8.4771361097
 30
0.0
 10
8.6166198663
 20
8.4741288206
 30
0.0
 10
8.6419592988
 20
8.4722697119
 30
0.0
 10
8.6672775496
 20
8.4715626071
 30
0.0
 10
8.6925224148
 20
8.472008929
 30
0.0
 10
8.7176418317
 20
8.4736079215
 30
0.0
 10
8.7425839848
 20
8.4763563137
 30
0.0
 10
8.7672974386
 20
8.4802483819
 30
0.0
 10
8.7917311948
 20
8.4852762453
 30
0.0
 10
8.8158348275
 20
8.4914295916
 30
0.0
 10
8.8395586282
 20
8.4986956524
 30
0.0
 10
8.8628536153
 20
8.5070595559
 30
0.0
 10
8.8856716808
 20
8.5165041284
 30
0.0
 10
8.907965772
 20
8.5270097908
 30
0.0
 10
8.9296898447
 20
8.5385549468
 30
0.0
 10
8.9507989999
 20
8.5511158665
 30
0.0
 10
8.971249722
 20
8.5646665244
 30
0.0
 10
8.9909997738
 20
8.5791789971
 30
0.0
 10
9.0100083041
 20
8.5946234263
 30
0.0
 10
9.0282361484
 20
8.610967829
 30
0.0
 10
9.0456456768
 20
8.628178477
 30
0.0
 10
9.0622008543
 20
8.6462199294
 30
0.0
 10
9.0778675961
 20
8.6650548499
 30
0.0
 10
9.0926135915
 20
8.6846443423
 30
0.0
 10
9.1064083024
 20
8.7049480385
 30
0.0
 10
9.1192233518
 20
8.7259239547
 30
0.0
 10
9.1310323546
 20
8.7475287601
 30
0.0
 10
9.1418108483
 20
8.7697179262
 30
0.0
 10
9.1515366694
 20
8.7924455583
 30
0.0
 10
9.1601898935
 20
8.8156649051
 30
0.0
 10
9.1677524097
 20
8.8393273838
 30
0.0
 10
9.1720510073
 20
8.8553444899
 30
0.0
 10
9.1740141055
 20
8.8634085352
 30
0.0
  0
SPLINE
  5
390
100
AcDbEntity
  8
0
100
AcDbSpline
 62
7
  6
CONTINUOUS
 70
0
 71
3
 72
45
 73
41
 74
0
 42
0.0000001
 43
0.0000001
 44
0.0000000001
 40
0.0
 40
0.0
 40
0.0
 40
0.0
 40
0.0310742248
 40
0.0623057299
 40
0.0936898583
 40
0.1252179045
 40
0.1568785562
 40
0.1886576027
 40
0.2205384468
 40
0.2525024121
 40
0.2845291503
 40
0.3165970563
 40
0.3486837049
 40
0.3807662984
 40
0.4128221198
 40
0.444828984
 40
0.4767656828
 40
0.5086124154
 40
0.5403511982
 40
0.5719662482
 40
0.6034443316
 40
0.63477507
 40
0.6659511987
 40
0.696968766
 40
0.7278272696
 40
0.75852972
 40
0.7890826277
 40
0.8194959078
 40
0.8346570229
 40
0.8497884114
 40
0.86489218
 40
0.8799705889
 40
0.8950260601
 40
0.9100611432
 40
0.9250785188
 40
0.9400809686
 40
0.9550713677
 40
0.970052665
 40
0.9850278611
 40
1.0
 40
1.0
 40
1.0
 40
1.0
 10
8.1563765105
 20
9.0819341158
 30
0.0
 10
8.1563765105
 20
9.0697258754
 30
0.0
 10
8.1572872177
 20
9.0452382091
 30
0.0
 10
8.1613533254
 20
9.0086239304
 30
0.0
 10
8.1681000135
 20
8.9722246419
 30
0.0
 10
8.1774899994
 20
8.9362428237
 30
0.0
 10
8.1894712645
 20
8.9008753708
 30
0.0
 10
8.2039777754
 20
8.8663165797
 30
0.0
 10
8.220929621
 20
8.8327560548
 30
0.0
 10
8.2402335537
 20
8.8003779633
 30
0.0
 10
8.2617834616
 20
8.7693599588
 30
0.0
 10
8.285460961
 20
8.7398722415
 30
0.0
 10
8.3111360373
 20
8.7120766286
 30
0.0
 10
8.3386677539
 20
8.6861256783
 30
0.0
 10
8.367905015
 20
8.662161858
 30
0.0
 10
8.3986873861
 20
8.6403167679
 30
0.0
 10
8.4308459686
 20
8.6207104284
 30
0.0
 10
8.4642043143
 20
8.6034506257
 30
0.0
 10
8.4985793814
 20
8.588632323
 30
0.0
 10
8.5337825256
 20
8.5763371398
 30
0.0
 10
8.5696205201
 20
8.5666329019
 30
0.0
 10
8.6058966036
 20
8.559573265
 30
0.0
 10
8.642411534
 20
8.5551974067
 30
0.0
 10
8.6789647105
 20
8.5535298149
 30
0.0
 10
8.7153551037
 20
8.5545800781
 30
0.0
 10
8.7513829397
 20
8.558343027
 30
0.0
 10
8.7868486097
 20
8.5647979377
 30
0.0
 10
8.8158079534
 20
8.5724009339
 30
0.0
 10
8.8384900595
 20
8.5797877312
 30
0.0
 10
8.8552256229
 20
8.5859664043
 30
0.0
 10
8.8716773946
 20
8.5927801763
 30
0.0
 10
8.8878229987
 20
8.600219914
 30
0.0
 10
8.9036402284
 20
8.6082751535
 30
0.0
 10
8.9191072067
 20
8.6169350833
 30
0.0
 10
8.9342027931
 20
8.6261875148
 30
0.0
 10
8.948906051
 20
8.6360200013
 30
0.0
 10
8.9631968891
 20
8.6464187487
 30
0.0
 10
8.9770555582
 20
8.6573697295
 30
0.0
 10
8.9904628499
 20
8.6688574555
 30
0.0
 10
8.9990886928
 20
8.6768642305
 30
0.0
 10
9.0033194721
 20
8.6809508278
 30
0.0
  0
SPLINE
  5
391
100
AcDbEntity
  8
0
100
AcDbSpline
 62
7
  6
CONTINUOUS
 70
0
 71
3
 72
39
 73
35
 74
0
 42
0.0000001
 43
0.0000001
 44
0.0000000001
 40
0.0
 40
0.0
 40
0.0
 40
0.0
 40
0.0306300817
 40
0.061364181
 40
0.0921994378
 40
0.1231347699
 40
0.1541659007
 40
0.1852882955
 40
0.2164966118
 40
0.2477846024
 40
0.2791453295
 40
0.3105711931
 40
0.3420540067
 40
0.3735850676
 40
0.4051552393
 40
0.4367550462
 40
0.4683747457
 40
0.5000044127
 40
0.5316340428
 40
0.5632536317
 40
0.5948532555
 40
0.626423173
 40
0.6579539109
 40
0.6894363358
 40
0.7208617476
 40
0.7522219662
 40
0.7835093941
 40
0.8147170902
 40
0.8458388539
 40
0.876869276
 40
0.9078037867
 40
0.9386387249
 40
0.9693713774
 40
1.0
 40
1.0
 40
1.0
 40
1.0
 10
8.6620204957
 20
9.5390379264
 30
0.0
 10
8.6621077562
 20
9.5313096431
 30
0.0
 10
8.6626656643
 20
9.51582849
 30
0.0
 10
8.6646435639
 20
9.4926395323
 30
0.0
 10
8.6677591146
 20
9.4694976409
 30
0.0
 10
8.6720043495
 20
9.446460147
 30
0.0
 10
8.6773691516
 20
9.4235829781
 30
0.0
 10
8.6838401932
 20
9.4009222405
 30
0.0
 10
8.6914015726
 20
9.3785332995
 30
0.0
 10
8.7000348684
 20
9.3564709328
 30
0.0
 10
8.7097189034
 20
9.3347890897
 30
0.0
 10
8.7204298986
 20
9.3135407504
 30
0.0
 10
8.7321416778
 20
9.2927778826
 30
0.0
 10
8.74482564
 20
9.2725512912
 30
0.0
 10
8.7584506657
 20
9.252910379
 30
0.0
 10
8.772983422
 20
9.2339031586
 30
0.0
 10
8.788388439
 20
9.2155761636
 30
0.0
 10
8.8046280018
 20
9.1979741799
 30
0.0
 10
8.8216623558
 20
9.1811402061
 30
0.0
 10
8.8394498916
 20
9.165115448
 30
0.0
 10
8.857947145
 20
9.149939136
 30
0.0
 10
8.8771088265
 20
9.1356483154
 30
0.0
 10
8.8968880961
 20
9.1222779462
 30
0.0
 10
8.917236648
 20
9.1098608248
 30
0.0
 10
8.9381046897
 20
9.0984272779
 30
0.0
 10
8.9594411831
 20
9.0880052496
 30
0.0
 10
8.9811939937
 20
9.078620323
 30
0.0
 10
9.0033099363
 20
9.0702955038
 30
0.0
 10
9.0257348958
 20
9.0630511038
 30
0.0
 10
9.0484140605
 20
9.0569049019
 30
0.0
 10
9.0712919316
 20
9.05187207
 30
0.0
 10
9.0943127305
 20
9.047964877
 30
0.0
 10
9.1174193985
 20
9.0451929124
 30
0.0
 10
9.1328715849
 20
9.0441044965
 30
0.0
 10
9.1405919638
 20
9.0437523094
 30
0.0
  0
SPLINE
  5
392
100
AcDbEntity
  8
0
100
AcDbSpline
 62
7
  6
CONTINUOUS
 70
0
 71
3
 72
46
 73
42
 74
0
 42
0.0000001
 43
0.0000001
 44
0.0000000001
 40
0.0
 40
0.0
 40
0.0
 40
0.0
 40
0.0310347459
 40
0.0622222698
 40
0.0935583868
 40
0.1250350501
 40
0.1566418496
 40
0.1883656828
 40
0.2201912083
 40
0.2521011215
 40
0.2840765097
 40
0.3160972199
 40
0.3481422449
 40
0.3801901213
 40
0.4122193322
 40
0.4442087112
 40
0.4761378415
 40
0.5079874456
 40
0.539739759
 40
0.5713788842
 40
0.6028911165
 40
0.6342652366
 40
0.6654927636
 40
0.6965681627
 40
0.7274889991
 40
0.7582560346
 40
0.7888732593
 40
0.8041304429
 40
0.8193531292
 40
0.834542698
 40
0.8497007056
 40
0.8648288906
 40
0.879929148
 40
0.8950035376
 40
0.910054258
 40
0.9250836451
 40
0.9400941556
 40
0.9550883507
 40
0.9700688905
 40
0.9850385067
 40
1.0
 40
1.0
 40
1.0
 40
1.0
 10
10.1134646905
 20
9.0380429589
 30
0.0
 10
10.1134646905
 20
9.0224054165
 30
0.0
 10
10.1145985504
 20
8.9910419678
 30
0.0
 10
10.1196623793
 20
8.944135377
 30
0.0
 10
10.1280664299
 20
8.8974825223
 30
0.0
 10
10.1397668344
 20
8.8513286797
 30
0.0
 10
10.1547023264
 20
8.8059125946
 30
0.0
 10
10.1727951026
 20
8.7614701044
 30
0.0
 10
10.1939509613
 20
8.7182316951
 30
0.0
 10
10.2180599021
 20
8.676421657
 30
0.0
 10
10.2449966576
 20
8.6362568423
 30
0.0
 10
10.2746213359
 20
8.597945568
 30
0.0
 10
10.3067801562
 20
8.5616865484
 30
0.0
 10
10.3413062418
 20
8.5276678787
 30
0.0
 10
10.3780204769
 20
8.4960660688
 30
0.0
 10
10.4167324263
 20
8.4670451367
 30
0.0
 10
10.4572413125
 20
8.4407557653
 30
0.0
 10
10.4993370448
 20
8.4173345263
 30
0.0
 10
10.5428012954
 20
8.3969031766
 30
0.0
 10
10.5874086096
 20
8.3795680078
 30
0.0
 10
10.6329275744
 20
8.3654193116
 30
0.0
 10
10.679121988
 20
8.3545309063
 30
0.0
 10
10.7257521215
 20
8.3469597568
 30
0.0
 10
10.772575749
 20
8.3427456272
 30
0.0
 10
10.8193501181
 20
8.3419110117
 30
0.0
 10
10.8658304978
 20
8.3444604312
 30
0.0
 10
10.9041691687
 20
8.3494014315
 30
0.0
 10
10.9344415371
 20
8.3550287084
 30
0.0
 10
10.9568989226
 20
8.3600739438
 30
0.0
 10
10.9791035249
 20
8.3659419554
 30
0.0
 10
11.0010268547
 20
8.3726252084
 30
0.0
 10
11.0226403443
 20
8.380114872
 30
0.0
 10
11.0439158332
 20
8.3884014533
 30
0.0
 10
11.0648257508
 20
8.3974739146
 30
0.0
 10
11.0853427856
 20
8.4073207488
 30
0.0
 10
11.1054403599
 20
8.4179289218
 30
0.0
 10
11.1250922588
 20
8.4292848162
 30
0.0
 10
11.1442729292
 20
8.4413735832
 30
0.0
 10
11.1629575389
 20
8.4541795522
 30
0.0
 10
11.181121355
 20
8.467685912
 30
0.0
 10
11.1928710027
 20
8.4771479217
 30
0.0
 10
11.1986500851
 20
8.4819887778
 30
0.0
  0
SPLINE
  5
393
100
AcDbEntity
  8
0
100
AcDbSpline
 62
7
  6
CONTINUOUS
 70
0
 71
3
 72
23
 73
19
 74
0
 42
0.0000001
 43
0.0000001
 44
0.0000000001
 40
0.0
 40
0.0
 40
0.0
 40
0.0
 40
0.0637109068
 40
0.1272323532
 40
0.1905592488
 40
0.2536992957
 40
0.3166571996
 40
0.3794392838
 40
0.442053933
 40
0.50451058
 40
0.5668200014
 40
0.6289942137
 40
0.6910463314
 40
0.7529905109
 40
0.8148418136
 40
0.8766160746
 40
0.9383297964
 40
1.0
 40
1.0
 40
1.0
 40
1.0
 10
10.1134646905
 20
9.0380429589
 30
0.0
 10
10.1134646905
 20
9.047533498
 30
0.0
 10
10.1138805898
 20
9.0664890416
 30
0.0
 10
10.1157570624
 20
9.0948220174
 30
0.0
 10
10.1188821438
 20
9.1229596694
 30
0.0
 10
10.1232495538
 20
9.1508463921
 30
0.0
 10
10.128850975
 20
9.1784289886
 30
0.0
 10
10.1356756192
 20
9.2056540552
 30
0.0
 10
10.1437104087
 20
9.2324689914
 30
0.0
 10
10.1529398585
 20
9.2588220365
 30
0.0
 10
10.1633461058
 20
9.2846623158
 30
0.0
 10
10.1749091823
 20
9.3099398816
 30
0.0
 10
10.1876067959
 20
9.3346058897
 30
0.0
 10
10.2014143645
 20
9.3586127501
 30
0.0
 10
10.2163052712
 20
9.3819140054
 30
0.0
 10
10.2322509665
 20
9.4044647544
 30
0.0
 10
10.2492200181
 20
9.4262209065
 30
0.0
 10
10.2611975846
 20
9.4401723183
 30
0.0
 10
10.2673440208
 20
9.4469997656
 30
0.0
  0
SPLINE
  5
394
100
AcDbEntity
  8
0
100
AcDbSpline
 62
7
  6
CONTINUOUS
 70
0
 71
3
 72
52
 73
48
 74
0
 42
0.0000001
 43
0.0000001
 44
0.0000000001
 40
0.0
 40
0.0
 40
0.0
 40
0.0
 40
0.0417736292
 40
0.0840373446
 40
0.1266586052
 40
0.1695067922
 40
0.2124484278
 40
0.2553504556
 40
0.2980797169
 40
0.3405037987
 40
0.3824914834
 40
0.4239132935
 40
0.4646420229
 40
0.5045532747
 40
0.5435260114
 40
0.5814431205
 40
0.6181920046
 40
0.6536652163
 40
0.6877611311
 40
0.7203846817
 40
0.7514482003
 40
0.7663702348
 40
0.7808732728
 40
0.7949489244
 40
0.8085895246
 40
0.8217880475
 40
0.8345384568
 40
0.8468354098
 40
0.8586747416
 40
0.8700532367
 40
0.8809689705
 40
0.8914214137
 40
0.9014114943
 40
0.9109420987
 40
0.920017969
 40
0.9286464346
 40
0.9368374599
 40
0.9446043519
 40
0.9519642384
 40
0.9589386284
 40
0.9655543158
 40
0.9718437976
 40
0.9778461907
 40
0.9836073608
 40
0.9891800399
 40
0.9946230749
 40
1.0
 40
1.0
 40
1.0
 40
1.0
 10
13.0394271134
 20
8.9978613562
 30
0.0
 10
13.0394271134
 20
8.9879551845
 30
0.0
 10
13.0392725523
 20
8.9680263112
 30
0.0
 10
13.0385893451
 20
8.937997299
 30
0.0
 10
13.0374553187
 20
8.907726883
 30
0.0
 10
13.0358742927
 20
8.8773155776
 30
0.0
 10
13.0338514195
 20
8.8468637372
 30
0.0
 10
13.031393423
 20
8.8164722197
 30
0.0
 10
13.0285084275
 20
8.7862415342
 30
0.0
 10
13.0252059993
 20
8.7562717043
 30
0.0
 10
13.0214970957
 20
8.7266618704
 30
0.0
 10
13.0173940324
 20
8.6975099743
 30
0.0
 10
13.0129104397
 20
8.66891243
 30
0.0
 10
13.0080612191
 20
8.6409638027
 30
0.0
 10
13.0028624948
 20
8.6137564917
 30
0.0
 10
12.9973315623
 20
8.5873804214
 30
0.0
 10
12.9914868306
 20
8.5619227274
 30
0.0
 10
12.9853477663
 20
8.5374674769
 30
0.0
 10
12.9789348358
 20
8.5140952912
 30
0.0
 10
12.9722694014
 20
8.4918833575
 30
0.0
 10
12.966447757
 20
8.4741716545
 30
0.0
 10
12.9616704092
 20
8.4606458585
 30
0.0
 10
12.9580862003
 20
8.4509723455
 30
0.0
 10
12.9544557385
 20
8.4416414152
 30
0.0
 10
12.9507820504
 20
8.4326607392
 30
0.0
 10
12.9470681006
 20
8.4240377374
 30
0.0
 10
12.9433170691
 20
8.4157794775
 30
0.0
 10
12.9395319436
 20
8.4078927755
 30
0.0
 10
12.9357159423
 20
8.4003840754
 30
0.0
 10
12.931872149
 20
8.3932595406
 30
0.0
 10
12.928003725
 20
8.3865249918
 30
0.0
 10
12.9241138778
 20
8.3801858917
 30
0.0
 10
12.9202056687
 20
8.3742474315
 30
0.0
 10
12.9162823731
 20
8.3687143485
 30
0.0
 10
12.9123469734
 20
8.3635911738
 30
0.0
 10
12.9084026736
 20
8.3588819505
 30
0.0
 10
12.9044524202
 20
8.3545905015
 30
0.0
 10
12.9004991864
 20
8.3507202774
 30
0.0
 10
12.8965458719
 20
8.3472743989
 30
0.0
 10
12.8925951438
 20
8.3442558929
 30
0.0
 10
12.8886498023
 20
8.3416673482
 30
0.0
 10
12.8847123561
 20
8.339511587
 30
0.0
 10
12.8807856174
 20
8.3377910378
 30
0.0
 10
12.8768725252
 20
8.336508408
 30
0.0
 10
12.8729763516
 20
8.3356661254
 30
0.0
 10
12.8691018119
 20
8.3352661725
 30
0.0
 10
12.866529444
 20
8.3352956004
 30
0.0
 10
12.8652574188
 20
8.3353838187
 30
0.0
  0
SPLINE
  5
395
100
AcDbEntity
  8
0
100
AcDbSpline
 62
7
  6
CONTINUOUS
 70
0
 71
3
 72
23
 73
19
 74
0
 42
0.0000001
 43
0.0000001
 44
0.0000000001
 40
0.0
 40
0.0
 40
0.0
 40
0.0
 40
0.063776909
 40
0.1273449468
 40
0.1907019575
 40
0.2538561145
 40
0.3168131979
 40
0.3795820804
 40
0.4421733815
 40
0.5045993354
 40
0.5668738682
 40
0.6290123838
 40
0.6910316538
 40
0.75294965
 40
0.8147853622
 40
0.8765586114
 40
0.9382898593
 40
1.0
 40
1.0
 40
1.0
 40
1.0
 10
10.0565245492
 20
8.9830430027
 30
0.0
 10
10.0565245492
 20
8.9934110421
 30
0.0
 10
10.0570208212
 20
9.014116678
 30
0.0
 10
10.0592606447
 20
9.0450491601
 30
0.0
 10
10.0629900145
 20
9.0757364656
 30
0.0
 10
10.0681999681
 20
9.1061065124
 30
0.0
 10
10.0748788907
 20
9.1360898883
 30
0.0
 10
10.0830113351
 20
9.1656172816
 30
0.0
 10
10.0925785944
 20
9.1946206702
 30
0.0
 10
10.1035586948
 20
9.2230331716
 30
0.0
 10
10.1159264147
 20
9.2507892388
 30
0.0
 10
10.1296532901
 20
9.27782485
 30
0.0
 10
10.1447076664
 20
9.3040776578
 30
0.0
 10
10.1610548799
 20
9.3294871173
 30
0.0
 10
10.1786572402
 20
9.3539945332
 30
0.0
 10
10.1974743894
 20
9.3775435439
 30
0.0
 10
10.217462162
 20
9.4000791076
 30
0.0
 10
10.2315396564
 20
9.4143952017
 30
0.0
 10
10.2387552398
 20
9.4213649501
 30
0.0
  0
SPLINE
  5
396
100
AcDbEntity
  8
0
100
AcDbSpline
 62
7
  6
CONTINUOUS
 70
0
 71
3
 72
52
 73
48
 74
0
 42
0.0000001
 43
0.0000001
 44
0.0000000001
 40
0.0
 40
0.0
 40
0.0
 40
0.0
 40
0.0417736292
 40
0.0840373446
 40
0.1266586052
 40
0.1695067922
 40
0.2124484278
 40
0.2553504556
 40
0.2980797169
 40
0.3405037987
 40
0.3824914834
 40
0.4239132935
 40
0.4646420229
 40
0.5045532747
 40
0.5435260114
 40
0.5814431205
 40
0.6181920046
 40
0.6536652163
 40
0.6877611311
 40
0.7203846817
 40
0.7514482003
 40
0.7663702348
 40
0.7808732728
 40
0.7949489244
 40
0.8085895246
 40
0.8217880475
 40
0.8345384568
 40
0.8468354098
 40
0.8586747416
 40
0.8700532367
 40
0.8809689705
 40
0.8914214137
 40
0.9014114943
 40
0.9109420987
 40
0.920017969
 40
0.9286464346
 40
0.9368374599
 40
0.9446043519
 40
0.9519642384
 40
0.9589386284
 40
0.9655543158
 40
0.9718437976
 40
0.9778461907
 40
0.9836073608
 40
0.9891800399
 40
0.9946230749
 40
1.0
 40
1.0
 40
1.0
 40
1.0
 10
13.0394271134
 20
6.2198585852
 30
0.0
 10
13.0394271134
 20
6.2099524135
 30
0.0
 10
13.0392725523
 20
6.1900235402
 30
0.0
 10
13.0385893451
 20
6.159994528
 30
0.0
 10
13.0374553187
 20
6.129724112
 30
0.0
 10
13.0358742927
 20
6.0993128066
 30
0.0
 10
13.0338514195
 20
6.0688609662
 30
0.0
 10
13.031393423
 20
6.0384694487
 30
0.0
 10
13.0285084275
 20
6.0082387632
 30
0.0
 10
13.0252059993
 20
5.9782689333
 30
0.0
 10
13.0214970957
 20
5.9486590994
 30
0.0
 10
13.0173940324
 20
5.9195072033
 30
0.0
 10
13.0129104397
 20
5.890909659
 30
0.0
 10
13.0080612191
 20
5.8629610317
 30
0.0
 10
13.0028624948
 20
5.8357537207
 30
0.0
 10
12.9973315623
 20
5.8093776504
 30
0.0
 10
12.9914868306
 20
5.7839199564
 30
0.0
 10
12.9853477663
 20
5.7594647059
 30
0.0
 10
12.9789348358
 20
5.7360925202
 30
0.0
 10
12.9722694014
 20
5.7138805865
 30
0.0
 10
12.966447757
 20
5.6961688835
 30
0.0
 10
12.9616704092
 20
5.6826430875
 30
0.0
 10
12.9580862003
 20
5.6729695745
 30
0.0
 10
12.9544557385
 20
5.6636386442
 30
0.0
 10
12.9507820504
 20
5.6546579682
 30
0.0
 10
12.9470681006
 20
5.6460349664
 30
0.0
 10
12.9433170691
 20
5.6377767065
 30
0.0
 10
12.9395319436
 20
5.6298900045
 30
0.0
 10
12.9357159423
 20
5.6223813044
 30
0.0
 10
12.931872149
 20
5.6152567696
 30
0.0
 10
12.928003725
 20
5.6085222208
 30
0.0
 10
12.9241138778
 20
5.6021831207
 30
0.0
 10
12.9202056687
 20
5.5962446605
 30
0.0
 10
12.9162823731
 20
5.5907115775
 30
0.0
 10
12.9123469734
 20
5.5855884028
 30
0.0
 10
12.9084026736
 20
5.5808791795
 30
0.0
 10
12.9044524202
 20
5.5765877305
 30
0.0
 10
12.9004991864
 20
5.5727175064
 30
0.0
 10
12.8965458719
 20
5.5692716279
 30
0.0
 10
12.8925951438
 20
5.5662531219
 30
0.0
 10
12.8886498023
 20
5.5636645772
 30
0.0
 10
12.8847123561
 20
5.561508816
 30
0.0
 10
12.8807856174
 20
5.5597882668
 30
0.0
 10
12.8768725252
 20
5.558505637
 30
0.0
 10
12.8729763516
 20
5.5576633544
 30
0.0
 10
12.8691018119
 20
5.5572634015
 30
0.0
 10
12.866529444
 20
5.5572928294
 30
0.0
 10
12.8652574188
 20
5.5573810477
 30
0.0
  0
SPLINE
  5
397
100
AcDbEntity
  8
0
100
AcDbSpline
 62
7
  6
CONTINUOUS
 70
0
 71
3
 72
51
 73
47
 74
0
 42
0.0000001
 43
0.0000001
 44
0.0000000001
 40
0.0
 40
0.0
 40
0.0
 40
0.0
 40
0.0310553671
 40
0.062265879
 40
0.093627172
 40
0.1251308531
 40
0.1567659986
 40
0.1885189355
 40
0.2203736447
 40
0.2523120912
 40
0.2843145952
 40
0.3163602268
 40
0.3484272181
 40
0.3804933875
 40
0.4125365701
 40
0.4445350456
 40
0.4764679617
 40
0.5083157466
 40
0.5400605025
 40
0.5716863734
 40
0.6031798841
 40
0.6345302405
 40
0.6501516925
 40
0.6657346688
 40
0.6812786845
 40
0.6967834532
 40
0.7122489023
 40
0.7276751701
 40
0.7430626019
 40
0.7584117619
 40
0.7737234179
 40
0.7889985479
 40
0.8042383353
 40
0.819444156
 40
0.8346175846
 40
0.8497603753
 40
0.8648744582
 40
0.8799619321
 40
0.8950250442
 40
0.9100661887
 40
0.9250878858
 40
0.9400927688
 40
0.9550835739
 40
0.9700631161
 40
0.9850342799
 40
1.0
 40
1.0
 40
1.0
 40
1.0
 10
7.7973676359
 20
6.6203435002
 30
0.0
 10
7.7973676359
 20
6.6012031558
 30
0.0
 10
7.7987770339
 20
6.5628124872
 30
0.0
 10
7.8050704865
 20
6.5054036852
 30
0.0
 10
7.8155139582
 20
6.4483196274
 30
0.0
 10
7.8300512187
 20
6.3918697326
 30
0.0
 10
7.8486038478
 20
6.3363550768
 30
0.0
 10
7.8710721821
 20
6.2820728985
 30
0.0
 10
7.8973355794
 20
6.2293134273
 30
0.0
 10
7.9272532267
 20
6.1783588225
 30
0.0
 10
7.9606648556
 20
6.1294815563
 30
0.0
 10
7.9973916116
 20
6.0829430263
 30
0.0
 10
8.0372369381
 20
6.0389921183
 30
0.0
 10
8.079987641
 20
5.9978638913
 30
0.0
 10
8.1254150615
 20
5.9597783754
 30
0.0
 10
8.1732762745
 20
5.9249393976
 30
0.0
 10
8.2233153605
 20
5.8935335193
 30
0.0
 10
8.2752647669
 20
5.8657289504
 30
0.0
 10
8.3288465386
 20
5.8416747443
 30
0.0
 10
8.3837746551
 20
5.8214999073
 30
0.0
 10
8.4397533145
 20
5.80531313
 30
0.0
 10
8.4870921394
 20
5.7952070142
 30
0.0
 10
8.5251827127
 20
5.7892005938
 30
0.0
 10
8.5537934128
 20
5.7857416389
 30
0.0
 10
8.5824387356
 20
5.7833284159
 30
0.0
 10
8.6110807751
 20
5.7819642871
 30
0.0
 10
8.6396810139
 20
5.7816509593
 30
0.0
 10
8.6682011636
 20
5.7823889115
 30
0.0
 10
8.6966029843
 20
5.7841772783
 30
0.0
 10
8.7248484255
 20
5.7870134847
 30
0.0
 10
8.7528996069
 20
5.790893969
 30
0.0
 10
8.7807189407
 20
5.7958134079
 30
0.0
 10
8.8082691384
 20
5.8017652342
 30
0.0
 10
8.8355132307
 20
5.808741624
 30
0.0
 10
8.8624147444
 20
5.8167330342
 30
0.0
 10
8.888937553
 20
5.8257289698
 30
0.0
 10
8.9150461207
 20
5.8357172823
 30
0.0
 10
8.9407054555
 20
5.8466845639
 30
0.0
 10
8.9658810748
 20
5.8586162813
 30
0.0
 10
8.9905393129
 20
5.8714962436
 30
0.0
 10
9.0146470134
 20
5.8853073591
 30
0.0
 10
9.0381718796
 20
5.9000310612
 30
0.0
 10
9.0610823776
 20
5.9156475226
 30
0.0
 10
9.0833477706
 20
5.9321360765
 30
0.0
 10
9.1049379317
 20
5.9494740374
 30
0.0
 10
9.118864455
 20
5.9615859163
 30
0.0
 10
9.1257042773
 20
5.9677742633
 30
0.0
  0
SPLINE
  5
398
100
AcDbEntity
  8
0
100
AcDbSpline
 62
7
  6
CONTINUOUS
 70
0
 71
3
 72
24
 73
20
 74
0
 42
0.0000001
 43
0.0000001
 44
0.0000000001
 40
0.0
 40
0.0
 40
0.0
 40
0.0
 40
0.0637474987
 40
0.1272943527
 40
0.190638431
 40
0.253787108
 40
0.3167454653
 40
0.3795213722
 40
0.4421242608
 40
0.5045650044
 40
0.5668560054
 40
0.6290110116
 40
0.6910450283
 40
0.7220239883
 40
0.7529788289
 40
0.8148202128
 40
0.8765917405
 40
0.938311984
 40
1.0
 40
1.0
 40
1.0
 40
1.0
 10
7.7973676359
 20
6.6203435002
 30
0.0
 10
7.7973676359
 20
6.6323459317
 30
0.0
 10
7.7979194077
 20
6.6563167648
 30
0.0
 10
7.8004095099
 20
6.6921362175
 30
0.0
 10
7.8045559864
 20
6.7276893025
 30
0.0
 10
7.8103496422
 20
6.7628989961
 30
0.0
 10
7.8177785649
 20
6.7976910902
 30
0.0
 10
7.8268269036
 20
6.8319914111
 30
0.0
 10
7.8374754668
 20
6.8657270973
 30
0.0
 10
7.8497016791
 20
6.8988263762
 30
0.0
 10
7.8634797186
 20
6.9312189536
 30
0.0
 10
7.8787800574
 20
6.9628354819
 30
0.0
 10
7.8927789513
 20
6.9884927382
 30
0.0
 10
7.9047037279
 20
7.0085597536
 30
0.0
 10
7.9170972352
 20
7.0282978972
 30
0.0
 10
7.9334760379
 20
7.0523687946
 30
0.0
 10
7.9545102312
 20
7.0802287499
 30
0.0
 10
7.9768730896
 20
7.1069957321
 30
0.0
 10
7.992639908
 20
7.1240781904
 30
0.0
 10
8.0007259429
 20
7.1324158526
 30
0.0
  0
SPLINE
  5
399
100
AcDbEntity
  8
0
100
AcDbSpline
 62
7
  6
CONTINUOUS
 70
0
 71
3
 72
39
 73
35
 74
0
 42
0.0000001
 43
0.0000001
 44
0.0000000001
 40
0.0
 40
0.0
 40
0.0
 40
0.0
 40
0.0319626175
 40
0.0638343392
 40
0.0956118706
 40
0.1272988767
 40
0.1588977439
 40
0.1904110967
 40
0.2218426931
 40
0.2531968037
 40
0.2844782285
 40
0.3156923576
 40
0.3468451025
 40
0.3779428343
 40
0.4089923551
 40
0.4400008512
 40
0.4709758206
 40
0.5019250281
 40
0.532856448
 40
0.5637781865
 40
0.5946984296
 40
0.6256253803
 40
0.6565671803
 40
0.6875318569
 40
0.718527262
 40
0.7495609961
 40
0.7806403631
 40
0.8117723154
 40
0.8429633849
 40
0.8742196533
 40
0.9055467047
 40
0.9369495694
 40
0.9684327137
 40
1.0
 40
1.0
 40
1.0
 40
1.0
 10
7.9808935538
 20
6.6076159345
 30
0.0
 10
7.9808935538
 20
6.6160354535
 30
0.0
 10
7.9812483717
 20
6.6328527504
 30
0.0
 10
7.9828489807
 20
6.6579949685
 30
0.0
 10
7.9855148974
 20
6.68297416
 30
0.0
 10
7.9892411822
 20
6.7077445634
 30
0.0
 10
7.9940211022
 20
6.7322625961
 30
0.0
 10
7.9998463407
 20
6.75648437
 30
0.0
 10
8.0067065237
 20
6.7803665912
 30
0.0
 10
8.0145892908
 20
6.8038666999
 30
0.0
 10
8.0234807513
 20
6.8269426916
 30
0.0
 10
8.0333650356
 20
6.8495533567
 30
0.0
 10
8.0442244097
 20
6.8716583763
 30
0.0
 10
8.0560396683
 20
6.8932181964
 30
0.0
 10
8.0687896537
 20
6.9141943471
 30
0.0
 10
8.0824515599
 20
6.9345494078
 30
0.0
 10
8.0970011545
 20
6.9542469189
 30
0.0
 10
8.1124123448
 20
6.9732517811
 30
0.0
 10
8.1286576196
 20
6.9915300595
 30
0.0
 10
8.145708084
 20
7.0090490017
 30
0.0
 10
8.1635331599
 20
7.0257774431
 30
0.0
 10
8.1821010633
 20
7.0416854695
 30
0.0
 10
8.2013786898
 20
7.0567445965
 30
0.0
 10
8.2213314985
 20
7.0709280799
 30
0.0
 10
8.2419239268
 20
7.0842105061
 30
0.0
 10
8.2631192016
 20
7.0965681439
 30
0.0
 10
8.2848793938
 20
7.107979077
 30
0.0
 10
8.3071657188
 20
7.1184228081
 30
0.0
 10
8.3299383443
 20
7.1278807545
 30
0.0
 10
8.3531565822
 20
7.1363361559
 30
0.0
 10
8.3767789912
 20
7.1437737705
 30
0.0
 10
8.4007635158
 20
7.1501804801
 30
0.0
 10
8.4250667266
 20
7.1555448499
 30
0.0
 10
8.4414315453
 20
7.1584159847
 30
0.0
 10
8.4496509838
 20
7.1596755101
 30
0.0
  0
SPLINE
  5
39A
100
AcDbEntity
  8
0
100
AcDbSpline
 62
7
  6
CONTINUOUS
 70
0
 71
3
 72
39
 73
35
 74
0
 42
0.0000001
 43
0.0000001
 44
0.0000000001
 40
0.0
 40
0.0
 40
0.0
 40
0.0
 40
0.03197751
 40
0.0638683309
 40
0.0956684864
 40
0.1273812813
 40
0.15900925
 40
0.1905545316
 40
0.2220204016
 40
0.2534107062
 40
0.2847296874
 40
0.3159821338
 40
0.3471733017
 40
0.3783088782
 40
0.4093949518
 40
0.4404379546
 40
0.4714446421
 40
0.5024220245
 40
0.5333773226
 40
0.5643179277
 40
0.5952513261
 40
0.6261850638
 40
0.657126686
 40
0.688083671
 40
0.719063397
 40
0.7500730696
 40
0.7811196755
 40
0.8122099453
 40
0.8433502806
 40
0.8745467356
 40
0.9058049634
 40
0.9371301692
 40
0.9685271037
 40
1.0
 40
1.0
 40
1.0
 40
1.0
 10
8.073720097
 20
6.654768183
 30
0.0
 10
8.073720097
 20
6.662291053
 30
0.0
 10
8.0740242556
 20
6.6773182078
 30
0.0
 10
8.0753960714
 20
6.6997888273
 30
0.0
 10
8.0776811672
 20
6.7221228502
 30
0.0
 10
8.0808755951
 20
6.7442825135
 30
0.0
 10
8.0849739463
 20
6.7662320216
 30
0.0
 10
8.0899698669
 20
6.7879352324
 30
0.0
 10
8.0958549261
 20
6.8093564727
 30
0.0
 10
8.102619555
 20
6.8304605699
 30
0.0
 10
8.11025275
 20
6.8512128336
 30
0.0
 10
8.1187418097
 20
6.8715792353
 30
0.0
 10
8.1280730319
 20
6.8915262234
 30
0.0
 10
8.1382309391
 20
6.9110210975
 30
0.0
 10
8.1491989029
 20
6.9300318115
 30
0.0
 10
8.1609590161
 20
6.9485270623
 30
0.0
 10
8.1734917843
 20
6.9664765785
 30
0.0
 10
8.1867768219
 20
6.98385073
 30
0.0
 10
8.2007921855
 20
7.0006210515
 30
0.0
 10
8.2155148548
 20
7.0167599937
 30
0.0
 10
8.2309207545
 20
7.032240926
 30
0.0
 10
8.2469844043
 20
7.0470385809
 30
0.0
 10
8.263679561
 20
7.061128487
 30
0.0
 10
8.2809787143
 20
7.0744875757
 30
0.0
 10
8.2988534128
 20
7.0870939487
 30
0.0
 10
8.3172743886
 20
7.0989267419
 30
0.0
 10
8.3362112383
 20
7.1099667321
 30
0.0
 10
8.3556329462
 20
7.1201956291
 30
0.0
 10
8.3755075594
 20
7.1295966962
 30
0.0
 10
8.3958023975
 20
7.1381545988
 30
0.0
 10
8.4164841609
 20
7.1458550874
 30
0.0
 10
8.4375189183
 20
7.1526857931
 30
0.0
 10
8.4588716748
 20
7.1586352483
 30
0.0
 10
8.4732787152
 20
7.1620036565
 30
0.0
 10
8.4805220879
 20
7.1635382882
 30
0.0
  0
SPLINE
  5
39B
100
AcDbEntity
  8
0
100
AcDbSpline
 62
7
  6
CONTINUOUS
 70
0
 71
3
 72
23
 73
19
 74
0
 42
0.0000001
 43
0.0000001
 44
0.0000000001
 40
0.0
 40
0.0
 40
0.0
 40
0.0
 40
0.0637762145
 40
0.1273451869
 40
0.1907020141
 40
0.2538560333
 40
0.3168132367
 40
0.379582082
 40
0.4421733861
 40
0.5045993417
 40
0.566873863
 40
0.6290123825
 40
0.6910316544
 40
0.7529496448
 40
0.8147853545
 40
0.8765586074
 40
0.9382898575
 40
1.0
 40
1.0
 40
1.0
 40
1.0
 10
8.1563765105
 20
6.6671194646
 30
0.0
 10
8.1563765105
 20
6.6749880203
 30
0.0
 10
8.156753185
 20
6.6907022273
 30
0.0
 10
8.1584530181
 20
6.7141779005
 30
0.0
 10
8.1612833698
 20
6.7374675682
 30
0.0
 10
8.1652374344
 20
6.760516346
 30
0.0
 10
8.1703063079
 20
6.7832716897
 30
0.0
 10
8.1764782891
 20
6.8056809954
 30
0.0
 10
8.1837392104
 20
6.8276925989
 30
0.0
 10
8.1920724613
 20
6.84925573
 30
0.0
 10
8.2014587669
 20
6.8703206884
 30
0.0
 10
8.2118765356
 20
6.8908388916
 30
0.0
 10
8.2233018717
 20
6.9107629537
 30
0.0
 10
8.2357083884
 20
6.9300469593
 30
0.0
 10
8.2490674285
 20
6.9486464034
 30
0.0
 10
8.2633484238
 20
6.9665184731
 30
0.0
 10
8.2785178833
 20
6.9836213639
 30
0.0
 10
8.2892017843
 20
6.9944862793
 30
0.0
 10
8.2946779501
 20
6.9997758213
 30
0.0
  0
SPLINE
  5
39C
100
AcDbEntity
  8
0
100
AcDbSpline
 62
7
  6
CONTINUOUS
 70
0
 71
3
 72
15
 73
11
 74
0
 42
0.0000001
 43
0.0000001
 44
0.0000000001
 40
0.0
 40
0.0
 40
0.0
 40
0.0
 40
0.1266071419
 40
0.2527241614
 40
0.3783525691
 40
0.5035138583
 40
0.6282279602
 40
0.7525236733
 40
0.8764346631
 40
1.0
 40
1.0
 40
1.0
 40
1.0
 10
8.4298215561
 20
6.9052471118
 30
0.0
 10
8.4298215561
 20
6.9140467464
 30
0.0
 10
8.4303178012
 20
6.9316161078
 30
0.0
 10
8.432558535
 20
6.9578310206
 30
0.0
 10
8.4362874994
 20
6.9837754493
 30
0.0
 10
8.4414924781
 20
7.0093649432
 30
0.0
 10
8.4481571536
 20
7.0345179773
 30
0.0
 10
8.456260318
 20
7.0591540683
 30
0.0
 10
8.4657756149
 20
7.0831932181
 30
0.0
 10
8.4730509742
 20
7.098792594
 30
0.0
 10
8.4769123246
 20
7.1064638046
 30
0.0
  0
SPLINE
  5
39D
100
AcDbEntity
  8
0
100
AcDbSpline
 62
7
  6
CONTINUOUS
 70
0
 71
3
 72
15
 73
11
 74
0
 42
0.0000001
 43
0.0000001
 44
0.0000000001
 40
0.0
 40
0.0
 40
0.0
 40
0.0
 40
0.1264390833
 40
0.2524498853
 40
0.3780250109
 40
0.5031837911
 40
0.6279392441
 40
0.7523106882
 40
0.8763219249
 40
1.0
 40
1.0
 40
1.0
 40
1.0
 10
8.4029043754
 20
6.9052471103
 30
0.0
 10
8.4029043754
 20
6.9134251181
 30
0.0
 10
8.4033112296
 20
6.9297564272
 30
0.0
 10
8.4051475069
 20
6.9541477114
 30
0.0
 10
8.4082047172
 20
6.978333483
 30
0.0
 10
8.4124749079
 20
7.0022522818
 30
0.0
 10
8.4179477609
 20
7.0258450584
 30
0.0
 10
8.4246096857
 20
7.0490531
 30
0.0
 10
8.4324437504
 20
7.0718178433
 30
0.0
 10
8.4384434734
 20
7.0866816962
 30
0.0
 10
8.4416314141
 20
7.0940184443
 30
0.0
  0
SPLINE
  5
39E
100
AcDbEntity
  8
0
100
AcDbSpline
 62
7
  6
CONTINUOUS
 70
0
 71
3
 72
71
 73
67
 74
0
 42
0.0000001
 43
0.0000001
 44
0.0000000001
 40
0.0
 40
0.0
 40
0.0
 40
0.0
 40
0.0156285045
 40
0.0313077472
 40
0.0470353508
 40
0.0628112648
 40
0.0786338451
 40
0.0945012052
 40
0.110411213
 40
0.1263613118
 40
0.1423486395
 40
0.1583700446
 40
0.1744221007
 40
0.1905011378
 40
0.2066032781
 40
0.2227244643
 40
0.2388604878
 40
0.2550070265
 40
0.2711596794
 40
0.2873139954
 40
0.3034655103
 40
0.3196097848
 40
0.3357424332
 40
0.3518591579
 40
0.3679557883
 40
0.3840283094
 40
0.4000728909
 40
0.4160859246
 40
0.4320640527
 40
0.4480041898
 40
0.4639035553
 40
0.4797596998
 40
0.4955705211
 40
0.5113342853
 40
0.5270496515
 40
0.5427156799
 40
0.5583318408
 40
0.5738980308
 40
0.5894145757
 40
0.6048822258
 40
0.6203021584
 40
0.6356759746
 40
0.651005683
 40
0.6662936848
 40
0.6815427619
 40
0.6967560518
 40
0.7119370167
 40
0.7270894189
 40
0.742217289
 40
0.7573248853
 40
0.7724166545
 40
0.7874971953
 40
0.8025712132
 40
0.8176434729
 40
0.8327187559
 40
0.8478018176
 40
0.8628973387
 40
0.8780098801
 40
0.8931438437
 40
0.9083034326
 40
0.923492608
 40
0.9387150538
 40
0.9539741543
 40
0.9692729545
 40
0.9846141165
 40
1.0
 40
1.0
 40
1.0
 40
1.0
 10
7.9808935538
 20
6.6076159345
 30
0.0
 10
7.9808935538
 20
6.5983782124
 30
0.0
 10
7.9813219715
 20
6.5798699891
 30
0.0
 10
7.9832407239
 20
6.5521253033
 30
0.0
 10
7.9864329887
 20
6.5244099298
 30
0.0
 10
7.990891555
 20
6.4967843267
 30
0.0
 10
7.9966070361
 20
6.4693068101
 30
0.0
 10
8.0035671151
 20
6.4420361672
 30
0.0
 10
8.0117569048
 20
6.4150305666
 30
0.0
 10
8.0211589879
 20
6.3883476286
 30
0.0
 10
8.031753168
 20
6.3620442461
 30
0.0
 10
8.0435168151
 20
6.3361765168
 30
0.0
 10
8.0564249021
 20
6.3107996585
 30
0.0
 10
8.0704498098
 20
6.2859677728
 30
0.0
 10
8.0855615599
 20
6.2617337944
 30
0.0
 10
8.101727965
 20
6.2381494476
 30
0.0
 10
8.1189145446
 20
6.2152650527
 30
0.0
 10
8.1370845543
 20
6.1931293643
 30
0.0
 10
8.1561992512
 20
6.1717896073
 30
0.0
 10
8.1762179255
 20
6.1512913652
 30
0.0
 10
8.1970978066
 20
6.1316783023
 30
0.0
 10
8.2187943445
 20
6.1129922372
 30
0.0
 10
8.241261322
 20
6.0952731054
 30
0.0
 10
8.2644508027
 20
6.0785587004
 30
0.0
 10
8.2883132853
 20
6.0628846269
 30
0.0
 10
8.3127979054
 20
6.0482843746
 30
0.0
 10
8.3378524713
 20
6.0347891681
 30
0.0
 10
8.3634234954
 20
6.0224277308
 30
0.0
 10
8.3894564419
 20
6.0112264557
 30
0.0
 10
8.415895821
 20
6.001209364
 30
0.0
 10
8.4426852084
 20
5.9923978025
 30
0.0
 10
8.4697674453
 20
5.984810557
 30
0.0
 10
8.497084778
 20
5.9784639265
 30
0.0
 10
8.5245789255
 20
5.9733715233
 30
0.0
 10
8.552191207
 20
5.9695441659
 30
0.0
 10
8.57986271
 20
5.9669900914
 30
0.0
 10
8.6075343851
 20
5.9657148981
 30
0.0
 10
8.6351471629
 20
5.9657212659
 30
0.0
 10
8.6626421075
 20
5.9670092072
 30
0.0
 10
8.6899605151
 20
5.9695761216
 30
0.0
 10
8.7170440522
 20
5.9734165622
 30
0.0
 10
8.7438348966
 20
5.9785223044
 30
0.0
 10
8.7702758249
 20
5.9848825472
 30
0.0
 10
8.7963103357
 20
5.992483826
 30
0.0
 10
8.821882838
 20
6.0013098509
 30
0.0
 10
8.8469387018
 20
6.0113418142
 30
0.0
 10
8.8714243448
 20
6.0225584247
 30
0.0
 10
8.8952874618
 20
6.0349356936
 30
0.0
 10
8.918477083
 20
6.0484471613
 30
0.0
 10
8.9409436084
 20
6.0630640518
 30
0.0
 10
8.962638997
 20
6.0787551729
 30
0.0
 10
8.9835169361
 20
6.095486928
 30
0.0
 10
9.0035327941
 20
6.113223594
 30
0.0
 10
9.0226437228
 20
6.1319273447
 30
0.0
 10
9.0408089472
 20
6.1515581361
 30
0.0
 10
9.0579896793
 20
6.1720739985
 30
0.0
 10
9.0741491408
 20
6.1934311449
 30
0.0
 10
9.0892528291
 20
6.2155839082
 30
0.0
 10
9.1032685608
 20
6.2384848947
 30
0.0
 10
9.1161663769
 20
6.2620851892
 30
0.0
 10
9.1279186848
 20
6.2863343782
 30
0.0
 10
9.1385005159
 20
6.3111806052
 30
0.0
 10
9.1478892972
 20
6.3365707303
 30
0.0
 10
9.1560649585
 20
6.3624507406
 30
0.0
 10
9.1630100022
 20
6.3887645583
 30
0.0
 10
9.1668045326
 20
6.4065342088
 30
0.0
 10
9.1684927634
 20
6.4154704503
 30
0.0
  0
SPLINE
  5
39F
100
AcDbEntity
  8
0
100
AcDbSpline
 62
7
  6
CONTINUOUS
 70
0
 71
3
 72
71
 73
67
 74
0
 42
0.0000001
 43
0.0000001
 44
0.0000000001
 40
0.0
 40
0.0
 40
0.0
 40
0.0
 40
0.0156238041
 40
0.0312976481
 40
0.0470189411
 40
0.0627877428
 40
0.0786025526
 40
0.0944615167
 40
0.1103626241
 40
0.1263034444
 40
0.1422812487
 40
0.1582930359
 40
0.1743355332
 40
0.1904052386
 40
0.2064984463
 40
0.2226112679
 40
0.238739671
 40
0.2548795082
 40
0.2710265423
 40
0.2871764849
 40
0.3033250281
 40
0.3194678696
 40
0.3356007526
 40
0.3517194962
 40
0.3678200205
 40
0.3838983855
 40
0.3999508197
 40
0.4159737424
 40
0.4319638007
 40
0.4479178949
 40
0.4638331958
 40
0.4797071784
 40
0.4955376424
 40
0.5113227236
 40
0.5270609204
 40
0.5427511096
 40
0.5583925493
 40
0.5739848961
 40
0.5895282147
 40
0.6050229709
 40
0.6204700372
 40
0.6358706948
 40
0.6512266161
 40
0.6665398572
 40
0.6818128502
 40
0.6970483766
 40
0.7122495457
 40
0.7274197769
 40
0.7425627653
 40
0.7576824475
 40
0.7727829744
 40
0.7878686719
 40
0.802943997
 40
0.8180135034
 40
0.8330818005
 40
0.8481535055
 40
0.8632332041
 40
0.8783254122
 40
0.8934345299
 40
0.9085648005
 40
0.92372028
 40
0.9389047964
 40
0.9541219118
 40
0.9693749059
 40
0.9846667366
 40
1.0
 40
1.0
 40
1.0
 40
1.0
 10
8.073720097
 20
6.654768183
 30
0.0
 10
8.073720097
 20
6.6463113667
 30
0.0
 10
8.0741055795
 20
6.6293681823
 30
0.0
 10
8.0758320992
 20
6.6039683328
 30
0.0
 10
8.0787047337
 20
6.5785930029
 30
0.0
 10
8.0827172392
 20
6.5532957588
 30
0.0
 10
8.0878613445
 20
6.5281281189
 30
0.0
 10
8.0941264116
 20
6.5031421004
 30
0.0
 10
8.1014995564
 20
6.4783892363
 30
0.0
 10
8.1099655033
 20
6.4539205036
 30
0.0
 10
8.1195067179
 20
6.4297863091
 30
0.0
 10
8.1301036192
 20
6.4060364303
 30
0.0
 10
8.1417343068
 20
6.3827197946
 30
0.0
 10
8.1543747171
 20
6.3598844069
 30
0.0
 10
8.16799888
 20
6.3375773719
 30
0.0
 10
8.1825786957
 20
6.3158446558
 30
0.0
 10
8.1980840225
 20
6.2947309804
 30
0.0
 10
8.214482975
 20
6.2742799033
 30
0.0
 10
8.2317417713
 20
6.2545335893
 30
0.0
 10
8.2498247537
 20
6.2355326511
 30
0.0
 10
8.2686947104
 20
6.2173162906
 30
0.0
 10
8.2883127949
 20
6.1999220987
 30
0.0
 10
8.3086384967
 20
6.1833858309
 30
0.0
 10
8.3296299672
 20
6.1677416045
 30
0.0
 10
8.3512440031
 20
6.1530217452
 30
0.0
 10
8.3734359938
 20
6.1392564951
 30
0.0
 10
8.3961602295
 20
6.1264742522
 30
0.0
 10
8.419369938
 20
6.1147014792
 30
0.0
 10
8.443017235
 20
6.1039623515
 30
0.0
 10
8.4670533968
 20
6.0942790199
 30
0.0
 10
8.4914289366
 20
6.085671589
 30
0.0
 10
8.5160935804
 20
6.078157729
 30
0.0
 10
8.5409964943
 20
6.07175293
 30
0.0
 10
8.5660863829
 20
6.0664705579
 30
0.0
 10
8.5913115074
 20
6.0623214585
 30
0.0
 10
8.6166198663
 20
6.0593141693
 30
0.0
 10
8.6419592988
 20
6.0574550607
 30
0.0
 10
8.6672775496
 20
6.0567479559
 30
0.0
 10
8.6925224148
 20
6.0571942777
 30
0.0
 10
8.7176418317
 20
6.0587932703
 30
0.0
 10
8.7425839848
 20
6.0615416625
 30
0.0
 10
8.7672974386
 20
6.0654337307
 30
0.0
 10
8.7917311948
 20
6.070461594
 30
0.0
 10
8.8158348275
 20
6.0766149404
 30
0.0
 10
8.8395586282
 20
6.0838810012
 30
0.0
 10
8.8628536153
 20
6.0922449046
 30
0.0
 10
8.8856716808
 20
6.1016894771
 30
0.0
 10
8.907965772
 20
6.1121951395
 30
0.0
 10
8.9296898447
 20
6.1237402955
 30
0.0
 10
8.9507989999
 20
6.1363012153
 30
0.0
 10
8.971249722
 20
6.1498518732
 30
0.0
 10
8.9909997738
 20
6.1643643459
 30
0.0
 10
9.0100083041
 20
6.1798087751
 30
0.0
 10
9.0282361484
 20
6.1961531778
 30
0.0
 10
9.0456456768
 20
6.2133638258
 30
0.0
 10
9.0622008543
 20
6.2314052781
 30
0.0
 10
9.0778675961
 20
6.2502401987
 30
0.0
 10
9.0926135915
 20
6.2698296911
 30
0.0
 10
9.1064083024
 20
6.2901333872
 30
0.0
 10
9.1192233518
 20
6.3111093035
 30
0.0
 10
9.1310323546
 20
6.3327141089
 30
0.0
 10
9.1418108483
 20
6.3549032749
 30
0.0
 10
9.1515366694
 20
6.3776309071
 30
0.0
 10
9.1601898935
 20
6.4008502539
 30
0.0
 10
9.1677524097
 20
6.4245127325
 30
0.0
 10
9.1720510073
 20
6.4405298387
 30
0.0
 10
9.1740141055
 20
6.4485938839
 30
0.0
  0
SPLINE
  5
3A0
100
AcDbEntity
  8
0
100
AcDbSpline
 62
7
  6
CONTINUOUS
 70
0
 71
3
 72
45
 73
41
 74
0
 42
0.0000001
 43
0.0000001
 44
0.0000000001
 40
0.0
 40
0.0
 40
0.0
 40
0.0
 40
0.0310742248
 40
0.0623057299
 40
0.0936898583
 40
0.1252179045
 40
0.1568785562
 40
0.1886576027
 40
0.2205384468
 40
0.2525024121
 40
0.2845291503
 40
0.3165970563
 40
0.3486837049
 40
0.3807662984
 40
0.4128221198
 40
0.444828984
 40
0.4767656828
 40
0.5086124154
 40
0.5403511982
 40
0.5719662482
 40
0.6034443316
 40
0.63477507
 40
0.6659511987
 40
0.696968766
 40
0.7278272696
 40
0.75852972
 40
0.7890826277
 40
0.8194959078
 40
0.8346570229
 40
0.8497884114
 40
0.86489218
 40
0.8799705889
 40
0.8950260601
 40
0.9100611432
 40
0.9250785188
 40
0.9400809686
 40
0.9550713677
 40
0.970052665
 40
0.9850278611
 40
1.0
 40
1.0
 40
1.0
 40
1.0
 10
8.1563765105
 20
6.6671194646
 30
0.0
 10
8.1563765105
 20
6.6549112242
 30
0.0
 10
8.1572872177
 20
6.6304235579
 30
0.0
 10
8.1613533254
 20
6.5938092792
 30
0.0
 10
8.1681000135
 20
6.5574099907
 30
0.0
 10
8.1774899994
 20
6.5214281725
 30
0.0
 10
8.1894712645
 20
6.4860607196
 30
0.0
 10
8.2039777754
 20
6.4515019285
 30
0.0
 10
8.220929621
 20
6.4179414036
 30
0.0
 10
8.2402335537
 20
6.3855633121
 30
0.0
 10
8.2617834616
 20
6.3545453075
 30
0.0
 10
8.285460961
 20
6.3250575903
 30
0.0
 10
8.3111360373
 20
6.2972619774
 30
0.0
 10
8.3386677539
 20
6.2713110271
 30
0.0
 10
8.367905015
 20
6.2473472068
 30
0.0
 10
8.3986873861
 20
6.2255021166
 30
0.0
 10
8.4308459686
 20
6.2058957772
 30
0.0
 10
8.4642043143
 20
6.1886359745
 30
0.0
 10
8.4985793814
 20
6.1738176717
 30
0.0
 10
8.5337825256
 20
6.1615224886
 30
0.0
 10
8.5696205201
 20
6.1518182507
 30
0.0
 10
8.6058966036
 20
6.1447586137
 30
0.0
 10
8.642411534
 20
6.1403827554
 30
0.0
 10
8.6789647105
 20
6.1387151637
 30
0.0
 10
8.7153551037
 20
6.1397654268
 30
0.0
 10
8.7513829397
 20
6.1435283758
 30
0.0
 10
8.7868486097
 20
6.1499832865
 30
0.0
 10
8.8158079534
 20
6.1575862827
 30
0.0
 10
8.8384900595
 20
6.1649730799
 30
0.0
 10
8.8552256229
 20
6.1711517531
 30
0.0
 10
8.8716773946
 20
6.177965525
 30
0.0
 10
8.8878229987
 20
6.1854052628
 30
0.0
 10
8.9036402284
 20
6.1934605023
 30
0.0
 10
8.9191072067
 20
6.2021204321
 30
0.0
 10
8.9342027931
 20
6.2113728635
 30
0.0
 10
8.948906051
 20
6.2212053501
 30
0.0
 10
8.9631968891
 20
6.2316040975
 30
0.0
 10
8.9770555582
 20
6.2425550783
 30
0.0
 10
8.9904628499
 20
6.2540428043
 30
0.0
 10
8.9990886928
 20
6.2620495793
 30
0.0
 10
9.0033194721
 20
6.2661361766
 30
0.0
  0
SPLINE
  5
3A1
100
AcDbEntity
  8
0
100
AcDbSpline
 62
7
  6
CONTINUOUS
 70
0
 71
3
 72
26
 73
22
 74
0
 42
0.0000001
 43
0.0000001
 44
0.0000000001
 40
0.0
 40
0.0
 40
0.0
 40
0.0
 40
0.0637763288
 40
0.127342888
 40
0.1906991365
 40
0.253852345
 40
0.2853569163
 40
0.3168132564
 40
0.3795812268
 40
0.4421715818
 40
0.5045965961
 40
0.5668701919
 40
0.6290077774
 40
0.6910261213
 40
0.7219986711
 40
0.7529482414
 40
0.8147830235
 40
0.8765553475
 40
0.9074270132
 40
0.9382907755
 40
1.0
 40
1.0
 40
1.0
 40
1.0
 10
7.7808032303
 20
6.604343512
 30
0.0
 10
7.7808032303
 20
6.6168408601
 30
0.0
 10
7.7814013891
 20
6.6417986649
 30
0.0
 10
7.7841012783
 20
6.6790837022
 30
0.0
 10
7.7885964652
 20
6.716072699
 30
0.0
 10
7.7938341715
 20
6.7466039773
 30
0.0
 10
7.7989110266
 20
6.7707919147
 30
0.0
 10
7.8045665741
 20
6.7947735399
 30
0.0
 10
7.8127297305
 20
6.8244124481
 30
0.0
 10
7.8242617996
 20
6.8593717615
 30
0.0
 10
7.8374969593
 20
6.8936192212
 30
0.0
 10
7.8524047151
 20
6.9270754396
 30
0.0
 10
7.8689504776
 20
6.9596628852
 30
0.0
 10
7.8840794777
 20
6.986045501
 30
0.0
 10
7.8969599769
 20
7.0066380988
 30
0.0
 10
7.9103424408
 20
7.0268650079
 30
0.0
 10
7.9280187198
 20
7.0514752123
 30
0.0
 10
7.9469243103
 20
7.0751346091
 30
0.0
 10
7.9627515152
 20
7.0934473954
 30
0.0
 10
7.9790353981
 20
7.1113378537
 30
0.0
 10
7.9917617031
 20
7.1242797038
 30
0.0
 10
8.0004591415
 20
7.1326807731
 30
0.0
  0
SPLINE
  5
3A2
100
AcDbEntity
  8
0
100
AcDbSpline
 62
7
  6
CONTINUOUS
 70
0
 71
3
 72
51
 73
47
 74
0
 42
0.0000001
 43
0.0000001
 44
0.0000000001
 40
0.0
 40
0.0
 40
0.0
 40
0.0
 40
0.014971649
 40
0.0299463566
 40
0.0449271647
 40
0.0599170747
 40
0.0749190347
 40
0.0899359204
 40
0.1049705134
 40
0.1200254923
 40
0.1351034113
 40
0.1502066853
 40
0.1653375821
 40
0.1804982021
 40
0.1956904707
 40
0.2109161316
 40
0.2261767282
 40
0.2414736061
 40
0.2568079029
 40
0.272180538
 40
0.2875922205
 40
0.3030434356
 40
0.3185344485
 40
0.3340653085
 40
0.34963584
 40
0.365245656
 40
0.3965753731
 40
0.4280524305
 40
0.4596664495
 40
0.4914041969
 40
0.5232498909
 40
0.5551855477
 40
0.5871913667
 40
0.6192461407
 40
0.6513276859
 40
0.683413286
 40
0.7154801443
 40
0.7475058366
 40
0.779468758
 40
0.8113485605
 40
0.8431265712
 40
0.8747861831
 40
0.9063132139
 40
0.9376962973
 40
0.9689267507
 40
1.0
 40
1.0
 40
1.0
 40
1.0
 10
9.1259472504
 20
8.3823016584
 30
0.0
 10
9.1192277942
 20
8.3758111707
 30
0.0
 10
9.1055278457
 20
8.3630946292
 30
0.0
 10
9.0842339654
 20
8.3448493793
 30
0.0
 10
9.062223078
 20
8.3274567428
 30
0.0
 10
9.039525891
 20
8.3109410733
 30
0.0
 10
9.0161736122
 20
8.2953248659
 30
0.0
 10
8.9921983112
 20
8.2806297827
 30
0.0
 10
8.9676330419
 20
8.2668759333
 30
0.0
 10
8.9425116237
 20
8.2540822063
 30
0.0
 10
8.9168685637
 20
8.2422663306
 30
0.0
 10
8.8907392311
 20
8.2314443808
 30
0.0
 10
8.8641595385
 20
8.2216313248
 30
0.0
 10
8.8371660568
 20
8.2128406766
 30
0.0
 10
8.8097959704
 20
8.205084369
 30
0.0
 10
8.7820868886
 20
8.1983732239
 30
0.0
 10
8.7540769639
 20
8.1927163484
 30
0.0
 10
8.72580473
 20
8.188121468
 30
0.0
 10
8.6973090577
 20
8.1845950333
 30
0.0
 10
8.6686291669
 20
8.1821416913
 30
0.0
 10
8.639804489
 20
8.1807648915
 30
0.0
 10
8.6108746806
 20
8.1804665384
 30
0.0
 10
8.5818794905
 20
8.1812468794
 30
0.0
 10
8.5528589236
 20
8.1831049641
 30
0.0
 10
8.5238524035
 20
8.1860382235
 30
0.0
 10
8.4852070687
 20
8.191382927
 30
0.0
 10
8.4371303352
 20
8.2007388249
 30
0.0
 10
8.3802125047
 20
8.2161513255
 30
0.0
 10
8.3243013157
 20
8.2356790287
 30
0.0
 10
8.2697057478
 20
8.2592139734
 30
0.0
 10
8.2167248754
 20
8.2866266488
 30
0.0
 10
8.1656495438
 20
8.3177661638
 30
0.0
 10
8.1167599369
 20
8.352461313
 30
0.0
 10
8.0703243193
 20
8.3905214868
 30
0.0
 10
8.0265975301
 20
8.4317377132
 30
0.0
 10
7.9858195124
 20
8.4758836826
 30
0.0
 10
7.9482140909
 20
8.5227170887
 30
0.0
 10
7.9139877712
 20
8.5719809434
 30
0.0
 10
7.8833286268
 20
8.6234049605
 30
0.0
 10
7.8564051428
 20
8.676706954
 30
0.0
 10
7.8333654095
 20
8.7315944161
 30
0.0
 10
7.8143363318
 20
8.7877662247
 30
0.0
 10
7.7994228901
 20
8.8449137966
 30
0.0
 10
7.7887075913
 20
8.9027243801
 30
0.0
 10
7.7822496521
 20
8.9608764304
 30
0.0
 10
7.7808032303
 20
8.9997685907
 30
0.0
 10
7.7808032303
 20
9.0191581633
 30
0.0
  0
SPLINE
  5
3A3
100
AcDbEntity
  8
0
100
AcDbSpline
 62
7
  6
CONTINUOUS
 70
0
 71
3
 72
42
 73
38
 74
0
 42
0.0000001
 43
0.0000001
 44
0.0000000001
 40
0.0
 40
0.0
 40
0.0
 40
0.0
 40
0.0308424116
 40
0.0618178513
 40
0.0929224213
 40
0.1241516126
 40
0.1554982149
 40
0.1869536099
 40
0.2185074466
 40
0.2501479734
 40
0.2818621683
 40
0.3136359511
 40
0.3454543869
 40
0.3773019047
 40
0.4091625199
 40
0.4410200621
 40
0.4728584048
 40
0.5046616939
 40
0.5364145743
 40
0.5681024104
 40
0.5997115004
 40
0.6312292799
 40
0.6626445143
 40
0.6939474751
 40
0.7251301
 40
0.7561861316
 40
0.7871112339
 40
0.8179030828
 40
0.8485614279
 40
0.8638429617
 40
0.8790919941
 40
0.9094909979
 40
0.939768332
 40
0.9548658048
 40
0.9699360236
 40
0.9849802897
 40
1.0
 40
1.0
 40
1.0
 40
1.0
 10
8.4029043754
 20
6.9052471103
 30
0.0
 10
8.4029043754
 20
6.8949367437
 30
0.0
 10
8.4035535769
 20
6.8742658516
 30
0.0
 10
8.4064561539
 20
6.8433196472
 30
0.0
 10
8.4112782355
 20
6.8124820481
 30
0.0
 10
8.4180005161
 20
6.7818757427
 30
0.0
 10
8.4265966326
 20
6.751620205
 30
0.0
 10
8.4370326411
 20
6.7218342161
 30
0.0
 10
8.4492675392
 20
6.6926344943
 30
0.0
 10
8.4632532309
 20
6.6641355035
 30
0.0
 10
8.4789348034
 20
6.6364489399
 30
0.0
 10
8.4962507068
 20
6.6096833147
 30
0.0
 10
8.5151330076
 20
6.5839435296
 30
0.0
 10
8.535507649
 20
6.5593304695
 30
0.0
 10
8.5572947414
 20
6.5359406108
 30
0.0
 10
8.5804088687
 20
6.5138656418
 30
0.0
 10
8.6047594256
 20
6.4931921082
 30
0.0
 10
8.63025097
 20
6.4740010776
 30
0.0
 10
8.6567835945
 20
6.4563678228
 30
0.0
 10
8.6842533144
 20
6.4403615293
 30
0.0
 10
8.7125524716
 20
6.4260450248
 30
0.0
 10
8.7415701524
 20
6.4134745338
 30
0.0
 10
8.7711926191
 20
6.4026994576
 30
0.0
 10
8.8013037451
 20
6.3937621793
 30
0.0
 10
8.8317854898
 20
6.3866978986
 30
0.0
 10
8.8625182643
 20
6.3815344828
 30
0.0
 10
8.8933817391
 20
6.378292386
 30
0.0
 10
8.9242540376
 20
6.3769844453
 30
0.0
 10
8.9499179866
 20
6.3775115252
 30
0.0
 10
8.970328436
 20
6.3789046316
 30
0.0
 10
8.9905979638
 20
6.3809381268
 30
0.0
 10
9.0157203529
 20
6.3846811892
 30
0.0
 10
9.040500128
 20
6.390025359
 30
0.0
 10
9.0600239231
 20
6.3952441327
 30
0.0
 10
9.0744929177
 20
6.3996221147
 30
0.0
 10
9.0887860181
 20
6.4044627158
 30
0.0
 10
9.0981960738
 20
6.4079981771
 30
0.0
 10
9.1028665041
 20
6.4098413228
 30
0.0
  0
SPLINE
  5
3A4
100
AcDbEntity
  8
0
100
AcDbSpline
 62
7
  6
CONTINUOUS
 70
0
 71
3
 72
39
 73
35
 74
0
 42
0.0000001
 43
0.0000001
 44
0.0000000001
 40
0.0
 40
0.0
 40
0.0
 40
0.0
 40
0.0306300817
 40
0.061364181
 40
0.0921994378
 40
0.1231347699
 40
0.1541659007
 40
0.1852882955
 40
0.2164966118
 40
0.2477846024
 40
0.2791453295
 40
0.3105711931
 40
0.3420540067
 40
0.3735850676
 40
0.4051552393
 40
0.4367550462
 40
0.4683747457
 40
0.5000044127
 40
0.5316340428
 40
0.5632536317
 40
0.5948532555
 40
0.626423173
 40
0.6579539109
 40
0.6894363358
 40
0.7208617476
 40
0.7522219662
 40
0.7835093941
 40
0.8147170902
 40
0.8458388539
 40
0.876869276
 40
0.9078037867
 40
0.9386387249
 40
0.9693713774
 40
1.0
 40
1.0
 40
1.0
 40
1.0
 10
8.6620204957
 20
7.1242232752
 30
0.0
 10
8.6621077562
 20
7.1164949918
 30
0.0
 10
8.6626656643
 20
7.1010138388
 30
0.0
 10
8.6646435639
 20
7.0778248811
 30
0.0
 10
8.6677591146
 20
7.0546829897
 30
0.0
 10
8.6720043495
 20
7.0316454958
 30
0.0
 10
8.6773691516
 20
7.0087683268
 30
0.0
 10
8.6838401932
 20
6.9861075893
 30
0.0
 10
8.6914015726
 20
6.9637186482
 30
0.0
 10
8.7000348684
 20
6.9416562815
 30
0.0
 10
8.7097189034
 20
6.9199744385
 30
0.0
 10
8.7204298986
 20
6.8987260992
 30
0.0
 10
8.7321416778
 20
6.8779632314
 30
0.0
 10
8.74482564
 20
6.8577366399
 30
0.0
 10
8.7584506657
 20
6.8380957278
 30
0.0
 10
8.772983422
 20
6.8190885073
 30
0.0
 10
8.788388439
 20
6.8007615124
 30
0.0
 10
8.8046280018
 20
6.7831595287
 30
0.0
 10
8.8216623558
 20
6.7663255549
 30
0.0
 10
8.8394498916
 20
6.7503007967
 30
0.0
 10
8.857947145
 20
6.7351244848
 30
0.0
 10
8.8771088265
 20
6.7208336642
 30
0.0
 10
8.8968880961
 20
6.707463295
 30
0.0
 10
8.917236648
 20
6.6950461736
 30
0.0
 10
8.9381046897
 20
6.6836126267
 30
0.0
 10
8.9594411831
 20
6.6731905984
 30
0.0
 10
8.9811939937
 20
6.6638056717
 30
0.0
 10
9.0033099363
 20
6.6554808525
 30
0.0
 10
9.0257348958
 20
6.6482364526
 30
0.0
 10
9.0484140605
 20
6.6420902506
 30
0.0
 10
9.0712919316
 20
6.6370574188
 30
0.0
 10
9.0943127305
 20
6.6331502257
 30
0.0
 10
9.1174193985
 20
6.6303782612
 30
0.0
 10
9.1328715849
 20
6.6292898453
 30
0.0
 10
9.1405919638
 20
6.6289376582
 30
0.0
  0
SPLINE
  5
3A5
100
AcDbEntity
  8
0
100
AcDbSpline
 62
7
  6
CONTINUOUS
 70
0
 71
3
 72
43
 73
39
 74
0
 42
0.0000001
 43
0.0000001
 44
0.0000000001
 40
0.0
 40
0.0
 40
0.0
 40
0.0
 40
0.0149978308
 40
0.0300182694
 40
0.0450629661
 40
0.0601334751
 40
0.0903533111
 40
0.1206920443
 40
0.1359106244
 40
0.1511617253
 40
0.1664459903
 40
0.1817639339
 40
0.2124981594
 40
0.2433696892
 40
0.274377476
 40
0.3055182497
 40
0.3367865985
 40
0.3681750817
 40
0.3996743694
 40
0.4312734087
 40
0.4629596101
 40
0.4947190529
 40
0.5265367066
 40
0.5583966633
 40
0.590282381
 40
0.6221769321
 40
0.6540632577
 40
0.6859244211
 40
0.7177438624
 40
0.749505647
 40
0.7811947096
 40
0.8127970845
 40
0.8443001376
 40
0.8756927379
 40
0.9069655496
 40
0.9381109066
 40
0.9691236699
 40
1.0
 40
1.0
 40
1.0
 40
1.0
 10
9.1161660567
 20
8.8593359336
 30
0.0
 10
9.1117350544
 20
8.8572960805
 30
0.0
 10
9.1027961953
 20
8.8533637911
 30
0.0
 10
9.0891857203
 20
8.8479189033
 30
0.0
 10
9.0753766298
 20
8.8429285467
 30
0.0
 10
9.0567040838
 20
8.8368829919
 30
0.0
 10
9.0329313843
 20
8.8304886157
 30
0.0
 10
9.0087389583
 20
8.8256813187
 30
0.0
 10
8.9891706864
 20
8.8227902002
 30
0.0
 10
8.9743828919
 20
8.8211000831
 30
0.0
 10
8.9595155105
 20
8.8198922309
 30
0.0
 10
8.9395865766
 20
8.8189256661
 30
0.0
 10
8.9145483893
 20
8.8189323051
 30
0.0
 10
8.884468974
 20
8.82087823
 30
0.0
 10
8.8544431242
 20
8.824753585
 30
0.0
 10
8.8245957374
 20
8.830542236
 30
0.0
 10
8.7950498707
 20
8.8382200635
 30
0.0
 10
8.7659275982
 20
8.8477551907
 30
0.0
 10
8.7373491447
 20
8.8591080854
 30
0.0
 10
8.7094324942
 20
8.8722317339
 30
0.0
 10
8.6822928809
 20
8.8870718335
 30
0.0
 10
8.6560423247
 20
8.9035670171
 30
0.0
 10
8.6307891728
 20
8.9216491072
 30
0.0
 10
8.6066376561
 20
8.9412433963
 30
0.0
 10
8.5836874637
 20
8.9622689535
 30
0.0
 10
8.5620333342
 20
8.9846389569
 30
0.0
 10
8.5417646686
 20
9.0082610494
 30
0.0
 10
8.5229651629
 20
9.0330377168
 30
0.0
 10
8.5057124662
 20
9.0588666876
 30
0.0
 10
8.4900778608
 20
9.0856413515
 30
0.0
 10
8.4761259724
 20
9.1132511946
 30
0.0
 10
8.4639144955
 20
9.1415822551
 30
0.0
 10
8.4534939787
 20
9.1705175737
 30
0.0
 10
8.4449075598
 20
9.1999377336
 30
0.0
 10
8.4381909089
 20
9.2297211133
 30
0.0
 10
8.433371841
 20
9.2597452235
 30
0.0
 10
8.430470582
 20
9.2898843161
 30
0.0
 10
8.4298215561
 20
9.3100193497
 30
0.0
 10
8.4298215561
 20
9.320061763
 30
0.0
  0
SPLINE
  5
3A6
100
AcDbEntity
  8
0
100
AcDbSpline
 62
7
  6
CONTINUOUS
 70
0
 71
3
 72
51
 73
47
 74
0
 42
0.0000001
 43
0.0000001
 44
0.0000000001
 40
0.0
 40
0.0
 40
0.0
 40
0.0
 40
0.0310553671
 40
0.062265879
 40
0.093627172
 40
0.1251308531
 40
0.1567659986
 40
0.1885189355
 40
0.2203736447
 40
0.2523120912
 40
0.2843145952
 40
0.3163602268
 40
0.3484272181
 40
0.3804933875
 40
0.4125365701
 40
0.4445350456
 40
0.4764679617
 40
0.5083157466
 40
0.5400605025
 40
0.5716863734
 40
0.6031798841
 40
0.6345302405
 40
0.6501516925
 40
0.6657346688
 40
0.6812786845
 40
0.6967834532
 40
0.7122489023
 40
0.7276751701
 40
0.7430626019
 40
0.7584117619
 40
0.7737234179
 40
0.7889985479
 40
0.8042383353
 40
0.819444156
 40
0.8346175846
 40
0.8497603753
 40
0.8648744582
 40
0.8799619321
 40
0.8950250442
 40
0.9100661887
 40
0.9250878858
 40
0.9400927688
 40
0.9550835739
 40
0.9700631161
 40
0.9850342799
 40
1.0
 40
1.0
 40
1.0
 40
1.0
 10
9.9397911829
 20
7.2580294867
 30
0.0
 10
9.9397911829
 20
7.2388891423
 30
0.0
 10
9.9412005809
 20
7.2004984738
 30
0.0
 10
9.9474940335
 20
7.1430896718
 30
0.0
 10
9.9579375052
 20
7.086005614
 30
0.0
 10
9.9724747657
 20
7.0295557191
 30
0.0
 10
9.9910273948
 20
6.9740410633
 30
0.0
 10
10.0134957291
 20
6.9197588851
 30
0.0
 10
10.0397591264
 20
6.8669994139
 30
0.0
 10
10.0696767737
 20
6.816044809
 30
0.0
 10
10.1030884027
 20
6.7671675428
 30
0.0
 10
10.1398151586
 20
6.7206290129
 30
0.0
 10
10.1796604851
 20
6.6766781048
 30
0.0
 10
10.2224111881
 20
6.6355498779
 30
0.0
 10
10.2678386085
 20
6.597464362
 30
0.0
 10
10.3156998215
 20
6.5626253842
 30
0.0
 10
10.3657389075
 20
6.5312195058
 30
0.0
 10
10.417688314
 20
6.5034149369
 30
0.0
 10
10.4712700856
 20
6.4793607308
 30
0.0
 10
10.5261982021
 20
6.4591858938
 30
0.0
 10
10.5821768615
 20
6.4429991166
 30
0.0
 10
10.6295156864
 20
6.4328930007
 30
0.0
 10
10.6676062597
 20
6.4268865803
 30
0.0
 10
10.6962169598
 20
6.4234276254
 30
0.0
 10
10.7248622826
 20
6.4210144024
 30
0.0
 10
10.7535043221
 20
6.4196502736
 30
0.0
 10
10.7821045609
 20
6.4193369458
 30
0.0
 10
10.8106247106
 20
6.420074898
 30
0.0
 10
10.8390265313
 20
6.4218632648
 30
0.0
 10
10.8672719725
 20
6.4246994713
 30
0.0
 10
10.8953231539
 20
6.4285799556
 30
0.0
 10
10.9231424877
 20
6.4334993945
 30
0.0
 10
10.9506926854
 20
6.4394512207
 30
0.0
 10
10.9779367777
 20
6.4464276105
 30
0.0
 10
11.0048382914
 20
6.4544190207
 30
0.0
 10
11.0313611001
 20
6.4634149564
 30
0.0
 10
11.0574696677
 20
6.4734032688
 30
0.0
 10
11.0831290025
 20
6.4843705504
 30
0.0
 10
11.1083046218
 20
6.4963022678
 30
0.0
 10
11.1329628599
 20
6.5091822302
 30
0.0
 10
11.1570705604
 20
6.5229933457
 30
0.0
 10
11.1805954266
 20
6.5377170477
 30
0.0
 10
11.2035059246
 20
6.5533335092
 30
0.0
 10
11.2257713176
 20
6.569822063
 30
0.0
 10
11.2473614787
 20
6.587160024
 30
0.0
 10
11.261288002
 20
6.5992719028
 30
0.0
 10
11.2681278243
 20
6.6054602498
 30
0.0
  0
SPLINE
  5
3A7
100
AcDbEntity
  8
0
100
AcDbSpline
 62
7
  6
CONTINUOUS
 70
0
 71
3
 72
46
 73
42
 74
0
 42
0.0000001
 43
0.0000001
 44
0.0000000001
 40
0.0
 40
0.0
 40
0.0
 40
0.0
 40
0.006315901
 40
0.0126707127
 40
0.0191025808
 40
0.0256481471
 40
0.0323420418
 40
0.039216438
 40
0.0536143007
 40
0.0611950826
 40
0.0690568839
 40
0.0772180043
 40
0.085694446
 40
0.094499905
 40
0.1036460391
 40
0.1131428464
 40
0.1229986863
 40
0.1332203494
 40
0.1438134657
 40
0.1547825726
 40
0.1661309915
 40
0.189973408
 40
0.2153529628
 40
0.2422689457
 40
0.2707112921
 40
0.3006624273
 40
0.3320977976
 40
0.3649871768
 40
0.3992952195
 40
0.4349817954
 40
0.4720029071
 40
0.5103105874
 40
0.5498535424
 40
0.5905774295
 40
0.6324248595
 40
0.6753360048
 40
0.7192484167
 40
0.7640976385
 40
0.8098172438
 40
0.903588672
 40
1.0
 40
1.0
 40
1.0
 40
1.0
 10
12.9387312089
 20
6.6168363261
 30
0.0
 10
12.9396286973
 20
6.6167740829
 30
0.0
 10
12.9414249633
 20
6.6165757671
 30
0.0
 10
12.9440992316
 20
6.6160588094
 30
0.0
 10
12.9467556142
 20
6.6153223871
 30
0.0
 10
12.9493925773
 20
6.6143671559
 30
0.0
 10
12.952009087
 20
6.6131936338
 30
0.0
 10
12.9555223104
 20
6.6113102792
 30
0.0
 10
12.9589401926
 20
6.609004884
 30
0.0
 10
12.9622477748
 20
6.606333201
 30
0.0
 10
12.9647461212
 20
6.604080674
 30
0.0
 10
12.9672178228
 20
6.6016153173
 30
0.0
 10
12.9696621909
 20
6.5989379353
 30
0.0
 10
12.9720782577
 20
6.5960497198
 30
0.0
 10
12.9744651697
 20
6.5929518743
 30
0.0
 10
12.9768219667
 20
6.5896456266
 30
0.0
 10
12.9791477179
 20
6.5861323082
 30
0.0
 10
12.9814415643
 20
6.5824133838
 30
0.0
 10
12.983702571
 20
6.5784903461
 30
0.0
 10
12.9859298168
 20
6.5743647516
 30
0.0
 10
12.9889023239
 20
6.5684992647
 30
0.0
 10
12.9925170611
 20
6.5606616189
 30
0.0
 10
12.9966373574
 20
6.5506266514
 30
0.0
 10
13.0006021849
 20
6.5398286956
 30
0.0
 10
13.0044051294
 20
6.5282853838
 30
0.0
 10
13.0080398487
 20
6.5160153282
 30
0.0
 10
13.0115004075
 20
6.5030385363
 30
0.0
 10
13.0147810403
 20
6.4893761942
 30
0.0
 10
13.017876257
 20
6.4750506739
 30
0.0
 10
13.0207809784
 20
6.4600854826
 30
0.0
 10
13.023490288
 20
6.444505203
 30
0.0
 10
13.0259997204
 20
6.4283354608
 30
0.0
 10
13.0283050936
 20
6.41160287
 30
0.0
 10
13.0304025202
 20
6.3943349849
 30
0.0
 10
13.0322885715
 20
6.3765602547
 30
0.0
 10
13.0339600456
 20
6.3583079836
 30
0.0
 10
13.0354141808
 20
6.3396082586
 30
0.0
 10
13.036648593
 20
6.3204918688
 30
0.0
 10
13.0380100201
 20
6.2942689575
 30
0.0
 10
13.0391361769
 20
6.2606823399
 30
0.0
 10
13.0394271134
 20
6.2335915244
 30
0.0
 10
13.0394271134
 20
6.2198585852
 30
0.0
  0
SPLINE
  5
3A8
100
AcDbEntity
  8
0
100
AcDbSpline
 62
7
  6
CONTINUOUS
 70
0
 71
3
 72
24
 73
20
 74
0
 42
0.0000001
 43
0.0000001
 44
0.0000000001
 40
0.0
 40
0.0
 40
0.0
 40
0.0
 40
0.0637474987
 40
0.1272943527
 40
0.190638431
 40
0.253787108
 40
0.3167454653
 40
0.3795213722
 40
0.4421242608
 40
0.5045650044
 40
0.5668560054
 40
0.6290110116
 40
0.6910450283
 40
0.7220239883
 40
0.7529788289
 40
0.8148202128
 40
0.8765917405
 40
0.938311984
 40
1.0
 40
1.0
 40
1.0
 40
1.0
 10
9.9397911829
 20
7.2580294867
 30
0.0
 10
9.9397911829
 20
7.2700319182
 30
0.0
 10
9.9403429547
 20
7.2940027514
 30
0.0
 10
9.9428330569
 20
7.3298222041
 30
0.0
 10
9.9469795334
 20
7.365375289
 30
0.0
 10
9.9527731892
 20
7.4005849826
 30
0.0
 10
9.9602021119
 20
7.4353770767
 30
0.0
 10
9.9692504506
 20
7.4696773976
 30
0.0
 10
9.9798990138
 20
7.5034130838
 30
0.0
 10
9.9921252262
 20
7.5365123628
 30
0.0
 10
10.0059032656
 20
7.5689049401
 30
0.0
 10
10.0212036044
 20
7.6005214684
 30
0.0
 10
10.0352024983
 20
7.6261787247
 30
0.0
 10
10.047127275
 20
7.6462457402
 30
0.0
 10
10.0595207822
 20
7.6659838838
 30
0.0
 10
10.0758995849
 20
7.6900547811
 30
0.0
 10
10.0969337782
 20
7.7179147364
 30
0.0
 10
10.1192966367
 20
7.7446817187
 30
0.0
 10
10.1350634551
 20
7.761764177
 30
0.0
 10
10.1431494899
 20
7.7701018391
 30
0.0
  0
SPLINE
  5
3A9
100
AcDbEntity
  8
0
100
AcDbSpline
 62
7
  6
CONTINUOUS
 70
0
 71
3
 72
46
 73
42
 74
0
 42
0.0000001
 43
0.0000001
 44
0.0000000001
 40
0.0
 40
0.0
 40
0.0
 40
0.0
 40
0.006315901
 40
0.0126707127
 40
0.0191025808
 40
0.0256481471
 40
0.0323420418
 40
0.039216438
 40
0.0536143007
 40
0.0611950826
 40
0.0690568839
 40
0.0772180043
 40
0.085694446
 40
0.094499905
 40
0.1036460391
 40
0.1131428464
 40
0.1229986863
 40
0.1332203494
 40
0.1438134657
 40
0.1547825726
 40
0.1661309915
 40
0.189973408
 40
0.2153529628
 40
0.2422689457
 40
0.2707112921
 40
0.3006624273
 40
0.3320977976
 40
0.3649871768
 40
0.3992952195
 40
0.4349817954
 40
0.4720029071
 40
0.5103105874
 40
0.5498535424
 40
0.5905774295
 40
0.6324248595
 40
0.6753360048
 40
0.7192484167
 40
0.7640976385
 40
0.8098172438
 40
0.903588672
 40
1.0
 40
1.0
 40
1.0
 40
1.0
 10
12.9387312089
 20
9.3948390971
 30
0.0
 10
12.9396286973
 20
9.3947768539
 30
0.0
 10
12.9414249633
 20
9.3945785381
 30
0.0
 10
12.9440992316
 20
9.3940615804
 30
0.0
 10
12.9467556142
 20
9.3933251581
 30
0.0
 10
12.9493925773
 20
9.3923699269
 30
0.0
 10
12.952009087
 20
9.3911964048
 30
0.0
 10
12.9555223104
 20
9.3893130502
 30
0.0
 10
12.9589401926
 20
9.387007655
 30
0.0
 10
12.9622477748
 20
9.384335972
 30
0.0
 10
12.9647461212
 20
9.382083445
 30
0.0
 10
12.9672178228
 20
9.3796180883
 30
0.0
 10
12.9696621909
 20
9.3769407063
 30
0.0
 10
12.9720782577
 20
9.3740524908
 30
0.0
 10
12.9744651697
 20
9.3709546453
 30
0.0
 10
12.9768219667
 20
9.3676483976
 30
0.0
 10
12.9791477179
 20
9.3641350792
 30
0.0
 10
12.9814415643
 20
9.3604161548
 30
0.0
 10
12.983702571
 20
9.3564931171
 30
0.0
 10
12.9859298168
 20
9.3523675226
 30
0.0
 10
12.9889023239
 20
9.3465020357
 30
0.0
 10
12.9925170611
 20
9.3386643899
 30
0.0
 10
12.9966373574
 20
9.3286294224
 30
0.0
 10
13.0006021849
 20
9.3178314666
 30
0.0
 10
13.0044051294
 20
9.3062881548
 30
0.0
 10
13.0080398487
 20
9.2940180992
 30
0.0
 10
13.0115004075
 20
9.2810413073
 30
0.0
 10
13.0147810403
 20
9.2673789652
 30
0.0
 10
13.017876257
 20
9.2530534449
 30
0.0
 10
13.0207809784
 20
9.2380882536
 30
0.0
 10
13.023490288
 20
9.222507974
 30
0.0
 10
13.0259997204
 20
9.2063382318
 30
0.0
 10
13.0283050936
 20
9.189605641
 30
0.0
 10
13.0304025202
 20
9.1723377559
 30
0.0
 10
13.0322885715
 20
9.1545630257
 30
0.0
 10
13.0339600456
 20
9.1363107546
 30
0.0
 10
13.0354141808
 20
9.1176110296
 30
0.0
 10
13.036648593
 20
9.0984946398
 30
0.0
 10
13.0380100201
 20
9.0722717285
 30
0.0
 10
13.0391361769
 20
9.0386851109
 30
0.0
 10
13.0394271134
 20
9.0115942954
 30
0.0
 10
13.0394271134
 20
8.9978613562
 30
0.0
  0
SPLINE
  5
3AA
100
AcDbEntity
  8
0
100
AcDbSpline
 62
7
  6
CONTINUOUS
 70
0
 71
3
 72
39
 73
35
 74
0
 42
0.0000001
 43
0.0000001
 44
0.0000000001
 40
0.0
 40
0.0
 40
0.0
 40
0.0
 40
0.0319626175
 40
0.0638343392
 40
0.0956118706
 40
0.1272988767
 40
0.1588977439
 40
0.1904110967
 40
0.2218426931
 40
0.2531968037
 40
0.2844782285
 40
0.3156923576
 40
0.3468451025
 40
0.3779428343
 40
0.4089923551
 40
0.4400008512
 40
0.4709758206
 40
0.5019250281
 40
0.532856448
 40
0.5637781865
 40
0.5946984296
 40
0.6256253803
 40
0.6565671803
 40
0.6875318569
 40
0.718527262
 40
0.7495609961
 40
0.7806403631
 40
0.8117723154
 40
0.8429633849
 40
0.8742196533
 40
0.9055467047
 40
0.9369495694
 40
0.9684327137
 40
1.0
 40
1.0
 40
1.0
 40
1.0
 10
10.1233171008
 20
7.2453019211
 30
0.0
 10
10.1233171008
 20
7.2537214401
 30
0.0
 10
10.1236719188
 20
7.270538737
 30
0.0
 10
10.1252725277
 20
7.295680955
 30
0.0
 10
10.1279384444
 20
7.3206601466
 30
0.0
 10
10.1316647292
 20
7.3454305499
 30
0.0
 10
10.1364446492
 20
7.3699485826
 30
0.0
 10
10.1422698878
 20
7.3941703566
 30
0.0
 10
10.1491300707
 20
7.4180525778
 30
0.0
 10
10.1570128378
 20
7.4415526864
 30
0.0
 10
10.1659042983
 20
7.4646286781
 30
0.0
 10
10.1757885826
 20
7.4872393432
 30
0.0
 10
10.1866479568
 20
7.5093443628
 30
0.0
 10
10.1984632153
 20
7.5309041829
 30
0.0
 10
10.2112132008
 20
7.5518803337
 30
0.0
 10
10.2248751069
 20
7.5722353943
 30
0.0
 10
10.2394247015
 20
7.5919329055
 30
0.0
 10
10.2548358918
 20
7.6109377676
 30
0.0
 10
10.2710811666
 20
7.629216046
 30
0.0
 10
10.288131631
 20
7.6467349882
 30
0.0
 10
10.3059567069
 20
7.6634634296
 30
0.0
 10
10.3245246103
 20
7.6793714561
 30
0.0
 10
10.3438022368
 20
7.6944305831
 30
0.0
 10
10.3637550455
 20
7.7086140665
 30
0.0
 10
10.3843474738
 20
7.7218964927
 30
0.0
 10
10.4055427486
 20
7.7342541305
 30
0.0
 10
10.4273029408
 20
7.7456650635
 30
0.0
 10
10.4495892658
 20
7.7561087946
 30
0.0
 10
10.4723618913
 20
7.765566741
 30
0.0
 10
10.4955801292
 20
7.7740221425
 30
0.0
 10
10.5192025382
 20
7.781459757
 30
0.0
 10
10.5431870628
 20
7.7878664667
 30
0.0
 10
10.5674902736
 20
7.7932308365
 30
0.0
 10
10.5838550923
 20
7.7961019712
 30
0.0
 10
10.5920745308
 20
7.7973614967
 30
0.0
  0
SPLINE
  5
3AB
100
AcDbEntity
  8
0
100
AcDbSpline
 62
7
  6
CONTINUOUS
 70
0
 71
3
 72
39
 73
35
 74
0
 42
0.0000001
 43
0.0000001
 44
0.0000000001
 40
0.0
 40
0.0
 40
0.0
 40
0.0
 40
0.03197751
 40
0.0638683309
 40
0.0956684864
 40
0.1273812813
 40
0.15900925
 40
0.1905545316
 40
0.2220204016
 40
0.2534107062
 40
0.2847296874
 40
0.3159821338
 40
0.3471733017
 40
0.3783088782
 40
0.4093949518
 40
0.4404379546
 40
0.4714446421
 40
0.5024220245
 40
0.5333773226
 40
0.5643179277
 40
0.5952513261
 40
0.6261850638
 40
0.657126686
 40
0.688083671
 40
0.719063397
 40
0.7500730696
 40
0.7811196755
 40
0.8122099453
 40
0.8433502806
 40
0.8745467356
 40
0.9058049634
 40
0.9371301692
 40
0.9685271037
 40
1.0
 40
1.0
 40
1.0
 40
1.0
 10
10.216143644
 20
7.2924541695
 30
0.0
 10
10.216143644
 20
7.2999770396
 30
0.0
 10
10.2164478027
 20
7.3150041944
 30
0.0
 10
10.2178196184
 20
7.3374748138
 30
0.0
 10
10.2201047143
 20
7.3598088368
 30
0.0
 10
10.2232991421
 20
7.3819685001
 30
0.0
 10
10.2273974933
 20
7.4039180082
 30
0.0
 10
10.2323934139
 20
7.425621219
 30
0.0
 10
10.2382784731
 20
7.4470424592
 30
0.0
 10
10.245043102
 20
7.4681465564
 30
0.0
 10
10.252676297
 20
7.4888988202
 30
0.0
 10
10.2611653567
 20
7.5092652219
 30
0.0
 10
10.2704965789
 20
7.52921221
 30
0.0
 10
10.2806544861
 20
7.5487070841
 30
0.0
 10
10.2916224499
 20
7.5677177981
 30
0.0
 10
10.3033825631
 20
7.5862130488
 30
0.0
 10
10.3159153313
 20
7.604162565
 30
0.0
 10
10.329200369
 20
7.6215367165
 30
0.0
 10
10.3432157325
 20
7.638307038
 30
0.0
 10
10.3579384018
 20
7.6544459803
 30
0.0
 10
10.3733443015
 20
7.6699269126
 30
0.0
 10
10.3894079514
 20
7.6847245675
 30
0.0
 10
10.406103108
 20
7.6988144735
 30
0.0
 10
10.4234022614
 20
7.7121735622
 30
0.0
 10
10.4412769598
 20
7.7247799353
 30
0.0
 10
10.4596979357
 20
7.7366127285
 30
0.0
 10
10.4786347854
 20
7.7476527186
 30
0.0
 10
10.4980564933
 20
7.7578816156
 30
0.0
 10
10.5179311064
 20
7.7672826827
 30
0.0
 10
10.5382259445
 20
7.7758405853
 30
0.0
 10
10.5589077079
 20
7.7835410739
 30
0.0
 10
10.5799424653
 20
7.7903717796
 30
0.0
 10
10.6012952218
 20
7.7963212349
 30
0.0
 10
10.6157022622
 20
7.799689643
 30
0.0
 10
10.6229456349
 20
7.8012242748
 30
0.0
  0
SPLINE
  5
3AC
100
AcDbEntity
  8
0
100
AcDbSpline
 62
7
  6
CONTINUOUS
 70
0
 71
3
 72
23
 73
19
 74
0
 42
0.0000001
 43
0.0000001
 44
0.0000000001
 40
0.0
 40
0.0
 40
0.0
 40
0.0
 40
0.0637762145
 40
0.1273451869
 40
0.1907020141
 40
0.2538560333
 40
0.3168132367
 40
0.379582082
 40
0.4421733861
 40
0.5045993417
 40
0.566873863
 40
0.6290123825
 40
0.6910316544
 40
0.7529496448
 40
0.8147853545
 40
0.8765586074
 40
0.9382898575
 40
1.0
 40
1.0
 40
1.0
 40
1.0
 10
10.2988000576
 20
7.3048054511
 30
0.0
 10
10.2988000576
 20
7.3126740068
 30
0.0
 10
10.299176732
 20
7.3283882138
 30
0.0
 10
10.3008765652
 20
7.351863887
 30
0.0
 10
10.3037069168
 20
7.3751535547
 30
0.0
 10
10.3076609815
 20
7.3982023325
 30
0.0
 10
10.3127298549
 20
7.4209576762
 30
0.0
 10
10.3189018361
 20
7.443366982
 30
0.0
 10
10.3261627574
 20
7.4653785854
 30
0.0
 10
10.3344960083
 20
7.4869417165
 30
0.0
 10
10.3438823139
 20
7.5080066749
 30
0.0
 10
10.3543000826
 20
7.5285248782
 30
0.0
 10
10.3657254187
 20
7.5484489403
 30
0.0
 10
10.3781319355
 20
7.5677329458
 30
0.0
 10
10.3914909755
 20
7.5863323899
 30
0.0
 10
10.4057719708
 20
7.6042044596
 30
0.0
 10
10.4209414303
 20
7.6213073505
 30
0.0
 10
10.4316253313
 20
7.6321722659
 30
0.0
 10
10.4371014972
 20
7.6374618078
 30
0.0
  0
SPLINE
  5
3AD
100
AcDbEntity
  8
0
100
AcDbSpline
 62
7
  6
CONTINUOUS
 70
0
 71
3
 72
15
 73
11
 74
0
 42
0.0000001
 43
0.0000001
 44
0.0000000001
 40
0.0
 40
0.0
 40
0.0
 40
0.0
 40
0.1266071419
 40
0.2527241614
 40
0.3783525691
 40
0.5035138583
 40
0.6282279602
 40
0.7525236733
 40
0.8764346631
 40
1.0
 40
1.0
 40
1.0
 40
1.0
 10
10.5722451031
 20
7.5429330983
 30
0.0
 10
10.5722451031
 20
7.551732733
 30
0.0
 10
10.5727413482
 20
7.5693020944
 30
0.0
 10
10.574982082
 20
7.5955170071
 30
0.0
 10
10.5787110464
 20
7.6214614359
 30
0.0
 10
10.5839160251
 20
7.6470509297
 30
0.0
 10
10.5905807007
 20
7.6722039638
 30
0.0
 10
10.598683865
 20
7.6968400549
 30
0.0
 10
10.608199162
 20
7.7208792047
 30
0.0
 10
10.6154745212
 20
7.7364785805
 30
0.0
 10
10.6193358716
 20
7.7441497911
 30
0.0
  0
SPLINE
  5
3AE
100
AcDbEntity
  8
0
100
AcDbSpline
 62
7
  6
CONTINUOUS
 70
0
 71
3
 72
15
 73
11
 74
0
 42
0.0000001
 43
0.0000001
 44
0.0000000001
 40
0.0
 40
0.0
 40
0.0
 40
0.0
 40
0.1264390833
 40
0.2524498853
 40
0.3780250109
 40
0.5031837911
 40
0.6279392441
 40
0.7523106882
 40
0.8763219249
 40
1.0
 40
1.0
 40
1.0
 40
1.0
 10
10.5453279224
 20
7.5429330968
 30
0.0
 10
10.5453279224
 20
7.5511111046
 30
0.0
 10
10.5457347766
 20
7.5674424138
 30
0.0
 10
10.5475710539
 20
7.5918336979
 30
0.0
 10
10.5506282642
 20
7.6160194695
 30
0.0
 10
10.5548984549
 20
7.6399382684
 30
0.0
 10
10.5603713079
 20
7.663531045
 30
0.0
 10
10.5670332328
 20
7.6867390865
 30
0.0
 10
10.5748672974
 20
7.7095038298
 30
0.0
 10
10.5808670204
 20
7.7243676828
 30
0.0
 10
10.5840549611
 20
7.7317044309
 30
0.0
  0
SPLINE
  5
3AF
100
AcDbEntity
  8
0
100
AcDbSpline
 62
7
  6
CONTINUOUS
 70
0
 71
3
 72
48
 73
44
 74
0
 42
0.0000001
 43
0.0000001
 44
0.0000000001
 40
0.0
 40
0.0
 40
0.0
 40
0.0
 40
0.0149718897
 40
0.0299468369
 40
0.0449278839
 40
0.0599180336
 40
0.0749202322
 40
0.0899373568
 40
0.1049721887
 40
0.1200274064
 40
0.1351055645
 40
0.1502090774
 40
0.1653402142
 40
0.180501073
 40
0.1956935825
 40
0.2109194836
 40
0.2261803205
 40
0.2414774416
 40
0.2568119786
 40
0.2721848576
 40
0.3030428416
 40
0.3340598877
 40
0.365235493
 40
0.3965657058
 40
0.4280432614
 40
0.4596577825
 40
0.4913960356
 40
0.5232422374
 40
0.5551784039
 40
0.5871847345
 40
0.6192400218
 40
0.6513220815
 40
0.6834081967
 40
0.7154755701
 40
0.7475017768
 40
0.7794652126
 40
0.8113455287
 40
0.8431240501
 40
0.8747841728
 40
0.9063117021
 40
0.9376953081
 40
0.9689262526
 40
1.0
 40
1.0
 40
1.0
 40
1.0
 10
11.1724982461
 20
8.4546902751
 30
0.0
 10
11.1669235888
 20
8.4493055465
 30
0.0
 10
11.1555577931
 20
8.4387553824
 30
0.0
 10
11.1378917482
 20
8.4236185164
 30
0.0
 10
11.1196309425
 20
8.4091888913
 30
0.0
 10
11.1008006968
 20
8.3954868991
 30
0.0
 10
11.0814269822
 20
8.3825311027
 30
0.0
 10
11.0615363911
 20
8.3703394858
 30
0.0
 10
11.041156323
 20
8.3589287744
 30
0.0
 10
11.0203148675
 20
8.3483145801
 30
0.0
 10
10.999040621
 20
8.3385116767
 30
0.0
 10
10.9773629633
 20
8.3295333168
 30
0.0
 10
10.9553116427
 20
8.3213920342
 30
0.0
 10
10.9329170493
 20
8.3140989076
 30
0.0
 10
10.9102099952
 20
8.3076639356
 30
0.0
 10
10.887221697
 20
8.3020960946
 30
0.0
 10
10.863983802
 20
8.2974028061
 30
0.0
 10
10.8405283462
 20
8.2935907384
 30
0.0
 10
10.8168871998
 20
8.2906649472
 30
0.0
 10
10.7851259267
 20
8.2879477719
 30
0.0
 10
10.7451122166
 20
8.2867924984
 30
0.0
 10
10.6969491034
 20
8.2889898115
 30
0.0
 10
10.6488349159
 20
8.294755504
 30
0.0
 10
10.6010358292
 20
8.3040575184
 30
0.0
 10
10.5538138734
 20
8.3168441753
 30
0.0
 10
10.5074284474
 20
8.3330448004
 30
0.0
 10
10.4621341315
 20
8.3525700434
 30
0.0
 10
10.4181795043
 20
8.3753123505
 30
0.0
 10
10.3758057395
 20
8.4011465719
 30
0.0
 10
10.3352453301
 20
8.4299306773
 30
0.0
 10
10.2967208244
 20
8.4615065234
 30
0.0
 10
10.2604436249
 20
8.4957007164
 30
0.0
 10
10.2266128398
 20
8.532325549
 30
0.0
 10
10.1954141607
 20
8.571179987
 30
0.0
 10
10.1670188939
 20
8.6120508073
 30
0.0
 10
10.1415830283
 20
8.6547137469
 30
0.0
 10
10.1192463869
 20
8.6989347247
 30
0.0
 10
10.100131868
 20
8.7444710817
 30
0.0
 10
10.0843447536
 20
8.7910729813
 30
0.0
 10
10.0719720479
 20
8.8384844002
 30
0.0
 10
10.0630822749
 20
8.886445876
 30
0.0
 10
10.057724543
 20
8.9346906486
 30
0.0
 10
10.0565245492
 20
8.9669568034
 30
0.0
 10
10.0565245492
 20
8.9830430027
 30
0.0
  0
SPLINE
  5
3B0
100
AcDbEntity
  8
0
100
AcDbSpline
 62
7
  6
CONTINUOUS
 70
0
 71
3
 72
51
 73
47
 74
0
 42
0.0000001
 43
0.0000001
 44
0.0000000001
 40
0.0
 40
0.0
 40
0.0
 40
0.0
 40
0.0063158655
 40
0.0126706318
 40
0.0191024376
 40
0.0256479646
 40
0.0323418026
 40
0.0392161087
 40
0.0536138572
 40
0.0611945363
 40
0.0690562626
 40
0.0772173127
 40
0.0856936584
 40
0.0944990189
 40
0.1036450659
 40
0.113141796
 40
0.1229975191
 40
0.133219072
 40
0.1438121299
 40
0.1547811124
 40
0.1661293961
 40
0.1778595522
 40
0.1899731907
 40
0.2024711797
 40
0.2153538132
 40
0.2286206204
 40
0.2422705968
 40
0.270712786
 40
0.3006636547
 40
0.3320987777
 40
0.3649879575
 40
0.3992957302
 40
0.4349820786
 40
0.4720029295
 40
0.5103103706
 40
0.549853079
 40
0.5905766853
 40
0.63242389
 40
0.6753347462
 40
0.7192469347
 40
0.7640958651
 40
0.8098150804
 40
0.8563358892
 40
0.903587821
 40
0.9515017896
 40
1.0
 40
1.0
 40
1.0
 40
1.0
 10
13.6211268303
 20
10.9164078732
 30
0.0
 10
13.6224958841
 20
10.9163129341
 30
0.0
 10
13.6252359519
 20
10.9160103861
 30
0.0
 10
13.6293153555
 20
10.9152218767
 30
0.0
 10
13.6333675013
 20
10.914098637
 30
0.0
 10
13.6373899774
 20
10.9126414728
 30
0.0
 10
13.6413812715
 20
10.9108513942
 30
0.0
 10
13.6467404893
 20
10.9079786112
 30
0.0
 10
13.6519541644
 20
10.9044618688
 30
0.0
 10
13.6569996919
 20
10.9003865202
 30
0.0
 10
13.66081073
 20
10.8969504803
 30
0.0
 10
13.6645811264
 20
10.8931897861
 30
0.0
 10
13.6683098467
 20
10.8891056833
 30
0.0
 10
13.6719953892
 20
10.8846999649
 30
0.0
 10
13.6756364553
 20
10.8799744603
 30
0.0
 10
13.6792315669
 20
10.8749310444
 30
0.0
 10
13.6827793522
 20
10.8695717823
 30
0.0
 10
13.686278465
 20
10.8638988735
 30
0.0
 10
13.6897274428
 20
10.8579145736
 30
0.0
 10
13.6931249408
 20
10.8516213343
 30
0.0
 10
13.6964696258
 20
10.8450217288
 30
0.0
 10
13.6997600712
 20
10.83811841
 30
0.0
 10
13.7029949826
 20
10.8309142158
 30
0.0
 10
13.7061730637
 20
10.823412095
 30
0.0
 10
13.7092929385
 20
10.8156150928
 30
0.0
 10
13.7123534074
 20
10.8075264112
 30
0.0
 10
13.7164087537
 20
10.7962014041
 30
0.0
 10
13.7213077307
 20
10.7813307453
 30
0.0
 10
13.7268522788
 20
10.7626138453
 30
0.0
 10
13.7321311241
 20
10.7428187006
 30
0.0
 10
13.737135473
 20
10.7219778331
 30
0.0
 10
13.7418570386
 20
10.7001253246
 30
0.0
 10
13.7462879695
 20
10.6772970464
 30
0.0
 10
13.750420847
 20
10.6535304888
 30
0.0
 10
13.7542488053
 20
10.6288647446
 30
0.0
 10
13.7577654832
 20
10.6033404154
 30
0.0
 10
13.760964989
 20
10.5769995301
 30
0.0
 10
13.763841996
 20
10.5498854874
 30
0.0
 10
13.7663917336
 20
10.5220429817
 30
0.0
 10
13.7686099287
 20
10.4935179192
 30
0.0
 10
13.770492881
 20
10.4643573083
 30
0.0
 10
13.7720374637
 20
10.4346092705
 30
0.0
 10
13.7732410931
 20
10.4043229738
 30
0.0
 10
13.7741017727
 20
10.3735479383
 30
0.0
 10
13.7746179902
 20
10.3423355454
 30
0.0
 10
13.7747313614
 20
10.3213864504
 30
0.0
 10
13.7747313614
 20
10.3108485253
 30
0.0
  0
SPLINE
  5
3B1
100
AcDbEntity
  8
0
100
AcDbSpline
 62
7
  6
CONTINUOUS
 70
0
 71
3
 72
42
 73
38
 74
0
 42
0.0000001
 43
0.0000001
 44
0.0000000001
 40
0.0
 40
0.0
 40
0.0
 40
0.0
 40
0.0300142332
 40
0.0450590755
 40
0.0601297341
 40
0.0903498858
 40
0.120688947
 40
0.1359076927
 40
0.1511589605
 40
0.1664433912
 40
0.1817615011
 40
0.2124960528
 40
0.2433678971
 40
0.274375982
 40
0.3055170336
 40
0.336785637
 40
0.3681743492
 40
0.3996738388
 40
0.4312730521
 40
0.4629593995
 40
0.4947189609
 40
0.5265367068
 40
0.5583967311
 40
0.5902824937
 40
0.6221770698
 40
0.6540634031
 40
0.6859245604
 40
0.7177439849
 40
0.7495057455
 40
0.7811947802
 40
0.8127971264
 40
0.8443001536
 40
0.8756927317
 40
0.9069655325
 40
0.9381108776
 40
0.9691236613
 40
1.0
 40
1.0
 40
1.0
 40
1.0
 10
11.2585159329
 20
7.0821733517
 30
0.0
 10
11.2496484464
 20
7.0780931492
 30
0.0
 10
11.2361217427
 20
7.0724185118
 30
0.0
 10
11.2177268595
 20
7.0657748425
 30
0.0
 10
11.1990544114
 20
7.0597328626
 30
0.0
 10
11.1752825899
 20
7.053343135
 30
0.0
 10
11.151091197
 20
7.0485401373
 30
0.0
 10
11.1315239683
 20
7.0456523614
 30
0.0
 10
11.1167370442
 20
7.0439646534
 30
0.0
 10
11.1018706181
 20
7.0427591483
 30
0.0
 10
11.0819430695
 20
7.0417956085
 30
0.0
 10
11.0569068129
 20
7.0418058226
 30
0.0
 10
11.0268299904
 20
7.0437556872
 30
0.0
 10
10.9968069824
 20
7.0476346214
 30
0.0
 10
10.966962653
 20
7.053426479
 30
0.0
 10
10.9374200251
 20
7.0611071314
 30
0.0
 10
10.9083011379
 20
7.0706446961
 30
0.0
 10
10.8797261814
 20
7.0819996375
 30
0.0
 10
10.8518131046
 20
7.0951249419
 30
0.0
 10
10.824677107
 20
7.1099663096
 30
0.0
 10
10.7984301752
 20
7.1264623805
 30
0.0
 10
10.7731806225
 20
7.1445449848
 30
0.0
 10
10.7490326472
 20
7.1641394254
 30
0.0
 10
10.7260859063
 20
7.1851647848
 30
0.0
 10
10.7044351079
 20
7.2075342567
 30
0.0
 10
10.6841696234
 20
7.2311555019
 30
0.0
 10
10.6653731214
 20
7.2559310265
 30
0.0
 10
10.6481232251
 20
7.2817585815
 30
0.0
 10
10.6324911926
 20
7.3085315806
 30
0.0
 10
10.6185416278
 20
7.3361395361
 30
0.0
 10
10.6063322054
 20
7.3644685138
 30
0.0
 10
10.5959134577
 20
7.3934015829
 30
0.0
 10
10.5873285051
 20
7.4228193574
 30
0.0
 10
10.5806130108
 20
7.4526002445
 30
0.0
 10
10.5757947712
 20
7.4826217919
 30
0.0
 10
10.5728940176
 20
7.5127582774
 30
0.0
 10
10.5722451031
 20
7.5328915598
 30
0.0
 10
10.5722451031
 20
7.5429330983
 30
0.0
  0
SPLINE
  5
3B2
100
AcDbEntity
  8
0
100
AcDbSpline
 62
7
  6
CONTINUOUS
 70
0
 71
3
 72
71
 73
67
 74
0
 42
0.0000001
 43
0.0000001
 44
0.0000000001
 40
0.0
 40
0.0
 40
0.0
 40
0.0
 40
0.0156285045
 40
0.0313077472
 40
0.0470353508
 40
0.0628112648
 40
0.0786338451
 40
0.0945012052
 40
0.110411213
 40
0.1263613118
 40
0.1423486395
 40
0.1583700446
 40
0.1744221007
 40
0.1905011378
 40
0.2066032781
 40
0.2227244643
 40
0.2388604878
 40
0.2550070265
 40
0.2711596794
 40
0.2873139954
 40
0.3034655103
 40
0.3196097848
 40
0.3357424332
 40
0.3518591579
 40
0.3679557883
 40
0.3840283094
 40
0.4000728909
 40
0.4160859246
 40
0.4320640527
 40
0.4480041898
 40
0.4639035553
 40
0.4797596998
 40
0.4955705211
 40
0.5113342853
 40
0.5270496515
 40
0.5427156799
 40
0.5583318408
 40
0.5738980308
 40
0.5894145757
 40
0.6048822258
 40
0.6203021584
 40
0.6356759746
 40
0.651005683
 40
0.6662936848
 40
0.6815427619
 40
0.6967560518
 40
0.7119370167
 40
0.7270894189
 40
0.742217289
 40
0.7573248853
 40
0.7724166545
 40
0.7874971953
 40
0.8025712132
 40
0.8176434729
 40
0.8327187559
 40
0.8478018176
 40
0.8628973387
 40
0.8780098801
 40
0.8931438437
 40
0.9083034326
 40
0.923492608
 40
0.9387150538
 40
0.9539741543
 40
0.9692729545
 40
0.9846141165
 40
1.0
 40
1.0
 40
1.0
 40
1.0
 10
10.1233171008
 20
7.2453019211
 30
0.0
 10
10.1233171008
 20
7.2360641989
 30
0.0
 10
10.1237455185
 20
7.2175559757
 30
0.0
 10
10.1256642709
 20
7.1898112899
 30
0.0
 10
10.1288565357
 20
7.1620959163
 30
0.0
 10
10.1333151021
 20
7.1344703132
 30
0.0
 10
10.1390305831
 20
7.1069927967
 30
0.0
 10
10.1459906621
 20
7.0797221538
 30
0.0
 10
10.1541804518
 20
7.0527165531
 30
0.0
 10
10.1635825349
 20
7.0260336152
 30
0.0
 10
10.174176715
 20
6.9997302326
 30
0.0
 10
10.1859403621
 20
6.9738625033
 30
0.0
 10
10.1988484491
 20
6.9484856451
 30
0.0
 10
10.2128733568
 20
6.9236537594
 30
0.0
 10
10.2279851069
 20
6.8994197809
 30
0.0
 10
10.2441515121
 20
6.8758354342
 30
0.0
 10
10.2613380917
 20
6.8529510393
 30
0.0
 10
10.2795081013
 20
6.8308153509
 30
0.0
 10
10.2986227982
 20
6.8094755938
 30
0.0
 10
10.3186414726
 20
6.7889773517
 30
0.0
 10
10.3395213536
 20
6.7693642889
 30
0.0
 10
10.3612178915
 20
6.7506782237
 30
0.0
 10
10.3836848691
 20
6.732959092
 30
0.0
 10
10.4068743498
 20
6.7162446869
 30
0.0
 10
10.4307368324
 20
6.7005706134
 30
0.0
 10
10.4552214524
 20
6.6859703611
 30
0.0
 10
10.4802760183
 20
6.6724751546
 30
0.0
 10
10.5058470424
 20
6.6601137174
 30
0.0
 10
10.5318799889
 20
6.6489124423
 30
0.0
 10
10.558319368
 20
6.6388953505
 30
0.0
 10
10.5851087554
 20
6.630083789
 30
0.0
 10
10.6121909923
 20
6.6224965436
 30
0.0
 10
10.639508325
 20
6.6161499131
 30
0.0
 10
10.6670024725
 20
6.6110575099
 30
0.0
 10
10.694614754
 20
6.6072301525
 30
0.0
 10
10.722286257
 20
6.6046760779
 30
0.0
 10
10.7499579322
 20
6.6034008847
 30
0.0
 10
10.77757071
 20
6.6034072524
 30
0.0
 10
10.8050656545
 20
6.6046951937
 30
0.0
 10
10.8323840621
 20
6.6072621082
 30
0.0
 10
10.8594675992
 20
6.6111025488
 30
0.0
 10
10.8862584436
 20
6.6162082909
 30
0.0
 10
10.912699372
 20
6.6225685337
 30
0.0
 10
10.9387338827
 20
6.6301698125
 30
0.0
 10
10.964306385
 20
6.6389958375
 30
0.0
 10
10.9893622489
 20
6.6490278008
 30
0.0
 10
11.0138478918
 20
6.6602444112
 30
0.0
 10
11.0377110089
 20
6.6726216802
 30
0.0
 10
11.06090063
 20
6.6861331479
 30
0.0
 10
11.0833671554
 20
6.7007500384
 30
0.0
 10
11.105062544
 20
6.7164411595
 30
0.0
 10
11.1259404831
 20
6.7331729145
 30
0.0
 10
11.1459563411
 20
6.7509095806
 30
0.0
 10
11.1650672698
 20
6.7696133312
 30
0.0
 10
11.1832324942
 20
6.7892441226
 30
0.0
 10
11.2004132263
 20
6.8097599851
 30
0.0
 10
11.2165726879
 20
6.8311171314
 30
0.0
 10
11.2316763761
 20
6.8532698948
 30
0.0
 10
11.2456921079
 20
6.8761708812
 30
0.0
 10
11.2585899239
 20
6.8997711757
 30
0.0
 10
11.2703422318
 20
6.9240203648
 30
0.0
 10
11.2809240629
 20
6.9488665917
 30
0.0
 10
11.2903128442
 20
6.9742567168
 30
0.0
 10
11.2984885055
 20
7.0001367272
 30
0.0
 10
11.3054335492
 20
7.0264505449
 30
0.0
 10
11.3092280796
 20
7.0442201954
 30
0.0
 10
11.3109163104
 20
7.0531564369
 30
0.0
  0
SPLINE
  5
3B3
100
AcDbEntity
  8
0
100
AcDbSpline
 62
7
  6
CONTINUOUS
 70
0
 71
3
 72
26
 73
22
 74
0
 42
0.0000001
 43
0.0000001
 44
0.0000000001
 40
0.0
 40
0.0
 40
0.0
 40
0.0
 40
0.0637763288
 40
0.127342888
 40
0.1906991365
 40
0.253852345
 40
0.2853569163
 40
0.3168132564
 40
0.3795812268
 40
0.4421715818
 40
0.5045965961
 40
0.5668701919
 40
0.6290077774
 40
0.6910261213
 40
0.7219986711
 40
0.7529482414
 40
0.8147830235
 40
0.8765553475
 40
0.9074270132
 40
0.9382907755
 40
1.0
 40
1.0
 40
1.0
 40
1.0
 10
9.9232267773
 20
7.2420294986
 30
0.0
 10
9.9232267773
 20
7.2545268467
 30
0.0
 10
9.9238249361
 20
7.2794846515
 30
0.0
 10
9.9265248254
 20
7.3167696888
 30
0.0
 10
9.9310200122
 20
7.3537586855
 30
0.0
 10
9.9362577185
 20
7.3842899639
 30
0.0
 10
9.9413345736
 20
7.4084779013
 30
0.0
 10
9.9469901211
 20
7.4324595265
 30
0.0
 10
9.9551532775
 20
7.4620984347
 30
0.0
 10
9.9666853466
 20
7.4970577481
 30
0.0
 10
9.9799205064
 20
7.5313052077
 30
0.0
 10
9.9948282621
 20
7.5647614262
 30
0.0
 10
10.0113740247
 20
7.5973488718
 30
0.0
 10
10.0265030247
 20
7.6237314875
 30
0.0
 10
10.0393835239
 20
7.6443240853
 30
0.0
 10
10.0527659878
 20
7.6645509944
 30
0.0
 10
10.0704422668
 20
7.6891611989
 30
0.0
 10
10.0893478573
 20
7.7128205956
 30
0.0
 10
10.1051750622
 20
7.731133382
 30
0.0
 10
10.1214589451
 20
7.7490238403
 30
0.0
 10
10.1341852501
 20
7.7619656904
 30
0.0
 10
10.1428826885
 20
7.7703667596
 30
0.0
  0
SPLINE
  5
3B4
100
AcDbEntity
  8
0
100
AcDbSpline
 62
7
  6
CONTINUOUS
 70
0
 71
3
 72
51
 73
47
 74
0
 42
0.0000001
 43
0.0000001
 44
0.0000000001
 40
0.0
 40
0.0
 40
0.0
 40
0.0
 40
0.014971649
 40
0.0299463566
 40
0.0449271647
 40
0.0599170747
 40
0.0749190347
 40
0.0899359204
 40
0.1049705134
 40
0.1200254923
 40
0.1351034113
 40
0.1502066853
 40
0.1653375821
 40
0.1804982021
 40
0.1956904707
 40
0.2109161316
 40
0.2261767282
 40
0.2414736061
 40
0.2568079029
 40
0.272180538
 40
0.2875922205
 40
0.3030434356
 40
0.3185344485
 40
0.3340653085
 40
0.34963584
 40
0.365245656
 40
0.3965753731
 40
0.4280524305
 40
0.4596664495
 40
0.4914041969
 40
0.5232498909
 40
0.5551855477
 40
0.5871913667
 40
0.6192461407
 40
0.6513276859
 40
0.683413286
 40
0.7154801443
 40
0.7475058366
 40
0.779468758
 40
0.8113485605
 40
0.8431265712
 40
0.8747861831
 40
0.9063132139
 40
0.9376962973
 40
0.9689267507
 40
1.0
 40
1.0
 40
1.0
 40
1.0
 10
11.2683707974
 20
6.6051729937
 30
0.0
 10
11.2616513412
 20
6.598682506
 30
0.0
 10
11.2479513927
 20
6.5859659645
 30
0.0
 10
11.2266575124
 20
6.5677207146
 30
0.0
 10
11.204646625
 20
6.5503280781
 30
0.0
 10
11.181949438
 20
6.5338124086
 30
0.0
 10
11.1585971592
 20
6.5181962012
 30
0.0
 10
11.1346218582
 20
6.503501118
 30
0.0
 10
11.1100565889
 20
6.4897472687
 30
0.0
 10
11.0849351707
 20
6.4769535416
 30
0.0
 10
11.0592921108
 20
6.4651376659
 30
0.0
 10
11.0331627781
 20
6.4543157161
 30
0.0
 10
11.0065830855
 20
6.4445026601
 30
0.0
 10
10.9795896038
 20
6.4357120119
 30
0.0
 10
10.9522195174
 20
6.4279557043
 30
0.0
 10
10.9245104357
 20
6.4212445592
 30
0.0
 10
10.8965005109
 20
6.4155876838
 30
0.0
 10
10.868228277
 20
6.4109928033
 30
0.0
 10
10.8397326047
 20
6.4074663687
 30
0.0
 10
10.8110527139
 20
6.4050130266
 30
0.0
 10
10.782228036
 20
6.4036362268
 30
0.0
 10
10.7532982276
 20
6.4033378737
 30
0.0
 10
10.7243030375
 20
6.4041182147
 30
0.0
 10
10.6952824706
 20
6.4059762994
 30
0.0
 10
10.6662759505
 20
6.4089095588
 30
0.0
 10
10.6276306157
 20
6.4142542623
 30
0.0
 10
10.5795538822
 20
6.4236101602
 30
0.0
 10
10.5226360517
 20
6.4390226608
 30
0.0
 10
10.4667248627
 20
6.458550364
 30
0.0
 10
10.4121292948
 20
6.4820853088
 30
0.0
 10
10.3591484224
 20
6.5094979841
 30
0.0
 10
10.3080730908
 20
6.5406374992
 30
0.0
 10
10.2591834839
 20
6.5753326484
 30
0.0
 10
10.2127478663
 20
6.6133928221
 30
0.0
 10
10.1690210771
 20
6.6546090485
 30
0.0
 10
10.1282430594
 20
6.6987550179
 30
0.0
 10
10.0906376379
 20
6.745588424
 30
0.0
 10
10.0564113182
 20
6.7948522788
 30
0.0
 10
10.0257521739
 20
6.8462762958
 30
0.0
 10
9.9988286898
 20
6.8995782893
 30
0.0
 10
9.9757889565
 20
6.9544657514
 30
0.0
 10
9.9567598788
 20
7.01063756
 30
0.0
 10
9.9418464371
 20
7.067785132
 30
0.0
 10
9.9311311383
 20
7.1255957154
 30
0.0
 10
9.9246731991
 20
7.1837477657
 30
0.0
 10
9.9232267773
 20
7.222639926
 30
0.0
 10
9.9232267773
 20
7.2420294986
 30
0.0
  0
SPLINE
  5
3B5
100
AcDbEntity
  8
0
100
AcDbSpline
 62
7
  6
CONTINUOUS
 70
0
 71
3
 72
56
 73
52
 74
0
 42
0.0000001
 43
0.0000001
 44
0.0000000001
 40
0.0
 40
0.0
 40
0.0
 40
0.0
 40
0.0417736882
 40
0.084036569
 40
0.126657816
 40
0.1695056114
 40
0.2124469876
 40
0.2553487175
 40
0.2980776897
 40
0.3405014874
 40
0.382488896
 40
0.4239104382
 40
0.4646389059
 40
0.5045499007
 40
0.5435223862
 40
0.5814392545
 40
0.618187917
 40
0.6536609283
 40
0.6877566583
 40
0.7042583751
 40
0.7203806689
 40
0.736112881
 40
0.7514447564
 40
0.7663667196
 40
0.7808696734
 40
0.7949452813
 40
0.8085857852
 40
0.8217842875
 40
0.8345346038
 40
0.8468315409
 40
0.8586708034
 40
0.870049268
 40
0.8809649654
 40
0.8914173597
 40
0.9014074321
 40
0.9109379838
 40
0.9200138552
 40
0.928642284
 40
0.9368332998
 40
0.9446001777
 40
0.9519600405
 40
0.9589344314
 40
0.9655500921
 40
0.9718395715
 40
0.9778419465
 40
0.9836030969
 40
0.9891757603
 40
0.9919106346
 40
0.9946208937
 40
0.9973146057
 40
1.0
 40
1.0
 40
1.0
 40
1.0
 10
13.7747313614
 20
10.3108485253
 30
0.0
 10
13.7747313614
 20
10.2957373167
 30
0.0
 10
13.7744956062
 20
10.2653374641
 30
0.0
 10
13.7734534017
 20
10.2195305464
 30
0.0
 10
13.7717235727
 20
10.1733555444
 30
0.0
 10
13.7693118247
 20
10.126965419
 30
0.0
 10
13.7662261024
 20
10.0805135616
 30
0.0
 10
13.7624766192
 20
10.034153686
 30
0.0
 10
13.7580757894
 20
9.9880391567
 30
0.0
 10
13.7530382043
 20
9.9423225358
 30
0.0
 10
13.7473805766
 20
9.8971550551
 30
0.0
 10
13.741121689
 20
9.8526861185
 30
0.0
 10
13.7342823317
 20
9.8090628
 30
0.0
 10
13.7268852354
 20
9.7664293542
 30
0.0
 10
13.7189549977
 20
9.7249267245
 30
0.0
 10
13.7105180017
 20
9.6846920919
 30
0.0
 10
13.7016023382
 20
9.6458583224
 30
0.0
 10
13.6922376855
 20
9.6085538172
 30
0.0
 10
13.683998562
 20
9.5785255152
 30
0.0
 10
13.6771939823
 20
9.5553688708
 30
0.0
 10
13.6720535081
 20
9.538648352
 30
0.0
 10
13.666824795
 20
9.5223991902
 30
0.0
 10
13.6615120452
 20
9.5066348042
 30
0.0
 10
13.6561197763
 20
9.4913682034
 30
0.0
 10
13.6506523534
 20
9.4766120018
 30
0.0
 10
13.6451144102
 20
9.4623783572
 30
0.0
 10
13.639510437
 20
9.4486790202
 30
0.0
 10
13.6338451684
 20
9.4355252565
 30
0.0
 10
13.6281232033
 20
9.4229279082
 30
0.0
 10
13.6223493534
 20
9.4108973074
 30
0.0
 10
13.6165283074
 20
9.3994433441
 30
0.0
 10
13.6106649242
 20
9.3885753775
 30
0.0
 10
13.6047639574
 20
9.3783023033
 30
0.0
 10
13.5988302748
 20
9.368632472
 30
0.0
 10
13.5928686574
 20
9.3595737462
 30
0.0
 10
13.5868839276
 20
9.3511334412
 30
0.0
 10
13.5808808365
 20
9.3433183586
 30
0.0
 10
13.5748640826
 20
9.3361347765
 30
0.0
 10
13.5688382996
 20
9.3295884421
 30
0.0
 10
13.5628079575
 20
9.3236846559
 30
0.0
 10
13.5567774638
 20
9.3184282065
 30
0.0
 10
13.5507509745
 20
9.3138236132
 30
0.0
 10
13.5447326245
 20
9.3098749759
 30
0.0
 10
13.5387264079
 20
9.3065864312
 30
0.0
 10
13.5327363842
 20
9.3039618108
 30
0.0
 10
13.5267675498
 20
9.3020052315
 30
0.0
 10
13.5217827703
 20
9.3009276448
 30
0.0
 10
13.517829061
 20
9.3004110171
 30
0.0
 10
13.5148913177
 20
9.3001934405
 30
0.0
 10
13.5119639932
 20
9.3001436042
 30
0.0
 10
13.5100184723
 20
9.3002222848
 30
0.0
 10
13.5090493854
 20
9.3002894876
 30
0.0
  0
SPLINE
  5
3B6
100
AcDbEntity
  8
0
100
AcDbSpline
 62
7
  6
CONTINUOUS
 70
0
 71
3
 72
42
 73
38
 74
0
 42
0.0000001
 43
0.0000001
 44
0.0000000001
 40
0.0
 40
0.0
 40
0.0
 40
0.0
 40
0.0300142332
 40
0.0450590755
 40
0.0601297341
 40
0.0903498858
 40
0.120688947
 40
0.1359076927
 40
0.1511589605
 40
0.1664433912
 40
0.1817615011
 40
0.2124960528
 40
0.2433678971
 40
0.274375982
 40
0.3055170336
 40
0.336785637
 40
0.3681743492
 40
0.3996738388
 40
0.4312730521
 40
0.4629593995
 40
0.4947189609
 40
0.5265367068
 40
0.5583967311
 40
0.5902824937
 40
0.6221770698
 40
0.6540634031
 40
0.6859245604
 40
0.7177439849
 40
0.7495057455
 40
0.7811947802
 40
0.8127971264
 40
0.8443001536
 40
0.8756927317
 40
0.9069655325
 40
0.9381108776
 40
0.9691236613
 40
1.0
 40
1.0
 40
1.0
 40
1.0
 10
9.1160923859
 20
6.4444873651
 30
0.0
 10
9.1072248993
 20
6.4404071626
 30
0.0
 10
9.0936981957
 20
6.4347325253
 30
0.0
 10
9.0753033124
 20
6.428088856
 30
0.0
 10
9.0566308643
 20
6.4220468761
 30
0.0
 10
9.0328590429
 20
6.4156571485
 30
0.0
 10
9.00866765
 20
6.4108541508
 30
0.0
 10
8.9891004213
 20
6.4079663748
 30
0.0
 10
8.9743134972
 20
6.4062786669
 30
0.0
 10
8.959447071
 20
6.4050731617
 30
0.0
 10
8.9395195225
 20
6.4041096219
 30
0.0
 10
8.9144832658
 20
6.404119836
 30
0.0
 10
8.8844064434
 20
6.4060697007
 30
0.0
 10
8.8543834354
 20
6.4099486348
 30
0.0
 10
8.824539106
 20
6.4157404924
 30
0.0
 10
8.7949964781
 20
6.4234211449
 30
0.0
 10
8.7658775909
 20
6.4329587096
 30
0.0
 10
8.7373026344
 20
6.444313651
 30
0.0
 10
8.7093895576
 20
6.4574389553
 30
0.0
 10
8.68225356
 20
6.4722803231
 30
0.0
 10
8.6560066282
 20
6.4887763939
 30
0.0
 10
8.6307570755
 20
6.5068589982
 30
0.0
 10
8.6066091001
 20
6.5264534389
 30
0.0
 10
8.5836623592
 20
6.5474787983
 30
0.0
 10
8.5620115609
 20
6.5698482701
 30
0.0
 10
8.5417460764
 20
6.5934695153
 30
0.0
 10
8.5229495744
 20
6.61824504
 30
0.0
 10
8.5056996781
 20
6.6440725949
 30
0.0
 10
8.4900676456
 20
6.670845594
 30
0.0
 10
8.4761180808
 20
6.6984535496
 30
0.0
 10
8.4639086584
 20
6.7267825272
 30
0.0
 10
8.4534899107
 20
6.7557155963
 30
0.0
 10
8.444904958
 20
6.7851333708
 30
0.0
 10
8.4381894638
 20
6.8149142579
 30
0.0
 10
8.4333712242
 20
6.8449358054
 30
0.0
 10
8.4304704706
 20
6.8750722908
 30
0.0
 10
8.4298215561
 20
6.8952055732
 30
0.0
 10
8.4298215561
 20
6.9052471118
 30
0.0
  0
SPLINE
  5
3B7
100
AcDbEntity
  8
0
100
AcDbSpline
 62
7
  6
CONTINUOUS
 70
0
 71
3
 72
51
 73
47
 74
0
 42
0.0000001
 43
0.0000001
 44
0.0000000001
 40
0.0
 40
0.0
 40
0.0
 40
0.0
 40
0.014971649
 40
0.0299463566
 40
0.0449271647
 40
0.0599170747
 40
0.0749190347
 40
0.0899359204
 40
0.1049705134
 40
0.1200254923
 40
0.1351034113
 40
0.1502066853
 40
0.1653375821
 40
0.1804982021
 40
0.1956904707
 40
0.2109161316
 40
0.2261767282
 40
0.2414736061
 40
0.2568079029
 40
0.272180538
 40
0.2875922205
 40
0.3030434356
 40
0.3185344485
 40
0.3340653085
 40
0.34963584
 40
0.365245656
 40
0.3965753731
 40
0.4280524305
 40
0.4596664495
 40
0.4914041969
 40
0.5232498909
 40
0.5551855477
 40
0.5871913667
 40
0.6192461407
 40
0.6513276859
 40
0.683413286
 40
0.7154801443
 40
0.7475058366
 40
0.779468758
 40
0.8113485605
 40
0.8431265712
 40
0.8747861831
 40
0.9063132139
 40
0.9376962973
 40
0.9689267507
 40
1.0
 40
1.0
 40
1.0
 40
1.0
 10
9.1259472504
 20
5.9674870072
 30
0.0
 10
9.1192277942
 20
5.9609965194
 30
0.0
 10
9.1055278457
 20
5.9482799779
 30
0.0
 10
9.0842339654
 20
5.9300347281
 30
0.0
 10
9.062223078
 20
5.9126420915
 30
0.0
 10
9.039525891
 20
5.8961264221
 30
0.0
 10
9.0161736122
 20
5.8805102147
 30
0.0
 10
8.9921983112
 20
5.8658151314
 30
0.0
 10
8.9676330419
 20
5.8520612821
 30
0.0
 10
8.9425116237
 20
5.8392675551
 30
0.0
 10
8.9168685637
 20
5.8274516794
 30
0.0
 10
8.8907392311
 20
5.8166297295
 30
0.0
 10
8.8641595385
 20
5.8068166736
 30
0.0
 10
8.8371660568
 20
5.7980260254
 30
0.0
 10
8.8097959704
 20
5.7902697178
 30
0.0
 10
8.7820868886
 20
5.7835585727
 30
0.0
 10
8.7540769639
 20
5.7779016972
 30
0.0
 10
8.72580473
 20
5.7733068167
 30
0.0
 10
8.6973090577
 20
5.7697803821
 30
0.0
 10
8.6686291669
 20
5.7673270401
 30
0.0
 10
8.639804489
 20
5.7659502403
 30
0.0
 10
8.6108746806
 20
5.7656518872
 30
0.0
 10
8.5818794905
 20
5.7664322281
 30
0.0
 10
8.5528589236
 20
5.7682903129
 30
0.0
 10
8.5238524035
 20
5.7712235723
 30
0.0
 10
8.4852070687
 20
5.7765682758
 30
0.0
 10
8.4371303352
 20
5.7859241736
 30
0.0
 10
8.3802125047
 20
5.8013366742
 30
0.0
 10
8.3243013157
 20
5.8208643775
 30
0.0
 10
8.2697057478
 20
5.8443993222
 30
0.0
 10
8.2167248754
 20
5.8718119975
 30
0.0
 10
8.1656495438
 20
5.9029515126
 30
0.0
 10
8.1167599369
 20
5.9376466618
 30
0.0
 10
8.0703243193
 20
5.9757068356
 30
0.0
 10
8.0265975301
 20
6.016923062
 30
0.0
 10
7.9858195124
 20
6.0610690314
 30
0.0
 10
7.9482140909
 20
6.1079024374
 30
0.0
 10
7.9139877712
 20
6.1571662922
 30
0.0
 10
7.8833286268
 20
6.2085903093
 30
0.0
 10
7.8564051428
 20
6.2618923028
 30
0.0
 10
7.8333654095
 20
6.3167797649
 30
0.0
 10
7.8143363318
 20
6.3729515735
 30
0.0
 10
7.7994228901
 20
6.4300991454
 30
0.0
 10
7.7887075913
 20
6.4879097289
 30
0.0
 10
7.7822496521
 20
6.5460617791
 30
0.0
 10
7.7808032303
 20
6.5849539395
 30
0.0
 10
7.7808032303
 20
6.604343512
 30
0.0
  0
SPLINE
  5
3B8
100
AcDbEntity
  8
0
100
AcDbSpline
 62
4
  6
CONTINUOUS
 70
0
 71
3
 72
301
 73
297
 74
0
 42
0.0000001
 43
0.0000001
 44
0.0000000001
 40
0.0
 40
0.0
 40
0.0
 40
0.0
 40
0.015625
 40
0.0234375
 40
0.03125
 40
0.0390625
 40
0.046875
 40
0.05078125
 40
0.0546875
 40
0.056640625
 40
0.05859375
 40
0.060546875
 40
0.0615234375
 40
0.0620117188
 40
0.0625
 40
0.0629882812
 40
0.0634765625
 40
0.064453125
 40
0.06640625
 40
0.068359375
 40
0.0703125
 40
0.07421875
 40
0.078125
 40
0.0859375
 40
0.09375
 40
0.1015625
 40
0.109375
 40
0.11328125
 40
0.1171875
 40
0.119140625
 40
0.12109375
 40
0.123046875
 40
0.1240234375
 40
0.1245117188
 40
0.125
 40
0.1254882812
 40
0.1259765625
 40
0.126953125
 40
0.12890625
 40
0.130859375
 40
0.1328125
 40
0.13671875
 40
0.140625
 40
0.1484375
 40
0.15625
 40
0.1640625
 40
0.171875
 40
0.17578125
 40
0.1796875
 40
0.181640625
 40
0.18359375
 40
0.185546875
 40
0.1865234375
 40
0.1870117188
 40
0.1875
 40
0.1879882812
 40
0.1884765625
 40
0.189453125
 40
0.19140625
 40
0.193359375
 40
0.1953125
 40
0.19921875
 40
0.203125
 40
0.2109375
 40
0.21875
 40
0.2265625
 40
0.234375
 40
0.23828125
 40
0.2421875
 40
0.24609375
 40
0.248046875
 40
0.2490234375
 40
0.25
 40
0.2509765625
 40
0.251953125
 40
0.25390625
 40
0.2578125
 40
0.26171875
 40
0.265625
 40
0.2734375
 40
0.28125
 40
0.2890625
 40
0.296875
 40
0.30078125
 40
0.3046875
 40
0.30859375
 40
0.310546875
 40
0.3115234375
 40
0.3125
 40
0.3134765625
 40
0.314453125
 40
0.31640625
 40
0.3203125
 40
0.32421875
 40
0.328125
 40
0.3359375
 40
0.34375
 40
0.3515625
 40
0.359375
 40
0.36328125
 40
0.3671875
 40
0.37109375
 40
0.373046875
 40
0.3740234375
 40
0.375
 40
0.3759765625
 40
0.376953125
 40
0.37890625
 40
0.3828125
 40
0.38671875
 40
0.390625
 40
0.3984375
 40
0.40625
 40
0.4140625
 40
0.421875
 40
0.42578125
 40
0.4296875
 40
0.43359375
 40
0.435546875
 40
0.4375
 40
0.439453125
 40
0.44140625
 40
0.4453125
 40
0.44921875
 40
0.453125
 40
0.4609375
 40
0.46875
 40
0.4765625
 40
0.484375
 40
0.48828125
 40
0.4921875
 40
0.49609375
 40
0.498046875
 40
0.4990234375
 40
0.5
 40
0.5009765625
 40
0.501953125
 40
0.50390625
 40
0.5078125
 40
0.51171875
 40
0.515625
 40
0.5234375
 40
0.53125
 40
0.5390625
 40
0.546875
 40
0.55078125
 40
0.5546875
 40
0.556640625
 40
0.55859375
 40
0.560546875
 40
0.5615234375
 40
0.5625
 40
0.5634765625
 40
0.564453125
 40
0.56640625
 40
0.568359375
 40
0.5703125
 40
0.57421875
 40
0.578125
 40
0.5859375
 40
0.59375
 40
0.6015625
 40
0.609375
 40
0.61328125
 40
0.6171875
 40
0.619140625
 40
0.62109375
 40
0.623046875
 40
0.6240234375
 40
0.6245117188
 40
0.625
 40
0.6254882812
 40
0.6259765625
 40
0.626953125
 40
0.62890625
 40
0.630859375
 40
0.6328125
 40
0.63671875
 40
0.640625
 40
0.6484375
 40
0.65625
 40
0.6640625
 40
0.671875
 40
0.67578125
 40
0.6796875
 40
0.681640625
 40
0.68359375
 40
0.685546875
 40
0.6865234375
 40
0.6870117188
 40
0.6875
 40
0.6879882812
 40
0.6884765625
 40
0.689453125
 40
0.69140625
 40
0.693359375
 40
0.6953125
 40
0.69921875
 40
0.703125
 40
0.7109375
 40
0.71875
 40
0.7265625
 40
0.73046875
 40
0.734375
 40
0.73828125
 40
0.7421875
 40
0.744140625
 40
0.74609375
 40
0.748046875
 40
0.7490234375
 40
0.7495117188
 40
0.75
 40
0.7504882812
 40
0.7509765625
 40
0.751953125
 40
0.75390625
 40
0.755859375
 40
0.7578125
 40
0.76171875
 40
0.765625
 40
0.76953125
 40
0.7734375
 40
0.78125
 40
0.7890625
 40
0.79296875
 40
0.796875
 40
0.80078125
 40
0.8046875
 40
0.806640625
 40
0.80859375
 40
0.810546875
 40
0.8115234375
 40
0.8120117188
 40
0.8125
 40
0.8129882812
 40
0.8134765625
 40
0.814453125
 40
0.81640625
 40
0.818359375
 40
0.8203125
 40
0.82421875
 40
0.828125
 40
0.83203125
 40
0.8359375
 40
0.84375
 40
0.8515625
 40
0.85546875
 40
0.859375
 40
0.86328125
 40
0.8671875
 40
0.869140625
 40
0.87109375
 40
0.8720703125
 40
0.873046875
 40
0.8740234375
 40
0.8745117188
 40
0.875
 40
0.8754882812
 40
0.8759765625
 40
0.876953125
 40
0.8779296875
 40
0.87890625
 40
0.880859375
 40
0.8828125
 40
0.88671875
 40
0.890625
 40
0.89453125
 40
0.8984375
 40
0.90625
 40
0.9140625
 40
0.91796875
 40
0.921875
 40
0.92578125
 40
0.9296875
 40
0.931640625
 40
0.93359375
 40
0.9345703125
 40
0.935546875
 40
0.9365234375
 40
0.9370117188
 40
0.9375
 40
0.9379882812
 40
0.9384765625
 40
0.939453125
 40
0.9404296875
 40
0.94140625
 40
0.943359375
 40
0.9453125
 40
0.94921875
 40
0.953125
 40
0.95703125
 40
0.9609375
 40
0.96875
 40
0.9765625
 40
0.984375
 40
1.0
 40
1.0
 40
1.0
 40
1.0
 10
14.4549073029
 20
10.63711501
 30
0.0
 10
14.4532282346
 20
10.6348787311
 30
0.0
 10
14.4507096321
 20
10.6315243132
 30
0.0
 10
14.4473514955
 20
10.6270517542
 30
0.0
 10
14.4448328928
 20
10.6236973396
 30
0.0
 10
14.4423142911
 20
10.6203429073
 30
0.0
 10
14.4402154533
 20
10.6175476022
 30
0.0
 10
14.4385363899
 20
10.6153112346
 30
0.0
 10
14.4374869596
 20
10.613913786
 30
0.0
 10
14.4366474513
 20
10.6127951833
 30
0.0
 10
14.4360177216
 20
10.6119579941
 30
0.0
 10
14.4354932603
 20
10.6112547287
 30
0.0
 10
14.4351255221
 20
10.6107734479
 30
0.0
 10
14.4349163468
 20
10.6104812469
 30
0.0
 10
14.4347567585
 20
10.6103105019
 30
0.0
 10
14.4346075173
 20
10.6099547258
 30
0.0
 10
14.4344049199
 20
10.6095448986
 30
0.0
 10
14.434052056
 20
10.6087976301
 30
0.0
 10
14.4335470855
 20
10.6077458251
 30
0.0
 10
14.4329414972
 20
10.6064769299
 30
0.0
 10
14.4321339147
 20
10.60478742
 30
0.0
 10
14.4311244816
 20
10.6026747278
 30
0.0
 10
14.4295093635
 20
10.5992948702
 30
0.0
 10
14.4274904746
 20
10.595069893
 30
0.0
 10
14.4250678037
 20
10.5899999908
 30
0.0
 10
14.4226451358
 20
10.584930055
 30
0.0
 10
14.4206262396
 20
10.5807051616
 30
0.0
 10
14.4190111362
 20
10.5773251364
 30
0.0
 10
14.4180016657
 20
10.5752128702
 30
0.0
 10
14.4171941599
 20
10.5735224859
 30
0.0
 10
14.4165883372
 20
10.5722562621
 30
0.0
 10
14.4160841002
 20
10.571196099
 30
0.0
 10
14.4157299269
 20
10.5704637511
 30
0.0
 10
14.4155294274
 20
10.5700300175
 30
0.0
 10
14.4153737421
 20
10.5697476741
 30
0.0
 10
14.4152383569
 20
10.5693011282
 30
0.0
 10
14.4150507624
 20
10.5687630094
 30
0.0
 10
14.4147257713
 20
10.5677946157
 30
0.0
 10
14.4142597733
 20
10.5664251477
 30
0.0
 10
14.413701314
 20
10.5647758144
 30
0.0
 10
14.4129564438
 20
10.5625787892
 30
0.0
 10
14.4120254443
 20
10.5598317934
 30
0.0
 10
14.4105357958
 20
10.5554369995
 30
0.0
 10
14.4086737522
 20
10.5499433692
 30
0.0
 10
14.406439292
 20
10.5433510756
 30
0.0
 10
14.4042048362
 20
10.5367587515
 30
0.0
 10
14.4023427815
 20
10.5312651975
 30
0.0
 10
14.4008531552
 20
10.5268702511
 30
0.0
 10
14.3999220992
 20
10.5241236427
 30
0.0
 10
14.399177345
 20
10.5219258224
 30
0.0
 10
14.3986185314
 20
10.5202789179
 30
0.0
 10
14.398153642
 20
10.5189018509
 30
0.0
 10
14.3978266718
 20
10.5179470228
 30
0.0
 10
14.3976422482
 20
10.5173871684
 30
0.0
 10
14.397497123
 20
10.5170073874
 30
0.0
 10
14.3973780197
 20
10.5164742862
 30
0.0
 10
14.3972101386
 20
10.5158169643
 30
0.0
 10
14.3969205756
 20
10.5146417338
 30
0.0
 10
14.3965047032
 20
10.5129758601
 30
0.0
 10
14.3960066027
 20
10.5109712357
 30
0.0
 10
14.3953421381
 20
10.5083003508
 30
0.0
 10
14.3945116706
 20
10.5049610776
 30
0.0
 10
14.3931828591
 20
10.499618614
 30
0.0
 10
14.3915218688
 20
10.4929404012
 30
0.0
 10
14.3895286597
 20
10.4849266255
 30
0.0
 10
14.387535495
 20
10.4769127446
 30
0.0
 10
14.3858743938
 20
10.4702347948
 30
0.0
 10
14.3845458041
 20
10.4648918053
 30
0.0
 10
14.3835485665
 20
10.4608862815
 30
0.0
 10
14.3827200647
 20
10.4575428797
 30
0.0
 10
14.3821351495
 20
10.4552132237
 30
0.0
 10
14.3818086629
 20
10.4538652452
 30
0.0
 10
14.3815419641
 20
10.4529014365
 30
0.0
 10
14.3813587257
 20
10.4517573001
 30
0.0
 10
14.3810852958
 20
10.4502946851
 30
0.0
 10
14.3806203573
 20
10.4477058025
 30
0.0
 10
14.3799490682
 20
10.4440227206
 30
0.0
 10
14.3791465566
 20
10.439596464
 30
0.0
 10
14.3780754806
 20
10.4336970799
 30
0.0
 10
14.376737002
 20
10.4263220596
 30
0.0
 10
14.3751306595
 20
10.417472391
 30
0.0
 10
14.3735244033
 20
10.4086225639
 30
0.0
 10
14.372185709
 20
10.4012479399
 30
0.0
 10
14.3711150643
 20
10.3953477633
 30
0.0
 10
14.370311237
 20
10.3909239241
 30
0.0
 10
14.3696440642
 20
10.3872332793
 30
0.0
 10
14.3691717774
 20
10.3846578976
 30
0.0
 10
14.3689101213
 20
10.3831736509
 30
0.0
 10
14.3686907176
 20
10.3820959603
 30
0.0
 10
14.3685598495
 20
10.380882592
 30
0.0
 10
14.3683544764
 20
10.3793120934
 30
0.0
 10
14.3680094621
 20
10.376541671
 30
0.0
 10
14.3675090619
 20
10.3725954526
 30
0.0
 10
14.3669118018
 20
10.3678550562
 30
0.0
 10
14.3661143297
 20
10.3615362515
 30
0.0
 10
14.3651178785
 20
10.3536371525
 30
0.0
 10
14.3639219581
 20
10.3441584951
 30
0.0
 10
14.3627261314
 20
10.3346797408
 30
0.0
 10
14.3617294458
 20
10.3267808843
 30
0.0
 10
14.3609324425
 20
10.3204615944
 30
0.0
 10
14.3603337526
 20
10.315722678
 30
0.0
 10
14.3598378254
 20
10.3117718294
 30
0.0
 10
14.3594848262
 20
10.3090096728
 30
0.0
 10
14.3592922469
 20
10.3074259303
 30
0.0
 10
14.3591220803
 20
10.3062532431
 30
0.0
 10
14.3590502751
 20
10.3050227609
 30
0.0
 10
14.3589202254
 20
10.3034022774
 30
0.0
 10
14.3587086237
 20
10.3005570386
 30
0.0
 10
14.3583979783
 20
10.2964973225
 30
0.0
 10
14.3580287809
 20
10.2916235611
 30
0.0
 10
14.3575352693
 20
10.2851259468
 30
0.0
 10
14.3569187997
 20
10.2770036781
 30
0.0
 10
14.3561788929
 20
10.2672570582
 30
0.0
 10
14.3554388876
 20
10.2575104294
 30
0.0
 10
14.3548226642
 20
10.249388183
 30
0.0
 10
14.3543286603
 20
10.242890524
 30
0.0
 10
14.3539609644
 20
10.238016899
 30
0.0
 10
14.3536456213
 20
10.2339567563
 30
0.0
 10
14.3534133751
 20
10.230705925
 30
0.0
 10
14.3531844636
 20
10.2282752262
 30
0.0
 10
14.3531644452
 20
10.2258161873
 30
0.0
 10
14.3530647849
 20
10.2225473683
 30
0.0
 10
14.3529652449
 20
10.2184579481
 30
0.0
 10
14.352835081
 20
10.2135520978
 30
0.0
 10
14.3526652719
 20
10.2070104556
 30
0.0
 10
14.3524517292
 20
10.1988335813
 30
0.0
 10
14.3521960139
 20
10.1890212381
 30
0.0
 10
14.3519402052
 20
10.1792089854
 30
0.0
 10
14.351726896
 20
10.1710318848
 30
0.0
 10
14.3515566199
 20
10.1644906952
 30
0.0
 10
14.3514278804
 20
10.1595834643
 30
0.0
 10
14.3513238842
 20
10.1554983632
 30
0.0
 10
14.3512446364
 20
10.1526304363
 30
0.0
 10
14.3512094239
 20
10.1510046683
 30
0.0
 10
14.3511546415
 20
10.1497485879
 30
0.0
 10
14.3512083153
 20
10.1486330012
 30
0.0
 10
14.3512420496
 20
10.1470965465
 30
0.0
 10
14.3513187106
 20
10.1444305834
 30
0.0
 10
14.3514190113
 20
10.1406101276
 30
0.0
 10
14.3515433165
 20
10.1360306902
 30
0.0
 10
14.351707679
 20
10.1299229889
 30
0.0
 10
14.3519136041
 20
10.1222889734
 30
0.0
 10
14.3521605154
 20
10.1131278987
 30
0.0
 10
14.3524074669
 20
10.1039668704
 30
0.0
 10
14.3526132914
 20
10.096332739
 30
0.0
 10
14.3527778552
 20
10.0902252695
 30
0.0
 10
14.3528809313
 20
10.0864084826
 30
0.0
 10
14.3529628792
 20
10.0833541784
 30
0.0
 10
14.3530257448
 20
10.0810658453
 30
0.0
 10
14.3530736641
 20
10.0791512822
 30
0.0
 10
14.3531220222
 20
10.0776367194
 30
0.0
 10
14.3531309039
 20
10.0764541055
 30
0.0
 10
14.353244322
 20
10.075449715
 30
0.0
 10
14.3533590302
 20
10.074048272
 30
0.0
 10
14.3535149439
 20
10.0723178278
 30
0.0
 10
14.3536966778
 20
10.0702321522
 30
0.0
 10
14.3539408627
 20
10.0674544447
 30
0.0
 10
14.3542454525
 20
10.0639812169
 30
0.0
 10
14.3547331545
 20
10.0584246635
 30
0.0
 10
14.3553426594
 20
10.0514787628
 30
0.0
 10
14.3560741166
 20
10.0431437686
 30
0.0
 10
14.3568055645
 20
10.0348087621
 30
0.0
 10
14.3574150929
 20
10.0278628921
 30
0.0
 10
14.3579027478
 20
10.0223062772
 30
0.0
 10
14.3582074573
 20
10.0188332057
 30
0.0
 10
14.3584513964
 20
10.0160551775
 30
0.0
 10
14.3586338814
 20
10.0139704815
 30
0.0
 10
14.3587874449
 20
10.0122369726
 30
0.0
 10
14.3588920101
 20
10.0110161809
 30
0.0
 10
14.3589563355
 20
10.0103300394
 30
0.0
 10
14.3589916948
 20
10.0097831678
 30
0.0
 10
14.3590763061
 20
10.0093596313
 30
0.0
 10
14.3591719415
 20
10.0087518953
 30
0.0
 10
14.3593473077
 20
10.0077084014
 30
0.0
 10
14.3595936462
 20
10.0062072165
 30
0.0
 10
14.3598910436
 20
10.0044102801
 30
0.0
 10
14.3602869477
 20
10.0020127983
 30
0.0
 10
14.3607820422
 20
9.9990164824
 30
0.0
 10
14.3615740735
 20
9.994222077
 30
0.0
 10
14.3625641541
 20
9.9882291741
 30
0.0
 10
14.3637522319
 20
9.9810376426
 30
0.0
 10
14.364940319
 20
9.9738461368
 30
0.0
 10
14.3659303762
 20
9.9678531698
 30
0.0
 10
14.3667224542
 20
9.9630588925
 30
0.0
 10
14.3672174302
 20
9.9600622513
 30
0.0
 10
14.3676135774
 20
9.9576654371
 30
0.0
 10
14.3679102323
 20
9.9558664611
 30
0.0
 10
14.3681588939
 20
9.9543716575
 30
0.0
 10
14.368330113
 20
9.9533167719
 30
0.0
 10
14.3684323931
 20
9.9527272883
 30
0.0
 10
14.3684965939
 20
9.9522476863
 30
0.0
 10
14.3686086116
 20
9.9519113872
 30
0.0
 10
14.3687412895
 20
9.9514130026
 30
0.0
 10
14.368981247
 20
9.950564119
 30
0.0
 10
14.3693199805
 20
9.9493392521
 30
0.0
 10
14.3697281997
 20
9.9478746236
 30
0.0
 10
14.3702718846
 20
9.9459199652
 30
0.0
 10
14.3709516987
 20
9.9434772655
 30
0.0
 10
14.372039285
 20
9.9395685976
 30
0.0
 10
14.3733988077
 20
9.9346828821
 30
0.0
 10
14.3750302181
 20
9.9288199735
 30
0.0
 10
14.37638973
 20
9.9239342239
 30
0.0
 10
14.3774773403
 20
9.9200256309
 30
0.0
 10
14.3782930436
 20
9.9170941616
 30
0.0
 10
14.3791087643
 20
9.914162787
 30
0.0
 10
14.3797884771
 20
9.9117196798
 30
0.0
 10
14.3803323693
 20
9.9097658549
 30
0.0
 10
14.3807399553
 20
9.9082986806
 30
0.0
 10
14.3810806699
 20
9.9070817787
 30
0.0
 10
14.3813170908
 20
9.9062186762
 30
0.0
 10
14.3814554351
 20
9.9057430738
 30
0.0
 10
14.3815500475
 20
9.9053367952
 30
0.0
 10
14.3816796198
 20
9.9051200245
 30
0.0
 10
14.3818401885
 20
9.9047648944
 30
0.0
 10
14.3821268653
 20
9.9041742152
 30
0.0
 10
14.3825334331
 20
9.9033142859
 30
0.0
 10
14.383022586
 20
9.902289263
 30
0.0
 10
14.3836743456
 20
9.9009201581
 30
0.0
 10
14.3844891976
 20
9.8992096032
 30
0.0
 10
14.3854669547
 20
9.8971565832
 30
0.0
 10
14.3864447292
 20
9.8951036579
 30
0.0
 10
14.3877484225
 20
9.892366391
 30
0.0
 10
14.3893780413
 20
9.8889448198
 30
0.0
 10
14.3910076587
 20
9.8855232402
 30
0.0
 10
14.3923113543
 20
9.8827859867
 30
0.0
 10
14.393289122
 20
9.8807330211
 30
0.0
 10
14.3942669046
 20
9.8786801524
 30
0.0
 10
14.3950816772
 20
9.8769691266
 30
0.0
 10
14.3957335987
 20
9.875600982
 30
0.0
 10
14.3962222574
 20
9.8745730267
 30
0.0
 10
14.3966303712
 20
9.8737222718
 30
0.0
 10
14.3969142883
 20
9.8731152148
 30
0.0
 10
14.3970792787
 20
9.872786326
 30
0.0
 10
14.3971952688
 20
9.8724889506
 30
0.0
 10
14.3973408936
 20
9.8723854098
 30
0.0
 10
14.3975247231
 20
9.8721797438
 30
0.0
 10
14.3978512409
 20
9.8718513297
 30
0.0
 10
14.398315177
 20
9.8713656974
 30
0.0
 10
14.398872978
 20
9.8707899881
 30
0.0
 10
14.3996163362
 20
9.8700199132
 30
0.0
 10
14.4005456632
 20
9.8690581646
 30
0.0
 10
14.4016608002
 20
9.867903704
 30
0.0
 10
14.402775952
 20
9.8667493403
 30
0.0
 10
14.4042628159
 20
9.8652101549
 30
0.0
 10
14.4061213975
 20
9.8632861846
 30
0.0
 10
14.4079799786
 20
9.8613622111
 30
0.0
 10
14.4094668434
 20
9.8598230306
 30
0.0
 10
14.4105819927
 20
9.8586686523
 30
0.0
 10
14.4116971392
 20
9.8575142466
 30
0.0
 10
14.4126264365
 20
9.8565523273
 30
0.0
 10
14.4133698552
 20
9.8557826004
 30
0.0
 10
14.4138345357
 20
9.855301957
 30
0.0
 10
14.4142061796
 20
9.8549164441
 30
0.0
 10
14.4144851877
 20
9.8546300423
 30
0.0
 10
14.4147168191
 20
9.8543826805
 30
0.0
 10
14.4149040875
 20
9.8542042892
 30
0.0
 10
14.4150391742
 20
9.8540172176
 30
0.0
 10
14.4151947374
 20
9.8540335096
 30
0.0
 10
14.4153950023
 20
9.8539841948
 30
0.0
 10
14.4156477875
 20
9.8539469239
 30
0.0
 10
14.4159500793
 20
9.8538917665
 30
0.0
 10
14.4163535019
 20
9.8538218671
 30
0.0
 10
14.4168576545
 20
9.8537332452
 30
0.0
 10
14.4176643689
 20
9.8535921476
 30
0.0
 10
14.4186727378
 20
9.8534155362
 30
0.0
 10
14.4198827909
 20
9.8532037051
 30
0.0
 10
14.4210928411
 20
9.8529918466
 30
0.0
 10
14.4227062425
 20
9.8527093781
 30
0.0
 10
14.4247229938
 20
9.852356289
 30
0.0
 10
14.4267397453
 20
9.8520032023
 30
0.0
 10
14.4283531463
 20
9.85172073
 30
0.0
 10
14.4295631976
 20
9.8515088832
 30
0.0
 10
14.4307732468
 20
9.8512970081
 30
0.0
 10
14.4317816276
 20
9.8511205337
 30
0.0
 10
14.4325883178
 20
9.8509791567
 30
0.0
 10
14.4330925322
 20
9.8508912456
 30
0.0
 10
14.433495828
 20
9.8508198872
 30
0.0
 10
14.433798507
 20
9.8507691875
 30
0.0
 10
14.4340500806
 20
9.8507179695
 30
0.0
 10
14.4342528174
 20
9.8506971093
 30
0.0
 10
14.4344008315
 20
9.8506265025
 30
0.0
 10
14.4345642606
 20
9.8507656854
 30
0.0
 10
14.4347767813
 20
9.8508779803
 30
0.0
 10
14.4350442797
 20
9.8510434918
 30
0.0
 10
14.435364487
 20
9.8512313436
 30
0.0
 10
14.4357917062
 20
9.8514855715
 30
0.0
 10
14.4363256358
 20
9.8518020695
 30
0.0
 10
14.4371799758
 20
9.8523091855
 30
0.0
 10
14.4382478827
 20
9.8529428336
 30
0.0
 10
14.4395293788
 20
9.8537033173
 30
0.0
 10
14.4408108729
 20
9.8544637726
 30
0.0
 10
14.4425195323
 20
9.8554777229
 30
0.0
 10
14.4446553563
 20
9.8567451574
 30
0.0
 10
14.4472183452
 20
9.8582660802
 30
0.0
 10
14.4506356638
 20
9.8602939768
 30
0.0
 10
14.4531986527
 20
9.8618148994
 30
0.0
 10
14.454907312
 20
9.8628288478
 30
0.0
  0
SPLINE
  5
3B9
100
AcDbEntity
  8
0
100
AcDbSpline
 62
4
  6
CONTINUOUS
 70
0
 71
3
 72
301
 73
297
 74
0
 42
0.0000001
 43
0.0000001
 44
0.0000000001
 40
0.0
 40
0.0
 40
0.0
 40
0.0
 40
0.015625
 40
0.0234375
 40
0.03125
 40
0.0390625
 40
0.046875
 40
0.05078125
 40
0.0546875
 40
0.056640625
 40
0.05859375
 40
0.060546875
 40
0.0615234375
 40
0.0620117188
 40
0.0625
 40
0.0629882812
 40
0.0634765625
 40
0.064453125
 40
0.06640625
 40
0.068359375
 40
0.0703125
 40
0.07421875
 40
0.078125
 40
0.0859375
 40
0.09375
 40
0.1015625
 40
0.109375
 40
0.11328125
 40
0.1171875
 40
0.119140625
 40
0.12109375
 40
0.123046875
 40
0.1240234375
 40
0.1245117188
 40
0.125
 40
0.1254882812
 40
0.1259765625
 40
0.126953125
 40
0.12890625
 40
0.130859375
 40
0.1328125
 40
0.13671875
 40
0.140625
 40
0.1484375
 40
0.15625
 40
0.1640625
 40
0.171875
 40
0.17578125
 40
0.1796875
 40
0.181640625
 40
0.18359375
 40
0.185546875
 40
0.1865234375
 40
0.1870117188
 40
0.1875
 40
0.1879882812
 40
0.1884765625
 40
0.189453125
 40
0.19140625
 40
0.193359375
 40
0.1953125
 40
0.19921875
 40
0.203125
 40
0.2109375
 40
0.21875
 40
0.2265625
 40
0.234375
 40
0.23828125
 40
0.2421875
 40
0.24609375
 40
0.248046875
 40
0.2490234375
 40
0.25
 40
0.2509765625
 40
0.251953125
 40
0.25390625
 40
0.2578125
 40
0.26171875
 40
0.265625
 40
0.2734375
 40
0.28125
 40
0.2890625
 40
0.296875
 40
0.30078125
 40
0.3046875
 40
0.30859375
 40
0.310546875
 40
0.3115234375
 40
0.3125
 40
0.3134765625
 40
0.314453125
 40
0.31640625
 40
0.3203125
 40
0.32421875
 40
0.328125
 40
0.3359375
 40
0.34375
 40
0.3515625
 40
0.359375
 40
0.36328125
 40
0.3671875
 40
0.37109375
 40
0.373046875
 40
0.3740234375
 40
0.375
 40
0.3759765625
 40
0.376953125
 40
0.37890625
 40
0.3828125
 40
0.38671875
 40
0.390625
 40
0.3984375
 40
0.40625
 40
0.4140625
 40
0.421875
 40
0.42578125
 40
0.4296875
 40
0.43359375
 40
0.435546875
 40
0.4375
 40
0.439453125
 40
0.44140625
 40
0.4453125
 40
0.44921875
 40
0.453125
 40
0.4609375
 40
0.46875
 40
0.4765625
 40
0.484375
 40
0.48828125
 40
0.4921875
 40
0.49609375
 40
0.498046875
 40
0.4990234375
 40
0.5
 40
0.5009765625
 40
0.501953125
 40
0.50390625
 40
0.5078125
 40
0.51171875
 40
0.515625
 40
0.5234375
 40
0.53125
 40
0.5390625
 40
0.546875
 40
0.55078125
 40
0.5546875
 40
0.556640625
 40
0.55859375
 40
0.560546875
 40
0.5615234375
 40
0.5625
 40
0.5634765625
 40
0.564453125
 40
0.56640625
 40
0.568359375
 40
0.5703125
 40
0.57421875
 40
0.578125
 40
0.5859375
 40
0.59375
 40
0.6015625
 40
0.609375
 40
0.61328125
 40
0.6171875
 40
0.619140625
 40
0.62109375
 40
0.623046875
 40
0.6240234375
 40
0.6245117188
 40
0.625
 40
0.6254882812
 40
0.6259765625
 40
0.626953125
 40
0.62890625
 40
0.630859375
 40
0.6328125
 40
0.63671875
 40
0.640625
 40
0.6484375
 40
0.65625
 40
0.6640625
 40
0.671875
 40
0.67578125
 40
0.6796875
 40
0.681640625
 40
0.68359375
 40
0.685546875
 40
0.6865234375
 40
0.6870117188
 40
0.6875
 40
0.6879882812
 40
0.6884765625
 40
0.689453125
 40
0.69140625
 40
0.693359375
 40
0.6953125
 40
0.69921875
 40
0.703125
 40
0.7109375
 40
0.71875
 40
0.7265625
 40
0.73046875
 40
0.734375
 40
0.73828125
 40
0.7421875
 40
0.744140625
 40
0.74609375
 40
0.748046875
 40
0.7490234375
 40
0.7495117188
 40
0.75
 40
0.7504882812
 40
0.7509765625
 40
0.751953125
 40
0.75390625
 40
0.755859375
 40
0.7578125
 40
0.76171875
 40
0.765625
 40
0.76953125
 40
0.7734375
 40
0.78125
 40
0.7890625
 40
0.79296875
 40
0.796875
 40
0.80078125
 40
0.8046875
 40
0.806640625
 40
0.80859375
 40
0.810546875
 40
0.8115234375
 40
0.8120117188
 40
0.8125
 40
0.8129882812
 40
0.8134765625
 40
0.814453125
 40
0.81640625
 40
0.818359375
 40
0.8203125
 40
0.82421875
 40
0.828125
 40
0.83203125
 40
0.8359375
 40
0.84375
 40
0.8515625
 40
0.85546875
 40
0.859375
 40
0.86328125
 40
0.8671875
 40
0.869140625
 40
0.87109375
 40
0.8720703125
 40
0.873046875
 40
0.8740234375
 40
0.8745117188
 40
0.875
 40
0.8754882812
 40
0.8759765625
 40
0.876953125
 40
0.8779296875
 40
0.87890625
 40
0.880859375
 40
0.8828125
 40
0.88671875
 40
0.890625
 40
0.89453125
 40
0.8984375
 40
0.90625
 40
0.9140625
 40
0.91796875
 40
0.921875
 40
0.92578125
 40
0.9296875
 40
0.931640625
 40
0.93359375
 40
0.9345703125
 40
0.935546875
 40
0.9365234375
 40
0.9370117188
 40
0.9375
 40
0.9379882812
 40
0.9384765625
 40
0.939453125
 40
0.9404296875
 40
0.94140625
 40
0.943359375
 40
0.9453125
 40
0.94921875
 40
0.953125
 40
0.95703125
 40
0.9609375
 40
0.96875
 40
0.9765625
 40
0.984375
 40
1.0
 40
1.0
 40
1.0
 40
1.0
 10
14.4549073029
 20
9.862828839
 30
0.0
 10
14.4565863712
 20
9.8650651179
 30
0.0
 10
14.4591049738
 20
9.8684195358
 30
0.0
 10
14.4624631103
 20
9.8728920948
 30
0.0
 10
14.464981713
 20
9.8762465094
 30
0.0
 10
14.4675003147
 20
9.8796009417
 30
0.0
 10
14.4695991526
 20
9.8823962468
 30
0.0
 10
14.4712782159
 20
9.8846326143
 30
0.0
 10
14.4723276463
 20
9.8860300629
 30
0.0
 10
14.4731671545
 20
9.8871486657
 30
0.0
 10
14.4737968843
 20
9.8879858549
 30
0.0
 10
14.4743213455
 20
9.8886891203
 30
0.0
 10
14.4746890838
 20
9.8891704011
 30
0.0
 10
14.474898259
 20
9.8894626021
 30
0.0
 10
14.4750578473
 20
9.8896333471
 30
0.0
 10
14.4752070885
 20
9.8899891232
 30
0.0
 10
14.475409686
 20
9.8903989504
 30
0.0
 10
14.4757625499
 20
9.8911462188
 30
0.0
 10
14.4762675204
 20
9.8921980238
 30
0.0
 10
14.4768731086
 20
9.8934669191
 30
0.0
 10
14.4776806911
 20
9.895156429
 30
0.0
 10
14.4786901242
 20
9.8972691212
 30
0.0
 10
14.4803052423
 20
9.9006489787
 30
0.0
 10
14.4823241312
 20
9.904873956
 30
0.0
 10
14.4847468021
 20
9.9099438582
 30
0.0
 10
14.48716947
 20
9.9150137939
 30
0.0
 10
14.4891883663
 20
9.9192386874
 30
0.0
 10
14.4908034697
 20
9.9226187126
 30
0.0
 10
14.4918129401
 20
9.9247309788
 30
0.0
 10
14.4926204459
 20
9.9264213631
 30
0.0
 10
14.4932262686
 20
9.9276875869
 30
0.0
 10
14.4937305056
 20
9.9287477499
 30
0.0
 10
14.4940846789
 20
9.9294800979
 30
0.0
 10
14.4942851784
 20
9.9299138315
 30
0.0
 10
14.4944408638
 20
9.9301961749
 30
0.0
 10
14.4945762489
 20
9.9306427208
 30
0.0
 10
14.4947638434
 20
9.9311808396
 30
0.0
 10
14.4950888346
 20
9.9321492333
 30
0.0
 10
14.4955548325
 20
9.9335187013
 30
0.0
 10
14.4961132918
 20
9.9351680346
 30
0.0
 10
14.496858162
 20
9.9373650598
 30
0.0
 10
14.4977891615
 20
9.9401120556
 30
0.0
 10
14.49927881
 20
9.9445068495
 30
0.0
 10
14.5011408536
 20
9.9500004798
 30
0.0
 10
14.5033753138
 20
9.9565927734
 30
0.0
 10
14.5056097696
 20
9.9631850974
 30
0.0
 10
14.5074718243
 20
9.9686786515
 30
0.0
 10
14.5089614506
 20
9.9730735979
 30
0.0
 10
14.5098925066
 20
9.9758202063
 30
0.0
 10
14.5106372609
 20
9.9780180265
 30
0.0
 10
14.5111960745
 20
9.979664931
 30
0.0
 10
14.5116609638
 20
9.9810419981
 30
0.0
 10
14.511987934
 20
9.9819968261
 30
0.0
 10
14.5121723576
 20
9.9825566806
 30
0.0
 10
14.5123174828
 20
9.9829364615
 30
0.0
 10
14.5124365861
 20
9.9834695628
 30
0.0
 10
14.5126044673
 20
9.9841268847
 30
0.0
 10
14.5128940303
 20
9.9853021152
 30
0.0
 10
14.5133099027
 20
9.9869679889
 30
0.0
 10
14.5138080032
 20
9.9889726133
 30
0.0
 10
14.5144724677
 20
9.9916434982
 30
0.0
 10
14.5153029352
 20
9.9949827714
 30
0.0
 10
14.5166317468
 20
10.000325235
 30
0.0
 10
14.518292737
 20
10.0070034478
 30
0.0
 10
14.5202859461
 20
10.0150172235
 30
0.0
 10
14.5222791109
 20
10.0230311044
 30
0.0
 10
14.523940212
 20
10.0297090542
 30
0.0
 10
14.5252688018
 20
10.0350520437
 30
0.0
 10
14.5262660393
 20
10.0390575675
 30
0.0
 10
14.5270945412
 20
10.0424009693
 30
0.0
 10
14.5276794564
 20
10.0447306253
 30
0.0
 10
14.5280059429
 20
10.0460786038
 30
0.0
 10
14.5282726417
 20
10.0470424124
 30
0.0
 10
14.5284558802
 20
10.0481865489
 30
0.0
 10
14.52872931
 20
10.0496491639
 30
0.0
 10
14.5291942485
 20
10.0522380464
 30
0.0
 10
14.5298655376
 20
10.0559211283
 30
0.0
 10
14.5306680492
 20
10.060347385
 30
0.0
 10
14.5317391253
 20
10.0662467691
 30
0.0
 10
14.5330776039
 20
10.0736217893
 30
0.0
 10
14.5346839463
 20
10.0824714579
 30
0.0
 10
14.5362902025
 20
10.0913212851
 30
0.0
 10
14.5376288968
 20
10.098695909
 30
0.0
 10
14.5386995415
 20
10.1045960857
 30
0.0
 10
14.5395033689
 20
10.1090199249
 30
0.0
 10
14.5401705417
 20
10.1127105697
 30
0.0
 10
14.5406428284
 20
10.1152859514
 30
0.0
 10
14.5409044845
 20
10.1167701981
 30
0.0
 10
14.5411238882
 20
10.1178478887
 30
0.0
 10
14.5412547564
 20
10.119061257
 30
0.0
 10
14.5414601295
 20
10.1206317556
 30
0.0
 10
14.5418051438
 20
10.123402178
 30
0.0
 10
14.5423055439
 20
10.1273483963
 30
0.0
 10
14.5429028041
 20
10.1320887928
 30
0.0
 10
14.5437002761
 20
10.1384075975
 30
0.0
 10
14.5446967273
 20
10.1463066965
 30
0.0
 10
14.5458926478
 20
10.1557853538
 30
0.0
 10
14.5470884744
 20
10.1652641082
 30
0.0
 10
14.54808516
 20
10.1731629646
 30
0.0
 10
14.5488821633
 20
10.1794822546
 30
0.0
 10
14.5494808532
 20
10.1842211709
 30
0.0
 10
14.5499767804
 20
10.1881720196
 30
0.0
 10
14.5503297796
 20
10.1909341762
 30
0.0
 10
14.5505223589
 20
10.1925179187
 30
0.0
 10
14.5506925256
 20
10.1936906059
 30
0.0
 10
14.5507643307
 20
10.1949210881
 30
0.0
 10
14.5508943805
 20
10.1965415716
 30
0.0
 10
14.5511059821
 20
10.1993868103
 30
0.0
 10
14.5514166275
 20
10.2034465265
 30
0.0
 10
14.551785825
 20
10.2083202878
 30
0.0
 10
14.5522793366
 20
10.2148179022
 30
0.0
 10
14.5528958061
 20
10.2229401709
 30
0.0
 10
14.553635713
 20
10.2326867908
 30
0.0
 10
14.5543757183
 20
10.2424334196
 30
0.0
 10
14.5549919416
 20
10.2505556659
 30
0.0
 10
14.5554859456
 20
10.257053325
 30
0.0
 10
14.5558536414
 20
10.26192695
 30
0.0
 10
14.5561689845
 20
10.2659870926
 30
0.0
 10
14.5564012308
 20
10.269237924
 30
0.0
 10
14.5566301423
 20
10.2716686228
 30
0.0
 10
14.5566501607
 20
10.2741276617
 30
0.0
 10
14.5567498209
 20
10.2773964806
 30
0.0
 10
14.556849361
 20
10.2814859009
 30
0.0
 10
14.5569795249
 20
10.2863917512
 30
0.0
 10
14.557149334
 20
10.2929333934
 30
0.0
 10
14.5573628766
 20
10.3011102677
 30
0.0
 10
14.5576185919
 20
10.3109226109
 30
0.0
 10
14.5578744007
 20
10.3207348635
 30
0.0
 10
14.5580877098
 20
10.3289119642
 30
0.0
 10
14.5582579859
 20
10.3354531537
 30
0.0
 10
14.5583867254
 20
10.3403603847
 30
0.0
 10
14.5584907216
 20
10.3444454858
 30
0.0
 10
14.5585699694
 20
10.3473134126
 30
0.0
 10
14.5586051819
 20
10.3489391807
 30
0.0
 10
14.5586599643
 20
10.3501952611
 30
0.0
 10
14.5586062905
 20
10.3513108478
 30
0.0
 10
14.5585725562
 20
10.3528473025
 30
0.0
 10
14.5584958952
 20
10.3555132655
 30
0.0
 10
14.5583955945
 20
10.3593337213
 30
0.0
 10
14.5582712894
 20
10.3639131588
 30
0.0
 10
14.5581069268
 20
10.3700208601
 30
0.0
 10
14.5579010017
 20
10.3776548756
 30
0.0
 10
14.5576540904
 20
10.3868159503
 30
0.0
 10
14.5574071389
 20
10.3959769786
 30
0.0
 10
14.5572013144
 20
10.40361111
 30
0.0
 10
14.5570367506
 20
10.4097185795
 30
0.0
 10
14.5569336746
 20
10.4135353664
 30
0.0
 10
14.5568517267
 20
10.4165896706
 30
0.0
 10
14.556788861
 20
10.4188780037
 30
0.0
 10
14.5567409418
 20
10.4207925668
 30
0.0
 10
14.5566925836
 20
10.4223071296
 30
0.0
 10
14.556683702
 20
10.4234897435
 30
0.0
 10
14.5565702838
 20
10.424494134
 30
0.0
 10
14.5564555756
 20
10.425895577
 30
0.0
 10
14.5562996619
 20
10.4276260212
 30
0.0
 10
14.556117928
 20
10.4297116968
 30
0.0
 10
14.5558737431
 20
10.4324894043
 30
0.0
 10
14.5555691533
 20
10.435962632
 30
0.0
 10
14.5550814513
 20
10.4415191854
 30
0.0
 10
14.5544719465
 20
10.4484650862
 30
0.0
 10
14.5537404892
 20
10.4568000804
 30
0.0
 10
14.5530090414
 20
10.4651350869
 30
0.0
 10
14.552399513
 20
10.4720809569
 30
0.0
 10
14.5519118581
 20
10.4776375718
 30
0.0
 10
14.5516071485
 20
10.4811106433
 30
0.0
 10
14.5513632095
 20
10.4838886714
 30
0.0
 10
14.5511807244
 20
10.4859733675
 30
0.0
 10
14.5510271609
 20
10.4877068764
 30
0.0
 10
14.5509225957
 20
10.4889276681
 30
0.0
 10
14.5508582703
 20
10.4896138095
 30
0.0
 10
14.550822911
 20
10.4901606811
 30
0.0
 10
14.5507382997
 20
10.4905842177
 30
0.0
 10
14.5506426643
 20
10.4911919537
 30
0.0
 10
14.5504672981
 20
10.4922354476
 30
0.0
 10
14.5502209596
 20
10.4937366325
 30
0.0
 10
14.5499235623
 20
10.4955335689
 30
0.0
 10
14.5495276581
 20
10.4979310507
 30
0.0
 10
14.5490325636
 20
10.5009273666
 30
0.0
 10
14.5482405323
 20
10.5057217719
 30
0.0
 10
14.5472504517
 20
10.5117146749
 30
0.0
 10
14.546062374
 20
10.5189062063
 30
0.0
 10
14.5448742868
 20
10.5260977122
 30
0.0
 10
14.5438842296
 20
10.5320906791
 30
0.0
 10
14.5430921516
 20
10.5368849565
 30
0.0
 10
14.5425971756
 20
10.5398815976
 30
0.0
 10
14.5422010284
 20
10.5422784119
 30
0.0
 10
14.5419043735
 20
10.5440773879
 30
0.0
 10
14.541655712
 20
10.5455721914
 30
0.0
 10
14.5414844928
 20
10.5466270771
 30
0.0
 10
14.5413822127
 20
10.5472165607
 30
0.0
 10
14.5413180119
 20
10.5476961626
 30
0.0
 10
14.5412059942
 20
10.5480324618
 30
0.0
 10
14.5410733163
 20
10.5485308463
 30
0.0
 10
14.5408333589
 20
10.54937973
 30
0.0
 10
14.5404946254
 20
10.5506045969
 30
0.0
 10
14.5400864061
 20
10.5520692254
 30
0.0
 10
14.5395427212
 20
10.5540238838
 30
0.0
 10
14.5388629071
 20
10.5564665835
 30
0.0
 10
14.5377753208
 20
10.5603752513
 30
0.0
 10
14.5364157981
 20
10.5652609669
 30
0.0
 10
14.5347843877
 20
10.5711238755
 30
0.0
 10
14.5334248759
 20
10.5760096251
 30
0.0
 10
14.5323372655
 20
10.5799182181
 30
0.0
 10
14.5315215623
 20
10.5828496873
 30
0.0
 10
14.5307058415
 20
10.5857810619
 30
0.0
 10
14.5300261287
 20
10.5882241692
 30
0.0
 10
14.5294822365
 20
10.5901779941
 30
0.0
 10
14.5290746505
 20
10.5916451684
 30
0.0
 10
14.5287339359
 20
10.5928620703
 30
0.0
 10
14.528497515
 20
10.5937251728
 30
0.0
 10
14.5283591707
 20
10.5942007751
 30
0.0
 10
14.5282645583
 20
10.5946070538
 30
0.0
 10
14.528134986
 20
10.5948238245
 30
0.0
 10
14.5279744173
 20
10.5951789545
 30
0.0
 10
14.5276877406
 20
10.5957696338
 30
0.0
 10
14.5272811727
 20
10.596629563
 30
0.0
 10
14.5267920199
 20
10.597654586
 30
0.0
 10
14.5261402602
 20
10.5990236908
 30
0.0
 10
14.5253254082
 20
10.6007342458
 30
0.0
 10
14.5243476511
 20
10.6027872658
 30
0.0
 10
14.5233698766
 20
10.6048401911
 30
0.0
 10
14.5220661833
 20
10.607577458
 30
0.0
 10
14.5204365645
 20
10.6109990292
 30
0.0
 10
14.5188069471
 20
10.6144206088
 30
0.0
 10
14.5175032516
 20
10.6171578623
 30
0.0
 10
14.5165254838
 20
10.6192108279
 30
0.0
 10
14.5155477013
 20
10.6212636966
 30
0.0
 10
14.5147329286
 20
10.6229747224
 30
0.0
 10
14.5140810072
 20
10.624342867
 30
0.0
 10
14.5135923484
 20
10.6253708223
 30
0.0
 10
14.5131842347
 20
10.6262215772
 30
0.0
 10
14.5129003176
 20
10.6268286342
 30
0.0
 10
14.5127353272
 20
10.627157523
 30
0.0
 10
14.512619337
 20
10.6274548984
 30
0.0
 10
14.5124737122
 20
10.6275584392
 30
0.0
 10
14.5122898827
 20
10.6277641052
 30
0.0
 10
14.5119633649
 20
10.6280925193
 30
0.0
 10
14.5114994289
 20
10.6285781516
 30
0.0
 10
14.5109416278
 20
10.6291538609
 30
0.0
 10
14.5101982696
 20
10.6299239358
 30
0.0
 10
14.5092689426
 20
10.6308856844
 30
0.0
 10
14.5081538056
 20
10.632040145
 30
0.0
 10
14.5070386538
 20
10.6331945087
 30
0.0
 10
14.5055517899
 20
10.634733694
 30
0.0
 10
14.5036932083
 20
10.6366576644
 30
0.0
 10
14.5018346272
 20
10.6385816379
 30
0.0
 10
14.5003477624
 20
10.6401208184
 30
0.0
 10
14.4992326132
 20
10.6412751967
 30
0.0
 10
14.4981174667
 20
10.6424296024
 30
0.0
 10
14.4971881693
 20
10.6433915217
 30
0.0
 10
14.4964447507
 20
10.6441612485
 30
0.0
 10
14.4959800702
 20
10.644641892
 30
0.0
 10
14.4956084262
 20
10.6450274049
 30
0.0
 10
14.4953294181
 20
10.6453138067
 30
0.0
 10
14.4950977867
 20
10.6455611685
 30
0.0
 10
14.4949105184
 20
10.6457395597
 30
0.0
 10
14.4947754316
 20
10.6459266314
 30
0.0
 10
14.4946198684
 20
10.6459103393
 30
0.0
 10
14.4944196035
 20
10.6459596542
 30
0.0
 10
14.4941668184
 20
10.6459969251
 30
0.0
 10
14.4938645266
 20
10.6460520825
 30
0.0
 10
14.493461104
 20
10.6461219819
 30
0.0
 10
14.4929569514
 20
10.6462106037
 30
0.0
 10
14.4921502369
 20
10.6463517014
 30
0.0
 10
14.491141868
 20
10.6465283128
 30
0.0
 10
14.489931815
 20
10.6467401439
 30
0.0
 10
14.4887217647
 20
10.6469520024
 30
0.0
 10
14.4871083634
 20
10.6472344708
 30
0.0
 10
14.4850916121
 20
10.64758756
 30
0.0
 10
14.4830748605
 20
10.6479406467
 30
0.0
 10
14.4814614595
 20
10.648223119
 30
0.0
 10
14.4802514082
 20
10.6484349658
 30
0.0
 10
14.479041359
 20
10.6486468409
 30
0.0
 10
14.4780329782
 20
10.6488233153
 30
0.0
 10
14.4772262881
 20
10.6489646923
 30
0.0
 10
14.4767220737
 20
10.6490526033
 30
0.0
 10
14.4763187778
 20
10.6491239618
 30
0.0
 10
14.4760160988
 20
10.6491746615
 30
0.0
 10
14.4757645252
 20
10.6492258795
 30
0.0
 10
14.4755617884
 20
10.6492467396
 30
0.0
 10
14.4754137743
 20
10.6493173465
 30
0.0
 10
14.4752503453
 20
10.6491781636
 30
0.0
 10
14.4750378245
 20
10.6490658687
 30
0.0
 10
14.4747703261
 20
10.6489003572
 30
0.0
 10
14.4744501188
 20
10.6487125054
 30
0.0
 10
14.4740228996
 20
10.6484582774
 30
0.0
 10
14.4734889701
 20
10.6481417795
 30
0.0
 10
14.47263463
 20
10.6476346635
 30
0.0
 10
14.4715667231
 20
10.6470010153
 30
0.0
 10
14.470285227
 20
10.6462405317
 30
0.0
 10
14.469003733
 20
10.6454800764
 30
0.0
 10
14.4672950735
 20
10.6444661261
 30
0.0
 10
14.4651592495
 20
10.6431986916
 30
0.0
 10
14.4625962606
 20
10.6416777687
 30
0.0
 10
14.459178942
 20
10.6396498721
 30
0.0
 10
14.4566159531
 20
10.6381289496
 30
0.0
 10
14.4549072938
 20
10.6371150012
 30
0.0
  0
ENDSEC
  0
SECTION
  2
OBJECTS
  0
DICTIONARY
  5
C
100
AcDbDictionary
280
0
281
1
  3
ACAD_GROUP
350
D
  3
ACAD_MLINESTYLE
350
17
  3
ACAD_LAYOUT
350
1A
  3
ACAD_PLOTSETTINGS
350
19
  3
ACAD_PLOTSTYLENAME
350
E
  3
ACAD_IMAGE_DICT
350
       3BB
  3
ACAD_IMAGE_VARS
350
       3BC
  3
ACAD_TABLESTYLE
350
       3BD
  0
IMAGEDEF_REACTOR
  5
3BA
100
AcDbRasterImageDefReactor
 90
2
330
278
  0
DICTIONARY
  5
D
102
{ACAD_REACTORS
330
C
102
}
100
AcDbDictionary
280
0
281
1
  0
ACDBDICTIONARYWDFLT
  5
E
102
{ACAD_REACTORS
330
C
102
}
100
AcDbDictionary
281
1
  3
Normal
350
F
100
AcDbDictionaryWithDefault
340
F
  0
DICTIONARY
  5
3BB
330
C
100
AcDbDictionary
281
1
  3
WDA_assy_2_img_1
350
       3C0
  0
RASTERVARIABLES
  5
3BC
330
C
100
AcDbRasterVariables
 90
0
 70
0
 71
1
 72
5
  0
DICTIONARY
  5
17
102
{ACAD_REACTORS
330
C
102
}
100
AcDbDictionary
280
0
281
1
  3
Standard
350
18
  0
DICTIONARY
  5
3BD
330
C
100
AcDbDictionary
281
1
  3
Standard
350
       3C1
  3
Standard1
350
       3C2
  0
DICTIONARY
  5
19
102
{ACAD_REACTORS
330
C
102
}
100
AcDbDictionary
281
1
  0
DICTIONARY
  5
1A
102
{ACAD_REACTORS
330
C
102
}
100
AcDbDictionary
281
1
  3
Model
350
3BE
  3
Layout1
350
3BF
  0
ACDBPLACEHOLDER
  5
F
102
{ACAD_REACTORS
330
E
102
}
  0
MLINESTYLE
  5
18
102
{ACAD_REACTORS
330
17
102
}
100
AcDbMlineStyle
  2
STANDARD
 70
0
  3

 62
256
 51
90.0
 52
90.0
 71
2
 49
0.5
 62
256
  6
BYLAYER
 49
-0.5
 62
256
  6
BYLAYER
  0
LAYOUT
  5
3BE
102
{ACAD_REACTORS
330
1A
102
}
100
AcDbPlotSettings
  1

  2
none_device
  4
ANSI_C_(22.00_x_17.00_Inches)
  6

 40
0.0
 41
0.0
 42
0.0
 43
0.0
 44
558.8
 45
431.8
 46
0.0
 47
0.0
 48
0.0
 49
0.0
140
0.0
141
0.0
142
1.0
143
1.0
 70
1024
 72
0
 73
0
 74
0
  7

 75
0
147
1.0
148
0.0
149
0.0
100
AcDbLayout
  1
Model
 70
0
 71
0
 10
0.0
 20
0.0
 11
22.0
 21
17.0
 12
0.0
 22
0.0
 32
0.0
 14
0.0
 24
0.0
 34
0.0
 15
0.0
 25
0.0
 35
0.0
146
0.0
 13
0.0
 23
0.0
 33
0.0
 16
1.0
 26
0.0
 36
0.0
 17
0.0
 27
1.0
 37
0.0
 76
0
330
207
345
0
346
0
  0
LAYOUT
  5
3BF
102
{ACAD_REACTORS
330
1A
102
}
100
AcDbPlotSettings
  1

  2
none_device
  4
ANSI_C_(22.00_x_17.00_Inches)
  6

 40
0.0
 41
0.0
 42
0.0
 43
0.0
 44
558.8
 45
431.8
 46
0.0
 47
0.0
 48
0.0
 49
0.0
140
0.0
141
0.0
142
1.0
143
1.0
 70
0
 72
0
 73
0
 74
0
  7

 75
0
147
1.0
148
0.0
149
0.0
100
AcDbLayout
  1
Layout1
 70
0
 71
1
 10
0.0
 20
0.0
 11
22.0
 21
17.0
 12
0.0
 22
0.0
 32
0.0
 14
0.0
 24
0.0
 34
0.0
 15
0.0
 25
0.0
 35
0.0
146
0.0
 13
0.0
 23
0.0
 33
0.0
 16
1.0
 26
0.0
 36
0.0
 17
0.0
 27
1.0
 37
0.0
 76
0
330
208
345
0
346
0
  0
IMAGEDEF
  5
3C0
102
{ACAD_REACTORS
330
3BB
330
3BA
102
}
100
AcDbRasterImageDef
 90
0
  1
WDA_assy_2_img_1.png
 10
369.0
 20
92.0
 11
0.0066666667
 21
0.0066666667
280
1
281
0
  0
TABLESTYLE
  5
3C1
102
{ACAD_REACTORS
330
3BD
330
27B
330
27C
102
}
330
3BD
100
AcDbTableStyle
  3
Standard
 70
0
 71
0
 40
0.06
 41
0.06
280
1
281
1
  7
Standard
140
0.18
170
1
 62
0
 63
7
283
0
  7
Standard
140
0.18
170
1
 62
0
 63
7
283
0
  7
Standard
140
0.18
170
1
 62
0
 63
7
283
0
  0
TABLESTYLE
  5
3C2
102
{ACAD_REACTORS
330
3BD
330
27A
102
}
330
3BD
100
AcDbTableStyle
  3
Standard1
 70
1
 71
0
 40
0.06
 41
0.06
280
1
281
1
  7
Standard
140
0.18
170
1
 62
0
 63
7
283
0
  7
Standard
140
0.18
170
1
 62
0
 63
7
283
0
  7
Standard
140
0.18
170
1
 62
0
 63
7
283
0
  0
ENDSEC
  0
EOF
