999
DXF file: WCZ_assy_2.dxf
999
Pro/ENGINEER 2014200 by Parametric Technology Corporation
  0
SECTION
  2
HEADER
  9
$ACADVER
  1
AC1021
  9
$DWGCODEPAGE
  3
ANSI_1252
  9
$EXTMAX
 10
22.0
 20
17.0
 30
0.0
  9
$EXTMIN
 10
0.0
 20
0.0
 30
0.0
  9
$LIMMIN
 10
0.0
 20
0.0
  9
$LIMMAX
 10
22.0
 20
17.0
  9
$VIEWCTR
 10
11.0
 20
8.5
  9
$VIEWSIZE
 40
17.0
  9
$CLAYER
  8
0
  9
$LTSCALE
 40
1.21
  9
$CELTYPE
  6
BYLAYER
  9
$DIMSCALE
 40
1.0
  9
$DIMASZ
 40
0.1875
  9
$DIMEXO
 40
0.0625
  9
$DIMDLI
 40
0.836
  9
$DIMEXE
 40
0.125
  9
$DIMCEN
 40
0.198
  9
$DIMLFAC
 40
1.0
  9
$DIMBLK
  1
_FILLED
  9
$DIMTXT
 40
0.1
  9
$DIMTOL
 70
0
  9
$DIMLIM
 70
0
  9
$DIMTFAC
 40
1.0
  9
$DIMGAP
 40
0.09
  9
$DIMDSEP
 70
46
  9
$AUNITS
 70
0
  9
$PDMODE
 70
3
  9
$PDSIZE
 40
0.3125
  9
$HANDSEED
  5
3B8
  9
$TILEMODE
 70
1
  9
$MEASUREMENT
 70
0
  9
$INSUNITS
 70
1
  0
ENDSEC
  0
SECTION
  2
CLASSES
  0
CLASS
  1
ACDBDICTIONARYWDFLT
  2
AcDbDictionaryWithDefault
  3
AutoCAD 2000
 90
0
 91
1
280
0
281
0
  0
CLASS
  1
ACDBPLACEHOLDER
  2
AcDbPlaceHolder
  3
AutoCAD 2000
 90
0
 91
1
280
0
281
0
  0
CLASS
  1
LAYOUT
  2
AcDbLayout
  3
AutoCAD 2000
 90
0
 91
0
280
0
281
0
  0
CLASS
  1
RASTERVARIABLES
  2
AcDbRasterVariables
  3
ISM
 90
0
 91
1
280
0
281
0
  0
CLASS
  1
IMAGEDEF
  2
AcDbRasterImageDef
  3
ISM
 90
0
 91
1
280
0
281
0
  0
CLASS
  1
IMAGEDEF_REACTOR
  2
AcDbRasterImageDefReactor
  3
ISM
 90
0
 91
1
280
0
281
0
  0
CLASS
  1
IMAGE
  2
AcDbRasterImage
  3
ISM
 90
127
 91
1
280
0
281
1
  0
CLASS
  1
TABLESTYLE
  2
AcDbTableStyle
  3
ObjectDBX Classes
 90
2047
 91
1
280
0
281
0
  0
CLASS
  1
ACAD_TABLE
  2
AcDbTable
  3
ObjectDBX Classes
 90
1025
 91
3
280
0
281
1
  0
ENDSEC
  0
SECTION
  2
TABLES
  0
TABLE
  2
VPORT
  5
8
100
AcDbSymbolTable
 70
2
  0
VPORT
  5
1F4
100
AcDbSymbolTableRecord
100
AcDbViewportTableRecord
  2
*ACTIVE
 70
0
 10
0.0
 20
0.0
 11
1.0
 21
1.0
 12
11.0
 22
8.5
 13
0.0
 23
0.0
 14
1.0
 24
1.0
 15
0.0
 25
0.0
 16
0.0
 26
0.0
 36
1.0
 17
0.0
 27
0.0
 37
0.0
 40
17.0
 41
1.2941176471
 42
50.0
 43
0.0
 44
0.0
 50
0.0
 51
0.0
 71
0
 72
100
 73
1
 74
1
 75
0
 76
0
 77
0
 78
0
  0
ENDTAB
  0
TABLE
  2
LTYPE
  5
5
100
AcDbSymbolTable
 70
6
  0
LTYPE
  5
14
100
AcDbSymbolTableRecord
100
AcDbLinetypeTableRecord
  2
BYBLOCK
 70
0
  3

 72
65
 73
0
 40
0.0
  0
LTYPE
  5
15
100
AcDbSymbolTableRecord
100
AcDbLinetypeTableRecord
  2
BYLAYER
 70
0
  3

 72
65
 73
0
 40
0.0
  0
LTYPE
  5
16
100
AcDbSymbolTableRecord
100
AcDbLinetypeTableRecord
  2
CONTINUOUS
 70
64
  3
Solid line
 72
65
 73
0
 40
0.0
  0
LTYPE
  5
1F5
100
AcDbSymbolTableRecord
100
AcDbLinetypeTableRecord
  2
CENTER
 70
64
  3
____ _ ____ _ ____ _ ____ _ ____ _ ____ _ ____
 72
65
 73
4
 40
0.6
 49
0.375
 74
0
 49
-0.075
 74
0
 49
0.075
 74
0
 49
-0.075
 74
0
  0
LTYPE
  5
1F6
100
AcDbSymbolTableRecord
100
AcDbLinetypeTableRecord
  2
HIDDEN
 70
64
  3
- - - - - - - - - - - - - - - - - - - -
 72
65
 73
2
 40
0.2
 49
0.1
 74
0
 49
-0.1
 74
0
  0
LTYPE
  5
1F7
100
AcDbSymbolTableRecord
100
AcDbLinetypeTableRecord
  2
PHANTOM
 70
64
  3
_____ _ _ _____ _ _ _____ _ _ _____
 72
65
 73
6
 40
0.8
 49
0.45
 74
0
 49
-0.05
 74
0
 49
0.1
 74
0
 49
-0.05
 74
0
 49
0.1
 74
0
 49
-0.05
 74
0
  0
LTYPE
  5
1F8
100
AcDbSymbolTableRecord
100
AcDbLinetypeTableRecord
  2
DOT
 70
64
  3
. . . . . . . . . . . . . . . . . . . .
 72
65
 73
2
 40
0.2
 49
0.1
 74
0
 49
-0.1
 74
0
  0
LTYPE
  5
1F9
100
AcDbSymbolTableRecord
100
AcDbLinetypeTableRecord
  2
DASHED
 70
64
  3
- - - - - - - - - - - - - - - - - - - -
 72
65
 73
2
 40
0.2
 49
0.1
 74
0
 49
-0.1
 74
0
  0
ENDTAB
  0
TABLE
  2
LAYER
  5
2
100
AcDbSymbolTable
 70
36
  0
LAYER
  5
10
100
AcDbSymbolTableRecord
100
AcDbLayerTableRecord
  2
0
 70
0
 62
7
  6
CONTINUOUS
370
-3
390
F
  0
LAYER
  5
1FA
100
AcDbSymbolTableRecord
100
AcDbLayerTableRecord
  2
DEFAULT_1
 70
0
 62
7
  6
CENTER
370
-3
390
F
  0
LAYER
  5
1FB
100
AcDbSymbolTableRecord
100
AcDbLayerTableRecord
  2
DEFAULT_2
 70
0
 62
8
  6
HIDDEN
370
-3
390
F
  0
LAYER
  5
1FC
100
AcDbSymbolTableRecord
100
AcDbLayerTableRecord
  2
DEFAULT_3
 70
0
 62
7
  6
PHANTOM
370
-3
390
F
  0
LAYER
  5
1FD
100
AcDbSymbolTableRecord
100
AcDbLayerTableRecord
  2
DATUM_PLANES
 70
0
 62
7
  6
CONTINUOUS
370
-3
390
F
  0
LAYER
  5
1FE
100
AcDbSymbolTableRecord
100
AcDbLayerTableRecord
  2
DIMENSIONS
 70
0
 62
7
  6
CONTINUOUS
370
-3
390
F
  0
LAYER
  5
1FF
100
AcDbSymbolTableRecord
100
AcDbLayerTableRecord
  2
DTM_500001
 70
0
 62
7
  6
CONTINUOUS
370
-3
390
F
  0
LAYER
  5
200
100
AcDbSymbolTableRecord
100
AcDbLayerTableRecord
  2
PARAMETERDIMENSIONS
 70
0
 62
7
  6
CONTINUOUS
370
-3
390
F
  0
LAYER
  5
201
100
AcDbSymbolTableRecord
100
AcDbLayerTableRecord
  2
PORT_AREAS
 70
0
 62
7
  6
CONTINUOUS
370
-3
390
F
  0
LAYER
  5
202
100
AcDbSymbolTableRecord
100
AcDbLayerTableRecord
  2
SUNNBOMCOSMETIC
 70
0
 62
7
  6
CONTINUOUS
370
-3
390
F
  0
LAYER
  5
203
100
AcDbSymbolTableRecord
100
AcDbLayerTableRecord
  2
SUNNBOMSTAMPING
 70
0
 62
7
  6
CONTINUOUS
370
-3
390
F
  0
LAYER
  5
204
100
AcDbSymbolTableRecord
100
AcDbLayerTableRecord
  2
THREADS
 70
0
 62
7
  6
CONTINUOUS
370
-3
390
F
  0
ENDTAB
  0
TABLE
  2
STYLE
  5
3
100
AcDbSymbolTable
 70
1
  0
STYLE
  5
11
100
AcDbSymbolTableRecord
100
AcDbTextStyleTableRecord
  2
STANDARD
 70
0
 40
0.0
 41
0.8
 50
0.0
 71
0
 42
0.2
  3
txt
  4

  0
STYLE
  5
205
100
AcDbSymbolTableRecord
100
AcDbTextStyleTableRecord
  2
TEXTSTYLE_1
 70
0
 40
0.0
 41
0.8
 50
0.0
 71
0
 42
0.2
  3
gdt
  4

  0
ENDTAB
  0
TABLE
  2
VIEW
  5
6
100
AcDbSymbolTable
 70
0
  0
ENDTAB
  0
TABLE
  2
UCS
  5
7
100
AcDbSymbolTable
 70
0
  0
ENDTAB
  0
TABLE
  2
APPID
  5
9
100
AcDbSymbolTable
 70
1
  0
APPID
  5
206
100
AcDbSymbolTableRecord
100
AcDbRegAppTableRecord
  2
ACAD
 70
0
  0
ENDTAB
  0
TABLE
  2
BLOCK_RECORD
  5
1
100
AcDbSymbolTable
 70
0
  0
BLOCK_RECORD
  5
207
100
AcDbSymbolTableRecord
100
AcDbBlockTableRecord
  2
*Model_Space
  0
BLOCK_RECORD
  5
208
100
AcDbSymbolTableRecord
100
AcDbBlockTableRecord
  2
*Paper_Space
  0
BLOCK_RECORD
  5
209
100
AcDbSymbolTableRecord
100
AcDbBlockTableRecord
  2
SUN_FIRST_THIRD_ANGLE_BL0
  0
BLOCK_RECORD
  5
20A
100
AcDbSymbolTableRecord
100
AcDbBlockTableRecord
  2
*T1
  0
BLOCK_RECORD
  5
20B
100
AcDbSymbolTableRecord
100
AcDbBlockTableRecord
  2
*T2
  0
BLOCK_RECORD
  5
20C
100
AcDbSymbolTableRecord
100
AcDbBlockTableRecord
  2
*T3
  0
ENDTAB
  0
TABLE
  2
DIMSTYLE
  5
A
100
AcDbSymbolTable
 70
1
100
AcDbDimStyleTable
 71
0
  0
DIMSTYLE
105
20D
100
AcDbSymbolTableRecord
100
AcDbDimStyleTableRecord
  2
STANDARD
 70
0
  3

  4

 40
1.0
 41
0.1875
 42
0.0625
 43
0.38
 44
0.125
 45
0.0
 46
0.0
 47
0.001
 48
0.001
140
0.1
141
0.09
142
0.0
143
25.4
144
1.0
145
0.0
146
1.0
147
0.09
 71
0.0
 72
0.0
 73
1
 74
1
 75
0
 76
0
 77
0
 78
4
170
0
171
2
172
0
173
0
174
0
175
0
176
0
177
0
178
0
270
2
271
3
272
3
273
2
274
2
275
0
280
0
281
0
282
0
283
1
284
4
285
0
286
0
287
3
288
0
340
11
278
46
  0
ENDTAB
  0
ENDSEC
  0
SECTION
  2
BLOCKS
  0
BLOCK
  5
20
100
AcDbEntity
  8
0
100
AcDbBlockBegin
  2
*Model_Space
 70
0
 10
0.0
 20
0.0
 30
0.0
  3
*Model_Space
  1

  0
ENDBLK
  5
21
100
AcDbEntity
  8
0
100
AcDbBlockEnd
  0
BLOCK
  5
1C
100
AcDbEntity
  8
0
100
AcDbBlockBegin
  2
*Paper_Space
 70
0
 10
0.0
 20
0.0
 30
0.0
  3
*Paper_Space
  1

  0
ENDBLK
  5
1D
100
AcDbEntity
  8
0
100
AcDbBlockEnd
  0
BLOCK
  5
20E
100
AcDbEntity
  8
0
100
AcDbBlockBegin
 62
2
  6
CONTINUOUS
  2
SUN_FIRST_THIRD_ANGLE_BL0
 70
64
 10
20.4816717061
 20
1.2289683772
  3
SUN_FIRST_THIRD_ANGLE_BL0
  1

  0
TEXT
  5
20F
100
AcDbEntity
  8
0
100
AcDbText
 62
2
  6
CONTINUOUS
 10
19.4750896608
 20
1.4136269581
  7
STANDARD
 40
0.08
  1
FIRST ANGLE
 41
0.8
 72
0
100
AcDbText
  0
TEXT
  5
210
100
AcDbEntity
  8
0
100
AcDbText
 62
2
  6
CONTINUOUS
 10
20.7842537513
 20
1.4047600029
  7
STANDARD
 40
0.08
  1
THIRD ANGLE
 41
0.8
 72
0
100
AcDbText
  0
LINE
  5
211
100
AcDbEntity
  8
0
100
AcDbLine
 62
7
  6
CONTINUOUS
 10
19.4767170086
 20
1.1727031207
 11
19.6334271527
 21
1.1717972817
  0
LINE
  5
212
100
AcDbEntity
  8
0
100
AcDbLine
 62
7
  6
CONTINUOUS
 10
19.6596964832
 20
1.1717972817
 11
19.6950230232
 21
1.171593082
  0
LINE
  5
213
100
AcDbEntity
  8
0
100
AcDbLine
 62
7
  6
CONTINUOUS
 10
19.7194818561
 20
1.1708914427
 11
19.8852396156
 21
1.1699333054
  0
LINE
  5
214
100
AcDbEntity
  8
0
100
AcDbLine
 62
7
  6
CONTINUOUS
 10
19.4758111696
 20
1.2723454088
 11
19.88525039
 21
1.3511534004
  0
LINE
  5
215
100
AcDbEntity
  8
0
100
AcDbLine
 62
7
  6
CONTINUOUS
 10
19.88525039
 20
1.3511534004
 11
19.8831348489
 21
0.9851647912
  0
LINE
  5
216
100
AcDbEntity
  8
0
100
AcDbLine
 62
7
  6
CONTINUOUS
 10
19.8831348489
 20
0.9851647912
 11
19.4767170086
 21
1.0658141206
  0
LINE
  5
217
100
AcDbEntity
  8
0
100
AcDbLine
 62
7
  6
CONTINUOUS
 10
19.4767170086
 20
1.0658141206
 11
19.4779056764
 21
1.2714536432
  0
CIRCLE
  5
218
100
AcDbEntity
  8
0
100
AcDbCircle
 62
7
  6
CONTINUOUS
 10
20.2068232291
 20
1.1717972817
 40
0.175742101
  0
CIRCLE
  5
219
100
AcDbEntity
  8
0
100
AcDbCircle
 62
7
  6
CONTINUOUS
 10
20.2068232291
 20
1.1717972817
 40
0.1005522074
  0
LINE
  5
21A
100
AcDbEntity
  8
0
100
AcDbLine
 62
7
  6
CONTINUOUS
 10
20.2077290681
 20
1.3756110529
 11
20.2071171714
 21
1.2379342989
  0
LINE
  5
21B
100
AcDbEntity
  8
0
100
AcDbLine
 62
7
  6
CONTINUOUS
 10
20.2077290681
 20
1.2016899681
 11
20.2074674401
 21
1.1428236749
  0
LINE
  5
21C
100
AcDbEntity
  8
0
100
AcDbLine
 62
7
  6
CONTINUOUS
 10
20.208634907
 20
1.101141841
 11
20.2080230104
 21
0.963465087
  0
LINE
  5
21D
100
AcDbEntity
  8
0
100
AcDbLine
 62
7
  6
CONTINUOUS
 10
20.0066328138
 20
1.1745147986
 11
20.1443095678
 21
1.1739029019
  0
LINE
  5
21E
100
AcDbEntity
  8
0
100
AcDbLine
 62
7
  6
CONTINUOUS
 10
20.1832714155
 20
1.1727031207
 11
20.238153505
 21
1.172335442
  0
LINE
  5
21F
100
AcDbEntity
  8
0
100
AcDbLine
 62
7
  6
CONTINUOUS
 10
20.2756669918
 20
1.1717972817
 11
20.407916871
 21
1.1712095044
  0
CIRCLE
  5
220
100
AcDbEntity
  8
0
100
AcDbCircle
 62
7
  6
CONTINUOUS
 10
20.7509457401
 20
1.1693297793
 40
0.1722024983
  0
CIRCLE
  5
221
100
AcDbEntity
  8
0
100
AcDbCircle
 62
7
  6
CONTINUOUS
 10
20.7509457401
 20
1.1693297793
 40
0.0985164967
  0
LINE
  5
222
100
AcDbEntity
  8
0
100
AcDbLine
 62
7
  6
CONTINUOUS
 10
20.7169767782
 20
1.170462078
 11
20.7825395137
 21
1.1682766535
  0
LINE
  5
223
100
AcDbEntity
  8
0
100
AcDbLine
 62
7
  6
CONTINUOUS
 10
20.8177513651
 20
1.1693297793
 11
20.947965719
 21
1.1693297793
  0
LINE
  5
224
100
AcDbEntity
  8
0
100
AcDbLine
 62
7
  6
CONTINUOUS
 10
20.6875370113
 20
1.170462078
 11
20.5573226574
 21
1.170462078
  0
LINE
  5
225
100
AcDbEntity
  8
0
100
AcDbLine
 62
7
  6
CONTINUOUS
 10
20.7486811426
 20
1.1987695462
 11
20.7486811426
 21
1.1432869085
  0
LINE
  5
226
100
AcDbEntity
  8
0
100
AcDbLine
 62
7
  6
CONTINUOUS
 10
20.7498134414
 20
1.1059210505
 11
20.7498134414
 21
0.9757066966
  0
LINE
  5
227
100
AcDbEntity
  8
0
100
AcDbLine
 62
7
  6
CONTINUOUS
 10
20.7486811426
 20
1.2338708068
 11
20.7486811426
 21
1.3640851607
  0
LINE
  5
228
100
AcDbEntity
  8
0
100
AcDbLine
 62
7
  6
CONTINUOUS
 10
21.0702539817
 20
1.2701043662
 11
21.4790138229
 21
1.3448360823
  0
LINE
  5
229
100
AcDbEntity
  8
0
100
AcDbLine
 62
7
  6
CONTINUOUS
 10
21.4790138229
 20
1.3448360823
 11
21.4790138229
 21
0.9779712941
  0
LINE
  5
22A
100
AcDbEntity
  8
0
100
AcDbLine
 62
7
  6
CONTINUOUS
 10
21.4790138229
 20
0.9779712941
 11
21.069121683
 21
1.0617614
  0
LINE
  5
22B
100
AcDbEntity
  8
0
100
AcDbLine
 62
7
  6
CONTINUOUS
 10
21.0702539817
 20
1.2701043662
 11
21.069121683
 21
1.0617614
  0
LINE
  5
22C
100
AcDbEntity
  8
0
100
AcDbLine
 62
7
  6
CONTINUOUS
 10
21.4790138229
 20
1.1693297793
 11
21.3159628059
 21
1.1693297793
  0
LINE
  5
22D
100
AcDbEntity
  8
0
100
AcDbLine
 62
7
  6
CONTINUOUS
 10
21.2876553377
 20
1.1693297793
 11
21.2502894796
 21
1.1693297793
  0
LINE
  5
22E
100
AcDbEntity
  8
0
100
AcDbLine
 62
7
  6
CONTINUOUS
 10
21.2208497126
 20
1.1659328831
 11
21.0713862804
 21
1.1659328831
  0
LINE
  5
22F
100
AcDbEntity
  8
0
100
AcDbLine
 62
7
  6
CONTINUOUS
 10
20.4796138713
 20
1.5284908897
 11
20.4766766948
 21
0.9294458646
  0
ENDBLK
  5
230
100
AcDbEntity
  8
0
  6
BYBLOCK
 62
0
100
AcDbBlockEnd
  0
BLOCK
  5
231
100
AcDbEntity
  8
0
100
AcDbBlockBegin
  2
*T1
 70
1
 10
0.0
 20
0.0
  3
*T1
  1

  0
LINE
  5
232
100
AcDbEntity
  8
0
100
AcDbLine
 62
2
  6
CONTINUOUS
 10
9.275
 20
0.0
 11
-0.0
 21
0.0
  0
LINE
  5
233
100
AcDbEntity
  8
0
100
AcDbLine
 62
2
  6
CONTINUOUS
 10
9.275
 20
0.0
 11
9.275
 21
1.25
  0
LINE
  5
234
100
AcDbEntity
  8
0
100
AcDbLine
 62
2
  6
CONTINUOUS
 10
9.275
 20
0.625
 11
-0.0
 21
0.625
  0
LINE
  5
235
100
AcDbEntity
  8
0
100
AcDbLine
 62
2
  6
CONTINUOUS
 10
9.275
 20
1.25
 11
-0.0
 21
1.25
  0
LINE
  5
236
100
AcDbEntity
  8
0
100
AcDbLine
 62
2
  6
CONTINUOUS
 10
6.8
 20
0.0
 11
6.8
 21
1.25
  0
LINE
  5
237
100
AcDbEntity
  8
0
100
AcDbLine
 62
2
  6
CONTINUOUS
 10
6.4
 20
0.0
 11
6.4
 21
0.625
  0
LINE
  5
238
100
AcDbEntity
  8
0
100
AcDbLine
 62
2
  6
CONTINUOUS
 10
5.9
 20
0.0
 11
5.9
 21
0.625
  0
LINE
  5
239
100
AcDbEntity
  8
0
100
AcDbLine
 62
2
  6
CONTINUOUS
 10
5.2
 20
0.0
 11
5.2
 21
0.625
  0
LINE
  5
23A
100
AcDbEntity
  8
0
100
AcDbLine
 62
2
  6
CONTINUOUS
 10
4.1
 20
0.0
 11
4.1
 21
1.25
  0
LINE
  5
23B
100
AcDbEntity
  8
0
100
AcDbLine
 62
2
  6
CONTINUOUS
 10
-0.0
 20
0.0
 11
-0.0
 21
1.25
  0
MTEXT
  5
23C
100
AcDbEntity
  8
0
100
AcDbMText
 62
2
  6
CONTINUOUS
  7
STANDARD
 71
2
 72
1
 10
6.6
 20
0.325
 30
0.0
 11
1.0
 21
0.0
 31
0.0
 44
0.9
  1
2
 40
0.125
 41
0.2
  0
MTEXT
  5
23D
100
AcDbEntity
  8
0
100
AcDbMText
 62
2
  6
CONTINUOUS
  7
STANDARD
 71
2
 72
1
 10
6.15
 20
0.325
 30
0.0
 11
1.0
 21
0.0
 31
0.0
 44
0.9
  1
C
 40
0.125
 41
0.2
  0
MTEXT
  5
23E
100
AcDbEntity
  8
0
100
AcDbMText
 62
2
  6
CONTINUOUS
  7
STANDARD
 71
2
 72
1
 10
5.55
 20
0.325
 30
0.0
 11
1.0
 21
0.0
 31
0.0
 44
0.9
  1
2.000
 40
0.125
 41
1.0
  0
MTEXT
  5
23F
100
AcDbEntity
  8
0
100
AcDbMText
 62
2
  6
CONTINUOUS
  7
STANDARD
 71
2
 72
1
 10
4.65
 20
0.325
 30
0.0
 11
1.0
 21
0.0
 31
0.0
 44
0.9
  1
Nov-03-20
 40
0.125
 41
1.8
  0
MTEXT
  5
240
100
AcDbEntity
  8
0
100
AcDbMText
 62
2
  6
CONTINUOUS
  7
STANDARD
 71
2
 72
1
 10
2.05
 20
0.4625
 30
0.0
 11
1.0
 21
0.0
 31
0.0
 44
0.9
  1
T-21A Gasket mount Sun\PDirect mount, cross pilot
 40
0.125
 41
5.0
  0
MTEXT
  5
241
100
AcDbEntity
  8
0
100
AcDbMText
 62
2
  6
CONTINUOUS
  7
STANDARD
 71
1
 72
1
 10
6.45
 20
0.5625
 30
0.0
 11
1.0
 21
0.0
 31
0.0
 44
0.9
  1
SHEET
 40
0.06
 41
0.48
  0
MTEXT
  5
242
100
AcDbEntity
  8
0
100
AcDbMText
 62
2
  6
CONTINUOUS
  7
STANDARD
 71
1
 72
1
 10
5.95
 20
0.5625
 30
0.0
 11
1.0
 21
0.0
 31
0.0
 44
0.9
  1
DWG SIZE
 40
0.06
 41
0.768
  0
MTEXT
  5
243
100
AcDbEntity
  8
0
100
AcDbMText
 62
2
  6
CONTINUOUS
  7
STANDARD
 71
1
 72
1
 10
5.25
 20
0.5625
 30
0.0
 11
1.0
 21
0.0
 31
0.0
 44
0.9
  1
SCALE
 40
0.06
 41
0.48
  0
MTEXT
  5
244
100
AcDbEntity
  8
0
100
AcDbMText
 62
2
  6
CONTINUOUS
  7
STANDARD
 71
1
 72
1
 10
4.15
 20
0.5625
 30
0.0
 11
1.0
 21
0.0
 31
0.0
 44
0.9
  1
DATE
 40
0.06
 41
0.384
  0
MTEXT
  5
245
100
AcDbEntity
  8
0
100
AcDbMText
 62
2
  6
CONTINUOUS
  7
STANDARD
 71
1
 72
1
 10
0.05
 20
0.5625
 30
0.0
 11
1.0
 21
0.0
 31
0.0
 44
0.9
  1
DESCRIPTION
 40
0.06
 41
1.056
  0
MTEXT
  5
246
100
AcDbEntity
  8
0
100
AcDbMText
 62
2
  6
CONTINUOUS
  7
STANDARD
 71
2
 72
1
 10
5.45
 20
1.0375
 30
0.0
 11
1.0
 21
0.0
 31
0.0
 44
0.9
  1
ALL DIMENSIONS IN INCH\PVIEWS ARE THIRD ANGLE
 40
0.12
 41
4.224
  0
MTEXT
  5
247
100
AcDbEntity
  8
0
100
AcDbMText
 62
2
  6
CONTINUOUS
  7
STANDARD
 71
2
 72
1
 10
2.05
 20
0.95
 30
0.0
 11
1.0
 21
0.0
 31
0.0
 44
0.9
  1
WCZ
 40
0.125
 41
0.6
  0
MTEXT
  5
248
100
AcDbEntity
  8
0
100
AcDbMText
 62
2
  6
CONTINUOUS
  7
STANDARD
 71
1
 72
1
 10
0.05
 20
1.1875
 30
0.0
 11
1.0
 21
0.0
 31
0.0
 44
0.9
  1
MODEL
 40
0.06
 41
0.48
  0
ENDBLK
  5
249
100
AcDbEntity
  8
0
  6
BYBLOCK
 62
0
100
AcDbBlockEnd
  0
BLOCK
  5
24A
100
AcDbEntity
  8
0
100
AcDbBlockBegin
  2
*T2
 70
1
 10
0.0
 20
0.0
  3
*T2
  1

  0
LINE
  5
24B
100
AcDbEntity
  8
0
100
AcDbLine
 62
2
  6
CONTINUOUS
 10
0.0
 20
0.0
 11
9.055
 21
0.0
  0
LINE
  5
24C
100
AcDbEntity
  8
0
100
AcDbLine
 62
2
  6
CONTINUOUS
 10
0.0
 20
0.0
 11
0.0
 21
-1.844
  0
LINE
  5
24D
100
AcDbEntity
  8
0
100
AcDbLine
 62
2
  6
CONTINUOUS
 10
0.0
 20
-0.344
 11
9.055
 21
-0.344
  0
LINE
  5
24E
100
AcDbEntity
  8
0
100
AcDbLine
 62
2
  6
CONTINUOUS
 10
0.0
 20
-0.594
 11
9.055
 21
-0.594
  0
LINE
  5
24F
100
AcDbEntity
  8
0
100
AcDbLine
 62
2
  6
CONTINUOUS
 10
0.0
 20
-0.844
 11
9.055
 21
-0.844
  0
LINE
  5
250
100
AcDbEntity
  8
0
100
AcDbLine
 62
2
  6
CONTINUOUS
 10
0.0
 20
-1.094
 11
9.055
 21
-1.094
  0
LINE
  5
251
100
AcDbEntity
  8
0
100
AcDbLine
 62
2
  6
CONTINUOUS
 10
0.0
 20
-1.344
 11
9.055
 21
-1.344
  0
LINE
  5
252
100
AcDbEntity
  8
0
100
AcDbLine
 62
2
  6
CONTINUOUS
 10
0.0
 20
-1.594
 11
9.055
 21
-1.594
  0
LINE
  5
253
100
AcDbEntity
  8
0
100
AcDbLine
 62
2
  6
CONTINUOUS
 10
0.0
 20
-1.844
 11
9.055
 21
-1.844
  0
LINE
  5
254
100
AcDbEntity
  8
0
100
AcDbLine
 62
2
  6
CONTINUOUS
 10
3.055
 20
0.0
 11
3.055
 21
-1.844
  0
LINE
  5
255
100
AcDbEntity
  8
0
100
AcDbLine
 62
2
  6
CONTINUOUS
 10
9.055
 20
0.0
 11
9.055
 21
-1.844
  0
MTEXT
  5
256
100
AcDbEntity
  8
0
100
AcDbMText
 62
2
  6
CONTINUOUS
  7
STANDARD
 71
2
 72
1
 10
1.5275
 20
-0.0995
 30
0.0
 11
1.0
 21
0.0
 31
0.0
 44
0.9
  1
Technical Data
 40
0.145
 41
3.248
  0
MTEXT
  5
257
100
AcDbEntity
  8
0
100
AcDbMText
 62
2
  6
CONTINUOUS
  7
STANDARD
 71
2
 72
1
 10
4.555
 20
-0.0995
 30
0.0
 11
1.0
 21
0.0
 31
0.0
 44
0.9
  1
U.S. Units
 40
0.145
 41
2.32
  0
MTEXT
  5
258
100
AcDbEntity
  8
0
100
AcDbMText
 62
2
  6
CONTINUOUS
  7
STANDARD
 71
2
 72
1
 10
7.555
 20
-0.0995
 30
0.0
 11
1.0
 21
0.0
 31
0.0
 44
0.9
  1
Metric Units
 40
0.145
 41
2.784
  0
MTEXT
  5
259
100
AcDbEntity
  8
0
100
AcDbMText
 62
2
  6
CONTINUOUS
  7
STANDARD
 71
2
 72
1
 10
1.5275
 20
-0.4065
 30
0.0
 11
1.0
 21
0.0
 31
0.0
 44
0.9
  1
Cavity
 40
0.125
 41
1.2
  0
MTEXT
  5
25A
100
AcDbEntity
  8
0
100
AcDbMText
 62
2
  6
CONTINUOUS
  7
STANDARD
 71
2
 72
1
 10
6.055
 20
-0.4065
 30
0.0
 11
1.0
 21
0.0
 31
0.0
 44
0.9
  1
T-21A
 40
0.125
 41
1.0
  0
MTEXT
  5
25B
100
AcDbEntity
  8
0
100
AcDbMText
 62
2
  6
CONTINUOUS
  7
STANDARD
 71
2
 72
1
 10
1.5275
 20
-0.6565
 30
0.0
 11
1.0
 21
0.0
 31
0.0
 44
0.9
  1
Body Features
 40
0.125
 41
2.6
  0
MTEXT
  5
25C
100
AcDbEntity
  8
0
100
AcDbMText
 62
2
  6
CONTINUOUS
  7
STANDARD
 71
2
 72
1
 10
6.055
 20
-0.6565
 30
0.0
 11
1.0
 21
0.0
 31
0.0
 44
0.9
  1
Direct mount, cross pilot
 40
0.125
 41
5.0
  0
MTEXT
  5
25D
100
AcDbEntity
  8
0
100
AcDbMText
 62
2
  6
CONTINUOUS
  7
STANDARD
 71
2
 72
1
 10
1.5275
 20
-0.9065
 30
0.0
 11
1.0
 21
0.0
 31
0.0
 44
0.9
  1
Body Type
 40
0.125
 41
1.8
  0
MTEXT
  5
25E
100
AcDbEntity
  8
0
100
AcDbMText
 62
2
  6
CONTINUOUS
  7
STANDARD
 71
2
 72
1
 10
6.055
 20
-0.9065
 30
0.0
 11
1.0
 21
0.0
 31
0.0
 44
0.9
  1
Gasket mount
 40
0.125
 41
2.4
  0
MTEXT
  5
25F
100
AcDbEntity
  8
0
100
AcDbMText
 62
2
  6
CONTINUOUS
  7
STANDARD
 71
2
 72
1
 10
1.5275
 20
-1.1565
 30
0.0
 11
1.0
 21
0.0
 31
0.0
 44
0.9
  1
Interface
 40
0.125
 41
1.8
  0
MTEXT
  5
260
100
AcDbEntity
  8
0
100
AcDbMText
 62
2
  6
CONTINUOUS
  7
STANDARD
 71
2
 72
1
 10
6.055
 20
-1.1565
 30
0.0
 11
1.0
 21
0.0
 31
0.0
 44
0.9
  1
Sun
 40
0.125
 41
0.6
  0
MTEXT
  5
261
100
AcDbEntity
  8
0
100
AcDbMText
 62
2
  6
CONTINUOUS
  7
STANDARD
 71
2
 72
1
 10
1.5275
 20
-1.4065
 30
0.0
 11
1.0
 21
0.0
 31
0.0
 44
0.9
  1
Open Cavity Quantity
 40
0.125
 41
4.0
  0
MTEXT
  5
262
100
AcDbEntity
  8
0
100
AcDbMText
 62
2
  6
CONTINUOUS
  7
STANDARD
 71
2
 72
1
 10
6.055
 20
-1.4065
 30
0.0
 11
1.0
 21
0.0
 31
0.0
 44
0.9
  1
1
 40
0.125
 41
0.2
  0
MTEXT
  5
263
100
AcDbEntity
  8
0
100
AcDbMText
 62
2
  6
CONTINUOUS
  7
STANDARD
 71
2
 72
1
 10
1.5275
 20
-1.6565
 30
0.0
 11
1.0
 21
0.0
 31
0.0
 44
0.9
  1
Weight
 40
0.125
 41
1.2
  0
MTEXT
  5
264
100
AcDbEntity
  8
0
100
AcDbMText
 62
2
  6
CONTINUOUS
  7
STANDARD
 71
2
 72
1
 10
4.555
 20
-1.6565
 30
0.0
 11
1.0
 21
0.0
 31
0.0
 44
0.9
  1
2.449 lb.
 40
0.125
 41
1.8
  0
MTEXT
  5
265
100
AcDbEntity
  8
0
100
AcDbMText
 62
2
  6
CONTINUOUS
  7
STANDARD
 71
2
 72
1
 10
7.555
 20
-1.6565
 30
0.0
 11
1.0
 21
0.0
 31
0.0
 44
0.9
  1
1,111 kg.
 40
0.125
 41
1.8
  0
ENDBLK
  5
266
100
AcDbEntity
  8
0
  6
BYBLOCK
 62
0
100
AcDbBlockEnd
  0
BLOCK
  5
267
100
AcDbEntity
  8
0
100
AcDbBlockBegin
  2
*T3
 70
1
 10
0.0
 20
0.0
  3
*T3
  1

  0
LINE
  5
268
100
AcDbEntity
  8
0
100
AcDbLine
 62
2
  6
CONTINUOUS
 10
0.0
 20
0.0
 11
4.6
 21
0.0
  0
LINE
  5
269
100
AcDbEntity
  8
0
100
AcDbLine
 62
2
  6
CONTINUOUS
 10
0.0
 20
0.0
 11
0.0
 21
-1.18775
  0
LINE
  5
26A
100
AcDbEntity
  8
0
100
AcDbLine
 62
2
  6
CONTINUOUS
 10
0.0
 20
-0.34375
 11
4.6
 21
-0.34375
  0
LINE
  5
26B
100
AcDbEntity
  8
0
100
AcDbLine
 62
2
  6
CONTINUOUS
 10
0.0
 20
-0.68775
 11
4.6
 21
-0.68775
  0
LINE
  5
26C
100
AcDbEntity
  8
0
100
AcDbLine
 62
2
  6
CONTINUOUS
 10
0.0
 20
-0.93775
 11
4.6
 21
-0.93775
  0
LINE
  5
26D
100
AcDbEntity
  8
0
100
AcDbLine
 62
2
  6
CONTINUOUS
 10
0.0
 20
-1.18775
 11
4.6
 21
-1.18775
  0
LINE
  5
26E
100
AcDbEntity
  8
0
100
AcDbLine
 62
2
  6
CONTINUOUS
 10
1.3
 20
-0.34375
 11
1.3
 21
-1.18775
  0
LINE
  5
26F
100
AcDbEntity
  8
0
100
AcDbLine
 62
2
  6
CONTINUOUS
 10
3.3
 20
-0.34375
 11
3.3
 21
-1.18775
  0
LINE
  5
270
100
AcDbEntity
  8
0
100
AcDbLine
 62
2
  6
CONTINUOUS
 10
4.6
 20
0.0
 11
4.6
 21
-1.18775
  0
MTEXT
  5
271
100
AcDbEntity
  8
0
100
AcDbMText
 62
2
  6
CONTINUOUS
  7
STANDARD
 71
2
 72
1
 10
2.3
 20
-0.099375
 30
0.0
 11
1.0
 21
0.0
 31
0.0
 44
0.9
  1
Port Headings
 40
0.145
 41
3.016
  0
MTEXT
  5
272
100
AcDbEntity
  8
0
100
AcDbMText
 62
2
  6
CONTINUOUS
  7
STANDARD
 71
2
 72
1
 10
0.65
 20
-0.44325
 30
0.0
 11
1.0
 21
0.0
 31
0.0
 44
0.9
  1
Product
 40
0.145
 41
1.624
  0
MTEXT
  5
273
100
AcDbEntity
  8
0
100
AcDbMText
 62
2
  6
CONTINUOUS
  7
STANDARD
 71
2
 72
1
 10
2.3
 20
-0.44325
 30
0.0
 11
1.0
 21
0.0
 31
0.0
 44
0.9
  1
Port
 40
0.145
 41
0.928
  0
MTEXT
  5
274
100
AcDbEntity
  8
0
100
AcDbMText
 62
2
  6
CONTINUOUS
  7
STANDARD
 71
2
 72
1
 10
3.95
 20
-0.44325
 30
0.0
 11
1.0
 21
0.0
 31
0.0
 44
0.9
  1
Size
 40
0.145
 41
0.928
  0
MTEXT
  5
275
100
AcDbEntity
  8
0
100
AcDbMText
 62
2
  6
CONTINUOUS
  7
STANDARD
 71
2
 72
1
 10
0.65
 20
-0.75025
 30
0.0
 11
1.0
 21
0.0
 31
0.0
 44
0.9
  1
WCZ
 40
0.125
 41
0.6
  0
MTEXT
  5
276
100
AcDbEntity
  8
0
100
AcDbMText
 62
2
  6
CONTINUOUS
  7
STANDARD
 71
2
 72
1
 10
2.3
 20
-0.75025
 30
0.0
 11
1.0
 21
0.0
 31
0.0
 44
0.9
  1
Ports C2, V1, V2
 40
0.125
 41
3.2
  0
MTEXT
  5
277
100
AcDbEntity
  8
0
100
AcDbMText
 62
2
  6
CONTINUOUS
  7
STANDARD
 71
2
 72
1
 10
3.95
 20
-0.75025
 30
0.0
 11
1.0
 21
0.0
 31
0.0
 44
0.9
  1
3/8" BSPP
 40
0.125
 41
1.8
  0
MTEXT
  5
278
100
AcDbEntity
  8
0
100
AcDbMText
 62
2
  6
CONTINUOUS
  7
STANDARD
 71
2
 72
1
 10
0.65
 20
-1.00025
 30
0.0
 11
1.0
 21
0.0
 31
0.0
 44
0.9
  1
WCZ
 40
0.125
 41
0.6
  0
MTEXT
  5
279
100
AcDbEntity
  8
0
100
AcDbMText
 62
2
  6
CONTINUOUS
  7
STANDARD
 71
2
 72
1
 10
2.3
 20
-1.00025
 30
0.0
 11
1.0
 21
0.0
 31
0.0
 44
0.9
  1
Vent Port
 40
0.125
 41
1.8
  0
MTEXT
  5
27A
100
AcDbEntity
  8
0
100
AcDbMText
 62
2
  6
CONTINUOUS
  7
STANDARD
 71
2
 72
1
 10
3.95
 20
-1.00025
 30
0.0
 11
1.0
 21
0.0
 31
0.0
 44
0.9
  1
1/4" BSPP
 40
0.125
 41
1.8
  0
ENDBLK
  5
27B
100
AcDbEntity
  8
0
  6
BYBLOCK
 62
0
100
AcDbBlockEnd
  0
ENDSEC
  0
SECTION
  2
ENTITIES
  0
IMAGE
  5
27C
100
AcDbEntity
  8
0
100
AcDbRasterImage
 62
7
  6
CONTINUOUS
 10
19.2297077316
 20
0.3094318264
 30
0.0
 11
0.0066666667
 21
0.0
 31
0.0
 12
0.0
 22
0.0066666667
 32
0.0
 13
369.0
 23
92.0
340
       3B5
 70
9
280
0
281
50
282
50
283
0
360
       3AF
 71
1
 91
2
 14
-0.5
 24
-0.5
 14
368.5
 24
91.5
  0
INSERT
  5
27D
100
AcDbEntity
  8
0
100
AcDbBlockReference
 62
2
  6
CONTINUOUS
  2
SUN_FIRST_THIRD_ANGLE_BL0
 10
20.4816717061
 20
1.2289683772
  0
ACAD_TABLE
  5
27E
100
AcDbEntity
  8
0
 62
2
  6
CONTINUOUS
100
AcDbBlockReference
  2
*T1
 10
12.42375
 20
0.30125
 30
0.0
100
AcDbTable
342
       3B7
343
20A
 11
1.0
 21
0.0
 31
0.0
 90
6
 91
4
 92
6
 93
20
 94
0
 95
0
 96
0
 70
1
 41
0.0
141
0.525
141
0.1
141
0.525
141
0.1
142
4.1
142
1.1
142
0.7
142
0.5
142
0.4
142
2.475
171
1
172
0
173
0
174
0
175
1
176
1
 91
33
178
0
145
0.0
301
CELL_VALUE
 90
4
  1
T-21A Gasket mount Sun\PDirect mount, cross pilot
304
ACVALUE_END
170
2
140
0.125
171
1
172
0
173
0
174
0
175
1
176
1
 91
33
178
0
145
0.0
301
CELL_VALUE
 90
4
  1
Nov-03-20
304
ACVALUE_END
170
5
140
0.125
171
1
172
0
173
0
174
0
175
1
176
1
 91
33
178
0
145
0.0
301
CELL_VALUE
 90
4
  1
2.000
304
ACVALUE_END
170
5
140
0.125
171
1
172
0
173
0
174
0
175
1
176
1
 91
33
178
0
145
0.0
301
CELL_VALUE
 90
4
  1
C
304
ACVALUE_END
170
5
140
0.125
171
1
172
0
173
0
174
0
175
1
176
1
 91
33
178
0
145
0.0
301
CELL_VALUE
 90
4
  1
2
304
ACVALUE_END
170
5
140
0.125
171
1
172
0
173
0
174
0
175
1
176
1
 91
33
178
0
145
0.0
301
CELL_VALUE
 90
4
  1
 
304
ACVALUE_END
170
1
140
0.125
171
1
172
0
173
0
174
0
175
1
176
1
 91
33
178
0
145
0.0
301
CELL_VALUE
 90
4
  1
DESCRIPTION
304
ACVALUE_END
170
1
140
0.06
171
1
172
0
173
0
174
0
175
1
176
1
 91
33
178
0
145
0.0
301
CELL_VALUE
 90
4
  1
DATE
304
ACVALUE_END
170
1
140
0.06
171
1
172
0
173
0
174
0
175
1
176
1
 91
33
178
0
145
0.0
301
CELL_VALUE
 90
4
  1
SCALE
304
ACVALUE_END
170
1
140
0.06
171
1
172
0
173
0
174
0
175
1
176
1
 91
33
178
0
145
0.0
301
CELL_VALUE
 90
4
  1
DWG SIZE
304
ACVALUE_END
170
1
140
0.06
171
1
172
0
173
0
174
0
175
1
176
1
 91
33
178
0
145
0.0
301
CELL_VALUE
 90
4
  1
SHEET
304
ACVALUE_END
170
1
140
0.06
171
1
172
0
173
0
174
0
175
1
176
1
 91
33
178
0
145
0.0
301
CELL_VALUE
 90
4
  1
 
304
ACVALUE_END
170
1
140
0.125
171
1
172
0
173
0
174
0
175
1
176
1
 91
33
178
0
145
0.0
301
CELL_VALUE
 90
4
  1
WCZ
304
ACVALUE_END
170
5
140
0.125
171
1
172
0
173
0
174
0
175
4
176
1
 91
33
178
0
145
0.0
301
CELL_VALUE
 90
4
  1
ALL DIMENSIONS IN INCH\PVIEWS ARE THIRD ANGLE
304
ACVALUE_END
170
5
140
0.12
171
1
172
0
173
1
174
0
175
1
176
1
 91
1
178
0
145
0.0
170
1
171
1
172
0
173
1
174
0
175
1
176
1
 91
1
178
0
145
0.0
170
1
171
1
172
0
173
1
174
0
175
1
176
1
 91
1
178
0
145
0.0
170
5
171
1
172
0
173
0
174
0
175
1
176
1
 91
33
178
0
145
0.0
301
CELL_VALUE
 90
4
  1
 
304
ACVALUE_END
170
1
140
0.125
171
1
172
0
173
0
174
0
175
1
176
1
 91
33
178
0
145
0.0
301
CELL_VALUE
 90
4
  1
MODEL
304
ACVALUE_END
170
1
140
0.06
171
1
172
0
173
0
174
0
175
1
176
1
 91
33
178
0
145
0.0
301
CELL_VALUE
 90
4
  1
 
304
ACVALUE_END
170
1
140
0.125
171
1
172
0
173
0
174
0
175
1
176
1
 91
33
178
0
145
0.0
301
CELL_VALUE
 90
4
  1
 
304
ACVALUE_END
170
1
140
0.125
171
1
172
0
173
0
174
0
175
1
176
1
 91
33
178
0
145
0.0
301
CELL_VALUE
 90
4
  1
 
304
ACVALUE_END
170
1
140
0.125
171
1
172
0
173
0
174
0
175
1
176
1
 91
33
178
0
145
0.0
301
CELL_VALUE
 90
4
  1
 
304
ACVALUE_END
170
1
140
0.125
171
1
172
0
173
0
174
0
175
1
176
1
 91
33
178
0
145
0.0
301
CELL_VALUE
 90
4
  1
 
304
ACVALUE_END
170
1
140
0.125
  0
ACAD_TABLE
  5
27F
100
AcDbEntity
  8
0
 62
2
  6
CONTINUOUS
100
AcDbBlockReference
  2
*T2
 10
12.4237499994
 20
16.47875
 30
0.0
100
AcDbTable
342
       3B6
343
20B
 11
1.0
 21
0.0
 31
0.0
 90
22
 91
7
 92
3
 93
16
 94
0
 95
0
 96
0
 41
0.028
141
0.344
141
0.25
141
0.25
141
0.25
141
0.25
141
0.25
141
0.25
142
3.055
142
3.0
142
3.0
171
1
172
0
173
0
174
0
175
1
176
1
 91
33
178
0
145
0.0
301
CELL_VALUE
 90
4
  1
Technical Data
304
ACVALUE_END
170
5
140
0.145
171
1
172
0
173
0
174
0
175
1
176
1
 91
33
178
0
145
0.0
301
CELL_VALUE
 90
4
  1
U.S. Units
304
ACVALUE_END
170
5
140
0.145
171
1
172
0
173
0
174
0
175
1
176
1
 91
33
178
0
145
0.0
301
CELL_VALUE
 90
4
  1
Metric Units
304
ACVALUE_END
170
5
140
0.145
171
1
172
0
173
0
174
0
175
1
176
1
 91
33
178
0
145
0.0
301
CELL_VALUE
 90
4
  1
Cavity
304
ACVALUE_END
170
5
140
0.125
171
1
172
0
173
0
174
0
175
2
176
1
 91
33
178
0
145
0.0
301
CELL_VALUE
 90
4
  1
T-21A
304
ACVALUE_END
170
5
140
0.125
171
1
172
0
173
1
174
0
175
1
176
1
 91
1
178
0
145
0.0
170
1
171
1
172
0
173
0
174
0
175
1
176
1
 91
33
178
0
145
0.0
301
CELL_VALUE
 90
4
  1
Body Features
304
ACVALUE_END
170
5
140
0.125
171
1
172
0
173
0
174
0
175
2
176
1
 91
33
178
0
145
0.0
301
CELL_VALUE
 90
4
  1
Direct mount, cross pilot
304
ACVALUE_END
170
5
140
0.125
171
1
172
0
173
1
174
0
175
1
176
1
 91
1
178
0
145
0.0
170
1
171
1
172
0
173
0
174
0
175
1
176
1
 91
33
178
0
145
0.0
301
CELL_VALUE
 90
4
  1
Body Type
304
ACVALUE_END
170
5
140
0.125
171
1
172
0
173
0
174
0
175
2
176
1
 91
33
178
0
145
0.0
301
CELL_VALUE
 90
4
  1
Gasket mount
304
ACVALUE_END
170
5
140
0.125
171
1
172
0
173
1
174
0
175
1
176
1
 91
1
178
0
145
0.0
170
1
171
1
172
0
173
0
174
0
175
1
176
1
 91
33
178
0
145
0.0
301
CELL_VALUE
 90
4
  1
Interface
304
ACVALUE_END
170
5
140
0.125
171
1
172
0
173
0
174
0
175
2
176
1
 91
33
178
0
145
0.0
301
CELL_VALUE
 90
4
  1
Sun
304
ACVALUE_END
170
5
140
0.125
171
1
172
0
173
1
174
0
175
1
176
1
 91
1
178
0
145
0.0
170
1
171
1
172
0
173
0
174
0
175
1
176
1
 91
33
178
0
145
0.0
301
CELL_VALUE
 90
4
  1
Open Cavity Quantity
304
ACVALUE_END
170
5
140
0.125
171
1
172
0
173
0
174
0
175
2
176
1
 91
33
178
0
145
0.0
301
CELL_VALUE
 90
4
  1
1
304
ACVALUE_END
170
5
140
0.125
171
1
172
0
173
1
174
0
175
1
176
1
 91
1
178
0
145
0.0
170
1
171
1
172
0
173
0
174
0
175
1
176
1
 91
33
178
0
145
0.0
301
CELL_VALUE
 90
4
  1
Weight
304
ACVALUE_END
170
5
140
0.125
171
1
172
0
173
0
174
0
175
1
176
1
 91
33
178
0
145
0.0
301
CELL_VALUE
 90
4
  1
2.449 lb.
304
ACVALUE_END
170
5
140
0.125
171
1
172
0
173
0
174
0
175
1
176
1
 91
33
178
0
145
0.0
301
CELL_VALUE
 90
4
  1
1,111 kg.
304
ACVALUE_END
170
5
140
0.125
  0
ACAD_TABLE
  5
280
100
AcDbEntity
  8
0
 62
2
  6
CONTINUOUS
100
AcDbBlockReference
  2
*T3
 10
0.52125
 20
1.709
 30
0.0
100
AcDbTable
342
       3B6
343
20C
 11
1.0
 21
0.0
 31
0.0
 90
22
 91
4
 92
3
 93
16
 94
0
 95
0
 96
0
 41
0.05
141
0.34375
141
0.344
141
0.25
141
0.25
142
1.3
142
2.0
142
1.3
171
1
172
0
173
0
174
0
175
3
176
1
 91
33
178
0
145
0.0
301
CELL_VALUE
 90
4
  1
Port Headings
304
ACVALUE_END
170
5
140
0.145
171
1
172
0
173
1
174
0
175
1
176
1
 91
1
178
0
145
0.0
170
1
171
1
172
0
173
1
174
0
175
1
176
1
 91
1
178
0
145
0.0
170
1
171
1
172
0
173
0
174
0
175
1
176
1
 91
33
178
0
145
0.0
301
CELL_VALUE
 90
4
  1
Product
304
ACVALUE_END
170
5
140
0.145
171
1
172
0
173
0
174
0
175
1
176
1
 91
33
178
0
145
0.0
301
CELL_VALUE
 90
4
  1
Port
304
ACVALUE_END
170
5
140
0.145
171
1
172
0
173
0
174
0
175
1
176
1
 91
33
178
0
145
0.0
301
CELL_VALUE
 90
4
  1
Size
304
ACVALUE_END
170
5
140
0.145
171
1
172
0
173
0
174
0
175
1
176
1
 91
33
178
0
145
0.0
301
CELL_VALUE
 90
4
  1
WCZ
304
ACVALUE_END
170
5
140
0.125
171
1
172
0
173
0
174
0
175
1
176
1
 91
33
178
0
145
0.0
301
CELL_VALUE
 90
4
  1
Ports C2, V1, V2
304
ACVALUE_END
170
5
140
0.125
171
1
172
0
173
0
174
0
175
1
176
1
 91
33
178
0
145
0.0
301
CELL_VALUE
 90
4
  1
3/8" BSPP
304
ACVALUE_END
170
5
140
0.125
171
1
172
0
173
0
174
0
175
1
176
1
 91
33
178
0
145
0.0
301
CELL_VALUE
 90
4
  1
WCZ
304
ACVALUE_END
170
5
140
0.125
171
1
172
0
173
0
174
0
175
1
176
1
 91
33
178
0
145
0.0
301
CELL_VALUE
 90
4
  1
Vent Port
304
ACVALUE_END
170
5
140
0.125
171
1
172
0
173
0
174
0
175
1
176
1
 91
33
178
0
145
0.0
301
CELL_VALUE
 90
4
  1
1/4" BSPP
304
ACVALUE_END
170
5
140
0.125
  0
MTEXT
  5
281
100
AcDbEntity
  8
0
100
AcDbMText
 62
2
  6
CONTINUOUS
  7
STANDARD
 71
1
 72
1
 10
0.52125
 20
5.75995
 30
0.0
 11
1.0
 21
0.0
 31
0.0
 44
0.6
  3
Notes\P \P1. Important: Carefully consider\P   the maximum system pressure. The\P   pressure rating of the manifold is\P   dependent on the manifold material,\P   with the port type/size a secondary\P   consideration. Manifolds\P   constructed of alu
  1
minum are not\P   rated for pressures higher than\P   3000 psi (210 bar), regardless of\P   the port type/size specified.
 40
0.1
 41
3.04
  0
LINE
  5
282
100
AcDbEntity
  8
0
100
AcDbLine
 62
7
  6
CONTINUOUS
 10
0.30125
 20
0.30125
 11
0.30125
 21
16.69875
  0
LINE
  5
283
100
AcDbEntity
  8
0
100
AcDbLine
 62
7
  6
CONTINUOUS
 10
0.30125
 20
0.30125
 11
21.69875
 21
0.30125
  0
LINE
  5
284
100
AcDbEntity
  8
0
100
AcDbLine
 62
7
  6
CONTINUOUS
 10
0.30125
 20
16.69875
 11
21.69875
 21
16.69875
  0
LINE
  5
285
100
AcDbEntity
  8
0
100
AcDbLine
 62
7
  6
CONTINUOUS
 10
21.69875
 20
0.30125
 11
21.69875
 21
16.69875
  0
LINE
  5
286
100
AcDbEntity
  8
0
100
AcDbLine
 62
7
  6
CONTINUOUS
 10
7.4156832813
 20
5.0610009616
 11
7.4156832813
 21
9.8906303793
  0
LINE
  5
287
100
AcDbEntity
  8
0
100
AcDbLine
 62
7
  6
CONTINUOUS
 10
7.4156832813
 20
9.8906303793
 11
9.8744621806
 21
12.2656285599
  0
LINE
  5
288
100
AcDbEntity
  8
0
100
AcDbLine
 62
7
  6
CONTINUOUS
 10
12.1255378194
 20
4.7343714401
 11
7.4156832813
 21
5.0610009616
  0
LINE
  5
289
100
AcDbEntity
  8
0
100
AcDbLine
 62
7
  6
CONTINUOUS
 10
8.2081363793
 20
9.8356735703
 11
8.2164185823
 21
9.8436735645
  0
LINE
  5
28A
100
AcDbEntity
  8
0
100
AcDbLine
 62
4
  6
CONTINUOUS
 10
9.8111794359
 20
5.9815393652
 11
9.7725424106
 21
5.984218852
  0
LINE
  5
28B
100
AcDbEntity
  8
0
100
AcDbLine
 62
4
  6
CONTINUOUS
 10
9.6759498198
 20
6.0923397865
 11
9.6179942681
 21
6.1108479056
  0
LINE
  5
28C
100
AcDbEntity
  8
0
100
AcDbLine
 62
4
  6
CONTINUOUS
 10
9.6179942681
 20
6.2847145607
 11
9.849816475
 21
6.1961931964
  0
LINE
  5
28D
100
AcDbEntity
  8
0
100
AcDbLine
 62
4
  6
CONTINUOUS
 10
9.7725424106
 20
5.984218852
 11
9.7532238842
 21
6.0000474843
  0
LINE
  5
28E
100
AcDbEntity
  8
0
100
AcDbLine
 62
4
  6
CONTINUOUS
 10
9.714586852
 20
6.0606825233
 11
9.6759498198
 21
6.0923397865
  0
LINE
  5
28F
100
AcDbEntity
  8
0
100
AcDbLine
 62
4
  6
CONTINUOUS
 10
9.8111794359
 20
6.0974504687
 11
9.8304979624
 21
6.0816218364
  0
LINE
  5
290
100
AcDbEntity
  8
0
100
AcDbLine
 62
4
  6
CONTINUOUS
 10
9.7532238842
 20
6.0000474843
 11
9.714586852
 21
6.0606825233
  0
LINE
  5
291
100
AcDbEntity
  8
0
100
AcDbLine
 62
7
  6
CONTINUOUS
 10
8.9182700126
 20
9.7864256355
 11
8.9265522156
 21
9.7944256298
  0
LINE
  5
292
100
AcDbEntity
  8
0
100
AcDbLine
 62
4
  6
CONTINUOUS
 10
11.8975794678
 20
6.2038988303
 11
11.6657572609
 21
6.219975755
  0
LINE
  5
293
100
AcDbEntity
  8
0
100
AcDbLine
 62
4
  6
CONTINUOUS
 10
11.6657572609
 20
6.3938424101
 11
11.8975794678
 21
6.3777654855
  0
LINE
  5
294
100
AcDbEntity
  8
0
100
AcDbLine
 62
4
  6
CONTINUOUS
 10
9.8304979624
 20
6.0816218364
 11
9.849816475
 21
6.0513043171
  0
LINE
  5
295
100
AcDbEntity
  8
0
100
AcDbLine
 62
4
  6
CONTINUOUS
 10
9.849816475
 20
6.3410820757
 11
9.6179942681
 21
6.2847145607
  0
LINE
  5
296
100
AcDbEntity
  8
0
100
AcDbLine
 62
4
  6
CONTINUOUS
 10
11.8975794678
 20
6.9718098906
 11
11.6657572609
 21
6.9154423756
  0
LINE
  5
297
100
AcDbEntity
  8
0
100
AcDbLine
 62
4
  6
CONTINUOUS
 10
11.6657572609
 20
6.5097535136
 11
11.8975794678
 21
6.4936765889
  0
LINE
  5
298
100
AcDbEntity
  8
0
100
AcDbLine
 62
4
  6
CONTINUOUS
 10
11.6657572609
 20
6.7415757204
 11
11.8975794678
 21
6.7254987958
  0
LINE
  5
299
100
AcDbEntity
  8
0
100
AcDbLine
 62
4
  6
CONTINUOUS
 10
9.6179942681
 20
6.1108479056
 11
9.6179942681
 21
5.9949368021
  0
LINE
  5
29A
100
AcDbEntity
  8
0
100
AcDbLine
 62
4
  6
CONTINUOUS
 10
9.849816475
 20
6.0513043171
 11
9.849816475
 21
6.0223265413
  0
LINE
  5
29B
100
AcDbEntity
  8
0
100
AcDbLine
 62
7
  6
CONTINUOUS
 10
10.3118962121
 20
9.3404679409
 11
10.3548601382
 21
9.3819679091
  0
LINE
  5
29C
100
AcDbEntity
  8
0
100
AcDbLine
 62
4
  6
CONTINUOUS
 10
11.6657572609
 20
6.9154423756
 11
11.8975794678
 21
6.8269210113
  0
LINE
  5
29D
100
AcDbEntity
  8
0
100
AcDbLine
 62
7
  6
CONTINUOUS
 10
10.4855655604
 20
8.9425485216
 11
10.5658210616
 21
9.0200693875
  0
LINE
  5
29E
100
AcDbEntity
  8
0
100
AcDbLine
 62
7
  6
CONTINUOUS
 10
10.624847927
 20
9.1182133904
 11
10.5658210616
 21
9.0200693875
  0
LINE
  5
29F
100
AcDbEntity
  8
0
100
AcDbLine
 62
7
  6
CONTINUOUS
 10
10.5904089433
 20
8.7536835422
 11
10.6706644445
 21
8.8312044081
  0
LINE
  5
2A0
100
AcDbEntity
  8
0
100
AcDbLine
 62
4
  6
CONTINUOUS
 10
9.6179942681
 20
8.6995292695
 11
9.849816475
 21
8.6110079052
  0
LINE
  5
2A1
100
AcDbEntity
  8
0
100
AcDbLine
 62
7
  6
CONTINUOUS
 10
12.1255378194
 20
9.5640008577
 11
14.5843167187
 21
11.9389990384
  0
LINE
  5
2A2
100
AcDbEntity
  8
0
100
AcDbLine
 62
7
  6
CONTINUOUS
 10
11.0941808971
 20
8.5305872882
 11
11.1371448232
 21
8.5720872564
  0
LINE
  5
2A3
100
AcDbEntity
  8
0
100
AcDbLine
 62
4
  6
CONTINUOUS
 10
9.849816475
 20
8.451630138
 11
9.6179942681
 21
8.4677070627
  0
LINE
  5
2A4
100
AcDbEntity
  8
0
100
AcDbLine
 62
7
  6
CONTINUOUS
 10
10.5658210616
 20
9.0200693875
 11
10.6706644445
 21
8.8312044081
  0
LINE
  5
2A5
100
AcDbEntity
  8
0
100
AcDbLine
 62
7
  6
CONTINUOUS
 10
13.5465019304
 20
10.3972596604
 11
13.5457695902
 21
10.3965684116
  0
LINE
  5
2A6
100
AcDbEntity
  8
0
100
AcDbLine
 62
4
  6
CONTINUOUS
 10
14.2437111411
 20
9.3580120962
 11
14.3058276593
 21
9.3683358578
  0
LINE
  5
2A7
100
AcDbEntity
  8
0
100
AcDbLine
 62
7
  6
CONTINUOUS
 10
10.6706644445
 20
8.8312044081
 11
10.8509651699
 21
8.8187005103
  0
LINE
  5
2A8
100
AcDbEntity
  8
0
100
AcDbLine
 62
4
  6
CONTINUOUS
 10
11.6657572609
 20
6.625664617
 11
11.6657572609
 21
6.7415757204
  0
LINE
  5
2A9
100
AcDbEntity
  8
0
100
AcDbLine
 62
4
  6
CONTINUOUS
 10
9.849816475
 20
6.0223265413
 11
9.8304979624
 21
5.9946885088
  0
LINE
  5
2AA
100
AcDbEntity
  8
0
100
AcDbLine
 62
4
  6
CONTINUOUS
 10
9.849816475
 20
8.7558967845
 11
9.6179942681
 21
8.6995292695
  0
LINE
  5
2AB
100
AcDbEntity
  8
0
100
AcDbLine
 62
4
  6
CONTINUOUS
 10
11.7816683644
 20
6.7335372581
 11
11.7816683644
 21
6.6610928185
  0
LINE
  5
2AC
100
AcDbEntity
  8
0
100
AcDbLine
 62
4
  6
CONTINUOUS
 10
11.8975794678
 20
6.7254987958
 11
11.8975794678
 21
6.6095876923
  0
LINE
  5
2AD
100
AcDbEntity
  8
0
100
AcDbLine
 62
4
  6
CONTINUOUS
 10
11.8975794678
 20
6.27634327
 11
11.8975794678
 21
6.1314543907
  0
LINE
  5
2AE
100
AcDbEntity
  8
0
100
AcDbLine
 62
4
  6
CONTINUOUS
 10
14.4682179864
 20
10.4966382895
 11
14.4770917742
 21
10.5052097108
  0
LINE
  5
2AF
100
AcDbEntity
  8
0
100
AcDbLine
 62
4
  6
CONTINUOUS
 10
14.4327228325
 20
10.3464414981
 11
14.4415966212
 21
10.3550129203
  0
LINE
  5
2B0
100
AcDbEntity
  8
0
100
AcDbLine
 62
7
  6
CONTINUOUS
 10
13.5457695902
 20
9.4760410446
 11
13.544156084
 21
9.474515371
  0
LINE
  5
2B1
100
AcDbEntity
  8
0
100
AcDbLine
 62
7
  6
CONTINUOUS
 10
13.5441668456
 20
9.4745211451
 11
13.5131790347
 21
9.4456809654
  0
LINE
  5
2B2
100
AcDbEntity
  8
0
100
AcDbLine
 62
7
  6
CONTINUOUS
 10
12.1255378194
 20
9.5640008577
 11
12.1255378194
 21
4.7343714401
  0
LINE
  5
2B3
100
AcDbEntity
  8
0
100
AcDbLine
 62
4
  6
CONTINUOUS
 10
14.485965562
 20
10.3316351163
 11
14.4327228325
 21
10.2802065858
  0
LINE
  5
2B4
100
AcDbEntity
  8
0
100
AcDbLine
 62
4
  6
CONTINUOUS
 10
14.1070548012
 20
9.8938808839
 11
14.1691713193
 21
9.9538808366
  0
LINE
  5
2B5
100
AcDbEntity
  8
0
100
AcDbLine
 62
4
  6
CONTINUOUS
 10
14.4327228325
 20
10.1642954824
 11
14.485965562
 21
10.2157240129
  0
LINE
  5
2B6
100
AcDbEntity
  8
0
100
AcDbLine
 62
4
  6
CONTINUOUS
 10
14.4238490438
 20
10.0894891479
 11
14.485965562
 21
10.1494891006
  0
LINE
  5
2B7
100
AcDbEntity
  8
0
100
AcDbLine
 62
4
  6
CONTINUOUS
 10
14.1602975315
 20
9.8293983257
 11
14.1159285899
 21
9.7865412165
  0
LINE
  5
2B8
100
AcDbEntity
  8
0
100
AcDbLine
 62
4
  6
CONTINUOUS
 10
14.4238490438
 20
9.9735780445
 11
14.485965562
 21
10.0335779972
  0
LINE
  5
2B9
100
AcDbEntity
  8
0
100
AcDbLine
 62
4
  6
CONTINUOUS
 10
9.8304979624
 20
5.9946885088
 11
9.8111794359
 21
5.9815393652
  0
LINE
  5
2BA
100
AcDbEntity
  8
0
100
AcDbLine
 62
7
  6
CONTINUOUS
 10
13.4672613243
 20
9.4254805228
 11
13.4110358796
 21
9.4293797707
  0
LINE
  5
2BB
100
AcDbEntity
  8
0
100
AcDbLine
 62
7
  6
CONTINUOUS
 10
7.4156832813
 20
9.8906303793
 11
8.2081363793
 21
9.8356735703
  0
LINE
  5
2BC
100
AcDbEntity
  8
0
100
AcDbLine
 62
7
  6
CONTINUOUS
 10
8.9182700126
 20
9.7864256355
 11
12.1255378194
 21
9.5640008577
  0
LINE
  5
2BD
100
AcDbEntity
  8
0
100
AcDbLine
 62
7
  6
CONTINUOUS
 10
8.9265522156
 20
9.7944256298
 11
8.2164185823
 21
9.8436735645
  0
LINE
  5
2BE
100
AcDbEntity
  8
0
100
AcDbLine
 62
4
  6
CONTINUOUS
 10
14.485965562
 20
8.6757622536
 11
14.4815286663
 21
8.6769960964
  0
LINE
  5
2BF
100
AcDbEntity
  8
0
100
AcDbLine
 62
4
  6
CONTINUOUS
 10
14.1070548012
 20
9.4191973181
 11
14.1691713193
 21
9.4791972708
  0
LINE
  5
2C0
100
AcDbEntity
  8
0
100
AcDbLine
 62
4
  6
CONTINUOUS
 10
14.4238490438
 20
9.7251971164
 11
14.485965562
 21
9.7851970691
  0
LINE
  5
2C1
100
AcDbEntity
  8
0
100
AcDbLine
 62
4
  6
CONTINUOUS
 10
14.4637810907
 20
9.6644161318
 11
14.4238490438
 21
9.6258447342
  0
LINE
  5
2C2
100
AcDbEntity
  8
0
100
AcDbLine
 62
4
  6
CONTINUOUS
 10
14.1070548012
 20
9.2867274935
 11
14.1691713193
 21
9.3467274462
  0
LINE
  5
2C3
100
AcDbEntity
  8
0
100
AcDbLine
 62
4
  6
CONTINUOUS
 10
14.4282859382
 20
9.4203865149
 11
14.4637810907
 21
9.4546722014
  0
LINE
  5
2C4
100
AcDbEntity
  8
0
100
AcDbLine
 62
4
  6
CONTINUOUS
 10
14.2525849298
 20
9.2009962376
 11
14.2969538715
 21
9.2438533468
  0
LINE
  5
2C5
100
AcDbEntity
  8
0
100
AcDbLine
 62
7
  6
CONTINUOUS
 10
13.5750856677
 20
9.9048489768
 11
13.4778280121
 21
9.9115938181
  0
LINE
  5
2C6
100
AcDbEntity
  8
0
100
AcDbLine
 62
4
  6
CONTINUOUS
 10
14.1070548012
 20
9.6841369949
 11
14.1691713193
 21
9.6779020353
  0
LINE
  5
2C7
100
AcDbEntity
  8
0
100
AcDbLine
 62
4
  6
CONTINUOUS
 10
14.2437111411
 20
9.4573644681
 11
14.2880800837
 21
9.4505453905
  0
LINE
  5
2C8
100
AcDbEntity
  8
0
100
AcDbLine
 62
4
  6
CONTINUOUS
 10
14.4090593966
 20
9.5122066488
 11
14.4682179864
 21
9.5031145773
  0
LINE
  5
2C9
100
AcDbEntity
  8
0
100
AcDbLine
 62
4
  6
CONTINUOUS
 10
14.485965562
 20
9.3767484295
 11
14.4238490438
 21
9.3167484768
  0
LINE
  5
2CA
100
AcDbEntity
  8
0
100
AcDbLine
 62
4
  6
CONTINUOUS
 10
14.4238490438
 20
9.2505134816
 11
14.4682179864
 21
9.2933705917
  0
LINE
  5
2CB
100
AcDbEntity
  8
0
100
AcDbLine
 62
4
  6
CONTINUOUS
 10
14.1159285899
 20
8.9475655502
 11
14.1602975315
 21
8.9904226593
  0
LINE
  5
2CC
100
AcDbEntity
  8
0
100
AcDbLine
 62
4
  6
CONTINUOUS
 10
14.4637810907
 20
9.211810884
 11
14.4549073029
 21
9.2032394627
  0
LINE
  5
2CD
100
AcDbEntity
  8
0
100
AcDbLine
 62
4
  6
CONTINUOUS
 10
14.4282859382
 20
9.1057706469
 11
14.4415966212
 21
9.1186277802
  0
LINE
  5
2CE
100
AcDbEntity
  8
0
100
AcDbLine
 62
4
  6
CONTINUOUS
 10
14.1159285899
 20
8.7543804515
 11
14.1602975315
 21
8.7972375607
  0
LINE
  5
2CF
100
AcDbEntity
  8
0
100
AcDbLine
 62
4
  6
CONTINUOUS
 10
14.4238490438
 20
9.0021326088
 11
14.4593441987
 21
9.0364182976
  0
LINE
  5
2D0
100
AcDbEntity
  8
0
100
AcDbLine
 62
4
  6
CONTINUOUS
 10
14.4682179864
 20
8.9787548342
 11
14.4282859382
 21
8.9401834352
  0
LINE
  5
2D1
100
AcDbEntity
  8
0
100
AcDbLine
 62
4
  6
CONTINUOUS
 10
14.1602975315
 20
8.6813264572
 11
14.1159285899
 21
8.638469348
  0
LINE
  5
2D2
100
AcDbEntity
  8
0
100
AcDbLine
 62
4
  6
CONTINUOUS
 10
14.1070548012
 20
8.5636630412
 11
14.1691713193
 21
8.6236629939
  0
LINE
  5
2D3
100
AcDbEntity
  8
0
100
AcDbLine
 62
7
  6
CONTINUOUS
 10
13.6124429483
 20
10.1824148119
 11
13.4796434012
 21
10.1916244917
  0
LINE
  5
2D4
100
AcDbEntity
  8
0
100
AcDbLine
 62
4
  6
CONTINUOUS
 10
14.1691713193
 20
9.6779020353
 11
14.1070548012
 21
9.5516671427
  0
LINE
  5
2D5
100
AcDbEntity
  8
0
100
AcDbLine
 62
4
  6
CONTINUOUS
 10
14.3058276593
 20
9.5670406085
 11
14.2437111411
 21
9.4573644681
  0
LINE
  5
2D6
100
AcDbEntity
  8
0
100
AcDbLine
 62
4
  6
CONTINUOUS
 10
14.4238490438
 20
8.8365452866
 11
14.4682179864
 21
8.8794023967
  0
LINE
  5
2D7
100
AcDbEntity
  8
0
100
AcDbLine
 62
4
  6
CONTINUOUS
 10
14.4282859382
 20
8.774596113
 11
14.485965562
 21
8.8303103546
  0
LINE
  5
2D8
100
AcDbEntity
  8
0
100
AcDbLine
 62
4
  6
CONTINUOUS
 10
14.1602975315
 20
8.4991804691
 11
14.1159285899
 21
8.4563233599
  0
LINE
  5
2D9
100
AcDbEntity
  8
0
100
AcDbLine
 62
4
  6
CONTINUOUS
 10
14.1070548012
 20
8.3539190555
 11
14.1691713193
 21
8.4139190082
  0
LINE
  5
2DA
100
AcDbEntity
  8
0
100
AcDbLine
 62
4
  6
CONTINUOUS
 10
14.4238490438
 20
8.6212818562
 11
14.4682179864
 21
8.6641389663
  0
LINE
  5
2DB
100
AcDbEntity
  8
0
100
AcDbLine
 62
4
  6
CONTINUOUS
 10
14.4815286663
 20
8.6769960964
 11
14.485965562
 21
8.6812818089
  0
LINE
  5
2DC
100
AcDbEntity
  8
0
100
AcDbLine
 62
4
  6
CONTINUOUS
 10
14.4282859382
 20
8.5372543509
 11
14.4637810907
 21
8.5715400374
  0
LINE
  5
2DD
100
AcDbEntity
  8
0
100
AcDbLine
 62
4
  6
CONTINUOUS
 10
14.450470409
 20
8.4096542492
 11
14.4637810907
 21
8.4225113811
  0
LINE
  5
2DE
100
AcDbEntity
  8
0
100
AcDbLine
 62
4
  6
CONTINUOUS
 10
11.8975794678
 20
6.4936765889
 11
11.6657572609
 21
6.3938424101
  0
LINE
  5
2DF
100
AcDbEntity
  8
0
100
AcDbLine
 62
7
  6
CONTINUOUS
 10
13.5624585995
 20
10.7981835055
 11
13.506210443
 21
10.8020843285
  0
LINE
  5
2E0
100
AcDbEntity
  8
0
100
AcDbLine
 62
4
  6
CONTINUOUS
 10
14.1691713193
 20
9.8710872031
 11
14.1602975315
 21
9.8293983257
  0
LINE
  5
2E1
100
AcDbEntity
  8
0
100
AcDbLine
 62
4
  6
CONTINUOUS
 10
14.485965562
 20
10.1494891006
 11
14.4238490438
 21
9.9735780445
  0
LINE
  5
2E2
100
AcDbEntity
  8
0
100
AcDbLine
 62
4
  6
CONTINUOUS
 10
14.2880800837
 20
9.4505453905
 11
14.2437111411
 21
9.3580120962
  0
LINE
  5
2E3
100
AcDbEntity
  8
0
100
AcDbLine
 62
4
  6
CONTINUOUS
 10
14.4682179864
 20
9.6024669043
 11
14.4238490438
 21
9.5099335755
  0
LINE
  5
2E4
100
AcDbEntity
  8
0
100
AcDbLine
 62
4
  6
CONTINUOUS
 10
14.4282859382
 20
8.2888734781
 11
14.4415966212
 21
8.3017306114
  0
LINE
  5
2E5
100
AcDbEntity
  8
0
100
AcDbLine
 62
4
  6
CONTINUOUS
 10
14.3058276593
 20
8.9433284831
 11
14.2437111411
 21
8.9992396339
  0
LINE
  5
2E6
100
AcDbEntity
  8
0
100
AcDbLine
 62
4
  6
CONTINUOUS
 10
14.1070548012
 20
9.2867274935
 11
14.1070548012
 21
9.1873751113
  0
LINE
  5
2E7
100
AcDbEntity
  8
0
100
AcDbLine
 62
4
  6
CONTINUOUS
 10
14.1070548012
 20
8.3539190555
 11
14.1070548012
 21
8.2545667285
  0
LINE
  5
2E8
100
AcDbEntity
  8
0
100
AcDbLine
 62
4
  6
CONTINUOUS
 10
14.1070548012
 20
8.4808693801
 11
14.1070548012
 21
8.5636630412
  0
LINE
  5
2E9
100
AcDbEntity
  8
0
100
AcDbLine
 62
4
  6
CONTINUOUS
 10
14.1070548012
 20
8.6630153682
 11
14.1070548012
 21
8.7126915869
  0
LINE
  5
2EA
100
AcDbEntity
  8
0
100
AcDbLine
 62
4
  6
CONTINUOUS
 10
14.1070548012
 20
8.839641801
 11
14.1070548012
 21
8.9058766856
  0
LINE
  5
2EB
100
AcDbEntity
  8
0
100
AcDbLine
 62
4
  6
CONTINUOUS
 10
14.1070548012
 20
9.8110872504
 11
14.1070548012
 21
9.8938808839
  0
LINE
  5
2EC
100
AcDbEntity
  8
0
100
AcDbLine
 62
4
  6
CONTINUOUS
 10
14.1248023786
 20
9.6792015352
 11
14.1248023786
 21
9.5908883188
  0
LINE
  5
2ED
100
AcDbEntity
  8
0
100
AcDbLine
 62
4
  6
CONTINUOUS
 10
14.142549956
 20
8.3219698596
 11
14.142549956
 21
8.3882047443
  0
LINE
  5
2EE
100
AcDbEntity
  8
0
100
AcDbLine
 62
4
  6
CONTINUOUS
 10
14.142549956
 20
9.2547782424
 11
14.142549956
 21
9.3210131823
  0
LINE
  5
2EF
100
AcDbEntity
  8
0
100
AcDbLine
 62
4
  6
CONTINUOUS
 10
14.1336761663
 20
10.052064988
 11
14.1218444484
 21
9.9523232021
  0
LINE
  5
2F0
100
AcDbEntity
  8
0
100
AcDbLine
 62
4
  6
CONTINUOUS
 10
14.1455078852
 20
8.2254746731
 11
14.1336761663
 21
8.1257328931
  0
LINE
  5
2F1
100
AcDbEntity
  8
0
100
AcDbLine
 62
4
  6
CONTINUOUS
 10
14.4415966212
 20
10.3550129203
 11
14.4682179864
 21
10.4966382895
  0
LINE
  5
2F2
100
AcDbEntity
  8
0
100
AcDbLine
 62
4
  6
CONTINUOUS
 10
14.4282859382
 20
10.4580668905
 11
14.4238490438
 21
10.4372224496
  0
LINE
  5
2F3
100
AcDbEntity
  8
0
100
AcDbLine
 62
4
  6
CONTINUOUS
 10
14.1070548012
 20
8.9058766856
 11
14.1159285899
 21
8.9475655502
  0
LINE
  5
2F4
100
AcDbEntity
  8
0
100
AcDbLine
 62
4
  6
CONTINUOUS
 10
14.4327228325
 20
10.2802065858
 11
14.4238490438
 21
10.2385177075
  0
LINE
  5
2F5
100
AcDbEntity
  8
0
100
AcDbLine
 62
4
  6
CONTINUOUS
 10
14.1070548012
 20
8.7126915869
 11
14.1159285899
 21
8.7543804515
  0
LINE
  5
2F6
100
AcDbEntity
  8
0
100
AcDbLine
 62
4
  6
CONTINUOUS
 10
14.485965562
 20
10.4144287567
 11
14.4815286663
 21
10.3935843162
  0
LINE
  5
2F7
100
AcDbEntity
  8
0
100
AcDbLine
 62
4
  6
CONTINUOUS
 10
14.2437111411
 20
9.1593073455
 11
14.2525849298
 21
9.2009962376
  0
LINE
  5
2F8
100
AcDbEntity
  8
0
100
AcDbLine
 62
4
  6
CONTINUOUS
 10
14.1691713193
 20
8.7230153209
 11
14.1602975315
 21
8.6813264572
  0
LINE
  5
2F9
100
AcDbEntity
  8
0
100
AcDbLine
 62
4
  6
CONTINUOUS
 10
14.1691713193
 20
8.5408693328
 11
14.1602975315
 21
8.4991804691
  0
LINE
  5
2FA
100
AcDbEntity
  8
0
100
AcDbLine
 62
4
  6
CONTINUOUS
 10
14.4682179864
 20
9.6852605654
 11
14.4637810907
 21
9.6644161318
  0
LINE
  5
2FB
100
AcDbEntity
  8
0
100
AcDbLine
 62
4
  6
CONTINUOUS
 10
14.4682179864
 20
9.227135707
 11
14.4637810907
 21
9.211810884
  0
LINE
  5
2FC
100
AcDbEntity
  8
0
100
AcDbLine
 62
4
  6
CONTINUOUS
 10
14.4593441987
 20
9.0364182976
 11
14.4682179864
 21
9.0615483848
  0
LINE
  5
2FD
100
AcDbEntity
  8
0
100
AcDbLine
 62
4
  6
CONTINUOUS
 10
14.1159285899
 20
8.4563233599
 11
14.1070548012
 21
8.4808693801
  0
LINE
  5
2FE
100
AcDbEntity
  8
0
100
AcDbLine
 62
4
  6
CONTINUOUS
 10
14.1159285899
 20
8.638469348
 11
14.1070548012
 21
8.6630153682
  0
LINE
  5
2FF
100
AcDbEntity
  8
0
100
AcDbLine
 62
4
  6
CONTINUOUS
 10
14.1602975315
 20
8.7972375607
 11
14.1691713193
 21
8.7726915396
  0
LINE
  5
300
100
AcDbEntity
  8
0
100
AcDbLine
 62
4
  6
CONTINUOUS
 10
14.1602975315
 20
8.9904226593
 11
14.1691713193
 21
8.9658766383
  0
LINE
  5
301
100
AcDbEntity
  8
0
100
AcDbLine
 62
4
  6
CONTINUOUS
 10
14.4238490438
 20
8.3011464329
 11
14.4282859382
 21
8.2888734781
  0
LINE
  5
302
100
AcDbEntity
  8
0
100
AcDbLine
 62
4
  6
CONTINUOUS
 10
14.1336761663
 20
8.1257328931
 11
14.1218444484
 21
8.2026175469
  0
LINE
  5
303
100
AcDbEntity
  8
0
100
AcDbLine
 62
4
  6
CONTINUOUS
 10
14.1691713193
 20
9.9538808366
 11
14.1691713193
 21
9.8710872031
  0
LINE
  5
304
100
AcDbEntity
  8
0
100
AcDbLine
 62
4
  6
CONTINUOUS
 10
14.1691713193
 20
9.5454322107
 11
14.1691713193
 21
9.4129623862
  0
LINE
  5
305
100
AcDbEntity
  8
0
100
AcDbLine
 62
4
  6
CONTINUOUS
 10
14.1691713193
 20
9.3467274462
 11
14.1691713193
 21
9.247375064
  0
LINE
  5
306
100
AcDbEntity
  8
0
100
AcDbLine
 62
4
  6
CONTINUOUS
 10
14.1691713193
 20
8.9658766383
 11
14.1691713193
 21
8.8996417537
  0
LINE
  5
307
100
AcDbEntity
  8
0
100
AcDbLine
 62
4
  6
CONTINUOUS
 10
14.1691713193
 20
8.7726915396
 11
14.1691713193
 21
8.7230153209
  0
LINE
  5
308
100
AcDbEntity
  8
0
100
AcDbLine
 62
4
  6
CONTINUOUS
 10
14.1691713193
 20
8.6236629939
 11
14.1691713193
 21
8.5408693328
  0
LINE
  5
309
100
AcDbEntity
  8
0
100
AcDbLine
 62
4
  6
CONTINUOUS
 10
14.1691713193
 20
8.4139190082
 11
14.1691713193
 21
8.3145666812
  0
LINE
  5
30A
100
AcDbEntity
  8
0
100
AcDbLine
 62
4
  6
CONTINUOUS
 10
14.2437111411
 20
8.9992396339
 11
14.2437111411
 21
8.8833285304
  0
LINE
  5
30B
100
AcDbEntity
  8
0
100
AcDbLine
 62
4
  6
CONTINUOUS
 10
14.2437111411
 20
9.0930724332
 11
14.2437111411
 21
9.1593073455
  0
LINE
  5
30C
100
AcDbEntity
  8
0
100
AcDbLine
 62
4
  6
CONTINUOUS
 10
14.3058276593
 20
9.2193072982
 11
14.3058276593
 21
9.1530723859
  0
LINE
  5
30D
100
AcDbEntity
  8
0
100
AcDbLine
 62
4
  6
CONTINUOUS
 10
14.3058276593
 20
9.0592395865
 11
14.3058276593
 21
8.9433284831
  0
LINE
  5
30E
100
AcDbEntity
  8
0
100
AcDbLine
 62
4
  6
CONTINUOUS
 10
14.4090593966
 20
9.5453240912
 11
14.4090593966
 21
9.5122066488
  0
LINE
  5
30F
100
AcDbEntity
  8
0
100
AcDbLine
 62
4
  6
CONTINUOUS
 10
14.4238490438
 20
10.4372224496
 11
14.4238490438
 21
10.3709875321
  0
LINE
  5
310
100
AcDbEntity
  8
0
100
AcDbLine
 62
4
  6
CONTINUOUS
 10
14.4238490438
 20
10.2385177075
 11
14.4238490438
 21
10.1888415025
  0
LINE
  5
311
100
AcDbEntity
  8
0
100
AcDbLine
 62
4
  6
CONTINUOUS
 10
14.4238490438
 20
8.9193389477
 11
14.4238490438
 21
8.8365452866
  0
LINE
  5
312
100
AcDbEntity
  8
0
100
AcDbLine
 62
4
  6
CONTINUOUS
 10
14.4238490438
 20
8.3673813176
 11
14.4238490438
 21
8.3011464329
  0
LINE
  5
313
100
AcDbEntity
  8
0
100
AcDbLine
 62
4
  6
CONTINUOUS
 10
14.4238490438
 20
8.4501748681
 11
14.4238490438
 21
8.5164099739
  0
LINE
  5
314
100
AcDbEntity
  8
0
100
AcDbLine
 62
4
  6
CONTINUOUS
 10
14.4238490438
 20
8.7206341832
 11
14.4238490438
 21
8.7537516255
  0
LINE
  5
315
100
AcDbEntity
  8
0
100
AcDbLine
 62
4
  6
CONTINUOUS
 10
14.4238490438
 20
9.0021326088
 11
14.4238490438
 21
9.0683674935
  0
LINE
  5
316
100
AcDbEntity
  8
0
100
AcDbLine
 62
4
  6
CONTINUOUS
 10
14.4238490438
 20
9.3167484768
 11
14.4238490438
 21
9.3829833614
  0
LINE
  5
317
100
AcDbEntity
  8
0
100
AcDbLine
 62
4
  6
CONTINUOUS
 10
14.4460335151
 20
9.0897960485
 11
14.4460335151
 21
9.0235611639
  0
LINE
  5
318
100
AcDbEntity
  8
0
100
AcDbLine
 62
4
  6
CONTINUOUS
 10
14.4682179864
 20
9.7680542265
 11
14.4682179864
 21
9.6852605654
  0
LINE
  5
319
100
AcDbEntity
  8
0
100
AcDbLine
 62
4
  6
CONTINUOUS
 10
14.4682179864
 20
9.4258404715
 11
14.4682179864
 21
9.3596055869
  0
LINE
  5
31A
100
AcDbEntity
  8
0
100
AcDbLine
 62
4
  6
CONTINUOUS
 10
14.4682179864
 20
9.2933705917
 11
14.4682179864
 21
9.227135707
  0
LINE
  5
31B
100
AcDbEntity
  8
0
100
AcDbLine
 62
4
  6
CONTINUOUS
 10
14.4682179864
 20
8.559267084
 11
14.4682179864
 21
8.4930319782
  0
LINE
  5
31C
100
AcDbEntity
  8
0
100
AcDbLine
 62
4
  6
CONTINUOUS
 10
14.4682179864
 20
8.4102384277
 11
14.4682179864
 21
8.344003543
  0
LINE
  5
31D
100
AcDbEntity
  8
0
100
AcDbLine
 62
4
  6
CONTINUOUS
 10
14.4682179864
 20
9.0615483848
 11
14.4682179864
 21
9.1443420459
  0
LINE
  5
31E
100
AcDbEntity
  8
0
100
AcDbLine
 62
4
  6
CONTINUOUS
 10
14.485965562
 20
10.4806636725
 11
14.485965562
 21
10.4144287567
  0
LINE
  5
31F
100
AcDbEntity
  8
0
100
AcDbLine
 62
4
  6
CONTINUOUS
 10
14.485965562
 20
8.6812818089
 11
14.485965562
 21
8.6757622536
  0
LINE
  5
320
100
AcDbEntity
  8
0
100
AcDbLine
 62
4
  6
CONTINUOUS
 10
14.4445545505
 20
8.3211464178
 11
14.4475124798
 21
8.3902384428
  0
LINE
  5
321
100
AcDbEntity
  8
0
100
AcDbLine
 62
4
  6
CONTINUOUS
 10
14.4238490438
 20
9.3829833614
 11
14.4282859382
 21
9.4203865149
  0
LINE
  5
322
100
AcDbEntity
  8
0
100
AcDbLine
 62
4
  6
CONTINUOUS
 10
14.4238490438
 20
9.0683674935
 11
14.4282859382
 21
9.1057706469
  0
LINE
  5
323
100
AcDbEntity
  8
0
100
AcDbLine
 62
4
  6
CONTINUOUS
 10
14.4475124798
 20
8.3902384428
 11
14.450470409
 21
8.4096542492
  0
LINE
  5
324
100
AcDbEntity
  8
0
100
AcDbLine
 62
4
  6
CONTINUOUS
 10
14.4415966212
 20
8.3017306114
 11
14.4445545505
 21
8.3211464178
  0
LINE
  5
325
100
AcDbEntity
  8
0
100
AcDbLine
 62
4
  6
CONTINUOUS
 10
14.4282859382
 20
8.9401834352
 11
14.4238490438
 21
8.9193389477
  0
LINE
  5
326
100
AcDbEntity
  8
0
100
AcDbLine
 62
4
  6
CONTINUOUS
 10
14.4238490438
 20
8.7537516255
 11
14.4282859382
 21
8.774596113
  0
LINE
  5
327
100
AcDbEntity
  8
0
100
AcDbLine
 62
4
  6
CONTINUOUS
 10
14.4238490438
 20
8.5164099739
 11
14.4282859382
 21
8.5372543509
  0
LINE
  5
328
100
AcDbEntity
  8
0
100
AcDbLine
 62
4
  6
CONTINUOUS
 10
14.4282859382
 20
8.3882256946
 11
14.4238490438
 21
8.3673813176
  0
LINE
  5
329
100
AcDbEntity
  8
0
100
AcDbLine
 62
4
  6
CONTINUOUS
 10
14.4682179864
 20
8.344003543
 11
14.4637810907
 21
8.3231591647
  0
LINE
  5
32A
100
AcDbEntity
  8
0
100
AcDbLine
 62
7
  6
CONTINUOUS
 10
12.1255378194
 20
4.7343714401
 11
14.5843167187
 21
7.1093696207
  0
LINE
  5
32B
100
AcDbEntity
  8
0
100
AcDbLine
 62
7
  6
CONTINUOUS
 10
13.631858514
 20
10.7389965668
 11
13.6051483454
 21
10.771838115
  0
LINE
  5
32C
100
AcDbEntity
  8
0
100
AcDbLine
 62
4
  6
CONTINUOUS
 10
14.4637810907
 20
8.4225113811
 11
14.4682179864
 21
8.4102384277
  0
LINE
  5
32D
100
AcDbEntity
  8
0
100
AcDbLine
 62
4
  6
CONTINUOUS
 10
14.4637810907
 20
8.5715400374
 11
14.4682179864
 21
8.559267084
  0
LINE
  5
32E
100
AcDbEntity
  8
0
100
AcDbLine
 62
4
  6
CONTINUOUS
 10
14.2969538715
 20
9.2438533468
 11
14.3058276593
 21
9.2193072982
  0
LINE
  5
32F
100
AcDbEntity
  8
0
100
AcDbLine
 62
4
  6
CONTINUOUS
 10
14.1159285899
 20
9.7865412165
 11
14.1070548012
 21
9.8110872504
  0
LINE
  5
330
100
AcDbEntity
  8
0
100
AcDbLine
 62
4
  6
CONTINUOUS
 10
14.1455078852
 20
9.9751803282
 11
14.1336761663
 21
10.052064988
  0
LINE
  5
331
100
AcDbEntity
  8
0
100
AcDbLine
 62
4
  6
CONTINUOUS
 10
14.4415966212
 20
9.1186277802
 11
14.4460335151
 21
9.0897960485
  0
LINE
  5
332
100
AcDbEntity
  8
0
100
AcDbLine
 62
7
  6
CONTINUOUS
 10
14.5843167187
 20
11.9389990384
 11
14.5843167187
 21
7.1093696207
  0
LINE
  5
333
100
AcDbEntity
  8
0
100
AcDbLine
 62
7
  6
CONTINUOUS
 10
9.8744621806
 20
12.2656285599
 11
14.5843167187
 21
11.9389990384
  0
LINE
  5
334
100
AcDbEntity
  8
0
100
AcDbLine
 62
4
  6
CONTINUOUS
 10
14.4238490438
 20
10.1888415025
 11
14.4327228325
 21
10.1642954824
  0
LINE
  5
335
100
AcDbEntity
  8
0
100
AcDbLine
 62
4
  6
CONTINUOUS
 10
14.4238490438
 20
10.3709875321
 11
14.4327228325
 21
10.3464414981
  0
LINE
  5
336
100
AcDbEntity
  8
0
100
AcDbLine
 62
4
  6
CONTINUOUS
 10
14.4637810907
 20
9.4546722014
 11
14.4682179864
 21
9.4258404715
  0
LINE
  5
337
100
AcDbEntity
  8
0
100
AcDbLine
 62
4
  6
CONTINUOUS
 10
14.4770917742
 20
10.5052097108
 11
14.485965562
 21
10.4806636725
  0
ARC
  5
338
100
AcDbEntity
  8
0
100
AcDbCircle
 62
7
  6
CONTINUOUS
 10
9.1277012617
 20
9.5495502982
 40
0.5410528183
100
AcDbArc
 50
177.8266155502
 51
180.0005703096
  0
ARC
  5
339
100
AcDbEntity
  8
0
100
AcDbCircle
 62
7
  6
CONTINUOUS
 10
9.1277012617
 20
7.134735647
 40
0.5410528183
100
AcDbArc
 50
177.8266155502
 51
180.0005703096
  0
ARC
  5
33A
100
AcDbEntity
  8
0
100
AcDbCircle
 62
7
  6
CONTINUOUS
 10
10.7533816892
 20
8.8833971005
 40
0.4905285445
100
AcDbArc
 50
314.0079595978
 51
320.9194365638
  0
ARC
  5
33B
100
AcDbEntity
  8
0
100
AcDbCircle
 62
7
  6
CONTINUOUS
 10
10.6951894826
 20
8.912857367
 40
0.2111046379
100
AcDbArc
 50
0.0000161697
 51
0.1942870741
  0
ARC
  5
33C
100
AcDbEntity
  8
0
100
AcDbCircle
 62
7
  6
CONTINUOUS
 10
10.6765944677
 20
8.9455994387
 40
0.1934361971
100
AcDbArc
 50
116.670196073
 51
116.9298134186
  0
ARC
  5
33D
100
AcDbEntity
  8
0
100
AcDbCircle
 62
7
  6
CONTINUOUS
 10
10.7597504313
 20
9.0221224848
 40
0.1651298769
100
AcDbArc
 50
144.2241106635
 51
148.9755858344
  0
SPLINE
  5
33E
100
AcDbEntity
  8
0
100
AcDbSpline
 62
7
  6
CONTINUOUS
 70
0
 71
3
 72
51
 73
47
 74
0
 42
0.0000001
 43
0.0000001
 44
0.0000000001
 40
0.0
 40
0.0
 40
0.0
 40
0.0
 40
0.0076479094
 40
0.0158893423
 40
0.0247404381
 40
0.0342110478
 40
0.0443062054
 40
0.0550262338
 40
0.0663678318
 40
0.0783253192
 40
0.0908911114
 40
0.104053973
 40
0.1177988645
 40
0.1321096001
 40
0.1623578
 40
0.1946409547
 40
0.2287793342
 40
0.2645763993
 40
0.3018184817
 40
0.3402820124
 40
0.3797304723
 40
0.4199219543
 40
0.4606063028
 40
0.5015310078
 40
0.5424409274
 40
0.5830808676
 40
0.6231987916
 40
0.6625451213
 40
0.7008786465
 40
0.7379641813
 40
0.7735790982
 40
0.8075119806
 40
0.8395673716
 40
0.8695683306
 40
0.8837487003
 40
0.897359464
 40
0.910385206
 40
0.9228115898
 40
0.9346272652
 40
0.9458248285
 40
0.9563989656
 40
0.9663468307
 40
0.9756697242
 40
0.9843758673
 40
0.9924791127
 40
1.0
 40
1.0
 40
1.0
 40
1.0
 10
13.5457695902
 20
10.3965684116
 30
0.0
 10
13.5446852649
 20
10.3955210337
 30
0.0
 10
13.5425207764
 20
10.3932524991
 30
0.0
 10
13.5393971644
 20
10.3895034813
 30
0.0
 10
13.5362830919
 20
10.3852906988
 30
0.0
 10
13.5331845433
 20
10.3806216615
 30
0.0
 10
13.5301076151
 20
10.3755036448
 30
0.0
 10
13.5270571793
 20
10.3699454536
 30
0.0
 10
13.5240377662
 20
10.3639564114
 30
0.0
 10
13.5210541429
 20
10.3575459516
 30
0.0
 10
13.5181113579
 20
10.3507239426
 30
0.0
 10
13.5152142139
 20
10.3435014763
 30
0.0
 10
13.5123671404
 20
10.3358908207
 30
0.0
 10
13.5085739788
 20
10.3250410782
 30
0.0
 10
13.5040130244
 20
10.3105926818
 30
0.0
 10
13.4989084499
 20
10.2922301111
 30
0.0
 10
13.4941108521
 20
10.2726571112
 30
0.0
 10
13.4896527248
 20
10.2520033101
 30
0.0
 10
13.4855632935
 20
10.2304052536
 30
0.0
 10
13.4818712549
 20
10.2080061341
 30
0.0
 10
13.4785998021
 20
10.1849545085
 30
0.0
 10
13.4757726317
 20
10.1614033153
 30
0.0
 10
13.4734066621
 20
10.1375089502
 30
0.0
 10
13.4715197552
 20
10.1134299627
 30
0.0
 10
13.4701223719
 20
10.089326381
 30
0.0
 10
13.4692257811
 20
10.0653580907
 30
0.0
 10
13.4688339879
 20
10.0416844313
 30
0.0
 10
13.4689511063
 20
10.0184623622
 30
0.0
 10
13.469574802
 20
9.9958462001
 30
0.0
 10
13.4707016738
 20
9.9739857886
 30
0.0
 10
13.4723232957
 20
9.953026195
 30
0.0
 10
13.4744285497
 20
9.933105987
 30
0.0
 10
13.4770034397
 20
9.914357178
 30
0.0
 10
13.4795704416
 20
9.8995460288
 30
0.0
 10
13.4818642429
 20
9.8883864887
 30
0.0
 10
13.4836578574
 20
9.8805423264
 30
0.0
 10
13.4855540316
 20
9.873078477
 30
0.0
 10
13.4875499745
 20
9.8660075567
 30
0.0
 10
13.4896425699
 20
9.8593412853
 30
0.0
 10
13.4918278294
 20
9.8530901763
 30
0.0
 10
13.4941020816
 20
9.847264228
 30
0.0
 10
13.496461767
 20
9.8418731389
 30
0.0
 10
13.4989036717
 20
9.8369259514
 30
0.0
 10
13.5014235312
 20
9.8324299482
 30
0.0
 10
13.5040172018
 20
9.8283921336
 30
0.0
 10
13.505860229
 20
9.8259201886
 30
0.0
 10
13.5067957234
 20
9.8247700827
 30
0.0
  0
SPLINE
  5
33F
100
AcDbEntity
  8
0
100
AcDbSpline
 62
7
  6
CONTINUOUS
 70
0
 71
3
 72
13
 73
9
 74
0
 42
0.0000001
 43
0.0000001
 44
0.0000000001
 40
0.0
 40
0.0
 40
0.0
 40
0.0
 40
0.2698085008
 40
0.5278890716
 40
0.6518692545
 40
0.7720769954
 40
0.8882197149
 40
1.0
 40
1.0
 40
1.0
 40
1.0
 10
13.5750856677
 20
10.3878119186
 30
0.0
 10
13.5707754222
 20
10.3865538734
 30
0.0
 10
13.5623658544
 20
10.3840105043
 30
0.0
 10
13.5520618797
 20
10.3806123408
 30
0.0
 10
13.5441886774
 20
10.3778042086
 30
0.0
 10
13.5385777156
 20
10.3756875603
 30
0.0
 10
13.5332000173
 20
10.3735311555
 30
0.0
 10
13.5297133007
 20
10.3720366078
 30
0.0
 10
13.5280138246
 20
10.3712801673
 30
0.0
  0
SPLINE
  5
340
100
AcDbEntity
  8
0
100
AcDbSpline
 62
7
  6
CONTINUOUS
 70
0
 71
3
 72
57
 73
53
 74
0
 42
0.0000001
 43
0.0000001
 44
0.0000000001
 40
0.0
 40
0.0
 40
0.0
 40
0.0
 40
0.0075206938
 40
0.0156241014
 40
0.0243315401
 40
0.0336555214
 40
0.0436031767
 40
0.0541774702
 40
0.0653760278
 40
0.077192624
 40
0.0896190592
 40
0.1026449487
 40
0.1162562121
 40
0.1304371569
 40
0.1451712296
 40
0.1604399192
 40
0.1762222695
 40
0.1924966817
 40
0.2092410023
 40
0.2264310861
 40
0.2620456537
 40
0.2991316772
 40
0.3374645182
 40
0.376811015
 40
0.4169281429
 40
0.4575678171
 40
0.4984769648
 40
0.5394009943
 40
0.58008463
 40
0.6202751746
 40
0.6597229417
 40
0.698185461
 40
0.7354267501
 40
0.7712228899
 40
0.7885119832
 40
0.8053614336
 40
0.8217469981
 40
0.8376449349
 40
0.8530336786
 40
0.8678932336
 40
0.8822041759
 40
0.8959483276
 40
0.9091104961
 40
0.9216769731
 40
0.9336352807
 40
0.944976123
 40
0.9556945877
 40
0.965788291
 40
0.9752579131
 40
0.9841085552
 40
0.9923504306
 40
1.0
 40
1.0
 40
1.0
 40
1.0
 10
13.6318606251
 20
10.7389931759
 30
0.0
 10
13.6339266523
 20
10.7364527902
 30
0.0
 10
13.6379977083
 20
10.730993126
 30
0.0
 10
13.6437264784
 20
10.7220739054
 30
0.0
 10
13.6492911416
 20
10.7121414807
 30
0.0
 10
13.6546839774
 20
10.7012130098
 30
0.0
 10
13.6598966528
 20
10.6893052822
 30
0.0
 10
13.6649197281
 20
10.6764366972
 30
0.0
 10
13.6697456385
 20
10.6626283372
 30
0.0
 10
13.6743669758
 20
10.6479031156
 30
0.0
 10
13.6787757075
 20
10.6322847839
 30
0.0
 10
13.6829636754
 20
10.615798635
 30
0.0
 10
13.6869248166
 20
10.5984722241
 30
0.0
 10
13.6906526191
 20
10.5803343494
 30
0.0
 10
13.6941402353
 20
10.561414636
 30
0.0
 10
13.6973815966
 20
10.5417443214
 30
0.0
 10
13.7003720462
 20
10.521356335
 30
0.0
 10
13.7031064725
 20
10.5002844934
 30
0.0
 10
13.7055796017
 20
10.4785634383
 30
0.0
 10
13.7085586062
 20
10.4484283324
 30
0.0
 10
13.7115779811
 20
10.4094020107
 30
0.0
 10
13.7140655048
 20
10.3611182236
 30
0.0
 10
13.7154437598
 20
10.3111647735
 30
0.0
 10
13.7157007836
 20
10.2598736345
 30
0.0
 10
13.7148362533
 20
10.2075848394
 30
0.0
 10
13.7128543614
 20
10.1546457623
 30
0.0
 10
13.7097686984
 20
10.101407707
 30
0.0
 10
13.7055997627
 20
10.048224308
 30
0.0
 10
13.7003745461
 20
9.9954486179
 30
0.0
 10
13.6941292636
 20
9.9434310589
 30
0.0
 10
13.6869037363
 20
9.8925169486
 30
0.0
 10
13.678748702
 20
9.8430439995
 30
0.0
 10
13.6697161075
 20
9.79534075
 30
0.0
 10
13.66141765
 20
9.756893496
 30
0.0
 10
13.6543655282
 20
9.72727146
 30
0.0
 10
13.6489579405
 20
9.705947798
 30
0.0
 10
13.6433798025
 20
9.6852948423
 30
0.0
 10
13.637639665
 20
9.6653472005
 30
0.0
 10
13.6317473514
 20
9.6461378038
 30
0.0
 10
13.6257131339
 20
9.6276980728
 30
0.0
 10
13.6195469134
 20
9.6100587344
 30
0.0
 10
13.6132581631
 20
9.5932494076
 30
0.0
 10
13.6068582248
 20
9.5772974891
 30
0.0
 10
13.6003581579
 20
9.5622290968
 30
0.0
 10
13.5937683877
 20
9.5480694956
 30
0.0
 10
13.5870992441
 20
9.5348419366
 30
0.0
 10
13.5803620375
 20
9.52256693
 30
0.0
 10
13.5735673403
 20
9.5112636903
 30
0.0
 10
13.5667249682
 20
9.5009514374
 30
0.0
 10
13.5598468929
 20
9.4916468848
 30
0.0
 10
13.552946771
 20
9.4833660114
 30
0.0
 10
13.5481651123
 20
9.4783549414
 30
0.0
 10
13.5457695902
 20
9.4760410446
 30
0.0
  0
SPLINE
  5
341
100
AcDbEntity
  8
0
100
AcDbSpline
 62
7
  6
CONTINUOUS
 70
0
 71
3
 72
16
 73
12
 74
0
 42
0.0000001
 43
0.0000001
 44
0.0000000001
 40
0.0
 40
0.0
 40
0.0
 40
0.0
 40
0.1491769314
 40
0.2895973161
 40
0.4219490506
 40
0.48537778
 40
0.5471266964
 40
0.666107749
 40
0.7802246869
 40
0.8909748487
 40
1.0
 40
1.0
 40
1.0
 40
1.0
 10
13.513179035
 20
9.4456810636
 30
0.0
 10
13.5113008699
 20
9.4439332713
 30
0.0
 10
13.5075458459
 20
9.4406540908
 30
0.0
 10
13.5017385884
 20
9.4362910798
 30
0.0
 10
13.4968368751
 20
9.4332084419
 30
0.0
 10
13.4929283557
 20
9.4311216624
 30
0.0
 10
13.4891297705
 20
9.4293286063
 30
0.0
 10
13.4843805917
 20
9.4275207034
 30
0.0
 10
13.4786358451
 20
9.4260596933
 30
0.0
 10
13.4729243075
 20
9.4253373956
 30
0.0
 10
13.4691318798
 20
9.4253507477
 30
0.0
 10
13.4672613183
 20
9.4254804359
 30
0.0
  0
SPLINE
  5
342
100
AcDbEntity
  8
0
100
AcDbSpline
 62
7
  6
CONTINUOUS
 70
0
 71
3
 72
16
 73
12
 74
0
 42
0.0000001
 43
0.0000001
 44
0.0000000001
 40
0.0
 40
0.0
 40
0.0
 40
0.0
 40
0.1090299121
 40
0.2197874449
 40
0.3339055687
 40
0.4528620072
 40
0.5145856865
 40
0.5779866132
 40
0.7103007537
 40
0.8507367287
 40
1.0
 40
1.0
 40
1.0
 40
1.0
 10
13.5624586056
 20
10.7981835925
 30
0.0
 10
13.564329261
 20
10.7980538978
 30
0.0
 10
13.5680875035
 20
10.7975436692
 30
0.0
 10
13.5736446315
 20
10.7960386302
 30
0.0
 10
13.5791321182
 20
10.7937979326
 30
0.0
 10
13.5835858755
 20
10.7913528423
 30
0.0
 10
13.5871002445
 20
10.7890544715
 30
0.0
 10
13.5906828558
 20
10.7864501371
 30
0.0
 10
13.595111907
 20
10.782721319
 30
0.0
 10
13.6002613994
 20
10.777596871
 30
0.0
 10
13.6035284678
 20
10.7738289591
 30
0.0
 10
13.6051482478
 20
10.7718374012
 30
0.0
  0
SPLINE
  5
343
100
AcDbEntity
  8
0
100
AcDbSpline
 62
7
  6
CONTINUOUS
 70
0
 71
3
 72
63
 73
59
 74
0
 42
0.0000001
 43
0.0000001
 44
0.0000000001
 40
0.0
 40
0.0
 40
0.0
 40
0.0
 40
0.0086004066
 40
0.0180006849
 40
0.0282235439
 40
0.0392808046
 40
0.0511752622
 40
0.0639021651
 40
0.0774520839
 40
0.0918113379
 40
0.1069584115
 40
0.1228677473
 40
0.1395121561
 40
0.1568611888
 40
0.174879905
 40
0.1935321619
 40
0.212780813
 40
0.2325850871
 40
0.2736872338
 40
0.3164860025
 40
0.3606035913
 40
0.4056492914
 40
0.4512197712
 40
0.4969070084
 40
0.5423005376
 40
0.5869945363
 40
0.6305894699
 40
0.6727008411
 40
0.712959374
 40
0.7510208664
 40
0.7691277982
 40
0.7865699772
 40
0.803312502
 40
0.8193232889
 40
0.8345753823
 40
0.8490438754
 40
0.8627061845
 40
0.8755462086
 40
0.8875537661
 40
0.8987230373
 40
0.9090555628
 40
0.91856534
 40
0.9272776946
 40
0.9352326038
 40
0.9424928644
 40
0.9491493438
 40
0.9553242039
 40
0.9582819501
 40
0.961181384
 40
0.9640470391
 40
0.9669043239
 40
0.969778876
 40
0.9726958879
 40
0.975679489
 40
0.9787521909
 40
0.9852375144
 40
0.9922879865
 40
1.0
 40
1.0
 40
1.0
 40
1.0
 10
13.5457695902
 20
9.8228084368
 30
0.0
 10
13.5470807558
 20
9.8240749256
 30
0.0
 10
13.5496952662
 20
9.8268616034
 30
0.0
 10
13.5534382381
 20
9.831534168
 30
0.0
 10
13.5571640756
 20
9.8368690717
 30
0.0
 10
13.5608620112
 20
9.8428535653
 30
0.0
 10
13.5645230489
 20
9.8494737125
 30
0.0
 10
13.5681396238
 20
9.8567135378
 30
0.0
 10
13.5717033999
 20
9.8645568426
 30
0.0
 10
13.5752055081
 20
9.8729859574
 30
0.0
 10
13.5786382688
 20
9.8819807541
 30
0.0
 10
13.5819935509
 20
9.8915196262
 30
0.0
 10
13.5852627117
 20
9.9015801748
 30
0.0
 10
13.5884375478
 20
9.9121385476
 30
0.0
 10
13.5915111297
 20
9.9231692068
 30
0.0
 10
13.5944760005
 20
9.9346458584
 30
0.0
 10
13.5973244738
 20
9.9465414404
 30
0.0
 10
13.6010040823
 20
9.9631286112
 30
0.0
 10
13.6052498302
 20
9.9846999206
 30
0.0
 10
13.6097208553
 20
10.0114673588
 30
0.0
 10
13.6135874692
 20
10.0391728732
 30
0.0
 10
13.6168110528
 20
10.067551666
 30
0.0
 10
13.6193611615
 20
10.0963328131
 30
0.0
 10
13.6212134045
 20
10.1252411446
 30
0.0
 10
13.6223493112
 20
10.154000598
 30
0.0
 10
13.6227596232
 20
10.1823361666
 30
0.0
 10
13.6224389065
 20
10.2099773622
 30
0.0
 10
13.6213928496
 20
10.236660207
 30
0.0
 10
13.6196300531
 20
10.2621299975
 30
0.0
 10
13.617547489
 20
10.282467127
 30
0.0
 10
13.6155152254
 20
10.2979376707
 30
0.0
 10
13.6138504302
 20
10.3088965533
 30
0.0
 10
13.612023463
 20
10.3193789323
 30
0.0
 10
13.6100381724
 20
10.3293597204
 30
0.0
 10
13.6079001264
 20
10.3388154847
 30
0.0
 10
13.60561465
 20
10.347723877
 30
0.0
 10
13.6031864638
 20
10.3560634647
 30
0.0
 10
13.6006215912
 20
10.363814737
 30
0.0
 10
13.5979267845
 20
10.3709600783
 30
0.0
 10
13.5951081668
 20
10.3774828697
 30
0.0
 10
13.5921711534
 20
10.3833677791
 30
0.0
 10
13.5891229668
 20
10.3886023106
 30
0.0
 10
13.5859698017
 20
10.3931755671
 30
0.0
 10
13.5827159172
 20
10.397076826
 30
0.0
 10
13.5793649133
 20
10.4002967274
 30
0.0
 10
13.5759219179
 20
10.4028267315
 30
0.0
 10
13.5729336472
 20
10.4043722208
 30
0.0
 10
13.570527172
 20
10.4052263154
 30
0.0
 10
13.5687318122
 20
10.4056798754
 30
0.0
 10
13.5669220859
 20
10.4059548113
 30
0.0
 10
13.565099357
 20
10.4060509416
 30
0.0
 10
13.5632651284
 20
10.4059681516
 30
0.0
 10
13.5614208615
 20
10.4057065231
 30
0.0
 10
13.5595678286
 20
10.4052662273
 30
0.0
 10
13.5570425458
 20
10.4044264554
 30
0.0
 10
13.5538532812
 20
10.4029001509
 30
0.0
 10
13.5500918524
 20
10.4004029938
 30
0.0
 10
13.5476988154
 20
10.3983760778
 30
0.0
 10
13.5465019382
 20
10.3972627258
 30
0.0
  0
SPLINE
  5
344
100
AcDbEntity
  8
0
100
AcDbSpline
 62
7
  6
CONTINUOUS
 70
0
 71
3
 72
23
 73
19
 74
0
 42
0.0000001
 43
0.0000001
 44
0.0000000001
 40
0.0
 40
0.0
 40
0.0
 40
0.0
 40
0.074268336
 40
0.144063996
 40
0.2097651649
 40
0.2718372069
 40
0.3308445251
 40
0.3874574953
 40
0.442452966
 40
0.4966870178
 40
0.551052246
 40
0.6064353138
 40
0.6636760912
 40
0.723525645
 40
0.7866121066
 40
0.8534536872
 40
0.9244708493
 40
1.0
 40
1.0
 40
1.0
 40
1.0
 10
13.5067957234
 20
9.8247700827
 30
0.0
 10
13.5075071078
 20
9.8238954998
 30
0.0
 10
13.508942291
 20
9.8222426766
 30
0.0
 10
13.511206919
 20
9.8199996524
 30
0.0
 10
13.5135120831
 20
9.8180748452
 30
0.0
 10
13.5158558797
 20
9.8164708902
 30
0.0
 10
13.518236427
 20
9.8151906389
 30
0.0
 10
13.5206515673
 20
9.8142376606
 30
0.0
 10
13.5230980513
 20
9.8136148911
 30
0.0
 10
13.5255716744
 20
9.8133238278
 30
0.0
 10
13.5280678514
 20
9.8133652652
 30
0.0
 10
13.5305820104
 20
9.8137388565
 30
0.0
 10
13.53310998
 20
9.8144435797
 30
0.0
 10
13.5356480517
 20
9.8154771763
 30
0.0
 10
13.5381935338
 20
9.8168357461
 30
0.0
 10
13.5407438151
 20
9.8185161874
 30
0.0
 10
13.5432961889
 20
9.820515568
 30
0.0
 10
13.5449449586
 20
9.8220119037
 30
0.0
 10
13.5457695902
 20
9.8228084368
 30
0.0
  0
SPLINE
  5
345
100
AcDbEntity
  8
0
100
AcDbSpline
 62
7
  6
CONTINUOUS
 70
0
 71
3
 72
15
 73
11
 74
0
 42
0.0000001
 43
0.0000001
 44
0.0000000001
 40
0.0
 40
0.0
 40
0.0
 40
0.0
 40
0.1100563345
 40
0.2219596939
 40
0.3369704035
 40
0.4563513173
 40
0.5813426279
 40
0.7130499011
 40
0.8523530408
 40
1.0
 40
1.0
 40
1.0
 40
1.0
 10
13.4915772043
 20
9.8545585513
 30
0.0
 10
13.4916194697
 20
9.8552694529
 30
0.0
 10
13.4917803187
 20
9.8566998933
 30
0.0
 10
13.4922559186
 20
9.858831972
 30
0.0
 10
13.4929743689
 20
9.8609588659
 30
0.0
 10
13.493941996
 20
9.8630777693
 30
0.0
 10
13.4951652784
 20
9.8651856663
 30
0.0
 10
13.4966476808
 20
9.8672796849
 30
0.0
 10
13.4983891152
 20
9.8693582575
 30
0.0
 10
13.499683898
 20
9.8706915903
 30
0.0
 10
13.5003710737
 20
9.8713553511
 30
0.0
  0
SPLINE
  5
346
100
AcDbEntity
  8
0
100
AcDbSpline
 62
7
  6
CONTINUOUS
 70
0
 71
3
 72
20
 73
16
 74
0
 42
0.0000001
 43
0.0000001
 44
0.0000000001
 40
0.0
 40
0.0
 40
0.0
 40
0.0
 40
0.042522867
 40
0.0879822098
 40
0.1364348703
 40
0.1878933464
 40
0.2423073998
 40
0.2995935928
 40
0.3596445314
 40
0.4223237846
 40
0.4874786173
 40
0.5549493343
 40
0.6962289999
 40
0.8449497461
 40
1.0
 40
1.0
 40
1.0
 40
1.0
 10
13.5003710737
 20
9.8713553511
 30
0.0
 10
13.5012122412
 20
9.8721678566
 30
0.0
 10
13.5030188134
 20
9.8737812922
 30
0.0
 10
13.5059756707
 20
9.8760948964
 30
0.0
 10
13.5092598367
 20
9.8783783684
 30
0.0
 10
13.5128608383
 20
9.8806277821
 30
0.0
 10
13.5167645715
 20
9.882843017
 30
0.0
 10
13.5209562301
 20
9.885022804
 30
0.0
 10
13.5254201836
 20
9.8871657809
 30
0.0
 10
13.5301393467
 20
9.8892722303
 30
0.0
 10
13.5350964158
 20
9.8913422069
 30
0.0
 10
13.542108698
 20
9.8940960293
 30
0.0
 10
13.5513603908
 20
9.8974283902
 30
0.0
 10
13.5629934292
 20
9.9012393662
 30
0.0
 10
13.5709921478
 20
9.9036541881
 30
0.0
 10
13.5750856677
 20
9.9048489768
 30
0.0
  0
SPLINE
  5
347
100
AcDbEntity
  8
0
100
AcDbSpline
 62
7
  6
CONTINUOUS
 70
0
 71
3
 72
25
 73
21
 74
0
 42
0.0000001
 43
0.0000001
 44
0.0000000001
 40
0.0
 40
0.0
 40
0.0
 40
0.0
 40
0.1279425473
 40
0.1917579223
 40
0.2554080094
 40
0.3188697189
 40
0.3505212739
 40
0.3821092145
 40
0.4136323806
 40
0.4450875537
 40
0.5077647137
 40
0.5701387126
 40
0.6012203941
 40
0.6322275139
 40
0.6940248984
 40
0.7555767291
 40
0.8169123492
 40
0.878080316
 40
0.9391019228
 40
1.0
 40
1.0
 40
1.0
 40
1.0
 10
13.6124429483
 20
10.1824148119
 30
0.0
 10
13.6055724526
 20
10.1720028858
 30
0.0
 10
13.5957804989
 20
10.1560466849
 30
0.0
 10
13.5841781849
 20
10.1340035251
 30
0.0
 10
13.5763410525
 20
10.1171083837
 30
0.0
 10
13.5706352432
 20
10.1027077518
 30
0.0
 10
13.5666336819
 20
10.091018411
 30
0.0
 10
13.5639312797
 20
10.0821811709
 30
0.0
 10
13.5615425418
 20
10.0732736395
 30
0.0
 10
13.5587933275
 20
10.0613324463
 30
0.0
 10
13.5561813479
 20
10.0462829215
 30
0.0
 10
13.5547222293
 20
10.0311145587
 30
0.0
 10
13.5542338048
 20
10.0189868772
 30
0.0
 10
13.5541916129
 20
10.0069055786
 30
0.0
 10
13.5549523718
 20
9.9918617025
 30
0.0
 10
13.5570591131
 20
9.9739665316
 30
0.0
 10
13.5602444409
 20
9.9562957606
 30
0.0
 10
13.5643732593
 20
9.9388768344
 30
0.0
 10
13.5693218905
 20
9.9217192429
 30
0.0
 10
13.5730976555
 20
9.9104438629
 30
0.0
 10
13.5750856677
 20
9.9048489768
 30
0.0
  0
SPLINE
  5
348
100
AcDbEntity
  8
0
100
AcDbSpline
 62
7
  6
CONTINUOUS
 70
0
 71
3
 72
28
 73
24
 74
0
 42
0.0000001
 43
0.0000001
 44
0.0000000001
 40
0.0
 40
0.0
 40
0.0
 40
0.0
 40
0.0573235499
 40
0.1144478612
 40
0.1714705345
 40
0.228539411
 40
0.2571692763
 40
0.2859057363
 40
0.3438219073
 40
0.3731058123
 40
0.4026590159
 40
0.4627025824
 40
0.5242565139
 40
0.55566581
 40
0.5875071459
 40
0.6197859503
 40
0.6525001235
 40
0.6856394178
 40
0.7191868719
 40
0.7874381702
 40
0.8571126283
 40
0.9280239753
 40
1.0
 40
1.0
 40
1.0
 40
1.0
 10
13.5750856677
 20
10.3878119186
 30
0.0
 10
13.5731037031
 20
10.3840110306
 30
0.0
 10
13.5693365493
 20
10.3763209616
 30
0.0
 10
13.5643827564
 20
10.3644850277
 30
0.0
 10
13.5602477835
 20
10.3523563096
 30
0.0
 10
13.5575914789
 20
10.3420059379
 30
0.0
 10
13.556007475
 20
10.333593743
 30
0.0
 10
13.5547979245
 20
10.3250560225
 30
0.0
 10
13.5541907944
 20
10.31639137
 30
0.0
 10
13.5542344799
 20
10.3076577219
 30
0.0
 10
13.5547267012
 20
10.2987782436
 30
0.0
 10
13.556205543
 20
10.2875519993
 30
0.0
 10
13.5588184198
 20
10.276393947
 30
0.0
 10
13.5615553461
 20
10.2674690641
 30
0.0
 10
13.5639460972
 20
10.2607349454
 30
0.0
 10
13.5666499114
 20
10.2540154655
 30
0.0
 10
13.5696499618
 20
10.2473166471
 30
0.0
 10
13.5729304837
 20
10.2406449217
 30
0.0
 10
13.577684991
 20
10.2317429309
 30
0.0
 10
13.5842531429
 20
10.2207211061
 30
0.0
 10
13.5929447037
 20
10.2077397242
 30
0.0
 10
13.6023694322
 20
10.1949346351
 30
0.0
 10
13.6090252599
 20
10.1865727594
 30
0.0
 10
13.6124429483
 20
10.1824148119
 30
0.0
  0
SPLINE
  5
349
100
AcDbEntity
  8
0
100
AcDbSpline
 62
7
  6
CONTINUOUS
 70
0
 71
3
 72
85
 73
81
 74
0
 42
0.0000001
 43
0.0000001
 44
0.0000000001
 40
0.0
 40
0.0
 40
0.0
 40
0.0
 40
0.0039460569
 40
0.0077168218
 40
0.0113216028
 40
0.0147714202
 40
0.0180792332
 40
0.0212601527
 40
0.024331883
 40
0.0273148494
 40
0.0302314645
 40
0.0331057523
 40
0.0359628666
 40
0.0388284778
 40
0.0417280314
 40
0.0446858833
 40
0.0477247907
 40
0.0508655772
 40
0.0541269529
 40
0.0575254834
 40
0.0610755605
 40
0.0647892172
 40
0.0686765564
 40
0.0727460621
 40
0.077004822
 40
0.0814587302
 40
0.0861125649
 40
0.0909697297
 40
0.0960326959
 40
0.1013032715
 40
0.1067827044
 40
0.112471769
 40
0.124478416
 40
0.1373182061
 40
0.150979478
 40
0.1654467045
 40
0.1806980343
 40
0.1967081183
 40
0.2134496107
 40
0.2308905882
 40
0.2489965726
 40
0.2677319647
 40
0.2870577523
 40
0.3069328863
 40
0.3273156626
 40
0.3481619067
 40
0.3694258102
 40
0.4130192155
 40
0.457710883
 40
0.4803450664
 40
0.503103594
 40
0.5487887963
 40
0.5943575721
 40
0.6169708238
 40
0.6394022577
 40
0.6835182819
 40
0.7051061543
 40
0.7263162166
 40
0.7471018482
 40
0.7674183933
 40
0.7872216716
 40
0.8064692497
 40
0.8251215173
 40
0.8431396733
 40
0.860487112
 40
0.8771311168
 40
0.8930403788
 40
0.9081863073
 40
0.9225452759
 40
0.9360961751
 40
0.948822219
 40
0.9607147307
 40
0.9663475907
 40
0.9717712951
 40
0.9769864538
 40
0.9819943089
 40
0.9867966875
 40
0.9913960821
 40
0.995795777
 40
1.0
 40
1.0
 40
1.0
 40
1.0
 10
13.5441560734
 20
9.4745112153
 30
0.0
 10
13.5428034235
 20
9.4732527807
 30
0.0
 10
13.5400987332
 20
9.4708545524
 30
0.0
 10
13.5359479699
 20
9.4675535211
 30
0.0
 10
13.5318005258
 20
9.4646347196
 30
0.0
 10
13.5276591023
 20
9.4621005812
 30
0.0
 10
13.5235262561
 20
9.459953501
 30
0.0
 10
13.5194044416
 20
9.458196124
 30
0.0
 10
13.5152961193
 20
9.456830806
 30
0.0
 10
13.5112040779
 20
9.4558584794
 30
0.0
 10
13.5071310039
 20
9.4552800984
 30
0.0
 10
13.5030798745
 20
9.4550964534
 30
0.0
 10
13.4990538968
 20
9.4553080669
 30
0.0
 10
13.4950564109
 20
9.4559151522
 30
0.0
 10
13.4910908236
 20
9.4569172778
 30
0.0
 10
13.4871601115
 20
9.4583125276
 30
0.0
 10
13.4832669561
 20
9.4600990036
 30
0.0
 10
13.4794137535
 20
9.4622747964
 30
0.0
 10
13.4756026754
 20
9.4648381237
 30
0.0
 10
13.4718358119
 20
9.4677873525
 30
0.0
 10
13.4681153431
 20
9.4711207485
 30
0.0
 10
13.4644428299
 20
9.4748356261
 30
0.0
 10
13.460820048
 20
9.4789293921
 30
0.0
 10
13.457248848
 20
9.4833994808
 30
0.0
 10
13.4537311424
 20
9.4882433767
 30
0.0
 10
13.4502689166
 20
9.4934585455
 30
0.0
 10
13.4468643617
 20
9.4990422164
 30
0.0
 10
13.4435191419
 20
9.5049908638
 30
0.0
 10
13.4402350827
 20
9.5113007312
 30
0.0
 10
13.4370140921
 20
9.5179679921
 30
0.0
 10
13.4338580282
 20
9.5249888251
 30
0.0
 10
13.4296636269
 20
9.5349968577
 30
0.0
 10
13.4246170077
 20
9.5483786414
 30
0.0
 10
13.4189523975
 20
9.5654991102
 30
0.0
 10
13.4135885954
 20
9.5839188804
 30
0.0
 10
13.4085400685
 20
9.6035947651
 30
0.0
 10
13.4038177246
 20
9.6244800413
 30
0.0
 10
13.3994327111
 20
9.6465251009
 30
0.0
 10
13.3953970871
 20
9.6696778592
 30
0.0
 10
13.3917196623
 20
9.6938829854
 30
0.0
 10
13.3884089392
 20
9.7190826665
 30
0.0
 10
13.3854742326
 20
9.7452169438
 30
0.0
 10
13.3829219311
 20
9.7722233095
 30
0.0
 10
13.3807576998
 20
9.800037134
 30
0.0
 10
13.3789879673
 20
9.8285920156
 30
0.0
 10
13.3776164485
 20
9.8578197
 30
0.0
 10
13.376311838
 20
9.8979254709
 30
0.0
 10
13.375718452
 20
9.9492188118
 30
0.0
 10
13.3764686171
 20
10.0011509146
 30
0.0
 10
13.3778678551
 20
10.043305529
 30
0.0
 10
13.3798097301
 20
10.0859043118
 30
0.0
 10
13.3832235111
 20
10.1391805777
 30
0.0
 10
13.3879283359
 20
10.1922901488
 30
0.0
 10
13.3924594025
 20
10.2344731251
 30
0.0
 10
13.3974390306
 20
10.2759203176
 30
0.0
 10
13.4031431955
 20
10.3167942662
 30
0.0
 10
13.4095850139
 20
10.3569746932
 30
0.0
 10
13.4147068669
 20
10.3863012373
 30
0.0
 10
13.4201419841
 20
10.4149657221
 30
0.0
 10
13.4258762821
 20
10.4428998872
 30
0.0
 10
13.4318965148
 20
10.4700367656
 30
0.0
 10
13.4381888275
 20
10.4963113654
 30
0.0
 10
13.4447368919
 20
10.5216612021
 30
0.0
 10
13.4515253832
 20
10.5460255847
 30
0.0
 10
13.4585387977
 20
10.5693461656
 30
0.0
 10
13.4657590349
 20
10.5915678176
 30
0.0
 10
13.4731691152
 20
10.6126375553
 30
0.0
 10
13.4807522733
 20
10.6325048675
 30
0.0
 10
13.4884886399
 20
10.6511230927
 30
0.0
 10
13.496359677
 20
10.6684482733
 30
0.0
 10
13.5043480101
 20
10.6844389796
 30
0.0
 10
13.5112050778
 20
10.6968381051
 30
0.0
 10
13.5167487265
 20
10.7060433421
 30
0.0
 10
13.5208488186
 20
10.7124653745
 30
0.0
 10
13.5249644034
 20
10.7185269736
 30
0.0
 10
13.5290925642
 20
10.7242246236
 30
0.0
 10
13.5332304115
 20
10.7295548467
 30
0.0
 10
13.5373751443
 20
10.7345142377
 30
0.0
 10
13.5415238146
 20
10.7390992178
 30
0.0
 10
13.5443538176
 20
10.7419682723
 30
0.0
 10
13.5457695902
 20
10.7433358038
 30
0.0
  0
SPLINE
  5
34A
100
AcDbEntity
  8
0
100
AcDbSpline
 62
7
  6
CONTINUOUS
 70
0
 71
3
 72
23
 73
19
 74
0
 42
0.0000001
 43
0.0000001
 44
0.0000000001
 40
0.0
 40
0.0
 40
0.0
 40
0.0
 40
0.0415367791
 40
0.0838058025
 40
0.1274952316
 40
0.1732217331
 40
0.2215175375
 40
0.272827497
 40
0.3275047997
 40
0.3858249089
 40
0.4480024283
 40
0.5142025682
 40
0.5845411539
 40
0.6590909568
 40
0.7378980211
 40
0.8209876793
 40
0.9083632726
 40
1.0
 40
1.0
 40
1.0
 40
1.0
 10
13.4672613183
 20
9.4254804359
 30
0.0
 10
13.4652861372
 20
9.4256173774
 30
0.0
 10
13.461314884
 20
9.4261715511
 30
0.0
 10
13.455449889
 20
9.4278278761
 30
0.0
 10
13.4496641638
 20
9.4303042014
 30
0.0
 10
13.4439668416
 20
9.4335925834
 30
0.0
 10
13.4383632917
 20
9.4376859396
 30
0.0
 10
13.4328592293
 20
9.4425782103
 30
0.0
 10
13.4274583839
 20
9.4482613346
 30
0.0
 10
13.4221649063
 20
9.454727636
 30
0.0
 10
13.4169836133
 20
9.4619698172
 30
0.0
 10
13.4119202398
 20
9.4699804685
 30
0.0
 10
13.406980009
 20
9.47875044
 30
0.0
 10
13.4021676527
 20
9.4882691128
 30
0.0
 10
13.3974886422
 20
9.4985255664
 30
0.0
 10
13.3929486592
 20
9.5095085466
 30
0.0
 10
13.3885535132
 20
9.5212055226
 30
0.0
 10
13.3857882474
 20
9.5292793476
 30
0.0
 10
13.3844272442
 20
9.5334299258
 30
0.0
  0
SPLINE
  5
34B
100
AcDbEntity
  8
0
100
AcDbSpline
 62
7
  6
CONTINUOUS
 70
0
 71
3
 72
15
 73
11
 74
0
 42
0.0000001
 43
0.0000001
 44
0.0000000001
 40
0.0
 40
0.0
 40
0.0
 40
0.0
 40
0.1492237372
 40
0.2914941679
 40
0.4267900104
 40
0.5551134534
 40
0.676499477
 40
0.7910224215
 40
0.8987991048
 40
1.0
 40
1.0
 40
1.0
 40
1.0
 10
13.4667453579
 20
10.705194416
 30
0.0
 10
13.4686552653
 20
10.7090396093
 30
0.0
 10
13.4724861068
 20
10.7165017939
 30
0.0
 10
13.4784180923
 20
10.7272555184
 30
0.0
 10
13.4843928745
 20
10.7372921542
 30
0.0
 10
13.4904042031
 20
10.7465996191
 30
0.0
 10
13.4964451044
 20
10.7551667003
 30
0.0
 10
13.5025072983
 20
10.7629837978
 30
0.0
 10
13.5085825397
 20
10.7700408249
 30
0.0
 10
13.5127657042
 20
10.7743661243
 30
0.0
 10
13.5148599619
 20
10.776389022
 30
0.0
  0
SPLINE
  5
34C
100
AcDbEntity
  8
0
100
AcDbSpline
 62
7
  6
CONTINUOUS
 70
0
 71
3
 72
23
 73
19
 74
0
 42
0.0000001
 43
0.0000001
 44
0.0000000001
 40
0.0
 40
0.0
 40
0.0
 40
0.0
 40
0.0755493506
 40
0.1465781137
 40
0.2134209155
 40
0.2764972924
 40
0.3363264137
 40
0.393550056
 40
0.4489238843
 40
0.5032842931
 40
0.5575175409
 40
0.6125176493
 40
0.6691350224
 40
0.7281410513
 40
0.790210366
 40
0.8559157723
 40
0.9257235102
 40
1.0
 40
1.0
 40
1.0
 40
1.0
 10
13.5457695902
 20
10.7433358038
 30
0.0
 10
13.5475917181
 20
10.7450958443
 30
0.0
 10
13.5512345939
 20
10.748402126
 30
0.0
 10
13.5568734903
 20
10.7528198493
 30
0.0
 10
13.5625071182
 20
10.7565322284
 30
0.0
 10
13.5681294804
 20
10.7595326719
 30
0.0
 10
13.5737354302
 20
10.76181359
 30
0.0
 10
13.5793186494
 20
10.7633684531
 30
0.0
 10
13.5848714657
 20
10.7641934126
 30
0.0
 10
13.5903851138
 20
10.7642849949
 30
0.0
 10
13.595849406
 20
10.7636415539
 30
0.0
 10
13.6012535919
 20
10.7622639576
 30
0.0
 10
13.6065887043
 20
10.7601582613
 30
0.0
 10
13.611847862
 20
10.7573309845
 30
0.0
 10
13.617025763
 20
10.7537882386
 30
0.0
 10
13.6221175587
 20
10.7495350024
 30
0.0
 10
13.6271190514
 20
10.7445777508
 30
0.0
 10
13.630289125
 20
10.7409254915
 30
0.0
 10
13.6318606251
 20
10.7389931759
 30
0.0
  0
SPLINE
  5
34D
100
AcDbEntity
  8
0
100
AcDbSpline
 62
7
  6
CONTINUOUS
 70
0
 71
3
 72
17
 73
13
 74
0
 42
0.0000001
 43
0.0000001
 44
0.0000000001
 40
0.0
 40
0.0
 40
0.0
 40
0.0
 40
0.1503824987
 40
0.2916131423
 40
0.4243865528
 40
0.4878859743
 40
0.5496162545
 40
0.6683083772
 40
0.7818474148
 40
0.8918106403
 40
0.9460210325
 40
1.0
 40
1.0
 40
1.0
 40
1.0
 10
13.5148599619
 20
10.776389022
 30
0.0
 10
13.5168037624
 20
10.7782665892
 30
0.0
 10
13.520689906
 20
10.7817899028
 30
0.0
 10
13.5267084188
 20
10.7864860185
 30
0.0
 10
13.53179302
 20
10.7898091882
 30
0.0
 10
13.5358483264
 20
10.7920605736
 30
0.0
 10
13.539784181
 20
10.7939937372
 30
0.0
 10
13.544705616
 20
10.7959465016
 30
0.0
 10
13.5506627467
 20
10.7975312352
 30
0.0
 10
13.555625243
 20
10.7981935638
 30
0.0
 10
13.5595459939
 20
10.798319399
 30
0.0
 10
13.5614908737
 20
10.7982506865
 30
0.0
 10
13.5624586056
 20
10.7981835925
 30
0.0
  0
SPLINE
  5
34E
100
AcDbEntity
  8
0
100
AcDbSpline
 62
7
  6
CONTINUOUS
 70
0
 71
3
 72
59
 73
55
 74
0
 42
0.0000001
 43
0.0000001
 44
0.0000000001
 40
0.0
 40
0.0
 40
0.0
 40
0.0
 40
0.0311322829
 40
0.0624363742
 40
0.0938813008
 40
0.1254584073
 40
0.157162211
 40
0.1889779177
 40
0.2208868241
 40
0.2528701084
 40
0.2688858219
 40
0.2849126181
 40
0.3009477636
 40
0.3169884637
 40
0.3490708353
 40
0.3651116875
 40
0.3811470337
 40
0.3971741272
 40
0.4131903361
 40
0.4291930363
 40
0.4451796074
 40
0.4611475164
 40
0.4770944087
 40
0.4930180215
 40
0.5089161278
 40
0.5247866157
 40
0.540627598
 40
0.5564373559
 40
0.5722142367
 40
0.5879567259
 40
0.6036635642
 40
0.63496127
 40
0.6505554416
 40
0.666110719
 40
0.6816268764
 40
0.6971037981
 40
0.7125415269
 40
0.7279403733
 40
0.743300953
 40
0.7586239982
 40
0.7739103911
 40
0.7891612643
 40
0.8043780481
 40
0.8195622797
 40
0.8347156224
 40
0.8498399573
 40
0.8649374268
 40
0.8800102516
 40
0.895060739
 40
0.9100913671
 40
0.9400981012
 40
0.955085347
 40
0.9700637171
 40
1.0
 40
1.0
 40
1.0
 40
1.0
 10
10.7030385546
 20
8.3917113421
 30
0.0
 10
10.6897631576
 20
8.392631994
 30
0.0
 10
10.6631969707
 20
8.395452988
 30
0.0
 10
10.623667264
 20
8.4025487649
 30
0.0
 10
10.5845588577
 20
8.4124953426
 30
0.0
 10
10.5460887097
 20
8.4252303803
 30
0.0
 10
10.5084596653
 20
8.4406909879
 30
0.0
 10
10.4718671245
 20
8.458788257
 30
0.0
 10
10.4365115252
 20
8.4794322942
 30
0.0
 10
10.4082428573
 20
8.4986550671
 30
0.0
 10
10.3864286525
 20
8.5151885164
 30
0.0
 10
10.370481698
 20
8.5281571636
 30
0.0
 10
10.3549782701
 20
8.5416692725
 30
0.0
 10
10.3349273545
 20
8.5603843787
 30
0.0
 10
10.3158443039
 20
8.5801188264
 30
0.0
 10
10.2978102701
 20
8.6007845944
 30
0.0
 10
10.2848240451
 20
8.6167315508
 30
0.0
 10
10.2723968896
 20
8.6331042971
 30
0.0
 10
10.2605452658
 20
8.6498813711
 30
0.0
 10
10.2492839129
 20
8.6670394821
 30
0.0
 10
10.2386277626
 20
8.6845557427
 30
0.0
 10
10.2285919895
 20
8.702407344
 30
0.0
 10
10.2191905047
 20
8.7205706946
 30
0.0
 10
10.2104344977
 20
8.7390208481
 30
0.0
 10
10.2023355172
 20
8.7577331572
 30
0.0
 10
10.1949052384
 20
8.7766830243
 30
0.0
 10
10.1881544209
 20
8.7958454209
 30
0.0
 10
10.1820905703
 20
8.8151942699
 30
0.0
 10
10.1767215842
 20
8.834703596
 30
0.0
 10
10.1720553174
 20
8.8543480494
 30
0.0
 10
10.166787375
 20
8.8806506651
 30
0.0
 10
10.1629360833
 20
8.9071571823
 30
0.0
 10
10.1605302499
 20
8.9337455635
 30
0.0
 10
10.1594533988
 20
8.9536680424
 30
0.0
 10
10.1591021559
 20
8.9735660438
 30
0.0
 10
10.1594765007
 20
8.9934134984
 30
0.0
 10
10.1605764381
 20
9.0131837921
 30
0.0
 10
10.1624020658
 20
9.0328504186
 30
0.0
 10
10.1649495023
 20
9.0523872091
 30
0.0
 10
10.1682147963
 20
9.0717682041
 30
0.0
 10
10.1721939528
 20
9.090967484
 30
0.0
 10
10.1768832879
 20
9.1099590212
 30
0.0
 10
10.1822753069
 20
9.1287177105
 30
0.0
 10
10.1883621205
 20
9.1472187463
 30
0.0
 10
10.1951358634
 20
9.1654373685
 30
0.0
 10
10.202589064
 20
9.1833486022
 30
0.0
 10
10.2107108409
 20
9.200928888
 30
0.0
 10
10.2194894489
 20
9.2181550468
 30
0.0
 10
10.2289136536
 20
9.2350044485
 30
0.0
 10
10.2423151119
 20
9.2569207798
 30
0.0
 10
10.2569710464
 20
9.2780176704
 30
0.0
 10
10.2728067747
 20
9.2981832345
 30
0.0
 10
10.2893993831
 20
9.3176903867
 30
0.0
 10
10.3026931859
 20
9.3315773015
 30
0.0
 10
10.3118966448
 20
9.340467493
 30
0.0
  0
SPLINE
  5
34F
100
AcDbEntity
  8
0
100
AcDbSpline
 62
7
  6
CONTINUOUS
 70
0
 71
3
 72
59
 73
55
 74
0
 42
0.0000001
 43
0.0000001
 44
0.0000000001
 40
0.0
 40
0.0
 40
0.0
 40
0.0
 40
0.0311322829
 40
0.0624363742
 40
0.0938813008
 40
0.1254584073
 40
0.157162211
 40
0.1889779177
 40
0.2208868241
 40
0.2528701084
 40
0.2688858219
 40
0.2849126181
 40
0.3009477636
 40
0.3169884637
 40
0.3490708353
 40
0.3651116875
 40
0.3811470337
 40
0.3971741272
 40
0.4131903361
 40
0.4291930363
 40
0.4451796074
 40
0.4611475164
 40
0.4770944087
 40
0.4930180215
 40
0.5089161278
 40
0.5247866157
 40
0.540627598
 40
0.5564373559
 40
0.5722142367
 40
0.5879567259
 40
0.6036635642
 40
0.63496127
 40
0.6505554416
 40
0.666110719
 40
0.6816268764
 40
0.6971037981
 40
0.7125415269
 40
0.7279403733
 40
0.743300953
 40
0.7586239982
 40
0.7739103911
 40
0.7891612643
 40
0.8043780481
 40
0.8195622797
 40
0.8347156224
 40
0.8498399573
 40
0.8649374268
 40
0.8800102516
 40
0.895060739
 40
0.9100913671
 40
0.9400981012
 40
0.955085347
 40
0.9700637171
 40
1.0
 40
1.0
 40
1.0
 40
1.0
 10
10.7460024807
 20
9.5208438552
 30
0.0
 10
10.7592778777
 20
9.5199232033
 30
0.0
 10
10.7858440647
 20
9.5171022092
 30
0.0
 10
10.8253737713
 20
9.5100064324
 30
0.0
 10
10.8644821777
 20
9.5000598547
 30
0.0
 10
10.9029523256
 20
9.4873248169
 30
0.0
 10
10.9405813701
 20
9.4718642094
 30
0.0
 10
10.9771739108
 20
9.4537669403
 30
0.0
 10
11.0125295101
 20
9.4331229031
 30
0.0
 10
11.0407981781
 20
9.4139001301
 30
0.0
 10
11.0626123828
 20
9.3973666809
 30
0.0
 10
11.0785593374
 20
9.3843980337
 30
0.0
 10
11.0940627652
 20
9.3708859248
 30
0.0
 10
11.1141136809
 20
9.3521708186
 30
0.0
 10
11.1331967314
 20
9.3324363709
 30
0.0
 10
11.1512307652
 20
9.3117706029
 30
0.0
 10
11.1642169902
 20
9.2958236464
 30
0.0
 10
11.1766441457
 20
9.2794509002
 30
0.0
 10
11.1884957696
 20
9.2626738262
 30
0.0
 10
11.1997571224
 20
9.2455157152
 30
0.0
 10
11.2104132727
 20
9.2279994545
 30
0.0
 10
11.2204490459
 20
9.2101478533
 30
0.0
 10
11.2298505306
 20
9.1919845027
 30
0.0
 10
11.2386065376
 20
9.1735343492
 30
0.0
 10
11.2467055181
 20
9.1548220401
 30
0.0
 10
11.2541357969
 20
9.135872173
 30
0.0
 10
11.2608866144
 20
9.1167097763
 30
0.0
 10
11.2669504651
 20
9.0973609273
 30
0.0
 10
11.2723194511
 20
9.0778516013
 30
0.0
 10
11.276985718
 20
9.0582071479
 30
0.0
 10
11.2822536604
 20
9.0319045322
 30
0.0
 10
11.2861049521
 20
9.005398015
 30
0.0
 10
11.2885107854
 20
8.9788096338
 30
0.0
 10
11.2895876365
 20
8.9588871549
 30
0.0
 10
11.2899388795
 20
8.9389891535
 30
0.0
 10
11.2895645346
 20
8.9191416988
 30
0.0
 10
11.2884645972
 20
8.8993714052
 30
0.0
 10
11.2866389696
 20
8.8797047787
 30
0.0
 10
11.2840915331
 20
8.8601679882
 30
0.0
 10
11.280826239
 20
8.8407869932
 30
0.0
 10
11.2768470825
 20
8.8215877133
 30
0.0
 10
11.2721577474
 20
8.802596176
 30
0.0
 10
11.2667657285
 20
8.7838374868
 30
0.0
 10
11.2606789149
 20
8.765336451
 30
0.0
 10
11.2539051719
 20
8.7471178287
 30
0.0
 10
11.2464519713
 20
8.7292065951
 30
0.0
 10
11.2383301945
 20
8.7116263093
 30
0.0
 10
11.2295515864
 20
8.6944001505
 30
0.0
 10
11.2201273818
 20
8.6775507487
 30
0.0
 10
11.2067259235
 20
8.6556344175
 30
0.0
 10
11.1920699889
 20
8.6345375269
 30
0.0
 10
11.1762342606
 20
8.6143719628
 30
0.0
 10
11.1596416522
 20
8.5948648106
 30
0.0
 10
11.1463478495
 20
8.5809778958
 30
0.0
 10
11.1371443906
 20
8.5720877043
 30
0.0
  0
SPLINE
  5
350
100
AcDbEntity
  8
0
100
AcDbSpline
 62
7
  6
CONTINUOUS
 70
0
 71
3
 72
15
 73
11
 74
0
 42
0.0000001
 43
0.0000001
 44
0.0000000001
 40
0.0
 40
0.0
 40
0.0
 40
0.0
 40
0.0990493905
 40
0.2066666987
 40
0.3238642713
 40
0.4503538694
 40
0.5840557736
 40
0.7218634703
 40
0.8610624569
 40
1.0
 40
1.0
 40
1.0
 40
1.0
 10
10.9049390921
 20
8.9134648684
 30
0.0
 10
10.9018322971
 20
8.9075068511
 30
0.0
 10
10.8952652947
 20
8.8951193633
 30
0.0
 10
10.8846886654
 20
8.8758612026
 30
0.0
 10
10.8728848735
 20
8.8551564351
 30
0.0
 10
10.8598490459
 20
8.8331209388
 30
0.0
 10
10.8457559059
 20
8.8100901269
 30
0.0
 10
10.8309102006
 20
8.786512003
 30
0.0
 10
10.8156305691
 20
8.7627894278
 30
0.0
 10
10.8052868646
 20
8.7470086773
 30
0.0
 10
10.8000957092
 20
8.7391417156
 30
0.0
  0
SPLINE
  5
351
100
AcDbEntity
  8
0
100
AcDbSpline
 62
7
  6
CONTINUOUS
 70
0
 71
3
 72
16
 73
12
 74
0
 42
0.0000001
 43
0.0000001
 44
0.0000000001
 40
0.0
 40
0.0
 40
0.0
 40
0.0
 40
0.0568203632
 40
0.1148013582
 40
0.2344680642
 40
0.3590834873
 40
0.4876536601
 40
0.6180302345
 40
0.7477956069
 40
0.8753224375
 40
1.0
 40
1.0
 40
1.0
 40
1.0
 10
10.8000957092
 20
9.1023298478
 30
0.0
 10
10.8027081624
 20
9.0991515464
 30
0.0
 10
10.8079340892
 20
9.0926866876
 30
0.0
 10
10.8183665748
 20
9.0792923253
 30
0.0
 10
10.8312946626
 20
9.0616237974
 30
0.0
 10
10.8462062041
 20
9.0391052768
 30
0.0
 10
10.8603250681
 20
9.0151740311
 30
0.0
 10
10.8733318521
 20
8.990200156
 30
0.0
 10
10.8850677171
 20
8.9646905414
 30
0.0
 10
10.8955659703
 20
8.9390962928
 30
0.0
 10
10.9019165173
 20
8.9219713364
 30
0.0
 10
10.9049390921
 20
8.9134648684
 30
0.0
  0
SPLINE
  5
352
100
AcDbEntity
  8
0
100
AcDbSpline
 62
7
  6
CONTINUOUS
 70
0
 71
3
 72
13
 73
9
 74
0
 42
0.0000001
 43
0.0000001
 44
0.0000000001
 40
0.0
 40
0.0
 40
0.0
 40
0.0
 40
0.1120229119
 40
0.2274286538
 40
0.4694282775
 40
0.7273369597
 40
0.8620712305
 40
1.0
 40
1.0
 40
1.0
 40
1.0
 10
10.8000957092
 20
9.1023298478
 30
0.0
 10
10.796510976
 20
9.1031525722
 30
0.0
 10
10.7892201221
 20
9.104766407
 30
0.0
 10
10.7741177248
 20
9.1078442837
 30
0.0
 10
10.7542140054
 20
9.1113332787
 30
0.0
 10
10.7335541009
 20
9.114092133
 30
0.0
 10
10.7162218658
 20
9.115846082
 30
0.0
 10
10.707297358
 20
9.1165583827
 30
0.0
 10
10.7027797358
 20
9.1168716808
 30
0.0
  0
SPLINE
  5
353
100
AcDbEntity
  8
0
100
AcDbSpline
 62
7
  6
CONTINUOUS
 70
0
 71
3
 72
23
 73
19
 74
0
 42
0.0000001
 43
0.0000001
 44
0.0000000001
 40
0.0
 40
0.0
 40
0.0
 40
0.0
 40
0.0616482049
 40
0.1233194645
 40
0.1850366601
 40
0.2468215803
 40
0.3086958874
 40
0.3706805387
 40
0.4327949852
 40
0.4950576208
 40
0.5574833124
 40
0.620084195
 40
0.682872566
 40
0.7458647459
 40
0.8090766705
 40
0.8725171946
 40
0.9361676357
 40
1.0
 40
1.0
 40
1.0
 40
1.0
 10
10.3548605708
 20
9.3819674612
 30
0.0
 10
10.3611784714
 20
9.3880703131
 30
0.0
 10
10.374147331
 20
9.3999412624
 30
0.0
 10
10.3945349515
 20
9.4166780583
 30
0.0
 10
10.415807222
 20
9.4323091315
 30
0.0
 10
10.4379096213
 20
9.4467950501
 30
0.0
 10
10.460788619
 20
9.4600963871
 30
0.0
 10
10.4843849081
 20
9.4721822856
 30
0.0
 10
10.508639245
 20
9.4830228172
 30
0.0
 10
10.5334918396
 20
9.4925871759
 30
0.0
 10
10.5588781678
 20
9.500854585
 30
0.0
 10
10.5847337875
 20
9.5078048027
 30
0.0
 10
10.6109948451
 20
9.513417173
 30
0.0
 10
10.6375964197
 20
9.5176802578
 30
0.0
 10
10.6644739323
 20
9.5205831832
 30
0.0
 10
10.6915583155
 20
9.5221149479
 30
0.0
 10
10.7187729995
 20
9.5222769808
 30
0.0
 10
10.7369289433
 20
9.5214731071
 30
0.0
 10
10.7460024807
 20
9.5208438552
 30
0.0
  0
SPLINE
  5
354
100
AcDbEntity
  8
0
100
AcDbSpline
 62
7
  6
CONTINUOUS
 70
0
 71
3
 72
14
 73
10
 74
0
 42
0.0000001
 43
0.0000001
 44
0.0000000001
 40
0.0
 40
0.0
 40
0.0
 40
0.0
 40
0.1231136216
 40
0.2478936142
 40
0.3735912418
 40
0.499638844
 40
0.6255751812
 40
0.7510900589
 40
1.0
 40
1.0
 40
1.0
 40
1.0
 10
10.7027797358
 20
9.1168716808
 30
0.0
 10
10.6981765123
 20
9.1171909155
 30
0.0
 10
10.6889007096
 20
9.1177355279
 30
0.0
 10
10.6749083958
 20
9.1182812461
 30
0.0
 10
10.6607984572
 20
9.1185687039
 30
0.0
 10
10.6466424993
 20
9.1186186587
 30
0.0
 10
10.6324943716
 20
9.1184517742
 30
0.0
 10
10.6137465464
 20
9.1179752973
 30
0.0
 10
10.5997249926
 20
9.1173650843
 30
0.0
 10
10.5904089433
 20
9.1168716744
 30
0.0
  0
SPLINE
  5
355
100
AcDbEntity
  8
0
100
AcDbSpline
 62
7
  6
CONTINUOUS
 70
0
 71
3
 72
23
 73
19
 74
0
 42
0.0000001
 43
0.0000001
 44
0.0000000001
 40
0.0
 40
0.0
 40
0.0
 40
0.0
 40
0.0616482049
 40
0.1233194645
 40
0.1850366601
 40
0.2468215803
 40
0.3086958874
 40
0.3706805387
 40
0.4327949852
 40
0.4950576208
 40
0.5574833124
 40
0.620084195
 40
0.682872566
 40
0.7458647459
 40
0.8090766705
 40
0.8725171946
 40
0.9361676357
 40
1.0
 40
1.0
 40
1.0
 40
1.0
 10
11.0941804645
 20
8.530587736
 30
0.0
 10
11.087862564
 20
8.5244848842
 30
0.0
 10
11.0748937043
 20
8.5126139349
 30
0.0
 10
11.0545060839
 20
8.495877139
 30
0.0
 10
11.0332338133
 20
8.4802460658
 30
0.0
 10
11.011131414
 20
8.4657601472
 30
0.0
 10
10.9882524163
 20
8.4524588102
 30
0.0
 10
10.9646561272
 20
8.4403729117
 30
0.0
 10
10.9404017903
 20
8.4295323801
 30
0.0
 10
10.9155491957
 20
8.4199680214
 30
0.0
 10
10.8901628675
 20
8.4117006123
 30
0.0
 10
10.8643072479
 20
8.4047503946
 30
0.0
 10
10.8380461902
 20
8.3991380243
 30
0.0
 10
10.8114446156
 20
8.3948749395
 30
0.0
 10
10.784567103
 20
8.3919720141
 30
0.0
 10
10.7574827198
 20
8.3904402494
 30
0.0
 10
10.7302680358
 20
8.3902782165
 30
0.0
 10
10.712112092
 20
8.3910820902
 30
0.0
 10
10.7030385546
 20
8.3917113421
 30
0.0
  0
SPLINE
  5
356
100
AcDbEntity
  8
0
100
AcDbSpline
 62
7
  6
CONTINUOUS
 70
0
 71
3
 72
66
 73
62
 74
0
 42
0.0000001
 43
0.0000001
 44
0.0000000001
 40
0.0
 40
0.0
 40
0.0
 40
0.0
 40
0.0313892319
 40
0.0471734483
 40
0.0630045494
 40
0.0947922188
 40
0.1107556328
 40
0.126758753
 40
0.1427973822
 40
0.1588672385
 40
0.174964115
 40
0.1910835842
 40
0.2072211173
 40
0.2233719516
 40
0.2395310416
 40
0.2556933588
 40
0.2718539342
 40
0.2880076864
 40
0.3041496364
 40
0.32027501
 40
0.3363790385
 40
0.3524571444
 40
0.368505122
 40
0.3845189036
 40
0.4004946911
 40
0.4164291943
 40
0.4323193802
 40
0.4481625505
 40
0.4639566204
 40
0.4796998632
 40
0.4953909309
 40
0.5110291558
 40
0.5266142955
 40
0.542146505
 40
0.5576266393
 40
0.5730560022
 40
0.5884362808
 40
0.6037698305
 40
0.619059427
 40
0.6343081765
 40
0.6495197715
 40
0.6646982401
 40
0.6798478494
 40
0.6949733256
 40
0.7100795921
 40
0.7251716853
 40
0.7402549452
 40
0.7553347395
 40
0.7704164033
 40
0.7855053917
 40
0.8006069684
 40
0.8157262041
 40
0.83086817
 40
0.8460376768
 40
0.8612392288
 40
0.8764770253
 40
0.9070640933
 40
0.9378335392
 40
0.9533006817
 40
0.9688224861
 40
1.0
 40
1.0
 40
1.0
 40
1.0
 10
10.694756352
 20
8.4146209765
 30
0.0
 10
10.6779244728
 20
8.4157882713
 30
0.0
 10
10.6526933791
 20
8.4187883303
 30
0.0
 10
10.6194298333
 20
8.425197752
 30
0.0
 10
10.5863021679
 20
8.4332459575
 30
0.0
 10
10.5536947251
 20
8.4436841687
 30
0.0
 10
10.5218662038
 20
8.4564104022
 30
0.0
 10
10.4983717361
 20
8.4671041628
 30
0.0
 10
10.4753501887
 20
8.4789053593
 30
0.0
 10
10.4528580562
 20
8.4917888102
 30
0.0
 10
10.4309488138
 20
8.505721176
 30
0.0
 10
10.4096743411
 20
8.5206681941
 30
0.0
 10
10.3890875568
 20
8.5365964351
 30
0.0
 10
10.3692367777
 20
8.5534658334
 30
0.0
 10
10.3501689437
 20
8.5712349882
 30
0.0
 10
10.3319321821
 20
8.589863446
 30
0.0
 10
10.3145691971
 20
8.6093049915
 30
0.0
 10
10.2981206073
 20
8.629511974
 30
0.0
 10
10.282628431
 20
8.6504377324
 30
0.0
 10
10.2681288365
 20
8.6720308926
 30
0.0
 10
10.2546552703
 20
8.6942386576
 30
0.0
 10
10.2422428042
 20
8.7170091814
 30
0.0
 10
10.2309203664
 20
8.740286961
 30
0.0
 10
10.2207134493
 20
8.7640152379
 30
0.0
 10
10.2116493813
 20
8.7881381057
 30
0.0
 10
10.2037492709
 20
8.8125970542
 30
0.0
 10
10.1970300815
 20
8.8373326496
 30
0.0
 10
10.1915107954
 20
8.8622861451
 30
0.0
 10
10.187204285
 20
8.8873971949
 30
0.0
 10
10.1841185941
 20
8.9126050341
 30
0.0
 10
10.1822639254
 20
8.9378493625
 30
0.0
 10
10.1816446583
 20
8.9630692019
 30
0.0
 10
10.1822597317
 20
8.9882038324
 30
0.0
 10
10.1841103234
 20
9.01319273
 30
0.0
 10
10.1871922278
 20
9.0379754949
 30
0.0
 10
10.1914953012
 20
9.0624928281
 30
0.0
 10
10.197011645
 20
9.0866853287
 30
0.0
 10
10.2037285393
 20
9.110494374
 30
0.0
 10
10.2116269884
 20
9.1338634299
 30
0.0
 10
10.2206901655
 20
9.1567355569
 30
0.0
 10
10.2308970696
 20
9.1790550776
 30
0.0
 10
10.2422202918
 20
9.200769502
 30
0.0
 10
10.2546344322
 20
9.2218256514
 30
0.0
 10
10.2681106006
 20
9.2421719135
 30
0.0
 10
10.2826136017
 20
9.2617610246
 30
0.0
 10
10.2981100131
 20
9.2805448014
 30
0.0
 10
10.3145636137
 20
9.2984767509
 30
0.0
 10
10.3319322595
 20
9.3155158809
 30
0.0
 10
10.3501752832
 20
9.3316201185
 30
0.0
 10
10.3692498207
 20
9.3467490413
 30
0.0
 10
10.3891076693
 20
9.3608688442
 30
0.0
 10
10.4097017698
 20
9.3739445846
 30
0.0
 10
10.4309835909
 20
9.3859428132
 30
0.0
 10
10.4529000476
 20
9.3968374786
 30
0.0
 10
10.4753997843
 20
9.4066016667
 30
0.0
 10
10.506137689
 20
9.4180911218
 30
0.0
 10
10.5457719458
 20
9.429515001
 30
0.0
 10
10.5864804724
 20
9.4368737667
 30
0.0
 10
10.6195108772
 20
9.4403117509
 30
0.0
 10
10.6528881968
 20
9.4421081523
 30
0.0
 10
10.6780380025
 20
9.4415936863
 30
0.0
 10
10.694756352
 20
9.4404342648
 30
0.0
  0
SPLINE
  5
357
100
AcDbEntity
  8
0
100
AcDbSpline
 62
7
  6
CONTINUOUS
 70
0
 71
3
 72
33
 73
29
 74
0
 42
0.0000001
 43
0.0000001
 44
0.0000000001
 40
0.0
 40
0.0
 40
0.0
 40
0.0
 40
0.0607663237
 40
0.091331568
 40
0.1220124065
 40
0.1528084241
 40
0.1837173208
 40
0.2147358851
 40
0.2458601834
 40
0.2770843894
 40
0.3084013868
 40
0.3712616898
 40
0.4343894808
 40
0.4977003293
 40
0.5294057045
 40
0.5611213219
 40
0.5928355414
 40
0.6245364484
 40
0.6562120085
 40
0.6878507642
 40
0.7194411705
 40
0.7509711995
 40
0.782429246
 40
0.813806578
 40
0.8450987421
 40
0.8763022432
 40
0.9384000084
 40
1.0
 40
1.0
 40
1.0
 40
1.0
 10
10.6688370688
 20
9.1183903878
 30
0.0
 10
10.6677252059
 20
9.111958061
 30
0.0
 10
10.6665933312
 20
9.1021859591
 30
0.0
 10
10.6661563575
 20
9.089082016
 30
0.0
 10
10.6663662416
 20
9.0791914597
 30
0.0
 10
10.6671123796
 20
9.0692905077
 30
0.0
 10
10.6683915595
 20
9.0594075366
 30
0.0
 10
10.6702013219
 20
9.0495720149
 30
0.0
 10
10.6725372719
 20
9.0398133136
 30
0.0
 10
10.6753905492
 20
9.0301595125
 30
0.0
 10
10.6798776953
 20
9.0174524436
 30
0.0
 10
10.6867439124
 20
9.0019759457
 30
0.0
 10
10.6968663712
 20
8.9843003442
 30
0.0
 10
10.7067877435
 20
8.9704704465
 30
0.0
 10
10.7155428232
 20
8.9600389425
 30
0.0
 10
10.7225049327
 20
8.9525511756
 30
0.0
 10
10.7298378313
 20
8.9454272628
 30
0.0
 10
10.7375188687
 20
8.9386866073
 30
0.0
 10
10.7455256423
 20
8.9323493155
 30
0.0
 10
10.7538358296
 20
8.9264358764
 30
0.0
 10
10.7624237057
 20
8.9209625464
 30
0.0
 10
10.7712630881
 20
8.9159446107
 30
0.0
 10
10.7803282673
 20
8.9113977788
 30
0.0
 10
10.7895932421
 20
8.9073366059
 30
0.0
 10
10.799031138
 20
8.9037712885
 30
0.0
 10
10.8117864977
 20
8.899699637
 30
0.0
 10
10.8280197398
 20
8.8958993704
 30
0.0
 10
10.8412354441
 20
8.8942557883
 30
0.0
 10
10.8478368591
 20
8.8937979786
 30
0.0
  0
SPLINE
  5
358
100
AcDbEntity
  8
0
100
AcDbSpline
 62
7
  6
CONTINUOUS
 70
0
 71
3
 72
15
 73
11
 74
0
 42
0.0000001
 43
0.0000001
 44
0.0000000001
 40
0.0
 40
0.0
 40
0.0
 40
0.0
 40
0.1267721213
 40
0.2530848049
 40
0.3788484787
 40
0.5040309115
 40
0.6286806203
 40
0.7528576716
 40
0.876615375
 40
1.0
 40
1.0
 40
1.0
 40
1.0
 10
10.694756352
 20
9.1390653892
 30
0.0
 10
10.6901926433
 20
9.1393818834
 30
0.0
 10
10.6810585235
 20
9.139718941
 30
0.0
 10
10.6673836479
 20
9.1393341663
 30
0.0
 10
10.6538198394
 20
9.1380576627
 30
0.0
 10
10.6404302111
 20
9.1358916478
 30
0.0
 10
10.6272708285
 20
9.1328491042
 30
0.0
 10
10.6143957142
 20
9.1289401073
 30
0.0
 10
10.6018588644
 20
9.1241826418
 30
0.0
 10
10.5937485256
 20
9.1204534833
 30
0.0
 10
10.589769813
 20
9.1184549901
 30
0.0
  0
SPLINE
  5
359
100
AcDbEntity
  8
0
100
AcDbSpline
 62
7
  6
CONTINUOUS
 70
0
 71
3
 72
44
 73
40
 74
0
 42
0.0000001
 43
0.0000001
 44
0.0000000001
 40
0.0
 40
0.0
 40
0.0
 40
0.0
 40
0.0301887775
 40
0.060307189
 40
0.0903838176
 40
0.1204483681
 40
0.150530331
 40
0.1806592903
 40
0.1957536387
 40
0.2108700789
 40
0.2411744884
 40
0.2563750715
 40
0.2716091147
 40
0.3021796441
 40
0.3175266352
 40
0.3329146523
 40
0.3638118197
 40
0.3948836434
 40
0.4261319821
 40
0.4575531672
 40
0.4891397401
 40
0.5208793779
 40
0.5527562983
 40
0.584751048
 40
0.6168412608
 40
0.6490024641
 40
0.6812080575
 40
0.7134308435
 40
0.7295427041
 40
0.7456483331
 40
0.7778217557
 40
0.8099305437
 40
0.8419493306
 40
0.8738525474
 40
0.9056216359
 40
0.937248854
 40
0.9530093839
 40
0.9687263067
 40
1.0
 40
1.0
 40
1.0
 40
1.0
 10
10.5889874678
 20
9.1180597991
 30
0.0
 10
10.5840003137
 20
9.1155264055
 30
0.0
 10
10.5742520401
 20
9.1100299703
 30
0.0
 10
10.5604175556
 20
9.1005556539
 30
0.0
 10
10.5474828088
 20
9.0899198015
 30
0.0
 10
10.5355326706
 20
9.0781984158
 30
0.0
 10
10.5246504645
 20
9.0654672458
 30
0.0
 10
10.5165340275
 20
9.0540936884
 30
0.0
 10
10.5106455361
 20
9.0445859352
 30
0.0
 10
10.5051605384
 20
9.0348028423
 30
0.0
 10
10.5003078099
 20
9.0246541868
 30
0.0
 10
10.4961151411
 20
9.0142068721
 30
0.0
 10
10.4923578322
 20
9.0035428399
 30
0.0
 10
10.4892790737
 20
8.9926215152
 30
0.0
 10
10.4868923664
 20
8.9815129818
 30
0.0
 10
10.4849643502
 20
8.9702539579
 30
0.0
 10
10.4834333532
 20
8.9559843731
 30
0.0
 10
10.4830113301
 20
8.9386981572
 30
0.0
 10
10.4840078899
 20
8.9213380641
 30
0.0
 10
10.486411211
 20
8.9040204313
 30
0.0
 10
10.4902103901
 20
8.8868616186
 30
0.0
 10
10.4953741678
 20
8.8699749584
 30
0.0
 10
10.5018733501
 20
8.8534748545
 30
0.0
 10
10.509659222
 20
8.8374694302
 30
0.0
 10
10.5186841732
 20
8.8220676236
 30
0.0
 10
10.5288842019
 20
8.8073699918
 30
0.0
 10
10.5401936028
 20
8.7934768613
 30
0.0
 10
10.5504804939
 20
8.7826436738
 30
0.0
 10
10.5591857437
 20
8.7744676063
 30
0.0
 10
10.5681906021
 20
8.7666366834
 30
0.0
 10
10.5799835181
 20
8.7575117612
 30
0.0
 10
10.5949055527
 20
8.7476960656
 30
0.0
 10
10.6104960112
 20
8.7390829366
 30
0.0
 10
10.6266488803
 20
8.7317274569
 30
0.0
 10
10.6432588763
 20
8.7256820582
 30
0.0
 10
10.6574097171
 20
8.7217619174
 30
0.0
 10
10.6688477443
 20
8.7193208404
 30
0.0
 10
10.6803088972
 20
8.7173497276
 30
0.0
 10
10.6889754833
 20
8.7163907568
 30
0.0
 10
10.694756352
 20
8.7159898522
 30
0.0
  0
SPLINE
  5
35A
100
AcDbEntity
  8
0
100
AcDbSpline
 62
7
  6
CONTINUOUS
 70
0
 71
3
 72
11
 73
7
 74
0
 42
0.0000001
 43
0.0000001
 44
0.0000000001
 40
0.0
 40
0.0
 40
0.0
 40
0.0
 40
0.2483001361
 40
0.4978174108
 40
0.748450087
 40
1.0
 40
1.0
 40
1.0
 40
1.0
 10
10.8969326511
 20
8.8971558142
 30
0.0
 10
10.8929357921
 20
8.8963105159
 30
0.0
 10
10.8848596507
 20
8.8948989065
 30
0.0
 10
10.8726007325
 20
8.8936355192
 30
0.0
 10
10.8602305647
 20
8.8932214305
 30
0.0
 10
10.8519656783
 20
8.8935116441
 30
0.0
 10
10.8478368591
 20
8.8937979786
 30
0.0
  0
SPLINE
  5
35B
100
AcDbEntity
  8
0
100
AcDbSpline
 62
7
  6
CONTINUOUS
 70
0
 71
3
 72
15
 73
11
 74
0
 42
0.0000001
 43
0.0000001
 44
0.0000000001
 40
0.0
 40
0.0
 40
0.0
 40
0.0
 40
0.123395243
 40
0.2471616739
 40
0.3713457372
 40
0.4960009522
 40
0.6211855472
 40
0.7469455322
 40
0.8732462823
 40
1.0
 40
1.0
 40
1.0
 40
1.0
 10
10.8646919606
 20
8.84115733
 30
0.0
 10
10.8613041379
 20
8.8394823515
 30
0.0
 10
10.8544016643
 20
8.8363577229
 30
0.0
 10
10.8437402236
 20
8.832373741
 30
0.0
 10
10.8327980838
 20
8.8291027595
 30
0.0
 10
10.8216201032
 20
8.8265590707
 30
0.0
 10
10.8102510173
 20
8.8247510805
 30
0.0
 10
10.7987374726
 20
8.8236895525
 30
0.0
 10
10.7871319518
 20
8.8233760035
 30
0.0
 10
10.7793806586
 20
8.8236649131
 30
0.0
 10
10.7755078275
 20
8.8239334948
 30
0.0
  0
SPLINE
  5
35C
100
AcDbEntity
  8
0
100
AcDbSpline
 62
7
  6
CONTINUOUS
 70
0
 71
3
 72
15
 73
11
 74
0
 42
0.0000001
 43
0.0000001
 44
0.0000000001
 40
0.0
 40
0.0
 40
0.0
 40
0.0
 40
0.1267968404
 40
0.2531255205
 40
0.3788942022
 40
0.5040739396
 40
0.6287161924
 40
0.7528830504
 40
0.8766282758
 40
1.0
 40
1.0
 40
1.0
 40
1.0
 10
10.694756352
 20
8.7159898522
 30
0.0
 10
10.6993908128
 20
8.7156684512
 30
0.0
 10
10.7086666348
 20
8.7153308237
 30
0.0
 10
10.722552176
 20
8.7157425776
 30
0.0
 10
10.7363212019
 20
8.7170740929
 30
0.0
 10
10.7499078431
 20
8.719322491
 30
0.0
 10
10.7632535989
 20
8.7224741454
 30
0.0
 10
10.7763018202
 20
8.7265184414
 30
0.0
 10
10.7889961581
 20
8.7314356718
 30
0.0
 10
10.7971995221
 20
8.7352873143
 30
0.0
 10
10.8012211664
 20
8.7373507345
 30
0.0
  0
SPLINE
  5
35D
100
AcDbEntity
  8
0
100
AcDbSpline
 62
7
  6
CONTINUOUS
 70
0
 71
3
 72
21
 73
17
 74
0
 42
0.0000001
 43
0.0000001
 44
0.0000000001
 40
0.0
 40
0.0
 40
0.0
 40
0.0
 40
0.0621604898
 40
0.1241984835
 40
0.1861504711
 40
0.2480554595
 40
0.3099518597
 40
0.3718783665
 40
0.4959005071
 40
0.620486259
 40
0.683105919
 40
0.7459548873
 40
0.8090539876
 40
0.8724203926
 40
0.9360668682
 40
1.0
 40
1.0
 40
1.0
 40
1.0
 10
10.8012211664
 20
8.7373507345
 30
0.0
 10
10.805189221
 20
8.739386659
 30
0.0
 10
10.8129794073
 20
8.7437304494
 30
0.0
 10
10.8241741142
 20
8.7510332491
 30
0.0
 10
10.834819032
 20
8.7590874387
 30
0.0
 10
10.8448671914
 20
8.7678588656
 30
0.0
 10
10.8542786164
 20
8.7773085903
 30
0.0
 10
10.8659232505
 20
8.7907638555
 30
0.0
 10
10.878708151
 20
8.8091046633
 30
0.0
 10
10.8888518463
 20
8.8290820612
 30
0.0
 10
10.8952986411
 20
8.8458369383
 30
0.0
 10
10.8992893582
 20
8.8587756348
 30
0.0
 10
10.9024118144
 20
8.8720050821
 30
0.0
 10
10.9046498663
 20
8.8854707636
 30
0.0
 10
10.905995493
 20
8.899113961
 30
0.0
 10
10.9062941205
 20
8.908270373
 30
0.0
 10
10.9062941205
 20
8.9128574266
 30
0.0
  0
SPLINE
  5
35E
100
AcDbEntity
  8
0
100
AcDbSpline
 62
7
  6
CONTINUOUS
 70
0
 71
3
 72
23
 73
19
 74
0
 42
0.0000001
 43
0.0000001
 44
0.0000000001
 40
0.0
 40
0.0
 40
0.0
 40
0.0
 40
0.0611123718
 40
0.1224974328
 40
0.1841476917
 40
0.2460524529
 40
0.3081953791
 40
0.3705571335
 40
0.4331151964
 40
0.4958427636
 40
0.5587116368
 40
0.6216909416
 40
0.6847475563
 40
0.7478483251
 40
0.8109582777
 40
0.8740423262
 40
0.9370672663
 40
1.0
 40
1.0
 40
1.0
 40
1.0
 10
10.9062929068
 20
8.9135732107
 30
0.0
 10
10.9062772941
 20
8.918177802
 30
0.0
 10
10.90594404
 20
8.927409227
 30
0.0
 10
10.9045507864
 20
8.941223112
 30
0.0
 10
10.9022673832
 20
8.9549791029
 30
0.0
 10
10.8991025779
 20
8.968617718
 30
0.0
 10
10.8950728792
 20
8.9820821789
 30
0.0
 10
10.8901922058
 20
8.9953144658
 30
0.0
 10
10.8844829015
 20
9.0082589054
 30
0.0
 10
10.8779701804
 20
9.0208613282
 30
0.0
 10
10.8706788043
 20
9.0330667431
 30
0.0
 10
10.8626426436
 20
9.0448251193
 30
0.0
 10
10.8538944875
 20
9.05608602
 30
0.0
 10
10.8444704853
 20
9.0668007589
 30
0.0
 10
10.8344130134
 20
9.0769260958
 30
0.0
 10
10.8237622395
 20
9.0864170856
 30
0.0
 10
10.812564772
 20
9.0952339539
 30
0.0
 10
10.8047588499
 20
9.1006441356
 30
0.0
 10
10.8007805031
 20
9.10322429
 30
0.0
  0
LINE
  5
35F
100
AcDbEntity
  8
0
100
AcDbLine
 62
7
  6
CONTINUOUS
 10
10.8007805031
 20
9.10322429
 11
10.8005252363
 21
9.103389605
  0
SPLINE
  5
360
100
AcDbEntity
  8
0
100
AcDbSpline
 62
7
  6
CONTINUOUS
 70
0
 71
3
 72
14
 73
10
 74
0
 42
0.0000001
 43
0.0000001
 44
0.0000000001
 40
0.0
 40
0.0
 40
0.0
 40
0.0
 40
0.2524683501
 40
0.37822438
 40
0.5035561126
 40
0.6284438742
 40
0.7528706101
 40
0.8767610755
 40
1.0
 40
1.0
 40
1.0
 40
1.0
 10
10.8005252363
 20
9.103389605
 30
0.0
 10
10.7925552349
 20
9.1085436798
 30
0.0
 10
10.7801221628
 20
9.1155411202
 30
0.0
 10
10.7628247034
 20
9.123253887
 30
0.0
 10
10.7495711939
 20
9.1281948042
 30
0.0
 10
10.7360820218
 20
9.1322781203
 30
0.0
 10
10.7224127002
 20
9.1354831979
 30
0.0
 10
10.7086283157
 20
9.1377980203
 30
0.0
 10
10.6993783136
 20
9.138744855
 30
0.0
 10
10.694756352
 20
9.1390653892
 30
0.0
  0
SPLINE
  5
361
100
AcDbEntity
  8
0
100
AcDbSpline
 62
7
  6
CONTINUOUS
 70
0
 71
3
 72
20
 73
16
 74
0
 42
0.0000001
 43
0.0000001
 44
0.0000000001
 40
0.0
 40
0.0
 40
0.0
 40
0.0
 40
0.064283381
 40
0.1284469336
 40
0.1924130566
 40
0.2561327067
 40
0.3195962377
 40
0.3827990426
 40
0.5083222639
 40
0.6327140719
 40
0.6945237837
 40
0.7560701403
 40
0.81738136
 40
0.8784876953
 40
1.0
 40
1.0
 40
1.0
 40
1.0
 10
10.618242753
 20
8.9256368978
 30
0.0
 10
10.6162657269
 20
8.9291983148
 30
0.0
 10
10.6125343972
 20
8.9364386625
 30
0.0
 10
10.6076261033
 20
8.9476075623
 30
0.0
 10
10.6034345318
 20
8.9590273896
 30
0.0
 10
10.5999820799
 20
8.9706454881
 30
0.0
 10
10.5972803369
 20
8.9824117482
 30
0.0
 10
10.5947031158
 20
8.9981918392
 30
0.0
 10
10.5933933794
 20
9.0180486697
 30
0.0
 10
10.5946858578
 20
9.0378207755
 30
0.0
 10
10.5972705914
 20
9.0533153864
 30
0.0
 10
10.5999698451
 20
9.0647106719
 30
0.0
 10
10.6034209922
 20
9.0758553243
 30
0.0
 10
10.6089952752
 20
9.0902805554
 30
0.0
 10
10.6142743362
 20
9.100632675
 30
0.0
 10
10.618242753
 20
9.1072309639
 30
0.0
  0
SPLINE
  5
362
100
AcDbEntity
  8
0
100
AcDbSpline
 62
7
  6
CONTINUOUS
 70
0
 71
3
 72
22
 73
18
 74
0
 42
0.0000001
 43
0.0000001
 44
0.0000000001
 40
0.0
 40
0.0
 40
0.0
 40
0.0
 40
0.1225783061
 40
0.1843271989
 40
0.2463048976
 40
0.3085027642
 40
0.3709108754
 40
0.4335077155
 40
0.4962624701
 40
0.5591432843
 40
0.622115833
 40
0.6851434569
 40
0.7481951323
 40
0.8112474555
 40
0.8742753569
 40
0.9372202319
 40
1.0
 40
1.0
 40
1.0
 40
1.0
 10
10.7755078275
 20
8.8239334948
 30
0.0
 10
10.7675555589
 20
8.8244849865
 30
0.0
 10
10.7556338123
 20
8.8261015294
 30
0.0
 10
10.740032549
 20
8.8297599018
 30
0.0
 10
10.7284518378
 20
8.8332654548
 30
0.0
 10
10.7170752282
 20
8.8375066009
 30
0.0
 10
10.7059492921
 20
8.8424677035
 30
0.0
 10
10.6951207651
 20
8.848126408
 30
0.0
 10
10.6846354213
 20
8.8544579086
 30
0.0
 10
10.6745402783
 20
8.8614376139
 30
0.0
 10
10.6648770725
 20
8.8690326431
 30
0.0
 10
10.65568749
 20
8.8772111225
 30
0.0
 10
10.6470112459
 20
8.8859395668
 30
0.0
 10
10.6388829504
 20
8.8951804483
 30
0.0
 10
10.631339901
 20
8.9048963494
 30
0.0
 10
10.6244151853
 20
8.9150401049
 30
0.0
 10
10.62022427
 20
8.9220673911
 30
0.0
 10
10.618242753
 20
8.9256368978
 30
0.0
  0
SPLINE
  5
363
100
AcDbEntity
  8
0
100
AcDbSpline
 62
7
  6
CONTINUOUS
 70
0
 71
3
 72
15
 73
11
 74
0
 42
0.0000001
 43
0.0000001
 44
0.0000000001
 40
0.0
 40
0.0
 40
0.0
 40
0.0
 40
0.1389375432
 40
0.2781365294
 40
0.4159442255
 40
0.5496461298
 40
0.676135728
 40
0.7933333011
 40
0.9009506095
 40
1.0
 40
1.0
 40
1.0
 40
1.0
 10
10.4855655604
 20
8.9425485216
 30
0.0
 10
10.4907567158
 20
8.9504154833
 30
0.0
 10
10.5011004202
 20
8.9661962338
 30
0.0
 10
10.5163800517
 20
8.9899188089
 30
0.0
 10
10.531225757
 20
9.0134969328
 30
0.0
 10
10.545318897
 20
9.0365277447
 30
0.0
 10
10.5583547246
 20
9.058563241
 30
0.0
 10
10.5701585165
 20
9.0792680086
 30
0.0
 10
10.5807351459
 20
9.0985261693
 30
0.0
 10
10.5873021483
 20
9.1109136571
 30
0.0
 10
10.5904089433
 20
9.1168716744
 30
0.0
  0
SPLINE
  5
364
100
AcDbEntity
  8
0
100
AcDbSpline
 62
7
  6
CONTINUOUS
 70
0
 71
3
 72
23
 73
19
 74
0
 42
0.0000001
 43
0.0000001
 44
0.0000000001
 40
0.0
 40
0.0
 40
0.0
 40
0.0
 40
0.0616482049
 40
0.1233194645
 40
0.1850366601
 40
0.2468215803
 40
0.3086958874
 40
0.3706805387
 40
0.4327949852
 40
0.4950576208
 40
0.5574833124
 40
0.620084195
 40
0.682872566
 40
0.7458647459
 40
0.8090766705
 40
0.8725171946
 40
0.9361676357
 40
1.0
 40
1.0
 40
1.0
 40
1.0
 10
10.3118966448
 20
9.340467493
 30
0.0
 10
10.3182145453
 20
9.3465703449
 30
0.0
 10
10.331183405
 20
9.3584412942
 30
0.0
 10
10.3515710254
 20
9.37517809
 30
0.0
 10
10.372843296
 20
9.3908091633
 30
0.0
 10
10.3949456953
 20
9.4052950819
 30
0.0
 10
10.417824693
 20
9.4185964189
 30
0.0
 10
10.4414209821
 20
9.4306823173
 30
0.0
 10
10.465675319
 20
9.441522849
 30
0.0
 10
10.4905279136
 20
9.4510872077
 30
0.0
 10
10.5159142418
 20
9.4593546168
 30
0.0
 10
10.5417698614
 20
9.4663048345
 30
0.0
 10
10.5680309191
 20
9.4719172048
 30
0.0
 10
10.5946324937
 20
9.4761802896
 30
0.0
 10
10.6215100063
 20
9.479083215
 30
0.0
 10
10.6485943895
 20
9.4806149797
 30
0.0
 10
10.6758090735
 20
9.4807770126
 30
0.0
 10
10.6939650173
 20
9.4799731389
 30
0.0
 10
10.7030385546
 20
9.479343887
 30
0.0
  0
SPLINE
  5
365
100
AcDbEntity
  8
0
100
AcDbSpline
 62
7
  6
CONTINUOUS
 70
0
 71
3
 72
16
 73
12
 74
0
 42
0.0000001
 43
0.0000001
 44
0.0000000001
 40
0.0
 40
0.0
 40
0.0
 40
0.0
 40
0.1246775626
 40
0.2522043928
 40
0.3819697647
 40
0.512346339
 40
0.6409165119
 40
0.7655319355
 40
0.8851986419
 40
0.9431796369
 40
1.0
 40
1.0
 40
1.0
 40
1.0
 10
10.5904089433
 20
8.7536835422
 30
0.0
 10
10.5873863685
 20
8.7621900102
 30
0.0
 10
10.5810358214
 20
8.7793149666
 30
0.0
 10
10.5705375682
 20
8.8049092151
 30
0.0
 10
10.5588017033
 20
8.8304188297
 30
0.0
 10
10.5457949194
 20
8.8553927048
 30
0.0
 10
10.5316760554
 20
8.8793239505
 30
0.0
 10
10.5167645138
 20
8.9018424711
 30
0.0
 10
10.503836426
 20
8.9195109991
 30
0.0
 10
10.4934039404
 20
8.9329053615
 30
0.0
 10
10.4881780136
 20
8.9393702202
 30
0.0
 10
10.4855655604
 20
8.9425485216
 30
0.0
  0
SPLINE
  5
366
100
AcDbEntity
  8
0
100
AcDbSpline
 62
7
  6
CONTINUOUS
 70
0
 71
3
 72
13
 73
9
 74
0
 42
0.0000001
 43
0.0000001
 44
0.0000000001
 40
0.0
 40
0.0
 40
0.0
 40
0.0
 40
0.1379287965
 40
0.272663193
 40
0.5305718957
 40
0.7725714046
 40
0.8879771085
 40
1.0
 40
1.0
 40
1.0
 40
1.0
 10
10.7027797358
 20
8.7536835486
 30
0.0
 10
10.7072973589
 20
8.7533702504
 30
0.0
 10
10.7162218715
 20
8.7526579476
 30
0.0
 10
10.7335541125
 20
8.7509040007
 30
0.0
 10
10.7542140179
 20
8.7481451441
 30
0.0
 10
10.7741177329
 20
8.7446561496
 30
0.0
 10
10.7892201245
 20
8.7415782739
 30
0.0
 10
10.7965109766
 20
8.7399644398
 30
0.0
 10
10.8000957092
 20
8.7391417156
 30
0.0
  0
SPLINE
  5
367
100
AcDbEntity
  8
0
100
AcDbSpline
 62
7
  6
CONTINUOUS
 70
0
 71
3
 72
14
 73
10
 74
0
 42
0.0000001
 43
0.0000001
 44
0.0000000001
 40
0.0
 40
0.0
 40
0.0
 40
0.0
 40
0.2489100079
 40
0.3744249398
 40
0.5003613314
 40
0.6264089266
 40
0.7521065273
 40
0.8768864172
 40
1.0
 40
1.0
 40
1.0
 40
1.0
 10
10.5904089433
 20
8.7536835422
 30
0.0
 10
10.5997249951
 20
8.7541769523
 30
0.0
 10
10.6137465534
 20
8.7547871661
 30
0.0
 10
10.6324943852
 20
8.7552636418
 30
0.0
 10
10.6466425167
 20
8.7554305268
 30
0.0
 10
10.6607984754
 20
8.7553805714
 30
0.0
 10
10.6749084089
 20
8.7550931129
 30
0.0
 10
10.6889007165
 20
8.754547397
 30
0.0
 10
10.6981765138
 20
8.7540027832
 30
0.0
 10
10.7027797358
 20
8.7536835486
 30
0.0
  0
SPLINE
  5
368
100
AcDbEntity
  8
0
100
AcDbSpline
 62
7
  6
CONTINUOUS
 70
0
 71
3
 72
66
 73
62
 74
0
 42
0.0000001
 43
0.0000001
 44
0.0000000001
 40
0.0
 40
0.0
 40
0.0
 40
0.0
 40
0.0313892319
 40
0.0471734483
 40
0.0630045494
 40
0.0947922188
 40
0.1107556328
 40
0.126758753
 40
0.1427973822
 40
0.1588672385
 40
0.174964115
 40
0.1910835842
 40
0.2072211173
 40
0.2233719516
 40
0.2395310416
 40
0.2556933588
 40
0.2718539342
 40
0.2880076864
 40
0.3041496364
 40
0.32027501
 40
0.3363790385
 40
0.3524571444
 40
0.368505122
 40
0.3845189036
 40
0.4004946911
 40
0.4164291943
 40
0.4323193802
 40
0.4481625505
 40
0.4639566204
 40
0.4796998632
 40
0.4953909309
 40
0.5110291558
 40
0.5266142955
 40
0.542146505
 40
0.5576266393
 40
0.5730560022
 40
0.5884362808
 40
0.6037698305
 40
0.619059427
 40
0.6343081765
 40
0.6495197715
 40
0.6646982401
 40
0.6798478494
 40
0.6949733256
 40
0.7100795921
 40
0.7251716853
 40
0.7402549452
 40
0.7553347395
 40
0.7704164033
 40
0.7855053917
 40
0.8006069684
 40
0.8157262041
 40
0.83086817
 40
0.8460376768
 40
0.8612392288
 40
0.8764770253
 40
0.9070640933
 40
0.9378335392
 40
0.9533006817
 40
0.9688224861
 40
1.0
 40
1.0
 40
1.0
 40
1.0
 10
10.694756352
 20
9.4404342648
 30
0.0
 10
10.7115882313
 20
9.43926697
 30
0.0
 10
10.736819325
 20
9.4362669111
 30
0.0
 10
10.7700828708
 20
9.4298574893
 30
0.0
 10
10.8032105362
 20
9.4218092838
 30
0.0
 10
10.835817979
 20
9.4113710726
 30
0.0
 10
10.8676465003
 20
9.3986448391
 30
0.0
 10
10.891140968
 20
9.3879510785
 30
0.0
 10
10.9141625154
 20
9.376149882
 30
0.0
 10
10.9366546479
 20
9.3632664311
 30
0.0
 10
10.9585638903
 20
9.3493340654
 30
0.0
 10
10.979838363
 20
9.3343870472
 30
0.0
 10
11.0004251473
 20
9.3184588062
 30
0.0
 10
11.0202759264
 20
9.3015894079
 30
0.0
 10
11.0393437604
 20
9.2838202531
 30
0.0
 10
11.057580522
 20
9.2651917953
 30
0.0
 10
11.0749435069
 20
9.2457502498
 30
0.0
 10
11.0913920968
 20
9.2255432673
 30
0.0
 10
11.106884273
 20
9.204617509
 30
0.0
 10
11.1213838675
 20
9.1830243487
 30
0.0
 10
11.1348574338
 20
9.1608165837
 30
0.0
 10
11.1472698999
 20
9.1380460599
 30
0.0
 10
11.1585923377
 20
9.1147682803
 30
0.0
 10
11.1687992548
 20
9.0910400034
 30
0.0
 10
11.1778633227
 20
9.0669171356
 30
0.0
 10
11.1857634331
 20
9.0424581871
 30
0.0
 10
11.1924826226
 20
9.0177225917
 30
0.0
 10
11.1980019086
 20
8.9927690963
 30
0.0
 10
11.202308419
 20
8.9676580465
 30
0.0
 10
11.2053941099
 20
8.9424502072
 30
0.0
 10
11.2072487787
 20
8.9172058788
 30
0.0
 10
11.2078680458
 20
8.8919860395
 30
0.0
 10
11.2072529724
 20
8.8668514089
 30
0.0
 10
11.2054023807
 20
8.8418625113
 30
0.0
 10
11.2023204763
 20
8.8170797465
 30
0.0
 10
11.1980174028
 20
8.7925624132
 30
0.0
 10
11.192501059
 20
8.7683699126
 30
0.0
 10
11.1857841648
 20
8.7445608673
 30
0.0
 10
11.1778857157
 20
8.7211918114
 30
0.0
 10
11.1688225386
 20
8.6983196845
 30
0.0
 10
11.1586156345
 20
8.6760001637
 30
0.0
 10
11.1472924122
 20
8.6542857394
 30
0.0
 10
11.1348782718
 20
8.6332295899
 30
0.0
 10
11.1214021034
 20
8.6128833278
 30
0.0
 10
11.1068991024
 20
8.5932942167
 30
0.0
 10
11.0914026909
 20
8.5745104399
 30
0.0
 10
11.0749490904
 20
8.5565784905
 30
0.0
 10
11.0575804446
 20
8.5395393604
 30
0.0
 10
11.0393374209
 20
8.5234351229
 30
0.0
 10
11.0202628834
 20
8.5083062
 30
0.0
 10
11.0004050348
 20
8.4941863971
 30
0.0
 10
10.9798109343
 20
8.4811106567
 30
0.0
 10
10.9585291132
 20
8.4691124281
 30
0.0
 10
10.9366126565
 20
8.4582177628
 30
0.0
 10
10.9141129197
 20
8.4484535746
 30
0.0
 10
10.8833750151
 20
8.4369641195
 30
0.0
 10
10.8437407582
 20
8.4255402403
 30
0.0
 10
10.8030322316
 20
8.4181814746
 30
0.0
 10
10.7700018268
 20
8.4147434905
 30
0.0
 10
10.7366245073
 20
8.412947089
 30
0.0
 10
10.7114747016
 20
8.413461555
 30
0.0
 10
10.694756352
 20
8.4146209765
 30
0.0
  0
SPLINE
  5
369
100
AcDbEntity
  8
0
100
AcDbSpline
 62
7
  6
CONTINUOUS
 70
0
 71
3
 72
48
 73
44
 74
0
 42
0.0000001
 43
0.0000001
 44
0.0000000001
 40
0.0
 40
0.0
 40
0.0
 40
0.0
 40
0.0310641289
 40
0.0466623032
 40
0.0622976282
 40
0.0779662267
 40
0.0936665963
 40
0.1093984811
 40
0.1251614885
 40
0.1567739125
 40
0.1884967449
 40
0.2043964948
 40
0.2203175331
 40
0.2522108023
 40
0.2681828666
 40
0.2841674683
 40
0.3161605366
 40
0.3481743355
 40
0.380188979
 40
0.4121843742
 40
0.4441409293
 40
0.4760396708
 40
0.5078625487
 40
0.5395930816
 40
0.5712161079
 40
0.6027188151
 40
0.6184237047
 40
0.6340946027
 40
0.6653263084
 40
0.6808901082
 40
0.6964169838
 40
0.7273545292
 40
0.7427697494
 40
0.7581479226
 40
0.7887904552
 40
0.8192923625
 40
0.834495533
 40
0.8496669669
 40
0.8799154749
 40
0.9100562917
 40
0.9401052937
 40
0.9700800588
 40
1.0
 40
1.0
 40
1.0
 40
1.0
 10
10.7030385546
 20
9.479343887
 30
0.0
 10
10.71567323
 20
9.4784676693
 30
0.0
 10
10.73461465
 20
9.4764900684
 30
0.0
 10
10.7597113165
 20
9.4725613421
 30
0.0
 10
10.7784957187
 20
9.4689611577
 30
0.0
 10
10.7971869246
 20
9.4647146626
 30
0.0
 10
10.8157617193
 20
9.4598276669
 30
0.0
 10
10.8341984569
 20
9.454307019
 30
0.0
 10
10.8585890337
 20
9.4461033717
 30
0.0
 10
10.8886243613
 20
9.4342919401
 30
0.0
 10
10.9178613481
 20
9.4204938239
 30
0.0
 10
10.9407198296
 20
9.4082920179
 30
0.0
 10
10.9632240653
 20
9.3953098815
 30
0.0
 10
10.9851031792
 20
9.3812113832
 30
0.0
 10
11.0062731378
 20
9.3660559501
 30
0.0
 10
11.0269699948
 20
9.3501928841
 30
0.0
 10
11.0518749158
 20
9.3290984463
 30
0.0
 10
11.0800634734
 20
9.3018933242
 30
0.0
 10
11.1064276366
 20
9.2729144272
 30
0.0
 10
11.1308439251
 20
9.2423063816
 30
0.0
 10
11.1531889432
 20
9.2102124561
 30
0.0
 10
11.1733609789
 20
9.1767920286
 30
0.0
 10
11.1912557493
 20
9.1422024465
 30
0.0
 10
11.2067933892
 20
9.1066140292
 30
0.0
 10
11.2198922699
 20
9.0701968265
 30
0.0
 10
11.2287369298
 20
9.0392709138
 30
0.0
 10
11.2345328454
 20
9.014294328
 30
0.0
 10
11.2394587608
 20
8.9892447948
 30
0.0
 10
11.2431002457
 20
8.9640148804
 30
0.0
 10
11.2454325755
 20
8.9387088161
 30
0.0
 10
11.2468842824
 20
8.9134572269
 30
0.0
 10
11.2470261319
 20
8.8882048106
 30
0.0
 10
11.2458487147
 20
8.863060171
 30
0.0
 10
11.2437983932
 20
8.8380918387
 30
0.0
 10
11.2396027005
 20
8.8071487149
 30
0.0
 10
11.2332324966
 20
8.7766512434
 30
0.0
 10
11.2268521274
 20
8.7526607273
 30
0.0
 10
11.2196418794
 20
8.7290146439
 30
0.0
 10
11.2090627881
 20
8.7000500315
 30
0.0
 10
11.1939033935
 20
8.6664029909
 30
0.0
 10
11.1763703201
 20
8.634054435
 30
0.0
 10
11.1565433622
 20
8.6031681694
 30
0.0
 10
11.1418496314
 20
8.5836310057
 30
0.0
 10
11.1341595281
 20
8.5741617689
 30
0.0
  0
SPLINE
  5
36A
100
AcDbEntity
  8
0
100
AcDbSpline
 62
7
  6
CONTINUOUS
 70
0
 71
3
 72
23
 73
19
 74
0
 42
0.0000001
 43
0.0000001
 44
0.0000000001
 40
0.0
 40
0.0
 40
0.0
 40
0.0
 40
0.063776909
 40
0.1273449468
 40
0.1907019575
 40
0.2538561145
 40
0.3168131979
 40
0.3795820804
 40
0.4421733815
 40
0.5045993354
 40
0.5668738682
 40
0.6290123838
 40
0.6910316538
 40
0.75294965
 40
0.8147853622
 40
0.8765586114
 40
0.9382898593
 40
1.0
 40
1.0
 40
1.0
 40
1.0
 10
11.3547289367
 20
8.8930122226
 30
0.0
 10
11.3547289367
 20
8.8826441832
 30
0.0
 10
11.3542326648
 20
8.8619385473
 30
0.0
 10
11.3519928412
 20
8.8310060652
 30
0.0
 10
11.3482634714
 20
8.8003187597
 30
0.0
 10
11.3430535178
 20
8.7699487129
 30
0.0
 10
11.3363745952
 20
8.7399653369
 30
0.0
 10
11.3282421508
 20
8.7104379436
 30
0.0
 10
11.3186748915
 20
8.6814345551
 30
0.0
 10
11.3076947911
 20
8.6530220536
 30
0.0
 10
11.2953270712
 20
8.6252659864
 30
0.0
 10
11.2816001958
 20
8.5982303753
 30
0.0
 10
11.2665458195
 20
8.5719775674
 30
0.0
 10
11.250198606
 20
8.546568108
 30
0.0
 10
11.2325962457
 20
8.5220606921
 30
0.0
 10
11.2137790965
 20
8.4985116813
 30
0.0
 10
11.1937913239
 20
8.4759761177
 30
0.0
 10
11.1797138295
 20
8.4616600235
 30
0.0
 10
11.1724982461
 20
8.4546902751
 30
0.0
  0
SPLINE
  5
36B
100
AcDbEntity
  8
0
100
AcDbSpline
 62
7
  6
CONTINUOUS
 70
0
 71
3
 72
27
 73
23
 74
0
 42
0.0000001
 43
0.0000001
 44
0.0000000001
 40
0.0
 40
0.0
 40
0.0
 40
0.0
 40
0.0637762197
 40
0.0955883945
 40
0.1273468658
 40
0.1907029382
 40
0.2538558262
 40
0.2853602393
 40
0.3168164378
 40
0.3795841238
 40
0.4421741853
 40
0.504598912
 40
0.5668722169
 40
0.6290095106
 40
0.6910275639
 40
0.7219999722
 40
0.7529493967
 40
0.8147838933
 40
0.8765559303
 40
0.907427449
 40
0.9382910684
 40
1.0
 40
1.0
 40
1.0
 40
1.0
 10
9.4808327853
 20
6.486446062
 30
0.0
 10
9.4808327853
 20
6.4717886747
 30
0.0
 10
9.4803061001
 20
6.4498151604
 30
0.0
 10
9.4785441057
 20
6.4205986658
 30
0.0
 10
9.4760825196
 20
6.3915291264
 30
0.0
 10
9.4716926281
 20
6.3554057743
 30
0.0
 10
9.4655496419
 20
6.3195978513
 30
0.0
 10
9.4595953874
 20
6.2912293158
 30
0.0
 10
9.4529623181
 20
6.2631028116
 30
0.0
 10
9.4433883445
 20
6.2283411972
 30
0.0
 10
9.4298631544
 20
6.1873396287
 30
0.0
 10
9.4143405159
 20
6.1471729483
 30
0.0
 10
9.3968561848
 20
6.1079342673
 30
0.0
 10
9.3774507455
 20
6.069714512
 30
0.0
 10
9.3597069592
 20
6.038771991
 30
0.0
 10
9.3446002939
 20
6.0146202114
 30
0.0
 10
9.3289049123
 20
5.9908973176
 30
0.0
 10
9.3081735903
 20
5.9620335303
 30
0.0
 10
9.2860004543
 20
5.9342849083
 30
0.0
 10
9.2674377851
 20
5.9128069623
 30
0.0
 10
9.2483394607
 20
5.8918243803
 30
0.0
 10
9.2334136421
 20
5.8766456565
 30
0.0
 10
9.2232129823
 20
5.8667925665
 30
0.0
  0
SPLINE
  5
36C
100
AcDbEntity
  8
0
100
AcDbSpline
 62
7
  6
CONTINUOUS
 70
0
 71
3
 72
26
 73
22
 74
0
 42
0.0000001
 43
0.0000001
 44
0.0000000001
 40
0.0
 40
0.0
 40
0.0
 40
0.0
 40
0.063776425
 40
0.1273428323
 40
0.1906991404
 40
0.2538523371
 40
0.2853569021
 40
0.3168132445
 40
0.3795812216
 40
0.4421715773
 40
0.5045965951
 40
0.5668701924
 40
0.6290077787
 40
0.6910261245
 40
0.7219986763
 40
0.7529482473
 40
0.8147830318
 40
0.8765553555
 40
0.9074270196
 40
0.938290781
 40
1.0
 40
1.0
 40
1.0
 40
1.0
 10
11.5556415205
 20
7.1288211516
 30
0.0
 10
11.5556415205
 20
7.1152438428
 30
0.0
 10
11.5549916855
 20
7.088129357
 30
0.0
 10
11.5520584914
 20
7.0476223866
 30
0.0
 10
11.5471749037
 20
7.0074370561
 30
0.0
 10
11.5414845988
 20
6.9742674514
 30
0.0
 10
11.5359690912
 20
6.9479893399
 30
0.0
 10
11.5298248371
 20
6.9219353745
 30
0.0
 10
11.5209563497
 20
6.8897352406
 30
0.0
 10
11.5084278224
 20
6.8517549432
 30
0.0
 10
11.4940490417
 20
6.8145480085
 30
0.0
 10
11.4778531343
 20
6.778200682
 30
0.0
 10
11.459877679
 20
6.7427971963
 30
0.0
 10
11.4434414442
 20
6.7141346971
 30
0.0
 10
11.4294479471
 20
6.6917625865
 30
0.0
 10
11.4149091708
 20
6.6697877221
 30
0.0
 10
11.3957055082
 20
6.6430507973
 30
0.0
 10
11.3751662886
 20
6.6173468548
 30
0.0
 10
11.3579715291
 20
6.5974514828
 30
0.0
 10
11.3402805192
 20
6.57801503
 30
0.0
 10
11.3264546086
 20
6.5639547136
 30
0.0
 10
11.3170056162
 20
6.5548276564
 30
0.0
  0
SPLINE
  5
36D
100
AcDbEntity
  8
0
100
AcDbSpline
 62
7
  6
CONTINUOUS
 70
0
 71
3
 72
56
 73
52
 74
0
 42
0.0000001
 43
0.0000001
 44
0.0000000001
 40
0.0
 40
0.0
 40
0.0
 40
0.0
 40
0.0417736882
 40
0.084036569
 40
0.126657816
 40
0.1695056114
 40
0.2124469876
 40
0.2553487175
 40
0.2980776897
 40
0.3405014874
 40
0.382488896
 40
0.4239104382
 40
0.4646389059
 40
0.5045499007
 40
0.5435223862
 40
0.5814392545
 40
0.618187917
 40
0.6536609283
 40
0.6877566583
 40
0.7042583751
 40
0.7203806689
 40
0.736112881
 40
0.7514447564
 40
0.7663667196
 40
0.7808696734
 40
0.7949452813
 40
0.8085857852
 40
0.8217842875
 40
0.8345346038
 40
0.8468315409
 40
0.8586708034
 40
0.870049268
 40
0.8809649654
 40
0.8914173597
 40
0.9014074321
 40
0.9109379838
 40
0.9200138552
 40
0.928642284
 40
0.9368332998
 40
0.9446001777
 40
0.9519600405
 40
0.9589344314
 40
0.9655500921
 40
0.9718395715
 40
0.9778419465
 40
0.9836030969
 40
0.9891757603
 40
0.9919106346
 40
0.9946208937
 40
0.9973146057
 40
1.0
 40
1.0
 40
1.0
 40
1.0
 10
13.3554448544
 20
9.9058488355
 30
0.0
 10
13.3554448544
 20
9.9209600442
 30
0.0
 10
13.3556806096
 20
9.9513598967
 30
0.0
 10
13.3567228141
 20
9.9971668145
 30
0.0
 10
13.358452643
 20
10.0433418164
 30
0.0
 10
13.3608643911
 20
10.0897319419
 30
0.0
 10
13.3639501133
 20
10.1361837992
 30
0.0
 10
13.3676995965
 20
10.1825436749
 30
0.0
 10
13.3721004264
 20
10.2286582042
 30
0.0
 10
13.3771380115
 20
10.2743748251
 30
0.0
 10
13.3827956392
 20
10.3195423057
 30
0.0
 10
13.3890545268
 20
10.3640112423
 30
0.0
 10
13.395893884
 20
10.4076345608
 30
0.0
 10
13.4032909804
 20
10.4502680067
 30
0.0
 10
13.4112212181
 20
10.4917706364
 30
0.0
 10
13.419658214
 20
10.532005269
 30
0.0
 10
13.4285738776
 20
10.5708390385
 30
0.0
 10
13.4379385303
 20
10.6081435436
 30
0.0
 10
13.4461776537
 20
10.6381718457
 30
0.0
 10
13.4529822335
 20
10.66132849
 30
0.0
 10
13.4581227076
 20
10.6780490089
 30
0.0
 10
13.4633514208
 20
10.6942981707
 30
0.0
 10
13.4686641705
 20
10.7100625566
 30
0.0
 10
13.4740564395
 20
10.7253291575
 30
0.0
 10
13.4795238624
 20
10.7400853591
 30
0.0
 10
13.4850618056
 20
10.7543190036
 30
0.0
 10
13.4906657788
 20
10.7680183407
 30
0.0
 10
13.4963310474
 20
10.7811721043
 30
0.0
 10
13.5020530124
 20
10.7937694527
 30
0.0
 10
13.5078268624
 20
10.8058000535
 30
0.0
 10
13.5136479084
 20
10.8172540168
 30
0.0
 10
13.5195112915
 20
10.8281219833
 30
0.0
 10
13.5254122583
 20
10.8383950576
 30
0.0
 10
13.531345941
 20
10.8480648888
 30
0.0
 10
13.5373075584
 20
10.8571236147
 30
0.0
 10
13.5432922881
 20
10.8655639197
 30
0.0
 10
13.5492953793
 20
10.8733790023
 30
0.0
 10
13.5553121331
 20
10.8805625843
 30
0.0
 10
13.5613379162
 20
10.8871089188
 30
0.0
 10
13.5673682582
 20
10.8930127049
 30
0.0
 10
13.573398752
 20
10.8982691544
 30
0.0
 10
13.5794252413
 20
10.9028737477
 30
0.0
 10
13.5854435913
 20
10.9068223849
 30
0.0
 10
13.5914498079
 20
10.9101109297
 30
0.0
 10
13.5974398315
 20
10.9127355501
 30
0.0
 10
13.603408666
 20
10.9146921293
 30
0.0
 10
13.6083934454
 20
10.915769716
 30
0.0
 10
13.6123471547
 20
10.9162863437
 30
0.0
 10
13.615284898
 20
10.9165039203
 30
0.0
 10
13.6182122226
 20
10.9165537566
 30
0.0
 10
13.6201577435
 20
10.9164750761
 30
0.0
 10
13.6211268303
 20
10.9164078732
 30
0.0
  0
SPLINE
  5
36E
100
AcDbEntity
  8
0
100
AcDbSpline
 62
7
  6
CONTINUOUS
 70
0
 71
3
 72
52
 73
48
 74
0
 42
0.0000001
 43
0.0000001
 44
0.0000000001
 40
0.0
 40
0.0
 40
0.0
 40
0.0
 40
0.0417736292
 40
0.0840373446
 40
0.1266586052
 40
0.1695067922
 40
0.2124484278
 40
0.2553504556
 40
0.2980797169
 40
0.3405037987
 40
0.3824914834
 40
0.4239132935
 40
0.4646420229
 40
0.5045532747
 40
0.5435260114
 40
0.5814431205
 40
0.6181920046
 40
0.6536652163
 40
0.6877611311
 40
0.7203846817
 40
0.7514482003
 40
0.7663702348
 40
0.7808732728
 40
0.7949489244
 40
0.8085895246
 40
0.8217880475
 40
0.8345384568
 40
0.8468354098
 40
0.8586747416
 40
0.8700532367
 40
0.8809689705
 40
0.8914214137
 40
0.9014114943
 40
0.9109420987
 40
0.920017969
 40
0.9286464346
 40
0.9368374599
 40
0.9446043519
 40
0.9519642384
 40
0.9589386284
 40
0.9655543158
 40
0.9718437976
 40
0.9778461907
 40
0.9836073608
 40
0.9891800399
 40
0.9946230749
 40
1.0
 40
1.0
 40
1.0
 40
1.0
 10
12.7645615144
 20
8.7323615595
 30
0.0
 10
12.7645615144
 20
8.7422677312
 30
0.0
 10
12.7647160754
 20
8.7621966045
 30
0.0
 10
12.7653992826
 20
8.7922256167
 30
0.0
 10
12.7665333091
 20
8.8224960327
 30
0.0
 10
12.7681143351
 20
8.8529073381
 30
0.0
 10
12.7701372083
 20
8.8833591785
 30
0.0
 10
12.7725952047
 20
8.913750696
 30
0.0
 10
12.7754802002
 20
8.9439813815
 30
0.0
 10
12.7787826285
 20
8.9739512114
 30
0.0
 10
12.7824915321
 20
9.0035610453
 30
0.0
 10
12.7865945954
 20
9.0327129414
 30
0.0
 10
12.7910781881
 20
9.0613104857
 30
0.0
 10
12.7959274087
 20
9.089259113
 30
0.0
 10
12.801126133
 20
9.116466424
 30
0.0
 10
12.8066570655
 20
9.1428424943
 30
0.0
 10
12.8125017972
 20
9.1683001884
 30
0.0
 10
12.8186408614
 20
9.1927554389
 30
0.0
 10
12.8250537919
 20
9.2161276245
 30
0.0
 10
12.8317192264
 20
9.2383395583
 30
0.0
 10
12.8375408708
 20
9.2560512612
 30
0.0
 10
12.8423182186
 20
9.2695770572
 30
0.0
 10
12.8459024275
 20
9.2792505702
 30
0.0
 10
12.8495328893
 20
9.2885815005
 30
0.0
 10
12.8532065774
 20
9.2975621765
 30
0.0
 10
12.8569205272
 20
9.3061851783
 30
0.0
 10
12.8606715586
 20
9.3144434382
 30
0.0
 10
12.8644566842
 20
9.3223301402
 30
0.0
 10
12.8682726855
 20
9.3298388403
 30
0.0
 10
12.8721164788
 20
9.3369633752
 30
0.0
 10
12.8759849027
 20
9.3436979239
 30
0.0
 10
12.87987475
 20
9.3500370241
 30
0.0
 10
12.8837829591
 20
9.3559754842
 30
0.0
 10
12.8877062547
 20
9.3615085672
 30
0.0
 10
12.8916416543
 20
9.3666317419
 30
0.0
 10
12.8955859541
 20
9.3713409652
 30
0.0
 10
12.8995362076
 20
9.3756324142
 30
0.0
 10
12.9034894414
 20
9.3795026384
 30
0.0
 10
12.9074427559
 20
9.3829485168
 30
0.0
 10
12.911393484
 20
9.3859670228
 30
0.0
 10
12.9153388254
 20
9.3885555676
 30
0.0
 10
12.9192762717
 20
9.3907113287
 30
0.0
 10
12.9232030104
 20
9.3924318779
 30
0.0
 10
12.9271161026
 20
9.3937145078
 30
0.0
 10
12.9310122762
 20
9.3945567904
 30
0.0
 10
12.9348868158
 20
9.3949567432
 30
0.0
 10
12.9374591838
 20
9.3949273154
 30
0.0
 10
12.9387312089
 20
9.3948390971
 30
0.0
  0
SPLINE
  5
36F
100
AcDbEntity
  8
0
100
AcDbSpline
 62
7
  6
CONTINUOUS
 70
0
 71
3
 72
52
 73
48
 74
0
 42
0.0000001
 43
0.0000001
 44
0.0000000001
 40
0.0
 40
0.0
 40
0.0
 40
0.0
 40
0.0417736292
 40
0.0840373446
 40
0.1266586052
 40
0.1695067922
 40
0.2124484278
 40
0.2553504556
 40
0.2980797169
 40
0.3405037987
 40
0.3824914834
 40
0.4239132935
 40
0.4646420229
 40
0.5045532747
 40
0.5435260114
 40
0.5814431205
 40
0.6181920046
 40
0.6536652163
 40
0.6877611311
 40
0.7203846817
 40
0.7514482003
 40
0.7663702348
 40
0.7808732728
 40
0.7949489244
 40
0.8085895246
 40
0.8217880475
 40
0.8345384568
 40
0.8468354098
 40
0.8586747416
 40
0.8700532367
 40
0.8809689705
 40
0.8914214137
 40
0.9014114943
 40
0.9109420987
 40
0.920017969
 40
0.9286464346
 40
0.9368374599
 40
0.9446043519
 40
0.9519642384
 40
0.9589386284
 40
0.9655543158
 40
0.9718437976
 40
0.9778461907
 40
0.9836073608
 40
0.9891800399
 40
0.9946230749
 40
1.0
 40
1.0
 40
1.0
 40
1.0
 10
12.7645615144
 20
5.9543587885
 30
0.0
 10
12.7645615144
 20
5.9642649602
 30
0.0
 10
12.7647160754
 20
5.9841938335
 30
0.0
 10
12.7653992826
 20
6.0142228457
 30
0.0
 10
12.7665333091
 20
6.0444932617
 30
0.0
 10
12.7681143351
 20
6.0749045671
 30
0.0
 10
12.7701372083
 20
6.1053564075
 30
0.0
 10
12.7725952047
 20
6.135747925
 30
0.0
 10
12.7754802002
 20
6.1659786105
 30
0.0
 10
12.7787826285
 20
6.1959484404
 30
0.0
 10
12.7824915321
 20
6.2255582743
 30
0.0
 10
12.7865945954
 20
6.2547101704
 30
0.0
 10
12.7910781881
 20
6.2833077147
 30
0.0
 10
12.7959274087
 20
6.311256342
 30
0.0
 10
12.801126133
 20
6.338463653
 30
0.0
 10
12.8066570655
 20
6.3648397233
 30
0.0
 10
12.8125017972
 20
6.3902974174
 30
0.0
 10
12.8186408614
 20
6.4147526678
 30
0.0
 10
12.8250537919
 20
6.4381248535
 30
0.0
 10
12.8317192264
 20
6.4603367873
 30
0.0
 10
12.8375408708
 20
6.4780484902
 30
0.0
 10
12.8423182186
 20
6.4915742862
 30
0.0
 10
12.8459024275
 20
6.5012477992
 30
0.0
 10
12.8495328893
 20
6.5105787295
 30
0.0
 10
12.8532065774
 20
6.5195594055
 30
0.0
 10
12.8569205272
 20
6.5281824073
 30
0.0
 10
12.8606715586
 20
6.5364406672
 30
0.0
 10
12.8644566842
 20
6.5443273692
 30
0.0
 10
12.8682726855
 20
6.5518360693
 30
0.0
 10
12.8721164788
 20
6.5589606042
 30
0.0
 10
12.8759849027
 20
6.5656951529
 30
0.0
 10
12.87987475
 20
6.5720342531
 30
0.0
 10
12.8837829591
 20
6.5779727132
 30
0.0
 10
12.8877062547
 20
6.5835057962
 30
0.0
 10
12.8916416543
 20
6.5886289709
 30
0.0
 10
12.8955859541
 20
6.5933381942
 30
0.0
 10
12.8995362076
 20
6.5976296432
 30
0.0
 10
12.9034894414
 20
6.6014998674
 30
0.0
 10
12.9074427559
 20
6.6049457458
 30
0.0
 10
12.911393484
 20
6.6079642518
 30
0.0
 10
12.9153388254
 20
6.6105527966
 30
0.0
 10
12.9192762717
 20
6.6127085577
 30
0.0
 10
12.9232030104
 20
6.6144291069
 30
0.0
 10
12.9271161026
 20
6.6157117368
 30
0.0
 10
12.9310122762
 20
6.6165540194
 30
0.0
 10
12.9348868158
 20
6.6169539722
 30
0.0
 10
12.9374591838
 20
6.6169245444
 30
0.0
 10
12.9387312089
 20
6.6168363261
 30
0.0
  0
SPLINE
  5
370
100
AcDbEntity
  8
0
100
AcDbSpline
 62
7
  6
CONTINUOUS
 70
0
 71
3
 72
46
 73
42
 74
0
 42
0.0000001
 43
0.0000001
 44
0.0000000001
 40
0.0
 40
0.0
 40
0.0
 40
0.0
 40
0.0318972002
 40
0.063868028
 40
0.0958995517
 40
0.1279776284
 40
0.160087711
 40
0.1922147438
 40
0.2243434721
 40
0.256458611
 40
0.2885450584
 40
0.3205880937
 40
0.3525735767
 40
0.3844881397
 40
0.4163193725
 40
0.448055998
 40
0.4796880361
 40
0.5112069536
 40
0.5426057981
 40
0.5738793134
 40
0.6050240347
 40
0.63603836
 40
0.6669225971
 40
0.6976789827
 40
0.7283116737
 40
0.7588267075
 40
0.7892319314
 40
0.8043982013
 40
0.8195407367
 40
0.8346609796
 40
0.8497604549
 40
0.8648407765
 40
0.8799036288
 40
0.8949507726
 40
0.9099840264
 40
0.9250052698
 40
0.9400164274
 40
0.9550194676
 40
0.9700163899
 40
0.9850092199
 40
1.0
 40
1.0
 40
1.0
 40
1.0
 10
8.9182700126
 20
9.7864256355
 30
0.0
 10
8.9354027273
 20
9.7780481486
 30
0.0
 10
8.969232006
 20
9.7602805407
 30
0.0
 10
9.0184099245
 20
9.7307409084
 30
0.0
 10
9.0659145387
 20
9.6983836165
 30
0.0
 10
9.1115690603
 20
9.6633286651
 30
0.0
 10
9.1552063015
 20
9.6257047552
 30
0.0
 10
9.1966657389
 20
9.5856502503
 30
0.0
 10
9.2357950415
 20
9.5433123822
 30
0.0
 10
9.2724503654
 20
9.4988467597
 30
0.0
 10
9.3064969539
 20
9.4524167978
 30
0.0
 10
9.3378096083
 20
9.4041931192
 30
0.0
 10
9.3662731515
 20
9.3543529337
 30
0.0
 10
9.3917828482
 20
9.3030793914
 30
0.0
 10
9.414244789
 20
9.2505609156
 30
0.0
 10
9.4335762349
 20
9.1969905163
 30
0.0
 10
9.4497059226
 20
9.1425650871
 30
0.0
 10
9.4625743277
 20
9.0874846887
 30
0.0
 10
9.4721338864
 20
9.0319518198
 30
0.0
 10
9.4783491751
 20
8.9761706804
 30
0.0
 10
9.4811970449
 20
8.9203464248
 30
0.0
 10
9.480666719
 20
8.8646844241
 30
0.0
 10
9.476759823
 20
8.8093894737
 30
0.0
 10
9.4694904566
 20
8.7546652015
 30
0.0
 10
9.4588849059
 20
8.7007127324
 30
0.0
 10
9.4449824702
 20
8.6477321308
 30
0.0
 10
9.4306780542
 20
8.6045127808
 30
0.0
 10
9.4176429118
 20
8.5706277846
 30
0.0
 10
9.4070874416
 20
8.5455955672
 30
0.0
 10
9.3957553988
 20
8.5209494184
 30
0.0
 10
9.3836569989
 20
8.4967117449
 30
0.0
 10
9.37080355
 20
8.4729048761
 30
0.0
 10
9.3572066867
 20
8.4495508075
 30
0.0
 10
9.3428791356
 20
8.426670925
 30
0.0
 10
9.3278338471
 20
8.4042864395
 30
0.0
 10
9.3120849183
 20
8.3824177968
 30
0.0
 10
9.2956465841
 20
8.3610853114
 30
0.0
 10
9.2785342507
 20
8.3403084477
 30
0.0
 10
9.2607633497
 20
8.3201064712
 30
0.0
 10
9.2423507486
 20
8.3004980322
 30
0.0
 10
9.2296580672
 20
8.2878326804
 30
0.0
 10
9.2232114245
 20
8.2816057122
 30
0.0
  0
SPLINE
  5
371
100
AcDbEntity
  8
0
100
AcDbSpline
 62
7
  6
CONTINUOUS
 70
0
 71
3
 72
46
 73
42
 74
0
 42
0.0000001
 43
0.0000001
 44
0.0000000001
 40
0.0
 40
0.0
 40
0.0
 40
0.0
 40
0.006315901
 40
0.0126707127
 40
0.0191025808
 40
0.0256481471
 40
0.0323420418
 40
0.039216438
 40
0.0536143007
 40
0.0611950826
 40
0.0690568839
 40
0.0772180043
 40
0.085694446
 40
0.094499905
 40
0.1036460391
 40
0.1131428464
 40
0.1229986863
 40
0.1332203494
 40
0.1438134657
 40
0.1547825726
 40
0.1661309915
 40
0.189973408
 40
0.2153529628
 40
0.2422689457
 40
0.2707112921
 40
0.3006624273
 40
0.3320977976
 40
0.3649871768
 40
0.3992952195
 40
0.4349817954
 40
0.4720029071
 40
0.5103105874
 40
0.5498535424
 40
0.5905774295
 40
0.6324248595
 40
0.6753360048
 40
0.7192484167
 40
0.7640976385
 40
0.8098172438
 40
0.903588672
 40
1.0
 40
1.0
 40
1.0
 40
1.0
 10
12.8652574188
 20
5.5573810477
 30
0.0
 10
12.8643599305
 20
5.5574432908
 30
0.0
 10
12.8625636644
 20
5.5576416066
 30
0.0
 10
12.8598893962
 20
5.5581585643
 30
0.0
 10
12.8572330135
 20
5.5588949866
 30
0.0
 10
12.8545960505
 20
5.5598502178
 30
0.0
 10
12.8519795407
 20
5.5610237399
 30
0.0
 10
12.8484663174
 20
5.5629070946
 30
0.0
 10
12.8450484351
 20
5.5652124897
 30
0.0
 10
12.841740853
 20
5.5678841727
 30
0.0
 10
12.8392425065
 20
5.5701366997
 30
0.0
 10
12.836770805
 20
5.5726020564
 30
0.0
 10
12.8343264369
 20
5.5752794384
 30
0.0
 10
12.83191037
 20
5.5781676539
 30
0.0
 10
12.8295234581
 20
5.5812654994
 30
0.0
 10
12.8271666611
 20
5.5845717471
 30
0.0
 10
12.8248409098
 20
5.5880850655
 30
0.0
 10
12.8225470634
 20
5.59180399
 30
0.0
 10
12.8202860568
 20
5.5957270276
 30
0.0
 10
12.818058811
 20
5.5998526221
 30
0.0
 10
12.8150863039
 20
5.605718109
 30
0.0
 10
12.8114715666
 20
5.6135557548
 30
0.0
 10
12.8073512704
 20
5.6235907223
 30
0.0
 10
12.8033864429
 20
5.6343886782
 30
0.0
 10
12.7995834984
 20
5.6459319899
 30
0.0
 10
12.795948779
 20
5.6582020455
 30
0.0
 10
12.7924882203
 20
5.6711788374
 30
0.0
 10
12.7892075874
 20
5.6848411795
 30
0.0
 10
12.7861123707
 20
5.6991666998
 30
0.0
 10
12.7832076494
 20
5.7141318911
 30
0.0
 10
12.7804983398
 20
5.7297121707
 30
0.0
 10
12.7779889074
 20
5.7458819129
 30
0.0
 10
12.7756835342
 20
5.7626145037
 30
0.0
 10
12.7735861076
 20
5.7798823889
 30
0.0
 10
12.7717000562
 20
5.797657119
 30
0.0
 10
12.7700285822
 20
5.8159093902
 30
0.0
 10
12.7685744469
 20
5.8346091151
 30
0.0
 10
12.7673400347
 20
5.8537255049
 30
0.0
 10
12.7659786077
 20
5.8799484162
 30
0.0
 10
12.7648524509
 20
5.9135350338
 30
0.0
 10
12.7645615144
 20
5.9406258493
 30
0.0
 10
12.7645615144
 20
5.9543587885
 30
0.0
  0
SPLINE
  5
372
100
AcDbEntity
  8
0
100
AcDbSpline
 62
7
  6
CONTINUOUS
 70
0
 71
3
 72
15
 73
11
 74
0
 42
0.0000001
 43
0.0000001
 44
0.0000000001
 40
0.0
 40
0.0
 40
0.0
 40
0.0
 40
0.1245184603
 40
0.2490843664
 40
0.3737446609
 40
0.4985450601
 40
0.6235302201
 40
0.7487411419
 40
0.8742201232
 40
1.0
 40
1.0
 40
1.0
 40
1.0
 10
7.9031942517
 20
9.6481907141
 30
0.0
 10
7.9139628812
 20
9.658592406
 30
0.0
 10
7.9360742219
 20
9.6788188369
 30
0.0
 10
7.9708462085
 20
9.7073191576
 30
0.0
 10
8.0071405333
 20
9.7339133027
 30
0.0
 10
8.0448626426
 20
9.7585318073
 30
0.0
 10
8.08391572
 20
9.7811115727
 30
0.0
 10
8.1241997848
 20
9.8015949645
 30
0.0
 10
8.1656095871
 20
9.8199285017
 30
0.0
 10
8.1938630725
 20
9.8306739797
 30
0.0
 10
8.2081363793
 20
9.8356735703
 30
0.0
  0
SPLINE
  5
373
100
AcDbEntity
  8
0
100
AcDbSpline
 62
7
  6
CONTINUOUS
 70
0
 71
3
 72
46
 73
42
 74
0
 42
0.0000001
 43
0.0000001
 44
0.0000000001
 40
0.0
 40
0.0
 40
0.0
 40
0.0
 40
0.006315901
 40
0.0126707127
 40
0.0191025808
 40
0.0256481471
 40
0.0323420418
 40
0.039216438
 40
0.0536143007
 40
0.0611950826
 40
0.0690568839
 40
0.0772180043
 40
0.085694446
 40
0.094499905
 40
0.1036460391
 40
0.1131428464
 40
0.1229986863
 40
0.1332203494
 40
0.1438134657
 40
0.1547825726
 40
0.1661309915
 40
0.189973408
 40
0.2153529628
 40
0.2422689457
 40
0.2707112921
 40
0.3006624273
 40
0.3320977976
 40
0.3649871768
 40
0.3992952195
 40
0.4349817954
 40
0.4720029071
 40
0.5103105874
 40
0.5498535424
 40
0.5905774295
 40
0.6324248595
 40
0.6753360048
 40
0.7192484167
 40
0.7640976385
 40
0.8098172438
 40
0.903588672
 40
1.0
 40
1.0
 40
1.0
 40
1.0
 10
12.8652574188
 20
8.3353838187
 30
0.0
 10
12.8643599305
 20
8.3354460618
 30
0.0
 10
12.8625636644
 20
8.3356443776
 30
0.0
 10
12.8598893962
 20
8.3361613353
 30
0.0
 10
12.8572330135
 20
8.3368977576
 30
0.0
 10
12.8545960505
 20
8.3378529888
 30
0.0
 10
12.8519795407
 20
8.3390265109
 30
0.0
 10
12.8484663174
 20
8.3409098656
 30
0.0
 10
12.8450484351
 20
8.3432152607
 30
0.0
 10
12.841740853
 20
8.3458869437
 30
0.0
 10
12.8392425065
 20
8.3481394707
 30
0.0
 10
12.836770805
 20
8.3506048274
 30
0.0
 10
12.8343264369
 20
8.3532822094
 30
0.0
 10
12.83191037
 20
8.3561704249
 30
0.0
 10
12.8295234581
 20
8.3592682704
 30
0.0
 10
12.8271666611
 20
8.3625745181
 30
0.0
 10
12.8248409098
 20
8.3660878365
 30
0.0
 10
12.8225470634
 20
8.369806761
 30
0.0
 10
12.8202860568
 20
8.3737297986
 30
0.0
 10
12.818058811
 20
8.3778553931
 30
0.0
 10
12.8150863039
 20
8.38372088
 30
0.0
 10
12.8114715666
 20
8.3915585258
 30
0.0
 10
12.8073512704
 20
8.4015934933
 30
0.0
 10
12.8033864429
 20
8.4123914492
 30
0.0
 10
12.7995834984
 20
8.4239347609
 30
0.0
 10
12.795948779
 20
8.4362048165
 30
0.0
 10
12.7924882203
 20
8.4491816084
 30
0.0
 10
12.7892075874
 20
8.4628439505
 30
0.0
 10
12.7861123707
 20
8.4771694708
 30
0.0
 10
12.7832076494
 20
8.4921346621
 30
0.0
 10
12.7804983398
 20
8.5077149417
 30
0.0
 10
12.7779889074
 20
8.5238846839
 30
0.0
 10
12.7756835342
 20
8.5406172747
 30
0.0
 10
12.7735861076
 20
8.5578851599
 30
0.0
 10
12.7717000562
 20
8.57565989
 30
0.0
 10
12.7700285822
 20
8.5939121612
 30
0.0
 10
12.7685744469
 20
8.6126118861
 30
0.0
 10
12.7673400347
 20
8.6317282759
 30
0.0
 10
12.7659786077
 20
8.6579511872
 30
0.0
 10
12.7648524509
 20
8.6915378048
 30
0.0
 10
12.7645615144
 20
8.7186286203
 30
0.0
 10
12.7645615144
 20
8.7323615595
 30
0.0
  0
SPLINE
  5
374
100
AcDbEntity
  8
0
100
AcDbSpline
 62
7
  6
CONTINUOUS
 70
0
 71
3
 72
47
 73
43
 74
0
 42
0.0000001
 43
0.0000001
 44
0.0000000001
 40
0.0
 40
0.0
 40
0.0
 40
0.0
 40
0.0149719693
 40
0.0299469993
 40
0.0449281277
 40
0.0599183591
 40
0.0749206416
 40
0.0899378474
 40
0.104972764
 40
0.1200280645
 40
0.1351063063
 40
0.1502099042
 40
0.165341124
 40
0.1805020692
 40
0.1956946625
 40
0.2109206497
 40
0.226181572
 40
0.2414787784
 40
0.272180884
 40
0.3030390415
 40
0.3340562613
 40
0.3652320408
 40
0.3965624282
 40
0.4280401587
 40
0.4596548546
 40
0.4913932822
 40
0.5232396586
 40
0.5551760004
 40
0.5871825062
 40
0.6192379678
 40
0.6513202011
 40
0.6834064895
 40
0.7154740361
 40
0.7475004161
 40
0.7794640242
 40
0.8113445116
 40
0.8431232028
 40
0.8747834981
 40
0.9063111923
 40
0.9376949738
 40
0.9689260966
 40
1.0
 40
1.0
 40
1.0
 40
1.0
 10
8.1727547621
 20
9.4219512554
 30
0.0
 10
8.177732125
 20
9.4267590411
 30
0.0
 10
8.1878802278
 20
9.43617872
 30
0.0
 10
8.2036534472
 20
9.4496937673
 30
0.0
 10
8.2199578417
 20
9.462577175
 30
0.0
 10
8.236770503
 20
9.4748111197
 30
0.0
 10
8.2540685453
 20
9.486378613
 30
0.0
 10
8.2718279774
 20
9.4972639599
 30
0.0
 10
8.2900244864
 20
9.5074519969
 30
0.0
 10
8.3086329531
 20
9.5169288342
 30
0.0
 10
8.327627785
 20
9.5256814204
 30
0.0
 10
8.3469828733
 20
9.5336976389
 30
0.0
 10
8.366671515
 20
9.5409666543
 30
0.0
 10
8.3866666984
 20
9.5474782283
 30
0.0
 10
8.4069408492
 20
9.5532236949
 30
0.0
 10
8.4274660411
 20
9.5581949077
 30
0.0
 10
8.4482143745
 20
9.5623852525
 30
0.0
 10
8.4761682745
 20
9.5669285111
 30
0.0
 10
8.5115371105
 20
9.5706228566
 30
0.0
 10
8.5543484004
 20
9.571858297
 30
0.0
 10
8.5973523905
 20
9.5698964666
 30
0.0
 10
8.6403110637
 20
9.5647483833
 30
0.0
 10
8.6829888277
 20
9.5564429326
 30
0.0
 10
8.7251511709
 20
9.5450261873
 30
0.0
 10
8.7665666394
 20
9.5305612749
 30
0.0
 10
8.8070078985
 20
9.513127985
 30
0.0
 10
8.8462530127
 20
9.4928223349
 30
0.0
 10
8.8840866319
 20
9.4697560389
 30
0.0
 10
8.9203011749
 20
9.4440559162
 30
0.0
 10
8.9546979429
 20
9.4158631756
 30
0.0
 10
8.9870881962
 20
9.3853326459
 30
0.0
 10
9.017294177
 20
9.3526319339
 30
0.0
 10
9.0451500739
 20
9.317940514
 30
0.0
 10
9.0705029232
 20
9.2814487542
 30
0.0
 10
9.093213438
 20
9.2433568834
 30
0.0
 10
9.1131567792
 20
9.203873908
 30
0.0
 10
9.1302232503
 20
9.1632165017
 30
0.0
 10
9.1443188476
 20
9.1216077304
 30
0.0
 10
9.1553658846
 20
9.0792761759
 30
0.0
 10
9.163303159
 20
9.0364534951
 30
0.0
 10
9.1680868292
 20
8.993377875
 30
0.0
 10
9.1691582473
 20
8.9645688578
 30
0.0
 10
9.1691582473
 20
8.9502062097
 30
0.0
  0
SPLINE
  5
375
100
AcDbEntity
  8
0
100
AcDbSpline
 62
7
  6
CONTINUOUS
 70
0
 71
3
 72
25
 73
21
 74
0
 42
0.0000001
 43
0.0000001
 44
0.0000000001
 40
0.0
 40
0.0
 40
0.0
 40
0.0
 40
0.0617095203
 40
0.0925734315
 40
0.1234452457
 40
0.185217866
 40
0.2470529449
 40
0.2780026653
 40
0.3089753644
 40
0.3709940076
 40
0.4331318897
 40
0.4954057815
 40
0.5578311025
 40
0.6204217731
 40
0.6831899954
 40
0.7461464883
 40
0.8092999628
 40
0.8726562234
 40
0.9362240496
 40
1.0
 40
1.0
 40
1.0
 40
1.0
 10
9.0064506722
 20
8.5588457891
 30
0.0
 10
9.0128931898
 20
8.5650688121
 30
0.0
 10
9.0223200976
 20
8.5746553215
 30
0.0
 10
9.0343821556
 20
8.5879075434
 30
0.0
 10
9.0461060034
 20
8.6014725371
 30
0.0
 10
9.0601100706
 20
8.6189980273
 30
0.0
 10
9.0732036044
 20
8.637227767
 30
0.0
 10
9.0831164746
 20
8.6522106706
 30
0.0
 10
9.0926575894
 20
8.6674644089
 30
0.0
 10
9.103864177
 20
8.6870070916
 30
0.0
 10
9.1161202694
 20
8.7111458958
 30
0.0
 10
9.1271630535
 20
8.7359282498
 30
0.0
 10
9.1369668252
 20
8.7612966398
 30
0.0
 10
9.1455090815
 20
8.7871926521
 30
0.0
 10
9.15277026
 20
8.8135565247
 30
0.0
 10
9.1587336557
 20
8.8403275213
 30
0.0
 10
9.163385456
 20
8.8674437525
 30
0.0
 10
9.166715288
 20
8.8948433119
 30
0.0
 10
9.1687151239
 20
8.9224617435
 30
0.0
 10
9.1691582473
 20
8.9409490296
 30
0.0
 10
9.1691582473
 20
8.9502062097
 30
0.0
  0
SPLINE
  5
376
100
AcDbEntity
  8
0
100
AcDbSpline
 62
7
  6
CONTINUOUS
 70
0
 71
3
 72
51
 73
47
 74
0
 42
0.0000001
 43
0.0000001
 44
0.0000000001
 40
0.0
 40
0.0
 40
0.0
 40
0.0
 40
0.0063158655
 40
0.0126706318
 40
0.0191024376
 40
0.0256479646
 40
0.0323418026
 40
0.0392161087
 40
0.0536138572
 40
0.0611945363
 40
0.0690562626
 40
0.0772173127
 40
0.0856936584
 40
0.0944990189
 40
0.1036450659
 40
0.113141796
 40
0.1229975191
 40
0.133219072
 40
0.1438121299
 40
0.1547811124
 40
0.1661293961
 40
0.1778595522
 40
0.1899731907
 40
0.2024711797
 40
0.2153538132
 40
0.2286206204
 40
0.2422705968
 40
0.270712786
 40
0.3006636547
 40
0.3320987777
 40
0.3649879575
 40
0.3992957302
 40
0.4349820786
 40
0.4720029295
 40
0.5103103706
 40
0.549853079
 40
0.5905766853
 40
0.63242389
 40
0.6753347462
 40
0.7192469347
 40
0.7640958651
 40
0.8098150804
 40
0.8563358892
 40
0.903587821
 40
0.9515017896
 40
1.0
 40
1.0
 40
1.0
 40
1.0
 10
13.5090493854
 20
9.3002894876
 30
0.0
 10
13.5076803316
 20
9.3003844268
 30
0.0
 10
13.5049402639
 20
9.3006869747
 30
0.0
 10
13.5008608602
 20
9.3014754841
 30
0.0
 10
13.4968087145
 20
9.3025987238
 30
0.0
 10
13.4927862384
 20
9.3040558881
 30
0.0
 10
13.4887949443
 20
9.3058459666
 30
0.0
 10
13.4834357265
 20
9.3087187496
 30
0.0
 10
13.4782220514
 20
9.3122354921
 30
0.0
 10
13.4731765238
 20
9.3163108407
 30
0.0
 10
13.4693654858
 20
9.3197468806
 30
0.0
 10
13.4655950894
 20
9.3235075748
 30
0.0
 10
13.4618663691
 20
9.3275916776
 30
0.0
 10
13.4581808266
 20
9.331997396
 30
0.0
 10
13.4545397604
 20
9.3367229006
 30
0.0
 10
13.4509446489
 20
9.3417663165
 30
0.0
 10
13.4473968636
 20
9.3471255786
 30
0.0
 10
13.4438977508
 20
9.3527984874
 30
0.0
 10
13.4404487729
 20
9.3587827873
 30
0.0
 10
13.437051275
 20
9.3650760266
 30
0.0
 10
13.43370659
 20
9.371675632
 30
0.0
 10
13.4304161446
 20
9.3785789509
 30
0.0
 10
13.4271812332
 20
9.3857831451
 30
0.0
 10
13.424003152
 20
9.3932852659
 30
0.0
 10
13.4208832772
 20
9.4010822681
 30
0.0
 10
13.4178228084
 20
9.4091709497
 30
0.0
 10
13.413767462
 20
9.4204959567
 30
0.0
 10
13.408868485
 20
9.4353666155
 30
0.0
 10
13.403323937
 20
9.4540835156
 30
0.0
 10
13.3980450916
 20
9.4738786603
 30
0.0
 10
13.3930407427
 20
9.4947195278
 30
0.0
 10
13.3883191771
 20
9.5165720363
 30
0.0
 10
13.3838882462
 20
9.5394003145
 30
0.0
 10
13.3797553687
 20
9.563166872
 30
0.0
 10
13.3759274105
 20
9.5878326163
 30
0.0
 10
13.3724107325
 20
9.6133569455
 30
0.0
 10
13.3692112268
 20
9.6396978307
 30
0.0
 10
13.3663342198
 20
9.6668118735
 30
0.0
 10
13.3637844821
 20
9.6946543792
 30
0.0
 10
13.3615662871
 20
9.7231794417
 30
0.0
 10
13.3596833347
 20
9.7523400526
 30
0.0
 10
13.358138752
 20
9.7820880904
 30
0.0
 10
13.3569351227
 20
9.8123743871
 30
0.0
 10
13.356074443
 20
9.8431494225
 30
0.0
 10
13.3555582255
 20
9.8743618154
 30
0.0
 10
13.3554448544
 20
9.8953109104
 30
0.0
 10
13.3554448544
 20
9.9058488355
 30
0.0
  0
SPLINE
  5
377
100
AcDbEntity
  8
0
100
AcDbSpline
 62
7
  6
CONTINUOUS
 70
0
 71
3
 72
48
 73
44
 74
0
 42
0.0000001
 43
0.0000001
 44
0.0000000001
 40
0.0
 40
0.0
 40
0.0
 40
0.0
 40
0.0149718897
 40
0.0299468369
 40
0.0449278839
 40
0.0599180336
 40
0.0749202322
 40
0.0899373568
 40
0.1049721887
 40
0.1200274064
 40
0.1351055645
 40
0.1502090774
 40
0.1653402142
 40
0.180501073
 40
0.1956935825
 40
0.2109194836
 40
0.2261803205
 40
0.2414774416
 40
0.2568119786
 40
0.2721848576
 40
0.3030428416
 40
0.3340598877
 40
0.365235493
 40
0.3965657058
 40
0.4280432614
 40
0.4596577825
 40
0.4913960356
 40
0.5232422374
 40
0.5551784039
 40
0.5871847345
 40
0.6192400218
 40
0.6513220815
 40
0.6834081967
 40
0.7154755701
 40
0.7475017768
 40
0.7794652126
 40
0.8113455287
 40
0.8431240501
 40
0.8747841728
 40
0.9063117021
 40
0.9376953081
 40
0.9689262526
 40
1.0
 40
1.0
 40
1.0
 40
1.0
 10
10.2387552398
 20
9.4213649501
 30
0.0
 10
10.2443298971
 20
9.4267496788
 30
0.0
 10
10.2556956928
 20
9.4372998428
 30
0.0
 10
10.2733617377
 20
9.4524367089
 30
0.0
 10
10.2916225434
 20
9.4668663339
 30
0.0
 10
10.3104527891
 20
9.4805683262
 30
0.0
 10
10.3298265037
 20
9.4935241226
 30
0.0
 10
10.3497170948
 20
9.5057157394
 30
0.0
 10
10.3700971629
 20
9.5171264508
 30
0.0
 10
10.3909386184
 20
9.5277406451
 30
0.0
 10
10.4122128649
 20
9.5375435486
 30
0.0
 10
10.4338905227
 20
9.5465219085
 30
0.0
 10
10.4559418432
 20
9.554663191
 30
0.0
 10
10.4783364366
 20
9.5619563176
 30
0.0
 10
10.5010434908
 20
9.5683912896
 30
0.0
 10
10.5240317889
 20
9.5739591307
 30
0.0
 10
10.5472696839
 20
9.5786524191
 30
0.0
 10
10.5707251397
 20
9.5824644869
 30
0.0
 10
10.5943662861
 20
9.585390278
 30
0.0
 10
10.6261275593
 20
9.5881074534
 30
0.0
 10
10.6661412693
 20
9.5892627269
 30
0.0
 10
10.7143043825
 20
9.5870654138
 30
0.0
 10
10.76241857
 20
9.5812997213
 30
0.0
 10
10.8102176567
 20
9.5719977068
 30
0.0
 10
10.8574396126
 20
9.55921105
 30
0.0
 10
10.9038250386
 20
9.5430104248
 30
0.0
 10
10.9491193545
 20
9.5234851818
 30
0.0
 10
10.9930739816
 20
9.5007428747
 30
0.0
 10
11.0354477464
 20
9.4749086534
 30
0.0
 10
11.0760081558
 20
9.4461245479
 30
0.0
 10
11.1145326615
 20
9.4145487019
 30
0.0
 10
11.150809861
 20
9.3803545088
 30
0.0
 10
11.1846406462
 20
9.3437296763
 30
0.0
 10
11.2158393252
 20
9.3048752382
 30
0.0
 10
11.244234592
 20
9.2640044179
 30
0.0
 10
11.2696704576
 20
9.2213414784
 30
0.0
 10
11.292007099
 20
9.1771205005
 30
0.0
 10
11.3111216179
 20
9.1315841435
 30
0.0
 10
11.3269087323
 20
9.084982244
 30
0.0
 10
11.339281438
 20
9.037570825
 30
0.0
 10
11.348171211
 20
8.9896093493
 30
0.0
 10
11.353528943
 20
8.9413645766
 30
0.0
 10
11.3547289367
 20
8.9090984218
 30
0.0
 10
11.3547289367
 20
8.8930122226
 30
0.0
  0
SPLINE
  5
378
100
AcDbEntity
  8
0
100
AcDbSpline
 62
7
  6
CONTINUOUS
 70
0
 71
3
 72
23
 73
19
 74
0
 42
0.0000001
 43
0.0000001
 44
0.0000000001
 40
0.0
 40
0.0
 40
0.0
 40
0.0
 40
0.0617101474
 40
0.1234413955
 40
0.1852146445
 40
0.2470503579
 40
0.3089683497
 40
0.3709876176
 40
0.4331261373
 40
0.4954006609
 40
0.5578266186
 40
0.6204179142
 40
0.683186758
 40
0.746144003
 40
0.8092979488
 40
0.8726547572
 40
0.9362240079
 40
1.0
 40
1.0
 40
1.0
 40
1.0
 10
11.0559689834
 20
6.8727202087
 30
0.0
 10
11.0610156337
 20
6.8775948982
 30
0.0
 10
11.0708615983
 20
6.8876076474
 30
0.0
 10
11.084841256
 20
6.9033691707
 30
0.0
 10
11.098002208
 20
6.9198394798
 30
0.0
 10
11.1103134848
 20
6.9369801425
 30
0.0
 10
11.1217469114
 20
6.9547516962
 30
0.0
 10
11.1322761527
 20
6.9731130796
 30
0.0
 10
11.1418768649
 20
6.9920220006
 30
0.0
 10
11.1505269647
 20
7.0114348175
 30
0.0
 10
11.1582066218
 20
7.0313067233
 30
0.0
 10
11.1648980862
 20
7.0515919167
 30
0.0
 10
11.1705859765
 20
7.072243638
 30
0.0
 10
11.1752572768
 20
7.0932142476
 30
0.0
 10
11.1789012417
 20
7.1144552682
 30
0.0
 10
11.1815096012
 20
7.1359183175
 30
0.0
 10
11.1830760991
 20
7.1575527664
 30
0.0
 10
11.1834232411
 20
7.1720344925
 30
0.0
 10
11.1834232411
 20
7.1792858813
 30
0.0
  0
SPLINE
  5
379
100
AcDbEntity
  8
0
100
AcDbSpline
 62
7
  6
CONTINUOUS
 70
0
 71
3
 72
39
 73
35
 74
0
 42
0.0000001
 43
0.0000001
 44
0.0000000001
 40
0.0
 40
0.0
 40
0.0
 40
0.0
 40
0.0299424718
 40
0.0599093198
 40
0.0899243266
 40
0.120010106
 40
0.1501875648
 40
0.1804754165
 40
0.2108897607
 40
0.2414437369
 40
0.2721472605
 40
0.3030068425
 40
0.334025494
 40
0.3652027127
 40
0.3965345473
 40
0.4280137326
 40
0.45962989
 40
0.4913697849
 40
0.5232176333
 40
0.5551554507
 40
0.5871634353
 40
0.6192203782
 40
0.6513040938
 40
0.6833918644
 40
0.7154608918
 40
0.7474887503
 40
0.779453834
 40
0.811335794
 40
0.8431159528
 40
0.8747777127
 40
0.9063068642
 40
0.9376920823
 40
0.9689247084
 40
1.0
 40
1.0
 40
1.0
 40
1.0
 10
10.4029071683
 20
7.5488195102
 30
0.0
 10
10.4107043123
 20
7.5563509726
 30
0.0
 10
10.4269117073
 20
7.5708060769
 30
0.0
 10
10.4528784798
 20
7.5904985965
 30
0.0
 10
10.4803682057
 20
7.6081024258
 30
0.0
 10
10.5092272845
 20
7.6235188126
 30
0.0
 10
10.5392970504
 20
7.636663534
 30
0.0
 10
10.5704115517
 20
7.6474643338
 30
0.0
 10
10.602399329
 20
7.6558621167
 30
0.0
 10
10.6350841523
 20
7.6618110347
 30
0.0
 10
10.6682860653
 20
7.6652787736
 30
0.0
 10
10.7018223645
 20
7.6662466904
 30
0.0
 10
10.735508609
 20
7.6647098952
 30
0.0
 10
10.7691596278
 20
7.6606772549
 30
0.0
 10
10.802590529
 20
7.6541713254
 30
0.0
 10
10.8356177032
 20
7.6452282122
 30
0.0
 10
10.8680598187
 20
7.6338973606
 30
0.0
 10
10.8997388029
 20
7.6202412762
 30
0.0
 10
10.9304808057
 20
7.6043351767
 30
0.0
 10
10.9601171418
 20
7.5862665799
 30
0.0
 10
10.988485203
 20
7.5661348206
 30
0.0
 10
11.015429339
 20
7.5440505084
 30
0.0
 10
11.0408017018
 20
7.5201349244
 30
0.0
 10
11.0644630469
 20
7.4945193613
 30
0.0
 10
11.0862834903
 20
7.4673444096
 30
0.0
 10
11.1061432135
 20
7.4387591934
 30
0.0
 10
11.123933117
 20
7.4089205631
 30
0.0
 10
11.13955541
 20
7.3779922382
 30
0.0
 10
11.1529241581
 20
7.3461439415
 30
0.0
 10
11.163965718
 20
7.3135504062
 30
0.0
 10
11.1726192313
 20
7.2803906931
 30
0.0
 10
11.1788367717
 20
7.2468462436
 30
0.0
 10
11.1825839596
 20
7.2131036725
 30
0.0
 10
11.1834232411
 20
7.1905366051
 30
0.0
 10
11.1834232411
 20
7.1792858813
 30
0.0
  0
SPLINE
  5
37A
100
AcDbEntity
  8
0
100
AcDbSpline
 62
7
  6
CONTINUOUS
 70
0
 71
3
 72
53
 73
49
 74
0
 42
0.0000001
 43
0.0000001
 44
0.0000000001
 40
0.0
 40
0.0
 40
0.0
 40
0.0
 40
0.014971497
 40
0.0299460521
 40
0.0449267061
 40
0.0599164632
 40
0.0749182692
 40
0.0899349996
 40
0.1049694388
 40
0.1200242618
 40
0.1351020244
 40
0.1502051434
 40
0.1653358824
 40
0.1804963453
 40
0.1956884574
 40
0.2109139585
 40
0.2261743978
 40
0.2414711171
 40
0.256805253
 40
0.2721777303
 40
0.2875892518
 40
0.3030403059
 40
0.3185311597
 40
0.3340618569
 40
0.3496322277
 40
0.3652418829
 40
0.3808902204
 40
0.3965764348
 40
0.4122995141
 40
0.4280582535
 40
0.4596719475
 40
0.4914093691
 40
0.5232547358
 40
0.5551900654
 40
0.5871955577
 40
0.619250005
 40
0.6513312236
 40
0.6834164975
 40
0.7154830302
 40
0.7475083976
 40
0.7794709953
 40
0.8113504746
 40
0.843128163
 40
0.8747874538
 40
0.9063141674
 40
0.9376969256
 40
0.9689270695
 40
1.0
 40
1.0
 40
1.0
 40
1.0
 10
10.0942478698
 20
7.8207120969
 30
0.0
 10
10.1015480167
 20
7.8277635216
 30
0.0
 10
10.1164318109
 20
7.8415791874
 30
0.0
 10
10.1395659167
 20
7.8614012597
 30
0.0
 10
10.1634789068
 20
7.8802971417
 30
0.0
 10
10.1881375316
 20
7.8982402529
 30
0.0
 10
10.2135079217
 20
7.9152060849
 30
0.0
 10
10.2395550924
 20
7.9311713293
 30
0.0
 10
10.2662432886
 20
7.9461138911
 30
0.0
 10
10.2935357013
 20
7.9600133457
 30
0.0
 10
10.3213947836
 20
7.97285057
 30
0.0
 10
10.3497822412
 20
7.9846078051
 30
0.0
 10
10.3786589429
 20
7.9952690511
 30
0.0
 10
10.4079851914
 20
8.0048195676
 30
0.0
 10
10.4377206388
 20
8.0132462014
 30
0.0
 10
10.467824336
 20
8.0205375222
 30
0.0
 10
10.4982549038
 20
8.0266833738
 30
0.0
 10
10.5289704609
 20
8.031675384
 30
0.0
 10
10.5599287473
 20
8.0355067913
 30
0.0
 10
10.5910871979
 20
8.0381721849
 30
0.0
 10
10.6224029412
 20
8.03966806
 30
0.0
 10
10.6538329145
 20
8.0399923792
 30
0.0
 10
10.6853338908
 20
8.0391445941
 30
0.0
 10
10.7168625551
 20
8.0371260624
 30
0.0
 10
10.7483755549
 20
8.0339394947
 30
0.0
 10
10.7798295405
 20
8.0295892536
 30
0.0
 10
10.8111813231
 20
8.0240814743
 30
0.0
 10
10.8423876452
 20
8.0174236581
 30
0.0
 10
10.8734060972
 20
8.0096248386
 30
0.0
 10
10.9144949251
 20
7.9977086546
 30
0.0
 10
10.9651735163
 20
7.9800088241
 30
0.0
 10
11.0244861433
 20
7.9544404046
 30
0.0
 10
11.082046125
 20
7.9246587476
 30
0.0
 10
11.1375354582
 20
7.8908282443
 30
0.0
 10
11.1906502575
 20
7.8531347335
 30
0.0
 10
11.241098971
 20
7.8117854033
 30
0.0
 10
11.2886048112
 20
7.7670073056
 30
0.0
 10
11.3329069986
 20
7.7190462169
 30
0.0
 10
11.3737623888
 20
7.6681654157
 30
0.0
 10
11.4109466641
 20
7.6146441285
 30
0.0
 10
11.4442555153
 20
7.5587760059
 30
0.0
 10
11.4735058127
 20
7.5008675742
 30
0.0
 10
11.4985367098
 20
7.4412366501
 30
0.0
 10
11.5192103576
 20
7.3802103846
 30
0.0
 10
11.5354126863
 20
7.3181240289
 30
0.0
 10
11.5470540389
 20
7.2553173507
 30
0.0
 10
11.5540700902
 20
7.1921396975
 30
0.0
 10
11.5556415205
 20
7.1498864038
 30
0.0
 10
11.5556415205
 20
7.1288211516
 30
0.0
  0
SPLINE
  5
37B
100
AcDbEntity
  8
0
100
AcDbSpline
 62
7
  6
CONTINUOUS
 70
0
 71
3
 72
25
 73
21
 74
0
 42
0.0000001
 43
0.0000001
 44
0.0000000001
 40
0.0
 40
0.0
 40
0.0
 40
0.0
 40
0.0617095203
 40
0.0925734315
 40
0.1234452457
 40
0.185217866
 40
0.2470529449
 40
0.2780026653
 40
0.3089753644
 40
0.3709940076
 40
0.4331318897
 40
0.4954057815
 40
0.5578311025
 40
0.6204217731
 40
0.6831899954
 40
0.7461464883
 40
0.8092999628
 40
0.8726562234
 40
0.9362240496
 40
1.0
 40
1.0
 40
1.0
 40
1.0
 10
9.0064506722
 20
6.1440311378
 30
0.0
 10
9.0128931898
 20
6.1502541609
 30
0.0
 10
9.0223200976
 20
6.1598406703
 30
0.0
 10
9.0343821556
 20
6.1730928922
 30
0.0
 10
9.0461060034
 20
6.1866578858
 30
0.0
 10
9.0601100706
 20
6.2041833761
 30
0.0
 10
9.0732036044
 20
6.2224131157
 30
0.0
 10
9.0831164746
 20
6.2373960194
 30
0.0
 10
9.0926575894
 20
6.2526497577
 30
0.0
 10
9.103864177
 20
6.2721924403
 30
0.0
 10
9.1161202694
 20
6.2963312446
 30
0.0
 10
9.1271630535
 20
6.3211135986
 30
0.0
 10
9.1369668252
 20
6.3464819886
 30
0.0
 10
9.1455090815
 20
6.3723780009
 30
0.0
 10
9.15277026
 20
6.3987418735
 30
0.0
 10
9.1587336557
 20
6.4255128701
 30
0.0
 10
9.163385456
 20
6.4526291013
 30
0.0
 10
9.166715288
 20
6.4800286606
 30
0.0
 10
9.1687151239
 20
6.5076470922
 30
0.0
 10
9.1691582473
 20
6.5261343784
 30
0.0
 10
9.1691582473
 20
6.5353915584
 30
0.0
  0
SPLINE
  5
37C
100
AcDbEntity
  8
0
100
AcDbSpline
 62
7
  6
CONTINUOUS
 70
0
 71
3
 72
47
 73
43
 74
0
 42
0.0000001
 43
0.0000001
 44
0.0000000001
 40
0.0
 40
0.0
 40
0.0
 40
0.0
 40
0.0149719693
 40
0.0299469993
 40
0.0449281277
 40
0.0599183591
 40
0.0749206416
 40
0.0899378474
 40
0.104972764
 40
0.1200280645
 40
0.1351063063
 40
0.1502099042
 40
0.165341124
 40
0.1805020692
 40
0.1956946625
 40
0.2109206497
 40
0.226181572
 40
0.2414787784
 40
0.272180884
 40
0.3030390415
 40
0.3340562613
 40
0.3652320408
 40
0.3965624282
 40
0.4280401587
 40
0.4596548546
 40
0.4913932822
 40
0.5232396586
 40
0.5551760004
 40
0.5871825062
 40
0.6192379678
 40
0.6513202011
 40
0.6834064895
 40
0.7154740361
 40
0.7475004161
 40
0.7794640242
 40
0.8113445116
 40
0.8431232028
 40
0.8747834981
 40
0.9063111923
 40
0.9376949738
 40
0.9689260966
 40
1.0
 40
1.0
 40
1.0
 40
1.0
 10
8.1727547621
 20
7.0071366041
 30
0.0
 10
8.177732125
 20
7.0119443899
 30
0.0
 10
8.1878802278
 20
7.0213640687
 30
0.0
 10
8.2036534472
 20
7.034879116
 30
0.0
 10
8.2199578417
 20
7.0477625237
 30
0.0
 10
8.236770503
 20
7.0599964684
 30
0.0
 10
8.2540685453
 20
7.0715639618
 30
0.0
 10
8.2718279774
 20
7.0824493086
 30
0.0
 10
8.2900244864
 20
7.0926373457
 30
0.0
 10
8.3086329531
 20
7.102114183
 30
0.0
 10
8.327627785
 20
7.1108667692
 30
0.0
 10
8.3469828733
 20
7.1188829876
 30
0.0
 10
8.366671515
 20
7.126152003
 30
0.0
 10
8.3866666984
 20
7.1326635771
 30
0.0
 10
8.4069408492
 20
7.1384090437
 30
0.0
 10
8.4274660411
 20
7.1433802565
 30
0.0
 10
8.4482143745
 20
7.1475706013
 30
0.0
 10
8.4761682745
 20
7.1521138599
 30
0.0
 10
8.5115371105
 20
7.1558082054
 30
0.0
 10
8.5543484004
 20
7.1570436457
 30
0.0
 10
8.5973523905
 20
7.1550818154
 30
0.0
 10
8.6403110637
 20
7.1499337321
 30
0.0
 10
8.6829888277
 20
7.1416282814
 30
0.0
 10
8.7251511709
 20
7.1302115361
 30
0.0
 10
8.7665666394
 20
7.1157466237
 30
0.0
 10
8.8070078985
 20
7.0983133338
 30
0.0
 10
8.8462530127
 20
7.0780076837
 30
0.0
 10
8.8840866319
 20
7.0549413876
 30
0.0
 10
8.9203011749
 20
7.029241265
 30
0.0
 10
8.9546979429
 20
7.0010485244
 30
0.0
 10
8.9870881962
 20
6.9705179946
 30
0.0
 10
9.017294177
 20
6.9378172826
 30
0.0
 10
9.0451500739
 20
6.9031258627
 30
0.0
 10
9.0705029232
 20
6.8666341029
 30
0.0
 10
9.093213438
 20
6.8285422322
 30
0.0
 10
9.1131567792
 20
6.7890592568
 30
0.0
 10
9.1302232503
 20
6.7484018504
 30
0.0
 10
9.1443188476
 20
6.7067930791
 30
0.0
 10
9.1553658846
 20
6.6644615247
 30
0.0
 10
9.163303159
 20
6.6216388438
 30
0.0
 10
9.1680868292
 20
6.5785632237
 30
0.0
 10
9.1691582473
 20
6.5497542066
 30
0.0
 10
9.1691582473
 20
6.5353915584
 30
0.0
  0
SPLINE
  5
37D
100
AcDbEntity
  8
0
100
AcDbSpline
 62
7
  6
CONTINUOUS
 70
0
 71
3
 72
54
 73
50
 74
0
 42
0.0000001
 43
0.0000001
 44
0.0000000001
 40
0.0
 40
0.0
 40
0.0
 40
0.0
 40
0.0149714207
 40
0.0299459009
 40
0.0449264795
 40
0.0599161607
 40
0.0749178924
 40
0.0899345474
 40
0.1049689109
 40
0.1200236599
 40
0.135101347
 40
0.1502043904
 40
0.1653350555
 40
0.1804954423
 40
0.195687479
 40
0.210912906
 40
0.2261732683
 40
0.2414699124
 40
0.2568039734
 40
0.2721763729
 40
0.2875878193
 40
0.3030387972
 40
0.3185295728
 40
0.3340601946
 40
0.3496304877
 40
0.3652400644
 40
0.3808883259
 40
0.3965744612
 40
0.4122974619
 40
0.4280561242
 40
0.4438490534
 40
0.4596746808
 40
0.4914119437
 40
0.5232571513
 40
0.5551923202
 40
0.587197651
 40
0.6192519366
 40
0.651332993
 40
0.6834181045
 40
0.7154844744
 40
0.7475096792
 40
0.7794721147
 40
0.8113514322
 40
0.8431289588
 40
0.8747880885
 40
0.9063146442
 40
0.9376972366
 40
0.9689272309
 40
1.0
 40
1.0
 40
1.0
 40
1.0
 10
7.9031934096
 20
7.2333752138
 30
0.0
 10
7.9110742516
 20
7.2409875297
 30
0.0
 10
7.9271420051
 20
7.2559021148
 30
0.0
 10
7.9521163328
 20
7.2773008849
 30
0.0
 10
7.9779315631
 20
7.2976997081
 30
0.0
 10
8.0045516455
 20
7.3170700909
 30
0.0
 10
8.0319401624
 20
7.3353853849
 30
0.0
 10
8.0600593107
 20
7.3526204597
 30
0.0
 10
8.0888703956
 20
7.368751637
 30
0.0
 10
8.1183338273
 20
7.383756606
 30
0.0
 10
8.1484089866
 20
7.3976148679
 30
0.0
 10
8.179054503
 20
7.4103073461
 30
0.0
 10
8.21022824
 20
7.4218164958
 30
0.0
 10
8.2418872456
 20
7.4321266506
 30
0.0
 10
8.2739879859
 20
7.4412235785
 30
0.0
 10
8.3064863047
 20
7.4490947284
 30
0.0
 10
8.3393374573
 20
7.455729441
 30
0.0
 10
8.3724962757
 20
7.4611185067
 30
0.0
 10
8.4059171419
 20
7.4652545295
 30
0.0
 10
8.439554073
 20
7.4681319705
 30
0.0
 10
8.4733608175
 20
7.4697467624
 30
0.0
 10
8.5072908723
 20
7.470096754
 30
0.0
 10
8.5412975798
 20
7.4691815805
 30
0.0
 10
8.5753341711
 20
7.4670023764
 30
0.0
 10
8.6093538452
 20
7.4635622543
 30
0.0
 10
8.6433098353
 20
7.458866017
 30
0.0
 10
8.6771554351
 20
7.4529199988
 30
0.0
 10
8.7108441212
 20
7.4457325276
 30
0.0
 10
8.7443296216
 20
7.437313492
 30
0.0
 10
8.7775657328
 20
7.4276744273
 30
0.0
 10
8.8105073127
 20
7.4168285123
 30
0.0
 10
8.8540119899
 20
7.4007650698
 30
0.0
 10
8.9074288037
 20
7.377738654
 30
0.0
 10
8.9695655376
 20
7.3455885092
 30
0.0
 10
9.0294691919
 20
7.3090667864
 30
0.0
 10
9.086808834
 20
7.2683749863
 30
0.0
 10
9.1412704308
 20
7.2237364566
 30
0.0
 10
9.1925550323
 20
7.1753964614
 30
0.0
 10
9.2403812165
 20
7.1236203397
 30
0.0
 10
9.2844863756
 20
7.0686922167
 30
0.0
 10
9.3246283924
 20
7.0109135722
 30
0.0
 10
9.3605867604
 20
6.9506014466
 30
0.0
 10
9.3921637433
 20
6.8880867183
 30
0.0
 10
9.4191856628
 20
6.8237124708
 30
0.0
 10
9.4415037562
 20
6.7578318997
 30
0.0
 10
9.4589948893
 20
6.6908069271
 30
0.0
 10
9.4715622331
 20
6.6230043244
 30
0.0
 10
9.4791363547
 20
6.5548012433
 30
0.0
 10
9.4808327853
 20
6.5091869339
 30
0.0
 10
9.4808327853
 20
6.486446062
 30
0.0
  0
SPLINE
  5
37E
100
AcDbEntity
  8
0
100
AcDbSpline
 62
7
  6
CONTINUOUS
 70
0
 71
3
 72
54
 73
50
 74
0
 42
0.0000001
 43
0.0000001
 44
0.0000000001
 40
0.0
 40
0.0
 40
0.0
 40
0.0
 40
0.031064601
 40
0.0622854584
 40
0.0936580888
 40
0.1251739528
 40
0.1568218836
 40
0.1885879367
 40
0.2204557769
 40
0.2524070268
 40
0.2844216478
 40
0.3164783465
 40
0.3485550017
 40
0.3806291006
 40
0.41267818
 40
0.4446802685
 40
0.476614321
 40
0.5084606399
 40
0.5402012769
 40
0.5560293984
 40
0.5718253663
 40
0.5875875954
 40
0.6033146686
 40
0.6190053555
 40
0.6346586147
 40
0.6502735981
 40
0.6658496658
 40
0.6813863805
 40
0.6968835176
 40
0.71234107
 40
0.7277592399
 40
0.743138452
 40
0.7584793448
 40
0.7737827675
 40
0.7890497859
 40
0.8042816666
 40
0.8194798784
 40
0.8346460861
 40
0.8497821341
 40
0.864890047
 40
0.8799720127
 40
0.8950303692
 40
0.9100675986
 40
0.9250863048
 40
0.9400892031
 40
0.9550791057
 40
0.9700588989
 40
0.9850315325
 40
1.0
 40
1.0
 40
1.0
 40
1.0
 10
9.8638941685
 20
7.254718596
 30
0.0
 10
9.8638941685
 20
7.2337779819
 30
0.0
 10
9.865447016
 20
7.1917754941
 30
0.0
 10
9.8723805276
 20
7.1289695128
 30
0.0
 10
9.8838854784
 20
7.0665260752
 30
0.0
 10
9.8998990368
 20
7.0047884112
 30
0.0
 10
9.9203336502
 20
6.9440904277
 30
0.0
 10
9.9450779221
 20
6.8847616616
 30
0.0
 10
9.9739971511
 20
6.8271237796
 30
0.0
 10
10.0069341257
 20
6.7714893651
 30
0.0
 10
10.043709972
 20
6.7181601253
 30
0.0
 10
10.0841249938
 20
6.6674252294
 30
0.0
 10
10.1279598492
 20
6.6195597952
 30
0.0
 10
10.1749767347
 20
6.5748234473
 30
0.0
 10
10.2249207249
 20
6.5334589212
 30
0.0
 10
10.2775208143
 20
6.4956907373
 30
0.0
 10
10.3324923035
 20
6.4617237294
 30
0.0
 10
10.3895351089
 20
6.4317431454
 30
0.0
 10
10.4385927243
 20
6.410194194
 30
0.0
 10
10.4785612607
 20
6.3951066299
 30
0.0
 10
10.5088331672
 20
6.3848880516
 30
0.0
 10
10.5393835249
 20
6.3757714331
 30
0.0
 10
10.5701713461
 20
6.3677691486
 30
0.0
 10
10.6011546326
 20
6.3608919722
 30
0.0
 10
10.6322913438
 20
6.3551493145
 30
0.0
 10
10.6635391772
 20
6.3505490873
 30
0.0
 10
10.6948556532
 20
6.347097381
 30
0.0
 10
10.7261982417
 20
6.3447990894
 30
0.0
 10
10.7575243407
 20
6.343657278
 30
0.0
 10
10.7887913831
 20
6.3436734534
 30
0.0
 10
10.819956874
 20
6.3448478038
 30
0.0
 10
10.8509784603
 20
6.3471785622
 30
0.0
 10
10.8818139765
 20
6.3506626792
 30
0.0
 10
10.9124214956
 20
6.3552954996
 30
0.0
 10
10.9427594383
 20
6.3610705801
 30
0.0
 10
10.9727865259
 20
6.3679802878
 30
0.0
 10
11.0024619532
 20
6.3760151427
 30
0.0
 10
11.0317453884
 20
6.3851642064
 30
0.0
 10
11.0605969577
 20
6.3954152266
 30
0.0
 10
11.0889774946
 20
6.4067540916
 30
0.0
 10
11.1168483643
 20
6.4191655179
 30
0.0
 10
11.144171646
 20
6.432632667
 30
0.0
 10
11.1709102523
 20
6.4471371032
 30
0.0
 10
11.1970277166
 20
6.4626592957
 30
0.0
 10
11.2224885906
 20
6.4791780331
 30
0.0
 10
11.2472582241
 20
6.4966708252
 30
0.0
 10
11.2713029503
 20
6.5151141321
 30
0.0
 10
11.2945897549
 20
6.5344822696
 30
0.0
 10
11.3095900024
 20
6.5479955055
 30
0.0
 10
11.3169519073
 20
6.5548958716
 30
0.0
  0
SPLINE
  5
37F
100
AcDbEntity
  8
0
100
AcDbSpline
 62
7
  6
CONTINUOUS
 70
0
 71
3
 72
26
 73
22
 74
0
 42
0.0000001
 43
0.0000001
 44
0.0000000001
 40
0.0
 40
0.0
 40
0.0
 40
0.0
 40
0.0637631611
 40
0.1273206144
 40
0.1906713225
 40
0.2538224799
 40
0.2853271271
 40
0.3167842522
 40
0.3795558648
 40
0.4421519328
 40
0.5045840804
 40
0.5668655193
 40
0.6290108785
 40
0.691036099
 40
0.7220113909
 40
0.7529631515
 40
0.8148004153
 40
0.8765716944
 40
0.9074411436
 40
0.9383014833
 40
1.0
 40
1.0
 40
1.0
 40
1.0
 10
9.8638941685
 20
7.254718596
 30
0.0
 10
9.8638941685
 20
7.2680485475
 30
0.0
 10
9.8645205707
 20
7.2946697769
 30
0.0
 10
9.8673477723
 20
7.3344444789
 30
0.0
 10
9.8720551758
 20
7.37391245
 30
0.0
 10
9.8775404758
 20
7.406499806
 30
0.0
 10
9.8828578266
 20
7.4323247385
 30
0.0
 10
9.8887817556
 20
7.4579358493
 30
0.0
 10
9.8973331421
 20
7.4896004664
 30
0.0
 10
9.9094155394
 20
7.5269715644
 30
0.0
 10
9.923285014
 20
7.5636079472
 30
0.0
 10
9.938910767
 20
7.5994277636
 30
0.0
 10
9.9562578623
 20
7.6343510095
 30
0.0
 10
9.9721242201
 20
7.6626559303
 30
0.0
 10
9.9856358087
 20
7.6847699038
 30
0.0
 10
9.999676162
 20
7.706505276
 30
0.0
 10
10.0182258754
 20
7.7329793033
 30
0.0
 10
10.0380737666
 20
7.7584727517
 30
0.0
 10
10.0546953235
 20
7.7782323964
 30
0.0
 10
10.071799406
 20
7.7975548025
 30
0.0
 10
10.0851716595
 20
7.8115554274
 30
0.0
 10
10.094313136
 20
7.8206548944
 30
0.0
  0
SPLINE
  5
380
100
AcDbEntity
  8
0
100
AcDbSpline
 62
7
  6
CONTINUOUS
 70
0
 71
3
 72
71
 73
67
 74
0
 42
0.0000001
 43
0.0000001
 44
0.0000000001
 40
0.0
 40
0.0
 40
0.0
 40
0.0
 40
0.0155839627
 40
0.0311160552
 40
0.0465952416
 40
0.0620238638
 40
0.0774034607
 40
0.0927362778
 40
0.1080251229
 40
0.1232731739
 40
0.1384840542
 40
0.1536617754
 40
0.1688106899
 40
0.1839354528
 40
0.1990409773
 40
0.2141323817
 40
0.2292149322
 40
0.2442939892
 40
0.2593749531
 40
0.2744632037
 40
0.2895640407
 40
0.3046826295
 40
0.3198239497
 40
0.3349927393
 40
0.3501934436
 40
0.365430176
 40
0.3807066774
 40
0.3960262757
 40
0.4113918552
 40
0.4268058374
 40
0.4422701585
 40
0.4577862485
 40
0.4733550283
 40
0.4889769085
 40
0.504651785
 40
0.5203790426
 40
0.5361575749
 40
0.5519857961
 40
0.5678616546
 40
0.5837826608
 40
0.599745917
 40
0.6157481417
 40
0.6317856995
 40
0.6478546436
 40
0.66395075
 40
0.6800695513
 40
0.6962063812
 40
0.7123564193
 40
0.7285147273
 40
0.7446762931
 40
0.7608360795
 40
0.776989065
 40
0.7931302837
 40
0.8092548743
 40
0.8253581233
 40
0.8414355011
 40
0.8574827056
 40
0.8734957042
 40
0.889470771
 40
0.9054045166
 40
0.9212939052
 40
0.9371363815
 40
0.952929727
 40
0.9686719671
 40
0.9843629139
 40
1.0
 40
1.0
 40
1.0
 40
1.0
 10
10.2019682277
 20
7.2312730803
 30
0.0
 10
10.2019682277
 20
7.2396343819
 30
0.0
 10
10.2023774879
 20
7.2563321172
 30
0.0
 10
10.2042245172
 20
7.281273437
 30
0.0
 10
10.2072997739
 20
7.3060100097
 30
0.0
 10
10.2115955125
 20
7.3304809389
 30
0.0
 10
10.217101681
 20
7.3546278438
 30
0.0
 10
10.2238049604
 20
7.3783923538
 30
0.0
 10
10.2316892275
 20
7.4017172026
 30
0.0
 10
10.2407356514
 20
7.424546118
 30
0.0
 10
10.2509223898
 20
7.4468240618
 30
0.0
 10
10.2622248935
 20
7.4684973235
 30
0.0
 10
10.2746160076
 20
7.4895135943
 30
0.0
 10
10.2880659112
 20
7.5098221492
 30
0.0
 10
10.3025421155
 20
7.5293740435
 30
0.0
 10
10.3180097342
 20
7.5481221097
 30
0.0
 10
10.3344315471
 20
7.566021053
 30
0.0
 10
10.3517679033
 20
7.5830277297
 30
0.0
 10
10.3699769546
 20
7.5991011581
 30
0.0
 10
10.3890148131
 20
7.6142025377
 30
0.0
 10
10.4088355822
 20
7.6282954059
 30
0.0
 10
10.4293913849
 20
7.6413458688
 30
0.0
 10
10.4506326337
 20
7.6533224852
 30
0.0
 10
10.4725081309
 20
7.6641963224
 30
0.0
 10
10.4949650856
 20
7.6739412279
 30
0.0
 10
10.5179493088
 20
7.6825338087
 30
0.0
 10
10.541405389
 20
7.6899533638
 30
0.0
 10
10.5652767832
 20
7.6961819869
 30
0.0
 10
10.5895059101
 20
7.7012048134
 30
0.0
 10
10.6140343668
 20
7.7050098133
 30
0.0
 10
10.6388030485
 20
7.7075877955
 30
0.0
 10
10.6637522603
 20
7.7089326226
 30
0.0
 10
10.688821886
 20
7.7090411909
 30
0.0
 10
10.7139515388
 20
7.7079132741
 30
0.0
 10
10.7390806814
 20
7.7055515628
 30
0.0
 10
10.7641487976
 20
7.7019618905
 30
0.0
 10
10.7890955312
 20
7.6971529815
 30
0.0
 10
10.813860804
 20
7.6911363962
 30
0.0
 10
10.8383849848
 20
7.6839266611
 30
0.0
 10
10.8626090585
 20
7.6755412593
 30
0.0
 10
10.8864747153
 20
7.6660004042
 30
0.0
 10
10.9099244742
 20
7.6553270187
 30
0.0
 10
10.9329019203
 20
7.6435468988
 30
0.0
 10
10.9553517718
 20
7.6306884615
 30
0.0
 10
10.9772199701
 20
7.6167826303
 30
0.0
 10
10.9984538617
 20
7.6018628728
 30
0.0
 10
11.0190023917
 20
7.5859651913
 30
0.0
 10
11.0388161064
 20
7.5691278573
 30
0.0
 10
11.0578472568
 20
7.5513913397
 30
0.0
 10
11.0760500695
 20
7.53279838
 30
0.0
 10
11.0933807655
 20
7.5133937654
 30
0.0
 10
11.1097975914
 20
7.4932241681
 30
0.0
 10
11.1252609773
 20
7.4723381031
 30
0.0
 10
11.1397337625
 20
7.4507858954
 30
0.0
 10
11.1531811019
 20
7.4286194136
 30
0.0
 10
11.1655705308
 20
7.4058919629
 30
0.0
 10
11.1768722286
 20
7.3826582641
 30
0.0
 10
11.187059019
 20
7.3589742611
 30
0.0
 10
11.1961063155
 20
7.334896939
 30
0.0
 10
11.2039922205
 20
7.3104842366
 30
0.0
 10
11.2106978241
 20
7.2857949433
 30
0.0
 10
11.2162069154
 20
7.260888466
 30
0.0
 10
11.2205060729
 20
7.2358249349
 30
0.0
 10
11.2235851274
 20
7.2106640922
 30
0.0
 10
11.2254362166
 20
7.1854678259
 30
0.0
 10
11.2258496642
 20
7.1686564655
 30
0.0
 10
11.2258496642
 20
7.1602666615
 30
0.0
  0
SPLINE
  5
381
100
AcDbEntity
  8
0
100
AcDbSpline
 62
7
  6
CONTINUOUS
 70
0
 71
3
 72
23
 73
19
 74
0
 42
0.0000001
 43
0.0000001
 44
0.0000000001
 40
0.0
 40
0.0
 40
0.0
 40
0.0
 40
0.0637759921
 40
0.1273452428
 40
0.1907020512
 40
0.253855997
 40
0.316813242
 40
0.3795820858
 40
0.4421733814
 40
0.5045993391
 40
0.5668738627
 40
0.6290123824
 40
0.6910316503
 40
0.7529496421
 40
0.8147853555
 40
0.8765586045
 40
0.9382898526
 40
1.0
 40
1.0
 40
1.0
 40
1.0
 10
10.2754529106
 20
7.2422538376
 30
0.0
 10
10.2754529106
 20
7.2495052263
 30
0.0
 10
10.2758000526
 20
7.2639869525
 30
0.0
 10
10.2773665505
 20
7.2856214013
 30
0.0
 10
10.27997491
 20
7.3070844507
 30
0.0
 10
10.2836188749
 20
7.3283254713
 30
0.0
 10
10.2882901752
 20
7.3492960809
 30
0.0
 10
10.2939780655
 20
7.3699478022
 30
0.0
 10
10.3006695299
 20
7.3902329956
 30
0.0
 10
10.308349187
 20
7.4101049013
 30
0.0
 10
10.3169992868
 20
7.4295177183
 30
0.0
 10
10.326599999
 20
7.4484266392
 30
0.0
 10
10.3371292403
 20
7.4667880227
 30
0.0
 10
10.3485626669
 20
7.4845595764
 30
0.0
 10
10.3608739437
 20
7.5017002391
 30
0.0
 10
10.3740348957
 20
7.5181705481
 30
0.0
 10
10.3880145534
 20
7.5339320715
 30
0.0
 10
10.397860518
 20
7.5439448206
 30
0.0
 10
10.4029071683
 20
7.5488195102
 30
0.0
  0
SPLINE
  5
382
100
AcDbEntity
  8
0
100
AcDbSpline
 62
7
  6
CONTINUOUS
 70
0
 71
3
 72
15
 73
11
 74
0
 42
0.0000001
 43
0.0000001
 44
0.0000000001
 40
0.0
 40
0.0
 40
0.0
 40
0.0
 40
0.1263829183
 40
0.2523584085
 40
0.3779148863
 40
0.5030711933
 40
0.6278394412
 40
0.7522357481
 40
0.8762813165
 40
1.0
 40
1.0
 40
1.0
 40
1.0
 10
10.6033379123
 20
7.5109664475
 30
0.0
 10
10.6033379123
 20
7.5174440422
 30
0.0
 10
10.6036464314
 20
7.5303805199
 30
0.0
 10
10.6050386162
 20
7.5497071385
 30
0.0
 10
10.6073567597
 20
7.5688818776
 30
0.0
 10
10.6105953661
 20
7.5878599682
 30
0.0
 10
10.6147471282
 20
7.6065985899
 30
0.0
 10
10.6198026674
 20
7.6250550244
 30
0.0
 10
10.6257503023
 20
7.6431865407
 30
0.0
 10
10.6303073575
 20
7.6550462607
 30
0.0
 10
10.6327295691
 20
7.6609064411
 30
0.0
  0
SPLINE
  5
383
100
AcDbEntity
  8
0
100
AcDbSpline
 62
7
  6
CONTINUOUS
 70
0
 71
3
 72
13
 73
9
 74
0
 42
0.0000001
 43
0.0000001
 44
0.0000000001
 40
0.0
 40
0.0
 40
0.0
 40
0.0
 40
0.2519735215
 40
0.5025707541
 40
0.6273966926
 40
0.7519019827
 40
0.8760982542
 40
1.0
 40
1.0
 40
1.0
 40
1.0
 10
10.549800872
 20
7.5072536346
 30
0.0
 10
10.549800872
 20
7.5192417071
 30
0.0
 10
10.5507487286
 20
7.54316287
 30
0.0
 10
10.554325433
 20
7.5728314556
 30
0.0
 10
10.5586068571
 20
7.5962335969
 30
0.0
 10
10.5625168378
 20
7.6135746856
 30
0.0
 10
10.5671231026
 20
7.6306978879
 30
0.0
 10
10.5706578462
 20
7.6419640682
 30
0.0
 10
10.5725387034
 20
7.6475507928
 30
0.0
  0
SPLINE
  5
384
100
AcDbEntity
  8
0
100
AcDbSpline
 62
7
  6
CONTINUOUS
 70
0
 71
3
 72
71
 73
67
 74
0
 42
0.0000001
 43
0.0000001
 44
0.0000000001
 40
0.0
 40
0.0
 40
0.0
 40
0.0
 40
0.0156370861
 40
0.0313280329
 40
0.047070273
 40
0.0628636185
 40
0.0787060948
 40
0.0945954834
 40
0.110529229
 40
0.1265042958
 40
0.1425172944
 40
0.1585644989
 40
0.1746418767
 40
0.1907451257
 40
0.2068697163
 40
0.223010935
 40
0.2391639205
 40
0.2553237069
 40
0.2714852727
 40
0.2876435807
 40
0.3037936188
 40
0.3199304487
 40
0.33604925
 40
0.3521453564
 40
0.3682143005
 40
0.3842518583
 40
0.400254083
 40
0.4162173392
 40
0.4321383454
 40
0.4480142039
 40
0.4638424251
 40
0.4796209574
 40
0.495348215
 40
0.5110230915
 40
0.5266449717
 40
0.5422137515
 40
0.5577298415
 40
0.5731941626
 40
0.5886081448
 40
0.6039737243
 40
0.6192933226
 40
0.634569824
 40
0.6498065564
 40
0.6650072607
 40
0.6801760503
 40
0.6953173705
 40
0.7104359593
 40
0.7255367963
 40
0.7406250469
 40
0.7557060108
 40
0.7707850678
 40
0.7858676183
 40
0.8009590227
 40
0.8160645472
 40
0.8311893101
 40
0.8463382246
 40
0.8615159458
 40
0.8767268261
 40
0.8919748771
 40
0.9072637222
 40
0.9225965393
 40
0.9379761362
 40
0.9534047584
 40
0.9688839448
 40
0.9844160373
 40
1.0
 40
1.0
 40
1.0
 40
1.0
 10
10.2019682277
 20
7.2312730803
 30
0.0
 10
10.2019682277
 20
7.2228832764
 30
0.0
 10
10.2023816753
 20
7.2060719159
 30
0.0
 10
10.2042327646
 20
7.1808756496
 30
0.0
 10
10.207311819
 20
7.155714807
 30
0.0
 10
10.2116109766
 20
7.1306512758
 30
0.0
 10
10.2171200678
 20
7.1057447986
 30
0.0
 10
10.2238256714
 20
7.0810555052
 30
0.0
 10
10.2317115764
 20
7.0566428028
 30
0.0
 10
10.2407588729
 20
7.0325654807
 30
0.0
 10
10.2509456633
 20
7.0088814777
 30
0.0
 10
10.2622473611
 20
6.985647779
 30
0.0
 10
10.2746367901
 20
6.9629203282
 30
0.0
 10
10.2880841294
 20
6.9407538465
 30
0.0
 10
10.3025569146
 20
6.9192016387
 30
0.0
 10
10.3180203005
 20
6.8983155738
 30
0.0
 10
10.3344371264
 20
6.8781459764
 30
0.0
 10
10.3517678224
 20
6.8587413618
 30
0.0
 10
10.3699706352
 20
6.8401484021
 30
0.0
 10
10.3890017855
 20
6.8224118846
 30
0.0
 10
10.4088155002
 20
6.8055745506
 30
0.0
 10
10.4293640302
 20
6.789676869
 30
0.0
 10
10.4505979218
 20
6.7747571115
 30
0.0
 10
10.4724661201
 20
6.7608512803
 30
0.0
 10
10.4949159716
 20
6.7479928431
 30
0.0
 10
10.5178934177
 20
6.7362127232
 30
0.0
 10
10.5413431766
 20
6.7255393376
 30
0.0
 10
10.5652088334
 20
6.7159984825
 30
0.0
 10
10.5894329071
 20
6.7076130807
 30
0.0
 10
10.6139570879
 20
6.7004033457
 30
0.0
 10
10.6387223608
 20
6.6943867604
 30
0.0
 10
10.6636690943
 20
6.6895778513
 30
0.0
 10
10.6887372105
 20
6.685988179
 30
0.0
 10
10.7138663532
 20
6.6836264678
 30
0.0
 10
10.7389960059
 20
6.682498551
 30
0.0
 10
10.7640656317
 20
6.6826071193
 30
0.0
 10
10.7890148434
 20
6.6839519464
 30
0.0
 10
10.8137835252
 20
6.6865299285
 30
0.0
 10
10.8383119818
 20
6.6903349284
 30
0.0
 10
10.8625411087
 20
6.695357755
 30
0.0
 10
10.886412503
 20
6.7015863781
 30
0.0
 10
10.9098685831
 20
6.7090059331
 30
0.0
 10
10.9328528063
 20
6.717598514
 30
0.0
 10
10.955309761
 20
6.7273434194
 30
0.0
 10
10.9771852583
 20
6.7382172567
 30
0.0
 10
10.998426507
 20
6.750193873
 30
0.0
 10
11.0189823097
 20
6.7632443359
 30
0.0
 10
11.0388030789
 20
6.7773372042
 30
0.0
 10
11.0578409373
 20
6.7924385838
 30
0.0
 10
11.0760499886
 20
6.8085120121
 30
0.0
 10
11.0933863449
 20
6.8255186888
 30
0.0
 10
11.1098081577
 20
6.8434176322
 30
0.0
 10
11.1252757765
 20
6.8621656983
 30
0.0
 10
11.1397519807
 20
6.8817175926
 30
0.0
 10
11.1532018844
 20
6.9020261475
 30
0.0
 10
11.1655929985
 20
6.9230424183
 30
0.0
 10
11.1768955021
 20
6.94471568
 30
0.0
 10
11.1870822405
 20
6.9669936239
 30
0.0
 10
11.1961286645
 20
6.9898225393
 30
0.0
 10
11.2040129315
 20
7.0131473881
 30
0.0
 10
11.2107162109
 20
7.036911898
 30
0.0
 10
11.2162223795
 20
7.061058803
 30
0.0
 10
11.2205181181
 20
7.0855297322
 30
0.0
 10
11.2235933747
 20
7.1102663048
 30
0.0
 10
11.225440404
 20
7.1352076247
 30
0.0
 10
11.2258496642
 20
7.15190536
 30
0.0
 10
11.2258496642
 20
7.1602666615
 30
0.0
  0
SPLINE
  5
385
100
AcDbEntity
  8
0
100
AcDbSpline
 62
7
  6
CONTINUOUS
 70
0
 71
3
 72
39
 73
35
 74
0
 42
0.0000001
 43
0.0000001
 44
0.0000000001
 40
0.0
 40
0.0
 40
0.0
 40
0.0
 40
0.0310752916
 40
0.0623079177
 40
0.0936931358
 40
0.1252222873
 40
0.1568840472
 40
0.188664206
 40
0.220546166
 40
0.2525112497
 40
0.2845391082
 40
0.3166081356
 40
0.3486959062
 40
0.3807796218
 40
0.4128365647
 40
0.4448445493
 40
0.4767823667
 40
0.5086302151
 40
0.54037011
 40
0.5719862674
 40
0.6034654527
 40
0.6347972873
 40
0.665974506
 40
0.6969931575
 40
0.7278527395
 40
0.7585562631
 40
0.7891102393
 40
0.8195245835
 40
0.8498124352
 40
0.879989894
 40
0.9100756734
 40
0.9400906802
 40
0.9700575282
 40
1.0
 40
1.0
 40
1.0
 40
1.0
 10
10.2754529106
 20
7.2422538376
 30
0.0
 10
10.2754529106
 20
7.2310031138
 30
0.0
 10
10.2762921921
 20
7.2084360464
 30
0.0
 10
10.28003938
 20
7.1746934752
 30
0.0
 10
10.2862569204
 20
7.1411490257
 30
0.0
 10
10.2949104337
 20
7.1079893127
 30
0.0
 10
10.3059519936
 20
7.0753957774
 30
0.0
 10
10.3193207417
 20
7.0435474807
 30
0.0
 10
10.3349430347
 20
7.0126191558
 30
0.0
 10
10.3527329382
 20
6.9827805255
 30
0.0
 10
10.3725926614
 20
6.9541953093
 30
0.0
 10
10.3944131048
 20
6.9270203576
 30
0.0
 10
10.4180744499
 20
6.9014047944
 30
0.0
 10
10.4434468127
 20
6.8774892104
 30
0.0
 10
10.4703909487
 20
6.8554048982
 30
0.0
 10
10.4987590099
 20
6.835273139
 30
0.0
 10
10.528395346
 20
6.8172045422
 30
0.0
 10
10.5591373488
 20
6.8012984427
 30
0.0
 10
10.590816333
 20
6.7876423583
 30
0.0
 10
10.6232584485
 20
6.7763115067
 30
0.0
 10
10.6562856227
 20
6.7673683935
 30
0.0
 10
10.6897165239
 20
6.7608624639
 30
0.0
 10
10.7233675427
 20
6.7568298236
 30
0.0
 10
10.7570537872
 20
6.7552930285
 30
0.0
 10
10.7905900864
 20
6.7562609453
 30
0.0
 10
10.8237919994
 20
6.7597286842
 30
0.0
 10
10.8564768227
 20
6.7656776021
 30
0.0
 10
10.8884646
 20
6.7740753851
 30
0.0
 10
10.9195791013
 20
6.7848761849
 30
0.0
 10
10.9496488672
 20
6.7980209063
 30
0.0
 10
10.978507946
 20
6.813437293
 30
0.0
 10
11.0059976719
 20
6.8310411224
 30
0.0
 10
11.0319644444
 20
6.8507336419
 30
0.0
 10
11.0481718394
 20
6.8651887462
 30
0.0
 10
11.0559689834
 20
6.8727202087
 30
0.0
  0
SPLINE
  5
386
100
AcDbEntity
  8
0
100
AcDbSpline
 62
7
  6
CONTINUOUS
 70
0
 71
3
 72
26
 73
22
 74
0
 42
0.0000001
 43
0.0000001
 44
0.0000000001
 40
0.0
 40
0.0
 40
0.0
 40
0.0
 40
0.063776425
 40
0.1273428323
 40
0.1906991404
 40
0.2538523371
 40
0.2853569021
 40
0.3168132445
 40
0.3795812216
 40
0.4421715773
 40
0.5045965951
 40
0.5668701924
 40
0.6290077787
 40
0.6910261245
 40
0.7219986763
 40
0.7529482473
 40
0.8147830318
 40
0.8765553555
 40
0.9074270196
 40
0.938290781
 40
1.0
 40
1.0
 40
1.0
 40
1.0
 10
9.8556119655
 20
7.2467186017
 30
0.0
 10
9.8556119655
 20
7.2602959105
 30
0.0
 10
9.8562618005
 20
7.2874103964
 30
0.0
 10
9.8591949945
 20
7.3279173668
 30
0.0
 10
9.8640785822
 20
7.3681026973
 30
0.0
 10
9.8697688872
 20
7.4012723019
 30
0.0
 10
9.8752843947
 20
7.4275504134
 30
0.0
 10
9.8814286488
 20
7.4536043789
 30
0.0
 10
9.8902971362
 20
7.4858045127
 30
0.0
 10
9.9028256636
 20
7.5237848102
 30
0.0
 10
9.9172044442
 20
7.5609917449
 30
0.0
 10
9.9334003517
 20
7.5973390714
 30
0.0
 10
9.9513758069
 20
7.632742557
 30
0.0
 10
9.9678120418
 20
7.6614050562
 30
0.0
 10
9.9818055388
 20
7.6837771669
 30
0.0
 10
9.9963443151
 20
7.7057520312
 30
0.0
 10
10.0155479777
 20
7.7324889561
 30
0.0
 10
10.0360871974
 20
7.7581928985
 30
0.0
 10
10.0532819568
 20
7.7780882705
 30
0.0
 10
10.0709729667
 20
7.7975247234
 30
0.0
 10
10.0847988774
 20
7.8115850397
 30
0.0
 10
10.0942478698
 20
7.8207120969
 30
0.0
  0
SPLINE
  5
387
100
AcDbEntity
  8
0
100
AcDbSpline
 62
7
  6
CONTINUOUS
 70
0
 71
3
 72
43
 73
39
 74
0
 42
0.0000001
 43
0.0000001
 44
0.0000000001
 40
0.0
 40
0.0
 40
0.0
 40
0.0
 40
0.0307902143
 40
0.0462356052
 40
0.0617117336
 40
0.0927534361
 40
0.1239153494
 40
0.1551908546
 40
0.186572394
 40
0.2180507641
 40
0.2496155057
 40
0.2654282635
 40
0.2812581691
 40
0.3129597823
 40
0.3447100856
 40
0.3764950027
 40
0.4083000046
 40
0.4401102993
 40
0.4719110247
 40
0.5036874429
 40
0.5354251347
 40
0.5671101889
 40
0.5987293875
 40
0.6302703829
 40
0.6617218682
 40
0.6930737361
 40
0.7243172273
 40
0.7554450651
 40
0.786451571
 40
0.8173327615
 40
0.8480864238
 40
0.8634169844
 40
0.8787156718
 40
0.9092149625
 40
0.9395911154
 40
0.954736363
 40
0.9698529096
 40
1.0
 40
1.0
 40
1.0
 40
1.0
 10
10.549800872
 20
7.5072536346
 30
0.0
 10
10.549800872
 20
7.498140888
 30
0.0
 10
10.5502132527
 20
7.4844523425
 30
0.0
 10
10.5515777652
 20
7.466237133
 30
0.0
 10
10.5534900111
 20
7.4479958682
 30
0.0
 10
10.5569012907
 20
7.4252454968
 30
0.0
 10
10.5626037939
 20
7.3981575318
 30
0.0
 10
10.5698990995
 20
7.3713499254
 30
0.0
 10
10.5787606683
 20
7.3449199131
 30
0.0
 10
10.5891562552
 20
7.3189631409
 30
0.0
 10
10.5990612451
 20
7.2978157871
 30
0.0
 10
10.6077109434
 20
7.2812261568
 30
0.0
 10
10.6168468971
 20
7.2648528415
 30
0.0
 10
10.629146369
 20
7.2448543517
 30
0.0
 10
10.6452498443
 20
7.2217031599
 30
0.0
 10
10.6626476099
 20
7.1994688052
 30
0.0
 10
10.6812766188
 20
7.1782319655
 30
0.0
 10
10.70106975
 20
7.1580691029
 30
0.0
 10
10.7219556025
 20
7.1390529897
 30
0.0
 10
10.7438588543
 20
7.1212522153
 30
0.0
 10
10.7667005096
 20
7.1047310012
 30
0.0
 10
10.7903981995
 20
7.0895489675
 30
0.0
 10
10.8148664714
 20
7.0757609206
 30
0.0
 10
10.8400170942
 20
7.0634166574
 30
0.0
 10
10.8657593739
 20
7.0525607857
 30
0.0
 10
10.8920004721
 20
7.0432325668
 30
0.0
 10
10.9186457519
 20
7.0354657573
 30
0.0
 10
10.9455990441
 20
7.0292884798
 30
0.0
 10
10.9727632742
 20
7.0247231415
 30
0.0
 10
11.0000397829
 20
7.0217863482
 30
0.0
 10
11.0228078263
 20
7.020703946
 30
0.0
 10
11.0409772058
 20
7.020662695
 30
0.0
 10
11.059064293
 20
7.0211687233
 30
0.0
 10
11.0815629229
 20
7.0228250583
 30
0.0
 10
11.1038731525
 20
7.0258496883
 30
0.0
 10
11.1215288048
 20
7.0290825722
 30
0.0
 10
11.1390089555
 20
7.0328463898
 30
0.0
 10
11.1519705691
 20
7.0362764923
 30
0.0
 10
11.1605201875
 20
7.03882862
 30
0.0
  0
SPLINE
  5
388
100
AcDbEntity
  8
0
100
AcDbSpline
 62
7
  6
CONTINUOUS
 70
0
 71
3
 72
52
 73
48
 74
0
 42
0.0000001
 43
0.0000001
 44
0.0000000001
 40
0.0
 40
0.0
 40
0.0
 40
0.0
 40
0.0417736292
 40
0.0840373446
 40
0.1266586052
 40
0.1695067922
 40
0.2124484278
 40
0.2553504556
 40
0.2980797169
 40
0.3405037987
 40
0.3824914834
 40
0.4239132935
 40
0.4646420229
 40
0.5045532747
 40
0.5435260114
 40
0.5814431205
 40
0.6181920046
 40
0.6536652163
 40
0.6877611311
 40
0.7203846817
 40
0.7514482003
 40
0.7663702348
 40
0.7808732728
 40
0.7949489244
 40
0.8085895246
 40
0.8217880475
 40
0.8345384568
 40
0.8468354098
 40
0.8586747416
 40
0.8700532367
 40
0.8809689705
 40
0.8914214137
 40
0.9014114943
 40
0.9109420987
 40
0.920017969
 40
0.9286464346
 40
0.9368374599
 40
0.9446043519
 40
0.9519642384
 40
0.9589386284
 40
0.9655543158
 40
0.9718437976
 40
0.9778461907
 40
0.9836073608
 40
0.9891800399
 40
0.9946230749
 40
1.0
 40
1.0
 40
1.0
 40
1.0
 10
13.0394271134
 20
8.9978613562
 30
0.0
 10
13.0394271134
 20
8.9879551845
 30
0.0
 10
13.0392725523
 20
8.9680263112
 30
0.0
 10
13.0385893451
 20
8.937997299
 30
0.0
 10
13.0374553187
 20
8.907726883
 30
0.0
 10
13.0358742927
 20
8.8773155776
 30
0.0
 10
13.0338514195
 20
8.8468637372
 30
0.0
 10
13.031393423
 20
8.8164722197
 30
0.0
 10
13.0285084275
 20
8.7862415342
 30
0.0
 10
13.0252059993
 20
8.7562717043
 30
0.0
 10
13.0214970957
 20
8.7266618704
 30
0.0
 10
13.0173940324
 20
8.6975099743
 30
0.0
 10
13.0129104397
 20
8.66891243
 30
0.0
 10
13.0080612191
 20
8.6409638027
 30
0.0
 10
13.0028624948
 20
8.6137564917
 30
0.0
 10
12.9973315623
 20
8.5873804214
 30
0.0
 10
12.9914868306
 20
8.5619227274
 30
0.0
 10
12.9853477663
 20
8.5374674769
 30
0.0
 10
12.9789348358
 20
8.5140952912
 30
0.0
 10
12.9722694014
 20
8.4918833575
 30
0.0
 10
12.966447757
 20
8.4741716545
 30
0.0
 10
12.9616704092
 20
8.4606458585
 30
0.0
 10
12.9580862003
 20
8.4509723455
 30
0.0
 10
12.9544557385
 20
8.4416414152
 30
0.0
 10
12.9507820504
 20
8.4326607392
 30
0.0
 10
12.9470681006
 20
8.4240377374
 30
0.0
 10
12.9433170691
 20
8.4157794775
 30
0.0
 10
12.9395319436
 20
8.4078927755
 30
0.0
 10
12.9357159423
 20
8.4003840754
 30
0.0
 10
12.931872149
 20
8.3932595406
 30
0.0
 10
12.928003725
 20
8.3865249918
 30
0.0
 10
12.9241138778
 20
8.3801858917
 30
0.0
 10
12.9202056687
 20
8.3742474315
 30
0.0
 10
12.9162823731
 20
8.3687143485
 30
0.0
 10
12.9123469734
 20
8.3635911738
 30
0.0
 10
12.9084026736
 20
8.3588819505
 30
0.0
 10
12.9044524202
 20
8.3545905015
 30
0.0
 10
12.9004991864
 20
8.3507202774
 30
0.0
 10
12.8965458719
 20
8.3472743989
 30
0.0
 10
12.8925951438
 20
8.3442558929
 30
0.0
 10
12.8886498023
 20
8.3416673482
 30
0.0
 10
12.8847123561
 20
8.339511587
 30
0.0
 10
12.8807856174
 20
8.3377910378
 30
0.0
 10
12.8768725252
 20
8.336508408
 30
0.0
 10
12.8729763516
 20
8.3356661254
 30
0.0
 10
12.8691018119
 20
8.3352661725
 30
0.0
 10
12.866529444
 20
8.3352956004
 30
0.0
 10
12.8652574188
 20
8.3353838187
 30
0.0
  0
SPLINE
  5
389
100
AcDbEntity
  8
0
100
AcDbSpline
 62
7
  6
CONTINUOUS
 70
0
 71
3
 72
72
 73
68
 74
0
 42
0.0000001
 43
0.0000001
 44
0.0000000001
 40
0.0
 40
0.0
 40
0.0
 40
0.0
 40
0.0155840725
 40
0.0311159712
 40
0.0465951785
 40
0.0620238026
 40
0.0697201973
 40
0.0774045886
 40
0.092737395
 40
0.1080262192
 40
0.1232742506
 40
0.1384851146
 40
0.1536628166
 40
0.1688117108
 40
0.1839364555
 40
0.1990419628
 40
0.2141333484
 40
0.2292158792
 40
0.2442949178
 40
0.2593758641
 40
0.2744640961
 40
0.2895649139
 40
0.3046834843
 40
0.3198247861
 40
0.3349935567
 40
0.3501942426
 40
0.3654309567
 40
0.3807074386
 40
0.3960270175
 40
0.4113925793
 40
0.4268065432
 40
0.4422708434
 40
0.457786914
 40
0.4733556767
 40
0.488977538
 40
0.5046523929
 40
0.5203796314
 40
0.5361581463
 40
0.5519863474
 40
0.567862185
 40
0.5837831722
 40
0.5997464099
 40
0.6157486141
 40
0.6317861519
 40
0.6478550767
 40
0.6639511632
 40
0.6800699446
 40
0.696206755
 40
0.7123567728
 40
0.7285150606
 40
0.7446766075
 40
0.7608363741
 40
0.7769893384
 40
0.7931305377
 40
0.8092551098
 40
0.8253583381
 40
0.8414356949
 40
0.8574828808
 40
0.8734958615
 40
0.8894709058
 40
0.905404631
 40
0.9212940095
 40
0.9371364441
 40
0.95292979
 40
0.9686720519
 40
0.9843628048
 40
1.0
 40
1.0
 40
1.0
 40
1.0
 10
7.924315057
 20
9.0177799513
 30
0.0
 10
7.924315057
 20
9.0283499861
 30
0.0
 10
7.924832383
 20
9.0494583955
 30
0.0
 10
7.9271673761
 20
9.0809880662
 30
0.0
 10
7.9310549029
 20
9.112258441
 30
0.0
 10
7.9355841335
 20
9.1380595321
 30
0.0
 10
7.9399738542
 20
9.1584919949
 30
0.0
 10
7.9448633618
 20
9.1787437758
 30
0.0
 10
7.9519200386
 20
9.2037611545
 30
0.0
 10
7.9618869103
 20
9.2332469721
 30
0.0
 10
7.9733229174
 20
9.2621062689
 30
0.0
 10
7.9862004624
 20
9.2902689454
 30
0.0
 10
8.0004885936
 20
9.3176671957
 30
0.0
 10
8.0161528494
 20
9.3442349191
 30
0.0
 10
8.0331554983
 20
9.3699080376
 30
0.0
 10
8.051455597
 20
9.3946245935
 30
0.0
 10
8.0710090621
 20
9.4183249295
 30
0.0
 10
8.0917686989
 20
9.4409519046
 30
0.0
 10
8.1136844375
 20
9.4624509448
 30
0.0
 10
8.1367034317
 20
9.4827701824
 30
0.0
 10
8.1607701895
 20
9.501860566
 30
0.0
 10
8.1858266153
 20
9.5196761027
 30
0.0
 10
8.211812247
 20
9.536173868
 30
0.0
 10
8.2386644015
 20
9.5513141022
 30
0.0
 10
8.2663183283
 20
9.5650602808
 30
0.0
 10
8.294707305
 20
9.577379323
 30
0.0
 10
8.3237628412
 20
9.5882416205
 30
0.0
 10
8.3534148687
 20
9.5976210481
 30
0.0
 10
8.3835919011
 20
9.6054950191
 30
0.0
 10
8.4142211809
 20
9.6118446124
 30
0.0
 10
8.4452288602
 20
9.6166546557
 30
0.0
 10
8.4765402074
 20
9.6199136404
 30
0.0
 10
8.5080797748
 20
9.6216137649
 30
0.0
 10
8.539771569
 20
9.6217509674
 30
0.0
 10
8.5715392398
 20
9.6203250549
 30
0.0
 10
8.6033062721
 20
9.6173395512
 30
0.0
 10
8.6349961627
 20
9.6128017061
 30
0.0
 10
8.6665325903
 20
9.6067224605
 30
0.0
 10
8.6978396262
 20
9.5991165641
 30
0.0
 10
8.7288419054
 20
9.5900024192
 30
0.0
 10
8.7594647983
 20
9.5794020215
 30
0.0
 10
8.7896345728
 20
9.5673408931
 30
0.0
 10
8.819278611
 20
9.5538481319
 30
0.0
 10
8.8483255814
 20
9.5389563018
 30
0.0
 10
8.8767055775
 20
9.5227012866
 30
0.0
 10
8.904350277
 20
9.5051222107
 30
0.0
 10
8.9311931319
 20
9.4862613998
 30
0.0
 10
8.9571695693
 20
9.4661643214
 30
0.0
 10
8.9822170767
 20
9.4448793689
 30
0.0
 10
9.0062753552
 20
9.422457768
 30
0.0
 10
9.0292864625
 20
9.3989534623
 30
0.0
 10
9.0511950459
 20
9.374423071
 30
0.0
 10
9.0719483791
 20
9.3489256473
 30
0.0
 10
9.0914964919
 20
9.3225225517
 30
0.0
 10
9.1097922684
 20
9.2952772991
 30
0.0
 10
9.1267916774
 20
9.2672554862
 30
0.0
 10
9.1424538026
 20
9.2385245694
 30
0.0
 10
9.1567409117
 20
9.2091536929
 30
0.0
 10
9.1696185292
 20
9.1792135262
 30
0.0
 10
9.1810556201
 20
9.1487761374
 30
0.0
 10
9.191024639
 20
9.1179148077
 30
0.0
 10
9.1995015519
 20
9.0867038275
 30
0.0
 10
9.2064658656
 20
9.0552182732
 30
0.0
 10
9.2119006213
 20
9.023534155
 30
0.0
 10
9.2157930087
 20
8.9917271304
 30
0.0
 10
9.2181331175
 20
8.959875253
 30
0.0
 10
9.2186557409
 20
8.9386231857
 30
0.0
 10
9.2186557409
 20
8.92801712
 30
0.0
  0
SPLINE
  5
38A
100
AcDbEntity
  8
0
100
AcDbSpline
 62
7
  6
CONTINUOUS
 70
0
 71
3
 72
25
 73
21
 74
0
 42
0.0000001
 43
0.0000001
 44
0.0000000001
 40
0.0
 40
0.0
 40
0.0
 40
0.0
 40
0.0637759504
 40
0.1273437766
 40
0.1907000372
 40
0.2538535117
 40
0.3168100046
 40
0.3795782269
 40
0.4421688975
 40
0.5045942185
 40
0.5668681103
 40
0.6290059924
 40
0.6910246356
 40
0.7219973347
 40
0.7529470551
 40
0.814782134
 40
0.8765547543
 40
0.9074265685
 40
0.9382904797
 40
1.0
 40
1.0
 40
1.0
 40
1.0
 10
8.010047187
 20
9.0305908347
 30
0.0
 10
8.010047187
 20
9.0398480148
 30
0.0
 10
8.0104903104
 20
9.058335301
 30
0.0
 10
8.0124901463
 20
9.0859537325
 30
0.0
 10
8.0158199783
 20
9.1133532919
 30
0.0
 10
8.0204717786
 20
9.1404695231
 30
0.0
 10
8.0264351743
 20
9.1672405197
 30
0.0
 10
8.0336963528
 20
9.1936043923
 30
0.0
 10
8.0422386091
 20
9.2195004046
 30
0.0
 10
8.0520423808
 20
9.2448687946
 30
0.0
 10
8.0630851649
 20
9.2696511486
 30
0.0
 10
8.0753412573
 20
9.2937899529
 30
0.0
 10
8.086547845
 20
9.3133326355
 30
0.0
 10
8.0960889597
 20
9.3285863738
 30
0.0
 10
8.1060018299
 20
9.3435692774
 30
0.0
 10
8.1190953637
 20
9.3617990171
 30
0.0
 10
8.1330994309
 20
9.3793245073
 30
0.0
 10
8.1448232787
 20
9.392889501
 30
0.0
 10
8.1568853367
 20
9.4061417229
 30
0.0
 10
8.1663122445
 20
9.4157282323
 30
0.0
 10
8.1727547621
 20
9.4219512554
 30
0.0
  0
SPLINE
  5
38B
100
AcDbEntity
  8
0
100
AcDbSpline
 62
7
  6
CONTINUOUS
 70
0
 71
3
 72
15
 73
11
 74
0
 42
0.0000001
 43
0.0000001
 44
0.0000000001
 40
0.0
 40
0.0
 40
0.0
 40
0.0
 40
0.1266443852
 40
0.252783321
 40
0.3784230461
 40
0.5035837653
 40
0.6282881639
 40
0.7525671294
 40
0.8764570211
 40
1.0
 40
1.0
 40
1.0
 40
1.0
 10
8.3397195802
 20
9.3110299324
 30
0.0
 10
8.3397195802
 20
9.3215212952
 30
0.0
 10
8.3403270159
 20
9.3424673801
 30
0.0
 10
8.3430702095
 20
9.3737134013
 30
0.0
 10
8.3476347498
 20
9.4046227817
 30
0.0
 10
8.3540051247
 20
9.4350896129
 30
0.0
 10
8.3621601143
 20
9.4650113964
 30
0.0
 10
8.3720723952
 20
9.4942872458
 30
0.0
 10
8.3837079806
 20
9.5228168955
 30
0.0
 10
8.3926008048
 20
9.5413018496
 30
0.0
 10
8.39731936
 20
9.5503836432
 30
0.0
  0
SPLINE
  5
38C
100
AcDbEntity
  8
0
100
AcDbSpline
 62
7
  6
CONTINUOUS
 70
0
 71
3
 72
43
 73
39
 74
0
 42
0.0000001
 43
0.0000001
 44
0.0000000001
 40
0.0
 40
0.0
 40
0.0
 40
0.0
 40
0.0308447186
 40
0.0618223736
 40
0.0929296939
 40
0.1241616857
 40
0.1555113067
 40
0.1869698173
 40
0.2185268388
 40
0.2501705534
 40
0.2818878777
 40
0.3136646652
 40
0.3454859143
 40
0.3773359875
 40
0.4091988365
 40
0.4410582311
 40
0.4728979903
 40
0.5047022126
 40
0.536455504
 40
0.5681431999
 40
0.599751581
 40
0.6312680783
 40
0.6626814655
 40
0.6939820375
 40
0.7251617696
 40
0.7562144575
 40
0.7871358328
 40
0.8179236532
 40
0.8332692633
 40
0.8485816005
 40
0.8638609833
 40
0.8791078487
 40
0.9095025346
 40
0.9397756933
 40
0.9548711807
 40
0.9699394999
 40
0.9849819677
 40
1.0
 40
1.0
 40
1.0
 40
1.0
 10
8.29733609
 20
9.3080906222
 30
0.0
 10
8.29733609
 20
9.2959390527
 30
0.0
 10
8.298102569
 20
9.2715768123
 30
0.0
 10
8.3015296012
 20
9.2351046711
 30
0.0
 10
8.3072227606
 20
9.1987613229
 30
0.0
 10
8.3151593831
 20
9.1626917517
 30
0.0
 10
8.3253080791
 20
9.1270373636
 30
0.0
 10
8.337628719
 20
9.0919385927
 30
0.0
 10
8.3520726816
 20
9.057533479
 30
0.0
 10
8.3685830017
 20
9.0239573703
 30
0.0
 10
8.3870946149
 20
8.9913423309
 30
0.0
 10
8.4075346056
 20
8.9598166434
 30
0.0
 10
8.4298224957
 20
8.9295043045
 30
0.0
 10
8.4538705588
 20
8.9005245427
 30
0.0
 10
8.4795841637
 20
8.8729913525
 30
0.0
 10
8.5068621442
 20
8.8470130499
 30
0.0
 10
8.5355971947
 20
8.8226918492
 30
0.0
 10
8.5656762882
 20
8.8001234635
 30
0.0
 10
8.5969811185
 20
8.7793967306
 30
0.0
 10
8.6293885609
 20
8.7605932656
 30
0.0
 10
8.662771152
 20
8.7437871409
 30
0.0
 10
8.6969975889
 20
8.7290445955
 30
0.0
 10
8.7319332319
 20
8.7164237744
 30
0.0
 10
8.7674406596
 20
8.7059745006
 30
0.0
 10
8.8033800909
 20
8.6977380716
 30
0.0
 10
8.8396103497
 20
8.6917471134
 30
0.0
 10
8.8759878557
 20
8.6880253786
 30
0.0
 10
8.9063424171
 20
8.6868261557
 30
0.0
 10
8.930552146
 20
8.6870153636
 30
0.0
 10
8.9486386407
 20
8.6877294021
 30
0.0
 10
8.9666545375
 20
8.6890149069
 30
0.0
 10
8.9905307356
 20
8.6914865219
 30
0.0
 10
9.0201186735
 20
8.6959936923
 30
0.0
 10
9.0492957978
 20
8.7023903223
 30
0.0
 10
9.0722795721
 20
8.7086206339
 30
0.0
 10
9.089310415
 20
8.7138404339
 30
0.0
 10
9.1061317104
 20
8.7196059415
 30
0.0
 10
9.1172045012
 20
8.7238132297
 30
0.0
 10
9.1226997313
 20
8.7260058023
 30
0.0
  0
SPLINE
  5
38D
100
AcDbEntity
  8
0
100
AcDbSpline
 62
7
  6
CONTINUOUS
 70
0
 71
3
 72
15
 73
11
 74
0
 42
0.0000001
 43
0.0000001
 44
0.0000000001
 40
0.0
 40
0.0
 40
0.0
 40
0.0
 40
0.1264519351
 40
0.2524695047
 40
0.3780488958
 40
0.5032081705
 40
0.6279606902
 40
0.7523267646
 40
0.8763305741
 40
1.0
 40
1.0
 40
1.0
 40
1.0
 10
8.29733609
 20
9.3080906222
 30
0.0
 10
8.29733609
 20
9.3178023136
 30
0.0
 10
8.2978237512
 20
9.3371959615
 30
0.0
 10
8.300024956
 20
9.3661590775
 30
0.0
 10
8.3036895662
 20
9.394874434
 30
0.0
 10
8.3088079129
 20
9.4232678239
 30
0.0
 10
8.3153673965
 20
9.451267718
 30
0.0
 10
8.3233514394
 20
9.4788031233
 30
0.0
 10
8.3327394266
 20
9.5058032308
 30
0.0
 10
8.3399283066
 20
9.5234254489
 30
0.0
 10
8.3437479104
 20
9.5321215661
 30
0.0
  0
SPLINE
  5
38E
100
AcDbEntity
  8
0
100
AcDbSpline
 62
7
  6
CONTINUOUS
 70
0
 71
3
 72
72
 73
68
 74
0
 42
0.0000001
 43
0.0000001
 44
0.0000000001
 40
0.0
 40
0.0
 40
0.0
 40
0.0
 40
0.0156371952
 40
0.0313279481
 40
0.04707021
 40
0.0628635559
 40
0.0787059905
 40
0.094595369
 40
0.1105290942
 40
0.1265041385
 40
0.1425171192
 40
0.1585643051
 40
0.1746416619
 40
0.1907448902
 40
0.2068694623
 40
0.2230106616
 40
0.2391636259
 40
0.2553233925
 40
0.2714849394
 40
0.2876432272
 40
0.303793245
 40
0.3199300554
 40
0.3360488368
 40
0.3521449233
 40
0.3682138481
 40
0.3842513859
 40
0.4002535901
 40
0.4162168278
 40
0.432137815
 40
0.4480136526
 40
0.4638418537
 40
0.4796203686
 40
0.4953476071
 40
0.511022462
 40
0.5266443233
 40
0.542213086
 40
0.5577291566
 40
0.5731934568
 40
0.5886074207
 40
0.6039729825
 40
0.6192925614
 40
0.6345690433
 40
0.6498057574
 40
0.6650064433
 40
0.6801752139
 40
0.6953165157
 40
0.7104350861
 40
0.7255359039
 40
0.7406241359
 40
0.7557050822
 40
0.7707841208
 40
0.7858666516
 40
0.8009580372
 40
0.8160635445
 40
0.8311882892
 40
0.8463371834
 40
0.8615148854
 40
0.8767257494
 40
0.8919737808
 40
0.907262605
 40
0.9225954114
 40
0.9302798027
 40
0.9379761974
 40
0.9534048215
 40
0.9688840288
 40
0.9844159275
 40
1.0
 40
1.0
 40
1.0
 40
1.0
 10
7.924315057
 20
9.0177799513
 30
0.0
 10
7.924315057
 20
9.0071738856
 30
0.0
 10
7.9248376804
 20
8.9859218183
 30
0.0
 10
7.9271777892
 20
8.9540699408
 30
0.0
 10
7.9310701766
 20
8.9222629162
 30
0.0
 10
7.9365049323
 20
8.890578798
 30
0.0
 10
7.943469246
 20
8.8590932437
 30
0.0
 10
7.9519461589
 20
8.8278822636
 30
0.0
 10
7.9619151778
 20
8.7970209338
 30
0.0
 10
7.9733522687
 20
8.766583545
 30
0.0
 10
7.9862298862
 20
8.7366433783
 30
0.0
 10
8.0005169953
 20
8.7072725018
 30
0.0
 10
8.0161791205
 20
8.6785415851
 30
0.0
 10
8.0331785295
 20
8.6505197721
 30
0.0
 10
8.051474306
 20
8.6232745195
 30
0.0
 10
8.0710224188
 20
8.5968714239
 30
0.0
 10
8.091775752
 20
8.5713740002
 30
0.0
 10
8.1136843354
 20
8.5468436089
 30
0.0
 10
8.1366954427
 20
8.5233393032
 30
0.0
 10
8.1607537212
 20
8.5009177024
 30
0.0
 10
8.1858012286
 20
8.4796327498
 30
0.0
 10
8.211777666
 20
8.4595356714
 30
0.0
 10
8.2386205209
 20
8.4406748605
 30
0.0
 10
8.2662652204
 20
8.4230957847
 30
0.0
 10
8.2946452165
 20
8.4068407694
 30
0.0
 10
8.3236921869
 20
8.3919489394
 30
0.0
 10
8.3533362251
 20
8.3784561781
 30
0.0
 10
8.3835059996
 20
8.3663950497
 30
0.0
 10
8.4141288925
 20
8.3557946521
 30
0.0
 10
8.4451311717
 20
8.3466805072
 30
0.0
 10
8.4764382076
 20
8.3390746107
 30
0.0
 10
8.5079746352
 20
8.3329953651
 30
0.0
 10
8.5396645258
 20
8.32845752
 30
0.0
 10
8.5714315581
 20
8.3254720163
 30
0.0
 10
8.6031992289
 20
8.3240461038
 30
0.0
 10
8.6348910231
 20
8.3241833064
 30
0.0
 10
8.6664305905
 20
8.3258834308
 30
0.0
 10
8.6977419377
 20
8.3291424155
 30
0.0
 10
8.728749617
 20
8.3339524588
 30
0.0
 10
8.7593788968
 20
8.3403020521
 30
0.0
 10
8.7895559292
 20
8.3481760231
 30
0.0
 10
8.8192079567
 20
8.3575554508
 30
0.0
 10
8.8482634929
 20
8.3684177482
 30
0.0
 10
8.8766524696
 20
8.3807367904
 30
0.0
 10
8.9043063964
 20
8.394482969
 30
0.0
 10
8.9311585509
 20
8.4096232032
 30
0.0
 10
8.9571441826
 20
8.4261209686
 30
0.0
 10
8.9822006084
 20
8.4439365052
 30
0.0
 10
9.0062673662
 20
8.4630268889
 30
0.0
 10
9.0292863604
 20
8.4833461264
 30
0.0
 10
9.051202099
 20
8.5048451666
 30
0.0
 10
9.0719617358
 20
8.5274721417
 30
0.0
 10
9.0915152009
 20
8.5511724777
 30
0.0
 10
9.1098152997
 20
8.5758890337
 30
0.0
 10
9.1268179486
 20
8.6015621522
 30
0.0
 10
9.1424822043
 20
8.6281298755
 30
0.0
 10
9.1567703355
 20
8.6555281258
 30
0.0
 10
9.1696478805
 20
8.6836908023
 30
0.0
 10
9.1810838876
 20
8.7125500991
 30
0.0
 10
9.1910507593
 20
8.7420359167
 30
0.0
 10
9.1981074361
 20
8.7670532954
 30
0.0
 10
9.2029969437
 20
8.7873050763
 30
0.0
 10
9.2073866644
 20
8.8077375392
 30
0.0
 10
9.211915895
 20
8.8335386302
 30
0.0
 10
9.2158034218
 20
8.864809005
 30
0.0
 10
9.2181384149
 20
8.8963386757
 30
0.0
 10
9.2186557409
 20
8.9174470852
 30
0.0
 10
9.2186557409
 20
8.92801712
 30
0.0
  0
SPLINE
  5
38F
100
AcDbEntity
  8
0
100
AcDbSpline
 62
7
  6
CONTINUOUS
 70
0
 71
3
 72
52
 73
48
 74
0
 42
0.0000001
 43
0.0000001
 44
0.0000000001
 40
0.0
 40
0.0
 40
0.0
 40
0.0
 40
0.0417736292
 40
0.0840373446
 40
0.1266586052
 40
0.1695067922
 40
0.2124484278
 40
0.2553504556
 40
0.2980797169
 40
0.3405037987
 40
0.3824914834
 40
0.4239132935
 40
0.4646420229
 40
0.5045532747
 40
0.5435260114
 40
0.5814431205
 40
0.6181920046
 40
0.6536652163
 40
0.6877611311
 40
0.7203846817
 40
0.7514482003
 40
0.7663702348
 40
0.7808732728
 40
0.7949489244
 40
0.8085895246
 40
0.8217880475
 40
0.8345384568
 40
0.8468354098
 40
0.8586747416
 40
0.8700532367
 40
0.8809689705
 40
0.8914214137
 40
0.9014114943
 40
0.9109420987
 40
0.920017969
 40
0.9286464346
 40
0.9368374599
 40
0.9446043519
 40
0.9519642384
 40
0.9589386284
 40
0.9655543158
 40
0.9718437976
 40
0.9778461907
 40
0.9836073608
 40
0.9891800399
 40
0.9946230749
 40
1.0
 40
1.0
 40
1.0
 40
1.0
 10
13.0394271134
 20
6.2198585852
 30
0.0
 10
13.0394271134
 20
6.2099524135
 30
0.0
 10
13.0392725523
 20
6.1900235402
 30
0.0
 10
13.0385893451
 20
6.159994528
 30
0.0
 10
13.0374553187
 20
6.129724112
 30
0.0
 10
13.0358742927
 20
6.0993128066
 30
0.0
 10
13.0338514195
 20
6.0688609662
 30
0.0
 10
13.031393423
 20
6.0384694487
 30
0.0
 10
13.0285084275
 20
6.0082387632
 30
0.0
 10
13.0252059993
 20
5.9782689333
 30
0.0
 10
13.0214970957
 20
5.9486590994
 30
0.0
 10
13.0173940324
 20
5.9195072033
 30
0.0
 10
13.0129104397
 20
5.890909659
 30
0.0
 10
13.0080612191
 20
5.8629610317
 30
0.0
 10
13.0028624948
 20
5.8357537207
 30
0.0
 10
12.9973315623
 20
5.8093776504
 30
0.0
 10
12.9914868306
 20
5.7839199564
 30
0.0
 10
12.9853477663
 20
5.7594647059
 30
0.0
 10
12.9789348358
 20
5.7360925202
 30
0.0
 10
12.9722694014
 20
5.7138805865
 30
0.0
 10
12.966447757
 20
5.6961688835
 30
0.0
 10
12.9616704092
 20
5.6826430875
 30
0.0
 10
12.9580862003
 20
5.6729695745
 30
0.0
 10
12.9544557385
 20
5.6636386442
 30
0.0
 10
12.9507820504
 20
5.6546579682
 30
0.0
 10
12.9470681006
 20
5.6460349664
 30
0.0
 10
12.9433170691
 20
5.6377767065
 30
0.0
 10
12.9395319436
 20
5.6298900045
 30
0.0
 10
12.9357159423
 20
5.6223813044
 30
0.0
 10
12.931872149
 20
5.6152567696
 30
0.0
 10
12.928003725
 20
5.6085222208
 30
0.0
 10
12.9241138778
 20
5.6021831207
 30
0.0
 10
12.9202056687
 20
5.5962446605
 30
0.0
 10
12.9162823731
 20
5.5907115775
 30
0.0
 10
12.9123469734
 20
5.5855884028
 30
0.0
 10
12.9084026736
 20
5.5808791795
 30
0.0
 10
12.9044524202
 20
5.5765877305
 30
0.0
 10
12.9004991864
 20
5.5727175064
 30
0.0
 10
12.8965458719
 20
5.5692716279
 30
0.0
 10
12.8925951438
 20
5.5662531219
 30
0.0
 10
12.8886498023
 20
5.5636645772
 30
0.0
 10
12.8847123561
 20
5.561508816
 30
0.0
 10
12.8807856174
 20
5.5597882668
 30
0.0
 10
12.8768725252
 20
5.558505637
 30
0.0
 10
12.8729763516
 20
5.5576633544
 30
0.0
 10
12.8691018119
 20
5.5572634015
 30
0.0
 10
12.866529444
 20
5.5572928294
 30
0.0
 10
12.8652574188
 20
5.5573810477
 30
0.0
  0
SPLINE
  5
390
100
AcDbEntity
  8
0
100
AcDbSpline
 62
7
  6
CONTINUOUS
 70
0
 71
3
 72
47
 73
43
 74
0
 42
0.0000001
 43
0.0000001
 44
0.0000000001
 40
0.0
 40
0.0
 40
0.0
 40
0.0
 40
0.0310739034
 40
0.0623050262
 40
0.0936888077
 40
0.1252165019
 40
0.1568767972
 40
0.1886554884
 40
0.2205359758
 40
0.2524995839
 40
0.2845259639
 40
0.3165935105
 40
0.3486797989
 40
0.3807620322
 40
0.4128174938
 40
0.4448239996
 40
0.4767603414
 40
0.5086067178
 40
0.5403451454
 40
0.5719598413
 40
0.6034375718
 40
0.6347679592
 40
0.6659437387
 40
0.6969609585
 40
0.727819116
 40
0.7585212216
 40
0.773818428
 40
0.7890793503
 40
0.8043053375
 40
0.8194979308
 40
0.834658876
 40
0.8497900958
 40
0.8648936937
 40
0.8799719355
 40
0.895027236
 40
0.9100621526
 40
0.9250793584
 40
0.9400816409
 40
0.9550718723
 40
0.9700530007
 40
0.9850280307
 40
1.0
 40
1.0
 40
1.0
 40
1.0
 10
8.010047187
 20
9.0305908347
 30
0.0
 10
8.010047187
 20
9.0162281866
 30
0.0
 10
8.0111186051
 20
8.9874191695
 30
0.0
 10
8.0159022753
 20
8.9443435493
 30
0.0
 10
8.0238395497
 20
8.9015208685
 30
0.0
 10
8.0348865867
 20
8.859189314
 30
0.0
 10
8.048982184
 20
8.8175805427
 30
0.0
 10
8.0660486551
 20
8.7769231364
 30
0.0
 10
8.0859919964
 20
8.737440161
 30
0.0
 10
8.1087025111
 20
8.6993482903
 30
0.0
 10
8.1340553604
 20
8.6628565304
 30
0.0
 10
8.1619112574
 20
8.6281651106
 30
0.0
 10
8.1921172381
 20
8.5954643985
 30
0.0
 10
8.2245074914
 20
8.5649338688
 30
0.0
 10
8.2589042594
 20
8.5367411282
 30
0.0
 10
8.2951188024
 20
8.5110410055
 30
0.0
 10
8.3329524216
 20
8.4879747095
 30
0.0
 10
8.3721975358
 20
8.4676690594
 30
0.0
 10
8.4126387949
 20
8.4502357695
 30
0.0
 10
8.4540542634
 20
8.4357708571
 30
0.0
 10
8.4962166066
 20
8.4243541118
 30
0.0
 10
8.5388943706
 20
8.4160486611
 30
0.0
 10
8.5818530438
 20
8.4109005778
 30
0.0
 10
8.624857034
 20
8.4089387474
 30
0.0
 10
8.6676683238
 20
8.4101741878
 30
0.0
 10
8.7030371598
 20
8.4138685333
 30
0.0
 10
8.7309910598
 20
8.4184117919
 30
0.0
 10
8.7517393932
 20
8.4226021367
 30
0.0
 10
8.7722645851
 20
8.4275733495
 30
0.0
 10
8.792538736
 20
8.4333188161
 30
0.0
 10
8.8125339193
 20
8.4398303901
 30
0.0
 10
8.832222561
 20
8.4470994055
 30
0.0
 10
8.8515776494
 20
8.455115624
 30
0.0
 10
8.8705724812
 20
8.4638682102
 30
0.0
 10
8.8891809479
 20
8.4733450475
 30
0.0
 10
8.9073774569
 20
8.4835330846
 30
0.0
 10
8.925136889
 20
8.4944184314
 30
0.0
 10
8.9424349314
 20
8.5059859248
 30
0.0
 10
8.9592475926
 20
8.5182198694
 30
0.0
 10
8.9755519871
 20
8.5311032771
 30
0.0
 10
8.9913252065
 20
8.5446183244
 30
0.0
 10
9.0014733093
 20
8.5540380033
 30
0.0
 10
9.0064506722
 20
8.5588457891
 30
0.0
  0
SPLINE
  5
391
100
AcDbEntity
  8
0
100
AcDbSpline
 62
7
  6
CONTINUOUS
 70
0
 71
3
 72
23
 73
19
 74
0
 42
0.0000001
 43
0.0000001
 44
0.0000000001
 40
0.0
 40
0.0
 40
0.0
 40
0.0
 40
0.0615873151
 40
0.1235035352
 40
0.1857194029
 40
0.2481982319
 40
0.310896764
 40
0.3737664728
 40
0.4367548666
 40
0.4998065148
 40
0.5628644814
 40
0.6258718721
 40
0.6887731325
 40
0.7515152851
 40
0.8140494005
 40
0.8763318501
 40
0.9383255626
 40
1.0
 40
1.0
 40
1.0
 40
1.0
 10
8.7993801336
 20
7.1009418618
 30
0.0
 10
8.8008814733
 20
7.0909970473
 30
0.0
 10
8.8046942747
 20
7.0711663065
 30
0.0
 10
8.8127668532
 20
7.0419005696
 30
0.0
 10
8.8231576598
 20
7.0132188762
 30
0.0
 10
8.8357987186
 20
6.9853160064
 30
0.0
 10
8.8506076526
 20
6.9583788927
 30
0.0
 10
8.8674874892
 20
6.9325894847
 30
0.0
 10
8.8863273035
 20
6.908122429
 30
0.0
 10
8.9070027499
 20
6.8851441754
 30
0.0
 10
8.9293767295
 20
6.8638116803
 30
0.0
 10
8.953300235
 20
6.8442712666
 30
0.0
 10
8.9786132359
 20
6.8266575282
 30
0.0
 10
9.0051457559
 20
6.8110922718
 30
0.0
 10
9.032718685
 20
6.7976836036
 30
0.0
 10
9.0611461395
 20
6.7865248112
 30
0.0
 10
9.0902324381
 20
6.7776944203
 30
0.0
 10
9.1099901175
 20
6.7733882126
 30
0.0
 10
9.1199098166
 20
6.7716448496
 30
0.0
  0
SPLINE
  5
392
100
AcDbEntity
  8
0
100
AcDbSpline
 62
7
  6
CONTINUOUS
 70
0
 71
3
 72
40
 73
36
 74
0
 42
0.0000001
 43
0.0000001
 44
0.0000000001
 40
0.0
 40
0.0
 40
0.0
 40
0.0
 40
0.0306323676
 40
0.0613744403
 40
0.0922218076
 40
0.1231734127
 40
0.1542248234
 40
0.1853712545
 40
0.2166069129
 40
0.2479250681
 40
0.2793182132
 40
0.3107780903
 40
0.3422957957
 40
0.3738618716
 40
0.4054663949
 40
0.4370990701
 40
0.4687493325
 40
0.5004064541
 40
0.5320596419
 40
0.5636981369
 40
0.5953113185
 40
0.626888812
 40
0.6584205851
 40
0.6898970412
 40
0.721309115
 40
0.7526483704
 40
0.7839070838
 40
0.8150783209
 40
0.8461560101
 40
0.8771350199
 40
0.9080112165
 40
0.9387815112
 40
0.9541275185
 40
0.9694463973
 40
1.0
 40
1.0
 40
1.0
 40
1.0
 10
8.5866484434
 20
9.5495449127
 30
0.0
 10
8.5866484434
 20
9.5402395851
 30
0.0
 10
8.5871281063
 20
9.5215921435
 30
0.0
 10
8.5892752664
 20
9.4936484464
 30
0.0
 10
8.5928461127
 20
9.4657523787
 30
0.0
 10
8.5978307031
 20
9.4379788066
 30
0.0
 10
8.6042161793
 20
9.4104002788
 30
0.0
 10
8.6119855363
 20
9.3830896161
 30
0.0
 10
8.6211182287
 20
9.3561186713
 30
0.0
 10
8.6315901709
 20
9.329558458
 30
0.0
 10
8.6433737704
 20
9.3034789163
 30
0.0
 10
8.656437976
 20
9.2779487123
 30
0.0
 10
8.6707483063
 20
9.2530350316
 30
0.0
 10
8.6862670519
 20
9.2288034523
 30
0.0
 10
8.7029533519
 20
9.2053177729
 30
0.0
 10
8.7207632927
 20
9.1826398486
 30
0.0
 10
8.7396499282
 20
9.1608293502
 30
0.0
 10
8.759563517
 20
9.1399436851
 30
0.0
 10
8.7804516371
 20
9.1200378456
 30
0.0
 10
8.802259333
 20
9.101164287
 30
0.0
 10
8.8249291715
 20
9.0833726899
 30
0.0
 10
8.8484014556
 20
9.0667098845
 30
0.0
 10
8.8726144006
 20
9.0512197614
 30
0.0
 10
8.8975042927
 20
9.0369431694
 30
0.0
 10
8.9230056106
 20
9.0239177397
 30
0.0
 10
8.9490511997
 20
9.0121777621
 30
0.0
 10
8.9755724923
 20
9.0017541891
 30
0.0
 10
9.0024996842
 20
8.9926745421
 30
0.0
 10
9.0297618554
 20
8.9849628329
 30
0.0
 10
9.0572873209
 20
8.9786393656
 30
0.0
 10
9.0850031557
 20
8.9737208986
 30
0.0
 10
9.1082194935
 20
8.97080112
 30
0.0
 10
9.1268133158
 20
8.9691810806
 30
0.0
 10
9.1453763146
 20
8.9680400596
 30
0.0
 10
9.1593156008
 20
8.9677196108
 30
0.0
 10
9.1685969637
 20
8.9677461574
 30
0.0
  0
SPLINE
  5
393
100
AcDbEntity
  8
0
100
AcDbSpline
 62
7
  6
CONTINUOUS
 70
0
 71
3
 72
27
 73
23
 74
0
 42
0.0000001
 43
0.0000001
 44
0.0000000001
 40
0.0
 40
0.0
 40
0.0
 40
0.0
 40
0.0637762197
 40
0.0955883945
 40
0.1273468658
 40
0.1907029382
 40
0.2538558262
 40
0.2853602393
 40
0.3168164378
 40
0.3795841238
 40
0.4421741853
 40
0.504598912
 40
0.5668722169
 40
0.6290095106
 40
0.6910275639
 40
0.7219999722
 40
0.7529493967
 40
0.8147838933
 40
0.8765559303
 40
0.907427449
 40
0.9382910684
 40
1.0
 40
1.0
 40
1.0
 40
1.0
 10
7.6455736066
 20
6.6137217183
 30
0.0
 10
7.6455736066
 20
6.6283791056
 30
0.0
 10
7.6461002918
 20
6.6503526199
 30
0.0
 10
7.6478622862
 20
6.6795691144
 30
0.0
 10
7.6503238723
 20
6.7086386539
 30
0.0
 10
7.6547137638
 20
6.7447620059
 30
0.0
 10
7.66085675
 20
6.7805699289
 30
0.0
 10
7.6668110045
 20
6.8089384645
 30
0.0
 10
7.6734440738
 20
6.8370649687
 30
0.0
 10
7.6830180474
 20
6.8718265831
 30
0.0
 10
7.6965432375
 20
6.9128281515
 30
0.0
 10
7.712065876
 20
6.9529948319
 30
0.0
 10
7.7295502071
 20
6.9922335129
 30
0.0
 10
7.7489556464
 20
7.0304532682
 30
0.0
 10
7.7666994327
 20
7.0613957893
 30
0.0
 10
7.781806098
 20
7.0855475689
 30
0.0
 10
7.7975014796
 20
7.1092704626
 30
0.0
 10
7.8182328016
 20
7.1381342499
 30
0.0
 10
7.8404059376
 20
7.165882872
 30
0.0
 10
7.8589686068
 20
7.187360818
 30
0.0
 10
7.8780669312
 20
7.2083434
 30
0.0
 10
7.8929927498
 20
7.2235221237
 30
0.0
 10
7.9031934096
 20
7.2333752138
 30
0.0
  0
SPLINE
  5
394
100
AcDbEntity
  8
0
100
AcDbSpline
 62
7
  6
CONTINUOUS
 70
0
 71
3
 72
23
 73
19
 74
0
 42
0.0000001
 43
0.0000001
 44
0.0000000001
 40
0.0
 40
0.0
 40
0.0
 40
0.0
 40
0.063776909
 40
0.1273449468
 40
0.1907019575
 40
0.2538561145
 40
0.3168131979
 40
0.3795820804
 40
0.4421733815
 40
0.5045993354
 40
0.5668738682
 40
0.6290123838
 40
0.6910316538
 40
0.75294965
 40
0.8147853622
 40
0.8765586114
 40
0.9382898593
 40
1.0
 40
1.0
 40
1.0
 40
1.0
 10
10.0565245492
 20
8.9830430027
 30
0.0
 10
10.0565245492
 20
8.9934110421
 30
0.0
 10
10.0570208212
 20
9.014116678
 30
0.0
 10
10.0592606447
 20
9.0450491601
 30
0.0
 10
10.0629900145
 20
9.0757364656
 30
0.0
 10
10.0681999681
 20
9.1061065124
 30
0.0
 10
10.0748788907
 20
9.1360898883
 30
0.0
 10
10.0830113351
 20
9.1656172816
 30
0.0
 10
10.0925785944
 20
9.1946206702
 30
0.0
 10
10.1035586948
 20
9.2230331716
 30
0.0
 10
10.1159264147
 20
9.2507892388
 30
0.0
 10
10.1296532901
 20
9.27782485
 30
0.0
 10
10.1447076664
 20
9.3040776578
 30
0.0
 10
10.1610548799
 20
9.3294871173
 30
0.0
 10
10.1786572402
 20
9.3539945332
 30
0.0
 10
10.1974743894
 20
9.3775435439
 30
0.0
 10
10.217462162
 20
9.4000791076
 30
0.0
 10
10.2315396564
 20
9.4143952017
 30
0.0
 10
10.2387552398
 20
9.4213649501
 30
0.0
  0
SPLINE
  5
395
100
AcDbEntity
  8
0
100
AcDbSpline
 62
7
  6
CONTINUOUS
 70
0
 71
3
 72
46
 73
42
 74
0
 42
0.0000001
 43
0.0000001
 44
0.0000000001
 40
0.0
 40
0.0
 40
0.0
 40
0.0
 40
0.0310347459
 40
0.0622222698
 40
0.0935583868
 40
0.1250350501
 40
0.1566418496
 40
0.1883656828
 40
0.2201912083
 40
0.2521011215
 40
0.2840765097
 40
0.3160972199
 40
0.3481422449
 40
0.3801901213
 40
0.4122193322
 40
0.4442087112
 40
0.4761378415
 40
0.5079874456
 40
0.539739759
 40
0.5713788842
 40
0.6028911165
 40
0.6342652366
 40
0.6654927636
 40
0.6965681627
 40
0.7274889991
 40
0.7582560346
 40
0.7888732593
 40
0.8041304429
 40
0.8193531292
 40
0.834542698
 40
0.8497007056
 40
0.8648288906
 40
0.879929148
 40
0.8950035376
 40
0.910054258
 40
0.9250836451
 40
0.9400941556
 40
0.9550883507
 40
0.9700688905
 40
0.9850385067
 40
1.0
 40
1.0
 40
1.0
 40
1.0
 10
10.1134646905
 20
9.0380429589
 30
0.0
 10
10.1134646905
 20
9.0224054165
 30
0.0
 10
10.1145985504
 20
8.9910419678
 30
0.0
 10
10.1196623793
 20
8.944135377
 30
0.0
 10
10.1280664299
 20
8.8974825223
 30
0.0
 10
10.1397668344
 20
8.8513286797
 30
0.0
 10
10.1547023264
 20
8.8059125946
 30
0.0
 10
10.1727951026
 20
8.7614701044
 30
0.0
 10
10.1939509613
 20
8.7182316951
 30
0.0
 10
10.2180599021
 20
8.676421657
 30
0.0
 10
10.2449966576
 20
8.6362568423
 30
0.0
 10
10.2746213359
 20
8.597945568
 30
0.0
 10
10.3067801562
 20
8.5616865484
 30
0.0
 10
10.3413062418
 20
8.5276678787
 30
0.0
 10
10.3780204769
 20
8.4960660688
 30
0.0
 10
10.4167324263
 20
8.4670451367
 30
0.0
 10
10.4572413125
 20
8.4407557653
 30
0.0
 10
10.4993370448
 20
8.4173345263
 30
0.0
 10
10.5428012954
 20
8.3969031766
 30
0.0
 10
10.5874086096
 20
8.3795680078
 30
0.0
 10
10.6329275744
 20
8.3654193116
 30
0.0
 10
10.679121988
 20
8.3545309063
 30
0.0
 10
10.7257521215
 20
8.3469597568
 30
0.0
 10
10.772575749
 20
8.3427456272
 30
0.0
 10
10.8193501181
 20
8.3419110117
 30
0.0
 10
10.8658304978
 20
8.3444604312
 30
0.0
 10
10.9041691687
 20
8.3494014315
 30
0.0
 10
10.9344415371
 20
8.3550287084
 30
0.0
 10
10.9568989226
 20
8.3600739438
 30
0.0
 10
10.9791035249
 20
8.3659419554
 30
0.0
 10
11.0010268547
 20
8.3726252084
 30
0.0
 10
11.0226403443
 20
8.380114872
 30
0.0
 10
11.0439158332
 20
8.3884014533
 30
0.0
 10
11.0648257508
 20
8.3974739146
 30
0.0
 10
11.0853427856
 20
8.4073207488
 30
0.0
 10
11.1054403599
 20
8.4179289218
 30
0.0
 10
11.1250922588
 20
8.4292848162
 30
0.0
 10
11.1442729292
 20
8.4413735832
 30
0.0
 10
11.1629575389
 20
8.4541795522
 30
0.0
 10
11.181121355
 20
8.467685912
 30
0.0
 10
11.1928710027
 20
8.4771479217
 30
0.0
 10
11.1986500851
 20
8.4819887778
 30
0.0
  0
SPLINE
  5
396
100
AcDbEntity
  8
0
100
AcDbSpline
 62
7
  6
CONTINUOUS
 70
0
 71
3
 72
23
 73
19
 74
0
 42
0.0000001
 43
0.0000001
 44
0.0000000001
 40
0.0
 40
0.0
 40
0.0
 40
0.0
 40
0.0637109068
 40
0.1272323532
 40
0.1905592488
 40
0.2536992957
 40
0.3166571996
 40
0.3794392838
 40
0.442053933
 40
0.50451058
 40
0.5668200014
 40
0.6289942137
 40
0.6910463314
 40
0.7529905109
 40
0.8148418136
 40
0.8766160746
 40
0.9383297964
 40
1.0
 40
1.0
 40
1.0
 40
1.0
 10
10.1134646905
 20
9.0380429589
 30
0.0
 10
10.1134646905
 20
9.047533498
 30
0.0
 10
10.1138805898
 20
9.0664890416
 30
0.0
 10
10.1157570624
 20
9.0948220174
 30
0.0
 10
10.1188821438
 20
9.1229596694
 30
0.0
 10
10.1232495538
 20
9.1508463921
 30
0.0
 10
10.128850975
 20
9.1784289886
 30
0.0
 10
10.1356756192
 20
9.2056540552
 30
0.0
 10
10.1437104087
 20
9.2324689914
 30
0.0
 10
10.1529398585
 20
9.2588220365
 30
0.0
 10
10.1633461058
 20
9.2846623158
 30
0.0
 10
10.1749091823
 20
9.3099398816
 30
0.0
 10
10.1876067959
 20
9.3346058897
 30
0.0
 10
10.2014143645
 20
9.3586127501
 30
0.0
 10
10.2163052712
 20
9.3819140054
 30
0.0
 10
10.2322509665
 20
9.4044647544
 30
0.0
 10
10.2492200181
 20
9.4262209065
 30
0.0
 10
10.2611975846
 20
9.4401723183
 30
0.0
 10
10.2673440208
 20
9.4469997656
 30
0.0
  0
SPLINE
  5
397
100
AcDbEntity
  8
0
100
AcDbSpline
 62
7
  6
CONTINUOUS
 70
0
 71
3
 72
56
 73
52
 74
0
 42
0.0000001
 43
0.0000001
 44
0.0000000001
 40
0.0
 40
0.0
 40
0.0
 40
0.0
 40
0.0417736882
 40
0.084036569
 40
0.126657816
 40
0.1695056114
 40
0.2124469876
 40
0.2553487175
 40
0.2980776897
 40
0.3405014874
 40
0.382488896
 40
0.4239104382
 40
0.4646389059
 40
0.5045499007
 40
0.5435223862
 40
0.5814392545
 40
0.618187917
 40
0.6536609283
 40
0.6877566583
 40
0.7042583751
 40
0.7203806689
 40
0.736112881
 40
0.7514447564
 40
0.7663667196
 40
0.7808696734
 40
0.7949452813
 40
0.8085857852
 40
0.8217842875
 40
0.8345346038
 40
0.8468315409
 40
0.8586708034
 40
0.870049268
 40
0.8809649654
 40
0.8914173597
 40
0.9014074321
 40
0.9109379838
 40
0.9200138552
 40
0.928642284
 40
0.9368332998
 40
0.9446001777
 40
0.9519600405
 40
0.9589344314
 40
0.9655500921
 40
0.9718395715
 40
0.9778419465
 40
0.9836030969
 40
0.9891757603
 40
0.9919106346
 40
0.9946208937
 40
0.9973146057
 40
1.0
 40
1.0
 40
1.0
 40
1.0
 10
13.7747313614
 20
10.3108485253
 30
0.0
 10
13.7747313614
 20
10.2957373167
 30
0.0
 10
13.7744956062
 20
10.2653374641
 30
0.0
 10
13.7734534017
 20
10.2195305464
 30
0.0
 10
13.7717235727
 20
10.1733555444
 30
0.0
 10
13.7693118247
 20
10.126965419
 30
0.0
 10
13.7662261024
 20
10.0805135616
 30
0.0
 10
13.7624766192
 20
10.034153686
 30
0.0
 10
13.7580757894
 20
9.9880391567
 30
0.0
 10
13.7530382043
 20
9.9423225358
 30
0.0
 10
13.7473805766
 20
9.8971550551
 30
0.0
 10
13.741121689
 20
9.8526861185
 30
0.0
 10
13.7342823317
 20
9.8090628
 30
0.0
 10
13.7268852354
 20
9.7664293542
 30
0.0
 10
13.7189549977
 20
9.7249267245
 30
0.0
 10
13.7105180017
 20
9.6846920919
 30
0.0
 10
13.7016023382
 20
9.6458583224
 30
0.0
 10
13.6922376855
 20
9.6085538172
 30
0.0
 10
13.683998562
 20
9.5785255152
 30
0.0
 10
13.6771939823
 20
9.5553688708
 30
0.0
 10
13.6720535081
 20
9.538648352
 30
0.0
 10
13.666824795
 20
9.5223991902
 30
0.0
 10
13.6615120452
 20
9.5066348042
 30
0.0
 10
13.6561197763
 20
9.4913682034
 30
0.0
 10
13.6506523534
 20
9.4766120018
 30
0.0
 10
13.6451144102
 20
9.4623783572
 30
0.0
 10
13.639510437
 20
9.4486790202
 30
0.0
 10
13.6338451684
 20
9.4355252565
 30
0.0
 10
13.6281232033
 20
9.4229279082
 30
0.0
 10
13.6223493534
 20
9.4108973074
 30
0.0
 10
13.6165283074
 20
9.3994433441
 30
0.0
 10
13.6106649242
 20
9.3885753775
 30
0.0
 10
13.6047639574
 20
9.3783023033
 30
0.0
 10
13.5988302748
 20
9.368632472
 30
0.0
 10
13.5928686574
 20
9.3595737462
 30
0.0
 10
13.5868839276
 20
9.3511334412
 30
0.0
 10
13.5808808365
 20
9.3433183586
 30
0.0
 10
13.5748640826
 20
9.3361347765
 30
0.0
 10
13.5688382996
 20
9.3295884421
 30
0.0
 10
13.5628079575
 20
9.3236846559
 30
0.0
 10
13.5567774638
 20
9.3184282065
 30
0.0
 10
13.5507509745
 20
9.3138236132
 30
0.0
 10
13.5447326245
 20
9.3098749759
 30
0.0
 10
13.5387264079
 20
9.3065864312
 30
0.0
 10
13.5327363842
 20
9.3039618108
 30
0.0
 10
13.5267675498
 20
9.3020052315
 30
0.0
 10
13.5217827703
 20
9.3009276448
 30
0.0
 10
13.517829061
 20
9.3004110171
 30
0.0
 10
13.5148913177
 20
9.3001934405
 30
0.0
 10
13.5119639932
 20
9.3001436042
 30
0.0
 10
13.5100184723
 20
9.3002222848
 30
0.0
 10
13.5090493854
 20
9.3002894876
 30
0.0
  0
SPLINE
  5
398
100
AcDbEntity
  8
0
100
AcDbSpline
 62
7
  6
CONTINUOUS
 70
0
 71
3
 72
55
 73
51
 74
0
 42
0.0000001
 43
0.0000001
 44
0.0000000001
 40
0.0
 40
0.0
 40
0.0
 40
0.0
 40
0.0310650475
 40
0.0622864293
 40
0.0936596324
 40
0.1251761298
 40
0.1568247282
 40
0.1885914687
 40
0.2204599964
 40
0.2524119129
 40
0.2844271565
 40
0.3164844113
 40
0.3485615342
 40
0.3806359915
 40
0.412685302
 40
0.4446874789
 40
0.4766214648
 40
0.5084675537
 40
0.5243543943
 40
0.5402126994
 40
0.5560405645
 40
0.5718362378
 40
0.5875981307
 40
0.6033248334
 40
0.6190151138
 40
0.6346679321
 40
0.6502824478
 40
0.6658580179
 40
0.6813942121
 40
0.6968908107
 40
0.7123478053
 40
0.7277654088
 40
0.7431440473
 40
0.7584843625
 40
0.7737872141
 40
0.7890536676
 40
0.8042849975
 40
0.8194826805
 40
0.8346483819
 40
0.8497839565
 40
0.8648914333
 40
0.8799730036
 40
0.8950310149
 40
0.9100679519
 40
0.925086424
 40
0.9400891537
 40
0.9550789549
 40
0.9700587199
 40
0.9850314034
 40
1.0
 40
1.0
 40
1.0
 40
1.0
 10
7.6538558096
 20
6.6217217125
 30
0.0
 10
7.6538558096
 20
6.5991055218
 30
0.0
 10
7.6555336462
 20
6.5537421085
 30
0.0
 10
7.6630251838
 20
6.4859108302
 30
0.0
 10
7.6754560463
 20
6.4184715924
 30
0.0
 10
7.6927582936
 20
6.351795419
 30
0.0
 10
7.7148372364
 20
6.2862432289
 30
0.0
 10
7.7415723799
 20
6.2221712165
 30
0.0
 10
7.7728180839
 20
6.1599270699
 30
0.0
 10
7.8084043894
 20
6.0998486756
 30
0.0
 10
7.8481378017
 20
6.0422620894
 30
0.0
 10
7.8918023692
 20
5.9874798194
 30
0.0
 10
7.939160932
 20
5.9357992185
 30
0.0
 10
7.9899564454
 20
5.8875008795
 30
0.0
 10
8.0439129831
 20
5.8428470928
 30
0.0
 10
8.1007382344
 20
5.8020801313
 30
0.0
 10
8.1601217281
 20
5.7654224527
 30
0.0
 10
8.2115207881
 20
5.7384395637
 30
0.0
 10
8.2535930898
 20
5.7191011001
 30
0.0
 10
8.2855581147
 20
5.7057481831
 30
0.0
 10
8.3179117573
 20
5.6935545721
 30
0.0
 10
8.3506105543
 20
5.6825367121
 30
0.0
 10
8.3836099178
 20
5.6727096835
 30
0.0
 10
8.4168649779
 20
5.6640867182
 30
0.0
 10
8.450330554
 20
5.6566797394
 30
0.0
 10
8.4839611159
 20
5.6504987417
 30
0.0
 10
8.5177109284
 20
5.6455521059
 30
0.0
 10
8.5515341175
 20
5.6418467507
 30
0.0
 10
8.5853846626
 20
5.6393875667
 30
0.0
 10
8.6192165365
 20
5.638177984
 30
0.0
 10
8.6529837214
 20
5.6382197642
 30
0.0
 10
8.6866402879
 20
5.6395126999
 30
0.0
 10
8.7201404515
 20
5.6420552065
 30
0.0
 10
8.7534386342
 20
5.6458438289
 30
0.0
 10
8.7864895526
 20
5.650873322
 30
0.0
 10
8.8192482103
 20
5.657137055
 30
0.0
 10
8.8516700525
 20
5.6646264031
 30
0.0
 10
8.8837109719
 20
5.6733311843
 30
0.0
 10
8.9153273202
 20
5.6832397299
 30
0.0
 10
8.946476123
 20
5.6943384011
 30
0.0
 10
8.9771149618
 20
5.7066122034
 30
0.0
 10
9.0072021046
 20
5.7200445101
 30
0.0
 10
9.0366966688
 20
5.7346169048
 30
0.0
 10
9.065558435
 20
5.7503097234
 30
0.0
 10
9.0937481321
 20
5.767101568
 30
0.0
 10
9.1212274495
 20
5.7849695252
 30
0.0
 10
9.1479588391
 20
5.8038894103
 30
0.0
 10
9.1739061257
 20
5.823835475
 30
0.0
 10
9.1990335032
 20
5.8447801223
 30
0.0
 10
9.2152179366
 20
5.859392181
 30
0.0
 10
9.2231606575
 20
5.8668533866
 30
0.0
  0
SPLINE
  5
399
100
AcDbEntity
  8
0
100
AcDbSpline
 62
7
  6
CONTINUOUS
 70
0
 71
3
 72
26
 73
22
 74
0
 42
0.0000001
 43
0.0000001
 44
0.0000000001
 40
0.0
 40
0.0
 40
0.0
 40
0.0
 40
0.0637642531
 40
0.1273222416
 40
0.190673434
 40
0.2538247523
 40
0.2853293943
 40
0.3167864702
 40
0.3795578364
 40
0.4421534943
 40
0.5045851263
 40
0.5668659916
 40
0.6290107786
 40
0.6910354901
 40
0.7220105747
 40
0.7529621694
 40
0.8147992333
 40
0.8765705631
 40
0.9074401613
 40
0.9383007342
 40
1.0
 40
1.0
 40
1.0
 40
1.0
 10
7.6538558096
 20
6.6217217125
 30
0.0
 10
7.6538558096
 20
6.6361316885
 30
0.0
 10
7.6545338773
 20
6.6649097217
 30
0.0
 10
7.6575943393
 20
6.7079065482
 30
0.0
 10
7.6626900706
 20
6.7505710556
 30
0.0
 10
7.6686278815
 20
6.7857969247
 30
0.0
 10
7.6743838054
 20
6.8137121914
 30
0.0
 10
7.6807963441
 20
6.8413958134
 30
0.0
 10
7.690052937
 20
6.8756218848
 30
0.0
 10
7.7031316252
 20
6.9160142736
 30
0.0
 10
7.7181445352
 20
6.955610475
 30
0.0
 10
7.7350582365
 20
6.994321787
 30
0.0
 10
7.7538348035
 20
7.0320615104
 30
0.0
 10
7.7710081949
 20
7.0626467304
 30
0.0
 10
7.7856326815
 20
7.0865405392
 30
0.0
 10
7.8008291853
 20
7.1100242418
 30
0.0
 10
7.8209061323
 20
7.1386254615
 30
0.0
 10
7.8423874923
 20
7.1661639915
 30
0.0
 10
7.8603764733
 20
7.1875066886
 30
0.0
 10
7.87888756
 20
7.2083755759
 30
0.0
 10
7.8933593477
 20
7.2234950432
 30
0.0
 10
7.903252328
 20
7.2333207705
 30
0.0
  0
SPLINE
  5
39A
100
AcDbEntity
  8
0
100
AcDbSpline
 62
7
  6
CONTINUOUS
 70
0
 71
3
 72
72
 73
68
 74
0
 42
0.0000001
 43
0.0000001
 44
0.0000000001
 40
0.0
 40
0.0
 40
0.0
 40
0.0
 40
0.0155840725
 40
0.0311159712
 40
0.0465951785
 40
0.0620238026
 40
0.0697201973
 40
0.0774045886
 40
0.092737395
 40
0.1080262192
 40
0.1232742506
 40
0.1384851146
 40
0.1536628166
 40
0.1688117108
 40
0.1839364555
 40
0.1990419628
 40
0.2141333484
 40
0.2292158792
 40
0.2442949178
 40
0.2593758641
 40
0.2744640961
 40
0.2895649139
 40
0.3046834843
 40
0.3198247861
 40
0.3349935567
 40
0.3501942426
 40
0.3654309567
 40
0.3807074386
 40
0.3960270175
 40
0.4113925793
 40
0.4268065432
 40
0.4422708434
 40
0.457786914
 40
0.4733556767
 40
0.488977538
 40
0.5046523929
 40
0.5203796314
 40
0.5361581463
 40
0.5519863474
 40
0.567862185
 40
0.5837831722
 40
0.5997464099
 40
0.6157486141
 40
0.6317861519
 40
0.6478550767
 40
0.6639511632
 40
0.6800699446
 40
0.696206755
 40
0.7123567728
 40
0.7285150606
 40
0.7446766075
 40
0.7608363741
 40
0.7769893384
 40
0.7931305377
 40
0.8092551098
 40
0.8253583381
 40
0.8414356949
 40
0.8574828808
 40
0.8734958615
 40
0.8894709058
 40
0.905404631
 40
0.9212940095
 40
0.9371364441
 40
0.95292979
 40
0.9686720519
 40
0.9843628048
 40
1.0
 40
1.0
 40
1.0
 40
1.0
 10
7.924315057
 20
6.6029653
 30
0.0
 10
7.924315057
 20
6.6135353348
 30
0.0
 10
7.924832383
 20
6.6346437443
 30
0.0
 10
7.9271673761
 20
6.6661734149
 30
0.0
 10
7.9310549029
 20
6.6974437898
 30
0.0
 10
7.9355841335
 20
6.7232448808
 30
0.0
 10
7.9399738542
 20
6.7436773437
 30
0.0
 10
7.9448633618
 20
6.7639291246
 30
0.0
 10
7.9519200386
 20
6.7889465033
 30
0.0
 10
7.9618869103
 20
6.8184323209
 30
0.0
 10
7.9733229174
 20
6.8472916177
 30
0.0
 10
7.9862004624
 20
6.8754542942
 30
0.0
 10
8.0004885936
 20
6.9028525445
 30
0.0
 10
8.0161528494
 20
6.9294202678
 30
0.0
 10
8.0331554983
 20
6.9550933863
 30
0.0
 10
8.051455597
 20
6.9798099423
 30
0.0
 10
8.0710090621
 20
7.0035102782
 30
0.0
 10
8.0917686989
 20
7.0261372534
 30
0.0
 10
8.1136844375
 20
7.0476362936
 30
0.0
 10
8.1367034317
 20
7.0679555311
 30
0.0
 10
8.1607701895
 20
7.0870459148
 30
0.0
 10
8.1858266153
 20
7.1048614514
 30
0.0
 10
8.211812247
 20
7.1213592168
 30
0.0
 10
8.2386644015
 20
7.136499451
 30
0.0
 10
8.2663183283
 20
7.1502456296
 30
0.0
 10
8.294707305
 20
7.1625646718
 30
0.0
 10
8.3237628412
 20
7.1734269692
 30
0.0
 10
8.3534148687
 20
7.1828063969
 30
0.0
 10
8.3835919011
 20
7.1906803679
 30
0.0
 10
8.4142211809
 20
7.1970299612
 30
0.0
 10
8.4452288602
 20
7.2018400044
 30
0.0
 10
8.4765402074
 20
7.2050989892
 30
0.0
 10
8.5080797748
 20
7.2067991136
 30
0.0
 10
8.539771569
 20
7.2069363162
 30
0.0
 10
8.5715392398
 20
7.2055104037
 30
0.0
 10
8.6033062721
 20
7.2025249
 30
0.0
 10
8.6349961627
 20
7.1979870549
 30
0.0
 10
8.6665325903
 20
7.1919078093
 30
0.0
 10
8.6978396262
 20
7.1843019128
 30
0.0
 10
8.7288419054
 20
7.1751877679
 30
0.0
 10
8.7594647983
 20
7.1645873703
 30
0.0
 10
8.7896345728
 20
7.1525262419
 30
0.0
 10
8.819278611
 20
7.1390334806
 30
0.0
 10
8.8483255814
 20
7.1241416506
 30
0.0
 10
8.8767055775
 20
7.1078866353
 30
0.0
 10
8.904350277
 20
7.0903075595
 30
0.0
 10
8.9311931319
 20
7.0714467486
 30
0.0
 10
8.9571695693
 20
7.0513496702
 30
0.0
 10
8.9822170767
 20
7.0300647176
 30
0.0
 10
9.0062753552
 20
7.0076431167
 30
0.0
 10
9.0292864625
 20
6.9841388111
 30
0.0
 10
9.0511950459
 20
6.9596084198
 30
0.0
 10
9.0719483791
 20
6.9341109961
 30
0.0
 10
9.0914964919
 20
6.9077079005
 30
0.0
 10
9.1097922684
 20
6.8804626479
 30
0.0
 10
9.1267916774
 20
6.8524408349
 30
0.0
 10
9.1424538026
 20
6.8237099181
 30
0.0
 10
9.1567409117
 20
6.7943390417
 30
0.0
 10
9.1696185292
 20
6.764398875
 30
0.0
 10
9.1810556201
 20
6.7339614862
 30
0.0
 10
9.191024639
 20
6.7031001564
 30
0.0
 10
9.1995015519
 20
6.6718891763
 30
0.0
 10
9.2064658656
 20
6.640403622
 30
0.0
 10
9.2119006213
 20
6.6087195038
 30
0.0
 10
9.2157930087
 20
6.5769124791
 30
0.0
 10
9.2181331175
 20
6.5450606017
 30
0.0
 10
9.2186557409
 20
6.5238085344
 30
0.0
 10
9.2186557409
 20
6.5132024687
 30
0.0
  0
SPLINE
  5
39B
100
AcDbEntity
  8
0
100
AcDbSpline
 62
7
  6
CONTINUOUS
 70
0
 71
3
 72
25
 73
21
 74
0
 42
0.0000001
 43
0.0000001
 44
0.0000000001
 40
0.0
 40
0.0
 40
0.0
 40
0.0
 40
0.0637759504
 40
0.1273437766
 40
0.1907000372
 40
0.2538535117
 40
0.3168100046
 40
0.3795782269
 40
0.4421688975
 40
0.5045942185
 40
0.5668681103
 40
0.6290059924
 40
0.6910246356
 40
0.7219973347
 40
0.7529470551
 40
0.814782134
 40
0.8765547543
 40
0.9074265685
 40
0.9382904797
 40
1.0
 40
1.0
 40
1.0
 40
1.0
 10
8.010047187
 20
6.6157761835
 30
0.0
 10
8.010047187
 20
6.6250333635
 30
0.0
 10
8.0104903104
 20
6.6435206497
 30
0.0
 10
8.0124901463
 20
6.6711390813
 30
0.0
 10
8.0158199783
 20
6.6985386407
 30
0.0
 10
8.0204717786
 20
6.7256548719
 30
0.0
 10
8.0264351743
 20
6.7524258684
 30
0.0
 10
8.0336963528
 20
6.778789741
 30
0.0
 10
8.0422386091
 20
6.8046857533
 30
0.0
 10
8.0520423808
 20
6.8300541434
 30
0.0
 10
8.0630851649
 20
6.8548364974
 30
0.0
 10
8.0753412573
 20
6.8789753016
 30
0.0
 10
8.086547845
 20
6.8985179843
 30
0.0
 10
8.0960889597
 20
6.9137717225
 30
0.0
 10
8.1060018299
 20
6.9287546262
 30
0.0
 10
8.1190953637
 20
6.9469843659
 30
0.0
 10
8.1330994309
 20
6.9645098561
 30
0.0
 10
8.1448232787
 20
6.9780748498
 30
0.0
 10
8.1568853367
 20
6.9913270716
 30
0.0
 10
8.1663122445
 20
7.000913581
 30
0.0
 10
8.1727547621
 20
7.0071366041
 30
0.0
  0
SPLINE
  5
39C
100
AcDbEntity
  8
0
100
AcDbSpline
 62
7
  6
CONTINUOUS
 70
0
 71
3
 72
15
 73
11
 74
0
 42
0.0000001
 43
0.0000001
 44
0.0000000001
 40
0.0
 40
0.0
 40
0.0
 40
0.0
 40
0.126644156
 40
0.2527830585
 40
0.3784226916
 40
0.5035834272
 40
0.6282878703
 40
0.7525669187
 40
0.8764569134
 40
1.0
 40
1.0
 40
1.0
 40
1.0
 10
8.3397195802
 20
6.8962152812
 30
0.0
 10
8.3397195802
 20
6.9067052932
 30
0.0
 10
8.340326862
 20
6.9276486958
 30
0.0
 10
8.3430693474
 20
6.9588907483
 30
0.0
 10
8.3476327218
 20
6.9897962774
 30
0.0
 10
8.3540014656
 20
7.0202594053
 30
0.0
 10
8.3621543804
 20
7.0501776811
 30
0.0
 10
8.3720641522
 20
7.0794502522
 30
0.0
 10
8.3836968115
 20
7.1079768924
 30
0.0
 10
8.3925874236
 20
7.1264600357
 30
0.0
 10
8.3973048069
 20
7.1355409842
 30
0.0
  0
SPLINE
  5
39D
100
AcDbEntity
  8
0
100
AcDbSpline
 62
7
  6
CONTINUOUS
 70
0
 71
3
 72
15
 73
11
 74
0
 42
0.0000001
 43
0.0000001
 44
0.0000000001
 40
0.0
 40
0.0
 40
0.0
 40
0.0
 40
0.1264518616
 40
0.2524694344
 40
0.3780487985
 40
0.5032080706
 40
0.6279606047
 40
0.752326699
 40
0.876330539
 40
1.0
 40
1.0
 40
1.0
 40
1.0
 10
8.29733609
 20
6.8932759709
 30
0.0
 10
8.29733609
 20
6.9029872942
 30
0.0
 10
8.2978237153
 20
6.9223802127
 30
0.0
 10
8.3000247527
 20
6.9513422458
 30
0.0
 10
8.3036890872
 20
6.9800565452
 30
0.0
 10
8.3088070486
 20
7.0084489083
 30
0.0
 10
8.3153660417
 20
7.0364478165
 30
0.0
 10
8.3233494891
 20
7.0639822844
 30
0.0
 10
8.3327367782
 20
7.0909815111
 30
0.0
 10
8.3399251277
 20
7.108603183
 30
0.0
 10
8.3437444505
 20
7.1172990393
 30
0.0
  0
SPLINE
  5
39E
100
AcDbEntity
  8
0
100
AcDbSpline
 62
7
  6
CONTINUOUS
 70
0
 71
3
 72
46
 73
42
 74
0
 42
0.0000001
 43
0.0000001
 44
0.0000000001
 40
0.0
 40
0.0
 40
0.0
 40
0.0
 40
0.006315901
 40
0.0126707127
 40
0.0191025808
 40
0.0256481471
 40
0.0323420418
 40
0.039216438
 40
0.0536143007
 40
0.0611950826
 40
0.0690568839
 40
0.0772180043
 40
0.085694446
 40
0.094499905
 40
0.1036460391
 40
0.1131428464
 40
0.1229986863
 40
0.1332203494
 40
0.1438134657
 40
0.1547825726
 40
0.1661309915
 40
0.189973408
 40
0.2153529628
 40
0.2422689457
 40
0.2707112921
 40
0.3006624273
 40
0.3320977976
 40
0.3649871768
 40
0.3992952195
 40
0.4349817954
 40
0.4720029071
 40
0.5103105874
 40
0.5498535424
 40
0.5905774295
 40
0.6324248595
 40
0.6753360048
 40
0.7192484167
 40
0.7640976385
 40
0.8098172438
 40
0.903588672
 40
1.0
 40
1.0
 40
1.0
 40
1.0
 10
12.9387312089
 20
6.6168363261
 30
0.0
 10
12.9396286973
 20
6.6167740829
 30
0.0
 10
12.9414249633
 20
6.6165757671
 30
0.0
 10
12.9440992316
 20
6.6160588094
 30
0.0
 10
12.9467556142
 20
6.6153223871
 30
0.0
 10
12.9493925773
 20
6.6143671559
 30
0.0
 10
12.952009087
 20
6.6131936338
 30
0.0
 10
12.9555223104
 20
6.6113102792
 30
0.0
 10
12.9589401926
 20
6.609004884
 30
0.0
 10
12.9622477748
 20
6.606333201
 30
0.0
 10
12.9647461212
 20
6.604080674
 30
0.0
 10
12.9672178228
 20
6.6016153173
 30
0.0
 10
12.9696621909
 20
6.5989379353
 30
0.0
 10
12.9720782577
 20
6.5960497198
 30
0.0
 10
12.9744651697
 20
6.5929518743
 30
0.0
 10
12.9768219667
 20
6.5896456266
 30
0.0
 10
12.9791477179
 20
6.5861323082
 30
0.0
 10
12.9814415643
 20
6.5824133838
 30
0.0
 10
12.983702571
 20
6.5784903461
 30
0.0
 10
12.9859298168
 20
6.5743647516
 30
0.0
 10
12.9889023239
 20
6.5684992647
 30
0.0
 10
12.9925170611
 20
6.5606616189
 30
0.0
 10
12.9966373574
 20
6.5506266514
 30
0.0
 10
13.0006021849
 20
6.5398286956
 30
0.0
 10
13.0044051294
 20
6.5282853838
 30
0.0
 10
13.0080398487
 20
6.5160153282
 30
0.0
 10
13.0115004075
 20
6.5030385363
 30
0.0
 10
13.0147810403
 20
6.4893761942
 30
0.0
 10
13.017876257
 20
6.4750506739
 30
0.0
 10
13.0207809784
 20
6.4600854826
 30
0.0
 10
13.023490288
 20
6.444505203
 30
0.0
 10
13.0259997204
 20
6.4283354608
 30
0.0
 10
13.0283050936
 20
6.41160287
 30
0.0
 10
13.0304025202
 20
6.3943349849
 30
0.0
 10
13.0322885715
 20
6.3765602547
 30
0.0
 10
13.0339600456
 20
6.3583079836
 30
0.0
 10
13.0354141808
 20
6.3396082586
 30
0.0
 10
13.036648593
 20
6.3204918688
 30
0.0
 10
13.0380100201
 20
6.2942689575
 30
0.0
 10
13.0391361769
 20
6.2606823399
 30
0.0
 10
13.0394271134
 20
6.2335915244
 30
0.0
 10
13.0394271134
 20
6.2198585852
 30
0.0
  0
SPLINE
  5
39F
100
AcDbEntity
  8
0
100
AcDbSpline
 62
7
  6
CONTINUOUS
 70
0
 71
3
 72
75
 73
71
 74
0
 42
0.0000001
 43
0.0000001
 44
0.0000000001
 40
0.0
 40
0.0
 40
0.0
 40
0.0
 40
0.0150760905
 40
0.0226169637
 40
0.0301601708
 40
0.0452549026
 40
0.0603666629
 40
0.0679311086
 40
0.0755016386
 40
0.0906619845
 40
0.1058533829
 40
0.1210799275
 40
0.1363453523
 40
0.1516529954
 40
0.1670057696
 40
0.1824061368
 40
0.1978560879
 40
0.213357127
 40
0.2289102619
 40
0.2445159986
 40
0.2601743426
 40
0.2758848039
 40
0.2916464062
 40
0.3074577008
 40
0.3233167839
 40
0.3392213176
 40
0.3551685551
 40
0.3711553692
 40
0.3871782826
 40
0.4032335007
 40
0.4193169463
 40
0.4354242965
 40
0.4515510217
 40
0.4676924253
 40
0.4838436855
 40
0.4999998955
 40
0.5161561064
 40
0.5323073687
 40
0.5484487751
 40
0.5645755031
 40
0.5806828568
 40
0.596766307
 40
0.6128215314
 40
0.6288444522
 40
0.644831274
 40
0.6607785191
 40
0.6766830604
 40
0.6925421519
 40
0.7083534564
 40
0.7241150693
 40
0.739825541
 40
0.7554838949
 40
0.771089641
 40
0.7866427853
 40
0.8021438345
 40
0.8175937961
 40
0.8329941735
 40
0.8483469567
 40
0.8636546076
 40
0.8789200395
 40
0.894146591
 40
0.9093379962
 40
0.9244983485
 40
0.9320688802
 40
0.9396333289
 40
0.9547450929
 40
0.9698398268
 40
0.9773830352
 40
0.9849239087
 40
1.0
 40
1.0
 40
1.0
 40
1.0
 10
7.9032551946
 20
9.6481382482
 30
0.0
 10
7.8930500552
 20
9.6380025566
 30
0.0
 10
7.8781333754
 20
9.6223936097
 30
0.0
 10
7.8590808039
 20
9.6008279099
 30
0.0
 10
7.8405845624
 20
9.5787591122
 30
0.0
 10
7.8185360556
 20
9.5502605122
 30
0.0
 10
7.7979869704
 20
9.5206378691
 30
0.0
 10
7.7824715727
 20
9.496303897
 30
0.0
 10
7.7675673383
 20
9.4715368145
 30
0.0
 10
7.7501201218
 20
9.4398222956
 30
0.0
 10
7.7311413602
 20
9.4006782595
 30
0.0
 10
7.7141541463
 20
9.3605203941
 30
0.0
 10
7.6991990977
 20
9.3194445657
 30
0.0
 10
7.6863114563
 20
9.2775480397
 30
0.0
 10
7.6755216991
 20
9.2349302166
 30
0.0
 10
7.666855289
 20
9.1916921324
 30
0.0
 10
7.6603326672
 20
9.1479362903
 30
0.0
 10
7.6559691922
 20
9.1037664004
 30
0.0
 10
7.6537751164
 20
9.0592871401
 30
0.0
 10
7.653755522
 20
9.0146039074
 30
0.0
 10
7.6559103374
 20
8.9698225658
 30
0.0
 10
7.6602343518
 20
8.9250491949
 30
0.0
 10
7.6667172272
 20
8.8803898417
 30
0.0
 10
7.6753435234
 20
8.8359502715
 30
0.0
 10
7.6860927403
 20
8.7918357228
 30
0.0
 10
7.6989393456
 20
8.7481506547
 30
0.0
 10
7.713852827
 20
8.7049984945
 30
0.0
 10
7.7307977985
 20
8.6624814021
 30
0.0
 10
7.7497340773
 20
8.6207000293
 30
0.0
 10
7.7706167809
 20
8.5797532846
 30
0.0
 10
7.7933964319
 20
8.5397381026
 30
0.0
 10
7.8180190728
 20
8.5007492157
 30
0.0
 10
7.8444263626
 20
8.4628789099
 30
0.0
 10
7.8725557509
 20
8.4262168262
 30
0.0
 10
7.9023406229
 20
8.3908497493
 30
0.0
 10
7.9337104562
 20
8.3568614055
 30
0.0
 10
7.966590985
 20
8.3243322648
 30
0.0
 10
8.0009043786
 20
8.2933393578
 30
0.0
 10
8.0365693992
 20
8.2639560654
 30
0.0
 10
8.0735016101
 20
8.2362519574
 30
0.0
 10
8.1116135844
 20
8.2102926413
 30
0.0
 10
8.1508151071
 20
8.1861396054
 30
0.0
 10
8.1910133863
 20
8.1638500751
 30
0.0
 10
8.2321132727
 20
8.1434768813
 30
0.0
 10
8.2740174738
 20
8.12506832
 30
0.0
 10
8.3166267807
 20
8.1086680208
 30
0.0
 10
8.359840317
 20
8.0943148763
 30
0.0
 10
8.4035557716
 20
8.0820429449
 30
0.0
 10
8.4476696389
 20
8.0718813715
 30
0.0
 10
8.4920774604
 20
8.0638543174
 30
0.0
 10
8.5366740694
 20
8.0579809031
 30
0.0
 10
8.5813538356
 20
8.0542751214
 30
0.0
 10
8.6260109223
 20
8.0527458408
 30
0.0
 10
8.6705395338
 20
8.0533967839
 30
0.0
 10
8.7148341635
 20
8.0562265169
 30
0.0
 10
8.7587898411
 20
8.0612284489
 30
0.0
 10
8.8023023808
 20
8.0683908521
 30
0.0
 10
8.8452686283
 20
8.0776968483
 30
0.0
 10
8.8875867287
 20
8.0891244714
 30
0.0
 10
8.9291562892
 20
8.1026466958
 30
0.0
 10
8.9698788948
 20
8.118231648
 30
0.0
 10
9.0096573097
 20
8.1358421044
 30
0.0
 10
9.0419576098
 20
8.1521794214
 30
0.0
 10
9.0672263997
 20
8.1662162808
 30
0.0
 10
9.0920836368
 20
8.1808787477
 30
0.0
 10
9.1224007743
 20
8.2003886939
 30
0.0
 10
9.1516465067
 20
8.2214361194
 30
0.0
 10
9.1743432857
 20
8.2391561443
 30
0.0
 10
9.1965563839
 20
8.2574498116
 30
0.0
 10
9.2126731146
 20
8.2718163552
 30
0.0
 10
9.2231564378
 20
8.2816640488
 30
0.0
  0
SPLINE
  5
3A0
100
AcDbEntity
  8
0
100
AcDbSpline
 62
7
  6
CONTINUOUS
 70
0
 71
3
 72
76
 73
72
 74
0
 42
0.0000001
 43
0.0000001
 44
0.0000000001
 40
0.0
 40
0.0
 40
0.0
 40
0.0
 40
0.0075401027
 40
0.0150808808
 40
0.0226230077
 40
0.0301671529
 40
0.0452628497
 40
0.0603744947
 40
0.0679385301
 40
0.0755084285
 40
0.0906668979
 40
0.1058557484
 40
0.1210792162
 40
0.1363411768
 40
0.1516451073
 40
0.1669940538
 40
0.1823906034
 40
0.1978368633
 40
0.2133344439
 40
0.2288844487
 40
0.2444874674
 40
0.2601435759
 40
0.2758523407
 40
0.2916128273
 40
0.3074236146
 40
0.3232828136
 40
0.3391880884
 40
0.3551366815
 40
0.3711254422
 40
0.3871508577
 40
0.4032090869
 40
0.4192959977
 40
0.4354072046
 40
0.4515381086
 40
0.467683938
 40
0.4838397906
 40
0.5000006763
 40
0.5161615616
 40
0.5323174132
 40
0.5484632417
 40
0.5645941452
 40
0.5807053518
 40
0.596792262
 40
0.6128504896
 40
0.6288759028
 40
0.6448646612
 40
0.6608132526
 40
0.6767185261
 40
0.6925777238
 40
0.7083885091
 40
0.7241489927
 40
0.7398577544
 40
0.7555138604
 40
0.7711168771
 40
0.7866668804
 40
0.8021644593
 40
0.8176107167
 40
0.8330072634
 40
0.8483562071
 40
0.8636601356
 40
0.878922095
 40
0.8941455619
 40
0.9093344113
 40
0.9244928792
 40
0.9320627769
 40
0.9396268117
 40
0.9547384552
 40
0.9698341513
 40
0.9773782967
 40
0.9849204231
 40
1.0
 40
1.0
 40
1.0
 40
1.0
 10
9.2232114245
 20
8.2816057122
 30
0.0
 10
9.2179957959
 20
8.2765678102
 30
0.0
 10
9.2074310149
 20
8.2666282524
 30
0.0
 10
9.1911963536
 20
8.2521403134
 30
0.0
 10
9.1745832399
 20
8.2380814686
 30
0.0
 10
9.1519385176
 20
8.2199179683
 30
0.0
 10
9.1227299648
 20
8.1983241728
 30
0.0
 10
9.0924135288
 20
8.1782811768
 30
0.0
 10
9.0675363468
 20
8.1632018879
 30
0.0
 10
9.042234885
 20
8.1487549525
 30
0.0
 10
9.0098687995
 20
8.1319180436
 30
0.0
 10
8.9699731745
 20
8.1137315442
 30
0.0
 10
8.9290973535
 20
8.0975960337
 30
0.0
 10
8.8873405741
 20
8.0835507019
 30
0.0
 10
8.8448033523
 20
8.0716292199
 30
0.0
 10
8.801588294
 20
8.0618602641
 30
0.0
 10
8.7577995671
 20
8.0542672732
 30
0.0
 10
8.7135427249
 20
8.0488684217
 30
0.0
 10
8.6689244235
 20
8.0456765997
 30
0.0
 10
8.6240521719
 20
8.0446993826
 30
0.0
 10
8.5790340728
 20
8.0459390164
 30
0.0
 10
8.5339785652
 20
8.0493924132
 30
0.0
 10
8.4889941659
 20
8.0550511664
 30
0.0
 10
8.4441892056
 20
8.0629015401
 30
0.0
 10
8.3996715676
 20
8.0729245202
 30
0.0
 10
8.3555484312
 20
8.0850958768
 30
0.0
 10
8.3119260168
 20
8.0993862199
 30
0.0
 10
8.2689093321
 20
8.1157610718
 30
0.0
 10
8.2266019234
 20
8.1341809499
 30
0.0
 10
8.1851056285
 20
8.1546014607
 30
0.0
 10
8.1445203169
 20
8.1769733776
 30
0.0
 10
8.1049436635
 20
8.2012427916
 30
0.0
 10
8.0664709153
 20
8.2273512402
 30
0.0
 10
8.0291946651
 20
8.2552358474
 30
0.0
 10
7.9932046299
 20
8.2848294728
 30
0.0
 10
7.9585874405
 20
8.3160608754
 30
0.0
 10
7.9254264218
 20
8.3488548702
 30
0.0
 10
7.8938013835
 20
8.3831325028
 30
0.0
 10
7.8637884488
 20
8.4188112613
 30
0.0
 10
7.8354598688
 20
8.4558052691
 30
0.0
 10
7.8088838518
 20
8.4940254905
 30
0.0
 10
7.784124399
 20
8.5333799418
 30
0.0
 10
7.7612411563
 20
8.5737739138
 30
0.0
 10
7.7402892418
 20
8.6151101819
 30
0.0
 10
7.7213191274
 20
8.6572892519
 30
0.0
 10
7.7043765295
 20
8.7002096027
 30
0.0
 10
7.6895022967
 20
8.7437679275
 30
0.0
 10
7.6767323127
 20
8.787859379
 30
0.0
 10
7.6660974101
 20
8.8323778196
 30
0.0
 10
7.6576232926
 20
8.8772160738
 30
0.0
 10
7.6513304412
 20
8.9222661807
 30
0.0
 10
7.6472340972
 20
8.9674196617
 30
0.0
 10
7.6453442231
 20
9.0125677779
 30
0.0
 10
7.6456654778
 20
9.0576017896
 30
0.0
 10
7.648197202
 20
9.1024132153
 30
0.0
 10
7.6529334224
 20
9.1468940911
 30
0.0
 10
7.659862842
 20
9.1909372317
 30
0.0
 10
7.6689688587
 20
9.2344364944
 30
0.0
 10
7.680229628
 20
9.277287027
 30
0.0
 10
7.6936181202
 20
9.3193855389
 30
0.0
 10
7.7091021357
 20
9.3606304768
 30
0.0
 10
7.7266445581
 20
9.4009225426
 30
0.0
 10
7.7462027757
 20
9.4401639197
 30
0.0
 10
7.7641513284
 20
9.4719270118
 30
0.0
 10
7.7794663737
 20
9.4967126375
 30
0.0
 10
7.7953988473
 20
9.5210522142
 30
0.0
 10
7.8164804552
 20
9.5506558671
 30
0.0
 10
7.8390734129
 20
9.5790984356
 30
0.0
 10
7.8580110421
 20
9.6011002287
 30
0.0
 10
7.8775093595
 20
9.6225848327
 30
0.0
 10
7.8927634351
 20
9.6381153242
 30
0.0
 10
7.9031942517
 20
9.6481907141
 30
0.0
  0
SPLINE
  5
3A1
100
AcDbEntity
  8
0
100
AcDbSpline
 62
7
  6
CONTINUOUS
 70
0
 71
3
 72
46
 73
42
 74
0
 42
0.0000001
 43
0.0000001
 44
0.0000000001
 40
0.0
 40
0.0
 40
0.0
 40
0.0
 40
0.006315901
 40
0.0126707127
 40
0.0191025808
 40
0.0256481471
 40
0.0323420418
 40
0.039216438
 40
0.0536143007
 40
0.0611950826
 40
0.0690568839
 40
0.0772180043
 40
0.085694446
 40
0.094499905
 40
0.1036460391
 40
0.1131428464
 40
0.1229986863
 40
0.1332203494
 40
0.1438134657
 40
0.1547825726
 40
0.1661309915
 40
0.189973408
 40
0.2153529628
 40
0.2422689457
 40
0.2707112921
 40
0.3006624273
 40
0.3320977976
 40
0.3649871768
 40
0.3992952195
 40
0.4349817954
 40
0.4720029071
 40
0.5103105874
 40
0.5498535424
 40
0.5905774295
 40
0.6324248595
 40
0.6753360048
 40
0.7192484167
 40
0.7640976385
 40
0.8098172438
 40
0.903588672
 40
1.0
 40
1.0
 40
1.0
 40
1.0
 10
12.9387312089
 20
9.3948390971
 30
0.0
 10
12.9396286973
 20
9.3947768539
 30
0.0
 10
12.9414249633
 20
9.3945785381
 30
0.0
 10
12.9440992316
 20
9.3940615804
 30
0.0
 10
12.9467556142
 20
9.3933251581
 30
0.0
 10
12.9493925773
 20
9.3923699269
 30
0.0
 10
12.952009087
 20
9.3911964048
 30
0.0
 10
12.9555223104
 20
9.3893130502
 30
0.0
 10
12.9589401926
 20
9.387007655
 30
0.0
 10
12.9622477748
 20
9.384335972
 30
0.0
 10
12.9647461212
 20
9.382083445
 30
0.0
 10
12.9672178228
 20
9.3796180883
 30
0.0
 10
12.9696621909
 20
9.3769407063
 30
0.0
 10
12.9720782577
 20
9.3740524908
 30
0.0
 10
12.9744651697
 20
9.3709546453
 30
0.0
 10
12.9768219667
 20
9.3676483976
 30
0.0
 10
12.9791477179
 20
9.3641350792
 30
0.0
 10
12.9814415643
 20
9.3604161548
 30
0.0
 10
12.983702571
 20
9.3564931171
 30
0.0
 10
12.9859298168
 20
9.3523675226
 30
0.0
 10
12.9889023239
 20
9.3465020357
 30
0.0
 10
12.9925170611
 20
9.3386643899
 30
0.0
 10
12.9966373574
 20
9.3286294224
 30
0.0
 10
13.0006021849
 20
9.3178314666
 30
0.0
 10
13.0044051294
 20
9.3062881548
 30
0.0
 10
13.0080398487
 20
9.2940180992
 30
0.0
 10
13.0115004075
 20
9.2810413073
 30
0.0
 10
13.0147810403
 20
9.2673789652
 30
0.0
 10
13.017876257
 20
9.2530534449
 30
0.0
 10
13.0207809784
 20
9.2380882536
 30
0.0
 10
13.023490288
 20
9.222507974
 30
0.0
 10
13.0259997204
 20
9.2063382318
 30
0.0
 10
13.0283050936
 20
9.189605641
 30
0.0
 10
13.0304025202
 20
9.1723377559
 30
0.0
 10
13.0322885715
 20
9.1545630257
 30
0.0
 10
13.0339600456
 20
9.1363107546
 30
0.0
 10
13.0354141808
 20
9.1176110296
 30
0.0
 10
13.036648593
 20
9.0984946398
 30
0.0
 10
13.0380100201
 20
9.0722717285
 30
0.0
 10
13.0391361769
 20
9.0386851109
 30
0.0
 10
13.0394271134
 20
9.0115942954
 30
0.0
 10
13.0394271134
 20
8.9978613562
 30
0.0
  0
SPLINE
  5
3A2
100
AcDbEntity
  8
0
100
AcDbSpline
 62
7
  6
CONTINUOUS
 70
0
 71
3
 72
72
 73
68
 74
0
 42
0.0000001
 43
0.0000001
 44
0.0000000001
 40
0.0
 40
0.0
 40
0.0
 40
0.0
 40
0.0156371952
 40
0.0313279481
 40
0.04707021
 40
0.0628635559
 40
0.0787059905
 40
0.094595369
 40
0.1105290942
 40
0.1265041385
 40
0.1425171192
 40
0.1585643051
 40
0.1746416619
 40
0.1907448902
 40
0.2068694623
 40
0.2230106616
 40
0.2391636259
 40
0.2553233925
 40
0.2714849394
 40
0.2876432272
 40
0.303793245
 40
0.3199300554
 40
0.3360488368
 40
0.3521449233
 40
0.3682138481
 40
0.3842513859
 40
0.4002535901
 40
0.4162168278
 40
0.432137815
 40
0.4480136526
 40
0.4638418537
 40
0.4796203686
 40
0.4953476071
 40
0.511022462
 40
0.5266443233
 40
0.542213086
 40
0.5577291566
 40
0.5731934568
 40
0.5886074207
 40
0.6039729825
 40
0.6192925614
 40
0.6345690433
 40
0.6498057574
 40
0.6650064433
 40
0.6801752139
 40
0.6953165157
 40
0.7104350861
 40
0.7255359039
 40
0.7406241359
 40
0.7557050822
 40
0.7707841208
 40
0.7858666516
 40
0.8009580372
 40
0.8160635445
 40
0.8311882892
 40
0.8463371834
 40
0.8615148854
 40
0.8767257494
 40
0.8919737808
 40
0.907262605
 40
0.9225954114
 40
0.9302798027
 40
0.9379761974
 40
0.9534048215
 40
0.9688840288
 40
0.9844159275
 40
1.0
 40
1.0
 40
1.0
 40
1.0
 10
7.924315057
 20
6.6029653
 30
0.0
 10
7.924315057
 20
6.5923592343
 30
0.0
 10
7.9248376804
 20
6.571107167
 30
0.0
 10
7.9271777892
 20
6.5392552896
 30
0.0
 10
7.9310701766
 20
6.507448265
 30
0.0
 10
7.9365049323
 20
6.4757641468
 30
0.0
 10
7.943469246
 20
6.4442785925
 30
0.0
 10
7.9519461589
 20
6.4130676123
 30
0.0
 10
7.9619151778
 20
6.3822062825
 30
0.0
 10
7.9733522687
 20
6.3517688938
 30
0.0
 10
7.9862298862
 20
6.3218287271
 30
0.0
 10
8.0005169953
 20
6.2924578506
 30
0.0
 10
8.0161791205
 20
6.2637269338
 30
0.0
 10
8.0331785295
 20
6.2357051209
 30
0.0
 10
8.051474306
 20
6.2084598683
 30
0.0
 10
8.0710224188
 20
6.1820567726
 30
0.0
 10
8.091775752
 20
6.1565593489
 30
0.0
 10
8.1136843354
 20
6.1320289577
 30
0.0
 10
8.1366954427
 20
6.108524652
 30
0.0
 10
8.1607537212
 20
6.0861030511
 30
0.0
 10
8.1858012286
 20
6.0648180986
 30
0.0
 10
8.211777666
 20
6.0447210202
 30
0.0
 10
8.2386205209
 20
6.0258602093
 30
0.0
 10
8.2662652204
 20
6.0082811334
 30
0.0
 10
8.2946452165
 20
5.9920261182
 30
0.0
 10
8.3236921869
 20
5.9771342881
 30
0.0
 10
8.3533362251
 20
5.9636415269
 30
0.0
 10
8.3835059996
 20
5.9515803985
 30
0.0
 10
8.4141288925
 20
5.9409800008
 30
0.0
 10
8.4451311717
 20
5.9318658559
 30
0.0
 10
8.4764382076
 20
5.9242599595
 30
0.0
 10
8.5079746352
 20
5.9181807139
 30
0.0
 10
8.5396645258
 20
5.9136428688
 30
0.0
 10
8.5714315581
 20
5.910657365
 30
0.0
 10
8.6031992289
 20
5.9092314526
 30
0.0
 10
8.6348910231
 20
5.9093686551
 30
0.0
 10
8.6664305905
 20
5.9110687795
 30
0.0
 10
8.6977419377
 20
5.9143277643
 30
0.0
 10
8.728749617
 20
5.9191378076
 30
0.0
 10
8.7593788968
 20
5.9254874009
 30
0.0
 10
8.7895559292
 20
5.9333613719
 30
0.0
 10
8.8192079567
 20
5.9427407995
 30
0.0
 10
8.8482634929
 20
5.953603097
 30
0.0
 10
8.8766524696
 20
5.9659221392
 30
0.0
 10
8.9043063964
 20
5.9796683178
 30
0.0
 10
8.9311585509
 20
5.9948085519
 30
0.0
 10
8.9571441826
 20
6.0113063173
 30
0.0
 10
8.9822006084
 20
6.029121854
 30
0.0
 10
9.0062673662
 20
6.0482122376
 30
0.0
 10
9.0292863604
 20
6.0685314751
 30
0.0
 10
9.051202099
 20
6.0900305154
 30
0.0
 10
9.0719617358
 20
6.1126574905
 30
0.0
 10
9.0915152009
 20
6.1363578264
 30
0.0
 10
9.1098152997
 20
6.1610743824
 30
0.0
 10
9.1268179486
 20
6.1867475009
 30
0.0
 10
9.1424822043
 20
6.2133152243
 30
0.0
 10
9.1567703355
 20
6.2407134746
 30
0.0
 10
9.1696478805
 20
6.2688761511
 30
0.0
 10
9.1810838876
 20
6.2977354478
 30
0.0
 10
9.1910507593
 20
6.3272212654
 30
0.0
 10
9.1981074361
 20
6.3522386442
 30
0.0
 10
9.2029969437
 20
6.3724904251
 30
0.0
 10
9.2073866644
 20
6.3929228879
 30
0.0
 10
9.211915895
 20
6.418723979
 30
0.0
 10
9.2158034218
 20
6.4499943538
 30
0.0
 10
9.2181384149
 20
6.4815240245
 30
0.0
 10
9.2186557409
 20
6.5026324339
 30
0.0
 10
9.2186557409
 20
6.5132024687
 30
0.0
  0
SPLINE
  5
3A3
100
AcDbEntity
  8
0
100
AcDbSpline
 62
7
  6
CONTINUOUS
 70
0
 71
3
 72
43
 73
39
 74
0
 42
0.0000001
 43
0.0000001
 44
0.0000000001
 40
0.0
 40
0.0
 40
0.0
 40
0.0
 40
0.014993398
 40
0.0300088904
 40
0.0450481877
 40
0.0601129025
 40
0.0903201496
 40
0.1206454348
 40
0.1358571439
 40
0.1511013296
 40
0.1663786908
 40
0.1816897931
 40
0.2124106638
 40
0.2432696535
 40
0.2742660359
 40
0.3053968123
 40
0.3366567905
 40
0.3680386949
 40
0.3995333076
 40
0.4311296344
 40
0.4628150943
 40
0.4945757275
 40
0.5263964203
 40
0.5582611428
 40
0.5901531967
 40
0.6220554697
 40
0.6539506953
 40
0.6858217134
 40
0.7176517302
 40
0.7494245741
 40
0.7811249445
 40
0.8127386526
 40
0.8442528466
 40
0.8756562283
 40
0.9069392323
 40
0.9380942354
 40
0.9691156034
 40
1.0
 40
1.0
 40
1.0
 40
1.0
 10
9.1425493501
 20
8.778806359
 30
0.0
 10
9.1374077136
 20
8.7763579128
 30
0.0
 10
9.1270320831
 20
8.7716332078
 30
0.0
 10
9.1112244533
 20
8.7650765194
 30
0.0
 10
9.0951772918
 20
8.7590515289
 30
0.0
 10
9.0734673137
 20
8.7517299952
 30
0.0
 10
9.0458067053
 20
8.7439392322
 30
0.0
 10
9.0176318283
 20
8.7380090246
 30
0.0
 10
8.9948283499
 20
8.7343849114
 30
0.0
 10
8.9775889471
 20
8.732227672
 30
0.0
 10
8.960250208
 20
8.7306366542
 30
0.0
 10
8.9370000885
 20
8.7292710164
 30
0.0
 10
8.907773858
 20
8.7289910536
 30
0.0
 10
8.8726410646
 20
8.7309333575
 30
0.0
 10
8.8375502957
 20
8.7351448467
 30
0.0
 10
8.8026492719
 20
8.7416077562
 30
0.0
 10
8.7680836118
 20
8.7502948195
 30
0.0
 10
8.7339978414
 20
8.7611695256
 30
0.0
 10
8.7005343615
 20
8.7741862385
 30
0.0
 10
8.6678329769
 20
8.789290401
 30
0.0
 10
8.6360302867
 20
8.8064187613
 30
0.0
 10
8.6052591282
 20
8.8254996382
 30
0.0
 10
8.5756480252
 20
8.8464532203
 30
0.0
 10
8.5473206572
 20
8.8691918981
 30
0.0
 10
8.5203953473
 20
8.8936206283
 30
0.0
 10
8.4949845718
 20
8.9196373281
 30
0.0
 10
8.4711944947
 20
8.9471332987
 30
0.0
 10
8.4491245274
 20
8.9759936766
 30
0.0
 10
8.4288669161
 20
9.0060979086
 30
0.0
 10
8.4105063592
 20
9.0373202523
 30
0.0
 10
8.3941196547
 20
9.0695302948
 30
0.0
 10
8.3797753819
 20
9.102593497
 30
0.0
 10
8.3675336118
 20
9.1363717339
 30
0.0
 10
8.357445664
 20
9.1707239253
 30
0.0
 10
8.349553872
 20
9.2055063976
 30
0.0
 10
8.3438914414
 20
9.2405743046
 30
0.0
 10
8.3404822419
 20
9.2757791229
 30
0.0
 10
8.3397195802
 20
9.2992993025
 30
0.0
 10
8.3397195802
 20
9.3110299324
 30
0.0
  0
SPLINE
  5
3A4
100
AcDbEntity
  8
0
100
AcDbSpline
 62
7
  6
CONTINUOUS
 70
0
 71
3
 72
47
 73
43
 74
0
 42
0.0000001
 43
0.0000001
 44
0.0000000001
 40
0.0
 40
0.0
 40
0.0
 40
0.0
 40
0.0310739034
 40
0.0623050262
 40
0.0936888077
 40
0.1252165019
 40
0.1568767972
 40
0.1886554884
 40
0.2205359758
 40
0.2524995839
 40
0.2845259639
 40
0.3165935105
 40
0.3486797989
 40
0.3807620322
 40
0.4128174938
 40
0.4448239996
 40
0.4767603414
 40
0.5086067178
 40
0.5403451454
 40
0.5719598413
 40
0.6034375718
 40
0.6347679592
 40
0.6659437387
 40
0.6969609585
 40
0.727819116
 40
0.7585212216
 40
0.773818428
 40
0.7890793503
 40
0.8043053375
 40
0.8194979308
 40
0.834658876
 40
0.8497900958
 40
0.8648936937
 40
0.8799719355
 40
0.895027236
 40
0.9100621526
 40
0.9250793584
 40
0.9400816409
 40
0.9550718723
 40
0.9700530007
 40
0.9850280307
 40
1.0
 40
1.0
 40
1.0
 40
1.0
 10
8.010047187
 20
6.6157761835
 30
0.0
 10
8.010047187
 20
6.6014135353
 30
0.0
 10
8.0111186051
 20
6.5726045182
 30
0.0
 10
8.0159022753
 20
6.5295288981
 30
0.0
 10
8.0238395497
 20
6.4867062173
 30
0.0
 10
8.0348865867
 20
6.4443746628
 30
0.0
 10
8.048982184
 20
6.4027658915
 30
0.0
 10
8.0660486551
 20
6.3621084851
 30
0.0
 10
8.0859919964
 20
6.3226255098
 30
0.0
 10
8.1087025111
 20
6.284533639
 30
0.0
 10
8.1340553604
 20
6.2480418792
 30
0.0
 10
8.1619112574
 20
6.2133504593
 30
0.0
 10
8.1921172381
 20
6.1806497473
 30
0.0
 10
8.2245074914
 20
6.1501192176
 30
0.0
 10
8.2589042594
 20
6.1219264769
 30
0.0
 10
8.2951188024
 20
6.0962263543
 30
0.0
 10
8.3329524216
 20
6.0731600582
 30
0.0
 10
8.3721975358
 20
6.0528544081
 30
0.0
 10
8.4126387949
 20
6.0354211182
 30
0.0
 10
8.4540542634
 20
6.0209562059
 30
0.0
 10
8.4962166066
 20
6.0095394605
 30
0.0
 10
8.5388943706
 20
6.0012340099
 30
0.0
 10
8.5818530438
 20
5.9960859266
 30
0.0
 10
8.624857034
 20
5.9941240962
 30
0.0
 10
8.6676683238
 20
5.9953595366
 30
0.0
 10
8.7030371598
 20
5.999053882
 30
0.0
 10
8.7309910598
 20
6.0035971407
 30
0.0
 10
8.7517393932
 20
6.0077874854
 30
0.0
 10
8.7722645851
 20
6.0127586982
 30
0.0
 10
8.792538736
 20
6.0185041649
 30
0.0
 10
8.8125339193
 20
6.0250157389
 30
0.0
 10
8.832222561
 20
6.0322847543
 30
0.0
 10
8.8515776494
 20
6.0403009728
 30
0.0
 10
8.8705724812
 20
6.049053559
 30
0.0
 10
8.8891809479
 20
6.0585303963
 30
0.0
 10
8.9073774569
 20
6.0687184333
 30
0.0
 10
8.925136889
 20
6.0796037802
 30
0.0
 10
8.9424349314
 20
6.0911712735
 30
0.0
 10
8.9592475926
 20
6.1034052182
 30
0.0
 10
8.9755519871
 20
6.1162886259
 30
0.0
 10
8.9913252065
 20
6.1298036732
 30
0.0
 10
9.0014733093
 20
6.139223352
 30
0.0
 10
9.0064506722
 20
6.1440311378
 30
0.0
  0
SPLINE
  5
3A5
100
AcDbEntity
  8
0
100
AcDbSpline
 62
7
  6
CONTINUOUS
 70
0
 71
3
 72
42
 73
38
 74
0
 42
0.0000001
 43
0.0000001
 44
0.0000000001
 40
0.0
 40
0.0
 40
0.0
 40
0.0
 40
0.0308448171
 40
0.0618226609
 40
0.0929300901
 40
0.1241622315
 40
0.1555119881
 40
0.1869706408
 40
0.2185278031
 40
0.2501716593
 40
0.281889125
 40
0.3136660532
 40
0.3454874419
 40
0.3773376533
 40
0.4092006386
 40
0.4410601672
 40
0.4729000577
 40
0.5047044085
 40
0.5364578249
 40
0.5681456425
 40
0.5997541417
 40
0.6312707533
 40
0.6626842512
 40
0.6939849301
 40
0.7251647657
 40
0.7562175537
 40
0.7871390262
 40
0.8179269412
 40
0.8485811438
 40
0.8638605684
 40
0.8791074822
 40
0.9095022586
 40
0.9397755081
 40
0.9548710387
 40
0.9699394061
 40
0.9849819187
 40
1.0
 40
1.0
 40
1.0
 40
1.0
 10
8.29733609
 20
6.8932759709
 30
0.0
 10
8.29733609
 20
6.8811242776
 30
0.0
 10
8.2981025925
 20
6.8567617538
 30
0.0
 10
8.3015296889
 20
6.8202892036
 30
0.0
 10
8.3072229932
 20
6.7839454386
 30
0.0
 10
8.3151597854
 20
6.7478754807
 30
0.0
 10
8.3253087148
 20
6.7122207137
 30
0.0
 10
8.3376296264
 20
6.6771215871
 30
0.0
 10
8.3520739082
 20
6.6427161421
 30
0.0
 10
8.3685845872
 20
6.6091397316
 30
0.0
 10
8.3870965983
 20
6.5765244238
 30
0.0
 10
8.4075370218
 20
6.5449985049
 30
0.0
 10
8.4298253763
 20
6.5146859754
 30
0.0
 10
8.4538739316
 20
6.4857060669
 30
0.0
 10
8.4795880527
 20
6.4581727772
 30
0.0
 10
8.5068665691
 20
6.4321944249
 30
0.0
 10
8.5356021707
 20
6.4078732268
 30
0.0
 10
8.5656818262
 20
6.3853048981
 30
0.0
 10
8.5969872246
 20
6.3645782786
 30
0.0
 10
8.6293952361
 20
6.3457749847
 30
0.0
 10
8.6627783931
 20
6.3289690901
 30
0.0
 10
8.6970053855
 20
6.3142268346
 30
0.0
 10
8.731941575
 20
6.3016063639
 30
0.0
 10
8.7674495111
 20
6.2911574996
 30
0.0
 10
8.8033894962
 20
6.2829215437
 30
0.0
 10
8.8396200196
 20
6.2769311047
 30
0.0
 10
8.8759987164
 20
6.2732099961
 30
0.0
 10
8.9123814129
 20
6.2717730238
 30
0.0
 10
8.9426204061
 20
6.2724849045
 30
0.0
 10
8.9666655789
 20
6.2742012803
 30
0.0
 10
8.9905421429
 20
6.2766732889
 30
0.0
 10
9.0201301955
 20
6.2811811801
 30
0.0
 10
9.0493075021
 20
6.2875784746
 30
0.0
 10
9.0722913539
 20
6.2938094008
 30
0.0
 10
9.0893222568
 20
6.2990296145
 30
0.0
 10
9.1061435882
 20
6.3047955759
 30
0.0
 10
9.1172163812
 20
6.3090031937
 30
0.0
 10
9.1227116241
 20
6.3111958982
 30
0.0
  0
SPLINE
  5
3A6
100
AcDbEntity
  8
0
100
AcDbSpline
 62
7
  6
CONTINUOUS
 70
0
 71
3
 72
51
 73
47
 74
0
 42
0.0000001
 43
0.0000001
 44
0.0000000001
 40
0.0
 40
0.0
 40
0.0
 40
0.0
 40
0.0063158655
 40
0.0126706318
 40
0.0191024376
 40
0.0256479646
 40
0.0323418026
 40
0.0392161087
 40
0.0536138572
 40
0.0611945363
 40
0.0690562626
 40
0.0772173127
 40
0.0856936584
 40
0.0944990189
 40
0.1036450659
 40
0.113141796
 40
0.1229975191
 40
0.133219072
 40
0.1438121299
 40
0.1547811124
 40
0.1661293961
 40
0.1778595522
 40
0.1899731907
 40
0.2024711797
 40
0.2153538132
 40
0.2286206204
 40
0.2422705968
 40
0.270712786
 40
0.3006636547
 40
0.3320987777
 40
0.3649879575
 40
0.3992957302
 40
0.4349820786
 40
0.4720029295
 40
0.5103103706
 40
0.549853079
 40
0.5905766853
 40
0.63242389
 40
0.6753347462
 40
0.7192469347
 40
0.7640958651
 40
0.8098150804
 40
0.8563358892
 40
0.903587821
 40
0.9515017896
 40
1.0
 40
1.0
 40
1.0
 40
1.0
 10
13.6211268303
 20
10.9164078732
 30
0.0
 10
13.6224958841
 20
10.9163129341
 30
0.0
 10
13.6252359519
 20
10.9160103861
 30
0.0
 10
13.6293153555
 20
10.9152218767
 30
0.0
 10
13.6333675013
 20
10.914098637
 30
0.0
 10
13.6373899774
 20
10.9126414728
 30
0.0
 10
13.6413812715
 20
10.9108513942
 30
0.0
 10
13.6467404893
 20
10.9079786112
 30
0.0
 10
13.6519541644
 20
10.9044618688
 30
0.0
 10
13.6569996919
 20
10.9003865202
 30
0.0
 10
13.66081073
 20
10.8969504803
 30
0.0
 10
13.6645811264
 20
10.8931897861
 30
0.0
 10
13.6683098467
 20
10.8891056833
 30
0.0
 10
13.6719953892
 20
10.8846999649
 30
0.0
 10
13.6756364553
 20
10.8799744603
 30
0.0
 10
13.6792315669
 20
10.8749310444
 30
0.0
 10
13.6827793522
 20
10.8695717823
 30
0.0
 10
13.686278465
 20
10.8638988735
 30
0.0
 10
13.6897274428
 20
10.8579145736
 30
0.0
 10
13.6931249408
 20
10.8516213343
 30
0.0
 10
13.6964696258
 20
10.8450217288
 30
0.0
 10
13.6997600712
 20
10.83811841
 30
0.0
 10
13.7029949826
 20
10.8309142158
 30
0.0
 10
13.7061730637
 20
10.823412095
 30
0.0
 10
13.7092929385
 20
10.8156150928
 30
0.0
 10
13.7123534074
 20
10.8075264112
 30
0.0
 10
13.7164087537
 20
10.7962014041
 30
0.0
 10
13.7213077307
 20
10.7813307453
 30
0.0
 10
13.7268522788
 20
10.7626138453
 30
0.0
 10
13.7321311241
 20
10.7428187006
 30
0.0
 10
13.737135473
 20
10.7219778331
 30
0.0
 10
13.7418570386
 20
10.7001253246
 30
0.0
 10
13.7462879695
 20
10.6772970464
 30
0.0
 10
13.750420847
 20
10.6535304888
 30
0.0
 10
13.7542488053
 20
10.6288647446
 30
0.0
 10
13.7577654832
 20
10.6033404154
 30
0.0
 10
13.760964989
 20
10.5769995301
 30
0.0
 10
13.763841996
 20
10.5498854874
 30
0.0
 10
13.7663917336
 20
10.5220429817
 30
0.0
 10
13.7686099287
 20
10.4935179192
 30
0.0
 10
13.770492881
 20
10.4643573083
 30
0.0
 10
13.7720374637
 20
10.4346092705
 30
0.0
 10
13.7732410931
 20
10.4043229738
 30
0.0
 10
13.7741017727
 20
10.3735479383
 30
0.0
 10
13.7746179902
 20
10.3423355454
 30
0.0
 10
13.7747313614
 20
10.3213864504
 30
0.0
 10
13.7747313614
 20
10.3108485253
 30
0.0
  0
SPLINE
  5
3A7
100
AcDbEntity
  8
0
100
AcDbSpline
 62
7
  6
CONTINUOUS
 70
0
 71
3
 72
44
 73
40
 74
0
 42
0.0000001
 43
0.0000001
 44
0.0000000001
 40
0.0
 40
0.0
 40
0.0
 40
0.0
 40
0.0150279136
 40
0.0300809431
 40
0.0451604043
 40
0.060267511
 40
0.090565053
 40
0.120984869
 40
0.1362443011
 40
0.1515361565
 40
0.1822147261
 40
0.2130257016
 40
0.2439683748
 40
0.2750400302
 40
0.3062360108
 40
0.3375498102
 40
0.3689731893
 40
0.4004963145
 40
0.4321079143
 40
0.4637954527
 40
0.4955453169
 40
0.5273430166
 40
0.5591733914
 40
0.5910208251
 40
0.6228694636
 40
0.6547034361
 40
0.6865070756
 40
0.7182651383
 40
0.7341241741
 40
0.7499664084
 40
0.7815903471
 40
0.8131276313
 40
0.8445667984
 40
0.8758977455
 40
0.9071121143
 40
0.9382027595
 40
0.953701901
 40
0.9691692155
 40
1.0
 40
1.0
 40
1.0
 40
1.0
 10
11.1759534076
 20
7.0985204574
 30
0.0
 10
11.1720920264
 20
7.097078965
 30
0.0
 10
11.1643151587
 20
7.0943194085
 30
0.0
 10
11.152511836
 20
7.0905582897
 30
0.0
 10
11.1405718314
 20
7.0871751917
 30
0.0
 10
11.1244713851
 20
7.0831696362
 30
0.0
 10
11.1040567337
 20
7.0791252955
 30
0.0
 10
11.0833847074
 20
7.076385386
 30
0.0
 10
11.066719379
 20
7.074975944
 30
0.0
 10
11.0499471001
 20
7.0740880696
 30
0.0
 10
11.0288738815
 20
7.0739661582
 30
0.0
 10
11.0035472521
 20
7.075396327
 30
0.0
 10
10.9782495151
 20
7.0783970225
 30
0.0
 10
10.9530788081
 20
7.0829565569
 30
0.0
 10
10.9281319474
 20
7.0890572123
 30
0.0
 10
10.9035050851
 20
7.0966753571
 30
0.0
 10
10.8792930658
 20
7.1057815274
 30
0.0
 10
10.8555891404
 20
7.1163405449
 30
0.0
 10
10.8324845904
 20
7.1283116527
 30
0.0
 10
10.8100683852
 20
7.141648671
 30
0.0
 10
10.7884268348
 20
7.1563001655
 30
0.0
 10
10.7676432655
 20
7.1722096588
 30
0.0
 10
10.747797704
 20
7.1893158408
 30
0.0
 10
10.7289665636
 20
7.2075528197
 30
0.0
 10
10.7112223856
 20
7.2268503171
 30
0.0
 10
10.6946334377
 20
7.2471341449
 30
0.0
 10
10.6792639197
 20
7.2683257149
 30
0.0
 10
10.66751505
 20
7.2866840279
 30
0.0
 10
10.6587831525
 20
7.3017424854
 30
0.0
 10
10.6505127707
 20
7.3170174367
 30
0.0
 10
10.6410372916
 20
7.336518945
 30
0.0
 10
10.6310867031
 20
7.3604968151
 30
0.0
 10
10.6226001768
 20
7.3849466337
 30
0.0
 10
10.6156106954
 20
7.4097739188
 30
0.0
 10
10.610145389
 20
7.4348825366
 30
0.0
 10
10.6068750635
 20
7.4559840528
 30
0.0
 10
10.6050416714
 20
7.4729077005
 30
0.0
 10
10.6037333922
 20
7.489807993
 30
0.0
 10
10.6033379123
 20
7.5025105615
 30
0.0
 10
10.6033379123
 20
7.5109664475
 30
0.0
  0
SPLINE
  5
3A8
100
AcDbEntity
  8
0
100
AcDbSpline
 62
7
  6
CONTINUOUS
 70
0
 71
3
 72
53
 73
49
 74
0
 42
0.0000001
 43
0.0000001
 44
0.0000000001
 40
0.0
 40
0.0
 40
0.0
 40
0.0
 40
0.014971497
 40
0.0299460521
 40
0.0449267061
 40
0.0599164632
 40
0.0749182692
 40
0.0899349996
 40
0.1049694388
 40
0.1200242618
 40
0.1351020244
 40
0.1502051434
 40
0.1653358824
 40
0.1804963453
 40
0.1956884574
 40
0.2109139585
 40
0.2261743978
 40
0.2414711171
 40
0.256805253
 40
0.2721777303
 40
0.2875892518
 40
0.3030403059
 40
0.3185311597
 40
0.3340618569
 40
0.3496322277
 40
0.3652418829
 40
0.3808902204
 40
0.3965764348
 40
0.4122995141
 40
0.4280582535
 40
0.4596719475
 40
0.4914093691
 40
0.5232547358
 40
0.5551900654
 40
0.5871955577
 40
0.619250005
 40
0.6513312236
 40
0.6834164975
 40
0.7154830302
 40
0.7475083976
 40
0.7794709953
 40
0.8113504746
 40
0.843128163
 40
0.8747874538
 40
0.9063141674
 40
0.9376969256
 40
0.9689270695
 40
1.0
 40
1.0
 40
1.0
 40
1.0
 10
11.3170056162
 20
6.5548276564
 30
0.0
 10
11.3097054692
 20
6.5477762317
 30
0.0
 10
11.294821675
 20
6.5339605659
 30
0.0
 10
11.2716875693
 20
6.5141384937
 30
0.0
 10
11.2477745791
 20
6.4952426117
 30
0.0
 10
11.2231159543
 20
6.4772995005
 30
0.0
 10
11.1977455642
 20
6.4603336685
 30
0.0
 10
11.1716983935
 20
6.444368424
 30
0.0
 10
11.1450101973
 20
6.4294258623
 30
0.0
 10
11.1177177846
 20
6.4155264077
 30
0.0
 10
11.0898587023
 20
6.4026891834
 30
0.0
 10
11.0614712447
 20
6.3909319483
 30
0.0
 10
11.032594543
 20
6.3802707023
 30
0.0
 10
11.0032682946
 20
6.3707201858
 30
0.0
 10
10.9735328471
 20
6.362293552
 30
0.0
 10
10.9434291499
 20
6.3550022312
 30
0.0
 10
10.9129985821
 20
6.3488563795
 30
0.0
 10
10.882283025
 20
6.3438643694
 30
0.0
 10
10.8513247386
 20
6.3400329621
 30
0.0
 10
10.8201662881
 20
6.3373675684
 30
0.0
 10
10.7888505447
 20
6.3358716934
 30
0.0
 10
10.7574205714
 20
6.3355473742
 30
0.0
 10
10.7259195951
 20
6.3363951593
 30
0.0
 10
10.6943909308
 20
6.3384136909
 30
0.0
 10
10.662877931
 20
6.3416002586
 30
0.0
 10
10.6314239454
 20
6.3459504997
 30
0.0
 10
10.6000721628
 20
6.351458279
 30
0.0
 10
10.5688658407
 20
6.3581160952
 30
0.0
 10
10.5378473887
 20
6.3659149147
 30
0.0
 10
10.4967585608
 20
6.3778310988
 30
0.0
 10
10.4460799696
 20
6.3955309292
 30
0.0
 10
10.3867673427
 20
6.4210993487
 30
0.0
 10
10.3292073609
 20
6.4508810057
 30
0.0
 10
10.2737180277
 20
6.4847115091
 30
0.0
 10
10.2206032285
 20
6.5224050199
 30
0.0
 10
10.1701545149
 20
6.5637543501
 30
0.0
 10
10.1226486747
 20
6.6085324477
 30
0.0
 10
10.0783464873
 20
6.6564935364
 30
0.0
 10
10.0374910971
 20
6.7073743377
 30
0.0
 10
10.0003068218
 20
6.7608956249
 30
0.0
 10
9.9669979707
 20
6.8167637474
 30
0.0
 10
9.9377476732
 20
6.8746721791
 30
0.0
 10
9.9127167761
 20
6.9343031033
 30
0.0
 10
9.8920431283
 20
6.9953293687
 30
0.0
 10
9.8758407996
 20
7.0574157245
 30
0.0
 10
9.864199447
 20
7.1202224027
 30
0.0
 10
9.8571833957
 20
7.1834000558
 30
0.0
 10
9.8556119655
 20
7.2256533495
 30
0.0
 10
9.8556119655
 20
7.2467186017
 30
0.0
  0
SPLINE
  5
3A9
100
AcDbEntity
  8
0
100
AcDbSpline
 62
7
  6
CONTINUOUS
 70
0
 71
3
 72
48
 73
44
 74
0
 42
0.0000001
 43
0.0000001
 44
0.0000000001
 40
0.0
 40
0.0
 40
0.0
 40
0.0
 40
0.0149718897
 40
0.0299468369
 40
0.0449278839
 40
0.0599180336
 40
0.0749202322
 40
0.0899373568
 40
0.1049721887
 40
0.1200274064
 40
0.1351055645
 40
0.1502090774
 40
0.1653402142
 40
0.180501073
 40
0.1956935825
 40
0.2109194836
 40
0.2261803205
 40
0.2414774416
 40
0.2568119786
 40
0.2721848576
 40
0.3030428416
 40
0.3340598877
 40
0.365235493
 40
0.3965657058
 40
0.4280432614
 40
0.4596577825
 40
0.4913960356
 40
0.5232422374
 40
0.5551784039
 40
0.5871847345
 40
0.6192400218
 40
0.6513220815
 40
0.6834081967
 40
0.7154755701
 40
0.7475017768
 40
0.7794652126
 40
0.8113455287
 40
0.8431240501
 40
0.8747841728
 40
0.9063117021
 40
0.9376953081
 40
0.9689262526
 40
1.0
 40
1.0
 40
1.0
 40
1.0
 10
11.1724982461
 20
8.4546902751
 30
0.0
 10
11.1669235888
 20
8.4493055465
 30
0.0
 10
11.1555577931
 20
8.4387553824
 30
0.0
 10
11.1378917482
 20
8.4236185164
 30
0.0
 10
11.1196309425
 20
8.4091888913
 30
0.0
 10
11.1008006968
 20
8.3954868991
 30
0.0
 10
11.0814269822
 20
8.3825311027
 30
0.0
 10
11.0615363911
 20
8.3703394858
 30
0.0
 10
11.041156323
 20
8.3589287744
 30
0.0
 10
11.0203148675
 20
8.3483145801
 30
0.0
 10
10.999040621
 20
8.3385116767
 30
0.0
 10
10.9773629633
 20
8.3295333168
 30
0.0
 10
10.9553116427
 20
8.3213920342
 30
0.0
 10
10.9329170493
 20
8.3140989076
 30
0.0
 10
10.9102099952
 20
8.3076639356
 30
0.0
 10
10.887221697
 20
8.3020960946
 30
0.0
 10
10.863983802
 20
8.2974028061
 30
0.0
 10
10.8405283462
 20
8.2935907384
 30
0.0
 10
10.8168871998
 20
8.2906649472
 30
0.0
 10
10.7851259267
 20
8.2879477719
 30
0.0
 10
10.7451122166
 20
8.2867924984
 30
0.0
 10
10.6969491034
 20
8.2889898115
 30
0.0
 10
10.6488349159
 20
8.294755504
 30
0.0
 10
10.6010358292
 20
8.3040575184
 30
0.0
 10
10.5538138734
 20
8.3168441753
 30
0.0
 10
10.5074284474
 20
8.3330448004
 30
0.0
 10
10.4621341315
 20
8.3525700434
 30
0.0
 10
10.4181795043
 20
8.3753123505
 30
0.0
 10
10.3758057395
 20
8.4011465719
 30
0.0
 10
10.3352453301
 20
8.4299306773
 30
0.0
 10
10.2967208244
 20
8.4615065234
 30
0.0
 10
10.2604436249
 20
8.4957007164
 30
0.0
 10
10.2266128398
 20
8.532325549
 30
0.0
 10
10.1954141607
 20
8.571179987
 30
0.0
 10
10.1670188939
 20
8.6120508073
 30
0.0
 10
10.1415830283
 20
8.6547137469
 30
0.0
 10
10.1192463869
 20
8.6989347247
 30
0.0
 10
10.100131868
 20
8.7444710817
 30
0.0
 10
10.0843447536
 20
8.7910729813
 30
0.0
 10
10.0719720479
 20
8.8384844002
 30
0.0
 10
10.0630822749
 20
8.886445876
 30
0.0
 10
10.057724543
 20
8.9346906486
 30
0.0
 10
10.0565245492
 20
8.9669568034
 30
0.0
 10
10.0565245492
 20
8.9830430027
 30
0.0
  0
SPLINE
  5
3AA
100
AcDbEntity
  8
0
100
AcDbSpline
 62
7
  6
CONTINUOUS
 70
0
 71
3
 72
43
 73
39
 74
0
 42
0.0000001
 43
0.0000001
 44
0.0000000001
 40
0.0
 40
0.0
 40
0.0
 40
0.0
 40
0.0149933891
 40
0.030008869
 40
0.0450481552
 40
0.0601128555
 40
0.0903200735
 40
0.1206453274
 40
0.1358570221
 40
0.1511011902
 40
0.1663785369
 40
0.1816896217
 40
0.2124104612
 40
0.2432694215
 40
0.2742657771
 40
0.3053965301
 40
0.3366564885
 40
0.3680383773
 40
0.3995329789
 40
0.4311292992
 40
0.4628147571
 40
0.4945753929
 40
0.5263960926
 40
0.5582608262
 40
0.5901528947
 40
0.6220551856
 40
0.6539504319
 40
0.6858214731
 40
0.7176515146
 40
0.7494243842
 40
0.7811247812
 40
0.8127385154
 40
0.8442527366
 40
0.8756561403
 40
0.9069391776
 40
0.9380941788
 40
0.9691156175
 40
1.0
 40
1.0
 40
1.0
 40
1.0
 10
9.1425630086
 20
6.363998215
 30
0.0
 10
9.1374213737
 20
6.3615495973
 30
0.0
 10
9.1270457678
 20
6.3568244936
 30
0.0
 10
9.1112381255
 20
6.3502672733
 30
0.0
 10
9.0951909424
 20
6.3442417346
 30
0.0
 10
9.0734809006
 20
6.3369195028
 30
0.0
 10
9.0458201677
 20
6.3291278785
 30
0.0
 10
9.0176450994
 20
6.3231968592
 30
0.0
 10
8.9948414354
 20
6.3195721138
 30
0.0
 10
8.9776018744
 20
6.3174144237
 30
0.0
 10
8.9602629632
 20
6.3158229584
 30
0.0
 10
8.9370125912
 20
6.3144567558
 30
0.0
 10
8.9077860084
 20
6.314176115
 30
0.0
 10
8.8726527386
 20
6.3161176751
 30
0.0
 10
8.8375614457
 20
6.3203284864
 30
0.0
 10
8.8026598566
 20
6.3267907879
 30
0.0
 10
8.7680935963
 20
6.3354773144
 30
0.0
 10
8.7340071971
 20
6.3463515562
 30
0.0
 10
8.7005430667
 20
6.359367878
 30
0.0
 10
8.6678410163
 20
6.3744717228
 30
0.0
 10
8.6360376515
 20
6.3915998381
 30
0.0
 10
8.6052658162
 20
6.4106805419
 30
0.0
 10
8.5756540406
 20
6.4316340214
 30
0.0
 10
8.5473260104
 20
6.4543726651
 30
0.0
 10
8.5204000546
 20
6.478801427
 30
0.0
 10
8.4949886555
 20
6.5048182214
 30
0.0
 10
8.4711979826
 20
6.5323143463
 30
0.0
 10
8.4491274525
 20
6.5611749341
 30
0.0
 10
8.4288693163
 20
6.5912794276
 30
0.0
 10
8.4105082768
 20
6.6225020798
 30
0.0
 10
8.3941211368
 20
6.6547124728
 30
0.0
 10
8.3797764776
 20
6.6877760625
 30
0.0
 10
8.3675343775
 20
6.7215547178
 30
0.0
 10
8.3574461497
 20
6.7559073556
 30
0.0
 10
8.3495541495
 20
6.7906902872
 30
0.0
 10
8.3438915492
 20
6.8257586844
 30
0.0
 10
8.3404822684
 20
6.860963988
 30
0.0
 10
8.3397195802
 20
6.884484501
 30
0.0
 10
8.3397195802
 20
6.8962152812
 30
0.0
  0
SPLINE
  5
3AB
100
AcDbEntity
  8
0
100
AcDbSpline
 62
7
  6
CONTINUOUS
 70
0
 71
3
 72
54
 73
50
 74
0
 42
0.0000001
 43
0.0000001
 44
0.0000000001
 40
0.0
 40
0.0
 40
0.0
 40
0.0
 40
0.0149714207
 40
0.0299459009
 40
0.0449264795
 40
0.0599161607
 40
0.0749178924
 40
0.0899345474
 40
0.1049689109
 40
0.1200236599
 40
0.135101347
 40
0.1502043904
 40
0.1653350555
 40
0.1804954423
 40
0.195687479
 40
0.210912906
 40
0.2261732683
 40
0.2414699124
 40
0.2568039734
 40
0.2721763729
 40
0.2875878193
 40
0.3030387972
 40
0.3185295728
 40
0.3340601946
 40
0.3496304877
 40
0.3652400644
 40
0.3808883259
 40
0.3965744612
 40
0.4122974619
 40
0.4280561242
 40
0.4438490534
 40
0.4596746808
 40
0.4914119437
 40
0.5232571513
 40
0.5551923202
 40
0.587197651
 40
0.6192519366
 40
0.651332993
 40
0.6834181045
 40
0.7154844744
 40
0.7475096792
 40
0.7794721147
 40
0.8113514322
 40
0.8431289588
 40
0.8747880885
 40
0.9063146442
 40
0.9376972366
 40
0.9689272309
 40
1.0
 40
1.0
 40
1.0
 40
1.0
 10
9.2232129823
 20
5.8667925665
 30
0.0
 10
9.2153321403
 20
5.8591802505
 30
0.0
 10
9.1992643868
 20
5.8442656654
 30
0.0
 10
9.1742900591
 20
5.8228668953
 30
0.0
 10
9.1484748288
 20
5.8024680721
 30
0.0
 10
9.1218547464
 20
5.7830976893
 30
0.0
 10
9.0944662295
 20
5.7647823954
 30
0.0
 10
9.0663470812
 20
5.7475473205
 30
0.0
 10
9.0375359963
 20
5.7314161432
 30
0.0
 10
9.0080725646
 20
5.7164111743
 30
0.0
 10
8.9779974053
 20
5.7025529124
 30
0.0
 10
8.9473518889
 20
5.6898604342
 30
0.0
 10
8.9161781519
 20
5.6783512844
 30
0.0
 10
8.8845191463
 20
5.6680411297
 30
0.0
 10
8.852418406
 20
5.6589442018
 30
0.0
 10
8.8199200872
 20
5.6510730518
 30
0.0
 10
8.7870689346
 20
5.6444383392
 30
0.0
 10
8.7539101162
 20
5.6390492735
 30
0.0
 10
8.72048925
 20
5.6349132507
 30
0.0
 10
8.6868523189
 20
5.6320358097
 30
0.0
 10
8.6530455744
 20
5.6304210179
 30
0.0
 10
8.6191155195
 20
5.6300710263
 30
0.0
 10
8.5851088121
 20
5.6309861997
 30
0.0
 10
8.5510722208
 20
5.6331654038
 30
0.0
 10
8.5170525467
 20
5.636605526
 30
0.0
 10
8.4830965566
 20
5.6413017632
 30
0.0
 10
8.4492509568
 20
5.6472477814
 30
0.0
 10
8.4155622707
 20
5.6544352526
 30
0.0
 10
8.3820767703
 20
5.6628542883
 30
0.0
 10
8.3488406591
 20
5.6724933529
 30
0.0
 10
8.3158990792
 20
5.6833392679
 30
0.0
 10
8.272394402
 20
5.6994027104
 30
0.0
 10
8.2189775882
 20
5.7224291263
 30
0.0
 10
8.1568408543
 20
5.7545792711
 30
0.0
 10
8.0969372
 20
5.7911009938
 30
0.0
 10
8.0395975579
 20
5.8317927939
 30
0.0
 10
7.9851359611
 20
5.8764313237
 30
0.0
 10
7.9338513596
 20
5.9247713188
 30
0.0
 10
7.8860251754
 20
5.9765474405
 30
0.0
 10
7.8419200163
 20
6.0314755636
 30
0.0
 10
7.8017779994
 20
6.0892542081
 30
0.0
 10
7.7658196315
 20
6.1495663336
 30
0.0
 10
7.7342426486
 20
6.2120810619
 30
0.0
 10
7.7072207291
 20
6.2764553095
 30
0.0
 10
7.6849026357
 20
6.3423358805
 30
0.0
 10
7.6674115026
 20
6.4093608532
 30
0.0
 10
7.6548441588
 20
6.4771634559
 30
0.0
 10
7.6472700372
 20
6.545366537
 30
0.0
 10
7.6455736066
 20
6.5909808463
 30
0.0
 10
7.6455736066
 20
6.6137217183
 30
0.0
  0
SPLINE
  5
3AC
100
AcDbEntity
  8
0
100
AcDbSpline
 62
7
  6
CONTINUOUS
 70
0
 71
3
 72
40
 73
36
 74
0
 42
0.0000001
 43
0.0000001
 44
0.0000000001
 40
0.0
 40
0.0
 40
0.0
 40
0.0
 40
0.0306323676
 40
0.0613744403
 40
0.0922218076
 40
0.1231734127
 40
0.1542248234
 40
0.1853712545
 40
0.2166069129
 40
0.2479250681
 40
0.2793182132
 40
0.3107780903
 40
0.3422957957
 40
0.3738618716
 40
0.4054663949
 40
0.4370990701
 40
0.4687493325
 40
0.5004064541
 40
0.5320596419
 40
0.5636981369
 40
0.5953113185
 40
0.626888812
 40
0.6584205851
 40
0.6898970412
 40
0.721309115
 40
0.7526483704
 40
0.7839070838
 40
0.8150783209
 40
0.8461560101
 40
0.8771350199
 40
0.9080112165
 40
0.9387815112
 40
0.9541275185
 40
0.9694463973
 40
1.0
 40
1.0
 40
1.0
 40
1.0
 10
8.5866484434
 20
7.1347302614
 30
0.0
 10
8.5866484434
 20
7.1254249339
 30
0.0
 10
8.5871281063
 20
7.1067774922
 30
0.0
 10
8.5892752664
 20
7.0788337952
 30
0.0
 10
8.5928461127
 20
7.0509377274
 30
0.0
 10
8.5978307031
 20
7.0231641554
 30
0.0
 10
8.6042161793
 20
6.9955856276
 30
0.0
 10
8.6119855363
 20
6.9682749649
 30
0.0
 10
8.6211182287
 20
6.9413040201
 30
0.0
 10
8.6315901709
 20
6.9147438068
 30
0.0
 10
8.6433737704
 20
6.8886642651
 30
0.0
 10
8.656437976
 20
6.8631340611
 30
0.0
 10
8.6707483063
 20
6.8382203803
 30
0.0
 10
8.6862670519
 20
6.8139888011
 30
0.0
 10
8.7029533519
 20
6.7905031216
 30
0.0
 10
8.7207632927
 20
6.7678251974
 30
0.0
 10
8.7396499282
 20
6.7460146989
 30
0.0
 10
8.759563517
 20
6.7251290338
 30
0.0
 10
8.7804516371
 20
6.7052231944
 30
0.0
 10
8.802259333
 20
6.6863496358
 30
0.0
 10
8.8249291715
 20
6.6685580387
 30
0.0
 10
8.8484014556
 20
6.6518952333
 30
0.0
 10
8.8726144006
 20
6.6364051102
 30
0.0
 10
8.8975042927
 20
6.6221285182
 30
0.0
 10
8.9230056106
 20
6.6091030885
 30
0.0
 10
8.9490511997
 20
6.5973631109
 30
0.0
 10
8.9755724923
 20
6.5869395378
 30
0.0
 10
9.0024996842
 20
6.5778598908
 30
0.0
 10
9.0297618554
 20
6.5701481817
 30
0.0
 10
9.0572873209
 20
6.5638247144
 30
0.0
 10
9.0850031557
 20
6.5589062473
 30
0.0
 10
9.1082194935
 20
6.5559864687
 30
0.0
 10
9.1268133158
 20
6.5543664294
 30
0.0
 10
9.1453763146
 20
6.5532254084
 30
0.0
 10
9.1593156008
 20
6.5529049596
 30
0.0
 10
9.1685969637
 20
6.5529315062
 30
0.0
  0
SPLINE
  5
3AD
100
AcDbEntity
  8
0
100
AcDbSpline
 62
4
  6
CONTINUOUS
 70
0
 71
3
 72
301
 73
297
 74
0
 42
0.0000001
 43
0.0000001
 44
0.0000000001
 40
0.0
 40
0.0
 40
0.0
 40
0.0
 40
0.015625
 40
0.0234375
 40
0.03125
 40
0.0390625
 40
0.046875
 40
0.05078125
 40
0.0546875
 40
0.056640625
 40
0.05859375
 40
0.060546875
 40
0.0615234375
 40
0.0620117188
 40
0.0625
 40
0.0629882812
 40
0.0634765625
 40
0.064453125
 40
0.06640625
 40
0.068359375
 40
0.0703125
 40
0.07421875
 40
0.078125
 40
0.0859375
 40
0.09375
 40
0.1015625
 40
0.109375
 40
0.11328125
 40
0.1171875
 40
0.119140625
 40
0.12109375
 40
0.123046875
 40
0.1240234375
 40
0.1245117188
 40
0.125
 40
0.1254882812
 40
0.1259765625
 40
0.126953125
 40
0.12890625
 40
0.130859375
 40
0.1328125
 40
0.13671875
 40
0.140625
 40
0.1484375
 40
0.15625
 40
0.1640625
 40
0.171875
 40
0.17578125
 40
0.1796875
 40
0.181640625
 40
0.18359375
 40
0.185546875
 40
0.1865234375
 40
0.1870117188
 40
0.1875
 40
0.1879882812
 40
0.1884765625
 40
0.189453125
 40
0.19140625
 40
0.193359375
 40
0.1953125
 40
0.19921875
 40
0.203125
 40
0.2109375
 40
0.21875
 40
0.2265625
 40
0.234375
 40
0.23828125
 40
0.2421875
 40
0.24609375
 40
0.248046875
 40
0.2490234375
 40
0.25
 40
0.2509765625
 40
0.251953125
 40
0.25390625
 40
0.2578125
 40
0.26171875
 40
0.265625
 40
0.2734375
 40
0.28125
 40
0.2890625
 40
0.296875
 40
0.30078125
 40
0.3046875
 40
0.30859375
 40
0.310546875
 40
0.3115234375
 40
0.3125
 40
0.3134765625
 40
0.314453125
 40
0.31640625
 40
0.3203125
 40
0.32421875
 40
0.328125
 40
0.3359375
 40
0.34375
 40
0.3515625
 40
0.359375
 40
0.36328125
 40
0.3671875
 40
0.37109375
 40
0.373046875
 40
0.3740234375
 40
0.375
 40
0.3759765625
 40
0.376953125
 40
0.37890625
 40
0.3828125
 40
0.38671875
 40
0.390625
 40
0.3984375
 40
0.40625
 40
0.4140625
 40
0.421875
 40
0.42578125
 40
0.4296875
 40
0.43359375
 40
0.435546875
 40
0.4375
 40
0.439453125
 40
0.44140625
 40
0.4453125
 40
0.44921875
 40
0.453125
 40
0.4609375
 40
0.46875
 40
0.4765625
 40
0.484375
 40
0.48828125
 40
0.4921875
 40
0.49609375
 40
0.498046875
 40
0.4990234375
 40
0.5
 40
0.5009765625
 40
0.501953125
 40
0.50390625
 40
0.5078125
 40
0.51171875
 40
0.515625
 40
0.5234375
 40
0.53125
 40
0.5390625
 40
0.546875
 40
0.55078125
 40
0.5546875
 40
0.556640625
 40
0.55859375
 40
0.560546875
 40
0.5615234375
 40
0.5625
 40
0.5634765625
 40
0.564453125
 40
0.56640625
 40
0.568359375
 40
0.5703125
 40
0.57421875
 40
0.578125
 40
0.5859375
 40
0.59375
 40
0.6015625
 40
0.609375
 40
0.61328125
 40
0.6171875
 40
0.619140625
 40
0.62109375
 40
0.623046875
 40
0.6240234375
 40
0.6245117188
 40
0.625
 40
0.6254882812
 40
0.6259765625
 40
0.626953125
 40
0.62890625
 40
0.630859375
 40
0.6328125
 40
0.63671875
 40
0.640625
 40
0.6484375
 40
0.65625
 40
0.6640625
 40
0.671875
 40
0.67578125
 40
0.6796875
 40
0.681640625
 40
0.68359375
 40
0.685546875
 40
0.6865234375
 40
0.6870117188
 40
0.6875
 40
0.6879882812
 40
0.6884765625
 40
0.689453125
 40
0.69140625
 40
0.693359375
 40
0.6953125
 40
0.69921875
 40
0.703125
 40
0.7109375
 40
0.71875
 40
0.7265625
 40
0.73046875
 40
0.734375
 40
0.73828125
 40
0.7421875
 40
0.744140625
 40
0.74609375
 40
0.748046875
 40
0.7490234375
 40
0.7495117188
 40
0.75
 40
0.7504882812
 40
0.7509765625
 40
0.751953125
 40
0.75390625
 40
0.755859375
 40
0.7578125
 40
0.76171875
 40
0.765625
 40
0.76953125
 40
0.7734375
 40
0.78125
 40
0.7890625
 40
0.79296875
 40
0.796875
 40
0.80078125
 40
0.8046875
 40
0.806640625
 40
0.80859375
 40
0.810546875
 40
0.8115234375
 40
0.8120117188
 40
0.8125
 40
0.8129882812
 40
0.8134765625
 40
0.814453125
 40
0.81640625
 40
0.818359375
 40
0.8203125
 40
0.82421875
 40
0.828125
 40
0.83203125
 40
0.8359375
 40
0.84375
 40
0.8515625
 40
0.85546875
 40
0.859375
 40
0.86328125
 40
0.8671875
 40
0.869140625
 40
0.87109375
 40
0.8720703125
 40
0.873046875
 40
0.8740234375
 40
0.8745117188
 40
0.875
 40
0.8754882812
 40
0.8759765625
 40
0.876953125
 40
0.8779296875
 40
0.87890625
 40
0.880859375
 40
0.8828125
 40
0.88671875
 40
0.890625
 40
0.89453125
 40
0.8984375
 40
0.90625
 40
0.9140625
 40
0.91796875
 40
0.921875
 40
0.92578125
 40
0.9296875
 40
0.931640625
 40
0.93359375
 40
0.9345703125
 40
0.935546875
 40
0.9365234375
 40
0.9370117188
 40
0.9375
 40
0.9379882812
 40
0.9384765625
 40
0.939453125
 40
0.9404296875
 40
0.94140625
 40
0.943359375
 40
0.9453125
 40
0.94921875
 40
0.953125
 40
0.95703125
 40
0.9609375
 40
0.96875
 40
0.9765625
 40
0.984375
 40
1.0
 40
1.0
 40
1.0
 40
1.0
 10
14.4549073029
 20
10.63711501
 30
0.0
 10
14.4532282346
 20
10.6348787311
 30
0.0
 10
14.4507096321
 20
10.6315243132
 30
0.0
 10
14.4473514955
 20
10.6270517542
 30
0.0
 10
14.4448328928
 20
10.6236973396
 30
0.0
 10
14.4423142911
 20
10.6203429073
 30
0.0
 10
14.4402154533
 20
10.6175476022
 30
0.0
 10
14.4385363899
 20
10.6153112346
 30
0.0
 10
14.4374869596
 20
10.613913786
 30
0.0
 10
14.4366474513
 20
10.6127951833
 30
0.0
 10
14.4360177216
 20
10.6119579941
 30
0.0
 10
14.4354932603
 20
10.6112547287
 30
0.0
 10
14.4351255221
 20
10.6107734479
 30
0.0
 10
14.4349163468
 20
10.6104812469
 30
0.0
 10
14.4347567585
 20
10.6103105019
 30
0.0
 10
14.4346075173
 20
10.6099547258
 30
0.0
 10
14.4344049199
 20
10.6095448986
 30
0.0
 10
14.434052056
 20
10.6087976301
 30
0.0
 10
14.4335470855
 20
10.6077458251
 30
0.0
 10
14.4329414972
 20
10.6064769299
 30
0.0
 10
14.4321339147
 20
10.60478742
 30
0.0
 10
14.4311244816
 20
10.6026747278
 30
0.0
 10
14.4295093635
 20
10.5992948702
 30
0.0
 10
14.4274904746
 20
10.595069893
 30
0.0
 10
14.4250678037
 20
10.5899999908
 30
0.0
 10
14.4226451358
 20
10.584930055
 30
0.0
 10
14.4206262396
 20
10.5807051616
 30
0.0
 10
14.4190111362
 20
10.5773251364
 30
0.0
 10
14.4180016657
 20
10.5752128702
 30
0.0
 10
14.4171941599
 20
10.5735224859
 30
0.0
 10
14.4165883372
 20
10.5722562621
 30
0.0
 10
14.4160841002
 20
10.571196099
 30
0.0
 10
14.4157299269
 20
10.5704637511
 30
0.0
 10
14.4155294274
 20
10.5700300175
 30
0.0
 10
14.4153737421
 20
10.5697476741
 30
0.0
 10
14.4152383569
 20
10.5693011282
 30
0.0
 10
14.4150507624
 20
10.5687630094
 30
0.0
 10
14.4147257713
 20
10.5677946157
 30
0.0
 10
14.4142597733
 20
10.5664251477
 30
0.0
 10
14.413701314
 20
10.5647758144
 30
0.0
 10
14.4129564438
 20
10.5625787892
 30
0.0
 10
14.4120254443
 20
10.5598317934
 30
0.0
 10
14.4105357958
 20
10.5554369995
 30
0.0
 10
14.4086737522
 20
10.5499433692
 30
0.0
 10
14.406439292
 20
10.5433510756
 30
0.0
 10
14.4042048362
 20
10.5367587515
 30
0.0
 10
14.4023427815
 20
10.5312651975
 30
0.0
 10
14.4008531552
 20
10.5268702511
 30
0.0
 10
14.3999220992
 20
10.5241236427
 30
0.0
 10
14.399177345
 20
10.5219258224
 30
0.0
 10
14.3986185314
 20
10.5202789179
 30
0.0
 10
14.398153642
 20
10.5189018509
 30
0.0
 10
14.3978266718
 20
10.5179470228
 30
0.0
 10
14.3976422482
 20
10.5173871684
 30
0.0
 10
14.397497123
 20
10.5170073874
 30
0.0
 10
14.3973780197
 20
10.5164742862
 30
0.0
 10
14.3972101386
 20
10.5158169643
 30
0.0
 10
14.3969205756
 20
10.5146417338
 30
0.0
 10
14.3965047032
 20
10.5129758601
 30
0.0
 10
14.3960066027
 20
10.5109712357
 30
0.0
 10
14.3953421381
 20
10.5083003508
 30
0.0
 10
14.3945116706
 20
10.5049610776
 30
0.0
 10
14.3931828591
 20
10.499618614
 30
0.0
 10
14.3915218688
 20
10.4929404012
 30
0.0
 10
14.3895286597
 20
10.4849266255
 30
0.0
 10
14.387535495
 20
10.4769127446
 30
0.0
 10
14.3858743938
 20
10.4702347948
 30
0.0
 10
14.3845458041
 20
10.4648918053
 30
0.0
 10
14.3835485665
 20
10.4608862815
 30
0.0
 10
14.3827200647
 20
10.4575428797
 30
0.0
 10
14.3821351495
 20
10.4552132237
 30
0.0
 10
14.3818086629
 20
10.4538652452
 30
0.0
 10
14.3815419641
 20
10.4529014365
 30
0.0
 10
14.3813587257
 20
10.4517573001
 30
0.0
 10
14.3810852958
 20
10.4502946851
 30
0.0
 10
14.3806203573
 20
10.4477058025
 30
0.0
 10
14.3799490682
 20
10.4440227206
 30
0.0
 10
14.3791465566
 20
10.439596464
 30
0.0
 10
14.3780754806
 20
10.4336970799
 30
0.0
 10
14.376737002
 20
10.4263220596
 30
0.0
 10
14.3751306595
 20
10.417472391
 30
0.0
 10
14.3735244033
 20
10.4086225639
 30
0.0
 10
14.372185709
 20
10.4012479399
 30
0.0
 10
14.3711150643
 20
10.3953477633
 30
0.0
 10
14.370311237
 20
10.3909239241
 30
0.0
 10
14.3696440642
 20
10.3872332793
 30
0.0
 10
14.3691717774
 20
10.3846578976
 30
0.0
 10
14.3689101213
 20
10.3831736509
 30
0.0
 10
14.3686907176
 20
10.3820959603
 30
0.0
 10
14.3685598495
 20
10.380882592
 30
0.0
 10
14.3683544764
 20
10.3793120934
 30
0.0
 10
14.3680094621
 20
10.376541671
 30
0.0
 10
14.3675090619
 20
10.3725954526
 30
0.0
 10
14.3669118018
 20
10.3678550562
 30
0.0
 10
14.3661143297
 20
10.3615362515
 30
0.0
 10
14.3651178785
 20
10.3536371525
 30
0.0
 10
14.3639219581
 20
10.3441584951
 30
0.0
 10
14.3627261314
 20
10.3346797408
 30
0.0
 10
14.3617294458
 20
10.3267808843
 30
0.0
 10
14.3609324425
 20
10.3204615944
 30
0.0
 10
14.3603337526
 20
10.315722678
 30
0.0
 10
14.3598378254
 20
10.3117718294
 30
0.0
 10
14.3594848262
 20
10.3090096728
 30
0.0
 10
14.3592922469
 20
10.3074259303
 30
0.0
 10
14.3591220803
 20
10.3062532431
 30
0.0
 10
14.3590502751
 20
10.3050227609
 30
0.0
 10
14.3589202254
 20
10.3034022774
 30
0.0
 10
14.3587086237
 20
10.3005570386
 30
0.0
 10
14.3583979783
 20
10.2964973225
 30
0.0
 10
14.3580287809
 20
10.2916235611
 30
0.0
 10
14.3575352693
 20
10.2851259468
 30
0.0
 10
14.3569187997
 20
10.2770036781
 30
0.0
 10
14.3561788929
 20
10.2672570582
 30
0.0
 10
14.3554388876
 20
10.2575104294
 30
0.0
 10
14.3548226642
 20
10.249388183
 30
0.0
 10
14.3543286603
 20
10.242890524
 30
0.0
 10
14.3539609644
 20
10.238016899
 30
0.0
 10
14.3536456213
 20
10.2339567563
 30
0.0
 10
14.3534133751
 20
10.230705925
 30
0.0
 10
14.3531844636
 20
10.2282752262
 30
0.0
 10
14.3531644452
 20
10.2258161873
 30
0.0
 10
14.3530647849
 20
10.2225473683
 30
0.0
 10
14.3529652449
 20
10.2184579481
 30
0.0
 10
14.352835081
 20
10.2135520978
 30
0.0
 10
14.3526652719
 20
10.2070104556
 30
0.0
 10
14.3524517292
 20
10.1988335813
 30
0.0
 10
14.3521960139
 20
10.1890212381
 30
0.0
 10
14.3519402052
 20
10.1792089854
 30
0.0
 10
14.351726896
 20
10.1710318848
 30
0.0
 10
14.3515566199
 20
10.1644906952
 30
0.0
 10
14.3514278804
 20
10.1595834643
 30
0.0
 10
14.3513238842
 20
10.1554983632
 30
0.0
 10
14.3512446364
 20
10.1526304363
 30
0.0
 10
14.3512094239
 20
10.1510046683
 30
0.0
 10
14.3511546415
 20
10.1497485879
 30
0.0
 10
14.3512083153
 20
10.1486330012
 30
0.0
 10
14.3512420496
 20
10.1470965465
 30
0.0
 10
14.3513187106
 20
10.1444305834
 30
0.0
 10
14.3514190113
 20
10.1406101276
 30
0.0
 10
14.3515433165
 20
10.1360306902
 30
0.0
 10
14.351707679
 20
10.1299229889
 30
0.0
 10
14.3519136041
 20
10.1222889734
 30
0.0
 10
14.3521605154
 20
10.1131278987
 30
0.0
 10
14.3524074669
 20
10.1039668704
 30
0.0
 10
14.3526132914
 20
10.096332739
 30
0.0
 10
14.3527778552
 20
10.0902252695
 30
0.0
 10
14.3528809313
 20
10.0864084826
 30
0.0
 10
14.3529628792
 20
10.0833541784
 30
0.0
 10
14.3530257448
 20
10.0810658453
 30
0.0
 10
14.3530736641
 20
10.0791512822
 30
0.0
 10
14.3531220222
 20
10.0776367194
 30
0.0
 10
14.3531309039
 20
10.0764541055
 30
0.0
 10
14.353244322
 20
10.075449715
 30
0.0
 10
14.3533590302
 20
10.074048272
 30
0.0
 10
14.3535149439
 20
10.0723178278
 30
0.0
 10
14.3536966778
 20
10.0702321522
 30
0.0
 10
14.3539408627
 20
10.0674544447
 30
0.0
 10
14.3542454525
 20
10.0639812169
 30
0.0
 10
14.3547331545
 20
10.0584246635
 30
0.0
 10
14.3553426594
 20
10.0514787628
 30
0.0
 10
14.3560741166
 20
10.0431437686
 30
0.0
 10
14.3568055645
 20
10.0348087621
 30
0.0
 10
14.3574150929
 20
10.0278628921
 30
0.0
 10
14.3579027478
 20
10.0223062772
 30
0.0
 10
14.3582074573
 20
10.0188332057
 30
0.0
 10
14.3584513964
 20
10.0160551775
 30
0.0
 10
14.3586338814
 20
10.0139704815
 30
0.0
 10
14.3587874449
 20
10.0122369726
 30
0.0
 10
14.3588920101
 20
10.0110161809
 30
0.0
 10
14.3589563355
 20
10.0103300394
 30
0.0
 10
14.3589916948
 20
10.0097831678
 30
0.0
 10
14.3590763061
 20
10.0093596313
 30
0.0
 10
14.3591719415
 20
10.0087518953
 30
0.0
 10
14.3593473077
 20
10.0077084014
 30
0.0
 10
14.3595936462
 20
10.0062072165
 30
0.0
 10
14.3598910436
 20
10.0044102801
 30
0.0
 10
14.3602869477
 20
10.0020127983
 30
0.0
 10
14.3607820422
 20
9.9990164824
 30
0.0
 10
14.3615740735
 20
9.994222077
 30
0.0
 10
14.3625641541
 20
9.9882291741
 30
0.0
 10
14.3637522319
 20
9.9810376426
 30
0.0
 10
14.364940319
 20
9.9738461368
 30
0.0
 10
14.3659303762
 20
9.9678531698
 30
0.0
 10
14.3667224542
 20
9.9630588925
 30
0.0
 10
14.3672174302
 20
9.9600622513
 30
0.0
 10
14.3676135774
 20
9.9576654371
 30
0.0
 10
14.3679102323
 20
9.9558664611
 30
0.0
 10
14.3681588939
 20
9.9543716575
 30
0.0
 10
14.368330113
 20
9.9533167719
 30
0.0
 10
14.3684323931
 20
9.9527272883
 30
0.0
 10
14.3684965939
 20
9.9522476863
 30
0.0
 10
14.3686086116
 20
9.9519113872
 30
0.0
 10
14.3687412895
 20
9.9514130026
 30
0.0
 10
14.368981247
 20
9.950564119
 30
0.0
 10
14.3693199805
 20
9.9493392521
 30
0.0
 10
14.3697281997
 20
9.9478746236
 30
0.0
 10
14.3702718846
 20
9.9459199652
 30
0.0
 10
14.3709516987
 20
9.9434772655
 30
0.0
 10
14.372039285
 20
9.9395685976
 30
0.0
 10
14.3733988077
 20
9.9346828821
 30
0.0
 10
14.3750302181
 20
9.9288199735
 30
0.0
 10
14.37638973
 20
9.9239342239
 30
0.0
 10
14.3774773403
 20
9.9200256309
 30
0.0
 10
14.3782930436
 20
9.9170941616
 30
0.0
 10
14.3791087643
 20
9.914162787
 30
0.0
 10
14.3797884771
 20
9.9117196798
 30
0.0
 10
14.3803323693
 20
9.9097658549
 30
0.0
 10
14.3807399553
 20
9.9082986806
 30
0.0
 10
14.3810806699
 20
9.9070817787
 30
0.0
 10
14.3813170908
 20
9.9062186762
 30
0.0
 10
14.3814554351
 20
9.9057430738
 30
0.0
 10
14.3815500475
 20
9.9053367952
 30
0.0
 10
14.3816796198
 20
9.9051200245
 30
0.0
 10
14.3818401885
 20
9.9047648944
 30
0.0
 10
14.3821268653
 20
9.9041742152
 30
0.0
 10
14.3825334331
 20
9.9033142859
 30
0.0
 10
14.383022586
 20
9.902289263
 30
0.0
 10
14.3836743456
 20
9.9009201581
 30
0.0
 10
14.3844891976
 20
9.8992096032
 30
0.0
 10
14.3854669547
 20
9.8971565832
 30
0.0
 10
14.3864447292
 20
9.8951036579
 30
0.0
 10
14.3877484225
 20
9.892366391
 30
0.0
 10
14.3893780413
 20
9.8889448198
 30
0.0
 10
14.3910076587
 20
9.8855232402
 30
0.0
 10
14.3923113543
 20
9.8827859867
 30
0.0
 10
14.393289122
 20
9.8807330211
 30
0.0
 10
14.3942669046
 20
9.8786801524
 30
0.0
 10
14.3950816772
 20
9.8769691266
 30
0.0
 10
14.3957335987
 20
9.875600982
 30
0.0
 10
14.3962222574
 20
9.8745730267
 30
0.0
 10
14.3966303712
 20
9.8737222718
 30
0.0
 10
14.3969142883
 20
9.8731152148
 30
0.0
 10
14.3970792787
 20
9.872786326
 30
0.0
 10
14.3971952688
 20
9.8724889506
 30
0.0
 10
14.3973408936
 20
9.8723854098
 30
0.0
 10
14.3975247231
 20
9.8721797438
 30
0.0
 10
14.3978512409
 20
9.8718513297
 30
0.0
 10
14.398315177
 20
9.8713656974
 30
0.0
 10
14.398872978
 20
9.8707899881
 30
0.0
 10
14.3996163362
 20
9.8700199132
 30
0.0
 10
14.4005456632
 20
9.8690581646
 30
0.0
 10
14.4016608002
 20
9.867903704
 30
0.0
 10
14.402775952
 20
9.8667493403
 30
0.0
 10
14.4042628159
 20
9.8652101549
 30
0.0
 10
14.4061213975
 20
9.8632861846
 30
0.0
 10
14.4079799786
 20
9.8613622111
 30
0.0
 10
14.4094668434
 20
9.8598230306
 30
0.0
 10
14.4105819927
 20
9.8586686523
 30
0.0
 10
14.4116971392
 20
9.8575142466
 30
0.0
 10
14.4126264365
 20
9.8565523273
 30
0.0
 10
14.4133698552
 20
9.8557826004
 30
0.0
 10
14.4138345357
 20
9.855301957
 30
0.0
 10
14.4142061796
 20
9.8549164441
 30
0.0
 10
14.4144851877
 20
9.8546300423
 30
0.0
 10
14.4147168191
 20
9.8543826805
 30
0.0
 10
14.4149040875
 20
9.8542042892
 30
0.0
 10
14.4150391742
 20
9.8540172176
 30
0.0
 10
14.4151947374
 20
9.8540335096
 30
0.0
 10
14.4153950023
 20
9.8539841948
 30
0.0
 10
14.4156477875
 20
9.8539469239
 30
0.0
 10
14.4159500793
 20
9.8538917665
 30
0.0
 10
14.4163535019
 20
9.8538218671
 30
0.0
 10
14.4168576545
 20
9.8537332452
 30
0.0
 10
14.4176643689
 20
9.8535921476
 30
0.0
 10
14.4186727378
 20
9.8534155362
 30
0.0
 10
14.4198827909
 20
9.8532037051
 30
0.0
 10
14.4210928411
 20
9.8529918466
 30
0.0
 10
14.4227062425
 20
9.8527093781
 30
0.0
 10
14.4247229938
 20
9.852356289
 30
0.0
 10
14.4267397453
 20
9.8520032023
 30
0.0
 10
14.4283531463
 20
9.85172073
 30
0.0
 10
14.4295631976
 20
9.8515088832
 30
0.0
 10
14.4307732468
 20
9.8512970081
 30
0.0
 10
14.4317816276
 20
9.8511205337
 30
0.0
 10
14.4325883178
 20
9.8509791567
 30
0.0
 10
14.4330925322
 20
9.8508912456
 30
0.0
 10
14.433495828
 20
9.8508198872
 30
0.0
 10
14.433798507
 20
9.8507691875
 30
0.0
 10
14.4340500806
 20
9.8507179695
 30
0.0
 10
14.4342528174
 20
9.8506971093
 30
0.0
 10
14.4344008315
 20
9.8506265025
 30
0.0
 10
14.4345642606
 20
9.8507656854
 30
0.0
 10
14.4347767813
 20
9.8508779803
 30
0.0
 10
14.4350442797
 20
9.8510434918
 30
0.0
 10
14.435364487
 20
9.8512313436
 30
0.0
 10
14.4357917062
 20
9.8514855715
 30
0.0
 10
14.4363256358
 20
9.8518020695
 30
0.0
 10
14.4371799758
 20
9.8523091855
 30
0.0
 10
14.4382478827
 20
9.8529428336
 30
0.0
 10
14.4395293788
 20
9.8537033173
 30
0.0
 10
14.4408108729
 20
9.8544637726
 30
0.0
 10
14.4425195323
 20
9.8554777229
 30
0.0
 10
14.4446553563
 20
9.8567451574
 30
0.0
 10
14.4472183452
 20
9.8582660802
 30
0.0
 10
14.4506356638
 20
9.8602939768
 30
0.0
 10
14.4531986527
 20
9.8618148994
 30
0.0
 10
14.454907312
 20
9.8628288478
 30
0.0
  0
SPLINE
  5
3AE
100
AcDbEntity
  8
0
100
AcDbSpline
 62
4
  6
CONTINUOUS
 70
0
 71
3
 72
301
 73
297
 74
0
 42
0.0000001
 43
0.0000001
 44
0.0000000001
 40
0.0
 40
0.0
 40
0.0
 40
0.0
 40
0.015625
 40
0.0234375
 40
0.03125
 40
0.0390625
 40
0.046875
 40
0.05078125
 40
0.0546875
 40
0.056640625
 40
0.05859375
 40
0.060546875
 40
0.0615234375
 40
0.0620117188
 40
0.0625
 40
0.0629882812
 40
0.0634765625
 40
0.064453125
 40
0.06640625
 40
0.068359375
 40
0.0703125
 40
0.07421875
 40
0.078125
 40
0.0859375
 40
0.09375
 40
0.1015625
 40
0.109375
 40
0.11328125
 40
0.1171875
 40
0.119140625
 40
0.12109375
 40
0.123046875
 40
0.1240234375
 40
0.1245117188
 40
0.125
 40
0.1254882812
 40
0.1259765625
 40
0.126953125
 40
0.12890625
 40
0.130859375
 40
0.1328125
 40
0.13671875
 40
0.140625
 40
0.1484375
 40
0.15625
 40
0.1640625
 40
0.171875
 40
0.17578125
 40
0.1796875
 40
0.181640625
 40
0.18359375
 40
0.185546875
 40
0.1865234375
 40
0.1870117188
 40
0.1875
 40
0.1879882812
 40
0.1884765625
 40
0.189453125
 40
0.19140625
 40
0.193359375
 40
0.1953125
 40
0.19921875
 40
0.203125
 40
0.2109375
 40
0.21875
 40
0.2265625
 40
0.234375
 40
0.23828125
 40
0.2421875
 40
0.24609375
 40
0.248046875
 40
0.2490234375
 40
0.25
 40
0.2509765625
 40
0.251953125
 40
0.25390625
 40
0.2578125
 40
0.26171875
 40
0.265625
 40
0.2734375
 40
0.28125
 40
0.2890625
 40
0.296875
 40
0.30078125
 40
0.3046875
 40
0.30859375
 40
0.310546875
 40
0.3115234375
 40
0.3125
 40
0.3134765625
 40
0.314453125
 40
0.31640625
 40
0.3203125
 40
0.32421875
 40
0.328125
 40
0.3359375
 40
0.34375
 40
0.3515625
 40
0.359375
 40
0.36328125
 40
0.3671875
 40
0.37109375
 40
0.373046875
 40
0.3740234375
 40
0.375
 40
0.3759765625
 40
0.376953125
 40
0.37890625
 40
0.3828125
 40
0.38671875
 40
0.390625
 40
0.3984375
 40
0.40625
 40
0.4140625
 40
0.421875
 40
0.42578125
 40
0.4296875
 40
0.43359375
 40
0.435546875
 40
0.4375
 40
0.439453125
 40
0.44140625
 40
0.4453125
 40
0.44921875
 40
0.453125
 40
0.4609375
 40
0.46875
 40
0.4765625
 40
0.484375
 40
0.48828125
 40
0.4921875
 40
0.49609375
 40
0.498046875
 40
0.4990234375
 40
0.5
 40
0.5009765625
 40
0.501953125
 40
0.50390625
 40
0.5078125
 40
0.51171875
 40
0.515625
 40
0.5234375
 40
0.53125
 40
0.5390625
 40
0.546875
 40
0.55078125
 40
0.5546875
 40
0.556640625
 40
0.55859375
 40
0.560546875
 40
0.5615234375
 40
0.5625
 40
0.5634765625
 40
0.564453125
 40
0.56640625
 40
0.568359375
 40
0.5703125
 40
0.57421875
 40
0.578125
 40
0.5859375
 40
0.59375
 40
0.6015625
 40
0.609375
 40
0.61328125
 40
0.6171875
 40
0.619140625
 40
0.62109375
 40
0.623046875
 40
0.6240234375
 40
0.6245117188
 40
0.625
 40
0.6254882812
 40
0.6259765625
 40
0.626953125
 40
0.62890625
 40
0.630859375
 40
0.6328125
 40
0.63671875
 40
0.640625
 40
0.6484375
 40
0.65625
 40
0.6640625
 40
0.671875
 40
0.67578125
 40
0.6796875
 40
0.681640625
 40
0.68359375
 40
0.685546875
 40
0.6865234375
 40
0.6870117188
 40
0.6875
 40
0.6879882812
 40
0.6884765625
 40
0.689453125
 40
0.69140625
 40
0.693359375
 40
0.6953125
 40
0.69921875
 40
0.703125
 40
0.7109375
 40
0.71875
 40
0.7265625
 40
0.73046875
 40
0.734375
 40
0.73828125
 40
0.7421875
 40
0.744140625
 40
0.74609375
 40
0.748046875
 40
0.7490234375
 40
0.7495117188
 40
0.75
 40
0.7504882812
 40
0.7509765625
 40
0.751953125
 40
0.75390625
 40
0.755859375
 40
0.7578125
 40
0.76171875
 40
0.765625
 40
0.76953125
 40
0.7734375
 40
0.78125
 40
0.7890625
 40
0.79296875
 40
0.796875
 40
0.80078125
 40
0.8046875
 40
0.806640625
 40
0.80859375
 40
0.810546875
 40
0.8115234375
 40
0.8120117188
 40
0.8125
 40
0.8129882812
 40
0.8134765625
 40
0.814453125
 40
0.81640625
 40
0.818359375
 40
0.8203125
 40
0.82421875
 40
0.828125
 40
0.83203125
 40
0.8359375
 40
0.84375
 40
0.8515625
 40
0.85546875
 40
0.859375
 40
0.86328125
 40
0.8671875
 40
0.869140625
 40
0.87109375
 40
0.8720703125
 40
0.873046875
 40
0.8740234375
 40
0.8745117188
 40
0.875
 40
0.8754882812
 40
0.8759765625
 40
0.876953125
 40
0.8779296875
 40
0.87890625
 40
0.880859375
 40
0.8828125
 40
0.88671875
 40
0.890625
 40
0.89453125
 40
0.8984375
 40
0.90625
 40
0.9140625
 40
0.91796875
 40
0.921875
 40
0.92578125
 40
0.9296875
 40
0.931640625
 40
0.93359375
 40
0.9345703125
 40
0.935546875
 40
0.9365234375
 40
0.9370117188
 40
0.9375
 40
0.9379882812
 40
0.9384765625
 40
0.939453125
 40
0.9404296875
 40
0.94140625
 40
0.943359375
 40
0.9453125
 40
0.94921875
 40
0.953125
 40
0.95703125
 40
0.9609375
 40
0.96875
 40
0.9765625
 40
0.984375
 40
1.0
 40
1.0
 40
1.0
 40
1.0
 10
14.4549073029
 20
9.862828839
 30
0.0
 10
14.4565863712
 20
9.8650651179
 30
0.0
 10
14.4591049738
 20
9.8684195358
 30
0.0
 10
14.4624631103
 20
9.8728920948
 30
0.0
 10
14.464981713
 20
9.8762465094
 30
0.0
 10
14.4675003147
 20
9.8796009417
 30
0.0
 10
14.4695991526
 20
9.8823962468
 30
0.0
 10
14.4712782159
 20
9.8846326143
 30
0.0
 10
14.4723276463
 20
9.8860300629
 30
0.0
 10
14.4731671545
 20
9.8871486657
 30
0.0
 10
14.4737968843
 20
9.8879858549
 30
0.0
 10
14.4743213455
 20
9.8886891203
 30
0.0
 10
14.4746890838
 20
9.8891704011
 30
0.0
 10
14.474898259
 20
9.8894626021
 30
0.0
 10
14.4750578473
 20
9.8896333471
 30
0.0
 10
14.4752070885
 20
9.8899891232
 30
0.0
 10
14.475409686
 20
9.8903989504
 30
0.0
 10
14.4757625499
 20
9.8911462188
 30
0.0
 10
14.4762675204
 20
9.8921980238
 30
0.0
 10
14.4768731086
 20
9.8934669191
 30
0.0
 10
14.4776806911
 20
9.895156429
 30
0.0
 10
14.4786901242
 20
9.8972691212
 30
0.0
 10
14.4803052423
 20
9.9006489787
 30
0.0
 10
14.4823241312
 20
9.904873956
 30
0.0
 10
14.4847468021
 20
9.9099438582
 30
0.0
 10
14.48716947
 20
9.9150137939
 30
0.0
 10
14.4891883663
 20
9.9192386874
 30
0.0
 10
14.4908034697
 20
9.9226187126
 30
0.0
 10
14.4918129401
 20
9.9247309788
 30
0.0
 10
14.4926204459
 20
9.9264213631
 30
0.0
 10
14.4932262686
 20
9.9276875869
 30
0.0
 10
14.4937305056
 20
9.9287477499
 30
0.0
 10
14.4940846789
 20
9.9294800979
 30
0.0
 10
14.4942851784
 20
9.9299138315
 30
0.0
 10
14.4944408638
 20
9.9301961749
 30
0.0
 10
14.4945762489
 20
9.9306427208
 30
0.0
 10
14.4947638434
 20
9.9311808396
 30
0.0
 10
14.4950888346
 20
9.9321492333
 30
0.0
 10
14.4955548325
 20
9.9335187013
 30
0.0
 10
14.4961132918
 20
9.9351680346
 30
0.0
 10
14.496858162
 20
9.9373650598
 30
0.0
 10
14.4977891615
 20
9.9401120556
 30
0.0
 10
14.49927881
 20
9.9445068495
 30
0.0
 10
14.5011408536
 20
9.9500004798
 30
0.0
 10
14.5033753138
 20
9.9565927734
 30
0.0
 10
14.5056097696
 20
9.9631850974
 30
0.0
 10
14.5074718243
 20
9.9686786515
 30
0.0
 10
14.5089614506
 20
9.9730735979
 30
0.0
 10
14.5098925066
 20
9.9758202063
 30
0.0
 10
14.5106372609
 20
9.9780180265
 30
0.0
 10
14.5111960745
 20
9.979664931
 30
0.0
 10
14.5116609638
 20
9.9810419981
 30
0.0
 10
14.511987934
 20
9.9819968261
 30
0.0
 10
14.5121723576
 20
9.9825566806
 30
0.0
 10
14.5123174828
 20
9.9829364615
 30
0.0
 10
14.5124365861
 20
9.9834695628
 30
0.0
 10
14.5126044673
 20
9.9841268847
 30
0.0
 10
14.5128940303
 20
9.9853021152
 30
0.0
 10
14.5133099027
 20
9.9869679889
 30
0.0
 10
14.5138080032
 20
9.9889726133
 30
0.0
 10
14.5144724677
 20
9.9916434982
 30
0.0
 10
14.5153029352
 20
9.9949827714
 30
0.0
 10
14.5166317468
 20
10.000325235
 30
0.0
 10
14.518292737
 20
10.0070034478
 30
0.0
 10
14.5202859461
 20
10.0150172235
 30
0.0
 10
14.5222791109
 20
10.0230311044
 30
0.0
 10
14.523940212
 20
10.0297090542
 30
0.0
 10
14.5252688018
 20
10.0350520437
 30
0.0
 10
14.5262660393
 20
10.0390575675
 30
0.0
 10
14.5270945412
 20
10.0424009693
 30
0.0
 10
14.5276794564
 20
10.0447306253
 30
0.0
 10
14.5280059429
 20
10.0460786038
 30
0.0
 10
14.5282726417
 20
10.0470424124
 30
0.0
 10
14.5284558802
 20
10.0481865489
 30
0.0
 10
14.52872931
 20
10.0496491639
 30
0.0
 10
14.5291942485
 20
10.0522380464
 30
0.0
 10
14.5298655376
 20
10.0559211283
 30
0.0
 10
14.5306680492
 20
10.060347385
 30
0.0
 10
14.5317391253
 20
10.0662467691
 30
0.0
 10
14.5330776039
 20
10.0736217893
 30
0.0
 10
14.5346839463
 20
10.0824714579
 30
0.0
 10
14.5362902025
 20
10.0913212851
 30
0.0
 10
14.5376288968
 20
10.098695909
 30
0.0
 10
14.5386995415
 20
10.1045960857
 30
0.0
 10
14.5395033689
 20
10.1090199249
 30
0.0
 10
14.5401705417
 20
10.1127105697
 30
0.0
 10
14.5406428284
 20
10.1152859514
 30
0.0
 10
14.5409044845
 20
10.1167701981
 30
0.0
 10
14.5411238882
 20
10.1178478887
 30
0.0
 10
14.5412547564
 20
10.119061257
 30
0.0
 10
14.5414601295
 20
10.1206317556
 30
0.0
 10
14.5418051438
 20
10.123402178
 30
0.0
 10
14.5423055439
 20
10.1273483963
 30
0.0
 10
14.5429028041
 20
10.1320887928
 30
0.0
 10
14.5437002761
 20
10.1384075975
 30
0.0
 10
14.5446967273
 20
10.1463066965
 30
0.0
 10
14.5458926478
 20
10.1557853538
 30
0.0
 10
14.5470884744
 20
10.1652641082
 30
0.0
 10
14.54808516
 20
10.1731629646
 30
0.0
 10
14.5488821633
 20
10.1794822546
 30
0.0
 10
14.5494808532
 20
10.1842211709
 30
0.0
 10
14.5499767804
 20
10.1881720196
 30
0.0
 10
14.5503297796
 20
10.1909341762
 30
0.0
 10
14.5505223589
 20
10.1925179187
 30
0.0
 10
14.5506925256
 20
10.1936906059
 30
0.0
 10
14.5507643307
 20
10.1949210881
 30
0.0
 10
14.5508943805
 20
10.1965415716
 30
0.0
 10
14.5511059821
 20
10.1993868103
 30
0.0
 10
14.5514166275
 20
10.2034465265
 30
0.0
 10
14.551785825
 20
10.2083202878
 30
0.0
 10
14.5522793366
 20
10.2148179022
 30
0.0
 10
14.5528958061
 20
10.2229401709
 30
0.0
 10
14.553635713
 20
10.2326867908
 30
0.0
 10
14.5543757183
 20
10.2424334196
 30
0.0
 10
14.5549919416
 20
10.2505556659
 30
0.0
 10
14.5554859456
 20
10.257053325
 30
0.0
 10
14.5558536414
 20
10.26192695
 30
0.0
 10
14.5561689845
 20
10.2659870926
 30
0.0
 10
14.5564012308
 20
10.269237924
 30
0.0
 10
14.5566301423
 20
10.2716686228
 30
0.0
 10
14.5566501607
 20
10.2741276617
 30
0.0
 10
14.5567498209
 20
10.2773964806
 30
0.0
 10
14.556849361
 20
10.2814859009
 30
0.0
 10
14.5569795249
 20
10.2863917512
 30
0.0
 10
14.557149334
 20
10.2929333934
 30
0.0
 10
14.5573628766
 20
10.3011102677
 30
0.0
 10
14.5576185919
 20
10.3109226109
 30
0.0
 10
14.5578744007
 20
10.3207348635
 30
0.0
 10
14.5580877098
 20
10.3289119642
 30
0.0
 10
14.5582579859
 20
10.3354531537
 30
0.0
 10
14.5583867254
 20
10.3403603847
 30
0.0
 10
14.5584907216
 20
10.3444454858
 30
0.0
 10
14.5585699694
 20
10.3473134126
 30
0.0
 10
14.5586051819
 20
10.3489391807
 30
0.0
 10
14.5586599643
 20
10.3501952611
 30
0.0
 10
14.5586062905
 20
10.3513108478
 30
0.0
 10
14.5585725562
 20
10.3528473025
 30
0.0
 10
14.5584958952
 20
10.3555132655
 30
0.0
 10
14.5583955945
 20
10.3593337213
 30
0.0
 10
14.5582712894
 20
10.3639131588
 30
0.0
 10
14.5581069268
 20
10.3700208601
 30
0.0
 10
14.5579010017
 20
10.3776548756
 30
0.0
 10
14.5576540904
 20
10.3868159503
 30
0.0
 10
14.5574071389
 20
10.3959769786
 30
0.0
 10
14.5572013144
 20
10.40361111
 30
0.0
 10
14.5570367506
 20
10.4097185795
 30
0.0
 10
14.5569336746
 20
10.4135353664
 30
0.0
 10
14.5568517267
 20
10.4165896706
 30
0.0
 10
14.556788861
 20
10.4188780037
 30
0.0
 10
14.5567409418
 20
10.4207925668
 30
0.0
 10
14.5566925836
 20
10.4223071296
 30
0.0
 10
14.556683702
 20
10.4234897435
 30
0.0
 10
14.5565702838
 20
10.424494134
 30
0.0
 10
14.5564555756
 20
10.425895577
 30
0.0
 10
14.5562996619
 20
10.4276260212
 30
0.0
 10
14.556117928
 20
10.4297116968
 30
0.0
 10
14.5558737431
 20
10.4324894043
 30
0.0
 10
14.5555691533
 20
10.435962632
 30
0.0
 10
14.5550814513
 20
10.4415191854
 30
0.0
 10
14.5544719465
 20
10.4484650862
 30
0.0
 10
14.5537404892
 20
10.4568000804
 30
0.0
 10
14.5530090414
 20
10.4651350869
 30
0.0
 10
14.552399513
 20
10.4720809569
 30
0.0
 10
14.5519118581
 20
10.4776375718
 30
0.0
 10
14.5516071485
 20
10.4811106433
 30
0.0
 10
14.5513632095
 20
10.4838886714
 30
0.0
 10
14.5511807244
 20
10.4859733675
 30
0.0
 10
14.5510271609
 20
10.4877068764
 30
0.0
 10
14.5509225957
 20
10.4889276681
 30
0.0
 10
14.5508582703
 20
10.4896138095
 30
0.0
 10
14.550822911
 20
10.4901606811
 30
0.0
 10
14.5507382997
 20
10.4905842177
 30
0.0
 10
14.5506426643
 20
10.4911919537
 30
0.0
 10
14.5504672981
 20
10.4922354476
 30
0.0
 10
14.5502209596
 20
10.4937366325
 30
0.0
 10
14.5499235623
 20
10.4955335689
 30
0.0
 10
14.5495276581
 20
10.4979310507
 30
0.0
 10
14.5490325636
 20
10.5009273666
 30
0.0
 10
14.5482405323
 20
10.5057217719
 30
0.0
 10
14.5472504517
 20
10.5117146749
 30
0.0
 10
14.546062374
 20
10.5189062063
 30
0.0
 10
14.5448742868
 20
10.5260977122
 30
0.0
 10
14.5438842296
 20
10.5320906791
 30
0.0
 10
14.5430921516
 20
10.5368849565
 30
0.0
 10
14.5425971756
 20
10.5398815976
 30
0.0
 10
14.5422010284
 20
10.5422784119
 30
0.0
 10
14.5419043735
 20
10.5440773879
 30
0.0
 10
14.541655712
 20
10.5455721914
 30
0.0
 10
14.5414844928
 20
10.5466270771
 30
0.0
 10
14.5413822127
 20
10.5472165607
 30
0.0
 10
14.5413180119
 20
10.5476961626
 30
0.0
 10
14.5412059942
 20
10.5480324618
 30
0.0
 10
14.5410733163
 20
10.5485308463
 30
0.0
 10
14.5408333589
 20
10.54937973
 30
0.0
 10
14.5404946254
 20
10.5506045969
 30
0.0
 10
14.5400864061
 20
10.5520692254
 30
0.0
 10
14.5395427212
 20
10.5540238838
 30
0.0
 10
14.5388629071
 20
10.5564665835
 30
0.0
 10
14.5377753208
 20
10.5603752513
 30
0.0
 10
14.5364157981
 20
10.5652609669
 30
0.0
 10
14.5347843877
 20
10.5711238755
 30
0.0
 10
14.5334248759
 20
10.5760096251
 30
0.0
 10
14.5323372655
 20
10.5799182181
 30
0.0
 10
14.5315215623
 20
10.5828496873
 30
0.0
 10
14.5307058415
 20
10.5857810619
 30
0.0
 10
14.5300261287
 20
10.5882241692
 30
0.0
 10
14.5294822365
 20
10.5901779941
 30
0.0
 10
14.5290746505
 20
10.5916451684
 30
0.0
 10
14.5287339359
 20
10.5928620703
 30
0.0
 10
14.528497515
 20
10.5937251728
 30
0.0
 10
14.5283591707
 20
10.5942007751
 30
0.0
 10
14.5282645583
 20
10.5946070538
 30
0.0
 10
14.528134986
 20
10.5948238245
 30
0.0
 10
14.5279744173
 20
10.5951789545
 30
0.0
 10
14.5276877406
 20
10.5957696338
 30
0.0
 10
14.5272811727
 20
10.596629563
 30
0.0
 10
14.5267920199
 20
10.597654586
 30
0.0
 10
14.5261402602
 20
10.5990236908
 30
0.0
 10
14.5253254082
 20
10.6007342458
 30
0.0
 10
14.5243476511
 20
10.6027872658
 30
0.0
 10
14.5233698766
 20
10.6048401911
 30
0.0
 10
14.5220661833
 20
10.607577458
 30
0.0
 10
14.5204365645
 20
10.6109990292
 30
0.0
 10
14.5188069471
 20
10.6144206088
 30
0.0
 10
14.5175032516
 20
10.6171578623
 30
0.0
 10
14.5165254838
 20
10.6192108279
 30
0.0
 10
14.5155477013
 20
10.6212636966
 30
0.0
 10
14.5147329286
 20
10.6229747224
 30
0.0
 10
14.5140810072
 20
10.624342867
 30
0.0
 10
14.5135923484
 20
10.6253708223
 30
0.0
 10
14.5131842347
 20
10.6262215772
 30
0.0
 10
14.5129003176
 20
10.6268286342
 30
0.0
 10
14.5127353272
 20
10.627157523
 30
0.0
 10
14.512619337
 20
10.6274548984
 30
0.0
 10
14.5124737122
 20
10.6275584392
 30
0.0
 10
14.5122898827
 20
10.6277641052
 30
0.0
 10
14.5119633649
 20
10.6280925193
 30
0.0
 10
14.5114994289
 20
10.6285781516
 30
0.0
 10
14.5109416278
 20
10.6291538609
 30
0.0
 10
14.5101982696
 20
10.6299239358
 30
0.0
 10
14.5092689426
 20
10.6308856844
 30
0.0
 10
14.5081538056
 20
10.632040145
 30
0.0
 10
14.5070386538
 20
10.6331945087
 30
0.0
 10
14.5055517899
 20
10.634733694
 30
0.0
 10
14.5036932083
 20
10.6366576644
 30
0.0
 10
14.5018346272
 20
10.6385816379
 30
0.0
 10
14.5003477624
 20
10.6401208184
 30
0.0
 10
14.4992326132
 20
10.6412751967
 30
0.0
 10
14.4981174667
 20
10.6424296024
 30
0.0
 10
14.4971881693
 20
10.6433915217
 30
0.0
 10
14.4964447507
 20
10.6441612485
 30
0.0
 10
14.4959800702
 20
10.644641892
 30
0.0
 10
14.4956084262
 20
10.6450274049
 30
0.0
 10
14.4953294181
 20
10.6453138067
 30
0.0
 10
14.4950977867
 20
10.6455611685
 30
0.0
 10
14.4949105184
 20
10.6457395597
 30
0.0
 10
14.4947754316
 20
10.6459266314
 30
0.0
 10
14.4946198684
 20
10.6459103393
 30
0.0
 10
14.4944196035
 20
10.6459596542
 30
0.0
 10
14.4941668184
 20
10.6459969251
 30
0.0
 10
14.4938645266
 20
10.6460520825
 30
0.0
 10
14.493461104
 20
10.6461219819
 30
0.0
 10
14.4929569514
 20
10.6462106037
 30
0.0
 10
14.4921502369
 20
10.6463517014
 30
0.0
 10
14.491141868
 20
10.6465283128
 30
0.0
 10
14.489931815
 20
10.6467401439
 30
0.0
 10
14.4887217647
 20
10.6469520024
 30
0.0
 10
14.4871083634
 20
10.6472344708
 30
0.0
 10
14.4850916121
 20
10.64758756
 30
0.0
 10
14.4830748605
 20
10.6479406467
 30
0.0
 10
14.4814614595
 20
10.648223119
 30
0.0
 10
14.4802514082
 20
10.6484349658
 30
0.0
 10
14.479041359
 20
10.6486468409
 30
0.0
 10
14.4780329782
 20
10.6488233153
 30
0.0
 10
14.4772262881
 20
10.6489646923
 30
0.0
 10
14.4767220737
 20
10.6490526033
 30
0.0
 10
14.4763187778
 20
10.6491239618
 30
0.0
 10
14.4760160988
 20
10.6491746615
 30
0.0
 10
14.4757645252
 20
10.6492258795
 30
0.0
 10
14.4755617884
 20
10.6492467396
 30
0.0
 10
14.4754137743
 20
10.6493173465
 30
0.0
 10
14.4752503453
 20
10.6491781636
 30
0.0
 10
14.4750378245
 20
10.6490658687
 30
0.0
 10
14.4747703261
 20
10.6489003572
 30
0.0
 10
14.4744501188
 20
10.6487125054
 30
0.0
 10
14.4740228996
 20
10.6484582774
 30
0.0
 10
14.4734889701
 20
10.6481417795
 30
0.0
 10
14.47263463
 20
10.6476346635
 30
0.0
 10
14.4715667231
 20
10.6470010153
 30
0.0
 10
14.470285227
 20
10.6462405317
 30
0.0
 10
14.469003733
 20
10.6454800764
 30
0.0
 10
14.4672950735
 20
10.6444661261
 30
0.0
 10
14.4651592495
 20
10.6431986916
 30
0.0
 10
14.4625962606
 20
10.6416777687
 30
0.0
 10
14.459178942
 20
10.6396498721
 30
0.0
 10
14.4566159531
 20
10.6381289496
 30
0.0
 10
14.4549072938
 20
10.6371150012
 30
0.0
  0
ENDSEC
  0
SECTION
  2
OBJECTS
  0
DICTIONARY
  5
C
100
AcDbDictionary
280
0
281
1
  3
ACAD_GROUP
350
D
  3
ACAD_MLINESTYLE
350
17
  3
ACAD_LAYOUT
350
1A
  3
ACAD_PLOTSETTINGS
350
19
  3
ACAD_PLOTSTYLENAME
350
E
  3
ACAD_IMAGE_DICT
350
       3B0
  3
ACAD_IMAGE_VARS
350
       3B1
  3
ACAD_TABLESTYLE
350
       3B2
  0
IMAGEDEF_REACTOR
  5
3AF
100
AcDbRasterImageDefReactor
 90
2
330
27C
  0
DICTIONARY
  5
D
102
{ACAD_REACTORS
330
C
102
}
100
AcDbDictionary
280
0
281
1
  0
ACDBDICTIONARYWDFLT
  5
E
102
{ACAD_REACTORS
330
C
102
}
100
AcDbDictionary
281
1
  3
Normal
350
F
100
AcDbDictionaryWithDefault
340
F
  0
DICTIONARY
  5
3B0
330
C
100
AcDbDictionary
281
1
  3
WCZ_assy_2_img_1
350
       3B5
  0
RASTERVARIABLES
  5
3B1
330
C
100
AcDbRasterVariables
 90
0
 70
0
 71
1
 72
5
  0
DICTIONARY
  5
17
102
{ACAD_REACTORS
330
C
102
}
100
AcDbDictionary
280
0
281
1
  3
Standard
350
18
  0
DICTIONARY
  5
3B2
330
C
100
AcDbDictionary
281
1
  3
Standard
350
       3B6
  3
Standard1
350
       3B7
  0
DICTIONARY
  5
19
102
{ACAD_REACTORS
330
C
102
}
100
AcDbDictionary
281
1
  0
DICTIONARY
  5
1A
102
{ACAD_REACTORS
330
C
102
}
100
AcDbDictionary
281
1
  3
Model
350
3B3
  3
Layout1
350
3B4
  0
ACDBPLACEHOLDER
  5
F
102
{ACAD_REACTORS
330
E
102
}
  0
MLINESTYLE
  5
18
102
{ACAD_REACTORS
330
17
102
}
100
AcDbMlineStyle
  2
STANDARD
 70
0
  3

 62
256
 51
90.0
 52
90.0
 71
2
 49
0.5
 62
256
  6
BYLAYER
 49
-0.5
 62
256
  6
BYLAYER
  0
LAYOUT
  5
3B3
102
{ACAD_REACTORS
330
1A
102
}
100
AcDbPlotSettings
  1

  2
none_device
  4
ANSI_C_(22.00_x_17.00_Inches)
  6

 40
0.0
 41
0.0
 42
0.0
 43
0.0
 44
558.8
 45
431.8
 46
0.0
 47
0.0
 48
0.0
 49
0.0
140
0.0
141
0.0
142
1.0
143
1.0
 70
1024
 72
0
 73
0
 74
0
  7

 75
0
147
1.0
148
0.0
149
0.0
100
AcDbLayout
  1
Model
 70
0
 71
0
 10
0.0
 20
0.0
 11
22.0
 21
17.0
 12
0.0
 22
0.0
 32
0.0
 14
0.0
 24
0.0
 34
0.0
 15
0.0
 25
0.0
 35
0.0
146
0.0
 13
0.0
 23
0.0
 33
0.0
 16
1.0
 26
0.0
 36
0.0
 17
0.0
 27
1.0
 37
0.0
 76
0
330
207
345
0
346
0
  0
LAYOUT
  5
3B4
102
{ACAD_REACTORS
330
1A
102
}
100
AcDbPlotSettings
  1

  2
none_device
  4
ANSI_C_(22.00_x_17.00_Inches)
  6

 40
0.0
 41
0.0
 42
0.0
 43
0.0
 44
558.8
 45
431.8
 46
0.0
 47
0.0
 48
0.0
 49
0.0
140
0.0
141
0.0
142
1.0
143
1.0
 70
0
 72
0
 73
0
 74
0
  7

 75
0
147
1.0
148
0.0
149
0.0
100
AcDbLayout
  1
Layout1
 70
0
 71
1
 10
0.0
 20
0.0
 11
22.0
 21
17.0
 12
0.0
 22
0.0
 32
0.0
 14
0.0
 24
0.0
 34
0.0
 15
0.0
 25
0.0
 35
0.0
146
0.0
 13
0.0
 23
0.0
 33
0.0
 16
1.0
 26
0.0
 36
0.0
 17
0.0
 27
1.0
 37
0.0
 76
0
330
208
345
0
346
0
  0
IMAGEDEF
  5
3B5
102
{ACAD_REACTORS
330
3B0
330
3AF
102
}
100
AcDbRasterImageDef
 90
0
  1
WCZ_assy_2_img_1.png
 10
369.0
 20
92.0
 11
0.0066666667
 21
0.0066666667
280
1
281
0
  0
TABLESTYLE
  5
3B6
102
{ACAD_REACTORS
330
3B2
330
27F
330
280
102
}
330
3B2
100
AcDbTableStyle
  3
Standard
 70
0
 71
0
 40
0.06
 41
0.06
280
1
281
1
  7
Standard
140
0.18
170
1
 62
0
 63
7
283
0
  7
Standard
140
0.18
170
1
 62
0
 63
7
283
0
  7
Standard
140
0.18
170
1
 62
0
 63
7
283
0
  0
TABLESTYLE
  5
3B7
102
{ACAD_REACTORS
330
3B2
330
27E
102
}
330
3B2
100
AcDbTableStyle
  3
Standard1
 70
1
 71
0
 40
0.06
 41
0.06
280
1
281
1
  7
Standard
140
0.18
170
1
 62
0
 63
7
283
0
  7
Standard
140
0.18
170
1
 62
0
 63
7
283
0
  7
Standard
140
0.18
170
1
 62
0
 63
7
283
0
  0
ENDSEC
  0
EOF
