999
DXF file: WCG_assy_2.dxf
999
Pro/ENGINEER 2014200 by Parametric Technology Corporation
  0
SECTION
  2
HEADER
  9
$ACADVER
  1
AC1021
  9
$DWGCODEPAGE
  3
ANSI_1252
  9
$EXTMAX
 10
22.0
 20
17.0
 30
0.0
  9
$EXTMIN
 10
0.0
 20
0.0
 30
0.0
  9
$LIMMIN
 10
0.0
 20
0.0
  9
$LIMMAX
 10
22.0
 20
17.0
  9
$VIEWCTR
 10
11.0
 20
8.5
  9
$VIEWSIZE
 40
17.0
  9
$CLAYER
  8
0
  9
$LTSCALE
 40
1.21
  9
$CELTYPE
  6
BYLAYER
  9
$DIMSCALE
 40
1.0
  9
$DIMASZ
 40
0.1875
  9
$DIMEXO
 40
0.0625
  9
$DIMDLI
 40
0.836
  9
$DIMEXE
 40
0.125
  9
$DIMCEN
 40
0.198
  9
$DIMLFAC
 40
1.0
  9
$DIMBLK
  1
_FILLED
  9
$DIMTXT
 40
0.1
  9
$DIMTOL
 70
0
  9
$DIMLIM
 70
0
  9
$DIMTFAC
 40
1.0
  9
$DIMGAP
 40
0.09
  9
$DIMDSEP
 70
46
  9
$AUNITS
 70
0
  9
$PDMODE
 70
3
  9
$PDSIZE
 40
0.3125
  9
$HANDSEED
  5
3A8
  9
$TILEMODE
 70
1
  9
$MEASUREMENT
 70
0
  9
$INSUNITS
 70
1
  0
ENDSEC
  0
SECTION
  2
CLASSES
  0
CLASS
  1
ACDBDICTIONARYWDFLT
  2
AcDbDictionaryWithDefault
  3
AutoCAD 2000
 90
0
 91
1
280
0
281
0
  0
CLASS
  1
ACDBPLACEHOLDER
  2
AcDbPlaceHolder
  3
AutoCAD 2000
 90
0
 91
1
280
0
281
0
  0
CLASS
  1
LAYOUT
  2
AcDbLayout
  3
AutoCAD 2000
 90
0
 91
0
280
0
281
0
  0
CLASS
  1
RASTERVARIABLES
  2
AcDbRasterVariables
  3
ISM
 90
0
 91
1
280
0
281
0
  0
CLASS
  1
IMAGEDEF
  2
AcDbRasterImageDef
  3
ISM
 90
0
 91
1
280
0
281
0
  0
CLASS
  1
IMAGEDEF_REACTOR
  2
AcDbRasterImageDefReactor
  3
ISM
 90
0
 91
1
280
0
281
0
  0
CLASS
  1
IMAGE
  2
AcDbRasterImage
  3
ISM
 90
127
 91
1
280
0
281
1
  0
CLASS
  1
TABLESTYLE
  2
AcDbTableStyle
  3
ObjectDBX Classes
 90
2047
 91
1
280
0
281
0
  0
CLASS
  1
ACAD_TABLE
  2
AcDbTable
  3
ObjectDBX Classes
 90
1025
 91
3
280
0
281
1
  0
ENDSEC
  0
SECTION
  2
TABLES
  0
TABLE
  2
VPORT
  5
8
100
AcDbSymbolTable
 70
2
  0
VPORT
  5
1F4
100
AcDbSymbolTableRecord
100
AcDbViewportTableRecord
  2
*ACTIVE
 70
0
 10
0.0
 20
0.0
 11
1.0
 21
1.0
 12
11.0
 22
8.5
 13
0.0
 23
0.0
 14
1.0
 24
1.0
 15
0.0
 25
0.0
 16
0.0
 26
0.0
 36
1.0
 17
0.0
 27
0.0
 37
0.0
 40
17.0
 41
1.2941176471
 42
50.0
 43
0.0
 44
0.0
 50
0.0
 51
0.0
 71
0
 72
100
 73
1
 74
1
 75
0
 76
0
 77
0
 78
0
  0
ENDTAB
  0
TABLE
  2
LTYPE
  5
5
100
AcDbSymbolTable
 70
6
  0
LTYPE
  5
14
100
AcDbSymbolTableRecord
100
AcDbLinetypeTableRecord
  2
BYBLOCK
 70
0
  3

 72
65
 73
0
 40
0.0
  0
LTYPE
  5
15
100
AcDbSymbolTableRecord
100
AcDbLinetypeTableRecord
  2
BYLAYER
 70
0
  3

 72
65
 73
0
 40
0.0
  0
LTYPE
  5
16
100
AcDbSymbolTableRecord
100
AcDbLinetypeTableRecord
  2
CONTINUOUS
 70
64
  3
Solid line
 72
65
 73
0
 40
0.0
  0
LTYPE
  5
1F5
100
AcDbSymbolTableRecord
100
AcDbLinetypeTableRecord
  2
CENTER
 70
64
  3
____ _ ____ _ ____ _ ____ _ ____ _ ____ _ ____
 72
65
 73
4
 40
0.6
 49
0.375
 74
0
 49
-0.075
 74
0
 49
0.075
 74
0
 49
-0.075
 74
0
  0
LTYPE
  5
1F6
100
AcDbSymbolTableRecord
100
AcDbLinetypeTableRecord
  2
HIDDEN
 70
64
  3
- - - - - - - - - - - - - - - - - - - -
 72
65
 73
2
 40
0.2
 49
0.1
 74
0
 49
-0.1
 74
0
  0
LTYPE
  5
1F7
100
AcDbSymbolTableRecord
100
AcDbLinetypeTableRecord
  2
PHANTOM
 70
64
  3
_____ _ _ _____ _ _ _____ _ _ _____
 72
65
 73
6
 40
0.8
 49
0.45
 74
0
 49
-0.05
 74
0
 49
0.1
 74
0
 49
-0.05
 74
0
 49
0.1
 74
0
 49
-0.05
 74
0
  0
LTYPE
  5
1F8
100
AcDbSymbolTableRecord
100
AcDbLinetypeTableRecord
  2
DOT
 70
64
  3
. . . . . . . . . . . . . . . . . . . .
 72
65
 73
2
 40
0.2
 49
0.1
 74
0
 49
-0.1
 74
0
  0
LTYPE
  5
1F9
100
AcDbSymbolTableRecord
100
AcDbLinetypeTableRecord
  2
DASHED
 70
64
  3
- - - - - - - - - - - - - - - - - - - -
 72
65
 73
2
 40
0.2
 49
0.1
 74
0
 49
-0.1
 74
0
  0
ENDTAB
  0
TABLE
  2
LAYER
  5
2
100
AcDbSymbolTable
 70
36
  0
LAYER
  5
10
100
AcDbSymbolTableRecord
100
AcDbLayerTableRecord
  2
0
 70
0
 62
7
  6
CONTINUOUS
370
-3
390
F
  0
LAYER
  5
1FA
100
AcDbSymbolTableRecord
100
AcDbLayerTableRecord
  2
DEFAULT_1
 70
0
 62
7
  6
CENTER
370
-3
390
F
  0
LAYER
  5
1FB
100
AcDbSymbolTableRecord
100
AcDbLayerTableRecord
  2
DEFAULT_2
 70
0
 62
8
  6
HIDDEN
370
-3
390
F
  0
LAYER
  5
1FC
100
AcDbSymbolTableRecord
100
AcDbLayerTableRecord
  2
DEFAULT_3
 70
0
 62
7
  6
PHANTOM
370
-3
390
F
  0
LAYER
  5
1FD
100
AcDbSymbolTableRecord
100
AcDbLayerTableRecord
  2
DATUM_PLANES
 70
0
 62
7
  6
CONTINUOUS
370
-3
390
F
  0
LAYER
  5
1FE
100
AcDbSymbolTableRecord
100
AcDbLayerTableRecord
  2
PORT_AREAS
 70
0
 62
7
  6
CONTINUOUS
370
-3
390
F
  0
LAYER
  5
1FF
100
AcDbSymbolTableRecord
100
AcDbLayerTableRecord
  2
SUNNBOMCOSMETIC
 70
0
 62
7
  6
CONTINUOUS
370
-3
390
F
  0
LAYER
  5
200
100
AcDbSymbolTableRecord
100
AcDbLayerTableRecord
  2
SUNNBOMSTAMPING
 70
0
 62
7
  6
CONTINUOUS
370
-3
390
F
  0
LAYER
  5
201
100
AcDbSymbolTableRecord
100
AcDbLayerTableRecord
  2
THREADS
 70
0
 62
7
  6
CONTINUOUS
370
-3
390
F
  0
ENDTAB
  0
TABLE
  2
STYLE
  5
3
100
AcDbSymbolTable
 70
1
  0
STYLE
  5
11
100
AcDbSymbolTableRecord
100
AcDbTextStyleTableRecord
  2
STANDARD
 70
0
 40
0.0
 41
0.8
 50
0.0
 71
0
 42
0.2
  3
txt
  4

  0
STYLE
  5
202
100
AcDbSymbolTableRecord
100
AcDbTextStyleTableRecord
  2
TEXTSTYLE_1
 70
0
 40
0.0
 41
0.8
 50
0.0
 71
0
 42
0.2
  3
gdt
  4

  0
ENDTAB
  0
TABLE
  2
VIEW
  5
6
100
AcDbSymbolTable
 70
0
  0
ENDTAB
  0
TABLE
  2
UCS
  5
7
100
AcDbSymbolTable
 70
0
  0
ENDTAB
  0
TABLE
  2
APPID
  5
9
100
AcDbSymbolTable
 70
1
  0
APPID
  5
203
100
AcDbSymbolTableRecord
100
AcDbRegAppTableRecord
  2
ACAD
 70
0
  0
ENDTAB
  0
TABLE
  2
BLOCK_RECORD
  5
1
100
AcDbSymbolTable
 70
0
  0
BLOCK_RECORD
  5
204
100
AcDbSymbolTableRecord
100
AcDbBlockTableRecord
  2
*Model_Space
  0
BLOCK_RECORD
  5
205
100
AcDbSymbolTableRecord
100
AcDbBlockTableRecord
  2
*Paper_Space
  0
BLOCK_RECORD
  5
206
100
AcDbSymbolTableRecord
100
AcDbBlockTableRecord
  2
SUN_FIRST_THIRD_ANGLE_BL0
  0
BLOCK_RECORD
  5
207
100
AcDbSymbolTableRecord
100
AcDbBlockTableRecord
  2
*T1
  0
BLOCK_RECORD
  5
208
100
AcDbSymbolTableRecord
100
AcDbBlockTableRecord
  2
*T2
  0
BLOCK_RECORD
  5
209
100
AcDbSymbolTableRecord
100
AcDbBlockTableRecord
  2
*T3
  0
ENDTAB
  0
TABLE
  2
DIMSTYLE
  5
A
100
AcDbSymbolTable
 70
1
100
AcDbDimStyleTable
 71
0
  0
DIMSTYLE
105
20A
100
AcDbSymbolTableRecord
100
AcDbDimStyleTableRecord
  2
STANDARD
 70
0
  3

  4

 40
1.0
 41
0.1875
 42
0.0625
 43
0.38
 44
0.125
 45
0.0
 46
0.0
 47
0.001
 48
0.001
140
0.1
141
0.09
142
0.0
143
25.4
144
1.0
145
0.0
146
1.0
147
0.09
 71
0.0
 72
0.0
 73
1
 74
1
 75
0
 76
0
 77
0
 78
4
170
0
171
2
172
0
173
0
174
0
175
0
176
0
177
0
178
0
270
2
271
3
272
3
273
2
274
2
275
0
280
0
281
0
282
0
283
1
284
4
285
0
286
0
287
3
288
0
340
11
278
46
  0
ENDTAB
  0
ENDSEC
  0
SECTION
  2
BLOCKS
  0
BLOCK
  5
20
100
AcDbEntity
  8
0
100
AcDbBlockBegin
  2
*Model_Space
 70
0
 10
0.0
 20
0.0
 30
0.0
  3
*Model_Space
  1

  0
ENDBLK
  5
21
100
AcDbEntity
  8
0
100
AcDbBlockEnd
  0
BLOCK
  5
1C
100
AcDbEntity
  8
0
100
AcDbBlockBegin
  2
*Paper_Space
 70
0
 10
0.0
 20
0.0
 30
0.0
  3
*Paper_Space
  1

  0
ENDBLK
  5
1D
100
AcDbEntity
  8
0
100
AcDbBlockEnd
  0
BLOCK
  5
20B
100
AcDbEntity
  8
0
100
AcDbBlockBegin
 62
2
  6
CONTINUOUS
  2
SUN_FIRST_THIRD_ANGLE_BL0
 70
64
 10
20.4816717061
 20
1.2289683772
  3
SUN_FIRST_THIRD_ANGLE_BL0
  1

  0
TEXT
  5
20C
100
AcDbEntity
  8
0
100
AcDbText
 62
2
  6
CONTINUOUS
 10
19.4750896608
 20
1.4136269581
  7
STANDARD
 40
0.08
  1
FIRST ANGLE
 41
0.8
 72
0
100
AcDbText
  0
TEXT
  5
20D
100
AcDbEntity
  8
0
100
AcDbText
 62
2
  6
CONTINUOUS
 10
20.7842537513
 20
1.4047600029
  7
STANDARD
 40
0.08
  1
THIRD ANGLE
 41
0.8
 72
0
100
AcDbText
  0
LINE
  5
20E
100
AcDbEntity
  8
0
100
AcDbLine
 62
7
  6
CONTINUOUS
 10
19.4767170086
 20
1.1727031207
 11
19.6334271527
 21
1.1717972817
  0
LINE
  5
20F
100
AcDbEntity
  8
0
100
AcDbLine
 62
7
  6
CONTINUOUS
 10
19.6596964832
 20
1.1717972817
 11
19.6950230232
 21
1.171593082
  0
LINE
  5
210
100
AcDbEntity
  8
0
100
AcDbLine
 62
7
  6
CONTINUOUS
 10
19.7194818561
 20
1.1708914427
 11
19.8852396156
 21
1.1699333054
  0
LINE
  5
211
100
AcDbEntity
  8
0
100
AcDbLine
 62
7
  6
CONTINUOUS
 10
19.4758111696
 20
1.2723454088
 11
19.88525039
 21
1.3511534004
  0
LINE
  5
212
100
AcDbEntity
  8
0
100
AcDbLine
 62
7
  6
CONTINUOUS
 10
19.88525039
 20
1.3511534004
 11
19.8831348489
 21
0.9851647912
  0
LINE
  5
213
100
AcDbEntity
  8
0
100
AcDbLine
 62
7
  6
CONTINUOUS
 10
19.8831348489
 20
0.9851647912
 11
19.4767170086
 21
1.0658141206
  0
LINE
  5
214
100
AcDbEntity
  8
0
100
AcDbLine
 62
7
  6
CONTINUOUS
 10
19.4767170086
 20
1.0658141206
 11
19.4779056764
 21
1.2714536432
  0
CIRCLE
  5
215
100
AcDbEntity
  8
0
100
AcDbCircle
 62
7
  6
CONTINUOUS
 10
20.2068232291
 20
1.1717972817
 40
0.175742101
  0
CIRCLE
  5
216
100
AcDbEntity
  8
0
100
AcDbCircle
 62
7
  6
CONTINUOUS
 10
20.2068232291
 20
1.1717972817
 40
0.1005522074
  0
LINE
  5
217
100
AcDbEntity
  8
0
100
AcDbLine
 62
7
  6
CONTINUOUS
 10
20.2077290681
 20
1.3756110529
 11
20.2071171714
 21
1.2379342989
  0
LINE
  5
218
100
AcDbEntity
  8
0
100
AcDbLine
 62
7
  6
CONTINUOUS
 10
20.2077290681
 20
1.2016899681
 11
20.2074674401
 21
1.1428236749
  0
LINE
  5
219
100
AcDbEntity
  8
0
100
AcDbLine
 62
7
  6
CONTINUOUS
 10
20.208634907
 20
1.101141841
 11
20.2080230104
 21
0.963465087
  0
LINE
  5
21A
100
AcDbEntity
  8
0
100
AcDbLine
 62
7
  6
CONTINUOUS
 10
20.0066328138
 20
1.1745147986
 11
20.1443095678
 21
1.1739029019
  0
LINE
  5
21B
100
AcDbEntity
  8
0
100
AcDbLine
 62
7
  6
CONTINUOUS
 10
20.1832714155
 20
1.1727031207
 11
20.238153505
 21
1.172335442
  0
LINE
  5
21C
100
AcDbEntity
  8
0
100
AcDbLine
 62
7
  6
CONTINUOUS
 10
20.2756669918
 20
1.1717972817
 11
20.407916871
 21
1.1712095044
  0
CIRCLE
  5
21D
100
AcDbEntity
  8
0
100
AcDbCircle
 62
7
  6
CONTINUOUS
 10
20.7509457401
 20
1.1693297793
 40
0.1722024983
  0
CIRCLE
  5
21E
100
AcDbEntity
  8
0
100
AcDbCircle
 62
7
  6
CONTINUOUS
 10
20.7509457401
 20
1.1693297793
 40
0.0985164967
  0
LINE
  5
21F
100
AcDbEntity
  8
0
100
AcDbLine
 62
7
  6
CONTINUOUS
 10
20.7169767782
 20
1.170462078
 11
20.7825395137
 21
1.1682766535
  0
LINE
  5
220
100
AcDbEntity
  8
0
100
AcDbLine
 62
7
  6
CONTINUOUS
 10
20.8177513651
 20
1.1693297793
 11
20.947965719
 21
1.1693297793
  0
LINE
  5
221
100
AcDbEntity
  8
0
100
AcDbLine
 62
7
  6
CONTINUOUS
 10
20.6875370113
 20
1.170462078
 11
20.5573226574
 21
1.170462078
  0
LINE
  5
222
100
AcDbEntity
  8
0
100
AcDbLine
 62
7
  6
CONTINUOUS
 10
20.7486811426
 20
1.1987695462
 11
20.7486811426
 21
1.1432869085
  0
LINE
  5
223
100
AcDbEntity
  8
0
100
AcDbLine
 62
7
  6
CONTINUOUS
 10
20.7498134414
 20
1.1059210505
 11
20.7498134414
 21
0.9757066966
  0
LINE
  5
224
100
AcDbEntity
  8
0
100
AcDbLine
 62
7
  6
CONTINUOUS
 10
20.7486811426
 20
1.2338708068
 11
20.7486811426
 21
1.3640851607
  0
LINE
  5
225
100
AcDbEntity
  8
0
100
AcDbLine
 62
7
  6
CONTINUOUS
 10
21.0702539817
 20
1.2701043662
 11
21.4790138229
 21
1.3448360823
  0
LINE
  5
226
100
AcDbEntity
  8
0
100
AcDbLine
 62
7
  6
CONTINUOUS
 10
21.4790138229
 20
1.3448360823
 11
21.4790138229
 21
0.9779712941
  0
LINE
  5
227
100
AcDbEntity
  8
0
100
AcDbLine
 62
7
  6
CONTINUOUS
 10
21.4790138229
 20
0.9779712941
 11
21.069121683
 21
1.0617614
  0
LINE
  5
228
100
AcDbEntity
  8
0
100
AcDbLine
 62
7
  6
CONTINUOUS
 10
21.0702539817
 20
1.2701043662
 11
21.069121683
 21
1.0617614
  0
LINE
  5
229
100
AcDbEntity
  8
0
100
AcDbLine
 62
7
  6
CONTINUOUS
 10
21.4790138229
 20
1.1693297793
 11
21.3159628059
 21
1.1693297793
  0
LINE
  5
22A
100
AcDbEntity
  8
0
100
AcDbLine
 62
7
  6
CONTINUOUS
 10
21.2876553377
 20
1.1693297793
 11
21.2502894796
 21
1.1693297793
  0
LINE
  5
22B
100
AcDbEntity
  8
0
100
AcDbLine
 62
7
  6
CONTINUOUS
 10
21.2208497126
 20
1.1659328831
 11
21.0713862804
 21
1.1659328831
  0
LINE
  5
22C
100
AcDbEntity
  8
0
100
AcDbLine
 62
7
  6
CONTINUOUS
 10
20.4796138713
 20
1.5284908897
 11
20.4766766948
 21
0.9294458646
  0
ENDBLK
  5
22D
100
AcDbEntity
  8
0
  6
BYBLOCK
 62
0
100
AcDbBlockEnd
  0
BLOCK
  5
22E
100
AcDbEntity
  8
0
100
AcDbBlockBegin
  2
*T1
 70
1
 10
0.0
 20
0.0
  3
*T1
  1

  0
LINE
  5
22F
100
AcDbEntity
  8
0
100
AcDbLine
 62
2
  6
CONTINUOUS
 10
9.275
 20
0.0
 11
-0.0
 21
0.0
  0
LINE
  5
230
100
AcDbEntity
  8
0
100
AcDbLine
 62
2
  6
CONTINUOUS
 10
9.275
 20
0.0
 11
9.275
 21
1.25
  0
LINE
  5
231
100
AcDbEntity
  8
0
100
AcDbLine
 62
2
  6
CONTINUOUS
 10
9.275
 20
0.625
 11
-0.0
 21
0.625
  0
LINE
  5
232
100
AcDbEntity
  8
0
100
AcDbLine
 62
2
  6
CONTINUOUS
 10
9.275
 20
1.25
 11
-0.0
 21
1.25
  0
LINE
  5
233
100
AcDbEntity
  8
0
100
AcDbLine
 62
2
  6
CONTINUOUS
 10
6.8
 20
0.0
 11
6.8
 21
1.25
  0
LINE
  5
234
100
AcDbEntity
  8
0
100
AcDbLine
 62
2
  6
CONTINUOUS
 10
6.4
 20
0.0
 11
6.4
 21
0.625
  0
LINE
  5
235
100
AcDbEntity
  8
0
100
AcDbLine
 62
2
  6
CONTINUOUS
 10
5.9
 20
0.0
 11
5.9
 21
0.625
  0
LINE
  5
236
100
AcDbEntity
  8
0
100
AcDbLine
 62
2
  6
CONTINUOUS
 10
5.2
 20
0.0
 11
5.2
 21
0.625
  0
LINE
  5
237
100
AcDbEntity
  8
0
100
AcDbLine
 62
2
  6
CONTINUOUS
 10
4.1
 20
0.0
 11
4.1
 21
1.25
  0
LINE
  5
238
100
AcDbEntity
  8
0
100
AcDbLine
 62
2
  6
CONTINUOUS
 10
-0.0
 20
0.0
 11
-0.0
 21
1.25
  0
MTEXT
  5
239
100
AcDbEntity
  8
0
100
AcDbMText
 62
2
  6
CONTINUOUS
  7
STANDARD
 71
2
 72
1
 10
6.6
 20
0.325
 30
0.0
 11
1.0
 21
0.0
 31
0.0
 44
0.9
  1
2
 40
0.125
 41
0.2
  0
MTEXT
  5
23A
100
AcDbEntity
  8
0
100
AcDbMText
 62
2
  6
CONTINUOUS
  7
STANDARD
 71
2
 72
1
 10
6.15
 20
0.325
 30
0.0
 11
1.0
 21
0.0
 31
0.0
 44
0.9
  1
C
 40
0.125
 41
0.2
  0
MTEXT
  5
23B
100
AcDbEntity
  8
0
100
AcDbMText
 62
2
  6
CONTINUOUS
  7
STANDARD
 71
2
 72
1
 10
5.55
 20
0.325
 30
0.0
 11
1.0
 21
0.0
 31
0.0
 44
0.9
  1
1.000
 40
0.125
 41
1.0
  0
MTEXT
  5
23C
100
AcDbEntity
  8
0
100
AcDbMText
 62
2
  6
CONTINUOUS
  7
STANDARD
 71
2
 72
1
 10
4.65
 20
0.325
 30
0.0
 11
1.0
 21
0.0
 31
0.0
 44
0.9
  1
Oct-24-22
 40
0.125
 41
1.8
  0
MTEXT
  5
23D
100
AcDbEntity
  8
0
100
AcDbMText
 62
2
  6
CONTINUOUS
  7
STANDARD
 71
2
 72
1
 10
2.05
 20
0.4625
 30
0.0
 11
1.0
 21
0.0
 31
0.0
 44
0.9
  1
T-10A Subplate ISO 03\PP to T, side ports
 40
0.125
 41
4.2
  0
MTEXT
  5
23E
100
AcDbEntity
  8
0
100
AcDbMText
 62
2
  6
CONTINUOUS
  7
STANDARD
 71
1
 72
1
 10
6.45
 20
0.5625
 30
0.0
 11
1.0
 21
0.0
 31
0.0
 44
0.9
  1
SHEET
 40
0.06
 41
0.48
  0
MTEXT
  5
23F
100
AcDbEntity
  8
0
100
AcDbMText
 62
2
  6
CONTINUOUS
  7
STANDARD
 71
1
 72
1
 10
5.95
 20
0.5625
 30
0.0
 11
1.0
 21
0.0
 31
0.0
 44
0.9
  1
DWG SIZE
 40
0.06
 41
0.768
  0
MTEXT
  5
240
100
AcDbEntity
  8
0
100
AcDbMText
 62
2
  6
CONTINUOUS
  7
STANDARD
 71
1
 72
1
 10
5.25
 20
0.5625
 30
0.0
 11
1.0
 21
0.0
 31
0.0
 44
0.9
  1
SCALE
 40
0.06
 41
0.48
  0
MTEXT
  5
241
100
AcDbEntity
  8
0
100
AcDbMText
 62
2
  6
CONTINUOUS
  7
STANDARD
 71
1
 72
1
 10
4.15
 20
0.5625
 30
0.0
 11
1.0
 21
0.0
 31
0.0
 44
0.9
  1
DATE
 40
0.06
 41
0.384
  0
MTEXT
  5
242
100
AcDbEntity
  8
0
100
AcDbMText
 62
2
  6
CONTINUOUS
  7
STANDARD
 71
1
 72
1
 10
0.05
 20
0.5625
 30
0.0
 11
1.0
 21
0.0
 31
0.0
 44
0.9
  1
DESCRIPTION
 40
0.06
 41
1.056
  0
MTEXT
  5
243
100
AcDbEntity
  8
0
100
AcDbMText
 62
2
  6
CONTINUOUS
  7
STANDARD
 71
2
 72
1
 10
5.45
 20
1.0375
 30
0.0
 11
1.0
 21
0.0
 31
0.0
 44
0.9
  1
ALL DIMENSIONS IN INCH\PVIEWS ARE THIRD ANGLE
 40
0.12
 41
4.224
  0
MTEXT
  5
244
100
AcDbEntity
  8
0
100
AcDbMText
 62
2
  6
CONTINUOUS
  7
STANDARD
 71
2
 72
1
 10
2.05
 20
0.95
 30
0.0
 11
1.0
 21
0.0
 31
0.0
 44
0.9
  1
WCG
 40
0.125
 41
0.6
  0
MTEXT
  5
245
100
AcDbEntity
  8
0
100
AcDbMText
 62
2
  6
CONTINUOUS
  7
STANDARD
 71
1
 72
1
 10
0.05
 20
1.1875
 30
0.0
 11
1.0
 21
0.0
 31
0.0
 44
0.9
  1
MODEL
 40
0.06
 41
0.48
  0
ENDBLK
  5
246
100
AcDbEntity
  8
0
  6
BYBLOCK
 62
0
100
AcDbBlockEnd
  0
BLOCK
  5
247
100
AcDbEntity
  8
0
100
AcDbBlockBegin
  2
*T2
 70
1
 10
0.0
 20
0.0
  3
*T2
  1

  0
LINE
  5
248
100
AcDbEntity
  8
0
100
AcDbLine
 62
2
  6
CONTINUOUS
 10
0.0
 20
0.0
 11
9.055
 21
0.0
  0
LINE
  5
249
100
AcDbEntity
  8
0
100
AcDbLine
 62
2
  6
CONTINUOUS
 10
0.0
 20
0.0
 11
0.0
 21
-2.844
  0
LINE
  5
24A
100
AcDbEntity
  8
0
100
AcDbLine
 62
2
  6
CONTINUOUS
 10
0.0
 20
-0.344
 11
9.055
 21
-0.344
  0
LINE
  5
24B
100
AcDbEntity
  8
0
100
AcDbLine
 62
2
  6
CONTINUOUS
 10
0.0
 20
-0.594
 11
9.055
 21
-0.594
  0
LINE
  5
24C
100
AcDbEntity
  8
0
100
AcDbLine
 62
2
  6
CONTINUOUS
 10
0.0
 20
-0.844
 11
9.055
 21
-0.844
  0
LINE
  5
24D
100
AcDbEntity
  8
0
100
AcDbLine
 62
2
  6
CONTINUOUS
 10
0.0
 20
-1.094
 11
9.055
 21
-1.094
  0
LINE
  5
24E
100
AcDbEntity
  8
0
100
AcDbLine
 62
2
  6
CONTINUOUS
 10
0.0
 20
-1.344
 11
9.055
 21
-1.344
  0
LINE
  5
24F
100
AcDbEntity
  8
0
100
AcDbLine
 62
2
  6
CONTINUOUS
 10
0.0
 20
-1.594
 11
9.055
 21
-1.594
  0
LINE
  5
250
100
AcDbEntity
  8
0
100
AcDbLine
 62
2
  6
CONTINUOUS
 10
0.0
 20
-1.844
 11
9.055
 21
-1.844
  0
LINE
  5
251
100
AcDbEntity
  8
0
100
AcDbLine
 62
2
  6
CONTINUOUS
 10
0.0
 20
-2.094
 11
9.055
 21
-2.094
  0
LINE
  5
252
100
AcDbEntity
  8
0
100
AcDbLine
 62
2
  6
CONTINUOUS
 10
0.0
 20
-2.344
 11
9.055
 21
-2.344
  0
LINE
  5
253
100
AcDbEntity
  8
0
100
AcDbLine
 62
2
  6
CONTINUOUS
 10
0.0
 20
-2.594
 11
9.055
 21
-2.594
  0
LINE
  5
254
100
AcDbEntity
  8
0
100
AcDbLine
 62
2
  6
CONTINUOUS
 10
0.0
 20
-2.844
 11
9.055
 21
-2.844
  0
LINE
  5
255
100
AcDbEntity
  8
0
100
AcDbLine
 62
2
  6
CONTINUOUS
 10
3.055
 20
0.0
 11
3.055
 21
-2.844
  0
LINE
  5
256
100
AcDbEntity
  8
0
100
AcDbLine
 62
2
  6
CONTINUOUS
 10
9.055
 20
0.0
 11
9.055
 21
-2.844
  0
MTEXT
  5
257
100
AcDbEntity
  8
0
100
AcDbMText
 62
2
  6
CONTINUOUS
  7
STANDARD
 71
2
 72
1
 10
1.5275
 20
-0.0995
 30
0.0
 11
1.0
 21
0.0
 31
0.0
 44
0.9
  1
Technical Data
 40
0.145
 41
3.248
  0
MTEXT
  5
258
100
AcDbEntity
  8
0
100
AcDbMText
 62
2
  6
CONTINUOUS
  7
STANDARD
 71
2
 72
1
 10
4.555
 20
-0.0995
 30
0.0
 11
1.0
 21
0.0
 31
0.0
 44
0.9
  1
U.S. Units
 40
0.145
 41
2.32
  0
MTEXT
  5
259
100
AcDbEntity
  8
0
100
AcDbMText
 62
2
  6
CONTINUOUS
  7
STANDARD
 71
2
 72
1
 10
7.555
 20
-0.0995
 30
0.0
 11
1.0
 21
0.0
 31
0.0
 44
0.9
  1
Metric Units
 40
0.145
 41
2.784
  0
MTEXT
  5
25A
100
AcDbEntity
  8
0
100
AcDbMText
 62
2
  6
CONTINUOUS
  7
STANDARD
 71
2
 72
1
 10
1.5275
 20
-0.4065
 30
0.0
 11
1.0
 21
0.0
 31
0.0
 44
0.9
  1
Cavity
 40
0.125
 41
1.2
  0
MTEXT
  5
25B
100
AcDbEntity
  8
0
100
AcDbMText
 62
2
  6
CONTINUOUS
  7
STANDARD
 71
2
 72
1
 10
6.055
 20
-0.4065
 30
0.0
 11
1.0
 21
0.0
 31
0.0
 44
0.9
  1
T-10A
 40
0.125
 41
1.0
  0
MTEXT
  5
25C
100
AcDbEntity
  8
0
100
AcDbMText
 62
2
  6
CONTINUOUS
  7
STANDARD
 71
2
 72
1
 10
1.5275
 20
-0.6565
 30
0.0
 11
1.0
 21
0.0
 31
0.0
 44
0.9
  1
Body Features
 40
0.125
 41
2.6
  0
MTEXT
  5
25D
100
AcDbEntity
  8
0
100
AcDbMText
 62
2
  6
CONTINUOUS
  7
STANDARD
 71
2
 72
1
 10
6.055
 20
-0.6565
 30
0.0
 11
1.0
 21
0.0
 31
0.0
 44
0.9
  1
P to T, side ports
 40
0.125
 41
3.6
  0
MTEXT
  5
25E
100
AcDbEntity
  8
0
100
AcDbMText
 62
2
  6
CONTINUOUS
  7
STANDARD
 71
2
 72
1
 10
1.5275
 20
-0.9065
 30
0.0
 11
1.0
 21
0.0
 31
0.0
 44
0.9
  1
Body Type
 40
0.125
 41
1.8
  0
MTEXT
  5
25F
100
AcDbEntity
  8
0
100
AcDbMText
 62
2
  6
CONTINUOUS
  7
STANDARD
 71
2
 72
1
 10
6.055
 20
-0.9065
 30
0.0
 11
1.0
 21
0.0
 31
0.0
 44
0.9
  1
Subplate
 40
0.125
 41
1.6
  0
MTEXT
  5
260
100
AcDbEntity
  8
0
100
AcDbMText
 62
2
  6
CONTINUOUS
  7
STANDARD
 71
2
 72
1
 10
1.5275
 20
-1.1565
 30
0.0
 11
1.0
 21
0.0
 31
0.0
 44
0.9
  1
Interface
 40
0.125
 41
1.8
  0
MTEXT
  5
261
100
AcDbEntity
  8
0
100
AcDbMText
 62
2
  6
CONTINUOUS
  7
STANDARD
 71
2
 72
1
 10
6.055
 20
-1.1565
 30
0.0
 11
1.0
 21
0.0
 31
0.0
 44
0.9
  1
ISO 03
 40
0.125
 41
1.2
  0
MTEXT
  5
262
100
AcDbEntity
  8
0
100
AcDbMText
 62
2
  6
CONTINUOUS
  7
STANDARD
 71
2
 72
1
 10
1.5275
 20
-1.4065
 30
0.0
 11
1.0
 21
0.0
 31
0.0
 44
0.9
  1
Open Cavity Quantity
 40
0.125
 41
4.0
  0
MTEXT
  5
263
100
AcDbEntity
  8
0
100
AcDbMText
 62
2
  6
CONTINUOUS
  7
STANDARD
 71
2
 72
1
 10
6.055
 20
-1.4065
 30
0.0
 11
1.0
 21
0.0
 31
0.0
 44
0.9
  1
1
 40
0.125
 41
0.2
  0
MTEXT
  5
264
100
AcDbEntity
  8
0
100
AcDbMText
 62
2
  6
CONTINUOUS
  7
STANDARD
 71
2
 72
1
 10
1.5275
 20
-1.6565
 30
0.0
 11
1.0
 21
0.0
 31
0.0
 44
0.9
  1
Weight
 40
0.125
 41
1.2
  0
MTEXT
  5
265
100
AcDbEntity
  8
0
100
AcDbMText
 62
2
  6
CONTINUOUS
  7
STANDARD
 71
2
 72
1
 10
4.555
 20
-1.6565
 30
0.0
 11
1.0
 21
0.0
 31
0.0
 44
0.9
  1
2.011 lb.
 40
0.125
 41
1.8
  0
MTEXT
  5
266
100
AcDbEntity
  8
0
100
AcDbMText
 62
2
  6
CONTINUOUS
  7
STANDARD
 71
2
 72
1
 10
7.555
 20
-1.6565
 30
0.0
 11
1.0
 21
0.0
 31
0.0
 44
0.9
  1
0,912 kg.
 40
0.125
 41
1.8
  0
MTEXT
  5
267
100
AcDbEntity
  8
0
100
AcDbMText
 62
2
  6
CONTINUOUS
  7
STANDARD
 71
2
 72
1
 10
1.5275
 20
-1.9065
 30
0.0
 11
1.0
 21
0.0
 31
0.0
 44
0.9
  1
Mounting Hole Diameter
 40
0.125
 41
4.4
  0
MTEXT
  5
268
100
AcDbEntity
  8
0
100
AcDbMText
 62
2
  6
CONTINUOUS
  7
STANDARD
 71
2
 72
1
 10
4.555
 20
-1.9065
 30
0.0
 11
1.0
 21
0.0
 31
0.0
 44
0.9
  1
.28 in.
 40
0.125
 41
1.4
  0
MTEXT
  5
269
100
AcDbEntity
  8
0
100
AcDbMText
 62
2
  6
CONTINUOUS
  7
STANDARD
 71
2
 72
1
 10
7.555
 20
-1.9065
 30
0.0
 11
1.0
 21
0.0
 31
0.0
 44
0.9
  1
7,1 mm
 40
0.125
 41
1.2
  0
MTEXT
  5
26A
100
AcDbEntity
  8
0
100
AcDbMText
 62
2
  6
CONTINUOUS
  7
STANDARD
 71
2
 72
1
 10
1.5275
 20
-2.1565
 30
0.0
 11
1.0
 21
0.0
 31
0.0
 44
0.9
  1
Mounting Hole Thread
 40
0.125
 41
4.0
  0
MTEXT
  5
26B
100
AcDbEntity
  8
0
100
AcDbMText
 62
2
  6
CONTINUOUS
  7
STANDARD
 71
2
 72
1
 10
6.055
 20
-2.1565
 30
0.0
 11
1.0
 21
0.0
 31
0.0
 44
0.9
  1
M5x.08 - 6H
 40
0.125
 41
2.2
  0
MTEXT
  5
26C
100
AcDbEntity
  8
0
100
AcDbMText
 62
2
  6
CONTINUOUS
  7
STANDARD
 71
2
 72
1
 10
1.5275
 20
-2.4065
 30
0.0
 11
1.0
 21
0.0
 31
0.0
 44
0.9
  1
Mounting Hole Depth
 40
0.125
 41
3.8
  0
MTEXT
  5
26D
100
AcDbEntity
  8
0
100
AcDbMText
 62
2
  6
CONTINUOUS
  7
STANDARD
 71
2
 72
1
 10
4.555
 20
-2.4065
 30
0.0
 11
1.0
 21
0.0
 31
0.0
 44
0.9
  1
.38 in.
 40
0.125
 41
1.4
  0
MTEXT
  5
26E
100
AcDbEntity
  8
0
100
AcDbMText
 62
2
  6
CONTINUOUS
  7
STANDARD
 71
2
 72
1
 10
7.555
 20
-2.4065
 30
0.0
 11
1.0
 21
0.0
 31
0.0
 44
0.9
  1
9,7 mm
 40
0.125
 41
1.2
  0
MTEXT
  5
26F
100
AcDbEntity
  8
0
100
AcDbMText
 62
2
  6
CONTINUOUS
  7
STANDARD
 71
2
 72
1
 10
1.5275
 20
-2.6565
 30
0.0
 11
1.0
 21
0.0
 31
0.0
 44
0.9
  1
Mounting Hole Quantity
 40
0.125
 41
4.4
  0
MTEXT
  5
270
100
AcDbEntity
  8
0
100
AcDbMText
 62
2
  6
CONTINUOUS
  7
STANDARD
 71
2
 72
1
 10
6.055
 20
-2.6565
 30
0.0
 11
1.0
 21
0.0
 31
0.0
 44
0.9
  1
4
 40
0.125
 41
0.2
  0
ENDBLK
  5
271
100
AcDbEntity
  8
0
  6
BYBLOCK
 62
0
100
AcDbBlockEnd
  0
BLOCK
  5
272
100
AcDbEntity
  8
0
100
AcDbBlockBegin
  2
*T3
 70
1
 10
0.0
 20
0.0
  3
*T3
  1

  0
LINE
  5
273
100
AcDbEntity
  8
0
100
AcDbLine
 62
2
  6
CONTINUOUS
 10
0.0
 20
0.0
 11
4.6
 21
0.0
  0
LINE
  5
274
100
AcDbEntity
  8
0
100
AcDbLine
 62
2
  6
CONTINUOUS
 10
0.0
 20
0.0
 11
0.0
 21
-1.18775
  0
LINE
  5
275
100
AcDbEntity
  8
0
100
AcDbLine
 62
2
  6
CONTINUOUS
 10
0.0
 20
-0.34375
 11
4.6
 21
-0.34375
  0
LINE
  5
276
100
AcDbEntity
  8
0
100
AcDbLine
 62
2
  6
CONTINUOUS
 10
0.0
 20
-0.68775
 11
4.6
 21
-0.68775
  0
LINE
  5
277
100
AcDbEntity
  8
0
100
AcDbLine
 62
2
  6
CONTINUOUS
 10
0.0
 20
-0.93775
 11
4.6
 21
-0.93775
  0
LINE
  5
278
100
AcDbEntity
  8
0
100
AcDbLine
 62
2
  6
CONTINUOUS
 10
0.0
 20
-1.18775
 11
4.6
 21
-1.18775
  0
LINE
  5
279
100
AcDbEntity
  8
0
100
AcDbLine
 62
2
  6
CONTINUOUS
 10
1.3
 20
-0.34375
 11
1.3
 21
-1.18775
  0
LINE
  5
27A
100
AcDbEntity
  8
0
100
AcDbLine
 62
2
  6
CONTINUOUS
 10
3.3
 20
-0.34375
 11
3.3
 21
-1.18775
  0
LINE
  5
27B
100
AcDbEntity
  8
0
100
AcDbLine
 62
2
  6
CONTINUOUS
 10
4.6
 20
0.0
 11
4.6
 21
-1.18775
  0
MTEXT
  5
27C
100
AcDbEntity
  8
0
100
AcDbMText
 62
2
  6
CONTINUOUS
  7
STANDARD
 71
2
 72
1
 10
2.3
 20
-0.099375
 30
0.0
 11
1.0
 21
0.0
 31
0.0
 44
0.9
  1
Port Headings
 40
0.145
 41
3.016
  0
MTEXT
  5
27D
100
AcDbEntity
  8
0
100
AcDbMText
 62
2
  6
CONTINUOUS
  7
STANDARD
 71
2
 72
1
 10
0.65
 20
-0.44325
 30
0.0
 11
1.0
 21
0.0
 31
0.0
 44
0.9
  1
Product
 40
0.145
 41
1.624
  0
MTEXT
  5
27E
100
AcDbEntity
  8
0
100
AcDbMText
 62
2
  6
CONTINUOUS
  7
STANDARD
 71
2
 72
1
 10
2.3
 20
-0.44325
 30
0.0
 11
1.0
 21
0.0
 31
0.0
 44
0.9
  1
Port
 40
0.145
 41
0.928
  0
MTEXT
  5
27F
100
AcDbEntity
  8
0
100
AcDbMText
 62
2
  6
CONTINUOUS
  7
STANDARD
 71
2
 72
1
 10
3.95
 20
-0.44325
 30
0.0
 11
1.0
 21
0.0
 31
0.0
 44
0.9
  1
Size
 40
0.145
 41
0.928
  0
MTEXT
  5
280
100
AcDbEntity
  8
0
100
AcDbMText
 62
2
  6
CONTINUOUS
  7
STANDARD
 71
2
 72
1
 10
0.65
 20
-0.75025
 30
0.0
 11
1.0
 21
0.0
 31
0.0
 44
0.9
  1
WCG
 40
0.125
 41
0.6
  0
MTEXT
  5
281
100
AcDbEntity
  8
0
100
AcDbMText
 62
2
  6
CONTINUOUS
  7
STANDARD
 71
2
 72
1
 10
2.3
 20
-0.75025
 30
0.0
 11
1.0
 21
0.0
 31
0.0
 44
0.9
  1
Ports A, B, P, T
 40
0.125
 41
3.2
  0
MTEXT
  5
282
100
AcDbEntity
  8
0
100
AcDbMText
 62
2
  6
CONTINUOUS
  7
STANDARD
 71
2
 72
1
 10
3.95
 20
-0.75025
 30
0.0
 11
1.0
 21
0.0
 31
0.0
 44
0.9
  1
1/2" BSPP
 40
0.125
 41
1.8
  0
MTEXT
  5
283
100
AcDbEntity
  8
0
100
AcDbMText
 62
2
  6
CONTINUOUS
  7
STANDARD
 71
2
 72
1
 10
0.65
 20
-1.00025
 30
0.0
 11
1.0
 21
0.0
 31
0.0
 44
0.9
  1
WCG
 40
0.125
 41
0.6
  0
MTEXT
  5
284
100
AcDbEntity
  8
0
100
AcDbMText
 62
2
  6
CONTINUOUS
  7
STANDARD
 71
2
 72
1
 10
2.3
 20
-1.00025
 30
0.0
 11
1.0
 21
0.0
 31
0.0
 44
0.9
  1
Gage Port
 40
0.125
 41
1.8
  0
MTEXT
  5
285
100
AcDbEntity
  8
0
100
AcDbMText
 62
2
  6
CONTINUOUS
  7
STANDARD
 71
2
 72
1
 10
3.95
 20
-1.00025
 30
0.0
 11
1.0
 21
0.0
 31
0.0
 44
0.9
  1
1/4" BSPP
 40
0.125
 41
1.8
  0
ENDBLK
  5
286
100
AcDbEntity
  8
0
  6
BYBLOCK
 62
0
100
AcDbBlockEnd
  0
ENDSEC
  0
SECTION
  2
ENTITIES
  0
IMAGE
  5
287
100
AcDbEntity
  8
0
100
AcDbRasterImage
 62
7
  6
CONTINUOUS
 10
19.2297077316
 20
0.3094318264
 30
0.0
 11
0.0066666667
 21
0.0
 31
0.0
 12
0.0
 22
0.0066666667
 32
0.0
 13
369.0
 23
92.0
340
       3A5
 70
9
280
0
281
50
282
50
283
0
360
       39F
 71
1
 91
2
 14
-0.5
 24
-0.5
 14
368.5
 24
91.5
  0
INSERT
  5
288
100
AcDbEntity
  8
0
100
AcDbBlockReference
 62
2
  6
CONTINUOUS
  2
SUN_FIRST_THIRD_ANGLE_BL0
 10
20.4816717061
 20
1.2289683772
  0
ACAD_TABLE
  5
289
100
AcDbEntity
  8
0
 62
2
  6
CONTINUOUS
100
AcDbBlockReference
  2
*T1
 10
12.42375
 20
0.30125
 30
0.0
100
AcDbTable
342
       3A7
343
207
 11
1.0
 21
0.0
 31
0.0
 90
6
 91
4
 92
6
 93
20
 94
0
 95
0
 96
0
 70
1
 41
0.0
141
0.525
141
0.1
141
0.525
141
0.1
142
4.1
142
1.1
142
0.7
142
0.5
142
0.4
142
2.475
171
1
172
0
173
0
174
0
175
1
176
1
 91
33
178
0
145
0.0
301
CELL_VALUE
 90
4
  1
T-10A Subplate ISO 03\PP to T, side ports
304
ACVALUE_END
170
2
140
0.125
171
1
172
0
173
0
174
0
175
1
176
1
 91
33
178
0
145
0.0
301
CELL_VALUE
 90
4
  1
Oct-24-22
304
ACVALUE_END
170
5
140
0.125
171
1
172
0
173
0
174
0
175
1
176
1
 91
33
178
0
145
0.0
301
CELL_VALUE
 90
4
  1
1.000
304
ACVALUE_END
170
5
140
0.125
171
1
172
0
173
0
174
0
175
1
176
1
 91
33
178
0
145
0.0
301
CELL_VALUE
 90
4
  1
C
304
ACVALUE_END
170
5
140
0.125
171
1
172
0
173
0
174
0
175
1
176
1
 91
33
178
0
145
0.0
301
CELL_VALUE
 90
4
  1
2
304
ACVALUE_END
170
5
140
0.125
171
1
172
0
173
0
174
0
175
1
176
1
 91
33
178
0
145
0.0
301
CELL_VALUE
 90
4
  1
 
304
ACVALUE_END
170
1
140
0.125
171
1
172
0
173
0
174
0
175
1
176
1
 91
33
178
0
145
0.0
301
CELL_VALUE
 90
4
  1
DESCRIPTION
304
ACVALUE_END
170
1
140
0.06
171
1
172
0
173
0
174
0
175
1
176
1
 91
33
178
0
145
0.0
301
CELL_VALUE
 90
4
  1
DATE
304
ACVALUE_END
170
1
140
0.06
171
1
172
0
173
0
174
0
175
1
176
1
 91
33
178
0
145
0.0
301
CELL_VALUE
 90
4
  1
SCALE
304
ACVALUE_END
170
1
140
0.06
171
1
172
0
173
0
174
0
175
1
176
1
 91
33
178
0
145
0.0
301
CELL_VALUE
 90
4
  1
DWG SIZE
304
ACVALUE_END
170
1
140
0.06
171
1
172
0
173
0
174
0
175
1
176
1
 91
33
178
0
145
0.0
301
CELL_VALUE
 90
4
  1
SHEET
304
ACVALUE_END
170
1
140
0.06
171
1
172
0
173
0
174
0
175
1
176
1
 91
33
178
0
145
0.0
301
CELL_VALUE
 90
4
  1
 
304
ACVALUE_END
170
1
140
0.125
171
1
172
0
173
0
174
0
175
1
176
1
 91
33
178
0
145
0.0
301
CELL_VALUE
 90
4
  1
WCG
304
ACVALUE_END
170
5
140
0.125
171
1
172
0
173
0
174
0
175
4
176
1
 91
33
178
0
145
0.0
301
CELL_VALUE
 90
4
  1
ALL DIMENSIONS IN INCH\PVIEWS ARE THIRD ANGLE
304
ACVALUE_END
170
5
140
0.12
171
1
172
0
173
1
174
0
175
1
176
1
 91
1
178
0
145
0.0
170
1
171
1
172
0
173
1
174
0
175
1
176
1
 91
1
178
0
145
0.0
170
1
171
1
172
0
173
1
174
0
175
1
176
1
 91
1
178
0
145
0.0
170
5
171
1
172
0
173
0
174
0
175
1
176
1
 91
33
178
0
145
0.0
301
CELL_VALUE
 90
4
  1
 
304
ACVALUE_END
170
1
140
0.125
171
1
172
0
173
0
174
0
175
1
176
1
 91
33
178
0
145
0.0
301
CELL_VALUE
 90
4
  1
MODEL
304
ACVALUE_END
170
1
140
0.06
171
1
172
0
173
0
174
0
175
1
176
1
 91
33
178
0
145
0.0
301
CELL_VALUE
 90
4
  1
 
304
ACVALUE_END
170
1
140
0.125
171
1
172
0
173
0
174
0
175
1
176
1
 91
33
178
0
145
0.0
301
CELL_VALUE
 90
4
  1
 
304
ACVALUE_END
170
1
140
0.125
171
1
172
0
173
0
174
0
175
1
176
1
 91
33
178
0
145
0.0
301
CELL_VALUE
 90
4
  1
 
304
ACVALUE_END
170
1
140
0.125
171
1
172
0
173
0
174
0
175
1
176
1
 91
33
178
0
145
0.0
301
CELL_VALUE
 90
4
  1
 
304
ACVALUE_END
170
1
140
0.125
171
1
172
0
173
0
174
0
175
1
176
1
 91
33
178
0
145
0.0
301
CELL_VALUE
 90
4
  1
 
304
ACVALUE_END
170
1
140
0.125
  0
ACAD_TABLE
  5
28A
100
AcDbEntity
  8
0
 62
2
  6
CONTINUOUS
100
AcDbBlockReference
  2
*T2
 10
12.4237499994
 20
16.47875
 30
0.0
100
AcDbTable
342
       3A6
343
208
 11
1.0
 21
0.0
 31
0.0
 90
22
 91
11
 92
3
 93
16
 94
0
 95
0
 96
0
 41
0.028
141
0.344
141
0.25
141
0.25
141
0.25
141
0.25
141
0.25
141
0.25
141
0.25
141
0.25
141
0.25
141
0.25
142
3.055
142
3.0
142
3.0
171
1
172
0
173
0
174
0
175
1
176
1
 91
33
178
0
145
0.0
301
CELL_VALUE
 90
4
  1
Technical Data
304
ACVALUE_END
170
5
140
0.145
171
1
172
0
173
0
174
0
175
1
176
1
 91
33
178
0
145
0.0
301
CELL_VALUE
 90
4
  1
U.S. Units
304
ACVALUE_END
170
5
140
0.145
171
1
172
0
173
0
174
0
175
1
176
1
 91
33
178
0
145
0.0
301
CELL_VALUE
 90
4
  1
Metric Units
304
ACVALUE_END
170
5
140
0.145
171
1
172
0
173
0
174
0
175
1
176
1
 91
33
178
0
145
0.0
301
CELL_VALUE
 90
4
  1
Cavity
304
ACVALUE_END
170
5
140
0.125
171
1
172
0
173
0
174
0
175
2
176
1
 91
33
178
0
145
0.0
301
CELL_VALUE
 90
4
  1
T-10A
304
ACVALUE_END
170
5
140
0.125
171
1
172
0
173
1
174
0
175
1
176
1
 91
1
178
0
145
0.0
170
1
171
1
172
0
173
0
174
0
175
1
176
1
 91
33
178
0
145
0.0
301
CELL_VALUE
 90
4
  1
Body Features
304
ACVALUE_END
170
5
140
0.125
171
1
172
0
173
0
174
0
175
2
176
1
 91
33
178
0
145
0.0
301
CELL_VALUE
 90
4
  1
P to T, side ports
304
ACVALUE_END
170
5
140
0.125
171
1
172
0
173
1
174
0
175
1
176
1
 91
1
178
0
145
0.0
170
1
171
1
172
0
173
0
174
0
175
1
176
1
 91
33
178
0
145
0.0
301
CELL_VALUE
 90
4
  1
Body Type
304
ACVALUE_END
170
5
140
0.125
171
1
172
0
173
0
174
0
175
2
176
1
 91
33
178
0
145
0.0
301
CELL_VALUE
 90
4
  1
Subplate
304
ACVALUE_END
170
5
140
0.125
171
1
172
0
173
1
174
0
175
1
176
1
 91
1
178
0
145
0.0
170
1
171
1
172
0
173
0
174
0
175
1
176
1
 91
33
178
0
145
0.0
301
CELL_VALUE
 90
4
  1
Interface
304
ACVALUE_END
170
5
140
0.125
171
1
172
0
173
0
174
0
175
2
176
1
 91
33
178
0
145
0.0
301
CELL_VALUE
 90
4
  1
ISO 03
304
ACVALUE_END
170
5
140
0.125
171
1
172
0
173
1
174
0
175
1
176
1
 91
1
178
0
145
0.0
170
1
171
1
172
0
173
0
174
0
175
1
176
1
 91
33
178
0
145
0.0
301
CELL_VALUE
 90
4
  1
Open Cavity Quantity
304
ACVALUE_END
170
5
140
0.125
171
1
172
0
173
0
174
0
175
2
176
1
 91
33
178
0
145
0.0
301
CELL_VALUE
 90
4
  1
1
304
ACVALUE_END
170
5
140
0.125
171
1
172
0
173
1
174
0
175
1
176
1
 91
1
178
0
145
0.0
170
1
171
1
172
0
173
0
174
0
175
1
176
1
 91
33
178
0
145
0.0
301
CELL_VALUE
 90
4
  1
Weight
304
ACVALUE_END
170
5
140
0.125
171
1
172
0
173
0
174
0
175
1
176
1
 91
33
178
0
145
0.0
301
CELL_VALUE
 90
4
  1
2.011 lb.
304
ACVALUE_END
170
5
140
0.125
171
1
172
0
173
0
174
0
175
1
176
1
 91
33
178
0
145
0.0
301
CELL_VALUE
 90
4
  1
0,912 kg.
304
ACVALUE_END
170
5
140
0.125
171
1
172
0
173
0
174
0
175
1
176
1
 91
33
178
0
145
0.0
301
CELL_VALUE
 90
4
  1
Mounting Hole Diameter
304
ACVALUE_END
170
5
140
0.125
171
1
172
0
173
0
174
0
175
1
176
1
 91
33
178
0
145
0.0
301
CELL_VALUE
 90
4
  1
.28 in.
304
ACVALUE_END
170
5
140
0.125
171
1
172
0
173
0
174
0
175
1
176
1
 91
33
178
0
145
0.0
301
CELL_VALUE
 90
4
  1
7,1 mm
304
ACVALUE_END
170
5
140
0.125
171
1
172
0
173
0
174
0
175
1
176
1
 91
33
178
0
145
0.0
301
CELL_VALUE
 90
4
  1
Mounting Hole Thread
304
ACVALUE_END
170
5
140
0.125
171
1
172
0
173
0
174
0
175
2
176
1
 91
33
178
0
145
0.0
301
CELL_VALUE
 90
4
  1
M5x.08 - 6H
304
ACVALUE_END
170
5
140
0.125
171
1
172
0
173
1
174
0
175
1
176
1
 91
1
178
0
145
0.0
170
1
171
1
172
0
173
0
174
0
175
1
176
1
 91
33
178
0
145
0.0
301
CELL_VALUE
 90
4
  1
Mounting Hole Depth
304
ACVALUE_END
170
5
140
0.125
171
1
172
0
173
0
174
0
175
1
176
1
 91
33
178
0
145
0.0
301
CELL_VALUE
 90
4
  1
.38 in.
304
ACVALUE_END
170
5
140
0.125
171
1
172
0
173
0
174
0
175
1
176
1
 91
33
178
0
145
0.0
301
CELL_VALUE
 90
4
  1
9,7 mm
304
ACVALUE_END
170
5
140
0.125
171
1
172
0
173
0
174
0
175
1
176
1
 91
33
178
0
145
0.0
301
CELL_VALUE
 90
4
  1
Mounting Hole Quantity
304
ACVALUE_END
170
5
140
0.125
171
1
172
0
173
0
174
0
175
2
176
1
 91
33
178
0
145
0.0
301
CELL_VALUE
 90
4
  1
4
304
ACVALUE_END
170
5
140
0.125
171
1
172
0
173
1
174
0
175
1
176
1
 91
1
178
0
145
0.0
170
1
  0
ACAD_TABLE
  5
28B
100
AcDbEntity
  8
0
 62
2
  6
CONTINUOUS
100
AcDbBlockReference
  2
*T3
 10
0.52125
 20
1.709
 30
0.0
100
AcDbTable
342
       3A6
343
209
 11
1.0
 21
0.0
 31
0.0
 90
22
 91
4
 92
3
 93
16
 94
0
 95
0
 96
0
 41
0.05
141
0.34375
141
0.344
141
0.25
141
0.25
142
1.3
142
2.0
142
1.3
171
1
172
0
173
0
174
0
175
3
176
1
 91
33
178
0
145
0.0
301
CELL_VALUE
 90
4
  1
Port Headings
304
ACVALUE_END
170
5
140
0.145
171
1
172
0
173
1
174
0
175
1
176
1
 91
1
178
0
145
0.0
170
1
171
1
172
0
173
1
174
0
175
1
176
1
 91
1
178
0
145
0.0
170
1
171
1
172
0
173
0
174
0
175
1
176
1
 91
33
178
0
145
0.0
301
CELL_VALUE
 90
4
  1
Product
304
ACVALUE_END
170
5
140
0.145
171
1
172
0
173
0
174
0
175
1
176
1
 91
33
178
0
145
0.0
301
CELL_VALUE
 90
4
  1
Port
304
ACVALUE_END
170
5
140
0.145
171
1
172
0
173
0
174
0
175
1
176
1
 91
33
178
0
145
0.0
301
CELL_VALUE
 90
4
  1
Size
304
ACVALUE_END
170
5
140
0.145
171
1
172
0
173
0
174
0
175
1
176
1
 91
33
178
0
145
0.0
301
CELL_VALUE
 90
4
  1
WCG
304
ACVALUE_END
170
5
140
0.125
171
1
172
0
173
0
174
0
175
1
176
1
 91
33
178
0
145
0.0
301
CELL_VALUE
 90
4
  1
Ports A, B, P, T
304
ACVALUE_END
170
5
140
0.125
171
1
172
0
173
0
174
0
175
1
176
1
 91
33
178
0
145
0.0
301
CELL_VALUE
 90
4
  1
1/2" BSPP
304
ACVALUE_END
170
5
140
0.125
171
1
172
0
173
0
174
0
175
1
176
1
 91
33
178
0
145
0.0
301
CELL_VALUE
 90
4
  1
WCG
304
ACVALUE_END
170
5
140
0.125
171
1
172
0
173
0
174
0
175
1
176
1
 91
33
178
0
145
0.0
301
CELL_VALUE
 90
4
  1
Gage Port
304
ACVALUE_END
170
5
140
0.125
171
1
172
0
173
0
174
0
175
1
176
1
 91
33
178
0
145
0.0
301
CELL_VALUE
 90
4
  1
1/4" BSPP
304
ACVALUE_END
170
5
140
0.125
  0
MTEXT
  5
28C
100
AcDbEntity
  8
0
100
AcDbMText
 62
2
  6
CONTINUOUS
  7
STANDARD
 71
1
 72
1
 10
0.52125
 20
5.75995
 30
0.0
 11
1.0
 21
0.0
 31
0.0
 44
0.6
  3
Notes\P \P1. Important: Carefully consider\P   the maximum system pressure. The\P   pressure rating of the manifold is\P   dependent on the manifold material,\P   with the port type/size a secondary\P   consideration. Manifolds\P   constructed of alu
  1
minum are not\P   rated for pressures higher than\P   3000 psi (210 bar), regardless of\P   the port type/size specified.
 40
0.1
 41
3.04
  0
LINE
  5
28D
100
AcDbEntity
  8
0
100
AcDbLine
 62
7
  6
CONTINUOUS
 10
0.30125
 20
0.30125
 11
0.30125
 21
16.69875
  0
LINE
  5
28E
100
AcDbEntity
  8
0
100
AcDbLine
 62
7
  6
CONTINUOUS
 10
0.30125
 20
0.30125
 11
21.69875
 21
0.30125
  0
LINE
  5
28F
100
AcDbEntity
  8
0
100
AcDbLine
 62
7
  6
CONTINUOUS
 10
0.30125
 20
16.69875
 11
21.69875
 21
16.69875
  0
LINE
  5
290
100
AcDbEntity
  8
0
100
AcDbLine
 62
7
  6
CONTINUOUS
 10
21.69875
 20
0.30125
 11
21.69875
 21
16.69875
  0
LINE
  5
291
100
AcDbEntity
  8
0
100
AcDbLine
 62
7
  6
CONTINUOUS
 10
9.5684485353
 20
10.5575976829
 11
9.0508108723
 21
10.0575980659
  0
LINE
  5
292
100
AcDbEntity
  8
0
100
AcDbLine
 62
7
  6
CONTINUOUS
 10
9.0508108723
 20
6.6768574735
 11
9.0508108723
 21
10.0575980659
  0
LINE
  5
293
100
AcDbEntity
  8
0
100
AcDbLine
 62
7
  6
CONTINUOUS
 10
9.0508108723
 20
6.6768574735
 11
11.0018237249
 21
6.5415542727
  0
LINE
  5
294
100
AcDbEntity
  8
0
100
AcDbLine
 62
7
  6
CONTINUOUS
 10
11.4464644956
 20
6.5107183305
 11
12.4315514647
 21
6.4424023171
  0
LINE
  5
295
100
AcDbEntity
  8
0
100
AcDbLine
 62
7
  6
CONTINUOUS
 10
11.4464644956
 20
6.5261731454
 11
11.0018237249
 21
6.5570090875
  0
LINE
  5
296
100
AcDbEntity
  8
0
100
AcDbLine
 62
4
  6
CONTINUOUS
 10
9.2584849326
 20
7.6670181537
 11
9.2343367861
 21
7.7459669023
  0
LINE
  5
297
100
AcDbEntity
  8
0
100
AcDbLine
 62
4
  6
CONTINUOUS
 10
9.2391664154
 20
9.0657306692
 11
9.2391664154
 21
9.0464121531
  0
LINE
  5
298
100
AcDbEntity
  8
0
100
AcDbLine
 62
4
  6
CONTINUOUS
 10
9.2439960447
 20
9.0267586976
 11
9.2439960447
 21
9.0074401804
  0
LINE
  5
299
100
AcDbEntity
  8
0
100
AcDbLine
 62
4
  6
CONTINUOUS
 10
9.2826330792
 20
8.9983211887
 11
9.2826330792
 21
9.0755952577
  0
LINE
  5
29A
100
AcDbEntity
  8
0
100
AcDbLine
 62
4
  6
CONTINUOUS
 10
9.248825674
 20
9.0779398092
 11
9.2391664154
 21
9.0657306692
  0
LINE
  5
29B
100
AcDbEntity
  8
0
100
AcDbLine
 62
4
  6
CONTINUOUS
 10
9.248825674
 20
9.0328632705
 11
9.2439960447
 21
9.0267586976
  0
LINE
  5
29C
100
AcDbEntity
  8
0
100
AcDbLine
 62
4
  6
CONTINUOUS
 10
11.2579514614
 20
6.6783398917
 11
11.2482922028
 21
6.6790097636
  0
LINE
  5
29D
100
AcDbEntity
  8
0
100
AcDbLine
 62
4
  6
CONTINUOUS
 10
10.4996996976
 20
6.7309248301
 11
10.4755515511
 21
6.7325995098
  0
LINE
  5
29E
100
AcDbEntity
  8
0
100
AcDbLine
 62
4
  6
CONTINUOUS
 10
11.2531218321
 20
6.7173118621
 11
11.2338033149
 21
6.7186516058
  0
LINE
  5
29F
100
AcDbEntity
  8
0
100
AcDbLine
 62
4
  6
CONTINUOUS
 10
10.4755515511
 20
6.7712365443
 11
10.4996996976
 21
6.7695618646
  0
LINE
  5
2A0
100
AcDbEntity
  8
0
100
AcDbLine
 62
4
  6
CONTINUOUS
 10
11.2482922028
 20
6.7562838325
 11
11.2579514614
 21
6.7556139607
  0
LINE
  5
2A1
100
AcDbEntity
  8
0
100
AcDbLine
 62
4
  6
CONTINUOUS
 10
10.4755515511
 20
6.7325995098
 11
10.4658922924
 21
6.7397088859
  0
LINE
  5
2A2
100
AcDbEntity
  8
0
100
AcDbLine
 62
4
  6
CONTINUOUS
 10
9.2826330792
 20
7.742617543
 11
9.2584849326
 21
7.6670181537
  0
LINE
  5
2A3
100
AcDbEntity
  8
0
100
AcDbLine
 62
4
  6
CONTINUOUS
 10
10.5360368793
 20
9.8450337355
 11
10.5470760267
 21
9.8553073212
  0
LINE
  5
2A4
100
AcDbEntity
  8
0
100
AcDbLine
 62
4
  6
CONTINUOUS
 10
10.4201257759
 20
9.8309938926
 11
10.4495635147
 21
9.843671249
  0
LINE
  5
2A5
100
AcDbEntity
  8
0
100
AcDbLine
 62
4
  6
CONTINUOUS
 10
11.2482922028
 20
6.6790097636
 11
11.2386329442
 21
6.6861191396
  0
LINE
  5
2A6
100
AcDbEntity
  8
0
100
AcDbLine
 62
4
  6
CONTINUOUS
 10
10.4658922924
 20
6.7397088859
 11
10.4610626631
 21
6.7464833306
  0
LINE
  5
2A7
100
AcDbEntity
  8
0
100
AcDbLine
 62
4
  6
CONTINUOUS
 10
10.5967522087
 20
9.8408231131
 11
10.6077913561
 21
9.8510966988
  0
LINE
  5
2A8
100
AcDbEntity
  8
0
100
AcDbLine
 62
4
  6
CONTINUOUS
 10
10.6353892431
 20
9.782947862
 11
10.6243500957
 21
9.7726742774
  0
LINE
  5
2A9
100
AcDbEntity
  8
0
100
AcDbLine
 62
4
  6
CONTINUOUS
 10
10.699784276
 20
9.7784820513
 11
10.6887451286
 21
9.7682084667
  0
LINE
  5
2AA
100
AcDbEntity
  8
0
100
AcDbLine
 62
4
  6
CONTINUOUS
 10
10.3851684965
 20
9.4724378949
 11
10.3796489412
 21
9.4673011008
  0
LINE
  5
2AB
100
AcDbEntity
  8
0
100
AcDbLine
 62
4
  6
CONTINUOUS
 10
11.032798733
 20
9.773786007
 11
11.0622364742
 21
9.7864633644
  0
LINE
  5
2AC
100
AcDbEntity
  8
0
100
AcDbLine
 62
4
  6
CONTINUOUS
 10
11.2579514614
 20
6.7556139607
 11
11.2676107201
 21
6.7485045829
  0
LINE
  5
2AD
100
AcDbEntity
  8
0
100
AcDbLine
 62
4
  6
CONTINUOUS
 10
9.2439960447
 20
9.0074401804
 11
9.248825674
 21
9.0006657403
  0
LINE
  5
2AE
100
AcDbEntity
  8
0
100
AcDbLine
 62
4
  6
CONTINUOUS
 10
9.2391664154
 20
9.0464121531
 11
9.248825674
 21
9.0328632705
  0
LINE
  5
2AF
100
AcDbEntity
  8
0
100
AcDbLine
 62
4
  6
CONTINUOUS
 10
10.4127663467
 20
9.420847791
 11
10.4072467914
 21
9.4157109951
  0
LINE
  5
2B0
100
AcDbEntity
  8
0
100
AcDbLine
 62
4
  6
CONTINUOUS
 10
10.4624425654
 20
9.4174027335
 11
10.4569230101
 21
9.4122659377
  0
LINE
  5
2B1
100
AcDbEntity
  8
0
100
AcDbLine
 62
4
  6
CONTINUOUS
 10
10.6758661844
 20
9.6101378249
 11
10.664827037
 21
9.5998642403
  0
LINE
  5
2B2
100
AcDbEntity
  8
0
100
AcDbLine
 62
4
  6
CONTINUOUS
 10
10.7402612449
 20
9.6056720122
 11
10.7292220883
 21
9.5953984283
  0
LINE
  5
2B3
100
AcDbEntity
  8
0
100
AcDbLine
 62
4
  6
CONTINUOUS
 10
10.9794428315
 20
9.8142834283
 11
10.9904819835
 21
9.8245570137
  0
LINE
  5
2B4
100
AcDbEntity
  8
0
100
AcDbLine
 62
4
  6
CONTINUOUS
 10
10.6519479974
 20
9.4318583673
 11
10.64090885
 21
9.4271043587
  0
LINE
  5
2B5
100
AcDbEntity
  8
0
100
AcDbLine
 62
4
  6
CONTINUOUS
 10
10.7568199534
 20
9.3969875923
 11
10.745780806
 21
9.3922335815
  0
LINE
  5
2B6
100
AcDbEntity
  8
0
100
AcDbLine
 62
4
  6
CONTINUOUS
 10
10.4900404525
 20
9.3878909311
 11
10.4918803042
 21
9.3932829153
  0
LINE
  5
2B7
100
AcDbEntity
  8
0
100
AcDbLine
 62
4
  6
CONTINUOUS
 10
9.2729738206
 20
7.7175293911
 11
9.2439960447
 21
7.7195390067
  0
LINE
  5
2B8
100
AcDbEntity
  8
0
100
AcDbLine
 62
4
  6
CONTINUOUS
 10
11.2386329442
 20
6.6861191396
 11
11.2338033149
 21
6.6928935844
  0
LINE
  5
2B9
100
AcDbEntity
  8
0
100
AcDbLine
 62
4
  6
CONTINUOUS
 10
11.2676107201
 20
6.7485045829
 11
11.2772699787
 21
6.7349556997
  0
LINE
  5
2BA
100
AcDbEntity
  8
0
100
AcDbLine
 62
4
  6
CONTINUOUS
 10
10.3796489412
 20
9.4673011008
 11
10.3796489412
 21
9.450742371
  0
LINE
  5
2BB
100
AcDbEntity
  8
0
100
AcDbLine
 62
4
  6
CONTINUOUS
 10
10.4127663467
 20
9.4374065191
 11
10.4127663467
 21
9.420847791
  0
LINE
  5
2BC
100
AcDbEntity
  8
0
100
AcDbLine
 62
4
  6
CONTINUOUS
 10
11.0144001864
 20
9.428800529
 11
11.0033610389
 21
9.4185269433
  0
LINE
  5
2BD
100
AcDbEntity
  8
0
100
AcDbLine
 62
4
  6
CONTINUOUS
 10
11.0751155295
 20
9.4245899057
 11
11.0640763775
 21
9.4143163203
  0
LINE
  5
2BE
100
AcDbEntity
  8
0
100
AcDbLine
 62
4
  6
CONTINUOUS
 10
11.102713412
 20
9.3564410691
 11
11.0916742588
 21
9.3461674849
  0
LINE
  5
2BF
100
AcDbEntity
  8
0
100
AcDbLine
 62
4
  6
CONTINUOUS
 10
10.4610626631
 20
6.7464833306
 11
10.4610626631
 21
6.759362339
  0
LINE
  5
2C0
100
AcDbEntity
  8
0
100
AcDbLine
 62
4
  6
CONTINUOUS
 10
10.4624425654
 20
9.4615593434
 11
10.4624425654
 21
9.4174027335
  0
LINE
  5
2C1
100
AcDbEntity
  8
0
100
AcDbLine
 62
4
  6
CONTINUOUS
 10
10.4918803042
 20
9.4650374059
 11
10.4918803042
 21
9.4098416411
  0
LINE
  5
2C2
100
AcDbEntity
  8
0
100
AcDbLine
 62
4
  6
CONTINUOUS
 10
10.4918803042
 20
9.3932829153
 11
10.4918803042
 21
9.387763337
  0
LINE
  5
2C3
100
AcDbEntity
  8
0
100
AcDbLine
 62
4
  6
CONTINUOUS
 10
10.4996996976
 20
6.8081988991
 11
10.4996996976
 21
6.7309248301
  0
LINE
  5
2C4
100
AcDbEntity
  8
0
100
AcDbLine
 62
4
  6
CONTINUOUS
 10
10.5047592519
 20
9.8582419995
 11
10.5047592519
 21
9.7809679306
  0
LINE
  5
2C5
100
AcDbEntity
  8
0
100
AcDbLine
 62
4
  6
CONTINUOUS
 10
10.5360368793
 20
9.7898379718
 11
10.5360368793
 21
9.8450337355
  0
LINE
  5
2C6
100
AcDbEntity
  8
0
100
AcDbLine
 62
4
  6
CONTINUOUS
 10
10.5415564862
 20
9.4560727744
 11
10.5415564862
 21
9.3843182821
  0
LINE
  5
2C7
100
AcDbEntity
  8
0
100
AcDbLine
 62
4
  6
CONTINUOUS
 10
10.563634781
 20
9.4600612161
 11
10.563634781
 21
9.4048654512
  0
LINE
  5
2C8
100
AcDbEntity
  8
0
100
AcDbLine
 62
4
  6
CONTINUOUS
 10
10.5746739138
 20
9.8533934013
 11
10.5746739138
 21
9.7761193323
  0
LINE
  5
2C9
100
AcDbEntity
  8
0
100
AcDbLine
 62
4
  6
CONTINUOUS
 10
10.5967522087
 20
9.7856273494
 11
10.5967522087
 21
9.8408231131
  0
LINE
  5
2CA
100
AcDbEntity
  8
0
100
AcDbLine
 62
4
  6
CONTINUOUS
 10
10.5967522602
 20
9.4025687462
 11
10.5967522602
 21
9.4522449345
  0
LINE
  5
2CB
100
AcDbEntity
  8
0
100
AcDbLine
 62
4
  6
CONTINUOUS
 10
10.6188305551
 20
9.4562333761
 11
10.6188305551
 21
9.4120767633
  0
LINE
  5
2CC
100
AcDbEntity
  8
0
100
AcDbLine
 62
4
  6
CONTINUOUS
 10
10.6353892431
 20
9.8381436257
 11
10.6353892431
 21
9.782947862
  0
LINE
  5
2CD
100
AcDbEntity
  8
0
100
AcDbLine
 62
4
  6
CONTINUOUS
 10
10.6372291499
 20
9.6348956164
 11
10.6372291499
 21
9.6790522292
  0
LINE
  5
2CE
100
AcDbEntity
  8
0
100
AcDbLine
 62
4
  6
CONTINUOUS
 10
10.7954570052
 20
9.6680790902
 11
10.7788982748
 21
9.5919533731
  0
LINE
  5
2CF
100
AcDbEntity
  8
0
100
AcDbLine
 62
4
  6
CONTINUOUS
 10
10.9481652317
 20
9.8274916904
 11
10.9260869276
 21
9.751748757
  0
LINE
  5
2D0
100
AcDbEntity
  8
0
100
AcDbLine
 62
4
  6
CONTINUOUS
 10
10.8285744625
 20
9.6657823867
 11
10.8120157333
 21
9.6117349736
  0
LINE
  5
2D1
100
AcDbEntity
  8
0
100
AcDbLine
 62
4
  6
CONTINUOUS
 10
10.7936171361
 20
9.4625104735
 11
10.7715388413
 21
9.3904472557
  0
LINE
  5
2D2
100
AcDbEntity
  8
0
100
AcDbLine
 62
4
  6
CONTINUOUS
 10
10.6519479974
 20
9.4484170971
 11
10.6519479974
 21
9.4318583673
  0
LINE
  5
2D3
100
AcDbEntity
  8
0
100
AcDbLine
 62
4
  6
CONTINUOUS
 10
10.6758661844
 20
9.6653335886
 11
10.6758661844
 21
9.6101378249
  0
LINE
  5
2D4
100
AcDbEntity
  8
0
100
AcDbLine
 62
4
  6
CONTINUOUS
 10
10.6758661809
 20
9.4026017555
 11
10.6758661809
 21
9.4136409076
  0
LINE
  5
2D5
100
AcDbEntity
  8
0
100
AcDbLine
 62
4
  6
CONTINUOUS
 10
10.699784276
 20
9.833677815
 11
10.699784276
 21
9.7784820513
  0
LINE
  5
2D6
100
AcDbEntity
  8
0
100
AcDbLine
 62
4
  6
CONTINUOUS
 10
10.7016241794
 20
9.4504916188
 11
10.7016241794
 21
9.3952958539
  0
LINE
  5
2D7
100
AcDbEntity
  8
0
100
AcDbLine
 62
4
  6
CONTINUOUS
 10
10.7237025111
 20
9.3716864123
 11
10.7237025111
 21
9.4489604813
  0
LINE
  5
2D8
100
AcDbEntity
  8
0
100
AcDbLine
 62
4
  6
CONTINUOUS
 10
10.7402612449
 20
9.660867776
 11
10.7402612449
 21
9.6056720122
  0
LINE
  5
2D9
100
AcDbEntity
  8
0
100
AcDbLine
 62
4
  6
CONTINUOUS
 10
10.7568199534
 20
9.4411442022
 11
10.7568199534
 21
9.3969875923
  0
LINE
  5
2DA
100
AcDbEntity
  8
0
100
AcDbLine
 62
4
  6
CONTINUOUS
 10
10.8156953979
 20
9.8366785046
 11
10.8156953979
 21
9.7594044356
  0
LINE
  5
2DB
100
AcDbEntity
  8
0
100
AcDbLine
 62
4
  6
CONTINUOUS
 10
10.8267345969
 20
9.3921389953
 11
10.8267345969
 21
9.4418151819
  0
LINE
  5
2DC
100
AcDbEntity
  8
0
100
AcDbLine
 62
4
  6
CONTINUOUS
 10
10.8598520061
 20
9.8336162334
 11
10.8598520061
 21
9.7563421644
  0
LINE
  5
2DD
100
AcDbEntity
  8
0
100
AcDbLine
 62
4
  6
CONTINUOUS
 10
10.8598520577
 20
9.4395184782
 11
10.8598520577
 21
9.3622444092
  0
LINE
  5
2DE
100
AcDbEntity
  8
0
100
AcDbLine
 62
4
  6
CONTINUOUS
 10
10.9426457003
 20
9.4337767195
 11
10.9426457003
 21
9.3565026506
  0
LINE
  5
2DF
100
AcDbEntity
  8
0
100
AcDbLine
 62
4
  6
CONTINUOUS
 10
10.9794428315
 20
9.7590876646
 11
10.9794428315
 21
9.8142834283
  0
LINE
  5
2E0
100
AcDbEntity
  8
0
100
AcDbLine
 62
4
  6
CONTINUOUS
 10
10.9812827348
 20
9.4310972321
 11
10.9812827348
 21
9.3538231631
  0
LINE
  5
2E1
100
AcDbEntity
  8
0
100
AcDbLine
 62
7
  6
CONTINUOUS
 10
11.0018237249
 20
6.5415542727
 11
11.0018237249
 21
6.5570090875
  0
LINE
  5
2E2
100
AcDbEntity
  8
0
100
AcDbLine
 62
4
  6
CONTINUOUS
 10
11.0033610389
 20
9.4185269433
 11
11.0033610389
 21
9.3522920275
  0
LINE
  5
2E3
100
AcDbEntity
  8
0
100
AcDbLine
 62
4
  6
CONTINUOUS
 10
11.0180798613
 20
9.8226430944
 11
11.0180798613
 21
9.7453690254
  0
LINE
  5
2E4
100
AcDbEntity
  8
0
100
AcDbLine
 62
4
  6
CONTINUOUS
 10
11.2772699787
 20
6.7349556997
 11
11.282099608
 21
6.7153022465
  0
LINE
  5
2E5
100
AcDbEntity
  8
0
100
AcDbLine
 62
4
  6
CONTINUOUS
 10
11.0419980734
 20
9.3496125401
 11
11.0419980734
 21
9.4158474559
  0
LINE
  5
2E6
100
AcDbEntity
  8
0
100
AcDbLine
 62
4
  6
CONTINUOUS
 10
11.0640763775
 20
9.4143163203
 11
11.0640763775
 21
9.4032771671
  0
LINE
  5
2E7
100
AcDbEntity
  8
0
100
AcDbLine
 62
4
  6
CONTINUOUS
 10
11.102713412
 20
9.3674802212
 11
11.102713412
 21
9.3564410691
  0
LINE
  5
2E8
100
AcDbEntity
  8
0
100
AcDbLine
 62
7
  6
CONTINUOUS
 10
12.4315514647
 20
9.8231429095
 11
12.9491891277
 21
10.3231425265
  0
LINE
  5
2E9
100
AcDbEntity
  8
0
100
AcDbLine
 62
4
  6
CONTINUOUS
 10
10.3851684965
 20
9.4172421301
 11
10.3796489412
 21
9.4231444909
  0
LINE
  5
2EA
100
AcDbEntity
  8
0
100
AcDbLine
 62
4
  6
CONTINUOUS
 10
10.6795458845
 20
9.3968269889
 11
10.6758661809
 21
9.4026017555
  0
LINE
  5
2EB
100
AcDbEntity
  8
0
100
AcDbLine
 62
4
  6
CONTINUOUS
 10
10.6188305551
 20
9.4120767633
 11
10.6243501104
 21
9.4006548288
  0
LINE
  5
2EC
100
AcDbEntity
  8
0
100
AcDbLine
 62
4
  6
CONTINUOUS
 10
10.8046562836
 20
9.3881505532
 11
10.788097544
 21
9.4444946706
  0
LINE
  5
2ED
100
AcDbEntity
  8
0
100
AcDbLine
 62
4
  6
CONTINUOUS
 10
10.8120157333
 20
9.6117349736
 11
10.7954570052
 21
9.6680790902
  0
LINE
  5
2EE
100
AcDbEntity
  8
0
100
AcDbLine
 62
4
  6
CONTINUOUS
 10
10.8451331917
 20
9.587359966
 11
10.8285744625
 21
9.6657823867
  0
LINE
  5
2EF
100
AcDbEntity
  8
0
100
AcDbLine
 62
4
  6
CONTINUOUS
 10
11.2338033149
 20
6.7186516058
 11
11.2338033149
 21
6.7444096284
  0
LINE
  5
2F0
100
AcDbEntity
  8
0
100
AcDbLine
 62
4
  6
CONTINUOUS
 10
9.248825674
 20
9.0006657403
 11
9.2826330792
 21
8.9983211887
  0
LINE
  5
2F1
100
AcDbEntity
  8
0
100
AcDbLine
 62
4
  6
CONTINUOUS
 10
10.3796489412
 20
9.450742371
 11
10.3851684965
 21
9.4466798712
  0
LINE
  5
2F2
100
AcDbEntity
  8
0
100
AcDbLine
 62
4
  6
CONTINUOUS
 10
10.4127663467
 20
9.4650044009
 11
10.4072467914
 21
9.47090676
  0
LINE
  5
2F3
100
AcDbEntity
  8
0
100
AcDbLine
 62
4
  6
CONTINUOUS
 10
10.4569230101
 20
9.4674617025
 11
10.4624425654
 21
9.4615593434
  0
LINE
  5
2F4
100
AcDbEntity
  8
0
100
AcDbLine
 62
4
  6
CONTINUOUS
 10
10.536036894
 20
9.461975136
 11
10.5415564862
 21
9.4560727744
  0
LINE
  5
2F5
100
AcDbEntity
  8
0
100
AcDbLine
 62
4
  6
CONTINUOUS
 10
10.5967522602
 20
9.4522449345
 11
10.5912326681
 21
9.4581472961
  0
LINE
  5
2F6
100
AcDbEntity
  8
0
100
AcDbLine
 62
4
  6
CONTINUOUS
 10
10.9812827348
 20
9.3538231631
 11
10.9426457003
 21
9.4337767195
  0
LINE
  5
2F7
100
AcDbEntity
  8
0
100
AcDbLine
 62
4
  6
CONTINUOUS
 10
10.9260869276
 20
9.751748757
 11
10.9040086143
 21
9.8305539622
  0
LINE
  5
2F8
100
AcDbEntity
  8
0
100
AcDbLine
 62
7
  6
CONTINUOUS
 10
11.4464644956
 20
6.5107183305
 11
11.4464644956
 21
6.5261731454
  0
LINE
  5
2F9
100
AcDbEntity
  8
0
100
AcDbLine
 62
4
  6
CONTINUOUS
 10
11.4897736827
 20
9.7145888553
 11
11.4897736827
 21
9.7918629242
  0
LINE
  5
2FA
100
AcDbEntity
  8
0
100
AcDbLine
 62
4
  6
CONTINUOUS
 10
9.2826330792
 20
9.030518719
 11
9.248825674
 21
9.0328632705
  0
LINE
  5
2FB
100
AcDbEntity
  8
0
100
AcDbLine
 62
4
  6
CONTINUOUS
 10
9.2826330792
 20
9.0755952577
 11
9.248825674
 21
9.0779398092
  0
LINE
  5
2FC
100
AcDbEntity
  8
0
100
AcDbLine
 62
4
  6
CONTINUOUS
 10
10.4072467914
 20
9.4414690189
 11
10.4127663467
 21
9.4374065191
  0
LINE
  5
2FD
100
AcDbEntity
  8
0
100
AcDbLine
 62
4
  6
CONTINUOUS
 10
10.8322541706
 20
9.3862366333
 11
10.8267345969
 21
9.3921389953
  0
LINE
  5
2FE
100
AcDbEntity
  8
0
100
AcDbLine
 62
4
  6
CONTINUOUS
 10
10.5470760267
 20
9.7780332523
 11
10.5360368793
 21
9.7898379718
  0
LINE
  5
2FF
100
AcDbEntity
  8
0
100
AcDbLine
 62
4
  6
CONTINUOUS
 10
10.664827037
 20
9.6771383092
 11
10.6758661844
 21
9.6653335886
  0
LINE
  5
300
100
AcDbEntity
  8
0
100
AcDbLine
 62
4
  6
CONTINUOUS
 10
10.6077913561
 20
9.7738226299
 11
10.5967522087
 21
9.7856273494
  0
LINE
  5
301
100
AcDbEntity
  8
0
100
AcDbLine
 62
4
  6
CONTINUOUS
 10
11.282099608
 20
6.7153022465
 11
11.2772699787
 21
6.6963186652
  0
LINE
  5
302
100
AcDbEntity
  8
0
100
AcDbLine
 62
4
  6
CONTINUOUS
 10
10.4610626631
 20
6.759362339
 11
10.4658922924
 21
6.7654669119
  0
LINE
  5
303
100
AcDbEntity
  8
0
100
AcDbLine
 62
4
  6
CONTINUOUS
 10
10.3851684965
 20
9.4466798712
 11
10.4072467914
 21
9.4414690189
  0
LINE
  5
304
100
AcDbEntity
  8
0
100
AcDbLine
 62
4
  6
CONTINUOUS
 10
10.64090885
 20
9.4547022412
 11
10.6519479974
 21
9.4484170971
  0
LINE
  5
305
100
AcDbEntity
  8
0
100
AcDbLine
 62
4
  6
CONTINUOUS
 10
10.745780806
 20
9.4474293463
 11
10.7568199534
 21
9.4411442022
  0
LINE
  5
306
100
AcDbEntity
  8
0
100
AcDbLine
 62
4
  6
CONTINUOUS
 10
11.0640763775
 20
9.4032771671
 11
11.102713412
 21
9.3674802212
  0
LINE
  5
307
100
AcDbEntity
  8
0
100
AcDbLine
 62
4
  6
CONTINUOUS
 10
10.7292220883
 20
9.6726724973
 11
10.7402612449
 21
9.660867776
  0
LINE
  5
308
100
AcDbEntity
  8
0
100
AcDbLine
 62
4
  6
CONTINUOUS
 10
11.0695959535
 20
9.3476986206
 11
11.0640763775
 21
9.3536009828
  0
LINE
  5
309
100
AcDbEntity
  8
0
100
AcDbLine
 62
4
  6
CONTINUOUS
 10
10.6243500957
 20
9.8499483464
 11
10.6353892431
 21
9.8381436257
  0
LINE
  5
30A
100
AcDbEntity
  8
0
100
AcDbLine
 62
4
  6
CONTINUOUS
 10
11.0419980734
 20
9.4158474559
 11
11.0309589213
 21
9.4276521769
  0
LINE
  5
30B
100
AcDbEntity
  8
0
100
AcDbLine
 62
4
  6
CONTINUOUS
 10
10.6887451286
 20
9.8454825357
 11
10.699784276
 21
9.833677815
  0
LINE
  5
30C
100
AcDbEntity
  8
0
100
AcDbLine
 62
4
  6
CONTINUOUS
 10
11.102713412
 20
9.4171564094
 11
11.0971938354
 21
9.42305877
  0
LINE
  5
30D
100
AcDbEntity
  8
0
100
AcDbLine
 62
4
  6
CONTINUOUS
 10
11.0916742588
 20
9.3461674849
 11
11.0695959535
 21
9.3476986206
  0
LINE
  5
30E
100
AcDbEntity
  8
0
100
AcDbLine
 62
4
  6
CONTINUOUS
 10
10.4918803042
 20
9.387763337
 11
10.4900404525
 21
9.3878909311
  0
LINE
  5
30F
100
AcDbEntity
  8
0
100
AcDbLine
 62
4
  6
CONTINUOUS
 10
10.8598520577
 20
9.3843227133
 11
10.8322541706
 21
9.3862366333
  0
LINE
  5
310
100
AcDbEntity
  8
0
100
AcDbLine
 62
4
  6
CONTINUOUS
 10
10.745780806
 20
9.3922335815
 11
10.7237025111
 21
9.3937647164
  0
LINE
  5
311
100
AcDbEntity
  8
0
100
AcDbLine
 62
4
  6
CONTINUOUS
 10
10.7016241794
 20
9.3952958539
 11
10.6795458845
 21
9.3968269889
  0
LINE
  5
312
100
AcDbEntity
  8
0
100
AcDbLine
 62
4
  6
CONTINUOUS
 10
10.4569230101
 20
9.4122659377
 11
10.4348446416
 21
9.4137970777
  0
LINE
  5
313
100
AcDbEntity
  8
0
100
AcDbLine
 62
4
  6
CONTINUOUS
 10
10.4072467914
 20
9.4157109951
 11
10.3851684965
 21
9.4172421301
  0
LINE
  5
314
100
AcDbEntity
  8
0
100
AcDbLine
 62
4
  6
CONTINUOUS
 10
10.6243501104
 20
9.4006548288
 11
10.6519479974
 21
9.3987409088
  0
LINE
  5
315
100
AcDbEntity
  8
0
100
AcDbLine
 62
4
  6
CONTINUOUS
 10
10.64090885
 20
9.4271043587
 11
10.6188305551
 21
9.4286354937
  0
LINE
  5
316
100
AcDbEntity
  8
0
100
AcDbLine
 62
4
  6
CONTINUOUS
 10
11.0971938354
 20
9.42305877
 11
11.0751155295
 21
9.4245899057
  0
LINE
  5
317
100
AcDbEntity
  8
0
100
AcDbLine
 62
4
  6
CONTINUOUS
 10
11.0309589213
 20
9.4276521769
 11
11.0144001864
 21
9.428800529
  0
LINE
  5
318
100
AcDbEntity
  8
0
100
AcDbLine
 62
4
  6
CONTINUOUS
 10
10.5912326681
 20
9.4581472961
 11
10.563634781
 21
9.4600612161
  0
LINE
  5
319
100
AcDbEntity
  8
0
100
AcDbLine
 62
4
  6
CONTINUOUS
 10
10.4072467914
 20
9.47090676
 11
10.3851684965
 21
9.4724378949
  0
LINE
  5
31A
100
AcDbEntity
  8
0
100
AcDbLine
 62
4
  6
CONTINUOUS
 10
10.4348446416
 20
9.4689928426
 11
10.4569230101
 21
9.4674617025
  0
LINE
  5
31B
100
AcDbEntity
  8
0
100
AcDbLine
 62
4
  6
CONTINUOUS
 10
10.5249977466
 20
9.4627407035
 11
10.536036894
 21
9.461975136
  0
LINE
  5
31C
100
AcDbEntity
  8
0
100
AcDbLine
 62
4
  6
CONTINUOUS
 10
10.6188305551
 20
9.4562333761
 11
10.64090885
 21
9.4547022412
  0
LINE
  5
31D
100
AcDbEntity
  8
0
100
AcDbLine
 62
4
  6
CONTINUOUS
 10
10.7237025111
 20
9.4489604813
 11
10.745780806
 21
9.4474293463
  0
LINE
  5
31E
100
AcDbEntity
  8
0
100
AcDbLine
 62
4
  6
CONTINUOUS
 10
10.8046562836
 20
9.461744906
 11
10.7936171361
 21
9.4625104735
  0
LINE
  5
31F
100
AcDbEntity
  8
0
100
AcDbLine
 62
4
  6
CONTINUOUS
 10
10.4495635147
 20
9.8142335068
 11
10.4201257759
 21
9.8309938926
  0
LINE
  5
320
100
AcDbEntity
  8
0
100
AcDbLine
 62
4
  6
CONTINUOUS
 10
10.9904819835
 20
9.7472829447
 11
10.9794428315
 21
9.7590876646
  0
LINE
  5
321
100
AcDbEntity
  8
0
100
AcDbLine
 62
4
  6
CONTINUOUS
 10
10.7292220883
 20
9.5953984283
 11
10.7071437842
 21
9.5969295639
  0
LINE
  5
322
100
AcDbEntity
  8
0
100
AcDbLine
 62
4
  6
CONTINUOUS
 10
10.664827037
 20
9.5998642403
 11
10.6372291499
 21
9.6017781603
  0
LINE
  5
323
100
AcDbEntity
  8
0
100
AcDbLine
 62
4
  6
CONTINUOUS
 10
10.6537878711
 20
9.6337472652
 11
10.6372291499
 21
9.6348956164
  0
LINE
  5
324
100
AcDbEntity
  8
0
100
AcDbLine
 62
4
  6
CONTINUOUS
 10
10.6372291499
 20
9.6790522292
 11
10.664827037
 21
9.6771383092
  0
LINE
  5
325
100
AcDbEntity
  8
0
100
AcDbLine
 62
4
  6
CONTINUOUS
 10
10.7071437842
 20
9.6742036329
 11
10.7292220883
 21
9.6726724973
  0
LINE
  5
326
100
AcDbEntity
  8
0
100
AcDbLine
 62
4
  6
CONTINUOUS
 10
11.0622364742
 20
9.7864633644
 11
11.032798733
 21
9.8032237492
  0
LINE
  5
327
100
AcDbEntity
  8
0
100
AcDbLine
 62
4
  6
CONTINUOUS
 10
11.2338033149
 20
6.7444096284
 11
11.2386329442
 21
6.7505141984
  0
LINE
  5
328
100
AcDbEntity
  8
0
100
AcDbLine
 62
4
  6
CONTINUOUS
 10
11.2772699787
 20
6.6963186652
 11
11.2676107201
 21
6.6841095241
  0
LINE
  5
329
100
AcDbEntity
  8
0
100
AcDbLine
 62
4
  6
CONTINUOUS
 10
10.4658922924
 20
6.7654669119
 11
10.4755515511
 21
6.7712365443
  0
LINE
  5
32A
100
AcDbEntity
  8
0
100
AcDbLine
 62
4
  6
CONTINUOUS
 10
11.0180798613
 20
9.7453690254
 11
10.9904819835
 21
9.7472829447
  0
LINE
  5
32B
100
AcDbEntity
  8
0
100
AcDbLine
 62
4
  6
CONTINUOUS
 10
10.8819303194
 20
9.7548110282
 11
10.8377737112
 21
9.7578732994
  0
LINE
  5
32C
100
AcDbEntity
  8
0
100
AcDbLine
 62
4
  6
CONTINUOUS
 10
10.8156953979
 20
9.7594044356
 11
10.7825779371
 21
9.7617011393
  0
LINE
  5
32D
100
AcDbEntity
  8
0
100
AcDbLine
 62
4
  6
CONTINUOUS
 10
10.6887451286
 20
9.7682084667
 11
10.6666668337
 21
9.7697396017
  0
LINE
  5
32E
100
AcDbEntity
  8
0
100
AcDbLine
 62
4
  6
CONTINUOUS
 10
10.6243500957
 20
9.7726742774
 11
10.6077913561
 21
9.7738226299
  0
LINE
  5
32F
100
AcDbEntity
  8
0
100
AcDbLine
 62
4
  6
CONTINUOUS
 10
10.5746739138
 20
9.7761193323
 11
10.5470760267
 21
9.7780332523
  0
LINE
  5
330
100
AcDbEntity
  8
0
100
AcDbLine
 62
4
  6
CONTINUOUS
 10
10.5047592519
 20
9.7809679306
 11
10.4716418095
 21
9.783264633
  0
LINE
  5
331
100
AcDbEntity
  8
0
100
AcDbLine
 62
4
  6
CONTINUOUS
 10
11.5139218293
 20
9.7129141756
 11
11.4656255362
 21
9.7162635349
  0
LINE
  5
332
100
AcDbEntity
  8
0
100
AcDbLine
 62
4
  6
CONTINUOUS
 10
10.482680957
 20
9.8156165217
 11
10.5047592519
 21
9.8140853867
  0
LINE
  5
333
100
AcDbEntity
  8
0
100
AcDbLine
 62
4
  6
CONTINUOUS
 10
10.7936170846
 20
9.794053028
 11
10.8156953979
 21
9.7925218918
  0
LINE
  5
334
100
AcDbEntity
  8
0
100
AcDbLine
 62
4
  6
CONTINUOUS
 10
10.940805797
 20
9.8059237625
 11
10.9113680582
 21
9.8079652766
  0
LINE
  5
335
100
AcDbEntity
  8
0
100
AcDbLine
 62
4
  6
CONTINUOUS
 10
10.8156953979
 20
9.8366785046
 11
10.7825779371
 21
9.8389752083
  0
LINE
  5
336
100
AcDbEntity
  8
0
100
AcDbLine
 62
4
  6
CONTINUOUS
 10
10.5047592519
 20
9.8582419995
 11
10.4716418095
 21
9.860538702
  0
LINE
  5
337
100
AcDbEntity
  8
0
100
AcDbLine
 62
4
  6
CONTINUOUS
 10
10.5470760267
 20
9.8553073212
 11
10.5746739138
 21
9.8533934013
  0
LINE
  5
338
100
AcDbEntity
  8
0
100
AcDbLine
 62
4
  6
CONTINUOUS
 10
10.6077913561
 20
9.8510966988
 11
10.6243500957
 21
9.8499483464
  0
LINE
  5
339
100
AcDbEntity
  8
0
100
AcDbLine
 62
4
  6
CONTINUOUS
 10
10.6666668337
 20
9.8470136706
 11
10.6887451286
 21
9.8454825357
  0
LINE
  5
33A
100
AcDbEntity
  8
0
100
AcDbLine
 62
4
  6
CONTINUOUS
 10
10.9904819835
 20
9.8245570137
 11
11.0180798613
 21
9.8226430944
  0
LINE
  5
33B
100
AcDbEntity
  8
0
100
AcDbLine
 62
7
  6
CONTINUOUS
 10
12.4315514647
 20
6.4424023171
 11
12.4315514647
 21
9.8231429095
  0
LINE
  5
33C
100
AcDbEntity
  8
0
100
AcDbLine
 62
7
  6
CONTINUOUS
 10
9.0508108723
 20
10.0575980659
 11
12.4315514647
 21
9.8231429095
  0
LINE
  5
33D
100
AcDbEntity
  8
0
100
AcDbLine
 62
4
  6
CONTINUOUS
 10
11.2386329442
 20
6.7505141984
 11
11.2482922028
 21
6.7562838325
  0
LINE
  5
33E
100
AcDbEntity
  8
0
100
AcDbLine
 62
4
  6
CONTINUOUS
 10
11.2676107201
 20
6.6841095241
 11
11.2579514614
 21
6.6783398917
  0
LINE
  5
33F
100
AcDbEntity
  8
0
100
AcDbLine
 62
7
  6
CONTINUOUS
 10
12.9491891277
 20
6.9424019341
 11
12.9491891277
 21
10.3231425265
  0
LINE
  5
340
100
AcDbEntity
  8
0
100
AcDbLine
 62
7
  6
CONTINUOUS
 10
12.9491891277
 20
10.3231425265
 11
9.5684485353
 21
10.5575976829
  0
LINE
  5
341
100
AcDbEntity
  8
0
100
AcDbLine
 62
7
  6
CONTINUOUS
 10
12.4315514647
 20
6.4424023171
 11
12.9491891277
 21
6.9424019341
  0
ARC
  5
342
100
AcDbEntity
  8
0
100
AcDbCircle
 62
7
  6
CONTINUOUS
 10
10.8994069399
 20
8.0560927605
 40
0.1322422834
100
AcDbArc
 50
237.7674619465
 51
261.6221768194
  0
ARC
  5
343
100
AcDbEntity
  8
0
100
AcDbCircle
 62
7
  6
CONTINUOUS
 10
10.8955141508
 20
8.055533159
 40
0.1297257688
100
AcDbArc
 50
218.599566453
 51
239.0901038652
  0
SPLINE
  5
344
100
AcDbEntity
  8
0
100
AcDbSpline
 62
7
  6
CONTINUOUS
 70
0
 71
3
 72
48
 73
44
 74
0
 42
0.0000001
 43
0.0000001
 44
0.0000000001
 40
0.0
 40
0.0
 40
0.0
 40
0.0
 40
0.0958287078
 40
0.1428189802
 40
0.1890972253
 40
0.2345925351
 40
0.2792363692
 40
0.3229619627
 40
0.3657045591
 40
0.4074016611
 40
0.4479931951
 40
0.487421778
 40
0.5256329369
 40
0.5625753586
 40
0.5982011858
 40
0.6324663776
 40
0.665331128
 40
0.6967603047
 40
0.7267240134
 40
0.755198301
 40
0.7821660712
 40
0.8076181778
 40
0.819776277
 40
0.8315564256
 40
0.8429604214
 40
0.8539909461
 40
0.8646515232
 40
0.8749468216
 40
0.8848825944
 40
0.8944658812
 40
0.9037052143
 40
0.9126106219
 40
0.9211939867
 40
0.9294691045
 40
0.9374518915
 40
0.9451606619
 40
0.9598348196
 40
0.9668566843
 40
0.973703554
 40
0.9804067973
 40
0.987000038
 40
0.9935188112
 40
1.0
 40
1.0
 40
1.0
 40
1.0
 10
11.5704472079
 20
9.9913800195
 30
0.0
 10
11.5549498396
 20
9.9924547656
 30
0.0
 10
11.5318697715
 20
9.9943138845
 30
0.0
 10
11.5013628307
 20
9.9973198494
 30
0.0
 10
11.4790044398
 20
9.9997981797
 30
0.0
 10
11.4570565064
 20
10.0025107998
 30
0.0
 10
11.43555573
 20
10.005453165
 30
0.0
 10
11.4145380464
 20
10.0086203211
 30
0.0
 10
11.3940385743
 20
10.0120069474
 30
0.0
 10
11.37409157
 20
10.0156073498
 30
0.0
 10
11.3547303533
 20
10.0194154815
 30
0.0
 10
11.3359872508
 20
10.0234249345
 30
0.0
 10
11.317893539
 20
10.0276289627
 30
0.0
 10
11.3004793962
 20
10.0320204957
 30
0.0
 10
11.2837738484
 20
10.0365921521
 30
0.0
 10
11.267804708
 20
10.0413362502
 30
0.0
 10
11.2525985191
 20
10.0462448135
 30
0.0
 10
11.2381805039
 20
10.0513096067
 30
0.0
 10
11.2245745461
 20
10.0565221459
 30
0.0
 10
11.2118030293
 20
10.0618737533
 30
0.0
 10
11.1998871407
 20
10.0673555031
 30
0.0
 10
11.1905488058
 20
10.072094216
 30
0.0
 10
11.1835318173
 20
10.0759512267
 30
0.0
 10
11.1785757132
 20
10.0788266049
 30
0.0
 10
11.1738477135
 20
10.0817276259
 30
0.0
 10
11.1693497451
 20
10.0846530937
 30
0.0
 10
11.1650836928
 20
10.0876018546
 30
0.0
 10
11.1610512919
 20
10.0905726706
 30
0.0
 10
11.1572542108
 20
10.0935643583
 30
0.0
 10
11.1536940315
 20
10.0965757393
 30
0.0
 10
11.1503721915
 20
10.0996055784
 30
0.0
 10
11.1472901153
 20
10.1026527307
 30
0.0
 10
11.1444490559
 20
10.1057160064
 30
0.0
 10
11.1418502713
 20
10.1087941405
 30
0.0
 10
11.1394947593
 20
10.1118863146
 30
0.0
 10
11.1367259319
 20
10.1159581373
 30
0.0
 10
11.1343834172
 20
10.1201262129
 30
0.0
 10
11.1325274272
 20
10.1243679331
 30
0.0
 10
11.1314036797
 20
10.1275108403
 30
0.0
 10
11.1305288012
 20
10.1306598988
 30
0.0
 10
11.1299033986
 20
10.1338138756
 30
0.0
 10
11.1295279663
 20
10.1369709173
 30
0.0
 10
11.1294444126
 20
10.1390792536
 30
0.0
 10
11.1294444126
 20
10.1401299055
 30
0.0
  0
SPLINE
  5
345
100
AcDbEntity
  8
0
100
AcDbSpline
 62
7
  6
CONTINUOUS
 70
0
 71
3
 72
41
 73
37
 74
0
 42
0.0000001
 43
0.0000001
 44
0.0000000001
 40
0.0
 40
0.0
 40
0.0
 40
0.0
 40
0.0311444983
 40
0.062442467
 40
0.093887251
 40
0.1254695609
 40
0.157177086
 40
0.1889950997
 40
0.2209066479
 40
0.2528929497
 40
0.284933762
 40
0.3170077852
 40
0.3490930781
 40
0.3811674822
 40
0.4132090489
 40
0.445196464
 40
0.4771094635
 40
0.5089292351
 40
0.540638799
 40
0.5722233621
 40
0.6036706378
 40
0.6349711269
 40
0.6661183495
 40
0.6971090237
 40
0.7279431823
 40
0.7586242225
 40
0.7891588828
 40
0.8195571428
 40
0.8498320452
 40
0.86493089
 40
0.8800050502
 40
0.9100832578
 40
0.9400926753
 40
0.9550812784
 40
0.9700610371
 40
1.0
 40
1.0
 40
1.0
 40
1.0
 10
9.3714982535
 20
9.8503834972
 30
0.0
 10
9.374812201
 20
9.8501536741
 30
0.0
 10
9.381442069
 20
9.8494503214
 30
0.0
 10
9.3913064859
 20
9.8476785903
 30
0.0
 10
9.4010652604
 20
9.845196887
 30
0.0
 10
9.410665654
 20
9.842018612
 30
0.0
 10
9.4200566887
 20
9.8381607656
 30
0.0
 10
9.4291882637
 20
9.8336439998
 30
0.0
 10
9.4380117349
 20
9.8284924458
 30
0.0
 10
9.446480086
 20
9.8227336115
 30
0.0
 10
9.4545481977
 20
9.816398225
 30
0.0
 10
9.4621730801
 20
9.8095200757
 30
0.0
 10
9.4693141002
 20
9.8021358339
 30
0.0
 10
9.4759331962
 20
9.7942848582
 30
0.0
 10
9.4819950783
 20
9.7860089871
 30
0.0
 10
9.4874674148
 20
9.7773523185
 30
0.0
 10
9.4923210039
 20
9.7683609775
 30
0.0
 10
9.4965299275
 20
9.7590828733
 30
0.0
 10
9.5000716898
 20
9.7495674469
 30
0.0
 10
9.5029273366
 20
9.7398654116
 30
0.0
 10
9.5050815575
 20
9.7300284857
 30
0.0
 10
9.5065227694
 20
9.7201091211
 30
0.0
 10
9.5072431798
 20
9.7101602264
 30
0.0
 10
9.507238834
 20
9.7002348909
 30
0.0
 10
9.5065096345
 20
9.6903860943
 30
0.0
 10
9.5050593672
 20
9.6806664642
 30
0.0
 10
9.5028956146
 20
9.6711278539
 30
0.0
 10
9.5000299906
 20
9.6618215913
 30
0.0
 10
9.4970664406
 20
9.6542933684
 30
0.0
 10
9.4943620573
 20
9.6484390019
 30
0.0
 10
9.4914434852
 20
9.6427119354
 30
0.0
 10
9.4873912259
 20
9.6357847384
 30
0.0
 10
9.4828177655
 20
9.6292010588
 30
0.0
 10
9.4788656277
 20
9.6241686497
 30
0.0
 10
9.4747249472
 20
9.6193005049
 30
0.0
 10
9.4714075509
 20
9.6158347842
 30
0.0
 10
9.469110746
 20
9.6136162258
 30
0.0
  0
SPLINE
  5
346
100
AcDbEntity
  8
0
100
AcDbSpline
 62
7
  6
CONTINUOUS
 70
0
 71
3
 72
41
 73
37
 74
0
 42
0.0000001
 43
0.0000001
 44
0.0000000001
 40
0.0
 40
0.0
 40
0.0
 40
0.0
 40
0.0311444983
 40
0.062442467
 40
0.093887251
 40
0.1254695609
 40
0.157177086
 40
0.1889950997
 40
0.2209066479
 40
0.2528929497
 40
0.284933762
 40
0.3170077852
 40
0.3490930781
 40
0.3811674822
 40
0.4132090489
 40
0.445196464
 40
0.4771094635
 40
0.5089292351
 40
0.540638799
 40
0.5722233621
 40
0.6036706378
 40
0.6349711269
 40
0.6661183495
 40
0.6971090237
 40
0.7279431823
 40
0.7586242225
 40
0.7891588828
 40
0.8195571428
 40
0.8498320452
 40
0.86493089
 40
0.8800050502
 40
0.9100832578
 40
0.9400926753
 40
0.9550812784
 40
0.9700610371
 40
1.0
 40
1.0
 40
1.0
 40
1.0
 10
12.1108640547
 20
9.6604078336
 30
0.0
 10
12.1141780023
 20
9.6601780106
 30
0.0
 10
12.1208078703
 20
9.6594746578
 30
0.0
 10
12.1306722872
 20
9.6577029268
 30
0.0
 10
12.1404310617
 20
9.6552212235
 30
0.0
 10
12.1500314553
 20
9.6520429484
 30
0.0
 10
12.15942249
 20
9.648185102
 30
0.0
 10
12.168554065
 20
9.6436683362
 30
0.0
 10
12.1773775362
 20
9.6385167822
 30
0.0
 10
12.1858458873
 20
9.632757948
 30
0.0
 10
12.193913999
 20
9.6264225615
 30
0.0
 10
12.2015388814
 20
9.6195444121
 30
0.0
 10
12.2086799015
 20
9.6121601703
 30
0.0
 10
12.2152989975
 20
9.6043091946
 30
0.0
 10
12.2213608796
 20
9.5960333235
 30
0.0
 10
12.2268332161
 20
9.5873766549
 30
0.0
 10
12.2316868052
 20
9.5783853139
 30
0.0
 10
12.2358957288
 20
9.5691072097
 30
0.0
 10
12.2394374911
 20
9.5595917834
 30
0.0
 10
12.2422931379
 20
9.5498897481
 30
0.0
 10
12.2444473588
 20
9.5400528222
 30
0.0
 10
12.2458885707
 20
9.5301334576
 30
0.0
 10
12.2466089811
 20
9.5201845628
 30
0.0
 10
12.2466046353
 20
9.5102592273
 30
0.0
 10
12.2458754358
 20
9.5004104308
 30
0.0
 10
12.2444251685
 20
9.4906908006
 30
0.0
 10
12.2422614159
 20
9.4811521903
 30
0.0
 10
12.2393957919
 20
9.4718459277
 30
0.0
 10
12.2364322419
 20
9.4643177049
 30
0.0
 10
12.2337278586
 20
9.4584633384
 30
0.0
 10
12.2308092865
 20
9.4527362719
 30
0.0
 10
12.2267570272
 20
9.4458090748
 30
0.0
 10
12.2221835668
 20
9.4392253953
 30
0.0
 10
12.218231429
 20
9.4341929861
 30
0.0
 10
12.2140907484
 20
9.4293248413
 30
0.0
 10
12.2107733522
 20
9.4258591206
 30
0.0
 10
12.2084765473
 20
9.4236405622
 30
0.0
  0
SPLINE
  5
347
100
AcDbEntity
  8
0
100
AcDbSpline
 62
7
  6
CONTINUOUS
 70
0
 71
3
 72
41
 73
37
 74
0
 42
0.0000001
 43
0.0000001
 44
0.0000000001
 40
0.0
 40
0.0
 40
0.0
 40
0.0
 40
0.0311444983
 40
0.062442467
 40
0.093887251
 40
0.1254695609
 40
0.157177086
 40
0.1889950997
 40
0.2209066479
 40
0.2528929497
 40
0.284933762
 40
0.3170077852
 40
0.3490930781
 40
0.3811674822
 40
0.4132090489
 40
0.445196464
 40
0.4771094635
 40
0.5089292351
 40
0.540638799
 40
0.5722233621
 40
0.6036706378
 40
0.6349711269
 40
0.6661183495
 40
0.6971090237
 40
0.7279431823
 40
0.7586242225
 40
0.7891588828
 40
0.8195571428
 40
0.8498320452
 40
0.86493089
 40
0.8800050502
 40
0.9100832578
 40
0.9400926753
 40
0.9550812784
 40
0.9700610371
 40
1.0
 40
1.0
 40
1.0
 40
1.0
 10
9.3714982535
 20
7.1110176959
 30
0.0
 10
9.374812201
 20
7.1107878728
 30
0.0
 10
9.381442069
 20
7.1100845201
 30
0.0
 10
9.3913064859
 20
7.108312789
 30
0.0
 10
9.4010652604
 20
7.1058310858
 30
0.0
 10
9.410665654
 20
7.1026528107
 30
0.0
 10
9.4200566887
 20
7.0987949643
 30
0.0
 10
9.4291882637
 20
7.0942781985
 30
0.0
 10
9.4380117349
 20
7.0891266445
 30
0.0
 10
9.446480086
 20
7.0833678102
 30
0.0
 10
9.4545481977
 20
7.0770324237
 30
0.0
 10
9.4621730801
 20
7.0701542744
 30
0.0
 10
9.4693141002
 20
7.0627700326
 30
0.0
 10
9.4759331962
 20
7.0549190569
 30
0.0
 10
9.4819950783
 20
7.0466431858
 30
0.0
 10
9.4874674148
 20
7.0379865172
 30
0.0
 10
9.4923210039
 20
7.0289951762
 30
0.0
 10
9.4965299275
 20
7.019717072
 30
0.0
 10
9.5000716898
 20
7.0102016456
 30
0.0
 10
9.5029273366
 20
7.0004996103
 30
0.0
 10
9.5050815575
 20
6.9906626844
 30
0.0
 10
9.5065227694
 20
6.9807433198
 30
0.0
 10
9.5072431798
 20
6.9707944251
 30
0.0
 10
9.507238834
 20
6.9608690896
 30
0.0
 10
9.5065096345
 20
6.9510202931
 30
0.0
 10
9.5050593672
 20
6.9413006629
 30
0.0
 10
9.5028956146
 20
6.9317620526
 30
0.0
 10
9.5000299906
 20
6.92245579
 30
0.0
 10
9.4970664406
 20
6.9149275671
 30
0.0
 10
9.4943620573
 20
6.9090732006
 30
0.0
 10
9.4914434852
 20
6.9033461341
 30
0.0
 10
9.4873912259
 20
6.8964189371
 30
0.0
 10
9.4828177655
 20
6.8898352575
 30
0.0
 10
9.4788656277
 20
6.8848028484
 30
0.0
 10
9.4747249472
 20
6.8799347036
 30
0.0
 10
9.4714075509
 20
6.8764689829
 30
0.0
 10
9.469110746
 20
6.8742504245
 30
0.0
  0
SPLINE
  5
348
100
AcDbEntity
  8
0
100
AcDbSpline
 62
7
  6
CONTINUOUS
 70
0
 71
3
 72
41
 73
37
 74
0
 42
0.0000001
 43
0.0000001
 44
0.0000000001
 40
0.0
 40
0.0
 40
0.0
 40
0.0
 40
0.0311444983
 40
0.062442467
 40
0.093887251
 40
0.1254695609
 40
0.157177086
 40
0.1889950997
 40
0.2209066479
 40
0.2528929497
 40
0.284933762
 40
0.3170077852
 40
0.3490930781
 40
0.3811674822
 40
0.4132090489
 40
0.445196464
 40
0.4771094635
 40
0.5089292351
 40
0.540638799
 40
0.5722233621
 40
0.6036706378
 40
0.6349711269
 40
0.6661183495
 40
0.6971090237
 40
0.7279431823
 40
0.7586242225
 40
0.7891588828
 40
0.8195571428
 40
0.8498320452
 40
0.86493089
 40
0.8800050502
 40
0.9100832578
 40
0.9400926753
 40
0.9550812784
 40
0.9700610371
 40
1.0
 40
1.0
 40
1.0
 40
1.0
 10
12.1108640547
 20
6.9210420323
 30
0.0
 10
12.1141780023
 20
6.9208122093
 30
0.0
 10
12.1208078703
 20
6.9201088565
 30
0.0
 10
12.1306722872
 20
6.9183371255
 30
0.0
 10
12.1404310617
 20
6.9158554222
 30
0.0
 10
12.1500314553
 20
6.9126771472
 30
0.0
 10
12.15942249
 20
6.9088193008
 30
0.0
 10
12.168554065
 20
6.904302535
 30
0.0
 10
12.1773775362
 20
6.8991509809
 30
0.0
 10
12.1858458873
 20
6.8933921467
 30
0.0
 10
12.193913999
 20
6.8870567602
 30
0.0
 10
12.2015388814
 20
6.8801786108
 30
0.0
 10
12.2086799015
 20
6.872794369
 30
0.0
 10
12.2152989975
 20
6.8649433933
 30
0.0
 10
12.2213608796
 20
6.8566675222
 30
0.0
 10
12.2268332161
 20
6.8480108536
 30
0.0
 10
12.2316868052
 20
6.8390195126
 30
0.0
 10
12.2358957288
 20
6.8297414084
 30
0.0
 10
12.2394374911
 20
6.8202259821
 30
0.0
 10
12.2422931379
 20
6.8105239468
 30
0.0
 10
12.2444473588
 20
6.8006870209
 30
0.0
 10
12.2458885707
 20
6.7907676563
 30
0.0
 10
12.2466089811
 20
6.7808187615
 30
0.0
 10
12.2466046353
 20
6.770893426
 30
0.0
 10
12.2458754358
 20
6.7610446295
 30
0.0
 10
12.2444251685
 20
6.7513249993
 30
0.0
 10
12.2422614159
 20
6.7417863891
 30
0.0
 10
12.2393957919
 20
6.7324801264
 30
0.0
 10
12.2364322419
 20
6.7249519036
 30
0.0
 10
12.2337278586
 20
6.7190975371
 30
0.0
 10
12.2308092865
 20
6.7133704706
 30
0.0
 10
12.2267570272
 20
6.7064432735
 30
0.0
 10
12.2221835668
 20
6.699859594
 30
0.0
 10
12.218231429
 20
6.6948271848
 30
0.0
 10
12.2140907484
 20
6.68995904
 30
0.0
 10
12.2107733522
 20
6.6864933193
 30
0.0
 10
12.2084765473
 20
6.6842747609
 30
0.0
  0
SPLINE
  5
349
100
AcDbEntity
  8
0
100
AcDbSpline
 62
7
  6
CONTINUOUS
 70
0
 71
3
 72
28
 73
24
 74
0
 42
0.0000001
 43
0.0000001
 44
0.0000000001
 40
0.0
 40
0.0
 40
0.0
 40
0.0
 40
0.0319755697
 40
0.063824576
 40
0.0955450652
 40
0.1271459269
 40
0.1586341287
 40
0.1900188941
 40
0.2213107377
 40
0.2525207312
 40
0.2836607982
 40
0.3147424014
 40
0.3457771079
 40
0.376776229
 40
0.4386907359
 40
0.5005804029
 40
0.5625072725
 40
0.6245210496
 40
0.6866605258
 40
0.7489553323
 40
0.8114276695
 40
0.8740938964
 40
1.0
 40
1.0
 40
1.0
 40
1.0
 10
10.9465627771
 20
8.6279227396
 30
0.0
 10
10.9465627771
 20
8.6261363397
 30
0.0
 10
10.9464577735
 20
8.6225696971
 30
0.0
 10
10.94598449
 20
8.6172498411
 30
0.0
 10
10.9451992537
 20
8.6119880025
 30
0.0
 10
10.9441081696
 20
8.6068016758
 30
0.0
 10
10.9427192991
 20
8.6017065386
 30
0.0
 10
10.9410426165
 20
8.5967170432
 30
0.0
 10
10.9390894237
 20
8.5918460207
 30
0.0
 10
10.9368721939
 20
8.5871045987
 30
0.0
 10
10.9344042377
 20
8.5825021792
 30
0.0
 10
10.9316991799
 20
8.5780466412
 30
0.0
 10
10.9287708425
 20
8.5737441256
 30
0.0
 10
10.9245896585
 20
8.5682212038
 30
0.0
 10
10.9188692246
 20
8.5617158431
 30
0.0
 10
10.9113241378
 20
8.5545735468
 30
0.0
 10
10.9031933904
 20
8.5480987868
 30
0.0
 10
10.8945614959
 20
8.542286842
 30
0.0
 10
10.8855023293
 20
8.5371269836
 30
0.0
 10
10.8760809371
 20
8.5326059012
 30
0.0
 10
10.8663533099
 20
8.528708844
 30
0.0
 10
10.8530256347
 20
8.5243199816
 30
0.0
 10
10.8427332078
 20
8.5219310006
 30
0.0
 10
10.8358040768
 20
8.5207204632
 30
0.0
  0
SPLINE
  5
34A
100
AcDbEntity
  8
0
100
AcDbSpline
 62
7
  6
CONTINUOUS
 70
0
 71
3
 72
15
 73
11
 74
0
 42
0.0000001
 43
0.0000001
 44
0.0000000001
 40
0.0
 40
0.0
 40
0.0
 40
0.0
 40
0.1266936988
 40
0.2528686048
 40
0.378520775
 40
0.5036798196
 40
0.62836946
 40
0.7526243661
 40
0.8764856194
 40
1.0
 40
1.0
 40
1.0
 40
1.0
 10
10.9082272173
 20
7.8462495148
 30
0.0
 10
10.9082272173
 20
7.8438436869
 30
0.0
 10
10.908082489
 20
7.8390405883
 30
0.0
 10
10.9074290504
 20
7.8318782161
 30
0.0
 10
10.9063419538
 20
7.8247978889
 30
0.0
 10
10.9048254752
 20
7.8178258307
 30
0.0
 10
10.9028851977
 20
7.8109871649
 30
0.0
 10
10.9005284345
 20
7.8043066294
 30
0.0
 10
10.8977642292
 20
7.797808651
 30
0.0
 10
10.8956536187
 20
7.7936078247
 30
0.0
 10
10.8945343941
 20
7.791546637
 30
0.0
  0
SPLINE
  5
34B
100
AcDbEntity
  8
0
100
AcDbSpline
 62
7
  6
CONTINUOUS
 70
0
 71
3
 72
37
 73
33
 74
0
 42
0.0000001
 43
0.0000001
 44
0.0000000001
 40
0.0
 40
0.0
 40
0.0
 40
0.0
 40
0.031146624
 40
0.0624481919
 40
0.0938952571
 40
0.1254804469
 40
0.1571906758
 40
0.1890114524
 40
0.2209257687
 40
0.25291484
 40
0.2849584237
 40
0.3170352183
 40
0.381163152
 40
0.4451601237
 40
0.4770758719
 40
0.5088983814
 40
0.5406106743
 40
0.5721979571
 40
0.6036479386
 40
0.6349511145
 40
0.6661010055
 40
0.697094333
 40
0.7279311336
 40
0.7586148063
 40
0.7891520874
 40
0.819552954
 40
0.8498304507
 40
0.8800004308
 40
0.9100812223
 40
0.9400932249
 40
0.9700584477
 40
1.0
 40
1.0
 40
1.0
 40
1.0
 10
11.2241441103
 20
7.672690294
 30
0.0
 10
11.2259838616
 20
7.6725627068
 30
0.0
 10
11.229664543
 20
7.6721722088
 30
0.0
 10
11.2351409128
 20
7.6711886377
 30
0.0
 10
11.2405586583
 20
7.6698108325
 30
0.0
 10
11.2458884375
 20
7.6680463871
 30
0.0
 10
11.251102005
 20
7.6659046306
 30
0.0
 10
11.2561715215
 20
7.6633970815
 30
0.0
 10
11.2610699958
 20
7.6605370928
 30
0.0
 10
11.2657712719
 20
7.6573400118
 30
0.0
 10
11.2702505095
 20
7.653822661
 30
0.0
 10
11.2758926285
 20
7.6487332236
 30
0.0
 10
11.2822720366
 20
7.6416712284
 30
0.0
 10
11.2876254345
 20
7.6338141086
 30
0.0
 10
11.2912202637
 20
7.6271542289
 30
0.0
 10
11.2935569817
 20
7.6220031861
 30
0.0
 10
11.2955231704
 20
7.6167205917
 30
0.0
 10
11.2971084889
 20
7.6113343483
 30
0.0
 10
11.2983043803
 20
7.6058732337
 30
0.0
 10
11.2991044274
 20
7.6003663515
 30
0.0
 10
11.2995043089
 20
7.5948430819
 30
0.0
 10
11.2995018329
 20
7.5893328954
 30
0.0
 10
11.2990969475
 20
7.5838652078
 30
0.0
 10
11.2982917454
 20
7.5784692223
 30
0.0
 10
11.2970904541
 20
7.5731737774
 30
0.0
 10
11.2954994268
 20
7.5680071894
 30
0.0
 10
11.2935271195
 20
7.562997098
 30
0.0
 10
11.2911840235
 20
7.5581703115
 30
0.0
 10
11.2884826518
 20
7.5535526948
 30
0.0
 10
11.2854373378
 20
7.5491689032
 30
0.0
 10
11.282064668
 20
7.5450427137
 30
0.0
 10
11.2796089012
 20
7.5424773366
 30
0.0
 10
11.2783337862
 20
7.5412456841
 30
0.0
  0
SPLINE
  5
34C
100
AcDbEntity
  8
0
100
AcDbSpline
 62
7
  6
CONTINUOUS
 70
0
 71
3
 72
18
 73
14
 74
0
 42
0.0000001
 43
0.0000001
 44
0.0000000001
 40
0.0
 40
0.0
 40
0.0
 40
0.0
 40
0.1504680185
 40
0.2917144324
 40
0.4244425615
 40
0.4879099171
 40
0.5496094205
 40
0.6682625585
 40
0.7817882768
 40
0.8371379945
 40
0.8918078237
 40
0.9460192726
 40
1.0
 40
1.0
 40
1.0
 40
1.0
 10
12.6903702962
 20
8.3156405729
 30
0.0
 10
12.6915873649
 20
8.3168161711
 30
0.0
 10
12.6940198527
 20
8.3190219359
 30
0.0
 10
12.697786301
 20
8.3219613876
 30
0.0
 10
12.7009677106
 20
8.3240403199
 30
0.0
 10
12.7035046017
 20
8.3254481084
 30
0.0
 10
12.7059668603
 20
8.3266567353
 30
0.0
 10
12.7090454632
 20
8.3278780117
 30
0.0
 10
12.7121788304
 20
8.3287114136
 30
0.0
 10
12.7146605502
 20
8.329121955
 30
0.0
 10
12.7164998473
 20
8.32930416
 30
0.0
 10
12.718331704
 20
8.3293629952
 30
0.0
 10
12.719548744
 20
8.329319937
 30
0.0
 10
12.7201543428
 20
8.3292779353
 30
0.0
  0
SPLINE
  5
34D
100
AcDbEntity
  8
0
100
AcDbSpline
 62
7
  6
CONTINUOUS
 70
0
 71
3
 72
32
 73
28
 74
0
 42
0.0000001
 43
0.0000001
 44
0.0000000001
 40
0.0
 40
0.0
 40
0.0
 40
0.0
 40
0.0845019947
 40
0.1673009862
 40
0.2480798133
 40
0.3265302078
 40
0.4023576206
 40
0.4752819967
 40
0.54504042
 40
0.5786563571
 40
0.6113913267
 40
0.6432183758
 40
0.6741123424
 40
0.7040496176
 40
0.7330086836
 40
0.7609699193
 40
0.7879160802
 40
0.8138323628
 40
0.8387067023
 40
0.8625302246
 40
0.8852973813
 40
0.9070068012
 40
0.9276614528
 40
0.9472698026
 40
0.9658463334
 40
0.9834129144
 40
1.0
 40
1.0
 40
1.0
 40
1.0
 10
11.6170345976
 20
10.0209251701
 30
0.0
 10
11.6084438134
 20
10.021520943
 30
0.0
 10
11.5914453959
 20
10.0228512605
 30
0.0
 10
11.5662806242
 20
10.0252906354
 30
0.0
 10
11.5417802089
 20
10.0281458358
 30
0.0
 10
11.518047033
 20
10.0314047559
 30
0.0
 10
11.4951806397
 20
10.0350535107
 30
0.0
 10
11.473277023
 20
10.0390766194
 30
0.0
 10
11.4556922869
 20
10.042770912
 30
0.0
 10
11.4421812197
 20
10.0459104261
 30
0.0
 10
11.4324698567
 20
10.048318633
 30
0.0
 10
11.4230653432
 20
10.0508069303
 30
0.0
 10
11.4139775253
 20
10.0533726726
 30
0.0
 10
11.4052159344
 20
10.056013197
 30
0.0
 10
11.3967897393
 20
10.0587256754
 30
0.0
 10
11.3887077599
 20
10.0615072861
 30
0.0
 10
11.3809784382
 20
10.0643550799
 30
0.0
 10
11.373609838
 20
10.067266067
 30
0.0
 10
11.3666096365
 20
10.0702372114
 30
0.0
 10
11.3599850958
 20
10.07326537
 30
0.0
 10
11.3537430912
 20
10.0763474437
 30
0.0
 10
11.3478900437
 20
10.0794801802
 30
0.0
 10
11.3424319834
 20
10.0826604381
 30
0.0
 10
11.3373744825
 20
10.0858849229
 30
0.0
 10
11.3327226394
 20
10.0891505323
 30
0.0
 10
11.3284813727
 20
10.0924538679
 30
0.0
 10
11.3258567621
 20
10.0947434975
 30
0.0
 10
11.3246193402
 20
10.0958950553
 30
0.0
  0
SPLINE
  5
34E
100
AcDbEntity
  8
0
100
AcDbSpline
 62
7
  6
CONTINUOUS
 70
0
 71
3
 72
41
 73
37
 74
0
 42
0.0000001
 43
0.0000001
 44
0.0000000001
 40
0.0
 40
0.0
 40
0.0
 40
0.0
 40
0.076104585
 40
0.1533643253
 40
0.2310952044
 40
0.3086071713
 40
0.3470667232
 40
0.3852144105
 40
0.4229660067
 40
0.4602384338
 40
0.4969500169
 40
0.5330207471
 40
0.5683725464
 40
0.6029295324
 40
0.6366182963
 40
0.6693681949
 40
0.7011116614
 40
0.7317845502
 40
0.7613265127
 40
0.7896814034
 40
0.8167977579
 40
0.8426293579
 40
0.8671359182
 40
0.8902839486
 40
0.9013407013
 40
0.9120489605
 40
0.9224070213
 40
0.9324138023
 40
0.9420691027
 40
0.9513734547
 40
0.9603284452
 40
0.9689366762
 40
0.9772019515
 40
0.9851295003
 40
0.9927259988
 40
1.0
 40
1.0
 40
1.0
 40
1.0
 10
11.6170345976
 20
10.0209251701
 30
0.0
 10
11.6302123518
 20
10.0200112898
 30
0.0
 10
11.6567940763
 20
10.0185301302
 30
0.0
 10
11.6968913073
 20
10.0173323007
 30
0.0
 10
11.7372503626
 20
10.017146772
 30
0.0
 10
11.7708679264
 20
10.0178388859
 30
0.0
 10
11.7975976673
 20
10.0189039236
 30
0.0
 10
11.8174197384
 20
10.0199518998
 30
0.0
 10
11.8370205921
 20
10.0212485121
 30
0.0
 10
11.8563536417
 20
10.0227906854
 30
0.0
 10
11.8753728922
 20
10.0245747246
 30
0.0
 10
11.8940331138
 20
10.026596361
 30
0.0
 10
11.9122899354
 20
10.0288507522
 30
0.0
 10
11.9300999543
 20
10.0313324992
 30
0.0
 10
11.9474208393
 20
10.0340356576
 30
0.0
 10
11.9642114337
 20
10.0369537513
 30
0.0
 10
11.9804318567
 20
10.0400797886
 30
0.0
 10
11.9960436058
 20
10.0434062764
 30
0.0
 10
12.0110096541
 20
10.046925236
 30
0.0
 10
12.0252945492
 20
10.0506282291
 30
0.0
 10
12.038864483
 20
10.0545063792
 30
0.0
 10
12.0516874653
 20
10.0585503984
 30
0.0
 10
12.0637331364
 20
10.0627506164
 30
0.0
 10
12.073240065
 20
10.0664266391
 30
0.0
 10
12.0804276414
 20
10.0694458589
 30
0.0
 10
12.0855239594
 20
10.071708412
 30
0.0
 10
12.0904056034
 20
10.0740023861
 30
0.0
 10
12.0950696867
 20
10.0763264961
 30
0.0
 10
12.0995134817
 20
10.0786793092
 30
0.0
 10
12.1037343589
 20
10.0810594993
 30
0.0
 10
12.1077298566
 20
10.0834656379
 30
0.0
 10
12.1114976376
 20
10.0858963395
 30
0.0
 10
12.115035482
 20
10.0883502182
 30
0.0
 10
12.1183413808
 20
10.0908258512
 30
0.0
 10
12.1214132802
 20
10.0933218231
 30
0.0
 10
12.1233452428
 20
10.0950349458
 30
0.0
 10
12.1242694851
 20
10.0958950553
 30
0.0
  0
SPLINE
  5
34F
100
AcDbEntity
  8
0
100
AcDbSpline
 62
7
  6
CONTINUOUS
 70
0
 71
3
 72
15
 73
11
 74
0
 42
0.0000001
 43
0.0000001
 44
0.0000000001
 40
0.0
 40
0.0
 40
0.0
 40
0.0
 40
0.1273482292
 40
0.2538605354
 40
0.3795879276
 40
0.5046050833
 40
0.6290174349
 40
0.7529533662
 40
0.8765605734
 40
1.0
 40
1.0
 40
1.0
 40
1.0
 10
10.0636720983
 20
8.890325467
 30
0.0
 10
10.0636720983
 20
8.8875382492
 30
0.0
 10
10.0634059763
 20
8.8819782556
 30
0.0
 10
10.062202459
 20
8.8737451994
 30
0.0
 10
10.0602068235
 20
8.8657190094
 30
0.0
 10
10.0574370911
 20
8.8579747496
 30
0.0
 10
10.0539186922
 20
8.8505838331
 30
0.0
 10
10.0496836863
 20
8.843614508
 30
0.0
 10
10.0447718939
 20
8.8371320784
 30
0.0
 10
10.0410735648
 20
8.8331722387
 30
0.0
 10
10.039130374
 20
8.8312952686
 30
0.0
  0
SPLINE
  5
350
100
AcDbEntity
  8
0
100
AcDbSpline
 62
7
  6
CONTINUOUS
 70
0
 71
3
 72
15
 73
11
 74
0
 42
0.0000001
 43
0.0000001
 44
0.0000000001
 40
0.0
 40
0.0
 40
0.0
 40
0.0
 40
0.1273482292
 40
0.2538605354
 40
0.3795879276
 40
0.5046050833
 40
0.6290174349
 40
0.7529533662
 40
0.8765605734
 40
1.0
 40
1.0
 40
1.0
 40
1.0
 10
11.6033578816
 20
8.8144575862
 30
0.0
 10
11.6033578816
 20
8.8116703684
 30
0.0
 10
11.6030917596
 20
8.8061103748
 30
0.0
 10
11.6018882423
 20
8.7978773186
 30
0.0
 10
11.5998926067
 20
8.7898511286
 30
0.0
 10
11.5971228744
 20
8.7821068688
 30
0.0
 10
11.5936044755
 20
8.7747159523
 30
0.0
 10
11.5893694696
 20
8.7677466272
 30
0.0
 10
11.5844576772
 20
8.7612641975
 30
0.0
 10
11.580759348
 20
8.7573043579
 30
0.0
 10
11.5788161573
 20
8.7554273878
 30
0.0
  0
SPLINE
  5
351
100
AcDbEntity
  8
0
100
AcDbSpline
 62
7
  6
CONTINUOUS
 70
0
 71
3
 72
15
 73
11
 74
0
 42
0.0000001
 43
0.0000001
 44
0.0000000001
 40
0.0
 40
0.0
 40
0.0
 40
0.0
 40
0.1273482292
 40
0.2538605354
 40
0.3795879276
 40
0.5046050833
 40
0.6290174349
 40
0.7529533662
 40
0.8765605734
 40
1.0
 40
1.0
 40
1.0
 40
1.0
 10
10.0636720983
 20
7.7138278035
 30
0.0
 10
10.0636720983
 20
7.7110405857
 30
0.0
 10
10.0634059763
 20
7.7054805921
 30
0.0
 10
10.062202459
 20
7.697247536
 30
0.0
 10
10.0602068235
 20
7.6892213459
 30
0.0
 10
10.0574370911
 20
7.6814770861
 30
0.0
 10
10.0539186922
 20
7.6740861696
 30
0.0
 10
10.0496836863
 20
7.6671168445
 30
0.0
 10
10.0447718939
 20
7.6606344149
 30
0.0
 10
10.0410735648
 20
7.6566745752
 30
0.0
 10
10.039130374
 20
7.6547976051
 30
0.0
  0
SPLINE
  5
352
100
AcDbEntity
  8
0
100
AcDbSpline
 62
7
  6
CONTINUOUS
 70
0
 71
3
 72
15
 73
11
 74
0
 42
0.0000001
 43
0.0000001
 44
0.0000000001
 40
0.0
 40
0.0
 40
0.0
 40
0.0
 40
0.1273482292
 40
0.2538605354
 40
0.3795879276
 40
0.5046050833
 40
0.6290174349
 40
0.7529533662
 40
0.8765605734
 40
1.0
 40
1.0
 40
1.0
 40
1.0
 10
11.6033578816
 20
7.5761405409
 30
0.0
 10
11.6033578816
 20
7.573353323
 30
0.0
 10
11.6030917596
 20
7.5677933294
 30
0.0
 10
11.6018882423
 20
7.5595602733
 30
0.0
 10
11.5998926067
 20
7.5515340833
 30
0.0
 10
11.5971228744
 20
7.5437898234
 30
0.0
 10
11.5936044755
 20
7.536398907
 30
0.0
 10
11.5893694696
 20
7.5294295819
 30
0.0
 10
11.5844576772
 20
7.5229471522
 30
0.0
 10
11.580759348
 20
7.5189873126
 30
0.0
 10
11.5788161573
 20
7.5171103425
 30
0.0
  0
SPLINE
  5
353
100
AcDbEntity
  8
0
100
AcDbSpline
 62
7
  6
CONTINUOUS
 70
0
 71
3
 72
34
 73
30
 74
0
 42
0.0000001
 43
0.0000001
 44
0.0000000001
 40
0.0
 40
0.0
 40
0.0
 40
0.0
 40
0.0272397193
 40
0.0563653949
 40
0.0872036378
 40
0.1195804271
 40
0.1882259069
 40
0.2608366652
 40
0.3358205802
 40
0.4115183084
 40
0.4863733269
 40
0.5591403693
 40
0.628990596
 40
0.6954546635
 40
0.7582667831
 40
0.7882422155
 40
0.8172027847
 40
0.8450911393
 40
0.8718285319
 40
0.897310484
 40
0.9214002412
 40
0.9328718534
 40
0.943928584
 40
0.9545422358
 40
0.9646852271
 40
0.9743283463
 40
0.9834434708
 40
0.9920065993
 40
1.0
 40
1.0
 40
1.0
 40
1.0
 10
10.9081248692
 20
7.843434403
 30
0.0
 10
10.9072613869
 20
7.8425979601
 30
0.0
 10
10.9054444565
 20
7.8408980585
 30
0.0
 10
10.9025458326
 20
7.8383652465
 30
0.0
 10
10.8993836476
 20
7.8357929972
 30
0.0
 10
10.8947355033
 20
7.8322896394
 30
0.0
 10
10.8883442416
 20
7.8280449369
 30
0.0
 10
10.8799534492
 20
7.8234705386
 30
0.0
 10
10.8708697787
 20
7.8196055726
 30
0.0
 10
10.8613315642
 20
7.8166906275
 30
0.0
 10
10.8516205684
 20
7.8148831854
 30
0.0
 10
10.8420222041
 20
7.8142369646
 30
0.0
 10
10.83278508
 20
7.8147090083
 30
0.0
 10
10.8241024452
 20
7.8161876746
 30
0.0
 10
10.8173404721
 20
7.8181657713
 30
0.0
 10
10.8123324074
 20
7.82011939
 30
0.0
 10
10.8088464146
 20
7.821715612
 30
0.0
 10
10.805585179
 20
7.8234441829
 30
0.0
 10
10.8025629927
 20
7.8252829117
 30
0.0
 10
10.7997970725
 20
7.8272080122
 30
0.0
 10
10.7976890975
 20
7.8288893769
 30
0.0
 10
10.7961530048
 20
7.8302587165
 30
0.0
 10
10.7950990709
 20
7.8312734973
 30
0.0
 10
10.7941285165
 20
7.8322886535
 30
0.0
 10
10.7932458159
 20
7.8332996956
 30
0.0
 10
10.7924557793
 20
7.8343018302
 30
0.0
 10
10.791763575
 20
7.8352900555
 30
0.0
 10
10.7911746426
 20
7.8362589158
 30
0.0
 10
10.790843
 20
7.8369111503
 30
0.0
 10
10.7906979539
 20
7.8372327282
 30
0.0
  0
SPLINE
  5
354
100
AcDbEntity
  8
0
100
AcDbSpline
 62
7
  6
CONTINUOUS
 70
0
 71
3
 72
11
 73
7
 74
0
 42
0.0000001
 43
0.0000001
 44
0.0000000001
 40
0.0
 40
0.0
 40
0.0
 40
0.0
 40
0.2550866304
 40
0.5058414459
 40
0.7536614522
 40
1.0
 40
1.0
 40
1.0
 40
1.0
 10
11.3507454655
 20
10.0779602106
 30
0.0
 10
11.3505310002
 20
10.0786248461
 30
0.0
 10
11.35015347
 20
10.0799588767
 30
0.0
 10
11.3497445402
 20
10.0819833945
 30
0.0
 10
11.3494990507
 20
10.084010089
 30
0.0
 10
11.3494444265
 20
10.0853636252
 30
0.0
 10
11.3494444229
 20
10.0860380553
 30
0.0
  0
SPLINE
  5
355
100
AcDbEntity
  8
0
100
AcDbSpline
 62
7
  6
CONTINUOUS
 70
0
 71
3
 72
53
 73
49
 74
0
 42
0.0000001
 43
0.0000001
 44
0.0000000001
 40
0.0
 40
0.0
 40
0.0
 40
0.0
 40
0.0055575358
 40
0.0111779566
 40
0.0169218919
 40
0.022845775
 40
0.0290005507
 40
0.0354309545
 40
0.0421754005
 40
0.0492662557
 40
0.0567303027
 40
0.0645894212
 40
0.072861099
 40
0.0815591501
 40
0.0906940844
 40
0.1002737091
 40
0.1103033751
 40
0.1207864065
 40
0.1317242976
 40
0.1431169629
 40
0.154962942
 40
0.1672594909
 40
0.1800028152
 40
0.1931880451
 40
0.2068094816
 40
0.2208605177
 40
0.2353338545
 40
0.250221435
 40
0.2655145886
 40
0.281204022
 40
0.3137311009
 40
0.3477184393
 40
0.3830735589
 40
0.4196973748
 40
0.4574849489
 40
0.4963261675
 40
0.5361063682
 40
0.5767069301
 40
0.6180058389
 40
0.659878235
 40
0.7021969505
 40
0.744833037
 40
0.787656286
 40
0.8305357591
 40
0.8733402611
 40
0.9159390133
 40
0.9582016979
 40
1.0
 40
1.0
 40
1.0
 40
1.0
 10
12.3194444126
 20
10.1401299055
 30
0.0
 10
12.3194444126
 20
10.1386579914
 30
0.0
 10
12.3192795871
 20
10.1356949478
 30
0.0
 10
12.3185399855
 20
10.1312661875
 30
0.0
 10
12.3173091075
 20
10.1268473187
 30
0.0
 10
12.3155894523
 20
10.1224434396
 30
0.0
 10
12.3133837761
 20
10.1180581457
 30
0.0
 10
12.3106950897
 20
10.1136947804
 30
0.0
 10
12.3075264387
 20
10.1093563422
 30
0.0
 10
12.3038809202
 20
10.1050457686
 30
0.0
 10
12.299761824
 20
10.1007659286
 30
0.0
 10
12.2951725601
 20
10.0965198467
 30
0.0
 10
12.2901169084
 20
10.092310495
 30
0.0
 10
12.2845988662
 20
10.0881410522
 30
0.0
 10
12.278622871
 20
10.0840146067
 30
0.0
 10
12.2721936506
 20
10.0799344098
 30
0.0
 10
12.2653163647
 20
10.0759036207
 30
0.0
 10
12.2579965125
 20
10.071925475
 30
0.0
 10
12.2502399879
 20
10.0680031541
 30
0.0
 10
12.2420530517
 20
10.0641398202
 30
0.0
 10
12.2334423229
 20
10.0603386339
 30
0.0
 10
12.224414795
 20
10.0566026549
 30
0.0
 10
12.2149777935
 20
10.0529349836
 30
0.0
 10
12.2051390103
 20
10.0493385684
 30
0.0
 10
12.194906454
 20
10.0458164115
 30
0.0
 10
12.1842884806
 20
10.0423713529
 30
0.0
 10
12.1732937533
 20
10.039006261
 30
0.0
 10
12.1619312625
 20
10.0357238763
 30
0.0
 10
12.1502102819
 20
10.0325268862
 30
0.0
 10
12.133920942
 20
10.0283311848
 30
0.0
 10
12.1127281787
 20
10.0233321642
 30
0.0
 10
12.0863223164
 20
10.0177834546
 30
0.0
 10
12.0587314129
 20
10.0126334973
 30
0.0
 10
12.0300457896
 20
10.0078993153
 30
0.0
 10
12.0003592014
 20
10.0035965839
 30
0.0
 10
11.9697687973
 20
9.9997395341
 30
0.0
 10
11.9383747091
 20
9.9963409197
 30
0.0
 10
11.9062797367
 20
9.9934119736
 30
0.0
 10
11.8735889986
 20
9.9909623726
 30
0.0
 10
11.840409583
 20
9.9890002072
 30
0.0
 10
11.8068501918
 20
9.9875319564
 30
0.0
 10
11.7730207812
 20
9.9865624675
 30
0.0
 10
11.7390321971
 20
9.9860949402
 30
0.0
 10
11.7049958149
 20
9.9861309198
 30
0.0
 10
11.6710231529
 20
9.9866702824
 30
0.0
 10
11.6372255516
 20
9.9877112584
 30
0.0
 10
11.603713799
 20
9.989250391
 30
0.0
 10
11.5814909687
 20
9.990614132
 30
0.0
 10
11.5704472079
 20
9.9913800195
 30
0.0
  0
SPLINE
  5
356
100
AcDbEntity
  8
0
100
AcDbSpline
 62
7
  6
CONTINUOUS
 70
0
 71
3
 72
11
 73
7
 74
0
 42
0.0000001
 43
0.0000001
 44
0.0000000001
 40
0.0
 40
0.0
 40
0.0
 40
0.0
 40
0.2549946148
 40
0.5057351107
 40
0.7535948244
 40
1.0
 40
1.0
 40
1.0
 40
1.0
 10
12.0981677584
 20
10.0780361545
 30
0.0
 10
12.0983782481
 20
10.0786946861
 30
0.0
 10
12.098748727
 20
10.0800164003
 30
0.0
 10
12.0991499259
 20
10.0820218051
 30
0.0
 10
12.0993908262
 20
10.0840293107
 30
0.0
 10
12.0994444059
 20
10.0853699898
 30
0.0
 10
12.0994444024
 20
10.0860380553
 30
0.0
  0
SPLINE
  5
357
100
AcDbEntity
  8
0
100
AcDbSpline
 62
7
  6
CONTINUOUS
 70
0
 71
3
 72
21
 73
17
 74
0
 42
0.0000001
 43
0.0000001
 44
0.0000000001
 40
0.0
 40
0.0
 40
0.0
 40
0.0
 40
0.061653237
 40
0.123329498
 40
0.1850515502
 40
0.2468416698
 40
0.3087213548
 40
0.370711108
 40
0.4328302426
 40
0.495096636
 40
0.5575265765
 40
0.6201345494
 40
0.682933126
 40
0.7459332432
 40
0.8725261314
 40
1.0
 40
1.0
 40
1.0
 40
1.0
 10
9.2738857609
 20
9.8157255953
 30
0.0
 10
9.2754624677
 20
9.8172485875
 30
0.0
 10
9.2786990548
 20
9.8202109608
 30
0.0
 10
9.2837867597
 20
9.8243879771
 30
0.0
 10
9.2890953757
 20
9.8282889225
 30
0.0
 10
9.2946113636
 20
9.8319037802
 30
0.0
 10
9.3003208879
 20
9.8352234619
 30
0.0
 10
9.3062095169
 20
9.8382396483
 30
0.0
 10
9.3122624243
 20
9.8409447457
 30
0.0
 10
9.3184643695
 20
9.8433319112
 30
0.0
 10
9.3247997188
 20
9.8453951965
 30
0.0
 10
9.3312524676
 20
9.8471294133
 30
0.0
 10
9.3378065642
 20
9.8485301785
 30
0.0
 10
9.3466709172
 20
9.8499507446
 30
0.0
 10
9.3579272387
 20
9.8508736805
 30
0.0
 10
9.3669766429
 20
9.8506970719
 30
0.0
 10
9.3714982535
 20
9.8503834972
 30
0.0
  0
SPLINE
  5
358
100
AcDbEntity
  8
0
100
AcDbSpline
 62
7
  6
CONTINUOUS
 70
0
 71
3
 72
21
 73
17
 74
0
 42
0.0000001
 43
0.0000001
 44
0.0000000001
 40
0.0
 40
0.0
 40
0.0
 40
0.0
 40
0.061653237
 40
0.123329498
 40
0.1850515502
 40
0.2468416698
 40
0.3087213548
 40
0.370711108
 40
0.4328302426
 40
0.495096636
 40
0.5575265765
 40
0.6201345494
 40
0.682933126
 40
0.7459332432
 40
0.8725261314
 40
1.0
 40
1.0
 40
1.0
 40
1.0
 10
12.0132515622
 20
9.6257499317
 30
0.0
 10
12.014828269
 20
9.627272924
 30
0.0
 10
12.0180648561
 20
9.6302352972
 30
0.0
 10
12.023152561
 20
9.6344123136
 30
0.0
 10
12.028461177
 20
9.6383132589
 30
0.0
 10
12.0339771649
 20
9.6419281166
 30
0.0
 10
12.0396866892
 20
9.6452477983
 30
0.0
 10
12.0455753182
 20
9.6482639848
 30
0.0
 10
12.0516282256
 20
9.6509690821
 30
0.0
 10
12.0578301708
 20
9.6533562476
 30
0.0
 10
12.0641655201
 20
9.6554195329
 30
0.0
 10
12.0706182689
 20
9.6571537498
 30
0.0
 10
12.0771723655
 20
9.658554515
 30
0.0
 10
12.0860367185
 20
9.659975081
 30
0.0
 10
12.09729304
 20
9.660898017
 30
0.0
 10
12.1063424442
 20
9.6607214084
 30
0.0
 10
12.1108640547
 20
9.6604078336
 30
0.0
  0
SPLINE
  5
359
100
AcDbEntity
  8
0
100
AcDbSpline
 62
7
  6
CONTINUOUS
 70
0
 71
3
 72
21
 73
17
 74
0
 42
0.0000001
 43
0.0000001
 44
0.0000000001
 40
0.0
 40
0.0
 40
0.0
 40
0.0
 40
0.061653237
 40
0.123329498
 40
0.1850515502
 40
0.2468416698
 40
0.3087213548
 40
0.370711108
 40
0.4328302426
 40
0.495096636
 40
0.5575265765
 40
0.6201345494
 40
0.682933126
 40
0.7459332432
 40
0.8725261314
 40
1.0
 40
1.0
 40
1.0
 40
1.0
 10
9.2738857609
 20
7.076359794
 30
0.0
 10
9.2754624677
 20
7.0778827863
 30
0.0
 10
9.2786990548
 20
7.0808451595
 30
0.0
 10
9.2837867597
 20
7.0850221758
 30
0.0
 10
9.2890953757
 20
7.0889231212
 30
0.0
 10
9.2946113636
 20
7.0925379789
 30
0.0
 10
9.3003208879
 20
7.0958576606
 30
0.0
 10
9.3062095169
 20
7.0988738471
 30
0.0
 10
9.3122624243
 20
7.1015789444
 30
0.0
 10
9.3184643695
 20
7.1039661099
 30
0.0
 10
9.3247997188
 20
7.1060293952
 30
0.0
 10
9.3312524676
 20
7.1077636121
 30
0.0
 10
9.3378065642
 20
7.1091643772
 30
0.0
 10
9.3466709172
 20
7.1105849433
 30
0.0
 10
9.3579272387
 20
7.1115078793
 30
0.0
 10
9.3669766429
 20
7.1113312706
 30
0.0
 10
9.3714982535
 20
7.1110176959
 30
0.0
  0
SPLINE
  5
35A
100
AcDbEntity
  8
0
100
AcDbSpline
 62
7
  6
CONTINUOUS
 70
0
 71
3
 72
21
 73
17
 74
0
 42
0.0000001
 43
0.0000001
 44
0.0000000001
 40
0.0
 40
0.0
 40
0.0
 40
0.0
 40
0.061653237
 40
0.123329498
 40
0.1850515502
 40
0.2468416698
 40
0.3087213548
 40
0.370711108
 40
0.4328302426
 40
0.495096636
 40
0.5575265765
 40
0.6201345494
 40
0.682933126
 40
0.7459332432
 40
0.8725261314
 40
1.0
 40
1.0
 40
1.0
 40
1.0
 10
12.0132515622
 20
6.8863841304
 30
0.0
 10
12.014828269
 20
6.8879071227
 30
0.0
 10
12.0180648561
 20
6.8908694959
 30
0.0
 10
12.023152561
 20
6.8950465123
 30
0.0
 10
12.028461177
 20
6.8989474576
 30
0.0
 10
12.0339771649
 20
6.9025623153
 30
0.0
 10
12.0396866892
 20
6.905881997
 30
0.0
 10
12.0455753182
 20
6.9088981835
 30
0.0
 10
12.0516282256
 20
6.9116032808
 30
0.0
 10
12.0578301708
 20
6.9139904463
 30
0.0
 10
12.0641655201
 20
6.9160537316
 30
0.0
 10
12.0706182689
 20
6.9177879485
 30
0.0
 10
12.0771723655
 20
6.9191887137
 30
0.0
 10
12.0860367185
 20
6.9206092797
 30
0.0
 10
12.09729304
 20
6.9215322157
 30
0.0
 10
12.1063424442
 20
6.9213556071
 30
0.0
 10
12.1108640547
 20
6.9210420323
 30
0.0
  0
SPLINE
  5
35B
100
AcDbEntity
  8
0
100
AcDbSpline
 62
7
  6
CONTINUOUS
 70
0
 71
3
 72
39
 73
35
 74
0
 42
0.0000001
 43
0.0000001
 44
0.0000000001
 40
0.0
 40
0.0
 40
0.0
 40
0.0
 40
0.0299424741
 40
0.0599093236
 40
0.0899243299
 40
0.1200101071
 40
0.1501875628
 40
0.1804754121
 40
0.2108897558
 40
0.2414437341
 40
0.2721472619
 40
0.3030068476
 40
0.3340255003
 40
0.3652027176
 40
0.3965345493
 40
0.4280137317
 40
0.459629888
 40
0.4913697842
 40
0.5232176352
 40
0.5551554541
 40
0.5871634377
 40
0.6192203778
 40
0.6513040905
 40
0.68339186
 40
0.715460889
 40
0.7474887514
 40
0.779453839
 40
0.8113357971
 40
0.8431159663
 40
0.8747776774
 40
0.9063069717
 40
0.937691796
 40
0.9689252179
 40
1.0
 40
1.0
 40
1.0
 40
1.0
 10
9.9133812378
 20
8.9614803463
 30
0.0
 10
9.9148826059
 20
8.9629305503
 30
0.0
 10
9.9180033868
 20
8.9657139319
 30
0.0
 10
9.9230033763
 20
8.969505784
 30
0.0
 10
9.9282966119
 20
8.9728954548
 30
0.0
 10
9.9338535198
 20
8.9758639274
 30
0.0
 10
9.9396435478
 20
8.9783949866
 30
0.0
 10
9.9456347422
 20
8.980474719
 30
0.0
 10
9.9517940891
 20
8.9820917441
 30
0.0
 10
9.9580876557
 20
8.9832372314
 30
0.0
 10
9.9644807908
 20
8.983904954
 30
0.0
 10
9.9709383128
 20
8.9840913241
 30
0.0
 10
9.9774247064
 20
8.9837954041
 30
0.0
 10
9.9839043165
 20
8.9830189032
 30
0.0
 10
9.9903415424
 20
8.9817661657
 30
0.0
 10
9.9967010301
 20
8.9800441435
 30
0.0
 10
10.0029478639
 20
8.9778623558
 30
0.0
 10
10.0090477548
 20
8.9752328362
 30
0.0
 10
10.014967225
 20
8.9721700644
 30
0.0
 10
10.020673794
 20
8.9686908951
 30
0.0
 10
10.0261361524
 20
8.9648144582
 30
0.0
 10
10.0313243306
 20
8.9605620532
 30
0.0
 10
10.0362098609
 20
8.9559570332
 30
0.0
 10
10.0407659314
 20
8.9510246781
 30
0.0
 10
10.0449675315
 20
8.9457920577
 30
0.0
 10
10.0487915878
 20
8.9402878847
 30
0.0
 10
10.0522170879
 20
8.9345423594
 30
0.0
 10
10.0552252075
 20
8.9285870094
 30
0.0
 10
10.0577993923
 20
8.9224545177
 30
0.0
 10
10.059925491
 20
8.9161785242
 30
0.0
 10
10.0615917243
 20
8.9097935309
 30
0.0
 10
10.0627889792
 20
8.9033344103
 30
0.0
 10
10.0635104725
 20
8.8968371733
 30
0.0
 10
10.0636720983
 20
8.8924917942
 30
0.0
 10
10.0636720983
 20
8.890325467
 30
0.0
  0
SPLINE
  5
35C
100
AcDbEntity
  8
0
100
AcDbSpline
 62
7
  6
CONTINUOUS
 70
0
 71
3
 72
39
 73
35
 74
0
 42
0.0000001
 43
0.0000001
 44
0.0000000001
 40
0.0
 40
0.0
 40
0.0
 40
0.0
 40
0.0299424741
 40
0.0599093236
 40
0.0899243299
 40
0.1200101071
 40
0.1501875628
 40
0.1804754121
 40
0.2108897558
 40
0.2414437341
 40
0.2721472619
 40
0.3030068476
 40
0.3340255003
 40
0.3652027176
 40
0.3965345493
 40
0.4280137317
 40
0.459629888
 40
0.4913697842
 40
0.5232176352
 40
0.5551554541
 40
0.5871634377
 40
0.6192203778
 40
0.6513040905
 40
0.68339186
 40
0.715460889
 40
0.7474887514
 40
0.779453839
 40
0.8113357971
 40
0.8431159663
 40
0.8747776774
 40
0.9063069717
 40
0.937691796
 40
0.9689252179
 40
1.0
 40
1.0
 40
1.0
 40
1.0
 10
11.453067021
 20
8.8856124655
 30
0.0
 10
11.4545683891
 20
8.8870626695
 30
0.0
 10
11.4576891701
 20
8.8898460511
 30
0.0
 10
11.4626891595
 20
8.8936379032
 30
0.0
 10
11.4679823952
 20
8.897027574
 30
0.0
 10
11.4735393031
 20
8.8999960466
 30
0.0
 10
11.479329331
 20
8.9025271058
 30
0.0
 10
11.4853205255
 20
8.9046068381
 30
0.0
 10
11.4914798724
 20
8.9062238633
 30
0.0
 10
11.4977734389
 20
8.9073693506
 30
0.0
 10
11.504166574
 20
8.9080370732
 30
0.0
 10
11.510624096
 20
8.9082234433
 30
0.0
 10
11.5171104896
 20
8.9079275232
 30
0.0
 10
11.5235900998
 20
8.9071510224
 30
0.0
 10
11.5300273257
 20
8.9058982849
 30
0.0
 10
11.5363868134
 20
8.9041762626
 30
0.0
 10
11.5426336472
 20
8.901994475
 30
0.0
 10
11.548733538
 20
8.8993649554
 30
0.0
 10
11.5546530082
 20
8.8963021836
 30
0.0
 10
11.5603595772
 20
8.8928230142
 30
0.0
 10
11.5658219357
 20
8.8889465774
 30
0.0
 10
11.5710101139
 20
8.8846941724
 30
0.0
 10
11.5758956441
 20
8.8800891524
 30
0.0
 10
11.5804517146
 20
8.8751567973
 30
0.0
 10
11.5846533147
 20
8.8699241768
 30
0.0
 10
11.5884773711
 20
8.8644200038
 30
0.0
 10
11.5919028711
 20
8.8586744786
 30
0.0
 10
11.5949109908
 20
8.8527191286
 30
0.0
 10
11.5974851755
 20
8.8465866368
 30
0.0
 10
11.5996112742
 20
8.8403106434
 30
0.0
 10
11.6012775076
 20
8.8339256501
 30
0.0
 10
11.6024747624
 20
8.8274665295
 30
0.0
 10
11.6031962557
 20
8.8209692924
 30
0.0
 10
11.6033578816
 20
8.8166239134
 30
0.0
 10
11.6033578816
 20
8.8144575862
 30
0.0
  0
SPLINE
  5
35D
100
AcDbEntity
  8
0
100
AcDbSpline
 62
7
  6
CONTINUOUS
 70
0
 71
3
 72
39
 73
35
 74
0
 42
0.0000001
 43
0.0000001
 44
0.0000000001
 40
0.0
 40
0.0
 40
0.0
 40
0.0
 40
0.0299424741
 40
0.0599093236
 40
0.0899243299
 40
0.1200101071
 40
0.1501875628
 40
0.1804754121
 40
0.2108897558
 40
0.2414437341
 40
0.2721472619
 40
0.3030068476
 40
0.3340255003
 40
0.3652027176
 40
0.3965345493
 40
0.4280137317
 40
0.459629888
 40
0.4913697842
 40
0.5232176352
 40
0.5551554541
 40
0.5871634377
 40
0.6192203778
 40
0.6513040905
 40
0.68339186
 40
0.715460889
 40
0.7474887514
 40
0.779453839
 40
0.8113357971
 40
0.8431159663
 40
0.8747776774
 40
0.9063069717
 40
0.937691796
 40
0.9689252179
 40
1.0
 40
1.0
 40
1.0
 40
1.0
 10
9.9133812378
 20
7.7849826829
 30
0.0
 10
9.9148826059
 20
7.7864328869
 30
0.0
 10
9.9180033868
 20
7.7892162685
 30
0.0
 10
9.9230033763
 20
7.7930081205
 30
0.0
 10
9.9282966119
 20
7.7963977913
 30
0.0
 10
9.9338535198
 20
7.799366264
 30
0.0
 10
9.9396435478
 20
7.8018973232
 30
0.0
 10
9.9456347422
 20
7.8039770555
 30
0.0
 10
9.9517940891
 20
7.8055940806
 30
0.0
 10
9.9580876557
 20
7.8067395679
 30
0.0
 10
9.9644807908
 20
7.8074072905
 30
0.0
 10
9.9709383128
 20
7.8075936606
 30
0.0
 10
9.9774247064
 20
7.8072977406
 30
0.0
 10
9.9839043165
 20
7.8065212397
 30
0.0
 10
9.9903415424
 20
7.8052685022
 30
0.0
 10
9.9967010301
 20
7.80354648
 30
0.0
 10
10.0029478639
 20
7.8013646923
 30
0.0
 10
10.0090477548
 20
7.7987351727
 30
0.0
 10
10.014967225
 20
7.795672401
 30
0.0
 10
10.020673794
 20
7.7921932316
 30
0.0
 10
10.0261361524
 20
7.7883167947
 30
0.0
 10
10.0313243306
 20
7.7840643897
 30
0.0
 10
10.0362098609
 20
7.7794593697
 30
0.0
 10
10.0407659314
 20
7.7745270146
 30
0.0
 10
10.0449675315
 20
7.7692943942
 30
0.0
 10
10.0487915878
 20
7.7637902212
 30
0.0
 10
10.0522170879
 20
7.7580446959
 30
0.0
 10
10.0552252075
 20
7.7520893459
 30
0.0
 10
10.0577993923
 20
7.7459568542
 30
0.0
 10
10.059925491
 20
7.7396808607
 30
0.0
 10
10.0615917243
 20
7.7332958674
 30
0.0
 10
10.0627889792
 20
7.7268367468
 30
0.0
 10
10.0635104725
 20
7.7203395098
 30
0.0
 10
10.0636720983
 20
7.7159941307
 30
0.0
 10
10.0636720983
 20
7.7138278035
 30
0.0
  0
SPLINE
  5
35E
100
AcDbEntity
  8
0
100
AcDbSpline
 62
7
  6
CONTINUOUS
 70
0
 71
3
 72
39
 73
35
 74
0
 42
0.0000001
 43
0.0000001
 44
0.0000000001
 40
0.0
 40
0.0
 40
0.0
 40
0.0
 40
0.0299424741
 40
0.0599093236
 40
0.0899243299
 40
0.1200101071
 40
0.1501875628
 40
0.1804754121
 40
0.2108897558
 40
0.2414437341
 40
0.2721472619
 40
0.3030068476
 40
0.3340255003
 40
0.3652027176
 40
0.3965345493
 40
0.4280137317
 40
0.459629888
 40
0.4913697842
 40
0.5232176352
 40
0.5551554541
 40
0.5871634377
 40
0.6192203778
 40
0.6513040905
 40
0.68339186
 40
0.715460889
 40
0.7474887514
 40
0.779453839
 40
0.8113357971
 40
0.8431159663
 40
0.8747776774
 40
0.9063069717
 40
0.937691796
 40
0.9689252179
 40
1.0
 40
1.0
 40
1.0
 40
1.0
 10
11.453067021
 20
7.6472954202
 30
0.0
 10
11.4545683891
 20
7.6487456242
 30
0.0
 10
11.4576891701
 20
7.6515290058
 30
0.0
 10
11.4626891595
 20
7.6553208579
 30
0.0
 10
11.4679823952
 20
7.6587105287
 30
0.0
 10
11.4735393031
 20
7.6616790013
 30
0.0
 10
11.479329331
 20
7.6642100605
 30
0.0
 10
11.4853205255
 20
7.6662897928
 30
0.0
 10
11.4914798724
 20
7.667906818
 30
0.0
 10
11.4977734389
 20
7.6690523053
 30
0.0
 10
11.504166574
 20
7.6697200279
 30
0.0
 10
11.510624096
 20
7.669906398
 30
0.0
 10
11.5171104896
 20
7.6696104779
 30
0.0
 10
11.5235900998
 20
7.6688339771
 30
0.0
 10
11.5300273257
 20
7.6675812396
 30
0.0
 10
11.5363868134
 20
7.6658592173
 30
0.0
 10
11.5426336472
 20
7.6636774297
 30
0.0
 10
11.548733538
 20
7.6610479101
 30
0.0
 10
11.5546530082
 20
7.6579851383
 30
0.0
 10
11.5603595772
 20
7.6545059689
 30
0.0
 10
11.5658219357
 20
7.650629532
 30
0.0
 10
11.5710101139
 20
7.646377127
 30
0.0
 10
11.5758956441
 20
7.641772107
 30
0.0
 10
11.5804517146
 20
7.636839752
 30
0.0
 10
11.5846533147
 20
7.6316071315
 30
0.0
 10
11.5884773711
 20
7.6261029585
 30
0.0
 10
11.5919028711
 20
7.6203574332
 30
0.0
 10
11.5949109908
 20
7.6144020833
 30
0.0
 10
11.5974851755
 20
7.6082695915
 30
0.0
 10
11.5996112742
 20
7.6019935981
 30
0.0
 10
11.6012775076
 20
7.5956086048
 30
0.0
 10
11.6024747624
 20
7.5891494842
 30
0.0
 10
11.6031962557
 20
7.5826522471
 30
0.0
 10
11.6033578816
 20
7.578306868
 30
0.0
 10
11.6033578816
 20
7.5761405409
 30
0.0
  0
SPLINE
  5
35F
100
AcDbEntity
  8
0
100
AcDbSpline
 62
7
  6
CONTINUOUS
 70
0
 71
3
 72
32
 73
28
 74
0
 42
0.0000001
 43
0.0000001
 44
0.0000000001
 40
0.0
 40
0.0
 40
0.0
 40
0.0
 40
0.0607419964
 40
0.1218244709
 40
0.152500256
 40
0.1832613649
 40
0.2450255445
 40
0.3071229908
 40
0.3695430058
 40
0.4322692266
 40
0.4952772074
 40
0.5585300109
 40
0.5902421074
 40
0.6219940071
 40
0.6855473442
 40
0.7173458412
 40
0.7491274465
 40
0.7808715421
 40
0.8125549726
 40
0.8441525206
 40
0.8599138795
 40
0.8756441522
 40
0.9069913079
 40
0.9381767892
 40
0.953706146
 40
0.9691887995
 40
1.0
 40
1.0
 40
1.0
 40
1.0
 10
10.7373553909
 20
8.7573147395
 30
0.0
 10
10.7428586246
 20
8.7582761689
 30
0.0
 10
10.7539855215
 20
8.759721261
 30
0.0
 10
10.7680127335
 20
8.7603626028
 30
0.0
 10
10.7792825722
 20
8.7601953436
 30
0.0
 10
10.7905991985
 20
8.7595737322
 30
0.0
 10
10.8047431168
 20
8.757946562
 30
0.0
 10
10.8215725613
 20
8.7546441333
 30
0.0
 10
10.8381698648
 20
8.7499800585
 30
0.0
 10
10.854406904
 20
8.7439360418
 30
0.0
 10
10.8701357119
 20
8.7364872062
 30
0.0
 10
10.8826672007
 20
8.7290882544
 30
0.0
 10
10.8922449169
 20
8.7224399219
 30
0.0
 10
10.901491533
 20
8.7152944306
 30
0.0
 10
10.9101606103
 20
8.7074080063
 30
0.0
 10
10.9180832927
 20
8.698800513
 30
0.0
 10
10.9236107519
 20
8.6919872365
 30
0.0
 10
10.9286710773
 20
8.6848326056
 30
0.0
 10
10.9332118629
 20
8.677356581
 30
0.0
 10
10.9365210217
 20
8.6708751339
 30
0.0
 10
10.9388539172
 20
8.665560837
 30
0.0
 10
10.9409644776
 20
8.6601791307
 30
0.0
 10
10.9431799784
 20
8.6533212527
 30
0.0
 10
10.9447972688
 20
8.6463162334
 30
0.0
 10
10.945710098
 20
8.640667269
 30
0.0
 10
10.9463636164
 20
8.6350175751
 30
0.0
 10
10.9465627771
 20
8.6307565184
 30
0.0
 10
10.9465627771
 20
8.6279227396
 30
0.0
  0
SPLINE
  5
360
100
AcDbEntity
  8
0
100
AcDbSpline
 62
7
  6
CONTINUOUS
 70
0
 71
3
 72
40
 73
36
 74
0
 42
0.0000001
 43
0.0000001
 44
0.0000000001
 40
0.0
 40
0.0
 40
0.0
 40
0.0
 40
0.0301996485
 40
0.0603260017
 40
0.0904085679
 40
0.1204780458
 40
0.1505653678
 40
0.1807007508
 40
0.2109127938
 40
0.241227654
 40
0.2716683294
 40
0.3022540636
 40
0.332999886
 40
0.3639162891
 40
0.3950090413
 40
0.4262791287
 40
0.457722816
 40
0.4893318171
 40
0.5210935624
 40
0.5529915541
 40
0.5850057993
 40
0.617113311
 40
0.6492886708
 40
0.6815046436
 40
0.7137328367
 40
0.7459443955
 40
0.7781107233
 40
0.8102042166
 40
0.8421989925
 40
0.8740716225
 40
0.9058017415
 40
0.9373728976
 40
0.9530977775
 40
0.9687791403
 40
1.0
 40
1.0
 40
1.0
 40
1.0
 10
10.6786250736
 20
7.9178250911
 30
0.0
 10
10.6801815619
 20
7.920691553
 30
0.0
 10
10.6835465524
 20
7.9262829076
 30
0.0
 10
10.6893141447
 20
7.9341777013
 30
0.0
 10
10.6957543873
 20
7.9415164302
 30
0.0
 10
10.7028206757
 20
7.9482480203
 30
0.0
 10
10.7104628515
 20
7.9543270753
 30
0.0
 10
10.7186268786
 20
7.9597127025
 30
0.0
 10
10.727255489
 20
7.9643690971
 30
0.0
 10
10.736288572
 20
7.9682655931
 30
0.0
 10
10.7456636266
 20
7.9713768011
 30
0.0
 10
10.755316185
 20
7.9736826751
 30
0.0
 10
10.7651802289
 20
7.9751685569
 30
0.0
 10
10.7751885906
 20
7.9758251956
 30
0.0
 10
10.7852733438
 20
7.9756487468
 30
0.0
 10
10.7953661849
 20
7.9746407574
 30
0.0
 10
10.8053988081
 20
7.9728081366
 30
0.0
 10
10.8153032788
 20
7.9701631153
 30
0.0
 10
10.8250124081
 20
7.9667231923
 30
0.0
 10
10.834460132
 20
7.9625110659
 30
0.0
 10
10.8435818969
 20
7.9575545471
 30
0.0
 10
10.8523150534
 20
7.9518864522
 30
0.0
 10
10.8605992592
 20
7.945544468
 30
0.0
 10
10.8683768881
 20
7.9385709884
 30
0.0
 10
10.8755934455
 20
7.9310129141
 30
0.0
 10
10.8821979836
 20
7.9229214126
 30
0.0
 10
10.8881435139
 20
7.9143516401
 30
0.0
 10
10.8933874079
 20
7.9053623998
 30
0.0
 10
10.8978917799
 20
7.8960158187
 30
0.0
 10
10.9016238541
 20
7.8863767442
 30
0.0
 10
10.9045562357
 20
7.8765129537
 30
0.0
 10
10.9063180022
 20
7.8681507808
 30
0.0
 10
10.9073070627
 20
7.8614192667
 30
0.0
 10
10.9080130838
 20
7.8546906551
 30
0.0
 10
10.9082272173
 20
7.8496216011
 30
0.0
 10
10.9082272173
 20
7.8462495148
 30
0.0
  0
SPLINE
  5
361
100
AcDbEntity
  8
0
100
AcDbSpline
 62
7
  6
CONTINUOUS
 70
0
 71
3
 72
15
 73
11
 74
0
 42
0.0000001
 43
0.0000001
 44
0.0000000001
 40
0.0
 40
0.0
 40
0.0
 40
0.0
 40
0.1233171148
 40
0.2468171822
 40
0.3706750007
 40
0.4950496181
 40
0.6200773069
 40
0.7458672043
 40
0.8724928123
 40
1.0
 40
1.0
 40
1.0
 40
1.0
 10
11.1699544343
 20
7.653450466
 30
0.0
 10
11.1717047568
 20
7.6551411287
 30
0.0
 10
11.1753932729
 20
7.6583389788
 30
0.0
 10
11.1814132444
 20
7.6625177249
 30
0.0
 10
11.1878638487
 20
7.6660403316
 30
0.0
 10
11.1946790363
 20
7.6688706229
 30
0.0
 10
11.201790071
 20
7.670980502
 30
0.0
 10
11.2091253252
 20
7.6723488533
 30
0.0
 10
11.2166099221
 20
7.6729623748
 30
0.0
 10
11.2216339438
 20
7.6728643746
 30
0.0
 10
11.2241441103
 20
7.672690294
 30
0.0
  0
SPLINE
  5
362
100
AcDbEntity
  8
0
100
AcDbSpline
 62
7
  6
CONTINUOUS
 70
0
 71
3
 72
80
 73
76
 74
0
 42
0.0000001
 43
0.0000001
 44
0.0000000001
 40
0.0
 40
0.0
 40
0.0
 40
0.0
 40
0.0027164327
 40
0.0054532447
 40
0.0082303176
 40
0.0110666212
 40
0.0139798388
 40
0.016986154
 40
0.0201001347
 40
0.0233346582
 40
0.0267010284
 40
0.0302089968
 40
0.0338669183
 40
0.0376819076
 40
0.0416598906
 40
0.0458058349
 40
0.0501237838
 40
0.0546169826
 40
0.0592880207
 40
0.0641388059
 40
0.0691707482
 40
0.0743847477
 40
0.0853596785
 40
0.0970635549
 40
0.1094903305
 40
0.1226296146
 40
0.1364673135
 40
0.1509861535
 40
0.1661660759
 40
0.1819845508
 40
0.1984168195
 40
0.2154361185
 40
0.2330138792
 40
0.2511198904
 40
0.2697224401
 40
0.2887884373
 40
0.3082835515
 40
0.3281723331
 40
0.348418324
 40
0.368984158
 40
0.3898316649
 40
0.4109219833
 40
0.4536720365
 40
0.4969140898
 40
0.5403224212
 40
0.5835697178
 40
0.6263302119
 40
0.6682828124
 40
0.6888582723
 40
0.7091151075
 40
0.7290159233
 40
0.74852422
 40
0.7676045125
 40
0.7862224423
 40
0.804344885
 40
0.8219400731
 40
0.8389777322
 40
0.8554292445
 40
0.8712678001
 40
0.8864685754
 40
0.9010089485
 40
0.9148687687
 40
0.92803068
 40
0.940480496
 40
0.9522076877
 40
0.9577984663
 40
0.9632066952
 40
0.9684323943
 40
0.9734759977
 40
0.9783383604
 40
0.9830208115
 40
0.987525367
 40
0.9918546057
 40
0.996011597
 40
1.0
 40
1.0
 40
1.0
 40
1.0
 10
12.6605862495
 20
7.4703410248
 30
0.0
 10
12.6597827751
 20
7.4703967503
 30
0.0
 10
12.6581739127
 20
7.4705813469
 30
0.0
 10
12.655781111
 20
7.4710753343
 30
0.0
 10
12.6534063823
 20
7.4717862627
 30
0.0
 10
12.6510514403
 20
7.4727135212
 30
0.0
 10
12.6487174896
 20
7.4738562372
 30
0.0
 10
12.6464057165
 20
7.4752135145
 30
0.0
 10
12.6441172224
 20
7.4767844339
 30
0.0
 10
12.6418529727
 20
7.478567932
 30
0.0
 10
12.6396139939
 20
7.4805630272
 30
0.0
 10
12.637401227
 20
7.4827685974
 30
0.0
 10
12.6352156265
 20
7.4851834884
 30
0.0
 10
12.6330582057
 20
7.487806507
 30
0.0
 10
12.6309298854
 20
7.4906363053
 30
0.0
 10
12.6288316932
 20
7.4936715161
 30
0.0
 10
12.6267645992
 20
7.4969106326
 30
0.0
 10
12.6247295682
 20
7.5003520529
 30
0.0
 10
12.6227276274
 20
7.5039941035
 30
0.0
 10
12.620759707
 20
7.5078349615
 30
0.0
 10
12.6188267797
 20
7.5118727493
 30
0.0
 10
12.6162534386
 20
7.517614898
 30
0.0
 10
12.6131415005
 20
7.5252803028
 30
0.0
 10
12.6096227385
 20
7.5350786292
 30
0.0
 10
12.6062654049
 20
7.5456088337
 30
0.0
 10
12.6030762561
 20
7.5568499525
 30
0.0
 10
12.6000617234
 20
7.5687797671
 30
0.0
 10
12.5972279203
 20
7.5813745184
 30
0.0
 10
12.5945806052
 20
7.5946090819
 30
0.0
 10
12.5921251686
 20
7.6084569957
 30
0.0
 10
12.5898666059
 20
7.6228905274
 30
0.0
 10
12.5878095096
 20
7.6378807365
 30
0.0
 10
12.5859580671
 20
7.653397546
 30
0.0
 10
12.5843160492
 20
7.6694098079
 30
0.0
 10
12.5828868038
 20
7.6858853638
 30
0.0
 10
12.5816732365
 20
7.7027911095
 30
0.0
 10
12.5806778171
 20
7.7200930673
 30
0.0
 10
12.5799025755
 20
7.7377564591
 30
0.0
 10
12.5793490971
 20
7.7557457788
 30
0.0
 10
12.5790185231
 20
7.7740248488
 30
0.0
 10
12.5789115105
 20
7.7925569411
 30
0.0
 10
12.5790680168
 20
7.8176663514
 30
0.0
 10
12.5798273599
 20
7.8494096118
 30
0.0
 10
12.5816169217
 20
7.8877373952
 30
0.0
 10
12.5842748045
 20
7.9261626247
 30
0.0
 10
12.5877796249
 20
7.9643765412
 30
0.0
 10
12.5921031305
 20
8.00207208
 30
0.0
 10
12.5963862082
 20
8.0329975605
 30
0.0
 10
12.6002036774
 20
8.0572446091
 30
0.0
 10
12.603229352
 20
8.0749960838
 30
0.0
 10
12.6064298545
 20
8.0923952557
 30
0.0
 10
12.6097987596
 20
8.1094071716
 30
0.0
 10
12.6133292586
 20
8.1259976332
 30
0.0
 10
12.6170142214
 20
8.1421333084
 30
0.0
 10
12.6208462058
 20
8.1577817837
 30
0.0
 10
12.6248174723
 20
8.1729116323
 30
0.0
 10
12.6289200021
 20
8.187492483
 30
0.0
 10
12.6331454999
 20
8.2014950909
 30
0.0
 10
12.6374854242
 20
8.2148913971
 30
0.0
 10
12.6419310045
 20
8.2276545822
 30
0.0
 10
12.6464732647
 20
8.2397591349
 30
0.0
 10
12.6511030398
 20
8.2511808953
 30
0.0
 10
12.6558110031
 20
8.2618972069
 30
0.0
 10
12.6605876825
 20
8.271886675
 30
0.0
 10
12.6646801727
 20
8.2797091961
 30
0.0
 10
12.6679879536
 20
8.2855801023
 30
0.0
 10
12.6704404082
 20
8.2897190133
 30
0.0
 10
12.6729028721
 20
8.2936619826
 30
0.0
 10
12.6753741266
 20
8.2974070537
 30
0.0
 10
12.6778529143
 20
8.3009523725
 30
0.0
 10
12.6803380701
 20
8.3042961752
 30
0.0
 10
12.6828283673
 20
8.3074368623
 30
0.0
 10
12.6853226643
 20
8.3103728787
 30
0.0
 10
12.6878195914
 20
8.3131026311
 30
0.0
 10
12.6895197521
 20
8.3148190104
 30
0.0
 10
12.6903702962
 20
8.3156405729
 30
0.0
  0
SPLINE
  5
363
100
AcDbEntity
  8
0
100
AcDbSpline
 62
7
  6
CONTINUOUS
 70
0
 71
3
 72
11
 73
7
 74
0
 42
0.0000001
 43
0.0000001
 44
0.0000000001
 40
0.0
 40
0.0
 40
0.0
 40
0.0
 40
0.2501111445
 40
0.5002017384
 40
0.7502033772
 40
1.0
 40
1.0
 40
1.0
 40
1.0
 10
10.7958626332
 20
7.9743581958
 30
0.0
 10
10.7981297924
 20
7.9713777656
 30
0.0
 10
10.8029428525
 20
7.9656237987
 30
0.0
 10
10.8109126039
 20
7.9576881617
 30
0.0
 10
10.8195538043
 20
7.9504975109
 30
0.0
 10
10.8257122776
 20
7.946227098
 30
0.0
 10
10.8288748825
 20
7.9442306866
 30
0.0
  0
SPLINE
  5
364
100
AcDbEntity
  8
0
100
AcDbSpline
 62
7
  6
CONTINUOUS
 70
0
 71
3
 72
15
 73
11
 74
0
 42
0.0000001
 43
0.0000001
 44
0.0000000001
 40
0.0
 40
0.0
 40
0.0
 40
0.0
 40
0.1273482292
 40
0.2538605354
 40
0.3795879276
 40
0.5046050833
 40
0.6290174349
 40
0.7529533662
 40
0.8765605734
 40
1.0
 40
1.0
 40
1.0
 40
1.0
 10
9.8888395134
 20
8.9024501479
 30
0.0
 10
9.8888395134
 20
8.9052373658
 30
0.0
 10
9.8891056355
 20
8.9107973594
 30
0.0
 10
9.8903091527
 20
8.9190304155
 30
0.0
 10
9.8923047883
 20
8.9270566055
 30
0.0
 10
9.8950745206
 20
8.9348008654
 30
0.0
 10
9.8985929196
 20
8.9421917819
 30
0.0
 10
9.9028279254
 20
8.9491611069
 30
0.0
 10
9.9077397179
 20
8.9556435366
 30
0.0
 10
9.911438047
 20
8.9596033762
 30
0.0
 10
9.9133812378
 20
8.9614803463
 30
0.0
  0
SPLINE
  5
365
100
AcDbEntity
  8
0
100
AcDbSpline
 62
7
  6
CONTINUOUS
 70
0
 71
3
 72
41
 73
37
 74
0
 42
0.0000001
 43
0.0000001
 44
0.0000000001
 40
0.0
 40
0.0
 40
0.0
 40
0.0
 40
0.0311444983
 40
0.062442467
 40
0.093887251
 40
0.1254695609
 40
0.157177086
 40
0.1889950997
 40
0.2209066479
 40
0.2528929497
 40
0.284933762
 40
0.3170077852
 40
0.3490930781
 40
0.3811674822
 40
0.4132090489
 40
0.445196464
 40
0.4771094635
 40
0.5089292351
 40
0.540638799
 40
0.5722233621
 40
0.6036706378
 40
0.6349711269
 40
0.6661183495
 40
0.6971090237
 40
0.7279431823
 40
0.7586242225
 40
0.7891588828
 40
0.8195571428
 40
0.8498320452
 40
0.86493089
 40
0.8800050502
 40
0.9100832578
 40
0.9400926753
 40
0.9550812784
 40
0.9700610371
 40
1.0
 40
1.0
 40
1.0
 40
1.0
 10
12.1108640547
 20
9.3889826603
 30
0.0
 10
12.1075501072
 20
9.3892124834
 30
0.0
 10
12.1009202392
 20
9.3899158362
 30
0.0
 10
12.0910558223
 20
9.3916875672
 30
0.0
 10
12.0812970478
 20
9.3941692705
 30
0.0
 10
12.0716966542
 20
9.3973475455
 30
0.0
 10
12.0623056195
 20
9.4012053919
 30
0.0
 10
12.0531740445
 20
9.4057221577
 30
0.0
 10
12.0443505733
 20
9.4108737117
 30
0.0
 10
12.0358822222
 20
9.416632546
 30
0.0
 10
12.0278141105
 20
9.4229679325
 30
0.0
 10
12.0201892281
 20
9.4298460819
 30
0.0
 10
12.013048208
 20
9.4372303236
 30
0.0
 10
12.006429112
 20
9.4450812993
 30
0.0
 10
12.0003672299
 20
9.4533571704
 30
0.0
 10
11.9948948934
 20
9.462013839
 30
0.0
 10
11.9900413043
 20
9.47100518
 30
0.0
 10
11.9858323807
 20
9.4802832843
 30
0.0
 10
11.9822906184
 20
9.4897987106
 30
0.0
 10
11.9794349716
 20
9.4995007459
 30
0.0
 10
11.9772807507
 20
9.5093376718
 30
0.0
 10
11.9758395388
 20
9.5192570364
 30
0.0
 10
11.9751191284
 20
9.5292059312
 30
0.0
 10
11.9751234742
 20
9.5391312666
 30
0.0
 10
11.9758526737
 20
9.5489800632
 30
0.0
 10
11.977302941
 20
9.5586996934
 30
0.0
 10
11.9794666936
 20
9.5682383036
 30
0.0
 10
11.9823323176
 20
9.5775445663
 30
0.0
 10
11.9852958676
 20
9.5850727891
 30
0.0
 10
11.9880002509
 20
9.5909271556
 30
0.0
 10
11.990918823
 20
9.5966542221
 30
0.0
 10
11.9949710823
 20
9.6035814191
 30
0.0
 10
11.9995445427
 20
9.6101650987
 30
0.0
 10
12.0034966805
 20
9.6151975078
 30
0.0
 10
12.0076373611
 20
9.6200656526
 30
0.0
 10
12.0109547573
 20
9.6235313733
 30
0.0
 10
12.0132515622
 20
9.6257499317
 30
0.0
  0
SPLINE
  5
366
100
AcDbEntity
  8
0
100
AcDbSpline
 62
7
  6
CONTINUOUS
 70
0
 71
3
 72
19
 73
15
 74
0
 42
0.0000001
 43
0.0000001
 44
0.0000000001
 40
0.0
 40
0.0
 40
0.0
 40
0.0
 40
0.0620513279
 40
0.1242804368
 40
0.1866663018
 40
0.2491859688
 40
0.3744790786
 40
0.4999959515
 40
0.6255133672
 40
0.7508080643
 40
0.8133288915
 40
0.8757161302
 40
0.9379468321
 40
1.0
 40
1.0
 40
1.0
 40
1.0
 10
10.0017778303
 20
8.9781911327
 30
0.0
 10
10.0023367761
 20
8.9765270956
 30
0.0
 10
10.0035508338
 20
8.9732251752
 30
0.0
 10
10.0056492617
 20
8.9683764927
 30
0.0
 10
10.0080210215
 20
8.963640313
 30
0.0
 10
10.0115382322
 20
8.9574946274
 30
0.0
 10
10.0165750841
 20
8.9501769711
 30
0.0
 10
10.0235518053
 20
8.9421076371
 30
0.0
 10
10.0313707637
 20
8.9348513604
 30
0.0
 10
10.0385067387
 20
8.9295600943
 30
0.0
 10
10.044524996
 20
8.925828813
 30
0.0
 10
10.0491748921
 20
8.9232918212
 30
0.0
 10
10.0539468382
 20
8.9210239799
 30
0.0
 10
10.0572040991
 20
8.9196944889
 30
0.0
 10
10.0588474791
 20
8.919077298
 30
0.0
  0
SPLINE
  5
367
100
AcDbEntity
  8
0
100
AcDbSpline
 62
7
  6
CONTINUOUS
 70
0
 71
3
 72
15
 73
11
 74
0
 42
0.0000001
 43
0.0000001
 44
0.0000000001
 40
0.0
 40
0.0
 40
0.0
 40
0.0
 40
0.1273482292
 40
0.2538605354
 40
0.3795879276
 40
0.5046050833
 40
0.6290174349
 40
0.7529533662
 40
0.8765605734
 40
1.0
 40
1.0
 40
1.0
 40
1.0
 10
11.4285252967
 20
8.8265822671
 30
0.0
 10
11.4285252967
 20
8.829369485
 30
0.0
 10
11.4287914187
 20
8.8349294785
 30
0.0
 10
11.429994936
 20
8.8431625347
 30
0.0
 10
11.4319905716
 20
8.8511887247
 30
0.0
 10
11.4347603039
 20
8.8589329846
 30
0.0
 10
11.4382787028
 20
8.866323901
 30
0.0
 10
11.4425137087
 20
8.8732932261
 30
0.0
 10
11.4474255011
 20
8.8797756558
 30
0.0
 10
11.4511238302
 20
8.8837354954
 30
0.0
 10
11.453067021
 20
8.8856124655
 30
0.0
  0
SPLINE
  5
368
100
AcDbEntity
  8
0
100
AcDbSpline
 62
7
  6
CONTINUOUS
 70
0
 71
3
 72
53
 73
49
 74
0
 42
0.0000001
 43
0.0000001
 44
0.0000000001
 40
0.0
 40
0.0
 40
0.0
 40
0.0
 40
0.0055575358
 40
0.0111779566
 40
0.0169218919
 40
0.022845775
 40
0.0290005507
 40
0.0354309545
 40
0.0421754005
 40
0.0492662557
 40
0.0567303027
 40
0.0645894212
 40
0.072861099
 40
0.0815591501
 40
0.0906940844
 40
0.1002737091
 40
0.1103033751
 40
0.1207864065
 40
0.1317242976
 40
0.1431169629
 40
0.154962942
 40
0.1672594909
 40
0.1800028152
 40
0.1931880451
 40
0.2068094816
 40
0.2208605177
 40
0.2353338545
 40
0.250221435
 40
0.2655145886
 40
0.281204022
 40
0.3137311009
 40
0.3477184393
 40
0.3830735589
 40
0.4196973748
 40
0.4574849489
 40
0.4963261675
 40
0.5361063682
 40
0.5767069301
 40
0.6180058389
 40
0.659878235
 40
0.7021969505
 40
0.744833037
 40
0.787656286
 40
0.8305357591
 40
0.8733402611
 40
0.9159390133
 40
0.9582016979
 40
1.0
 40
1.0
 40
1.0
 40
1.0
 10
11.1294444126
 20
10.1401299055
 30
0.0
 10
11.1294444126
 20
10.1416018196
 30
0.0
 10
11.1296092382
 20
10.1445648632
 30
0.0
 10
11.1303488398
 20
10.1489936235
 30
0.0
 10
11.1315797178
 20
10.1534124923
 30
0.0
 10
11.133299373
 20
10.1578163714
 30
0.0
 10
11.1355050492
 20
10.1622016653
 30
0.0
 10
11.1381937356
 20
10.1665650307
 30
0.0
 10
11.1413623866
 20
10.1709034688
 30
0.0
 10
11.1450079051
 20
10.1752140424
 30
0.0
 10
11.1491270013
 20
10.1794938824
 30
0.0
 10
11.1537162652
 20
10.1837399643
 30
0.0
 10
11.1587719169
 20
10.187949316
 30
0.0
 10
11.1642899591
 20
10.1921187588
 30
0.0
 10
11.1702659543
 20
10.1962452043
 30
0.0
 10
11.1766951747
 20
10.2003254012
 30
0.0
 10
11.1835724606
 20
10.2043561903
 30
0.0
 10
11.1908923128
 20
10.2083343361
 30
0.0
 10
11.1986488374
 20
10.2122566569
 30
0.0
 10
11.2068357736
 20
10.2161199908
 30
0.0
 10
11.2154465024
 20
10.2199211771
 30
0.0
 10
11.2244740302
 20
10.2236571561
 30
0.0
 10
11.2339110318
 20
10.2273248274
 30
0.0
 10
11.2437498149
 20
10.2309212426
 30
0.0
 10
11.2539823713
 20
10.2344433995
 30
0.0
 10
11.2646003447
 20
10.2378884581
 30
0.0
 10
11.275595072
 20
10.24125355
 30
0.0
 10
11.2869575628
 20
10.2445359348
 30
0.0
 10
11.2986785434
 20
10.2477329248
 30
0.0
 10
11.3149678833
 20
10.2519286262
 30
0.0
 10
11.3361606466
 20
10.2569276468
 30
0.0
 10
11.3625665089
 20
10.2624763564
 30
0.0
 10
11.3901574124
 20
10.2676263137
 30
0.0
 10
11.4188430357
 20
10.2723604957
 30
0.0
 10
11.4485296239
 20
10.2766632271
 30
0.0
 10
11.479120028
 20
10.2805202769
 30
0.0
 10
11.5105141162
 20
10.2839188914
 30
0.0
 10
11.5426090886
 20
10.2868478374
 30
0.0
 10
11.5752998266
 20
10.2892974384
 30
0.0
 10
11.6084792422
 20
10.2912596038
 30
0.0
 10
11.6420386335
 20
10.2927278547
 30
0.0
 10
11.675868044
 20
10.2936973435
 30
0.0
 10
11.7098566282
 20
10.2941648708
 30
0.0
 10
11.7438930104
 20
10.2941288912
 30
0.0
 10
11.7778656724
 20
10.2935895286
 30
0.0
 10
11.8116632737
 20
10.2925485526
 30
0.0
 10
11.8451750263
 20
10.29100942
 30
0.0
 10
11.8673978566
 20
10.289645679
 30
0.0
 10
11.8784416174
 20
10.2888797916
 30
0.0
  0
SPLINE
  5
369
100
AcDbEntity
  8
0
100
AcDbSpline
 62
7
  6
CONTINUOUS
 70
0
 71
3
 72
53
 73
49
 74
0
 42
0.0000001
 43
0.0000001
 44
0.0000000001
 40
0.0
 40
0.0
 40
0.0
 40
0.0
 40
0.0055963995
 40
0.0113449824
 40
0.0172954425
 40
0.0234920658
 40
0.0299733297
 40
0.0367721067
 40
0.0439159161
 40
0.0514275418
 40
0.0593254755
 40
0.0676245521
 40
0.0763363647
 40
0.085469761
 40
0.0950311825
 40
0.1050249969
 40
0.1154537792
 40
0.126318498
 40
0.1376187679
 40
0.1493529183
 40
0.1615182364
 40
0.1741109481
 40
0.1871264592
 40
0.2005592759
 40
0.2144032427
 40
0.2286514286
 40
0.2432963514
 40
0.2583298564
 40
0.273743314
 40
0.2895275108
 40
0.3221684831
 40
0.3561708469
 40
0.3914455611
 40
0.427897866
 40
0.4654279215
 40
0.503931389
 40
0.5432999743
 40
0.5834219431
 40
0.6241826167
 40
0.6654648547
 40
0.7071495272
 40
0.7491159832
 40
0.7912425089
 40
0.8334068
 40
0.8754863814
 40
0.9173591835
 40
0.95890368
 40
1.0
 40
1.0
 40
1.0
 40
1.0
 10
11.1301007979
 20
10.1319065318
 30
0.0
 10
11.1303632611
 20
10.133351542
 30
0.0
 10
11.1310509701
 20
10.1362546626
 30
0.0
 10
11.1325366176
 20
10.1405506106
 30
0.0
 10
11.1344847249
 20
10.1448310253
 30
0.0
 10
11.1368926522
 20
10.1490919744
 30
0.0
 10
11.1397575773
 20
10.1533307987
 30
0.0
 10
11.1430767638
 20
10.1575446279
 30
0.0
 10
11.1468472219
 20
10.1617308269
 30
0.0
 10
11.1510659263
 20
10.1658865924
 30
0.0
 10
11.1557295311
 20
10.1700091774
 30
0.0
 10
11.1608344949
 20
10.1740956835
 30
0.0
 10
11.1663769247
 20
10.1781432303
 30
0.0
 10
11.1723526352
 20
10.1821488552
 30
0.0
 10
11.1787570928
 20
10.1861095972
 30
0.0
 10
11.1855854269
 20
10.190022489
 30
0.0
 10
11.1928324354
 20
10.1938845465
 30
0.0
 10
11.2004925648
 20
10.1976928445
 30
0.0
 10
11.2085599479
 20
10.2014444208
 30
0.0
 10
11.2170283678
 20
10.2051364221
 30
0.0
 10
11.2258913093
 20
10.2087659409
 30
0.0
 10
11.2351419176
 20
10.2123302142
 30
0.0
 10
11.2447730515
 20
10.2158264142
 30
0.0
 10
11.2547772458
 20
10.2192518788
 30
0.0
 10
11.2651467583
 20
10.2226038804
 30
0.0
 10
11.275873541
 20
10.2258798644
 30
0.0
 10
11.2869492782
 20
10.2290772218
 30
0.0
 10
11.2983653641
 20
10.2321935051
 30
0.0
 10
11.3101129493
 20
10.235226259
 30
0.0
 10
11.3263883653
 20
10.239199823
 30
0.0
 10
11.3474986603
 20
10.243929457
 30
0.0
 10
11.3737276235
 20
10.2491745801
 30
0.0
 10
11.4010471154
 20
10.2540342455
 30
0.0
 10
11.429372199
 20
10.2584932131
 30
0.0
 10
11.4586149445
 20
10.2625374745
 30
0.0
 10
11.4886844746
 20
10.2661543382
 30
0.0
 10
11.519487324
 20
10.2693324561
 30
0.0
 10
11.5509277189
 20
10.2720618612
 30
0.0
 10
11.5829078852
 20
10.2743339958
 30
0.0
 10
11.6153283556
 20
10.2761417382
 30
0.0
 10
11.6480882829
 20
10.2774794233
 30
0.0
 10
11.6810857563
 20
10.2783428595
 30
0.0
 10
11.7142181222
 20
10.2787293422
 30
0.0
 10
11.7473823012
 20
10.2786376591
 30
0.0
 10
11.7804751228
 20
10.2780681012
 30
0.0
 10
11.8133936294
 20
10.277022445
 30
0.0
 10
11.8460353508
 20
10.2755039816
 30
0.0
 10
11.8676826262
 20
10.2741711153
 30
0.0
 10
11.8784416174
 20
10.2734249767
 30
0.0
  0
SPLINE
  5
36A
100
AcDbEntity
  8
0
100
AcDbSpline
 62
7
  6
CONTINUOUS
 70
0
 71
3
 72
57
 73
53
 74
0
 42
0.0000001
 43
0.0000001
 44
0.0000000001
 40
0.0
 40
0.0
 40
0.0
 40
0.0
 40
0.0082490316
 40
0.0160248414
 40
0.0233637939
 40
0.0303112656
 40
0.0369224454
 40
0.043262926
 40
0.0494081764
 40
0.0554418789
 40
0.0614528673
 40
0.0675310688
 40
0.0737632072
 40
0.0802292121
 40
0.0869997487
 40
0.0941352606
 40
0.1016859567
 40
0.1096925942
 40
0.1181876014
 40
0.1271961379
 40
0.1367373563
 40
0.1468251615
 40
0.15746923
 40
0.1686755082
 40
0.1804468671
 40
0.1927835203
 40
0.2056833202
 40
0.2191421913
 40
0.2331541714
 40
0.2477118263
 40
0.2628062093
 40
0.2784271526
 40
0.2945632987
 40
0.3112022011
 40
0.3283304856
 40
0.3459337859
 40
0.3639969859
 40
0.3825040958
 40
0.4207819723
 40
0.4606269098
 40
0.5018880399
 40
0.5444062511
 40
0.5880153451
 40
0.6325431247
 40
0.6778124354
 40
0.7236421777
 40
0.7698483017
 40
0.8162448021
 40
0.8626446417
 40
0.9088609325
 40
0.9547072079
 40
1.0
 40
1.0
 40
1.0
 40
1.0
 10
11.3246193402
 20
10.0958950553
 30
0.0
 10
11.323436469
 20
10.0969958475
 30
0.0
 10
11.3212033958
 20
10.0992057906
 30
0.0
 10
11.3181852852
 20
10.102651693
 30
0.0
 10
11.3156045182
 20
10.1061245873
 30
0.0
 10
11.3134646539
 20
10.109621391
 30
0.0
 10
11.311769236
 20
10.1131391864
 30
0.0
 10
11.3105217531
 20
10.1166744328
 30
0.0
 10
11.3097255799
 20
10.120222828
 30
0.0
 10
11.3093833646
 20
10.1237790125
 30
0.0
 10
11.3094963401
 20
10.1273368151
 30
0.0
 10
11.310064164
 20
10.1308898585
 30
0.0
 10
11.3110846893
 20
10.1344323428
 30
0.0
 10
11.3125549645
 20
10.1379593951
 30
0.0
 10
11.3144714023
 20
10.1414671827
 30
0.0
 10
11.3168305308
 20
10.1449524659
 30
0.0
 10
11.319628845
 20
10.1484123543
 30
0.0
 10
11.3228628441
 20
10.1518440101
 30
0.0
 10
11.3265289132
 20
10.155244462
 30
0.0
 10
11.3306230909
 20
10.1586107127
 30
0.0
 10
11.3351411443
 20
10.1619395189
 30
0.0
 10
11.3400783352
 20
10.1652276875
 30
0.0
 10
11.345429551
 20
10.1684718447
 30
0.0
 10
11.351189173
 20
10.1716686795
 30
0.0
 10
11.3573511455
 20
10.1748148357
 30
0.0
 10
11.3639089557
 20
10.177906966
 30
0.0
 10
11.3708556286
 20
10.1809418096
 30
0.0
 10
11.378183774
 20
10.1839160599
 30
0.0
 10
11.3858855471
 20
10.1868265717
 30
0.0
 10
11.3939527092
 20
10.1896701528
 30
0.0
 10
11.4023765978
 20
10.1924437676
 30
0.0
 10
11.4111481653
 20
10.1951443942
 30
0.0
 10
11.4202579773
 20
10.1977691076
 30
0.0
 10
11.4296962254
 20
10.2003150822
 30
0.0
 10
11.4394527465
 20
10.2027795258
 30
0.0
 10
11.4495170189
 20
10.2051598038
 30
0.0
 10
11.4598782059
 20
10.2074533137
 30
0.0
 10
11.4742355419
 20
10.2104256919
 30
0.0
 10
11.4928449981
 20
10.2138959293
 30
0.0
 10
11.5159317789
 20
10.2176321205
 30
0.0
 10
11.5399184179
 20
10.2209691428
 30
0.0
 10
11.5647013956
 20
10.2238924443
 30
0.0
 10
11.5901738756
 20
10.2263892475
 30
0.0
 10
11.6162259536
 20
10.2284486552
 30
0.0
 10
11.6427452065
 20
10.2300616799
 30
0.0
 10
11.669617168
 20
10.2312212869
 30
0.0
 10
11.6967258356
 20
10.2319224217
 30
0.0
 10
11.723954172
 20
10.232162026
 30
0.0
 10
11.7511846342
 20
10.2319390615
 30
0.0
 10
11.7782996304
 20
10.2312544871
 30
0.0
 10
11.8051820595
 20
10.2301113122
 30
0.0
 10
11.8230034446
 20
10.2290388151
 30
0.0
 10
11.8318542277
 20
10.2284250112
 30
0.0
  0
SPLINE
  5
36B
100
AcDbEntity
  8
0
100
AcDbSpline
 62
7
  6
CONTINUOUS
 70
0
 71
3
 72
39
 73
35
 74
0
 42
0.0000001
 43
0.0000001
 44
0.0000000001
 40
0.0
 40
0.0
 40
0.0
 40
0.0
 40
0.0311160054
 40
0.0620232808
 40
0.0927351539
 40
0.1232711756
 40
0.1536587326
 40
0.1839312105
 40
0.2141268386
 40
0.2442870981
 40
0.2744549747
 40
0.3046731306
 40
0.33498209
 40
0.365418544
 40
0.3960138629
 40
0.4267928807
 40
0.457772997
 40
0.4889636213
 40
0.5203659688
 40
0.551973177
 40
0.5837707173
 40
0.6157370643
 40
0.6478445906
 40
0.6800606397
 40
0.7123487305
 40
0.7446698622
 40
0.7769838838
 40
0.8092508928
 40
0.841432625
 40
0.8734938027
 40
0.9054033951
 40
0.9371359477
 40
0.9686717614
 40
1.0
 40
1.0
 40
1.0
 40
1.0
 10
10.0771071323
 20
7.7078050506
 30
0.0
 10
10.0771071323
 20
7.7043568919
 30
0.0
 10
10.0767705056
 20
7.6974787161
 30
0.0
 10
10.0752480689
 20
7.6872989626
 30
0.0
 10
10.0727242405
 20
7.6773851339
 30
0.0
 10
10.069222878
 20
7.6678342095
 30
0.0
 10
10.0647774859
 20
7.6587382386
 30
0.0
 10
10.0594307284
 20
7.6501853477
 30
0.0
 10
10.0532341377
 20
7.642258338
 30
0.0
 10
10.0462475595
 20
7.6350339948
 30
0.0
 10
10.0385385772
 20
7.6285822571
 30
0.0
 10
10.0301818261
 20
7.6229655223
 30
0.0
 10
10.021258256
 20
7.6182379728
 30
0.0
 10
10.0118542709
 20
7.614445077
 30
0.0
 10
10.0020608464
 20
7.6116231723
 30
0.0
 10
9.9919726184
 20
7.6097991473
 30
0.0
 10
9.9816869533
 20
7.608990203
 30
0.0
 10
9.9713029953
 20
7.609203702
 30
0.0
 10
9.9609207078
 20
7.6104371843
 30
0.0
 10
9.9506399294
 20
7.6126784144
 30
0.0
 10
9.9405594397
 20
7.6159055329
 30
0.0
 10
9.9307760212
 20
7.6200872396
 30
0.0
 10
9.921383553
 20
7.6251831308
 30
0.0
 10
9.9124721408
 20
7.6311441059
 30
0.0
 10
9.9041272757
 20
7.6379128322
 30
0.0
 10
9.8964290305
 20
7.6454242818
 30
0.0
 10
9.8894512776
 20
7.6536063213
 30
0.0
 10
9.8832610243
 20
7.6623804326
 30
0.0
 10
9.8779177759
 20
7.6716624325
 30
0.0
 10
9.8734729892
 20
7.6813633075
 30
0.0
 10
9.8699695206
 20
7.6913898831
 30
0.0
 10
9.8674413128
 20
7.7016462349
 30
0.0
 10
9.8659128578
 20
7.7120325786
 30
0.0
 10
9.8655693638
 20
7.7190035671
 30
0.0
 10
9.8655693638
 20
7.7224752447
 30
0.0
  0
SPLINE
  5
36C
100
AcDbEntity
  8
0
100
AcDbSpline
 62
7
  6
CONTINUOUS
 70
0
 71
3
 72
52
 73
48
 74
0
 42
0.0000001
 43
0.0000001
 44
0.0000000001
 40
0.0
 40
0.0
 40
0.0
 40
0.0
 40
0.0055575384
 40
0.0111779684
 40
0.0169219001
 40
0.022845798
 40
0.0290005666
 40
0.0354309876
 40
0.0421754274
 40
0.0492662984
 40
0.0567303434
 40
0.064589474
 40
0.0728611551
 40
0.0815592147
 40
0.0906941556
 40
0.1002737874
 40
0.1103034618
 40
0.1207865006
 40
0.1317244009
 40
0.1431170743
 40
0.1549630638
 40
0.1672596207
 40
0.1800029574
 40
0.1931881932
 40
0.2068096463
 40
0.2208606842
 40
0.2353340435
 40
0.2502216217
 40
0.2812034511
 40
0.3137305561
 40
0.3477179232
 40
0.3830730734
 40
0.4196969215
 40
0.4574845283
 40
0.4963257794
 40
0.5361060118
 40
0.5767066045
 40
0.6180055436
 40
0.6598779703
 40
0.7021967176
 40
0.744832835
 40
0.7876561223
 40
0.8305356125
 40
0.8733401984
 40
0.9159388487
 40
0.9582018573
 40
1.0
 40
1.0
 40
1.0
 40
1.0
 10
11.3494444229
 20
10.0860380553
 30
0.0
 10
11.349444418
 20
10.086965732
 30
0.0
 10
11.3495482782
 20
10.0888331996
 30
0.0
 10
11.3500144537
 20
10.0916244268
 30
0.0
 10
11.350790176
 20
10.0944094407
 30
0.0
 10
11.3518740298
 20
10.0971849789
 30
0.0
 10
11.353264129
 20
10.0999488373
 30
0.0
 10
11.354958706
 20
10.1026988396
 30
0.0
 10
11.3569557343
 20
10.1054331658
 30
0.0
 10
11.3592533453
 20
10.1081498998
 30
0.0
 10
11.3618494042
 20
10.1108472889
 30
0.0
 10
11.3647418041
 20
10.113523383
 30
0.0
 10
11.3679281356
 20
10.1161763408
 30
0.0
 10
11.3714058952
 20
10.1188041379
 30
0.0
 10
11.3751722778
 20
10.1214048404
 30
0.0
 10
11.3792243077
 20
10.1239763924
 30
0.0
 10
11.3835587314
 20
10.1265168059
 30
0.0
 10
11.3881720836
 20
10.1290240406
 30
0.0
 10
11.3930606495
 20
10.1314960914
 30
0.0
 10
11.3982204832
 20
10.1339309659
 30
0.0
 10
11.4036474131
 20
10.136326671
 30
0.0
 10
11.4093370314
 20
10.1386812807
 30
0.0
 10
11.4152847216
 20
10.1409928362
 30
0.0
 10
11.4214856347
 20
10.1432594878
 30
0.0
 10
11.4279347256
 20
10.14547933
 30
0.0
 10
11.4346267233
 20
10.1476505896
 30
0.0
 10
11.4415561789
 20
10.1497714496
 30
0.0
 10
11.451233393
 20
10.1525669462
 30
0.0
 10
11.4638864476
 20
10.1559132813
 30
0.0
 10
11.4797276813
 20
10.1596500896
 30
0.0
 10
11.4963701215
 20
10.1631471605
 30
0.0
 10
11.5137593226
 20
10.1663929356
 30
0.0
 10
11.5318385058
 20
10.1693766617
 30
0.0
 10
11.5505485398
 20
10.1720884666
 30
0.0
 10
11.5698282078
 20
10.1745193793
 30
0.0
 10
11.5896143981
 20
10.1766613626
 30
0.0
 10
11.6098423214
 20
10.1785073369
 30
0.0
 10
11.6304457267
 20
10.1800512035
 30
0.0
 10
11.651357122
 20
10.1812878631
 30
0.0
 10
11.6725079977
 20
10.1822132319
 30
0.0
 10
11.6938290549
 20
10.1828242554
 30
0.0
 10
11.715250429
 20
10.183118915
 30
0.0
 10
11.7367019368
 20
10.1830962412
 30
0.0
 10
11.7581132613
 20
10.1827563031
 30
0.0
 10
11.779414305
 20
10.1821002313
 30
0.0
 10
11.800535151
 20
10.181130182
 30
0.0
 10
11.814541153
 20
10.1802706834
 30
0.0
 10
11.8215014745
 20
10.1797879835
 30
0.0
  0
SPLINE
  5
36D
100
AcDbEntity
  8
0
100
AcDbSpline
 62
7
  6
CONTINUOUS
 70
0
 71
3
 72
19
 73
15
 74
0
 42
0.0000001
 43
0.0000001
 44
0.0000000001
 40
0.0
 40
0.0
 40
0.0
 40
0.0
 40
0.0620513279
 40
0.1242804368
 40
0.1866663018
 40
0.2491859688
 40
0.3744790786
 40
0.4999959515
 40
0.6255133672
 40
0.7508080643
 40
0.8133288915
 40
0.8757161302
 40
0.9379468321
 40
1.0
 40
1.0
 40
1.0
 40
1.0
 10
11.5414636135
 20
8.9023232519
 30
0.0
 10
11.5420225594
 20
8.9006592148
 30
0.0
 10
11.543236617
 20
8.8973572944
 30
0.0
 10
11.545335045
 20
8.8925086119
 30
0.0
 10
11.5477068048
 20
8.8877724321
 30
0.0
 10
11.5512240155
 20
8.8816267466
 30
0.0
 10
11.5562608673
 20
8.8743090902
 30
0.0
 10
11.5632375885
 20
8.8662397563
 30
0.0
 10
11.5710565469
 20
8.8589834795
 30
0.0
 10
11.5781925219
 20
8.8536922135
 30
0.0
 10
11.5842107793
 20
8.8499609321
 30
0.0
 10
11.5888606754
 20
8.8474239404
 30
0.0
 10
11.5936326215
 20
8.845156099
 30
0.0
 10
11.5968898824
 20
8.8438266081
 30
0.0
 10
11.5985332624
 20
8.8432094172
 30
0.0
  0
SPLINE
  5
36E
100
AcDbEntity
  8
0
100
AcDbSpline
 62
7
  6
CONTINUOUS
 70
0
 71
3
 72
39
 73
35
 74
0
 42
0.0000001
 43
0.0000001
 44
0.0000000001
 40
0.0
 40
0.0
 40
0.0
 40
0.0
 40
0.0311160054
 40
0.0620232808
 40
0.0927351539
 40
0.1232711756
 40
0.1536587326
 40
0.1839312105
 40
0.2141268386
 40
0.2442870981
 40
0.2744549747
 40
0.3046731306
 40
0.33498209
 40
0.365418544
 40
0.3960138629
 40
0.4267928807
 40
0.457772997
 40
0.4889636213
 40
0.5203659688
 40
0.551973177
 40
0.5837707173
 40
0.6157370643
 40
0.6478445906
 40
0.6800606397
 40
0.7123487305
 40
0.7446698622
 40
0.7769838838
 40
0.8092508928
 40
0.841432625
 40
0.8734938027
 40
0.9054033951
 40
0.9371359477
 40
0.9686717614
 40
1.0
 40
1.0
 40
1.0
 40
1.0
 10
11.4052551471
 20
7.584787982
 30
0.0
 10
11.4052551471
 20
7.5882361407
 30
0.0
 10
11.4055917739
 20
7.5951143165
 30
0.0
 10
11.4071142105
 20
7.60529407
 30
0.0
 10
11.4096380389
 20
7.6152078987
 30
0.0
 10
11.4131394014
 20
7.6247588231
 30
0.0
 10
11.4175847935
 20
7.633854794
 30
0.0
 10
11.422931551
 20
7.6424076849
 30
0.0
 10
11.4291281417
 20
7.6503346946
 30
0.0
 10
11.4361147199
 20
7.6575590378
 30
0.0
 10
11.4438237022
 20
7.6640107755
 30
0.0
 10
11.4521804534
 20
7.6696275103
 30
0.0
 10
11.4611040234
 20
7.6743550598
 30
0.0
 10
11.4705080086
 20
7.6781479556
 30
0.0
 10
11.480301433
 20
7.6809698603
 30
0.0
 10
11.490389661
 20
7.6827938853
 30
0.0
 10
11.5006753261
 20
7.6836028297
 30
0.0
 10
11.5110592841
 20
7.6833893306
 30
0.0
 10
11.5214415716
 20
7.6821558483
 30
0.0
 10
11.53172235
 20
7.6799146182
 30
0.0
 10
11.5418028397
 20
7.6766874997
 30
0.0
 10
11.5515862582
 20
7.672505793
 30
0.0
 10
11.5609787264
 20
7.6674099018
 30
0.0
 10
11.5698901386
 20
7.6614489267
 30
0.0
 10
11.5782350037
 20
7.6546802004
 30
0.0
 10
11.585933249
 20
7.6471687508
 30
0.0
 10
11.5929110018
 20
7.6389867113
 30
0.0
 10
11.5991012551
 20
7.6302126
 30
0.0
 10
11.6044445035
 20
7.6209306001
 30
0.0
 10
11.6088892902
 20
7.6112297251
 30
0.0
 10
11.6123927589
 20
7.6012031495
 30
0.0
 10
11.6149209666
 20
7.5909467977
 30
0.0
 10
11.6164494216
 20
7.580560454
 30
0.0
 10
11.6167929156
 20
7.5735894655
 30
0.0
 10
11.6167929156
 20
7.5701177879
 30
0.0
  0
SPLINE
  5
36F
100
AcDbEntity
  8
0
100
AcDbSpline
 62
7
  6
CONTINUOUS
 70
0
 71
3
 72
47
 73
43
 74
0
 42
0.0000001
 43
0.0000001
 44
0.0000000001
 40
0.0
 40
0.0
 40
0.0
 40
0.0
 40
0.006480422
 40
0.0130736829
 40
0.0198098643
 40
0.0267169237
 40
0.0411379629
 40
0.0487024909
 40
0.0565266576
 40
0.0646269514
 40
0.0730178307
 40
0.0817119352
 40
0.0907200915
 40
0.1000516323
 40
0.1097144835
 40
0.1197152224
 40
0.130059376
 40
0.1407513727
 40
0.1517946926
 40
0.1631920575
 40
0.1749453156
 40
0.1995224854
 40
0.2255299715
 40
0.2529615186
 40
0.2818035939
 40
0.31203636
 40
0.3436345436
 40
0.3765680787
 40
0.4108025775
 40
0.446299755
 40
0.4830178508
 40
0.5209119351
 40
0.5599341253
 40
0.6000338423
 40
0.6411580639
 40
0.683251514
 40
0.7262568054
 40
0.7701145827
 40
0.8147638652
 40
0.8601420155
 40
0.906184377
 40
1.0
 40
1.0
 40
1.0
 40
1.0
 10
12.3187766182
 20
10.1319690937
 30
0.0
 10
12.3185901538
 20
10.1329868442
 30
0.0
 10
12.3181373586
 20
10.1350267941
 30
0.0
 10
12.3172315465
 20
10.1380598015
 30
0.0
 10
12.3160946547
 20
10.1410869745
 30
0.0
 10
12.3142456309
 20
10.1451713932
 30
0.0
 10
12.3119467738
 20
10.1491856731
 30
0.0
 10
12.3092522232
 20
10.153110665
 30
0.0
 10
12.306971731
 20
10.1560901968
 30
0.0
 10
12.304465291
 20
10.1590567401
 30
0.0
 10
12.301733769
 20
10.162009533
 30
0.0
 10
12.2987782507
 20
10.1649473946
 30
0.0
 10
12.2955999194
 20
10.167869329
 30
0.0
 10
12.2921999881
 20
10.1707742423
 30
0.0
 10
12.2885797527
 20
10.1736610467
 30
0.0
 10
12.2847406311
 20
10.1765287096
 30
0.0
 10
12.2806840672
 20
10.1793761143
 30
0.0
 10
12.2764116268
 20
10.182202202
 30
0.0
 10
12.2719249604
 20
10.1850059137
 30
0.0
 10
12.2672257596
 20
10.1877861633
 30
0.0
 10
12.260579958
 20
10.191516107
 30
0.0
 10
12.2517434976
 20
10.1961032842
 30
0.0
 10
12.2404751697
 20
10.2014183911
 30
0.0
 10
12.2284067226
 20
10.2066148789
 30
0.0
 10
12.2155567594
 20
10.2116847032
 30
0.0
 10
12.2019449132
 20
10.21662004
 30
0.0
 10
12.1875921227
 20
10.2214132175
 30
0.0
 10
12.1725204925
 20
10.2260567643
 30
0.0
 10
12.156753292
 20
10.2305434372
 30
0.0
 10
12.1403149047
 20
10.2348662439
 30
0.0
 10
12.1232307736
 20
10.2390184344
 30
0.0
 10
12.1055273579
 20
10.2429935153
 30
0.0
 10
12.0872321002
 20
10.2467852807
 30
0.0
 10
12.0683733788
 20
10.2503878166
 30
0.0
 10
12.048980451
 20
10.2537954967
 30
0.0
 10
12.0290834078
 20
10.2570029921
 30
0.0
 10
12.0087131422
 20
10.2600052982
 30
0.0
 10
11.9879012745
 20
10.2627977403
 30
0.0
 10
11.966680128
 20
10.2653759497
 30
0.0
 10
11.9450826713
 20
10.2677359092
 30
0.0
 10
11.915646072
 20
10.2706043775
 30
0.0
 10
11.8933847147
 20
10.2723886694
 30
0.0
 10
11.8784416174
 20
10.2734249767
 30
0.0
  0
SPLINE
  5
370
100
AcDbEntity
  8
0
100
AcDbSpline
 62
7
  6
CONTINUOUS
 70
0
 71
3
 72
54
 73
50
 74
0
 42
0.0000001
 43
0.0000001
 44
0.0000000001
 40
0.0
 40
0.0
 40
0.0
 40
0.0
 40
0.0098428351
 40
0.0192575806
 40
0.0282665147
 40
0.0368960664
 40
0.0531355772
 40
0.0608337608
 40
0.0683074526
 40
0.0756079612
 40
0.0827907389
 40
0.0899142657
 40
0.0970386388
 40
0.1042239332
 40
0.1115285603
 40
0.1190078716
 40
0.1267130446
 40
0.1429701109
 40
0.1516099013
 40
0.1606298796
 40
0.1700563465
 40
0.1799114744
 40
0.1902136979
 40
0.2009780636
 40
0.2122168312
 40
0.223939533
 40
0.2361536055
 40
0.2488643894
 40
0.2620755211
 40
0.2757891215
 40
0.2900058228
 40
0.3047251799
 40
0.319945461
 40
0.3356640773
 40
0.3685798091
 40
0.4034357373
 40
0.440182259
 40
0.4787599509
 40
0.5191008219
 40
0.5611293083
 40
0.6047630941
 40
0.6499138023
 40
0.6964876021
 40
0.744385744
 40
0.7935049883
 40
0.8437383861
 40
0.894974631
 40
0.9471013872
 40
1.0
 40
1.0
 40
1.0
 40
1.0
 10
12.1242694851
 20
10.0958950553
 30
0.0
 10
12.1251645607
 20
10.096728022
 30
0.0
 10
12.1268782044
 20
10.0983988806
 30
0.0
 10
12.1292624179
 20
10.1009788195
 30
0.0
 10
12.1314006423
 20
10.1035744017
 30
0.0
 10
12.1338707798
 20
10.10698361
 30
0.0
 10
12.1359164282
 20
10.1104940761
 30
0.0
 10
12.1374631759
 20
10.1140805187
 30
0.0
 10
12.1383503203
 20
10.1167311671
 30
0.0
 10
12.1389837584
 20
10.1193879712
 30
0.0
 10
12.1393627946
 20
10.1220491158
 30
0.0
 10
12.1394867757
 20
10.1247124481
 30
0.0
 10
12.1393556384
 20
10.1273757493
 30
0.0
 10
12.1389694545
 20
10.1300368007
 30
0.0
 10
12.1383288918
 20
10.1326934554
 30
0.0
 10
12.1374346456
 20
10.1353439004
 30
0.0
 10
12.1358782075
 20
10.1389302234
 30
0.0
 10
12.1338231966
 20
10.1424401578
 30
0.0
 10
12.1313440391
 20
10.1458487768
 30
0.0
 10
12.1291988982
 20
10.1484439353
 30
0.0
 10
12.1268077523
 20
10.1510234743
 30
0.0
 10
12.1241718432
 20
10.1535864095
 30
0.0
 10
12.1212928415
 20
10.1561312065
 30
0.0
 10
12.1181724887
 20
10.1586565235
 30
0.0
 10
12.1148126161
 20
10.1611608552
 30
0.0
 10
12.1112152669
 20
10.1636428271
 30
0.0
 10
12.1073825569
 20
10.1661009328
 30
0.0
 10
12.1033167965
 20
10.1685337563
 30
0.0
 10
12.0990204167
 20
10.1709398448
 30
0.0
 10
12.0944959903
 20
10.1733177348
 30
0.0
 10
12.0897462548
 20
10.1756660424
 30
0.0
 10
12.084774057
 20
10.1779832862
 30
0.0
 10
12.0795824106
 20
10.1802681439
 30
0.0
 10
12.0722588581
 20
10.1833164204
 30
0.0
 10
12.0625708853
 20
10.1870257384
 30
0.0
 10
12.0502952184
 20
10.1912604245
 30
0.0
 10
12.0372266819
 20
10.1953340044
 30
0.0
 10
12.0233969704
 20
10.1992364968
 30
0.0
 10
12.0088394874
 20
10.202958325
 30
0.0
 10
11.9935895309
 20
10.2064903478
 30
0.0
 10
11.9776841109
 20
10.209823888
 30
0.0
 10
11.9611618734
 20
10.2129507559
 30
0.0
 10
11.9440629921
 20
10.2158632702
 30
0.0
 10
11.9264290752
 20
10.2185542776
 30
0.0
 10
11.9083030275
 20
10.221017183
 30
0.0
 10
11.8897290437
 20
10.2232459214
 30
0.0
 10
11.8707522202
 20
10.2252350687
 30
0.0
 10
11.8514189796
 20
10.2269796854
 30
0.0
 10
11.8384096689
 20
10.2279703898
 30
0.0
 10
11.8318542277
 20
10.2284250112
 30
0.0
  0
SPLINE
  5
371
100
AcDbEntity
  8
0
100
AcDbSpline
 62
7
  6
CONTINUOUS
 70
0
 71
3
 72
15
 73
11
 74
0
 42
0.0000001
 43
0.0000001
 44
0.0000000001
 40
0.0
 40
0.0
 40
0.0
 40
0.0
 40
0.1273482292
 40
0.2538605354
 40
0.3795879276
 40
0.5046050833
 40
0.6290174349
 40
0.7529533662
 40
0.8765605734
 40
1.0
 40
1.0
 40
1.0
 40
1.0
 10
9.8888395134
 20
7.7259524845
 30
0.0
 10
9.8888395134
 20
7.7287397023
 30
0.0
 10
9.8891056355
 20
7.7342996959
 30
0.0
 10
9.8903091527
 20
7.742532752
 30
0.0
 10
9.8923047883
 20
7.750558942
 30
0.0
 10
9.8950745206
 20
7.7583032019
 30
0.0
 10
9.8985929196
 20
7.7656941184
 30
0.0
 10
9.9028279254
 20
7.7726634434
 30
0.0
 10
9.9077397179
 20
7.7791458731
 30
0.0
 10
9.911438047
 20
7.7831057127
 30
0.0
 10
9.9133812378
 20
7.7849826829
 30
0.0
  0
SPLINE
  5
372
100
AcDbEntity
  8
0
100
AcDbSpline
 62
7
  6
CONTINUOUS
 70
0
 71
3
 72
40
 73
36
 74
0
 42
0.0000001
 43
0.0000001
 44
0.0000000001
 40
0.0
 40
0.0
 40
0.0
 40
0.0
 40
0.0064813477
 40
0.0130002784
 40
0.0195936883
 40
0.0262970919
 40
0.0331441272
 40
0.040166171
 40
0.0548406805
 40
0.0705269465
 40
0.0873812507
 40
0.105522729
 40
0.1250393341
 40
0.1459933568
 40
0.1684264504
 40
0.1923636858
 40
0.2178164354
 40
0.2447848552
 40
0.2732598523
 40
0.3032243058
 40
0.3346542287
 40
0.3675197939
 40
0.4017858578
 40
0.4374125398
 40
0.4743558567
 40
0.5125679749
 40
0.5519975231
 40
0.5925900518
 40
0.6342881872
 40
0.6770318308
 40
0.7207584865
 40
0.7654034096
 40
0.8108999544
 40
0.9041687202
 40
1.0
 40
1.0
 40
1.0
 40
1.0
 10
12.0994444024
 20
10.0860380553
 30
0.0
 10
12.0994443989
 20
10.0867002308
 30
0.0
 10
12.0993917502
 20
10.0880290136
 30
0.0
 10
12.0991551447
 20
10.0900187489
 30
0.0
 10
12.0987609606
 20
10.0920065435
 30
0.0
 10
12.0982095783
 20
10.0939912516
 30
0.0
 10
12.097501344
 20
10.09597206
 30
0.0
 10
12.0963315493
 20
10.0986454954
 30
0.0
 10
12.0944550213
 20
10.101984369
 30
0.0
 10
12.091617969
 20
10.1058966077
 30
0.0
 10
12.0881697456
 20
10.1097695312
 30
0.0
 10
12.0841170571
 20
10.1135982318
 30
0.0
 10
12.0794665369
 20
10.1173782026
 30
0.0
 10
12.0742256048
 20
10.1211042979
 30
0.0
 10
12.0684025158
 20
10.1247711181
 30
0.0
 10
12.0620064918
 20
10.128373005
 30
0.0
 10
12.0550477961
 20
10.1319042587
 30
0.0
 10
12.0475377005
 20
10.1353591657
 30
0.0
 10
12.0394884478
 20
10.1387320197
 30
0.0
 10
12.0309132571
 20
10.1420172312
 30
0.0
 10
12.0218262789
 20
10.1452093349
 30
0.0
 10
12.0122425444
 20
10.1483029663
 30
0.0
 10
12.0021779564
 20
10.1512929358
 30
0.0
 10
11.9916492522
 20
10.1541742381
 30
0.0
 10
11.9806739545
 20
10.156942014
 30
0.0
 10
11.9692703531
 20
10.1595916054
 30
0.0
 10
11.9574574728
 20
10.162118574
 30
0.0
 10
11.9452550257
 20
10.1645186586
 30
0.0
 10
11.9326833838
 20
10.1667878154
 30
0.0
 10
11.9197635495
 20
10.1689222478
 30
0.0
 10
11.9065171156
 20
10.1709183539
 30
0.0
 10
11.8929661877
 20
10.1727727941
 30
0.0
 10
11.8743688785
 20
10.1750712334
 30
0.0
 10
11.8505279534
 20
10.1775591645
 30
0.0
 10
11.8312687453
 20
10.179110621
 30
0.0
 10
11.8215014745
 20
10.1797879835
 30
0.0
  0
SPLINE
  5
373
100
AcDbEntity
  8
0
100
AcDbSpline
 62
7
  6
CONTINUOUS
 70
0
 71
3
 72
41
 73
37
 74
0
 42
0.0000001
 43
0.0000001
 44
0.0000000001
 40
0.0
 40
0.0
 40
0.0
 40
0.0
 40
0.0311444983
 40
0.062442467
 40
0.093887251
 40
0.1254695609
 40
0.157177086
 40
0.1889950997
 40
0.2209066479
 40
0.2528929497
 40
0.284933762
 40
0.3170077852
 40
0.3490930781
 40
0.3811674822
 40
0.4132090489
 40
0.445196464
 40
0.4771094635
 40
0.5089292351
 40
0.540638799
 40
0.5722233621
 40
0.6036706378
 40
0.6349711269
 40
0.6661183495
 40
0.6971090237
 40
0.7279431823
 40
0.7586242225
 40
0.7891588828
 40
0.8195571428
 40
0.8498320452
 40
0.86493089
 40
0.8800050502
 40
0.9100832578
 40
0.9400926753
 40
0.9550812784
 40
0.9700610371
 40
1.0
 40
1.0
 40
1.0
 40
1.0
 10
9.3714982535
 20
6.8395925226
 30
0.0
 10
9.3681843059
 20
6.8398223457
 30
0.0
 10
9.3615544379
 20
6.8405256984
 30
0.0
 10
9.351690021
 20
6.8422974295
 30
0.0
 10
9.3419312465
 20
6.8447791327
 30
0.0
 10
9.3323308529
 20
6.8479574078
 30
0.0
 10
9.3229398182
 20
6.8518152542
 30
0.0
 10
9.3138082432
 20
6.85633202
 30
0.0
 10
9.304984772
 20
6.861483574
 30
0.0
 10
9.2965164209
 20
6.8672424082
 30
0.0
 10
9.2884483092
 20
6.8735777947
 30
0.0
 10
9.2808234268
 20
6.8804559441
 30
0.0
 10
9.2736824067
 20
6.8878401859
 30
0.0
 10
9.2670633107
 20
6.8956911616
 30
0.0
 10
9.2610014286
 20
6.9039670327
 30
0.0
 10
9.2555290921
 20
6.9126237013
 30
0.0
 10
9.250675503
 20
6.9216150423
 30
0.0
 10
9.2464665794
 20
6.9308931465
 30
0.0
 10
9.2429248171
 20
6.9404085729
 30
0.0
 10
9.2400691703
 20
6.9501106082
 30
0.0
 10
9.2379149494
 20
6.959947534
 30
0.0
 10
9.2364737375
 20
6.9698668987
 30
0.0
 10
9.2357533271
 20
6.9798157934
 30
0.0
 10
9.2357576729
 20
6.9897411289
 30
0.0
 10
9.2364868724
 20
6.9995899254
 30
0.0
 10
9.2379371397
 20
7.0093095556
 30
0.0
 10
9.2401008923
 20
7.0188481659
 30
0.0
 10
9.2429665163
 20
7.0281544285
 30
0.0
 10
9.2459300663
 20
7.0356826514
 30
0.0
 10
9.2486344496
 20
7.0415370179
 30
0.0
 10
9.2515530217
 20
7.0472640843
 30
0.0
 10
9.255605281
 20
7.0541912814
 30
0.0
 10
9.2601787414
 20
7.060774961
 30
0.0
 10
9.2641308792
 20
7.0658073701
 30
0.0
 10
9.2682715598
 20
7.0706755149
 30
0.0
 10
9.271588956
 20
7.0741412356
 30
0.0
 10
9.2738857609
 20
7.076359794
 30
0.0
  0
SPLINE
  5
374
100
AcDbEntity
  8
0
100
AcDbSpline
 62
7
  6
CONTINUOUS
 70
0
 71
3
 72
39
 73
35
 74
0
 42
0.0000001
 43
0.0000001
 44
0.0000000001
 40
0.0
 40
0.0
 40
0.0
 40
0.0
 40
0.0311160054
 40
0.0620232808
 40
0.0927351539
 40
0.1232711756
 40
0.1536587326
 40
0.1839312105
 40
0.2141268386
 40
0.2442870981
 40
0.2744549747
 40
0.3046731306
 40
0.33498209
 40
0.365418544
 40
0.3960138629
 40
0.4267928807
 40
0.457772997
 40
0.4889636213
 40
0.5203659688
 40
0.551973177
 40
0.5837707173
 40
0.6157370643
 40
0.6478445906
 40
0.6800606397
 40
0.7123487305
 40
0.7446698622
 40
0.7769838838
 40
0.8092508928
 40
0.841432625
 40
0.8734938027
 40
0.9054033951
 40
0.9371359477
 40
0.9686717614
 40
1.0
 40
1.0
 40
1.0
 40
1.0
 10
11.6167929156
 20
7.5701177879
 30
0.0
 10
11.6167929156
 20
7.5666696293
 30
0.0
 10
11.6164562888
 20
7.5597914535
 30
0.0
 10
11.6149338522
 20
7.5496116999
 30
0.0
 10
11.6124100238
 20
7.5396978713
 30
0.0
 10
11.6089086612
 20
7.5301469469
 30
0.0
 10
11.6044632691
 20
7.521050976
 30
0.0
 10
11.5991165117
 20
7.512498085
 30
0.0
 10
11.592919921
 20
7.5045710754
 30
0.0
 10
11.5859333427
 20
7.4973467321
 30
0.0
 10
11.5782243605
 20
7.4908949945
 30
0.0
 10
11.5698676093
 20
7.4852782597
 30
0.0
 10
11.5609440393
 20
7.4805507102
 30
0.0
 10
11.5515400541
 20
7.4767578143
 30
0.0
 10
11.5417466297
 20
7.4739359096
 30
0.0
 10
11.5316584017
 20
7.4721118847
 30
0.0
 10
11.5213727365
 20
7.4713029403
 30
0.0
 10
11.5109887785
 20
7.4715164393
 30
0.0
 10
11.5006064911
 20
7.4727499217
 30
0.0
 10
11.4903257126
 20
7.4749911518
 30
0.0
 10
11.480245223
 20
7.4782182702
 30
0.0
 10
11.4704618045
 20
7.4823999769
 30
0.0
 10
11.4610693362
 20
7.4874958682
 30
0.0
 10
11.4521579241
 20
7.4934568432
 30
0.0
 10
11.443813059
 20
7.5002255695
 30
0.0
 10
11.4361148137
 20
7.5077370192
 30
0.0
 10
11.4291370609
 20
7.5159190587
 30
0.0
 10
11.4229468075
 20
7.5246931699
 30
0.0
 10
11.4176035592
 20
7.5339751698
 30
0.0
 10
11.4131587725
 20
7.5436760448
 30
0.0
 10
11.4096553038
 20
7.5537026204
 30
0.0
 10
11.4071270961
 20
7.5639589723
 30
0.0
 10
11.4055986411
 20
7.5743453159
 30
0.0
 10
11.4052551471
 20
7.5813163045
 30
0.0
 10
11.4052551471
 20
7.584787982
 30
0.0
  0
SPLINE
  5
375
100
AcDbEntity
  8
0
100
AcDbSpline
 62
7
  6
CONTINUOUS
 70
0
 71
3
 72
19
 73
15
 74
0
 42
0.0000001
 43
0.0000001
 44
0.0000000001
 40
0.0
 40
0.0
 40
0.0
 40
0.0
 40
0.0620513279
 40
0.1242804368
 40
0.1866663018
 40
0.2491859688
 40
0.3744790786
 40
0.4999959515
 40
0.6255133672
 40
0.7508080643
 40
0.8133288915
 40
0.8757161302
 40
0.9379468321
 40
1.0
 40
1.0
 40
1.0
 40
1.0
 10
10.0017778303
 20
7.8016934692
 30
0.0
 10
10.0023367761
 20
7.8000294321
 30
0.0
 10
10.0035508338
 20
7.7967275117
 30
0.0
 10
10.0056492617
 20
7.7918788292
 30
0.0
 10
10.0080210215
 20
7.7871426495
 30
0.0
 10
10.0115382322
 20
7.7809969639
 30
0.0
 10
10.0165750841
 20
7.7736793076
 30
0.0
 10
10.0235518053
 20
7.7656099736
 30
0.0
 10
10.0313707637
 20
7.7583536969
 30
0.0
 10
10.0385067387
 20
7.7530624308
 30
0.0
 10
10.044524996
 20
7.7493311495
 30
0.0
 10
10.0491748921
 20
7.7467941577
 30
0.0
 10
10.0539468382
 20
7.7445263164
 30
0.0
 10
10.0572040991
 20
7.7431968255
 30
0.0
 10
10.0588474791
 20
7.7425796345
 30
0.0
  0
SPLINE
  5
376
100
AcDbEntity
  8
0
100
AcDbSpline
 62
7
  6
CONTINUOUS
 70
0
 71
3
 72
15
 73
11
 74
0
 42
0.0000001
 43
0.0000001
 44
0.0000000001
 40
0.0
 40
0.0
 40
0.0
 40
0.0
 40
0.1273482292
 40
0.2538605354
 40
0.3795879276
 40
0.5046050833
 40
0.6290174349
 40
0.7529533662
 40
0.8765605734
 40
1.0
 40
1.0
 40
1.0
 40
1.0
 10
11.4285252967
 20
7.5882652218
 30
0.0
 10
11.4285252967
 20
7.5910524396
 30
0.0
 10
11.4287914187
 20
7.5966124332
 30
0.0
 10
11.429994936
 20
7.6048454894
 30
0.0
 10
11.4319905716
 20
7.6128716794
 30
0.0
 10
11.4347603039
 20
7.6206159392
 30
0.0
 10
11.4382787028
 20
7.6280068557
 30
0.0
 10
11.4425137087
 20
7.6349761808
 30
0.0
 10
11.4474255011
 20
7.6414586105
 30
0.0
 10
11.4511238302
 20
7.6454184501
 30
0.0
 10
11.453067021
 20
7.6472954202
 30
0.0
  0
SPLINE
  5
377
100
AcDbEntity
  8
0
100
AcDbSpline
 62
7
  6
CONTINUOUS
 70
0
 71
3
 72
19
 73
15
 74
0
 42
0.0000001
 43
0.0000001
 44
0.0000000001
 40
0.0
 40
0.0
 40
0.0
 40
0.0
 40
0.0620513279
 40
0.1242804368
 40
0.1866663018
 40
0.2491859688
 40
0.3744790786
 40
0.4999959515
 40
0.6255133672
 40
0.7508080643
 40
0.8133288915
 40
0.8757161302
 40
0.9379468321
 40
1.0
 40
1.0
 40
1.0
 40
1.0
 10
11.5414636135
 20
7.6640062066
 30
0.0
 10
11.5420225594
 20
7.6623421695
 30
0.0
 10
11.543236617
 20
7.6590402491
 30
0.0
 10
11.545335045
 20
7.6541915666
 30
0.0
 10
11.5477068048
 20
7.6494553868
 30
0.0
 10
11.5512240155
 20
7.6433097012
 30
0.0
 10
11.5562608673
 20
7.6359920449
 30
0.0
 10
11.5632375885
 20
7.627922711
 30
0.0
 10
11.5710565469
 20
7.6206664342
 30
0.0
 10
11.5781925219
 20
7.6153751681
 30
0.0
 10
11.5842107793
 20
7.6116438868
 30
0.0
 10
11.5888606754
 20
7.6091068951
 30
0.0
 10
11.5936326215
 20
7.6068390537
 30
0.0
 10
11.5968898824
 20
7.6055095628
 30
0.0
 10
11.5985332624
 20
7.6048923719
 30
0.0
  0
SPLINE
  5
378
100
AcDbEntity
  8
0
100
AcDbSpline
 62
7
  6
CONTINUOUS
 70
0
 71
3
 72
39
 73
35
 74
0
 42
0.0000001
 43
0.0000001
 44
0.0000000001
 40
0.0
 40
0.0
 40
0.0
 40
0.0
 40
0.0068660932
 40
0.0143214919
 40
0.0224087716
 40
0.0311477572
 40
0.0405405977
 40
0.0505760721
 40
0.0612338603
 40
0.0724894343
 40
0.0843144261
 40
0.0966800712
 40
0.1095575056
 40
0.1229177866
 40
0.1509819881
 40
0.1806745823
 40
0.211821518
 40
0.2442713867
 40
0.2778893989
 40
0.3125528677
 40
0.3481464129
 40
0.3845566137
 40
0.4593583832
 40
0.5359435184
 40
0.6131027521
 40
0.6893862813
 40
0.7631398318
 40
0.8326221868
 40
0.865236047
 40
0.8961735743
 40
0.9252628203
 40
0.9523504666
 40
0.9773017676
 40
1.0
 40
1.0
 40
1.0
 40
1.0
 10
10.7919046692
 20
7.8435396958
 30
0.0
 10
10.7921302087
 20
7.8436858465
 30
0.0
 10
10.7926217042
 20
7.8439587614
 30
0.0
 10
10.7934309814
 20
7.844300226
 30
0.0
 10
10.7943366769
 20
7.8445917339
 30
0.0
 10
10.7953340596
 20
7.8448363667
 30
0.0
 10
10.7964186556
 20
7.8450371049
 30
0.0
 10
10.7975856556
 20
7.8451974898
 30
0.0
 10
10.7988303271
 20
7.845320965
 30
0.0
 10
10.8001479977
 20
7.845411134
 30
0.0
 10
10.8015342263
 20
7.8454716661
 30
0.0
 10
10.8029848147
 20
7.8455060603
 30
0.0
 10
10.8044958336
 20
7.8455177862
 30
0.0
 10
10.8066213396
 20
7.8455074736
 30
0.0
 10
10.8094045915
 20
7.8454526977
 30
0.0
 10
10.8128828929
 20
7.8453476964
 30
0.0
 10
10.8165322909
 20
7.8452226652
 30
0.0
 10
10.8203353606
 20
7.8450956929
 30
0.0
 10
10.8242766004
 20
7.8449827757
 30
0.0
 10
10.828341654
 20
7.8448981703
 30
0.0
 10
10.8325166953
 20
7.8448543568
 30
0.0
 10
10.8382630728
 20
7.8448650506
 30
0.0
 10
10.8456131034
 20
7.8450358784
 30
0.0
 10
10.854546338
 20
7.8455431999
 30
0.0
 10
10.8635127075
 20
7.8463870722
 30
0.0
 10
10.8723292404
 20
7.8475683868
 30
0.0
 10
10.8807951415
 20
7.8490507847
 30
0.0
 10
10.8875250358
 20
7.8505035591
 30
0.0
 10
10.892582899
 20
7.8517426106
 30
0.0
 10
10.8960902142
 20
7.8526639248
 30
0.0
 10
10.8993750786
 20
7.8535789955
 30
0.0
 10
10.9024234279
 20
7.8544688878
 30
0.0
 10
10.9052240276
 20
7.8553141916
 30
0.0
 10
10.9070069676
 20
7.8558616626
 30
0.0
 10
10.9078564428
 20
7.8561219401
 30
0.0
  0
SPLINE
  5
379
100
AcDbEntity
  8
0
100
AcDbSpline
 62
7
  6
CONTINUOUS
 70
0
 71
3
 72
41
 73
37
 74
0
 42
0.0000001
 43
0.0000001
 44
0.0000000001
 40
0.0
 40
0.0
 40
0.0
 40
0.0
 40
0.0311444983
 40
0.062442467
 40
0.093887251
 40
0.1254695609
 40
0.157177086
 40
0.1889950997
 40
0.2209066479
 40
0.2528929497
 40
0.284933762
 40
0.3170077852
 40
0.3490930781
 40
0.3811674822
 40
0.4132090489
 40
0.445196464
 40
0.4771094635
 40
0.5089292351
 40
0.540638799
 40
0.5722233621
 40
0.6036706378
 40
0.6349711269
 40
0.6661183495
 40
0.6971090237
 40
0.7279431823
 40
0.7586242225
 40
0.7891588828
 40
0.8195571428
 40
0.8498320452
 40
0.86493089
 40
0.8800050502
 40
0.9100832578
 40
0.9400926753
 40
0.9550812784
 40
0.9700610371
 40
1.0
 40
1.0
 40
1.0
 40
1.0
 10
12.1108640547
 20
6.649616859
 30
0.0
 10
12.1075501072
 20
6.6498466821
 30
0.0
 10
12.1009202392
 20
6.6505500349
 30
0.0
 10
12.0910558223
 20
6.6523217659
 30
0.0
 10
12.0812970478
 20
6.6548034692
 30
0.0
 10
12.0716966542
 20
6.6579817442
 30
0.0
 10
12.0623056195
 20
6.6618395906
 30
0.0
 10
12.0531740445
 20
6.6663563564
 30
0.0
 10
12.0443505733
 20
6.6715079104
 30
0.0
 10
12.0358822222
 20
6.6772667447
 30
0.0
 10
12.0278141105
 20
6.6836021312
 30
0.0
 10
12.0201892281
 20
6.6904802806
 30
0.0
 10
12.013048208
 20
6.6978645223
 30
0.0
 10
12.006429112
 20
6.705715498
 30
0.0
 10
12.0003672299
 20
6.7139913692
 30
0.0
 10
11.9948948934
 20
6.7226480377
 30
0.0
 10
11.9900413043
 20
6.7316393787
 30
0.0
 10
11.9858323807
 20
6.740917483
 30
0.0
 10
11.9822906184
 20
6.7504329093
 30
0.0
 10
11.9794349716
 20
6.7601349446
 30
0.0
 10
11.9772807507
 20
6.7699718705
 30
0.0
 10
11.9758395388
 20
6.7798912351
 30
0.0
 10
11.9751191284
 20
6.7898401299
 30
0.0
 10
11.9751234742
 20
6.7997654653
 30
0.0
 10
11.9758526737
 20
6.8096142619
 30
0.0
 10
11.977302941
 20
6.8193338921
 30
0.0
 10
11.9794666936
 20
6.8288725023
 30
0.0
 10
11.9823323176
 20
6.838178765
 30
0.0
 10
11.9852958676
 20
6.8457069878
 30
0.0
 10
11.9880002509
 20
6.8515613543
 30
0.0
 10
11.990918823
 20
6.8572884208
 30
0.0
 10
11.9949710823
 20
6.8642156178
 30
0.0
 10
11.9995445427
 20
6.8707992974
 30
0.0
 10
12.0034966805
 20
6.8758317065
 30
0.0
 10
12.0076373611
 20
6.8806998513
 30
0.0
 10
12.0109547573
 20
6.884165572
 30
0.0
 10
12.0132515622
 20
6.8863841304
 30
0.0
  0
SPLINE
  5
37A
100
AcDbEntity
  8
0
100
AcDbSpline
 62
7
  6
CONTINUOUS
 70
0
 71
3
 72
15
 73
11
 74
0
 42
0.0000001
 43
0.0000001
 44
0.0000000001
 40
0.0
 40
0.0
 40
0.0
 40
0.0
 40
0.1266937056
 40
0.2528686122
 40
0.3785207841
 40
0.5036798275
 40
0.6283694668
 40
0.7526243713
 40
0.8764856222
 40
1.0
 40
1.0
 40
1.0
 40
1.0
 10
10.6649322566
 20
7.8631221453
 30
0.0
 10
10.6649322566
 20
7.8655279762
 30
0.0
 10
10.6650769756
 20
7.8703310808
 30
0.0
 10
10.6657304091
 20
7.8774934625
 30
0.0
 10
10.6668175071
 20
7.8845737981
 30
0.0
 10
10.668333984
 20
7.8915458653
 30
0.0
 10
10.6702742623
 20
7.8983845396
 30
0.0
 10
10.672631027
 20
7.9050650833
 30
0.0
 10
10.6753952348
 20
7.9115630697
 30
0.0
 10
10.6775058477
 20
7.915763901
 30
0.0
 10
10.6786250736
 20
7.9178250911
 30
0.0
  0
SPLINE
  5
37B
100
AcDbEntity
  8
0
100
AcDbSpline
 62
7
  6
CONTINUOUS
 70
0
 71
3
 72
28
 73
24
 74
0
 42
0.0000001
 43
0.0000001
 44
0.0000000001
 40
0.0
 40
0.0
 40
0.0
 40
0.0
 40
0.0319755693
 40
0.0638245753
 40
0.0955450642
 40
0.1271459257
 40
0.1586341274
 40
0.1900188926
 40
0.2213107361
 40
0.2525207296
 40
0.2836607965
 40
0.3147423996
 40
0.3457771061
 40
0.3767762272
 40
0.4386907342
 40
0.5005804014
 40
0.5625072711
 40
0.6245210485
 40
0.6866605248
 40
0.7489553316
 40
0.811427669
 40
0.8740938961
 40
1.0
 40
1.0
 40
1.0
 40
1.0
 10
10.62659669
 20
8.6501124776
 30
0.0
 10
10.62659669
 20
8.6518988774
 30
0.0
 10
10.6267016948
 20
8.6554655196
 30
0.0
 10
10.6271749796
 20
8.6607853749
 30
0.0
 10
10.6279602161
 20
8.666047213
 30
0.0
 10
10.629051301
 20
8.671233539
 30
0.0
 10
10.6304401721
 20
8.6763286756
 30
0.0
 10
10.6321168551
 20
8.6813181703
 30
0.0
 10
10.6340700484
 20
8.6861891922
 30
0.0
 10
10.6362872785
 20
8.6909306135
 30
0.0
 10
10.638755235
 20
8.6955330322
 30
0.0
 10
10.641460293
 20
8.6999885697
 30
0.0
 10
10.6443886305
 20
8.7042910845
 30
0.0
 10
10.6485698147
 20
8.7098140055
 30
0.0
 10
10.6542902485
 20
8.7163193653
 30
0.0
 10
10.6618353352
 20
8.7234616605
 30
0.0
 10
10.6699660822
 20
8.7299364195
 30
0.0
 10
10.6785979763
 20
8.7357483635
 30
0.0
 10
10.6876571423
 20
8.7409082212
 30
0.0
 10
10.6970785338
 20
8.7454293029
 30
0.0
 10
10.7068061603
 20
8.7493263596
 30
0.0
 10
10.7201338344
 20
8.7537152215
 30
0.0
 10
10.7304262605
 20
8.7561042023
 30
0.0
 10
10.7373553909
 20
8.7573147395
 30
0.0
  0
SPLINE
  5
37C
100
AcDbEntity
  8
0
100
AcDbSpline
 62
7
  6
CONTINUOUS
 70
0
 71
3
 72
24
 73
20
 74
0
 42
0.0000001
 43
0.0000001
 44
0.0000000001
 40
0.0
 40
0.0
 40
0.0
 40
0.0
 40
0.0617854814
 40
0.1240400259
 40
0.1867209793
 40
0.2497603258
 40
0.3130734852
 40
0.376562205
 40
0.4401196767
 40
0.5036357633
 40
0.5670023331
 40
0.6301185305
 40
0.6928957858
 40
0.7552624133
 40
0.817167521
 40
0.8785840523
 40
0.939510779
 40
0.9698107803
 40
1.0
 40
1.0
 40
1.0
 40
1.0
 10
11.2728020489
 20
7.5690058186
 30
0.0
 10
11.2698803601
 20
7.5692084384
 30
0.0
 10
11.2640330554
 20
7.5699558273
 30
0.0
 10
11.2554201936
 20
7.5720702516
 30
0.0
 10
11.2470406773
 20
7.5751537846
 30
0.0
 10
11.2390080192
 20
7.5791647924
 30
0.0
 10
11.2314291251
 20
7.5840492903
 30
0.0
 10
11.2244052909
 20
7.589741752
 30
0.0
 10
11.2180303071
 20
7.5961660058
 30
0.0
 10
11.2123894078
 20
7.6032361926
 30
0.0
 10
11.2075580357
 20
7.6108578376
 30
0.0
 10
11.2036009504
 20
7.6189291519
 30
0.0
 10
11.2005713989
 20
7.6273423614
 30
0.0
 10
11.1985102774
 20
7.6359849557
 30
0.0
 10
11.1974457153
 20
7.6447415508
 30
0.0
 10
11.1973923706
 20
7.6534940115
 30
0.0
 10
11.1981940426
 20
7.6607034403
 30
0.0
 10
11.1993372873
 20
7.6663467225
 30
0.0
 10
11.2000739772
 20
7.669119934
 30
0.0
 10
11.2004828885
 20
7.670491272
 30
0.0
  0
SPLINE
  5
37D
100
AcDbEntity
  8
0
100
AcDbSpline
 62
7
  6
CONTINUOUS
 70
0
 71
3
 72
11
 73
7
 74
0
 42
0.0000001
 43
0.0000001
 44
0.0000000001
 40
0.0
 40
0.0
 40
0.0
 40
0.0
 40
0.2520316917
 40
0.5026839526
 40
0.7519785275
 40
1.0
 40
1.0
 40
1.0
 40
1.0
 10
11.2728020489
 20
7.5690058186
 30
0.0
 10
11.2747996812
 20
7.5688672823
 30
0.0
 10
11.2787968167
 20
7.5687487134
 30
0.0
 10
11.2847700122
 20
7.569051451
 30
0.0
 10
11.2906674842
 20
7.5698333072
 30
0.0
 10
11.2945338884
 20
7.570673018
 30
0.0
 10
11.2964405457
 20
7.5711708112
 30
0.0
  0
SPLINE
  5
37E
100
AcDbEntity
  8
0
100
AcDbSpline
 62
7
  6
CONTINUOUS
 70
0
 71
3
 72
72
 73
68
 74
0
 42
0.0000001
 43
0.0000001
 44
0.0000000001
 40
0.0
 40
0.0
 40
0.0
 40
0.0
 40
0.0038577872
 40
0.0078706379
 40
0.0120417989
 40
0.016373998
 40
0.0208695662
 40
0.025530388
 40
0.0303577982
 40
0.0353526471
 40
0.0458457985
 40
0.057010757
 40
0.0688432322
 40
0.0813351508
 40
0.0944752071
 40
0.1082492878
 40
0.1226408497
 40
0.137631187
 40
0.1531996177
 40
0.1693236973
 40
0.1859793989
 40
0.203141239
 40
0.2207823749
 40
0.2388747516
 40
0.2573892106
 40
0.2762955685
 40
0.2955627006
 40
0.3151586557
 40
0.3552048809
 40
0.396165797
 40
0.4377641133
 40
0.4797169416
 40
0.5217383276
 40
0.5635417216
 40
0.6048424552
 40
0.6453602545
 40
0.6652401271
 40
0.6848224416
 40
0.7040745256
 40
0.7229644518
 40
0.7414611486
 40
0.75953448
 40
0.7771553207
 40
0.7942956584
 40
0.81092873
 40
0.827029109
 40
0.8425728172
 40
0.8575374847
 40
0.8719025356
 40
0.8856493411
 40
0.8987614389
 40
0.911224845
 40
0.9230284005
 40
0.9341641721
 40
0.9446280174
 40
0.9544203652
 40
0.9590667794
 40
0.9635480768
 40
0.9678660966
 40
0.9720231996
 40
0.9760223019
 40
0.9798670466
 40
0.9835617895
 40
0.9871117241
 40
0.9905230284
 40
0.9938028811
 40
1.0
 40
1.0
 40
1.0
 40
1.0
 10
12.6604265943
 20
7.48605499
 30
0.0
 10
12.6612346104
 20
7.4868354736
 30
0.0
 10
12.6628498602
 20
7.4884625489
 30
0.0
 10
12.6652245829
 20
7.4910436894
 30
0.0
 10
12.6675970725
 20
7.4938115254
 30
0.0
 10
12.6699661117
 20
7.4967646973
 30
0.0
 10
12.6723307178
 20
7.4999018572
 30
0.0
 10
12.6746898381
 20
7.5032216499
 30
0.0
 10
12.6770424764
 20
7.5067226031
 30
0.0
 10
12.6802216408
 20
7.5117123148
 30
0.0
 10
12.6841639957
 20
7.5184010766
 30
0.0
 10
12.6887774005
 20
7.5269960124
 30
0.0
 10
12.6933398195
 20
7.5362712789
 30
0.0
 10
12.6978429759
 20
7.5462101851
 30
0.0
 10
12.7022787174
 20
7.5567949847
 30
0.0
 10
12.7066389786
 20
7.5680066234
 30
0.0
 10
12.7109158081
 20
7.5798248912
 30
0.0
 10
12.7151013875
 20
7.5922284371
 30
0.0
 10
12.719188079
 20
7.6051948076
 30
0.0
 10
12.7231684219
 20
7.6187005013
 30
0.0
 10
12.727035141
 20
7.6327210268
 30
0.0
 10
12.7307811634
 20
7.6472309424
 30
0.0
 10
12.7343996574
 20
7.6622038963
 30
0.0
 10
12.7378840168
 20
7.6776126867
 30
0.0
 10
12.7412278766
 20
7.6934293201
 30
0.0
 10
12.7444251216
 20
7.7096250455
 30
0.0
 10
12.7474699532
 20
7.7261704394
 30
0.0
 10
12.7513469306
 20
7.7488203169
 30
0.0
 10
12.7557634932
 20
7.7777846401
 30
0.0
 10
12.7603380997
 20
7.8131966144
 30
0.0
 10
12.7641912733
 20
7.8492527474
 30
0.0
 10
12.7672949281
 20
7.8856909549
 30
0.0
 10
12.7696263938
 20
7.9222465353
 30
0.0
 10
12.7711688094
 20
7.9586539104
 30
0.0
 10
12.7719109992
 20
7.9946484255
 30
0.0
 10
12.7718581905
 20
8.0242663426
 30
0.0
 10
12.7714041507
 20
8.0475529719
 30
0.0
 10
12.7708641724
 20
8.0646427898
 30
0.0
 10
12.7701236721
 20
8.0814365427
 30
0.0
 10
12.7691839849
 20
8.0979037182
 30
0.0
 10
12.7680468519
 20
8.1140143728
 30
0.0
 10
12.7667143702
 20
8.1297392265
 30
0.0
 10
12.7651889884
 20
8.1450496995
 30
0.0
 10
12.7634735018
 20
8.1599179729
 30
0.0
 10
12.7615710748
 20
8.1743170461
 30
0.0
 10
12.759485209
 20
8.1882207837
 30
0.0
 10
12.7572197343
 20
8.2016039578
 30
0.0
 10
12.7547788089
 20
8.2144423072
 30
0.0
 10
12.752166931
 20
8.2267125917
 30
0.0
 10
12.7493889002
 20
8.2383926308
 30
0.0
 10
12.7464498024
 20
8.249461345
 30
0.0
 10
12.7433550154
 20
8.2598988283
 30
0.0
 10
12.7401101955
 20
8.2696863675
 30
0.0
 10
12.7367212065
 20
8.2788065925
 30
0.0
 10
12.7331941428
 20
8.2872431343
 30
0.0
 10
12.7300930131
 20
8.2938019857
 30
0.0
 10
12.7275402341
 20
8.298685221
 30
0.0
 10
12.7256286548
 20
8.3021030021
 30
0.0
 10
12.7236873949
 20
8.3053389801
 30
0.0
 10
12.7217172928
 20
8.3083917292
 30
0.0
 10
12.7197191598
 20
8.3112598599
 30
0.0
 10
12.7176938978
 20
8.3139421135
 30
0.0
 10
12.7156423254
 20
8.316437303
 30
0.0
 10
12.7135653416
 20
8.3187442143
 30
0.0
 10
12.7114635671
 20
8.3208620553
 30
0.0
 10
12.708682775
 20
8.3233839326
 30
0.0
 10
12.7064835036
 20
8.3250660366
 30
0.0
 10
12.7049788416
 20
8.3260623766
 30
0.0
  0
SPLINE
  5
37F
100
AcDbEntity
  8
0
100
AcDbSpline
 62
7
  6
CONTINUOUS
 70
0
 71
3
 72
11
 73
7
 74
0
 42
0.0000001
 43
0.0000001
 44
0.0000000001
 40
0.0
 40
0.0
 40
0.0
 40
0.0
 40
0.2730455232
 40
0.5298860536
 40
0.7716949754
 40
1.0
 40
1.0
 40
1.0
 40
1.0
 10
12.6604265943
 20
7.48605499
 30
0.0
 10
12.6592480214
 20
7.4849165759
 30
0.0
 10
12.6568924433
 20
7.4827762913
 30
0.0
 10
12.6532486215
 20
7.4799109587
 30
0.0
 10
12.6496094799
 20
7.4774959436
 30
0.0
 10
12.6471225222
 20
7.4761528689
 30
0.0
 10
12.6458847629
 20
7.4755653803
 30
0.0
  0
SPLINE
  5
380
100
AcDbEntity
  8
0
100
AcDbSpline
 62
7
  6
CONTINUOUS
 70
0
 71
3
 72
15
 73
11
 74
0
 42
0.0000001
 43
0.0000001
 44
0.0000000001
 40
0.0
 40
0.0
 40
0.0
 40
0.0
 40
0.148189077
 40
0.2884124565
 40
0.4211645545
 40
0.5470824521
 40
0.6669392739
 40
0.7816491473
 40
0.892270482
 40
1.0
 40
1.0
 40
1.0
 40
1.0
 10
12.6604265943
 20
7.4986120265
 30
0.0
 10
12.6593914295
 20
7.497612134
 30
0.0
 10
12.6573222272
 20
7.4957212483
 30
0.0
 10
12.6541313116
 20
7.4931573842
 30
0.0
 10
12.6509437394
 20
7.4909492009
 30
0.0
 10
12.6477620142
 20
7.489099095
 30
0.0
 10
12.6445883102
 20
7.4876093298
 30
0.0
 10
12.6414249285
 20
7.4864820204
 30
0.0
 10
12.6382751984
 20
7.4857195606
 30
0.0
 10
12.6361658343
 20
7.4854531502
 30
0.0
 10
12.6351218981
 20
7.48538325
 30
0.0
  0
SPLINE
  5
381
100
AcDbEntity
  8
0
100
AcDbSpline
 62
7
  6
CONTINUOUS
 70
0
 71
3
 72
11
 73
7
 74
0
 42
0.0000001
 43
0.0000001
 44
0.0000000001
 40
0.0
 40
0.0
 40
0.0
 40
0.0
 40
0.2783980103
 40
0.5363556557
 40
0.7759608084
 40
1.0
 40
1.0
 40
1.0
 40
1.0
 10
12.6428597508
 20
7.509972513
 30
0.0
 10
12.6414791747
 20
7.5086389787
 30
0.0
 10
12.6387206163
 20
7.5061685499
 30
0.0
 10
12.634418792
 20
7.5029734428
 30
0.0
 10
12.6301232436
 20
7.5004432549
 30
0.0
 10
12.6271801067
 20
7.4991675774
 30
0.0
 10
12.6257224211
 20
7.4986565424
 30
0.0
  0
SPLINE
  5
382
100
AcDbEntity
  8
0
100
AcDbSpline
 62
7
  6
CONTINUOUS
 70
0
 71
3
 72
79
 73
75
 74
0
 42
0.0000001
 43
0.0000001
 44
0.0000000001
 40
0.0
 40
0.0
 40
0.0
 40
0.0
 40
0.0039560108
 40
0.0080772526
 40
0.0123672752
 40
0.0168290416
 40
0.0214650553
 40
0.0262773074
 40
0.0312671531
 40
0.0364354308
 40
0.041782613
 40
0.0473087458
 40
0.0588960363
 40
0.0711922394
 40
0.0841874692
 40
0.0978682933
 40
0.112218173
 40
0.1272178823
 40
0.1428458183
 40
0.1590782331
 40
0.1758894199
 40
0.1932519274
 40
0.2111367204
 40
0.2295133047
 40
0.248349839
 40
0.2676132841
 40
0.2872695146
 40
0.3072834118
 40
0.3276189584
 40
0.3691063989
 40
0.4114305973
 40
0.4542815324
 40
0.4973442442
 40
0.5403017884
 40
0.5828381983
 40
0.6246414709
 40
0.6451728663
 40
0.6654072997
 40
0.6853082261
 40
0.7048399086
 40
0.7239675321
 40
0.7426573194
 40
0.7608766185
 40
0.778594011
 40
0.7957794528
 40
0.8124044178
 40
0.8284420169
 40
0.8438671561
 40
0.8586567504
 40
0.8727899539
 40
0.8862483937
 40
0.8990164912
 40
0.9110819013
 40
0.9224360403
 40
0.9278452092
 40
0.9330754179
 40
0.9381269739
 40
0.943000636
 40
0.9476975505
 40
0.9522194153
 40
0.9565684954
 40
0.9607476489
 40
0.964760521
 40
0.9686115289
 40
0.9723060082
 40
0.9758503723
 40
0.9792521397
 40
0.9825201504
 40
0.9856646502
 40
0.9886973594
 40
0.9916316148
 40
0.994482309
 40
0.9972658479
 40
1.0
 40
1.0
 40
1.0
 40
1.0
 10
12.6604265943
 20
7.4986120265
 30
0.0
 10
12.6612413299
 20
7.4993990006
 30
0.0
 10
12.6628699416
 20
7.5010422634
 30
0.0
 10
12.6652624129
 20
7.5036541124
 30
0.0
 10
12.6676524444
 20
7.5064612616
 30
0.0
 10
12.6700387259
 20
7.5094622252
 30
0.0
 10
12.6724201919
 20
7.5126555332
 30
0.0
 10
12.6747957001
 20
7.5160396993
 30
0.0
 10
12.6771641487
 20
7.5196130937
 30
0.0
 10
12.6795243966
 20
7.5233739753
 30
0.0
 10
12.6818752696
 20
7.5273205381
 30
0.0
 10
12.6850459901
 20
7.5329163803
 30
0.0
 10
12.688969852
 20
7.5403699726
 30
0.0
 10
12.6935516134
 20
7.5498860458
 30
0.0
 10
12.6980690713
 20
7.5600918513
 30
0.0
 10
12.7025133471
 20
7.5709675006
 30
0.0
 10
12.7068757215
 20
7.5824919249
 30
0.0
 10
12.7111476024
 20
7.5946426724
 30
0.0
 10
12.7153205653
 20
7.6073960481
 30
0.0
 10
12.7193863722
 20
7.6207271357
 30
0.0
 10
12.7233370135
 20
7.6346098516
 30
0.0
 10
12.7271646977
 20
7.6490170125
 30
0.0
 10
12.7308618725
 20
7.6639203978
 30
0.0
 10
12.7344212418
 20
7.6792907986
 30
0.0
 10
12.737835798
 20
7.6950980715
 30
0.0
 10
12.7410988151
 20
7.7113112123
 30
0.0
 10
12.744203853
 20
7.7278984111
 30
0.0
 10
12.7471448172
 20
7.744827147
 30
0.0
 10
12.7508642022
 20
7.7679634833
 30
0.0
 10
12.7550538283
 20
7.7974919943
 30
0.0
 10
12.7593119262
 20
7.8335123529
 30
0.0
 10
12.7627996735
 20
7.8700685949
 30
0.0
 10
12.7654895863
 20
7.9068739353
 30
0.0
 10
12.7673605954
 20
7.943639869
 30
0.0
 10
12.7683980358
 20
7.9800779535
 30
0.0
 10
12.7685625028
 20
8.0101089551
 30
0.0
 10
12.7682636458
 20
8.0337501025
 30
0.0
 10
12.7678294289
 20
8.0511162491
 30
0.0
 10
12.7671847533
 20
8.0681894032
 30
0.0
 10
12.7663308769
 20
8.0849360832
 30
0.0
 10
12.7652695021
 20
8.1013234199
 30
0.0
 10
12.7640027465
 20
8.1173192674
 30
0.0
 10
12.762533129
 20
8.1328922505
 30
0.0
 10
12.7608635624
 20
8.148011828
 30
0.0
 10
12.7589973605
 20
8.1626483613
 30
0.0
 10
12.7569382394
 20
8.1767731786
 30
0.0
 10
12.7546902903
 20
8.190358625
 30
0.0
 10
12.7522579701
 20
8.2033781196
 30
0.0
 10
12.7496461061
 20
8.2158062215
 30
0.0
 10
12.7468598904
 20
8.2276186978
 30
0.0
 10
12.7439048456
 20
8.2387925452
 30
0.0
 10
12.7407868022
 20
8.2493061303
 30
0.0
 10
12.7375118979
 20
8.2591389702
 30
0.0
 10
12.7346124796
 20
8.2668703343
 30
0.0
 10
12.7322118667
 20
8.2726928607
 30
0.0
 10
12.7304053499
 20
8.2768070205
 30
0.0
 10
12.7285645025
 20
8.2807372776
 30
0.0
 10
12.726690236
 20
8.2844817527
 30
0.0
 10
12.7247834139
 20
8.2880386173
 30
0.0
 10
12.7228449603
 20
8.2914061611
 30
0.0
 10
12.7208758164
 20
8.2945827764
 30
0.0
 10
12.7188768522
 20
8.2975669075
 30
0.0
 10
12.7168490396
 20
8.3003571468
 30
0.0
 10
12.7147932851
 20
8.3029521448
 30
0.0
 10
12.7127104807
 20
8.3053506208
 30
0.0
 10
12.7106015914
 20
8.30755144
 30
0.0
 10
12.7084674772
 20
8.3095534593
 30
0.0
 10
12.7063090593
 20
8.311355646
 30
0.0
 10
12.7041272749
 20
8.3129570434
 30
0.0
 10
12.7019230027
 20
8.3143566383
 30
0.0
 10
12.6996972823
 20
8.3155535767
 30
0.0
 10
12.6974510794
 20
8.3165469917
 30
0.0
 10
12.6951857639
 20
8.3173359872
 30
0.0
 10
12.6936528699
 20
8.31772802
 30
0.0
 10
12.6928866124
 20
8.3178885253
 30
0.0
  0
SPLINE
  5
383
100
AcDbEntity
  8
0
100
AcDbSpline
 62
7
  6
CONTINUOUS
 70
0
 71
3
 72
21
 73
17
 74
0
 42
0.0000001
 43
0.0000001
 44
0.0000000001
 40
0.0
 40
0.0
 40
0.0
 40
0.0
 40
0.061653237
 40
0.123329498
 40
0.1850515502
 40
0.2468416698
 40
0.3087213548
 40
0.370711108
 40
0.4328302426
 40
0.495096636
 40
0.5575265765
 40
0.6201345494
 40
0.682933126
 40
0.7459332432
 40
0.8725261314
 40
1.0
 40
1.0
 40
1.0
 40
1.0
 10
9.469110746
 20
9.6136162258
 30
0.0
 10
9.4675340392
 20
9.6120932335
 30
0.0
 10
9.4642974521
 20
9.6091308603
 30
0.0
 10
9.4592097472
 20
9.604953844
 30
0.0
 10
9.4539011312
 20
9.6010528986
 30
0.0
 10
9.4483851433
 20
9.5974380409
 30
0.0
 10
9.442675619
 20
9.5941183592
 30
0.0
 10
9.43678699
 20
9.5911021727
 30
0.0
 10
9.4307340826
 20
9.5883970754
 30
0.0
 10
9.4245321374
 20
9.5860099099
 30
0.0
 10
9.4181967881
 20
9.5839466246
 30
0.0
 10
9.4117440393
 20
9.5822124077
 30
0.0
 10
9.4051899427
 20
9.5808116426
 30
0.0
 10
9.3963255897
 20
9.5793910765
 30
0.0
 10
9.3850692682
 20
9.5784681405
 30
0.0
 10
9.376019864
 20
9.5786447491
 30
0.0
 10
9.3714982535
 20
9.5789583239
 30
0.0
  0
SPLINE
  5
384
100
AcDbEntity
  8
0
100
AcDbSpline
 62
7
  6
CONTINUOUS
 70
0
 71
3
 72
73
 73
69
 74
0
 42
0.0000001
 43
0.0000001
 44
0.0000000001
 40
0.0
 40
0.0
 40
0.0
 40
0.0
 40
0.003888158
 40
0.00793453
 40
0.0121424545
 40
0.0165147245
 40
0.0210537193
 40
0.0257613561
 40
0.0306389886
 40
0.0356874595
 40
0.0462979645
 40
0.057593527
 40
0.0695694391
 40
0.0822170854
 40
0.0955245076
 40
0.109476859
 40
0.1240567902
 40
0.1392447181
 40
0.1550190179
 40
0.1713562586
 40
0.1882313812
 40
0.2056178167
 40
0.2234876029
 40
0.2418115391
 40
0.260559291
 40
0.279699464
 40
0.2991997122
 40
0.3190268502
 40
0.3595246125
 40
0.4009142557
 40
0.4429084572
 40
0.4852144645
 40
0.5275367606
 40
0.5695796857
 40
0.6110500563
 40
0.6516598133
 40
0.6715543697
 40
0.6911294516
 40
0.7103516841
 40
0.7291885321
 40
0.7476084002
 40
0.7655807029
 40
0.7830759632
 40
0.8000659552
 40
0.816523803
 40
0.832424084
 40
0.8477429844
 40
0.8624584964
 40
0.876550566
 40
0.8900013042
 40
0.9027952922
 40
0.9149199278
 40
0.9263658059
 40
0.9371272639
 40
0.9472031429
 40
0.9519855063
 40
0.9565985865
 40
0.961043988
 40
0.9653238287
 40
0.9694407631
 40
0.973398162
 40
0.977200097
 40
0.9808514547
 40
0.984358102
 40
0.9877268954
 40
0.9909658603
 40
0.9940843021
 40
1.0
 40
1.0
 40
1.0
 40
1.0
 10
12.6428597508
 20
7.509972513
 30
0.0
 10
12.6436331846
 20
7.5107195927
 30
0.0
 10
12.645179284
 20
7.5122778248
 30
0.0
 10
12.6474517791
 20
7.5147512592
 30
0.0
 10
12.6497220865
 20
7.5174055064
 30
0.0
 10
12.6519890095
 20
7.5202392316
 30
0.0
 10
12.6542515853
 20
7.5232511077
 30
0.0
 10
12.6565087836
 20
7.5264398017
 30
0.0
 10
12.6587596254
 20
7.5298038676
 30
0.0
 10
12.6618014542
 20
7.5346009166
 30
0.0
 10
12.6655727725
 20
7.5410342373
 30
0.0
 10
12.6699844138
 20
7.549303721
 30
0.0
 10
12.6743460879
 20
7.5582310394
 30
0.0
 10
12.6786496837
 20
7.5677997353
 30
0.0
 10
12.6828872198
 20
7.5779922992
 30
0.0
 10
12.6870507982
 20
7.5887899314
 30
0.0
 10
12.6911326358
 20
7.6001726898
 30
0.0
 10
12.6951250854
 20
7.612119502
 30
0.0
 10
12.6990206857
 20
7.6246082059
 30
0.0
 10
12.7028121465
 20
7.6376156093
 30
0.0
 10
12.7064923637
 20
7.6511175447
 30
0.0
 10
12.7100544431
 20
7.6650889057
 30
0.0
 10
12.7134917294
 20
7.6795036924
 30
0.0
 10
12.7167977906
 20
7.6943350743
 30
0.0
 10
12.7199664347
 20
7.709555444
 30
0.0
 10
12.7229917314
 20
7.7251364509
 30
0.0
 10
12.7258680569
 20
7.7410490913
 30
0.0
 10
12.7295229524
 20
7.7628217409
 30
0.0
 10
12.7336724276
 20
7.790647571
 30
0.0
 10
12.7379462096
 20
7.8246440628
 30
0.0
 10
12.7415165847
 20
7.8592244006
 30
0.0
 10
12.744356895
 20
7.8941310503
 30
0.0
 10
12.7464459045
 20
7.9291042034
 30
0.0
 10
12.7477681406
 20
7.9638835421
 30
0.0
 10
12.7483138365
 20
7.9982100375
 30
0.0
 10
12.7481171383
 20
8.0264147923
 30
0.0
 10
12.7475604553
 20
8.0485553907
 30
0.0
 10
12.7469509319
 20
8.0647764841
 30
0.0
 10
12.7461477736
 20
8.0806962573
 30
0.0
 10
12.7451524753
 20
8.0962850788
 30
0.0
 10
12.7439669292
 20
8.11151391
 30
0.0
 10
12.7425933687
 20
8.126354393
 30
0.0
 10
12.7410343719
 20
8.1407788953
 30
0.0
 10
12.7392928837
 20
8.1547605733
 30
0.0
 10
12.7373721923
 20
8.168273421
 30
0.0
 10
12.7352759134
 20
8.1812923119
 30
0.0
 10
12.7330079869
 20
8.1937930564
 30
0.0
 10
12.7305726977
 20
8.2057524591
 30
0.0
 10
12.7279746348
 20
8.2171483592
 30
0.0
 10
12.725218676
 20
8.2279596701
 30
0.0
 10
12.7223099915
 20
8.2381664503
 30
0.0
 10
12.7192540392
 20
8.2477499285
 30
0.0
 10
12.716056495
 20
8.2566926441
 30
0.0
 10
12.7127232659
 20
8.264978135
 30
0.0
 10
12.7097886023
 20
8.2714306316
 30
0.0
 10
12.7073702736
 20
8.2762427862
 30
0.0
 10
12.7055580616
 20
8.2796151211
 30
0.0
 10
12.7037166197
 20
8.2828122052
 30
0.0
 10
12.7018467703
 20
8.2858325951
 30
0.0
 10
12.6999493061
 20
8.2886748825
 30
0.0
 10
12.6980251023
 20
8.2913377924
 30
0.0
 10
12.696074986
 20
8.2938201074
 30
0.0
 10
12.6940997641
 20
8.2961206539
 30
0.0
 10
12.6921002869
 20
8.2982384167
 30
0.0
 10
12.6900774448
 20
8.3001723129
 30
0.0
 10
12.6880317104
 20
8.3019215796
 30
0.0
 10
12.6853237133
 20
8.3039698602
 30
0.0
 10
12.6831877912
 20
8.3052861729
 30
0.0
 10
12.6817338326
 20
8.3060363315
 30
0.0
  0
SPLINE
  5
385
100
AcDbEntity
  8
0
100
AcDbSpline
 62
7
  6
CONTINUOUS
 70
0
 71
3
 72
23
 73
19
 74
0
 42
0.0000001
 43
0.0000001
 44
0.0000000001
 40
0.0
 40
0.0
 40
0.0
 40
0.0
 40
0.0577246198
 40
0.1173320982
 40
0.1785736765
 40
0.2411911447
 40
0.3049184956
 40
0.3694835237
 40
0.434609394
 40
0.5000161937
 40
0.5654224726
 40
0.6305467826
 40
0.6951092183
 40
0.7588329591
 40
0.8214458204
 40
0.8826818227
 40
0.9422827907
 40
1.0
 40
1.0
 40
1.0
 40
1.0
 10
12.5821728173
 20
7.6968475873
 30
0.0
 10
12.5839317224
 20
7.7047627953
 30
0.0
 10
12.5873225931
 20
7.7208928276
 30
0.0
 10
12.5919666704
 20
7.7455441525
 30
0.0
 10
12.5962356308
 20
7.770960373
 30
0.0
 10
12.6001097341
 20
7.7970248269
 30
0.0
 10
12.6035711109
 20
7.8236180649
 30
0.0
 10
12.6066038014
 20
7.8506181242
 30
0.0
 10
12.6091938381
 20
7.8779011748
 30
0.0
 10
12.6113293059
 20
7.9053420712
 30
0.0
 10
12.6130003961
 20
7.9328149381
 30
0.0
 10
12.6141994546
 20
7.9601937514
 30
0.0
 10
12.6149210169
 20
7.9873529215
 30
0.0
 10
12.6151618322
 20
8.0141678804
 30
0.0
 10
12.6149208811
 20
8.0405156373
 30
0.0
 10
12.6141993819
 20
8.0662754295
 30
0.0
 10
12.6130007926
 20
8.091328998
 30
0.0
 10
12.6118677306
 20
8.1077706427
 30
0.0
 10
12.6112176613
 20
8.115851781
 30
0.0
  0
SPLINE
  5
386
100
AcDbEntity
  8
0
100
AcDbSpline
 62
7
  6
CONTINUOUS
 70
0
 71
3
 72
21
 73
17
 74
0
 42
0.0000001
 43
0.0000001
 44
0.0000000001
 40
0.0
 40
0.0
 40
0.0
 40
0.0
 40
0.061653237
 40
0.123329498
 40
0.1850515502
 40
0.2468416698
 40
0.3087213548
 40
0.370711108
 40
0.4328302426
 40
0.495096636
 40
0.5575265765
 40
0.6201345494
 40
0.682933126
 40
0.7459332432
 40
0.8725261314
 40
1.0
 40
1.0
 40
1.0
 40
1.0
 10
12.2084765473
 20
9.4236405622
 30
0.0
 10
12.2068998405
 20
9.42211757
 30
0.0
 10
12.2036632534
 20
9.4191551967
 30
0.0
 10
12.1985755485
 20
9.4149781804
 30
0.0
 10
12.1932669325
 20
9.4110772351
 30
0.0
 10
12.1877509446
 20
9.4074623774
 30
0.0
 10
12.1820414203
 20
9.4041426956
 30
0.0
 10
12.1761527913
 20
9.4011265092
 30
0.0
 10
12.1700998839
 20
9.3984214118
 30
0.0
 10
12.1638979387
 20
9.3960342463
 30
0.0
 10
12.1575625894
 20
9.393970961
 30
0.0
 10
12.1511098406
 20
9.3922367442
 30
0.0
 10
12.144555744
 20
9.390835979
 30
0.0
 10
12.135691391
 20
9.3894154129
 30
0.0
 10
12.1244350695
 20
9.388492477
 30
0.0
 10
12.1153856653
 20
9.3886690856
 30
0.0
 10
12.1108640547
 20
9.3889826603
 30
0.0
  0
SPLINE
  5
387
100
AcDbEntity
  8
0
100
AcDbSpline
 62
7
  6
CONTINUOUS
 70
0
 71
3
 72
21
 73
17
 74
0
 42
0.0000001
 43
0.0000001
 44
0.0000000001
 40
0.0
 40
0.0
 40
0.0
 40
0.0
 40
0.061653237
 40
0.123329498
 40
0.1850515502
 40
0.2468416698
 40
0.3087213548
 40
0.370711108
 40
0.4328302426
 40
0.495096636
 40
0.5575265765
 40
0.6201345494
 40
0.682933126
 40
0.7459332432
 40
0.8725261314
 40
1.0
 40
1.0
 40
1.0
 40
1.0
 10
9.469110746
 20
6.8742504245
 30
0.0
 10
9.4675340392
 20
6.8727274322
 30
0.0
 10
9.4642974521
 20
6.869765059
 30
0.0
 10
9.4592097472
 20
6.8655880427
 30
0.0
 10
9.4539011312
 20
6.8616870973
 30
0.0
 10
9.4483851433
 20
6.8580722396
 30
0.0
 10
9.442675619
 20
6.8547525579
 30
0.0
 10
9.43678699
 20
6.8517363714
 30
0.0
 10
9.4307340826
 20
6.8490312741
 30
0.0
 10
9.4245321374
 20
6.8466441086
 30
0.0
 10
9.4181967881
 20
6.8445808233
 30
0.0
 10
9.4117440393
 20
6.8428466064
 30
0.0
 10
9.4051899427
 20
6.8414458413
 30
0.0
 10
9.3963255897
 20
6.8400252752
 30
0.0
 10
9.3850692682
 20
6.8391023392
 30
0.0
 10
9.376019864
 20
6.8392789479
 30
0.0
 10
9.3714982535
 20
6.8395925226
 30
0.0
  0
SPLINE
  5
388
100
AcDbEntity
  8
0
100
AcDbSpline
 62
7
  6
CONTINUOUS
 70
0
 71
3
 72
48
 73
44
 74
0
 42
0.0000001
 43
0.0000001
 44
0.0000000001
 40
0.0
 40
0.0
 40
0.0
 40
0.0
 40
0.0958287078
 40
0.1428189802
 40
0.1890972253
 40
0.2345925351
 40
0.2792363692
 40
0.3229619627
 40
0.3657045591
 40
0.4074016611
 40
0.4479931951
 40
0.487421778
 40
0.5256329369
 40
0.5625753586
 40
0.5982011858
 40
0.6324663776
 40
0.665331128
 40
0.6967603047
 40
0.7267240134
 40
0.755198301
 40
0.7821660712
 40
0.8076181778
 40
0.819776277
 40
0.8315564256
 40
0.8429604214
 40
0.8539909461
 40
0.8646515232
 40
0.8749468216
 40
0.8848825944
 40
0.8944658812
 40
0.9037052143
 40
0.9126106219
 40
0.9211939867
 40
0.9294691045
 40
0.9374518915
 40
0.9451606619
 40
0.9598348196
 40
0.9668566843
 40
0.973703554
 40
0.9804067973
 40
0.987000038
 40
0.9935188112
 40
1.0
 40
1.0
 40
1.0
 40
1.0
 10
11.8784416174
 20
10.2888797916
 30
0.0
 10
11.8939389857
 20
10.2878050454
 30
0.0
 10
11.9170190538
 20
10.2859459265
 30
0.0
 10
11.9475259946
 20
10.2829399616
 30
0.0
 10
11.9698843854
 20
10.2804616313
 30
0.0
 10
11.9918323188
 20
10.2777490113
 30
0.0
 10
12.0133330953
 20
10.274806646
 30
0.0
 10
12.0343507789
 20
10.2716394899
 30
0.0
 10
12.054850251
 20
10.2682528637
 30
0.0
 10
12.0747972553
 20
10.2646524612
 30
0.0
 10
12.094158472
 20
10.2608443295
 30
0.0
 10
12.1129015745
 20
10.2568348766
 30
0.0
 10
12.1309952863
 20
10.2526308483
 30
0.0
 10
12.1484094291
 20
10.2482393154
 30
0.0
 10
12.1651149769
 20
10.243667659
 30
0.0
 10
12.1810841173
 20
10.2389235609
 30
0.0
 10
12.1962903062
 20
10.2340149975
 30
0.0
 10
12.2107083213
 20
10.2289502043
 30
0.0
 10
12.2243142792
 20
10.2237376651
 30
0.0
 10
12.2370857959
 20
10.2183860577
 30
0.0
 10
12.2490016846
 20
10.2129043079
 30
0.0
 10
12.2583400195
 20
10.208165595
 30
0.0
 10
12.2653570079
 20
10.2043085843
 30
0.0
 10
12.2703131121
 20
10.2014332062
 30
0.0
 10
12.2750411118
 20
10.1985321851
 30
0.0
 10
12.2795390802
 20
10.1956067173
 30
0.0
 10
12.2838051324
 20
10.1926579564
 30
0.0
 10
12.2878375334
 20
10.1896871404
 30
0.0
 10
12.2916346145
 20
10.1866954528
 30
0.0
 10
12.2951947938
 20
10.1836840717
 30
0.0
 10
12.2985166338
 20
10.1806542327
 30
0.0
 10
12.30159871
 20
10.1776070803
 30
0.0
 10
12.3044397694
 20
10.1745438046
 30
0.0
 10
12.307038554
 20
10.1714656705
 30
0.0
 10
12.3093940659
 20
10.1683734964
 30
0.0
 10
12.3121628934
 20
10.1643016737
 30
0.0
 10
12.3145054081
 20
10.1601335981
 30
0.0
 10
12.3163613981
 20
10.155891878
 30
0.0
 10
12.3174851456
 20
10.1527489707
 30
0.0
 10
12.318360024
 20
10.1495999123
 30
0.0
 10
12.3189854267
 20
10.1464459354
 30
0.0
 10
12.319360859
 20
10.1432888937
 30
0.0
 10
12.3194444126
 20
10.1411805574
 30
0.0
 10
12.3194444126
 20
10.1401299055
 30
0.0
  0
SPLINE
  5
389
100
AcDbEntity
  8
0
100
AcDbSpline
 62
7
  6
CONTINUOUS
 70
0
 71
3
 72
21
 73
17
 74
0
 42
0.0000001
 43
0.0000001
 44
0.0000000001
 40
0.0
 40
0.0
 40
0.0
 40
0.0
 40
0.061653237
 40
0.123329498
 40
0.1850515502
 40
0.2468416698
 40
0.3087213548
 40
0.370711108
 40
0.4328302426
 40
0.495096636
 40
0.5575265765
 40
0.6201345494
 40
0.682933126
 40
0.7459332432
 40
0.8725261314
 40
1.0
 40
1.0
 40
1.0
 40
1.0
 10
12.2084765473
 20
6.6842747609
 30
0.0
 10
12.2068998405
 20
6.6827517687
 30
0.0
 10
12.2036632534
 20
6.6797893954
 30
0.0
 10
12.1985755485
 20
6.6756123791
 30
0.0
 10
12.1932669325
 20
6.6717114338
 30
0.0
 10
12.1877509446
 20
6.6680965761
 30
0.0
 10
12.1820414203
 20
6.6647768944
 30
0.0
 10
12.1761527913
 20
6.6617607079
 30
0.0
 10
12.1700998839
 20
6.6590556105
 30
0.0
 10
12.1638979387
 20
6.656668445
 30
0.0
 10
12.1575625894
 20
6.6546051597
 30
0.0
 10
12.1511098406
 20
6.6528709429
 30
0.0
 10
12.144555744
 20
6.6514701777
 30
0.0
 10
12.135691391
 20
6.6500496117
 30
0.0
 10
12.1244350695
 20
6.6491266757
 30
0.0
 10
12.1153856653
 20
6.6493032843
 30
0.0
 10
12.1108640547
 20
6.649616859
 30
0.0
  0
SPLINE
  5
38A
100
AcDbEntity
  8
0
100
AcDbSpline
 62
7
  6
CONTINUOUS
 70
0
 71
3
 72
39
 73
35
 74
0
 42
0.0000001
 43
0.0000001
 44
0.0000000001
 40
0.0
 40
0.0
 40
0.0
 40
0.0
 40
0.0299424741
 40
0.0599093236
 40
0.0899243299
 40
0.1200101071
 40
0.1501875628
 40
0.1804754121
 40
0.2108897558
 40
0.2414437341
 40
0.2721472619
 40
0.3030068476
 40
0.3340255003
 40
0.3652027176
 40
0.3965345493
 40
0.4280137317
 40
0.459629888
 40
0.4913697842
 40
0.5232176352
 40
0.5551554541
 40
0.5871634377
 40
0.6192203778
 40
0.6513040905
 40
0.68339186
 40
0.715460889
 40
0.7474887514
 40
0.779453839
 40
0.8113357971
 40
0.8431159663
 40
0.8747776774
 40
0.9063069717
 40
0.937691796
 40
0.9689252179
 40
1.0
 40
1.0
 40
1.0
 40
1.0
 10
10.039130374
 20
8.8312952686
 30
0.0
 10
10.0376290059
 20
8.8298450646
 30
0.0
 10
10.034508225
 20
8.827061683
 30
0.0
 10
10.0295082355
 20
8.8232698309
 30
0.0
 10
10.0242149999
 20
8.8198801602
 30
0.0
 10
10.0186580919
 20
8.8169116875
 30
0.0
 10
10.012868064
 20
8.8143806283
 30
0.0
 10
10.0068768695
 20
8.812300896
 30
0.0
 10
10.0007175226
 20
8.8106838709
 30
0.0
 10
9.9944239561
 20
8.8095383835
 30
0.0
 10
9.988030821
 20
8.808870661
 30
0.0
 10
9.981573299
 20
8.8086842908
 30
0.0
 10
9.9750869054
 20
8.8089802109
 30
0.0
 10
9.9686072952
 20
8.8097567118
 30
0.0
 10
9.9621700694
 20
8.8110094493
 30
0.0
 10
9.9558105816
 20
8.8127314715
 30
0.0
 10
9.9495637478
 20
8.8149132591
 30
0.0
 10
9.943463857
 20
8.8175427787
 30
0.0
 10
9.9375443868
 20
8.8206055505
 30
0.0
 10
9.9318378178
 20
8.8240847199
 30
0.0
 10
9.9263754593
 20
8.8279611568
 30
0.0
 10
9.9211872811
 20
8.8322135618
 30
0.0
 10
9.9163017509
 20
8.8368185818
 30
0.0
 10
9.9117456804
 20
8.8417509368
 30
0.0
 10
9.9075440803
 20
8.8469835573
 30
0.0
 10
9.9037200239
 20
8.8524877303
 30
0.0
 10
9.9002945239
 20
8.8582332556
 30
0.0
 10
9.8972864042
 20
8.8641886055
 30
0.0
 10
9.8947122195
 20
8.8703210973
 30
0.0
 10
9.8925861208
 20
8.8765970907
 30
0.0
 10
9.8909198874
 20
8.8829820841
 30
0.0
 10
9.8897226326
 20
8.8894412046
 30
0.0
 10
9.8890011393
 20
8.8959384417
 30
0.0
 10
9.8888395134
 20
8.9002838208
 30
0.0
 10
9.8888395134
 20
8.9024501479
 30
0.0
  0
SPLINE
  5
38B
100
AcDbEntity
  8
0
100
AcDbSpline
 62
7
  6
CONTINUOUS
 70
0
 71
3
 72
39
 73
35
 74
0
 42
0.0000001
 43
0.0000001
 44
0.0000000001
 40
0.0
 40
0.0
 40
0.0
 40
0.0
 40
0.0299424741
 40
0.0599093236
 40
0.0899243299
 40
0.1200101071
 40
0.1501875628
 40
0.1804754121
 40
0.2108897558
 40
0.2414437341
 40
0.2721472619
 40
0.3030068476
 40
0.3340255003
 40
0.3652027176
 40
0.3965345493
 40
0.4280137317
 40
0.459629888
 40
0.4913697842
 40
0.5232176352
 40
0.5551554541
 40
0.5871634377
 40
0.6192203778
 40
0.6513040905
 40
0.68339186
 40
0.715460889
 40
0.7474887514
 40
0.779453839
 40
0.8113357971
 40
0.8431159663
 40
0.8747776774
 40
0.9063069717
 40
0.937691796
 40
0.9689252179
 40
1.0
 40
1.0
 40
1.0
 40
1.0
 10
11.5788161573
 20
8.7554273878
 30
0.0
 10
11.5773147891
 20
8.7539771838
 30
0.0
 10
11.5741940082
 20
8.7511938022
 30
0.0
 10
11.5691940187
 20
8.7474019501
 30
0.0
 10
11.5639007831
 20
8.7440122793
 30
0.0
 10
11.5583438752
 20
8.7410438067
 30
0.0
 10
11.5525538472
 20
8.7385127475
 30
0.0
 10
11.5465626528
 20
8.7364330152
 30
0.0
 10
11.5404033059
 20
8.73481599
 30
0.0
 10
11.5341097393
 20
8.7336705027
 30
0.0
 10
11.5277166043
 20
8.7330027801
 30
0.0
 10
11.5212590822
 20
8.73281641
 30
0.0
 10
11.5147726886
 20
8.7331123301
 30
0.0
 10
11.5082930785
 20
8.7338888309
 30
0.0
 10
11.5018558526
 20
8.7351415684
 30
0.0
 10
11.4954963649
 20
8.7368635907
 30
0.0
 10
11.4892495311
 20
8.7390453783
 30
0.0
 10
11.4831496402
 20
8.7416748979
 30
0.0
 10
11.47723017
 20
8.7447376697
 30
0.0
 10
11.4715236011
 20
8.7482168391
 30
0.0
 10
11.4660612426
 20
8.752093276
 30
0.0
 10
11.4608730644
 20
8.756345681
 30
0.0
 10
11.4559875341
 20
8.7609507009
 30
0.0
 10
11.4514314637
 20
8.765883056
 30
0.0
 10
11.4472298635
 20
8.7711156765
 30
0.0
 10
11.4434058072
 20
8.7766198495
 30
0.0
 10
11.4399803071
 20
8.7823653747
 30
0.0
 10
11.4369721875
 20
8.7883207247
 30
0.0
 10
11.4343980027
 20
8.7944532165
 30
0.0
 10
11.4322719041
 20
8.8007292099
 30
0.0
 10
11.4306056707
 20
8.8071142032
 30
0.0
 10
11.4294084158
 20
8.8135733238
 30
0.0
 10
11.4286869225
 20
8.8200705609
 30
0.0
 10
11.4285252967
 20
8.82441594
 30
0.0
 10
11.4285252967
 20
8.8265822671
 30
0.0
  0
SPLINE
  5
38C
100
AcDbEntity
  8
0
100
AcDbSpline
 62
7
  6
CONTINUOUS
 70
0
 71
3
 72
18
 73
14
 74
0
 42
0.0000001
 43
0.0000001
 44
0.0000000001
 40
0.0
 40
0.0
 40
0.0
 40
0.0
 40
0.1504680185
 40
0.2917144324
 40
0.4244425615
 40
0.4879099171
 40
0.5496094205
 40
0.6682625585
 40
0.7817882768
 40
0.8371379945
 40
0.8918078237
 40
0.9460192726
 40
1.0
 40
1.0
 40
1.0
 40
1.0
 10
12.6903702962
 20
7.4839783872
 30
0.0
 10
12.6891532274
 20
7.482802789
 30
0.0
 10
12.6867207396
 20
7.4805970242
 30
0.0
 10
12.6829542913
 20
7.4776575725
 30
0.0
 10
12.6797728818
 20
7.4755786401
 30
0.0
 10
12.6772359906
 20
7.4741708517
 30
0.0
 10
12.674773732
 20
7.4729622247
 30
0.0
 10
12.6716951291
 20
7.4717409484
 30
0.0
 10
12.6685617619
 20
7.4709075465
 30
0.0
 10
12.6660800421
 20
7.4704970051
 30
0.0
 10
12.664240745
 20
7.4703148001
 30
0.0
 10
12.6624088883
 20
7.4702559649
 30
0.0
 10
12.6611918483
 20
7.4702990231
 30
0.0
 10
12.6605862495
 20
7.4703410248
 30
0.0
  0
SPLINE
  5
38D
100
AcDbEntity
  8
0
100
AcDbSpline
 62
7
  6
CONTINUOUS
 70
0
 71
3
 72
39
 73
35
 74
0
 42
0.0000001
 43
0.0000001
 44
0.0000000001
 40
0.0
 40
0.0
 40
0.0
 40
0.0
 40
0.0311160054
 40
0.0620232808
 40
0.0927351539
 40
0.1232711756
 40
0.1536587326
 40
0.1839312105
 40
0.2141268386
 40
0.2442870981
 40
0.2744549747
 40
0.3046731306
 40
0.33498209
 40
0.365418544
 40
0.3960138629
 40
0.4267928807
 40
0.457772997
 40
0.4889636213
 40
0.5203659688
 40
0.551973177
 40
0.5837707173
 40
0.6157370643
 40
0.6478445906
 40
0.6800606397
 40
0.7123487305
 40
0.7446698622
 40
0.7769838838
 40
0.8092508928
 40
0.841432625
 40
0.8734938027
 40
0.9054033951
 40
0.9371359477
 40
0.9686717614
 40
1.0
 40
1.0
 40
1.0
 40
1.0
 10
9.8655693638
 20
8.8989729082
 30
0.0
 10
9.8655693638
 20
8.9024210668
 30
0.0
 10
9.8659059906
 20
8.9092992426
 30
0.0
 10
9.8674284272
 20
8.9194789961
 30
0.0
 10
9.8699522556
 20
8.9293928248
 30
0.0
 10
9.8734536182
 20
8.9389437492
 30
0.0
 10
9.8778990103
 20
8.9480397201
 30
0.0
 10
9.8832457678
 20
8.9565926111
 30
0.0
 10
9.8894423584
 20
8.9645196207
 30
0.0
 10
9.8964289367
 20
8.971743964
 30
0.0
 10
9.9041379189
 20
8.9781957016
 30
0.0
 10
9.9124946701
 20
8.9838124364
 30
0.0
 10
9.9214182401
 20
8.9885399859
 30
0.0
 10
9.9308222253
 20
8.9923328818
 30
0.0
 10
9.9406156497
 20
8.9951547865
 30
0.0
 10
9.9507038777
 20
8.9969788114
 30
0.0
 10
9.9609895429
 20
8.9977877558
 30
0.0
 10
9.9713735009
 20
8.9975742568
 30
0.0
 10
9.9817557883
 20
8.9963407744
 30
0.0
 10
9.9920365668
 20
8.9940995443
 30
0.0
 10
10.0021170564
 20
8.9908724258
 30
0.0
 10
10.0119004749
 20
8.9866907192
 30
0.0
 10
10.0212929432
 20
8.9815948279
 30
0.0
 10
10.0302043553
 20
8.9756338529
 30
0.0
 10
10.0385492204
 20
8.9688651265
 30
0.0
 10
10.0462474657
 20
8.9613536769
 30
0.0
 10
10.0532252185
 20
8.9531716374
 30
0.0
 10
10.0594154719
 20
8.9443975262
 30
0.0
 10
10.0647587202
 20
8.9351155263
 30
0.0
 10
10.0692035069
 20
8.9254146513
 30
0.0
 10
10.0727069756
 20
8.9153880757
 30
0.0
 10
10.0752351833
 20
8.9051317238
 30
0.0
 10
10.0767636383
 20
8.8947453802
 30
0.0
 10
10.0771071323
 20
8.8877743916
 30
0.0
 10
10.0771071323
 20
8.8843027141
 30
0.0
  0
SPLINE
  5
38E
100
AcDbEntity
  8
0
100
AcDbSpline
 62
7
  6
CONTINUOUS
 70
0
 71
3
 72
39
 73
35
 74
0
 42
0.0000001
 43
0.0000001
 44
0.0000000001
 40
0.0
 40
0.0
 40
0.0
 40
0.0
 40
0.0299424741
 40
0.0599093236
 40
0.0899243299
 40
0.1200101071
 40
0.1501875628
 40
0.1804754121
 40
0.2108897558
 40
0.2414437341
 40
0.2721472619
 40
0.3030068476
 40
0.3340255003
 40
0.3652027176
 40
0.3965345493
 40
0.4280137317
 40
0.459629888
 40
0.4913697842
 40
0.5232176352
 40
0.5551554541
 40
0.5871634377
 40
0.6192203778
 40
0.6513040905
 40
0.68339186
 40
0.715460889
 40
0.7474887514
 40
0.779453839
 40
0.8113357971
 40
0.8431159663
 40
0.8747776774
 40
0.9063069717
 40
0.937691796
 40
0.9689252179
 40
1.0
 40
1.0
 40
1.0
 40
1.0
 10
10.039130374
 20
7.6547976051
 30
0.0
 10
10.0376290059
 20
7.6533474011
 30
0.0
 10
10.034508225
 20
7.6505640195
 30
0.0
 10
10.0295082355
 20
7.6467721674
 30
0.0
 10
10.0242149999
 20
7.6433824967
 30
0.0
 10
10.0186580919
 20
7.640414024
 30
0.0
 10
10.012868064
 20
7.6378829648
 30
0.0
 10
10.0068768695
 20
7.6358032325
 30
0.0
 10
10.0007175226
 20
7.6341862074
 30
0.0
 10
9.9944239561
 20
7.63304072
 30
0.0
 10
9.988030821
 20
7.6323729975
 30
0.0
 10
9.981573299
 20
7.6321866274
 30
0.0
 10
9.9750869054
 20
7.6324825474
 30
0.0
 10
9.9686072952
 20
7.6332590483
 30
0.0
 10
9.9621700694
 20
7.6345117858
 30
0.0
 10
9.9558105816
 20
7.636233808
 30
0.0
 10
9.9495637478
 20
7.6384155956
 30
0.0
 10
9.943463857
 20
7.6410451152
 30
0.0
 10
9.9375443868
 20
7.644107887
 30
0.0
 10
9.9318378178
 20
7.6475870564
 30
0.0
 10
9.9263754593
 20
7.6514634933
 30
0.0
 10
9.9211872811
 20
7.6557158983
 30
0.0
 10
9.9163017509
 20
7.6603209183
 30
0.0
 10
9.9117456804
 20
7.6652532734
 30
0.0
 10
9.9075440803
 20
7.6704858938
 30
0.0
 10
9.9037200239
 20
7.6759900668
 30
0.0
 10
9.9002945239
 20
7.6817355921
 30
0.0
 10
9.8972864042
 20
7.687690942
 30
0.0
 10
9.8947122195
 20
7.6938234338
 30
0.0
 10
9.8925861208
 20
7.7000994272
 30
0.0
 10
9.8909198874
 20
7.7064844206
 30
0.0
 10
9.8897226326
 20
7.7129435412
 30
0.0
 10
9.8890011393
 20
7.7194407782
 30
0.0
 10
9.8888395134
 20
7.7237861573
 30
0.0
 10
9.8888395134
 20
7.7259524845
 30
0.0
  0
SPLINE
  5
38F
100
AcDbEntity
  8
0
100
AcDbSpline
 62
7
  6
CONTINUOUS
 70
0
 71
3
 72
39
 73
35
 74
0
 42
0.0000001
 43
0.0000001
 44
0.0000000001
 40
0.0
 40
0.0
 40
0.0
 40
0.0
 40
0.0311160054
 40
0.0620232808
 40
0.0927351539
 40
0.1232711756
 40
0.1536587326
 40
0.1839312105
 40
0.2141268386
 40
0.2442870981
 40
0.2744549747
 40
0.3046731306
 40
0.33498209
 40
0.365418544
 40
0.3960138629
 40
0.4267928807
 40
0.457772997
 40
0.4889636213
 40
0.5203659688
 40
0.551973177
 40
0.5837707173
 40
0.6157370643
 40
0.6478445906
 40
0.6800606397
 40
0.7123487305
 40
0.7446698622
 40
0.7769838838
 40
0.8092508928
 40
0.841432625
 40
0.8734938027
 40
0.9054033951
 40
0.9371359477
 40
0.9686717614
 40
1.0
 40
1.0
 40
1.0
 40
1.0
 10
10.0771071323
 20
8.8843027141
 30
0.0
 10
10.0771071323
 20
8.8808545554
 30
0.0
 10
10.0767705056
 20
8.8739763796
 30
0.0
 10
10.0752480689
 20
8.8637966261
 30
0.0
 10
10.0727242405
 20
8.8538827974
 30
0.0
 10
10.069222878
 20
8.844331873
 30
0.0
 10
10.0647774859
 20
8.8352359021
 30
0.0
 10
10.0594307284
 20
8.8266830112
 30
0.0
 10
10.0532341377
 20
8.8187560015
 30
0.0
 10
10.0462475595
 20
8.8115316582
 30
0.0
 10
10.0385385772
 20
8.8050799206
 30
0.0
 10
10.0301818261
 20
8.7994631858
 30
0.0
 10
10.021258256
 20
8.7947356363
 30
0.0
 10
10.0118542709
 20
8.7909427404
 30
0.0
 10
10.0020608464
 20
8.7881208358
 30
0.0
 10
9.9919726184
 20
8.7862968108
 30
0.0
 10
9.9816869533
 20
8.7854878664
 30
0.0
 10
9.9713029953
 20
8.7857013655
 30
0.0
 10
9.9609207078
 20
8.7869348478
 30
0.0
 10
9.9506399294
 20
8.7891760779
 30
0.0
 10
9.9405594397
 20
8.7924031964
 30
0.0
 10
9.9307760212
 20
8.7965849031
 30
0.0
 10
9.921383553
 20
8.8016807943
 30
0.0
 10
9.9124721408
 20
8.8076417694
 30
0.0
 10
9.9041272757
 20
8.8144104957
 30
0.0
 10
9.8964290305
 20
8.8219219453
 30
0.0
 10
9.8894512776
 20
8.8301039848
 30
0.0
 10
9.8832610243
 20
8.838878096
 30
0.0
 10
9.8779177759
 20
8.848160096
 30
0.0
 10
9.8734729892
 20
8.857860971
 30
0.0
 10
9.8699695206
 20
8.8678875466
 30
0.0
 10
9.8674413128
 20
8.8781438984
 30
0.0
 10
9.8659128578
 20
8.888530242
 30
0.0
 10
9.8655693638
 20
8.8955012306
 30
0.0
 10
9.8655693638
 20
8.8989729082
 30
0.0
  0
SPLINE
  5
390
100
AcDbEntity
  8
0
100
AcDbSpline
 62
7
  6
CONTINUOUS
 70
0
 71
3
 72
39
 73
35
 74
0
 42
0.0000001
 43
0.0000001
 44
0.0000000001
 40
0.0
 40
0.0
 40
0.0
 40
0.0
 40
0.0311160054
 40
0.0620232808
 40
0.0927351539
 40
0.1232711756
 40
0.1536587326
 40
0.1839312105
 40
0.2141268386
 40
0.2442870981
 40
0.2744549747
 40
0.3046731306
 40
0.33498209
 40
0.365418544
 40
0.3960138629
 40
0.4267928807
 40
0.457772997
 40
0.4889636213
 40
0.5203659688
 40
0.551973177
 40
0.5837707173
 40
0.6157370643
 40
0.6478445906
 40
0.6800606397
 40
0.7123487305
 40
0.7446698622
 40
0.7769838838
 40
0.8092508928
 40
0.841432625
 40
0.8734938027
 40
0.9054033951
 40
0.9371359477
 40
0.9686717614
 40
1.0
 40
1.0
 40
1.0
 40
1.0
 10
11.4052551471
 20
8.8231050273
 30
0.0
 10
11.4052551471
 20
8.826553186
 30
0.0
 10
11.4055917739
 20
8.8334313618
 30
0.0
 10
11.4071142105
 20
8.8436111153
 30
0.0
 10
11.4096380389
 20
8.853524944
 30
0.0
 10
11.4131394014
 20
8.8630758684
 30
0.0
 10
11.4175847935
 20
8.8721718393
 30
0.0
 10
11.422931551
 20
8.8807247302
 30
0.0
 10
11.4291281417
 20
8.8886517399
 30
0.0
 10
11.4361147199
 20
8.8958760832
 30
0.0
 10
11.4438237022
 20
8.9023278208
 30
0.0
 10
11.4521804534
 20
8.9079445556
 30
0.0
 10
11.4611040234
 20
8.9126721051
 30
0.0
 10
11.4705080086
 20
8.916465001
 30
0.0
 10
11.480301433
 20
8.9192869056
 30
0.0
 10
11.490389661
 20
8.9211109306
 30
0.0
 10
11.5006753261
 20
8.921919875
 30
0.0
 10
11.5110592841
 20
8.9217063759
 30
0.0
 10
11.5214415716
 20
8.9204728936
 30
0.0
 10
11.53172235
 20
8.9182316635
 30
0.0
 10
11.5418028397
 20
8.915004545
 30
0.0
 10
11.5515862582
 20
8.9108228383
 30
0.0
 10
11.5609787264
 20
8.9057269471
 30
0.0
 10
11.5698901386
 20
8.899765972
 30
0.0
 10
11.5782350037
 20
8.8929972457
 30
0.0
 10
11.585933249
 20
8.8854857961
 30
0.0
 10
11.5929110018
 20
8.8773037566
 30
0.0
 10
11.5991012551
 20
8.8685296454
 30
0.0
 10
11.6044445035
 20
8.8592476454
 30
0.0
 10
11.6088892902
 20
8.8495467705
 30
0.0
 10
11.6123927589
 20
8.8395201948
 30
0.0
 10
11.6149209666
 20
8.829263843
 30
0.0
 10
11.6164494216
 20
8.8188774994
 30
0.0
 10
11.6167929156
 20
8.8119065108
 30
0.0
 10
11.6167929156
 20
8.8084348333
 30
0.0
  0
SPLINE
  5
391
100
AcDbEntity
  8
0
100
AcDbSpline
 62
7
  6
CONTINUOUS
 70
0
 71
3
 72
39
 73
35
 74
0
 42
0.0000001
 43
0.0000001
 44
0.0000000001
 40
0.0
 40
0.0
 40
0.0
 40
0.0
 40
0.0299424741
 40
0.0599093236
 40
0.0899243299
 40
0.1200101071
 40
0.1501875628
 40
0.1804754121
 40
0.2108897558
 40
0.2414437341
 40
0.2721472619
 40
0.3030068476
 40
0.3340255003
 40
0.3652027176
 40
0.3965345493
 40
0.4280137317
 40
0.459629888
 40
0.4913697842
 40
0.5232176352
 40
0.5551554541
 40
0.5871634377
 40
0.6192203778
 40
0.6513040905
 40
0.68339186
 40
0.715460889
 40
0.7474887514
 40
0.779453839
 40
0.8113357971
 40
0.8431159663
 40
0.8747776774
 40
0.9063069717
 40
0.937691796
 40
0.9689252179
 40
1.0
 40
1.0
 40
1.0
 40
1.0
 10
11.5788161573
 20
7.5171103425
 30
0.0
 10
11.5773147891
 20
7.5156601385
 30
0.0
 10
11.5741940082
 20
7.5128767569
 30
0.0
 10
11.5691940187
 20
7.5090849048
 30
0.0
 10
11.5639007831
 20
7.505695234
 30
0.0
 10
11.5583438752
 20
7.5027267614
 30
0.0
 10
11.5525538472
 20
7.5001957022
 30
0.0
 10
11.5465626528
 20
7.4981159699
 30
0.0
 10
11.5404033059
 20
7.4964989447
 30
0.0
 10
11.5341097393
 20
7.4953534574
 30
0.0
 10
11.5277166043
 20
7.4946857348
 30
0.0
 10
11.5212590822
 20
7.4944993647
 30
0.0
 10
11.5147726886
 20
7.4947952848
 30
0.0
 10
11.5082930785
 20
7.4955717856
 30
0.0
 10
11.5018558526
 20
7.4968245231
 30
0.0
 10
11.4954963649
 20
7.4985465454
 30
0.0
 10
11.4892495311
 20
7.500728333
 30
0.0
 10
11.4831496402
 20
7.5033578526
 30
0.0
 10
11.47723017
 20
7.5064206244
 30
0.0
 10
11.4715236011
 20
7.5098997938
 30
0.0
 10
11.4660612426
 20
7.5137762306
 30
0.0
 10
11.4608730644
 20
7.5180286356
 30
0.0
 10
11.4559875341
 20
7.5226336556
 30
0.0
 10
11.4514314637
 20
7.5275660107
 30
0.0
 10
11.4472298635
 20
7.5327986311
 30
0.0
 10
11.4434058072
 20
7.5383028042
 30
0.0
 10
11.4399803071
 20
7.5440483294
 30
0.0
 10
11.4369721875
 20
7.5500036794
 30
0.0
 10
11.4343980027
 20
7.5561361712
 30
0.0
 10
11.4322719041
 20
7.5624121646
 30
0.0
 10
11.4306056707
 20
7.5687971579
 30
0.0
 10
11.4294084158
 20
7.5752562785
 30
0.0
 10
11.4286869225
 20
7.5817535155
 30
0.0
 10
11.4285252967
 20
7.5860988946
 30
0.0
 10
11.4285252967
 20
7.5882652218
 30
0.0
  0
SPLINE
  5
392
100
AcDbEntity
  8
0
100
AcDbSpline
 62
7
  6
CONTINUOUS
 70
0
 71
3
 72
39
 73
35
 74
0
 42
0.0000001
 43
0.0000001
 44
0.0000000001
 40
0.0
 40
0.0
 40
0.0
 40
0.0
 40
0.0311160054
 40
0.0620232808
 40
0.0927351539
 40
0.1232711756
 40
0.1536587326
 40
0.1839312105
 40
0.2141268386
 40
0.2442870981
 40
0.2744549747
 40
0.3046731306
 40
0.33498209
 40
0.365418544
 40
0.3960138629
 40
0.4267928807
 40
0.457772997
 40
0.4889636213
 40
0.5203659688
 40
0.551973177
 40
0.5837707173
 40
0.6157370643
 40
0.6478445906
 40
0.6800606397
 40
0.7123487305
 40
0.7446698622
 40
0.7769838838
 40
0.8092508928
 40
0.841432625
 40
0.8734938027
 40
0.9054033951
 40
0.9371359477
 40
0.9686717614
 40
1.0
 40
1.0
 40
1.0
 40
1.0
 10
11.6167929156
 20
8.8084348333
 30
0.0
 10
11.6167929156
 20
8.8049866746
 30
0.0
 10
11.6164562888
 20
8.7981084988
 30
0.0
 10
11.6149338522
 20
8.7879287453
 30
0.0
 10
11.6124100238
 20
8.7780149166
 30
0.0
 10
11.6089086612
 20
8.7684639922
 30
0.0
 10
11.6044632691
 20
8.7593680213
 30
0.0
 10
11.5991165117
 20
8.7508151303
 30
0.0
 10
11.592919921
 20
8.7428881207
 30
0.0
 10
11.5859333427
 20
8.7356637774
 30
0.0
 10
11.5782243605
 20
8.7292120398
 30
0.0
 10
11.5698676093
 20
8.723595305
 30
0.0
 10
11.5609440393
 20
8.7188677555
 30
0.0
 10
11.5515400541
 20
8.7150748596
 30
0.0
 10
11.5417466297
 20
8.7122529549
 30
0.0
 10
11.5316584017
 20
8.71042893
 30
0.0
 10
11.5213727365
 20
8.7096199856
 30
0.0
 10
11.5109887785
 20
8.7098334846
 30
0.0
 10
11.5006064911
 20
8.711066967
 30
0.0
 10
11.4903257126
 20
8.7133081971
 30
0.0
 10
11.480245223
 20
8.7165353156
 30
0.0
 10
11.4704618045
 20
8.7207170222
 30
0.0
 10
11.4610693362
 20
8.7258129135
 30
0.0
 10
11.4521579241
 20
8.7317738885
 30
0.0
 10
11.443813059
 20
8.7385426149
 30
0.0
 10
11.4361148137
 20
8.7460540645
 30
0.0
 10
11.4291370609
 20
8.754236104
 30
0.0
 10
11.4229468075
 20
8.7630102152
 30
0.0
 10
11.4176035592
 20
8.7722922151
 30
0.0
 10
11.4131587725
 20
8.7819930901
 30
0.0
 10
11.4096553038
 20
8.7920196657
 30
0.0
 10
11.4071270961
 20
8.8022760176
 30
0.0
 10
11.4055986411
 20
8.8126623612
 30
0.0
 10
11.4052551471
 20
8.8196333498
 30
0.0
 10
11.4052551471
 20
8.8231050273
 30
0.0
  0
SPLINE
  5
393
100
AcDbEntity
  8
0
100
AcDbSpline
 62
7
  6
CONTINUOUS
 70
0
 71
3
 72
32
 73
28
 74
0
 42
0.0000001
 43
0.0000001
 44
0.0000000001
 40
0.0
 40
0.0
 40
0.0
 40
0.0
 40
0.0607419964
 40
0.121824471
 40
0.1525002561
 40
0.1832613651
 40
0.2450255448
 40
0.3071229913
 40
0.3695430064
 40
0.4322692274
 40
0.4952772082
 40
0.558530012
 40
0.5902421085
 40
0.6219940083
 40
0.6855473454
 40
0.7173458425
 40
0.7491274478
 40
0.7808715434
 40
0.8125549737
 40
0.8441525216
 40
0.8599138805
 40
0.8756441531
 40
0.9069913086
 40
0.9381767897
 40
0.9537061462
 40
0.9691887996
 40
1.0
 40
1.0
 40
1.0
 40
1.0
 10
10.8358040768
 20
8.5207204632
 30
0.0
 10
10.8303008428
 20
8.5197590338
 30
0.0
 10
10.8191739453
 20
8.5183139416
 30
0.0
 10
10.8051467326
 20
8.5176725999
 30
0.0
 10
10.7938768933
 20
8.5178398593
 30
0.0
 10
10.7825602663
 20
8.5184614708
 30
0.0
 10
10.7684163473
 20
8.5200886412
 30
0.0
 10
10.751586902
 20
8.5233910705
 30
0.0
 10
10.7349895976
 20
8.5280551459
 30
0.0
 10
10.7187525577
 20
8.5340991635
 30
0.0
 10
10.7030237492
 20
8.541548
 30
0.0
 10
10.69049226
 20
8.5489469527
 30
0.0
 10
10.6809145436
 20
8.5555952861
 30
0.0
 10
10.6716679274
 20
8.5627407783
 30
0.0
 10
10.6629988502
 20
8.5706272035
 30
0.0
 10
10.655076168
 20
8.5792346978
 30
0.0
 10
10.649548709
 20
8.5860479751
 30
0.0
 10
10.644488384
 20
8.5932026069
 30
0.0
 10
10.6399475988
 20
8.6006786323
 30
0.0
 10
10.6366384406
 20
8.60716008
 30
0.0
 10
10.6343055456
 20
8.6124743775
 30
0.0
 10
10.6321949857
 20
8.6178560843
 30
0.0
 10
10.6299794857
 20
8.6247139629
 30
0.0
 10
10.6283621962
 20
8.6317189827
 30
0.0
 10
10.6274493678
 20
8.6373679475
 30
0.0
 10
10.6267958503
 20
8.6430176418
 30
0.0
 10
10.62659669
 20
8.6472786987
 30
0.0
 10
10.62659669
 20
8.6501124776
 30
0.0
  0
SPLINE
  5
394
100
AcDbEntity
  8
0
100
AcDbSpline
 62
7
  6
CONTINUOUS
 70
0
 71
3
 72
18
 73
14
 74
0
 42
0.0000001
 43
0.0000001
 44
0.0000000001
 40
0.0
 40
0.0
 40
0.0
 40
0.0
 40
0.1500104517
 40
0.2877369553
 40
0.4143948336
 40
0.5322881296
 40
0.5891061426
 40
0.6451761381
 40
0.7011096739
 40
0.7575452114
 40
0.8151100128
 40
0.874394046
 40
1.0
 40
1.0
 40
1.0
 40
1.0
 10
10.7906979539
 20
7.8372327282
 30
0.0
 10
10.7905518646
 20
7.8375566191
 30
0.0
 10
10.7903004505
 20
7.8381917207
 30
0.0
 10
10.7900501411
 20
7.8391437115
 30
0.0
 10
10.7899503197
 20
7.8400475279
 30
0.0
 10
10.7900008902
 20
7.8407646189
 30
0.0
 10
10.7901251163
 20
7.8412979095
 30
0.0
 10
10.7902579914
 20
7.8416759465
 30
0.0
 10
10.7904319448
 20
7.8420359161
 30
0.0
 10
10.7906467335
 20
7.8423772774
 30
0.0
 10
10.7909022393
 20
7.842699521
 30
0.0
 10
10.7913041426
 20
7.8431108151
 30
0.0
 10
10.7916549974
 20
7.8433779073
 30
0.0
 10
10.7919046692
 20
7.8435396958
 30
0.0
  0
SPLINE
  5
395
100
AcDbEntity
  8
0
100
AcDbSpline
 62
7
  6
CONTINUOUS
 70
0
 71
3
 72
37
 73
33
 74
0
 42
0.0000001
 43
0.0000001
 44
0.0000000001
 40
0.0
 40
0.0
 40
0.0
 40
0.0
 40
0.031146624
 40
0.0624481919
 40
0.0938952571
 40
0.1254804469
 40
0.1571906758
 40
0.1890114524
 40
0.2209257687
 40
0.25291484
 40
0.2849584237
 40
0.3170352183
 40
0.381163152
 40
0.4451601237
 40
0.4770758719
 40
0.5088983814
 40
0.5406106743
 40
0.5721979571
 40
0.6036479386
 40
0.6349511145
 40
0.6661010055
 40
0.697094333
 40
0.7279311336
 40
0.7586148063
 40
0.7891520874
 40
0.819552954
 40
0.8498304507
 40
0.8800004308
 40
0.9100812223
 40
0.9400932249
 40
0.9700584477
 40
1.0
 40
1.0
 40
1.0
 40
1.0
 10
11.2241441103
 20
7.5220058562
 30
0.0
 10
11.2223043589
 20
7.5221334434
 30
0.0
 10
11.2186236776
 20
7.5225239414
 30
0.0
 10
11.2131473077
 20
7.5235075124
 30
0.0
 10
11.2077295622
 20
7.5248853177
 30
0.0
 10
11.2023997831
 20
7.5266497631
 30
0.0
 10
11.1971862155
 20
7.5287915195
 30
0.0
 10
11.192116699
 20
7.5312990686
 30
0.0
 10
11.1872182247
 20
7.5341590574
 30
0.0
 10
11.1825169486
 20
7.5373561384
 30
0.0
 10
11.178037711
 20
7.5408734891
 30
0.0
 10
11.172395592
 20
7.5459629266
 30
0.0
 10
11.1660161839
 20
7.5530249218
 30
0.0
 10
11.160662786
 20
7.5608820415
 30
0.0
 10
11.1570679568
 20
7.5675419213
 30
0.0
 10
11.1547312388
 20
7.5726929641
 30
0.0
 10
11.1527650501
 20
7.5779755584
 30
0.0
 10
11.1511797316
 20
7.5833618019
 30
0.0
 10
11.1499838402
 20
7.5888229165
 30
0.0
 10
11.1491837931
 20
7.5943297986
 30
0.0
 10
11.1487839116
 20
7.5998530683
 30
0.0
 10
11.1487863876
 20
7.6053632547
 30
0.0
 10
11.149191273
 20
7.6108309424
 30
0.0
 10
11.1499964751
 20
7.6162269278
 30
0.0
 10
11.1511977664
 20
7.6215223727
 30
0.0
 10
11.1527887937
 20
7.6266889607
 30
0.0
 10
11.154761101
 20
7.6316990522
 30
0.0
 10
11.157104197
 20
7.6365258386
 30
0.0
 10
11.1598055687
 20
7.6411434553
 30
0.0
 10
11.1628508827
 20
7.6455272469
 30
0.0
 10
11.1662235525
 20
7.6496534364
 30
0.0
 10
11.1686793193
 20
7.6522188135
 30
0.0
 10
11.1699544343
 20
7.653450466
 30
0.0
  0
SPLINE
  5
396
100
AcDbEntity
  8
0
100
AcDbSpline
 62
7
  6
CONTINUOUS
 70
0
 71
3
 72
39
 73
35
 74
0
 42
0.0000001
 43
0.0000001
 44
0.0000000001
 40
0.0
 40
0.0
 40
0.0
 40
0.0
 40
0.0311160054
 40
0.0620232808
 40
0.0927351539
 40
0.1232711756
 40
0.1536587326
 40
0.1839312105
 40
0.2141268386
 40
0.2442870981
 40
0.2744549747
 40
0.3046731306
 40
0.33498209
 40
0.365418544
 40
0.3960138629
 40
0.4267928807
 40
0.457772997
 40
0.4889636213
 40
0.5203659688
 40
0.551973177
 40
0.5837707173
 40
0.6157370643
 40
0.6478445906
 40
0.6800606397
 40
0.7123487305
 40
0.7446698622
 40
0.7769838838
 40
0.8092508928
 40
0.841432625
 40
0.8734938027
 40
0.9054033951
 40
0.9371359477
 40
0.9686717614
 40
1.0
 40
1.0
 40
1.0
 40
1.0
 10
9.8655693638
 20
7.7224752447
 30
0.0
 10
9.8655693638
 20
7.7259234033
 30
0.0
 10
9.8659059906
 20
7.7328015791
 30
0.0
 10
9.8674284272
 20
7.7429813327
 30
0.0
 10
9.8699522556
 20
7.7528951613
 30
0.0
 10
9.8734536182
 20
7.7624460857
 30
0.0
 10
9.8778990103
 20
7.7715420566
 30
0.0
 10
9.8832457678
 20
7.7800949476
 30
0.0
 10
9.8894423584
 20
7.7880219572
 30
0.0
 10
9.8964289367
 20
7.7952463005
 30
0.0
 10
9.9041379189
 20
7.8016980381
 30
0.0
 10
9.9124946701
 20
7.8073147729
 30
0.0
 10
9.9214182401
 20
7.8120423224
 30
0.0
 10
9.9308222253
 20
7.8158352183
 30
0.0
 10
9.9406156497
 20
7.818657123
 30
0.0
 10
9.9507038777
 20
7.8204811479
 30
0.0
 10
9.9609895429
 20
7.8212900923
 30
0.0
 10
9.9713735009
 20
7.8210765933
 30
0.0
 10
9.9817557883
 20
7.8198431109
 30
0.0
 10
9.9920365668
 20
7.8176018808
 30
0.0
 10
10.0021170564
 20
7.8143747624
 30
0.0
 10
10.0119004749
 20
7.8101930557
 30
0.0
 10
10.0212929432
 20
7.8050971644
 30
0.0
 10
10.0302043553
 20
7.7991361894
 30
0.0
 10
10.0385492204
 20
7.7923674631
 30
0.0
 10
10.0462474657
 20
7.7848560134
 30
0.0
 10
10.0532252185
 20
7.7766739739
 30
0.0
 10
10.0594154719
 20
7.7678998627
 30
0.0
 10
10.0647587202
 20
7.7586178628
 30
0.0
 10
10.0692035069
 20
7.7489169878
 30
0.0
 10
10.0727069756
 20
7.7388904122
 30
0.0
 10
10.0752351833
 20
7.7286340603
 30
0.0
 10
10.0767636383
 20
7.7182477167
 30
0.0
 10
10.0771071323
 20
7.7112767281
 30
0.0
 10
10.0771071323
 20
7.7078050506
 30
0.0
  0
SPLINE
  5
397
100
AcDbEntity
  8
0
100
AcDbSpline
 62
7
  6
CONTINUOUS
 70
0
 71
3
 72
40
 73
36
 74
0
 42
0.0000001
 43
0.0000001
 44
0.0000000001
 40
0.0
 40
0.0
 40
0.0
 40
0.0
 40
0.0301996485
 40
0.0603260018
 40
0.090408568
 40
0.1204780459
 40
0.1505653679
 40
0.1807007509
 40
0.2109127937
 40
0.2412276538
 40
0.271668329
 40
0.3022540629
 40
0.332999885
 40
0.3639162877
 40
0.3950090395
 40
0.4262791263
 40
0.4577228131
 40
0.4893318137
 40
0.5210935585
 40
0.5529915498
 40
0.5850057946
 40
0.617113306
 40
0.6492886656
 40
0.6815046383
 40
0.7137328315
 40
0.7459443904
 40
0.7781107186
 40
0.8102042124
 40
0.8421989889
 40
0.8740716197
 40
0.9058017396
 40
0.9373728967
 40
0.9530977775
 40
0.9687791407
 40
1.0
 40
1.0
 40
1.0
 40
1.0
 10
10.8945343941
 20
7.791546637
 30
0.0
 10
10.892977906
 20
7.7886801757
 30
0.0
 10
10.8896129163
 20
7.7830888222
 30
0.0
 10
10.8838453254
 20
7.7751940301
 30
0.0
 10
10.8774050846
 20
7.7678553024
 30
0.0
 10
10.8703387981
 20
7.7611237133
 30
0.0
 10
10.8626966244
 20
7.7550446589
 30
0.0
 10
10.8545325995
 20
7.749659032
 30
0.0
 10
10.8459039915
 20
7.7450026374
 30
0.0
 10
10.8368709111
 20
7.741106141
 30
0.0
 10
10.827495859
 20
7.7379949322
 30
0.0
 10
10.8178433031
 20
7.7356890572
 30
0.0
 10
10.8079792617
 20
7.7342031738
 30
0.0
 10
10.7979709024
 20
7.7335465332
 30
0.0
 10
10.7878861514
 20
7.7337229798
 30
0.0
 10
10.7777933124
 20
7.7347309667
 30
0.0
 10
10.767760691
 20
7.7365635846
 30
0.0
 10
10.7578562219
 20
7.7392086027
 30
0.0
 10
10.7481470938
 20
7.7426485223
 30
0.0
 10
10.7386993708
 20
7.746860645
 30
0.0
 10
10.7295776064
 20
7.7518171599
 30
0.0
 10
10.72084445
 20
7.7574852509
 30
0.0
 10
10.712560244
 20
7.7638272308
 30
0.0
 10
10.7047826143
 20
7.7708007062
 30
0.0
 10
10.6975660557
 20
7.7783587763
 30
0.0
 10
10.6909615157
 20
7.7864502736
 30
0.0
 10
10.6850159832
 20
7.795020042
 30
0.0
 10
10.6797720865
 20
7.8040092783
 30
0.0
 10
10.6752677112
 20
7.8133558556
 30
0.0
 10
10.6715356333
 20
7.8229949267
 30
0.0
 10
10.6686032472
 20
7.8328587139
 30
0.0
 10
10.6668414775
 20
7.8412208845
 30
0.0
 10
10.6658524126
 20
7.8479523968
 30
0.0
 10
10.6651463877
 20
7.8546810067
 30
0.0
 10
10.6649322566
 20
7.8597500598
 30
0.0
 10
10.6649322566
 20
7.8631221453
 30
0.0
  0
SPLINE
  5
398
100
AcDbEntity
  8
0
100
AcDbSpline
 62
7
  6
CONTINUOUS
 70
0
 71
3
 72
15
 73
11
 74
0
 42
0.0000001
 43
0.0000001
 44
0.0000000001
 40
0.0
 40
0.0
 40
0.0
 40
0.0
 40
0.1233171148
 40
0.2468171822
 40
0.3706750007
 40
0.4950496181
 40
0.6200773069
 40
0.7458672043
 40
0.8724928123
 40
1.0
 40
1.0
 40
1.0
 40
1.0
 10
11.2783337862
 20
7.5412456841
 30
0.0
 10
11.2765834637
 20
7.5395550215
 30
0.0
 10
11.2728949477
 20
7.5363571714
 30
0.0
 10
11.2668749761
 20
7.5321784252
 30
0.0
 10
11.2604243719
 20
7.5286558185
 30
0.0
 10
11.2536091842
 20
7.5258255272
 30
0.0
 10
11.2464981495
 20
7.5237156482
 30
0.0
 10
11.2391628953
 20
7.5223472969
 30
0.0
 10
11.2316782984
 20
7.5217337753
 30
0.0
 10
11.2266542768
 20
7.5218317755
 30
0.0
 10
11.2241441103
 20
7.5220058562
 30
0.0
  0
SPLINE
  5
399
100
AcDbEntity
  8
0
100
AcDbSpline
 62
7
  6
CONTINUOUS
 70
0
 71
3
 72
41
 73
37
 74
0
 42
0.0000001
 43
0.0000001
 44
0.0000000001
 40
0.0
 40
0.0
 40
0.0
 40
0.0
 40
0.0311444983
 40
0.062442467
 40
0.093887251
 40
0.1254695609
 40
0.157177086
 40
0.1889950997
 40
0.2209066479
 40
0.2528929497
 40
0.284933762
 40
0.3170077852
 40
0.3490930781
 40
0.3811674822
 40
0.4132090489
 40
0.445196464
 40
0.4771094635
 40
0.5089292351
 40
0.540638799
 40
0.5722233621
 40
0.6036706378
 40
0.6349711269
 40
0.6661183495
 40
0.6971090237
 40
0.7279431823
 40
0.7586242225
 40
0.7891588828
 40
0.8195571428
 40
0.8498320452
 40
0.86493089
 40
0.8800050502
 40
0.9100832578
 40
0.9400926753
 40
0.9550812784
 40
0.9700610371
 40
1.0
 40
1.0
 40
1.0
 40
1.0
 10
9.3714982535
 20
9.5789583239
 30
0.0
 10
9.3681843059
 20
9.5791881469
 30
0.0
 10
9.3615544379
 20
9.5798914997
 30
0.0
 10
9.351690021
 20
9.5816632308
 30
0.0
 10
9.3419312465
 20
9.584144934
 30
0.0
 10
9.3323308529
 20
9.5873232091
 30
0.0
 10
9.3229398182
 20
9.5911810555
 30
0.0
 10
9.3138082432
 20
9.5956978213
 30
0.0
 10
9.304984772
 20
9.6008493753
 30
0.0
 10
9.2965164209
 20
9.6066082095
 30
0.0
 10
9.2884483092
 20
9.612943596
 30
0.0
 10
9.2808234268
 20
9.6198217454
 30
0.0
 10
9.2736824067
 20
9.6272059872
 30
0.0
 10
9.2670633107
 20
9.6350569629
 30
0.0
 10
9.2610014286
 20
9.643332834
 30
0.0
 10
9.2555290921
 20
9.6519895026
 30
0.0
 10
9.250675503
 20
9.6609808436
 30
0.0
 10
9.2464665794
 20
9.6702589478
 30
0.0
 10
9.2429248171
 20
9.6797743742
 30
0.0
 10
9.2400691703
 20
9.6894764095
 30
0.0
 10
9.2379149494
 20
9.6993133353
 30
0.0
 10
9.2364737375
 20
9.7092327
 30
0.0
 10
9.2357533271
 20
9.7191815947
 30
0.0
 10
9.2357576729
 20
9.7291069302
 30
0.0
 10
9.2364868724
 20
9.7389557267
 30
0.0
 10
9.2379371397
 20
9.7486753569
 30
0.0
 10
9.2401008923
 20
9.7582139672
 30
0.0
 10
9.2429665163
 20
9.7675202298
 30
0.0
 10
9.2459300663
 20
9.7750484527
 30
0.0
 10
9.2486344496
 20
9.7809028192
 30
0.0
 10
9.2515530217
 20
9.7866298856
 30
0.0
 10
9.255605281
 20
9.7935570827
 30
0.0
 10
9.2601787414
 20
9.8001407623
 30
0.0
 10
9.2641308792
 20
9.8051731714
 30
0.0
 10
9.2682715598
 20
9.8100413162
 30
0.0
 10
9.271588956
 20
9.8135070369
 30
0.0
 10
9.2738857609
 20
9.8157255953
 30
0.0
  0
SPLINE
  5
39A
100
AcDbEntity
  8
0
100
AcDbSpline
 62
7
  6
CONTINUOUS
 70
0
 71
3
 72
80
 73
76
 74
0
 42
0.0000001
 43
0.0000001
 44
0.0000000001
 40
0.0
 40
0.0
 40
0.0
 40
0.0
 40
0.0027164327
 40
0.0054532447
 40
0.0082303176
 40
0.0110666212
 40
0.0139798388
 40
0.016986154
 40
0.0201001347
 40
0.0233346582
 40
0.0267010284
 40
0.0302089968
 40
0.0338669183
 40
0.0376819076
 40
0.0416598906
 40
0.0458058349
 40
0.0501237838
 40
0.0546169826
 40
0.0592880207
 40
0.0641388059
 40
0.0691707482
 40
0.0743847477
 40
0.0853596785
 40
0.0970635549
 40
0.1094903305
 40
0.1226296146
 40
0.1364673135
 40
0.1509861535
 40
0.1661660759
 40
0.1819845508
 40
0.1984168195
 40
0.2154361185
 40
0.2330138792
 40
0.2511198904
 40
0.2697224401
 40
0.2887884373
 40
0.3082835515
 40
0.3281723331
 40
0.348418324
 40
0.368984158
 40
0.3898316649
 40
0.4109219833
 40
0.4536720365
 40
0.4969140898
 40
0.5403224212
 40
0.5835697178
 40
0.6263302119
 40
0.6682828124
 40
0.6888582723
 40
0.7091151075
 40
0.7290159233
 40
0.74852422
 40
0.7676045125
 40
0.7862224423
 40
0.804344885
 40
0.8219400731
 40
0.8389777322
 40
0.8554292445
 40
0.8712678001
 40
0.8864685754
 40
0.9010089485
 40
0.9148687687
 40
0.92803068
 40
0.940480496
 40
0.9522076877
 40
0.9577984663
 40
0.9632066952
 40
0.9684323943
 40
0.9734759977
 40
0.9783383604
 40
0.9830208115
 40
0.987525367
 40
0.9918546057
 40
0.996011597
 40
1.0
 40
1.0
 40
1.0
 40
1.0
 10
12.7201543428
 20
8.3292779353
 30
0.0
 10
12.7209578172
 20
8.3292222097
 30
0.0
 10
12.7225666796
 20
8.3290376132
 30
0.0
 10
12.7249594814
 20
8.3285436257
 30
0.0
 10
12.72733421
 20
8.3278326974
 30
0.0
 10
12.729689152
 20
8.3269054389
 30
0.0
 10
12.7320231028
 20
8.3257627229
 30
0.0
 10
12.7343348758
 20
8.3244054456
 30
0.0
 10
12.7366233699
 20
8.3228345262
 30
0.0
 10
12.7388876196
 20
8.3210510281
 30
0.0
 10
12.7411265984
 20
8.3190559329
 30
0.0
 10
12.7433393653
 20
8.3168503626
 30
0.0
 10
12.7455249659
 20
8.3144354717
 30
0.0
 10
12.7476823866
 20
8.3118124531
 30
0.0
 10
12.749810707
 20
8.3089826548
 30
0.0
 10
12.7519088991
 20
8.305947444
 30
0.0
 10
12.7539759932
 20
8.3027083275
 30
0.0
 10
12.7560110241
 20
8.2992669072
 30
0.0
 10
12.7580129649
 20
8.2956248566
 30
0.0
 10
12.7599808853
 20
8.2917839986
 30
0.0
 10
12.7619138127
 20
8.2877462108
 30
0.0
 10
12.7644871537
 20
8.2820040621
 30
0.0
 10
12.7675990918
 20
8.2743386573
 30
0.0
 10
12.7711178538
 20
8.2645403309
 30
0.0
 10
12.7744751874
 20
8.2540101263
 30
0.0
 10
12.7776643363
 20
8.2427690076
 30
0.0
 10
12.780678869
 20
8.230839193
 30
0.0
 10
12.783512672
 20
8.2182444416
 30
0.0
 10
12.7861599872
 20
8.2050098782
 30
0.0
 10
12.7886154237
 20
8.1911619644
 30
0.0
 10
12.7908739865
 20
8.1767284327
 30
0.0
 10
12.7929310827
 20
8.1617382236
 30
0.0
 10
12.7947825252
 20
8.1462214141
 30
0.0
 10
12.7964245431
 20
8.1302091522
 30
0.0
 10
12.7978537885
 20
8.1137335963
 30
0.0
 10
12.7990673558
 20
8.0968278506
 30
0.0
 10
12.8000627753
 20
8.0795258928
 30
0.0
 10
12.8008380168
 20
8.061862501
 30
0.0
 10
12.8013914953
 20
8.0438731812
 30
0.0
 10
12.8017220693
 20
8.0255941113
 30
0.0
 10
12.8018290818
 20
8.007062019
 30
0.0
 10
12.8016725756
 20
7.9819526087
 30
0.0
 10
12.8009132324
 20
7.9502093482
 30
0.0
 10
12.7991236706
 20
7.9118815649
 30
0.0
 10
12.7964657878
 20
7.8734563354
 30
0.0
 10
12.7929609675
 20
7.8352424188
 30
0.0
 10
12.7886374618
 20
7.7975468801
 30
0.0
 10
12.7843543841
 20
7.7666213996
 30
0.0
 10
12.7805369149
 20
7.7423743509
 30
0.0
 10
12.7775112403
 20
7.7246228763
 30
0.0
 10
12.7743107378
 20
7.7072237044
 30
0.0
 10
12.7709418327
 20
7.6902117885
 30
0.0
 10
12.7674113338
 20
7.6736213269
 30
0.0
 10
12.7637263709
 20
7.6574856517
 30
0.0
 10
12.7598943865
 20
7.6418371763
 30
0.0
 10
12.75592312
 20
7.6267073278
 30
0.0
 10
12.7518205902
 20
7.6121264771
 30
0.0
 10
12.7475950924
 20
7.5981238691
 30
0.0
 10
12.7432551681
 20
7.5847275629
 30
0.0
 10
12.7388095879
 20
7.5719643778
 30
0.0
 10
12.7342673276
 20
7.5598598252
 30
0.0
 10
12.7296375525
 20
7.5484380647
 30
0.0
 10
12.7249295892
 20
7.5377217532
 30
0.0
 10
12.7201529098
 20
7.5277322851
 30
0.0
 10
12.7160604196
 20
7.519909764
 30
0.0
 10
12.7127526387
 20
7.5140388578
 30
0.0
 10
12.7103001842
 20
7.5098999468
 30
0.0
 10
12.7078377202
 20
7.5059569775
 30
0.0
 10
12.7053664657
 20
7.5022119064
 30
0.0
 10
12.7028876781
 20
7.4986665875
 30
0.0
 10
12.7004025223
 20
7.4953227849
 30
0.0
 10
12.697912225
 20
7.4921820978
 30
0.0
 10
12.695417928
 20
7.4892460813
 30
0.0
 10
12.6929210009
 20
7.4865163289
 30
0.0
 10
12.6912208402
 20
7.4847999497
 30
0.0
 10
12.6903702962
 20
7.4839783872
 30
0.0
  0
SPLINE
  5
39B
100
AcDbEntity
  8
0
100
AcDbSpline
 62
4
  6
CONTINUOUS
 70
0
 71
3
 72
313
 73
309
 74
0
 42
0.0000001
 43
0.0000001
 44
0.0000000001
 40
0.0
 40
0.0
 40
0.0
 40
0.0
 40
0.015625
 40
0.0234375
 40
0.03125
 40
0.0390625
 40
0.046875
 40
0.05078125
 40
0.0546875
 40
0.056640625
 40
0.05859375
 40
0.060546875
 40
0.0615234375
 40
0.0620117188
 40
0.0625
 40
0.0629882812
 40
0.0634765625
 40
0.064453125
 40
0.06640625
 40
0.068359375
 40
0.0703125
 40
0.07421875
 40
0.078125
 40
0.0859375
 40
0.09375
 40
0.1015625
 40
0.109375
 40
0.11328125
 40
0.1171875
 40
0.119140625
 40
0.12109375
 40
0.123046875
 40
0.1240234375
 40
0.1245117188
 40
0.125
 40
0.1254882812
 40
0.1259765625
 40
0.126953125
 40
0.12890625
 40
0.130859375
 40
0.1328125
 40
0.13671875
 40
0.140625
 40
0.1484375
 40
0.15625
 40
0.1640625
 40
0.171875
 40
0.17578125
 40
0.1796875
 40
0.181640625
 40
0.18359375
 40
0.185546875
 40
0.1865234375
 40
0.1870117188
 40
0.1875
 40
0.1879882812
 40
0.1884765625
 40
0.189453125
 40
0.19140625
 40
0.193359375
 40
0.1953125
 40
0.19921875
 40
0.203125
 40
0.2109375
 40
0.21875
 40
0.2265625
 40
0.234375
 40
0.23828125
 40
0.2421875
 40
0.244140625
 40
0.24609375
 40
0.248046875
 40
0.2490234375
 40
0.2495117188
 40
0.25
 40
0.2504882812
 40
0.2509765625
 40
0.251953125
 40
0.25390625
 40
0.255859375
 40
0.2578125
 40
0.26171875
 40
0.265625
 40
0.2734375
 40
0.28125
 40
0.2890625
 40
0.296875
 40
0.30078125
 40
0.3046875
 40
0.306640625
 40
0.30859375
 40
0.310546875
 40
0.3115234375
 40
0.3120117188
 40
0.3125
 40
0.3129882812
 40
0.3134765625
 40
0.314453125
 40
0.31640625
 40
0.318359375
 40
0.3203125
 40
0.32421875
 40
0.328125
 40
0.3359375
 40
0.34375
 40
0.3515625
 40
0.359375
 40
0.36328125
 40
0.3671875
 40
0.369140625
 40
0.37109375
 40
0.373046875
 40
0.3740234375
 40
0.3745117188
 40
0.375
 40
0.3754882812
 40
0.3759765625
 40
0.376953125
 40
0.37890625
 40
0.380859375
 40
0.3828125
 40
0.38671875
 40
0.390625
 40
0.3984375
 40
0.40625
 40
0.4140625
 40
0.421875
 40
0.42578125
 40
0.4296875
 40
0.431640625
 40
0.43359375
 40
0.435546875
 40
0.4365234375
 40
0.4370117188
 40
0.4375
 40
0.4379882812
 40
0.4384765625
 40
0.439453125
 40
0.44140625
 40
0.443359375
 40
0.4453125
 40
0.44921875
 40
0.453125
 40
0.4609375
 40
0.46875
 40
0.4765625
 40
0.484375
 40
0.48828125
 40
0.4921875
 40
0.494140625
 40
0.49609375
 40
0.498046875
 40
0.4990234375
 40
0.4995117188
 40
0.5
 40
0.5004882812
 40
0.5009765625
 40
0.501953125
 40
0.50390625
 40
0.505859375
 40
0.5078125
 40
0.51171875
 40
0.515625
 40
0.5234375
 40
0.53125
 40
0.5390625
 40
0.546875
 40
0.55078125
 40
0.5546875
 40
0.556640625
 40
0.55859375
 40
0.560546875
 40
0.5615234375
 40
0.5620117188
 40
0.5625
 40
0.5629882812
 40
0.5634765625
 40
0.564453125
 40
0.56640625
 40
0.568359375
 40
0.5703125
 40
0.57421875
 40
0.578125
 40
0.5859375
 40
0.59375
 40
0.6015625
 40
0.609375
 40
0.61328125
 40
0.6171875
 40
0.619140625
 40
0.62109375
 40
0.623046875
 40
0.6240234375
 40
0.6245117188
 40
0.625
 40
0.6254882812
 40
0.6259765625
 40
0.626953125
 40
0.62890625
 40
0.630859375
 40
0.6328125
 40
0.63671875
 40
0.640625
 40
0.6484375
 40
0.65625
 40
0.6640625
 40
0.671875
 40
0.67578125
 40
0.6796875
 40
0.681640625
 40
0.68359375
 40
0.685546875
 40
0.6865234375
 40
0.6870117188
 40
0.6875
 40
0.6879882812
 40
0.6884765625
 40
0.689453125
 40
0.69140625
 40
0.693359375
 40
0.6953125
 40
0.69921875
 40
0.703125
 40
0.7109375
 40
0.71875
 40
0.7265625
 40
0.734375
 40
0.73828125
 40
0.7421875
 40
0.744140625
 40
0.74609375
 40
0.748046875
 40
0.7490234375
 40
0.7495117188
 40
0.75
 40
0.7504882812
 40
0.7509765625
 40
0.751953125
 40
0.75390625
 40
0.755859375
 40
0.7578125
 40
0.76171875
 40
0.765625
 40
0.7734375
 40
0.78125
 40
0.7890625
 40
0.796875
 40
0.80078125
 40
0.8046875
 40
0.806640625
 40
0.80859375
 40
0.810546875
 40
0.8115234375
 40
0.8120117188
 40
0.8125
 40
0.8129882812
 40
0.8134765625
 40
0.814453125
 40
0.81640625
 40
0.818359375
 40
0.8203125
 40
0.82421875
 40
0.828125
 40
0.8359375
 40
0.84375
 40
0.8515625
 40
0.859375
 40
0.86328125
 40
0.8671875
 40
0.869140625
 40
0.87109375
 40
0.873046875
 40
0.8740234375
 40
0.8745117188
 40
0.875
 40
0.8754882812
 40
0.8759765625
 40
0.876953125
 40
0.87890625
 40
0.880859375
 40
0.8828125
 40
0.88671875
 40
0.890625
 40
0.8984375
 40
0.90625
 40
0.9140625
 40
0.921875
 40
0.92578125
 40
0.9296875
 40
0.931640625
 40
0.93359375
 40
0.935546875
 40
0.9365234375
 40
0.9370117188
 40
0.9375
 40
0.9379882812
 40
0.9384765625
 40
0.939453125
 40
0.94140625
 40
0.943359375
 40
0.9453125
 40
0.94921875
 40
0.953125
 40
0.9609375
 40
0.96875
 40
0.9765625
 40
0.984375
 40
1.0
 40
1.0
 40
1.0
 40
1.0
 10
10.8957293064
 20
9.398393348
 30
0.0
 10
10.8959341142
 20
9.3962903533
 30
0.0
 10
10.8962413257
 20
9.3931358611
 30
0.0
 10
10.8966509417
 20
9.3889298717
 30
0.0
 10
10.896958152
 20
9.3857753794
 30
0.0
 10
10.8972653686
 20
9.3826208879
 30
0.0
 10
10.897521363
 20
9.3799921425
 30
0.0
 10
10.897726202
 20
9.3778891518
 30
0.0
 10
10.8978541275
 20
9.3765747699
 30
0.0
 10
10.8979566942
 20
9.3755232934
 30
0.0
 10
10.8980329998
 20
9.3747346064
 30
0.0
 10
10.8980985581
 20
9.3740776207
 30
0.0
 10
10.8981405824
 20
9.3736172333
 30
0.0
 10
10.8981706334
 20
9.3733549315
 30
0.0
 10
10.898176165
 20
9.3731560171
 30
0.0
 10
10.898246705
 20
9.3729654664
 30
0.0
 10
10.8983180827
 20
9.3727084815
 30
0.0
 10
10.8984535587
 20
9.3722601171
 30
0.0
 10
10.8986415724
 20
9.3716188859
 30
0.0
 10
10.898869553
 20
9.3708497127
 30
0.0
 10
10.8991727013
 20
9.3698240421
 30
0.0
 10
10.8995519196
 20
9.3685419903
 30
0.0
 10
10.9001585106
 20
9.366490687
 30
0.0
 10
10.900916804
 20
9.363926565
 30
0.0
 10
10.9018267313
 20
9.360849615
 30
0.0
 10
10.9027366706
 20
9.3577726679
 30
0.0
 10
10.9034949337
 20
9.3552085388
 30
0.0
 10
10.9041015854
 20
9.3531572496
 30
0.0
 10
10.9044806496
 20
9.351875162
 30
0.0
 10
10.9047841141
 20
9.3508495649
 30
0.0
 10
10.9050111288
 20
9.350080167
 30
0.0
 10
10.9052021646
 20
9.3494396387
 30
0.0
 10
10.9053322455
 20
9.3489900196
 30
0.0
 10
10.9054122675
 20
9.348735045
 30
0.0
 10
10.9054562551
 20
9.3485383191
 30
0.0
 10
10.9055615131
 20
9.3483625979
 30
0.0
 10
10.9056804852
 20
9.3481209762
 30
0.0
 10
10.905898644
 20
9.347701552
 30
0.0
 10
10.9062050935
 20
9.3471005898
 30
0.0
 10
10.9065750612
 20
9.346380199
 30
0.0
 10
10.9070675731
 20
9.3454194112
 30
0.0
 10
10.9076834795
 20
9.3442185178
 30
0.0
 10
10.9086687808
 20
9.3422970373
 30
0.0
 10
10.9099004589
 20
9.3398952043
 30
0.0
 10
10.9113784491
 20
9.3370129965
 30
0.0
 10
10.9128564509
 20
9.3341307934
 30
0.0
 10
10.9140881
 20
9.3317289487
 30
0.0
 10
10.9150734592
 20
9.3298074918
 30
0.0
 10
10.9156892183
 20
9.3286065383
 30
0.0
 10
10.9161820326
 20
9.3276458738
 30
0.0
 10
10.9165510766
 20
9.3269251063
 30
0.0
 10
10.9168604161
 20
9.3263253228
 30
0.0
 10
10.9170734158
 20
9.3259037944
 30
0.0
 10
10.9172006541
 20
9.3256655442
 30
0.0
 10
10.917280521
 20
9.325479467
 30
0.0
 10
10.9174198731
 20
9.3253216362
 30
0.0
 10
10.9175849268
 20
9.3251013425
 30
0.0
 10
10.9178834382
 20
9.3247204191
 30
0.0
 10
10.9183048288
 20
9.3241738428
 30
0.0
 10
10.9188126608
 20
9.3235189785
 30
0.0
 10
10.9194890147
 20
9.3226454673
 30
0.0
 10
10.9203347157
 20
9.3215537012
 30
0.0
 10
10.9216876926
 20
9.3198068066
 30
0.0
 10
10.9233789637
 20
9.3176232123
 30
0.0
 10
10.9254084666
 20
9.3150028878
 30
0.0
 10
10.9274379793
 20
9.3123825706
 30
0.0
 10
10.9291292257
 20
9.3101989578
 30
0.0
 10
10.9304822521
 20
9.3084521003
 30
0.0
 10
10.9313278274
 20
9.3073602401
 30
0.0
 10
10.9320044391
 20
9.306486922
 30
0.0
 10
10.9325114835
 20
9.3058314677
 30
0.0
 10
10.9329353385
 20
9.3052867376
 30
0.0
 10
10.9332294504
 20
9.3049025183
 30
0.0
 10
10.9334015532
 20
9.3046875054
 30
0.0
 10
10.9335192528
 20
9.3045134538
 30
0.0
 10
10.933680443
 20
9.3043882993
 30
0.0
 10
10.9338801934
 20
9.3042043707
 30
0.0
 10
10.9342368245
 20
9.3038904423
 30
0.0
 10
10.9347426022
 20
9.3034378186
 30
0.0
 10
10.9353511171
 20
9.3028964485
 30
0.0
 10
10.936161918
 20
9.3021740005
 30
0.0
 10
10.9371756082
 20
9.3012711533
 30
0.0
 10
10.9387974068
 20
9.2998264787
 30
0.0
 10
10.9408246915
 20
9.2980206766
 30
0.0
 10
10.9432574166
 20
9.2958536953
 30
0.0
 10
10.9456901494
 20
9.2936867236
 30
0.0
 10
10.9477174149
 20
9.2918808972
 30
0.0
 10
10.949339252
 20
9.2904362713
 30
0.0
 10
10.9503528442
 20
9.2895333004
 30
0.0
 10
10.9511638462
 20
9.2888111063
 30
0.0
 10
10.9517717465
 20
9.2882689605
 30
0.0
 10
10.9522794474
 20
9.2878187638
 30
0.0
 10
10.9526326453
 20
9.2875005028
 30
0.0
 10
10.9528378964
 20
9.2873235162
 30
0.0
 10
10.9529821902
 20
9.2871770383
 30
0.0
 10
10.9531633501
 20
9.2870830736
 30
0.0
 10
10.9533920373
 20
9.2869394702
 30
0.0
 10
10.9537982314
 20
9.2866966985
 30
0.0
 10
10.9543753762
 20
9.28634542
 30
0.0
 10
10.9550692907
 20
9.2859257956
 30
0.0
 10
10.9559940418
 20
9.2853656293
 30
0.0
 10
10.957150141
 20
9.2846656499
 30
0.0
 10
10.9589998101
 20
9.2835455551
 30
0.0
 10
10.9613119274
 20
9.2821454808
 30
0.0
 10
10.9640864542
 20
9.2804653713
 30
0.0
 10
10.9668609871
 20
9.2787852725
 30
0.0
 10
10.9691730894
 20
9.2773851713
 30
0.0
 10
10.9710227884
 20
9.2762651303
 30
0.0
 10
10.9721788116
 20
9.2755650143
 30
0.0
 10
10.9731037187
 20
9.2750051283
 30
0.0
 10
10.9737971565
 20
9.2745846477
 30
0.0
 10
10.9743757931
 20
9.274236048
 30
0.0
 10
10.974779324
 20
9.2739884943
 30
0.0
 10
10.9750122782
 20
9.2738525528
 30
0.0
 10
10.9751803313
 20
9.2737350531
 30
0.0
 10
10.975373852
 20
9.273676969
 30
0.0
 10
10.9756229961
 20
9.2735787986
 30
0.0
 10
10.9760631373
 20
9.2734166566
 30
0.0
 10
10.9766897466
 20
9.2731799769
 30
0.0
 10
10.977442604
 20
9.272898122
 30
0.0
 10
10.9784460903
 20
9.2725215607
 30
0.0
 10
10.9797005589
 20
9.2720511176
 30
0.0
 10
10.9817076468
 20
9.2712982642
 30
0.0
 10
10.9842165281
 20
9.2703572472
 30
0.0
 10
10.9872271759
 20
9.269228004
 30
0.0
 10
10.9902378281
 20
9.2680987726
 30
0.0
 10
10.9927466986
 20
9.2671577262
 30
0.0
 10
10.9947538079
 20
9.2664049317
 30
0.0
 10
10.9960082221
 20
9.2659343385
 30
0.0
 10
10.9970118202
 20
9.2655580854
 30
0.0
 10
10.9977643361
 20
9.2652752893
 30
0.0
 10
10.9983920137
 20
9.2650415542
 30
0.0
 10
10.9988302477
 20
9.2648741555
 30
0.0
 10
10.9990824476
 20
9.2647844077
 30
0.0
 10
10.999266582
 20
9.2647004524
 30
0.0
 10
10.9994698885
 20
9.2646801202
 30
0.0
 10
10.9997342763
 20
9.2646308182
 30
0.0
 10
11.0002000709
 20
9.2645548795
 30
0.0
 10
11.0008638627
 20
9.2644409899
 30
0.0
 10
11.0016611101
 20
9.2643066362
 30
0.0
 10
11.0027238631
 20
9.2641266898
 30
0.0
 10
11.0040523877
 20
9.2639020335
 30
0.0
 10
11.0061779805
 20
9.2635424286
 30
0.0
 10
11.0088349875
 20
9.2630929761
 30
0.0
 10
11.0120233892
 20
9.2625536084
 30
0.0
 10
11.0152117922
 20
9.2620142534
 30
0.0
 10
11.017868796
 20
9.2615647693
 30
0.0
 10
11.0199943952
 20
9.2612052276
 30
0.0
 10
11.0213229037
 20
9.2609804109
 30
0.0
 10
11.0223856898
 20
9.2608007937
 30
0.0
 10
11.0231828361
 20
9.2606654341
 30
0.0
 10
11.0238469442
 20
9.2605546915
 30
0.0
 10
11.0243121741
 20
9.2604731349
 30
0.0
 10
11.0245774667
 20
9.2604328343
 30
0.0
 10
11.0247779941
 20
9.2603848525
 30
0.0
 10
11.0249725661
 20
9.2604047445
 30
0.0
 10
11.0252340727
 20
9.260407592
 30
0.0
 10
11.0256907413
 20
9.2604236057
 30
0.0
 10
11.0263436311
 20
9.2604407156
 30
0.0
 10
11.0271268823
 20
9.2604637159
 30
0.0
 10
11.0281712928
 20
9.2604935208
 30
0.0
 10
11.0294767801
 20
9.2605310721
 30
0.0
 10
11.0315655743
 20
9.2605909891
 30
0.0
 10
11.0341765619
 20
9.2606659424
 30
0.0
 10
11.0373097495
 20
9.2607558603
 30
0.0
 10
11.0404429354
 20
9.2608457911
 30
0.0
 10
11.0430539275
 20
9.2609207123
 30
0.0
 10
11.0451427126
 20
9.2609806935
 30
0.0
 10
11.0464482229
 20
9.2610180816
 30
0.0
 10
11.0474925863
 20
9.2610482214
 30
0.0
 10
11.0482759815
 20
9.2610701985
 30
0.0
 10
11.0489284207
 20
9.2610905099
 30
0.0
 10
11.0493858937
 20
9.2611008083
 30
0.0
 10
11.0496461115
 20
9.2611128132
 30
0.0
 10
11.0498446422
 20
9.2611045766
 30
0.0
 10
11.050030301
 20
9.2611622412
 30
0.0
 10
11.0502823358
 20
9.2612161402
 30
0.0
 10
11.0507213049
 20
9.2613211736
 30
0.0
 10
11.0513494973
 20
9.2614656219
 30
0.0
 10
11.0521028601
 20
9.2616413567
 30
0.0
 10
11.0531075072
 20
9.2618748325
 30
0.0
 10
11.0543632602
 20
9.262166964
 30
0.0
 10
11.0563724962
 20
9.262634214
 30
0.0
 10
11.0588840304
 20
9.263218332
 30
0.0
 10
11.0618978767
 20
9.2639192482
 30
0.0
 10
11.0649117194
 20
9.2646201769
 30
0.0
 10
11.0674232627
 20
9.2652042639
 30
0.0
 10
11.0694324804
 20
9.2656715758
 30
0.0
 10
11.0706882799
 20
9.26596355
 30
0.0
 10
11.0716928316
 20
9.2661973486
 30
0.0
 10
11.072446486
 20
9.2663720972
 30
0.0
 10
11.0730737659
 20
9.266519631
 30
0.0
 10
11.0735143639
 20
9.2666191564
 30
0.0
 10
11.0737637889
 20
9.2666818807
 30
0.0
 10
11.0739574643
 20
9.2667124369
 30
0.0
 10
11.0741258859
 20
9.2668060147
 30
0.0
 10
11.0743592568
 20
9.2669088026
 30
0.0
 10
11.0747635517
 20
9.2670989234
 30
0.0
 10
11.0753432615
 20
9.2673651699
 30
0.0
 10
11.0760379949
 20
9.2676869576
 30
0.0
 10
11.0769646269
 20
9.2681152074
 30
0.0
 10
11.0781228071
 20
9.2686507938
 30
0.0
 10
11.0799759567
 20
9.2695075787
 30
0.0
 10
11.0822923725
 20
9.2705786128
 30
0.0
 10
11.0850720813
 20
9.2718638295
 30
0.0
 10
11.0878517846
 20
9.2731490582
 30
0.0
 10
11.0901682143
 20
9.2742200624
 30
0.0
 10
11.0920213363
 20
9.2750769072
 30
0.0
 10
11.0931795867
 20
9.2756123414
 30
0.0
 10
11.0941060744
 20
9.2760409035
 30
0.0
 10
11.0948012486
 20
9.276361737
 30
0.0
 10
11.0953795793
 20
9.2766309691
 30
0.0
 10
11.0957863362
 20
9.2768157601
 30
0.0
 10
11.0960157624
 20
9.2769270877
 30
0.0
 10
11.0961963008
 20
9.2769944342
 30
0.0
 10
11.0963444675
 20
9.2771235109
 30
0.0
 10
11.0965533146
 20
9.277274081
 30
0.0
 10
11.0969135362
 20
9.2775476109
 30
0.0
 10
11.097430889
 20
9.277933123
 30
0.0
 10
11.098050535
 20
9.2783979824
 30
0.0
 10
11.0988771409
 20
9.279017011
 30
0.0
 10
11.0999102575
 20
9.2797910651
 30
0.0
 10
11.1015633227
 20
9.2810294016
 30
0.0
 10
11.103629627
 20
9.282577374
 30
0.0
 10
11.1061092051
 20
9.2844349175
 30
0.0
 10
11.108588775
 20
9.2862924715
 30
0.0
 10
11.1106550995
 20
9.2878404178
 30
0.0
 10
11.1123081243
 20
9.2890788065
 30
0.0
 10
11.1133413437
 20
9.2898527279
 30
0.0
 10
11.1141677386
 20
9.2904720288
 30
0.0
 10
11.1147880293
 20
9.2909360559
 30
0.0
 10
11.1153033649
 20
9.2913241723
 30
0.0
 10
11.1156671874
 20
9.291593053
 30
0.0
 10
11.115870265
 20
9.2917510723
 30
0.0
 10
11.1160361541
 20
9.2918572675
 30
0.0
 10
11.1161501301
 20
9.2920105535
 30
0.0
 10
11.1163202059
 20
9.292198509
 30
0.0
 10
11.1166094018
 20
9.2925350843
 30
0.0
 10
11.1170269497
 20
9.293011905
 30
0.0
 10
11.1175261192
 20
9.2935858024
 30
0.0
 10
11.1181923379
 20
9.2943504008
 30
0.0
 10
11.1190248855
 20
9.2953063536
 30
0.0
 10
11.1203570879
 20
9.2968357637
 30
0.0
 10
11.1220222974
 20
9.2987475657
 30
0.0
 10
11.1240205687
 20
9.3010417103
 30
0.0
 10
11.1260188297
 20
9.3033358632
 30
0.0
 10
11.1276840648
 20
9.3052476442
 30
0.0
 10
11.1290162159
 20
9.3067770964
 30
0.0
 10
11.129848894
 20
9.3077329421
 30
0.0
 10
11.1305148449
 20
9.3084977603
 30
0.0
 10
11.1310148327
 20
9.3090709863
 30
0.0
 10
11.1314298202
 20
9.3095499077
 30
0.0
 10
11.1317235868
 20
9.3098827329
 30
0.0
 10
11.1318863393
 20
9.310076697
 30
0.0
 10
11.1320228103
 20
9.3102115265
 30
0.0
 10
11.1321042115
 20
9.3103870412
 30
0.0
 10
11.1322319554
 20
9.3106068694
 30
0.0
 10
11.1324465575
 20
9.3109981807
 30
0.0
 10
11.1327578108
 20
9.31155374
 30
0.0
 10
11.1331293121
 20
9.3122218909
 30
0.0
 10
11.1336253467
 20
9.3131122418
 30
0.0
 10
11.1342451503
 20
9.3142253575
 30
0.0
 10
11.1352369701
 20
9.3160062437
 30
0.0
 10
11.1364766985
 20
9.3182323855
 30
0.0
 10
11.137964394
 20
9.3209037403
 30
0.0
 10
11.1394520783
 20
9.3235751019
 30
0.0
 10
11.1406918346
 20
9.3258012268
 30
0.0
 10
11.1416835986
 20
9.3275821468
 30
0.0
 10
11.1423035441
 20
9.3286951766
 30
0.0
 10
11.1427992876
 20
9.3295857038
 30
0.0
 10
11.1431716781
 20
9.3302533162
 30
0.0
 10
11.1434801492
 20
9.3308105602
 30
0.0
 10
11.1436997179
 20
9.331198864
 30
0.0
 10
11.143819504
 20
9.331423511
 30
0.0
 10
11.1439253492
 20
9.3315842238
 30
0.0
 10
11.1439700126
 20
9.331774647
 30
0.0
 10
11.1440509048
 20
9.3320181813
 30
0.0
 10
11.1441825229
 20
9.3324491947
 30
0.0
 10
11.1443757471
 20
9.3330624039
 30
0.0
 10
11.1446053912
 20
9.3337993354
 30
0.0
 10
11.1449123604
 20
9.3347815333
 30
0.0
 10
11.1452958058
 20
9.3360094099
 30
0.0
 10
11.1459094673
 20
9.3379739402
 30
0.0
 10
11.1466764927
 20
9.340429628
 30
0.0
 10
11.1475969468
 20
9.3433764422
 30
0.0
 10
11.1485173887
 20
9.3463232615
 30
0.0
 10
11.1492844444
 20
9.3487789365
 30
0.0
 10
11.1498980453
 20
9.3507434925
 30
0.0
 10
11.1502816446
 20
9.3519713039
 30
0.0
 10
11.150588298
 20
9.3529536355
 30
0.0
 10
11.1508189069
 20
9.3536901586
 30
0.0
 10
11.1510091125
 20
9.3543046455
 30
0.0
 10
11.1511461195
 20
9.354733378
 30
0.0
 10
11.1512183772
 20
9.3549805669
 30
0.0
 10
11.1512895627
 20
9.3551597645
 30
0.0
 10
11.1512957956
 20
9.3553626388
 30
0.0
 10
11.1513267622
 20
9.3556248792
 30
0.0
 10
11.1513703979
 20
9.3560876478
 30
0.0
 10
11.1514382534
 20
9.3567467341
 30
0.0
 10
11.1515173178
 20
9.3575384987
 30
0.0
 10
11.1516235621
 20
9.3585938842
 30
0.0
 10
11.1517560849
 20
9.3599132189
 30
0.0
 10
11.1519682793
 20
9.3620240969
 30
0.0
 10
11.1522334682
 20
9.3646627142
 30
0.0
 10
11.152551718
 20
9.3678290465
 30
0.0
 10
11.1528699616
 20
9.3709953811
 30
0.0
 10
11.1532942887
 20
9.3752171597
 30
0.0
 10
11.1536125334
 20
9.3783834938
 30
0.0
 10
11.1538246967
 20
9.3804943832
 30
0.0
  0
SPLINE
  5
39C
100
AcDbEntity
  8
0
100
AcDbSpline
 62
4
  6
CONTINUOUS
 70
0
 71
3
 72
313
 73
309
 74
0
 42
0.0000001
 43
0.0000001
 44
0.0000000001
 40
0.0
 40
0.0
 40
0.0
 40
0.0
 40
0.015625
 40
0.0234375
 40
0.03125
 40
0.0390625
 40
0.046875
 40
0.05078125
 40
0.0546875
 40
0.056640625
 40
0.05859375
 40
0.060546875
 40
0.0615234375
 40
0.0620117188
 40
0.0625
 40
0.0629882812
 40
0.0634765625
 40
0.064453125
 40
0.06640625
 40
0.068359375
 40
0.0703125
 40
0.07421875
 40
0.078125
 40
0.0859375
 40
0.09375
 40
0.1015625
 40
0.109375
 40
0.11328125
 40
0.1171875
 40
0.119140625
 40
0.12109375
 40
0.123046875
 40
0.1240234375
 40
0.1245117188
 40
0.125
 40
0.1254882812
 40
0.1259765625
 40
0.126953125
 40
0.12890625
 40
0.130859375
 40
0.1328125
 40
0.13671875
 40
0.140625
 40
0.1484375
 40
0.15625
 40
0.1640625
 40
0.171875
 40
0.17578125
 40
0.1796875
 40
0.181640625
 40
0.18359375
 40
0.185546875
 40
0.1865234375
 40
0.1870117188
 40
0.1875
 40
0.1879882812
 40
0.1884765625
 40
0.189453125
 40
0.19140625
 40
0.193359375
 40
0.1953125
 40
0.19921875
 40
0.203125
 40
0.2109375
 40
0.21875
 40
0.2265625
 40
0.234375
 40
0.23828125
 40
0.2421875
 40
0.244140625
 40
0.24609375
 40
0.248046875
 40
0.2490234375
 40
0.2495117188
 40
0.25
 40
0.2504882812
 40
0.2509765625
 40
0.251953125
 40
0.25390625
 40
0.255859375
 40
0.2578125
 40
0.26171875
 40
0.265625
 40
0.2734375
 40
0.28125
 40
0.2890625
 40
0.296875
 40
0.30078125
 40
0.3046875
 40
0.306640625
 40
0.30859375
 40
0.310546875
 40
0.3115234375
 40
0.3120117188
 40
0.3125
 40
0.3129882812
 40
0.3134765625
 40
0.314453125
 40
0.31640625
 40
0.318359375
 40
0.3203125
 40
0.32421875
 40
0.328125
 40
0.3359375
 40
0.34375
 40
0.3515625
 40
0.359375
 40
0.36328125
 40
0.3671875
 40
0.369140625
 40
0.37109375
 40
0.373046875
 40
0.3740234375
 40
0.3745117188
 40
0.375
 40
0.3754882812
 40
0.3759765625
 40
0.376953125
 40
0.37890625
 40
0.380859375
 40
0.3828125
 40
0.38671875
 40
0.390625
 40
0.3984375
 40
0.40625
 40
0.4140625
 40
0.421875
 40
0.42578125
 40
0.4296875
 40
0.431640625
 40
0.43359375
 40
0.435546875
 40
0.4365234375
 40
0.4370117188
 40
0.4375
 40
0.4379882812
 40
0.4384765625
 40
0.439453125
 40
0.44140625
 40
0.443359375
 40
0.4453125
 40
0.44921875
 40
0.453125
 40
0.4609375
 40
0.46875
 40
0.4765625
 40
0.484375
 40
0.48828125
 40
0.4921875
 40
0.494140625
 40
0.49609375
 40
0.498046875
 40
0.4990234375
 40
0.4995117188
 40
0.5
 40
0.5004882812
 40
0.5009765625
 40
0.501953125
 40
0.50390625
 40
0.505859375
 40
0.5078125
 40
0.51171875
 40
0.515625
 40
0.5234375
 40
0.53125
 40
0.5390625
 40
0.546875
 40
0.55078125
 40
0.5546875
 40
0.556640625
 40
0.55859375
 40
0.560546875
 40
0.5615234375
 40
0.5620117188
 40
0.5625
 40
0.5629882812
 40
0.5634765625
 40
0.564453125
 40
0.56640625
 40
0.568359375
 40
0.5703125
 40
0.57421875
 40
0.578125
 40
0.5859375
 40
0.59375
 40
0.6015625
 40
0.609375
 40
0.61328125
 40
0.6171875
 40
0.619140625
 40
0.62109375
 40
0.623046875
 40
0.6240234375
 40
0.6245117188
 40
0.625
 40
0.6254882812
 40
0.6259765625
 40
0.626953125
 40
0.62890625
 40
0.630859375
 40
0.6328125
 40
0.63671875
 40
0.640625
 40
0.6484375
 40
0.65625
 40
0.6640625
 40
0.671875
 40
0.67578125
 40
0.6796875
 40
0.681640625
 40
0.68359375
 40
0.685546875
 40
0.6865234375
 40
0.6870117188
 40
0.6875
 40
0.6879882812
 40
0.6884765625
 40
0.689453125
 40
0.69140625
 40
0.693359375
 40
0.6953125
 40
0.69921875
 40
0.703125
 40
0.7109375
 40
0.71875
 40
0.7265625
 40
0.734375
 40
0.73828125
 40
0.7421875
 40
0.744140625
 40
0.74609375
 40
0.748046875
 40
0.7490234375
 40
0.7495117188
 40
0.75
 40
0.7504882812
 40
0.7509765625
 40
0.751953125
 40
0.75390625
 40
0.755859375
 40
0.7578125
 40
0.76171875
 40
0.765625
 40
0.7734375
 40
0.78125
 40
0.7890625
 40
0.796875
 40
0.80078125
 40
0.8046875
 40
0.806640625
 40
0.80859375
 40
0.810546875
 40
0.8115234375
 40
0.8120117188
 40
0.8125
 40
0.8129882812
 40
0.8134765625
 40
0.814453125
 40
0.81640625
 40
0.818359375
 40
0.8203125
 40
0.82421875
 40
0.828125
 40
0.8359375
 40
0.84375
 40
0.8515625
 40
0.859375
 40
0.86328125
 40
0.8671875
 40
0.869140625
 40
0.87109375
 40
0.873046875
 40
0.8740234375
 40
0.8745117188
 40
0.875
 40
0.8754882812
 40
0.8759765625
 40
0.876953125
 40
0.87890625
 40
0.880859375
 40
0.8828125
 40
0.88671875
 40
0.890625
 40
0.8984375
 40
0.90625
 40
0.9140625
 40
0.921875
 40
0.92578125
 40
0.9296875
 40
0.931640625
 40
0.93359375
 40
0.935546875
 40
0.9365234375
 40
0.9370117188
 40
0.9375
 40
0.9379882812
 40
0.9384765625
 40
0.939453125
 40
0.94140625
 40
0.943359375
 40
0.9453125
 40
0.94921875
 40
0.953125
 40
0.9609375
 40
0.96875
 40
0.9765625
 40
0.984375
 40
1.0
 40
1.0
 40
1.0
 40
1.0
 10
11.1538246967
 20
9.3804943719
 30
0.0
 10
11.1536198889
 20
9.3825973667
 30
0.0
 10
11.1533126774
 20
9.3857518588
 30
0.0
 10
11.1529030614
 20
9.3899578482
 30
0.0
 10
11.1525958511
 20
9.3931123405
 30
0.0
 10
11.1522886345
 20
9.396266832
 30
0.0
 10
11.1520326401
 20
9.3988955774
 30
0.0
 10
11.1518278011
 20
9.4009985681
 30
0.0
 10
11.1516998756
 20
9.4023129501
 30
0.0
 10
11.1515973089
 20
9.4033644265
 30
0.0
 10
11.1515210033
 20
9.4041531135
 30
0.0
 10
11.151455445
 20
9.4048100992
 30
0.0
 10
11.1514134207
 20
9.4052704866
 30
0.0
 10
11.1513833697
 20
9.4055327884
 30
0.0
 10
11.1513778382
 20
9.4057317028
 30
0.0
 10
11.1513072981
 20
9.4059222535
 30
0.0
 10
11.1512359204
 20
9.4061792384
 30
0.0
 10
11.1511004444
 20
9.4066276028
 30
0.0
 10
11.1509124307
 20
9.407268834
 30
0.0
 10
11.1506844501
 20
9.4080380073
 30
0.0
 10
11.1503813018
 20
9.4090636778
 30
0.0
 10
11.1500020836
 20
9.4103457297
 30
0.0
 10
11.1493954925
 20
9.412397033
 30
0.0
 10
11.1486371991
 20
9.414961155
 30
0.0
 10
11.1477272719
 20
9.4180381049
 30
0.0
 10
11.1468173325
 20
9.4211150521
 30
0.0
 10
11.1460590694
 20
9.4236791811
 30
0.0
 10
11.1454524177
 20
9.4257304703
 30
0.0
 10
11.1450733536
 20
9.427012558
 30
0.0
 10
11.144769889
 20
9.428038155
 30
0.0
 10
11.1445428743
 20
9.4288075529
 30
0.0
 10
11.1443518385
 20
9.4294480812
 30
0.0
 10
11.1442217576
 20
9.4298977003
 30
0.0
 10
11.1441417356
 20
9.4301526749
 30
0.0
 10
11.144097748
 20
9.4303494008
 30
0.0
 10
11.14399249
 20
9.4305251221
 30
0.0
 10
11.1438735179
 20
9.4307667437
 30
0.0
 10
11.1436553591
 20
9.431186168
 30
0.0
 10
11.1433489096
 20
9.4317871302
 30
0.0
 10
11.1429789419
 20
9.4325075209
 30
0.0
 10
11.14248643
 20
9.4334683087
 30
0.0
 10
11.1418705236
 20
9.4346692021
 30
0.0
 10
11.1408852223
 20
9.4365906826
 30
0.0
 10
11.1396535442
 20
9.4389925156
 30
0.0
 10
11.138175554
 20
9.4418747234
 30
0.0
 10
11.1366975522
 20
9.4447569265
 30
0.0
 10
11.1354659031
 20
9.4471587713
 30
0.0
 10
11.1344805439
 20
9.4490802282
 30
0.0
 10
11.1338647848
 20
9.4502811816
 30
0.0
 10
11.1333719705
 20
9.4512418461
 30
0.0
 10
11.1330029265
 20
9.4519626136
 30
0.0
 10
11.132693587
 20
9.4525623971
 30
0.0
 10
11.1324805874
 20
9.4529839256
 30
0.0
 10
11.132353349
 20
9.4532221758
 30
0.0
 10
11.1322734821
 20
9.453408253
 30
0.0
 10
11.13213413
 20
9.4535660837
 30
0.0
 10
11.1319690763
 20
9.4537863774
 30
0.0
 10
11.1316705649
 20
9.4541673008
 30
0.0
 10
11.1312491744
 20
9.4547138771
 30
0.0
 10
11.1307413423
 20
9.4553687414
 30
0.0
 10
11.1300649885
 20
9.4562422526
 30
0.0
 10
11.1292192875
 20
9.4573340188
 30
0.0
 10
11.1278663105
 20
9.4590809133
 30
0.0
 10
11.1261750394
 20
9.4612645076
 30
0.0
 10
11.1241455366
 20
9.4638848322
 30
0.0
 10
11.1221160238
 20
9.4665051493
 30
0.0
 10
11.1204247774
 20
9.4686887621
 30
0.0
 10
11.1190717511
 20
9.4704356196
 30
0.0
 10
11.1182261757
 20
9.4715274799
 30
0.0
 10
11.117549564
 20
9.4724007979
 30
0.0
 10
11.1170425196
 20
9.4730562523
 30
0.0
 10
11.1166186646
 20
9.4736009824
 30
0.0
 10
11.1163245527
 20
9.4739852016
 30
0.0
 10
11.1161524499
 20
9.4742002146
 30
0.0
 10
11.1160347504
 20
9.4743742661
 30
0.0
 10
11.1158735601
 20
9.4744994207
 30
0.0
 10
11.1156738097
 20
9.4746833492
 30
0.0
 10
11.1153171787
 20
9.4749972776
 30
0.0
 10
11.1148114009
 20
9.4754499013
 30
0.0
 10
11.114202886
 20
9.4759912714
 30
0.0
 10
11.1133920851
 20
9.4767137194
 30
0.0
 10
11.1123783949
 20
9.4776165667
 30
0.0
 10
11.1107565964
 20
9.4790612412
 30
0.0
 10
11.1087293116
 20
9.4808670433
 30
0.0
 10
11.1062965865
 20
9.4830340247
 30
0.0
 10
11.1038638537
 20
9.4852009963
 30
0.0
 10
11.1018365882
 20
9.4870068227
 30
0.0
 10
11.1002147511
 20
9.4884514486
 30
0.0
 10
11.0992011589
 20
9.4893544196
 30
0.0
 10
11.0983901569
 20
9.4900766136
 30
0.0
 10
11.0977822566
 20
9.4906187595
 30
0.0
 10
11.0972745557
 20
9.4910689562
 30
0.0
 10
11.0969213578
 20
9.4913872171
 30
0.0
 10
11.0967161067
 20
9.4915642038
 30
0.0
 10
11.0965718129
 20
9.4917106817
 30
0.0
 10
11.096390653
 20
9.4918046463
 30
0.0
 10
11.0961619658
 20
9.4919482498
 30
0.0
 10
11.0957557718
 20
9.4921910214
 30
0.0
 10
11.0951786269
 20
9.4925422999
 30
0.0
 10
11.0944847124
 20
9.4929619243
 30
0.0
 10
11.0935599613
 20
9.4935220906
 30
0.0
 10
11.0924038621
 20
9.49422207
 30
0.0
 10
11.090554193
 20
9.4953421648
 30
0.0
 10
11.0882420757
 20
9.4967422391
 30
0.0
 10
11.0854675489
 20
9.4984223486
 30
0.0
 10
11.082693016
 20
9.5001024474
 30
0.0
 10
11.0803809137
 20
9.5015025486
 30
0.0
 10
11.0785312147
 20
9.5026225897
 30
0.0
 10
11.0773751915
 20
9.5033227056
 30
0.0
 10
11.0764502844
 20
9.5038825916
 30
0.0
 10
11.0757568467
 20
9.5043030722
 30
0.0
 10
11.07517821
 20
9.504651672
 30
0.0
 10
11.0747746791
 20
9.5048992256
 30
0.0
 10
11.0745417249
 20
9.5050351671
 30
0.0
 10
11.0743736718
 20
9.5051526668
 30
0.0
 10
11.0741801512
 20
9.505210751
 30
0.0
 10
11.073931007
 20
9.5053089213
 30
0.0
 10
11.0734908658
 20
9.5054710633
 30
0.0
 10
11.0728642565
 20
9.5057077431
 30
0.0
 10
11.0721113991
 20
9.505989598
 30
0.0
 10
11.0711079128
 20
9.5063661592
 30
0.0
 10
11.0698534442
 20
9.5068366023
 30
0.0
 10
11.0678463563
 20
9.5075894558
 30
0.0
 10
11.0653374751
 20
9.5085304727
 30
0.0
 10
11.0623268272
 20
9.5096597159
 30
0.0
 10
11.0593161751
 20
9.5107889473
 30
0.0
 10
11.0568073045
 20
9.5117299938
 30
0.0
 10
11.0548001952
 20
9.5124827882
 30
0.0
 10
11.053545781
 20
9.5129533814
 30
0.0
 10
11.052542183
 20
9.5133296346
 30
0.0
 10
11.0517896671
 20
9.5136124306
 30
0.0
 10
11.0511619894
 20
9.5138461657
 30
0.0
 10
11.0507237554
 20
9.5140135644
 30
0.0
 10
11.0504715555
 20
9.5141033123
 30
0.0
 10
11.0502874211
 20
9.5141872675
 30
0.0
 10
11.0500841146
 20
9.5142075997
 30
0.0
 10
11.0498197268
 20
9.5142569017
 30
0.0
 10
11.0493539323
 20
9.5143328404
 30
0.0
 10
11.0486901405
 20
9.51444673
 30
0.0
 10
11.0478928931
 20
9.5145810837
 30
0.0
 10
11.04683014
 20
9.5147610302
 30
0.0
 10
11.0455016154
 20
9.5149856865
 30
0.0
 10
11.0433760226
 20
9.5153452913
 30
0.0
 10
11.0407190156
 20
9.5157947439
 30
0.0
 10
11.0375306139
 20
9.5163341115
 30
0.0
 10
11.0343422109
 20
9.5168734665
 30
0.0
 10
11.0316852071
 20
9.5173229506
 30
0.0
 10
11.0295596079
 20
9.5176824923
 30
0.0
 10
11.0282310994
 20
9.5179073091
 30
0.0
 10
11.0271683133
 20
9.5180869263
 30
0.0
 10
11.026371167
 20
9.5182222858
 30
0.0
 10
11.0257070589
 20
9.5183330284
 30
0.0
 10
11.025241829
 20
9.5184145851
 30
0.0
 10
11.0249765364
 20
9.5184548856
 30
0.0
 10
11.024776009
 20
9.5185028674
 30
0.0
 10
11.024581437
 20
9.5184829755
 30
0.0
 10
11.0243199305
 20
9.518480128
 30
0.0
 10
11.0238632618
 20
9.5184641142
 30
0.0
 10
11.023210372
 20
9.5184470043
 30
0.0
 10
11.0224271208
 20
9.518424004
 30
0.0
 10
11.0213827103
 20
9.5183941992
 30
0.0
 10
11.020077223
 20
9.5183566479
 30
0.0
 10
11.0179884289
 20
9.5182967308
 30
0.0
 10
11.0153774412
 20
9.5182217776
 30
0.0
 10
11.0122442536
 20
9.5181318596
 30
0.0
 10
11.0091110678
 20
9.5180419288
 30
0.0
 10
11.0065000756
 20
9.5179670076
 30
0.0
 10
11.0044112905
 20
9.5179070264
 30
0.0
 10
11.0031057803
 20
9.5178696383
 30
0.0
 10
11.0020614168
 20
9.5178394985
 30
0.0
 10
11.0012780217
 20
9.5178175215
 30
0.0
 10
11.0006255824
 20
9.51779721
 30
0.0
 10
11.0001681094
 20
9.5177869116
 30
0.0
 10
10.9999078916
 20
9.5177749067
 30
0.0
 10
10.9997093609
 20
9.5177831434
 30
0.0
 10
10.9995237022
 20
9.5177254788
 30
0.0
 10
10.9992716673
 20
9.5176715798
 30
0.0
 10
10.9988326982
 20
9.5175665464
 30
0.0
 10
10.9982045058
 20
9.517422098
 30
0.0
 10
10.9974511431
 20
9.5172463633
 30
0.0
 10
10.9964464959
 20
9.5170128874
 30
0.0
 10
10.9951907429
 20
9.516720756
 30
0.0
 10
10.9931815069
 20
9.5162535059
 30
0.0
 10
10.9906699727
 20
9.515669388
 30
0.0
 10
10.9876561264
 20
9.5149684717
 30
0.0
 10
10.9846422838
 20
9.514267543
 30
0.0
 10
10.9821307404
 20
9.5136834561
 30
0.0
 10
10.9801215227
 20
9.5132161441
 30
0.0
 10
10.9788657232
 20
9.5129241699
 30
0.0
 10
10.9778611715
 20
9.5126903713
 30
0.0
 10
10.9771075171
 20
9.5125156227
 30
0.0
 10
10.9764802372
 20
9.5123680889
 30
0.0
 10
10.9760396392
 20
9.5122685636
 30
0.0
 10
10.9757902142
 20
9.5122058393
 30
0.0
 10
10.9755965388
 20
9.5121752831
 30
0.0
 10
10.9754281173
 20
9.5120817052
 30
0.0
 10
10.9751947464
 20
9.5119789174
 30
0.0
 10
10.9747904514
 20
9.5117887965
 30
0.0
 10
10.9742107416
 20
9.5115225501
 30
0.0
 10
10.9735160082
 20
9.5112007623
 30
0.0
 10
10.9725893762
 20
9.5107725125
 30
0.0
 10
10.9714311961
 20
9.5102369262
 30
0.0
 10
10.9695780464
 20
9.5093801412
 30
0.0
 10
10.9672616306
 20
9.5083091072
 30
0.0
 10
10.9644819218
 20
9.5070238904
 30
0.0
 10
10.9617022185
 20
9.5057386617
 30
0.0
 10
10.9593857888
 20
9.5046676576
 30
0.0
 10
10.9575326669
 20
9.5038108128
 30
0.0
 10
10.9563744164
 20
9.5032753786
 30
0.0
 10
10.9554479287
 20
9.5028468164
 30
0.0
 10
10.9547527545
 20
9.5025259829
 30
0.0
 10
10.9541744238
 20
9.5022567508
 30
0.0
 10
10.9537676669
 20
9.5020719598
 30
0.0
 10
10.9535382407
 20
9.5019606323
 30
0.0
 10
10.9533577023
 20
9.5018932857
 30
0.0
 10
10.9532095357
 20
9.501764209
 30
0.0
 10
10.9530006885
 20
9.5016136389
 30
0.0
 10
10.9526404669
 20
9.501340109
 30
0.0
 10
10.9521231141
 20
9.500954597
 30
0.0
 10
10.9515034681
 20
9.5004897375
 30
0.0
 10
10.9506768622
 20
9.499870709
 30
0.0
 10
10.9496437456
 20
9.4990966549
 30
0.0
 10
10.9479906804
 20
9.4978583184
 30
0.0
 10
10.9459243761
 20
9.496310346
 30
0.0
 10
10.9434447981
 20
9.4944528024
 30
0.0
 10
10.9409652281
 20
9.4925952484
 30
0.0
 10
10.9388989036
 20
9.4910473022
 30
0.0
 10
10.9372458788
 20
9.4898089134
 30
0.0
 10
10.9362126594
 20
9.4890349921
 30
0.0
 10
10.9353862646
 20
9.4884156911
 30
0.0
 10
10.9347659738
 20
9.487951664
 30
0.0
 10
10.9342506382
 20
9.4875635476
 30
0.0
 10
10.9338868157
 20
9.4872946669
 30
0.0
 10
10.9336837381
 20
9.4871366476
 30
0.0
 10
10.933517849
 20
9.4870304525
 30
0.0
 10
10.9334038731
 20
9.4868771665
 30
0.0
 10
10.9332337972
 20
9.4866892109
 30
0.0
 10
10.9329446013
 20
9.4863526357
 30
0.0
 10
10.9325270534
 20
9.485875815
 30
0.0
 10
10.9320278839
 20
9.4853019175
 30
0.0
 10
10.9313616652
 20
9.4845373191
 30
0.0
 10
10.9305291176
 20
9.4835813663
 30
0.0
 10
10.9291969152
 20
9.4820519563
 30
0.0
 10
10.9275317058
 20
9.4801401542
 30
0.0
 10
10.9255334344
 20
9.4778460097
 30
0.0
 10
10.9235351734
 20
9.4755518567
 30
0.0
 10
10.9218699383
 20
9.4736400757
 30
0.0
 10
10.9205377872
 20
9.4721106236
 30
0.0
 10
10.9197051091
 20
9.4711547778
 30
0.0
 10
10.9190391582
 20
9.4703899597
 30
0.0
 10
10.9185391704
 20
9.4698167336
 30
0.0
 10
10.9181241829
 20
9.4693378122
 30
0.0
 10
10.9178304163
 20
9.4690049871
 30
0.0
 10
10.9176676639
 20
9.4688110229
 30
0.0
 10
10.9175311928
 20
9.4686761934
 30
0.0
 10
10.9174497916
 20
9.4685006787
 30
0.0
 10
10.9173220477
 20
9.4682808506
 30
0.0
 10
10.9171074457
 20
9.4678895392
 30
0.0
 10
10.9167961923
 20
9.4673339799
 30
0.0
 10
10.916424691
 20
9.4666658291
 30
0.0
 10
10.9159286565
 20
9.4657754781
 30
0.0
 10
10.9153088528
 20
9.4646623624
 30
0.0
 10
10.914317033
 20
9.4628814763
 30
0.0
 10
10.9130773046
 20
9.4606553345
 30
0.0
 10
10.9115896091
 20
9.4579839796
 30
0.0
 10
10.9101019249
 20
9.455312618
 30
0.0
 10
10.9088621685
 20
9.4530864931
 30
0.0
 10
10.9078704045
 20
9.4513055732
 30
0.0
 10
10.9072504591
 20
9.4501925434
 30
0.0
 10
10.9067547156
 20
9.4493020161
 30
0.0
 10
10.9063823251
 20
9.4486344038
 30
0.0
 10
10.9060738539
 20
9.4480771597
 30
0.0
 10
10.9058542852
 20
9.4476888559
 30
0.0
 10
10.9057344991
 20
9.4474642089
 30
0.0
 10
10.9056286539
 20
9.4473034962
 30
0.0
 10
10.9055839905
 20
9.447113073
 30
0.0
 10
10.9055030984
 20
9.4468695387
 30
0.0
 10
10.9053714802
 20
9.4464385252
 30
0.0
 10
10.905178256
 20
9.4458253161
 30
0.0
 10
10.9049486119
 20
9.4450883846
 30
0.0
 10
10.9046416427
 20
9.4441061867
 30
0.0
 10
10.9042581973
 20
9.4428783101
 30
0.0
 10
10.9036445358
 20
9.4409137797
 30
0.0
 10
10.9028775104
 20
9.4384580919
 30
0.0
 10
10.9019570564
 20
9.4355112777
 30
0.0
 10
10.9010366144
 20
9.4325644585
 30
0.0
 10
10.9002695587
 20
9.4301087834
 30
0.0
 10
10.8996559578
 20
9.4281442275
 30
0.0
 10
10.8992723585
 20
9.426916416
 30
0.0
 10
10.8989657051
 20
9.4259340844
 30
0.0
 10
10.8987350962
 20
9.4251975613
 30
0.0
 10
10.8985448907
 20
9.4245830745
 30
0.0
 10
10.8984078836
 20
9.4241543419
 30
0.0
 10
10.8983356259
 20
9.4239071531
 30
0.0
 10
10.8982644404
 20
9.4237279555
 30
0.0
 10
10.8982582076
 20
9.4235250811
 30
0.0
 10
10.8982272409
 20
9.4232628407
 30
0.0
 10
10.8981836052
 20
9.4228000721
 30
0.0
 10
10.8981157497
 20
9.4221409858
 30
0.0
 10
10.8980366853
 20
9.4213492212
 30
0.0
 10
10.897930441
 20
9.4202938358
 30
0.0
 10
10.8977979182
 20
9.418974501
 30
0.0
 10
10.8975857238
 20
9.416863623
 30
0.0
 10
10.8973205349
 20
9.4142250057
 30
0.0
 10
10.8970022851
 20
9.4110586734
 30
0.0
 10
10.8966840415
 20
9.4078923389
 30
0.0
 10
10.8962597145
 20
9.4036705603
 30
0.0
 10
10.8959414697
 20
9.4005042261
 30
0.0
 10
10.8957293064
 20
9.3983933367
 30
0.0
  0
ELLIPSE
  5
39D
100
AcDbEntity
  8
0
100
AcDbEllipse
 62
7
  6
CONTINUOUS
 10
11.1188582203
 20
8.223808199
 30
0.0
 11
0.1292838299
 21
-0.0910474902
 31
0.0
 40
0.7398893832
 41
0.0
 42
6.2831853072
  0
ELLIPSE
  5
39E
100
AcDbEntity
  8
0
100
AcDbEllipse
 62
7
  6
CONTINUOUS
 10
10.4543011323
 20
8.2698953896
 30
0.0
 11
0.1302726317
 21
0.071325985
 31
0.0
 40
0.8386917544
 41
0.0
 42
6.2831853072
  0
ENDSEC
  0
SECTION
  2
OBJECTS
  0
DICTIONARY
  5
C
100
AcDbDictionary
280
0
281
1
  3
ACAD_GROUP
350
D
  3
ACAD_MLINESTYLE
350
17
  3
ACAD_LAYOUT
350
1A
  3
ACAD_PLOTSETTINGS
350
19
  3
ACAD_PLOTSTYLENAME
350
E
  3
ACAD_IMAGE_DICT
350
       3A0
  3
ACAD_IMAGE_VARS
350
       3A1
  3
ACAD_TABLESTYLE
350
       3A2
  0
IMAGEDEF_REACTOR
  5
39F
100
AcDbRasterImageDefReactor
 90
2
330
287
  0
DICTIONARY
  5
D
102
{ACAD_REACTORS
330
C
102
}
100
AcDbDictionary
280
0
281
1
  0
ACDBDICTIONARYWDFLT
  5
E
102
{ACAD_REACTORS
330
C
102
}
100
AcDbDictionary
281
1
  3
Normal
350
F
100
AcDbDictionaryWithDefault
340
F
  0
DICTIONARY
  5
3A0
330
C
100
AcDbDictionary
281
1
  3
WCG_assy_2_img_1
350
       3A5
  0
RASTERVARIABLES
  5
3A1
330
C
100
AcDbRasterVariables
 90
0
 70
0
 71
1
 72
5
  0
DICTIONARY
  5
17
102
{ACAD_REACTORS
330
C
102
}
100
AcDbDictionary
280
0
281
1
  3
Standard
350
18
  0
DICTIONARY
  5
3A2
330
C
100
AcDbDictionary
281
1
  3
Standard
350
       3A6
  3
Standard1
350
       3A7
  0
DICTIONARY
  5
19
102
{ACAD_REACTORS
330
C
102
}
100
AcDbDictionary
281
1
  0
DICTIONARY
  5
1A
102
{ACAD_REACTORS
330
C
102
}
100
AcDbDictionary
281
1
  3
Model
350
3A3
  3
Layout1
350
3A4
  0
ACDBPLACEHOLDER
  5
F
102
{ACAD_REACTORS
330
E
102
}
  0
MLINESTYLE
  5
18
102
{ACAD_REACTORS
330
17
102
}
100
AcDbMlineStyle
  2
STANDARD
 70
0
  3

 62
256
 51
90.0
 52
90.0
 71
2
 49
0.5
 62
256
  6
BYLAYER
 49
-0.5
 62
256
  6
BYLAYER
  0
LAYOUT
  5
3A3
102
{ACAD_REACTORS
330
1A
102
}
100
AcDbPlotSettings
  1

  2
none_device
  4
ANSI_C_(22.00_x_17.00_Inches)
  6

 40
0.0
 41
0.0
 42
0.0
 43
0.0
 44
558.8
 45
431.8
 46
0.0
 47
0.0
 48
0.0
 49
0.0
140
0.0
141
0.0
142
1.0
143
1.0
 70
1024
 72
0
 73
0
 74
0
  7

 75
0
147
1.0
148
0.0
149
0.0
100
AcDbLayout
  1
Model
 70
0
 71
0
 10
0.0
 20
0.0
 11
22.0
 21
17.0
 12
0.0
 22
0.0
 32
0.0
 14
0.0
 24
0.0
 34
0.0
 15
0.0
 25
0.0
 35
0.0
146
0.0
 13
0.0
 23
0.0
 33
0.0
 16
1.0
 26
0.0
 36
0.0
 17
0.0
 27
1.0
 37
0.0
 76
0
330
204
345
0
346
0
  0
LAYOUT
  5
3A4
102
{ACAD_REACTORS
330
1A
102
}
100
AcDbPlotSettings
  1

  2
none_device
  4
ANSI_C_(22.00_x_17.00_Inches)
  6

 40
0.0
 41
0.0
 42
0.0
 43
0.0
 44
558.8
 45
431.8
 46
0.0
 47
0.0
 48
0.0
 49
0.0
140
0.0
141
0.0
142
1.0
143
1.0
 70
0
 72
0
 73
0
 74
0
  7

 75
0
147
1.0
148
0.0
149
0.0
100
AcDbLayout
  1
Layout1
 70
0
 71
1
 10
0.0
 20
0.0
 11
22.0
 21
17.0
 12
0.0
 22
0.0
 32
0.0
 14
0.0
 24
0.0
 34
0.0
 15
0.0
 25
0.0
 35
0.0
146
0.0
 13
0.0
 23
0.0
 33
0.0
 16
1.0
 26
0.0
 36
0.0
 17
0.0
 27
1.0
 37
0.0
 76
0
330
205
345
0
346
0
  0
IMAGEDEF
  5
3A5
102
{ACAD_REACTORS
330
3A0
330
39F
102
}
100
AcDbRasterImageDef
 90
0
  1
WCG_assy_2_img_1.png
 10
369.0
 20
92.0
 11
0.0066666667
 21
0.0066666667
280
1
281
0
  0
TABLESTYLE
  5
3A6
102
{ACAD_REACTORS
330
3A2
330
28A
330
28B
102
}
330
3A2
100
AcDbTableStyle
  3
Standard
 70
0
 71
0
 40
0.06
 41
0.06
280
1
281
1
  7
Standard
140
0.18
170
1
 62
0
 63
7
283
0
  7
Standard
140
0.18
170
1
 62
0
 63
7
283
0
  7
Standard
140
0.18
170
1
 62
0
 63
7
283
0
  0
TABLESTYLE
  5
3A7
102
{ACAD_REACTORS
330
3A2
330
289
102
}
330
3A2
100
AcDbTableStyle
  3
Standard1
 70
1
 71
0
 40
0.06
 41
0.06
280
1
281
1
  7
Standard
140
0.18
170
1
 62
0
 63
7
283
0
  7
Standard
140
0.18
170
1
 62
0
 63
7
283
0
  7
Standard
140
0.18
170
1
 62
0
 63
7
283
0
  0
ENDSEC
  0
EOF
