999
DXF file: WCC_assy_2.dxf
999
Pro/ENGINEER 2014200 by Parametric Technology Corporation
  0
SECTION
  2
HEADER
  9
$ACADVER
  1
AC1021
  9
$DWGCODEPAGE
  3
ANSI_1252
  9
$EXTMAX
 10
22.0
 20
17.0
 30
0.0
  9
$EXTMIN
 10
0.0
 20
0.0
 30
0.0
  9
$LIMMIN
 10
0.0
 20
0.0
  9
$LIMMAX
 10
22.0
 20
17.0
  9
$VIEWCTR
 10
11.0
 20
8.5
  9
$VIEWSIZE
 40
17.0
  9
$CLAYER
  8
0
  9
$LTSCALE
 40
1.21
  9
$CELTYPE
  6
BYLAYER
  9
$DIMSCALE
 40
1.0
  9
$DIMASZ
 40
0.1875
  9
$DIMEXO
 40
0.0625
  9
$DIMDLI
 40
0.836
  9
$DIMEXE
 40
0.125
  9
$DIMCEN
 40
0.198
  9
$DIMLFAC
 40
1.0
  9
$DIMBLK
  1
_FILLED
  9
$DIMTXT
 40
0.1
  9
$DIMTOL
 70
0
  9
$DIMLIM
 70
0
  9
$DIMTFAC
 40
1.0
  9
$DIMGAP
 40
0.09
  9
$DIMDSEP
 70
46
  9
$AUNITS
 70
0
  9
$PDMODE
 70
3
  9
$PDSIZE
 40
0.3125
  9
$HANDSEED
  5
308
  9
$TILEMODE
 70
1
  9
$MEASUREMENT
 70
0
  9
$INSUNITS
 70
1
  0
ENDSEC
  0
SECTION
  2
CLASSES
  0
CLASS
  1
ACDBDICTIONARYWDFLT
  2
AcDbDictionaryWithDefault
  3
AutoCAD 2000
 90
0
 91
1
280
0
281
0
  0
CLASS
  1
ACDBPLACEHOLDER
  2
AcDbPlaceHolder
  3
AutoCAD 2000
 90
0
 91
1
280
0
281
0
  0
CLASS
  1
LAYOUT
  2
AcDbLayout
  3
AutoCAD 2000
 90
0
 91
0
280
0
281
0
  0
CLASS
  1
RASTERVARIABLES
  2
AcDbRasterVariables
  3
ISM
 90
0
 91
1
280
0
281
0
  0
CLASS
  1
IMAGEDEF
  2
AcDbRasterImageDef
  3
ISM
 90
0
 91
1
280
0
281
0
  0
CLASS
  1
IMAGEDEF_REACTOR
  2
AcDbRasterImageDefReactor
  3
ISM
 90
0
 91
1
280
0
281
0
  0
CLASS
  1
IMAGE
  2
AcDbRasterImage
  3
ISM
 90
127
 91
1
280
0
281
1
  0
CLASS
  1
TABLESTYLE
  2
AcDbTableStyle
  3
ObjectDBX Classes
 90
2047
 91
1
280
0
281
0
  0
CLASS
  1
ACAD_TABLE
  2
AcDbTable
  3
ObjectDBX Classes
 90
1025
 91
3
280
0
281
1
  0
ENDSEC
  0
SECTION
  2
TABLES
  0
TABLE
  2
VPORT
  5
8
100
AcDbSymbolTable
 70
2
  0
VPORT
  5
1F4
100
AcDbSymbolTableRecord
100
AcDbViewportTableRecord
  2
*ACTIVE
 70
0
 10
0.0
 20
0.0
 11
1.0
 21
1.0
 12
11.0
 22
8.5
 13
0.0
 23
0.0
 14
1.0
 24
1.0
 15
0.0
 25
0.0
 16
0.0
 26
0.0
 36
1.0
 17
0.0
 27
0.0
 37
0.0
 40
17.0
 41
1.2941176471
 42
50.0
 43
0.0
 44
0.0
 50
0.0
 51
0.0
 71
0
 72
100
 73
1
 74
1
 75
0
 76
0
 77
0
 78
0
  0
ENDTAB
  0
TABLE
  2
LTYPE
  5
5
100
AcDbSymbolTable
 70
6
  0
LTYPE
  5
14
100
AcDbSymbolTableRecord
100
AcDbLinetypeTableRecord
  2
BYBLOCK
 70
0
  3

 72
65
 73
0
 40
0.0
  0
LTYPE
  5
15
100
AcDbSymbolTableRecord
100
AcDbLinetypeTableRecord
  2
BYLAYER
 70
0
  3

 72
65
 73
0
 40
0.0
  0
LTYPE
  5
16
100
AcDbSymbolTableRecord
100
AcDbLinetypeTableRecord
  2
CONTINUOUS
 70
64
  3
Solid line
 72
65
 73
0
 40
0.0
  0
LTYPE
  5
1F5
100
AcDbSymbolTableRecord
100
AcDbLinetypeTableRecord
  2
CENTER
 70
64
  3
____ _ ____ _ ____ _ ____ _ ____ _ ____ _ ____
 72
65
 73
4
 40
0.6
 49
0.375
 74
0
 49
-0.075
 74
0
 49
0.075
 74
0
 49
-0.075
 74
0
  0
LTYPE
  5
1F6
100
AcDbSymbolTableRecord
100
AcDbLinetypeTableRecord
  2
HIDDEN
 70
64
  3
- - - - - - - - - - - - - - - - - - - -
 72
65
 73
2
 40
0.2
 49
0.1
 74
0
 49
-0.1
 74
0
  0
LTYPE
  5
1F7
100
AcDbSymbolTableRecord
100
AcDbLinetypeTableRecord
  2
PHANTOM
 70
64
  3
_____ _ _ _____ _ _ _____ _ _ _____
 72
65
 73
6
 40
0.8
 49
0.45
 74
0
 49
-0.05
 74
0
 49
0.1
 74
0
 49
-0.05
 74
0
 49
0.1
 74
0
 49
-0.05
 74
0
  0
LTYPE
  5
1F8
100
AcDbSymbolTableRecord
100
AcDbLinetypeTableRecord
  2
DOT
 70
64
  3
. . . . . . . . . . . . . . . . . . . .
 72
65
 73
2
 40
0.2
 49
0.1
 74
0
 49
-0.1
 74
0
  0
LTYPE
  5
1F9
100
AcDbSymbolTableRecord
100
AcDbLinetypeTableRecord
  2
DASHED
 70
64
  3
- - - - - - - - - - - - - - - - - - - -
 72
65
 73
2
 40
0.2
 49
0.1
 74
0
 49
-0.1
 74
0
  0
ENDTAB
  0
TABLE
  2
LAYER
  5
2
100
AcDbSymbolTable
 70
36
  0
LAYER
  5
10
100
AcDbSymbolTableRecord
100
AcDbLayerTableRecord
  2
0
 70
0
 62
7
  6
CONTINUOUS
370
-3
390
F
  0
LAYER
  5
1FA
100
AcDbSymbolTableRecord
100
AcDbLayerTableRecord
  2
DEFAULT_1
 70
0
 62
7
  6
CENTER
370
-3
390
F
  0
LAYER
  5
1FB
100
AcDbSymbolTableRecord
100
AcDbLayerTableRecord
  2
DEFAULT_2
 70
0
 62
8
  6
HIDDEN
370
-3
390
F
  0
LAYER
  5
1FC
100
AcDbSymbolTableRecord
100
AcDbLayerTableRecord
  2
DEFAULT_3
 70
0
 62
7
  6
PHANTOM
370
-3
390
F
  0
LAYER
  5
1FD
100
AcDbSymbolTableRecord
100
AcDbLayerTableRecord
  2
01___PRT_ALL_DTM_PLN
 70
0
 62
7
  6
CONTINUOUS
370
-3
390
F
  0
LAYER
  5
1FE
100
AcDbSymbolTableRecord
100
AcDbLayerTableRecord
  2
01___PRT_DEF_DTM_PLN
 70
0
 62
7
  6
CONTINUOUS
370
-3
390
F
  0
LAYER
  5
1FF
100
AcDbSymbolTableRecord
100
AcDbLayerTableRecord
  2
02___PRT_ALL_AXES
 70
0
 62
7
  6
CONTINUOUS
370
-3
390
F
  0
LAYER
  5
200
100
AcDbSymbolTableRecord
100
AcDbLayerTableRecord
  2
03___PRT_ALL_CURVES
 70
0
 62
7
  6
CONTINUOUS
370
-3
390
F
  0
LAYER
  5
201
100
AcDbSymbolTableRecord
100
AcDbLayerTableRecord
  2
04___PRT_ALL_DTM_PNT
 70
0
 62
7
  6
CONTINUOUS
370
-3
390
F
  0
LAYER
  5
202
100
AcDbSymbolTableRecord
100
AcDbLayerTableRecord
  2
05___PRT_ALL_DTM_CSYS
 70
0
 62
7
  6
CONTINUOUS
370
-3
390
F
  0
LAYER
  5
203
100
AcDbSymbolTableRecord
100
AcDbLayerTableRecord
  2
05___PRT_DEF_DTM_CSYS
 70
0
 62
7
  6
CONTINUOUS
370
-3
390
F
  0
LAYER
  5
204
100
AcDbSymbolTableRecord
100
AcDbLayerTableRecord
  2
06___PRT_ALL_SURFS
 70
0
 62
7
  6
CONTINUOUS
370
-3
390
F
  0
LAYER
  5
205
100
AcDbSymbolTableRecord
100
AcDbLayerTableRecord
  2
DATUM_PLANES
 70
0
 62
7
  6
CONTINUOUS
370
-3
390
F
  0
LAYER
  5
206
100
AcDbSymbolTableRecord
100
AcDbLayerTableRecord
  2
DIMENSIONS
 70
0
 62
7
  6
CONTINUOUS
370
-3
390
F
  0
LAYER
  5
207
100
AcDbSymbolTableRecord
100
AcDbLayerTableRecord
  2
DTM_500001
 70
0
 62
7
  6
CONTINUOUS
370
-3
390
F
  0
LAYER
  5
208
100
AcDbSymbolTableRecord
100
AcDbLayerTableRecord
  2
PARAMETERDIMENSIONS
 70
0
 62
7
  6
CONTINUOUS
370
-3
390
F
  0
LAYER
  5
209
100
AcDbSymbolTableRecord
100
AcDbLayerTableRecord
  2
PORT_AREAS
 70
0
 62
7
  6
CONTINUOUS
370
-3
390
F
  0
LAYER
  5
20A
100
AcDbSymbolTableRecord
100
AcDbLayerTableRecord
  2
SUNNBOMCOSMETIC
 70
0
 62
7
  6
CONTINUOUS
370
-3
390
F
  0
LAYER
  5
20B
100
AcDbSymbolTableRecord
100
AcDbLayerTableRecord
  2
SUNNBOMSTAMPING
 70
0
 62
7
  6
CONTINUOUS
370
-3
390
F
  0
LAYER
  5
20C
100
AcDbSymbolTableRecord
100
AcDbLayerTableRecord
  2
THREADS
 70
0
 62
7
  6
CONTINUOUS
370
-3
390
F
  0
ENDTAB
  0
TABLE
  2
STYLE
  5
3
100
AcDbSymbolTable
 70
1
  0
STYLE
  5
11
100
AcDbSymbolTableRecord
100
AcDbTextStyleTableRecord
  2
STANDARD
 70
0
 40
0.0
 41
0.8
 50
0.0
 71
0
 42
0.2
  3
txt
  4

  0
STYLE
  5
20D
100
AcDbSymbolTableRecord
100
AcDbTextStyleTableRecord
  2
TEXTSTYLE_1
 70
0
 40
0.0
 41
0.8
 50
0.0
 71
0
 42
0.2
  3
gdt
  4

  0
ENDTAB
  0
TABLE
  2
VIEW
  5
6
100
AcDbSymbolTable
 70
0
  0
ENDTAB
  0
TABLE
  2
UCS
  5
7
100
AcDbSymbolTable
 70
0
  0
ENDTAB
  0
TABLE
  2
APPID
  5
9
100
AcDbSymbolTable
 70
1
  0
APPID
  5
20E
100
AcDbSymbolTableRecord
100
AcDbRegAppTableRecord
  2
ACAD
 70
0
  0
ENDTAB
  0
TABLE
  2
BLOCK_RECORD
  5
1
100
AcDbSymbolTable
 70
0
  0
BLOCK_RECORD
  5
20F
100
AcDbSymbolTableRecord
100
AcDbBlockTableRecord
  2
*Model_Space
  0
BLOCK_RECORD
  5
210
100
AcDbSymbolTableRecord
100
AcDbBlockTableRecord
  2
*Paper_Space
  0
BLOCK_RECORD
  5
211
100
AcDbSymbolTableRecord
100
AcDbBlockTableRecord
  2
SUN_FIRST_THIRD_ANGLE_BL0
  0
BLOCK_RECORD
  5
212
100
AcDbSymbolTableRecord
100
AcDbBlockTableRecord
  2
*T1
  0
BLOCK_RECORD
  5
213
100
AcDbSymbolTableRecord
100
AcDbBlockTableRecord
  2
*T2
  0
BLOCK_RECORD
  5
214
100
AcDbSymbolTableRecord
100
AcDbBlockTableRecord
  2
*T3
  0
ENDTAB
  0
TABLE
  2
DIMSTYLE
  5
A
100
AcDbSymbolTable
 70
1
100
AcDbDimStyleTable
 71
0
  0
DIMSTYLE
105
215
100
AcDbSymbolTableRecord
100
AcDbDimStyleTableRecord
  2
STANDARD
 70
0
  3

  4

 40
1.0
 41
0.1875
 42
0.0625
 43
0.38
 44
0.125
 45
0.0
 46
0.0
 47
0.001
 48
0.001
140
0.1
141
0.09
142
0.0
143
25.4
144
1.0
145
0.0
146
1.0
147
0.09
 71
0.0
 72
0.0
 73
1
 74
1
 75
0
 76
0
 77
0
 78
4
170
0
171
2
172
0
173
0
174
0
175
0
176
0
177
0
178
0
270
2
271
3
272
3
273
2
274
2
275
0
280
0
281
0
282
0
283
1
284
4
285
0
286
0
287
3
288
0
340
11
278
46
  0
ENDTAB
  0
ENDSEC
  0
SECTION
  2
BLOCKS
  0
BLOCK
  5
20
100
AcDbEntity
  8
0
100
AcDbBlockBegin
  2
*Model_Space
 70
0
 10
0.0
 20
0.0
 30
0.0
  3
*Model_Space
  1

  0
ENDBLK
  5
21
100
AcDbEntity
  8
0
100
AcDbBlockEnd
  0
BLOCK
  5
1C
100
AcDbEntity
  8
0
100
AcDbBlockBegin
  2
*Paper_Space
 70
0
 10
0.0
 20
0.0
 30
0.0
  3
*Paper_Space
  1

  0
ENDBLK
  5
1D
100
AcDbEntity
  8
0
100
AcDbBlockEnd
  0
BLOCK
  5
216
100
AcDbEntity
  8
0
100
AcDbBlockBegin
 62
2
  6
CONTINUOUS
  2
SUN_FIRST_THIRD_ANGLE_BL0
 70
64
 10
20.4816717061
 20
1.2289683772
  3
SUN_FIRST_THIRD_ANGLE_BL0
  1

  0
TEXT
  5
217
100
AcDbEntity
  8
0
100
AcDbText
 62
2
  6
CONTINUOUS
 10
19.4750896608
 20
1.4136269581
  7
STANDARD
 40
0.08
  1
FIRST ANGLE
 41
0.8
 72
0
100
AcDbText
  0
TEXT
  5
218
100
AcDbEntity
  8
0
100
AcDbText
 62
2
  6
CONTINUOUS
 10
20.7842537513
 20
1.4047600029
  7
STANDARD
 40
0.08
  1
THIRD ANGLE
 41
0.8
 72
0
100
AcDbText
  0
LINE
  5
219
100
AcDbEntity
  8
0
100
AcDbLine
 62
7
  6
CONTINUOUS
 10
19.4767170086
 20
1.1727031207
 11
19.6334271527
 21
1.1717972817
  0
LINE
  5
21A
100
AcDbEntity
  8
0
100
AcDbLine
 62
7
  6
CONTINUOUS
 10
19.6596964832
 20
1.1717972817
 11
19.6950230232
 21
1.171593082
  0
LINE
  5
21B
100
AcDbEntity
  8
0
100
AcDbLine
 62
7
  6
CONTINUOUS
 10
19.7194818561
 20
1.1708914427
 11
19.8852396156
 21
1.1699333054
  0
LINE
  5
21C
100
AcDbEntity
  8
0
100
AcDbLine
 62
7
  6
CONTINUOUS
 10
19.4758111696
 20
1.2723454088
 11
19.88525039
 21
1.3511534004
  0
LINE
  5
21D
100
AcDbEntity
  8
0
100
AcDbLine
 62
7
  6
CONTINUOUS
 10
19.88525039
 20
1.3511534004
 11
19.8831348489
 21
0.9851647912
  0
LINE
  5
21E
100
AcDbEntity
  8
0
100
AcDbLine
 62
7
  6
CONTINUOUS
 10
19.8831348489
 20
0.9851647912
 11
19.4767170086
 21
1.0658141206
  0
LINE
  5
21F
100
AcDbEntity
  8
0
100
AcDbLine
 62
7
  6
CONTINUOUS
 10
19.4767170086
 20
1.0658141206
 11
19.4779056764
 21
1.2714536432
  0
CIRCLE
  5
220
100
AcDbEntity
  8
0
100
AcDbCircle
 62
7
  6
CONTINUOUS
 10
20.2068232291
 20
1.1717972817
 40
0.175742101
  0
CIRCLE
  5
221
100
AcDbEntity
  8
0
100
AcDbCircle
 62
7
  6
CONTINUOUS
 10
20.2068232291
 20
1.1717972817
 40
0.1005522074
  0
LINE
  5
222
100
AcDbEntity
  8
0
100
AcDbLine
 62
7
  6
CONTINUOUS
 10
20.2077290681
 20
1.3756110529
 11
20.2071171714
 21
1.2379342989
  0
LINE
  5
223
100
AcDbEntity
  8
0
100
AcDbLine
 62
7
  6
CONTINUOUS
 10
20.2077290681
 20
1.2016899681
 11
20.2074674401
 21
1.1428236749
  0
LINE
  5
224
100
AcDbEntity
  8
0
100
AcDbLine
 62
7
  6
CONTINUOUS
 10
20.208634907
 20
1.101141841
 11
20.2080230104
 21
0.963465087
  0
LINE
  5
225
100
AcDbEntity
  8
0
100
AcDbLine
 62
7
  6
CONTINUOUS
 10
20.0066328138
 20
1.1745147986
 11
20.1443095678
 21
1.1739029019
  0
LINE
  5
226
100
AcDbEntity
  8
0
100
AcDbLine
 62
7
  6
CONTINUOUS
 10
20.1832714155
 20
1.1727031207
 11
20.238153505
 21
1.172335442
  0
LINE
  5
227
100
AcDbEntity
  8
0
100
AcDbLine
 62
7
  6
CONTINUOUS
 10
20.2756669918
 20
1.1717972817
 11
20.407916871
 21
1.1712095044
  0
CIRCLE
  5
228
100
AcDbEntity
  8
0
100
AcDbCircle
 62
7
  6
CONTINUOUS
 10
20.7509457401
 20
1.1693297793
 40
0.1722024983
  0
CIRCLE
  5
229
100
AcDbEntity
  8
0
100
AcDbCircle
 62
7
  6
CONTINUOUS
 10
20.7509457401
 20
1.1693297793
 40
0.0985164967
  0
LINE
  5
22A
100
AcDbEntity
  8
0
100
AcDbLine
 62
7
  6
CONTINUOUS
 10
20.7169767782
 20
1.170462078
 11
20.7825395137
 21
1.1682766535
  0
LINE
  5
22B
100
AcDbEntity
  8
0
100
AcDbLine
 62
7
  6
CONTINUOUS
 10
20.8177513651
 20
1.1693297793
 11
20.947965719
 21
1.1693297793
  0
LINE
  5
22C
100
AcDbEntity
  8
0
100
AcDbLine
 62
7
  6
CONTINUOUS
 10
20.6875370113
 20
1.170462078
 11
20.5573226574
 21
1.170462078
  0
LINE
  5
22D
100
AcDbEntity
  8
0
100
AcDbLine
 62
7
  6
CONTINUOUS
 10
20.7486811426
 20
1.1987695462
 11
20.7486811426
 21
1.1432869085
  0
LINE
  5
22E
100
AcDbEntity
  8
0
100
AcDbLine
 62
7
  6
CONTINUOUS
 10
20.7498134414
 20
1.1059210505
 11
20.7498134414
 21
0.9757066966
  0
LINE
  5
22F
100
AcDbEntity
  8
0
100
AcDbLine
 62
7
  6
CONTINUOUS
 10
20.7486811426
 20
1.2338708068
 11
20.7486811426
 21
1.3640851607
  0
LINE
  5
230
100
AcDbEntity
  8
0
100
AcDbLine
 62
7
  6
CONTINUOUS
 10
21.0702539817
 20
1.2701043662
 11
21.4790138229
 21
1.3448360823
  0
LINE
  5
231
100
AcDbEntity
  8
0
100
AcDbLine
 62
7
  6
CONTINUOUS
 10
21.4790138229
 20
1.3448360823
 11
21.4790138229
 21
0.9779712941
  0
LINE
  5
232
100
AcDbEntity
  8
0
100
AcDbLine
 62
7
  6
CONTINUOUS
 10
21.4790138229
 20
0.9779712941
 11
21.069121683
 21
1.0617614
  0
LINE
  5
233
100
AcDbEntity
  8
0
100
AcDbLine
 62
7
  6
CONTINUOUS
 10
21.0702539817
 20
1.2701043662
 11
21.069121683
 21
1.0617614
  0
LINE
  5
234
100
AcDbEntity
  8
0
100
AcDbLine
 62
7
  6
CONTINUOUS
 10
21.4790138229
 20
1.1693297793
 11
21.3159628059
 21
1.1693297793
  0
LINE
  5
235
100
AcDbEntity
  8
0
100
AcDbLine
 62
7
  6
CONTINUOUS
 10
21.2876553377
 20
1.1693297793
 11
21.2502894796
 21
1.1693297793
  0
LINE
  5
236
100
AcDbEntity
  8
0
100
AcDbLine
 62
7
  6
CONTINUOUS
 10
21.2208497126
 20
1.1659328831
 11
21.0713862804
 21
1.1659328831
  0
LINE
  5
237
100
AcDbEntity
  8
0
100
AcDbLine
 62
7
  6
CONTINUOUS
 10
20.4796138713
 20
1.5284908897
 11
20.4766766948
 21
0.9294458646
  0
ENDBLK
  5
238
100
AcDbEntity
  8
0
  6
BYBLOCK
 62
0
100
AcDbBlockEnd
  0
BLOCK
  5
239
100
AcDbEntity
  8
0
100
AcDbBlockBegin
  2
*T1
 70
1
 10
0.0
 20
0.0
  3
*T1
  1

  0
LINE
  5
23A
100
AcDbEntity
  8
0
100
AcDbLine
 62
2
  6
CONTINUOUS
 10
9.275
 20
0.0
 11
-0.0
 21
0.0
  0
LINE
  5
23B
100
AcDbEntity
  8
0
100
AcDbLine
 62
2
  6
CONTINUOUS
 10
9.275
 20
0.0
 11
9.275
 21
1.25
  0
LINE
  5
23C
100
AcDbEntity
  8
0
100
AcDbLine
 62
2
  6
CONTINUOUS
 10
9.275
 20
0.625
 11
-0.0
 21
0.625
  0
LINE
  5
23D
100
AcDbEntity
  8
0
100
AcDbLine
 62
2
  6
CONTINUOUS
 10
9.275
 20
1.25
 11
-0.0
 21
1.25
  0
LINE
  5
23E
100
AcDbEntity
  8
0
100
AcDbLine
 62
2
  6
CONTINUOUS
 10
6.8
 20
0.0
 11
6.8
 21
1.25
  0
LINE
  5
23F
100
AcDbEntity
  8
0
100
AcDbLine
 62
2
  6
CONTINUOUS
 10
6.4
 20
0.0
 11
6.4
 21
0.625
  0
LINE
  5
240
100
AcDbEntity
  8
0
100
AcDbLine
 62
2
  6
CONTINUOUS
 10
5.9
 20
0.0
 11
5.9
 21
0.625
  0
LINE
  5
241
100
AcDbEntity
  8
0
100
AcDbLine
 62
2
  6
CONTINUOUS
 10
5.2
 20
0.0
 11
5.2
 21
0.625
  0
LINE
  5
242
100
AcDbEntity
  8
0
100
AcDbLine
 62
2
  6
CONTINUOUS
 10
4.1
 20
0.0
 11
4.1
 21
1.25
  0
LINE
  5
243
100
AcDbEntity
  8
0
100
AcDbLine
 62
2
  6
CONTINUOUS
 10
-0.0
 20
0.0
 11
-0.0
 21
1.25
  0
MTEXT
  5
244
100
AcDbEntity
  8
0
100
AcDbMText
 62
2
  6
CONTINUOUS
  7
STANDARD
 71
2
 72
1
 10
6.6
 20
0.325
 30
0.0
 11
1.0
 21
0.0
 31
0.0
 44
0.9
  1
2
 40
0.125
 41
0.2
  0
MTEXT
  5
245
100
AcDbEntity
  8
0
100
AcDbMText
 62
2
  6
CONTINUOUS
  7
STANDARD
 71
2
 72
1
 10
6.15
 20
0.325
 30
0.0
 11
1.0
 21
0.0
 31
0.0
 44
0.9
  1
C
 40
0.125
 41
0.2
  0
MTEXT
  5
246
100
AcDbEntity
  8
0
100
AcDbMText
 62
2
  6
CONTINUOUS
  7
STANDARD
 71
2
 72
1
 10
5.55
 20
0.325
 30
0.0
 11
1.0
 21
0.0
 31
0.0
 44
0.9
  1
1.000
 40
0.125
 41
1.0
  0
MTEXT
  5
247
100
AcDbEntity
  8
0
100
AcDbMText
 62
2
  6
CONTINUOUS
  7
STANDARD
 71
2
 72
1
 10
4.65
 20
0.325
 30
0.0
 11
1.0
 21
0.0
 31
0.0
 44
0.9
  1
Sep-26-19
 40
0.125
 41
1.8
  0
MTEXT
  5
248
100
AcDbEntity
  8
0
100
AcDbMText
 62
2
  6
CONTINUOUS
  7
STANDARD
 71
2
 72
1
 10
2.05
 20
0.4625
 30
0.0
 11
1.0
 21
0.0
 31
0.0
 44
0.9
  1
T-17A Sandwich ISO 05\POn P, port 3 to T
 40
0.125
 41
4.2
  0
MTEXT
  5
249
100
AcDbEntity
  8
0
100
AcDbMText
 62
2
  6
CONTINUOUS
  7
STANDARD
 71
1
 72
1
 10
6.45
 20
0.5625
 30
0.0
 11
1.0
 21
0.0
 31
0.0
 44
0.9
  1
SHEET
 40
0.06
 41
0.48
  0
MTEXT
  5
24A
100
AcDbEntity
  8
0
100
AcDbMText
 62
2
  6
CONTINUOUS
  7
STANDARD
 71
1
 72
1
 10
5.95
 20
0.5625
 30
0.0
 11
1.0
 21
0.0
 31
0.0
 44
0.9
  1
DWG SIZE
 40
0.06
 41
0.768
  0
MTEXT
  5
24B
100
AcDbEntity
  8
0
100
AcDbMText
 62
2
  6
CONTINUOUS
  7
STANDARD
 71
1
 72
1
 10
5.25
 20
0.5625
 30
0.0
 11
1.0
 21
0.0
 31
0.0
 44
0.9
  1
SCALE
 40
0.06
 41
0.48
  0
MTEXT
  5
24C
100
AcDbEntity
  8
0
100
AcDbMText
 62
2
  6
CONTINUOUS
  7
STANDARD
 71
1
 72
1
 10
4.15
 20
0.5625
 30
0.0
 11
1.0
 21
0.0
 31
0.0
 44
0.9
  1
DATE
 40
0.06
 41
0.384
  0
MTEXT
  5
24D
100
AcDbEntity
  8
0
100
AcDbMText
 62
2
  6
CONTINUOUS
  7
STANDARD
 71
1
 72
1
 10
0.05
 20
0.5625
 30
0.0
 11
1.0
 21
0.0
 31
0.0
 44
0.9
  1
DESCRIPTION
 40
0.06
 41
1.056
  0
MTEXT
  5
24E
100
AcDbEntity
  8
0
100
AcDbMText
 62
2
  6
CONTINUOUS
  7
STANDARD
 71
2
 72
1
 10
5.45
 20
1.0375
 30
0.0
 11
1.0
 21
0.0
 31
0.0
 44
0.9
  1
ALL DIMENSIONS IN INCH\PVIEWS ARE THIRD ANGLE
 40
0.12
 41
4.224
  0
MTEXT
  5
24F
100
AcDbEntity
  8
0
100
AcDbMText
 62
2
  6
CONTINUOUS
  7
STANDARD
 71
2
 72
1
 10
2.05
 20
0.95
 30
0.0
 11
1.0
 21
0.0
 31
0.0
 44
0.9
  1
WCC
 40
0.125
 41
0.6
  0
MTEXT
  5
250
100
AcDbEntity
  8
0
100
AcDbMText
 62
2
  6
CONTINUOUS
  7
STANDARD
 71
1
 72
1
 10
0.05
 20
1.1875
 30
0.0
 11
1.0
 21
0.0
 31
0.0
 44
0.9
  1
MODEL
 40
0.06
 41
0.48
  0
ENDBLK
  5
251
100
AcDbEntity
  8
0
  6
BYBLOCK
 62
0
100
AcDbBlockEnd
  0
BLOCK
  5
252
100
AcDbEntity
  8
0
100
AcDbBlockBegin
  2
*T2
 70
1
 10
0.0
 20
0.0
  3
*T2
  1

  0
LINE
  5
253
100
AcDbEntity
  8
0
100
AcDbLine
 62
2
  6
CONTINUOUS
 10
0.0
 20
0.0
 11
9.055
 21
0.0
  0
LINE
  5
254
100
AcDbEntity
  8
0
100
AcDbLine
 62
2
  6
CONTINUOUS
 10
0.0
 20
0.0
 11
0.0
 21
-2.344
  0
LINE
  5
255
100
AcDbEntity
  8
0
100
AcDbLine
 62
2
  6
CONTINUOUS
 10
0.0
 20
-0.344
 11
9.055
 21
-0.344
  0
LINE
  5
256
100
AcDbEntity
  8
0
100
AcDbLine
 62
2
  6
CONTINUOUS
 10
0.0
 20
-0.594
 11
9.055
 21
-0.594
  0
LINE
  5
257
100
AcDbEntity
  8
0
100
AcDbLine
 62
2
  6
CONTINUOUS
 10
0.0
 20
-0.844
 11
9.055
 21
-0.844
  0
LINE
  5
258
100
AcDbEntity
  8
0
100
AcDbLine
 62
2
  6
CONTINUOUS
 10
0.0
 20
-1.094
 11
9.055
 21
-1.094
  0
LINE
  5
259
100
AcDbEntity
  8
0
100
AcDbLine
 62
2
  6
CONTINUOUS
 10
0.0
 20
-1.344
 11
9.055
 21
-1.344
  0
LINE
  5
25A
100
AcDbEntity
  8
0
100
AcDbLine
 62
2
  6
CONTINUOUS
 10
0.0
 20
-1.594
 11
9.055
 21
-1.594
  0
LINE
  5
25B
100
AcDbEntity
  8
0
100
AcDbLine
 62
2
  6
CONTINUOUS
 10
0.0
 20
-1.844
 11
9.055
 21
-1.844
  0
LINE
  5
25C
100
AcDbEntity
  8
0
100
AcDbLine
 62
2
  6
CONTINUOUS
 10
0.0
 20
-2.094
 11
9.055
 21
-2.094
  0
LINE
  5
25D
100
AcDbEntity
  8
0
100
AcDbLine
 62
2
  6
CONTINUOUS
 10
0.0
 20
-2.344
 11
9.055
 21
-2.344
  0
LINE
  5
25E
100
AcDbEntity
  8
0
100
AcDbLine
 62
2
  6
CONTINUOUS
 10
3.055
 20
0.0
 11
3.055
 21
-2.344
  0
LINE
  5
25F
100
AcDbEntity
  8
0
100
AcDbLine
 62
2
  6
CONTINUOUS
 10
9.055
 20
0.0
 11
9.055
 21
-2.344
  0
MTEXT
  5
260
100
AcDbEntity
  8
0
100
AcDbMText
 62
2
  6
CONTINUOUS
  7
STANDARD
 71
2
 72
1
 10
1.5275
 20
-0.0995
 30
0.0
 11
1.0
 21
0.0
 31
0.0
 44
0.9
  1
Technical Data
 40
0.145
 41
3.248
  0
MTEXT
  5
261
100
AcDbEntity
  8
0
100
AcDbMText
 62
2
  6
CONTINUOUS
  7
STANDARD
 71
2
 72
1
 10
4.555
 20
-0.0995
 30
0.0
 11
1.0
 21
0.0
 31
0.0
 44
0.9
  1
U.S. Units
 40
0.145
 41
2.32
  0
MTEXT
  5
262
100
AcDbEntity
  8
0
100
AcDbMText
 62
2
  6
CONTINUOUS
  7
STANDARD
 71
2
 72
1
 10
7.555
 20
-0.0995
 30
0.0
 11
1.0
 21
0.0
 31
0.0
 44
0.9
  1
Metric Units
 40
0.145
 41
2.784
  0
MTEXT
  5
263
100
AcDbEntity
  8
0
100
AcDbMText
 62
2
  6
CONTINUOUS
  7
STANDARD
 71
2
 72
1
 10
1.5275
 20
-0.4065
 30
0.0
 11
1.0
 21
0.0
 31
0.0
 44
0.9
  1
Cavity
 40
0.125
 41
1.2
  0
MTEXT
  5
264
100
AcDbEntity
  8
0
100
AcDbMText
 62
2
  6
CONTINUOUS
  7
STANDARD
 71
2
 72
1
 10
6.055
 20
-0.4065
 30
0.0
 11
1.0
 21
0.0
 31
0.0
 44
0.9
  1
T-17A
 40
0.125
 41
1.0
  0
MTEXT
  5
265
100
AcDbEntity
  8
0
100
AcDbMText
 62
2
  6
CONTINUOUS
  7
STANDARD
 71
2
 72
1
 10
1.5275
 20
-0.6565
 30
0.0
 11
1.0
 21
0.0
 31
0.0
 44
0.9
  1
Body Features
 40
0.125
 41
2.6
  0
MTEXT
  5
266
100
AcDbEntity
  8
0
100
AcDbMText
 62
2
  6
CONTINUOUS
  7
STANDARD
 71
2
 72
1
 10
6.055
 20
-0.6565
 30
0.0
 11
1.0
 21
0.0
 31
0.0
 44
0.9
  1
On P, port 3 to T
 40
0.125
 41
3.4
  0
MTEXT
  5
267
100
AcDbEntity
  8
0
100
AcDbMText
 62
2
  6
CONTINUOUS
  7
STANDARD
 71
2
 72
1
 10
1.5275
 20
-0.9065
 30
0.0
 11
1.0
 21
0.0
 31
0.0
 44
0.9
  1
Body Type
 40
0.125
 41
1.8
  0
MTEXT
  5
268
100
AcDbEntity
  8
0
100
AcDbMText
 62
2
  6
CONTINUOUS
  7
STANDARD
 71
2
 72
1
 10
6.055
 20
-0.9065
 30
0.0
 11
1.0
 21
0.0
 31
0.0
 44
0.9
  1
Sandwich
 40
0.125
 41
1.6
  0
MTEXT
  5
269
100
AcDbEntity
  8
0
100
AcDbMText
 62
2
  6
CONTINUOUS
  7
STANDARD
 71
2
 72
1
 10
1.5275
 20
-1.1565
 30
0.0
 11
1.0
 21
0.0
 31
0.0
 44
0.9
  1
Interface
 40
0.125
 41
1.8
  0
MTEXT
  5
26A
100
AcDbEntity
  8
0
100
AcDbMText
 62
2
  6
CONTINUOUS
  7
STANDARD
 71
2
 72
1
 10
6.055
 20
-1.1565
 30
0.0
 11
1.0
 21
0.0
 31
0.0
 44
0.9
  1
ISO 05
 40
0.125
 41
1.2
  0
MTEXT
  5
26B
100
AcDbEntity
  8
0
100
AcDbMText
 62
2
  6
CONTINUOUS
  7
STANDARD
 71
2
 72
1
 10
1.5275
 20
-1.4065
 30
0.0
 11
1.0
 21
0.0
 31
0.0
 44
0.9
  1
Open Cavity Quantity
 40
0.125
 41
4.0
  0
MTEXT
  5
26C
100
AcDbEntity
  8
0
100
AcDbMText
 62
2
  6
CONTINUOUS
  7
STANDARD
 71
2
 72
1
 10
6.055
 20
-1.4065
 30
0.0
 11
1.0
 21
0.0
 31
0.0
 44
0.9
  1
1
 40
0.125
 41
0.2
  0
MTEXT
  5
26D
100
AcDbEntity
  8
0
100
AcDbMText
 62
2
  6
CONTINUOUS
  7
STANDARD
 71
2
 72
1
 10
1.5275
 20
-1.6565
 30
0.0
 11
1.0
 21
0.0
 31
0.0
 44
0.9
  1
Stack Height
 40
0.125
 41
2.4
  0
MTEXT
  5
26E
100
AcDbEntity
  8
0
100
AcDbMText
 62
2
  6
CONTINUOUS
  7
STANDARD
 71
2
 72
1
 10
4.555
 20
-1.6565
 30
0.0
 11
1.0
 21
0.0
 31
0.0
 44
0.9
  1
3.94 in.
 40
0.125
 41
1.6
  0
MTEXT
  5
26F
100
AcDbEntity
  8
0
100
AcDbMText
 62
2
  6
CONTINUOUS
  7
STANDARD
 71
2
 72
1
 10
7.555
 20
-1.6565
 30
0.0
 11
1.0
 21
0.0
 31
0.0
 44
0.9
  1
100 mm
 40
0.125
 41
1.2
  0
MTEXT
  5
270
100
AcDbEntity
  8
0
100
AcDbMText
 62
2
  6
CONTINUOUS
  7
STANDARD
 71
2
 72
1
 10
1.5275
 20
-1.9065
 30
0.0
 11
1.0
 21
0.0
 31
0.0
 44
0.9
  1
Weight
 40
0.125
 41
1.2
  0
MTEXT
  5
271
100
AcDbEntity
  8
0
100
AcDbMText
 62
2
  6
CONTINUOUS
  7
STANDARD
 71
2
 72
1
 10
4.555
 20
-1.9065
 30
0.0
 11
1.0
 21
0.0
 31
0.0
 44
0.9
  1
3.893 lb.
 40
0.125
 41
1.8
  0
MTEXT
  5
272
100
AcDbEntity
  8
0
100
AcDbMText
 62
2
  6
CONTINUOUS
  7
STANDARD
 71
2
 72
1
 10
7.555
 20
-1.9065
 30
0.0
 11
1.0
 21
0.0
 31
0.0
 44
0.9
  1
1,766 kg.
 40
0.125
 41
1.8
  0
MTEXT
  5
273
100
AcDbEntity
  8
0
100
AcDbMText
 62
2
  6
CONTINUOUS
  7
STANDARD
 71
2
 72
1
 10
1.5275
 20
-2.1565
 30
0.0
 11
1.0
 21
0.0
 31
0.0
 44
0.9
  1
Seal Plate Included (see notes)
 40
0.125
 41
6.2
  0
MTEXT
  5
274
100
AcDbEntity
  8
0
100
AcDbMText
 62
2
  6
CONTINUOUS
  7
STANDARD
 71
2
 72
1
 10
6.055
 20
-2.1565
 30
0.0
 11
1.0
 21
0.0
 31
0.0
 44
0.9
  1
No
 40
0.125
 41
0.4
  0
ENDBLK
  5
275
100
AcDbEntity
  8
0
  6
BYBLOCK
 62
0
100
AcDbBlockEnd
  0
BLOCK
  5
276
100
AcDbEntity
  8
0
100
AcDbBlockBegin
  2
*T3
 70
1
 10
0.0
 20
0.0
  3
*T3
  1

  0
LINE
  5
277
100
AcDbEntity
  8
0
100
AcDbLine
 62
2
  6
CONTINUOUS
 10
0.0
 20
0.0
 11
4.6
 21
0.0
  0
LINE
  5
278
100
AcDbEntity
  8
0
100
AcDbLine
 62
2
  6
CONTINUOUS
 10
0.0
 20
0.0
 11
0.0
 21
-0.93775
  0
LINE
  5
279
100
AcDbEntity
  8
0
100
AcDbLine
 62
2
  6
CONTINUOUS
 10
0.0
 20
-0.34375
 11
4.6
 21
-0.34375
  0
LINE
  5
27A
100
AcDbEntity
  8
0
100
AcDbLine
 62
2
  6
CONTINUOUS
 10
0.0
 20
-0.68775
 11
4.6
 21
-0.68775
  0
LINE
  5
27B
100
AcDbEntity
  8
0
100
AcDbLine
 62
2
  6
CONTINUOUS
 10
0.0
 20
-0.93775
 11
4.6
 21
-0.93775
  0
LINE
  5
27C
100
AcDbEntity
  8
0
100
AcDbLine
 62
2
  6
CONTINUOUS
 10
1.3
 20
-0.34375
 11
1.3
 21
-0.93775
  0
LINE
  5
27D
100
AcDbEntity
  8
0
100
AcDbLine
 62
2
  6
CONTINUOUS
 10
3.3
 20
-0.34375
 11
3.3
 21
-0.93775
  0
LINE
  5
27E
100
AcDbEntity
  8
0
100
AcDbLine
 62
2
  6
CONTINUOUS
 10
4.6
 20
0.0
 11
4.6
 21
-0.93775
  0
MTEXT
  5
27F
100
AcDbEntity
  8
0
100
AcDbMText
 62
2
  6
CONTINUOUS
  7
STANDARD
 71
2
 72
1
 10
2.3
 20
-0.099375
 30
0.0
 11
1.0
 21
0.0
 31
0.0
 44
0.9
  1
Port Headings
 40
0.145
 41
3.016
  0
MTEXT
  5
280
100
AcDbEntity
  8
0
100
AcDbMText
 62
2
  6
CONTINUOUS
  7
STANDARD
 71
2
 72
1
 10
0.65
 20
-0.44325
 30
0.0
 11
1.0
 21
0.0
 31
0.0
 44
0.9
  1
Product
 40
0.145
 41
1.624
  0
MTEXT
  5
281
100
AcDbEntity
  8
0
100
AcDbMText
 62
2
  6
CONTINUOUS
  7
STANDARD
 71
2
 72
1
 10
2.3
 20
-0.44325
 30
0.0
 11
1.0
 21
0.0
 31
0.0
 44
0.9
  1
Port
 40
0.145
 41
0.928
  0
MTEXT
  5
282
100
AcDbEntity
  8
0
100
AcDbMText
 62
2
  6
CONTINUOUS
  7
STANDARD
 71
2
 72
1
 10
3.95
 20
-0.44325
 30
0.0
 11
1.0
 21
0.0
 31
0.0
 44
0.9
  1
Size
 40
0.145
 41
0.928
  0
MTEXT
  5
283
100
AcDbEntity
  8
0
100
AcDbMText
 62
2
  6
CONTINUOUS
  7
STANDARD
 71
2
 72
1
 10
0.65
 20
-0.75025
 30
0.0
 11
1.0
 21
0.0
 31
0.0
 44
0.9
  1
WCC
 40
0.125
 41
0.6
  0
MTEXT
  5
284
100
AcDbEntity
  8
0
100
AcDbMText
 62
2
  6
CONTINUOUS
  7
STANDARD
 71
2
 72
1
 10
2.3
 20
-0.75025
 30
0.0
 11
1.0
 21
0.0
 31
0.0
 44
0.9
  1
Gage Port (Plugged)
 40
0.125
 41
3.8
  0
MTEXT
  5
285
100
AcDbEntity
  8
0
100
AcDbMText
 62
2
  6
CONTINUOUS
  7
STANDARD
 71
2
 72
1
 10
3.95
 20
-0.75025
 30
0.0
 11
1.0
 21
0.0
 31
0.0
 44
0.9
  1
1/4" NPTF
 40
0.125
 41
1.8
  0
ENDBLK
  5
286
100
AcDbEntity
  8
0
  6
BYBLOCK
 62
0
100
AcDbBlockEnd
  0
ENDSEC
  0
SECTION
  2
ENTITIES
  0
IMAGE
  5
287
100
AcDbEntity
  8
0
100
AcDbRasterImage
 62
7
  6
CONTINUOUS
 10
19.2297077316
 20
0.3094318264
 30
0.0
 11
0.0066666667
 21
0.0
 31
0.0
 12
0.0
 22
0.0066666667
 32
0.0
 13
369.0
 23
92.0
340
       305
 70
9
280
0
281
50
282
50
283
0
360
       2FF
 71
1
 91
2
 14
-0.5
 24
-0.5
 14
368.5
 24
91.5
  0
INSERT
  5
288
100
AcDbEntity
  8
0
100
AcDbBlockReference
 62
2
  6
CONTINUOUS
  2
SUN_FIRST_THIRD_ANGLE_BL0
 10
20.4816717061
 20
1.2289683772
  0
ACAD_TABLE
  5
289
100
AcDbEntity
  8
0
 62
2
  6
CONTINUOUS
100
AcDbBlockReference
  2
*T1
 10
12.42375
 20
0.30125
 30
0.0
100
AcDbTable
342
       307
343
212
 11
1.0
 21
0.0
 31
0.0
 90
6
 91
4
 92
6
 93
20
 94
0
 95
0
 96
0
 70
1
 41
0.0
141
0.525
141
0.1
141
0.525
141
0.1
142
4.1
142
1.1
142
0.7
142
0.5
142
0.4
142
2.475
171
1
172
0
173
0
174
0
175
1
176
1
 91
33
178
0
145
0.0
301
CELL_VALUE
 90
4
  1
T-17A Sandwich ISO 05\POn P, port 3 to T
304
ACVALUE_END
170
2
140
0.125
171
1
172
0
173
0
174
0
175
1
176
1
 91
33
178
0
145
0.0
301
CELL_VALUE
 90
4
  1
Sep-26-19
304
ACVALUE_END
170
5
140
0.125
171
1
172
0
173
0
174
0
175
1
176
1
 91
33
178
0
145
0.0
301
CELL_VALUE
 90
4
  1
1.000
304
ACVALUE_END
170
5
140
0.125
171
1
172
0
173
0
174
0
175
1
176
1
 91
33
178
0
145
0.0
301
CELL_VALUE
 90
4
  1
C
304
ACVALUE_END
170
5
140
0.125
171
1
172
0
173
0
174
0
175
1
176
1
 91
33
178
0
145
0.0
301
CELL_VALUE
 90
4
  1
2
304
ACVALUE_END
170
5
140
0.125
171
1
172
0
173
0
174
0
175
1
176
1
 91
33
178
0
145
0.0
301
CELL_VALUE
 90
4
  1
 
304
ACVALUE_END
170
1
140
0.125
171
1
172
0
173
0
174
0
175
1
176
1
 91
33
178
0
145
0.0
301
CELL_VALUE
 90
4
  1
DESCRIPTION
304
ACVALUE_END
170
1
140
0.06
171
1
172
0
173
0
174
0
175
1
176
1
 91
33
178
0
145
0.0
301
CELL_VALUE
 90
4
  1
DATE
304
ACVALUE_END
170
1
140
0.06
171
1
172
0
173
0
174
0
175
1
176
1
 91
33
178
0
145
0.0
301
CELL_VALUE
 90
4
  1
SCALE
304
ACVALUE_END
170
1
140
0.06
171
1
172
0
173
0
174
0
175
1
176
1
 91
33
178
0
145
0.0
301
CELL_VALUE
 90
4
  1
DWG SIZE
304
ACVALUE_END
170
1
140
0.06
171
1
172
0
173
0
174
0
175
1
176
1
 91
33
178
0
145
0.0
301
CELL_VALUE
 90
4
  1
SHEET
304
ACVALUE_END
170
1
140
0.06
171
1
172
0
173
0
174
0
175
1
176
1
 91
33
178
0
145
0.0
301
CELL_VALUE
 90
4
  1
 
304
ACVALUE_END
170
1
140
0.125
171
1
172
0
173
0
174
0
175
1
176
1
 91
33
178
0
145
0.0
301
CELL_VALUE
 90
4
  1
WCC
304
ACVALUE_END
170
5
140
0.125
171
1
172
0
173
0
174
0
175
4
176
1
 91
33
178
0
145
0.0
301
CELL_VALUE
 90
4
  1
ALL DIMENSIONS IN INCH\PVIEWS ARE THIRD ANGLE
304
ACVALUE_END
170
5
140
0.12
171
1
172
0
173
1
174
0
175
1
176
1
 91
1
178
0
145
0.0
170
1
171
1
172
0
173
1
174
0
175
1
176
1
 91
1
178
0
145
0.0
170
1
171
1
172
0
173
1
174
0
175
1
176
1
 91
1
178
0
145
0.0
170
5
171
1
172
0
173
0
174
0
175
1
176
1
 91
33
178
0
145
0.0
301
CELL_VALUE
 90
4
  1
 
304
ACVALUE_END
170
1
140
0.125
171
1
172
0
173
0
174
0
175
1
176
1
 91
33
178
0
145
0.0
301
CELL_VALUE
 90
4
  1
MODEL
304
ACVALUE_END
170
1
140
0.06
171
1
172
0
173
0
174
0
175
1
176
1
 91
33
178
0
145
0.0
301
CELL_VALUE
 90
4
  1
 
304
ACVALUE_END
170
1
140
0.125
171
1
172
0
173
0
174
0
175
1
176
1
 91
33
178
0
145
0.0
301
CELL_VALUE
 90
4
  1
 
304
ACVALUE_END
170
1
140
0.125
171
1
172
0
173
0
174
0
175
1
176
1
 91
33
178
0
145
0.0
301
CELL_VALUE
 90
4
  1
 
304
ACVALUE_END
170
1
140
0.125
171
1
172
0
173
0
174
0
175
1
176
1
 91
33
178
0
145
0.0
301
CELL_VALUE
 90
4
  1
 
304
ACVALUE_END
170
1
140
0.125
171
1
172
0
173
0
174
0
175
1
176
1
 91
33
178
0
145
0.0
301
CELL_VALUE
 90
4
  1
 
304
ACVALUE_END
170
1
140
0.125
  0
ACAD_TABLE
  5
28A
100
AcDbEntity
  8
0
 62
2
  6
CONTINUOUS
100
AcDbBlockReference
  2
*T2
 10
12.4237499994
 20
16.47875
 30
0.0
100
AcDbTable
342
       306
343
213
 11
1.0
 21
0.0
 31
0.0
 90
22
 91
9
 92
3
 93
16
 94
0
 95
0
 96
0
 41
0.028
141
0.344
141
0.25
141
0.25
141
0.25
141
0.25
141
0.25
141
0.25
141
0.25
141
0.25
142
3.055
142
3.0
142
3.0
171
1
172
0
173
0
174
0
175
1
176
1
 91
33
178
0
145
0.0
301
CELL_VALUE
 90
4
  1
Technical Data
304
ACVALUE_END
170
5
140
0.145
171
1
172
0
173
0
174
0
175
1
176
1
 91
33
178
0
145
0.0
301
CELL_VALUE
 90
4
  1
U.S. Units
304
ACVALUE_END
170
5
140
0.145
171
1
172
0
173
0
174
0
175
1
176
1
 91
33
178
0
145
0.0
301
CELL_VALUE
 90
4
  1
Metric Units
304
ACVALUE_END
170
5
140
0.145
171
1
172
0
173
0
174
0
175
1
176
1
 91
33
178
0
145
0.0
301
CELL_VALUE
 90
4
  1
Cavity
304
ACVALUE_END
170
5
140
0.125
171
1
172
0
173
0
174
0
175
2
176
1
 91
33
178
0
145
0.0
301
CELL_VALUE
 90
4
  1
T-17A
304
ACVALUE_END
170
5
140
0.125
171
1
172
0
173
1
174
0
175
1
176
1
 91
1
178
0
145
0.0
170
1
171
1
172
0
173
0
174
0
175
1
176
1
 91
33
178
0
145
0.0
301
CELL_VALUE
 90
4
  1
Body Features
304
ACVALUE_END
170
5
140
0.125
171
1
172
0
173
0
174
0
175
2
176
1
 91
33
178
0
145
0.0
301
CELL_VALUE
 90
4
  1
On P, port 3 to T
304
ACVALUE_END
170
5
140
0.125
171
1
172
0
173
1
174
0
175
1
176
1
 91
1
178
0
145
0.0
170
1
171
1
172
0
173
0
174
0
175
1
176
1
 91
33
178
0
145
0.0
301
CELL_VALUE
 90
4
  1
Body Type
304
ACVALUE_END
170
5
140
0.125
171
1
172
0
173
0
174
0
175
2
176
1
 91
33
178
0
145
0.0
301
CELL_VALUE
 90
4
  1
Sandwich
304
ACVALUE_END
170
5
140
0.125
171
1
172
0
173
1
174
0
175
1
176
1
 91
1
178
0
145
0.0
170
1
171
1
172
0
173
0
174
0
175
1
176
1
 91
33
178
0
145
0.0
301
CELL_VALUE
 90
4
  1
Interface
304
ACVALUE_END
170
5
140
0.125
171
1
172
0
173
0
174
0
175
2
176
1
 91
33
178
0
145
0.0
301
CELL_VALUE
 90
4
  1
ISO 05
304
ACVALUE_END
170
5
140
0.125
171
1
172
0
173
1
174
0
175
1
176
1
 91
1
178
0
145
0.0
170
1
171
1
172
0
173
0
174
0
175
1
176
1
 91
33
178
0
145
0.0
301
CELL_VALUE
 90
4
  1
Open Cavity Quantity
304
ACVALUE_END
170
5
140
0.125
171
1
172
0
173
0
174
0
175
2
176
1
 91
33
178
0
145
0.0
301
CELL_VALUE
 90
4
  1
1
304
ACVALUE_END
170
5
140
0.125
171
1
172
0
173
1
174
0
175
1
176
1
 91
1
178
0
145
0.0
170
1
171
1
172
0
173
0
174
0
175
1
176
1
 91
33
178
0
145
0.0
301
CELL_VALUE
 90
4
  1
Stack Height
304
ACVALUE_END
170
5
140
0.125
171
1
172
0
173
0
174
0
175
1
176
1
 91
33
178
0
145
0.0
301
CELL_VALUE
 90
4
  1
3.94 in.
304
ACVALUE_END
170
5
140
0.125
171
1
172
0
173
0
174
0
175
1
176
1
 91
33
178
0
145
0.0
301
CELL_VALUE
 90
4
  1
100 mm
304
ACVALUE_END
170
5
140
0.125
171
1
172
0
173
0
174
0
175
1
176
1
 91
33
178
0
145
0.0
301
CELL_VALUE
 90
4
  1
Weight
304
ACVALUE_END
170
5
140
0.125
171
1
172
0
173
0
174
0
175
1
176
1
 91
33
178
0
145
0.0
301
CELL_VALUE
 90
4
  1
3.893 lb.
304
ACVALUE_END
170
5
140
0.125
171
1
172
0
173
0
174
0
175
1
176
1
 91
33
178
0
145
0.0
301
CELL_VALUE
 90
4
  1
1,766 kg.
304
ACVALUE_END
170
5
140
0.125
171
1
172
0
173
0
174
0
175
1
176
1
 91
33
178
0
145
0.0
301
CELL_VALUE
 90
4
  1
Seal Plate Included (see notes)
304
ACVALUE_END
170
5
140
0.125
171
1
172
0
173
0
174
0
175
2
176
1
 91
33
178
0
145
0.0
301
CELL_VALUE
 90
4
  1
No
304
ACVALUE_END
170
5
140
0.125
171
1
172
0
173
1
174
0
175
1
176
1
 91
1
178
0
145
0.0
170
1
  0
ACAD_TABLE
  5
28B
100
AcDbEntity
  8
0
 62
2
  6
CONTINUOUS
100
AcDbBlockReference
  2
*T3
 10
0.52125
 20
1.459
 30
0.0
100
AcDbTable
342
       306
343
214
 11
1.0
 21
0.0
 31
0.0
 90
22
 91
3
 92
3
 93
16
 94
0
 95
0
 96
0
 41
0.05
141
0.34375
141
0.344
141
0.25
142
1.3
142
2.0
142
1.3
171
1
172
0
173
0
174
0
175
3
176
1
 91
33
178
0
145
0.0
301
CELL_VALUE
 90
4
  1
Port Headings
304
ACVALUE_END
170
5
140
0.145
171
1
172
0
173
1
174
0
175
1
176
1
 91
1
178
0
145
0.0
170
1
171
1
172
0
173
1
174
0
175
1
176
1
 91
1
178
0
145
0.0
170
1
171
1
172
0
173
0
174
0
175
1
176
1
 91
33
178
0
145
0.0
301
CELL_VALUE
 90
4
  1
Product
304
ACVALUE_END
170
5
140
0.145
171
1
172
0
173
0
174
0
175
1
176
1
 91
33
178
0
145
0.0
301
CELL_VALUE
 90
4
  1
Port
304
ACVALUE_END
170
5
140
0.145
171
1
172
0
173
0
174
0
175
1
176
1
 91
33
178
0
145
0.0
301
CELL_VALUE
 90
4
  1
Size
304
ACVALUE_END
170
5
140
0.145
171
1
172
0
173
0
174
0
175
1
176
1
 91
33
178
0
145
0.0
301
CELL_VALUE
 90
4
  1
WCC
304
ACVALUE_END
170
5
140
0.125
171
1
172
0
173
0
174
0
175
1
176
1
 91
33
178
0
145
0.0
301
CELL_VALUE
 90
4
  1
Gage Port (Plugged)
304
ACVALUE_END
170
5
140
0.125
171
1
172
0
173
0
174
0
175
1
176
1
 91
33
178
0
145
0.0
301
CELL_VALUE
 90
4
  1
1/4" NPTF
304
ACVALUE_END
170
5
140
0.125
  0
MTEXT
  5
28C
100
AcDbEntity
  8
0
100
AcDbMText
 62
2
  6
CONTINUOUS
  7
STANDARD
 71
1
 72
1
 10
0.52125
 20
5.75995
 30
0.0
 11
1.0
 21
0.0
 31
0.0
 44
0.6
  3
Notes\P \P1. Important: Carefully consider\P   the maximum system pressure. The\P   pressure rating of the manifold is\P   dependent on the manifold material,\P   with the port type/size a secondary\P   consideration. Manifolds\P   constructed of alu
  1
minum are not\P   rated for pressures higher than\P   3000 psi (210 bar), regardless of\P   the port type/size specified.\P2. Seal retainer plate is not\P   required for this model.
 40
0.1
 41
3.04
  0
LINE
  5
28D
100
AcDbEntity
  8
0
100
AcDbLine
 62
7
  6
CONTINUOUS
 10
0.30125
 20
0.30125
 11
0.30125
 21
16.69875
  0
LINE
  5
28E
100
AcDbEntity
  8
0
100
AcDbLine
 62
7
  6
CONTINUOUS
 10
0.30125
 20
0.30125
 11
21.69875
 21
0.30125
  0
LINE
  5
28F
100
AcDbEntity
  8
0
100
AcDbLine
 62
7
  6
CONTINUOUS
 10
0.30125
 20
16.69875
 11
21.69875
 21
16.69875
  0
LINE
  5
290
100
AcDbEntity
  8
0
100
AcDbLine
 62
7
  6
CONTINUOUS
 10
21.69875
 20
0.30125
 11
21.69875
 21
16.69875
  0
LINE
  5
291
100
AcDbEntity
  8
0
100
AcDbLine
 62
7
  6
CONTINUOUS
 10
8.151418219
 20
7.193805341
 11
8.1255427431
 21
7.2256205908
  0
LINE
  5
292
100
AcDbEntity
  8
0
100
AcDbLine
 62
7
  6
CONTINUOUS
 10
8.0816532568
 20
9.0392532678
 11
8.0816532568
 21
7.4696237071
  0
LINE
  5
293
100
AcDbEntity
  8
0
100
AcDbLine
 62
7
  6
CONTINUOUS
 10
8.1035735755
 20
9.0294266709
 11
8.1035735755
 21
7.4597971102
  0
LINE
  5
294
100
AcDbEntity
  8
0
100
AcDbLine
 62
7
  6
CONTINUOUS
 10
8.9875191671
 20
10.2465311014
 11
8.1706869349
 21
9.4575317058
  0
LINE
  5
295
100
AcDbEntity
  8
0
100
AcDbLine
 62
7
  6
CONTINUOUS
 10
9.0174628695
 20
10.274398201
 11
8.2006306373
 21
9.4853988054
  0
LINE
  5
296
100
AcDbEntity
  8
0
100
AcDbLine
 62
7
  6
CONTINUOUS
 10
9.0183790726
 20
10.275267046
 11
9.0174628695
 21
10.274398201
  0
LINE
  5
297
100
AcDbEntity
  8
0
100
AcDbLine
 62
7
  6
CONTINUOUS
 10
8.9883606772
 20
10.2473289233
 11
8.9875191671
 21
10.2465311014
  0
LINE
  5
298
100
AcDbEntity
  8
0
100
AcDbLine
 62
7
  6
CONTINUOUS
 10
8.9875191671
 20
10.2465311014
 11
9.0174548203
 21
10.2744068496
  0
LINE
  5
299
100
AcDbEntity
  8
0
100
AcDbLine
 62
7
  6
CONTINUOUS
 10
8.1706869349
 20
9.4575317058
 11
8.2006306373
 21
9.4853988054
  0
LINE
  5
29A
100
AcDbEntity
  8
0
100
AcDbLine
 62
7
  6
CONTINUOUS
 10
8.0816532568
 20
7.4696237071
 11
8.1035735755
 21
7.4597971102
  0
LINE
  5
29B
100
AcDbEntity
  8
0
100
AcDbLine
 62
7
  6
CONTINUOUS
 10
10.0013405435
 20
6.9008238085
 11
12.8991181941
 21
6.6998622459
  0
LINE
  5
29C
100
AcDbEntity
  8
0
100
AcDbLine
 62
7
  6
CONTINUOUS
 10
10.0013405435
 20
7.052766691
 11
8.1746866124
 21
7.1794455714
  0
LINE
  5
29D
100
AcDbEntity
  8
0
100
AcDbLine
 62
7
  6
CONTINUOUS
 10
11.0205690926
 20
10.3001377541
 11
10.0013405435
 21
9.3156385173
  0
LINE
  5
29E
100
AcDbEntity
  8
0
100
AcDbLine
 62
7
  6
CONTINUOUS
 10
8.1035735755
 20
7.4597971102
 11
10.0013405435
 21
7.3281865239
  0
LINE
  5
29F
100
AcDbEntity
  8
0
100
AcDbLine
 62
7
  6
CONTINUOUS
 10
10.0013405435
 20
9.3156385173
 11
10.0013405435
 21
6.9008238085
  0
LINE
  5
2A0
100
AcDbEntity
  8
0
100
AcDbLine
 62
7
  6
CONTINUOUS
 10
8.0816532568
 20
9.0392532678
 11
8.1035735755
 21
9.0294266709
  0
LINE
  5
2A1
100
AcDbEntity
  8
0
100
AcDbLine
 62
4
  6
CONTINUOUS
 10
13.8044664569
 20
8.0428356204
 11
13.8122310217
 21
8.0430911706
  0
LINE
  5
2A2
100
AcDbEntity
  8
0
100
AcDbLine
 62
7
  6
CONTINUOUS
 10
13.7242326195
 20
8.2723370783
 11
13.6595279116
 21
8.276824365
  0
LINE
  5
2A3
100
AcDbEntity
  8
0
100
AcDbLine
 62
7
  6
CONTINUOUS
 10
13.7242326195
 20
8.4117564705
 11
13.6805271872
 21
8.4147874525
  0
LINE
  5
2A4
100
AcDbEntity
  8
0
100
AcDbLine
 62
7
  6
CONTINUOUS
 10
8.1035735755
 20
9.0294266709
 11
10.0013405435
 21
8.8978160847
  0
LINE
  5
2A5
100
AcDbEntity
  8
0
100
AcDbLine
 62
7
  6
CONTINUOUS
 10
13.9183467432
 20
10.0991761915
 11
12.8991181941
 21
9.1146769547
  0
LINE
  5
2A6
100
AcDbEntity
  8
0
100
AcDbLine
 62
7
  6
CONTINUOUS
 10
12.8991181941
 20
9.1146769547
 11
10.0013405435
 21
9.3156385173
  0
LINE
  5
2A7
100
AcDbEntity
  8
0
100
AcDbLine
 62
7
  6
CONTINUOUS
 10
8.2006306373
 20
9.4853988054
 11
10.0446919076
 21
9.3575127219
  0
LINE
  5
2A8
100
AcDbEntity
  8
0
100
AcDbLine
 62
7
  6
CONTINUOUS
 10
9.0174628695
 20
10.274398201
 11
10.8615241398
 21
10.1465121176
  0
LINE
  5
2A9
100
AcDbEntity
  8
0
100
AcDbLine
 62
7
  6
CONTINUOUS
 10
10.8747365424
 20
10.1592743192
 11
9.0434068944
 21
10.2862774616
  0
LINE
  5
2AA
100
AcDbEntity
  8
0
100
AcDbLine
 62
7
  6
CONTINUOUS
 10
13.9183467432
 20
10.0991761915
 11
11.0205690926
 21
10.3001377541
  0
LINE
  5
2AB
100
AcDbEntity
  8
0
100
AcDbLine
 62
7
  6
CONTINUOUS
 10
13.6595279116
 20
8.2098371262
 11
13.6918802656
 21
8.1713774061
  0
LINE
  5
2AC
100
AcDbEntity
  8
0
100
AcDbLine
 62
7
  6
CONTINUOUS
 10
12.8991181941
 20
6.6998622459
 11
12.8991181941
 21
9.1146769547
  0
LINE
  5
2AD
100
AcDbEntity
  8
0
100
AcDbLine
 62
7
  6
CONTINUOUS
 10
13.7242326195
 20
8.4117564705
 11
13.6918802656
 21
8.4502161905
  0
LINE
  5
2AE
100
AcDbEntity
  8
02___PRT_ALL_AXES
100
AcDbLine
 62
7
  6
CONTINUOUS
 10
13.6913925963
 20
8.118599058
 11
13.6918802656
 21
8.1190605104
  0
LINE
  5
2AF
100
AcDbEntity
  8
02___PRT_ALL_AXES
100
AcDbLine
 62
7
  6
CONTINUOUS
 10
13.6458819415
 20
8.0762415879
 11
13.6913952888
 21
8.1186006018
  0
LINE
  5
2B0
100
AcDbEntity
  8
02___PRT_ALL_AXES
100
AcDbLine
 62
7
  6
CONTINUOUS
 10
13.6786994789
 20
8.549456094
 11
13.717930039
 21
8.5012200702
  0
LINE
  5
2B1
100
AcDbEntity
  8
0
100
AcDbLine
 62
4
  6
CONTINUOUS
 10
13.7941137041
 20
7.9603911888
 11
13.7915255157
 21
7.9651356347
  0
LINE
  5
2B2
100
AcDbEntity
  8
0
100
AcDbLine
 62
4
  6
CONTINUOUS
 10
13.8122310217
 20
8.0430911706
 11
13.8174073988
 21
8.0336022793
  0
LINE
  5
2B3
100
AcDbEntity
  8
0
100
AcDbLine
 62
4
  6
CONTINUOUS
 10
13.8044664569
 20
7.9703911808
 11
13.7941137041
 21
7.9603911888
  0
LINE
  5
2B4
100
AcDbEntity
  8
0
100
AcDbLine
 62
7
  6
CONTINUOUS
 10
13.6595279116
 20
8.3492565184
 11
13.6595279116
 21
8.2098371262
  0
LINE
  5
2B5
100
AcDbEntity
  8
0
100
AcDbLine
 62
7
  6
CONTINUOUS
 10
13.7242326195
 20
8.2723370783
 11
13.7242326195
 21
8.4117564705
  0
LINE
  5
2B6
100
AcDbEntity
  8
0
100
AcDbLine
 62
7
  6
CONTINUOUS
 10
13.6918802656
 20
8.4502161905
 11
13.6595279116
 21
8.3492565184
  0
LINE
  5
2B7
100
AcDbEntity
  8
0
100
AcDbLine
 62
7
  6
CONTINUOUS
 10
13.6918802656
 20
8.1713774061
 11
13.7242326195
 21
8.2723370783
  0
LINE
  5
2B8
100
AcDbEntity
  8
0
100
AcDbLine
 62
4
  6
CONTINUOUS
 10
13.7967018922
 20
8.0280911824
 11
13.8044664569
 21
8.0428356204
  0
LINE
  5
2B9
100
AcDbEntity
  8
0
100
AcDbLine
 62
7
  6
CONTINUOUS
 10
13.9183467432
 20
7.6843614827
 11
12.8991181941
 21
6.6998622459
  0
LINE
  5
2BA
100
AcDbEntity
  8
0
100
AcDbLine
 62
4
  6
CONTINUOUS
 10
13.7915255157
 20
7.9651356347
 11
13.7889373274
 21
7.9771245245
  0
LINE
  5
2BB
100
AcDbEntity
  8
0
100
AcDbLine
 62
4
  6
CONTINUOUS
 10
13.8174073988
 20
8.0336022793
 11
13.8199955865
 21
8.0216133888
  0
LINE
  5
2BC
100
AcDbEntity
  8
0
100
AcDbLine
 62
4
  6
CONTINUOUS
 10
13.7889373274
 20
7.9771245245
 11
13.7889373274
 21
7.9916134124
  0
LINE
  5
2BD
100
AcDbEntity
  8
0
100
AcDbLine
 62
4
  6
CONTINUOUS
 10
13.8044664569
 20
7.9993689567
 11
13.8044664569
 21
7.9703911808
  0
LINE
  5
2BE
100
AcDbEntity
  8
0
100
AcDbLine
 62
4
  6
CONTINUOUS
 10
13.8199955865
 20
8.0216133888
 11
13.8199955865
 21
8.0071245009
  0
LINE
  5
2BF
100
AcDbEntity
  8
0
100
AcDbLine
 62
7
  6
CONTINUOUS
 10
13.9183467432
 20
7.6843614827
 11
13.9183467432
 21
10.0991761915
  0
LINE
  5
2C0
100
AcDbEntity
  8
0
100
AcDbLine
 62
4
  6
CONTINUOUS
 10
13.7889373274
 20
7.9916134124
 11
13.7915255157
 21
8.0086022985
  0
LINE
  5
2C1
100
AcDbEntity
  8
0
100
AcDbLine
 62
4
  6
CONTINUOUS
 10
13.8199955865
 20
8.0071245009
 11
13.8174073988
 21
7.9901356155
  0
LINE
  5
2C2
100
AcDbEntity
  8
0
100
AcDbLine
 62
4
  6
CONTINUOUS
 10
13.7915255157
 20
8.0086022985
 11
13.7967018922
 21
8.0280911824
  0
LINE
  5
2C3
100
AcDbEntity
  8
0
100
AcDbLine
 62
4
  6
CONTINUOUS
 10
13.8174073988
 20
7.9901356155
 11
13.8148192094
 21
7.9803911723
  0
ARC
  5
2C4
100
AcDbEntity
  8
0
100
AcDbCircle
 62
7
  6
CONTINUOUS
 10
11.4670552038
 20
7.4896948511
 40
0.1417339218
100
AcDbArc
 50
186.6168466094
 51
187.4016481574
  0
SPLINE
  5
2C5
100
AcDbEntity
  8
02___PRT_ALL_AXES
100
AcDbSpline
 62
7
  6
CONTINUOUS
 70
0
 71
3
 72
51
 73
47
 74
0
 42
0.0000001
 43
0.0000001
 44
0.0000000001
 40
0.0
 40
0.0
 40
0.0
 40
0.0
 40
0.0075213008
 40
0.0156252827
 40
0.024332452
 40
0.0336565797
 40
0.0436051552
 40
0.0541795616
 40
0.0653778208
 40
0.0771950556
 40
0.0896221613
 40
0.102647765
 40
0.1162591338
 40
0.1304407997
 40
0.1604421903
 40
0.1924987397
 40
0.2264322132
 40
0.2620473688
 40
0.2991335427
 40
0.3374667197
 40
0.3768133971
 40
0.4169307761
 40
0.4575705592
 40
0.4984798963
 40
0.5394039847
 40
0.5800877805
 40
0.6202782435
 40
0.6597262967
 40
0.6981884987
 40
0.7354302365
 40
0.771225967
 40
0.8053638739
 40
0.8376462593
 40
0.8678930919
 40
0.8822038044
 40
0.8959483625
 40
0.9091104397
 40
0.9216767136
 40
0.9336354721
 40
0.9449767365
 40
0.955694859
 40
0.9657879439
 40
0.9752570933
 40
0.984107523
 40
0.9923496146
 40
1.0
 40
1.0
 40
1.0
 40
1.0
 10
13.7179314488
 20
8.5012183148
 30
0.0
 10
13.7185566417
 20
8.5004495495
 30
0.0
 10
13.7197883941
 20
8.4987972397
 30
0.0
 10
13.7215217379
 20
8.4960981797
 30
0.0
 10
13.723205765
 20
8.4930928001
 30
0.0
 10
13.7248375855
 20
8.4897858475
 30
0.0
 10
13.7264146101
 20
8.4861824171
 30
0.0
 10
13.7279346105
 20
8.4822884606
 30
0.0
 10
13.7293950395
 20
8.4781101984
 30
0.0
 10
13.730793234
 20
8.473654318
 30
0.0
 10
13.7321271287
 20
8.4689282117
 30
0.0
 10
13.7333945349
 20
8.4639396718
 30
0.0
 10
13.7345931393
 20
8.4586968118
 30
0.0
 10
13.7361257163
 20
8.4512380113
 30
0.0
 10
13.7378415758
 20
8.4413387501
 30
0.0
 10
13.739561976
 20
8.4288077614
 30
0.0
 10
13.7409688955
 20
8.4154939741
 30
0.0
 10
13.7420525574
 20
8.401485582
 30
0.0
 10
13.7428052969
 20
8.386875256
 30
0.0
 10
13.7432222407
 20
8.3717598352
 30
0.0
 10
13.7433000193
 20
8.3562396129
 30
0.0
 10
13.7430383176
 20
8.340417549
 30
0.0
 10
13.7424386598
 20
8.3243987109
 30
0.0
 10
13.7415048558
 20
8.3082894391
 30
0.0
 10
13.7402433977
 20
8.2921966922
 30
0.0
 10
13.7386622838
 20
8.2762273496
 30
0.0
 10
13.7367723881
 20
8.260487399
 30
0.0
 10
13.7345862066
 20
8.2450813495
 30
0.0
 10
13.7321182617
 20
8.2301114137
 30
0.0
 10
13.729385427
 20
8.2156768647
 30
0.0
 10
13.7264056099
 20
8.2018733992
 30
0.0
 10
13.7231992471
 20
8.1887922698
 30
0.0
 10
13.7197876888
 20
8.1765201261
 30
0.0
 10
13.7167392891
 20
8.1668639924
 30
0.0
 10
13.7142044622
 20
8.1596127861
 30
0.0
 10
13.7123017225
 20
8.1545263902
 30
0.0
 10
13.7103651313
 20
8.1496995223
 30
0.0
 10
13.7083981337
 20
8.1451400403
 30
0.0
 10
13.7064041057
 20
8.1408554281
 30
0.0
 10
13.7043861238
 20
8.1368528272
 30
0.0
 10
13.7023475028
 20
8.1331386391
 30
0.0
 10
13.7002915773
 20
8.1297185872
 30
0.0
 10
13.6982213947
 20
8.1265982629
 30
0.0
 10
13.6961402141
 20
8.1237828495
 30
0.0
 10
13.6940522
 20
8.1212771057
 30
0.0
 10
13.6926052007
 20
8.119760744
 30
0.0
 10
13.6918802656
 20
8.1190605104
 30
0.0
  0
SPLINE
  5
2C6
100
AcDbEntity
  8
02___PRT_ALL_AXES
100
AcDbSpline
 62
7
  6
CONTINUOUS
 70
0
 71
3
 72
62
 73
58
 74
0
 42
0.0000001
 43
0.0000001
 44
0.0000000001
 40
0.0
 40
0.0
 40
0.0
 40
0.0
 40
0.0086031932
 40
0.0180040019
 40
0.0282259644
 40
0.0392815034
 40
0.0511742302
 40
0.063901509
 40
0.0774533802
 40
0.0918128783
 40
0.106959992
 40
0.1228699771
 40
0.1395144866
 40
0.156863388
 40
0.1748824704
 40
0.1935354232
 40
0.2127845025
 40
0.2325887524
 40
0.2736920954
 40
0.3164910742
 40
0.3606096682
 40
0.4056559111
 40
0.4512270984
 40
0.4969147944
 40
0.5423089871
 40
0.5870030456
 40
0.6305986394
 40
0.6727099215
 40
0.7129686216
 40
0.7510298946
 40
0.7691370776
 40
0.7865788886
 40
0.8033207302
 40
0.8193320274
 40
0.8345839814
 40
0.8490513531
 40
0.8627138157
 40
0.8755539839
 40
0.8875606467
 40
0.8987293335
 40
0.9090618673
 40
0.9185713336
 40
0.9272829688
 40
0.9352373058
 40
0.942497709
 40
0.9491538576
 40
0.9553282678
 40
0.9582862271
 40
0.9611859928
 40
0.9640518839
 40
0.9669092227
 40
0.9697836773
 40
0.9727004118
 40
0.9787493
 40
0.9852330046
 40
0.9922845278
 40
1.0
 40
1.0
 40
1.0
 40
1.0
 10
13.6918802656
 20
8.5025330862
 30
0.0
 10
13.6910036632
 20
8.5016863533
 30
0.0
 10
13.6892558012
 20
8.4998236626
 30
0.0
 10
13.6867537812
 20
8.4967006208
 30
0.0
 10
13.6842640424
 20
8.4931350839
 30
0.0
 10
13.6817932887
 20
8.4891356057
 30
0.0
 10
13.6793464378
 20
8.4847115275
 30
0.0
 10
13.6769293077
 20
8.4798726775
 30
0.0
 10
13.6745474872
 20
8.4746301901
 30
0.0
 10
13.6722063439
 20
8.4689964557
 30
0.0
 10
13.6699119559
 20
8.4629846676
 30
0.0
 10
13.6676697009
 20
8.4566091496
 30
0.0
 10
13.6654847666
 20
8.4498850817
 30
0.0
 10
13.6633627722
 20
8.4428283633
 30
0.0
 10
13.6613085406
 20
8.4354558773
 30
0.0
 10
13.659327008
 20
8.4277852208
 30
0.0
 10
13.6574232166
 20
8.4198346445
 30
0.0
 10
13.6549637175
 20
8.408748415
 30
0.0
 10
13.6521264769
 20
8.3943309355
 30
0.0
 10
13.6491378761
 20
8.3764406221
 30
0.0
 10
13.6465538655
 20
8.357923333
 30
0.0
 10
13.6443993609
 20
8.3389560316
 30
0.0
 10
13.6426950178
 20
8.3197198849
 30
0.0
 10
13.6414572173
 20
8.300398715
 30
0.0
 10
13.6406979148
 20
8.2811771489
 30
0.0
 10
13.6404241266
 20
8.2622388523
 30
0.0
 10
13.6406381834
 20
8.243764747
 30
0.0
 10
13.6413377414
 20
8.2259311609
 30
0.0
 10
13.642515808
 20
8.208908422
 30
0.0
 10
13.6439080124
 20
8.1953160926
 30
0.0
 10
13.6452661822
 20
8.184976381
 30
0.0
 10
13.6463789372
 20
8.1776521295
 30
0.0
 10
13.6476003175
 20
8.1706463607
 30
0.0
 10
13.6489270093
 20
8.1639757068
 30
0.0
 10
13.6503559522
 20
8.1576560388
 30
0.0
 10
13.6518838765
 20
8.1517023803
 30
0.0
 10
13.653506667
 20
8.1461287127
 30
0.0
 10
13.6552207771
 20
8.1409481876
 30
0.0
 10
13.6570221261
 20
8.1361728946
 30
0.0
 10
13.6589061114
 20
8.1318136848
 30
0.0
 10
13.6608690067
 20
8.1278806129
 30
0.0
 10
13.6629063249
 20
8.1243823089
 30
0.0
 10
13.6650138817
 20
8.1213261289
 30
0.0
 10
13.6671887993
 20
8.1187191039
 30
0.0
 10
13.6694281127
 20
8.116566919
 30
0.0
 10
13.6717293034
 20
8.1148761053
 30
0.0
 10
13.6737269972
 20
8.1138442772
 30
0.0
 10
13.675335474
 20
8.1132737559
 30
0.0
 10
13.6765355154
 20
8.1129706233
 30
0.0
 10
13.6777451422
 20
8.1127868661
 30
0.0
 10
13.6789633973
 20
8.1127228153
 30
0.0
 10
13.6801892906
 20
8.1127785095
 30
0.0
 10
13.6818521359
 20
8.1130146324
 30
0.0
 10
13.6839666127
 20
8.1136260192
 30
0.0
 10
13.6864783639
 20
8.1148283983
 30
0.0
 10
13.6889928847
 20
8.1164982411
 30
0.0
 10
13.6905923792
 20
8.1178535908
 30
0.0
 10
13.6913925939
 20
8.1185981175
 30
0.0
  0
SPLINE
  5
2C7
100
AcDbEntity
  8
02___PRT_ALL_AXES
100
AcDbSpline
 62
7
  6
CONTINUOUS
 70
0
 71
3
 72
23
 73
19
 74
0
 42
0.0000001
 43
0.0000001
 44
0.0000000001
 40
0.0
 40
0.0
 40
0.0
 40
0.0
 40
0.0755591695
 40
0.1465931134
 40
0.213435575
 40
0.2765056656
 40
0.3363258123
 40
0.3935449239
 40
0.448916931
 40
0.5032772925
 40
0.5575126574
 40
0.6125143727
 40
0.6691313195
 40
0.7281371545
 40
0.7902104378
 40
0.8559193262
 40
0.9257252658
 40
1.0
 40
1.0
 40
1.0
 40
1.0
 10
13.6918802656
 20
8.5025330862
 30
0.0
 10
13.6924317177
 20
8.5030657481
 30
0.0
 10
13.6935341585
 20
8.5040663554
 30
0.0
 10
13.6952405866
 20
8.5054033045
 30
0.0
 10
13.6969453145
 20
8.5065266891
 30
0.0
 10
13.6986465672
 20
8.5074344757
 30
0.0
 10
13.700342852
 20
8.5081243675
 30
0.0
 10
13.7020321968
 20
8.5085948089
 30
0.0
 10
13.7037124238
 20
8.5088444598
 30
0.0
 10
13.705380881
 20
8.5088721552
 30
0.0
 10
13.7070343933
 20
8.5086771744
 30
0.0
 10
13.7086697485
 20
8.5082603682
 30
0.0
 10
13.7102842397
 20
8.5076233332
 30
0.0
 10
13.7118757372
 20
8.5067678108
 30
0.0
 10
13.7134424345
 20
8.5056954066
 30
0.0
 10
13.7149831096
 20
8.5044081581
 30
0.0
 10
13.7164966497
 20
8.5029081654
 30
0.0
 10
13.7174559308
 20
8.5018030331
 30
0.0
 10
13.7179314488
 20
8.5012183148
 30
0.0
  0
SPLINE
  5
2C8
100
AcDbEntity
  8
0
100
AcDbSpline
 62
7
  6
CONTINUOUS
 70
0
 71
3
 72
56
 73
52
 74
0
 42
0.0000001
 43
0.0000001
 44
0.0000000001
 40
0.0
 40
0.0
 40
0.0
 40
0.0
 40
0.031072346
 40
0.0465152317
 40
0.0618873124
 40
0.0924244558
 40
0.1227285839
 40
0.1378086476
 40
0.152843805
 40
0.1678401144
 40
0.1828038429
 40
0.2126503375
 40
0.2275575076
 40
0.2424602021
 40
0.2573657768
 40
0.2722815596
 40
0.2872148075
 40
0.3021724288
 40
0.3171611944
 40
0.3321875086
 40
0.3472571497
 40
0.3623756664
 40
0.3927682644
 40
0.4234071833
 40
0.4388308412
 40
0.4543232404
 40
0.485507794
 40
0.5169699549
 40
0.5328065592
 40
0.5487076996
 40
0.5806824155
 40
0.6128739827
 40
0.6290441713
 40
0.6452543848
 40
0.6777639099
 40
0.7103643313
 40
0.7266873147
 40
0.7430142246
 40
0.7756456102
 40
0.791945892
 40
0.80822475
 40
0.8244760382
 40
0.8406940716
 40
0.8568734333
 40
0.8730088969
 40
0.8890954876
 40
0.905128265
 40
0.9370074718
 40
0.9528594107
 40
0.9686481654
 40
1.0
 40
1.0
 40
1.0
 40
1.0
 10
11.7001960717
 20
7.3583597735
 30
0.0
 10
11.700195937
 20
7.350346143
 30
0.0
 10
11.699607821
 20
7.3383384027
 30
0.0
 10
11.6976383458
 20
7.3224946199
 30
0.0
 10
11.6948995482
 20
7.3069044691
 30
0.0
 10
11.6900382239
 20
7.2878226728
 30
0.0
 10
11.683277104
 20
7.269407266
 30
0.0
 10
11.6767853502
 20
7.2552351452
 30
0.0
 10
11.6713939544
 20
7.2449192864
 30
0.0
 10
11.665487134
 20
7.2349242594
 30
0.0
 10
11.6569520378
 20
7.2220703559
 30
0.0
 10
11.6474273602
 20
7.2099240254
 30
0.0
 10
11.6370015363
 20
7.1986022804
 30
0.0
 10
11.6287483094
 20
7.190539518
 30
0.0
 10
11.6200799645
 20
7.1829221412
 30
0.0
 10
11.6110153118
 20
7.1757680049
 30
0.0
 10
11.6015751521
 20
7.1690940449
 30
0.0
 10
11.591781654
 20
7.1629149712
 30
0.0
 10
11.5816565522
 20
7.1572464049
 30
0.0
 10
11.5712232179
 20
7.1521020555
 30
0.0
 10
11.5605057252
 20
7.1474934038
 30
0.0
 10
11.5458466068
 20
7.1420712406
 30
0.0
 10
11.5269200091
 20
7.1366922816
 30
0.0
 10
11.5074680823
 20
7.1332536823
 30
0.0
 10
11.4916663174
 20
7.1316702998
 30
0.0
 10
11.47566456
 20
7.1308703062
 30
0.0
 10
11.455483625
 20
7.1313634134
 30
0.0
 10
11.4353601357
 20
7.1338338955
 30
0.0
 10
11.4193615085
 20
7.1369787987
 30
0.0
 10
11.40340324
 20
7.1409173278
 30
0.0
 10
11.3837274362
 20
7.1472907611
 30
0.0
 10
11.3646733766
 20
7.1555090756
 30
0.0
 10
11.3498720936
 20
7.163152733
 30
0.0
 10
11.3353695322
 20
7.1715145581
 30
0.0
 10
11.3179410622
 20
7.1832371678
 30
0.0
 10
11.3016368013
 20
7.1965243012
 30
0.0
 10
11.2893449068
 20
7.2080253421
 30
0.0
 10
11.2775857618
 20
7.2200808271
 30
0.0
 10
11.2666658884
 20
7.2329244759
 30
0.0
 10
11.2566742591
 20
7.2464581074
 30
0.0
 10
11.249662488
 20
7.2569246747
 30
0.0
 10
11.2431499039
 20
7.2676837651
 30
0.0
 10
11.2371520243
 20
7.2787089508
 30
0.0
 10
11.2316822543
 20
7.2899722865
 30
0.0
 10
11.2267549368
 20
7.3014463229
 30
0.0
 10
11.2223812832
 20
7.3131026739
 30
0.0
 10
11.2173106395
 20
7.3288146035
 30
0.0
 10
11.2133703069
 20
7.3448106966
 30
0.0
 10
11.2106009581
 20
7.3609622501
 30
0.0
 10
11.2086285508
 20
7.3770925069
 30
0.0
 10
11.2080273803
 20
7.3892605793
 30
0.0
 10
11.2080272329
 20
7.3973462905
 30
0.0
  0
SPLINE
  5
2C9
100
AcDbEntity
  8
0
100
AcDbSpline
 62
7
  6
CONTINUOUS
 70
0
 71
3
 72
56
 73
52
 74
0
 42
0.0000001
 43
0.0000001
 44
0.0000000001
 40
0.0
 40
0.0
 40
0.0
 40
0.0
 40
0.0310723444
 40
0.0465152282
 40
0.0618873079
 40
0.0924244521
 40
0.1227285817
 40
0.1378086463
 40
0.1528438045
 40
0.1678401149
 40
0.1828038444
 40
0.2126503405
 40
0.227557511
 40
0.2424602055
 40
0.2573657799
 40
0.272281562
 40
0.2872148089
 40
0.3021724291
 40
0.3171611937
 40
0.3321875071
 40
0.3472571476
 40
0.362375664
 40
0.3927682619
 40
0.4234071812
 40
0.4388308394
 40
0.454323239
 40
0.4855077933
 40
0.5169699546
 40
0.532806559
 40
0.5487076994
 40
0.5806824153
 40
0.6128739824
 40
0.6290441709
 40
0.6452543843
 40
0.6777639093
 40
0.7103643307
 40
0.7266873141
 40
0.7430142241
 40
0.7756456098
 40
0.7919458916
 40
0.8082247496
 40
0.8244760379
 40
0.8406940714
 40
0.8568734332
 40
0.8730088968
 40
0.8890954876
 40
0.905128265
 40
0.9370074719
 40
0.9528594107
 40
0.9686481654
 40
1.0
 40
1.0
 40
1.0
 40
1.0
 10
11.2080272308
 20
7.3973461899
 30
0.0
 10
11.2080273654
 20
7.40535982
 30
0.0
 10
11.2086154811
 20
7.4173675593
 30
0.0
 10
11.2105849564
 20
7.433211341
 30
0.0
 10
11.2133237538
 20
7.4488014912
 30
0.0
 10
11.2181850778
 20
7.467883288
 30
0.0
 10
11.2249461978
 20
7.4862986956
 30
0.0
 10
11.2314379519
 20
7.5004708173
 30
0.0
 10
11.236829348
 20
7.5107866767
 30
0.0
 10
11.2427361688
 20
7.5207817042
 30
0.0
 10
11.2512712654
 20
7.5336356085
 30
0.0
 10
11.2607959437
 20
7.5457819394
 30
0.0
 10
11.2712217679
 20
7.5571036848
 30
0.0
 10
11.2794749951
 20
7.565166447
 30
0.0
 10
11.28814334
 20
7.5727838236
 30
0.0
 10
11.2972079922
 20
7.5799379596
 30
0.0
 10
11.3066481514
 20
7.5866119191
 30
0.0
 10
11.3164416488
 20
7.5927909923
 30
0.0
 10
11.3265667499
 20
7.5984595581
 30
0.0
 10
11.3370000836
 20
7.6036039074
 30
0.0
 10
11.3477175759
 20
7.608212559
 30
0.0
 10
11.3623766941
 20
7.613634722
 30
0.0
 10
11.3813032917
 20
7.6190136814
 30
0.0
 10
11.4007552186
 20
7.6224522808
 30
0.0
 10
11.4165569838
 20
7.6240356634
 30
0.0
 10
11.4325587415
 20
7.624835657
 30
0.0
 10
11.4527396769
 20
7.62434255
 30
0.0
 10
11.4728631665
 20
7.6218720679
 30
0.0
 10
11.4888617939
 20
7.6187271646
 30
0.0
 10
11.5048200624
 20
7.6147886355
 30
0.0
 10
11.5244958662
 20
7.6084152022
 30
0.0
 10
11.5435499257
 20
7.6001968878
 30
0.0
 10
11.5583512086
 20
7.5925532304
 30
0.0
 10
11.5728537701
 20
7.5841914054
 30
0.0
 10
11.59028224
 20
7.5724687957
 30
0.0
 10
11.6065865009
 20
7.5591816624
 30
0.0
 10
11.6188783954
 20
7.5476806215
 30
0.0
 10
11.6306375405
 20
7.5356251365
 30
0.0
 10
11.6415574139
 20
7.5227814877
 30
0.0
 10
11.6515490433
 20
7.5092478562
 30
0.0
 10
11.6585608144
 20
7.4987812888
 30
0.0
 10
11.6650733985
 20
7.4880221983
 30
0.0
 10
11.6710712781
 20
7.4769970126
 30
0.0
 10
11.6765410481
 20
7.4657336768
 30
0.0
 10
11.6814683657
 20
7.4542596405
 30
0.0
 10
11.6858420193
 20
7.4426032894
 30
0.0
 10
11.690912663
 20
7.4268913597
 30
0.0
 10
11.6948529956
 20
7.4108952667
 30
0.0
 10
11.6976223444
 20
7.3947437132
 30
0.0
 10
11.6995947517
 20
7.3786134563
 30
0.0
 10
11.7001959223
 20
7.366445384
 30
0.0
 10
11.7001960696
 20
7.3583596727
 30
0.0
  0
SPLINE
  5
2CA
100
AcDbEntity
  8
0
100
AcDbSpline
 62
7
  6
CONTINUOUS
 70
0
 71
3
 72
56
 73
52
 74
0
 42
0.0000001
 43
0.0000001
 44
0.0000000001
 40
0.0
 40
0.0
 40
0.0
 40
0.0
 40
0.031072346
 40
0.0465152317
 40
0.0618873124
 40
0.0924244558
 40
0.1227285839
 40
0.1378086476
 40
0.152843805
 40
0.1678401144
 40
0.1828038429
 40
0.2126503375
 40
0.2275575076
 40
0.2424602021
 40
0.2573657768
 40
0.2722815596
 40
0.2872148075
 40
0.3021724288
 40
0.3171611944
 40
0.3321875086
 40
0.3472571497
 40
0.3623756664
 40
0.3927682644
 40
0.4234071833
 40
0.4388308412
 40
0.4543232404
 40
0.485507794
 40
0.5169699549
 40
0.5328065592
 40
0.5487076996
 40
0.5806824155
 40
0.6128739827
 40
0.6290441713
 40
0.6452543848
 40
0.6777639099
 40
0.7103643313
 40
0.7266873147
 40
0.7430142246
 40
0.7756456102
 40
0.791945892
 40
0.80822475
 40
0.8244760382
 40
0.8406940716
 40
0.8568734333
 40
0.8730088969
 40
0.8890954876
 40
0.905128265
 40
0.9370074718
 40
0.9528594107
 40
0.9686481654
 40
1.0
 40
1.0
 40
1.0
 40
1.0
 10
10.794157628
 20
8.4170633564
 30
0.0
 10
10.7941574933
 20
8.4090497259
 30
0.0
 10
10.7935693772
 20
8.3970419856
 30
0.0
 10
10.7915999021
 20
8.3811982028
 30
0.0
 10
10.7888611044
 20
8.365608052
 30
0.0
 10
10.7839997802
 20
8.3465262557
 30
0.0
 10
10.7772386602
 20
8.3281108489
 30
0.0
 10
10.7707469065
 20
8.3139387281
 30
0.0
 10
10.7653555107
 20
8.3036228693
 30
0.0
 10
10.7594486903
 20
8.2936278423
 30
0.0
 10
10.7509135941
 20
8.2807739388
 30
0.0
 10
10.7413889165
 20
8.2686276083
 30
0.0
 10
10.7309630926
 20
8.2573058633
 30
0.0
 10
10.7227098656
 20
8.2492431009
 30
0.0
 10
10.7140415207
 20
8.2416257241
 30
0.0
 10
10.704976868
 20
8.2344715878
 30
0.0
 10
10.6955367083
 20
8.2277976278
 30
0.0
 10
10.6857432102
 20
8.2216185541
 30
0.0
 10
10.6756181085
 20
8.2159499878
 30
0.0
 10
10.6651847742
 20
8.2108056384
 30
0.0
 10
10.6544672814
 20
8.2061969867
 30
0.0
 10
10.639808163
 20
8.2007748235
 30
0.0
 10
10.6208815654
 20
8.1953958645
 30
0.0
 10
10.6014296386
 20
8.1919572652
 30
0.0
 10
10.5856278737
 20
8.1903738827
 30
0.0
 10
10.5696261163
 20
8.1895738891
 30
0.0
 10
10.5494451813
 20
8.1900669963
 30
0.0
 10
10.5293216919
 20
8.1925374784
 30
0.0
 10
10.5133230647
 20
8.1956823816
 30
0.0
 10
10.4973647963
 20
8.1996209107
 30
0.0
 10
10.4776889925
 20
8.205994344
 30
0.0
 10
10.4586349329
 20
8.2142126585
 30
0.0
 10
10.4438336499
 20
8.2218563159
 30
0.0
 10
10.4293310884
 20
8.230218141
 30
0.0
 10
10.4119026185
 20
8.2419407507
 30
0.0
 10
10.3955983575
 20
8.2552278841
 30
0.0
 10
10.383306463
 20
8.266728925
 30
0.0
 10
10.371547318
 20
8.27878441
 30
0.0
 10
10.3606274446
 20
8.2916280588
 30
0.0
 10
10.3506358153
 20
8.3051616903
 30
0.0
 10
10.3436240442
 20
8.3156282576
 30
0.0
 10
10.3371114602
 20
8.326387348
 30
0.0
 10
10.3311135806
 20
8.3374125337
 30
0.0
 10
10.3256438106
 20
8.3486758694
 30
0.0
 10
10.3207164931
 20
8.3601499058
 30
0.0
 10
10.3163428395
 20
8.3718062568
 30
0.0
 10
10.3112721958
 20
8.3875181864
 30
0.0
 10
10.3073318632
 20
8.4035142795
 30
0.0
 10
10.3045625144
 20
8.419665833
 30
0.0
 10
10.3025901071
 20
8.4357960898
 30
0.0
 10
10.3019889365
 20
8.4479641622
 30
0.0
 10
10.3019887891
 20
8.4560498734
 30
0.0
  0
SPLINE
  5
2CB
100
AcDbEntity
  8
0
100
AcDbSpline
 62
7
  6
CONTINUOUS
 70
0
 71
3
 72
56
 73
52
 74
0
 42
0.0000001
 43
0.0000001
 44
0.0000000001
 40
0.0
 40
0.0
 40
0.0
 40
0.0
 40
0.0310723444
 40
0.0465152282
 40
0.0618873079
 40
0.0924244521
 40
0.1227285817
 40
0.1378086463
 40
0.1528438045
 40
0.1678401149
 40
0.1828038444
 40
0.2126503405
 40
0.227557511
 40
0.2424602055
 40
0.2573657799
 40
0.272281562
 40
0.2872148089
 40
0.3021724291
 40
0.3171611937
 40
0.3321875071
 40
0.3472571476
 40
0.362375664
 40
0.3927682619
 40
0.4234071812
 40
0.4388308394
 40
0.454323239
 40
0.4855077933
 40
0.5169699546
 40
0.532806559
 40
0.5487076994
 40
0.5806824153
 40
0.6128739824
 40
0.6290441709
 40
0.6452543843
 40
0.6777639093
 40
0.7103643307
 40
0.7266873141
 40
0.7430142241
 40
0.7756456098
 40
0.7919458916
 40
0.8082247496
 40
0.8244760379
 40
0.8406940714
 40
0.8568734332
 40
0.8730088968
 40
0.8890954876
 40
0.905128265
 40
0.9370074719
 40
0.9528594107
 40
0.9686481654
 40
1.0
 40
1.0
 40
1.0
 40
1.0
 10
10.3019887871
 20
8.4560497728
 30
0.0
 10
10.3019889217
 20
8.4640634029
 30
0.0
 10
10.3025770374
 20
8.4760711422
 30
0.0
 10
10.3045465126
 20
8.4919149239
 30
0.0
 10
10.3072853101
 20
8.5075050741
 30
0.0
 10
10.3121466341
 20
8.5265868709
 30
0.0
 10
10.318907754
 20
8.5450022785
 30
0.0
 10
10.3253995081
 20
8.5591744002
 30
0.0
 10
10.3307909043
 20
8.5694902596
 30
0.0
 10
10.336697725
 20
8.5794852871
 30
0.0
 10
10.3452328217
 20
8.5923391914
 30
0.0
 10
10.3547574999
 20
8.6044855223
 30
0.0
 10
10.3651833242
 20
8.6158072677
 30
0.0
 10
10.3734365514
 20
8.6238700299
 30
0.0
 10
10.3821048962
 20
8.6314874065
 30
0.0
 10
10.3911695485
 20
8.6386415425
 30
0.0
 10
10.4006097076
 20
8.645315502
 30
0.0
 10
10.4104032051
 20
8.6514945752
 30
0.0
 10
10.4205283062
 20
8.657163141
 30
0.0
 10
10.4309616399
 20
8.6623074903
 30
0.0
 10
10.4416791322
 20
8.6669161419
 30
0.0
 10
10.4563382503
 20
8.6723383049
 30
0.0
 10
10.4752648479
 20
8.6777172643
 30
0.0
 10
10.4947167749
 20
8.6811558637
 30
0.0
 10
10.5105185401
 20
8.6827392463
 30
0.0
 10
10.5265202978
 20
8.6835392399
 30
0.0
 10
10.5467012332
 20
8.6830461329
 30
0.0
 10
10.5668247228
 20
8.6805756508
 30
0.0
 10
10.5828233502
 20
8.6774307475
 30
0.0
 10
10.5987816186
 20
8.6734922184
 30
0.0
 10
10.6184574225
 20
8.6671187851
 30
0.0
 10
10.637511482
 20
8.6589004707
 30
0.0
 10
10.6523127649
 20
8.6512568133
 30
0.0
 10
10.6668153263
 20
8.6428949883
 30
0.0
 10
10.6842437962
 20
8.6311723786
 30
0.0
 10
10.7005480572
 20
8.6178852453
 30
0.0
 10
10.7128399517
 20
8.6063842044
 30
0.0
 10
10.7245990968
 20
8.5943287194
 30
0.0
 10
10.7355189702
 20
8.5814850706
 30
0.0
 10
10.7455105995
 20
8.5679514391
 30
0.0
 10
10.7525223707
 20
8.5574848717
 30
0.0
 10
10.7590349547
 20
8.5467257812
 30
0.0
 10
10.7650328344
 20
8.5357005955
 30
0.0
 10
10.7705026044
 20
8.5244372597
 30
0.0
 10
10.775429922
 20
8.5129632234
 30
0.0
 10
10.7798035756
 20
8.5013068723
 30
0.0
 10
10.7848742192
 20
8.4855949426
 30
0.0
 10
10.7888145518
 20
8.4695988496
 30
0.0
 10
10.7915839006
 20
8.4534472961
 30
0.0
 10
10.793556308
 20
8.4373170392
 30
0.0
 10
10.7941574785
 20
8.4251489669
 30
0.0
 10
10.7941576259
 20
8.4170632556
 30
0.0
  0
SPLINE
  5
2CC
100
AcDbEntity
  8
0
100
AcDbSpline
 62
7
  6
CONTINUOUS
 70
0
 71
3
 72
56
 73
52
 74
0
 42
0.0000001
 43
0.0000001
 44
0.0000000001
 40
0.0
 40
0.0
 40
0.0
 40
0.0
 40
0.031072346
 40
0.0465152317
 40
0.0618873124
 40
0.0924244558
 40
0.1227285839
 40
0.1378086476
 40
0.152843805
 40
0.1678401144
 40
0.1828038429
 40
0.2126503375
 40
0.2275575076
 40
0.2424602021
 40
0.2573657768
 40
0.2722815596
 40
0.2872148075
 40
0.3021724288
 40
0.3171611944
 40
0.3321875086
 40
0.3472571497
 40
0.3623756664
 40
0.3927682644
 40
0.4234071833
 40
0.4388308412
 40
0.4543232404
 40
0.485507794
 40
0.5169699549
 40
0.5328065592
 40
0.5487076996
 40
0.5806824155
 40
0.6128739827
 40
0.6290441713
 40
0.6452543848
 40
0.6777639099
 40
0.7103643313
 40
0.7266873147
 40
0.7430142246
 40
0.7756456102
 40
0.791945892
 40
0.80822475
 40
0.8244760382
 40
0.8406940716
 40
0.8568734333
 40
0.8730088969
 40
0.8890954876
 40
0.905128265
 40
0.9370074718
 40
0.9528594107
 40
0.9686481654
 40
1.0
 40
1.0
 40
1.0
 40
1.0
 10
11.3080301455
 20
7.9593165301
 30
0.0
 10
11.3080300108
 20
7.9513028996
 30
0.0
 10
11.3074418947
 20
7.9392951594
 30
0.0
 10
11.3054724196
 20
7.9234513766
 30
0.0
 10
11.302733622
 20
7.9078612258
 30
0.0
 10
11.2978722977
 20
7.8887794295
 30
0.0
 10
11.2911111778
 20
7.8703640227
 30
0.0
 10
11.284619424
 20
7.8561919018
 30
0.0
 10
11.2792280282
 20
7.845876043
 30
0.0
 10
11.2733212078
 20
7.8358810161
 30
0.0
 10
11.2647861116
 20
7.8230271126
 30
0.0
 10
11.255261434
 20
7.8108807821
 30
0.0
 10
11.2448356101
 20
7.799559037
 30
0.0
 10
11.2365823831
 20
7.7914962747
 30
0.0
 10
11.2279140382
 20
7.7838788978
 30
0.0
 10
11.2188493855
 20
7.7767247615
 30
0.0
 10
11.2094092258
 20
7.7700508015
 30
0.0
 10
11.1996157277
 20
7.7638717278
 30
0.0
 10
11.189490626
 20
7.7582031616
 30
0.0
 10
11.1790572917
 20
7.7530588122
 30
0.0
 10
11.168339799
 20
7.7484501604
 30
0.0
 10
11.1536806806
 20
7.7430279973
 30
0.0
 10
11.1347540829
 20
7.7376490382
 30
0.0
 10
11.1153021561
 20
7.7342104389
 30
0.0
 10
11.0995003912
 20
7.7326270565
 30
0.0
 10
11.0834986338
 20
7.7318270629
 30
0.0
 10
11.0633176988
 20
7.73232017
 30
0.0
 10
11.0431942095
 20
7.7347906521
 30
0.0
 10
11.0271955822
 20
7.7379355553
 30
0.0
 10
11.0112373138
 20
7.7418740845
 30
0.0
 10
10.99156151
 20
7.7482475178
 30
0.0
 10
10.9725074504
 20
7.7564658323
 30
0.0
 10
10.9577061674
 20
7.7641094897
 30
0.0
 10
10.943203606
 20
7.7724713148
 30
0.0
 10
10.925775136
 20
7.7841939245
 30
0.0
 10
10.9094708751
 20
7.7974810579
 30
0.0
 10
10.8971789806
 20
7.8089820987
 30
0.0
 10
10.8854198355
 20
7.8210375837
 30
0.0
 10
10.8744999622
 20
7.8338812326
 30
0.0
 10
10.8645083329
 20
7.847414864
 30
0.0
 10
10.8574965617
 20
7.8578814314
 30
0.0
 10
10.8509839777
 20
7.8686405218
 30
0.0
 10
10.8449860981
 20
7.8796657074
 30
0.0
 10
10.8395163281
 20
7.8909290432
 30
0.0
 10
10.8345890106
 20
7.9024030795
 30
0.0
 10
10.830215357
 20
7.9140594306
 30
0.0
 10
10.8251447133
 20
7.9297713602
 30
0.0
 10
10.8212043807
 20
7.9457674532
 30
0.0
 10
10.8184350319
 20
7.9619190067
 30
0.0
 10
10.8164626246
 20
7.9780492636
 30
0.0
 10
10.815861454
 20
7.9902173359
 30
0.0
 10
10.8158613067
 20
7.9983030472
 30
0.0
  0
SPLINE
  5
2CD
100
AcDbEntity
  8
0
100
AcDbSpline
 62
7
  6
CONTINUOUS
 70
0
 71
3
 72
56
 73
52
 74
0
 42
0.0000001
 43
0.0000001
 44
0.0000000001
 40
0.0
 40
0.0
 40
0.0
 40
0.0
 40
0.0310723444
 40
0.0465152282
 40
0.0618873079
 40
0.0924244521
 40
0.1227285817
 40
0.1378086463
 40
0.1528438045
 40
0.1678401149
 40
0.1828038444
 40
0.2126503405
 40
0.227557511
 40
0.2424602055
 40
0.2573657799
 40
0.272281562
 40
0.2872148089
 40
0.3021724291
 40
0.3171611937
 40
0.3321875071
 40
0.3472571476
 40
0.362375664
 40
0.3927682619
 40
0.4234071812
 40
0.4388308394
 40
0.454323239
 40
0.4855077933
 40
0.5169699546
 40
0.532806559
 40
0.5487076994
 40
0.5806824153
 40
0.6128739824
 40
0.6290441709
 40
0.6452543843
 40
0.6777639093
 40
0.7103643307
 40
0.7266873141
 40
0.7430142241
 40
0.7756456098
 40
0.7919458916
 40
0.8082247496
 40
0.8244760379
 40
0.8406940714
 40
0.8568734332
 40
0.8730088968
 40
0.8890954876
 40
0.905128265
 40
0.9370074719
 40
0.9528594107
 40
0.9686481654
 40
1.0
 40
1.0
 40
1.0
 40
1.0
 10
10.8158613046
 20
7.9983029466
 30
0.0
 10
10.8158614392
 20
8.0063165767
 30
0.0
 10
10.8164495549
 20
8.018324316
 30
0.0
 10
10.8184190302
 20
8.0341680976
 30
0.0
 10
10.8211578276
 20
8.0497582479
 30
0.0
 10
10.8260191516
 20
8.0688400446
 30
0.0
 10
10.8327802716
 20
8.0872554523
 30
0.0
 10
10.8392720257
 20
8.1014275739
 30
0.0
 10
10.8446634218
 20
8.1117434333
 30
0.0
 10
10.8505702426
 20
8.1217384609
 30
0.0
 10
10.8591053392
 20
8.1345923652
 30
0.0
 10
10.8686300175
 20
8.146738696
 30
0.0
 10
10.8790558417
 20
8.1580604415
 30
0.0
 10
10.8873090689
 20
8.1661232037
 30
0.0
 10
10.8959774138
 20
8.1737405803
 30
0.0
 10
10.905042066
 20
8.1808947163
 30
0.0
 10
10.9144822252
 20
8.1875686758
 30
0.0
 10
10.9242757226
 20
8.193747749
 30
0.0
 10
10.9344008237
 20
8.1994163148
 30
0.0
 10
10.9448341574
 20
8.204560664
 30
0.0
 10
10.9555516497
 20
8.2091693157
 30
0.0
 10
10.9702107679
 20
8.2145914787
 30
0.0
 10
10.9891373654
 20
8.2199704381
 30
0.0
 10
11.0085892924
 20
8.2234090374
 30
0.0
 10
11.0243910576
 20
8.22499242
 30
0.0
 10
11.0403928153
 20
8.2257924137
 30
0.0
 10
11.0605737507
 20
8.2252993066
 30
0.0
 10
11.0806972403
 20
8.2228288245
 30
0.0
 10
11.0966958677
 20
8.2196839213
 30
0.0
 10
11.1126541362
 20
8.2157453922
 30
0.0
 10
11.13232994
 20
8.2093719589
 30
0.0
 10
11.1513839995
 20
8.2011536444
 30
0.0
 10
11.1661852824
 20
8.1935099871
 30
0.0
 10
11.1806878438
 20
8.185148162
 30
0.0
 10
11.1981163138
 20
8.1734255523
 30
0.0
 10
11.2144205747
 20
8.160138419
 30
0.0
 10
11.2267124692
 20
8.1486373782
 30
0.0
 10
11.2384716143
 20
8.1365818932
 30
0.0
 10
11.2493914877
 20
8.1237382443
 30
0.0
 10
11.259383117
 20
8.1102046128
 30
0.0
 10
11.2663948882
 20
8.0997380455
 30
0.0
 10
11.2729074723
 20
8.088978955
 30
0.0
 10
11.2789053519
 20
8.0779537693
 30
0.0
 10
11.2843751219
 20
8.0666904335
 30
0.0
 10
11.2893024395
 20
8.0552163971
 30
0.0
 10
11.2936760931
 20
8.043560046
 30
0.0
 10
11.2987467368
 20
8.0278481164
 30
0.0
 10
11.3026870694
 20
8.0118520233
 30
0.0
 10
11.3054564182
 20
7.9957004698
 30
0.0
 10
11.3074288255
 20
7.979570213
 30
0.0
 10
11.308029996
 20
7.9674021407
 30
0.0
 10
11.3080301434
 20
7.9593164294
 30
0.0
  0
SPLINE
  5
2CE
100
AcDbEntity
  8
0
100
AcDbSpline
 62
7
  6
CONTINUOUS
 70
0
 71
3
 72
56
 73
52
 74
0
 42
0.0000001
 43
0.0000001
 44
0.0000000001
 40
0.0
 40
0.0
 40
0.0
 40
0.0
 40
0.031072346
 40
0.0465152317
 40
0.0618873124
 40
0.0924244558
 40
0.1227285839
 40
0.1378086476
 40
0.152843805
 40
0.1678401144
 40
0.1828038429
 40
0.2126503375
 40
0.2275575076
 40
0.2424602021
 40
0.2573657768
 40
0.2722815596
 40
0.2872148075
 40
0.3021724288
 40
0.3171611944
 40
0.3321875086
 40
0.3472571497
 40
0.3623756664
 40
0.3927682644
 40
0.4234071833
 40
0.4388308412
 40
0.4543232404
 40
0.485507794
 40
0.5169699549
 40
0.5328065592
 40
0.5487076996
 40
0.5806824155
 40
0.6128739827
 40
0.6290441713
 40
0.6452543848
 40
0.6777639099
 40
0.7103643313
 40
0.7266873147
 40
0.7430142246
 40
0.7756456102
 40
0.791945892
 40
0.80822475
 40
0.8244760382
 40
0.8406940716
 40
0.8568734333
 40
0.8730088969
 40
0.8890954876
 40
0.905128265
 40
0.9370074718
 40
0.9528594107
 40
0.9686481654
 40
1.0
 40
1.0
 40
1.0
 40
1.0
 10
12.0923619979
 20
7.9049229314
 30
0.0
 10
12.0923618633
 20
7.8969093009
 30
0.0
 10
12.0917737472
 20
7.8849015607
 30
0.0
 10
12.089804272
 20
7.8690577779
 30
0.0
 10
12.0870654744
 20
7.8534676271
 30
0.0
 10
12.0822041502
 20
7.8343858308
 30
0.0
 10
12.0754430302
 20
7.815970424
 30
0.0
 10
12.0689512764
 20
7.8017983031
 30
0.0
 10
12.0635598806
 20
7.7914824443
 30
0.0
 10
12.0576530602
 20
7.7814874174
 30
0.0
 10
12.049117964
 20
7.7686335139
 30
0.0
 10
12.0395932865
 20
7.7564871834
 30
0.0
 10
12.0291674625
 20
7.7451654383
 30
0.0
 10
12.0209142356
 20
7.737102676
 30
0.0
 10
12.0122458907
 20
7.7294852991
 30
0.0
 10
12.003181238
 20
7.7223311628
 30
0.0
 10
11.9937410783
 20
7.7156572028
 30
0.0
 10
11.9839475802
 20
7.7094781291
 30
0.0
 10
11.9738224784
 20
7.7038095629
 30
0.0
 10
11.9633891441
 20
7.6986652135
 30
0.0
 10
11.9526716514
 20
7.6940565617
 30
0.0
 10
11.938012533
 20
7.6886343986
 30
0.0
 10
11.9190859353
 20
7.6832554395
 30
0.0
 10
11.8996340085
 20
7.6798168402
 30
0.0
 10
11.8838322436
 20
7.6782334578
 30
0.0
 10
11.8678304862
 20
7.6774334642
 30
0.0
 10
11.8476495513
 20
7.6779265713
 30
0.0
 10
11.8275260619
 20
7.6803970534
 30
0.0
 10
11.8115274347
 20
7.6835419566
 30
0.0
 10
11.7955691662
 20
7.6874804857
 30
0.0
 10
11.7758933624
 20
7.6938539191
 30
0.0
 10
11.7568393028
 20
7.7020722336
 30
0.0
 10
11.7420380198
 20
7.709715891
 30
0.0
 10
11.7275354584
 20
7.718077716
 30
0.0
 10
11.7101069884
 20
7.7298003258
 30
0.0
 10
11.6938027275
 20
7.7430874591
 30
0.0
 10
11.681510833
 20
7.7545885
 30
0.0
 10
11.669751688
 20
7.766643985
 30
0.0
 10
11.6588318146
 20
7.7794876339
 30
0.0
 10
11.6488401853
 20
7.7930212653
 30
0.0
 10
11.6418284142
 20
7.8034878326
 30
0.0
 10
11.6353158302
 20
7.8142469231
 30
0.0
 10
11.6293179506
 20
7.8252721087
 30
0.0
 10
11.6238481806
 20
7.8365354445
 30
0.0
 10
11.618920863
 20
7.8480094808
 30
0.0
 10
11.6145472094
 20
7.8596658319
 30
0.0
 10
11.6094765657
 20
7.8753777615
 30
0.0
 10
11.6055362332
 20
7.8913738545
 30
0.0
 10
11.6027668843
 20
7.907525408
 30
0.0
 10
11.600794477
 20
7.9236556649
 30
0.0
 10
11.6001933065
 20
7.9358237372
 30
0.0
 10
11.6001931591
 20
7.9439094485
 30
0.0
  0
SPLINE
  5
2CF
100
AcDbEntity
  8
0
100
AcDbSpline
 62
7
  6
CONTINUOUS
 70
0
 71
3
 72
56
 73
52
 74
0
 42
0.0000001
 43
0.0000001
 44
0.0000000001
 40
0.0
 40
0.0
 40
0.0
 40
0.0
 40
0.0310723444
 40
0.0465152282
 40
0.0618873079
 40
0.0924244521
 40
0.1227285817
 40
0.1378086463
 40
0.1528438045
 40
0.1678401149
 40
0.1828038444
 40
0.2126503405
 40
0.227557511
 40
0.2424602055
 40
0.2573657799
 40
0.272281562
 40
0.2872148089
 40
0.3021724291
 40
0.3171611937
 40
0.3321875071
 40
0.3472571476
 40
0.362375664
 40
0.3927682619
 40
0.4234071812
 40
0.4388308394
 40
0.454323239
 40
0.4855077933
 40
0.5169699546
 40
0.532806559
 40
0.5487076994
 40
0.5806824153
 40
0.6128739824
 40
0.6290441709
 40
0.6452543843
 40
0.6777639093
 40
0.7103643307
 40
0.7266873141
 40
0.7430142241
 40
0.7756456098
 40
0.7919458916
 40
0.8082247496
 40
0.8244760379
 40
0.8406940714
 40
0.8568734332
 40
0.8730088968
 40
0.8890954876
 40
0.905128265
 40
0.9370074719
 40
0.9528594107
 40
0.9686481654
 40
1.0
 40
1.0
 40
1.0
 40
1.0
 10
11.600193157
 20
7.9439093478
 30
0.0
 10
11.6001932917
 20
7.9519229779
 30
0.0
 10
11.6007814073
 20
7.9639307173
 30
0.0
 10
11.6027508826
 20
7.9797744989
 30
0.0
 10
11.6054896801
 20
7.9953646492
 30
0.0
 10
11.610351004
 20
8.0144464459
 30
0.0
 10
11.617112124
 20
8.0328618536
 30
0.0
 10
11.6236038781
 20
8.0470339752
 30
0.0
 10
11.6289952742
 20
8.0573498346
 30
0.0
 10
11.634902095
 20
8.0673448622
 30
0.0
 10
11.6434371916
 20
8.0801987665
 30
0.0
 10
11.6529618699
 20
8.0923450973
 30
0.0
 10
11.6633876941
 20
8.1036668428
 30
0.0
 10
11.6716409213
 20
8.111729605
 30
0.0
 10
11.6803092662
 20
8.1193469815
 30
0.0
 10
11.6893739184
 20
8.1265011176
 30
0.0
 10
11.6988140776
 20
8.1331750771
 30
0.0
 10
11.7086075751
 20
8.1393541502
 30
0.0
 10
11.7187326762
 20
8.1450227161
 30
0.0
 10
11.7291660098
 20
8.1501670653
 30
0.0
 10
11.7398835021
 20
8.154775717
 30
0.0
 10
11.7545426203
 20
8.16019788
 30
0.0
 10
11.7734692179
 20
8.1655768394
 30
0.0
 10
11.7929211448
 20
8.1690154387
 30
0.0
 10
11.80872291
 20
8.1705988213
 30
0.0
 10
11.8247246678
 20
8.1713988149
 30
0.0
 10
11.8449056031
 20
8.1709057079
 30
0.0
 10
11.8650290928
 20
8.1684352258
 30
0.0
 10
11.8810277201
 20
8.1652903226
 30
0.0
 10
11.8969859886
 20
8.1613517935
 30
0.0
 10
11.9166617924
 20
8.1549783602
 30
0.0
 10
11.9357158519
 20
8.1467600457
 30
0.0
 10
11.9505171348
 20
8.1391163883
 30
0.0
 10
11.9650196963
 20
8.1307545633
 30
0.0
 10
11.9824481662
 20
8.1190319536
 30
0.0
 10
11.9987524271
 20
8.1057448203
 30
0.0
 10
12.0110443216
 20
8.0942437795
 30
0.0
 10
12.0228034667
 20
8.0821882944
 30
0.0
 10
12.0337233401
 20
8.0693446456
 30
0.0
 10
12.0437149695
 20
8.0558110141
 30
0.0
 10
12.0507267406
 20
8.0453444468
 30
0.0
 10
12.0572393247
 20
8.0345853563
 30
0.0
 10
12.0632372043
 20
8.0235601706
 30
0.0
 10
12.0687069743
 20
8.0122968348
 30
0.0
 10
12.0736342919
 20
8.0008227984
 30
0.0
 10
12.0780079455
 20
7.9891664473
 30
0.0
 10
12.0830785892
 20
7.9734545177
 30
0.0
 10
12.0870189218
 20
7.9574584246
 30
0.0
 10
12.0897882706
 20
7.9413068711
 30
0.0
 10
12.0917606779
 20
7.9251766143
 30
0.0
 10
12.0923618485
 20
7.9130085419
 30
0.0
 10
12.0923619958
 20
7.9049228307
 30
0.0
  0
SPLINE
  5
2D0
100
AcDbEntity
  8
0
100
AcDbSpline
 62
7
  6
CONTINUOUS
 70
0
 71
3
 72
56
 73
52
 74
0
 42
0.0000001
 43
0.0000001
 44
0.0000000001
 40
0.0
 40
0.0
 40
0.0
 40
0.0
 40
0.031072346
 40
0.0465152317
 40
0.0618873124
 40
0.0924244558
 40
0.1227285839
 40
0.1378086476
 40
0.152843805
 40
0.1678401144
 40
0.1828038429
 40
0.2126503375
 40
0.2275575076
 40
0.2424602021
 40
0.2573657768
 40
0.2722815596
 40
0.2872148075
 40
0.3021724288
 40
0.3171611944
 40
0.3321875086
 40
0.3472571497
 40
0.3623756664
 40
0.3927682644
 40
0.4234071833
 40
0.4388308412
 40
0.4543232404
 40
0.485507794
 40
0.5169699549
 40
0.5328065592
 40
0.5487076996
 40
0.5806824155
 40
0.6128739827
 40
0.6290441713
 40
0.6452543848
 40
0.6777639099
 40
0.7103643313
 40
0.7266873147
 40
0.7430142246
 40
0.7756456102
 40
0.791945892
 40
0.80822475
 40
0.8244760382
 40
0.8406940716
 40
0.8568734333
 40
0.8730088969
 40
0.8890954876
 40
0.905128265
 40
0.9370074718
 40
0.9528594107
 40
0.9686481654
 40
1.0
 40
1.0
 40
1.0
 40
1.0
 10
12.606234573
 20
8.2913953934
 30
0.0
 10
12.6062344384
 20
8.2833817629
 30
0.0
 10
12.6056463223
 20
8.2713740227
 30
0.0
 10
12.6036768471
 20
8.2555302398
 30
0.0
 10
12.6009380495
 20
8.2399400891
 30
0.0
 10
12.5960767253
 20
8.2208582928
 30
0.0
 10
12.5893156053
 20
8.202442886
 30
0.0
 10
12.5828238515
 20
8.1882707651
 30
0.0
 10
12.5774324557
 20
8.1779549063
 30
0.0
 10
12.5715256353
 20
8.1679598794
 30
0.0
 10
12.5629905391
 20
8.1551059759
 30
0.0
 10
12.5534658616
 20
8.1429596454
 30
0.0
 10
12.5430400376
 20
8.1316379003
 30
0.0
 10
12.5347868107
 20
8.123575138
 30
0.0
 10
12.5261184658
 20
8.1159577611
 30
0.0
 10
12.5170538131
 20
8.1088036248
 30
0.0
 10
12.5076136534
 20
8.1021296648
 30
0.0
 10
12.4978201553
 20
8.0959505911
 30
0.0
 10
12.4876950535
 20
8.0902820248
 30
0.0
 10
12.4772617193
 20
8.0851376754
 30
0.0
 10
12.4665442265
 20
8.0805290237
 30
0.0
 10
12.4518851081
 20
8.0751068606
 30
0.0
 10
12.4329585104
 20
8.0697279015
 30
0.0
 10
12.4135065836
 20
8.0662893022
 30
0.0
 10
12.3977048187
 20
8.0647059198
 30
0.0
 10
12.3817030613
 20
8.0639059262
 30
0.0
 10
12.3615221264
 20
8.0643990333
 30
0.0
 10
12.341398637
 20
8.0668695154
 30
0.0
 10
12.3254000098
 20
8.0700144186
 30
0.0
 10
12.3094417413
 20
8.0739529477
 30
0.0
 10
12.2897659375
 20
8.080326381
 30
0.0
 10
12.2707118779
 20
8.0885446955
 30
0.0
 10
12.2559105949
 20
8.096188353
 30
0.0
 10
12.2414080335
 20
8.104550178
 30
0.0
 10
12.2239795635
 20
8.1162727878
 30
0.0
 10
12.2076753026
 20
8.1295599211
 30
0.0
 10
12.1953834081
 20
8.141060962
 30
0.0
 10
12.1836242631
 20
8.153116447
 30
0.0
 10
12.1727043897
 20
8.1659600958
 30
0.0
 10
12.1627127604
 20
8.1794937273
 30
0.0
 10
12.1557009893
 20
8.1899602946
 30
0.0
 10
12.1491884053
 20
8.2007193851
 30
0.0
 10
12.1431905257
 20
8.2117445707
 30
0.0
 10
12.1377207557
 20
8.2230079065
 30
0.0
 10
12.1327934381
 20
8.2344819428
 30
0.0
 10
12.1284197845
 20
8.2461382939
 30
0.0
 10
12.1233491408
 20
8.2618502235
 30
0.0
 10
12.1194088083
 20
8.2778463165
 30
0.0
 10
12.1166394594
 20
8.29399787
 30
0.0
 10
12.1146670521
 20
8.3101281268
 30
0.0
 10
12.1140658816
 20
8.3222961992
 30
0.0
 10
12.1140657342
 20
8.3303819105
 30
0.0
  0
SPLINE
  5
2D1
100
AcDbEntity
  8
0
100
AcDbSpline
 62
7
  6
CONTINUOUS
 70
0
 71
3
 72
56
 73
52
 74
0
 42
0.0000001
 43
0.0000001
 44
0.0000000001
 40
0.0
 40
0.0
 40
0.0
 40
0.0
 40
0.0310723444
 40
0.0465152282
 40
0.0618873079
 40
0.0924244521
 40
0.1227285817
 40
0.1378086463
 40
0.1528438045
 40
0.1678401149
 40
0.1828038444
 40
0.2126503405
 40
0.227557511
 40
0.2424602055
 40
0.2573657799
 40
0.272281562
 40
0.2872148089
 40
0.3021724291
 40
0.3171611937
 40
0.3321875071
 40
0.3472571476
 40
0.362375664
 40
0.3927682619
 40
0.4234071812
 40
0.4388308394
 40
0.454323239
 40
0.4855077933
 40
0.5169699546
 40
0.532806559
 40
0.5487076994
 40
0.5806824153
 40
0.6128739824
 40
0.6290441709
 40
0.6452543843
 40
0.6777639093
 40
0.7103643307
 40
0.7266873141
 40
0.7430142241
 40
0.7756456098
 40
0.7919458916
 40
0.8082247496
 40
0.8244760379
 40
0.8406940714
 40
0.8568734332
 40
0.8730088968
 40
0.8890954876
 40
0.905128265
 40
0.9370074719
 40
0.9528594107
 40
0.9686481654
 40
1.0
 40
1.0
 40
1.0
 40
1.0
 10
12.1140657321
 20
8.3303818098
 30
0.0
 10
12.1140658668
 20
8.3383954399
 30
0.0
 10
12.1146539824
 20
8.3504031793
 30
0.0
 10
12.1166234577
 20
8.3662469609
 30
0.0
 10
12.1193622552
 20
8.3818371112
 30
0.0
 10
12.1242235791
 20
8.4009189079
 30
0.0
 10
12.1309846991
 20
8.4193343156
 30
0.0
 10
12.1374764532
 20
8.4335064372
 30
0.0
 10
12.1428678493
 20
8.4438222966
 30
0.0
 10
12.1487746701
 20
8.4538173242
 30
0.0
 10
12.1573097667
 20
8.4666712284
 30
0.0
 10
12.166834445
 20
8.4788175593
 30
0.0
 10
12.1772602692
 20
8.4901393047
 30
0.0
 10
12.1855134964
 20
8.498202067
 30
0.0
 10
12.1941818413
 20
8.5058194435
 30
0.0
 10
12.2032464935
 20
8.5129735796
 30
0.0
 10
12.2126866527
 20
8.519647539
 30
0.0
 10
12.2224801502
 20
8.5258266122
 30
0.0
 10
12.2326052513
 20
8.5314951781
 30
0.0
 10
12.2430385849
 20
8.5366395273
 30
0.0
 10
12.2537560772
 20
8.5412481789
 30
0.0
 10
12.2684151954
 20
8.546670342
 30
0.0
 10
12.287341793
 20
8.5520493013
 30
0.0
 10
12.3067937199
 20
8.5554879007
 30
0.0
 10
12.3225954851
 20
8.5570712833
 30
0.0
 10
12.3385972429
 20
8.5578712769
 30
0.0
 10
12.3587781782
 20
8.5573781699
 30
0.0
 10
12.3789016679
 20
8.5549076878
 30
0.0
 10
12.3949002952
 20
8.5517627846
 30
0.0
 10
12.4108585637
 20
8.5478242555
 30
0.0
 10
12.4305343675
 20
8.5414508222
 30
0.0
 10
12.449588427
 20
8.5332325077
 30
0.0
 10
12.4643897099
 20
8.5255888503
 30
0.0
 10
12.4788922714
 20
8.5172270253
 30
0.0
 10
12.4963207413
 20
8.5055044156
 30
0.0
 10
12.5126250022
 20
8.4922172823
 30
0.0
 10
12.5249168967
 20
8.4807162414
 30
0.0
 10
12.5366760418
 20
8.4686607564
 30
0.0
 10
12.5475959152
 20
8.4558171076
 30
0.0
 10
12.5575875446
 20
8.4422834761
 30
0.0
 10
12.5645993157
 20
8.4318169087
 30
0.0
 10
12.5711118998
 20
8.4210578182
 30
0.0
 10
12.5771097794
 20
8.4100326326
 30
0.0
 10
12.5825795494
 20
8.3987692968
 30
0.0
 10
12.587506867
 20
8.3872952604
 30
0.0
 10
12.5918805206
 20
8.3756389093
 30
0.0
 10
12.5969511643
 20
8.3599269797
 30
0.0
 10
12.6008914969
 20
8.3439308866
 30
0.0
 10
12.6036608457
 20
8.3277793331
 30
0.0
 10
12.605633253
 20
8.3116490763
 30
0.0
 10
12.6062344236
 20
8.2994810039
 30
0.0
 10
12.6062345709
 20
8.2913952927
 30
0.0
  0
SPLINE
  5
2D2
100
AcDbEntity
  8
0
100
AcDbSpline
 62
7
  6
CONTINUOUS
 70
0
 71
3
 72
15
 73
11
 74
0
 42
0.0000001
 43
0.0000001
 44
0.0000000001
 40
0.0
 40
0.0
 40
0.0
 40
0.0
 40
0.1273483281
 40
0.2538605602
 40
0.3795878981
 40
0.5046051042
 40
0.6290174419
 40
0.7529533761
 40
0.876560577
 40
1.0
 40
1.0
 40
1.0
 40
1.0
 10
10.5601286321
 20
8.9446078302
 30
0.0
 10
10.5601286321
 20
8.9402807012
 30
0.0
 10
10.5597154784
 20
8.9316488702
 30
0.0
 10
10.5578470251
 20
8.9188671411
 30
0.0
 10
10.5547488192
 20
8.9064065714
 30
0.0
 10
10.5504488439
 20
8.8943836906
 30
0.0
 10
10.5449865608
 20
8.8829093733
 30
0.0
 10
10.5384117368
 20
8.8720895858
 30
0.0
 10
10.5307862083
 20
8.8620257006
 30
0.0
 10
10.52504457
 20
8.8558781153
 30
0.0
 10
10.5220277913
 20
8.8529641354
 30
0.0
  0
SPLINE
  5
2D3
100
AcDbEntity
  8
0
100
AcDbSpline
 62
7
  6
CONTINUOUS
 70
0
 71
3
 72
15
 73
11
 74
0
 42
0.0000001
 43
0.0000001
 44
0.0000000001
 40
0.0
 40
0.0
 40
0.0
 40
0.0
 40
0.1273483281
 40
0.2538605602
 40
0.3795878981
 40
0.5046051042
 40
0.6290174419
 40
0.7529533761
 40
0.876560577
 40
1.0
 40
1.0
 40
1.0
 40
1.0
 10
12.6117552499
 20
8.802327041
 30
0.0
 10
12.6117552499
 20
8.797999912
 30
0.0
 10
12.6113420962
 20
8.789368081
 30
0.0
 10
12.6094736429
 20
8.7765863519
 30
0.0
 10
12.606375437
 20
8.7641257822
 30
0.0
 10
12.6020754618
 20
8.7521029014
 30
0.0
 10
12.5966131787
 20
8.7406285841
 30
0.0
 10
12.5900383546
 20
8.7298087966
 30
0.0
 10
12.5824128262
 20
8.7197449114
 30
0.0
 10
12.5766711878
 20
8.7135973261
 30
0.0
 10
12.5736544091
 20
8.7106833462
 30
0.0
  0
SPLINE
  5
2D4
100
AcDbEntity
  8
0
100
AcDbSpline
 62
7
  6
CONTINUOUS
 70
0
 71
3
 72
15
 73
11
 74
0
 42
0.0000001
 43
0.0000001
 44
0.0000000001
 40
0.0
 40
0.0
 40
0.0
 40
0.0
 40
0.1273483281
 40
0.2538605602
 40
0.3795878981
 40
0.5046051042
 40
0.6290174419
 40
0.7529533761
 40
0.876560577
 40
1.0
 40
1.0
 40
1.0
 40
1.0
 10
10.5601286321
 20
7.1943502382
 30
0.0
 10
10.5601286321
 20
7.1900231092
 30
0.0
 10
10.5597154784
 20
7.1813912782
 30
0.0
 10
10.5578470251
 20
7.1686095491
 30
0.0
 10
10.5547488192
 20
7.1561489794
 30
0.0
 10
10.5504488439
 20
7.1441260986
 30
0.0
 10
10.5449865608
 20
7.1326517813
 30
0.0
 10
10.5384117368
 20
7.1218319938
 30
0.0
 10
10.5307862083
 20
7.1117681086
 30
0.0
 10
10.52504457
 20
7.1056205233
 30
0.0
 10
10.5220277913
 20
7.1027065434
 30
0.0
  0
SPLINE
  5
2D5
100
AcDbEntity
  8
0
100
AcDbSpline
 62
7
  6
CONTINUOUS
 70
0
 71
3
 72
15
 73
11
 74
0
 42
0.0000001
 43
0.0000001
 44
0.0000000001
 40
0.0
 40
0.0
 40
0.0
 40
0.0
 40
0.1273483281
 40
0.2538605602
 40
0.3795878981
 40
0.5046051042
 40
0.6290174419
 40
0.7529533761
 40
0.876560577
 40
1.0
 40
1.0
 40
1.0
 40
1.0
 10
12.6117552499
 20
7.052069449
 30
0.0
 10
12.6117552499
 20
7.04774232
 30
0.0
 10
12.6113420962
 20
7.039110489
 30
0.0
 10
12.6094736429
 20
7.0263287599
 30
0.0
 10
12.606375437
 20
7.0138681902
 30
0.0
 10
12.6020754618
 20
7.0018453094
 30
0.0
 10
12.5966131787
 20
6.9903709921
 30
0.0
 10
12.5900383546
 20
6.9795512046
 30
0.0
 10
12.5824128262
 20
6.9694873194
 30
0.0
 10
12.5766711878
 20
6.9633397341
 30
0.0
 10
12.5736544091
 20
6.9604257542
 30
0.0
  0
SPLINE
  5
2D6
100
AcDbEntity
  8
0
100
AcDbSpline
 62
7
  6
CONTINUOUS
 70
0
 71
3
 72
32
 73
28
 74
0
 42
0.0000001
 43
0.0000001
 44
0.0000000001
 40
0.0
 40
0.0
 40
0.0
 40
0.0
 40
0.076277395
 40
0.153787923
 40
0.2318262396
 40
0.3096789449
 40
0.3866352766
 40
0.4619949457
 40
0.5350764675
 40
0.5705581786
 40
0.6052277195
 40
0.6390091002
 40
0.6718291474
 40
0.703617828
 40
0.7343087088
 40
0.7638392576
 40
0.792151216
 40
0.8191911703
 40
0.8449112036
 40
0.8692694831
 40
0.8922311449
 40
0.913769592
 40
0.9338679519
 40
0.9525210285
 40
0.9697381664
 40
0.9855472608
 40
1.0
 40
1.0
 40
1.0
 40
1.0
 10
13.6194109928
 20
8.240796852
 30
0.0
 10
13.6194109928
 20
8.2498008389
 30
0.0
 10
13.6196532243
 20
8.2679551596
 30
0.0
 10
13.6207100346
 20
8.2953028128
 30
0.0
 10
13.6224542556
 20
8.3228017215
 30
0.0
 10
13.624868942
 20
8.3501841642
 30
0.0
 10
13.6279304852
 20
8.3771838032
 30
0.0
 10
13.6316088917
 20
8.4035378264
 30
0.0
 10
13.6351923088
 20
8.424954024
 30
0.0
 10
13.6383502068
 20
8.4415646304
 30
0.0
 10
13.6408254419
 20
8.4535813517
 30
0.0
 10
13.6434246132
 20
8.4652502106
 30
0.0
 10
13.646141392
 20
8.4765428254
 30
0.0
 10
13.6489691279
 20
8.487431714
 30
0.0
 10
13.6519008825
 20
8.4978904094
 30
0.0
 10
13.6549294639
 20
8.5078935094
 30
0.0
 10
13.6580474572
 20
8.5174167359
 30
0.0
 10
13.6612472274
 20
8.5264370141
 30
0.0
 10
13.6645209235
 20
8.5349325489
 30
0.0
 10
13.6678605381
 20
8.5428828696
 30
0.0
 10
13.6712579485
 20
8.5502688951
 30
0.0
 10
13.6747049085
 20
8.5570730224
 30
0.0
 10
13.6781931571
 20
8.5632792147
 30
0.0
 10
13.6817144358
 20
8.5688729566
 30
0.0
 10
13.685260928
 20
8.5738416081
 30
0.0
 10
13.6888244124
 20
8.57817347
 30
0.0
 10
13.6913151854
 20
8.5807421659
 30
0.0
 10
13.6925640322
 20
8.5819044712
 30
0.0
  0
SPLINE
  5
2D7
100
AcDbEntity
  8
0
100
AcDbSpline
 62
7
  6
CONTINUOUS
 70
0
 71
3
 72
21
 73
17
 74
0
 42
0.0000001
 43
0.0000001
 44
0.0000000001
 40
0.0
 40
0.0
 40
0.0
 40
0.0
 40
0.1273176984
 40
0.2537999461
 40
0.3167619614
 40
0.3795355204
 40
0.4421314992
 40
0.5045621453
 40
0.5668413456
 40
0.6289845231
 40
0.6910084433
 40
0.7529310869
 40
0.8147714401
 40
0.8765493236
 40
0.9382852134
 40
1.0
 40
1.0
 40
1.0
 40
1.0
 10
11.674708079
 20
7.3719327811
 30
0.0
 10
11.674708079
 20
7.365187973
 30
0.0
 10
11.674064242
 20
7.3517339335
 30
0.0
 10
11.6716326508
 20
7.3351018365
 30
0.0
 10
11.6687263837
 20
7.3220554128
 30
0.0
 10
11.6660760198
 20
7.3124323644
 30
0.0
 10
11.6629580251
 20
7.3029803126
 30
0.0
 10
11.6593795883
 20
7.2937207781
 30
0.0
 10
11.6553489597
 20
7.2846751767
 30
0.0
 10
11.6508753518
 20
7.2758643851
 30
0.0
 10
11.6459691137
 20
7.2673087136
 30
0.0
 10
11.64064156
 20
7.2590278797
 30
0.0
 10
11.6349049256
 20
7.2510410451
 30
0.0
 10
11.6287724044
 20
7.2433665526
 30
0.0
 10
11.6222584109
 20
7.2360223143
 30
0.0
 10
11.6176705182
 20
7.2313568217
 30
0.0
 10
11.6153189695
 20
7.229085414
 30
0.0
  0
SPLINE
  5
2D8
100
AcDbEntity
  8
0
100
AcDbSpline
 62
7
  6
CONTINUOUS
 70
0
 71
3
 72
21
 73
17
 74
0
 42
0.0000001
 43
0.0000001
 44
0.0000000001
 40
0.0
 40
0.0
 40
0.0
 40
0.0
 40
0.1273176984
 40
0.2537999461
 40
0.3167619614
 40
0.3795355204
 40
0.4421314992
 40
0.5045621453
 40
0.5668413456
 40
0.6289845231
 40
0.6910084433
 40
0.7529310869
 40
0.8147714401
 40
0.8765493236
 40
0.9382852134
 40
1.0
 40
1.0
 40
1.0
 40
1.0
 10
12.0668740053
 20
7.918495939
 30
0.0
 10
12.0668740053
 20
7.9117511309
 30
0.0
 10
12.0662301682
 20
7.8982970915
 30
0.0
 10
12.063798577
 20
7.8816649944
 30
0.0
 10
12.0608923099
 20
7.8686185708
 30
0.0
 10
12.058241946
 20
7.8589955223
 30
0.0
 10
12.0551239513
 20
7.8495434706
 30
0.0
 10
12.0515455146
 20
7.840283936
 30
0.0
 10
12.0475148859
 20
7.8312383346
 30
0.0
 10
12.043041278
 20
7.8224275431
 30
0.0
 10
12.0381350399
 20
7.8138718715
 30
0.0
 10
12.0328074863
 20
7.8055910376
 30
0.0
 10
12.0270708518
 20
7.7976042031
 30
0.0
 10
12.0209383306
 20
7.7899297105
 30
0.0
 10
12.0144243371
 20
7.7825854723
 30
0.0
 10
12.0098364444
 20
7.7779199797
 30
0.0
 10
12.0074848957
 20
7.7756485719
 30
0.0
  0
SPLINE
  5
2D9
100
AcDbEntity
  8
0
100
AcDbSpline
 62
7
  6
CONTINUOUS
 70
0
 71
3
 72
21
 73
17
 74
0
 42
0.0000001
 43
0.0000001
 44
0.0000000001
 40
0.0
 40
0.0
 40
0.0
 40
0.0
 40
0.1273176984
 40
0.2537999461
 40
0.3167619614
 40
0.3795355204
 40
0.4421314992
 40
0.5045621453
 40
0.5668413456
 40
0.6289845231
 40
0.6910084433
 40
0.7529310869
 40
0.8147714401
 40
0.8765493236
 40
0.9382852134
 40
1.0
 40
1.0
 40
1.0
 40
1.0
 10
12.5807465804
 20
8.304968401
 30
0.0
 10
12.5807465804
 20
8.2982235929
 30
0.0
 10
12.5801027433
 20
8.2847695535
 30
0.0
 10
12.5776711521
 20
8.2681374564
 30
0.0
 10
12.574764885
 20
8.2550910328
 30
0.0
 10
12.5721145211
 20
8.2454679843
 30
0.0
 10
12.5689965264
 20
8.2360159326
 30
0.0
 10
12.5654180897
 20
8.226756398
 30
0.0
 10
12.561387461
 20
8.2177107966
 30
0.0
 10
12.5569138531
 20
8.208900005
 30
0.0
 10
12.552007615
 20
8.2003443335
 30
0.0
 10
12.5466800614
 20
8.1920634996
 30
0.0
 10
12.5409434269
 20
8.184076665
 30
0.0
 10
12.5348109057
 20
8.1764021725
 30
0.0
 10
12.5282969122
 20
8.1690579343
 30
0.0
 10
12.5237090195
 20
8.1643924417
 30
0.0
 10
12.5213574708
 20
8.1621210339
 30
0.0
  0
SPLINE
  5
2DA
100
AcDbEntity
  8
0
100
AcDbSpline
 62
7
  6
CONTINUOUS
 70
0
 71
3
 72
15
 73
11
 74
0
 42
0.0000001
 43
0.0000001
 44
0.0000000001
 40
0.0
 40
0.0
 40
0.0
 40
0.0
 40
0.1181923148
 40
0.2383718389
 40
0.3605420776
 40
0.4846905814
 40
0.6107842357
 40
0.7387633687
 40
0.8685401651
 40
1.0
 40
1.0
 40
1.0
 40
1.0
 10
11.3262653819
 20
7.473362961
 30
0.0
 10
11.32579262
 20
7.4774382646
 30
0.0
 10
11.3251954652
 20
7.4857030262
 30
0.0
 10
11.3253679532
 20
7.4982313776
 30
0.0
 10
11.3266291883
 20
7.5109060535
 30
0.0
 10
11.3289952047
 20
7.5236301729
 30
0.0
 10
11.3324684402
 20
7.5363066351
 30
0.0
 10
11.3370382196
 20
7.5488383528
 30
0.0
 10
11.3426802617
 20
7.5611292236
 30
0.0
 10
11.3471071863
 20
7.5690555705
 30
0.0
 10
11.3494834771
 20
7.5729511779
 30
0.0
  0
SPLINE
  5
2DB
100
AcDbEntity
  8
0
100
AcDbSpline
 62
7
  6
CONTINUOUS
 70
0
 71
3
 72
37
 73
33
 74
0
 42
0.0000001
 43
0.0000001
 44
0.0000000001
 40
0.0
 40
0.0
 40
0.0
 40
0.0
 40
0.0071625163
 40
0.0146566855
 40
0.0224900841
 40
0.0306688224
 40
0.0391978881
 40
0.0480811142
 40
0.0573209621
 40
0.0669185876
 40
0.0871864145
 40
0.1088789618
 40
0.1319780012
 40
0.1564560409
 40
0.1822776811
 40
0.2094008015
 40
0.2377774489
 40
0.267354417
 40
0.2980737688
 40
0.3298734368
 40
0.3626876084
 40
0.3964469841
 40
0.4310791962
 40
0.4665091598
 40
0.5026593021
 40
0.5394498154
 40
0.6146219384
 40
0.6913554392
 40
0.7689602702
 40
0.8467363389
 40
0.9239810822
 40
1.0
 40
1.0
 40
1.0
 40
1.0
 10
8.1706869349
 20
9.4575317058
 30
0.0
 10
8.1699417979
 20
9.4568119587
 30
0.0
 10
8.1684525005
 20
9.4553020538
 30
0.0
 10
8.1662696489
 20
9.4528890653
 30
0.0
 10
8.1640895155
 20
9.4502790312
 30
0.0
 10
8.1619135892
 20
9.4474736335
 30
0.0
 10
8.1597430508
 20
9.4444745706
 30
0.0
 10
8.1575791726
 20
9.4412835519
 30
0.0
 10
8.1554231727
 20
9.4379024386
 30
0.0
 10
8.1525075622
 20
9.4330549935
 30
0.0
 10
8.1489011914
 20
9.4265244116
 30
0.0
 10
8.1447004253
 20
9.4181013441
 30
0.0
 10
8.1405613453
 20
9.4089748939
 30
0.0
 10
8.1364939268
 20
9.3991667819
 30
0.0
 10
8.132507945
 20
9.3887002275
 30
0.0
 10
8.12861303
 20
9.3776001913
 30
0.0
 10
8.1248186212
 20
9.3658931818
 30
0.0
 10
8.1211339132
 20
9.3536072307
 30
0.0
 10
8.117567812
 20
9.34077181
 30
0.0
 10
8.1141289561
 20
9.3274177315
 30
0.0
 10
8.1108256882
 20
9.3135770708
 30
0.0
 10
8.1076659924
 20
9.2992831043
 30
0.0
 10
8.1046575033
 20
9.2845702116
 30
0.0
 10
8.1018075147
 20
9.26947379
 30
0.0
 10
8.0991228952
 20
9.2540301381
 30
0.0
 10
8.0957485452
 20
9.2328739694
 30
0.0
 10
8.0919986342
 20
9.2058363382
 30
0.0
 10
8.0882802827
 20
9.1728454856
 30
0.0
 10
8.0853480846
 20
9.1393973794
 30
0.0
 10
8.0832303047
 20
9.1058137514
 30
0.0
 10
8.081947282
 20
9.0724176062
 30
0.0
 10
8.0816532568
 20
9.0502486306
 30
0.0
 10
8.0816532568
 20
9.0392532678
 30
0.0
  0
SPLINE
  5
2DC
100
AcDbEntity
  8
0
100
AcDbSpline
 62
7
  6
CONTINUOUS
 70
0
 71
3
 72
30
 73
26
 74
0
 42
0.0000001
 43
0.0000001
 44
0.0000000001
 40
0.0
 40
0.0
 40
0.0
 40
0.0
 40
0.0851784903
 40
0.1685810969
 40
0.2498834953
 40
0.3287745917
 40
0.4049551108
 40
0.4781414856
 40
0.5480673724
 40
0.6144864538
 40
0.6771752938
 40
0.7070594378
 40
0.735939494
 40
0.7637959642
 40
0.790611226
 40
0.8163706451
 40
0.8410619855
 40
0.8646766072
 40
0.8872090812
 40
0.9086584391
 40
0.9290281656
 40
0.9483275241
 40
0.96657212
 40
0.9837854028
 40
1.0
 40
1.0
 40
1.0
 40
1.0
 10
8.0816532568
 20
7.4696237071
 30
0.0
 10
8.0816532568
 20
7.4624962325
 30
0.0
 10
8.0817747144
 20
7.4483895403
 30
0.0
 10
8.082331755
 20
7.4274863453
 30
0.0
 10
8.0832595417
 20
7.4071228053
 30
0.0
 10
8.0845540205
 20
7.3873847635
 30
0.0
 10
8.0862096058
 20
7.3683551655
 30
0.0
 10
8.088219136
 20
7.3501140394
 30
0.0
 10
8.0905739227
 20
7.3327379034
 30
0.0
 10
8.0932638441
 20
7.3162997828
 30
0.0
 10
8.0958139456
 20
7.3032398072
 30
0.0
 10
8.0980244594
 20
7.2933198068
 30
0.0
 10
8.0997323105
 20
7.2862752643
 30
0.0
 10
8.1015146736
 20
7.2795144088
 30
0.0
 10
8.1033697859
 20
7.2730443172
 30
0.0
 10
8.1052955855
 20
7.266871749
 30
0.0
 10
8.1072901386
 20
7.2610031556
 30
0.0
 10
8.1093512597
 20
7.2554446308
 30
0.0
 10
8.11147688
 20
7.2502019541
 30
0.0
 10
8.1136647184
 20
7.2452805238
 30
0.0
 10
8.1159125985
 20
7.2406854057
 30
0.0
 10
8.1182181855
 20
7.2364212921
 30
0.0
 10
8.1205792829
 20
7.2324924567
 30
0.0
 10
8.1229934534
 20
7.2289030596
 30
0.0
 10
8.1246862675
 20
7.2266736932
 30
0.0
 10
8.1255423522
 20
7.2256210813
 30
0.0
  0
SPLINE
  5
2DD
100
AcDbEntity
  8
0
100
AcDbSpline
 62
7
  6
CONTINUOUS
 70
0
 71
3
 72
40
 73
36
 74
0
 42
0.0000001
 43
0.0000001
 44
0.0000000001
 40
0.0
 40
0.0
 40
0.0
 40
0.0
 40
0.0299422956
 40
0.059908968
 40
0.0899238
 40
0.1200094056
 40
0.1350882594
 40
0.1501924656
 40
0.1804801452
 40
0.2108943177
 40
0.241448122
 40
0.2721514726
 40
0.3030108797
 40
0.334029354
 40
0.3652063934
 40
0.3965380465
 40
0.4280170486
 40
0.4596330217
 40
0.4913727316
 40
0.5232203951
 40
0.5551580282
 40
0.5871658292
 40
0.6192225887
 40
0.6513061205
 40
0.6833937063
 40
0.715462548
 40
0.7474902197
 40
0.779455117
 40
0.8113368874
 40
0.8431168691
 40
0.8747784143
 40
0.9063074703
 40
0.9376922765
 40
0.9689251917
 40
1.0
 40
1.0
 40
1.0
 40
1.0
 10
10.3268042997
 20
9.0550749247
 30
0.0
 10
10.329135148
 20
9.0573263478
 30
0.0
 10
10.3339801179
 20
9.0616474819
 30
0.0
 10
10.3417425833
 20
9.0675343009
 30
0.0
 10
10.3499600459
 20
9.0727966168
 30
0.0
 10
10.3571449037
 20
9.076634666
 30
0.0
 10
10.3630704161
 20
9.0793649826
 30
0.0
 10
10.3691183609
 20
9.0818699151
 30
0.0
 10
10.3768775907
 20
9.0845634321
 30
0.0
 10
10.3864396746
 20
9.0870737273
 30
0.0
 10
10.3962104069
 20
9.0888520851
 30
0.0
 10
10.4061356403
 20
9.0898886954
 30
0.0
 10
10.4161608525
 20
9.0901780272
 30
0.0
 10
10.4262308818
 20
9.0897186086
 30
0.0
 10
10.436290381
 20
9.0885130941
 30
0.0
 10
10.4462840777
 20
9.0865682263
 30
0.0
 10
10.4561570855
 20
9.0838947989
 30
0.0
 10
10.4658551981
 20
9.080507593
 30
0.0
 10
10.4753251838
 20
9.0764252936
 30
0.0
 10
10.4845150729
 20
9.0716703857
 30
0.0
 10
10.493374439
 20
9.0662690301
 30
0.0
 10
10.501854672
 20
9.0602509207
 30
0.0
 10
10.5099092413
 20
9.0536491213
 30
0.0
 10
10.5174939493
 20
9.0464998878
 30
0.0
 10
10.5245671715
 20
9.0388424693
 30
0.0
 10
10.5310900813
 20
9.0307188941
 30
0.0
 10
10.5370268618
 20
9.0221737413
 30
0.0
 10
10.5423448981
 20
9.0132538989
 30
0.0
 10
10.5470149619
 20
9.0040083089
 30
0.0
 10
10.5510113531
 20
8.9944877076
 30
0.0
 10
10.5543120848
 20
8.9847443238
 30
0.0
 10
10.556898905
 20
8.9748317059
 30
0.0
 10
10.5587575935
 20
8.9648040348
 30
0.0
 10
10.5598777239
 20
8.9547171683
 30
0.0
 10
10.5601286321
 20
8.9479710434
 30
0.0
 10
10.5601286321
 20
8.9446078302
 30
0.0
  0
SPLINE
  5
2DE
100
AcDbEntity
  8
0
100
AcDbSpline
 62
7
  6
CONTINUOUS
 70
0
 71
3
 72
40
 73
36
 74
0
 42
0.0000001
 43
0.0000001
 44
0.0000000001
 40
0.0
 40
0.0
 40
0.0
 40
0.0
 40
0.0299422956
 40
0.059908968
 40
0.0899238
 40
0.1200094056
 40
0.1350882594
 40
0.1501924656
 40
0.1804801452
 40
0.2108943177
 40
0.241448122
 40
0.2721514726
 40
0.3030108797
 40
0.334029354
 40
0.3652063934
 40
0.3965380465
 40
0.4280170486
 40
0.4596330217
 40
0.4913727316
 40
0.5232203951
 40
0.5551580282
 40
0.5871658292
 40
0.6192225887
 40
0.6513061205
 40
0.6833937063
 40
0.715462548
 40
0.7474902197
 40
0.779455117
 40
0.8113368874
 40
0.8431168691
 40
0.8747784143
 40
0.9063074703
 40
0.9376922765
 40
0.9689251917
 40
1.0
 40
1.0
 40
1.0
 40
1.0
 10
12.3784309175
 20
8.9127941355
 30
0.0
 10
12.3807617658
 20
8.9150455586
 30
0.0
 10
12.3856067358
 20
8.9193666927
 30
0.0
 10
12.3933692011
 20
8.9252535117
 30
0.0
 10
12.4015866638
 20
8.9305158276
 30
0.0
 10
12.4087715215
 20
8.9343538768
 30
0.0
 10
12.4146970339
 20
8.9370841934
 30
0.0
 10
12.4207449788
 20
8.9395891259
 30
0.0
 10
12.4285042085
 20
8.9422826429
 30
0.0
 10
12.4380662924
 20
8.9447929381
 30
0.0
 10
12.4478370247
 20
8.9465712959
 30
0.0
 10
12.4577622581
 20
8.9476079062
 30
0.0
 10
12.4677874703
 20
8.947897238
 30
0.0
 10
12.4778574996
 20
8.9474378194
 30
0.0
 10
12.4879169988
 20
8.9462323049
 30
0.0
 10
12.4979106955
 20
8.9442874371
 30
0.0
 10
12.5077837033
 20
8.9416140097
 30
0.0
 10
12.5174818159
 20
8.9382268038
 30
0.0
 10
12.5269518017
 20
8.9341445044
 30
0.0
 10
12.5361416907
 20
8.9293895965
 30
0.0
 10
12.5450010568
 20
8.9239882409
 30
0.0
 10
12.5534812898
 20
8.9179701315
 30
0.0
 10
12.5615358591
 20
8.9113683321
 30
0.0
 10
12.5691205671
 20
8.9042190986
 30
0.0
 10
12.5761937893
 20
8.8965616801
 30
0.0
 10
12.5827166992
 20
8.8884381049
 30
0.0
 10
12.5886534796
 20
8.8798929521
 30
0.0
 10
12.5939715159
 20
8.8709731097
 30
0.0
 10
12.5986415797
 20
8.8617275197
 30
0.0
 10
12.6026379709
 20
8.8522069184
 30
0.0
 10
12.6059387027
 20
8.8424635346
 30
0.0
 10
12.6085255228
 20
8.8325509167
 30
0.0
 10
12.6103842113
 20
8.8225232456
 30
0.0
 10
12.6115043417
 20
8.8124363791
 30
0.0
 10
12.6117552499
 20
8.8056902542
 30
0.0
 10
12.6117552499
 20
8.802327041
 30
0.0
  0
SPLINE
  5
2DF
100
AcDbEntity
  8
0
100
AcDbSpline
 62
7
  6
CONTINUOUS
 70
0
 71
3
 72
40
 73
36
 74
0
 42
0.0000001
 43
0.0000001
 44
0.0000000001
 40
0.0
 40
0.0
 40
0.0
 40
0.0
 40
0.0299422956
 40
0.059908968
 40
0.0899238
 40
0.1200094056
 40
0.1350882594
 40
0.1501924656
 40
0.1804801452
 40
0.2108943177
 40
0.241448122
 40
0.2721514726
 40
0.3030108797
 40
0.334029354
 40
0.3652063934
 40
0.3965380465
 40
0.4280170486
 40
0.4596330217
 40
0.4913727316
 40
0.5232203951
 40
0.5551580282
 40
0.5871658292
 40
0.6192225887
 40
0.6513061205
 40
0.6833937063
 40
0.715462548
 40
0.7474902197
 40
0.779455117
 40
0.8113368874
 40
0.8431168691
 40
0.8747784143
 40
0.9063074703
 40
0.9376922765
 40
0.9689251917
 40
1.0
 40
1.0
 40
1.0
 40
1.0
 10
10.3268042997
 20
7.3048173327
 30
0.0
 10
10.329135148
 20
7.3070687558
 30
0.0
 10
10.3339801179
 20
7.3113898899
 30
0.0
 10
10.3417425833
 20
7.3172767089
 30
0.0
 10
10.3499600459
 20
7.3225390248
 30
0.0
 10
10.3571449037
 20
7.326377074
 30
0.0
 10
10.3630704161
 20
7.3291073906
 30
0.0
 10
10.3691183609
 20
7.3316123231
 30
0.0
 10
10.3768775907
 20
7.3343058401
 30
0.0
 10
10.3864396746
 20
7.3368161353
 30
0.0
 10
10.3962104069
 20
7.3385944931
 30
0.0
 10
10.4061356403
 20
7.3396311034
 30
0.0
 10
10.4161608525
 20
7.3399204352
 30
0.0
 10
10.4262308818
 20
7.3394610166
 30
0.0
 10
10.436290381
 20
7.3382555021
 30
0.0
 10
10.4462840777
 20
7.3363106342
 30
0.0
 10
10.4561570855
 20
7.3336372069
 30
0.0
 10
10.4658551981
 20
7.330250001
 30
0.0
 10
10.4753251838
 20
7.3261677016
 30
0.0
 10
10.4845150729
 20
7.3214127937
 30
0.0
 10
10.493374439
 20
7.3160114381
 30
0.0
 10
10.501854672
 20
7.3099933287
 30
0.0
 10
10.5099092413
 20
7.3033915293
 30
0.0
 10
10.5174939493
 20
7.2962422958
 30
0.0
 10
10.5245671715
 20
7.2885848773
 30
0.0
 10
10.5310900813
 20
7.2804613021
 30
0.0
 10
10.5370268618
 20
7.2719161493
 30
0.0
 10
10.5423448981
 20
7.2629963069
 30
0.0
 10
10.5470149619
 20
7.2537507169
 30
0.0
 10
10.5510113531
 20
7.2442301156
 30
0.0
 10
10.5543120848
 20
7.2344867318
 30
0.0
 10
10.556898905
 20
7.2245741139
 30
0.0
 10
10.5587575935
 20
7.2145464428
 30
0.0
 10
10.5598777239
 20
7.2044595763
 30
0.0
 10
10.5601286321
 20
7.1977134514
 30
0.0
 10
10.5601286321
 20
7.1943502382
 30
0.0
  0
SPLINE
  5
2E0
100
AcDbEntity
  8
0
100
AcDbSpline
 62
7
  6
CONTINUOUS
 70
0
 71
3
 72
40
 73
36
 74
0
 42
0.0000001
 43
0.0000001
 44
0.0000000001
 40
0.0
 40
0.0
 40
0.0
 40
0.0
 40
0.0299422956
 40
0.059908968
 40
0.0899238
 40
0.1200094056
 40
0.1350882594
 40
0.1501924656
 40
0.1804801452
 40
0.2108943177
 40
0.241448122
 40
0.2721514726
 40
0.3030108797
 40
0.334029354
 40
0.3652063934
 40
0.3965380465
 40
0.4280170486
 40
0.4596330217
 40
0.4913727316
 40
0.5232203951
 40
0.5551580282
 40
0.5871658292
 40
0.6192225887
 40
0.6513061205
 40
0.6833937063
 40
0.715462548
 40
0.7474902197
 40
0.779455117
 40
0.8113368874
 40
0.8431168691
 40
0.8747784143
 40
0.9063074703
 40
0.9376922765
 40
0.9689251917
 40
1.0
 40
1.0
 40
1.0
 40
1.0
 10
12.3784309175
 20
7.1625365435
 30
0.0
 10
12.3807617658
 20
7.1647879666
 30
0.0
 10
12.3856067358
 20
7.1691091007
 30
0.0
 10
12.3933692011
 20
7.1749959197
 30
0.0
 10
12.4015866638
 20
7.1802582356
 30
0.0
 10
12.4087715215
 20
7.1840962848
 30
0.0
 10
12.4146970339
 20
7.1868266014
 30
0.0
 10
12.4207449788
 20
7.1893315339
 30
0.0
 10
12.4285042085
 20
7.1920250509
 30
0.0
 10
12.4380662924
 20
7.1945353461
 30
0.0
 10
12.4478370247
 20
7.1963137039
 30
0.0
 10
12.4577622581
 20
7.1973503142
 30
0.0
 10
12.4677874703
 20
7.197639646
 30
0.0
 10
12.4778574996
 20
7.1971802274
 30
0.0
 10
12.4879169988
 20
7.1959747129
 30
0.0
 10
12.4979106955
 20
7.194029845
 30
0.0
 10
12.5077837033
 20
7.1913564177
 30
0.0
 10
12.5174818159
 20
7.1879692118
 30
0.0
 10
12.5269518017
 20
7.1838869124
 30
0.0
 10
12.5361416907
 20
7.1791320045
 30
0.0
 10
12.5450010568
 20
7.1737306489
 30
0.0
 10
12.5534812898
 20
7.1677125395
 30
0.0
 10
12.5615358591
 20
7.1611107401
 30
0.0
 10
12.5691205671
 20
7.1539615066
 30
0.0
 10
12.5761937893
 20
7.1463040881
 30
0.0
 10
12.5827166992
 20
7.1381805129
 30
0.0
 10
12.5886534796
 20
7.1296353601
 30
0.0
 10
12.5939715159
 20
7.1207155177
 30
0.0
 10
12.5986415797
 20
7.1114699277
 30
0.0
 10
12.6026379709
 20
7.1019493264
 30
0.0
 10
12.6059387027
 20
7.0922059426
 30
0.0
 10
12.6085255228
 20
7.0822933247
 30
0.0
 10
12.6103842113
 20
7.0722656536
 30
0.0
 10
12.6115043417
 20
7.0621787871
 30
0.0
 10
12.6117552499
 20
7.0554326622
 30
0.0
 10
12.6117552499
 20
7.052069449
 30
0.0
  0
SPLINE
  5
2E1
100
AcDbEntity
  8
0
100
AcDbSpline
 62
7
  6
CONTINUOUS
 70
0
 71
3
 72
42
 73
38
 74
0
 42
0.0000001
 43
0.0000001
 44
0.0000000001
 40
0.0
 40
0.0
 40
0.0
 40
0.0
 40
0.0299419634
 40
0.0449235299
 40
0.0599142017
 40
0.0899287029
 40
0.1200139772
 40
0.1350926626
 40
0.1501967046
 40
0.1804840506
 40
0.2108978877
 40
0.2414513551
 40
0.2721543675
 40
0.3030134354
 40
0.3340315696
 40
0.3652082675
 40
0.3965395775
 40
0.4280182343
 40
0.4596338596
 40
0.4913732188
 40
0.5232205284
 40
0.5551578047
 40
0.5871652463
 40
0.6192216448
 40
0.6513048151
 40
0.6833920402
 40
0.7154605222
 40
0.747487836
 40
0.7794523759
 40
0.8113337934
 40
0.8431134117
 40
0.8747746318
 40
0.9063032512
 40
0.9376879208
 40
0.9533258
 40
0.9689252634
 40
1.0
 40
1.0
 40
1.0
 40
1.0
 10
11.3110216516
 20
7.5441205363
 30
0.0
 10
11.3146547908
 20
7.5476298579
 30
0.0
 10
11.3203186582
 20
7.552681191
 30
0.0
 10
11.328250777
 20
7.5589487953
 30
0.0
 10
11.336435494
 20
7.5649045141
 30
0.0
 10
11.3471152038
 20
7.5717436088
 30
0.0
 10
11.3583141675
 20
7.5777258374
 30
0.0
 10
11.3675504103
 20
7.5819816007
 30
0.0
 10
11.3769774467
 20
7.5858860442
 30
0.0
 10
11.389071907
 20
7.5900844245
 30
0.0
 10
11.4039764961
 20
7.5939972096
 30
0.0
 10
11.4192063056
 20
7.5967691167
 30
0.0
 10
11.4346769341
 20
7.5983848534
 30
0.0
 10
11.4503033983
 20
7.5988357971
 30
0.0
 10
11.4659997167
 20
7.5981196528
 30
0.0
 10
11.4816796191
 20
7.5962405573
 30
0.0
 10
11.4972569511
 20
7.5932090202
 30
0.0
 10
11.5126461602
 20
7.589041866
 30
0.0
 10
11.5277627542
 20
7.5837621348
 30
0.0
 10
11.5425237599
 20
7.5773989519
 30
0.0
 10
11.5568481719
 20
7.5699873662
 30
0.0
 10
11.5706573906
 20
7.5615681563
 30
0.0
 10
11.5838756481
 20
7.5521876074
 30
0.0
 10
11.5964304186
 20
7.5418972583
 30
0.0
 10
11.6082528117
 20
7.5307536201
 30
0.0
 10
11.6192779457
 20
7.5188178692
 30
0.0
 10
11.6294453005
 20
7.5061555142
 30
0.0
 10
11.6386990462
 20
7.4928360398
 30
0.0
 10
11.646988347
 20
7.4789325333
 30
0.0
 10
11.6542676383
 20
7.4645212724
 30
0.0
 10
11.6604968737
 20
7.4496813712
 30
0.0
 10
11.6656417568
 20
7.4344941318
 30
0.0
 10
11.6696738657
 20
7.4190434184
 30
0.0
 10
11.6720912047
 20
7.4060013412
 30
0.0
 10
11.6734472601
 20
7.3955221902
 30
0.0
 10
11.6744150435
 20
7.385053067
 30
0.0
 10
11.674708079
 20
7.3771751223
 30
0.0
 10
11.674708079
 20
7.3719327811
 30
0.0
  0
SPLINE
  5
2E2
100
AcDbEntity
  8
0
100
AcDbSpline
 62
7
  6
CONTINUOUS
 70
0
 71
3
 72
42
 73
38
 74
0
 42
0.0000001
 43
0.0000001
 44
0.0000000001
 40
0.0
 40
0.0
 40
0.0
 40
0.0
 40
0.0299419634
 40
0.0449235299
 40
0.0599142017
 40
0.0899287029
 40
0.1200139772
 40
0.1350926626
 40
0.1501967046
 40
0.1804840506
 40
0.2108978877
 40
0.2414513551
 40
0.2721543675
 40
0.3030134354
 40
0.3340315696
 40
0.3652082675
 40
0.3965395775
 40
0.4280182343
 40
0.4596338596
 40
0.4913732188
 40
0.5232205284
 40
0.5551578047
 40
0.5871652463
 40
0.6192216448
 40
0.6513048151
 40
0.6833920402
 40
0.7154605222
 40
0.747487836
 40
0.7794523759
 40
0.8113337934
 40
0.8431134117
 40
0.8747746318
 40
0.9063032512
 40
0.9376879208
 40
0.9533258
 40
0.9689252634
 40
1.0
 40
1.0
 40
1.0
 40
1.0
 10
11.7031875778
 20
8.0906836942
 30
0.0
 10
11.706820717
 20
8.0941930158
 30
0.0
 10
11.7124845844
 20
8.0992443489
 30
0.0
 10
11.7204167032
 20
8.1055119533
 30
0.0
 10
11.7286014202
 20
8.1114676721
 30
0.0
 10
11.73928113
 20
8.1183067667
 30
0.0
 10
11.7504800937
 20
8.1242889953
 30
0.0
 10
11.7597163365
 20
8.1285447586
 30
0.0
 10
11.7691433729
 20
8.1324492022
 30
0.0
 10
11.7812378332
 20
8.1366475824
 30
0.0
 10
11.7961424223
 20
8.1405603676
 30
0.0
 10
11.8113722318
 20
8.1433322746
 30
0.0
 10
11.8268428603
 20
8.1449480113
 30
0.0
 10
11.8424693245
 20
8.145398955
 30
0.0
 10
11.858165643
 20
8.1446828107
 30
0.0
 10
11.8738455453
 20
8.1428037152
 30
0.0
 10
11.8894228773
 20
8.1397721781
 30
0.0
 10
11.9048120864
 20
8.135605024
 30
0.0
 10
11.9199286804
 20
8.1303252928
 30
0.0
 10
11.9346896862
 20
8.1239621099
 30
0.0
 10
11.9490140981
 20
8.1165505241
 30
0.0
 10
11.9628233168
 20
8.1081313142
 30
0.0
 10
11.9760415743
 20
8.0987507654
 30
0.0
 10
11.9885963449
 20
8.0884604162
 30
0.0
 10
12.0004187379
 20
8.0773167781
 30
0.0
 10
12.0114438719
 20
8.0653810271
 30
0.0
 10
12.0216112267
 20
8.0527186722
 30
0.0
 10
12.0308649724
 20
8.0393991978
 30
0.0
 10
12.0391542732
 20
8.0254956913
 30
0.0
 10
12.0464335645
 20
8.0110844303
 30
0.0
 10
12.0526627999
 20
7.9962445291
 30
0.0
 10
12.057807683
 20
7.9810572898
 30
0.0
 10
12.061839792
 20
7.9656065763
 30
0.0
 10
12.0642571309
 20
7.9525644991
 30
0.0
 10
12.0656131863
 20
7.9420853482
 30
0.0
 10
12.0665809698
 20
7.931616225
 30
0.0
 10
12.0668740053
 20
7.9237382803
 30
0.0
 10
12.0668740053
 20
7.918495939
 30
0.0
  0
SPLINE
  5
2E3
100
AcDbEntity
  8
0
100
AcDbSpline
 62
7
  6
CONTINUOUS
 70
0
 71
3
 72
42
 73
38
 74
0
 42
0.0000001
 43
0.0000001
 44
0.0000000001
 40
0.0
 40
0.0
 40
0.0
 40
0.0
 40
0.0299419634
 40
0.0449235299
 40
0.0599142017
 40
0.0899287029
 40
0.1200139772
 40
0.1350926626
 40
0.1501967046
 40
0.1804840506
 40
0.2108978877
 40
0.2414513551
 40
0.2721543675
 40
0.3030134354
 40
0.3340315696
 40
0.3652082675
 40
0.3965395775
 40
0.4280182343
 40
0.4596338596
 40
0.4913732188
 40
0.5232205284
 40
0.5551578047
 40
0.5871652463
 40
0.6192216448
 40
0.6513048151
 40
0.6833920402
 40
0.7154605222
 40
0.747487836
 40
0.7794523759
 40
0.8113337934
 40
0.8431134117
 40
0.8747746318
 40
0.9063032512
 40
0.9376879208
 40
0.9533258
 40
0.9689252634
 40
1.0
 40
1.0
 40
1.0
 40
1.0
 10
12.2170601529
 20
8.4771561562
 30
0.0
 10
12.2206932921
 20
8.4806654778
 30
0.0
 10
12.2263571595
 20
8.4857168109
 30
0.0
 10
12.2342892783
 20
8.4919844153
 30
0.0
 10
12.2424739953
 20
8.4979401341
 30
0.0
 10
12.2531537051
 20
8.5047792287
 30
0.0
 10
12.2643526688
 20
8.5107614573
 30
0.0
 10
12.2735889116
 20
8.5150172206
 30
0.0
 10
12.283015948
 20
8.5189216642
 30
0.0
 10
12.2951104083
 20
8.5231200444
 30
0.0
 10
12.3100149974
 20
8.5270328295
 30
0.0
 10
12.3252448069
 20
8.5298047366
 30
0.0
 10
12.3407154354
 20
8.5314204733
 30
0.0
 10
12.3563418996
 20
8.531871417
 30
0.0
 10
12.3720382181
 20
8.5311552727
 30
0.0
 10
12.3877181204
 20
8.5292761772
 30
0.0
 10
12.4032954524
 20
8.5262446401
 30
0.0
 10
12.4186846615
 20
8.522077486
 30
0.0
 10
12.4338012555
 20
8.5167977547
 30
0.0
 10
12.4485622613
 20
8.5104345719
 30
0.0
 10
12.4628866732
 20
8.5030229861
 30
0.0
 10
12.4766958919
 20
8.4946037762
 30
0.0
 10
12.4899141494
 20
8.4852232274
 30
0.0
 10
12.50246892
 20
8.4749328782
 30
0.0
 10
12.514291313
 20
8.4637892401
 30
0.0
 10
12.525316447
 20
8.4518534891
 30
0.0
 10
12.5354838018
 20
8.4391911342
 30
0.0
 10
12.5447375475
 20
8.4258716598
 30
0.0
 10
12.5530268483
 20
8.4119681533
 30
0.0
 10
12.5603061396
 20
8.3975568923
 30
0.0
 10
12.566535375
 20
8.3827169911
 30
0.0
 10
12.5716802581
 20
8.3675297518
 30
0.0
 10
12.5757123671
 20
8.3520790383
 30
0.0
 10
12.578129706
 20
8.3390369611
 30
0.0
 10
12.5794857614
 20
8.3285578102
 30
0.0
 10
12.5804535449
 20
8.318088687
 30
0.0
 10
12.5807465804
 20
8.3102107423
 30
0.0
 10
12.5807465804
 20
8.304968401
 30
0.0
  0
SPLINE
  5
2E4
100
AcDbEntity
  8
0
100
AcDbSpline
 62
7
  6
CONTINUOUS
 70
0
 71
3
 72
16
 73
12
 74
0
 42
0.0000001
 43
0.0000001
 44
0.0000000001
 40
0.0
 40
0.0
 40
0.0
 40
0.0
 40
0.109037118
 40
0.219795178
 40
0.3339108405
 40
0.4528666521
 40
0.5145909133
 40
0.5779925751
 40
0.7103049755
 40
0.8507415581
 40
1.0
 40
1.0
 40
1.0
 40
1.0
 10
9.043406894
 20
10.2862774571
 30
0.0
 10
9.0423872144
 20
10.2863481809
 30
0.0
 10
9.0403199208
 20
10.2863554773
 30
0.0
 10
9.0372066156
 20
10.2859616594
 30
0.0
 10
9.034075624
 20
10.285165091
 30
0.0
 10
9.0314874247
 20
10.2841800648
 30
0.0
 10
9.0294174041
 20
10.2832035011
 30
0.0
 10
9.027287564
 20
10.2820668777
 30
0.0
 10
9.0246160449
 20
10.2803871704
 30
0.0
 10
9.0214504951
 20
10.2780084504
 30
0.0
 10
9.0194032983
 20
10.2762202621
 30
0.0
 10
9.0183790725
 20
10.2752670373
 30
0.0
  0
SPLINE
  5
2E5
100
AcDbEntity
  8
0
100
AcDbSpline
 62
7
  6
CONTINUOUS
 70
0
 71
3
 72
16
 73
12
 74
0
 42
0.0000001
 43
0.0000001
 44
0.0000000001
 40
0.0
 40
0.0
 40
0.0
 40
0.0
 40
0.1492601029
 40
0.2896893314
 40
0.4220023803
 40
0.4854054986
 40
0.5471312576
 40
0.6660877971
 40
0.7802035738
 40
0.8909622067
 40
1.0
 40
1.0
 40
1.0
 40
1.0
 10
8.1514182194
 20
7.1938053442
 30
0.0
 10
8.1523010567
 20
7.1927198411
 30
0.0
 10
8.1540817853
 20
7.1906662211
 30
0.0
 10
8.1568886708
 20
7.18787337
 30
0.0
 10
8.1593027054
 20
7.1858409931
 30
0.0
 10
8.1612552925
 20
7.1844212415
 30
0.0
 10
8.1631706979
 20
7.1831682292
 30
0.0
 10
8.1655981766
 20
7.1818353634
 30
0.0
 10
8.168589252
 20
7.1806142293
 30
0.0
 10
8.1716184038
 20
7.1797944176
 30
0.0
 10
8.173666927
 20
7.1795163001
 30
0.0
 10
8.1746866127
 20
7.1794455759
 30
0.0
  0
SPLINE
  5
2E6
100
AcDbEntity
  8
0
100
AcDbSpline
 62
7
  6
CONTINUOUS
 70
0
 71
3
 72
29
 73
25
 74
0
 42
0.0000001
 43
0.0000001
 44
0.0000000001
 40
0.0
 40
0.0
 40
0.0
 40
0.0
 40
0.0162146385
 40
0.0334279651
 40
0.0516726074
 40
0.0709720151
 40
0.0913417934
 40
0.1127912059
 40
0.1353237373
 40
0.1589384191
 40
0.1836298224
 40
0.2093893071
 40
0.2362046371
 40
0.2640611782
 40
0.3228229823
 40
0.3855119819
 40
0.4519312324
 40
0.5218572971
 40
0.5950438583
 40
0.6712245713
 40
0.7501158685
 40
0.8314184739
 40
0.9148212928
 40
1.0
 40
1.0
 40
1.0
 40
1.0
 10
13.655134675
 20
8.0421900636
 30
0.0
 10
13.6544378619
 20
8.0430468407
 30
0.0
 10
13.6530599899
 20
8.0448614412
 30
0.0
 10
13.6510949674
 20
8.0477830435
 30
0.0
 10
13.649173144
 20
8.0509809329
 30
0.0
 10
13.6472965034
 20
8.054451723
 30
0.0
 10
13.6454668335
 20
8.0581919354
 30
0.0
 10
13.6436860349
 20
8.0621977507
 30
0.0
 10
13.6419558788
 20
8.0664650457
 30
0.0
 10
13.6402782223
 20
8.0709894263
 30
0.0
 10
13.6386547477
 20
8.0757661887
 30
0.0
 10
13.6370872411
 20
8.0807903709
 30
0.0
 10
13.6355772474
 20
8.0860567295
 30
0.0
 10
13.6336077338
 20
8.0935278345
 30
0.0
 10
13.6313142212
 20
8.1034376874
 30
0.0
 10
13.6288614454
 20
8.1159982088
 30
0.0
 10
13.6266720072
 20
8.1293782036
 30
0.0
 10
13.6247553109
 20
8.1435215327
 30
0.0
 10
13.6231196495
 20
8.1583689717
 30
0.0
 10
13.6217720793
 20
8.1738581763
 30
0.0
 10
13.6207184339
 20
8.1899240252
 30
0.0
 10
13.6199632587
 20
8.2064989993
 30
0.0
 10
13.6195098536
 20
8.2235132279
 30
0.0
 10
13.6194109928
 20
8.2349954192
 30
0.0
 10
13.6194109928
 20
8.240796852
 30
0.0
  0
SPLINE
  5
2E7
100
AcDbEntity
  8
0
100
AcDbSpline
 62
7
  6
CONTINUOUS
 70
0
 71
3
 72
21
 73
17
 74
0
 42
0.0000001
 43
0.0000001
 44
0.0000000001
 40
0.0
 40
0.0
 40
0.0
 40
0.0
 40
0.0515116096
 40
0.1053108188
 40
0.1611379671
 40
0.218753627
 40
0.2779479143
 40
0.3385429337
 40
0.4003894912
 40
0.4633667645
 40
0.5922987233
 40
0.7248579478
 40
0.7924292637
 40
0.8608150287
 40
0.9300098919
 40
1.0
 40
1.0
 40
1.0
 40
1.0
 10
11.3867656876
 20
7.3772510542
 30
0.0
 10
11.3849961415
 20
7.3781628336
 30
0.0
 10
11.3814524317
 20
7.3801732589
 30
0.0
 10
11.3762671494
 20
7.383629758
 30
0.0
 10
11.3711382068
 20
7.387569861
 30
0.0
 10
11.3661135686
 20
7.3919651556
 30
0.0
 10
11.3612360384
 20
7.3967888036
 30
0.0
 10
11.3565445218
 20
7.4020152038
 30
0.0
 10
11.3520742408
 20
7.4076204961
 30
0.0
 10
11.3464086278
 20
7.4156300353
 30
0.0
 10
11.3400622577
 20
7.426477946
 30
0.0
 10
11.3349177571
 20
7.4381393389
 30
0.0
 10
11.3315509642
 20
7.4479595706
 30
0.0
 10
11.3294125471
 20
7.4555985002
 30
0.0
 10
11.3276968157
 20
7.4634385712
 30
0.0
 10
11.3268507243
 20
7.4687539128
 30
0.0
 10
11.326502286
 20
7.4714361029
 30
0.0
  0
SPLINE
  5
2E8
100
AcDbEntity
  8
0
100
AcDbSpline
 62
7
  6
CONTINUOUS
 70
0
 71
3
 72
15
 73
11
 74
0
 42
0.0000001
 43
0.0000001
 44
0.0000000001
 40
0.0
 40
0.0
 40
0.0
 40
0.0
 40
0.1273483281
 40
0.2538605602
 40
0.3795878981
 40
0.5046051042
 40
0.6290174419
 40
0.7529533761
 40
0.876560577
 40
1.0
 40
1.0
 40
1.0
 40
1.0
 10
12.3403300767
 20
8.8211504407
 30
0.0
 10
12.3403300767
 20
8.8254775697
 30
0.0
 10
12.3407432304
 20
8.8341094007
 30
0.0
 10
12.3426116837
 20
8.8468911297
 30
0.0
 10
12.3457098896
 20
8.8593516995
 30
0.0
 10
12.3500098648
 20
8.8713745802
 30
0.0
 10
12.3554721479
 20
8.8828488976
 30
0.0
 10
12.362046972
 20
8.893668685
 30
0.0
 10
12.3696725004
 20
8.9037325702
 30
0.0
 10
12.3754141388
 20
8.9098801556
 30
0.0
 10
12.3784309175
 20
8.9127941355
 30
0.0
  0
SPLINE
  5
2E9
100
AcDbEntity
  8
0
100
AcDbSpline
 62
7
  6
CONTINUOUS
 70
0
 71
3
 72
37
 73
33
 74
0
 42
0.0000001
 43
0.0000001
 44
0.0000000001
 40
0.0
 40
0.0
 40
0.0
 40
0.0
 40
0.0071625887
 40
0.0146567607
 40
0.022490107
 40
0.0306687913
 40
0.0391978474
 40
0.0480811166
 40
0.0573209657
 40
0.0669185919
 40
0.0871863961
 40
0.1088789675
 40
0.1319780173
 40
0.156456023
 40
0.1822776672
 40
0.2094008171
 40
0.237777459
 40
0.2673543938
 40
0.2980737624
 40
0.3298734568
 40
0.3626876079
 40
0.3964469644
 40
0.4310791987
 40
0.4665091735
 40
0.5026592962
 40
0.5394498051
 40
0.6146219425
 40
0.6913554389
 40
0.7689602684
 40
0.8467363119
 40
0.9239811585
 40
1.0
 40
1.0
 40
1.0
 40
1.0
 10
8.2006306373
 20
9.4853988054
 30
0.0
 10
8.1998183431
 20
9.4846141894
 30
0.0
 10
8.1981948256
 20
9.4829682109
 30
0.0
 10
8.1958152584
 20
9.4803377724
 30
0.0
 10
8.1934386781
 20
9.4774925374
 30
0.0
 10
8.1910666759
 20
9.4744343429
 30
0.0
 10
8.188700536
 20
9.47116502
 30
0.0
 10
8.1863416606
 20
9.4676864297
 30
0.0
 10
8.1839913547
 20
9.4640006244
 30
0.0
 10
8.1808130076
 20
9.4587163448
 30
0.0
 10
8.1768816391
 20
9.4515972538
 30
0.0
 10
8.1723023213
 20
9.4424151255
 30
0.0
 10
8.1677902482
 20
9.4324662312
 30
0.0
 10
8.1633562767
 20
9.4217742572
 30
0.0
 10
8.1590110947
 20
9.4103644951
 30
0.0
 10
8.1547651935
 20
9.3982641571
 30
0.0
 10
8.1506288463
 20
9.3855021572
 30
0.0
 10
8.1466120734
 20
9.3721090494
 30
0.0
 10
8.1427246144
 20
9.3581169449
 30
0.0
 10
8.1389758715
 20
9.3435594403
 30
0.0
 10
8.1353749181
 20
9.3284715147
 30
0.0
 10
8.1319304735
 20
9.3128894338
 30
0.0
 10
8.1286508798
 20
9.2968506657
 30
0.0
 10
8.1255440672
 20
9.2803938073
 30
0.0
 10
8.1226175095
 20
9.2635584349
 30
0.0
 10
8.1189390719
 20
9.240495753
 30
0.0
 10
8.1148512481
 20
9.211021588
 30
0.0
 10
8.1107977968
 20
9.175057723
 30
0.0
 10
8.1076013713
 20
9.1385954017
 30
0.0
 10
8.1052927366
 20
9.1019853305
 30
0.0
 10
8.1038940983
 20
9.0655796484
 30
0.0
 10
8.1035735755
 20
9.0414128829
 30
0.0
 10
8.1035735755
 20
9.0294266709
 30
0.0
  0
SPLINE
  5
2EA
100
AcDbEntity
  8
0
100
AcDbSpline
 62
7
  6
CONTINUOUS
 70
0
 71
3
 72
31
 73
27
 74
0
 42
0.0000001
 43
0.0000001
 44
0.0000000001
 40
0.0
 40
0.0
 40
0.0
 40
0.0
 40
0.0851787309
 40
0.1685810121
 40
0.2498835895
 40
0.328774602
 40
0.404955116
 40
0.4781414295
 40
0.5480672418
 40
0.6144862178
 40
0.6463107921
 40
0.6771770202
 40
0.7070609923
 40
0.7359410551
 40
0.7637973337
 40
0.7906125905
 40
0.8163718057
 40
0.8410631226
 40
0.8646775355
 40
0.8872099623
 40
0.9086591137
 40
0.9290287662
 40
0.9483279273
 40
0.966572423
 40
0.9837855238
 40
1.0
 40
1.0
 40
1.0
 40
1.0
 10
8.1035735755
 20
7.4597971102
 30
0.0
 10
8.1035735755
 20
7.4520272766
 30
0.0
 10
8.103705977
 20
7.4366492789
 30
0.0
 10
8.1043132276
 20
7.4138622526
 30
0.0
 10
8.1053246258
 20
7.391663546
 30
0.0
 10
8.1067357746
 20
7.3701466758
 30
0.0
 10
8.1085405729
 20
7.3494021316
 30
0.0
 10
8.1107312035
 20
7.3295170666
 30
0.0
 10
8.1132982615
 20
7.3105751318
 30
0.0
 10
8.1157757693
 20
7.2954339973
 30
0.0
 10
8.1179485346
 20
7.2838585794
 30
0.0
 10
8.119641829
 20
7.2755851873
 30
0.0
 10
8.1214202957
 20
7.2676046218
 30
0.0
 10
8.1232820066
 20
7.2599252481
 30
0.0
 10
8.1252250567
 20
7.252555126
 30
0.0
 10
8.1272473163
 20
7.2455019692
 30
0.0
 10
8.1293467263
 20
7.2387731605
 30
0.0
 10
8.1315209952
 20
7.2323757116
 30
0.0
 10
8.1337679203
 20
7.2263162924
 30
0.0
 10
8.1360850718
 20
7.2206011712
 30
0.0
 10
8.1384701294
 20
7.2152362697
 30
0.0
 10
8.1409205652
 20
7.2102270692
 30
0.0
 10
8.1434339753
 20
7.2055787287
 30
0.0
 10
8.1460078418
 20
7.2012958632
 30
0.0
 10
8.1486396057
 20
7.1973830452
 30
0.0
 10
8.1504849887
 20
7.1949528091
 30
0.0
 10
8.1514182194
 20
7.1938053442
 30
0.0
  0
SPLINE
  5
2EB
100
AcDbEntity
  8
0
100
AcDbSpline
 62
7
  6
CONTINUOUS
 70
0
 71
3
 72
40
 73
36
 74
0
 42
0.0000001
 43
0.0000001
 44
0.0000000001
 40
0.0
 40
0.0
 40
0.0
 40
0.0
 40
0.0299422956
 40
0.059908968
 40
0.0899238
 40
0.1200094056
 40
0.1350882594
 40
0.1501924656
 40
0.1804801452
 40
0.2108943177
 40
0.241448122
 40
0.2721514726
 40
0.3030108797
 40
0.334029354
 40
0.3652063934
 40
0.3965380465
 40
0.4280170486
 40
0.4596330217
 40
0.4913727316
 40
0.5232203951
 40
0.5551580282
 40
0.5871658292
 40
0.6192225887
 40
0.6513061205
 40
0.6833937063
 40
0.715462548
 40
0.7474902197
 40
0.779455117
 40
0.8113368874
 40
0.8431168691
 40
0.8747784143
 40
0.9063074703
 40
0.9376922765
 40
0.9689251917
 40
1.0
 40
1.0
 40
1.0
 40
1.0
 10
10.5220277913
 20
8.8529641354
 30
0.0
 10
10.5196969429
 20
8.8507127123
 30
0.0
 10
10.514851973
 20
8.8463915782
 30
0.0
 10
10.5070895077
 20
8.8405047591
 30
0.0
 10
10.498872045
 20
8.8352424433
 30
0.0
 10
10.4916871873
 20
8.831404394
 30
0.0
 10
10.4857616749
 20
8.8286740775
 30
0.0
 10
10.47971373
 20
8.826169145
 30
0.0
 10
10.4719545003
 20
8.8234756279
 30
0.0
 10
10.4623924164
 20
8.8209653327
 30
0.0
 10
10.4526216841
 20
8.8191869749
 30
0.0
 10
10.4426964507
 20
8.8181503646
 30
0.0
 10
10.4326712384
 20
8.8178610329
 30
0.0
 10
10.4226012091
 20
8.8183204515
 30
0.0
 10
10.41254171
 20
8.819525966
 30
0.0
 10
10.4025480133
 20
8.8214708338
 30
0.0
 10
10.3926750055
 20
8.8241442612
 30
0.0
 10
10.3829768928
 20
8.827531467
 30
0.0
 10
10.3735069071
 20
8.8316137664
 30
0.0
 10
10.364317018
 20
8.8363686744
 30
0.0
 10
10.355457652
 20
8.8417700299
 30
0.0
 10
10.3469774189
 20
8.8477881393
 30
0.0
 10
10.3389228497
 20
8.8543899387
 30
0.0
 10
10.3313381417
 20
8.8615391723
 30
0.0
 10
10.3242649194
 20
8.8691965907
 30
0.0
 10
10.3177420096
 20
8.8773201659
 30
0.0
 10
10.3118052292
 20
8.8858653187
 30
0.0
 10
10.3064871929
 20
8.8947851612
 30
0.0
 10
10.3018171291
 20
8.9040307512
 30
0.0
 10
10.2978207378
 20
8.9135513525
 30
0.0
 10
10.2945200061
 20
8.9232947363
 30
0.0
 10
10.291933186
 20
8.9332073542
 30
0.0
 10
10.2900744974
 20
8.9432350253
 30
0.0
 10
10.2889543671
 20
8.9533218917
 30
0.0
 10
10.2887034588
 20
8.9600680166
 30
0.0
 10
10.2887034588
 20
8.9634312299
 30
0.0
  0
SPLINE
  5
2EC
100
AcDbEntity
  8
0
100
AcDbSpline
 62
7
  6
CONTINUOUS
 70
0
 71
3
 72
40
 73
36
 74
0
 42
0.0000001
 43
0.0000001
 44
0.0000000001
 40
0.0
 40
0.0
 40
0.0
 40
0.0
 40
0.0299422956
 40
0.059908968
 40
0.0899238
 40
0.1200094056
 40
0.1350882594
 40
0.1501924656
 40
0.1804801452
 40
0.2108943177
 40
0.241448122
 40
0.2721514726
 40
0.3030108797
 40
0.334029354
 40
0.3652063934
 40
0.3965380465
 40
0.4280170486
 40
0.4596330217
 40
0.4913727316
 40
0.5232203951
 40
0.5551580282
 40
0.5871658292
 40
0.6192225887
 40
0.6513061205
 40
0.6833937063
 40
0.715462548
 40
0.7474902197
 40
0.779455117
 40
0.8113368874
 40
0.8431168691
 40
0.8747784143
 40
0.9063074703
 40
0.9376922765
 40
0.9689251917
 40
1.0
 40
1.0
 40
1.0
 40
1.0
 10
12.5736544091
 20
8.7106833462
 30
0.0
 10
12.5713235608
 20
8.7084319231
 30
0.0
 10
12.5664785908
 20
8.704110789
 30
0.0
 10
12.5587161255
 20
8.6982239699
 30
0.0
 10
12.5504986628
 20
8.6929616541
 30
0.0
 10
12.5433138051
 20
8.6891236048
 30
0.0
 10
12.5373882927
 20
8.6863932883
 30
0.0
 10
12.5313403478
 20
8.6838883558
 30
0.0
 10
12.5235811181
 20
8.6811948387
 30
0.0
 10
12.5140190342
 20
8.6786845435
 30
0.0
 10
12.5042483019
 20
8.6769061857
 30
0.0
 10
12.4943230685
 20
8.6758695754
 30
0.0
 10
12.4842978563
 20
8.6755802437
 30
0.0
 10
12.474227827
 20
8.6760396623
 30
0.0
 10
12.4641683278
 20
8.6772451768
 30
0.0
 10
12.4541746311
 20
8.6791900446
 30
0.0
 10
12.4443016233
 20
8.681863472
 30
0.0
 10
12.4346035107
 20
8.6852506778
 30
0.0
 10
12.4251335249
 20
8.6893329772
 30
0.0
 10
12.4159436359
 20
8.6940878852
 30
0.0
 10
12.4070842698
 20
8.6994892407
 30
0.0
 10
12.3986040368
 20
8.7055073501
 30
0.0
 10
12.3905494675
 20
8.7121091495
 30
0.0
 10
12.3829647595
 20
8.7192583831
 30
0.0
 10
12.3758915373
 20
8.7269158015
 30
0.0
 10
12.3693686274
 20
8.7350393767
 30
0.0
 10
12.363431847
 20
8.7435845295
 30
0.0
 10
12.3581138107
 20
8.752504372
 30
0.0
 10
12.3534437469
 20
8.761749962
 30
0.0
 10
12.3494473557
 20
8.7712705633
 30
0.0
 10
12.3461466239
 20
8.7810139471
 30
0.0
 10
12.3435598038
 20
8.790926565
 30
0.0
 10
12.3417011153
 20
8.8009542361
 30
0.0
 10
12.3405809849
 20
8.8110411025
 30
0.0
 10
12.3403300767
 20
8.8177872274
 30
0.0
 10
12.3403300767
 20
8.8211504407
 30
0.0
  0
SPLINE
  5
2ED
100
AcDbEntity
  8
0
100
AcDbSpline
 62
7
  6
CONTINUOUS
 70
0
 71
3
 72
40
 73
36
 74
0
 42
0.0000001
 43
0.0000001
 44
0.0000000001
 40
0.0
 40
0.0
 40
0.0
 40
0.0
 40
0.0299422956
 40
0.059908968
 40
0.0899238
 40
0.1200094056
 40
0.1350882594
 40
0.1501924656
 40
0.1804801452
 40
0.2108943177
 40
0.241448122
 40
0.2721514726
 40
0.3030108797
 40
0.334029354
 40
0.3652063934
 40
0.3965380465
 40
0.4280170486
 40
0.4596330217
 40
0.4913727316
 40
0.5232203951
 40
0.5551580282
 40
0.5871658292
 40
0.6192225887
 40
0.6513061205
 40
0.6833937063
 40
0.715462548
 40
0.7474902197
 40
0.779455117
 40
0.8113368874
 40
0.8431168691
 40
0.8747784143
 40
0.9063074703
 40
0.9376922765
 40
0.9689251917
 40
1.0
 40
1.0
 40
1.0
 40
1.0
 10
10.5220277913
 20
7.1027065434
 30
0.0
 10
10.5196969429
 20
7.1004551203
 30
0.0
 10
10.514851973
 20
7.0961339862
 30
0.0
 10
10.5070895077
 20
7.0902471671
 30
0.0
 10
10.498872045
 20
7.0849848513
 30
0.0
 10
10.4916871873
 20
7.081146802
 30
0.0
 10
10.4857616749
 20
7.0784164855
 30
0.0
 10
10.47971373
 20
7.0759115529
 30
0.0
 10
10.4719545003
 20
7.0732180359
 30
0.0
 10
10.4623924164
 20
7.0707077407
 30
0.0
 10
10.4526216841
 20
7.0689293829
 30
0.0
 10
10.4426964507
 20
7.0678927726
 30
0.0
 10
10.4326712384
 20
7.0676034409
 30
0.0
 10
10.4226012091
 20
7.0680628595
 30
0.0
 10
10.41254171
 20
7.069268374
 30
0.0
 10
10.4025480133
 20
7.0712132418
 30
0.0
 10
10.3926750055
 20
7.0738866691
 30
0.0
 10
10.3829768928
 20
7.077273875
 30
0.0
 10
10.3735069071
 20
7.0813561744
 30
0.0
 10
10.364317018
 20
7.0861110824
 30
0.0
 10
10.355457652
 20
7.0915124379
 30
0.0
 10
10.3469774189
 20
7.0975305473
 30
0.0
 10
10.3389228497
 20
7.1041323467
 30
0.0
 10
10.3313381417
 20
7.1112815802
 30
0.0
 10
10.3242649194
 20
7.1189389987
 30
0.0
 10
10.3177420096
 20
7.1270625739
 30
0.0
 10
10.3118052292
 20
7.1356077267
 30
0.0
 10
10.3064871929
 20
7.1445275691
 30
0.0
 10
10.3018171291
 20
7.1537731592
 30
0.0
 10
10.2978207378
 20
7.1632937605
 30
0.0
 10
10.2945200061
 20
7.1730371443
 30
0.0
 10
10.291933186
 20
7.1829497622
 30
0.0
 10
10.2900744974
 20
7.1929774333
 30
0.0
 10
10.2889543671
 20
7.2030642997
 30
0.0
 10
10.2887034588
 20
7.2098104246
 30
0.0
 10
10.2887034588
 20
7.2131736379
 30
0.0
  0
SPLINE
  5
2EE
100
AcDbEntity
  8
0
100
AcDbSpline
 62
7
  6
CONTINUOUS
 70
0
 71
3
 72
11
 73
7
 74
0
 42
0.0000001
 43
0.0000001
 44
0.0000000001
 40
0.0
 40
0.0
 40
0.0
 40
0.0
 40
0.2294535498
 40
0.472974535
 40
0.7300796736
 40
1.0
 40
1.0
 40
1.0
 40
1.0
 10
11.403572003
 20
7.3715021062
 30
0.0
 10
11.4022228101
 20
7.3717034926
 30
0.0
 10
11.3994621909
 20
7.3722646304
 30
0.0
 10
11.3952989453
 20
7.3735092411
 30
0.0
 10
11.3910251535
 20
7.3751707467
 30
0.0
 10
11.3881921805
 20
7.376516037
 30
0.0
 10
11.3867656876
 20
7.3772510542
 30
0.0
  0
SPLINE
  5
2EF
100
AcDbEntity
  8
0
100
AcDbSpline
 62
7
  6
CONTINUOUS
 70
0
 71
3
 72
40
 73
36
 74
0
 42
0.0000001
 43
0.0000001
 44
0.0000000001
 40
0.0
 40
0.0
 40
0.0
 40
0.0
 40
0.0299422956
 40
0.059908968
 40
0.0899238
 40
0.1200094056
 40
0.1350882594
 40
0.1501924656
 40
0.1804801452
 40
0.2108943177
 40
0.241448122
 40
0.2721514726
 40
0.3030108797
 40
0.334029354
 40
0.3652063934
 40
0.3965380465
 40
0.4280170486
 40
0.4596330217
 40
0.4913727316
 40
0.5232203951
 40
0.5551580282
 40
0.5871658292
 40
0.6192225887
 40
0.6513061205
 40
0.6833937063
 40
0.715462548
 40
0.7474902197
 40
0.779455117
 40
0.8113368874
 40
0.8431168691
 40
0.8747784143
 40
0.9063074703
 40
0.9376922765
 40
0.9689251917
 40
1.0
 40
1.0
 40
1.0
 40
1.0
 10
12.5736544091
 20
6.9604257542
 30
0.0
 10
12.5713235608
 20
6.9581743311
 30
0.0
 10
12.5664785908
 20
6.953853197
 30
0.0
 10
12.5587161255
 20
6.9479663779
 30
0.0
 10
12.5504986628
 20
6.9427040621
 30
0.0
 10
12.5433138051
 20
6.9388660128
 30
0.0
 10
12.5373882927
 20
6.9361356963
 30
0.0
 10
12.5313403478
 20
6.9336307637
 30
0.0
 10
12.5235811181
 20
6.9309372467
 30
0.0
 10
12.5140190342
 20
6.9284269515
 30
0.0
 10
12.5042483019
 20
6.9266485937
 30
0.0
 10
12.4943230685
 20
6.9256119834
 30
0.0
 10
12.4842978563
 20
6.9253226517
 30
0.0
 10
12.474227827
 20
6.9257820703
 30
0.0
 10
12.4641683278
 20
6.9269875848
 30
0.0
 10
12.4541746311
 20
6.9289324526
 30
0.0
 10
12.4443016233
 20
6.9316058799
 30
0.0
 10
12.4346035107
 20
6.9349930858
 30
0.0
 10
12.4251335249
 20
6.9390753852
 30
0.0
 10
12.4159436359
 20
6.9438302932
 30
0.0
 10
12.4070842698
 20
6.9492316487
 30
0.0
 10
12.3986040368
 20
6.9552497581
 30
0.0
 10
12.3905494675
 20
6.9618515575
 30
0.0
 10
12.3829647595
 20
6.9690007911
 30
0.0
 10
12.3758915373
 20
6.9766582095
 30
0.0
 10
12.3693686274
 20
6.9847817847
 30
0.0
 10
12.363431847
 20
6.9933269375
 30
0.0
 10
12.3581138107
 20
7.0022467799
 30
0.0
 10
12.3534437469
 20
7.01149237
 30
0.0
 10
12.3494473557
 20
7.0210129713
 30
0.0
 10
12.3461466239
 20
7.0307563551
 30
0.0
 10
12.3435598038
 20
7.040668973
 30
0.0
 10
12.3417011153
 20
7.0506966441
 30
0.0
 10
12.3405809849
 20
7.0607835105
 30
0.0
 10
12.3403300767
 20
7.0675296354
 30
0.0
 10
12.3403300767
 20
7.0708928487
 30
0.0
  0
SPLINE
  5
2F0
100
AcDbEntity
  8
0
100
AcDbSpline
 62
7
  6
CONTINUOUS
 70
0
 71
3
 72
32
 73
28
 74
0
 42
0.0000001
 43
0.0000001
 44
0.0000000001
 40
0.0
 40
0.0
 40
0.0
 40
0.0
 40
0.0180944711
 40
0.0371755288
 40
0.057284676
 40
0.0784552194
 40
0.1007076231
 40
0.1240520976
 40
0.1484899404
 40
0.1740138058
 40
0.2006087774
 40
0.2282530417
 40
0.256918269
 40
0.2865703726
 40
0.31716998
 40
0.3486727141
 40
0.3810297971
 40
0.4141884275
 40
0.4480920215
 40
0.4826807247
 40
0.5536553758
 40
0.6265843435
 40
0.7009005067
 40
0.7760108532
 40
0.8513094873
 40
0.9261804176
 40
1.0
 40
1.0
 40
1.0
 40
1.0
 10
11.403572003
 20
7.3715021062
 30
0.0
 10
11.4051811467
 20
7.3712619185
 30
0.0
 10
11.4085093452
 20
7.3709091163
 30
0.0
 10
11.4136619866
 20
7.3707548135
 30
0.0
 10
11.4190892071
 20
7.3709672502
 30
0.0
 10
11.4247753191
 20
7.3715504854
 30
0.0
 10
11.4307051277
 20
7.3725071086
 30
0.0
 10
11.4368627458
 20
7.3738384589
 30
0.0
 10
11.4432319766
 20
7.3755444948
 30
0.0
 10
11.4497963422
 20
7.3776236615
 30
0.0
 10
11.456539079
 20
7.3800730927
 30
0.0
 10
11.4634431847
 20
7.3828885958
 30
0.0
 10
11.4704915588
 20
7.3860644801
 30
0.0
 10
11.4776669921
 20
7.3895937715
 30
0.0
 10
11.4849522209
 20
7.3934682382
 30
0.0
 10
11.4923300889
 20
7.39767824
 30
0.0
 10
11.4997835435
 20
7.4022129267
 30
0.0
 10
11.5072956647
 20
7.4070602984
 30
0.0
 10
11.5148499232
 20
7.4122070816
 30
0.0
 10
11.5250439461
 20
7.4195121107
 30
0.0
 10
11.5377688983
 20
7.4293012084
 30
0.0
 10
11.552829006
 20
7.4418856981
 30
0.0
 10
11.567698205
 20
7.4552570647
 30
0.0
 10
11.5822787818
 20
7.4692508094
 30
0.0
 10
11.5964888024
 20
7.4836897076
 30
0.0
 10
11.6102647967
 20
7.4983834939
 30
0.0
 10
11.6192204077
 20
7.5083111954
 30
0.0
 10
11.6236344706
 20
7.5132682741
 30
0.0
  0
SPLINE
  5
2F1
100
AcDbEntity
  8
0
100
AcDbSpline
 62
7
  6
CONTINUOUS
 70
0
 71
3
 72
42
 73
38
 74
0
 42
0.0000001
 43
0.0000001
 44
0.0000000001
 40
0.0
 40
0.0
 40
0.0
 40
0.0
 40
0.0299419634
 40
0.0449235299
 40
0.0599142017
 40
0.0899287029
 40
0.1200139772
 40
0.1350926626
 40
0.1501967046
 40
0.1804840506
 40
0.2108978877
 40
0.2414513551
 40
0.2721543675
 40
0.3030134354
 40
0.3340315696
 40
0.3652082675
 40
0.3965395775
 40
0.4280182343
 40
0.4596338596
 40
0.4913732188
 40
0.5232205284
 40
0.5551578047
 40
0.5871652463
 40
0.6192216448
 40
0.6513048151
 40
0.6833920402
 40
0.7154605222
 40
0.747487836
 40
0.7794523759
 40
0.8113337934
 40
0.8431134117
 40
0.8747746318
 40
0.9063032512
 40
0.9376879208
 40
0.9533258
 40
0.9689252634
 40
1.0
 40
1.0
 40
1.0
 40
1.0
 10
11.6153189695
 20
7.229085414
 30
0.0
 10
11.6116858303
 20
7.2255760924
 30
0.0
 10
11.6060219629
 20
7.2205247593
 30
0.0
 10
11.5980898441
 20
7.2142571549
 30
0.0
 10
11.5899051271
 20
7.2083014361
 30
0.0
 10
11.5792254174
 20
7.2014623415
 30
0.0
 10
11.5680264536
 20
7.1954801129
 30
0.0
 10
11.5587902108
 20
7.1912243496
 30
0.0
 10
11.5493631744
 20
7.187319906
 30
0.0
 10
11.5372687141
 20
7.1831215258
 30
0.0
 10
11.522364125
 20
7.1792087406
 30
0.0
 10
11.5071343156
 20
7.1764368336
 30
0.0
 10
11.491663687
 20
7.1748210969
 30
0.0
 10
11.4760372228
 20
7.1743701532
 30
0.0
 10
11.4603409044
 20
7.1750862975
 30
0.0
 10
11.4446610021
 20
7.176965393
 30
0.0
 10
11.42908367
 20
7.1799969301
 30
0.0
 10
11.4136944609
 20
7.1841640842
 30
0.0
 10
11.3985778669
 20
7.1894438154
 30
0.0
 10
11.3838168612
 20
7.1958069983
 30
0.0
 10
11.3694924492
 20
7.2032185841
 30
0.0
 10
11.3556832305
 20
7.211637794
 30
0.0
 10
11.342464973
 20
7.2210183428
 30
0.0
 10
11.3299102025
 20
7.231308692
 30
0.0
 10
11.3180878094
 20
7.2424523301
 30
0.0
 10
11.3070626754
 20
7.2543880811
 30
0.0
 10
11.2968953206
 20
7.267050436
 30
0.0
 10
11.2876415749
 20
7.2803699104
 30
0.0
 10
11.2793522741
 20
7.2942734169
 30
0.0
 10
11.2720729828
 20
7.3086846779
 30
0.0
 10
11.2658437474
 20
7.3235245791
 30
0.0
 10
11.2606988643
 20
7.3387118184
 30
0.0
 10
11.2566667554
 20
7.3541625319
 30
0.0
 10
11.2542494164
 20
7.3672046091
 30
0.0
 10
11.252893361
 20
7.37768376
 30
0.0
 10
11.2519255776
 20
7.3881528832
 30
0.0
 10
11.2516325421
 20
7.3960308279
 30
0.0
 10
11.2516325421
 20
7.4012731692
 30
0.0
  0
SPLINE
  5
2F2
100
AcDbEntity
  8
0
100
AcDbSpline
 62
7
  6
CONTINUOUS
 70
0
 71
3
 72
27
 73
23
 74
0
 42
0.0000001
 43
0.0000001
 44
0.0000000001
 40
0.0
 40
0.0
 40
0.0
 40
0.0
 40
0.0301182434
 40
0.0603040191
 40
0.0905620663
 40
0.1208965983
 40
0.1817951391
 40
0.2430359079
 40
0.2737956303
 40
0.3046446542
 40
0.3355829447
 40
0.3666098541
 40
0.4289107806
 40
0.4915435303
 40
0.5544820034
 40
0.6176920125
 40
0.6811322797
 40
0.744755602
 40
0.8085100185
 40
0.8723405918
 40
0.9361892684
 40
1.0
 40
1.0
 40
1.0
 40
1.0
 10
11.6583697923
 20
7.2916540831
 30
0.0
 10
11.6556878004
 20
7.2906123397
 30
0.0
 10
11.6502711847
 20
7.2886443346
 30
0.0
 10
11.6420159779
 20
7.2860475474
 30
0.0
 10
11.633635324
 20
7.2838071017
 30
0.0
 10
11.6223007816
 20
7.2812972113
 30
0.0
 10
11.6078866198
 20
7.2790715799
 30
0.0
 10
11.5932952668
 20
7.2780791986
 30
0.0
 10
11.5815566818
 20
7.2780228742
 30
0.0
 10
11.5727190577
 20
7.278350859
 30
0.0
 10
11.5638773376
 20
7.279048581
 30
0.0
 10
11.5520889827
 20
7.2804719765
 30
0.0
 10
11.5374182024
 20
7.283172095
 30
0.0
 10
11.5200715931
 20
7.2878513185
 30
0.0
 10
11.5030760369
 20
7.2939416081
 30
0.0
 10
11.4865507268
 20
7.3014002253
 30
0.0
 10
11.4706105143
 20
7.3101750124
 30
0.0
 10
11.4553664276
 20
7.3202047058
 30
0.0
 10
11.4409246051
 20
7.3314192425
 30
0.0
 10
11.4273854537
 20
7.3437407596
 30
0.0
 10
11.4148439888
 20
7.3570822138
 30
0.0
 10
11.407199711
 20
7.3666032049
 30
0.0
 10
11.403572003
 20
7.3715021062
 30
0.0
  0
SPLINE
  5
2F3
100
AcDbEntity
  8
0
100
AcDbSpline
 62
7
  6
CONTINUOUS
 70
0
 71
3
 72
42
 73
38
 74
0
 42
0.0000001
 43
0.0000001
 44
0.0000000001
 40
0.0
 40
0.0
 40
0.0
 40
0.0
 40
0.0299419634
 40
0.0449235299
 40
0.0599142017
 40
0.0899287029
 40
0.1200139772
 40
0.1350926626
 40
0.1501967046
 40
0.1804840506
 40
0.2108978877
 40
0.2414513551
 40
0.2721543675
 40
0.3030134354
 40
0.3340315696
 40
0.3652082675
 40
0.3965395775
 40
0.4280182343
 40
0.4596338596
 40
0.4913732188
 40
0.5232205284
 40
0.5551578047
 40
0.5871652463
 40
0.6192216448
 40
0.6513048151
 40
0.6833920402
 40
0.7154605222
 40
0.747487836
 40
0.7794523759
 40
0.8113337934
 40
0.8431134117
 40
0.8747746318
 40
0.9063032512
 40
0.9376879208
 40
0.9533258
 40
0.9689252634
 40
1.0
 40
1.0
 40
1.0
 40
1.0
 10
12.0074848957
 20
7.7756485719
 30
0.0
 10
12.0038517565
 20
7.7721392503
 30
0.0
 10
11.9981878891
 20
7.7670879172
 30
0.0
 10
11.9902557703
 20
7.7608203129
 30
0.0
 10
11.9820710533
 20
7.7548645941
 30
0.0
 10
11.9713913436
 20
7.7480254994
 30
0.0
 10
11.9601923798
 20
7.7420432708
 30
0.0
 10
11.950956137
 20
7.7377875075
 30
0.0
 10
11.9415291006
 20
7.733883064
 30
0.0
 10
11.9294346403
 20
7.7296846837
 30
0.0
 10
11.9145300513
 20
7.7257718986
 30
0.0
 10
11.8993002418
 20
7.7229999915
 30
0.0
 10
11.8838296132
 20
7.7213842548
 30
0.0
 10
11.8682031491
 20
7.7209333111
 30
0.0
 10
11.8525068306
 20
7.7216494554
 30
0.0
 10
11.8368269283
 20
7.7235285509
 30
0.0
 10
11.8212495962
 20
7.726560088
 30
0.0
 10
11.8058603871
 20
7.7307272422
 30
0.0
 10
11.7907437931
 20
7.7360069734
 30
0.0
 10
11.7759827874
 20
7.7423701563
 30
0.0
 10
11.7616583754
 20
7.749781742
 30
0.0
 10
11.7478491568
 20
7.7582009519
 30
0.0
 10
11.7346308992
 20
7.7675815008
 30
0.0
 10
11.7220761287
 20
7.7778718499
 30
0.0
 10
11.7102537356
 20
7.7890154881
 30
0.0
 10
11.6992286016
 20
7.800951239
 30
0.0
 10
11.6890612468
 20
7.813613594
 30
0.0
 10
11.6798075011
 20
7.8269330684
 30
0.0
 10
11.6715182003
 20
7.8408365749
 30
0.0
 10
11.664238909
 20
7.8552478358
 30
0.0
 10
11.6580096736
 20
7.8700877371
 30
0.0
 10
11.6528647905
 20
7.8852749764
 30
0.0
 10
11.6488326816
 20
7.9007256898
 30
0.0
 10
11.6464153427
 20
7.913767767
 30
0.0
 10
11.6450592873
 20
7.924246918
 30
0.0
 10
11.6440915038
 20
7.9347160412
 30
0.0
 10
11.6437984683
 20
7.9425939859
 30
0.0
 10
11.6437984683
 20
7.9478363271
 30
0.0
  0
SPLINE
  5
2F4
100
AcDbEntity
  8
0
100
AcDbSpline
 62
7
  6
CONTINUOUS
 70
0
 71
3
 72
42
 73
38
 74
0
 42
0.0000001
 43
0.0000001
 44
0.0000000001
 40
0.0
 40
0.0
 40
0.0
 40
0.0
 40
0.0299419634
 40
0.0449235299
 40
0.0599142017
 40
0.0899287029
 40
0.1200139772
 40
0.1350926626
 40
0.1501967046
 40
0.1804840506
 40
0.2108978877
 40
0.2414513551
 40
0.2721543675
 40
0.3030134354
 40
0.3340315696
 40
0.3652082675
 40
0.3965395775
 40
0.4280182343
 40
0.4596338596
 40
0.4913732188
 40
0.5232205284
 40
0.5551578047
 40
0.5871652463
 40
0.6192216448
 40
0.6513048151
 40
0.6833920402
 40
0.7154605222
 40
0.747487836
 40
0.7794523759
 40
0.8113337934
 40
0.8431134117
 40
0.8747746318
 40
0.9063032512
 40
0.9376879208
 40
0.9533258
 40
0.9689252634
 40
1.0
 40
1.0
 40
1.0
 40
1.0
 10
12.5213574708
 20
8.1621210339
 30
0.0
 10
12.5177243316
 20
8.1586117123
 30
0.0
 10
12.5120604642
 20
8.1535603792
 30
0.0
 10
12.5041283454
 20
8.1472927749
 30
0.0
 10
12.4959436284
 20
8.141337056
 30
0.0
 10
12.4852639187
 20
8.1344979614
 30
0.0
 10
12.4740649549
 20
8.1285157328
 30
0.0
 10
12.4648287121
 20
8.1242599695
 30
0.0
 10
12.4554016757
 20
8.120355526
 30
0.0
 10
12.4433072154
 20
8.1161571457
 30
0.0
 10
12.4284026264
 20
8.1122443606
 30
0.0
 10
12.4131728169
 20
8.1094724535
 30
0.0
 10
12.3977021883
 20
8.1078567168
 30
0.0
 10
12.3820757242
 20
8.1074057731
 30
0.0
 10
12.3663794057
 20
8.1081219174
 30
0.0
 10
12.3506995034
 20
8.1100010129
 30
0.0
 10
12.3351221713
 20
8.11303255
 30
0.0
 10
12.3197329622
 20
8.1171997041
 30
0.0
 10
12.3046163682
 20
8.1224794354
 30
0.0
 10
12.2898553625
 20
8.1288426182
 30
0.0
 10
12.2755309505
 20
8.136254204
 30
0.0
 10
12.2617217319
 20
8.1446734139
 30
0.0
 10
12.2485034743
 20
8.1540539628
 30
0.0
 10
12.2359487038
 20
8.1643443119
 30
0.0
 10
12.2241263107
 20
8.1754879501
 30
0.0
 10
12.2131011767
 20
8.187423701
 30
0.0
 10
12.2029338219
 20
8.2000860559
 30
0.0
 10
12.1936800762
 20
8.2134055303
 30
0.0
 10
12.1853907754
 20
8.2273090368
 30
0.0
 10
12.1781114841
 20
8.2417202978
 30
0.0
 10
12.1718822487
 20
8.256560199
 30
0.0
 10
12.1667373656
 20
8.2717474384
 30
0.0
 10
12.1627052567
 20
8.2871981518
 30
0.0
 10
12.1602879178
 20
8.300240229
 30
0.0
 10
12.1589318624
 20
8.3107193799
 30
0.0
 10
12.1579640789
 20
8.3211885031
 30
0.0
 10
12.1576710434
 20
8.3290664479
 30
0.0
 10
12.1576710434
 20
8.3343087891
 30
0.0
  0
SPLINE
  5
2F5
100
AcDbEntity
  8
0
100
AcDbSpline
 62
7
  6
CONTINUOUS
 70
0
 71
3
 72
15
 73
11
 74
0
 42
0.0000001
 43
0.0000001
 44
0.0000000001
 40
0.0
 40
0.0
 40
0.0
 40
0.0
 40
0.1273483281
 40
0.2538605602
 40
0.3795878981
 40
0.5046051042
 40
0.6290174419
 40
0.7529533761
 40
0.876560577
 40
1.0
 40
1.0
 40
1.0
 40
1.0
 10
10.2887034588
 20
7.2131736379
 30
0.0
 10
10.2887034588
 20
7.2175007669
 30
0.0
 10
10.2891166125
 20
7.2261325978
 30
0.0
 10
10.2909850659
 20
7.2389143269
 30
0.0
 10
10.2940832717
 20
7.2513748966
 30
0.0
 10
10.298383247
 20
7.2633977774
 30
0.0
 10
10.3038455301
 20
7.2748720948
 30
0.0
 10
10.3104203542
 20
7.2856918822
 30
0.0
 10
10.3180458826
 20
7.2957557674
 30
0.0
 10
10.323787521
 20
7.3019033528
 30
0.0
 10
10.3268042997
 20
7.3048173327
 30
0.0
  0
SPLINE
  5
2F6
100
AcDbEntity
  8
0
100
AcDbSpline
 62
7
  6
CONTINUOUS
 70
0
 71
3
 72
54
 73
50
 74
0
 42
0.0000001
 43
0.0000001
 44
0.0000000001
 40
0.0
 40
0.0
 40
0.0
 40
0.0
 40
0.045211005
 40
0.0910033098
 40
0.1371918871
 40
0.1835904849
 40
0.2300112808
 40
0.2762665484
 40
0.3221693331
 40
0.3675345238
 40
0.4121797887
 40
0.4559265688
 40
0.4986010716
 40
0.5400352955
 40
0.580068091
 40
0.6185462844
 40
0.6553258911
 40
0.690273471
 40
0.723267696
 40
0.7389987983
 40
0.7542025723
 40
0.7688682512
 40
0.7829861915
 40
0.7965481681
 40
0.8095474029
 40
0.8219788163
 40
0.8338392309
 40
0.8451276048
 40
0.8558454586
 40
0.8659971469
 40
0.8755905717
 40
0.8846375856
 40
0.8931550666
 40
0.901165569
 40
0.9086987924
 40
0.9157925015
 40
0.9224941537
 40
0.9288616425
 40
0.9349640744
 40
0.9408809414
 40
0.9467002526
 40
0.9525148328
 40
0.9584177546
 40
0.9644976947
 40
0.970835131
 40
0.9775002537
 40
0.9845520989
 40
0.9920391071
 40
1.0
 40
1.0
 40
1.0
 40
1.0
 10
13.7643495384
 20
8.3807967447
 30
0.0
 10
13.7643495384
 20
8.3748269464
 30
0.0
 10
13.7642430665
 20
8.3628103514
 30
0.0
 10
13.7637736034
 20
8.3447003902
 30
0.0
 10
13.762995123
 20
8.3264440846
 30
0.0
 10
13.7619109772
 20
8.3081202723
 30
0.0
 10
13.760525822
 20
8.2898079187
 30
0.0
 10
13.7588456419
 20
8.271586012
 30
0.0
 10
13.7568776968
 20
8.2535331192
 30
0.0
 10
13.754630505
 20
8.2357270817
 30
0.0
 10
13.7521138006
 20
8.2182446635
 30
0.0
 10
13.749338495
 20
8.2011612197
 30
0.0
 10
13.7463166302
 20
8.1845503649
 30
0.0
 10
13.7430613281
 20
8.168483651
 30
0.0
 10
13.7395867364
 20
8.1530302423
 30
0.0
 10
13.7359079656
 20
8.1382566272
 30
0.0
 10
13.7320410352
 20
8.1242262349
 30
0.0
 10
13.7280027649
 20
8.1109994053
 30
0.0
 10
13.7244553504
 20
8.1005336707
 30
0.0
 10
13.7215362992
 20
8.0926126219
 30
0.0
 10
13.7193500115
 20
8.0870019221
 30
0.0
 10
13.7171342671
 20
8.0816324982
 30
0.0
 10
13.714891407
 20
8.0765101048
 30
0.0
 10
13.7126238732
 20
8.0716402226
 30
0.0
 10
13.7103340953
 20
8.0670280534
 30
0.0
 10
13.7080245299
 20
8.0626785112
 30
0.0
 10
13.705697654
 20
8.0585962086
 30
0.0
 10
13.7033559173
 20
8.05478547
 30
0.0
 10
13.7010018139
 20
8.0512502886
 30
0.0
 10
13.6986377453
 20
8.0479943829
 30
0.0
 10
13.6962661723
 20
8.0450211076
 30
0.0
 10
13.6938893842
 20
8.0423335829
 30
0.0
 10
13.6915097276
 20
8.0399345443
 30
0.0
 10
13.689129295
 20
8.0378265919
 30
0.0
 10
13.6867502294
 20
8.0360119711
 30
0.0
 10
13.6843744003
 20
8.0344929974
 30
0.0
 10
13.6820038202
 20
8.0332717463
 30
0.0
 10
13.6796404709
 20
8.0323506222
 30
0.0
 10
13.6772868635
 20
8.03173178
 30
0.0
 10
13.6749460528
 20
8.0314175212
 30
0.0
 10
13.67262192
 20
8.031409189
 30
0.0
 10
13.670318818
 20
8.031707369
 30
0.0
 10
13.6680410246
 20
8.032311013
 30
0.0
 10
13.6657922667
 20
8.033218313
 30
0.0
 10
13.6635753524
 20
8.0344266329
 30
0.0
 10
13.6613925019
 20
8.0359334367
 30
0.0
 10
13.6592453874
 20
8.0377361378
 30
0.0
 10
13.6571357682
 20
8.039832219
 30
0.0
 10
13.6557979325
 20
8.0413745454
 30
0.0
 10
13.655134675
 20
8.0421900636
 30
0.0
  0
SPLINE
  5
2F7
100
AcDbEntity
  8
0
100
AcDbSpline
 62
7
  6
CONTINUOUS
 70
0
 71
3
 72
15
 73
11
 74
0
 42
0.0000001
 43
0.0000001
 44
0.0000000001
 40
0.0
 40
0.0
 40
0.0
 40
0.0
 40
0.1273483281
 40
0.2538605602
 40
0.3795878981
 40
0.5046051042
 40
0.6290174419
 40
0.7529533761
 40
0.876560577
 40
1.0
 40
1.0
 40
1.0
 40
1.0
 10
12.3403300767
 20
7.0708928487
 30
0.0
 10
12.3403300767
 20
7.0752199777
 30
0.0
 10
12.3407432304
 20
7.0838518087
 30
0.0
 10
12.3426116837
 20
7.0966335377
 30
0.0
 10
12.3457098896
 20
7.1090941075
 30
0.0
 10
12.3500098648
 20
7.1211169882
 30
0.0
 10
12.3554721479
 20
7.1325913056
 30
0.0
 10
12.362046972
 20
7.143411093
 30
0.0
 10
12.3696725004
 20
7.1534749782
 30
0.0
 10
12.3754141388
 20
7.1596225636
 30
0.0
 10
12.3784309175
 20
7.1625365435
 30
0.0
  0
SPLINE
  5
2F8
100
AcDbEntity
  8
0
100
AcDbSpline
 62
7
  6
CONTINUOUS
 70
0
 71
3
 72
21
 73
17
 74
0
 42
0.0000001
 43
0.0000001
 44
0.0000000001
 40
0.0
 40
0.0
 40
0.0
 40
0.0
 40
0.1273176984
 40
0.2537999461
 40
0.3167619614
 40
0.3795355204
 40
0.4421314992
 40
0.5045621453
 40
0.5668413456
 40
0.6289845231
 40
0.6910084433
 40
0.7529310869
 40
0.8147714401
 40
0.8765493236
 40
0.9382852134
 40
1.0
 40
1.0
 40
1.0
 40
1.0
 10
11.2516325421
 20
7.4012731692
 30
0.0
 10
11.2516325421
 20
7.4080179773
 30
0.0
 10
11.2522763791
 20
7.4214720167
 30
0.0
 10
11.2547079703
 20
7.4381041138
 30
0.0
 10
11.2576142374
 20
7.4511505374
 30
0.0
 10
11.2602646013
 20
7.4607735859
 30
0.0
 10
11.263382596
 20
7.4702256376
 30
0.0
 10
11.2669610328
 20
7.4794851722
 30
0.0
 10
11.2709916614
 20
7.4885307736
 30
0.0
 10
11.2754652693
 20
7.4973415651
 30
0.0
 10
11.2803715074
 20
7.5058972367
 30
0.0
 10
11.2856990611
 20
7.5141780706
 30
0.0
 10
11.2914356955
 20
7.5221649051
 30
0.0
 10
11.2975682167
 20
7.5298393977
 30
0.0
 10
11.3040822102
 20
7.5371836359
 30
0.0
 10
11.3086701029
 20
7.5418491285
 30
0.0
 10
11.3110216516
 20
7.5441205363
 30
0.0
  0
SPLINE
  5
2F9
100
AcDbEntity
  8
0
100
AcDbSpline
 62
7
  6
CONTINUOUS
 70
0
 71
3
 72
15
 73
11
 74
0
 42
0.0000001
 43
0.0000001
 44
0.0000000001
 40
0.0
 40
0.0
 40
0.0
 40
0.0
 40
0.1273483281
 40
0.2538605602
 40
0.3795878981
 40
0.5046051042
 40
0.6290174419
 40
0.7529533761
 40
0.876560577
 40
1.0
 40
1.0
 40
1.0
 40
1.0
 10
10.2887034588
 20
8.9634312299
 30
0.0
 10
10.2887034588
 20
8.9677583589
 30
0.0
 10
10.2891166125
 20
8.9763901899
 30
0.0
 10
10.2909850659
 20
8.9891719189
 30
0.0
 10
10.2940832717
 20
9.0016324887
 30
0.0
 10
10.298383247
 20
9.0136553694
 30
0.0
 10
10.3038455301
 20
9.0251296868
 30
0.0
 10
10.3104203542
 20
9.0359494742
 30
0.0
 10
10.3180458826
 20
9.0460133594
 30
0.0
 10
10.323787521
 20
9.0521609448
 30
0.0
 10
10.3268042997
 20
9.0550749247
 30
0.0
  0
SPLINE
  5
2FA
100
AcDbEntity
  8
0
100
AcDbSpline
 62
7
  6
CONTINUOUS
 70
0
 71
3
 72
48
 73
44
 74
0
 42
0.0000001
 43
0.0000001
 44
0.0000000001
 40
0.0
 40
0.0
 40
0.0
 40
0.0
 40
0.0187312414
 40
0.0274814461
 40
0.0358545553
 40
0.051593591
 40
0.0590516981
 40
0.0662947427
 40
0.0733761916
 40
0.0803537082
 40
0.0872877469
 40
0.0942400187
 40
0.1012716942
 40
0.1084417491
 40
0.1158055291
 40
0.1234136389
 40
0.1395286907
 40
0.148120661
 40
0.1571066532
 40
0.166511609
 40
0.1763563817
 40
0.1866583225
 40
0.1974313371
 40
0.2086866581
 40
0.2204331336
 40
0.2454209209
 40
0.2724296742
 40
0.3014669232
 40
0.332521233
 40
0.3655659181
 40
0.4005615493
 40
0.4374576905
 40
0.4761945986
 40
0.5167044198
 40
0.5589119393
 40
0.6027353749
 40
0.6480872072
 40
0.6948746571
 40
0.7429999811
 40
0.7923614626
 40
0.8428532154
 40
0.8943651712
 40
1.0
 40
1.0
 40
1.0
 40
1.0
 10
13.6925640322
 20
8.5819044712
 30
0.0
 10
13.6936898569
 20
8.5829522794
 30
0.0
 10
13.695415141
 20
8.5844154425
 30
0.0
 10
13.6978229835
 20
8.5861123032
 30
0.0
 10
13.7001244148
 20
8.587523104
 30
0.0
 10
13.7024721987
 20
8.5886496215
 30
0.0
 10
13.7048450021
 20
8.5894431305
 30
0.0
 10
13.7065864796
 20
8.589861307
 30
0.0
 10
13.708320016
 20
8.5901122709
 30
0.0
 10
13.710044373
 20
8.5901957364
 30
0.0
 10
13.7117581219
 20
8.5901114619
 30
0.0
 10
13.7134598027
 20
8.5898594304
 30
0.0
 10
13.7151480222
 20
8.589440044
 30
0.0
 10
13.7168214493
 20
8.5888537867
 30
0.0
 10
13.7184789925
 20
8.5881012788
 30
0.0
 10
13.7207087041
 20
8.5868538606
 30
0.0
 10
13.7228624004
 20
8.5852851488
 30
0.0
 10
13.724930486
 20
8.5834461806
 30
0.0
 10
13.7264947981
 20
8.5818752798
 30
0.0
 10
13.7280378523
 20
8.5801436354
 30
0.0
 10
13.729559114
 20
8.5782520943
 30
0.0
 10
13.731057659
 20
8.576201785
 30
0.0
 10
13.7325327417
 20
8.5739939229
 30
0.0
 10
13.7339835591
 20
8.5716297766
 30
0.0
 10
13.735924576
 20
8.5681999103
 30
0.0
 10
13.7382747903
 20
8.5635195093
 30
0.0
 10
13.740929684
 20
8.5574156775
 30
0.0
 10
13.7434686232
 20
8.5507273875
 30
0.0
 10
13.745885677
 20
8.5434702199
 30
0.0
 10
13.7481751417
 20
8.5356608823
 30
0.0
 10
13.7503315294
 20
8.5273176177
 30
0.0
 10
13.7523496849
 20
8.5184600099
 30
0.0
 10
13.7542247517
 20
8.5091089347
 30
0.0
 10
13.7559521943
 20
8.4992864793
 30
0.0
 10
13.7575278465
 20
8.4890158975
 30
0.0
 10
13.7589479202
 20
8.4783215408
 30
0.0
 10
13.7602089829
 20
8.4672287814
 30
0.0
 10
13.7613079757
 20
8.455763961
 30
0.0
 10
13.7622422675
 20
8.4439543064
 30
0.0
 10
13.7630095917
 20
8.4318279006
 30
0.0
 10
13.7636081049
 20
8.4194135854
 30
0.0
 10
13.7641838348
 20
8.4023741638
 30
0.0
 10
13.7643495384
 20
8.389470184
 30
0.0
 10
13.7643495384
 20
8.3807967447
 30
0.0
  0
SPLINE
  5
2FB
100
AcDbEntity
  8
0
100
AcDbSpline
 62
7
  6
CONTINUOUS
 70
0
 71
3
 72
21
 73
17
 74
0
 42
0.0000001
 43
0.0000001
 44
0.0000000001
 40
0.0
 40
0.0
 40
0.0
 40
0.0
 40
0.1273176984
 40
0.2537999461
 40
0.3167619614
 40
0.3795355204
 40
0.4421314992
 40
0.5045621453
 40
0.5668413456
 40
0.6289845231
 40
0.6910084433
 40
0.7529310869
 40
0.8147714401
 40
0.8765493236
 40
0.9382852134
 40
1.0
 40
1.0
 40
1.0
 40
1.0
 10
11.6437984683
 20
7.9478363271
 30
0.0
 10
11.6437984683
 20
7.9545811352
 30
0.0
 10
11.6444423053
 20
7.9680351747
 30
0.0
 10
11.6468738965
 20
7.9846672717
 30
0.0
 10
11.6497801636
 20
7.9977136954
 30
0.0
 10
11.6524305275
 20
8.0073367438
 30
0.0
 10
11.6555485222
 20
8.0167887956
 30
0.0
 10
11.659126959
 20
8.0260483301
 30
0.0
 10
11.6631575876
 20
8.0350939315
 30
0.0
 10
11.6676311955
 20
8.0439047231
 30
0.0
 10
11.6725374336
 20
8.0524603946
 30
0.0
 10
11.6778649873
 20
8.0607412285
 30
0.0
 10
11.6836016217
 20
8.0687280631
 30
0.0
 10
11.6897341429
 20
8.0764025556
 30
0.0
 10
11.6962481364
 20
8.0837467939
 30
0.0
 10
11.7008360292
 20
8.0884122865
 30
0.0
 10
11.7031875778
 20
8.0906836942
 30
0.0
  0
SPLINE
  5
2FC
100
AcDbEntity
  8
0
100
AcDbSpline
 62
7
  6
CONTINUOUS
 70
0
 71
3
 72
21
 73
17
 74
0
 42
0.0000001
 43
0.0000001
 44
0.0000000001
 40
0.0
 40
0.0
 40
0.0
 40
0.0
 40
0.1273176984
 40
0.2537999461
 40
0.3167619614
 40
0.3795355204
 40
0.4421314992
 40
0.5045621453
 40
0.5668413456
 40
0.6289845231
 40
0.6910084433
 40
0.7529310869
 40
0.8147714401
 40
0.8765493236
 40
0.9382852134
 40
1.0
 40
1.0
 40
1.0
 40
1.0
 10
12.1576710434
 20
8.3343087891
 30
0.0
 10
12.1576710434
 20
8.3410535972
 30
0.0
 10
12.1583148804
 20
8.3545076366
 30
0.0
 10
12.1607464716
 20
8.3711397337
 30
0.0
 10
12.1636527387
 20
8.3841861574
 30
0.0
 10
12.1663031026
 20
8.3938092058
 30
0.0
 10
12.1694210973
 20
8.4032612576
 30
0.0
 10
12.1729995341
 20
8.4125207921
 30
0.0
 10
12.1770301627
 20
8.4215663935
 30
0.0
 10
12.1815037706
 20
8.4303771851
 30
0.0
 10
12.1864100087
 20
8.4389328566
 30
0.0
 10
12.1917375624
 20
8.4472136905
 30
0.0
 10
12.1974741968
 20
8.4552005251
 30
0.0
 10
12.203606718
 20
8.4628750176
 30
0.0
 10
12.2101207115
 20
8.4702192559
 30
0.0
 10
12.2147086043
 20
8.4748847484
 30
0.0
 10
12.2170601529
 20
8.4771561562
 30
0.0
  0
ELLIPSE
  5
2FD
100
AcDbEntity
  8
0
100
AcDbEllipse
 62
7
  6
CONTINUOUS
 10
10.5579704907
 20
8.4451211673
 30
0.0
 11
-0.1608135219
 21
0.1239461
 31
0.0
 40
0.9925392577
 41
0.0
 42
6.2831853072
  0
ELLIPSE
  5
2FE
100
AcDbEntity
  8
0
100
AcDbEllipse
 62
7
  6
CONTINUOUS
 10
11.0770260632
 20
7.9931638058
 30
0.0
 11
-0.1417490898
 21
0.1453158007
 31
0.0
 40
0.9473948564
 41
0.0
 42
6.2831853072
  0
ENDSEC
  0
SECTION
  2
OBJECTS
  0
DICTIONARY
  5
C
100
AcDbDictionary
280
0
281
1
  3
ACAD_GROUP
350
D
  3
ACAD_MLINESTYLE
350
17
  3
ACAD_LAYOUT
350
1A
  3
ACAD_PLOTSETTINGS
350
19
  3
ACAD_PLOTSTYLENAME
350
E
  3
ACAD_IMAGE_DICT
350
       300
  3
ACAD_IMAGE_VARS
350
       301
  3
ACAD_TABLESTYLE
350
       302
  0
IMAGEDEF_REACTOR
  5
2FF
100
AcDbRasterImageDefReactor
 90
2
330
287
  0
DICTIONARY
  5
D
102
{ACAD_REACTORS
330
C
102
}
100
AcDbDictionary
280
0
281
1
  0
ACDBDICTIONARYWDFLT
  5
E
102
{ACAD_REACTORS
330
C
102
}
100
AcDbDictionary
281
1
  3
Normal
350
F
100
AcDbDictionaryWithDefault
340
F
  0
DICTIONARY
  5
300
330
C
100
AcDbDictionary
281
1
  3
WCC_assy_2_img_1
350
       305
  0
RASTERVARIABLES
  5
301
330
C
100
AcDbRasterVariables
 90
0
 70
0
 71
1
 72
5
  0
DICTIONARY
  5
17
102
{ACAD_REACTORS
330
C
102
}
100
AcDbDictionary
280
0
281
1
  3
Standard
350
18
  0
DICTIONARY
  5
302
330
C
100
AcDbDictionary
281
1
  3
Standard
350
       306
  3
Standard1
350
       307
  0
DICTIONARY
  5
19
102
{ACAD_REACTORS
330
C
102
}
100
AcDbDictionary
281
1
  0
DICTIONARY
  5
1A
102
{ACAD_REACTORS
330
C
102
}
100
AcDbDictionary
281
1
  3
Model
350
303
  3
Layout1
350
304
  0
ACDBPLACEHOLDER
  5
F
102
{ACAD_REACTORS
330
E
102
}
  0
MLINESTYLE
  5
18
102
{ACAD_REACTORS
330
17
102
}
100
AcDbMlineStyle
  2
STANDARD
 70
0
  3

 62
256
 51
90.0
 52
90.0
 71
2
 49
0.5
 62
256
  6
BYLAYER
 49
-0.5
 62
256
  6
BYLAYER
  0
LAYOUT
  5
303
102
{ACAD_REACTORS
330
1A
102
}
100
AcDbPlotSettings
  1

  2
none_device
  4
ANSI_C_(22.00_x_17.00_Inches)
  6

 40
0.0
 41
0.0
 42
0.0
 43
0.0
 44
558.8
 45
431.8
 46
0.0
 47
0.0
 48
0.0
 49
0.0
140
0.0
141
0.0
142
1.0
143
1.0
 70
1024
 72
0
 73
0
 74
0
  7

 75
0
147
1.0
148
0.0
149
0.0
100
AcDbLayout
  1
Model
 70
0
 71
0
 10
0.0
 20
0.0
 11
22.0
 21
17.0
 12
0.0
 22
0.0
 32
0.0
 14
0.0
 24
0.0
 34
0.0
 15
0.0
 25
0.0
 35
0.0
146
0.0
 13
0.0
 23
0.0
 33
0.0
 16
1.0
 26
0.0
 36
0.0
 17
0.0
 27
1.0
 37
0.0
 76
0
330
20F
345
0
346
0
  0
LAYOUT
  5
304
102
{ACAD_REACTORS
330
1A
102
}
100
AcDbPlotSettings
  1

  2
none_device
  4
ANSI_C_(22.00_x_17.00_Inches)
  6

 40
0.0
 41
0.0
 42
0.0
 43
0.0
 44
558.8
 45
431.8
 46
0.0
 47
0.0
 48
0.0
 49
0.0
140
0.0
141
0.0
142
1.0
143
1.0
 70
0
 72
0
 73
0
 74
0
  7

 75
0
147
1.0
148
0.0
149
0.0
100
AcDbLayout
  1
Layout1
 70
0
 71
1
 10
0.0
 20
0.0
 11
22.0
 21
17.0
 12
0.0
 22
0.0
 32
0.0
 14
0.0
 24
0.0
 34
0.0
 15
0.0
 25
0.0
 35
0.0
146
0.0
 13
0.0
 23
0.0
 33
0.0
 16
1.0
 26
0.0
 36
0.0
 17
0.0
 27
1.0
 37
0.0
 76
0
330
210
345
0
346
0
  0
IMAGEDEF
  5
305
102
{ACAD_REACTORS
330
300
330
2FF
102
}
100
AcDbRasterImageDef
 90
0
  1
WCC_assy_2_img_1.png
 10
369.0
 20
92.0
 11
0.0066666667
 21
0.0066666667
280
1
281
0
  0
TABLESTYLE
  5
306
102
{ACAD_REACTORS
330
302
330
28A
330
28B
102
}
330
302
100
AcDbTableStyle
  3
Standard
 70
0
 71
0
 40
0.06
 41
0.06
280
1
281
1
  7
Standard
140
0.18
170
1
 62
0
 63
7
283
0
  7
Standard
140
0.18
170
1
 62
0
 63
7
283
0
  7
Standard
140
0.18
170
1
 62
0
 63
7
283
0
  0
TABLESTYLE
  5
307
102
{ACAD_REACTORS
330
302
330
289
102
}
330
302
100
AcDbTableStyle
  3
Standard1
 70
1
 71
0
 40
0.06
 41
0.06
280
1
281
1
  7
Standard
140
0.18
170
1
 62
0
 63
7
283
0
  7
Standard
140
0.18
170
1
 62
0
 63
7
283
0
  7
Standard
140
0.18
170
1
 62
0
 63
7
283
0
  0
ENDSEC
  0
EOF
