999
DXF file: WAY_assy_2.dxf
999
Pro/ENGINEER 2014200 by Parametric Technology Corporation
  0
SECTION
  2
HEADER
  9
$ACADVER
  1
AC1021
  9
$DWGCODEPAGE
  3
ANSI_1252
  9
$EXTMAX
 10
22.0
 20
17.0
 30
0.0
  9
$EXTMIN
 10
0.0
 20
0.0
 30
0.0
  9
$LIMMIN
 10
0.0
 20
0.0
  9
$LIMMAX
 10
22.0
 20
17.0
  9
$VIEWCTR
 10
11.0
 20
8.5
  9
$VIEWSIZE
 40
17.0
  9
$CLAYER
  8
0
  9
$LTSCALE
 40
1.21
  9
$CELTYPE
  6
BYLAYER
  9
$DIMSCALE
 40
1.0
  9
$DIMASZ
 40
0.1875
  9
$DIMEXO
 40
0.0625
  9
$DIMDLI
 40
0.836
  9
$DIMEXE
 40
0.125
  9
$DIMCEN
 40
0.198
  9
$DIMLFAC
 40
1.0
  9
$DIMBLK
  1
_FILLED
  9
$DIMTXT
 40
0.1
  9
$DIMTOL
 70
0
  9
$DIMLIM
 70
0
  9
$DIMTFAC
 40
1.0
  9
$DIMGAP
 40
0.09
  9
$DIMDSEP
 70
46
  9
$AUNITS
 70
0
  9
$PDMODE
 70
3
  9
$PDSIZE
 40
0.3125
  9
$HANDSEED
  5
3ED
  9
$TILEMODE
 70
1
  9
$MEASUREMENT
 70
0
  9
$INSUNITS
 70
1
  0
ENDSEC
  0
SECTION
  2
CLASSES
  0
CLASS
  1
ACDBDICTIONARYWDFLT
  2
AcDbDictionaryWithDefault
  3
AutoCAD 2000
 90
0
 91
1
280
0
281
0
  0
CLASS
  1
ACDBPLACEHOLDER
  2
AcDbPlaceHolder
  3
AutoCAD 2000
 90
0
 91
1
280
0
281
0
  0
CLASS
  1
LAYOUT
  2
AcDbLayout
  3
AutoCAD 2000
 90
0
 91
0
280
0
281
0
  0
CLASS
  1
RASTERVARIABLES
  2
AcDbRasterVariables
  3
ISM
 90
0
 91
1
280
0
281
0
  0
CLASS
  1
IMAGEDEF
  2
AcDbRasterImageDef
  3
ISM
 90
0
 91
1
280
0
281
0
  0
CLASS
  1
IMAGEDEF_REACTOR
  2
AcDbRasterImageDefReactor
  3
ISM
 90
0
 91
1
280
0
281
0
  0
CLASS
  1
IMAGE
  2
AcDbRasterImage
  3
ISM
 90
127
 91
1
280
0
281
1
  0
CLASS
  1
TABLESTYLE
  2
AcDbTableStyle
  3
ObjectDBX Classes
 90
2047
 91
1
280
0
281
0
  0
CLASS
  1
ACAD_TABLE
  2
AcDbTable
  3
ObjectDBX Classes
 90
1025
 91
3
280
0
281
1
  0
ENDSEC
  0
SECTION
  2
TABLES
  0
TABLE
  2
VPORT
  5
8
100
AcDbSymbolTable
 70
2
  0
VPORT
  5
1F4
100
AcDbSymbolTableRecord
100
AcDbViewportTableRecord
  2
*ACTIVE
 70
0
 10
0.0
 20
0.0
 11
1.0
 21
1.0
 12
11.0
 22
8.5
 13
0.0
 23
0.0
 14
1.0
 24
1.0
 15
0.0
 25
0.0
 16
0.0
 26
0.0
 36
1.0
 17
0.0
 27
0.0
 37
0.0
 40
17.0
 41
1.2941176471
 42
50.0
 43
0.0
 44
0.0
 50
0.0
 51
0.0
 71
0
 72
100
 73
1
 74
1
 75
0
 76
0
 77
0
 78
0
  0
ENDTAB
  0
TABLE
  2
LTYPE
  5
5
100
AcDbSymbolTable
 70
6
  0
LTYPE
  5
14
100
AcDbSymbolTableRecord
100
AcDbLinetypeTableRecord
  2
BYBLOCK
 70
0
  3

 72
65
 73
0
 40
0.0
  0
LTYPE
  5
15
100
AcDbSymbolTableRecord
100
AcDbLinetypeTableRecord
  2
BYLAYER
 70
0
  3

 72
65
 73
0
 40
0.0
  0
LTYPE
  5
16
100
AcDbSymbolTableRecord
100
AcDbLinetypeTableRecord
  2
CONTINUOUS
 70
64
  3
Solid line
 72
65
 73
0
 40
0.0
  0
LTYPE
  5
1F5
100
AcDbSymbolTableRecord
100
AcDbLinetypeTableRecord
  2
CENTER
 70
64
  3
____ _ ____ _ ____ _ ____ _ ____ _ ____ _ ____
 72
65
 73
4
 40
0.6
 49
0.375
 74
0
 49
-0.075
 74
0
 49
0.075
 74
0
 49
-0.075
 74
0
  0
LTYPE
  5
1F6
100
AcDbSymbolTableRecord
100
AcDbLinetypeTableRecord
  2
HIDDEN
 70
64
  3
- - - - - - - - - - - - - - - - - - - -
 72
65
 73
2
 40
0.2
 49
0.1
 74
0
 49
-0.1
 74
0
  0
LTYPE
  5
1F7
100
AcDbSymbolTableRecord
100
AcDbLinetypeTableRecord
  2
PHANTOM
 70
64
  3
_____ _ _ _____ _ _ _____ _ _ _____
 72
65
 73
6
 40
0.8
 49
0.45
 74
0
 49
-0.05
 74
0
 49
0.1
 74
0
 49
-0.05
 74
0
 49
0.1
 74
0
 49
-0.05
 74
0
  0
LTYPE
  5
1F8
100
AcDbSymbolTableRecord
100
AcDbLinetypeTableRecord
  2
DOT
 70
64
  3
. . . . . . . . . . . . . . . . . . . .
 72
65
 73
2
 40
0.2
 49
0.1
 74
0
 49
-0.1
 74
0
  0
LTYPE
  5
1F9
100
AcDbSymbolTableRecord
100
AcDbLinetypeTableRecord
  2
DASHED
 70
64
  3
- - - - - - - - - - - - - - - - - - - -
 72
65
 73
2
 40
0.2
 49
0.1
 74
0
 49
-0.1
 74
0
  0
ENDTAB
  0
TABLE
  2
LAYER
  5
2
100
AcDbSymbolTable
 70
36
  0
LAYER
  5
10
100
AcDbSymbolTableRecord
100
AcDbLayerTableRecord
  2
0
 70
0
 62
7
  6
CONTINUOUS
370
-3
390
F
  0
LAYER
  5
1FA
100
AcDbSymbolTableRecord
100
AcDbLayerTableRecord
  2
DEFAULT_1
 70
0
 62
7
  6
CENTER
370
-3
390
F
  0
LAYER
  5
1FB
100
AcDbSymbolTableRecord
100
AcDbLayerTableRecord
  2
DEFAULT_2
 70
0
 62
8
  6
HIDDEN
370
-3
390
F
  0
LAYER
  5
1FC
100
AcDbSymbolTableRecord
100
AcDbLayerTableRecord
  2
DEFAULT_3
 70
0
 62
7
  6
PHANTOM
370
-3
390
F
  0
LAYER
  5
1FD
100
AcDbSymbolTableRecord
100
AcDbLayerTableRecord
  2
01___PRT_ALL_DTM_PLN
 70
0
 62
7
  6
CONTINUOUS
370
-3
390
F
  0
LAYER
  5
1FE
100
AcDbSymbolTableRecord
100
AcDbLayerTableRecord
  2
01___PRT_DEF_DTM_PLN
 70
0
 62
7
  6
CONTINUOUS
370
-3
390
F
  0
LAYER
  5
1FF
100
AcDbSymbolTableRecord
100
AcDbLayerTableRecord
  2
02___PRT_ALL_AXES
 70
0
 62
7
  6
CONTINUOUS
370
-3
390
F
  0
LAYER
  5
200
100
AcDbSymbolTableRecord
100
AcDbLayerTableRecord
  2
03___PRT_ALL_CURVES
 70
0
 62
7
  6
CONTINUOUS
370
-3
390
F
  0
LAYER
  5
201
100
AcDbSymbolTableRecord
100
AcDbLayerTableRecord
  2
04___PRT_ALL_DTM_PNT
 70
0
 62
7
  6
CONTINUOUS
370
-3
390
F
  0
LAYER
  5
202
100
AcDbSymbolTableRecord
100
AcDbLayerTableRecord
  2
05___PRT_ALL_DTM_CSYS
 70
0
 62
7
  6
CONTINUOUS
370
-3
390
F
  0
LAYER
  5
203
100
AcDbSymbolTableRecord
100
AcDbLayerTableRecord
  2
05___PRT_DEF_DTM_CSYS
 70
0
 62
7
  6
CONTINUOUS
370
-3
390
F
  0
LAYER
  5
204
100
AcDbSymbolTableRecord
100
AcDbLayerTableRecord
  2
06___PRT_ALL_SURFS
 70
0
 62
7
  6
CONTINUOUS
370
-3
390
F
  0
LAYER
  5
205
100
AcDbSymbolTableRecord
100
AcDbLayerTableRecord
  2
DATUM_PLANES
 70
0
 62
7
  6
CONTINUOUS
370
-3
390
F
  0
LAYER
  5
206
100
AcDbSymbolTableRecord
100
AcDbLayerTableRecord
  2
PORT_AREAS
 70
0
 62
7
  6
CONTINUOUS
370
-3
390
F
  0
LAYER
  5
207
100
AcDbSymbolTableRecord
100
AcDbLayerTableRecord
  2
SUNNBOMCOSMETIC
 70
0
 62
7
  6
CONTINUOUS
370
-3
390
F
  0
LAYER
  5
208
100
AcDbSymbolTableRecord
100
AcDbLayerTableRecord
  2
SUNNBOMSTAMPING
 70
0
 62
7
  6
CONTINUOUS
370
-3
390
F
  0
LAYER
  5
209
100
AcDbSymbolTableRecord
100
AcDbLayerTableRecord
  2
THREADS
 70
0
 62
7
  6
CONTINUOUS
370
-3
390
F
  0
ENDTAB
  0
TABLE
  2
STYLE
  5
3
100
AcDbSymbolTable
 70
1
  0
STYLE
  5
11
100
AcDbSymbolTableRecord
100
AcDbTextStyleTableRecord
  2
STANDARD
 70
0
 40
0.0
 41
0.8
 50
0.0
 71
0
 42
0.2
  3
txt
  4

  0
STYLE
  5
20A
100
AcDbSymbolTableRecord
100
AcDbTextStyleTableRecord
  2
TEXTSTYLE_1
 70
0
 40
0.0
 41
0.8
 50
0.0
 71
0
 42
0.2
  3
gdt
  4

  0
ENDTAB
  0
TABLE
  2
VIEW
  5
6
100
AcDbSymbolTable
 70
0
  0
ENDTAB
  0
TABLE
  2
UCS
  5
7
100
AcDbSymbolTable
 70
0
  0
ENDTAB
  0
TABLE
  2
APPID
  5
9
100
AcDbSymbolTable
 70
1
  0
APPID
  5
20B
100
AcDbSymbolTableRecord
100
AcDbRegAppTableRecord
  2
ACAD
 70
0
  0
ENDTAB
  0
TABLE
  2
BLOCK_RECORD
  5
1
100
AcDbSymbolTable
 70
0
  0
BLOCK_RECORD
  5
20C
100
AcDbSymbolTableRecord
100
AcDbBlockTableRecord
  2
*Model_Space
  0
BLOCK_RECORD
  5
20D
100
AcDbSymbolTableRecord
100
AcDbBlockTableRecord
  2
*Paper_Space
  0
BLOCK_RECORD
  5
20E
100
AcDbSymbolTableRecord
100
AcDbBlockTableRecord
  2
SUN_FIRST_THIRD_ANGLE_BL0
  0
BLOCK_RECORD
  5
20F
100
AcDbSymbolTableRecord
100
AcDbBlockTableRecord
  2
*T1
  0
BLOCK_RECORD
  5
210
100
AcDbSymbolTableRecord
100
AcDbBlockTableRecord
  2
*T2
  0
BLOCK_RECORD
  5
211
100
AcDbSymbolTableRecord
100
AcDbBlockTableRecord
  2
*T3
  0
ENDTAB
  0
TABLE
  2
DIMSTYLE
  5
A
100
AcDbSymbolTable
 70
1
100
AcDbDimStyleTable
 71
0
  0
DIMSTYLE
105
212
100
AcDbSymbolTableRecord
100
AcDbDimStyleTableRecord
  2
STANDARD
 70
0
  3

  4

 40
1.0
 41
0.1875
 42
0.0625
 43
0.38
 44
0.125
 45
0.0
 46
0.0
 47
0.001
 48
0.001
140
0.1
141
0.09
142
0.0
143
25.4
144
1.0
145
0.0
146
1.0
147
0.09
 71
0.0
 72
0.0
 73
1
 74
1
 75
0
 76
0
 77
0
 78
4
170
0
171
2
172
0
173
0
174
0
175
0
176
0
177
0
178
0
270
2
271
3
272
3
273
2
274
2
275
0
280
0
281
0
282
0
283
1
284
4
285
0
286
0
287
3
288
0
340
11
278
46
  0
ENDTAB
  0
ENDSEC
  0
SECTION
  2
BLOCKS
  0
BLOCK
  5
20
100
AcDbEntity
  8
0
100
AcDbBlockBegin
  2
*Model_Space
 70
0
 10
0.0
 20
0.0
 30
0.0
  3
*Model_Space
  1

  0
ENDBLK
  5
21
100
AcDbEntity
  8
0
100
AcDbBlockEnd
  0
BLOCK
  5
1C
100
AcDbEntity
  8
0
100
AcDbBlockBegin
  2
*Paper_Space
 70
0
 10
0.0
 20
0.0
 30
0.0
  3
*Paper_Space
  1

  0
ENDBLK
  5
1D
100
AcDbEntity
  8
0
100
AcDbBlockEnd
  0
BLOCK
  5
213
100
AcDbEntity
  8
0
100
AcDbBlockBegin
 62
2
  6
CONTINUOUS
  2
SUN_FIRST_THIRD_ANGLE_BL0
 70
64
 10
20.4816717061
 20
1.2289683772
  3
SUN_FIRST_THIRD_ANGLE_BL0
  1

  0
TEXT
  5
214
100
AcDbEntity
  8
0
100
AcDbText
 62
2
  6
CONTINUOUS
 10
19.4750896608
 20
1.4136269581
  7
STANDARD
 40
0.08
  1
FIRST ANGLE
 41
0.8
 72
0
100
AcDbText
  0
TEXT
  5
215
100
AcDbEntity
  8
0
100
AcDbText
 62
2
  6
CONTINUOUS
 10
20.7842537513
 20
1.4047600029
  7
STANDARD
 40
0.08
  1
THIRD ANGLE
 41
0.8
 72
0
100
AcDbText
  0
LINE
  5
216
100
AcDbEntity
  8
0
100
AcDbLine
 62
7
  6
CONTINUOUS
 10
19.4767170086
 20
1.1727031207
 11
19.6334271527
 21
1.1717972817
  0
LINE
  5
217
100
AcDbEntity
  8
0
100
AcDbLine
 62
7
  6
CONTINUOUS
 10
19.6596964832
 20
1.1717972817
 11
19.6950230232
 21
1.171593082
  0
LINE
  5
218
100
AcDbEntity
  8
0
100
AcDbLine
 62
7
  6
CONTINUOUS
 10
19.7194818561
 20
1.1708914427
 11
19.8852396156
 21
1.1699333054
  0
LINE
  5
219
100
AcDbEntity
  8
0
100
AcDbLine
 62
7
  6
CONTINUOUS
 10
19.4758111696
 20
1.2723454088
 11
19.88525039
 21
1.3511534004
  0
LINE
  5
21A
100
AcDbEntity
  8
0
100
AcDbLine
 62
7
  6
CONTINUOUS
 10
19.88525039
 20
1.3511534004
 11
19.8831348489
 21
0.9851647912
  0
LINE
  5
21B
100
AcDbEntity
  8
0
100
AcDbLine
 62
7
  6
CONTINUOUS
 10
19.8831348489
 20
0.9851647912
 11
19.4767170086
 21
1.0658141206
  0
LINE
  5
21C
100
AcDbEntity
  8
0
100
AcDbLine
 62
7
  6
CONTINUOUS
 10
19.4767170086
 20
1.0658141206
 11
19.4779056764
 21
1.2714536432
  0
CIRCLE
  5
21D
100
AcDbEntity
  8
0
100
AcDbCircle
 62
7
  6
CONTINUOUS
 10
20.2068232291
 20
1.1717972817
 40
0.175742101
  0
CIRCLE
  5
21E
100
AcDbEntity
  8
0
100
AcDbCircle
 62
7
  6
CONTINUOUS
 10
20.2068232291
 20
1.1717972817
 40
0.1005522074
  0
LINE
  5
21F
100
AcDbEntity
  8
0
100
AcDbLine
 62
7
  6
CONTINUOUS
 10
20.2077290681
 20
1.3756110529
 11
20.2071171714
 21
1.2379342989
  0
LINE
  5
220
100
AcDbEntity
  8
0
100
AcDbLine
 62
7
  6
CONTINUOUS
 10
20.2077290681
 20
1.2016899681
 11
20.2074674401
 21
1.1428236749
  0
LINE
  5
221
100
AcDbEntity
  8
0
100
AcDbLine
 62
7
  6
CONTINUOUS
 10
20.208634907
 20
1.101141841
 11
20.2080230104
 21
0.963465087
  0
LINE
  5
222
100
AcDbEntity
  8
0
100
AcDbLine
 62
7
  6
CONTINUOUS
 10
20.0066328138
 20
1.1745147986
 11
20.1443095678
 21
1.1739029019
  0
LINE
  5
223
100
AcDbEntity
  8
0
100
AcDbLine
 62
7
  6
CONTINUOUS
 10
20.1832714155
 20
1.1727031207
 11
20.238153505
 21
1.172335442
  0
LINE
  5
224
100
AcDbEntity
  8
0
100
AcDbLine
 62
7
  6
CONTINUOUS
 10
20.2756669918
 20
1.1717972817
 11
20.407916871
 21
1.1712095044
  0
CIRCLE
  5
225
100
AcDbEntity
  8
0
100
AcDbCircle
 62
7
  6
CONTINUOUS
 10
20.7509457401
 20
1.1693297793
 40
0.1722024983
  0
CIRCLE
  5
226
100
AcDbEntity
  8
0
100
AcDbCircle
 62
7
  6
CONTINUOUS
 10
20.7509457401
 20
1.1693297793
 40
0.0985164967
  0
LINE
  5
227
100
AcDbEntity
  8
0
100
AcDbLine
 62
7
  6
CONTINUOUS
 10
20.7169767782
 20
1.170462078
 11
20.7825395137
 21
1.1682766535
  0
LINE
  5
228
100
AcDbEntity
  8
0
100
AcDbLine
 62
7
  6
CONTINUOUS
 10
20.8177513651
 20
1.1693297793
 11
20.947965719
 21
1.1693297793
  0
LINE
  5
229
100
AcDbEntity
  8
0
100
AcDbLine
 62
7
  6
CONTINUOUS
 10
20.6875370113
 20
1.170462078
 11
20.5573226574
 21
1.170462078
  0
LINE
  5
22A
100
AcDbEntity
  8
0
100
AcDbLine
 62
7
  6
CONTINUOUS
 10
20.7486811426
 20
1.1987695462
 11
20.7486811426
 21
1.1432869085
  0
LINE
  5
22B
100
AcDbEntity
  8
0
100
AcDbLine
 62
7
  6
CONTINUOUS
 10
20.7498134414
 20
1.1059210505
 11
20.7498134414
 21
0.9757066966
  0
LINE
  5
22C
100
AcDbEntity
  8
0
100
AcDbLine
 62
7
  6
CONTINUOUS
 10
20.7486811426
 20
1.2338708068
 11
20.7486811426
 21
1.3640851607
  0
LINE
  5
22D
100
AcDbEntity
  8
0
100
AcDbLine
 62
7
  6
CONTINUOUS
 10
21.0702539817
 20
1.2701043662
 11
21.4790138229
 21
1.3448360823
  0
LINE
  5
22E
100
AcDbEntity
  8
0
100
AcDbLine
 62
7
  6
CONTINUOUS
 10
21.4790138229
 20
1.3448360823
 11
21.4790138229
 21
0.9779712941
  0
LINE
  5
22F
100
AcDbEntity
  8
0
100
AcDbLine
 62
7
  6
CONTINUOUS
 10
21.4790138229
 20
0.9779712941
 11
21.069121683
 21
1.0617614
  0
LINE
  5
230
100
AcDbEntity
  8
0
100
AcDbLine
 62
7
  6
CONTINUOUS
 10
21.0702539817
 20
1.2701043662
 11
21.069121683
 21
1.0617614
  0
LINE
  5
231
100
AcDbEntity
  8
0
100
AcDbLine
 62
7
  6
CONTINUOUS
 10
21.4790138229
 20
1.1693297793
 11
21.3159628059
 21
1.1693297793
  0
LINE
  5
232
100
AcDbEntity
  8
0
100
AcDbLine
 62
7
  6
CONTINUOUS
 10
21.2876553377
 20
1.1693297793
 11
21.2502894796
 21
1.1693297793
  0
LINE
  5
233
100
AcDbEntity
  8
0
100
AcDbLine
 62
7
  6
CONTINUOUS
 10
21.2208497126
 20
1.1659328831
 11
21.0713862804
 21
1.1659328831
  0
LINE
  5
234
100
AcDbEntity
  8
0
100
AcDbLine
 62
7
  6
CONTINUOUS
 10
20.4796138713
 20
1.5284908897
 11
20.4766766948
 21
0.9294458646
  0
ENDBLK
  5
235
100
AcDbEntity
  8
0
  6
BYBLOCK
 62
0
100
AcDbBlockEnd
  0
BLOCK
  5
236
100
AcDbEntity
  8
0
100
AcDbBlockBegin
  2
*T1
 70
1
 10
0.0
 20
0.0
  3
*T1
  1

  0
LINE
  5
237
100
AcDbEntity
  8
0
100
AcDbLine
 62
2
  6
CONTINUOUS
 10
9.275
 20
0.0
 11
-0.0
 21
0.0
  0
LINE
  5
238
100
AcDbEntity
  8
0
100
AcDbLine
 62
2
  6
CONTINUOUS
 10
9.275
 20
0.0
 11
9.275
 21
1.25
  0
LINE
  5
239
100
AcDbEntity
  8
0
100
AcDbLine
 62
2
  6
CONTINUOUS
 10
9.275
 20
0.625
 11
-0.0
 21
0.625
  0
LINE
  5
23A
100
AcDbEntity
  8
0
100
AcDbLine
 62
2
  6
CONTINUOUS
 10
9.275
 20
1.25
 11
-0.0
 21
1.25
  0
LINE
  5
23B
100
AcDbEntity
  8
0
100
AcDbLine
 62
2
  6
CONTINUOUS
 10
6.8
 20
0.0
 11
6.8
 21
1.25
  0
LINE
  5
23C
100
AcDbEntity
  8
0
100
AcDbLine
 62
2
  6
CONTINUOUS
 10
6.4
 20
0.0
 11
6.4
 21
0.625
  0
LINE
  5
23D
100
AcDbEntity
  8
0
100
AcDbLine
 62
2
  6
CONTINUOUS
 10
5.9
 20
0.0
 11
5.9
 21
0.625
  0
LINE
  5
23E
100
AcDbEntity
  8
0
100
AcDbLine
 62
2
  6
CONTINUOUS
 10
5.2
 20
0.0
 11
5.2
 21
0.625
  0
LINE
  5
23F
100
AcDbEntity
  8
0
100
AcDbLine
 62
2
  6
CONTINUOUS
 10
4.1
 20
0.0
 11
4.1
 21
1.25
  0
LINE
  5
240
100
AcDbEntity
  8
0
100
AcDbLine
 62
2
  6
CONTINUOUS
 10
-0.0
 20
0.0
 11
-0.0
 21
1.25
  0
MTEXT
  5
241
100
AcDbEntity
  8
0
100
AcDbMText
 62
2
  6
CONTINUOUS
  7
STANDARD
 71
2
 72
1
 10
6.6
 20
0.325
 30
0.0
 11
1.0
 21
0.0
 31
0.0
 44
0.9
  1
2
 40
0.125
 41
0.2
  0
MTEXT
  5
242
100
AcDbEntity
  8
0
100
AcDbMText
 62
2
  6
CONTINUOUS
  7
STANDARD
 71
2
 72
1
 10
6.15
 20
0.325
 30
0.0
 11
1.0
 21
0.0
 31
0.0
 44
0.9
  1
C
 40
0.125
 41
0.2
  0
MTEXT
  5
243
100
AcDbEntity
  8
0
100
AcDbMText
 62
2
  6
CONTINUOUS
  7
STANDARD
 71
2
 72
1
 10
5.55
 20
0.325
 30
0.0
 11
1.0
 21
0.0
 31
0.0
 44
0.9
  1
1.000
 40
0.125
 41
1.0
  0
MTEXT
  5
244
100
AcDbEntity
  8
0
100
AcDbMText
 62
2
  6
CONTINUOUS
  7
STANDARD
 71
2
 72
1
 10
4.65
 20
0.325
 30
0.0
 11
1.0
 21
0.0
 31
0.0
 44
0.9
  1
Sep-27-21
 40
0.125
 41
1.8
  0
MTEXT
  5
245
100
AcDbEntity
  8
0
100
AcDbMText
 62
2
  6
CONTINUOUS
  7
STANDARD
 71
2
 72
1
 10
2.05
 20
0.4625
 30
0.0
 11
1.0
 21
0.0
 31
0.0
 44
0.9
  1
T-10A Subplate ISO 05\PP to T, check on P, side ports
 40
0.125
 41
6.0
  0
MTEXT
  5
246
100
AcDbEntity
  8
0
100
AcDbMText
 62
2
  6
CONTINUOUS
  7
STANDARD
 71
1
 72
1
 10
6.45
 20
0.5625
 30
0.0
 11
1.0
 21
0.0
 31
0.0
 44
0.9
  1
SHEET
 40
0.06
 41
0.48
  0
MTEXT
  5
247
100
AcDbEntity
  8
0
100
AcDbMText
 62
2
  6
CONTINUOUS
  7
STANDARD
 71
1
 72
1
 10
5.95
 20
0.5625
 30
0.0
 11
1.0
 21
0.0
 31
0.0
 44
0.9
  1
DWG SIZE
 40
0.06
 41
0.768
  0
MTEXT
  5
248
100
AcDbEntity
  8
0
100
AcDbMText
 62
2
  6
CONTINUOUS
  7
STANDARD
 71
1
 72
1
 10
5.25
 20
0.5625
 30
0.0
 11
1.0
 21
0.0
 31
0.0
 44
0.9
  1
SCALE
 40
0.06
 41
0.48
  0
MTEXT
  5
249
100
AcDbEntity
  8
0
100
AcDbMText
 62
2
  6
CONTINUOUS
  7
STANDARD
 71
1
 72
1
 10
4.15
 20
0.5625
 30
0.0
 11
1.0
 21
0.0
 31
0.0
 44
0.9
  1
DATE
 40
0.06
 41
0.384
  0
MTEXT
  5
24A
100
AcDbEntity
  8
0
100
AcDbMText
 62
2
  6
CONTINUOUS
  7
STANDARD
 71
1
 72
1
 10
0.05
 20
0.5625
 30
0.0
 11
1.0
 21
0.0
 31
0.0
 44
0.9
  1
DESCRIPTION
 40
0.06
 41
1.056
  0
MTEXT
  5
24B
100
AcDbEntity
  8
0
100
AcDbMText
 62
2
  6
CONTINUOUS
  7
STANDARD
 71
2
 72
1
 10
5.45
 20
1.0375
 30
0.0
 11
1.0
 21
0.0
 31
0.0
 44
0.9
  1
ALL DIMENSIONS IN INCH\PVIEWS ARE THIRD ANGLE
 40
0.12
 41
4.224
  0
MTEXT
  5
24C
100
AcDbEntity
  8
0
100
AcDbMText
 62
2
  6
CONTINUOUS
  7
STANDARD
 71
2
 72
1
 10
2.05
 20
0.95
 30
0.0
 11
1.0
 21
0.0
 31
0.0
 44
0.9
  1
WAY
 40
0.125
 41
0.6
  0
MTEXT
  5
24D
100
AcDbEntity
  8
0
100
AcDbMText
 62
2
  6
CONTINUOUS
  7
STANDARD
 71
1
 72
1
 10
0.05
 20
1.1875
 30
0.0
 11
1.0
 21
0.0
 31
0.0
 44
0.9
  1
MODEL
 40
0.06
 41
0.48
  0
ENDBLK
  5
24E
100
AcDbEntity
  8
0
  6
BYBLOCK
 62
0
100
AcDbBlockEnd
  0
BLOCK
  5
24F
100
AcDbEntity
  8
0
100
AcDbBlockBegin
  2
*T2
 70
1
 10
0.0
 20
0.0
  3
*T2
  1

  0
LINE
  5
250
100
AcDbEntity
  8
0
100
AcDbLine
 62
2
  6
CONTINUOUS
 10
0.0
 20
0.0
 11
9.055
 21
0.0
  0
LINE
  5
251
100
AcDbEntity
  8
0
100
AcDbLine
 62
2
  6
CONTINUOUS
 10
0.0
 20
0.0
 11
0.0
 21
-2.844
  0
LINE
  5
252
100
AcDbEntity
  8
0
100
AcDbLine
 62
2
  6
CONTINUOUS
 10
0.0
 20
-0.344
 11
9.055
 21
-0.344
  0
LINE
  5
253
100
AcDbEntity
  8
0
100
AcDbLine
 62
2
  6
CONTINUOUS
 10
0.0
 20
-0.594
 11
9.055
 21
-0.594
  0
LINE
  5
254
100
AcDbEntity
  8
0
100
AcDbLine
 62
2
  6
CONTINUOUS
 10
0.0
 20
-0.844
 11
9.055
 21
-0.844
  0
LINE
  5
255
100
AcDbEntity
  8
0
100
AcDbLine
 62
2
  6
CONTINUOUS
 10
0.0
 20
-1.094
 11
9.055
 21
-1.094
  0
LINE
  5
256
100
AcDbEntity
  8
0
100
AcDbLine
 62
2
  6
CONTINUOUS
 10
0.0
 20
-1.344
 11
9.055
 21
-1.344
  0
LINE
  5
257
100
AcDbEntity
  8
0
100
AcDbLine
 62
2
  6
CONTINUOUS
 10
0.0
 20
-1.594
 11
9.055
 21
-1.594
  0
LINE
  5
258
100
AcDbEntity
  8
0
100
AcDbLine
 62
2
  6
CONTINUOUS
 10
0.0
 20
-1.844
 11
9.055
 21
-1.844
  0
LINE
  5
259
100
AcDbEntity
  8
0
100
AcDbLine
 62
2
  6
CONTINUOUS
 10
0.0
 20
-2.094
 11
9.055
 21
-2.094
  0
LINE
  5
25A
100
AcDbEntity
  8
0
100
AcDbLine
 62
2
  6
CONTINUOUS
 10
0.0
 20
-2.344
 11
9.055
 21
-2.344
  0
LINE
  5
25B
100
AcDbEntity
  8
0
100
AcDbLine
 62
2
  6
CONTINUOUS
 10
0.0
 20
-2.594
 11
9.055
 21
-2.594
  0
LINE
  5
25C
100
AcDbEntity
  8
0
100
AcDbLine
 62
2
  6
CONTINUOUS
 10
0.0
 20
-2.844
 11
9.055
 21
-2.844
  0
LINE
  5
25D
100
AcDbEntity
  8
0
100
AcDbLine
 62
2
  6
CONTINUOUS
 10
3.055
 20
0.0
 11
3.055
 21
-2.844
  0
LINE
  5
25E
100
AcDbEntity
  8
0
100
AcDbLine
 62
2
  6
CONTINUOUS
 10
9.055
 20
0.0
 11
9.055
 21
-2.844
  0
MTEXT
  5
25F
100
AcDbEntity
  8
0
100
AcDbMText
 62
2
  6
CONTINUOUS
  7
STANDARD
 71
2
 72
1
 10
1.5275
 20
-0.0995
 30
0.0
 11
1.0
 21
0.0
 31
0.0
 44
0.9
  1
Technical Data
 40
0.145
 41
3.248
  0
MTEXT
  5
260
100
AcDbEntity
  8
0
100
AcDbMText
 62
2
  6
CONTINUOUS
  7
STANDARD
 71
2
 72
1
 10
4.555
 20
-0.0995
 30
0.0
 11
1.0
 21
0.0
 31
0.0
 44
0.9
  1
U.S. Units
 40
0.145
 41
2.32
  0
MTEXT
  5
261
100
AcDbEntity
  8
0
100
AcDbMText
 62
2
  6
CONTINUOUS
  7
STANDARD
 71
2
 72
1
 10
7.555
 20
-0.0995
 30
0.0
 11
1.0
 21
0.0
 31
0.0
 44
0.9
  1
Metric Units
 40
0.145
 41
2.784
  0
MTEXT
  5
262
100
AcDbEntity
  8
0
100
AcDbMText
 62
2
  6
CONTINUOUS
  7
STANDARD
 71
2
 72
1
 10
1.5275
 20
-0.4065
 30
0.0
 11
1.0
 21
0.0
 31
0.0
 44
0.9
  1
Cavity
 40
0.125
 41
1.2
  0
MTEXT
  5
263
100
AcDbEntity
  8
0
100
AcDbMText
 62
2
  6
CONTINUOUS
  7
STANDARD
 71
2
 72
1
 10
6.055
 20
-0.4065
 30
0.0
 11
1.0
 21
0.0
 31
0.0
 44
0.9
  1
T-10A
 40
0.125
 41
1.0
  0
MTEXT
  5
264
100
AcDbEntity
  8
0
100
AcDbMText
 62
2
  6
CONTINUOUS
  7
STANDARD
 71
2
 72
1
 10
1.5275
 20
-0.6565
 30
0.0
 11
1.0
 21
0.0
 31
0.0
 44
0.9
  1
Body Features
 40
0.125
 41
2.6
  0
MTEXT
  5
265
100
AcDbEntity
  8
0
100
AcDbMText
 62
2
  6
CONTINUOUS
  7
STANDARD
 71
2
 72
1
 10
6.055
 20
-0.6565
 30
0.0
 11
1.0
 21
0.0
 31
0.0
 44
0.9
  1
P to T, check on P, side ports
 40
0.125
 41
6.0
  0
MTEXT
  5
266
100
AcDbEntity
  8
0
100
AcDbMText
 62
2
  6
CONTINUOUS
  7
STANDARD
 71
2
 72
1
 10
1.5275
 20
-0.9065
 30
0.0
 11
1.0
 21
0.0
 31
0.0
 44
0.9
  1
Body Type
 40
0.125
 41
1.8
  0
MTEXT
  5
267
100
AcDbEntity
  8
0
100
AcDbMText
 62
2
  6
CONTINUOUS
  7
STANDARD
 71
2
 72
1
 10
6.055
 20
-0.9065
 30
0.0
 11
1.0
 21
0.0
 31
0.0
 44
0.9
  1
Subplate
 40
0.125
 41
1.6
  0
MTEXT
  5
268
100
AcDbEntity
  8
0
100
AcDbMText
 62
2
  6
CONTINUOUS
  7
STANDARD
 71
2
 72
1
 10
1.5275
 20
-1.1565
 30
0.0
 11
1.0
 21
0.0
 31
0.0
 44
0.9
  1
Interface
 40
0.125
 41
1.8
  0
MTEXT
  5
269
100
AcDbEntity
  8
0
100
AcDbMText
 62
2
  6
CONTINUOUS
  7
STANDARD
 71
2
 72
1
 10
6.055
 20
-1.1565
 30
0.0
 11
1.0
 21
0.0
 31
0.0
 44
0.9
  1
ISO 05
 40
0.125
 41
1.2
  0
MTEXT
  5
26A
100
AcDbEntity
  8
0
100
AcDbMText
 62
2
  6
CONTINUOUS
  7
STANDARD
 71
2
 72
1
 10
1.5275
 20
-1.4065
 30
0.0
 11
1.0
 21
0.0
 31
0.0
 44
0.9
  1
Open Cavity Quantity
 40
0.125
 41
4.0
  0
MTEXT
  5
26B
100
AcDbEntity
  8
0
100
AcDbMText
 62
2
  6
CONTINUOUS
  7
STANDARD
 71
2
 72
1
 10
6.055
 20
-1.4065
 30
0.0
 11
1.0
 21
0.0
 31
0.0
 44
0.9
  1
1
 40
0.125
 41
0.2
  0
MTEXT
  5
26C
100
AcDbEntity
  8
0
100
AcDbMText
 62
2
  6
CONTINUOUS
  7
STANDARD
 71
2
 72
1
 10
1.5275
 20
-1.6565
 30
0.0
 11
1.0
 21
0.0
 31
0.0
 44
0.9
  1
Weight
 40
0.125
 41
1.2
  0
MTEXT
  5
26D
100
AcDbEntity
  8
0
100
AcDbMText
 62
2
  6
CONTINUOUS
  7
STANDARD
 71
2
 72
1
 10
4.555
 20
-1.6565
 30
0.0
 11
1.0
 21
0.0
 31
0.0
 44
0.9
  1
5.132 lb.
 40
0.125
 41
1.8
  0
MTEXT
  5
26E
100
AcDbEntity
  8
0
100
AcDbMText
 62
2
  6
CONTINUOUS
  7
STANDARD
 71
2
 72
1
 10
7.555
 20
-1.6565
 30
0.0
 11
1.0
 21
0.0
 31
0.0
 44
0.9
  1
2,328 kg.
 40
0.125
 41
1.8
  0
MTEXT
  5
26F
100
AcDbEntity
  8
0
100
AcDbMText
 62
2
  6
CONTINUOUS
  7
STANDARD
 71
2
 72
1
 10
1.5275
 20
-1.9065
 30
0.0
 11
1.0
 21
0.0
 31
0.0
 44
0.9
  1
Mounting Hole Diameter
 40
0.125
 41
4.4
  0
MTEXT
  5
270
100
AcDbEntity
  8
0
100
AcDbMText
 62
2
  6
CONTINUOUS
  7
STANDARD
 71
2
 72
1
 10
4.555
 20
-1.9065
 30
0.0
 11
1.0
 21
0.0
 31
0.0
 44
0.9
  1
.44 in.
 40
0.125
 41
1.4
  0
MTEXT
  5
271
100
AcDbEntity
  8
0
100
AcDbMText
 62
2
  6
CONTINUOUS
  7
STANDARD
 71
2
 72
1
 10
7.555
 20
-1.9065
 30
0.0
 11
1.0
 21
0.0
 31
0.0
 44
0.9
  1
11,1 mm
 40
0.125
 41
1.4
  0
MTEXT
  5
272
100
AcDbEntity
  8
0
100
AcDbMText
 62
2
  6
CONTINUOUS
  7
STANDARD
 71
2
 72
1
 10
1.5275
 20
-2.1565
 30
0.0
 11
1.0
 21
0.0
 31
0.0
 44
0.9
  1
Mounting Hole Depth
 40
0.125
 41
3.8
  0
MTEXT
  5
273
100
AcDbEntity
  8
0
100
AcDbMText
 62
2
  6
CONTINUOUS
  7
STANDARD
 71
2
 72
1
 10
6.055
 20
-2.1565
 30
0.0
 11
1.0
 21
0.0
 31
0.0
 44
0.9
  1
Through
 40
0.125
 41
1.4
  0
MTEXT
  5
274
100
AcDbEntity
  8
0
100
AcDbMText
 62
2
  6
CONTINUOUS
  7
STANDARD
 71
2
 72
1
 10
1.5275
 20
-2.4065
 30
0.0
 11
1.0
 21
0.0
 31
0.0
 44
0.9
  1
Mounting Hole Quantity
 40
0.125
 41
4.4
  0
MTEXT
  5
275
100
AcDbEntity
  8
0
100
AcDbMText
 62
2
  6
CONTINUOUS
  7
STANDARD
 71
2
 72
1
 10
6.055
 20
-2.4065
 30
0.0
 11
1.0
 21
0.0
 31
0.0
 44
0.9
  1
4
 40
0.125
 41
0.2
  0
MTEXT
  5
276
100
AcDbEntity
  8
0
100
AcDbMText
 62
2
  6
CONTINUOUS
  7
STANDARD
 71
2
 72
1
 10
1.5275
 20
-2.6565
 30
0.0
 11
1.0
 21
0.0
 31
0.0
 44
0.9
  1
Includes integral cartridge(s)
 40
0.125
 41
6.0
  0
MTEXT
  5
277
100
AcDbEntity
  8
0
100
AcDbMText
 62
2
  6
CONTINUOUS
  7
STANDARD
 71
2
 72
1
 10
6.055
 20
-2.6565
 30
0.0
 11
1.0
 21
0.0
 31
0.0
 44
0.9
  1
Yes (see Included Components)
 40
0.125
 41
5.8
  0
ENDBLK
  5
278
100
AcDbEntity
  8
0
  6
BYBLOCK
 62
0
100
AcDbBlockEnd
  0
BLOCK
  5
279
100
AcDbEntity
  8
0
100
AcDbBlockBegin
  2
*T3
 70
1
 10
0.0
 20
0.0
  3
*T3
  1

  0
LINE
  5
27A
100
AcDbEntity
  8
0
100
AcDbLine
 62
2
  6
CONTINUOUS
 10
0.0
 20
0.0
 11
4.6
 21
0.0
  0
LINE
  5
27B
100
AcDbEntity
  8
0
100
AcDbLine
 62
2
  6
CONTINUOUS
 10
0.0
 20
0.0
 11
0.0
 21
-1.18775
  0
LINE
  5
27C
100
AcDbEntity
  8
0
100
AcDbLine
 62
2
  6
CONTINUOUS
 10
0.0
 20
-0.34375
 11
4.6
 21
-0.34375
  0
LINE
  5
27D
100
AcDbEntity
  8
0
100
AcDbLine
 62
2
  6
CONTINUOUS
 10
0.0
 20
-0.68775
 11
4.6
 21
-0.68775
  0
LINE
  5
27E
100
AcDbEntity
  8
0
100
AcDbLine
 62
2
  6
CONTINUOUS
 10
0.0
 20
-0.93775
 11
4.6
 21
-0.93775
  0
LINE
  5
27F
100
AcDbEntity
  8
0
100
AcDbLine
 62
2
  6
CONTINUOUS
 10
0.0
 20
-1.18775
 11
4.6
 21
-1.18775
  0
LINE
  5
280
100
AcDbEntity
  8
0
100
AcDbLine
 62
2
  6
CONTINUOUS
 10
1.3
 20
-0.34375
 11
1.3
 21
-1.18775
  0
LINE
  5
281
100
AcDbEntity
  8
0
100
AcDbLine
 62
2
  6
CONTINUOUS
 10
3.3
 20
-0.34375
 11
3.3
 21
-1.18775
  0
LINE
  5
282
100
AcDbEntity
  8
0
100
AcDbLine
 62
2
  6
CONTINUOUS
 10
4.6
 20
0.0
 11
4.6
 21
-1.18775
  0
MTEXT
  5
283
100
AcDbEntity
  8
0
100
AcDbMText
 62
2
  6
CONTINUOUS
  7
STANDARD
 71
2
 72
1
 10
2.3
 20
-0.099375
 30
0.0
 11
1.0
 21
0.0
 31
0.0
 44
0.9
  1
Port Headings
 40
0.145
 41
3.016
  0
MTEXT
  5
284
100
AcDbEntity
  8
0
100
AcDbMText
 62
2
  6
CONTINUOUS
  7
STANDARD
 71
2
 72
1
 10
0.65
 20
-0.44325
 30
0.0
 11
1.0
 21
0.0
 31
0.0
 44
0.9
  1
Product
 40
0.145
 41
1.624
  0
MTEXT
  5
285
100
AcDbEntity
  8
0
100
AcDbMText
 62
2
  6
CONTINUOUS
  7
STANDARD
 71
2
 72
1
 10
2.3
 20
-0.44325
 30
0.0
 11
1.0
 21
0.0
 31
0.0
 44
0.9
  1
Port
 40
0.145
 41
0.928
  0
MTEXT
  5
286
100
AcDbEntity
  8
0
100
AcDbMText
 62
2
  6
CONTINUOUS
  7
STANDARD
 71
2
 72
1
 10
3.95
 20
-0.44325
 30
0.0
 11
1.0
 21
0.0
 31
0.0
 44
0.9
  1
Size
 40
0.145
 41
0.928
  0
MTEXT
  5
287
100
AcDbEntity
  8
0
100
AcDbMText
 62
2
  6
CONTINUOUS
  7
STANDARD
 71
2
 72
1
 10
0.65
 20
-0.75025
 30
0.0
 11
1.0
 21
0.0
 31
0.0
 44
0.9
  1
WAY
 40
0.125
 41
0.6
  0
MTEXT
  5
288
100
AcDbEntity
  8
0
100
AcDbMText
 62
2
  6
CONTINUOUS
  7
STANDARD
 71
2
 72
1
 10
2.3
 20
-0.75025
 30
0.0
 11
1.0
 21
0.0
 31
0.0
 44
0.9
  1
Ports A, B, P, T
 40
0.125
 41
3.2
  0
MTEXT
  5
289
100
AcDbEntity
  8
0
100
AcDbMText
 62
2
  6
CONTINUOUS
  7
STANDARD
 71
2
 72
1
 10
3.95
 20
-0.75025
 30
0.0
 11
1.0
 21
0.0
 31
0.0
 44
0.9
  1
3/4" BSPP
 40
0.125
 41
1.8
  0
MTEXT
  5
28A
100
AcDbEntity
  8
0
100
AcDbMText
 62
2
  6
CONTINUOUS
  7
STANDARD
 71
2
 72
1
 10
0.65
 20
-1.00025
 30
0.0
 11
1.0
 21
0.0
 31
0.0
 44
0.9
  1
WAY
 40
0.125
 41
0.6
  0
MTEXT
  5
28B
100
AcDbEntity
  8
0
100
AcDbMText
 62
2
  6
CONTINUOUS
  7
STANDARD
 71
2
 72
1
 10
2.3
 20
-1.00025
 30
0.0
 11
1.0
 21
0.0
 31
0.0
 44
0.9
  1
Port G
 40
0.125
 41
1.2
  0
MTEXT
  5
28C
100
AcDbEntity
  8
0
100
AcDbMText
 62
2
  6
CONTINUOUS
  7
STANDARD
 71
2
 72
1
 10
3.95
 20
-1.00025
 30
0.0
 11
1.0
 21
0.0
 31
0.0
 44
0.9
  1
1/4" BSPP
 40
0.125
 41
1.8
  0
ENDBLK
  5
28D
100
AcDbEntity
  8
0
  6
BYBLOCK
 62
0
100
AcDbBlockEnd
  0
ENDSEC
  0
SECTION
  2
ENTITIES
  0
IMAGE
  5
28E
100
AcDbEntity
  8
0
100
AcDbRasterImage
 62
7
  6
CONTINUOUS
 10
19.2297077316
 20
0.3094318264
 30
0.0
 11
0.0066666667
 21
0.0
 31
0.0
 12
0.0
 22
0.0066666667
 32
0.0
 13
369.0
 23
92.0
340
       3EA
 70
9
280
0
281
50
282
50
283
0
360
       3E4
 71
1
 91
2
 14
-0.5
 24
-0.5
 14
368.5
 24
91.5
  0
INSERT
  5
28F
100
AcDbEntity
  8
0
100
AcDbBlockReference
 62
2
  6
CONTINUOUS
  2
SUN_FIRST_THIRD_ANGLE_BL0
 10
20.4816717061
 20
1.2289683772
  0
ACAD_TABLE
  5
290
100
AcDbEntity
  8
0
 62
2
  6
CONTINUOUS
100
AcDbBlockReference
  2
*T1
 10
12.42375
 20
0.30125
 30
0.0
100
AcDbTable
342
       3EC
343
20F
 11
1.0
 21
0.0
 31
0.0
 90
6
 91
4
 92
6
 93
20
 94
0
 95
0
 96
0
 70
1
 41
0.0
141
0.525
141
0.1
141
0.525
141
0.1
142
4.1
142
1.1
142
0.7
142
0.5
142
0.4
142
2.475
171
1
172
0
173
0
174
0
175
1
176
1
 91
33
178
0
145
0.0
301
CELL_VALUE
 90
4
  1
T-10A Subplate ISO 05\PP to T, check on P, side ports
304
ACVALUE_END
170
2
140
0.125
171
1
172
0
173
0
174
0
175
1
176
1
 91
33
178
0
145
0.0
301
CELL_VALUE
 90
4
  1
Sep-27-21
304
ACVALUE_END
170
5
140
0.125
171
1
172
0
173
0
174
0
175
1
176
1
 91
33
178
0
145
0.0
301
CELL_VALUE
 90
4
  1
1.000
304
ACVALUE_END
170
5
140
0.125
171
1
172
0
173
0
174
0
175
1
176
1
 91
33
178
0
145
0.0
301
CELL_VALUE
 90
4
  1
C
304
ACVALUE_END
170
5
140
0.125
171
1
172
0
173
0
174
0
175
1
176
1
 91
33
178
0
145
0.0
301
CELL_VALUE
 90
4
  1
2
304
ACVALUE_END
170
5
140
0.125
171
1
172
0
173
0
174
0
175
1
176
1
 91
33
178
0
145
0.0
301
CELL_VALUE
 90
4
  1
 
304
ACVALUE_END
170
1
140
0.125
171
1
172
0
173
0
174
0
175
1
176
1
 91
33
178
0
145
0.0
301
CELL_VALUE
 90
4
  1
DESCRIPTION
304
ACVALUE_END
170
1
140
0.06
171
1
172
0
173
0
174
0
175
1
176
1
 91
33
178
0
145
0.0
301
CELL_VALUE
 90
4
  1
DATE
304
ACVALUE_END
170
1
140
0.06
171
1
172
0
173
0
174
0
175
1
176
1
 91
33
178
0
145
0.0
301
CELL_VALUE
 90
4
  1
SCALE
304
ACVALUE_END
170
1
140
0.06
171
1
172
0
173
0
174
0
175
1
176
1
 91
33
178
0
145
0.0
301
CELL_VALUE
 90
4
  1
DWG SIZE
304
ACVALUE_END
170
1
140
0.06
171
1
172
0
173
0
174
0
175
1
176
1
 91
33
178
0
145
0.0
301
CELL_VALUE
 90
4
  1
SHEET
304
ACVALUE_END
170
1
140
0.06
171
1
172
0
173
0
174
0
175
1
176
1
 91
33
178
0
145
0.0
301
CELL_VALUE
 90
4
  1
 
304
ACVALUE_END
170
1
140
0.125
171
1
172
0
173
0
174
0
175
1
176
1
 91
33
178
0
145
0.0
301
CELL_VALUE
 90
4
  1
WAY
304
ACVALUE_END
170
5
140
0.125
171
1
172
0
173
0
174
0
175
4
176
1
 91
33
178
0
145
0.0
301
CELL_VALUE
 90
4
  1
ALL DIMENSIONS IN INCH\PVIEWS ARE THIRD ANGLE
304
ACVALUE_END
170
5
140
0.12
171
1
172
0
173
1
174
0
175
1
176
1
 91
1
178
0
145
0.0
170
1
171
1
172
0
173
1
174
0
175
1
176
1
 91
1
178
0
145
0.0
170
1
171
1
172
0
173
1
174
0
175
1
176
1
 91
1
178
0
145
0.0
170
5
171
1
172
0
173
0
174
0
175
1
176
1
 91
33
178
0
145
0.0
301
CELL_VALUE
 90
4
  1
 
304
ACVALUE_END
170
1
140
0.125
171
1
172
0
173
0
174
0
175
1
176
1
 91
33
178
0
145
0.0
301
CELL_VALUE
 90
4
  1
MODEL
304
ACVALUE_END
170
1
140
0.06
171
1
172
0
173
0
174
0
175
1
176
1
 91
33
178
0
145
0.0
301
CELL_VALUE
 90
4
  1
 
304
ACVALUE_END
170
1
140
0.125
171
1
172
0
173
0
174
0
175
1
176
1
 91
33
178
0
145
0.0
301
CELL_VALUE
 90
4
  1
 
304
ACVALUE_END
170
1
140
0.125
171
1
172
0
173
0
174
0
175
1
176
1
 91
33
178
0
145
0.0
301
CELL_VALUE
 90
4
  1
 
304
ACVALUE_END
170
1
140
0.125
171
1
172
0
173
0
174
0
175
1
176
1
 91
33
178
0
145
0.0
301
CELL_VALUE
 90
4
  1
 
304
ACVALUE_END
170
1
140
0.125
171
1
172
0
173
0
174
0
175
1
176
1
 91
33
178
0
145
0.0
301
CELL_VALUE
 90
4
  1
 
304
ACVALUE_END
170
1
140
0.125
  0
ACAD_TABLE
  5
291
100
AcDbEntity
  8
0
 62
2
  6
CONTINUOUS
100
AcDbBlockReference
  2
*T2
 10
12.4237499994
 20
16.47875
 30
0.0
100
AcDbTable
342
       3EB
343
210
 11
1.0
 21
0.0
 31
0.0
 90
22
 91
11
 92
3
 93
16
 94
0
 95
0
 96
0
 41
0.028
141
0.344
141
0.25
141
0.25
141
0.25
141
0.25
141
0.25
141
0.25
141
0.25
141
0.25
141
0.25
141
0.25
142
3.055
142
3.0
142
3.0
171
1
172
0
173
0
174
0
175
1
176
1
 91
33
178
0
145
0.0
301
CELL_VALUE
 90
4
  1
Technical Data
304
ACVALUE_END
170
5
140
0.145
171
1
172
0
173
0
174
0
175
1
176
1
 91
33
178
0
145
0.0
301
CELL_VALUE
 90
4
  1
U.S. Units
304
ACVALUE_END
170
5
140
0.145
171
1
172
0
173
0
174
0
175
1
176
1
 91
33
178
0
145
0.0
301
CELL_VALUE
 90
4
  1
Metric Units
304
ACVALUE_END
170
5
140
0.145
171
1
172
0
173
0
174
0
175
1
176
1
 91
33
178
0
145
0.0
301
CELL_VALUE
 90
4
  1
Cavity
304
ACVALUE_END
170
5
140
0.125
171
1
172
0
173
0
174
0
175
2
176
1
 91
33
178
0
145
0.0
301
CELL_VALUE
 90
4
  1
T-10A
304
ACVALUE_END
170
5
140
0.125
171
1
172
0
173
1
174
0
175
1
176
1
 91
1
178
0
145
0.0
170
1
171
1
172
0
173
0
174
0
175
1
176
1
 91
33
178
0
145
0.0
301
CELL_VALUE
 90
4
  1
Body Features
304
ACVALUE_END
170
5
140
0.125
171
1
172
0
173
0
174
0
175
2
176
1
 91
33
178
0
145
0.0
301
CELL_VALUE
 90
4
  1
P to T, check on P, side ports
304
ACVALUE_END
170
5
140
0.125
171
1
172
0
173
1
174
0
175
1
176
1
 91
1
178
0
145
0.0
170
1
171
1
172
0
173
0
174
0
175
1
176
1
 91
33
178
0
145
0.0
301
CELL_VALUE
 90
4
  1
Body Type
304
ACVALUE_END
170
5
140
0.125
171
1
172
0
173
0
174
0
175
2
176
1
 91
33
178
0
145
0.0
301
CELL_VALUE
 90
4
  1
Subplate
304
ACVALUE_END
170
5
140
0.125
171
1
172
0
173
1
174
0
175
1
176
1
 91
1
178
0
145
0.0
170
1
171
1
172
0
173
0
174
0
175
1
176
1
 91
33
178
0
145
0.0
301
CELL_VALUE
 90
4
  1
Interface
304
ACVALUE_END
170
5
140
0.125
171
1
172
0
173
0
174
0
175
2
176
1
 91
33
178
0
145
0.0
301
CELL_VALUE
 90
4
  1
ISO 05
304
ACVALUE_END
170
5
140
0.125
171
1
172
0
173
1
174
0
175
1
176
1
 91
1
178
0
145
0.0
170
1
171
1
172
0
173
0
174
0
175
1
176
1
 91
33
178
0
145
0.0
301
CELL_VALUE
 90
4
  1
Open Cavity Quantity
304
ACVALUE_END
170
5
140
0.125
171
1
172
0
173
0
174
0
175
2
176
1
 91
33
178
0
145
0.0
301
CELL_VALUE
 90
4
  1
1
304
ACVALUE_END
170
5
140
0.125
171
1
172
0
173
1
174
0
175
1
176
1
 91
1
178
0
145
0.0
170
1
171
1
172
0
173
0
174
0
175
1
176
1
 91
33
178
0
145
0.0
301
CELL_VALUE
 90
4
  1
Weight
304
ACVALUE_END
170
5
140
0.125
171
1
172
0
173
0
174
0
175
1
176
1
 91
33
178
0
145
0.0
301
CELL_VALUE
 90
4
  1
5.132 lb.
304
ACVALUE_END
170
5
140
0.125
171
1
172
0
173
0
174
0
175
1
176
1
 91
33
178
0
145
0.0
301
CELL_VALUE
 90
4
  1
2,328 kg.
304
ACVALUE_END
170
5
140
0.125
171
1
172
0
173
0
174
0
175
1
176
1
 91
33
178
0
145
0.0
301
CELL_VALUE
 90
4
  1
Mounting Hole Diameter
304
ACVALUE_END
170
5
140
0.125
171
1
172
0
173
0
174
0
175
1
176
1
 91
33
178
0
145
0.0
301
CELL_VALUE
 90
4
  1
.44 in.
304
ACVALUE_END
170
5
140
0.125
171
1
172
0
173
0
174
0
175
1
176
1
 91
33
178
0
145
0.0
301
CELL_VALUE
 90
4
  1
11,1 mm
304
ACVALUE_END
170
5
140
0.125
171
1
172
0
173
0
174
0
175
1
176
1
 91
33
178
0
145
0.0
301
CELL_VALUE
 90
4
  1
Mounting Hole Depth
304
ACVALUE_END
170
5
140
0.125
171
1
172
0
173
0
174
0
175
2
176
1
 91
33
178
0
145
0.0
301
CELL_VALUE
 90
4
  1
Through
304
ACVALUE_END
170
5
140
0.125
171
1
172
0
173
1
174
0
175
1
176
1
 91
1
178
0
145
0.0
170
1
171
1
172
0
173
0
174
0
175
1
176
1
 91
33
178
0
145
0.0
301
CELL_VALUE
 90
4
  1
Mounting Hole Quantity
304
ACVALUE_END
170
5
140
0.125
171
1
172
0
173
0
174
0
175
2
176
1
 91
33
178
0
145
0.0
301
CELL_VALUE
 90
4
  1
4
304
ACVALUE_END
170
5
140
0.125
171
1
172
0
173
1
174
0
175
1
176
1
 91
1
178
0
145
0.0
170
1
171
1
172
0
173
0
174
0
175
1
176
1
 91
33
178
0
145
0.0
301
CELL_VALUE
 90
4
  1
Includes integral cartridge(s)
304
ACVALUE_END
170
5
140
0.125
171
1
172
0
173
0
174
0
175
2
176
1
 91
33
178
0
145
0.0
301
CELL_VALUE
 90
4
  1
Yes (see Included Components)
304
ACVALUE_END
170
5
140
0.125
171
1
172
0
173
1
174
0
175
1
176
1
 91
1
178
0
145
0.0
170
1
  0
ACAD_TABLE
  5
292
100
AcDbEntity
  8
0
 62
2
  6
CONTINUOUS
100
AcDbBlockReference
  2
*T3
 10
0.52125
 20
1.709
 30
0.0
100
AcDbTable
342
       3EB
343
211
 11
1.0
 21
0.0
 31
0.0
 90
22
 91
4
 92
3
 93
16
 94
0
 95
0
 96
0
 41
0.05
141
0.34375
141
0.344
141
0.25
141
0.25
142
1.3
142
2.0
142
1.3
171
1
172
0
173
0
174
0
175
3
176
1
 91
33
178
0
145
0.0
301
CELL_VALUE
 90
4
  1
Port Headings
304
ACVALUE_END
170
5
140
0.145
171
1
172
0
173
1
174
0
175
1
176
1
 91
1
178
0
145
0.0
170
1
171
1
172
0
173
1
174
0
175
1
176
1
 91
1
178
0
145
0.0
170
1
171
1
172
0
173
0
174
0
175
1
176
1
 91
33
178
0
145
0.0
301
CELL_VALUE
 90
4
  1
Product
304
ACVALUE_END
170
5
140
0.145
171
1
172
0
173
0
174
0
175
1
176
1
 91
33
178
0
145
0.0
301
CELL_VALUE
 90
4
  1
Port
304
ACVALUE_END
170
5
140
0.145
171
1
172
0
173
0
174
0
175
1
176
1
 91
33
178
0
145
0.0
301
CELL_VALUE
 90
4
  1
Size
304
ACVALUE_END
170
5
140
0.145
171
1
172
0
173
0
174
0
175
1
176
1
 91
33
178
0
145
0.0
301
CELL_VALUE
 90
4
  1
WAY
304
ACVALUE_END
170
5
140
0.125
171
1
172
0
173
0
174
0
175
1
176
1
 91
33
178
0
145
0.0
301
CELL_VALUE
 90
4
  1
Ports A, B, P, T
304
ACVALUE_END
170
5
140
0.125
171
1
172
0
173
0
174
0
175
1
176
1
 91
33
178
0
145
0.0
301
CELL_VALUE
 90
4
  1
3/4" BSPP
304
ACVALUE_END
170
5
140
0.125
171
1
172
0
173
0
174
0
175
1
176
1
 91
33
178
0
145
0.0
301
CELL_VALUE
 90
4
  1
WAY
304
ACVALUE_END
170
5
140
0.125
171
1
172
0
173
0
174
0
175
1
176
1
 91
33
178
0
145
0.0
301
CELL_VALUE
 90
4
  1
Port G
304
ACVALUE_END
170
5
140
0.125
171
1
172
0
173
0
174
0
175
1
176
1
 91
33
178
0
145
0.0
301
CELL_VALUE
 90
4
  1
1/4" BSPP
304
ACVALUE_END
170
5
140
0.125
  0
MTEXT
  5
293
100
AcDbEntity
  8
0
100
AcDbMText
 62
2
  6
CONTINUOUS
  7
STANDARD
 71
1
 72
1
 10
0.52125
 20
5.75995
 30
0.0
 11
1.0
 21
0.0
 31
0.0
 44
0.6
  3
Notes\P \P1. Important: Carefully consider\P   the maximum system pressure. The\P   pressure rating of the manifold is\P   dependent on the manifold material,\P   with the port type/size a secondary\P   consideration. Manifolds\P   constructed of alu
  1
minum are not\P   rated for pressures higher than\P   3000 psi (210 bar), regardless of\P   the port type/size specified.
 40
0.1
 41
3.04
  0
LINE
  5
294
100
AcDbEntity
  8
0
100
AcDbLine
 62
7
  6
CONTINUOUS
 10
0.30125
 20
0.30125
 11
0.30125
 21
16.69875
  0
LINE
  5
295
100
AcDbEntity
  8
0
100
AcDbLine
 62
7
  6
CONTINUOUS
 10
0.30125
 20
0.30125
 11
21.69875
 21
0.30125
  0
LINE
  5
296
100
AcDbEntity
  8
0
100
AcDbLine
 62
7
  6
CONTINUOUS
 10
0.30125
 20
16.69875
 11
21.69875
 21
16.69875
  0
LINE
  5
297
100
AcDbEntity
  8
0
100
AcDbLine
 62
7
  6
CONTINUOUS
 10
21.69875
 20
0.30125
 11
21.69875
 21
16.69875
  0
LINE
  5
298
100
AcDbEntity
  8
0
100
AcDbLine
 62
7
  6
CONTINUOUS
 10
8.6555910202
 20
10.2102208996
 11
9.4807054457
 21
11.00722028
  0
LINE
  5
299
100
AcDbEntity
  8
0
100
AcDbLine
 62
7
  6
CONTINUOUS
 10
12.5192945543
 20
5.5956056736
 11
8.6555910202
 21
5.8635544238
  0
LINE
  5
29A
100
AcDbEntity
  8
0
100
AcDbLine
 62
4
  6
CONTINUOUS
 10
10.8786004423
 20
5.7847304302
 11
10.8372036118
 21
5.7876013101
  0
LINE
  5
29B
100
AcDbEntity
  8
0
100
AcDbLine
 62
4
  6
CONTINUOUS
 10
10.7875274483
 20
5.7910463637
 11
10.7626893389
 21
5.7927688925
  0
LINE
  5
29C
100
AcDbEntity
  8
0
100
AcDbLine
 62
4
  6
CONTINUOUS
 10
10.6992142319
 20
5.7971709061
 11
10.6660967896
 21
5.7994676085
  0
LINE
  5
29D
100
AcDbEntity
  8
0
100
AcDbLine
 62
4
  6
CONTINUOUS
 10
10.2134915072
 20
5.8308558915
 11
10.1720946904
 21
5.8337267705
  0
LINE
  5
29E
100
AcDbEntity
  8
0
100
AcDbLine
 62
4
  6
CONTINUOUS
 10
10.4756713856
 20
5.8126736551
 11
10.5253475767
 21
5.8092285996
  0
LINE
  5
29F
100
AcDbEntity
  8
0
100
AcDbLine
 62
4
  6
CONTINUOUS
 10
10.9420756046
 20
5.7803284127
 11
10.9917517681
 21
5.7768833591
  0
LINE
  5
2A0
100
AcDbEntity
  8
0
100
AcDbLine
 62
4
  6
CONTINUOUS
 10
10.1058597712
 20
5.8879963654
 11
10.1500163829
 21
5.8628557881
  0
LINE
  5
2A1
100
AcDbEntity
  8
0
100
AcDbLine
 62
7
  6
CONTINUOUS
 10
11.0674295046
 20
11.3181189337
 11
11.0866474359
 21
11.3276122237
  0
LINE
  5
2A2
100
AcDbEntity
  8
0
100
AcDbLine
 62
4
  6
CONTINUOUS
 10
10.2880057869
 20
5.8588057682
 11
10.3321623951
 21
5.855743497
  0
LINE
  5
2A3
100
AcDbEntity
  8
0
100
AcDbLine
 62
4
  6
CONTINUOUS
 10
10.975193047
 20
5.8442666295
 11
10.9420756046
 21
5.8465633319
  0
LINE
  5
2A4
100
AcDbEntity
  8
0
100
AcDbLine
 62
4
  6
CONTINUOUS
 10
10.5087888556
 20
5.87661187
 11
10.4756713856
 21
5.8789085744
  0
LINE
  5
2A5
100
AcDbEntity
  8
0
100
AcDbLine
 62
4
  6
CONTINUOUS
 10
10.1720946904
 20
5.9496378739
 11
10.2134915072
 21
5.9467669949
  0
LINE
  5
2A6
100
AcDbEntity
  8
0
100
AcDbLine
 62
4
  6
CONTINUOUS
 10
10.3763190033
 20
5.9354748697
 11
10.4425539156
 21
5.9308814629
  0
LINE
  5
2A7
100
AcDbEntity
  8
0
100
AcDbLine
 62
4
  6
CONTINUOUS
 10
10.4756713856
 20
5.9285847586
 11
10.5253475767
 21
5.925139703
  0
LINE
  5
2A8
100
AcDbEntity
  8
0
100
AcDbLine
 62
4
  6
CONTINUOUS
 10
10.6660967896
 20
5.915378712
 11
10.6992142319
 21
5.9130820095
  0
LINE
  5
2A9
100
AcDbEntity
  8
0
100
AcDbLine
 62
4
  6
CONTINUOUS
 10
10.7626893389
 20
5.9086799959
 11
10.7875274483
 21
5.9069574672
  0
LINE
  5
2AA
100
AcDbEntity
  8
0
100
AcDbLine
 62
4
  6
CONTINUOUS
 10
10.8372036118
 20
5.9035124135
 11
10.8786004423
 21
5.9006415336
  0
LINE
  5
2AB
100
AcDbEntity
  8
0
100
AcDbLine
 62
4
  6
CONTINUOUS
 10
10.9420756046
 20
5.8962395161
 11
10.9917517681
 21
5.8927944625
  0
LINE
  5
2AC
100
AcDbEntity
  8
0
100
AcDbLine
 62
7
  6
CONTINUOUS
 10
8.6555910202
 20
10.2102208996
 11
8.6555910202
 21
5.8635544238
  0
LINE
  5
2AD
100
AcDbEntity
  8
02___PRT_ALL_AXES
100
AcDbLine
 62
7
  6
CONTINUOUS
 10
10.0435294629
 20
10.6889570183
 11
10.0888108191
 21
10.7310960738
  0
LINE
  5
2AE
100
AcDbEntity
  8
0
100
AcDbLine
 62
4
  6
CONTINUOUS
 10
10.594342237
 20
6.0925656908
 11
10.638498859
 21
6.0895034187
  0
LINE
  5
2AF
100
AcDbEntity
  8
0
100
AcDbLine
 62
4
  6
CONTINUOUS
 10
11.0248692104
 20
5.8463411519
 11
11.0690258186
 21
5.8212005731
  0
LINE
  5
2B0
100
AcDbEntity
  8
0
100
AcDbLine
 62
4
  6
CONTINUOUS
 10
10.2134915072
 20
5.9467669949
 11
10.2300502352
 21
5.9290599151
  0
LINE
  5
2B1
100
AcDbEntity
  8
0
100
AcDbLine
 62
7
  6
CONTINUOUS
 10
10.1779901962
 20
10.7437456325
 11
10.1406329157
 21
10.7076612684
  0
LINE
  5
2B2
100
AcDbEntity
  8
0
100
AcDbLine
 62
7
  6
CONTINUOUS
 10
10.3821143866
 20
10.6909144715
 11
10.4194716671
 21
10.7269988357
  0
LINE
  5
2B3
100
AcDbEntity
  8
0
100
AcDbLine
 62
4
  6
CONTINUOUS
 10
10.4922301146
 20
6.375074049
 11
10.5087888358
 21
6.3739256978
  0
LINE
  5
2B4
100
AcDbEntity
  8
0
100
AcDbLine
 62
4
  6
CONTINUOUS
 10
11.0469475777
 20
6.3642021442
 11
11.0138300248
 21
6.3664988543
  0
LINE
  5
2B5
100
AcDbEntity
  8
0
100
AcDbLine
 62
4
  6
CONTINUOUS
 10
10.9117179202
 20
6.3735803528
 11
10.895159199
 21
6.374728704
  0
LINE
  5
2B6
100
AcDbEntity
  8
0
100
AcDbLine
 62
4
  6
CONTINUOUS
 10
10.7709687073
 20
6.3833413438
 11
10.737851265
 21
6.3856380463
  0
LINE
  5
2B7
100
AcDbEntity
  8
0
100
AcDbLine
 62
4
  6
CONTINUOUS
 10
10.6136607734
 20
6.3942506861
 11
10.580543331
 21
6.3965473885
  0
LINE
  5
2B8
100
AcDbEntity
  8
0
100
AcDbLine
 62
4
  6
CONTINUOUS
 10
10.053423787
 20
6.4331032531
 11
10.0865412457
 21
6.4308065495
  0
LINE
  5
2B9
100
AcDbEntity
  8
0
100
AcDbLine
 62
4
  6
CONTINUOUS
 10
10.152776158
 20
6.4262131427
 11
10.1776142605
 21
6.4244906145
  0
LINE
  5
2BA
100
AcDbEntity
  8
0
100
AcDbLine
 62
4
  6
CONTINUOUS
 10
10.8123655379
 20
6.3804704639
 11
10.8537623684
 21
6.3775995839
  0
LINE
  5
2BB
100
AcDbEntity
  8
0
100
AcDbLine
 62
4
  6
CONTINUOUS
 10
11.088344353
 20
6.3613312681
 11
11.1214617953
 21
6.3590345656
  0
LINE
  5
2BC
100
AcDbEntity
  8
0
100
AcDbLine
 62
4
  6
CONTINUOUS
 10
10.737851265
 20
6.4270348699
 11
10.7709687073
 21
6.4247381675
  0
LINE
  5
2BD
100
AcDbEntity
  8
0
100
AcDbLine
 62
4
  6
CONTINUOUS
 10
10.7626893744
 20
6.4667091648
 11
10.7212925438
 21
6.4695800448
  0
LINE
  5
2BE
100
AcDbEntity
  8
0
100
AcDbLine
 62
4
  6
CONTINUOUS
 10
10.4094364535
 20
6.4912073381
 11
10.4508332841
 21
6.4883364581
  0
LINE
  5
2BF
100
AcDbEntity
  8
0
100
AcDbLine
 62
4
  6
CONTINUOUS
 10
10.580543331
 20
6.4793410358
 11
10.6136607734
 21
6.4770443334
  0
LINE
  5
2C0
100
AcDbEntity
  8
0
100
AcDbLine
 62
4
  6
CONTINUOUS
 10
10.646778271
 20
6.4747476271
 11
10.6798957133
 21
6.4724509247
  0
LINE
  5
2C1
100
AcDbEntity
  8
0
100
AcDbLine
 62
4
  6
CONTINUOUS
 10
11.0138300248
 20
6.4492925015
 11
11.0469475777
 21
6.4469957915
  0
LINE
  5
2C2
100
AcDbEntity
  8
0
100
AcDbLine
 62
4
  6
CONTINUOUS
 10
11.088344353
 20
6.4441249153
 11
11.1214617953
 21
6.4418282129
  0
LINE
  5
2C3
100
AcDbEntity
  8
0
100
AcDbLine
 62
4
  6
CONTINUOUS
 10
10.0617031519
 20
6.5484401806
 11
10.0948206097
 21
6.5461434771
  0
LINE
  5
2C4
100
AcDbEntity
  8
0
100
AcDbLine
 62
4
  6
CONTINUOUS
 10
10.9613940837
 20
6.4860464026
 11
10.9641538613
 21
6.4858550113
  0
LINE
  5
2C5
100
AcDbEntity
  8
0
100
AcDbLine
 62
4
  6
CONTINUOUS
 10
11.1214617953
 20
6.3976716013
 11
11.088344353
 21
6.4054878797
  0
LINE
  5
2C6
100
AcDbEntity
  8
0
100
AcDbLine
 62
4
  6
CONTINUOUS
 10
10.580543331
 20
6.3965473885
 11
10.5639846099
 21
6.4059751046
  0
LINE
  5
2C7
100
AcDbEntity
  8
0
100
AcDbLine
 62
4
  6
CONTINUOUS
 10
10.737851265
 20
6.3856380463
 11
10.7212925438
 21
6.3950657624
  0
LINE
  5
2C8
100
AcDbEntity
  8
0
100
AcDbLine
 62
4
  6
CONTINUOUS
 10
10.1030999738
 20
6.4627756574
 11
10.0451444221
 21
6.5164710763
  0
LINE
  5
2C9
100
AcDbEntity
  8
0
100
AcDbLine
 62
4
  6
CONTINUOUS
 10
10.0451444221
 20
6.4419567939
 11
10.053423787
 21
6.4331032531
  0
LINE
  5
2CA
100
AcDbEntity
  8
0
100
AcDbLine
 62
4
  6
CONTINUOUS
 10
10.6660967896
 20
5.7994676085
 11
10.6495380684
 21
5.8171746895
  0
LINE
  5
2CB
100
AcDbEntity
  8
0
100
AcDbLine
 62
4
  6
CONTINUOUS
 10
10.1362174299
 20
6.4439202242
 11
10.152776158
 21
6.4262131427
  0
LINE
  5
2CC
100
AcDbEntity
  8
0
100
AcDbLine
 62
4
  6
CONTINUOUS
 10
10.7626893389
 20
5.7927688925
 11
10.7461306177
 21
5.8104759735
  0
LINE
  5
2CD
100
AcDbEntity
  8
0
100
AcDbLine
 62
4
  6
CONTINUOUS
 10
10.0948206097
 20
6.5461434771
 11
10.1030999738
 21
6.5372899338
  0
LINE
  5
2CE
100
AcDbEntity
  8
0
100
AcDbLine
 62
7
  6
CONTINUOUS
 10
10.5505115388
 20
10.6985736395
 11
10.5498125893
 21
10.6979112114
  0
LINE
  5
2CF
100
AcDbEntity
  8
0
100
AcDbLine
 62
4
  6
CONTINUOUS
 10
10.6591470204
 20
10.4405074703
 11
10.6441380116
 21
10.4335098801
  0
LINE
  5
2D0
100
AcDbEntity
  8
0
100
AcDbLine
 62
4
  6
CONTINUOUS
 10
10.7875274483
 20
5.9069574672
 11
10.8040861695
 21
5.8892503879
  0
LINE
  5
2D1
100
AcDbEntity
  8
0
100
AcDbLine
 62
4
  6
CONTINUOUS
 10
10.8786004423
 20
5.9006415336
 11
10.8951591635
 21
5.8829344543
  0
LINE
  5
2D2
100
AcDbEntity
  8
0
100
AcDbLine
 62
4
  6
CONTINUOUS
 10
10.4508332841
 20
6.4883364581
 11
10.4591126447
 21
6.479482915
  0
LINE
  5
2D3
100
AcDbEntity
  8
0
100
AcDbLine
 62
4
  6
CONTINUOUS
 10
10.5867025807
 20
10.4455315093
 11
10.5970553336
 21
10.4555315012
  0
LINE
  5
2D4
100
AcDbEntity
  8
0
100
AcDbLine
 62
7
  6
CONTINUOUS
 10
12.0548073595
 20
10.7143260901
 11
12.0890835878
 21
10.7312578906
  0
LINE
  5
2D5
100
AcDbEntity
  8
0
100
AcDbLine
 62
4
  6
CONTINUOUS
 10
11.088344353
 20
6.4054878797
 11
11.08006502
 21
6.4115816294
  0
LINE
  5
2D6
100
AcDbEntity
  8
0
100
AcDbLine
 62
4
  6
CONTINUOUS
 10
11.1297411282
 20
6.3915778515
 11
11.1214617953
 21
6.3976716013
  0
LINE
  5
2D7
100
AcDbEntity
  8
0
100
AcDbLine
 62
4
  6
CONTINUOUS
 10
10.8040861497
 20
6.3893240063
 11
10.8123655379
 21
6.3804704639
  0
LINE
  5
2D8
100
AcDbEntity
  8
0
100
AcDbLine
 62
4
  6
CONTINUOUS
 10
10.895159199
 20
6.374728704
 11
10.8868798108
 21
6.3835822464
  0
LINE
  5
2D9
100
AcDbEntity
  8
0
100
AcDbLine
 62
4
  6
CONTINUOUS
 10
10.6826554534
 20
6.1692347923
 11
10.7157729234
 21
6.1172619037
  0
LINE
  5
2DA
100
AcDbEntity
  8
0
100
AcDbLine
 62
4
  6
CONTINUOUS
 10
10.2272904378
 20
6.5369566633
 11
10.2852459895
 21
6.4170263287
  0
LINE
  5
2DB
100
AcDbEntity
  8
0
100
AcDbLine
 62
4
  6
CONTINUOUS
 10
11.0138300248
 20
6.3664988543
 11
11.0055506919
 21
6.3753523929
  0
LINE
  5
2DC
100
AcDbEntity
  8
0
100
AcDbLine
 62
4
  6
CONTINUOUS
 10
11.08006502
 20
6.3701848066
 11
11.088344353
 21
6.3613312681
  0
LINE
  5
2DD
100
AcDbEntity
  8
0
100
AcDbLine
 62
4
  6
CONTINUOUS
 10
11.1214617953
 20
6.4418282129
 11
11.1297411282
 21
6.4329746717
  0
LINE
  5
2DE
100
AcDbEntity
  8
0
100
AcDbLine
 62
4
  6
CONTINUOUS
 10
10.6798957133
 20
6.4724509247
 11
10.6854152686
 21
6.4637887748
  0
LINE
  5
2DF
100
AcDbEntity
  8
0
100
AcDbLine
 62
4
  6
CONTINUOUS
 10
10.310084091
 20
5.9400682765
 11
10.343201561
 21
5.8218604687
  0
LINE
  5
2E0
100
AcDbEntity
  8
0
100
AcDbLine
 62
7
  6
CONTINUOUS
 10
11.3157755563
 20
10.3113192673
 11
11.316437163
 21
10.3119462824
  0
LINE
  5
2E1
100
AcDbEntity
  8
0
100
AcDbLine
 62
4
  6
CONTINUOUS
 10
10.7709687073
 20
6.449576263
 11
10.7626893744
 21
6.4667091648
  0
LINE
  5
2E2
100
AcDbEntity
  8
0
100
AcDbLine
 62
4
  6
CONTINUOUS
 10
10.4756713525
 20
6.1504717323
 11
10.5005094446
 21
6.0659555575
  0
LINE
  5
2E3
100
AcDbEntity
  8
0
100
AcDbLine
 62
4
  6
CONTINUOUS
 10
10.4922301146
 20
6.4854655782
 11
10.517068224
 21
6.4009494022
  0
LINE
  5
2E4
100
AcDbEntity
  8
0
100
AcDbLine
 62
4
  6
CONTINUOUS
 10
10.6164205549
 20
6.1738281981
 11
10.6495380111
 21
6.0556203913
  0
LINE
  5
2E5
100
AcDbEntity
  8
0
100
AcDbLine
 62
4
  6
CONTINUOUS
 10
10.4259951648
 20
6.1870342437
 11
10.4508332586
 21
6.0694006127
  0
LINE
  5
2E6
100
AcDbEntity
  8
0
100
AcDbLine
 62
4
  6
CONTINUOUS
 10
10.0451444221
 20
6.5164710763
 11
10.0451444221
 21
6.5330298043
  0
LINE
  5
2E7
100
AcDbEntity
  8
0
100
AcDbLine
 62
4
  6
CONTINUOUS
 10
10.1030999738
 20
6.4462169276
 11
10.1030999738
 21
6.4627756574
  0
LINE
  5
2E8
100
AcDbEntity
  8
0
100
AcDbLine
 62
4
  6
CONTINUOUS
 10
10.1362174299
 20
6.5432725979
 11
10.1362174299
 21
6.4439202242
  0
LINE
  5
2E9
100
AcDbEntity
  8
0
100
AcDbLine
 62
4
  6
CONTINUOUS
 10
10.1720946904
 20
5.8337267705
 11
10.1720946904
 21
5.9496378739
  0
LINE
  5
2EA
100
AcDbEntity
  8
0
100
AcDbLine
 62
7
  6
CONTINUOUS
 10
10.1779901962
 20
10.7437456325
 11
10.1779901962
 21
10.697992505
  0
LINE
  5
2EB
100
AcDbEntity
  8
0
100
AcDbLine
 62
4
  6
CONTINUOUS
 10
10.1941729816
 20
6.4399009931
 11
10.1941729816
 21
6.5392533667
  0
LINE
  5
2EC
100
AcDbEntity
  8
0
100
AcDbLine
 62
4
  6
CONTINUOUS
 10
10.2272904378
 20
6.4210455599
 11
10.2272904378
 21
6.5369566633
  0
LINE
  5
2ED
100
AcDbEntity
  8
0
100
AcDbLine
 62
4
  6
CONTINUOUS
 10
10.2300502352
 20
5.9290599151
 11
10.2300502352
 21
5.8462662696
  0
LINE
  5
2EE
100
AcDbEntity
  8
0
100
AcDbLine
 62
4
  6
CONTINUOUS
 10
10.2852459895
 20
6.4170263287
 11
10.2852459895
 21
6.5329374322
  0
LINE
  5
2EF
100
AcDbEntity
  8
0
100
AcDbLine
 62
7
  6
CONTINUOUS
 10
10.3174095719
 20
10.7534144162
 11
10.3174095719
 21
10.6864271694
  0
LINE
  5
2F0
100
AcDbEntity
  8
0
100
AcDbLine
 62
4
  6
CONTINUOUS
 10
10.4094364535
 20
6.4084136908
 11
10.4094364535
 21
6.5243247942
  0
LINE
  5
2F1
100
AcDbEntity
  8
0
100
AcDbLine
 62
4
  6
CONTINUOUS
 10
10.4094364733
 20
5.8172670619
 11
10.4094364733
 21
5.9331781653
  0
LINE
  5
2F2
100
AcDbEntity
  8
0
100
AcDbLine
 62
4
  6
CONTINUOUS
 10
10.4591126447
 20
6.479482915
 11
10.4591126447
 21
6.4049686352
  0
LINE
  5
2F3
100
AcDbEntity
  8
0
100
AcDbLine
 62
4
  6
CONTINUOUS
 10
10.4756713856
 20
5.8126736551
 11
10.4756713856
 21
5.9285847586
  0
LINE
  5
2F4
100
AcDbEntity
  8
0
100
AcDbLine
 62
4
  6
CONTINUOUS
 10
10.6596671412
 20
10.4485098683
 11
10.6591470204
 21
10.4405074703
  0
LINE
  5
2F5
100
AcDbEntity
  8
0
100
AcDbLine
 62
4
  6
CONTINUOUS
 10
10.5639846099
 20
6.4059751046
 11
10.5639846099
 21
6.4722100195
  0
LINE
  5
2F6
100
AcDbEntity
  8
0
100
AcDbLine
 62
4
  6
CONTINUOUS
 10
10.6136607734
 20
6.5101617895
 11
10.6136607734
 21
6.3942506861
  0
LINE
  5
2F7
100
AcDbEntity
  8
0
100
AcDbLine
 62
4
  6
CONTINUOUS
 10
10.646778271
 20
6.3919539798
 11
10.646778271
 21
6.4747476271
  0
LINE
  5
2F8
100
AcDbEntity
  8
0
100
AcDbLine
 62
4
  6
CONTINUOUS
 10
10.6495380684
 20
5.8171746895
 11
10.6495380684
 21
5.8999683351
  0
LINE
  5
2F9
100
AcDbEntity
  8
0
100
AcDbLine
 62
4
  6
CONTINUOUS
 10
10.6854152686
 20
6.4637887748
 11
10.6854152686
 21
6.4472300467
  0
LINE
  5
2FA
100
AcDbEntity
  8
0
100
AcDbLine
 62
4
  6
CONTINUOUS
 10
10.7157729234
 20
6.1172619037
 11
10.7157729234
 21
6.0510269845
  0
LINE
  5
2FB
100
AcDbEntity
  8
0
100
AcDbLine
 62
4
  6
CONTINUOUS
 10
10.7212925438
 20
6.3950657624
 11
10.7212925438
 21
6.4199038571
  0
LINE
  5
2FC
100
AcDbEntity
  8
0
100
AcDbLine
 62
4
  6
CONTINUOUS
 10
10.7461306177
 20
5.8104759735
 11
10.7461306177
 21
5.8932696191
  0
LINE
  5
2FD
100
AcDbEntity
  8
0
100
AcDbLine
 62
4
  6
CONTINUOUS
 10
10.7709687073
 20
6.3833413438
 11
10.7709687073
 21
6.449576263
  0
LINE
  5
2FE
100
AcDbEntity
  8
0
100
AcDbLine
 62
4
  6
CONTINUOUS
 10
10.8040861497
 20
6.4638382887
 11
10.8040861497
 21
6.3893240063
  0
LINE
  5
2FF
100
AcDbEntity
  8
0
100
AcDbLine
 62
4
  6
CONTINUOUS
 10
10.8040861695
 20
5.8892503879
 11
10.8040861695
 21
5.8064567423
  0
LINE
  5
300
100
AcDbEntity
  8
0
100
AcDbLine
 62
4
  6
CONTINUOUS
 10
10.8372036118
 20
5.7876013101
 11
10.8372036118
 21
5.9035124135
  0
LINE
  5
301
100
AcDbEntity
  8
0
100
AcDbLine
 62
4
  6
CONTINUOUS
 10
10.8537623684
 20
6.3775995839
 11
10.8537623684
 21
6.4603932312
  0
LINE
  5
302
100
AcDbEntity
  8
0
100
AcDbLine
 62
4
  6
CONTINUOUS
 10
10.8868798108
 20
6.3835822464
 11
10.8868798108
 21
6.4912139849
  0
LINE
  5
303
100
AcDbEntity
  8
0
100
AcDbLine
 62
4
  6
CONTINUOUS
 10
10.8951591635
 20
5.8829344543
 11
10.8951591635
 21
5.8001408087
  0
LINE
  5
304
100
AcDbEntity
  8
0
100
AcDbLine
 62
4
  6
CONTINUOUS
 10
10.9420756046
 20
5.7803284127
 11
10.9420756046
 21
5.8962395161
  0
LINE
  5
305
100
AcDbEntity
  8
0
100
AcDbLine
 62
7
  6
CONTINUOUS
 10
10.95922933
 20
10.7970357805
 11
10.95922933
 21
11.1814392218
  0
LINE
  5
306
100
AcDbEntity
  8
0
100
AcDbLine
 62
4
  6
CONTINUOUS
 10
10.9613940837
 20
6.3701352991
 11
10.9613940837
 21
6.4529289464
  0
LINE
  5
307
100
AcDbEntity
  8
0
100
AcDbLine
 62
4
  6
CONTINUOUS
 10
10.9613940837
 20
6.4777670351
 11
10.9613940837
 21
6.4860464026
  0
LINE
  5
308
100
AcDbEntity
  8
0
100
AcDbLine
 62
7
  6
CONTINUOUS
 10
10.9736773782
 20
10.7830800614
 11
10.9736773782
 21
11.1674835027
  0
LINE
  5
309
100
AcDbEntity
  8
0
100
AcDbLine
 62
4
  6
CONTINUOUS
 10
11.0055506919
 20
6.3753523929
 11
11.0055506919
 21
6.4415873077
  0
LINE
  5
30A
100
AcDbEntity
  8
0
100
AcDbLine
 62
4
  6
CONTINUOUS
 10
10.5005094446
 20
6.0659555575
 11
10.5253475401
 21
6.1801441331
  0
LINE
  5
30B
100
AcDbEntity
  8
0
100
AcDbLine
 62
7
  6
CONTINUOUS
 10
13.3444089798
 20
10.7392715299
 11
12.5192945543
 21
9.9422721495
  0
LINE
  5
30C
100
AcDbEntity
  8
0
100
AcDbLine
 62
7
  6
CONTINUOUS
 10
11.0402565462
 20
10.6154534557
 11
11.0402565462
 21
10.7451292901
  0
LINE
  5
30D
100
AcDbEntity
  8
0
100
AcDbLine
 62
4
  6
CONTINUOUS
 10
11.08006502
 20
6.4115816294
 11
11.08006502
 21
6.4364197215
  0
LINE
  5
30E
100
AcDbEntity
  8
0
100
AcDbLine
 62
4
  6
CONTINUOUS
 10
11.1297411282
 20
6.3667397568
 11
11.1297411282
 21
6.3915778515
  0
LINE
  5
30F
100
AcDbEntity
  8
0
100
AcDbLine
 62
4
  6
CONTINUOUS
 10
10.2769666349
 20
5.8264538764
 11
10.310084091
 21
5.9400682765
  0
LINE
  5
310
100
AcDbEntity
  8
0
100
AcDbLine
 62
4
  6
CONTINUOUS
 10
10.5087888358
 20
6.3739256978
 11
10.5419062781
 21
6.4820205245
  0
LINE
  5
311
100
AcDbEntity
  8
0
100
AcDbLine
 62
4
  6
CONTINUOUS
 10
10.4508332586
 20
6.0694006127
 11
10.4756713525
 21
6.1504717323
  0
LINE
  5
312
100
AcDbEntity
  8
0
100
AcDbLine
 62
7
  6
CONTINUOUS
 10
11.3873640962
 20
10.6760101958
 11
11.3873640962
 21
11.0604136371
  0
LINE
  5
313
100
AcDbEntity
  8
0
100
AcDbLine
 62
7
  6
CONTINUOUS
 10
11.4412849049
 20
10.672270775
 11
11.4412849049
 21
11.0566742163
  0
LINE
  5
314
100
AcDbEntity
  8
0
100
AcDbLine
 62
4
  6
CONTINUOUS
 10
10.5833030849
 20
6.060213799
 11
10.6164205549
 21
6.1738281981
  0
LINE
  5
315
100
AcDbEntity
  8
0
100
AcDbLine
 62
4
  6
CONTINUOUS
 10
10.9641538613
 20
6.4858550113
 11
10.9613940837
 21
6.4777670351
  0
LINE
  5
316
100
AcDbEntity
  8
0
100
AcDbLine
 62
4
  6
CONTINUOUS
 10
12.6274808052
 20
6.9770595697
 11
12.6248926157
 21
6.9818040144
  0
LINE
  5
317
100
AcDbEntity
  8
0
100
AcDbLine
 62
4
  6
CONTINUOUS
 10
12.6455981224
 20
6.9945595553
 11
12.6404217457
 21
7.004048447
  0
LINE
  5
318
100
AcDbEntity
  8
0
100
AcDbLine
 62
7
  6
CONTINUOUS
 10
12.0063913125
 20
10.7114611068
 11
12.0063913125
 21
11.0958645482
  0
LINE
  5
319
100
AcDbEntity
  8
0
100
AcDbLine
 62
7
  6
CONTINUOUS
 10
13.1024876873
 20
9.2784468454
 11
13.1037715326
 21
9.2796641468
  0
LINE
  5
31A
100
AcDbEntity
  8
0
100
AcDbLine
 62
4
  6
CONTINUOUS
 10
10.0451444221
 20
6.5330298043
 11
10.0617031519
 21
6.5484401806
  0
LINE
  5
31B
100
AcDbEntity
  8
0
100
AcDbLine
 62
4
  6
CONTINUOUS
 10
10.0865412457
 20
6.4308065495
 11
10.1030999738
 21
6.4462169276
  0
LINE
  5
31C
100
AcDbEntity
  8
0
100
AcDbLine
 62
4
  6
CONTINUOUS
 10
10.1776142605
 20
6.4244906145
 11
10.1941729816
 21
6.4399009931
  0
LINE
  5
31D
100
AcDbEntity
  8
0
100
AcDbLine
 62
7
  6
CONTINUOUS
 10
12.0458640729
 20
10.7216774051
 11
12.0458640729
 21
11.1060808464
  0
LINE
  5
31E
100
AcDbEntity
  8
0
100
AcDbLine
 62
7
  6
CONTINUOUS
 10
12.1162565462
 20
10.6155407968
 11
12.1162565462
 21
10.7501293655
  0
LINE
  5
31F
100
AcDbEntity
  8
0
100
AcDbLine
 62
7
  6
CONTINUOUS
 10
12.1972837625
 20
10.8679376025
 11
12.1972837625
 21
11.2523410438
  0
LINE
  5
320
100
AcDbEntity
  8
0
100
AcDbLine
 62
4
  6
CONTINUOUS
 10
10.7157729234
 20
6.1172619037
 11
10.7488903933
 21
6.1646413836
  0
LINE
  5
321
100
AcDbEntity
  8
0
100
AcDbLine
 62
4
  6
CONTINUOUS
 10
12.8940642179
 20
8.5926512113
 11
12.8992405931
 21
8.5976512062
  0
LINE
  5
322
100
AcDbEntity
  8
02___PRT_ALL_AXES
100
AcDbLine
 62
7
  6
CONTINUOUS
 10
10.5165751199
 20
10.6889570183
 11
10.4712937637
 21
10.7310960738
  0
LINE
  5
323
100
AcDbEntity
  8
0
100
AcDbLine
 62
7
  6
CONTINUOUS
 10
12.5192945543
 20
9.9422721495
 11
12.5192945543
 21
5.5956056736
  0
LINE
  5
324
100
AcDbEntity
  8
0
100
AcDbLine
 62
4
  6
CONTINUOUS
 10
12.9199460998
 20
8.5596956393
 11
12.8888878407
 21
8.529695663
  0
LINE
  5
325
100
AcDbEntity
  8
0
100
AcDbLine
 62
4
  6
CONTINUOUS
 10
10.2300502352
 20
5.8462662696
 11
10.2134915072
 21
5.8308558915
  0
LINE
  5
326
100
AcDbEntity
  8
0
100
AcDbLine
 62
4
  6
CONTINUOUS
 10
11.0055506919
 20
6.4415873077
 11
11.0138300248
 21
6.4492925015
  0
LINE
  5
327
100
AcDbEntity
  8
0
100
AcDbLine
 62
4
  6
CONTINUOUS
 10
10.5810060828
 20
10.4325291146
 11
10.5763498283
 21
10.4355315177
  0
LINE
  5
328
100
AcDbEntity
  8
0
100
AcDbLine
 62
4
  6
CONTINUOUS
 10
10.6503546297
 20
10.4545146721
 11
10.6596671412
 21
10.4485098683
  0
LINE
  5
329
100
AcDbEntity
  8
0
100
AcDbLine
 62
4
  6
CONTINUOUS
 10
12.6145398633
 20
6.964559579
 11
12.6145398633
 21
6.9138484712
  0
LINE
  5
32A
100
AcDbEntity
  8
0
100
AcDbLine
 62
4
  6
CONTINUOUS
 10
12.6274808052
 20
6.9263484619
 11
12.6274808052
 21
6.9770595697
  0
LINE
  5
32B
100
AcDbEntity
  8
0
100
AcDbLine
 62
4
  6
CONTINUOUS
 10
12.6455981224
 20
6.9438484476
 11
12.6455981224
 21
6.9945595553
  0
LINE
  5
32C
100
AcDbEntity
  8
0
100
AcDbLine
 62
4
  6
CONTINUOUS
 10
11.08006502
 20
6.4364197215
 11
11.088344353
 21
6.4441249153
  0
LINE
  5
32D
100
AcDbEntity
  8
0
100
AcDbLine
 62
4
  6
CONTINUOUS
 10
11.1214617953
 20
6.3590345656
 11
11.1297411282
 21
6.3667397568
  0
LINE
  5
32E
100
AcDbEntity
  8
0
100
AcDbLine
 62
4
  6
CONTINUOUS
 10
10.6495380684
 20
5.8999683351
 11
10.6660967896
 21
5.915378712
  0
LINE
  5
32F
100
AcDbEntity
  8
0
100
AcDbLine
 62
4
  6
CONTINUOUS
 10
10.7461306177
 20
5.8932696191
 11
10.7626893389
 21
5.9086799959
  0
LINE
  5
330
100
AcDbEntity
  8
0
100
AcDbLine
 62
4
  6
CONTINUOUS
 10
10.5639846099
 20
6.4722100195
 11
10.580543331
 21
6.4793410358
  0
LINE
  5
331
100
AcDbEntity
  8
0
100
AcDbLine
 62
7
  6
CONTINUOUS
 10
12.5192945543
 20
9.9422721495
 11
8.6555910202
 21
10.2102208996
  0
LINE
  5
332
100
AcDbEntity
  8
0
100
AcDbLine
 62
4
  6
CONTINUOUS
 10
10.5929067831
 20
10.4290243094
 11
10.5810060828
 21
10.4325291146
  0
LINE
  5
333
100
AcDbEntity
  8
0
100
AcDbLine
 62
4
  6
CONTINUOUS
 10
12.8992405931
 20
8.5976512062
 11
12.9018287826
 21
8.5929067615
  0
LINE
  5
334
100
AcDbEntity
  8
0
100
AcDbLine
 62
4
  6
CONTINUOUS
 10
12.8888878407
 20
8.529695663
 11
12.8888878407
 21
8.5659178828
  0
LINE
  5
335
100
AcDbEntity
  8
0
100
AcDbLine
 62
4
  6
CONTINUOUS
 10
12.9044169703
 20
8.580917871
 11
12.9044169703
 21
8.5446956511
  0
LINE
  5
336
100
AcDbEntity
  8
0
100
AcDbLine
 62
4
  6
CONTINUOUS
 10
12.8888878407
 20
8.5659178828
 11
12.8914760284
 21
8.5829067682
  0
LINE
  5
337
100
AcDbEntity
  8
0
100
AcDbLine
 62
4
  6
CONTINUOUS
 10
12.8914760284
 20
8.5829067682
 11
12.8940642179
 21
8.5926512113
  0
LINE
  5
338
100
AcDbEntity
  8
0
100
AcDbLine
 62
4
  6
CONTINUOUS
 10
12.6171280509
 20
6.9743040204
 11
12.6145398633
 21
6.964559579
  0
LINE
  5
339
100
AcDbEntity
  8
0
100
AcDbLine
 62
4
  6
CONTINUOUS
 10
12.6326571814
 20
6.9965484534
 11
12.6274808052
 21
6.9770595697
  0
LINE
  5
33A
100
AcDbEntity
  8
0
100
AcDbLine
 62
7
  6
CONTINUOUS
 10
12.8273632788
 20
7.6690941227
 11
12.8286471241
 21
7.6703114241
  0
LINE
  5
33B
100
AcDbEntity
  8
0
100
AcDbLine
 62
4
  6
CONTINUOUS
 10
10.8040861695
 20
5.8064567423
 11
10.7875274483
 21
5.7910463637
  0
LINE
  5
33C
100
AcDbEntity
  8
0
100
AcDbLine
 62
4
  6
CONTINUOUS
 10
10.8951591635
 20
5.8001408087
 11
10.8786004423
 21
5.7847304302
  0
LINE
  5
33D
100
AcDbEntity
  8
0
100
AcDbLine
 62
4
  6
CONTINUOUS
 10
10.7212925438
 20
6.4199038571
 11
10.737851265
 21
6.4270348699
  0
LINE
  5
33E
100
AcDbEntity
  8
0
100
AcDbLine
 62
4
  6
CONTINUOUS
 10
10.6441380116
 20
10.4335098801
 11
10.6244727466
 21
10.4295146913
  0
LINE
  5
33F
100
AcDbEntity
  8
0
100
AcDbLine
 62
4
  6
CONTINUOUS
 10
10.5970553336
 20
10.4555315012
 11
10.6068879659
 21
10.4575290954
  0
LINE
  5
340
100
AcDbEntity
  8
0
100
AcDbLine
 62
4
  6
CONTINUOUS
 10
10.6244727466
 20
10.4295146913
 11
10.607395671
 21
10.4280195016
  0
LINE
  5
341
100
AcDbEntity
  8
0
100
AcDbLine
 62
4
  6
CONTINUOUS
 10
10.6068879659
 20
10.4575290954
 11
10.6239650422
 21
10.4590242857
  0
LINE
  5
342
100
AcDbEntity
  8
0
100
AcDbLine
 62
4
  6
CONTINUOUS
 10
10.607395671
 20
10.4280195016
 11
10.5929067831
 21
10.4290243094
  0
LINE
  5
343
100
AcDbEntity
  8
0
100
AcDbLine
 62
4
  6
CONTINUOUS
 10
10.6156803566
 20
10.4435218937
 11
10.5867025807
 21
10.4455315093
  0
LINE
  5
344
100
AcDbEntity
  8
0
100
AcDbLine
 62
4
  6
CONTINUOUS
 10
10.6239650422
 20
10.4590242857
 11
10.6384539301
 21
10.458019478
  0
LINE
  5
345
100
AcDbEntity
  8
0
100
AcDbLine
 62
7
  6
CONTINUOUS
 10
10.1406329157
 20
10.7076612684
 11
10.2426950109
 21
10.6812456878
  0
LINE
  5
346
100
AcDbEntity
  8
0
100
AcDbLine
 62
7
  6
CONTINUOUS
 10
10.4194716671
 20
10.7269988357
 11
10.3174095719
 21
10.7534144162
  0
LINE
  5
347
100
AcDbEntity
  8
0
100
AcDbLine
 62
4
  6
CONTINUOUS
 10
10.6384539301
 20
10.458019478
 11
10.6503546297
 21
10.4545146721
  0
LINE
  5
348
100
AcDbEntity
  8
0
100
AcDbLine
 62
4
  6
CONTINUOUS
 10
12.9018287826
 20
8.5929067615
 11
12.9044169703
 21
8.580917871
  0
LINE
  5
349
100
AcDbEntity
  8
0
100
AcDbLine
 62
4
  6
CONTINUOUS
 10
12.6404217457
 20
7.004048447
 11
12.6326571814
 21
6.9965484534
  0
LINE
  5
34A
100
AcDbEntity
  8
0
100
AcDbLine
 62
4
  6
CONTINUOUS
 10
12.6248926157
 20
6.9818040144
 11
12.6171280509
 21
6.9743040204
  0
LINE
  5
34B
100
AcDbEntity
  8
0
100
AcDbLine
 62
4
  6
CONTINUOUS
 10
12.6145398633
 20
6.9138484712
 11
12.6455981224
 21
6.9438484476
  0
LINE
  5
34C
100
AcDbEntity
  8
0
100
AcDbLine
 62
4
  6
CONTINUOUS
 10
10.1500163829
 20
5.9070124015
 11
10.1058597712
 21
5.8879963654
  0
LINE
  5
34D
100
AcDbEntity
  8
0
100
AcDbLine
 62
7
  6
CONTINUOUS
 10
10.2426950109
 20
10.6812456878
 11
10.3821143866
 21
10.6909144715
  0
LINE
  5
34E
100
AcDbEntity
  8
0
100
AcDbLine
 62
7
  6
CONTINUOUS
 10
11.1017057329
 20
10.7143260901
 11
11.0559733613
 21
10.7369170061
  0
LINE
  5
34F
100
AcDbEntity
  8
0
100
AcDbLine
 62
7
  6
CONTINUOUS
 10
13.3444089798
 20
10.7392715299
 11
13.3444089798
 21
6.392605054
  0
LINE
  5
350
100
AcDbEntity
  8
0
100
AcDbLine
 62
4
  6
CONTINUOUS
 10
11.0690258186
 20
5.8212005731
 11
11.0248692104
 21
5.8021845385
  0
LINE
  5
351
100
AcDbEntity
  8
0
100
AcDbLine
 62
7
  6
CONTINUOUS
 10
10.3174095719
 20
10.7534144162
 11
10.1779901962
 21
10.7437456325
  0
LINE
  5
352
100
AcDbEntity
  8
0
100
AcDbLine
 62
7
  6
CONTINUOUS
 10
9.4807054457
 20
11.00722028
 11
10.95922933
 21
10.9046843004
  0
LINE
  5
353
100
AcDbEntity
  8
0
100
AcDbLine
 62
7
  6
CONTINUOUS
 10
12.1711471595
 20
10.8206375135
 11
13.3444089798
 21
10.7392715299
  0
LINE
  5
354
100
AcDbEntity
  8
0
100
AcDbLine
 62
7
  6
CONTINUOUS
 10
12.1005397312
 20
11.3124598182
 11
12.0698656566
 21
11.3276122237
  0
LINE
  5
355
100
AcDbEntity
  8
0
100
AcDbLine
 62
7
  6
CONTINUOUS
 10
13.3444089798
 20
6.392605054
 11
12.5192945543
 21
5.5956056736
  0
ARC
  5
356
100
AcDbEntity
  8
0
100
AcDbCircle
 62
7
  6
CONTINUOUS
 10
11.5707034745
 20
12.9326944222
 40
2.2641254892
100
AcDbArc
 50
266.0354973614
 51
266.723157899
  0
ARC
  5
357
100
AcDbEntity
  8
0
100
AcDbCircle
 62
7
  6
CONTINUOUS
 10
11.5699898789
 20
13.3058205161
 40
2.2528257918
100
AcDbArc
 50
266.0337727607
 51
266.7248824998
  0
ARC
  5
358
100
AcDbEntity
  8
0
100
AcDbCircle
 62
7
  6
CONTINUOUS
 10
11.5647938471
 20
12.8476939246
 40
2.1789198091
100
AcDbArc
 50
265.3292248879
 51
266.0359887124
  0
ARC
  5
359
100
AcDbEntity
  8
0
100
AcDbCircle
 62
7
  6
CONTINUOUS
 10
11.5647938471
 20
13.232097366
 40
2.1789198091
100
AcDbArc
 50
265.329224888
 51
266.0359887124
  0
ARC
  5
35A
100
AcDbEntity
  8
0
100
AcDbCircle
 62
7
  6
CONTINUOUS
 10
11.7871918746
 20
11.6397467197
 40
0.9538147475
100
AcDbArc
 50
283.286087793
 51
285.7355389587
  0
ARC
  5
35B
100
AcDbEntity
  8
0
100
AcDbCircle
 62
7
  6
CONTINUOUS
 10
11.7871918746
 20
12.024150161
 40
0.9538147475
100
AcDbArc
 50
283.286087793
 51
285.7355389587
  0
ARC
  5
35C
100
AcDbEntity
  8
0
100
AcDbCircle
 62
7
  6
CONTINUOUS
 10
11.9554707236
 20
7.1291416968
 40
0.1157315115
100
AcDbArc
 50
219.9769104756
 51
228.2559135507
  0
ARC
  5
35D
100
AcDbEntity
  8
0
100
AcDbCircle
 62
7
  6
CONTINUOUS
 10
10.8414139791
 20
10.3007278865
 40
0.0159471665
100
AcDbArc
 50
180.0279378007
 51
190.2590569739
  0
ARC
  5
35E
100
AcDbEntity
  8
0
100
AcDbCircle
 62
7
  6
CONTINUOUS
 10
11.2795198826
 20
10.3007279336
 40
0.0159469126
100
AcDbArc
 50
349.851918527
 51
359.9718926865
  0
SPLINE
  5
35F
100
AcDbEntity
  8
02___PRT_ALL_AXES
100
AcDbSpline
 62
7
  6
CONTINUOUS
 70
0
 71
3
 72
30
 73
26
 74
0
 42
0.0000001
 43
0.0000001
 44
0.0000000001
 40
0.0
 40
0.0
 40
0.0
 40
0.0
 40
0.0760978103
 40
0.1533705468
 40
0.2310983668
 40
0.3086120659
 40
0.3852193806
 40
0.4602427169
 40
0.5330247869
 40
0.6029326973
 40
0.669370128
 40
0.7011145604
 40
0.7317882449
 40
0.7613306424
 40
0.7896866576
 40
0.8168036245
 40
0.8426357556
 40
0.8671435371
 40
0.8902920027
 40
0.9120566199
 40
0.9324213189
 40
0.9513795869
 40
0.9689415584
 40
0.9851327036
 40
1.0
 40
1.0
 40
1.0
 40
1.0
 10
10.3314278295
 20
10.766955014
 30
0.0
 10
10.325125472
 20
10.767392084
 30
0.0
 10
10.3124109106
 20
10.7681004121
 30
0.0
 10
10.293232169
 20
10.7686735773
 30
0.0
 10
10.2739274108
 20
10.768762232
 30
0.0
 10
10.2546817955
 20
10.7683660136
 30
0.0
 10
10.2356767821
 20
10.7674885067
 30
0.0
 10
10.2170931969
 20
10.7661383557
 30
0.0
 10
10.1991073481
 20
10.7643287395
 30
0.0
 10
10.1818899534
 20
10.7620769795
 30
0.0
 10
10.1681164313
 20
10.7598177034
 30
0.0
 10
10.1576117871
 20
10.7577934367
 30
0.0
 10
10.1501444857
 20
10.7562023871
 30
0.0
 10
10.1429860544
 20
10.7545191632
 30
0.0
 10
10.1361533809
 20
10.7527481155
 30
0.0
 10
10.1296626907
 20
10.7508931642
 30
0.0
 10
10.1235293003
 20
10.7489588134
 30
0.0
 10
10.1177675724
 20
10.7469499744
 30
0.0
 10
10.1123911383
 20
10.7448709847
 30
0.0
 10
10.1074124608
 20
10.7427270402
 30
0.0
 10
10.1028429522
 20
10.740523314
 30
0.0
 10
10.0986933143
 20
10.7382644056
 30
0.0
 10
10.094972552
 20
10.7359557216
 30
0.0
 10
10.0916892527
 20
10.7336024329
 30
0.0
 10
10.0897153043
 20
10.7319376008
 30
0.0
 10
10.0888117556
 20
10.7310967774
 30
0.0
  0
SPLINE
  5
360
100
AcDbEntity
  8
02___PRT_ALL_AXES
100
AcDbSpline
 62
7
  6
CONTINUOUS
 70
0
 71
3
 72
26
 73
22
 74
0
 42
0.0000001
 43
0.0000001
 44
0.0000000001
 40
0.0
 40
0.0
 40
0.0
 40
0.0
 40
0.0844810504
 40
0.1673036701
 40
0.2480923067
 40
0.3265401319
 40
0.4023660625
 40
0.4752938366
 40
0.5450543067
 40
0.6114048561
 40
0.6741243906
 40
0.7330193289
 40
0.7879244449
 40
0.8387114886
 40
0.8852976289
 40
0.907006608
 40
0.9276615022
 40
0.9472704922
 40
0.9658470092
 40
0.9834130062
 40
1.0
 40
1.0
 40
1.0
 40
1.0
 10
10.3314278295
 20
10.766955014
 30
0.0
 10
10.3355358494
 20
10.7666701219
 30
0.0
 10
10.3436664388
 20
10.7660336314
 30
0.0
 10
10.3557035745
 20
10.7648670629
 30
0.0
 10
10.3674237995
 20
10.7635011609
 30
0.0
 10
10.378775848
 20
10.761942394
 30
0.0
 10
10.3897129461
 20
10.7601969851
 30
0.0
 10
10.4001898701
 20
10.7582727878
 30
0.0
 10
10.4101625826
 20
10.756177507
 30
0.0
 10
10.4195891858
 20
10.7539204268
 30
0.0
 10
10.4284304287
 20
10.7515109357
 30
0.0
 10
10.4366496157
 20
10.748959438
 30
0.0
 10
10.4442129447
 20
10.7462767074
 30
0.0
 10
10.4510890793
 20
10.7434739199
 30
0.0
 10
10.456341009
 20
10.7409930955
 30
0.0
 10
10.4601642918
 20
10.7389466858
 30
0.0
 10
10.4627749221
 20
10.7374254755
 30
0.0
 10
10.4651940217
 20
10.7358831978
 30
0.0
 10
10.4674190078
 20
10.7343211844
 30
0.0
 10
10.4694475005
 20
10.7327410508
 30
0.0
 10
10.4707028066
 20
10.7316458812
 30
0.0
 10
10.4712946629
 20
10.7310950757
 30
0.0
  0
SPLINE
  5
361
100
AcDbEntity
  8
02___PRT_ALL_AXES
100
AcDbSpline
 62
7
  6
CONTINUOUS
 70
0
 71
3
 72
50
 73
46
 74
0
 42
0.0000001
 43
0.0000001
 44
0.0000000001
 40
0.0
 40
0.0
 40
0.0
 40
0.0
 40
0.0082492209
 40
0.0160250184
 40
0.0233636887
 40
0.0303110576
 40
0.0369223806
 40
0.0432629463
 40
0.0494081642
 40
0.0554419468
 40
0.0614530639
 40
0.0675313806
 40
0.0737638192
 40
0.080230172
 40
0.0941208225
 40
0.1016719887
 40
0.1096792035
 40
0.1181744712
 40
0.1271831034
 40
0.1367248005
 40
0.1468133111
 40
0.1574577443
 40
0.1686641226
 40
0.1804359284
 40
0.1927733238
 40
0.2191303108
 40
0.2476992772
 40
0.2784139152
 40
0.3111888181
 40
0.3459202892
 40
0.382490695
 40
0.4207695651
 40
0.4606153723
 40
0.501877562
 40
0.5443966524
 40
0.5880068863
 40
0.6325353669
 40
0.6778055938
 40
0.7236366011
 40
0.7698444551
 40
0.8162405456
 40
0.8626385614
 40
0.908859746
 40
0.954718016
 40
1.0
 40
1.0
 40
1.0
 40
1.0
 10
10.4712946629
 20
10.7310950757
 30
0.0
 10
10.4718604339
 20
10.7305685461
 30
0.0
 10
10.4729285462
 20
10.7295115444
 30
0.0
 10
10.4743720756
 20
10.7278633501
 30
0.0
 10
10.4756062556
 20
10.7262021618
 30
0.0
 10
10.4766296068
 20
10.7245295867
 30
0.0
 10
10.477440559
 20
10.7228470365
 30
0.0
 10
10.4780372538
 20
10.7211561096
 30
0.0
 10
10.4784177984
 20
10.7194588364
 30
0.0
 10
10.4785813126
 20
10.7177578919
 30
0.0
 10
10.478527276
 20
10.7160561685
 30
0.0
 10
10.4782557571
 20
10.7143567008
 30
0.0
 10
10.4777673232
 20
10.7126622506
 30
0.0
 10
10.4768068932
 20
10.7103587674
 30
0.0
 10
10.4754166575
 20
10.7081218625
 30
0.0
 10
10.4736804488
 20
10.7059757912
 30
0.0
 10
10.4721332311
 20
10.7043341526
 30
0.0
 10
10.4703797464
 20
10.7027077519
 30
0.0
 10
10.4684214612
 20
10.7010975556
 30
0.0
 10
10.4662603287
 20
10.6995054011
 30
0.0
 10
10.4638986728
 20
10.6979327084
 30
0.0
 10
10.4613390885
 20
10.696380988
 30
0.0
 10
10.4585842166
 20
10.6948518591
 30
0.0
 10
10.4556368154
 20
10.693347021
 30
0.0
 10
10.4513594865
 20
10.6913304962
 30
0.0
 10
10.4455440937
 20
10.6888939291
 30
0.0
 10
10.4380006733
 20
10.6861523539
 30
0.0
 10
10.4297774599
 20
10.6835433917
 30
0.0
 10
10.4209094726
 20
10.6810788022
 30
0.0
 10
10.4114344698
 20
10.6787690679
 30
0.0
 10
10.4013930088
 20
10.6766244922
 30
0.0
 10
10.3908282133
 20
10.6746543643
 30
0.0
 10
10.3797855065
 20
10.6728673216
 30
0.0
 10
10.368312454
 20
10.6712712397
 30
0.0
 10
10.3564584826
 20
10.6698729688
 30
0.0
 10
10.3442747488
 20
10.6686788079
 30
0.0
 10
10.3318138018
 20
10.6676937081
 30
0.0
 10
10.319129383
 20
10.6669222729
 30
0.0
 10
10.3062761755
 20
10.6663675443
 30
0.0
 10
10.2933098691
 20
10.6660323359
 30
0.0
 10
10.2802866198
 20
10.665917588
 30
0.0
 10
10.267262056
 20
10.6660242901
 30
0.0
 10
10.2542915547
 20
10.666351696
 30
0.0
 10
10.2414331469
 20
10.6668987708
 30
0.0
 10
10.2329090678
 20
10.667411578
 30
0.0
 10
10.2286767534
 20
10.66770509
 30
0.0
  0
SPLINE
  5
362
100
AcDbEntity
  8
02___PRT_ALL_AXES
100
AcDbSpline
 62
7
  6
CONTINUOUS
 70
0
 71
3
 72
39
 73
35
 74
0
 42
0.0000001
 43
0.0000001
 44
0.0000000001
 40
0.0
 40
0.0
 40
0.0
 40
0.0
 40
0.0192536737
 40
0.0368857599
 40
0.0531267624
 40
0.0682871173
 40
0.0755883734
 40
0.0827717582
 40
0.08989591
 40
0.0970208946
 40
0.1042067025
 40
0.1115117809
 40
0.1266842116
 40
0.142942377
 40
0.160594398
 40
0.1798713268
 40
0.2009340671
 40
0.2238930147
 40
0.2488172124
 40
0.275740952
 40
0.3046773404
 40
0.335617407
 40
0.3685350598
 40
0.4033942408
 40
0.4401438449
 40
0.4787239891
 40
0.5190684616
 40
0.5611002345
 40
0.6047379883
 40
0.6498939604
 40
0.696471166
 40
0.7934877965
 40
0.8949792044
 40
1.0
 40
1.0
 40
1.0
 40
1.0
 10
10.0888117556
 20
10.7310967774
 30
0.0
 10
10.0879743438
 20
10.7303174994
 30
0.0
 10
10.0864359225
 20
10.7287504567
 30
0.0
 10
10.0844888823
 20
10.7262560946
 30
0.0
 10
10.0830166703
 20
10.7237306503
 30
0.0
 10
10.0821817949
 20
10.7215751389
 30
0.0
 10
10.0817727785
 20
10.7198597659
 30
0.0
 10
10.0815914974
 20
10.7185868376
 30
0.0
 10
10.0815322071
 20
10.7173129284
 30
0.0
 10
10.0815948588
 20
10.7160390369
 30
0.0
 10
10.0817794371
 20
10.7147661647
 30
0.0
 10
10.0821926978
 20
10.713050695
 30
0.0
 10
10.0830332348
 20
10.7108952683
 30
0.0
 10
10.08451201
 20
10.7083703963
 30
0.0
 10
10.0864653349
 20
10.7058761413
 30
0.0
 10
10.0888867773
 20
10.7034165792
 30
0.0
 10
10.0917694927
 20
10.7009941689
 30
0.0
 10
10.0951072937
 20
10.6986134389
 30
0.0
 10
10.0988927409
 20
10.6962791978
 30
0.0
 10
10.1031170302
 20
10.6939959944
 30
0.0
 10
10.1077706875
 20
10.6917695569
 30
0.0
 10
10.1128427185
 20
10.6896049639
 30
0.0
 10
10.1183210585
 20
10.6875071639
 30
0.0
 10
10.1241927681
 20
10.685481735
 30
0.0
 10
10.1304436199
 20
10.6835332631
 30
0.0
 10
10.1370585385
 20
10.6816665115
 30
0.0
 10
10.1440216034
 20
10.6798864032
 30
0.0
 10
10.1513159137
 20
10.6781969024
 30
0.0
 10
10.1589238223
 20
10.6766023566
 30
0.0
 10
10.1668267931
 20
10.675106805
 30
0.0
 10
10.1778821938
 20
10.6732236709
 30
0.0
 10
10.1922986265
 20
10.6711550486
 30
0.0
 10
10.2102227045
 20
10.6691498724
 30
0.0
 10
10.2224521435
 20
10.6681367682
 30
0.0
 10
10.2286767534
 20
10.66770509
 30
0.0
  0
SPLINE
  5
363
100
AcDbEntity
  8
0
100
AcDbSpline
 62
7
  6
CONTINUOUS
 70
0
 71
3
 72
29
 73
25
 74
0
 42
0.0000001
 43
0.0000001
 44
0.0000000001
 40
0.0
 40
0.0
 40
0.0
 40
0.0
 40
0.070984318
 40
0.1429825523
 40
0.2155057028
 40
0.2880809331
 40
0.3602234383
 40
0.4314560192
 40
0.5013085085
 40
0.5693229079
 40
0.6350576048
 40
0.6980916372
 40
0.728471958
 40
0.7580314442
 40
0.7867250902
 40
0.8145108681
 40
0.8413490867
 40
0.8672023195
 40
0.8920371672
 40
0.9158224349
 40
0.9385315725
 40
0.9601419631
 40
0.9806353258
 40
1.0
 40
1.0
 40
1.0
 40
1.0
 10
11.7219009977
 20
11.3996965545
 30
0.0
 10
11.7066828693
 20
11.4007519353
 30
0.0
 10
11.6760032412
 20
11.4025181038
 30
0.0
 10
11.6297155382
 20
11.4041429085
 30
0.0
 10
11.5830612726
 20
11.4047554056
 30
0.0
 10
11.5363738078
 20
11.4043517788
 30
0.0
 10
11.4899835023
 20
11.4029345336
 30
0.0
 10
11.4442205006
 20
11.4005140277
 30
0.0
 10
11.3994097355
 20
11.3971077191
 30
0.0
 10
11.3558692782
 20
11.3927403069
 30
0.0
 10
11.3139084364
 20
11.3874432548
 30
0.0
 10
11.2801020755
 20
11.3822246488
 30
0.0
 10
11.2540828368
 20
11.3775929198
 30
0.0
 10
11.2353850554
 20
11.373954991
 30
0.0
 10
11.2172969717
 20
11.3701165358
 30
0.0
 10
11.1998506576
 20
11.366084529
 30
0.0
 10
11.183077046
 20
11.3618663339
 30
0.0
 10
11.1670059135
 20
11.3574690819
 30
0.0
 10
11.151665643
 20
11.3529011904
 30
0.0
 10
11.1370834003
 20
11.3481703271
 30
0.0
 10
11.1232848975
 20
11.3432851956
 30
0.0
 10
11.1102942739
 20
11.338254565
 30
0.0
 10
11.0981346953
 20
11.3330870363
 30
0.0
 10
11.0903751355
 20
11.3294536485
 30
0.0
 10
11.0866440392
 20
11.3276105313
 30
0.0
  0
SPLINE
  5
364
100
AcDbEntity
  8
0
100
AcDbSpline
 62
7
  6
CONTINUOUS
 70
0
 71
3
 72
9
 73
5
 74
0
 42
0.0000001
 43
0.0000001
 44
0.0000000001
 40
0.0
 40
0.0
 40
0.0
 40
0.0
 40
0.4802028106
 40
1.0
 40
1.0
 40
1.0
 40
1.0
 10
10.95922933
 20
10.7970357805
 30
0.0
 10
10.9613207529
 20
10.7945894454
 30
0.0
 10
10.9659495726
 20
10.7897258556
 30
0.0
 10
10.9709830421
 20
10.7852886329
 30
0.0
 10
10.9736773782
 20
10.7830800614
 30
0.0
  0
SPLINE
  5
365
100
AcDbEntity
  8
0
100
AcDbSpline
 62
7
  6
CONTINUOUS
 70
0
 71
3
 72
9
 73
5
 74
0
 42
0.0000001
 43
0.0000001
 44
0.0000000001
 40
0.0
 40
0.0
 40
0.0
 40
0.0
 40
0.4802028106
 40
1.0
 40
1.0
 40
1.0
 40
1.0
 10
12.1972837625
 20
11.2523410438
 30
0.0
 10
12.1951923396
 20
11.2547873789
 30
0.0
 10
12.1905635199
 20
11.2596509687
 30
0.0
 10
12.1855300503
 20
11.2640881914
 30
0.0
 10
12.1828357143
 20
11.2662967629
 30
0.0
  0
SPLINE
  5
366
100
AcDbEntity
  8
0
100
AcDbSpline
 62
7
  6
CONTINUOUS
 70
0
 71
3
 72
9
 73
5
 74
0
 42
0.0000001
 43
0.0000001
 44
0.0000000001
 40
0.0
 40
0.0
 40
0.0
 40
0.0
 40
0.5043782952
 40
1.0
 40
1.0
 40
1.0
 40
1.0
 10
12.1828357143
 20
11.2662967629
 30
0.0
 10
12.1693319885
 20
11.2747055961
 30
0.0
 10
12.1422192005
 20
11.2908402141
 30
0.0
 10
12.1143464572
 20
11.3056373772
 30
0.0
 10
12.1003323462
 20
11.3125622062
 30
0.0
  0
SPLINE
  5
367
100
AcDbEntity
  8
0
100
AcDbSpline
 62
7
  6
CONTINUOUS
 70
0
 71
3
 72
9
 73
5
 74
0
 42
0.0000001
 43
0.0000001
 44
0.0000000001
 40
0.0
 40
0.0
 40
0.0
 40
0.0
 40
0.5043782952
 40
1.0
 40
1.0
 40
1.0
 40
1.0
 10
10.9736773782
 20
10.7830800614
 30
0.0
 10
10.9871811039
 20
10.7746712282
 30
0.0
 10
11.014293892
 20
10.7585366102
 30
0.0
 10
11.0421666352
 20
10.7437394471
 30
0.0
 10
11.0561807462
 20
10.7368146181
 30
0.0
  0
SPLINE
  5
368
100
AcDbEntity
  8
0
100
AcDbSpline
 62
7
  6
CONTINUOUS
 70
0
 71
3
 72
23
 73
19
 74
0
 42
0.0000001
 43
0.0000001
 44
0.0000000001
 40
0.0
 40
0.0
 40
0.0
 40
0.0
 40
0.0436202716
 40
0.0892267831
 40
0.1370684894
 40
0.1873535484
 40
0.2402536978
 40
0.2958870825
 40
0.3543309839
 40
0.4156093066
 40
0.4797101
 40
0.5465786547
 40
0.6161344819
 40
0.6882693018
 40
0.7628605839
 40
0.8397743489
 40
0.9188692317
 40
1.0
 40
1.0
 40
1.0
 40
1.0
 10
12.0888753644
 20
10.7311550685
 30
0.0
 10
12.0911852977
 20
10.732295636
 30
0.0
 10
12.0958224167
 20
10.7348107304
 30
0.0
 10
12.102649699
 20
10.73917178
 30
0.0
 10
12.1094860807
 20
10.7442140647
 30
0.0
 10
12.1163276233
 20
10.7499449961
 30
0.0
 10
12.1231687144
 20
10.7563686467
 30
0.0
 10
12.1300062478
 20
10.7634802199
 30
0.0
 10
12.1368344999
 20
10.7712710336
 30
0.0
 10
12.143650737
 20
10.7797244386
 30
0.0
 10
12.1504498985
 20
10.7888203479
 30
0.0
 10
12.1572297418
 20
10.7985327342
 30
0.0
 10
12.1639864017
 20
10.8088332874
 30
0.0
 10
12.1707182818
 20
10.8196902474
 30
0.0
 10
12.1774229919
 20
10.8310711076
 30
0.0
 10
12.1840996342
 20
10.8429421974
 30
0.0
 10
12.1907471198
 20
10.8552700443
 30
0.0
 10
12.1951062332
 20
10.8636694668
 30
0.0
 10
12.1972837625
 20
10.8679376025
 30
0.0
  0
SPLINE
  5
369
100
AcDbEntity
  8
0
100
AcDbSpline
 62
7
  6
CONTINUOUS
 70
0
 71
3
 72
23
 73
19
 74
0
 42
0.0000001
 43
0.0000001
 44
0.0000000001
 40
0.0
 40
0.0
 40
0.0
 40
0.0
 40
0.0436202716
 40
0.0892267831
 40
0.1370684894
 40
0.1873535484
 40
0.2402536978
 40
0.2958870825
 40
0.3543309839
 40
0.4156093066
 40
0.4797101
 40
0.5465786547
 40
0.6161344819
 40
0.6882693018
 40
0.7628605839
 40
0.8397743489
 40
0.9188692317
 40
1.0
 40
1.0
 40
1.0
 40
1.0
 10
11.0676377281
 20
11.3182217558
 30
0.0
 10
11.0653277948
 20
11.3170811883
 30
0.0
 10
11.0606906758
 20
11.3145660939
 30
0.0
 10
11.0538633935
 20
11.3102050443
 30
0.0
 10
11.0470270118
 20
11.3051627596
 30
0.0
 10
11.0401854692
 20
11.2994318282
 30
0.0
 10
11.033344378
 20
11.2930081775
 30
0.0
 10
11.0265068446
 20
11.2858966044
 30
0.0
 10
11.0196785925
 20
11.2781057907
 30
0.0
 10
11.0128623554
 20
11.2696523857
 30
0.0
 10
11.0060631939
 20
11.2605564764
 30
0.0
 10
10.9992833507
 20
11.2508440901
 30
0.0
 10
10.9925266907
 20
11.2405435368
 30
0.0
 10
10.9857948106
 20
11.2296865769
 30
0.0
 10
10.9790901006
 20
11.2183057167
 30
0.0
 10
10.9724134583
 20
11.2064346269
 30
0.0
 10
10.9657659727
 20
11.19410678
 30
0.0
 10
10.9614068593
 20
11.1857073574
 30
0.0
 10
10.95922933
 20
11.1814392218
 30
0.0
  0
SPLINE
  5
36A
100
AcDbEntity
  8
0
100
AcDbSpline
 62
7
  6
CONTINUOUS
 70
0
 71
3
 72
23
 73
19
 74
0
 42
0.0000001
 43
0.0000001
 44
0.0000000001
 40
0.0
 40
0.0
 40
0.0
 40
0.0
 40
0.0430692708
 40
0.0891859059
 40
0.1383039462
 40
0.1903539308
 40
0.2452509344
 40
0.3028923159
 40
0.36316428
 40
0.4259386958
 40
0.4910792536
 40
0.558438617
 40
0.6278623889
 40
0.6991843849
 40
0.7722354743
 40
0.8468474017
 40
0.9228412057
 40
1.0
 40
1.0
 40
1.0
 40
1.0
 10
12.0698695749
 20
11.3276102736
 30
0.0
 10
12.0652718414
 20
11.3298815104
 30
0.0
 10
12.0556291969
 20
11.3343403917
 30
0.0
 10
12.0403954245
 20
11.3406047566
 30
0.0
 10
12.0239326894
 20
11.3466584907
 30
0.0
 10
12.0062846877
 20
11.3524859392
 30
0.0
 10
11.9874975656
 20
11.3580708621
 30
0.0
 10
11.9676210255
 20
11.3633989465
 30
0.0
 10
11.946707637
 20
11.3684551881
 30
0.0
 10
11.9248129197
 20
11.3732266703
 30
0.0
 10
11.9019949558
 20
11.3776999172
 30
0.0
 10
11.8783143325
 20
11.3818635205
 30
0.0
 10
11.8538342555
 20
11.385705622
 30
0.0
 10
11.8286201816
 20
11.389216573
 30
0.0
 10
11.802738579
 20
11.3923864295
 30
0.0
 10
11.7762571859
 20
11.3952071698
 30
0.0
 10
11.7492491089
 20
11.3976704529
 30
0.0
 10
11.7310660446
 20
11.3990609563
 30
0.0
 10
11.7219009977
 20
11.3996965545
 30
0.0
  0
SPLINE
  5
36B
100
AcDbEntity
  8
0
100
AcDbSpline
 62
7
  6
CONTINUOUS
 70
0
 71
3
 72
56
 73
52
 74
0
 42
0.0000001
 43
0.0000001
 44
0.0000000001
 40
0.0
 40
0.0
 40
0.0
 40
0.0
 40
0.0460140365
 40
0.0926138763
 40
0.1395821546
 40
0.1867221822
 40
0.2338288136
 40
0.280695969
 40
0.3271205498
 40
0.3729016883
 40
0.4178419215
 40
0.4617486806
 40
0.5044357275
 40
0.5457237503
 40
0.5854421779
 40
0.623430808
 40
0.6595404895
 40
0.6936358272
 40
0.7098908177
 40
0.7255987191
 40
0.7407472814
 40
0.7553261698
 40
0.7693260262
 40
0.7827391099
 40
0.795560201
 40
0.8077857039
 40
0.8194143239
 40
0.8304482927
 40
0.8408926824
 40
0.8507562508
 40
0.8600531092
 40
0.8688025169
 40
0.8770301158
 40
0.8847700999
 40
0.8920656216
 40
0.8989701892
 40
0.9055493464
 40
0.9118801083
 40
0.9180498998
 40
0.9241540552
 40
0.93029114
 40
0.9365581198
 40
0.9430454648
 40
0.9498338051
 40
0.9533640988
 40
0.9569946791
 40
0.964581397
 40
0.9726423977
 40
0.9812148065
 40
0.9903269582
 40
1.0
 40
1.0
 40
1.0
 40
1.0
 10
11.4346120947
 20
11.122196767
 30
0.0
 10
11.4469099821
 20
11.1213439056
 30
0.0
 10
11.4716791875
 20
11.1198622919
 30
0.0
 10
11.5090437943
 20
11.1183112437
 30
0.0
 10
11.546731858
 20
11.1174225472
 30
0.0
 10
11.584565455
 20
11.1172001844
 30
0.0
 10
11.6223700126
 20
11.1176449501
 30
0.0
 10
11.6599691608
 20
11.1187549823
 30
0.0
 10
11.6971875702
 20
11.1205251131
 30
0.0
 10
11.7338520165
 20
11.1229467592
 30
0.0
 10
11.7697917372
 20
11.1260086808
 30
0.0
 10
11.8048393995
 20
11.1296965295
 30
0.0
 10
11.8388319072
 20
11.1339926578
 30
0.0
 10
11.8716111212
 20
11.1388770075
 30
0.0
 10
11.9030246556
 20
11.1443265426
 30
0.0
 10
11.9329268008
 20
11.1503152368
 30
0.0
 10
11.9611785556
 20
11.1568151347
 30
0.0
 10
11.9835809368
 20
11.1627220926
 30
0.0
 10
12.0005647723
 20
11.1676999088
 30
0.0
 10
12.0126070827
 20
11.1714820712
 30
0.0
 10
12.0241434087
 20
11.1753682918
 30
0.0
 10
12.0351605193
 20
11.1793537717
 30
0.0
 10
12.0456456344
 20
11.1834339567
 30
0.0
 10
12.0555865541
 20
11.1876043423
 30
0.0
 10
12.0649719876
 20
11.1918597507
 30
0.0
 10
12.0737911503
 20
11.1961953442
 30
0.0
 10
12.0820338058
 20
11.2006064606
 30
0.0
 10
12.0896907888
 20
11.2050877294
 30
0.0
 10
12.0967534611
 20
11.2096341779
 30
0.0
 10
12.1032136309
 20
11.2142412063
 30
0.0
 10
12.1090643366
 20
11.2189035385
 30
0.0
 10
12.1142990805
 20
11.2236164201
 30
0.0
 10
12.1189114688
 20
11.2283757056
 30
0.0
 10
12.1228963092
 20
11.2331766597
 30
0.0
 10
12.1262484432
 20
11.2380150829
 30
0.0
 10
12.1289619389
 20
11.2428871331
 30
0.0
 10
12.1310318068
 20
11.247787774
 30
0.0
 10
12.1324528228
 20
11.2527112888
 30
0.0
 10
12.1332193289
 20
11.2576504961
 30
0.0
 10
12.1333287837
 20
11.2625961809
 30
0.0
 10
12.1327809676
 20
11.2675386123
 30
0.0
 10
12.1315773284
 20
11.272468302
 30
0.0
 10
12.1297229807
 20
11.2773770852
 30
0.0
 10
12.1276668736
 20
11.2813928321
 30
0.0
 10
12.1257186331
 20
11.2845832378
 30
0.0
 10
12.1234994479
 20
11.2878537497
 30
0.0
 10
12.1203082205
 20
11.2919234829
 30
0.0
 10
12.1159044163
 20
11.2966969571
 30
0.0
 10
12.1108761744
 20
11.3014258555
 30
0.0
 10
12.1052299934
 20
11.3061054062
 30
0.0
 10
12.101180854
 20
11.3090985912
 30
0.0
 10
12.0990606304
 20
11.31058867
 30
0.0
  0
SPLINE
  5
36C
100
AcDbEntity
  8
0
100
AcDbSpline
 62
7
  6
CONTINUOUS
 70
0
 71
3
 72
11
 73
7
 74
0
 42
0.0000001
 43
0.0000001
 44
0.0000000001
 40
0.0
 40
0.0
 40
0.0
 40
0.0
 40
0.2310152257
 40
0.4746103058
 40
0.7309143418
 40
1.0
 40
1.0
 40
1.0
 40
1.0
 10
12.0990606304
 20
11.31058867
 30
0.0
 10
12.0969297642
 20
11.3120862283
 30
0.0
 10
12.0924773264
 20
11.3150576246
 30
0.0
 10
12.0854349466
 20
11.319340372
 30
0.0
 10
12.0778605274
 20
11.3235619167
 30
0.0
 10
12.072589486
 20
11.3262666633
 30
0.0
 10
12.0698695749
 20
11.3276102736
 30
0.0
  0
SPLINE
  5
36D
100
AcDbEntity
  8
0
100
AcDbSpline
 62
7
  6
CONTINUOUS
 70
0
 71
3
 72
9
 73
5
 74
0
 42
0.0000001
 43
0.0000001
 44
0.0000000001
 40
0.0
 40
0.0
 40
0.0
 40
0.0
 40
0.4802028106
 40
1.0
 40
1.0
 40
1.0
 40
1.0
 10
10.95922933
 20
11.1814392218
 30
0.0
 10
10.9613207529
 20
11.1789928867
 30
0.0
 10
10.9659495726
 20
11.1741292969
 30
0.0
 10
10.9709830421
 20
11.1696920742
 30
0.0
 10
10.9736773782
 20
11.1674835027
 30
0.0
  0
SPLINE
  5
36E
100
AcDbEntity
  8
0
100
AcDbSpline
 62
7
  6
CONTINUOUS
 70
0
 71
3
 72
24
 73
20
 74
0
 42
0.0000001
 43
0.0000001
 44
0.0000000001
 40
0.0
 40
0.0
 40
0.0
 40
0.0
 40
0.0904093868
 40
0.1775325331
 40
0.2610553835
 40
0.3406844661
 40
0.41616279
 40
0.4872998029
 40
0.521207684
 40
0.5540039824
 40
0.6162843266
 40
0.6743126111
 40
0.7283969377
 40
0.7789824074
 40
0.826623815
 40
0.8719379797
 40
0.9155549124
 40
0.9580698186
 40
1.0
 40
1.0
 40
1.0
 40
1.0
 10
12.0458640729
 20
11.1060808464
 30
0.0
 10
12.0488996013
 20
11.1120307305
 30
0.0
 10
12.0549735732
 20
11.1236570541
 30
0.0
 10
12.0642990573
 20
11.1405418255
 30
0.0
 10
12.0736793226
 20
11.1564794257
 30
0.0
 10
12.0831113359
 20
11.1713787134
 30
0.0
 10
12.0925901994
 20
11.1851517656
 30
0.0
 10
12.100646041
 20
11.1957887719
 30
0.0
 10
12.1071229359
 20
11.2036491898
 30
0.0
 10
12.1133954911
 20
11.2108245017
 30
0.0
 10
12.1212346804
 20
11.2189918146
 30
0.0
 10
12.1308211901
 20
11.2276195259
 30
0.0
 10
12.1404098927
 20
11.2348944344
 30
0.0
 10
12.1499887024
 20
11.2408343014
 30
0.0
 10
12.1595442619
 20
11.2454793859
 30
0.0
 10
12.1690628501
 20
11.248887875
 30
0.0
 10
12.1785313239
 20
11.2511340934
 30
0.0
 10
12.1879374148
 20
11.2523043766
 30
0.0
 10
12.1941871748
 20
11.2524284608
 30
0.0
 10
12.1972837625
 20
11.2523410438
 30
0.0
  0
SPLINE
  5
36F
100
AcDbEntity
  8
0
100
AcDbSpline
 62
7
  6
CONTINUOUS
 70
0
 71
3
 72
15
 73
11
 74
0
 42
0.0000001
 43
0.0000001
 44
0.0000000001
 40
0.0
 40
0.0
 40
0.0
 40
0.0
 40
0.1193884442
 40
0.2394118209
 40
0.3604965246
 40
0.4831212753
 40
0.6078106285
 40
0.735130254
 40
0.8656619472
 40
1.0
 40
1.0
 40
1.0
 40
1.0
 10
12.0458640729
 20
10.7216774051
 30
0.0
 10
12.0476338286
 20
10.7216274447
 30
0.0
 10
12.0511863555
 20
10.7216246132
 30
0.0
 10
12.0565266479
 20
10.7219278448
 30
0.0
 10
12.0618873415
 20
10.7225553883
 30
0.0
 10
12.0672675097
 20
10.7235239619
 30
0.0
 10
12.0726663295
 20
10.7248499772
 30
0.0
 10
12.0780824991
 20
10.7265498998
 30
0.0
 10
12.0835144588
 20
10.7286382033
 30
0.0
 10
12.0870890954
 20
10.7302730689
 30
0.0
 10
12.0888753644
 20
10.7311550685
 30
0.0
  0
SPLINE
  5
370
100
AcDbEntity
  8
0
100
AcDbSpline
 62
7
  6
CONTINUOUS
 70
0
 71
3
 72
23
 73
19
 74
0
 42
0.0000001
 43
0.0000001
 44
0.0000000001
 40
0.0
 40
0.0
 40
0.0
 40
0.0
 40
0.0584073816
 40
0.1170342823
 40
0.175946792
 40
0.235225456
 40
0.2949566682
 40
0.3552310086
 40
0.416138202
 40
0.4777588108
 40
0.540158822
 40
0.6033849084
 40
0.6674605222
 40
0.7323867869
 40
0.7981446078
 40
0.8646981496
 40
0.9320021535
 40
1.0
 40
1.0
 40
1.0
 40
1.0
 10
10.9736773782
 20
11.1674835027
 30
0.0
 10
10.982124411
 20
11.1683710092
 30
0.0
 10
10.9990828635
 20
11.169855826
 30
0.0
 10
11.0246439172
 20
11.1711209638
 30
0.0
 10
11.0503634646
 20
11.1713385885
 30
0.0
 10
11.0762292531
 20
11.1704209123
 30
0.0
 10
11.1022229543
 20
11.1682878887
 30
0.0
 10
11.1283190172
 20
11.1648724986
 30
0.0
 10
11.154485438
 20
11.1601241295
 30
0.0
 10
11.180685652
 20
11.1540157373
 30
0.0
 10
11.2068811464
 20
11.1465461432
 30
0.0
 10
11.2330336328
 20
11.1377380862
 30
0.0
 10
11.2591082496
 20
11.1276384633
 30
0.0
 10
11.2850757874
 20
11.1163143432
 30
0.0
 10
11.310912883
 20
11.1038454687
 30
0.0
 10
11.3366033343
 20
11.0903204172
 30
0.0
 10
11.3621368954
 20
11.0758319532
 30
0.0
 10
11.3789703038
 20
11.065640491
 30
0.0
 10
11.3873640962
 20
11.0604136371
 30
0.0
  0
SPLINE
  5
371
100
AcDbEntity
  8
0
100
AcDbSpline
 62
7
  6
CONTINUOUS
 70
0
 71
3
 72
23
 73
19
 74
0
 42
0.0000001
 43
0.0000001
 44
0.0000000001
 40
0.0
 40
0.0
 40
0.0
 40
0.0
 40
0.0430699451
 40
0.0891871423
 40
0.1383056318
 40
0.190355986
 40
0.2452532918
 40
0.3028948794
 40
0.3631669336
 40
0.4259413274
 40
0.4910817656
 40
0.5584409459
 40
0.6278644901
 40
0.6991861904
 40
0.7722368997
 40
0.8468483862
 40
0.9228417141
 40
1.0
 40
1.0
 40
1.0
 40
1.0
 10
11.1017061045
 20
10.7143259206
 30
0.0
 10
11.106163052
 20
10.7121243202
 30
0.0
 10
11.1155104019
 20
10.70780215
 30
0.0
 10
11.1302776066
 20
10.7017298473
 30
0.0
 10
11.1462360688
 20
10.6958617195
 30
0.0
 10
11.1633434391
 20
10.6902129414
 30
0.0
 10
11.1815549877
 20
10.6847992518
 30
0.0
 10
11.2008225325
 20
10.6796345257
 30
0.0
 10
11.2210951113
 20
10.67473331
 30
0.0
 10
11.242318906
 20
10.670108124
 30
0.0
 10
11.2644376204
 20
10.6657720278
 30
0.0
 10
11.2873925327
 20
10.6617360802
 30
0.0
 10
11.3111223775
 20
10.6580117742
 30
0.0
 10
11.335563702
 20
10.6546084627
 30
0.0
 10
11.3606520733
 20
10.6515357861
 30
0.0
 10
11.3863218331
 20
10.6488015196
 30
0.0
 10
11.4125021213
 20
10.6464137472
 30
0.0
 10
11.430127877
 20
10.645065865
 30
0.0
 10
11.4390120149
 20
10.6444497479
 30
0.0
  0
SPLINE
  5
372
100
AcDbEntity
  8
0
100
AcDbSpline
 62
7
  6
CONTINUOUS
 70
0
 71
3
 72
21
 73
17
 74
0
 42
0.0000001
 43
0.0000001
 44
0.0000000001
 40
0.0
 40
0.0
 40
0.0
 40
0.0
 40
0.1331620508
 40
0.198721389
 40
0.2635863969
 40
0.3277657689
 40
0.3912790145
 40
0.4541586317
 40
0.5164459921
 40
0.5781920281
 40
0.6394524084
 40
0.7002861096
 40
0.7607522371
 40
0.8209070106
 40
0.8808048208
 40
1.0
 40
1.0
 40
1.0
 40
1.0
 10
11.0561807462
 20
10.7368146181
 30
0.0
 10
11.0697757316
 20
10.7300968928
 30
0.0
 10
11.0903562616
 20
10.7206410045
 30
0.0
 10
11.1182223232
 20
10.7094722653
 30
0.0
 10
11.1390718101
 20
10.7019471613
 30
0.0
 10
11.1599599369
 20
10.6952582347
 30
0.0
 10
11.1808695013
 20
10.6894277457
 30
0.0
 10
11.2017802071
 20
10.6844633304
 30
0.0
 10
11.2226732618
 20
10.6803675465
 30
0.0
 10
11.2435293423
 20
10.67712768
 30
0.0
 10
11.2643315624
 20
10.6747253436
 30
0.0
 10
11.2850647815
 20
10.6731311508
 30
0.0
 10
11.3057165255
 20
10.6723102853
 30
0.0
 10
11.3262776747
 20
10.6722225198
 30
0.0
 10
11.3535145179
 20
10.6730232735
 30
0.0
 10
11.3738647629
 20
10.674591858
 30
0.0
 10
11.3873640962
 20
10.6760101958
 30
0.0
  0
SPLINE
  5
373
100
AcDbEntity
  8
0
100
AcDbSpline
 62
7
  6
CONTINUOUS
 70
0
 71
3
 72
21
 73
17
 74
0
 42
0.0000001
 43
0.0000001
 44
0.0000000001
 40
0.0
 40
0.0
 40
0.0
 40
0.0
 40
0.1269266306
 40
0.1902356571
 40
0.2534226618
 40
0.3164750211
 40
0.379381614
 40
0.442133702
 40
0.5047247465
 40
0.5671521045
 40
0.6294167402
 40
0.6915228504
 40
0.7534784743
 40
0.8152934295
 40
0.8769787052
 40
1.0
 40
1.0
 40
1.0
 40
1.0
 10
11.4412849049
 20
11.0566742163
 30
0.0
 10
11.4642924878
 20
11.0643986315
 30
0.0
 10
11.4990528933
 20
11.0751864298
 30
0.0
 10
11.545896814
 20
11.0876059872
 30
0.0
 10
11.5812010006
 20
11.095831681
 30
0.0
 10
11.6166791359
 20
11.1028893991
 30
0.0
 10
11.6522987451
 20
11.108703645
 30
0.0
 10
11.6880186808
 20
11.1132125997
 30
0.0
 10
11.7237912027
 20
11.1163758897
 30
0.0
 10
11.7595648202
 20
11.1181778925
 30
0.0
 10
11.7952880275
 20
11.1186267918
 30
0.0
 10
11.8309127443
 20
11.1177560595
 30
0.0
 10
11.8663971829
 20
11.115621656
 30
0.0
 10
11.9017084873
 20
11.112294446
 30
0.0
 10
11.9484796967
 20
11.106384304
 30
0.0
 10
11.9833121341
 20
11.1004119017
 30
0.0
 10
12.0063913125
 20
11.0958645482
 30
0.0
  0
SPLINE
  5
374
100
AcDbEntity
  8
0
100
AcDbSpline
 62
7
  6
CONTINUOUS
 70
0
 71
3
 72
29
 73
25
 74
0
 42
0.0000001
 43
0.0000001
 44
0.0000000001
 40
0.0
 40
0.0
 40
0.0
 40
0.0
 40
0.0193649952
 40
0.0398586582
 40
0.0614693309
 40
0.0841787293
 40
0.1079642341
 40
0.1327992914
 40
0.1586527009
 40
0.1854910601
 40
0.2132769506
 40
0.2419706946
 40
0.2715302662
 40
0.301910651
 40
0.3649447207
 40
0.4306793292
 40
0.4986935923
 40
0.5685459112
 40
0.6397782272
 40
0.7119204072
 40
0.7844953224
 40
0.8570181404
 40
0.9290160173
 40
1.0
 40
1.0
 40
1.0
 40
1.0
 10
12.0548067211
 20
10.7143257887
 30
0.0
 10
12.0511898489
 20
10.7125391653
 30
0.0
 10
12.0436678559
 20
10.7090171454
 30
0.0
 10
12.0318805818
 20
10.7040080058
 30
0.0
 10
12.0192877423
 20
10.6991315706
 30
0.0
 10
12.0059117937
 20
10.6943961758
 30
0.0
 10
11.9917761361
 20
10.6898103233
 30
0.0
 10
11.9769056958
 20
10.6853824503
 30
0.0
 10
11.9613268085
 20
10.6811199892
 30
0.0
 10
11.9450669873
 20
10.677031099
 30
0.0
 10
11.9281550923
 20
10.6731226919
 30
0.0
 10
11.9106211037
 20
10.6694019051
 30
0.0
 10
11.8924961092
 20
10.6658754978
 30
0.0
 10
11.8672739782
 20
10.6613857595
 30
0.0
 10
11.8345033387
 20
10.6563271425
 30
0.0
 10
11.7938280949
 20
10.6511924886
 30
0.0
 10
11.7516216781
 20
10.6469589834
 30
0.0
 10
11.7081839128
 20
10.6436571203
 30
0.0
 10
11.6638231268
 20
10.6413108459
 30
0.0
 10
11.6188542881
 20
10.6399370783
 30
0.0
 10
11.5735974096
 20
10.6395458604
 30
0.0
 10
11.5283727206
 20
10.6401396173
 30
0.0
 10
11.4835033681
 20
10.6417146529
 30
0.0
 10
11.4537638293
 20
10.6434267061
 30
0.0
 10
11.4390120149
 20
10.6444497479
 30
0.0
  0
SPLINE
  5
375
100
AcDbEntity
  8
0
100
AcDbSpline
 62
7
  6
CONTINUOUS
 70
0
 71
3
 72
21
 73
17
 74
0
 42
0.0000001
 43
0.0000001
 44
0.0000000001
 40
0.0
 40
0.0
 40
0.0
 40
0.0
 40
0.1230212948
 40
0.1847065705
 40
0.2465215258
 40
0.3084771496
 40
0.3705832599
 40
0.4328478955
 40
0.4952752535
 40
0.5578662981
 40
0.6206183861
 40
0.683524979
 40
0.7465773382
 40
0.8097643429
 40
0.8730733694
 40
1.0
 40
1.0
 40
1.0
 40
1.0
 10
11.4412849049
 20
10.672270775
 30
0.0
 10
11.4643640832
 20
10.6677234215
 30
0.0
 10
11.4991965206
 20
10.6617510191
 30
0.0
 10
11.54596773
 20
10.6558408771
 30
0.0
 10
11.5812790345
 20
10.6525136672
 30
0.0
 10
11.6167634731
 20
10.6503792636
 30
0.0
 10
11.6523881899
 20
10.6495085314
 30
0.0
 10
11.6881113972
 20
10.6499574306
 30
0.0
 10
11.7238850146
 20
10.6517594335
 30
0.0
 10
11.7596575366
 20
10.6549227235
 30
0.0
 10
11.7953774723
 20
10.6594316782
 30
0.0
 10
11.8309970814
 20
10.6652459241
 30
0.0
 10
11.8664752168
 20
10.6723036422
 30
0.0
 10
11.9017794033
 20
10.6805293359
 30
0.0
 10
11.948623324
 20
10.6929488934
 30
0.0
 10
11.9833837295
 20
10.7037366917
 30
0.0
 10
12.0063913125
 20
10.7114611068
 30
0.0
  0
SPLINE
  5
376
100
AcDbEntity
  8
0
100
AcDbSpline
 62
7
  6
CONTINUOUS
 70
0
 71
3
 72
9
 73
5
 74
0
 42
0.0000001
 43
0.0000001
 44
0.0000000001
 40
0.0
 40
0.0
 40
0.0
 40
0.0
 40
0.5151645244
 40
1.0
 40
1.0
 40
1.0
 40
1.0
 10
11.0866440392
 20
11.3276105313
 30
0.0
 10
11.0833068925
 20
11.3259620206
 30
0.0
 10
11.0768881475
 20
11.3226404401
 30
0.0
 10
11.0706184778
 20
11.3190437071
 30
0.0
 10
11.0676250336
 20
11.3172243147
 30
0.0
  0
SPLINE
  5
377
100
AcDbEntity
  8
0
100
AcDbSpline
 62
7
  6
CONTINUOUS
 70
0
 71
3
 72
55
 73
51
 74
0
 42
0.0000001
 43
0.0000001
 44
0.0000000001
 40
0.0
 40
0.0
 40
0.0
 40
0.0
 40
0.0126039668
 40
0.0246626451
 40
0.0361845815
 40
0.0471813629
 40
0.0576675083
 40
0.0676611077
 40
0.0771851246
 40
0.0862675479
 40
0.0949416347
 40
0.1032466857
 40
0.1112290233
 40
0.118941678
 40
0.1264439865
 40
0.1338010228
 40
0.1410823646
 40
0.1483598643
 40
0.1557054861
 40
0.1631891608
 40
0.1708765213
 40
0.1788275498
 40
0.1870959619
 40
0.195728829
 40
0.2047661593
 40
0.2142418107
 40
0.2241843014
 40
0.2346171506
 40
0.2455588974
 40
0.2570244016
 40
0.2690255426
 40
0.281571226
 40
0.294667253
 40
0.3083174627
 40
0.337285222
 40
0.3684733057
 40
0.4018562187
 40
0.4373894698
 40
0.4750146658
 40
0.514659581
 40
0.5562421653
 40
0.5996694007
 40
0.6448409651
 40
0.6916481552
 40
0.7399765684
 40
0.7897029257
 40
0.8407002665
 40
0.8928422091
 40
0.9459958947
 40
1.0
 40
1.0
 40
1.0
 40
1.0
 10
11.0676250336
 20
11.3172243147
 30
0.0
 10
11.0657280747
 20
11.3160713576
 30
0.0
 10
11.0620521055
 20
11.3137554497
 30
0.0
 10
11.0567841309
 20
11.3101663894
 30
0.0
 10
11.0518882053
 20
11.3065417909
 30
0.0
 10
11.0473676537
 20
11.3028842509
 30
0.0
 10
11.0432256228
 20
11.2991961624
 30
0.0
 10
11.039465286
 20
11.2954796912
 30
0.0
 10
11.0360892543
 20
11.2917372708
 30
0.0
 10
11.0330998566
 20
11.2879712881
 30
0.0
 10
11.0304994922
 20
11.2841839862
 30
0.0
 10
11.0282907942
 20
11.2803774698
 30
0.0
 10
11.0264757769
 20
11.2765542749
 30
0.0
 10
11.0250563422
 20
11.2727170499
 30
0.0
 10
11.0240345123
 20
11.2688686582
 30
0.0
 10
11.0234123761
 20
11.2650123494
 30
0.0
 10
11.0231907202
 20
11.2611519264
 30
0.0
 10
11.0233697777
 20
11.2572912957
 30
0.0
 10
11.0239493478
 20
11.2534343645
 30
0.0
 10
11.0249287698
 20
11.2495849674
 30
0.0
 10
11.0263060275
 20
11.2457464152
 30
0.0
 10
11.0280790798
 20
11.2419216039
 30
0.0
 10
11.0302460013
 20
11.2381131863
 30
0.0
 10
11.0328048487
 20
11.2343237406
 30
0.0
 10
11.0357529993
 20
11.2305553852
 30
0.0
 10
11.0390880359
 20
11.2268103511
 30
0.0
 10
11.042807623
 20
11.2230909953
 30
0.0
 10
11.0469092216
 20
11.2193997895
 30
0.0
 10
11.0513896812
 20
11.2157388858
 30
0.0
 10
11.0562458386
 20
11.2121106758
 30
0.0
 10
11.0614744578
 20
11.2085176814
 30
0.0
 10
11.0670719682
 20
11.2049624692
 30
0.0
 10
11.073034279
 20
11.2014472275
 30
0.0
 10
11.0816361841
 20
11.1967229965
 30
0.0
 10
11.0932934496
 20
11.1909564297
 30
0.0
 10
11.1083973877
 20
11.1843650895
 30
0.0
 10
11.1248403517
 20
11.1779908149
 30
0.0
 10
11.1425758439
 20
11.171851225
 30
0.0
 10
11.1615542856
 20
11.1659644526
 30
0.0
 10
11.1817219637
 20
11.1603468737
 30
0.0
 10
11.2030217783
 20
11.1550152608
 30
0.0
 10
11.2253931414
 20
11.1499844083
 30
0.0
 10
11.2487724382
 20
11.1452694016
 30
0.0
 10
11.2730931308
 20
11.1408832709
 30
0.0
 10
11.2982857194
 20
11.1368393071
 30
0.0
 10
11.3242779517
 20
11.133148535
 30
0.0
 10
11.3509961829
 20
11.1298220581
 30
0.0
 10
11.3783654109
 20
11.1268689848
 30
0.0
 10
11.4063049412
 20
11.1242986211
 30
0.0
 10
11.4251234851
 20
11.1228548044
 30
0.0
 10
11.4346120947
 20
11.122196767
 30
0.0
  0
SPLINE
  5
378
100
AcDbEntity
  8
0
100
AcDbSpline
 62
7
  6
CONTINUOUS
 70
0
 71
3
 72
73
 73
69
 74
0
 42
0.0000001
 43
0.0000001
 44
0.0000000001
 40
0.0
 40
0.0
 40
0.0
 40
0.0
 40
0.0081224022
 40
0.0169164881
 40
0.0264080918
 40
0.0366136014
 40
0.04754057
 40
0.0591899206
 40
0.0715570957
 40
0.0846329544
 40
0.0984044773
 40
0.1128552665
 40
0.127966013
 40
0.1437148398
 40
0.1600775546
 40
0.1770278651
 40
0.1945376152
 40
0.2125769577
 40
0.2311144851
 40
0.2501173642
 40
0.2695514954
 40
0.2893816308
 40
0.3095714702
 40
0.3300837748
 40
0.3719220492
 40
0.4145849353
 40
0.457751839
 40
0.5010972353
 40
0.54429386
 40
0.5870158917
 40
0.6289421676
 40
0.6495090195
 40
0.6697602646
 40
0.689658515
 40
0.7091672831
 40
0.7282511178
 40
0.7468757086
 40
0.7650079904
 40
0.7826162729
 40
0.7996704126
 40
0.8161419428
 40
0.8320042263
 40
0.847232655
 40
0.8618049127
 40
0.8757012118
 40
0.8889046034
 40
0.9014013951
 40
0.9131817041
 40
0.9242400818
 40
0.9294986536
 40
0.9345772202
 40
0.9394767517
 40
0.9441987855
 40
0.9487453776
 40
0.9531191913
 40
0.9573236508
 40
0.9613629082
 40
0.9652420356
 40
0.9689671195
 40
0.9725453099
 40
0.9759850477
 40
0.9824862747
 40
0.985575164
 40
0.9885736655
 40
0.9914976171
 40
0.9943642564
 40
0.9971919689
 40
1.0
 40
1.0
 40
1.0
 40
1.0
 10
11.4854741926
 20
10.3156783394
 30
0.0
 10
11.4836958421
 20
10.3139605846
 30
0.0
 10
11.4798243661
 20
10.3105544618
 30
0.0
 10
11.4733979431
 20
10.3057151382
 30
0.0
 10
11.4661405734
 20
10.3009567289
 30
0.0
 10
11.4580668292
 20
10.2962883474
 30
0.0
 10
11.4491918504
 20
10.2917186036
 30
0.0
 10
11.4395329819
 20
10.2872564165
 30
0.0
 10
11.4291091668
 20
10.2829106048
 30
0.0
 10
11.4179410294
 20
10.2786898965
 30
0.0
 10
11.4060508027
 20
10.2746028203
 30
0.0
 10
11.3934622719
 20
10.2706576498
 30
0.0
 10
11.3802006911
 20
10.2668624032
 30
0.0
 10
11.3662927146
 20
10.2632248116
 30
0.0
 10
11.3517663465
 20
10.2597522897
 30
0.0
 10
11.3366508806
 20
10.2564518988
 30
0.0
 10
11.3209768206
 20
10.2533303618
 30
0.0
 10
11.3047758111
 20
10.2503940445
 30
0.0
 10
11.288080582
 20
10.2476489305
 30
0.0
 10
11.2709248812
 20
10.2451005986
 30
0.0
 10
11.2533433904
 20
10.2427542341
 30
0.0
 10
11.2353716659
 20
10.2406146276
 30
0.0
 10
11.2170460248
 20
10.2386861059
 30
0.0
 10
11.1920252538
 20
10.2363864553
 30
0.0
 10
11.1601386979
 20
10.2340756901
 30
0.0
 10
11.1213171368
 20
10.2322121824
 30
0.0
 10
11.0820037078
 20
10.2312556888
 30
0.0
 10
11.0425162907
 20
10.2312140573
 30
0.0
 10
11.0031738807
 20
10.2320876038
 30
0.0
 10
10.964294593
 20
10.2338692158
 30
0.0
 10
10.9323416809
 20
10.2361122915
 30
0.0
 10
10.9072537321
 20
10.238358551
 30
0.0
 10
10.888867727
 20
10.2402482698
 30
0.0
 10
10.8708289493
 20
10.2423498104
 30
0.0
 10
10.8531738563
 20
10.244658936
 30
0.0
 10
10.8359381568
 20
10.2471709329
 30
0.0
 10
10.8191566912
 20
10.2498806847
 30
0.0
 10
10.8028633812
 20
10.2527826754
 30
0.0
 10
10.7870911513
 20
10.2558710071
 30
0.0
 10
10.7718718505
 20
10.2591393804
 30
0.0
 10
10.7572361891
 20
10.2625811328
 30
0.0
 10
10.743213684
 20
10.2661892551
 30
0.0
 10
10.7298325851
 20
10.2699564111
 30
0.0
 10
10.7171197995
 20
10.2738749212
 30
0.0
 10
10.7051008281
 20
10.2779368151
 30
0.0
 10
10.6937997451
 20
10.2821338523
 30
0.0
 10
10.6832390128
 20
10.2864575731
 30
0.0
 10
10.6734397818
 20
10.290899249
 30
0.0
 10
10.6658010038
 20
10.2947536062
 30
0.0
 10
10.6600962924
 20
10.2978971079
 30
0.0
 10
10.6560922077
 20
10.300238997
 30
0.0
 10
10.6522925413
 20
10.3026036413
 30
0.0
 10
10.6486991587
 20
10.3049898583
 30
0.0
 10
10.6453138494
 20
10.3073964745
 30
0.0
 10
10.6421383227
 20
10.3098223578
 30
0.0
 10
10.6391741182
 20
10.3122662843
 30
0.0
 10
10.6364227453
 20
10.3147271267
 30
0.0
 10
10.6338855709
 20
10.3172037518
 30
0.0
 10
10.6315638976
 20
10.3196948896
 30
0.0
 10
10.6294587931
 20
10.3221997634
 30
0.0
 10
10.6269892724
 20
10.325493345
 30
0.0
 10
10.6248922748
 20
10.3288757248
 30
0.0
 10
10.6232273488
 20
10.3323303155
 30
0.0
 10
10.622221403
 20
10.3348852411
 30
0.0
 10
10.6214380715
 20
10.3374463931
 30
0.0
 10
10.6208779248
 20
10.340012506
 30
0.0
 10
10.6205416451
 20
10.3425817695
 30
0.0
 10
10.6204668125
 20
10.3442982364
 30
0.0
 10
10.6204668169
 20
10.3451530121
 30
0.0
  0
SPLINE
  5
379
100
AcDbEntity
  8
0
100
AcDbSpline
 62
7
  6
CONTINUOUS
 70
0
 71
3
 72
59
 73
55
 74
0
 42
0.0000001
 43
0.0000001
 44
0.0000000001
 40
0.0
 40
0.0
 40
0.0
 40
0.0
 40
0.0074596563
 40
0.015454112
 40
0.0240027273
 40
0.033119185
 40
0.0428112374
 40
0.05308213
 40
0.0639314299
 40
0.0753554559
 40
0.0873477999
 40
0.0998997306
 40
0.1130004181
 40
0.126637178
 40
0.1407957148
 40
0.1554602358
 40
0.1706135724
 40
0.1862373536
 40
0.2023120775
 40
0.2188171723
 40
0.2357311336
 40
0.253031583
 40
0.2706953012
 40
0.2886983407
 40
0.3256226133
 40
0.3636009203
 40
0.4024209622
 40
0.44186408
 40
0.4817069689
 40
0.5217233855
 40
0.561685809
 40
0.6013671164
 40
0.6405422441
 40
0.6789898885
 40
0.716494185
 40
0.7528464454
 40
0.7705281358
 40
0.7878477552
 40
0.804782062
 40
0.8213086349
 40
0.8374059041
 40
0.8530532614
 40
0.8682311571
 40
0.8829211387
 40
0.8971059803
 40
0.9107698331
 40
0.9238982995
 40
0.9364786063
 40
0.9484998498
 40
0.959953163
 40
0.9708320015
 40
0.9811325701
 40
0.9908542174
 40
1.0
 40
1.0
 40
1.0
 40
1.0
 10
12.0998565233
 20
10.5911261999
 30
0.0
 10
12.097972735
 20
10.5893066
 30
0.0
 10
12.0939173874
 20
10.5856931044
 30
0.0
 10
12.0872573708
 20
10.5805209926
 30
0.0
 10
12.0798250591
 20
10.5754211769
 30
0.0
 10
12.0716318798
 20
10.570401143
 30
0.0
 10
12.0626895164
 20
10.5654678247
 30
0.0
 10
12.0530111697
 20
10.5606284781
 30
0.0
 10
12.0426111564
 20
10.5558902952
 30
0.0
 10
12.0315049864
 20
10.5512603867
 30
0.0
 10
12.0197093124
 20
10.5467457448
 30
0.0
 10
12.0072418736
 20
10.5423532567
 30
0.0
 10
11.994121487
 20
10.5380896192
 30
0.0
 10
11.9803680059
 20
10.5339613287
 30
0.0
 10
11.9660022622
 20
10.5299747173
 30
0.0
 10
11.9510460487
 20
10.5261358938
 30
0.0
 10
11.9355220842
 20
10.5224507156
 30
0.0
 10
11.9194539575
 20
10.5189248375
 30
0.0
 10
11.9028660984
 20
10.5155636718
 30
0.0
 10
11.8857837476
 20
10.5123723455
 30
0.0
 10
11.8682328985
 20
10.5093557483
 30
0.0
 10
11.8502402708
 20
10.5065185231
 30
0.0
 10
11.8318332384
 20
10.5038649647
 30
0.0
 10
11.8065625456
 20
10.5005494033
 30
0.0
 10
11.7741441866
 20
10.4969052715
 30
0.0
 10
11.7343709093
 20
10.4933572903
 30
0.0
 10
11.6936472573
 20
10.4906204018
 30
0.0
 10
11.6522212303
 20
10.4887114659
 30
0.0
 10
11.610344921
 20
10.4876422585
 30
0.0
 10
11.5682732661
 20
10.4874193984
 30
0.0
 10
11.5262623876
 20
10.4880442524
 30
0.0
 10
11.4845680348
 20
10.4895129516
 30
0.0
 10
11.4434440232
 20
10.4918164609
 30
0.0
 10
11.4031405759
 20
10.4949405193
 30
0.0
 10
11.3639031123
 20
10.4988658813
 30
0.0
 10
11.3320046337
 20
10.5028199936
 30
0.0
 10
11.3072057572
 20
10.5063780928
 30
0.0
 10
11.2891912165
 20
10.5092060457
 30
0.0
 10
11.2716170906
 20
10.5122135598
 30
0.0
 10
11.2545101036
 20
10.5153960477
 30
0.0
 10
11.2378963002
 20
10.5187486428
 30
0.0
 10
11.2218009544
 20
10.5222662171
 30
0.0
 10
11.2062485365
 20
10.5259433635
 30
0.0
 10
11.191262686
 20
10.5297744614
 30
0.0
 10
11.1768661648
 20
10.5337536562
 30
0.0
 10
11.1630808077
 20
10.5378748342
 30
0.0
 10
11.1499275051
 20
10.5421316954
 30
0.0
 10
11.1374261616
 20
10.5465177554
 30
0.0
 10
11.1255956396
 20
10.5510262982
 30
0.0
 10
11.1144537342
 20
10.5556504706
 30
0.0
 10
11.1040171892
 20
10.5603832812
 30
0.0
 10
11.0943014636
 20
10.5652176557
 30
0.0
 10
11.0853212746
 20
10.570146189
 30
0.0
 10
11.0796616777
 20
10.5735946816
 30
0.0
 10
11.0769647473
 20
10.5753375585
 30
0.0
  0
SPLINE
  5
37A
100
AcDbEntity
  8
0
100
AcDbSpline
 62
7
  6
CONTINUOUS
 70
0
 71
3
 72
23
 73
19
 74
0
 42
0.0000001
 43
0.0000001
 44
0.0000000001
 40
0.0
 40
0.0
 40
0.0
 40
0.0
 40
0.082707583
 40
0.1621569484
 40
0.238403426
 40
0.3115163767
 40
0.3815831747
 40
0.4487094901
 40
0.5130231572
 40
0.5746762585
 40
0.6338473862
 40
0.690745226
 40
0.745609061
 40
0.7987111823
 40
0.8503555682
 40
0.9008760078
 40
0.9506316735
 40
1.0
 40
1.0
 40
1.0
 40
1.0
 10
11.0769647473
 20
10.5753375585
 30
0.0
 10
11.0754025759
 20
10.5763471034
 30
0.0
 10
11.0723699632
 20
10.5783737414
 30
0.0
 10
11.0680152687
 20
10.5815030672
 30
0.0
 10
11.063949138
 20
10.5846585584
 30
0.0
 10
11.0601739375
 20
10.5878385669
 30
0.0
 10
11.0566917074
 20
10.5910413523
 30
0.0
 10
11.053504448
 20
10.5942653076
 30
0.0
 10
11.0506139731
 20
10.5975087751
 30
0.0
 10
11.0480219585
 20
10.6007701099
 30
0.0
 10
11.0457300715
 20
10.6040477494
 30
0.0
 10
11.043739736
 20
10.607339997
 30
0.0
 10
11.0420524912
 20
10.6106452465
 30
0.0
 10
11.0406696369
 20
10.6139617031
 30
0.0
 10
11.0395924714
 20
10.6172874654
 30
0.0
 10
11.0388221651
 20
10.6206205694
 30
0.0
 10
11.0383595276
 20
10.6239583561
 30
0.0
 10
11.0382565637
 20
10.6261888738
 30
0.0
 10
11.0382565612
 20
10.6272991053
 30
0.0
  0
SPLINE
  5
37B
100
AcDbEntity
  8
0
100
AcDbSpline
 62
7
  6
CONTINUOUS
 70
0
 71
3
 72
19
 73
15
 74
0
 42
0.0000001
 43
0.0000001
 44
0.0000000001
 40
0.0
 40
0.0
 40
0.0
 40
0.0
 40
0.150460937
 40
0.2916987357
 40
0.424419542
 40
0.4878837275
 40
0.5495802504
 40
0.6682271673
 40
0.7255606103
 40
0.7817998831
 40
0.8371466721
 40
0.8918135967
 40
0.94602219
 40
1.0
 40
1.0
 40
1.0
 40
1.0
 10
13.1179425022
 20
9.4415824505
 30
0.0
 10
13.1199073348
 20
9.4434803332
 30
0.0
 10
13.1238342974
 20
9.4470413009
 30
0.0
 10
13.1299148199
 20
9.4517866988
 30
0.0
 10
13.1350507782
 20
9.4551429082
 30
0.0
 10
13.1391463765
 20
9.4574156366
 30
0.0
 10
13.1431211479
 20
9.4593668223
 30
0.0
 10
13.1471424572
 20
9.4609617414
 30
0.0
 10
13.1511863908
 20
9.4621619254
 30
0.0
 10
13.1541763648
 20
9.4628537185
 30
0.0
 10
13.1571563854
 20
9.4633467975
 30
0.0
 10
13.1601256656
 20
9.4636409183
 30
0.0
 10
13.1630830048
 20
9.463735967
 30
0.0
 10
13.1650477769
 20
9.4636664806
 30
0.0
 10
13.1660254475
 20
9.4635986789
 30
0.0
  0
SPLINE
  5
37C
100
AcDbEntity
  8
0
100
AcDbSpline
 62
7
  6
CONTINUOUS
 70
0
 71
3
 72
19
 73
15
 74
0
 42
0.0000001
 43
0.0000001
 44
0.0000000001
 40
0.0
 40
0.0
 40
0.0
 40
0.0
 40
0.150460937
 40
0.2916987357
 40
0.424419542
 40
0.4878837275
 40
0.5495802504
 40
0.6682271673
 40
0.7255606103
 40
0.7817998831
 40
0.8371466721
 40
0.8918135967
 40
0.94602219
 40
1.0
 40
1.0
 40
1.0
 40
1.0
 10
12.8428180937
 20
7.8322297279
 30
0.0
 10
12.8447829263
 20
7.8341276105
 30
0.0
 10
12.8487098889
 20
7.8376885782
 30
0.0
 10
12.8547904114
 20
7.8424339761
 30
0.0
 10
12.8599263697
 20
7.8457901855
 30
0.0
 10
12.864021968
 20
7.8480629139
 30
0.0
 10
12.8679967394
 20
7.8500140996
 30
0.0
 10
12.8720180487
 20
7.8516090188
 30
0.0
 10
12.8760619823
 20
7.8528092027
 30
0.0
 10
12.8790519563
 20
7.8535009958
 30
0.0
 10
12.8820319769
 20
7.8539940748
 30
0.0
 10
12.885001257
 20
7.8542881956
 30
0.0
 10
12.8879585963
 20
7.8543832443
 30
0.0
 10
12.8899233684
 20
7.854313758
 30
0.0
 10
12.890901039
 20
7.8542459562
 30
0.0
  0
SPLINE
  5
37D
100
AcDbEntity
  8
0
100
AcDbSpline
 62
7
  6
CONTINUOUS
 70
0
 71
3
 72
21
 73
17
 74
0
 42
0.0000001
 43
0.0000001
 44
0.0000000001
 40
0.0
 40
0.0
 40
0.0
 40
0.0
 40
0.1273176984
 40
0.2537999461
 40
0.3167619614
 40
0.3795355204
 40
0.4421314992
 40
0.5045621453
 40
0.5668413456
 40
0.6289845231
 40
0.6910084433
 40
0.7529310869
 40
0.8147714401
 40
0.8765493236
 40
0.9382852134
 40
1.0
 40
1.0
 40
1.0
 40
1.0
 10
9.2902043195
 20
9.7431347871
 30
0.0
 10
9.2902043195
 20
9.736389979
 30
0.0
 10
9.2895604825
 20
9.7229359396
 30
0.0
 10
9.2871288912
 20
9.7063038425
 30
0.0
 10
9.2842226241
 20
9.6932574188
 30
0.0
 10
9.2815722602
 20
9.6836343704
 30
0.0
 10
9.2784542655
 20
9.6741823187
 30
0.0
 10
9.2748758288
 20
9.6649227841
 30
0.0
 10
9.2708452001
 20
9.6558771827
 30
0.0
 10
9.2663715922
 20
9.6470663911
 30
0.0
 10
9.2614653541
 20
9.6385107196
 30
0.0
 10
9.2561378005
 20
9.6302298857
 30
0.0
 10
9.2504011661
 20
9.6222430511
 30
0.0
 10
9.2442686448
 20
9.6145685586
 30
0.0
 10
9.2377546514
 20
9.6072243204
 30
0.0
 10
9.2331667586
 20
9.6025588278
 30
0.0
 10
9.2308152099
 20
9.60028742
 30
0.0
  0
SPLINE
  5
37E
100
AcDbEntity
  8
0
100
AcDbSpline
 62
7
  6
CONTINUOUS
 70
0
 71
3
 72
21
 73
17
 74
0
 42
0.0000001
 43
0.0000001
 44
0.0000000001
 40
0.0
 40
0.0
 40
0.0
 40
0.0
 40
0.1273176984
 40
0.2537999461
 40
0.3167619614
 40
0.3795355204
 40
0.4421314992
 40
0.5045621453
 40
0.5668413456
 40
0.6289845231
 40
0.6910084433
 40
0.7529310869
 40
0.8147714401
 40
0.8765493236
 40
0.9382852134
 40
1.0
 40
1.0
 40
1.0
 40
1.0
 10
12.3077568208
 20
9.5338668103
 30
0.0
 10
12.3077568208
 20
9.5271220022
 30
0.0
 10
12.3071129838
 20
9.5136679628
 30
0.0
 10
12.3046813926
 20
9.4970358658
 30
0.0
 10
12.3017751255
 20
9.4839894421
 30
0.0
 10
12.2991247616
 20
9.4743663936
 30
0.0
 10
12.2960067669
 20
9.4649143419
 30
0.0
 10
12.2924283301
 20
9.4556548074
 30
0.0
 10
12.2883977015
 20
9.446609206
 30
0.0
 10
12.2839240936
 20
9.4377984144
 30
0.0
 10
12.2790178555
 20
9.4292427429
 30
0.0
 10
12.2736903018
 20
9.420961909
 30
0.0
 10
12.2679536674
 20
9.4129750744
 30
0.0
 10
12.2618211462
 20
9.4053005819
 30
0.0
 10
12.2553071527
 20
9.3979563436
 30
0.0
 10
12.25071926
 20
9.393290851
 30
0.0
 10
12.2483677113
 20
9.3910194433
 30
0.0
  0
SPLINE
  5
37F
100
AcDbEntity
  8
0
100
AcDbSpline
 62
7
  6
CONTINUOUS
 70
0
 71
3
 72
21
 73
17
 74
0
 42
0.0000001
 43
0.0000001
 44
0.0000000001
 40
0.0
 40
0.0
 40
0.0
 40
0.0
 40
0.1273176984
 40
0.2537999461
 40
0.3167619614
 40
0.3795355204
 40
0.4421314992
 40
0.5045621453
 40
0.5668413456
 40
0.6289845231
 40
0.6910084433
 40
0.7529310869
 40
0.8147714401
 40
0.8765493236
 40
0.9382852134
 40
1.0
 40
1.0
 40
1.0
 40
1.0
 10
9.2902043195
 20
6.2426195743
 30
0.0
 10
9.2902043195
 20
6.2358747662
 30
0.0
 10
9.2895604825
 20
6.2224207267
 30
0.0
 10
9.2871288912
 20
6.2057886297
 30
0.0
 10
9.2842226241
 20
6.192742206
 30
0.0
 10
9.2815722602
 20
6.1831191576
 30
0.0
 10
9.2784542655
 20
6.1736671058
 30
0.0
 10
9.2748758288
 20
6.1644075713
 30
0.0
 10
9.2708452001
 20
6.1553619699
 30
0.0
 10
9.2663715922
 20
6.1465511783
 30
0.0
 10
9.2614653541
 20
6.1379955068
 30
0.0
 10
9.2561378005
 20
6.1297146729
 30
0.0
 10
9.2504011661
 20
6.1217278383
 30
0.0
 10
9.2442686448
 20
6.1140533458
 30
0.0
 10
9.2377546514
 20
6.1067091075
 30
0.0
 10
9.2331667586
 20
6.102043615
 30
0.0
 10
9.2308152099
 20
6.0997722072
 30
0.0
  0
SPLINE
  5
380
100
AcDbEntity
  8
0
100
AcDbSpline
 62
7
  6
CONTINUOUS
 70
0
 71
3
 72
21
 73
17
 74
0
 42
0.0000001
 43
0.0000001
 44
0.0000000001
 40
0.0
 40
0.0
 40
0.0
 40
0.0
 40
0.1273176984
 40
0.2537999461
 40
0.3167619614
 40
0.3795355204
 40
0.4421314992
 40
0.5045621453
 40
0.5668413456
 40
0.6289845231
 40
0.6910084433
 40
0.7529310869
 40
0.8147714401
 40
0.8765493236
 40
0.9382852134
 40
1.0
 40
1.0
 40
1.0
 40
1.0
 10
12.3077568208
 20
6.0333515975
 30
0.0
 10
12.3077568208
 20
6.0266067894
 30
0.0
 10
12.3071129838
 20
6.01315275
 30
0.0
 10
12.3046813926
 20
5.9965206529
 30
0.0
 10
12.3017751255
 20
5.9834742293
 30
0.0
 10
12.2991247616
 20
5.9738511808
 30
0.0
 10
12.2960067669
 20
5.9643991291
 30
0.0
 10
12.2924283301
 20
5.9551395946
 30
0.0
 10
12.2883977015
 20
5.9460939931
 30
0.0
 10
12.2839240936
 20
5.9372832016
 30
0.0
 10
12.2790178555
 20
5.9287275301
 30
0.0
 10
12.2736903018
 20
5.9204466961
 30
0.0
 10
12.2679536674
 20
5.9124598616
 30
0.0
 10
12.2618211462
 20
5.9047853691
 30
0.0
 10
12.2553071527
 20
5.8974411308
 30
0.0
 10
12.25071926
 20
5.8927756382
 30
0.0
 10
12.2483677113
 20
5.8905042304
 30
0.0
  0
SPLINE
  5
381
100
AcDbEntity
  8
0
100
AcDbSpline
 62
7
  6
CONTINUOUS
 70
0
 71
3
 72
15
 73
11
 74
0
 42
0.0000001
 43
0.0000001
 44
0.0000000001
 40
0.0
 40
0.0
 40
0.0
 40
0.0
 40
0.1269543178
 40
0.2532786498
 40
0.3789933825
 40
0.5041314785
 40
0.6287387446
 40
0.752872521
 40
0.8766006591
 40
1.0
 40
1.0
 40
1.0
 40
1.0
 10
10.0753441822
 20
7.6061488656
 30
0.0
 10
10.0753441822
 20
7.6010924685
 30
0.0
 10
10.0749808023
 20
7.5910008524
 30
0.0
 10
10.073338756
 20
7.5759827544
 30
0.0
 10
10.0706096802
 20
7.5611962347
 30
0.0
 10
10.0668079022
 20
7.546719246
 30
0.0
 10
10.0619535259
 20
7.5326268542
 30
0.0
 10
10.0560719992
 20
7.5189920362
 30
0.0
 10
10.0491950019
 20
7.505886375
 30
0.0
 10
10.0439635121
 20
7.4975356454
 30
0.0
 10
10.0411963369
 20
7.493473863
 30
0.0
  0
SPLINE
  5
382
100
AcDbEntity
  8
0
100
AcDbSpline
 62
7
  6
CONTINUOUS
 70
0
 71
3
 72
21
 73
17
 74
0
 42
0.0000001
 43
0.0000001
 44
0.0000000001
 40
0.0
 40
0.0
 40
0.0
 40
0.0
 40
0.1273176984
 40
0.2537999461
 40
0.3167619614
 40
0.3795355204
 40
0.4421314992
 40
0.5045621453
 40
0.5668413456
 40
0.6289845231
 40
0.6910084433
 40
0.7529310869
 40
0.8147714401
 40
0.8765493236
 40
0.9382852134
 40
1.0
 40
1.0
 40
1.0
 40
1.0
 10
10.5874428048
 20
7.9937104161
 30
0.0
 10
10.5874428048
 20
7.986965608
 30
0.0
 10
10.5867989678
 20
7.9735115686
 30
0.0
 10
10.5843673765
 20
7.9568794715
 30
0.0
 10
10.5814611094
 20
7.9438330479
 30
0.0
 10
10.5788107455
 20
7.9342099994
 30
0.0
 10
10.5756927508
 20
7.9247579477
 30
0.0
 10
10.5721143141
 20
7.9154984131
 30
0.0
 10
10.5680836854
 20
7.9064528117
 30
0.0
 10
10.5636100775
 20
7.8976420202
 30
0.0
 10
10.5587038394
 20
7.8890863486
 30
0.0
 10
10.5533762858
 20
7.8808055147
 30
0.0
 10
10.5476396514
 20
7.8728186801
 30
0.0
 10
10.5415071301
 20
7.8651441876
 30
0.0
 10
10.5349931367
 20
7.8577999494
 30
0.0
 10
10.5304052439
 20
7.8531344568
 30
0.0
 10
10.5280536952
 20
7.850863049
 30
0.0
  0
SPLINE
  5
383
100
AcDbEntity
  8
0
100
AcDbSpline
 62
7
  6
CONTINUOUS
 70
0
 71
3
 72
39
 73
35
 74
0
 42
0.0000001
 43
0.0000001
 44
0.0000000001
 40
0.0
 40
0.0
 40
0.0
 40
0.0
 40
0.0309587778
 40
0.0620589032
 40
0.0932943586
 40
0.1246578979
 40
0.1561392991
 40
0.1877266849
 40
0.2194063863
 40
0.251163416
 40
0.2829817429
 40
0.3148446332
 40
0.3467349602
 40
0.3786355036
 40
0.4105292257
 40
0.4423995257
 40
0.4742304652
 40
0.5060069651
 40
0.5377149783
 40
0.5693416398
 40
0.6008753947
 40
0.6323061093
 40
0.663625165
 40
0.694825541
 40
0.7259018814
 40
0.7568505479
 40
0.7876696656
 40
0.8183591595
 40
0.8489207795
 40
0.8793581132
 40
0.9096765839
 40
0.9398834283
 40
0.9699876587
 40
1.0
 40
1.0
 40
1.0
 40
1.0
 10
10.7690368184
 20
8.7738766836
 30
0.0
 10
10.7736401672
 20
8.7735574403
 30
0.0
 10
10.7828492494
 20
8.772606697
 30
0.0
 10
10.7965653285
 20
8.7702613383
 30
0.0
 10
10.8101566768
 20
8.7670051511
 30
0.0
 10
10.8235614034
 20
8.7628551193
 30
0.0
 10
10.83672024
 20
8.7578326006
 30
0.0
 10
10.8495755016
 20
8.7519634229
 30
0.0
 10
10.8620718851
 20
8.7452773627
 30
0.0
 10
10.8741566676
 20
8.737807883
 30
0.0
 10
10.8857799926
 20
8.7295917122
 30
0.0
 10
10.8968950599
 20
8.7206684733
 30
0.0
 10
10.9074582642
 20
8.7110802911
 30
0.0
 10
10.9174292791
 20
8.7008714207
 30
0.0
 10
10.926771091
 20
8.6900878931
 30
0.0
 10
10.9354499978
 20
8.6787771921
 30
0.0
 10
10.943435565
 20
8.6669879566
 30
0.0
 10
10.9507005561
 20
8.6547697187
 30
0.0
 10
10.9572208446
 20
8.6421726784
 30
0.0
 10
10.9629753151
 20
8.6292475129
 30
0.0
 10
10.967945759
 20
8.6160452191
 30
0.0
 10
10.9721167705
 20
8.6026169858
 30
0.0
 10
10.9754756483
 20
8.5890140937
 30
0.0
 10
10.9780123131
 20
8.5752878391
 30
0.0
 10
10.9797192358
 20
8.5614894763
 30
0.0
 10
10.9805913709
 20
8.5476701734
 30
0.0
 10
10.9806261188
 20
8.5338809818
 30
0.0
 10
10.9798233041
 20
8.5201728083
 30
0.0
 10
10.97818518
 20
8.5065963959
 30
0.0
 10
10.9757164377
 20
8.4932022739
 30
0.0
 10
10.9724242893
 20
8.4800408013
 30
0.0
 10
10.9683183878
 20
8.467161819
 30
0.0
 10
10.9634114491
 20
8.4546156814
 30
0.0
 10
10.9596100447
 20
8.446493322
 30
0.0
 10
10.957581824
 20
8.4425062074
 30
0.0
  0
SPLINE
  5
384
100
AcDbEntity
  8
0
100
AcDbSpline
 62
7
  6
CONTINUOUS
 70
0
 71
3
 72
15
 73
11
 74
0
 42
0.0000001
 43
0.0000001
 44
0.0000000001
 40
0.0
 40
0.0
 40
0.0
 40
0.0
 40
0.1273482936
 40
0.2538605366
 40
0.3795879111
 40
0.5046050899
 40
0.6290174366
 40
0.7529533732
 40
0.8765605776
 40
1.0
 40
1.0
 40
1.0
 40
1.0
 10
9.8520128301
 20
8.8655808992
 30
0.0
 10
9.8520128301
 20
8.8622547149
 30
0.0
 10
9.8516952477
 20
8.8556195842
 30
0.0
 10
9.8502590044
 20
8.8457945012
 30
0.0
 10
9.8478774736
 20
8.8362162868
 30
0.0
 10
9.8445721622
 20
8.8269745164
 30
0.0
 10
9.840373412
 20
8.8181544154
 30
0.0
 10
9.835319484
 20
8.8098374291
 30
0.0
 10
9.829457887
 20
8.8021014991
 30
0.0
 10
9.8250444133
 20
8.7973759426
 30
0.0
 10
9.8227254625
 20
8.7951360276
 30
0.0
  0
SPLINE
  5
385
100
AcDbEntity
  8
0
100
AcDbSpline
 62
7
  6
CONTINUOUS
 70
0
 71
3
 72
23
 73
19
 74
0
 42
0.0000001
 43
0.0000001
 44
0.0000000001
 40
0.0
 40
0.0
 40
0.0
 40
0.0
 40
0.0614488807
 40
0.1232974294
 40
0.1855193177
 40
0.2480712672
 40
0.3108995318
 40
0.3739401513
 40
0.4371217414
 40
0.5003679843
 40
0.5636003151
 40
0.6267406524
 40
0.6897141172
 40
0.7524516838
 40
0.8148926113
 40
0.8769871451
 40
0.9386966623
 40
1.0
 40
1.0
 40
1.0
 40
1.0
 10
9.7476928347
 20
8.9771355109
 30
0.0
 10
9.7511168601
 20
8.9768980539
 30
0.0
 10
9.7579683272
 20
8.9760841674
 30
0.0
 10
9.7681074554
 20
8.9738736401
 30
0.0
 10
9.7780500537
 20
8.9706907486
 30
0.0
 10
9.7876994046
 20
8.9665663296
 30
0.0
 10
9.7969632288
 20
8.9615402562
 30
0.0
 10
9.8057525571
 20
8.9556609285
 30
0.0
 10
9.8139831007
 20
8.9489849134
 30
0.0
 10
9.8215758938
 20
8.9415763647
 30
0.0
 10
9.828458068
 20
8.9335064139
 30
0.0
 10
9.8345635278
 20
8.9248524989
 30
0.0
 10
9.8398335751
 20
8.9156976458
 30
0.0
 10
9.8442174664
 20
8.906129657
 30
0.0
 10
9.847672948
 20
8.8962404331
 30
0.0
 10
9.8501665236
 20
8.8861245791
 30
0.0
 10
9.8516740427
 20
8.8758805139
 30
0.0
 10
9.8520128301
 20
8.8690050192
 30
0.0
 10
9.8520128301
 20
8.8655808992
 30
0.0
  0
SPLINE
  5
386
100
AcDbEntity
  8
0
100
AcDbSpline
 62
7
  6
CONTINUOUS
 70
0
 71
3
 72
15
 73
11
 74
0
 42
0.0000001
 43
0.0000001
 44
0.0000000001
 40
0.0
 40
0.0
 40
0.0
 40
0.0
 40
0.1273482936
 40
0.2538605366
 40
0.3795879111
 40
0.5046050899
 40
0.6290174366
 40
0.7529533732
 40
0.8765605776
 40
1.0
 40
1.0
 40
1.0
 40
1.0
 10
11.9046053326
 20
8.7232331257
 30
0.0
 10
11.9046053326
 20
8.7199069413
 30
0.0
 10
11.9042877502
 20
8.7132718107
 30
0.0
 10
11.9028515068
 20
8.7034467277
 30
0.0
 10
11.900469976
 20
8.6938685133
 30
0.0
 10
11.8971646647
 20
8.6846267429
 30
0.0
 10
11.8929659145
 20
8.6758066419
 30
0.0
 10
11.8879119865
 20
8.6674896556
 30
0.0
 10
11.8820503895
 20
8.6597537256
 30
0.0
 10
11.8776369158
 20
8.6550281691
 30
0.0
 10
11.875317965
 20
8.6527882541
 30
0.0
  0
SPLINE
  5
387
100
AcDbEntity
  8
0
100
AcDbSpline
 62
7
  6
CONTINUOUS
 70
0
 71
3
 72
23
 73
19
 74
0
 42
0.0000001
 43
0.0000001
 44
0.0000000001
 40
0.0
 40
0.0
 40
0.0
 40
0.0
 40
0.0614488807
 40
0.1232974294
 40
0.1855193177
 40
0.2480712672
 40
0.3108995318
 40
0.3739401513
 40
0.4371217414
 40
0.5003679843
 40
0.5636003151
 40
0.6267406524
 40
0.6897141172
 40
0.7524516838
 40
0.8148926113
 40
0.8769871451
 40
0.9386966623
 40
1.0
 40
1.0
 40
1.0
 40
1.0
 10
11.8002853371
 20
8.8347877373
 30
0.0
 10
11.8037093625
 20
8.8345502804
 30
0.0
 10
11.8105608296
 20
8.8337363939
 30
0.0
 10
11.8206999579
 20
8.8315258665
 30
0.0
 10
11.8306425562
 20
8.828342975
 30
0.0
 10
11.8402919071
 20
8.8242185561
 30
0.0
 10
11.8495557313
 20
8.8191924826
 30
0.0
 10
11.8583450596
 20
8.813313155
 30
0.0
 10
11.8665756032
 20
8.8066371398
 30
0.0
 10
11.8741683963
 20
8.7992285912
 30
0.0
 10
11.8810505705
 20
8.7911586404
 30
0.0
 10
11.8871560303
 20
8.7825047254
 30
0.0
 10
11.8924260776
 20
8.7733498723
 30
0.0
 10
11.8968099688
 20
8.7637818835
 30
0.0
 10
11.9002654505
 20
8.7538926595
 30
0.0
 10
11.9027590261
 20
8.7437768056
 30
0.0
 10
11.9042665452
 20
8.7335327404
 30
0.0
 10
11.9046053326
 20
8.7266572457
 30
0.0
 10
11.9046053326
 20
8.7232331257
 30
0.0
  0
SPLINE
  5
388
100
AcDbEntity
  8
0
100
AcDbSpline
 62
7
  6
CONTINUOUS
 70
0
 71
3
 72
15
 73
11
 74
0
 42
0.0000001
 43
0.0000001
 44
0.0000000001
 40
0.0
 40
0.0
 40
0.0
 40
0.0
 40
0.1273482936
 40
0.2538605366
 40
0.3795879111
 40
0.5046050899
 40
0.6290174366
 40
0.7529533732
 40
0.8765605776
 40
1.0
 40
1.0
 40
1.0
 40
1.0
 10
9.8520128301
 20
7.1143573074
 30
0.0
 10
9.8520128301
 20
7.111031123
 30
0.0
 10
9.8516952477
 20
7.1043959924
 30
0.0
 10
9.8502590044
 20
7.0945709094
 30
0.0
 10
9.8478774736
 20
7.084992695
 30
0.0
 10
9.8445721622
 20
7.0757509246
 30
0.0
 10
9.840373412
 20
7.0669308236
 30
0.0
 10
9.835319484
 20
7.0586138373
 30
0.0
 10
9.829457887
 20
7.0508779073
 30
0.0
 10
9.8250444133
 20
7.0461523508
 30
0.0
 10
9.8227254625
 20
7.0439124358
 30
0.0
  0
SPLINE
  5
389
100
AcDbEntity
  8
0
100
AcDbSpline
 62
7
  6
CONTINUOUS
 70
0
 71
3
 72
23
 73
19
 74
0
 42
0.0000001
 43
0.0000001
 44
0.0000000001
 40
0.0
 40
0.0
 40
0.0
 40
0.0
 40
0.0614488807
 40
0.1232974294
 40
0.1855193177
 40
0.2480712672
 40
0.3108995318
 40
0.3739401513
 40
0.4371217414
 40
0.5003679843
 40
0.5636003151
 40
0.6267406524
 40
0.6897141172
 40
0.7524516838
 40
0.8148926113
 40
0.8769871451
 40
0.9386966623
 40
1.0
 40
1.0
 40
1.0
 40
1.0
 10
9.7476928347
 20
7.225911919
 30
0.0
 10
9.7511168601
 20
7.2256744621
 30
0.0
 10
9.7579683272
 20
7.2248605756
 30
0.0
 10
9.7681074554
 20
7.2226500482
 30
0.0
 10
9.7780500537
 20
7.2194671567
 30
0.0
 10
9.7876994046
 20
7.2153427378
 30
0.0
 10
9.7969632288
 20
7.2103166643
 30
0.0
 10
9.8057525571
 20
7.2044373367
 30
0.0
 10
9.8139831007
 20
7.1977613215
 30
0.0
 10
9.8215758938
 20
7.1903527729
 30
0.0
 10
9.828458068
 20
7.1822828221
 30
0.0
 10
9.8345635278
 20
7.1736289071
 30
0.0
 10
9.8398335751
 20
7.164474054
 30
0.0
 10
9.8442174664
 20
7.1549060652
 30
0.0
 10
9.847672948
 20
7.1450168413
 30
0.0
 10
9.8501665236
 20
7.1349009873
 30
0.0
 10
9.8516740427
 20
7.1246569221
 30
0.0
 10
9.8520128301
 20
7.1177814274
 30
0.0
 10
9.8520128301
 20
7.1143573074
 30
0.0
  0
SPLINE
  5
38A
100
AcDbEntity
  8
0
100
AcDbSpline
 62
7
  6
CONTINUOUS
 70
0
 71
3
 72
15
 73
11
 74
0
 42
0.0000001
 43
0.0000001
 44
0.0000000001
 40
0.0
 40
0.0
 40
0.0
 40
0.0
 40
0.1273482936
 40
0.2538605366
 40
0.3795879111
 40
0.5046050899
 40
0.6290174366
 40
0.7529533732
 40
0.8765605776
 40
1.0
 40
1.0
 40
1.0
 40
1.0
 10
11.9046053326
 20
6.9720095338
 30
0.0
 10
11.9046053326
 20
6.9686833495
 30
0.0
 10
11.9042877502
 20
6.9620482189
 30
0.0
 10
11.9028515068
 20
6.9522231359
 30
0.0
 10
11.900469976
 20
6.9426449215
 30
0.0
 10
11.8971646647
 20
6.933403151
 30
0.0
 10
11.8929659145
 20
6.92458305
 30
0.0
 10
11.8879119865
 20
6.9162660638
 30
0.0
 10
11.8820503895
 20
6.9085301337
 30
0.0
 10
11.8776369158
 20
6.9038045773
 30
0.0
 10
11.875317965
 20
6.9015646623
 30
0.0
  0
SPLINE
  5
38B
100
AcDbEntity
  8
0
100
AcDbSpline
 62
7
  6
CONTINUOUS
 70
0
 71
3
 72
23
 73
19
 74
0
 42
0.0000001
 43
0.0000001
 44
0.0000000001
 40
0.0
 40
0.0
 40
0.0
 40
0.0
 40
0.0614488807
 40
0.1232974294
 40
0.1855193177
 40
0.2480712672
 40
0.3108995318
 40
0.3739401513
 40
0.4371217414
 40
0.5003679843
 40
0.5636003151
 40
0.6267406524
 40
0.6897141172
 40
0.7524516838
 40
0.8148926113
 40
0.8769871451
 40
0.9386966623
 40
1.0
 40
1.0
 40
1.0
 40
1.0
 10
11.8002853371
 20
7.0835641455
 30
0.0
 10
11.8037093625
 20
7.0833266885
 30
0.0
 10
11.8105608296
 20
7.0825128021
 30
0.0
 10
11.8206999579
 20
7.0803022747
 30
0.0
 10
11.8306425562
 20
7.0771193832
 30
0.0
 10
11.8402919071
 20
7.0729949642
 30
0.0
 10
11.8495557313
 20
7.0679688908
 30
0.0
 10
11.8583450596
 20
7.0620895632
 30
0.0
 10
11.8665756032
 20
7.055413548
 30
0.0
 10
11.8741683963
 20
7.0480049994
 30
0.0
 10
11.8810505705
 20
7.0399350486
 30
0.0
 10
11.8871560303
 20
7.0312811335
 30
0.0
 10
11.8924260776
 20
7.0221262805
 30
0.0
 10
11.8968099688
 20
7.0125582917
 30
0.0
 10
11.9002654505
 20
7.0026690677
 30
0.0
 10
11.9027590261
 20
6.9925532138
 30
0.0
 10
11.9042665452
 20
6.9823091486
 30
0.0
 10
11.9046053326
 20
6.9754336538
 30
0.0
 10
11.9046053326
 20
6.9720095338
 30
0.0
  0
SPLINE
  5
38C
100
AcDbEntity
  8
0
100
AcDbSpline
 62
7
  6
CONTINUOUS
 70
0
 71
3
 72
61
 73
57
 74
0
 42
0.0000001
 43
0.0000001
 44
0.0000000001
 40
0.0
 40
0.0
 40
0.0
 40
0.0
 40
0.0076531203
 40
0.0158948147
 40
0.0247434625
 40
0.0342112633
 40
0.0443040262
 40
0.0550227668
 40
0.0663646073
 40
0.0783232442
 40
0.0908894899
 40
0.1040517065
 40
0.1177960474
 40
0.1321066901
 40
0.1469661009
 40
0.1623551674
 40
0.1782533012
 40
0.1946386284
 40
0.2114880833
 40
0.2287774568
 40
0.2464815406
 40
0.2645742125
 40
0.2830284672
 40
0.3018165257
 40
0.3402788865
 40
0.3797268736
 40
0.4199173213
 40
0.4606010696
 40
0.5015250324
 40
0.5424342234
 40
0.5830737736
 40
0.6231909466
 40
0.6625371704
 40
0.7008701043
 40
0.7195834037
 40
0.7379564047
 40
0.7559615044
 40
0.7735718857
 40
0.7907616351
 40
0.8075057747
 40
0.8237803416
 40
0.8395625378
 40
0.8548307866
 40
0.8695648213
 40
0.8837458776
 40
0.8973568134
 40
0.91038224
 40
0.9228087895
 40
0.9346253729
 40
0.9458234357
 40
0.9563974046
 40
0.9663452397
 40
0.9756690311
 40
0.9843758993
 40
0.9924792096
 40
1.0
 40
1.0
 40
1.0
 40
1.0
 10
13.1024876873
 20
9.2784468454
 30
0.0
 10
13.1005696376
 20
9.2765941515
 30
0.0
 10
13.0967416098
 20
9.2725832945
 30
0.0
 10
13.0912188724
 20
9.2659557884
 30
0.0
 10
13.0857158052
 20
9.2585098596
 30
0.0
 10
13.0802412674
 20
9.2502578879
 30
0.0
 10
13.0748036171
 20
9.2412126849
 30
0.0
 10
13.0694116384
 20
9.2313888064
 30
0.0
 10
13.0640741187
 20
9.2208021077
 30
0.0
 10
13.0587998378
 20
9.2094698191
 30
0.0
 10
13.053597506
 20
9.197410492
 30
0.0
 10
13.0484757836
 20
9.1846439242
 30
0.0
 10
13.0434432021
 20
9.171191144
 30
0.0
 10
13.0385081278
 20
9.1570743708
 30
0.0
 10
13.0336788045
 20
9.142316941
 30
0.0
 10
13.0289633047
 20
9.1269432803
 30
0.0
 10
13.0243694747
 20
9.1109788714
 30
0.0
 10
13.0199049849
 20
9.094450184
 30
0.0
 10
13.0155773037
 20
9.0773846331
 30
0.0
 10
13.0113936323
 20
9.0598105488
 30
0.0
 10
13.0073609443
 20
9.0417571076
 30
0.0
 10
13.0034859928
 20
9.0232542905
 30
0.0
 10
12.999775196
 20
9.0043328095
 30
0.0
 10
12.9950176277
 20
8.9783856306
 30
0.0
 10
12.9895366406
 20
8.9451366339
 30
0.0
 10
12.9837544767
 20
8.904389611
 30
0.0
 10
12.9787559937
 20
8.8627593794
 30
0.0
 10
12.974574541
 20
8.8205224662
 30
0.0
 10
12.9712380128
 20
8.7779592473
 30
0.0
 10
12.9687686256
 20
8.7353523508
 30
0.0
 10
12.9671827037
 20
8.6929847033
 30
0.0
 10
12.9664906328
 20
8.6511375626
 30
0.0
 10
12.9666968487
 20
8.6100889134
 30
0.0
 10
12.967622862
 20
8.576510522
 30
0.0
 10
12.9688227732
 20
8.5502576454
 30
0.0
 10
12.9699373795
 20
8.5310929801
 30
0.0
 10
12.9712718908
 20
8.5123276236
 30
0.0
 10
12.9728241085
 20
8.493992721
 30
0.0
 10
12.9745913988
 20
8.4761187268
 30
0.0
 10
12.976570796
 20
8.458735317
 30
0.0
 10
12.9787589983
 20
8.4418713499
 30
0.0
 10
12.9811523144
 20
8.4255548028
 30
0.0
 10
12.9837467192
 20
8.4098127318
 30
0.0
 10
12.986537881
 20
8.3946712303
 30
0.0
 10
12.989521105
 20
8.3801553655
 30
0.0
 10
12.9926913715
 20
8.3662891367
 30
0.0
 10
12.9960433884
 20
8.3530954433
 30
0.0
 10
12.9995715478
 20
8.3405960197
 30
0.0
 10
13.0032699387
 20
8.3288113849
 30
0.0
 10
13.0071324346
 20
8.317760817
 30
0.0
 10
13.0111526798
 20
8.3074622982
 30
0.0
 10
13.0153241102
 20
8.2979324164
 30
0.0
 10
13.0196400255
 20
8.2891864532
 30
0.0
 10
13.0240939296
 20
8.2812380293
 30
0.0
 10
13.0286787118
 20
8.2741001409
 30
0.0
 10
13.0319366743
 20
8.2697306055
 30
0.0
 10
13.0335901936
 20
8.2676975133
 30
0.0
  0
SPLINE
  5
38D
100
AcDbEntity
  8
0
100
AcDbSpline
 62
7
  6
CONTINUOUS
 70
0
 71
3
 72
61
 73
57
 74
0
 42
0.0000001
 43
0.0000001
 44
0.0000000001
 40
0.0
 40
0.0
 40
0.0
 40
0.0
 40
0.0076531203
 40
0.0158948147
 40
0.0247434625
 40
0.0342112633
 40
0.0443040262
 40
0.0550227668
 40
0.0663646073
 40
0.0783232442
 40
0.0908894899
 40
0.1040517065
 40
0.1177960474
 40
0.1321066901
 40
0.1469661009
 40
0.1623551674
 40
0.1782533012
 40
0.1946386284
 40
0.2114880833
 40
0.2287774568
 40
0.2464815406
 40
0.2645742125
 40
0.2830284672
 40
0.3018165257
 40
0.3402788865
 40
0.3797268736
 40
0.4199173213
 40
0.4606010696
 40
0.5015250324
 40
0.5424342234
 40
0.5830737736
 40
0.6231909466
 40
0.6625371704
 40
0.7008701043
 40
0.7195834037
 40
0.7379564047
 40
0.7559615044
 40
0.7735718857
 40
0.7907616351
 40
0.8075057747
 40
0.8237803416
 40
0.8395625378
 40
0.8548307866
 40
0.8695648213
 40
0.8837458776
 40
0.8973568134
 40
0.91038224
 40
0.9228087895
 40
0.9346253729
 40
0.9458234357
 40
0.9563974046
 40
0.9663452397
 40
0.9756690311
 40
0.9843758993
 40
0.9924792096
 40
1.0
 40
1.0
 40
1.0
 40
1.0
 10
12.8273632788
 20
7.6690941227
 30
0.0
 10
12.8254452291
 20
7.6672414288
 30
0.0
 10
12.8216172013
 20
7.6632305718
 30
0.0
 10
12.8160944639
 20
7.6566030658
 30
0.0
 10
12.8105913967
 20
7.649157137
 30
0.0
 10
12.8051168589
 20
7.6409051652
 30
0.0
 10
12.7996792086
 20
7.6318599623
 30
0.0
 10
12.7942872299
 20
7.6220360837
 30
0.0
 10
12.7889497102
 20
7.6114493851
 30
0.0
 10
12.7836754293
 20
7.6001170965
 30
0.0
 10
12.7784730974
 20
7.5880577694
 30
0.0
 10
12.7733513751
 20
7.5752912016
 30
0.0
 10
12.7683187935
 20
7.5618384214
 30
0.0
 10
12.7633837193
 20
7.5477216481
 30
0.0
 10
12.758554396
 20
7.5329642184
 30
0.0
 10
12.7538388961
 20
7.5175905576
 30
0.0
 10
12.7492450662
 20
7.5016261487
 30
0.0
 10
12.7447805764
 20
7.4850974614
 30
0.0
 10
12.7404528952
 20
7.4680319105
 30
0.0
 10
12.7362692237
 20
7.4504578261
 30
0.0
 10
12.7322365358
 20
7.432404385
 30
0.0
 10
12.7283615843
 20
7.4139015678
 30
0.0
 10
12.7246507875
 20
7.3949800868
 30
0.0
 10
12.7198932192
 20
7.3690329079
 30
0.0
 10
12.7144122321
 20
7.3357839113
 30
0.0
 10
12.7086300682
 20
7.2950368884
 30
0.0
 10
12.7036315852
 20
7.2534066567
 30
0.0
 10
12.6994501325
 20
7.2111697435
 30
0.0
 10
12.6961136043
 20
7.1686065246
 30
0.0
 10
12.6936442171
 20
7.1259996281
 30
0.0
 10
12.6920582952
 20
7.0836319807
 30
0.0
 10
12.6913662243
 20
7.0417848399
 30
0.0
 10
12.6915724401
 20
7.0007361907
 30
0.0
 10
12.6924984535
 20
6.9671577993
 30
0.0
 10
12.6936983647
 20
6.9409049227
 30
0.0
 10
12.694812971
 20
6.9217402575
 30
0.0
 10
12.6961474823
 20
6.9029749009
 30
0.0
 10
12.6976997
 20
6.8846399983
 30
0.0
 10
12.6994669903
 20
6.8667660041
 30
0.0
 10
12.7014463875
 20
6.8493825944
 30
0.0
 10
12.7036345897
 20
6.8325186273
 30
0.0
 10
12.7060279059
 20
6.8162020801
 30
0.0
 10
12.7086223107
 20
6.8004600091
 30
0.0
 10
12.7114134725
 20
6.7853185076
 30
0.0
 10
12.7143966965
 20
6.7708026428
 30
0.0
 10
12.717566963
 20
6.756936414
 30
0.0
 10
12.7209189799
 20
6.7437427206
 30
0.0
 10
12.7244471392
 20
6.731243297
 30
0.0
 10
12.7281455301
 20
6.7194586623
 30
0.0
 10
12.7320080261
 20
6.7084080944
 30
0.0
 10
12.7360282712
 20
6.6981095755
 30
0.0
 10
12.7401997016
 20
6.6885796938
 30
0.0
 10
12.744515617
 20
6.6798337305
 30
0.0
 10
12.7489695211
 20
6.6718853066
 30
0.0
 10
12.7535543033
 20
6.6647474182
 30
0.0
 10
12.7568122658
 20
6.6603778829
 30
0.0
 10
12.7584657851
 20
6.6583447906
 30
0.0
  0
SPLINE
  5
38E
100
AcDbEntity
  8
0
100
AcDbSpline
 62
7
  6
CONTINUOUS
 70
0
 71
3
 72
55
 73
51
 74
0
 42
0.0000001
 43
0.0000001
 44
0.0000000001
 40
0.0
 40
0.0
 40
0.0
 40
0.0
 40
0.007740541
 40
0.0160543931
 40
0.0249605924
 40
0.0344721052
 40
0.0445954559
 40
0.055332388
 40
0.0666806963
 40
0.0786347534
 40
0.0911861103
 40
0.1043236936
 40
0.1180343161
 40
0.1323027986
 40
0.1471121615
 40
0.1624439301
 40
0.1782780821
 40
0.1945933439
 40
0.2285751198
 40
0.2641976008
 40
0.3012530076
 40
0.3395210878
 40
0.3787713764
 40
0.4187653272
 40
0.4592583689
 40
0.5000019404
 40
0.5407454947
 40
0.5812384831
 40
0.6212323429
 40
0.6604825104
 40
0.6987504406
 40
0.7358056642
 40
0.7714279223
 40
0.8054094469
 40
0.8217245906
 40
0.837558595
 40
0.8528902182
 40
0.867699441
 40
0.8819677541
 40
0.895678233
 40
0.9088156452
 40
0.9213668299
 40
0.9333207299
 40
0.9446688551
 40
0.9554056317
 40
0.9655287768
 40
0.9750401376
 40
0.9839462789
 40
0.9922596607
 40
1.0
 40
1.0
 40
1.0
 40
1.0
 10
10.5498127129
 20
10.6979112025
 30
0.0
 10
10.5487595054
 20
10.6969311421
 30
0.0
 10
10.5464922532
 20
10.6949863662
 30
0.0
 10
10.5427729348
 20
10.692208791
 30
0.0
 10
10.5386225102
 20
10.6894731046
 30
0.0
 10
10.5340478045
 20
10.686783666
 30
0.0
 10
10.5290558956
 20
10.6841444648
 30
0.0
 10
10.5236547324
 20
10.6815597829
 30
0.0
 10
10.5178529908
 20
10.6790337668
 30
0.0
 10
10.5116600425
 20
10.6765705094
 30
0.0
 10
10.5050859252
 20
10.6741741033
 30
0.0
 10
10.4981413629
 20
10.6718484498
 30
0.0
 10
10.4908376964
 20
10.6695974183
 30
0.0
 10
10.4831868843
 20
10.6674247376
 30
0.0
 10
10.4752014763
 20
10.6653339749
 30
0.0
 10
10.4668945815
 20
10.663328645
 30
0.0
 10
10.4582798419
 20
10.6614120035
 30
0.0
 10
10.4462381164
 20
10.6589455842
 30
0.0
 10
10.4305182503
 20
10.6561197764
 30
0.0
 10
10.4109122477
 20
10.6531725261
 30
0.0
 10
10.3904449698
 20
10.6506445348
 30
0.0
 10
10.3692511144
 20
10.6485526923
 30
0.0
 10
10.3474700281
 20
10.6469110229
 30
0.0
 10
10.3252450613
 20
10.6457305118
 30
0.0
 10
10.3027225178
 20
10.6450190503
 30
0.0
 10
10.2800506941
 20
10.6447813887
 30
0.0
 10
10.257378881
 20
10.645019115
 30
0.0
 10
10.2348563695
 20
10.6457306435
 30
0.0
 10
10.2126314558
 20
10.6469112242
 30
0.0
 10
10.1908504418
 20
10.6485529568
 30
0.0
 10
10.1696566772
 20
10.6506448594
 30
0.0
 10
10.1491895107
 20
10.6531729095
 30
0.0
 10
10.1295836402
 20
10.6561202183
 30
0.0
 10
10.1138638959
 20
10.6589460812
 30
0.0
 10
10.1018222736
 20
10.6614125255
 30
0.0
 10
10.0932076194
 20
10.663329199
 30
0.0
 10
10.0849008135
 20
10.6653345537
 30
0.0
 10
10.076915497
 20
10.6674253327
 30
0.0
 10
10.0692647822
 20
10.6695980476
 30
0.0
 10
10.0619612129
 20
10.6718490888
 30
0.0
 10
10.0550167547
 20
10.6741747688
 30
0.0
 10
10.0484427449
 20
10.676571198
 30
0.0
 10
10.0422499013
 20
10.6790344614
 30
0.0
 10
10.0364482745
 20
10.6815605106
 30
0.0
 10
10.0310472257
 20
10.6841451967
 30
0.0
 10
10.0260554304
 20
10.6867844097
 30
0.0
 10
10.0214808335
 20
10.6894738811
 30
0.0
 10
10.0173305578
 20
10.692209564
 30
0.0
 10
10.0136113914
 20
10.6949871143
 30
0.0
 10
10.0113442589
 20
10.6969318396
 30
0.0
 10
10.0102911075
 20
10.6979119054
 30
0.0
  0
SPLINE
  5
38F
100
AcDbEntity
  8
0
100
AcDbSpline
 62
7
  6
CONTINUOUS
 70
0
 71
3
 72
17
 73
13
 74
0
 42
0.0000001
 43
0.0000001
 44
0.0000000001
 40
0.0
 40
0.0
 40
0.0
 40
0.0
 40
0.0548654278
 40
0.1099348511
 40
0.2214348476
 40
0.336099037
 40
0.4553350807
 40
0.5170795749
 40
0.5804144754
 40
0.7123166389
 40
0.8519515296
 40
1.0
 40
1.0
 40
1.0
 40
1.0
 10
11.5004667909
 20
10.3451523918
 30
0.0
 10
11.5004667877
 20
10.3445309958
 30
0.0
 10
11.5004273291
 20
10.343285496
 30
0.0
 10
11.5001900164
 20
10.3407874998
 30
0.0
 10
11.4995903382
 20
10.3376502465
 30
0.0
 10
11.4983988055
 20
10.3339153769
 30
0.0
 10
11.4970287321
 20
10.3308525292
 30
0.0
 10
11.4957103978
 20
10.328418697
 30
0.0
 10
11.4942008468
 20
10.3259290224
 30
0.0
 10
11.4920089524
 20
10.3228272355
 30
0.0
 10
11.4889530513
 20
10.3191821717
 30
0.0
 10
11.4866802175
 20
10.31684327
 30
0.0
 10
11.4854741926
 20
10.3156783394
 30
0.0
  0
SPLINE
  5
390
100
AcDbEntity
  8
0
100
AcDbSpline
 62
7
  6
CONTINUOUS
 70
0
 71
3
 72
55
 73
51
 74
0
 42
0.0000001
 43
0.0000001
 44
0.0000000001
 40
0.0
 40
0.0
 40
0.0
 40
0.0
 40
0.0077403408
 40
0.01605376
 40
0.024959937
 40
0.0344712948
 40
0.0445945047
 40
0.0553312688
 40
0.0666794359
 40
0.0786333581
 40
0.0911845395
 40
0.1043220019
 40
0.1180324609
 40
0.1323008098
 40
0.1471100389
 40
0.162441661
 40
0.1782756925
 40
0.1945908181
 40
0.2285723579
 40
0.2641946198
 40
0.3012498327
 40
0.3395177466
 40
0.3787678948
 40
0.4187617309
 40
0.4592546914
 40
0.4999982164
 40
0.5407417559
 40
0.5812347631
 40
0.6212286824
 40
0.6604789477
 40
0.6987470029
 40
0.7358023746
 40
0.7714248189
 40
0.8054065764
 40
0.8217218473
 40
0.837555991
 40
0.8528877384
 40
0.8676971251
 40
0.8819655776
 40
0.8956762208
 40
0.9088137957
 40
0.9213651474
 40
0.9333192253
 40
0.9446675167
 40
0.955404479
 40
0.9655278313
 40
0.9750393274
 40
0.9839455499
 40
0.9922594743
 40
1.0
 40
1.0
 40
1.0
 40
1.0
 10
10.8051572963
 20
10.3113198402
 30
0.0
 10
10.8061540305
 20
10.3103922808
 30
0.0
 10
10.8082997108
 20
10.308551731
 30
0.0
 10
10.8118196608
 20
10.3059229929
 30
0.0
 10
10.8157476206
 20
10.30333388
 30
0.0
 10
10.820077154
 20
10.3007884666
 30
0.0
 10
10.8248015595
 20
10.2982906817
 30
0.0
 10
10.8299132679
 20
10.2958444355
 30
0.0
 10
10.8354041098
 20
10.2934537343
 30
0.0
 10
10.8412652031
 20
10.2911224384
 30
0.0
 10
10.8474870384
 20
10.2888543788
 30
0.0
 10
10.8540594829
 20
10.2866533212
 30
0.0
 10
10.8609717903
 20
10.2845228514
 30
0.0
 10
10.8682126511
 20
10.2824665557
 30
0.0
 10
10.8757701851
 20
10.2804877845
 30
0.0
 10
10.8836319836
 20
10.278589858
 30
0.0
 10
10.8917851387
 20
10.2767758841
 30
0.0
 10
10.903181668
 20
10.2744415593
 30
0.0
 10
10.9180592774
 20
10.2717671052
 30
0.0
 10
10.9366148231
 20
10.2689776965
 30
0.0
 10
10.9559855181
 20
10.2665850864
 30
0.0
 10
10.9760438813
 20
10.2646052573
 30
0.0
 10
10.9966580315
 20
10.2630514823
 30
0.0
 10
11.0176922984
 20
10.2619341533
 30
0.0
 10
11.0390082183
 20
10.2612607453
 30
0.0
 10
11.0604654399
 20
10.2610357582
 30
0.0
 10
11.0819226702
 20
10.2612606925
 30
0.0
 10
11.1032386172
 20
10.261934044
 30
0.0
 10
11.1242729308
 20
10.263051313
 30
0.0
 10
11.1448871457
 20
10.2646050289
 30
0.0
 10
11.1649455881
 20
10.2665848037
 30
0.0
 10
11.1843163743
 20
10.268977367
 30
0.0
 10
11.2028720267
 20
10.2717667279
 30
0.0
 10
11.2177497386
 20
10.2744411521
 30
0.0
 10
11.2291463634
 20
10.2767754271
 30
0.0
 10
11.2372995905
 20
10.2785893884
 30
0.0
 10
11.2451614644
 20
10.2804872977
 30
0.0
 10
11.2527190787
 20
10.2824660312
 30
0.0
 10
11.2599600182
 20
10.284522336
 30
0.0
 10
11.266872415
 20
10.2866527551
 30
0.0
 10
11.2734449429
 20
10.2888538226
 30
0.0
 10
11.2796668713
 20
10.291121851
 30
0.0
 10
11.2855280573
 20
10.2934531294
 30
0.0
 10
11.2910189885
 20
10.2958438344
 30
0.0
 10
11.2961308109
 20
10.2982900332
 30
0.0
 10
11.3008552927
 20
10.3007878534
 30
0.0
 10
11.3051849298
 20
10.3033332022
 30
0.0
 10
11.3091130248
 20
10.3059223319
 30
0.0
 10
11.3126331005
 20
10.308551118
 30
0.0
 10
11.3147789062
 20
10.310391706
 30
0.0
 10
11.3157756922
 20
10.3113192575
 30
0.0
  0
SPLINE
  5
391
100
AcDbEntity
  8
0
100
AcDbSpline
 62
7
  6
CONTINUOUS
 70
0
 71
3
 72
18
 73
14
 74
0
 42
0.0000001
 43
0.0000001
 44
0.0000000001
 40
0.0
 40
0.0
 40
0.0
 40
0.0
 40
0.0548626755
 40
0.1099292576
 40
0.1654013202
 40
0.2214755501
 40
0.3361333804
 40
0.4553634196
 40
0.5171048815
 40
0.5804365284
 40
0.7123311193
 40
0.8519577055
 40
1.0
 40
1.0
 40
1.0
 40
1.0
 10
12.1182565313
 20
10.6272994571
 30
0.0
 10
12.118256533
 20
10.626536823
 30
0.0
 10
12.1182081393
 20
10.62500828
 30
0.0
 10
12.1179905313
 20
10.6227179626
 30
0.0
 10
12.1176278626
 20
10.6204289204
 30
0.0
 10
12.1169463915
 20
10.6173575341
 30
0.0
 10
12.1157186916
 20
10.6135080271
 30
0.0
 10
12.1140372286
 20
10.6097494002
 30
0.0
 10
12.1124192697
 20
10.6067623152
 30
0.0
 10
12.1105666346
 20
10.6037067732
 30
0.0
 10
12.1078765666
 20
10.5998999911
 30
0.0
 10
12.1041261167
 20
10.5954264292
 30
0.0
 10
12.1013366799
 20
10.5925559214
 30
0.0
 10
12.0998565233
 20
10.5911261999
 30
0.0
  0
SPLINE
  5
392
100
AcDbEntity
  8
0
100
AcDbSpline
 62
7
  6
CONTINUOUS
 70
0
 71
3
 72
11
 73
7
 74
0
 42
0.0000001
 43
0.0000001
 44
0.0000000001
 40
0.0
 40
0.0
 40
0.0
 40
0.0
 40
0.2560725715
 40
0.5069799007
 40
0.754377611
 40
1.0
 40
1.0
 40
1.0
 40
1.0
 10
12.7402886807
 20
6.6887331555
 30
0.0
 10
12.7411318743
 20
6.688367962
 30
0.0
 10
12.7428303454
 20
6.6877097491
 30
0.0
 10
12.7454296915
 20
6.6869428977
 30
0.0
 10
12.7480485399
 20
6.6864090377
 30
0.0
 10
12.7498089937
 20
6.6862085753
 30
0.0
 10
12.7506882635
 20
6.6861475972
 30
0.0
  0
SPLINE
  5
393
100
AcDbEntity
  8
0
100
AcDbSpline
 62
7
  6
CONTINUOUS
 70
0
 71
3
 72
86
 73
82
 74
0
 42
0.0000001
 43
0.0000001
 44
0.0000000001
 40
0.0
 40
0.0
 40
0.0
 40
0.0
 40
0.0027164229
 40
0.0054532199
 40
0.0082302803
 40
0.0110665652
 40
0.0139797601
 40
0.0169860612
 40
0.0201000083
 40
0.0233345154
 40
0.0267008552
 40
0.0302087911
 40
0.0338666949
 40
0.0376816386
 40
0.0416596027
 40
0.0458055094
 40
0.0501234214
 40
0.0546165986
 40
0.0592875859
 40
0.0641383491
 40
0.0691702497
 40
0.0743842108
 40
0.0797806815
 40
0.0853597253
 40
0.0911210701
 40
0.0970640767
 40
0.1094907819
 40
0.1226299857
 40
0.1364676026
 40
0.1509863633
 40
0.166166208
 40
0.1819846021
 40
0.1984167887
 40
0.2154360082
 40
0.2330136911
 40
0.2511196222
 40
0.2697220861
 40
0.2887880011
 40
0.3082830385
 40
0.3281717446
 40
0.3484176561
 40
0.3689834073
 40
0.3898308346
 40
0.4109210783
 40
0.4322146819
 40
0.4536716962
 40
0.4969136001
 40
0.5403217884
 40
0.5835689461
 40
0.6050305436
 40
0.6263300209
 40
0.6474274143
 40
0.6682832501
 40
0.6888586484
 40
0.7091154216
 40
0.7290161766
 40
0.7485244187
 40
0.7676046599
 40
0.7862225346
 40
0.8043449193
 40
0.8219400528
 40
0.8389776685
 40
0.8554291414
 40
0.8712676506
 40
0.8864683732
 40
0.9010086996
 40
0.9148684857
 40
0.9280303658
 40
0.9404801448
 40
0.9464347977
 40
0.952207837
 40
0.9577986052
 40
0.9632068066
 40
0.9684324934
 40
0.9734760794
 40
0.9783384382
 40
0.9830208843
 40
0.9875254058
 40
0.9918546018
 40
0.9960115767
 40
1.0
 40
1.0
 40
1.0
 40
1.0
 10
12.7947351484
 20
6.4675765214
 30
0.0
 10
12.7934380165
 20
6.4676664779
 30
0.0
 10
12.7908406691
 20
6.467964496
 30
0.0
 10
12.7869777055
 20
6.4687618888
 30
0.0
 10
12.7831439447
 20
6.4699096198
 30
0.0
 10
12.7793421108
 20
6.4714065298
 30
0.0
 10
12.775574154
 20
6.4732512725
 30
0.0
 10
12.7718420479
 20
6.4754424731
 30
0.0
 10
12.7681474501
 20
6.4779784764
 30
0.0
 10
12.7644920675
 20
6.4808577648
 30
0.0
 10
12.7608774337
 20
6.4840785964
 30
0.0
 10
12.7573051164
 20
6.4876392288
 30
0.0
 10
12.7537767086
 20
6.4915378277
 30
0.0
 10
12.7502937076
 20
6.4957723662
 30
0.0
 10
12.7468577754
 20
6.5003407923
 30
0.0
 10
12.7434704225
 20
6.5052407986
 30
0.0
 10
12.7401332849
 20
6.510470001
 30
0.0
 10
12.7368479497
 20
6.5160258208
 30
0.0
 10
12.7336159637
 20
6.5219055066
 30
0.0
 10
12.7304389689
 20
6.5281061829
 30
0.0
 10
12.7273184485
 20
6.5346247536
 30
0.0
 10
12.7242560079
 20
6.541458009
 30
0.0
 10
12.7212531316
 20
6.5486025432
 30
0.0
 10
12.7183113208
 20
6.5560547983
 30
0.0
 10
12.7154320503
 20
6.5638110793
 30
0.0
 10
12.711621551
 20
6.5747156892
 30
0.0
 10
12.7070392715
 20
6.5890882962
 30
0.0
 10
12.7018906706
 20
6.6072358197
 30
0.0
 10
12.6970239861
 20
6.6264953326
 30
0.0
 10
12.6924490702
 20
6.6468282823
 30
0.0
 10
12.6881752243
 20
6.6681941646
 30
0.0
 10
12.6842111444
 20
6.6905502397
 30
0.0
 10
12.6805648971
 20
6.7138517417
 30
0.0
 10
12.6772439006
 20
6.7380519504
 30
0.0
 10
12.6742549144
 20
6.7631023087
 30
0.0
 10
12.6716040232
 20
6.7889525268
 30
0.0
 10
12.6692966249
 20
6.8155506879
 30
0.0
 10
12.6673374219
 20
6.8428433536
 30
0.0
 10
12.665730403
 20
6.8707756728
 30
0.0
 10
12.6644788422
 20
6.8992914963
 30
0.0
 10
12.6635852942
 20
6.9283334953
 30
0.0
 10
12.6630515902
 20
6.957843277
 30
0.0
 10
12.6628788315
 20
6.9877615074
 30
0.0
 10
12.6630674001
 20
7.0180280086
 30
0.0
 10
12.663616905
 20
7.048581962
 30
0.0
 10
12.6648325979
 20
7.089726072
 30
0.0
 10
12.6672464267
 20
7.1414213224
 30
0.0
 10
12.6715372788
 20
7.2034548324
 30
0.0
 10
12.6762641854
 20
7.2549948071
 30
0.0
 10
12.6807252631
 20
7.2959219811
 30
0.0
 10
12.6843882444
 20
7.3262690354
 30
0.0
 10
12.6883692768
 20
7.3562835168
 30
0.0
 10
12.6926603712
 20
7.3859051117
 30
0.0
 10
12.6972528626
 20
7.4150742438
 30
0.0
 10
12.7021374894
 20
7.4437322678
 30
0.0
 10
12.7073043966
 20
7.4718215671
 30
0.0
 10
12.7127431586
 20
7.4992856748
 30
0.0
 10
12.7184428002
 20
7.5260693887
 30
0.0
 10
12.7243918144
 20
7.552118888
 30
0.0
 10
12.7305781837
 20
7.5773818457
 30
0.0
 10
12.7369894105
 20
7.6018075338
 30
0.0
 10
12.7436125411
 20
7.6253469264
 30
0.0
 10
12.7504341916
 20
7.6479528039
 30
0.0
 10
12.7574405788
 20
7.6695798548
 30
0.0
 10
12.7646175436
 20
7.6901847898
 30
0.0
 10
12.7719505845
 20
7.7097264099
 30
0.0
 10
12.7794249075
 20
7.7281658087
 30
0.0
 10
12.7870254403
 20
7.7454660879
 30
0.0
 10
12.7935447909
 20
7.7591004664
 30
0.0
 10
12.7988218644
 20
7.7694007864
 30
0.0
 10
12.8027428733
 20
7.7767051507
 30
0.0
 10
12.8066839763
 20
7.7836999977
 30
0.0
 10
12.8106432191
 20
7.7903818583
 30
0.0
 10
12.8146186139
 20
7.7967474127
 30
0.0
 10
12.8186082273
 20
7.8027934688
 30
0.0
 10
12.8226100002
 20
7.8085170498
 30
0.0
 10
12.8266220391
 20
7.8139153022
 30
0.0
 10
12.8306423777
 20
7.81898562
 30
0.0
 10
12.8346691524
 20
7.8237255261
 30
0.0
 10
12.8387002029
 20
7.828132447
 30
0.0
 10
12.841444961
 20
7.8309033835
 30
0.0
 10
12.8428180937
 20
7.8322297279
 30
0.0
  0
SPLINE
  5
394
100
AcDbEntity
  8
0
100
AcDbSpline
 62
7
  6
CONTINUOUS
 70
0
 71
3
 72
11
 73
7
 74
0
 42
0.0000001
 43
0.0000001
 44
0.0000000001
 40
0.0
 40
0.0
 40
0.0
 40
0.0
 40
0.2560157798
 40
0.5069139951
 40
0.7543360408
 40
1.0
 40
1.0
 40
1.0
 40
1.0
 10
12.8065012024
 20
7.6427367184
 30
0.0
 10
12.8073823843
 20
7.6429793423
 30
0.0
 10
12.8091467133
 20
7.6433921173
 30
0.0
 10
12.8118135512
 20
7.6437879341
 30
0.0
 10
12.8144676446
 20
7.6439526237
 30
0.0
 10
12.8162300483
 20
7.6439079937
 30
0.0
 10
12.8171049647
 20
7.6438473175
 30
0.0
  0
SPLINE
  5
395
100
AcDbEntity
  8
0
100
AcDbSpline
 62
7
  6
CONTINUOUS
 70
0
 71
3
 72
11
 73
7
 74
0
 42
0.0000001
 43
0.0000001
 44
0.0000000001
 40
0.0
 40
0.0
 40
0.0
 40
0.0
 40
0.2560725715
 40
0.5069799007
 40
0.754377611
 40
1.0
 40
1.0
 40
1.0
 40
1.0
 10
13.0154130892
 20
8.2980858781
 30
0.0
 10
13.0162562828
 20
8.2977206847
 30
0.0
 10
13.0179547539
 20
8.2970624718
 30
0.0
 10
13.0205541
 20
8.2962956204
 30
0.0
 10
13.0231729484
 20
8.2957617604
 30
0.0
 10
13.0249334022
 20
8.295561298
 30
0.0
 10
13.025812672
 20
8.2955003198
 30
0.0
  0
SPLINE
  5
396
100
AcDbEntity
  8
0
100
AcDbSpline
 62
7
  6
CONTINUOUS
 70
0
 71
3
 72
86
 73
82
 74
0
 42
0.0000001
 43
0.0000001
 44
0.0000000001
 40
0.0
 40
0.0
 40
0.0
 40
0.0
 40
0.0027164229
 40
0.0054532199
 40
0.0082302803
 40
0.0110665652
 40
0.0139797601
 40
0.0169860612
 40
0.0201000083
 40
0.0233345154
 40
0.0267008552
 40
0.0302087911
 40
0.0338666949
 40
0.0376816386
 40
0.0416596027
 40
0.0458055094
 40
0.0501234214
 40
0.0546165986
 40
0.0592875859
 40
0.0641383491
 40
0.0691702497
 40
0.0743842108
 40
0.0797806815
 40
0.0853597253
 40
0.0911210701
 40
0.0970640767
 40
0.1094907819
 40
0.1226299857
 40
0.1364676026
 40
0.1509863633
 40
0.166166208
 40
0.1819846021
 40
0.1984167887
 40
0.2154360082
 40
0.2330136911
 40
0.2511196222
 40
0.2697220861
 40
0.2887880011
 40
0.3082830385
 40
0.3281717446
 40
0.3484176561
 40
0.3689834073
 40
0.3898308346
 40
0.4109210783
 40
0.4322146819
 40
0.4536716962
 40
0.4969136001
 40
0.5403217884
 40
0.5835689461
 40
0.6050305436
 40
0.6263300209
 40
0.6474274143
 40
0.6682832501
 40
0.6888586484
 40
0.7091154216
 40
0.7290161766
 40
0.7485244187
 40
0.7676046599
 40
0.7862225346
 40
0.8043449193
 40
0.8219400528
 40
0.8389776685
 40
0.8554291414
 40
0.8712676506
 40
0.8864683732
 40
0.9010086996
 40
0.9148684857
 40
0.9280303658
 40
0.9404801448
 40
0.9464347977
 40
0.952207837
 40
0.9577986052
 40
0.9632068066
 40
0.9684324934
 40
0.9734760794
 40
0.9783384382
 40
0.9830208843
 40
0.9875254058
 40
0.9918546018
 40
0.9960115767
 40
1.0
 40
1.0
 40
1.0
 40
1.0
 10
13.0698595569
 20
8.0769292441
 30
0.0
 10
13.068562425
 20
8.0770192005
 30
0.0
 10
13.0659650776
 20
8.0773172187
 30
0.0
 10
13.062102114
 20
8.0781146115
 30
0.0
 10
13.0582683532
 20
8.0792623425
 30
0.0
 10
13.0544665193
 20
8.0807592524
 30
0.0
 10
13.0506985626
 20
8.0826039952
 30
0.0
 10
13.0469664564
 20
8.0847951958
 30
0.0
 10
13.0432718586
 20
8.0873311991
 30
0.0
 10
13.039616476
 20
8.0902104875
 30
0.0
 10
13.0360018422
 20
8.093431319
 30
0.0
 10
13.0324295249
 20
8.0969919515
 30
0.0
 10
13.0289011171
 20
8.1008905503
 30
0.0
 10
13.0254181161
 20
8.1051250888
 30
0.0
 10
13.0219821839
 20
8.109693515
 30
0.0
 10
13.018594831
 20
8.1145935213
 30
0.0
 10
13.0152576934
 20
8.1198227237
 30
0.0
 10
13.0119723583
 20
8.1253785434
 30
0.0
 10
13.0087403722
 20
8.1312582292
 30
0.0
 10
13.0055633775
 20
8.1374589056
 30
0.0
 10
13.002442857
 20
8.1439774762
 30
0.0
 10
12.9993804165
 20
8.1508107317
 30
0.0
 10
12.9963775401
 20
8.1579552658
 30
0.0
 10
12.9934357293
 20
8.165407521
 30
0.0
 10
12.9905564588
 20
8.173163802
 30
0.0
 10
12.9867459595
 20
8.1840684118
 30
0.0
 10
12.98216368
 20
8.1984410188
 30
0.0
 10
12.9770150791
 20
8.2165885423
 30
0.0
 10
12.9721483946
 20
8.2358480553
 30
0.0
 10
12.9675734787
 20
8.256181005
 30
0.0
 10
12.9632996328
 20
8.2775468872
 30
0.0
 10
12.9593355529
 20
8.2999029624
 30
0.0
 10
12.9556893056
 20
8.3232044643
 30
0.0
 10
12.9523683091
 20
8.347404673
 30
0.0
 10
12.949379323
 20
8.3724550314
 30
0.0
 10
12.9467284317
 20
8.3983052495
 30
0.0
 10
12.9444210334
 20
8.4249034106
 30
0.0
 10
12.9424618304
 20
8.4521960763
 30
0.0
 10
12.9408548116
 20
8.4801283955
 30
0.0
 10
12.9396032508
 20
8.508644219
 30
0.0
 10
12.9387097027
 20
8.537686218
 30
0.0
 10
12.9381759987
 20
8.5671959996
 30
0.0
 10
12.93800324
 20
8.59711423
 30
0.0
 10
12.9381918086
 20
8.6273807312
 30
0.0
 10
12.9387413135
 20
8.6579346847
 30
0.0
 10
12.9399570064
 20
8.6990787947
 30
0.0
 10
12.9423708352
 20
8.7507740451
 30
0.0
 10
12.9466616873
 20
8.8128075551
 30
0.0
 10
12.9513885939
 20
8.8643475298
 30
0.0
 10
12.9558496716
 20
8.9052747038
 30
0.0
 10
12.9595126529
 20
8.9356217581
 30
0.0
 10
12.9634936853
 20
8.9656362395
 30
0.0
 10
12.9677847797
 20
8.9952578344
 30
0.0
 10
12.9723772711
 20
9.0244269665
 30
0.0
 10
12.9772618979
 20
9.0530849904
 30
0.0
 10
12.9824288051
 20
9.0811742897
 30
0.0
 10
12.9878675671
 20
9.1086383975
 30
0.0
 10
12.9935672087
 20
9.1354221113
 30
0.0
 10
12.9995162229
 20
9.1614716107
 30
0.0
 10
13.0057025922
 20
9.1867345684
 30
0.0
 10
13.012113819
 20
9.2111602564
 30
0.0
 10
13.0187369496
 20
9.234699649
 30
0.0
 10
13.0255586001
 20
9.2573055266
 30
0.0
 10
13.0325649874
 20
9.2789325775
 30
0.0
 10
13.0397419521
 20
9.2995375125
 30
0.0
 10
13.047074993
 20
9.3190791326
 30
0.0
 10
13.054549316
 20
9.3375185314
 30
0.0
 10
13.0621498488
 20
9.3548188106
 30
0.0
 10
13.0686691994
 20
9.3684531891
 30
0.0
 10
13.0739462729
 20
9.3787535091
 30
0.0
 10
13.0778672819
 20
9.3860578733
 30
0.0
 10
13.0818083848
 20
9.3930527204
 30
0.0
 10
13.0857676276
 20
9.3997345809
 30
0.0
 10
13.0897430224
 20
9.4061001353
 30
0.0
 10
13.0937326358
 20
9.4121461914
 30
0.0
 10
13.0977344087
 20
9.4178697725
 30
0.0
 10
13.1017464476
 20
9.4232680248
 30
0.0
 10
13.1057667862
 20
9.4283383427
 30
0.0
 10
13.1097935609
 20
9.4330782488
 30
0.0
 10
13.1138246114
 20
9.4374851697
 30
0.0
 10
13.1165693695
 20
9.4402561061
 30
0.0
 10
13.1179425022
 20
9.4415824505
 30
0.0
  0
SPLINE
  5
397
100
AcDbEntity
  8
0
100
AcDbSpline
 62
7
  6
CONTINUOUS
 70
0
 71
3
 72
11
 73
7
 74
0
 42
0.0000001
 43
0.0000001
 44
0.0000000001
 40
0.0
 40
0.0
 40
0.0
 40
0.0
 40
0.2560157798
 40
0.5069139951
 40
0.7543360408
 40
1.0
 40
1.0
 40
1.0
 40
1.0
 10
13.0816256109
 20
9.2520894411
 30
0.0
 10
13.0825067928
 20
9.252332065
 30
0.0
 10
13.0842711218
 20
9.25274484
 30
0.0
 10
13.0869379597
 20
9.2531406567
 30
0.0
 10
13.0895920531
 20
9.2533053464
 30
0.0
 10
13.0913544568
 20
9.2532607164
 30
0.0
 10
13.0922293732
 20
9.2532000401
 30
0.0
  0
SPLINE
  5
398
100
AcDbEntity
  8
0
100
AcDbSpline
 62
7
  6
CONTINUOUS
 70
0
 71
3
 72
27
 73
23
 74
0
 42
0.0000001
 43
0.0000001
 44
0.0000000001
 40
0.0
 40
0.0
 40
0.0
 40
0.0
 40
0.0622009741
 40
0.093250318
 40
0.1242682268
 40
0.1862183617
 40
0.2481002856
 40
0.2790336518
 40
0.3099655961
 40
0.3718363201
 40
0.4337660663
 40
0.495797757
 40
0.5579729729
 40
0.6203309354
 40
0.6829075059
 40
0.7142932308
 40
0.7457449843
 40
0.8088482427
 40
0.8722484958
 40
0.9040693542
 40
0.9359703652
 40
1.0
 40
1.0
 40
1.0
 40
1.0
 10
10.5804918127
 20
8.6672471339
 30
0.0
 10
10.5826508126
 20
8.6714913368
 30
0.0
 10
10.5861117745
 20
8.6777439054
 30
0.0
 10
10.5911552626
 20
8.6858119854
 30
0.0
 10
10.5964720172
 20
8.6936799651
 30
0.0
 10
10.6036327914
 20
8.7031408502
 30
0.0
 10
10.6114538162
 20
8.7120554445
 30
0.0
 10
10.6180823948
 20
8.7188261988
 30
0.0
 10
10.6249532857
 20
8.7253496122
 30
0.0
 10
10.6339882602
 20
8.7330281892
 30
0.0
 10
10.6454888577
 20
8.7414238009
 30
0.0
 10
10.6575999277
 20
8.7489570264
 30
0.0
 10
10.6702662391
 20
8.7555850426
 30
0.0
 10
10.683428288
 20
8.7612693995
 30
0.0
 10
10.6947480641
 20
8.7651885251
 30
0.0
 10
10.7039830408
 20
8.7678212485
 30
0.0
 10
10.7133482956
 20
8.7701202093
 30
0.0
 10
10.7252451
 20
8.7723495872
 30
0.0
 10
10.737301331
 20
8.7737026807
 30
0.0
 10
10.7470192017
 20
8.7742584362
 30
0.0
 10
10.7567986075
 20
8.7744620829
 30
0.0
 10
10.7641467919
 20
8.7742158081
 30
0.0
 10
10.7690368184
 20
8.7738766836
 30
0.0
  0
SPLINE
  5
399
100
AcDbEntity
  8
0
100
AcDbSpline
 62
7
  6
CONTINUOUS
 70
0
 71
3
 72
42
 73
38
 74
0
 42
0.0000001
 43
0.0000001
 44
0.0000000001
 40
0.0
 40
0.0
 40
0.0
 40
0.0
 40
0.0299419634
 40
0.0449235299
 40
0.0599142017
 40
0.0899287029
 40
0.1200139772
 40
0.1350926626
 40
0.1501967046
 40
0.1804840506
 40
0.2108978877
 40
0.2414513551
 40
0.2721543675
 40
0.3030134354
 40
0.3340315696
 40
0.3652082675
 40
0.3965395775
 40
0.4280182343
 40
0.4596338596
 40
0.4913732188
 40
0.5232205284
 40
0.5551578047
 40
0.5871652463
 40
0.6192216448
 40
0.6513048151
 40
0.6833920402
 40
0.7154605222
 40
0.747487836
 40
0.7794523759
 40
0.8113337934
 40
0.8431134117
 40
0.8747746318
 40
0.9063032512
 40
0.9376879208
 40
0.9533258
 40
0.9689252634
 40
1.0
 40
1.0
 40
1.0
 40
1.0
 10
10.2237563773
 20
8.1658981713
 30
0.0
 10
10.2273895165
 20
8.1694074929
 30
0.0
 10
10.233053384
 20
8.174458826
 30
0.0
 10
10.2409855028
 20
8.1807264304
 30
0.0
 10
10.2491702197
 20
8.1866821492
 30
0.0
 10
10.2598499295
 20
8.1935212438
 30
0.0
 10
10.2710488932
 20
8.1995034724
 30
0.0
 10
10.280285136
 20
8.2037592357
 30
0.0
 10
10.2897121725
 20
8.2076636793
 30
0.0
 10
10.3018066327
 20
8.2118620595
 30
0.0
 10
10.3167112218
 20
8.2157748446
 30
0.0
 10
10.3319410313
 20
8.2185467517
 30
0.0
 10
10.3474116598
 20
8.2201624884
 30
0.0
 10
10.363038124
 20
8.2206134321
 30
0.0
 10
10.3787344425
 20
8.2198972878
 30
0.0
 10
10.3944143448
 20
8.2180181923
 30
0.0
 10
10.4099916768
 20
8.2149866552
 30
0.0
 10
10.4253808859
 20
8.2108195011
 30
0.0
 10
10.4404974799
 20
8.2055397699
 30
0.0
 10
10.4552584857
 20
8.199176587
 30
0.0
 10
10.4695828976
 20
8.1917650012
 30
0.0
 10
10.4833921163
 20
8.1833457913
 30
0.0
 10
10.4966103738
 20
8.1739652425
 30
0.0
 10
10.5091651444
 20
8.1636748933
 30
0.0
 10
10.5209875374
 20
8.1525312552
 30
0.0
 10
10.5320126714
 20
8.1405955042
 30
0.0
 10
10.5421800262
 20
8.1279331493
 30
0.0
 10
10.5514337719
 20
8.1146136749
 30
0.0
 10
10.5597230727
 20
8.1007101684
 30
0.0
 10
10.567002364
 20
8.0862989074
 30
0.0
 10
10.5732315994
 20
8.0714590062
 30
0.0
 10
10.5783764825
 20
8.0562717669
 30
0.0
 10
10.5824085915
 20
8.0408210534
 30
0.0
 10
10.5848259304
 20
8.0277789762
 30
0.0
 10
10.5861819858
 20
8.0172998253
 30
0.0
 10
10.5871497693
 20
8.0068307021
 30
0.0
 10
10.5874428048
 20
7.9989527574
 30
0.0
 10
10.5874428048
 20
7.9937104161
 30
0.0
  0
SPLINE
  5
39A
100
AcDbEntity
  8
0
100
AcDbSpline
 62
7
  6
CONTINUOUS
 70
0
 71
3
 72
41
 73
37
 74
0
 42
0.0000001
 43
0.0000001
 44
0.0000000001
 40
0.0
 40
0.0
 40
0.0
 40
0.0
 40
0.0300821846
 40
0.0601249677
 40
0.0901567989
 40
0.1202063636
 40
0.1503017648
 40
0.180469735
 40
0.210734905
 40
0.2411191526
 40
0.2716410504
 40
0.3023154241
 40
0.3331530295
 40
0.3641603482
 40
0.3953394991
 40
0.4266882612
 40
0.4582001974
 40
0.4898648714
 40
0.5216681469
 40
0.5535925592
 40
0.5856177504
 40
0.6177209585
 40
0.6498775498
 40
0.6820615883
 40
0.7142464316
 40
0.7303336157
 40
0.746411011
 40
0.7785177945
 40
0.8105474009
 40
0.8265288039
 40
0.842482366
 40
0.8742901317
 40
0.9059584493
 40
0.9374728125
 40
0.968821987
 40
1.0
 40
1.0
 40
1.0
 40
1.0
 10
9.6848004123
 20
7.7482762884
 30
0.0
 10
9.6878874102
 20
7.752807521
 30
0.0
 10
9.6944489396
 20
7.7616043874
 30
0.0
 10
9.70538168
 20
7.7738977616
 30
0.0
 10
9.7173271049
 20
7.785202768
 30
0.0
 10
9.7302063019
 20
7.7954460622
 30
0.0
 10
9.7439356579
 20
7.8045630445
 30
0.0
 10
9.7584260382
 20
7.8124961141
 30
0.0
 10
9.7735837881
 20
7.8191955361
 30
0.0
 10
9.7893112626
 20
7.8246195302
 30
0.0
 10
9.8055074878
 20
7.8287345038
 30
0.0
 10
9.8220687911
 20
7.8315151792
 30
0.0
 10
9.8388894397
 20
7.8329446778
 30
0.0
 10
9.855862267
 20
7.8330145695
 30
0.0
 10
9.8728792971
 20
7.8317248812
 30
0.0
 10
9.8898323639
 20
7.8290840704
 30
0.0
 10
9.9066137275
 20
7.8251089648
 30
0.0
 10
9.9231166877
 20
7.8198246664
 30
0.0
 10
9.9392361971
 20
7.8132644212
 30
0.0
 10
9.9548694739
 20
7.8054694635
 30
0.0
 10
9.9699166212
 20
7.7964887867
 30
0.0
 10
9.9842811883
 20
7.7863789517
 30
0.0
 10
9.9978709404
 20
7.7752035885
 30
0.0
 10
10.0105978223
 20
7.7630338386
 30
0.0
 10
10.0204190237
 20
7.7521243216
 30
0.0
 10
10.0277653504
 20
7.7429786049
 30
0.0
 10
10.0347549572
 20
7.7335751204
 30
0.0
 10
10.0428096042
 20
7.7213564738
 30
0.0
 10
10.0499102168
 20
7.7085796213
 30
0.0
 10
10.0549839504
 20
7.6980804738
 30
0.0
 10
10.059637164
 20
7.6874325089
 30
0.0
 10
10.0646687842
 20
7.6738414331
 30
0.0
 10
10.0694121202
 20
7.6571730513
 30
0.0
 10
10.0728244545
 20
7.6402663375
 30
0.0
 10
10.0748827459
 20
7.6232329572
 30
0.0
 10
10.0753441823
 20
7.611831442
 30
0.0
 10
10.0753441822
 20
7.6061488656
 30
0.0
  0
SPLINE
  5
39B
100
AcDbEntity
  8
0
100
AcDbSpline
 62
7
  6
CONTINUOUS
 70
0
 71
3
 72
15
 73
11
 74
0
 42
0.0000001
 43
0.0000001
 44
0.0000000001
 40
0.0
 40
0.0
 40
0.0
 40
0.0
 40
0.1233171261
 40
0.2468171865
 40
0.3706749939
 40
0.4950495802
 40
0.6200773232
 40
0.7458671315
 40
0.872492731
 40
1.0
 40
1.0
 40
1.0
 40
1.0
 10
11.7252527093
 20
7.0569236379
 30
0.0
 10
11.7276762616
 20
7.0592645893
 30
0.0
 10
11.7327834334
 20
7.0636925181
 30
0.0
 10
11.741118841
 20
7.0694786207
 30
0.0
 10
11.7500505129
 20
7.0743562282
 30
0.0
 10
11.7594870256
 20
7.078275208
 30
0.0
 10
11.7693331905
 20
7.0811966517
 30
0.0
 10
11.7794898218
 20
7.083091349
 30
0.0
 10
11.7898532435
 20
7.0839408714
 30
0.0
 10
11.7968096744
 20
7.0838051835
 30
0.0
 10
11.8002853371
 20
7.0835641455
 30
0.0
  0
SPLINE
  5
39C
100
AcDbEntity
  8
0
100
AcDbSpline
 62
7
  6
CONTINUOUS
 70
0
 71
3
 72
42
 73
38
 74
0
 42
0.0000001
 43
0.0000001
 44
0.0000000001
 40
0.0
 40
0.0
 40
0.0
 40
0.0
 40
0.0299419634
 40
0.0449235299
 40
0.0599142017
 40
0.0899287029
 40
0.1200139772
 40
0.1350926626
 40
0.1501967046
 40
0.1804840506
 40
0.2108978877
 40
0.2414513551
 40
0.2721543675
 40
0.3030134354
 40
0.3340315696
 40
0.3652082675
 40
0.3965395775
 40
0.4280182343
 40
0.4596338596
 40
0.4913732188
 40
0.5232205284
 40
0.5551578047
 40
0.5871652463
 40
0.6192216448
 40
0.6513048151
 40
0.6833920402
 40
0.7154605222
 40
0.747487836
 40
0.7794523759
 40
0.8113337934
 40
0.8431134117
 40
0.8747746318
 40
0.9063032512
 40
0.9376879208
 40
0.9533258
 40
0.9689252634
 40
1.0
 40
1.0
 40
1.0
 40
1.0
 10
8.9265178921
 20
9.9153225423
 30
0.0
 10
8.9301510312
 20
9.9188318639
 30
0.0
 10
8.9358148987
 20
9.923883197
 30
0.0
 10
8.9437470175
 20
9.9301508014
 30
0.0
 10
8.9519317344
 20
9.9361065202
 30
0.0
 10
8.9626114442
 20
9.9429456148
 30
0.0
 10
8.9738104079
 20
9.9489278434
 30
0.0
 10
8.9830466507
 20
9.9531836067
 30
0.0
 10
8.9924736872
 20
9.9570880503
 30
0.0
 10
9.0045681474
 20
9.9612864305
 30
0.0
 10
9.0194727365
 20
9.9651992156
 30
0.0
 10
9.034702546
 20
9.9679711227
 30
0.0
 10
9.0501731745
 20
9.9695868594
 30
0.0
 10
9.0657996387
 20
9.9700378031
 30
0.0
 10
9.0814959572
 20
9.9693216588
 30
0.0
 10
9.0971758595
 20
9.9674425633
 30
0.0
 10
9.1127531915
 20
9.9644110262
 30
0.0
 10
9.1281424006
 20
9.9602438721
 30
0.0
 10
9.1432589946
 20
9.9549641408
 30
0.0
 10
9.1580200004
 20
9.948600958
 30
0.0
 10
9.1723444123
 20
9.9411893722
 30
0.0
 10
9.186153631
 20
9.9327701623
 30
0.0
 10
9.1993718885
 20
9.9233896135
 30
0.0
 10
9.2119266591
 20
9.9130992643
 30
0.0
 10
9.2237490521
 20
9.9019556261
 30
0.0
 10
9.2347741861
 20
9.8900198752
 30
0.0
 10
9.2449415409
 20
9.8773575203
 30
0.0
 10
9.2541952866
 20
9.8640380459
 30
0.0
 10
9.2624845875
 20
9.8501345394
 30
0.0
 10
9.2697638788
 20
9.8357232784
 30
0.0
 10
9.2759931141
 20
9.8208833772
 30
0.0
 10
9.2811379972
 20
9.8056961379
 30
0.0
 10
9.2851701062
 20
9.7902454244
 30
0.0
 10
9.2875874451
 20
9.7772033472
 30
0.0
 10
9.2889435005
 20
9.7667241963
 30
0.0
 10
9.289911284
 20
9.7562550731
 30
0.0
 10
9.2902043195
 20
9.7483771284
 30
0.0
 10
9.2902043195
 20
9.7431347871
 30
0.0
  0
SPLINE
  5
39D
100
AcDbEntity
  8
0
100
AcDbSpline
 62
7
  6
CONTINUOUS
 70
0
 71
3
 72
42
 73
38
 74
0
 42
0.0000001
 43
0.0000001
 44
0.0000000001
 40
0.0
 40
0.0
 40
0.0
 40
0.0
 40
0.0299419634
 40
0.0449235299
 40
0.0599142017
 40
0.0899287029
 40
0.1200139772
 40
0.1350926626
 40
0.1501967046
 40
0.1804840506
 40
0.2108978877
 40
0.2414513551
 40
0.2721543675
 40
0.3030134354
 40
0.3340315696
 40
0.3652082675
 40
0.3965395775
 40
0.4280182343
 40
0.4596338596
 40
0.4913732188
 40
0.5232205284
 40
0.5551578047
 40
0.5871652463
 40
0.6192216448
 40
0.6513048151
 40
0.6833920402
 40
0.7154605222
 40
0.747487836
 40
0.7794523759
 40
0.8113337934
 40
0.8431134117
 40
0.8747746318
 40
0.9063032512
 40
0.9376879208
 40
0.9533258
 40
0.9689252634
 40
1.0
 40
1.0
 40
1.0
 40
1.0
 10
11.9440703934
 20
9.7060545656
 30
0.0
 10
11.9477035326
 20
9.7095638871
 30
0.0
 10
11.9533674
 20
9.7146152203
 30
0.0
 10
11.9612995188
 20
9.7208828246
 30
0.0
 10
11.9694842358
 20
9.7268385434
 30
0.0
 10
11.9801639455
 20
9.7336776381
 30
0.0
 10
11.9913629093
 20
9.7396598666
 30
0.0
 10
12.0005991521
 20
9.74391563
 30
0.0
 10
12.0100261885
 20
9.7478200735
 30
0.0
 10
12.0221206488
 20
9.7520184538
 30
0.0
 10
12.0370252378
 20
9.7559312389
 30
0.0
 10
12.0522550473
 20
9.7587031459
 30
0.0
 10
12.0677256759
 20
9.7603188826
 30
0.0
 10
12.08335214
 20
9.7607698263
 30
0.0
 10
12.0990484585
 20
9.760053682
 30
0.0
 10
12.1147283608
 20
9.7581745866
 30
0.0
 10
12.1303056929
 20
9.7551430495
 30
0.0
 10
12.145694902
 20
9.7509758953
 30
0.0
 10
12.160811496
 20
9.7456961641
 30
0.0
 10
12.1755725017
 20
9.7393329812
 30
0.0
 10
12.1898969137
 20
9.7319213955
 30
0.0
 10
12.2037061323
 20
9.7235021856
 30
0.0
 10
12.2169243899
 20
9.7141216367
 30
0.0
 10
12.2294791604
 20
9.7038312876
 30
0.0
 10
12.2413015535
 20
9.6926876494
 30
0.0
 10
12.2523266875
 20
9.6807518984
 30
0.0
 10
12.2624940423
 20
9.6680895435
 30
0.0
 10
12.271747788
 20
9.6547700691
 30
0.0
 10
12.2800370888
 20
9.6408665626
 30
0.0
 10
12.2873163801
 20
9.6264553016
 30
0.0
 10
12.2935456155
 20
9.6116154004
 30
0.0
 10
12.2986904986
 20
9.5964281611
 30
0.0
 10
12.3027226075
 20
9.5809774477
 30
0.0
 10
12.3051399464
 20
9.5679353705
 30
0.0
 10
12.3064960018
 20
9.5574562195
 30
0.0
 10
12.3074637853
 20
9.5469870963
 30
0.0
 10
12.3077568208
 20
9.5391091516
 30
0.0
 10
12.3077568208
 20
9.5338668103
 30
0.0
  0
SPLINE
  5
39E
100
AcDbEntity
  8
0
100
AcDbSpline
 62
7
  6
CONTINUOUS
 70
0
 71
3
 72
15
 73
11
 74
0
 42
0.0000001
 43
0.0000001
 44
0.0000000001
 40
0.0
 40
0.0
 40
0.0
 40
0.0
 40
0.1233171261
 40
0.2468171865
 40
0.3706749939
 40
0.4950495802
 40
0.6200773232
 40
0.7458671315
 40
0.872492731
 40
1.0
 40
1.0
 40
1.0
 40
1.0
 10
9.6726602068
 20
7.1992714114
 30
0.0
 10
9.6750837591
 20
7.2016123629
 30
0.0
 10
9.6801909309
 20
7.2060402916
 30
0.0
 10
9.6885263385
 20
7.2118263942
 30
0.0
 10
9.6974580105
 20
7.2167040018
 30
0.0
 10
9.7068945231
 20
7.2206229815
 30
0.0
 10
9.716740688
 20
7.2235444252
 30
0.0
 10
9.7268973193
 20
7.2254391225
 30
0.0
 10
9.737260741
 20
7.2262886449
 30
0.0
 10
9.7442171719
 20
7.2261529571
 30
0.0
 10
9.7476928347
 20
7.225911919
 30
0.0
  0
SPLINE
  5
39F
100
AcDbEntity
  8
0
100
AcDbSpline
 62
7
  6
CONTINUOUS
 70
0
 71
3
 72
42
 73
38
 74
0
 42
0.0000001
 43
0.0000001
 44
0.0000000001
 40
0.0
 40
0.0
 40
0.0
 40
0.0
 40
0.0299419634
 40
0.0449235299
 40
0.0599142017
 40
0.0899287029
 40
0.1200139772
 40
0.1350926626
 40
0.1501967046
 40
0.1804840506
 40
0.2108978877
 40
0.2414513551
 40
0.2721543675
 40
0.3030134354
 40
0.3340315696
 40
0.3652082675
 40
0.3965395775
 40
0.4280182343
 40
0.4596338596
 40
0.4913732188
 40
0.5232205284
 40
0.5551578047
 40
0.5871652463
 40
0.6192216448
 40
0.6513048151
 40
0.6833920402
 40
0.7154605222
 40
0.747487836
 40
0.7794523759
 40
0.8113337934
 40
0.8431134117
 40
0.8747746318
 40
0.9063032512
 40
0.9376879208
 40
0.9533258
 40
0.9689252634
 40
1.0
 40
1.0
 40
1.0
 40
1.0
 10
8.9265178921
 20
6.4148073295
 30
0.0
 10
8.9301510312
 20
6.4183166511
 30
0.0
 10
8.9358148987
 20
6.4233679842
 30
0.0
 10
8.9437470175
 20
6.4296355885
 30
0.0
 10
8.9519317344
 20
6.4355913073
 30
0.0
 10
8.9626114442
 20
6.442430402
 30
0.0
 10
8.9738104079
 20
6.4484126306
 30
0.0
 10
8.9830466507
 20
6.4526683939
 30
0.0
 10
8.9924736872
 20
6.4565728374
 30
0.0
 10
9.0045681474
 20
6.4607712177
 30
0.0
 10
9.0194727365
 20
6.4646840028
 30
0.0
 10
9.034702546
 20
6.4674559099
 30
0.0
 10
9.0501731745
 20
6.4690716466
 30
0.0
 10
9.0657996387
 20
6.4695225903
 30
0.0
 10
9.0814959572
 20
6.468806446
 30
0.0
 10
9.0971758595
 20
6.4669273505
 30
0.0
 10
9.1127531915
 20
6.4638958134
 30
0.0
 10
9.1281424006
 20
6.4597286592
 30
0.0
 10
9.1432589946
 20
6.454448928
 30
0.0
 10
9.1580200004
 20
6.4480857452
 30
0.0
 10
9.1723444123
 20
6.4406741594
 30
0.0
 10
9.186153631
 20
6.4322549495
 30
0.0
 10
9.1993718885
 20
6.4228744006
 30
0.0
 10
9.2119266591
 20
6.4125840515
 30
0.0
 10
9.2237490521
 20
6.4014404133
 30
0.0
 10
9.2347741861
 20
6.3895046624
 30
0.0
 10
9.2449415409
 20
6.3768423075
 30
0.0
 10
9.2541952866
 20
6.363522833
 30
0.0
 10
9.2624845875
 20
6.3496193266
 30
0.0
 10
9.2697638788
 20
6.3352080656
 30
0.0
 10
9.2759931141
 20
6.3203681644
 30
0.0
 10
9.2811379972
 20
6.305180925
 30
0.0
 10
9.2851701062
 20
6.2897302116
 30
0.0
 10
9.2875874451
 20
6.2766881344
 30
0.0
 10
9.2889435005
 20
6.2662089835
 30
0.0
 10
9.289911284
 20
6.2557398603
 30
0.0
 10
9.2902043195
 20
6.2478619155
 30
0.0
 10
9.2902043195
 20
6.2426195743
 30
0.0
  0
SPLINE
  5
3A0
100
AcDbEntity
  8
0
100
AcDbSpline
 62
7
  6
CONTINUOUS
 70
0
 71
3
 72
15
 73
11
 74
0
 42
0.0000001
 43
0.0000001
 44
0.0000000001
 40
0.0
 40
0.0
 40
0.0
 40
0.0
 40
0.1233171261
 40
0.2468171865
 40
0.3706749939
 40
0.4950495802
 40
0.6200773232
 40
0.7458671315
 40
0.872492731
 40
1.0
 40
1.0
 40
1.0
 40
1.0
 10
11.7252527093
 20
8.8081472297
 30
0.0
 10
11.7276762616
 20
8.8104881812
 30
0.0
 10
11.7327834334
 20
8.8149161099
 30
0.0
 10
11.741118841
 20
8.8207022125
 30
0.0
 10
11.7500505129
 20
8.8255798201
 30
0.0
 10
11.7594870256
 20
8.8294987998
 30
0.0
 10
11.7693331905
 20
8.8324202435
 30
0.0
 10
11.7794898218
 20
8.8343149408
 30
0.0
 10
11.7898532435
 20
8.8351644632
 30
0.0
 10
11.7968096744
 20
8.8350287754
 30
0.0
 10
11.8002853371
 20
8.8347877373
 30
0.0
  0
SPLINE
  5
3A1
100
AcDbEntity
  8
0
100
AcDbSpline
 62
7
  6
CONTINUOUS
 70
0
 71
3
 72
42
 73
38
 74
0
 42
0.0000001
 43
0.0000001
 44
0.0000000001
 40
0.0
 40
0.0
 40
0.0
 40
0.0
 40
0.0299419634
 40
0.0449235299
 40
0.0599142017
 40
0.0899287029
 40
0.1200139772
 40
0.1350926626
 40
0.1501967046
 40
0.1804840506
 40
0.2108978877
 40
0.2414513551
 40
0.2721543675
 40
0.3030134354
 40
0.3340315696
 40
0.3652082675
 40
0.3965395775
 40
0.4280182343
 40
0.4596338596
 40
0.4913732188
 40
0.5232205284
 40
0.5551578047
 40
0.5871652463
 40
0.6192216448
 40
0.6513048151
 40
0.6833920402
 40
0.7154605222
 40
0.747487836
 40
0.7794523759
 40
0.8113337934
 40
0.8431134117
 40
0.8747746318
 40
0.9063032512
 40
0.9376879208
 40
0.9533258
 40
0.9689252634
 40
1.0
 40
1.0
 40
1.0
 40
1.0
 10
11.9440703934
 20
6.2055393527
 30
0.0
 10
11.9477035326
 20
6.2090486743
 30
0.0
 10
11.9533674
 20
6.2141000075
 30
0.0
 10
11.9612995188
 20
6.2203676118
 30
0.0
 10
11.9694842358
 20
6.2263233306
 30
0.0
 10
11.9801639455
 20
6.2331624253
 30
0.0
 10
11.9913629093
 20
6.2391446538
 30
0.0
 10
12.0005991521
 20
6.2434004172
 30
0.0
 10
12.0100261885
 20
6.2473048607
 30
0.0
 10
12.0221206488
 20
6.251503241
 30
0.0
 10
12.0370252378
 20
6.2554160261
 30
0.0
 10
12.0522550473
 20
6.2581879331
 30
0.0
 10
12.0677256759
 20
6.2598036698
 30
0.0
 10
12.08335214
 20
6.2602546135
 30
0.0
 10
12.0990484585
 20
6.2595384692
 30
0.0
 10
12.1147283608
 20
6.2576593738
 30
0.0
 10
12.1303056929
 20
6.2546278366
 30
0.0
 10
12.145694902
 20
6.2504606825
 30
0.0
 10
12.160811496
 20
6.2451809513
 30
0.0
 10
12.1755725017
 20
6.2388177684
 30
0.0
 10
12.1898969137
 20
6.2314061827
 30
0.0
 10
12.2037061323
 20
6.2229869728
 30
0.0
 10
12.2169243899
 20
6.2136064239
 30
0.0
 10
12.2294791604
 20
6.2033160748
 30
0.0
 10
12.2413015535
 20
6.1921724366
 30
0.0
 10
12.2523266875
 20
6.1802366856
 30
0.0
 10
12.2624940423
 20
6.1675743307
 30
0.0
 10
12.271747788
 20
6.1542548563
 30
0.0
 10
12.2800370888
 20
6.1403513498
 30
0.0
 10
12.2873163801
 20
6.1259400888
 30
0.0
 10
12.2935456155
 20
6.1111001876
 30
0.0
 10
12.2986904986
 20
6.0959129483
 30
0.0
 10
12.3027226075
 20
6.0804622349
 30
0.0
 10
12.3051399464
 20
6.0674201577
 30
0.0
 10
12.3064960018
 20
6.0569410067
 30
0.0
 10
12.3074637853
 20
6.0464718835
 30
0.0
 10
12.3077568208
 20
6.0385939388
 30
0.0
 10
12.3077568208
 20
6.0333515975
 30
0.0
  0
SPLINE
  5
3A2
100
AcDbEntity
  8
0
100
AcDbSpline
 62
7
  6
CONTINUOUS
 70
0
 71
3
 72
15
 73
11
 74
0
 42
0.0000001
 43
0.0000001
 44
0.0000000001
 40
0.0
 40
0.0
 40
0.0
 40
0.0
 40
0.1233171261
 40
0.2468171865
 40
0.3706749939
 40
0.4950495802
 40
0.6200773232
 40
0.7458671315
 40
0.872492731
 40
1.0
 40
1.0
 40
1.0
 40
1.0
 10
9.6726602068
 20
8.9504950032
 30
0.0
 10
9.6750837591
 20
8.9528359547
 30
0.0
 10
9.6801909309
 20
8.9572638834
 30
0.0
 10
9.6885263385
 20
8.963049986
 30
0.0
 10
9.6974580105
 20
8.9679275936
 30
0.0
 10
9.7068945231
 20
8.9718465733
 30
0.0
 10
9.716740688
 20
8.974768017
 30
0.0
 10
9.7268973193
 20
8.9766627143
 30
0.0
 10
9.737260741
 20
8.9775122367
 30
0.0
 10
9.7442171719
 20
8.9773765489
 30
0.0
 10
9.7476928347
 20
8.9771355109
 30
0.0
  0
SPLINE
  5
3A3
100
AcDbEntity
  8
0
100
AcDbSpline
 62
7
  6
CONTINUOUS
 70
0
 71
3
 72
39
 73
35
 74
0
 42
0.0000001
 43
0.0000001
 44
0.0000000001
 40
0.0
 40
0.0
 40
0.0
 40
0.0
 40
0.0314026137
 40
0.0630094723
 40
0.094807121
 40
0.126773443
 40
0.1588809721
 40
0.1910970223
 40
0.2233851135
 40
0.2557062447
 40
0.2880202663
 40
0.320287276
 40
0.3524690077
 40
0.3845301837
 40
0.4164397922
 40
0.4481722491
 40
0.4797084087
 40
0.5110363814
 40
0.5421521213
 40
0.5730597421
 40
0.6037715187
 40
0.6343075558
 40
0.6646951126
 40
0.6949675911
 40
0.7251632193
 40
0.7553234784
 40
0.7854913547
 40
0.8157095097
 40
0.8460184685
 40
0.8764549271
 40
0.9070502251
 40
0.9378293516
 40
0.9688091131
 40
1.0
 40
1.0
 40
1.0
 40
1.0
 10
9.7422576392
 20
7.2409463666
 30
0.0
 10
9.7463474473
 20
7.2406627375
 30
0.0
 10
9.7545311441
 20
7.2396905953
 30
0.0
 10
9.7666417695
 20
7.2370502432
 30
0.0
 10
9.7785176508
 20
7.2332484561
 30
0.0
 10
9.7900432645
 20
7.2283220668
 30
0.0
 10
9.8011083877
 20
7.2223187013
 30
0.0
 10
9.8116067522
 20
7.2152961711
 30
0.0
 10
9.8214376791
 20
7.2073220418
 30
0.0
 10
9.8305068487
 20
7.1984729421
 30
0.0
 10
9.8387272234
 20
7.1888338338
 30
0.0
 10
9.8460198562
 20
7.1784972146
 30
0.0
 10
9.8523146337
 20
7.167562246
 30
0.0
 10
9.8575509533
 20
7.156133833
 30
0.0
 10
9.8616783183
 20
7.144321641
 30
0.0
 10
9.8646567923
 20
7.1322390514
 30
0.0
 10
9.8664573942
 20
7.1200021062
 30
0.0
 10
9.8670623898
 20
7.1077284218
 30
0.0
 10
9.8664654876
 20
7.0955360877
 30
0.0
 10
9.8646719722
 20
7.0835425457
 30
0.0
 10
9.8616986579
 20
7.0718634661
 30
0.0
 10
9.8575737737
 20
7.0606116345
 30
0.0
 10
9.8523367412
 20
7.0498958464
 30
0.0
 10
9.8460378298
 20
7.0398198276
 30
0.0
 10
9.8387377309
 20
7.0304811639
 30
0.0
 10
9.8305069591
 20
7.0219703017
 30
0.0
 10
9.8214251408
 20
7.0143696307
 30
0.0
 10
9.8115802111
 20
7.0077526405
 30
0.0
 10
9.8010675223
 20
7.0021831851
 30
0.0
 10
9.7899888333
 20
6.9977148587
 30
0.0
 10
9.778451427
 20
6.9943904206
 30
0.0
 10
9.7665664455
 20
6.9922416241
 30
0.0
 10
9.7544500327
 20
6.9912884921
 30
0.0
 10
9.7463198725
 20
6.9914557718
 30
0.0
 10
9.7422576392
 20
6.9917374887
 30
0.0
  0
SPLINE
  5
3A4
100
AcDbEntity
  8
0
100
AcDbSpline
 62
7
  6
CONTINUOUS
 70
0
 71
3
 72
39
 73
35
 74
0
 42
0.0000001
 43
0.0000001
 44
0.0000000001
 40
0.0
 40
0.0
 40
0.0
 40
0.0
 40
0.0314026137
 40
0.0630094723
 40
0.094807121
 40
0.126773443
 40
0.1588809721
 40
0.1910970223
 40
0.2233851135
 40
0.2557062447
 40
0.2880202663
 40
0.320287276
 40
0.3524690077
 40
0.3845301837
 40
0.4164397922
 40
0.4481722491
 40
0.4797084087
 40
0.5110363814
 40
0.5421521213
 40
0.5730597421
 40
0.6037715187
 40
0.6343075558
 40
0.6646951126
 40
0.6949675911
 40
0.7251632193
 40
0.7553234784
 40
0.7854913547
 40
0.8157095097
 40
0.8460184685
 40
0.8764549271
 40
0.9070502251
 40
0.9378293516
 40
0.9688091131
 40
1.0
 40
1.0
 40
1.0
 40
1.0
 10
9.7422576392
 20
8.7429610805
 30
0.0
 10
9.7381678311
 20
8.7432447096
 30
0.0
 10
9.7299841342
 20
8.7442168518
 30
0.0
 10
9.7178735088
 20
8.7468572039
 30
0.0
 10
9.7059976275
 20
8.750658991
 30
0.0
 10
9.6944720139
 20
8.7555853803
 30
0.0
 10
9.6834068906
 20
8.7615887458
 30
0.0
 10
9.6729085262
 20
8.768611276
 30
0.0
 10
9.6630775992
 20
8.7765854053
 30
0.0
 10
9.6540084297
 20
8.7854345049
 30
0.0
 10
9.6457880549
 20
8.7950736132
 30
0.0
 10
9.6384954221
 20
8.8054102325
 30
0.0
 10
9.6322006447
 20
8.8163452011
 30
0.0
 10
9.6269643251
 20
8.8277736141
 30
0.0
 10
9.6228369601
 20
8.8395858061
 30
0.0
 10
9.619858486
 20
8.8516683957
 30
0.0
 10
9.6180578842
 20
8.8639053409
 30
0.0
 10
9.6174528885
 20
8.8761790252
 30
0.0
 10
9.6180497907
 20
8.8883713594
 30
0.0
 10
9.6198433062
 20
8.9003649014
 30
0.0
 10
9.6228166205
 20
8.912043981
 30
0.0
 10
9.6269415046
 20
8.9232958126
 30
0.0
 10
9.6321785372
 20
8.9340116007
 30
0.0
 10
9.6384774485
 20
8.9440876195
 30
0.0
 10
9.6457775474
 20
8.9534262832
 30
0.0
 10
9.6540083193
 20
8.9619371454
 30
0.0
 10
9.6630901375
 20
8.9695378164
 30
0.0
 10
9.6729350673
 20
8.9761548066
 30
0.0
 10
9.6834477561
 20
8.981724262
 30
0.0
 10
9.6945264451
 20
8.9861925884
 30
0.0
 10
9.7060638514
 20
8.9895170265
 30
0.0
 10
9.7179488329
 20
8.991665823
 30
0.0
 10
9.7300652456
 20
8.992618955
 30
0.0
 10
9.7381954059
 20
8.9924516753
 30
0.0
 10
9.7422576392
 20
8.9921699584
 30
0.0
  0
SPLINE
  5
3A5
100
AcDbEntity
  8
0
100
AcDbSpline
 62
7
  6
CONTINUOUS
 70
0
 71
3
 72
39
 73
35
 74
0
 42
0.0000001
 43
0.0000001
 44
0.0000000001
 40
0.0
 40
0.0
 40
0.0
 40
0.0
 40
0.0314026137
 40
0.0630094723
 40
0.094807121
 40
0.126773443
 40
0.1588809721
 40
0.1910970223
 40
0.2233851135
 40
0.2557062447
 40
0.2880202663
 40
0.320287276
 40
0.3524690077
 40
0.3845301837
 40
0.4164397922
 40
0.4481722491
 40
0.4797084087
 40
0.5110363814
 40
0.5421521213
 40
0.5730597421
 40
0.6037715187
 40
0.6343075558
 40
0.6646951126
 40
0.6949675911
 40
0.7251632193
 40
0.7553234784
 40
0.7854913547
 40
0.8157095097
 40
0.8460184685
 40
0.8764549271
 40
0.9070502251
 40
0.9378293516
 40
0.9688091131
 40
1.0
 40
1.0
 40
1.0
 40
1.0
 10
9.7422576392
 20
6.9917374887
 30
0.0
 10
9.7381678311
 20
6.9920211178
 30
0.0
 10
9.7299841342
 20
6.99299326
 30
0.0
 10
9.7178735088
 20
6.9956336121
 30
0.0
 10
9.7059976275
 20
6.9994353992
 30
0.0
 10
9.6944720139
 20
7.0043617885
 30
0.0
 10
9.6834068906
 20
7.010365154
 30
0.0
 10
9.6729085262
 20
7.0173876842
 30
0.0
 10
9.6630775992
 20
7.0253618135
 30
0.0
 10
9.6540084297
 20
7.0342109131
 30
0.0
 10
9.6457880549
 20
7.0438500214
 30
0.0
 10
9.6384954221
 20
7.0541866407
 30
0.0
 10
9.6322006447
 20
7.0651216093
 30
0.0
 10
9.6269643251
 20
7.0765500223
 30
0.0
 10
9.6228369601
 20
7.0883622143
 30
0.0
 10
9.619858486
 20
7.1004448039
 30
0.0
 10
9.6180578842
 20
7.1126817491
 30
0.0
 10
9.6174528885
 20
7.1249554334
 30
0.0
 10
9.6180497907
 20
7.1371477676
 30
0.0
 10
9.6198433062
 20
7.1491413096
 30
0.0
 10
9.6228166205
 20
7.1608203892
 30
0.0
 10
9.6269415046
 20
7.1720722207
 30
0.0
 10
9.6321785372
 20
7.1827880089
 30
0.0
 10
9.6384774485
 20
7.1928640276
 30
0.0
 10
9.6457775474
 20
7.2022026914
 30
0.0
 10
9.6540083193
 20
7.2107135536
 30
0.0
 10
9.6630901375
 20
7.2183142246
 30
0.0
 10
9.6729350673
 20
7.2249312148
 30
0.0
 10
9.6834477561
 20
7.2305006702
 30
0.0
 10
9.6945264451
 20
7.2349689966
 30
0.0
 10
9.7060638514
 20
7.2382934347
 30
0.0
 10
9.7179488329
 20
7.2404422312
 30
0.0
 10
9.7300652456
 20
7.2413953632
 30
0.0
 10
9.7381954059
 20
7.2412280834
 30
0.0
 10
9.7422576392
 20
7.2409463666
 30
0.0
  0
SPLINE
  5
3A6
100
AcDbEntity
  8
0
100
AcDbSpline
 62
7
  6
CONTINUOUS
 70
0
 71
3
 72
19
 73
15
 74
0
 42
0.0000001
 43
0.0000001
 44
0.0000000001
 40
0.0
 40
0.0
 40
0.0
 40
0.0
 40
0.150460937
 40
0.2916987357
 40
0.424419542
 40
0.4878837275
 40
0.5495802504
 40
0.6682271673
 40
0.7255606103
 40
0.7817998831
 40
0.8371466721
 40
0.8918135967
 40
0.94602219
 40
1.0
 40
1.0
 40
1.0
 40
1.0
 10
13.1179425022
 20
8.0989454724
 30
0.0
 10
13.1159776696
 20
8.0970475898
 30
0.0
 10
13.112050707
 20
8.0934866221
 30
0.0
 10
13.1059701845
 20
8.0887412242
 30
0.0
 10
13.1008342262
 20
8.0853850148
 30
0.0
 10
13.0967386279
 20
8.0831122864
 30
0.0
 10
13.0927638565
 20
8.0811611007
 30
0.0
 10
13.0887425472
 20
8.0795661816
 30
0.0
 10
13.0846986136
 20
8.0783659976
 30
0.0
 10
13.0817086396
 20
8.0776742045
 30
0.0
 10
13.078728619
 20
8.0771811255
 30
0.0
 10
13.0757593389
 20
8.0768870047
 30
0.0
 10
13.0728019996
 20
8.076791956
 30
0.0
 10
13.0708372275
 20
8.0768614424
 30
0.0
 10
13.0698595569
 20
8.0769292441
 30
0.0
  0
SPLINE
  5
3A7
100
AcDbEntity
  8
0
100
AcDbSpline
 62
7
  6
CONTINUOUS
 70
0
 71
3
 72
39
 73
35
 74
0
 42
0.0000001
 43
0.0000001
 44
0.0000000001
 40
0.0
 40
0.0
 40
0.0
 40
0.0
 40
0.0314026137
 40
0.0630094723
 40
0.094807121
 40
0.126773443
 40
0.1588809721
 40
0.1910970223
 40
0.2233851135
 40
0.2557062447
 40
0.2880202663
 40
0.320287276
 40
0.3524690077
 40
0.3845301837
 40
0.4164397922
 40
0.4481722491
 40
0.4797084087
 40
0.5110363814
 40
0.5421521213
 40
0.5730597421
 40
0.6037715187
 40
0.6343075558
 40
0.6646951126
 40
0.6949675911
 40
0.7251632193
 40
0.7553234784
 40
0.7854913547
 40
0.8157095097
 40
0.8460184685
 40
0.8764549271
 40
0.9070502251
 40
0.9378293516
 40
0.9688091131
 40
1.0
 40
1.0
 40
1.0
 40
1.0
 10
11.7948501417
 20
7.0985985931
 30
0.0
 10
11.7989399498
 20
7.0983149639
 30
0.0
 10
11.8071236466
 20
7.0973428218
 30
0.0
 10
11.819234272
 20
7.0947024696
 30
0.0
 10
11.8311101533
 20
7.0909006826
 30
0.0
 10
11.8426357669
 20
7.0859742932
 30
0.0
 10
11.8537008902
 20
7.0799709278
 30
0.0
 10
11.8641992546
 20
7.0729483975
 30
0.0
 10
11.8740301816
 20
7.0649742683
 30
0.0
 10
11.8830993512
 20
7.0561251686
 30
0.0
 10
11.8913197259
 20
7.0464860603
 30
0.0
 10
11.8986123587
 20
7.036149441
 30
0.0
 10
11.9049071362
 20
7.0252144725
 30
0.0
 10
11.9101434558
 20
7.0137860595
 30
0.0
 10
11.9142708208
 20
7.0019738675
 30
0.0
 10
11.9172492948
 20
6.9898912779
 30
0.0
 10
11.9190498967
 20
6.9776543327
 30
0.0
 10
11.9196548923
 20
6.9653806483
 30
0.0
 10
11.9190579901
 20
6.9531883141
 30
0.0
 10
11.9172644747
 20
6.9411947722
 30
0.0
 10
11.9142911604
 20
6.9295156926
 30
0.0
 10
11.9101662762
 20
6.918263861
 30
0.0
 10
11.9049292437
 20
6.9075480729
 30
0.0
 10
11.8986303323
 20
6.8974720541
 30
0.0
 10
11.8913302334
 20
6.8881333904
 30
0.0
 10
11.8830994616
 20
6.8796225281
 30
0.0
 10
11.8740176433
 20
6.8720218571
 30
0.0
 10
11.8641727136
 20
6.865404867
 30
0.0
 10
11.8536600248
 20
6.8598354116
 30
0.0
 10
11.8425813358
 20
6.8553670852
 30
0.0
 10
11.8310439294
 20
6.8520426471
 30
0.0
 10
11.8191589479
 20
6.8498938506
 30
0.0
 10
11.8070425352
 20
6.8489407186
 30
0.0
 10
11.798912375
 20
6.8491079983
 30
0.0
 10
11.7948501417
 20
6.8493897151
 30
0.0
  0
SPLINE
  5
3A8
100
AcDbEntity
  8
0
100
AcDbSpline
 62
7
  6
CONTINUOUS
 70
0
 71
3
 72
19
 73
15
 74
0
 42
0.0000001
 43
0.0000001
 44
0.0000000001
 40
0.0
 40
0.0
 40
0.0
 40
0.0
 40
0.150460937
 40
0.2916987357
 40
0.424419542
 40
0.4878837275
 40
0.5495802504
 40
0.6682271673
 40
0.7255606103
 40
0.7817998831
 40
0.8371466721
 40
0.8918135967
 40
0.94602219
 40
1.0
 40
1.0
 40
1.0
 40
1.0
 10
12.8428180937
 20
6.4895927498
 30
0.0
 10
12.8408532611
 20
6.4876948672
 30
0.0
 10
12.8369262985
 20
6.4841338995
 30
0.0
 10
12.830845776
 20
6.4793885015
 30
0.0
 10
12.8257098177
 20
6.4760322922
 30
0.0
 10
12.8216142194
 20
6.4737595638
 30
0.0
 10
12.817639448
 20
6.471808378
 30
0.0
 10
12.8136181387
 20
6.4702134589
 30
0.0
 10
12.8095742051
 20
6.469013275
 30
0.0
 10
12.8065842311
 20
6.4683214818
 30
0.0
 10
12.8036042105
 20
6.4678284028
 30
0.0
 10
12.8006349303
 20
6.467534282
 30
0.0
 10
12.7976775911
 20
6.4674392334
 30
0.0
 10
12.795712819
 20
6.4675087197
 30
0.0
 10
12.7947351484
 20
6.4675765214
 30
0.0
  0
SPLINE
  5
3A9
100
AcDbEntity
  8
0
100
AcDbSpline
 62
7
  6
CONTINUOUS
 70
0
 71
3
 72
21
 73
17
 74
0
 42
0.0000001
 43
0.0000001
 44
0.0000000001
 40
0.0
 40
0.0
 40
0.0
 40
0.0
 40
0.1273176984
 40
0.2537999461
 40
0.3167619614
 40
0.3795355204
 40
0.4421314992
 40
0.5045621453
 40
0.5668413456
 40
0.6289845231
 40
0.6910084433
 40
0.7529310869
 40
0.8147714401
 40
0.8765493236
 40
0.9382852134
 40
1.0
 40
1.0
 40
1.0
 40
1.0
 10
8.8671287825
 20
9.7724751752
 30
0.0
 10
8.8671287825
 20
9.7792199833
 30
0.0
 10
8.8677726195
 20
9.7926740227
 30
0.0
 10
8.8702042108
 20
9.8093061198
 30
0.0
 10
8.8731104778
 20
9.8223525434
 30
0.0
 10
8.8757608418
 20
9.8319755919
 30
0.0
 10
8.8788788364
 20
9.8414276436
 30
0.0
 10
8.8824572732
 20
9.8506871782
 30
0.0
 10
8.8864879019
 20
9.8597327796
 30
0.0
 10
8.8909615097
 20
9.8685435712
 30
0.0
 10
8.8958677478
 20
9.8770992427
 30
0.0
 10
8.9011953015
 20
9.8853800766
 30
0.0
 10
8.9069319359
 20
9.8933669112
 30
0.0
 10
8.9130644572
 20
9.9010414037
 30
0.0
 10
8.9195784506
 20
9.9083856419
 30
0.0
 10
8.9241663434
 20
9.9130511345
 30
0.0
 10
8.9265178921
 20
9.9153225423
 30
0.0
  0
SPLINE
  5
3AA
100
AcDbEntity
  8
0
100
AcDbSpline
 62
7
  6
CONTINUOUS
 70
0
 71
3
 72
23
 73
19
 74
0
 42
0.0000001
 43
0.0000001
 44
0.0000000001
 40
0.0
 40
0.0
 40
0.0
 40
0.0
 40
0.0749622956
 40
0.1455687508
 40
0.2121601675
 40
0.2751635748
 40
0.33509855
 40
0.3925837401
 40
0.4483299218
 40
0.5031241966
 40
0.5577987316
 40
0.6131918565
 40
0.6701072336
 40
0.7292787372
 40
0.7913521562
 40
0.8568780091
 40
0.9263100847
 40
1.0
 40
1.0
 40
1.0
 40
1.0
 10
10.0102911075
 20
10.6979119054
 30
0.0
 10
10.0094825693
 20
10.6986643333
 30
0.0
 10
10.0079573211
 20
10.7001749708
 30
0.0
 10
10.0058992233
 20
10.7025317102
 30
0.0
 10
10.0041442773
 20
10.7049071838
 30
0.0
 10
10.0026949453
 20
10.7072992022
 30
0.0
 10
10.0015538098
 20
10.7097057608
 30
0.0
 10
10.0007232594
 20
10.7121243069
 30
0.0
 10
10.0002058116
 20
10.7145517958
 30
0.0
 10
10.0000031204
 20
10.7169843383
 30
0.0
 10
10.0001161574
 20
10.7194175318
 30
0.0
 10
10.0005443088
 20
10.7218468861
 30
0.0
 10
10.0012861644
 20
10.7242683122
 30
0.0
 10
10.0023392796
 20
10.7266785455
 30
0.0
 10
10.0037013016
 20
10.7290749174
 30
0.0
 10
10.0053697125
 20
10.731455361
 30
0.0
 10
10.0073419543
 20
10.7338175713
 30
0.0
 10
10.0088121238
 20
10.7353321534
 30
0.0
 10
10.009593044
 20
10.7360864645
 30
0.0
  0
SPLINE
  5
3AB
100
AcDbEntity
  8
0
100
AcDbSpline
 62
7
  6
CONTINUOUS
 70
0
 71
3
 72
39
 73
35
 74
0
 42
0.0000001
 43
0.0000001
 44
0.0000000001
 40
0.0
 40
0.0
 40
0.0
 40
0.0
 40
0.0314026137
 40
0.0630094723
 40
0.094807121
 40
0.126773443
 40
0.1588809721
 40
0.1910970223
 40
0.2233851135
 40
0.2557062447
 40
0.2880202663
 40
0.320287276
 40
0.3524690077
 40
0.3845301837
 40
0.4164397922
 40
0.4481722491
 40
0.4797084087
 40
0.5110363814
 40
0.5421521213
 40
0.5730597421
 40
0.6037715187
 40
0.6343075558
 40
0.6646951126
 40
0.6949675911
 40
0.7251632193
 40
0.7553234784
 40
0.7854913547
 40
0.8157095097
 40
0.8460184685
 40
0.8764549271
 40
0.9070502251
 40
0.9378293516
 40
0.9688091131
 40
1.0
 40
1.0
 40
1.0
 40
1.0
 10
11.7948501417
 20
6.8493897151
 30
0.0
 10
11.7907603336
 20
6.8496733443
 30
0.0
 10
11.7825766367
 20
6.8506454864
 30
0.0
 10
11.7704660113
 20
6.8532858386
 30
0.0
 10
11.75859013
 20
6.8570876256
 30
0.0
 10
11.7470645164
 20
6.862014015
 30
0.0
 10
11.7359993931
 20
6.8680173805
 30
0.0
 10
11.7255010287
 20
6.8750399107
 30
0.0
 10
11.7156701017
 20
6.8830140399
 30
0.0
 10
11.7066009321
 20
6.8918631396
 30
0.0
 10
11.6983805574
 20
6.9015022479
 30
0.0
 10
11.6910879246
 20
6.9118388672
 30
0.0
 10
11.6847931472
 20
6.9227738358
 30
0.0
 10
11.6795568276
 20
6.9342022487
 30
0.0
 10
11.6754294626
 20
6.9460144407
 30
0.0
 10
11.6724509885
 20
6.9580970303
 30
0.0
 10
11.6706503867
 20
6.9703339755
 30
0.0
 10
11.670045391
 20
6.9826076599
 30
0.0
 10
11.6706422932
 20
6.9947999941
 30
0.0
 10
11.6724358087
 20
7.006793536
 30
0.0
 10
11.675409123
 20
7.0184726156
 30
0.0
 10
11.6795340071
 20
7.0297244472
 30
0.0
 10
11.6847710396
 20
7.0404402353
 30
0.0
 10
11.691069951
 20
7.0505162541
 30
0.0
 10
11.6983700499
 20
7.0598549178
 30
0.0
 10
11.7066008218
 20
7.0683657801
 30
0.0
 10
11.71568264
 20
7.0759664511
 30
0.0
 10
11.7255275698
 20
7.0825834412
 30
0.0
 10
11.7360402586
 20
7.0881528967
 30
0.0
 10
11.7471189476
 20
7.092621223
 30
0.0
 10
11.7586563539
 20
7.0959456611
 30
0.0
 10
11.7705413354
 20
7.0980944577
 30
0.0
 10
11.7826577481
 20
7.0990475896
 30
0.0
 10
11.7907879084
 20
7.0988803099
 30
0.0
 10
11.7948501417
 20
7.0985985931
 30
0.0
  0
SPLINE
  5
3AC
100
AcDbEntity
  8
0
100
AcDbSpline
 62
7
  6
CONTINUOUS
 70
0
 71
3
 72
73
 73
69
 74
0
 42
0.0000001
 43
0.0000001
 44
0.0000000001
 40
0.0
 40
0.0
 40
0.0
 40
0.0
 40
0.0081224022
 40
0.0169164881
 40
0.0264080918
 40
0.0366136014
 40
0.04754057
 40
0.0591899206
 40
0.0715570957
 40
0.0846329544
 40
0.0984044773
 40
0.1128552665
 40
0.127966013
 40
0.1437148398
 40
0.1600775546
 40
0.1770278651
 40
0.1945376152
 40
0.2125769577
 40
0.2311144851
 40
0.2501173642
 40
0.2695514954
 40
0.2893816308
 40
0.3095714702
 40
0.3300837748
 40
0.3719220492
 40
0.4145849353
 40
0.457751839
 40
0.5010972353
 40
0.54429386
 40
0.5870158917
 40
0.6289421676
 40
0.6495090195
 40
0.6697602646
 40
0.689658515
 40
0.7091672831
 40
0.7282511178
 40
0.7468757086
 40
0.7650079904
 40
0.7826162729
 40
0.7996704126
 40
0.8161419428
 40
0.8320042263
 40
0.847232655
 40
0.8618049127
 40
0.8757012118
 40
0.8889046034
 40
0.9014013951
 40
0.9131817041
 40
0.9242400818
 40
0.9294986536
 40
0.9345772202
 40
0.9394767517
 40
0.9441987855
 40
0.9487453776
 40
0.9531191913
 40
0.9573236508
 40
0.9613629082
 40
0.9652420356
 40
0.9689671195
 40
0.9725453099
 40
0.9759850477
 40
0.9824862747
 40
0.985575164
 40
0.9885736655
 40
0.9914976171
 40
0.9943642564
 40
0.9971919689
 40
1.0
 40
1.0
 40
1.0
 40
1.0
 10
10.6354594151
 20
10.3746270645
 30
0.0
 10
10.6372377657
 20
10.3763448193
 30
0.0
 10
10.6411092417
 20
10.3797509421
 30
0.0
 10
10.6475356647
 20
10.3845902658
 30
0.0
 10
10.6547930344
 20
10.389348675
 30
0.0
 10
10.6628667785
 20
10.3940170565
 30
0.0
 10
10.6717417573
 20
10.3985868003
 30
0.0
 10
10.6814006259
 20
10.4030489874
 30
0.0
 10
10.691824441
 20
10.4073947991
 30
0.0
 10
10.7029925783
 20
10.4116155074
 30
0.0
 10
10.7148828051
 20
10.4157025836
 30
0.0
 10
10.7274713358
 20
10.4196477541
 30
0.0
 10
10.7407329166
 20
10.4234430007
 30
0.0
 10
10.7546408931
 20
10.4270805923
 30
0.0
 10
10.7691672613
 20
10.4305531142
 30
0.0
 10
10.7842827271
 20
10.4338535052
 30
0.0
 10
10.7999567872
 20
10.4369750421
 30
0.0
 10
10.8161577966
 20
10.4399113594
 30
0.0
 10
10.8328530257
 20
10.4426564734
 30
0.0
 10
10.8500087266
 20
10.4452048053
 30
0.0
 10
10.8675902173
 20
10.4475511698
 30
0.0
 10
10.8855619419
 20
10.4496907763
 30
0.0
 10
10.903887583
 20
10.4516192981
 30
0.0
 10
10.928908354
 20
10.4539189486
 30
0.0
 10
10.9607949098
 20
10.4562297138
 30
0.0
 10
10.999616471
 20
10.4580932215
 30
0.0
 10
11.0389299
 20
10.4590497151
 30
0.0
 10
11.0784173171
 20
10.4590913466
 30
0.0
 10
11.117759727
 20
10.4582178001
 30
0.0
 10
11.1566390148
 20
10.4564361881
 30
0.0
 10
11.1885919269
 20
10.4541931124
 30
0.0
 10
11.2136798757
 20
10.451946853
 30
0.0
 10
11.2320658808
 20
10.4500571341
 30
0.0
 10
11.2501046585
 20
10.4479555935
 30
0.0
 10
11.2677597515
 20
10.4456464679
 30
0.0
 10
11.284995451
 20
10.443134471
 30
0.0
 10
11.3017769166
 20
10.4404247192
 30
0.0
 10
11.3180702266
 20
10.4375227286
 30
0.0
 10
11.3338424564
 20
10.4344343968
 30
0.0
 10
11.3490617573
 20
10.4311660235
 30
0.0
 10
11.3636974187
 20
10.4277242711
 30
0.0
 10
11.3777199238
 20
10.4241161488
 30
0.0
 10
11.3911010226
 20
10.4203489928
 30
0.0
 10
11.4038138082
 20
10.4164304827
 30
0.0
 10
11.4158327797
 20
10.4123685888
 30
0.0
 10
11.4271338627
 20
10.4081715516
 30
0.0
 10
11.4376945949
 20
10.4038478308
 30
0.0
 10
11.4474938259
 20
10.3994061549
 30
0.0
 10
11.455132604
 20
10.3955517977
 30
0.0
 10
11.4608373153
 20
10.392408296
 30
0.0
 10
11.4648414
 20
10.3900664069
 30
0.0
 10
11.4686410665
 20
10.3877017626
 30
0.0
 10
11.4722344491
 20
10.3853155456
 30
0.0
 10
11.4756197584
 20
10.3829089294
 30
0.0
 10
11.478795285
 20
10.3804830461
 30
0.0
 10
11.4817594895
 20
10.3780391196
 30
0.0
 10
11.4845108624
 20
10.3755782773
 30
0.0
 10
11.4870480368
 20
10.3731016522
 30
0.0
 10
11.4893697101
 20
10.3706105143
 30
0.0
 10
11.4914748146
 20
10.3681056405
 30
0.0
 10
11.4939443354
 20
10.3648120589
 30
0.0
 10
11.496041333
 20
10.3614296791
 30
0.0
 10
11.497706259
 20
10.3579750884
 30
0.0
 10
11.4987122048
 20
10.3554201628
 30
0.0
 10
11.4994955363
 20
10.3528590109
 30
0.0
 10
11.500055683
 20
10.3502928979
 30
0.0
 10
11.5003919627
 20
10.3477236344
 30
0.0
 10
11.5004667953
 20
10.3460071675
 30
0.0
 10
11.5004667909
 20
10.3451523918
 30
0.0
  0
SPLINE
  5
3AD
100
AcDbEntity
  8
0
100
AcDbSpline
 62
7
  6
CONTINUOUS
 70
0
 71
3
 72
17
 73
13
 74
0
 42
0.0000001
 43
0.0000001
 44
0.0000000001
 40
0.0
 40
0.0
 40
0.0
 40
0.0
 40
0.0548654278
 40
0.1099348511
 40
0.2214348476
 40
0.336099037
 40
0.4553350807
 40
0.5170795749
 40
0.5804144754
 40
0.7123166389
 40
0.8519515296
 40
1.0
 40
1.0
 40
1.0
 40
1.0
 10
10.6204668169
 20
10.3451530121
 30
0.0
 10
10.6204668201
 20
10.3457744081
 30
0.0
 10
10.6205062786
 20
10.3470199079
 30
0.0
 10
10.6207435914
 20
10.3495179041
 30
0.0
 10
10.6213432696
 20
10.3526551575
 30
0.0
 10
10.6225348022
 20
10.356390027
 30
0.0
 10
10.6239048757
 20
10.3594528747
 30
0.0
 10
10.6252232099
 20
10.3618867069
 30
0.0
 10
10.6267327609
 20
10.3643763815
 30
0.0
 10
10.6289246554
 20
10.3674781684
 30
0.0
 10
10.6319805565
 20
10.3711232322
 30
0.0
 10
10.6342533903
 20
10.3734621339
 30
0.0
 10
10.6354594151
 20
10.3746270645
 30
0.0
  0
SPLINE
  5
3AE
100
AcDbEntity
  8
0
100
AcDbSpline
 62
7
  6
CONTINUOUS
 70
0
 71
3
 72
15
 73
11
 74
0
 42
0.0000001
 43
0.0000001
 44
0.0000000001
 40
0.0
 40
0.0
 40
0.0
 40
0.0
 40
0.1269543169
 40
0.2532786486
 40
0.3789933813
 40
0.5041314773
 40
0.6287387435
 40
0.7528725202
 40
0.8766006586
 40
1.0
 40
1.0
 40
1.0
 40
1.0
 10
9.6506525662
 20
7.6356013075
 30
0.0
 10
9.6506525662
 20
7.6406577036
 30
0.0
 10
9.651015949
 20
7.6507493177
 30
0.0
 10
9.6526579955
 20
7.6657674129
 30
0.0
 10
9.6553870721
 20
7.6805539297
 30
0.0
 10
9.6591888502
 20
7.6950309155
 30
0.0
 10
9.6640432263
 20
7.7091233046
 30
0.0
 10
9.6699247524
 20
7.7227581199
 30
0.0
 10
9.6768017487
 20
7.7358637787
 30
0.0
 10
9.6820332377
 20
7.7442145067
 30
0.0
 10
9.6848004123
 20
7.7482762884
 30
0.0
  0
SPLINE
  5
3AF
100
AcDbEntity
  8
0
100
AcDbSpline
 62
7
  6
CONTINUOUS
 70
0
 71
3
 72
21
 73
17
 74
0
 42
0.0000001
 43
0.0000001
 44
0.0000000001
 40
0.0
 40
0.0
 40
0.0
 40
0.0
 40
0.1273176984
 40
0.2537999461
 40
0.3167619614
 40
0.3795355204
 40
0.4421314992
 40
0.5045621453
 40
0.5668413456
 40
0.6289845231
 40
0.6910084433
 40
0.7529310869
 40
0.8147714401
 40
0.8765493236
 40
0.9382852134
 40
1.0
 40
1.0
 40
1.0
 40
1.0
 10
10.1643672678
 20
8.0230508042
 30
0.0
 10
10.1643672678
 20
8.0297956123
 30
0.0
 10
10.1650111048
 20
8.0432496518
 30
0.0
 10
10.1674426961
 20
8.0598817488
 30
0.0
 10
10.1703489631
 20
8.0729281725
 30
0.0
 10
10.1729993271
 20
8.0825512209
 30
0.0
 10
10.1761173217
 20
8.0920032727
 30
0.0
 10
10.1796957585
 20
8.1012628072
 30
0.0
 10
10.1837263871
 20
8.1103084086
 30
0.0
 10
10.188199995
 20
8.1191192002
 30
0.0
 10
10.1931062331
 20
8.1276748717
 30
0.0
 10
10.1984337868
 20
8.1359557056
 30
0.0
 10
10.2041704212
 20
8.1439425402
 30
0.0
 10
10.2103029425
 20
8.1516170327
 30
0.0
 10
10.2168169359
 20
8.158961271
 30
0.0
 10
10.2214048287
 20
8.1636267636
 30
0.0
 10
10.2237563773
 20
8.1658981713
 30
0.0
  0
SPLINE
  5
3B0
100
AcDbEntity
  8
0
100
AcDbSpline
 62
7
  6
CONTINUOUS
 70
0
 71
3
 72
14
 73
10
 74
0
 42
0.0000001
 43
0.0000001
 44
0.0000000001
 40
0.0
 40
0.0
 40
0.0
 40
0.0
 40
0.1433318796
 40
0.280626112
 40
0.4121977551
 40
0.5384301112
 40
0.7766222429
 40
0.8898595672
 40
1.0
 40
1.0
 40
1.0
 40
1.0
 10
10.6354594151
 20
10.3591722496
 30
0.0
 10
10.6345678034
 20
10.3583110188
 30
0.0
 10
10.6328613024
 20
10.3565835182
 30
0.0
 10
10.6304906542
 20
10.3539188305
 30
0.0
 10
10.6283669512
 20
10.3512388832
 30
0.0
 10
10.625914916
 20
10.347717037
 30
0.0
 10
10.6238923486
 20
10.3440947497
 30
0.0
 10
10.6223715229
 20
10.3404000487
 30
0.0
 10
10.6217854987
 20
10.3385561558
 30
0.0
 10
10.6215372026
 20
10.3376365148
 30
0.0
  0
SPLINE
  5
3B1
100
AcDbEntity
  8
0
100
AcDbSpline
 62
7
  6
CONTINUOUS
 70
0
 71
3
 72
11
 73
7
 74
0
 42
0.0000001
 43
0.0000001
 44
0.0000000001
 40
0.0
 40
0.0
 40
0.0
 40
0.0
 40
0.2552692216
 40
0.5060519912
 40
0.7537940265
 40
1.0
 40
1.0
 40
1.0
 40
1.0
 10
12.1163130271
 20
10.6391463502
 30
0.0
 10
12.116633281
 20
10.6381720372
 30
0.0
 10
12.1171971144
 20
10.6362162146
 30
0.0
 10
12.1178080615
 20
10.63324683
 30
0.0
 10
12.1181749198
 20
10.6302741231
 30
0.0
 10
12.1182565291
 20
10.6282886402
 30
0.0
 10
12.1182565313
 20
10.6272994571
 30
0.0
  0
SPLINE
  5
3B2
100
AcDbEntity
  8
0
100
AcDbSpline
 62
7
  6
CONTINUOUS
 70
0
 71
3
 72
66
 73
62
 74
0
 42
0.0000001
 43
0.0000001
 44
0.0000000001
 40
0.0
 40
0.0
 40
0.0
 40
0.0
 40
0.0079937028
 40
0.0166330635
 40
0.0259425947
 40
0.0359382762
 40
0.0466277731
 40
0.0580125196
 40
0.0700888639
 40
0.0828488246
 40
0.0962807245
 40
0.1103697492
 40
0.1250983535
 40
0.1404465267
 40
0.1563920618
 40
0.1729108195
 40
0.1899768901
 40
0.2075627128
 40
0.2256392723
 40
0.2441762328
 40
0.2631420154
 40
0.2825039247
 40
0.3022282826
 40
0.3222805108
 40
0.3632254905
 40
0.4050486644
 40
0.447450619
 40
0.4901265347
 40
0.5327690322
 40
0.5750710421
 40
0.6167286735
 40
0.6574440876
 40
0.6773581843
 40
0.6969292849
 40
0.7161231935
 40
0.7349066421
 40
0.7532474018
 40
0.7711144304
 40
0.7884779476
 40
0.8053095447
 40
0.8215823669
 40
0.8372712567
 40
0.8523528829
 40
0.8668059578
 40
0.8806115217
 40
0.8937531675
 40
0.9062173778
 40
0.9179940253
 40
0.9290769179
 40
0.9394644806
 40
0.9491607434
 40
0.9581766595
 40
0.9624358674
 40
0.9665331595
 40
0.9704726613
 40
0.9742593913
 40
0.9813968992
 40
0.9880080315
 40
0.9941733481
 40
0.9971221417
 40
1.0
 40
1.0
 40
1.0
 40
1.0
 10
10.6354594151
 20
10.3591722496
 30
0.0
 10
10.637194828
 20
10.3608485298
 30
0.0
 10
10.6409654325
 20
10.3641733288
 30
0.0
 10
10.6472129845
 20
10.3689032901
 30
0.0
 10
10.6542541531
 20
10.373556493
 30
0.0
 10
10.6620753969
 20
10.3781244027
 30
0.0
 10
10.6706627013
 20
10.3825990056
 30
0.0
 10
10.6800000465
 20
10.3869719665
 30
0.0
 10
10.69006996
 20
10.3912350437
 30
0.0
 10
10.7008534374
 20
10.3953800615
 30
0.0
 10
10.7123299829
 20
10.3993990654
 30
0.0
 10
10.7244777016
 20
10.4032842877
 30
0.0
 10
10.7372733585
 20
10.4070281816
 30
0.0
 10
10.750692412
 20
10.4106234834
 30
0.0
 10
10.7647090766
 20
10.4140632243
 30
0.0
 10
10.7792963975
 20
10.4173407148
 30
0.0
 10
10.7944262977
 20
10.4204495716
 30
0.0
 10
10.8100696249
 20
10.4233837717
 30
0.0
 10
10.8261962263
 20
10.4261376176
 30
0.0
 10
10.8427750118
 20
10.4287057458
 30
0.0
 10
10.8597740063
 20
10.4310831742
 30
0.0
 10
10.8771604031
 20
10.4332652918
 30
0.0
 10
10.8949006844
 20
10.4352478861
 30
0.0
 10
10.9191486249
 20
10.4376365895
 30
0.0
 10
10.9500901617
 20
10.4400875783
 30
0.0
 10
10.9878174576
 20
10.4421632034
 30
0.0
 10
11.0261050414
 20
10.4433768676
 30
0.0
 10
11.0646575389
 20
10.4437190569
 30
0.0
 10
11.1031777224
 20
10.4431871097
 30
0.0
 10
11.1413686188
 20
10.4417851883
 30
0.0
 10
11.1789356064
 20
10.4395242495
 30
0.0
 10
11.2097031964
 20
10.4369204262
 30
0.0
 10
11.2337809056
 20
10.4344113895
 30
0.0
 10
11.2513716294
 20
10.4323416114
 30
0.0
 10
11.2685938087
 20
10.4300741091
 30
0.0
 10
11.2854142398
 20
10.4276132491
 30
0.0
 10
11.3018004652
 20
10.4249638038
 30
0.0
 10
11.3177208898
 20
10.4221309321
 30
0.0
 10
11.3331448225
 20
10.4191201403
 30
0.0
 10
11.3480425349
 20
10.4159372617
 30
0.0
 10
11.362385337
 20
10.4125884845
 30
0.0
 10
11.3761456339
 20
10.4090803282
 30
0.0
 10
11.3892969686
 20
10.4054196023
 30
0.0
 10
11.4018140874
 20
10.4016133994
 30
0.0
 10
11.4136730143
 20
10.3976691218
 30
0.0
 10
11.4248510887
 20
10.3935944107
 30
0.0
 10
11.4353270094
 20
10.3893971124
 30
0.0
 10
11.4450809348
 20
10.385085286
 30
0.0
 10
11.4540944843
 20
10.3806671645
 30
0.0
 10
11.4623509442
 20
10.3761509792
 30
0.0
 10
11.4698347115
 20
10.3715451308
 30
0.0
 10
11.4755197415
 20
10.3675666223
 30
0.0
 10
11.4796534275
 20
10.3643387691
 30
0.0
 10
11.4824925385
 20
10.3619469971
 30
0.0
 10
11.4851283214
 20
10.3595393148
 30
0.0
 10
11.4883070455
 20
10.3563718469
 30
0.0
 10
11.4917963875
 20
10.352379139
 30
0.0
 10
11.495240423
 20
10.347436826
 30
0.0
 10
11.4974439147
 20
10.343214062
 30
0.0
 10
11.4987550021
 20
10.339837192
 30
0.0
 10
11.4992648305
 20
10.3381517214
 30
0.0
 10
11.4994825235
 20
10.3373107985
 30
0.0
  0
SPLINE
  5
3B3
100
AcDbEntity
  8
0
100
AcDbSpline
 62
7
  6
CONTINUOUS
 70
0
 71
3
 72
71
 73
67
 74
0
 42
0.0000001
 43
0.0000001
 44
0.0000000001
 40
0.0
 40
0.0
 40
0.0
 40
0.0
 40
0.0085741958
 40
0.0179224819
 40
0.0280750124
 40
0.039049891
 40
0.0508537297
 40
0.0634846754
 40
0.0769341034
 40
0.0911876201
 40
0.1062259584
 40
0.1220257633
 40
0.1385600963
 40
0.1557987643
 40
0.1737087579
 40
0.1922545691
 40
0.2113983618
 40
0.2311002176
 40
0.2513184015
 40
0.2720095038
 40
0.3146282678
 40
0.3585834887
 40
0.4034847345
 40
0.4489304534
 40
0.4945127306
 40
0.5398220712
 40
0.5844521418
 40
0.6280045753
 40
0.6492560952
 40
0.6700949139
 40
0.6904756542
 40
0.7103543481
 40
0.7296886856
 40
0.748438146
 40
0.7665641583
 40
0.7840303937
 40
0.8008030075
 40
0.8168508393
 40
0.8321457824
 40
0.8466632559
 40
0.8603825898
 40
0.8732876439
 40
0.8853677375
 40
0.8966186528
 40
0.9070440383
 40
0.9166574934
 40
0.921168319
 40
0.9254872806
 40
0.929620286
 40
0.9335745333
 40
0.9373586343
 40
0.9409829491
 40
0.9477984693
 40
0.9510243638
 40
0.954151352
 40
0.9571998182
 40
0.9601919793
 40
0.9631514277
 40
0.9661026354
 40
0.9690702988
 40
0.9720786777
 40
0.9751509544
 40
0.9783087163
 40
0.9849529667
 40
0.9921503798
 40
1.0
 40
1.0
 40
1.0
 40
1.0
 10
10.8044964448
 20
10.3474494918
 30
0.0
 10
10.8056691149
 20
10.3485822042
 30
0.0
 10
10.808241735
 20
10.3508257844
 30
0.0
 10
10.812541797
 20
10.3539971245
 30
0.0
 10
10.8174350253
 20
10.3571091886
 30
0.0
 10
10.8229098158
 20
10.3601549157
 30
0.0
 10
10.8289540151
 20
10.3631276598
 30
0.0
 10
10.8355536059
 20
10.3660204841
 30
0.0
 10
10.8426932005
 20
10.3688265513
 30
0.0
 10
10.8503559863
 20
10.371539123
 30
0.0
 10
10.858523785
 20
10.3741516855
 30
0.0
 10
10.86717715
 20
10.3766579136
 30
0.0
 10
10.8762954207
 20
10.3790517121
 30
0.0
 10
10.8858567628
 20
10.3813272907
 30
0.0
 10
10.8958382498
 20
10.3834791319
 30
0.0
 10
10.9062159294
 20
10.3855019959
 30
0.0
 10
10.9169648727
 20
10.3873909784
 30
0.0
 10
10.9280592318
 20
10.3891415026
 30
0.0
 10
10.9394723518
 20
10.3907493461
 30
0.0
 10
10.955233544
 20
10.3927169199
 30
0.0
 10
10.9755285552
 20
10.3947819041
 30
0.0
 10
11.0004643775
 20
10.3966160832
 30
0.0
 10
11.0259770565
 20
10.3978120324
 30
0.0
 10
11.0518212332
 20
10.3983580288
 30
0.0
 10
11.0777485228
 20
10.3982487074
 30
0.0
 10
11.1035097152
 20
10.3974851651
 30
0.0
 10
11.128857037
 20
10.3960748204
 30
0.0
 10
11.149598161
 20
10.3943585695
 30
0.0
 10
11.1657954041
 20
10.3926644326
 30
0.0
 10
11.177590687
 20
10.3912528773
 30
0.0
 10
11.1891039776
 20
10.3896935228
 30
0.0
 10
11.2003075957
 20
10.3879901057
 30
0.0
 10
11.211174593
 20
10.3861467787
 30
0.0
 10
11.2216788481
 20
10.3841680176
 30
0.0
 10
11.2317951155
 20
10.3820586081
 30
0.0
 10
11.2414991066
 20
10.3798236717
 30
0.0
 10
11.2507675523
 20
10.3774686479
 30
0.0
 10
11.2595782486
 20
10.3749992433
 30
0.0
 10
11.2679101275
 20
10.3724214315
 30
0.0
 10
11.2757433361
 20
10.3697414745
 30
0.0
 10
11.2830592727
 20
10.3669658452
 30
0.0
 10
11.2898406581
 20
10.3641011795
 30
0.0
 10
11.2960715853
 20
10.3611543167
 30
0.0
 10
11.3017377305
 20
10.3581321161
 30
0.0
 10
11.3068258291
 20
10.3550415593
 30
0.0
 10
11.3106526284
 20
10.3523603244
 30
0.0
 10
11.313401363
 20
10.3501809345
 30
0.0
 10
11.3152668805
 20
10.34856862
 30
0.0
 10
11.3169792915
 20
10.3469446827
 30
0.0
 10
11.3185375478
 20
10.3453100601
 30
0.0
 10
11.3199407918
 20
10.3436653332
 30
0.0
 10
11.3215700801
 20
10.3415052196
 30
0.0
 10
11.3229337441
 20
10.3392808416
 30
0.0
 10
11.323985117
 20
10.337005741
 30
0.0
 10
11.3246002738
 20
10.3353248979
 30
0.0
 10
11.3250555293
 20
10.3336397873
 30
0.0
 10
11.3253504665
 20
10.331951535
 30
0.0
 10
11.3254846185
 20
10.3302614409
 30
0.0
 10
11.325457763
 20
10.3285708823
 30
0.0
 10
11.3252700214
 20
10.3268812446
 30
0.0
 10
11.3249215903
 20
10.3251939028
 30
0.0
 10
11.3244129049
 20
10.3235100658
 30
0.0
 10
11.3235068591
 20
10.3212331061
 30
0.0
 10
11.3219468419
 20
10.3183864437
 30
0.0
 10
11.3194782777
 20
10.3150694051
 30
0.0
 10
11.3175107348
 20
10.3129832732
 30
0.0
 10
11.316437163
 20
10.3119462824
 30
0.0
  0
SPLINE
  5
3B4
100
AcDbEntity
  8
0
100
AcDbSpline
 62
7
  6
CONTINUOUS
 70
0
 71
3
 72
39
 73
35
 74
0
 42
0.0000001
 43
0.0000001
 44
0.0000000001
 40
0.0
 40
0.0
 40
0.0
 40
0.0
 40
0.0309587779
 40
0.0620589034
 40
0.0932943588
 40
0.1246578982
 40
0.1561392994
 40
0.1877266853
 40
0.2194063868
 40
0.2511634165
 40
0.2829817434
 40
0.3148446337
 40
0.3467349606
 40
0.3786355041
 40
0.4105292261
 40
0.4423995261
 40
0.4742304656
 40
0.5060069654
 40
0.5377149787
 40
0.5693416401
 40
0.600875395
 40
0.6323061096
 40
0.6636251652
 40
0.6948255412
 40
0.7259018816
 40
0.756850548
 40
0.7876696657
 40
0.8183591596
 40
0.8489207795
 40
0.8793581133
 40
0.9096765839
 40
0.9398834283
 40
0.9699876587
 40
1.0
 40
1.0
 40
1.0
 40
1.0
 10
10.7690368103
 20
8.3358766579
 30
0.0
 10
10.7644334616
 20
8.3361959013
 30
0.0
 10
10.7552243796
 20
8.3371466455
 30
0.0
 10
10.7415083008
 20
8.3394920045
 30
0.0
 10
10.7279169528
 20
8.3427481922
 30
0.0
 10
10.7145122265
 20
8.3468982243
 30
0.0
 10
10.7013533903
 20
8.3519207434
 30
0.0
 10
10.6884981291
 20
8.3577899214
 30
0.0
 10
10.676001746
 20
8.3644759818
 30
0.0
 10
10.6639169639
 20
8.3719454618
 30
0.0
 10
10.6522936393
 20
8.3801616327
 30
0.0
 10
10.6411785724
 20
8.3890848717
 30
0.0
 10
10.6306153686
 20
8.398673054
 30
0.0
 10
10.6206443541
 20
8.4088819244
 30
0.0
 10
10.6113025426
 20
8.419665452
 30
0.0
 10
10.6026236362
 20
8.430976153
 30
0.0
 10
10.5946380693
 20
8.4427653884
 30
0.0
 10
10.5873730786
 20
8.4549836262
 30
0.0
 10
10.5808527905
 20
8.4675806664
 30
0.0
 10
10.5750983202
 20
8.4805058317
 30
0.0
 10
10.5701278767
 20
8.4937081254
 30
0.0
 10
10.5659568654
 20
8.5071363585
 30
0.0
 10
10.5625979878
 20
8.5207392504
 30
0.0
 10
10.5600613233
 20
8.5344655047
 30
0.0
 10
10.5583544007
 20
8.5482638673
 30
0.0
 10
10.5574822657
 20
8.5620831699
 30
0.0
 10
10.557447518
 20
8.5758723613
 30
0.0
 10
10.5582503328
 20
8.5895805345
 30
0.0
 10
10.559888457
 20
8.6031569466
 30
0.0
 10
10.5623571993
 20
8.6165510684
 30
0.0
 10
10.5656493476
 20
8.6297125407
 30
0.0
 10
10.5697552491
 20
8.6425915227
 30
0.0
 10
10.5746621877
 20
8.6551376601
 30
0.0
 10
10.5784635921
 20
8.6632600194
 30
0.0
 10
10.5804918127
 20
8.6672471339
 30
0.0
  0
SPLINE
  5
3B5
100
AcDbEntity
  8
0
100
AcDbSpline
 62
7
  6
CONTINUOUS
 70
0
 71
3
 72
61
 73
57
 74
0
 42
0.0000001
 43
0.0000001
 44
0.0000000001
 40
0.0
 40
0.0
 40
0.0
 40
0.0
 40
0.0081223698
 40
0.0169168346
 40
0.0264086047
 40
0.0366142559
 40
0.0475414237
 40
0.0591909858
 40
0.0715583912
 40
0.0846344682
 40
0.0984062458
 40
0.1128572854
 40
0.1279682934
 40
0.1437174214
 40
0.1600804062
 40
0.177031016
 40
0.1945410935
 40
0.2125807419
 40
0.2311186027
 40
0.2501218198
 40
0.2893858022
 40
0.3300877731
 40
0.3719267985
 40
0.4145904537
 40
0.4577581368
 40
0.50110432
 40
0.5443017314
 40
0.5870245467
 40
0.6289515987
 40
0.6697695877
 40
0.7091763636
 40
0.7468843855
 40
0.765017025
 40
0.7826256451
 40
0.7996801175
 40
0.8161519857
 40
0.8320145593
 40
0.8472433047
 40
0.8618158719
 40
0.8757124305
 40
0.8889161055
 40
0.90141316
 40
0.9131937119
 40
0.9242523422
 40
0.9345888325
 40
0.9442095677
 40
0.9531288698
 40
0.9613710727
 40
0.968973333
 40
0.9759887141
 40
0.9824900776
 40
0.9885734486
 40
0.9914974572
 40
0.9943641528
 40
0.997191922
 40
1.0
 40
1.0
 40
1.0
 40
1.0
 10
10.8334742213
 20
10.3164620997
 30
0.0
 10
10.8344240002
 20
10.3173795157
 30
0.0
 10
10.8364917381
 20
10.31919868
 30
0.0
 10
10.8399240106
 20
10.3217833482
 30
0.0
 10
10.8438001254
 20
10.3243247864
 30
0.0
 10
10.8481122438
 20
10.3268180913
 30
0.0
 10
10.852852264
 20
10.3292587719
 30
0.0
 10
10.8580109764
 20
10.3316419801
 30
0.0
 10
10.8635782377
 20
10.333963026
 30
0.0
 10
10.8695430263
 20
10.3362172787
 30
0.0
 10
10.8758934805
 20
10.3384001395
 30
0.0
 10
10.8826168894
 20
10.3405072203
 30
0.0
 10
10.8896997692
 20
10.3425342316
 30
0.0
 10
10.897127885
 20
10.3444770223
 30
0.0
 10
10.9048862725
 20
10.3463316748
 30
0.0
 10
10.9129592931
 20
10.3480943833
 30
0.0
 10
10.921330657
 20
10.3497615591
 30
0.0
 10
10.9299834538
 20
10.3513298248
 30
0.0
 10
10.9389002203
 20
10.3527959765
 30
0.0
 10
10.9512518027
 20
10.3546306291
 30
0.0
 10
10.9672185148
 20
10.3566382235
 30
0.0
 10
10.9869284931
 20
10.3585738462
 30
0.0
 10
11.0072326764
 20
10.3600453302
 30
0.0
 10
11.0279669543
 20
10.3610406013
 30
0.0
 10
11.0489638609
 20
10.361551462
 30
0.0
 10
11.0700537203
 20
10.3615737121
 30
0.0
 10
11.0910661066
 20
10.3611071569
 30
0.0
 10
11.111831232
 20
10.3601556401
 30
0.0
 10
11.1321813248
 20
10.3587269972
 30
0.0
 10
11.1519520926
 20
10.3568330129
 30
0.0
 10
11.1709837949
 20
10.354489237
 30
0.0
 10
11.186293505
 20
10.3521480317
 30
0.0
 10
11.1980500969
 20
10.350054183
 30
0.0
 10
11.2064739145
 20
10.3484047162
 30
0.0
 10
11.2146024084
 20
10.3466591164
 30
0.0
 10
11.2224191893
 20
10.3448209215
 30
0.0
 10
11.2299084857
 20
10.3428938485
 30
0.0
 10
11.2370552195
 20
10.3408818564
 30
0.0
 10
11.2438450161
 20
10.3387890287
 30
0.0
 10
11.2502642446
 20
10.3366196003
 30
0.0
 10
11.2563000701
 20
10.3343780137
 30
0.0
 10
11.2619404549
 20
10.3320687622
 30
0.0
 10
11.2671742227
 20
10.3296964915
 30
0.0
 10
11.2719910943
 20
10.3272659435
 30
0.0
 10
11.2763816731
 20
10.3247818086
 30
0.0
 10
11.2803375436
 20
10.3222488342
 30
0.0
 10
11.2838512153
 20
10.3196715976
 30
0.0
 10
11.2869160492
 20
10.317054352
 30
0.0
 10
11.2895261946
 20
10.3144011135
 30
0.0
 10
11.291676136
 20
10.3117150324
 30
0.0
 10
11.2933600249
 20
10.3089997794
 30
0.0
 10
11.294382915
 20
10.3066839754
 30
0.0
 10
11.2949479894
 20
10.3048361642
 30
0.0
 10
11.2952471866
 20
10.3034655941
 30
0.0
 10
11.2954268305
 20
10.3020933891
 30
0.0
 10
11.2954667967
 20
10.3011766374
 30
0.0
 10
11.2954667933
 20
10.3007201106
 30
0.0
  0
SPLINE
  5
3B6
100
AcDbEntity
  8
0
100
AcDbSpline
 62
7
  6
CONTINUOUS
 70
0
 71
3
 72
23
 73
19
 74
0
 42
0.0000001
 43
0.0000001
 44
0.0000000001
 40
0.0
 40
0.0
 40
0.0
 40
0.0
 40
0.0736890361
 40
0.1431213697
 40
0.2086477093
 40
0.2707209927
 40
0.329892103
 40
0.3868073261
 40
0.4422004543
 40
0.4968749226
 40
0.5516691079
 40
0.6074153275
 40
0.6649004582
 40
0.7248356497
 40
0.7878389692
 40
0.8544307895
 40
0.9250371245
 40
1.0
 40
1.0
 40
1.0
 40
1.0
 10
10.8044964448
 20
10.3474494918
 30
0.0
 10
10.8037573641
 20
10.3467355947
 30
0.0
 10
10.8023659559
 20
10.345302145
 30
0.0
 10
10.800499358
 20
10.3430664725
 30
0.0
 10
10.7989203105
 20
10.3408135339
 30
0.0
 10
10.79763125
 20
10.3385455247
 30
0.0
 10
10.7966345582
 20
10.3362644025
 30
0.0
 10
10.7959324581
 20
10.3339726862
 30
0.0
 10
10.7955272332
 20
10.3316734663
 30
0.0
 10
10.7954202795
 20
10.3293706106
 30
0.0
 10
10.7956121026
 20
10.3270683698
 30
0.0
 10
10.7961018739
 20
10.3247709225
 30
0.0
 10
10.796887915
 20
10.3224819184
 30
0.0
 10
10.7979679733
 20
10.3202042916
 30
0.0
 10
10.7993396494
 20
10.317940383
 30
0.0
 10
10.8010006414
 20
10.3156921882
 30
0.0
 10
10.8029484756
 20
10.3134616577
 30
0.0
 10
10.8043920607
 20
10.3120319673
 30
0.0
 10
10.8051572963
 20
10.3113198402
 30
0.0
  0
SPLINE
  5
3B7
100
AcDbEntity
  8
0
100
AcDbSpline
 62
7
  6
CONTINUOUS
 70
0
 71
3
 72
11
 73
7
 74
0
 42
0.0000001
 43
0.0000001
 44
0.0000000001
 40
0.0
 40
0.0
 40
0.0
 40
0.0
 40
0.2462598102
 40
0.4940332787
 40
0.7448046145
 40
1.0
 40
1.0
 40
1.0
 40
1.0
 10
11.0382565612
 20
10.6272991053
 30
0.0
 10
11.0382565589
 20
10.6282810477
 30
0.0
 10
11.038336961
 20
10.6302518924
 30
0.0
 10
11.0386983858
 20
10.6332027749
 30
0.0
 10
11.0393003857
 20
10.6361504091
 30
0.0
 10
11.0398560373
 20
10.6380922356
 30
0.0
 10
11.0401716629
 20
10.6390596207
 30
0.0
  0
SPLINE
  5
3B8
100
AcDbEntity
  8
0
100
AcDbSpline
 62
7
  6
CONTINUOUS
 70
0
 71
3
 72
15
 73
11
 74
0
 42
0.0000001
 43
0.0000001
 44
0.0000000001
 40
0.0
 40
0.0
 40
0.0
 40
0.0
 40
0.1273482936
 40
0.2538605366
 40
0.3795879111
 40
0.5046050899
 40
0.6290174366
 40
0.7529533732
 40
0.8765605776
 40
1.0
 40
1.0
 40
1.0
 40
1.0
 10
9.6433728392
 20
8.8800501317
 30
0.0
 10
9.6433728392
 20
8.883376316
 30
0.0
 10
9.6436904216
 20
8.8900114466
 30
0.0
 10
9.6451266649
 20
8.8998365296
 30
0.0
 10
9.6475081957
 20
8.909414744
 30
0.0
 10
9.6508135071
 20
8.9186565145
 30
0.0
 10
9.6550122573
 20
8.9274766155
 30
0.0
 10
9.6600661853
 20
8.9357936017
 30
0.0
 10
9.6659277823
 20
8.9435295318
 30
0.0
 10
9.670341256
 20
8.9482550882
 30
0.0
 10
9.6726602068
 20
8.9504950032
 30
0.0
  0
SPLINE
  5
3B9
100
AcDbEntity
  8
0
100
AcDbSpline
 62
7
  6
CONTINUOUS
 70
0
 71
3
 72
23
 73
19
 74
0
 42
0.0000001
 43
0.0000001
 44
0.0000000001
 40
0.0
 40
0.0
 40
0.0
 40
0.0
 40
0.0614488807
 40
0.1232974294
 40
0.1855193177
 40
0.2480712672
 40
0.3108995318
 40
0.3739401513
 40
0.4371217414
 40
0.5003679843
 40
0.5636003151
 40
0.6267406524
 40
0.6897141172
 40
0.7524516838
 40
0.8148926113
 40
0.8769871451
 40
0.9386966623
 40
1.0
 40
1.0
 40
1.0
 40
1.0
 10
9.7476928347
 20
8.76849552
 30
0.0
 10
9.7442688092
 20
8.768732977
 30
0.0
 10
9.7374173421
 20
8.7695468634
 30
0.0
 10
9.7272782139
 20
8.7717573908
 30
0.0
 10
9.7173356156
 20
8.7749402823
 30
0.0
 10
9.7076862647
 20
8.7790647013
 30
0.0
 10
9.6984224405
 20
8.7840907747
 30
0.0
 10
9.6896331122
 20
8.7899701023
 30
0.0
 10
9.6814025686
 20
8.7966461175
 30
0.0
 10
9.6738097755
 20
8.8040546661
 30
0.0
 10
9.6669276013
 20
8.812124617
 30
0.0
 10
9.6608221415
 20
8.820778532
 30
0.0
 10
9.6555520942
 20
8.8299333851
 30
0.0
 10
9.6511682029
 20
8.8395013738
 30
0.0
 10
9.6477127213
 20
8.8493905978
 30
0.0
 10
9.6452191457
 20
8.8595064517
 30
0.0
 10
9.6437116266
 20
8.8697505169
 30
0.0
 10
9.6433728392
 20
8.8766260117
 30
0.0
 10
9.6433728392
 20
8.8800501317
 30
0.0
  0
SPLINE
  5
3BA
100
AcDbEntity
  8
0
100
AcDbSpline
 62
7
  6
CONTINUOUS
 70
0
 71
3
 72
16
 73
12
 74
0
 42
0.0000001
 43
0.0000001
 44
0.0000000001
 40
0.0
 40
0.0
 40
0.0
 40
0.0
 40
0.1480511837
 40
0.2876965988
 40
0.4196100259
 40
0.4829485653
 40
0.5446959392
 40
0.6639365434
 40
0.7786069088
 40
0.8901135234
 40
1.0
 40
1.0
 40
1.0
 40
1.0
 10
10.8334742213
 20
10.3164620997
 30
0.0
 10
10.8328301119
 20
10.3158399378
 30
0.0
 10
10.8316162236
 20
10.3145907393
 30
0.0
 10
10.8299840654
 20
10.3126439276
 30
0.0
 10
10.8288133481
 20
10.3109872464
 30
0.0
 10
10.8280071069
 20
10.3096574953
 30
0.0
 10
10.8273029868
 20
10.3083576057
 30
0.0
 10
10.8265712755
 20
10.3067218048
 30
0.0
 10
10.8259349043
 20
10.3047268147
 30
0.0
 10
10.8255521628
 20
10.3027254359
 30
0.0
 10
10.8254668194
 20
10.3013847856
 30
0.0
 10
10.8254668144
 20
10.3007201106
 30
0.0
  0
SPLINE
  5
3BB
100
AcDbEntity
  8
0
100
AcDbSpline
 62
7
  6
CONTINUOUS
 70
0
 71
3
 72
39
 73
35
 74
0
 42
0.0000001
 43
0.0000001
 44
0.0000000001
 40
0.0
 40
0.0
 40
0.0
 40
0.0
 40
0.0314026137
 40
0.0630094723
 40
0.094807121
 40
0.126773443
 40
0.1588809721
 40
0.1910970223
 40
0.2233851135
 40
0.2557062447
 40
0.2880202663
 40
0.320287276
 40
0.3524690077
 40
0.3845301837
 40
0.4164397922
 40
0.4481722491
 40
0.4797084087
 40
0.5110363814
 40
0.5421521213
 40
0.5730597421
 40
0.6037715187
 40
0.6343075558
 40
0.6646951126
 40
0.6949675911
 40
0.7251632193
 40
0.7553234784
 40
0.7854913547
 40
0.8157095097
 40
0.8460184685
 40
0.8764549271
 40
0.9070502251
 40
0.9378293516
 40
0.9688091131
 40
1.0
 40
1.0
 40
1.0
 40
1.0
 10
11.7948501417
 20
8.8498221849
 30
0.0
 10
11.7989399498
 20
8.8495385557
 30
0.0
 10
11.8071236466
 20
8.8485664136
 30
0.0
 10
11.819234272
 20
8.8459260615
 30
0.0
 10
11.8311101533
 20
8.8421242744
 30
0.0
 10
11.8426357669
 20
8.8371978851
 30
0.0
 10
11.8537008902
 20
8.8311945196
 30
0.0
 10
11.8641992546
 20
8.8241719893
 30
0.0
 10
11.8740301816
 20
8.8161978601
 30
0.0
 10
11.8830993512
 20
8.8073487604
 30
0.0
 10
11.8913197259
 20
8.7977096521
 30
0.0
 10
11.8986123587
 20
8.7873730329
 30
0.0
 10
11.9049071362
 20
8.7764380643
 30
0.0
 10
11.9101434558
 20
8.7650096513
 30
0.0
 10
11.9142708208
 20
8.7531974593
 30
0.0
 10
11.9172492948
 20
8.7411148697
 30
0.0
 10
11.9190498967
 20
8.7288779245
 30
0.0
 10
11.9196548923
 20
8.7166042401
 30
0.0
 10
11.9190579901
 20
8.704411906
 30
0.0
 10
11.9172644747
 20
8.692418364
 30
0.0
 10
11.9142911604
 20
8.6807392844
 30
0.0
 10
11.9101662762
 20
8.6694874528
 30
0.0
 10
11.9049292437
 20
8.6587716647
 30
0.0
 10
11.8986303323
 20
8.6486956459
 30
0.0
 10
11.8913302334
 20
8.6393569822
 30
0.0
 10
11.8830994616
 20
8.63084612
 30
0.0
 10
11.8740176433
 20
8.623245449
 30
0.0
 10
11.8641727136
 20
8.6166284588
 30
0.0
 10
11.8536600248
 20
8.6110590034
 30
0.0
 10
11.8425813358
 20
8.606590677
 30
0.0
 10
11.8310439294
 20
8.6032662389
 30
0.0
 10
11.8191589479
 20
8.6011174424
 30
0.0
 10
11.8070425352
 20
8.6001643104
 30
0.0
 10
11.798912375
 20
8.6003315901
 30
0.0
 10
11.7948501417
 20
8.600613307
 30
0.0
  0
SPLINE
  5
3BC
100
AcDbEntity
  8
0
100
AcDbSpline
 62
7
  6
CONTINUOUS
 70
0
 71
3
 72
21
 73
17
 74
0
 42
0.0000001
 43
0.0000001
 44
0.0000000001
 40
0.0
 40
0.0
 40
0.0
 40
0.0
 40
0.1273176984
 40
0.2537999461
 40
0.3167619614
 40
0.3795355204
 40
0.4421314992
 40
0.5045621453
 40
0.5668413456
 40
0.6289845231
 40
0.6910084433
 40
0.7529310869
 40
0.8147714401
 40
0.8765493236
 40
0.9382852134
 40
1.0
 40
1.0
 40
1.0
 40
1.0
 10
11.8846812838
 20
9.5632071985
 30
0.0
 10
11.8846812838
 20
9.5699520066
 30
0.0
 10
11.8853251209
 20
9.583406046
 30
0.0
 10
11.8877567121
 20
9.6000381431
 30
0.0
 10
11.8906629792
 20
9.6130845667
 30
0.0
 10
11.8933133431
 20
9.6227076152
 30
0.0
 10
11.8964313378
 20
9.6321596669
 30
0.0
 10
11.9000097745
 20
9.6414192014
 30
0.0
 10
11.9040404032
 20
9.6504648029
 30
0.0
 10
11.9085140111
 20
9.6592755944
 30
0.0
 10
11.9134202492
 20
9.6678312659
 30
0.0
 10
11.9187478028
 20
9.6761120999
 30
0.0
 10
11.9244844373
 20
9.6840989344
 30
0.0
 10
11.9306169585
 20
9.6917734269
 30
0.0
 10
11.937130952
 20
9.6991176652
 30
0.0
 10
11.9417188447
 20
9.7037831578
 30
0.0
 10
11.9440703934
 20
9.7060545656
 30
0.0
  0
SPLINE
  5
3BD
100
AcDbEntity
  8
0
100
AcDbSpline
 62
7
  6
CONTINUOUS
 70
0
 71
3
 72
15
 73
11
 74
0
 42
0.0000001
 43
0.0000001
 44
0.0000000001
 40
0.0
 40
0.0
 40
0.0
 40
0.0
 40
0.1273482936
 40
0.2538605366
 40
0.3795879111
 40
0.5046050899
 40
0.6290174366
 40
0.7529533732
 40
0.8765605776
 40
1.0
 40
1.0
 40
1.0
 40
1.0
 10
11.6959653417
 20
8.7377023582
 30
0.0
 10
11.6959653417
 20
8.7410285425
 30
0.0
 10
11.696282924
 20
8.7476636731
 30
0.0
 10
11.6977191674
 20
8.7574887561
 30
0.0
 10
11.7001006982
 20
8.7670669705
 30
0.0
 10
11.7034060096
 20
8.776308741
 30
0.0
 10
11.7076047598
 20
8.7851288419
 30
0.0
 10
11.7126586878
 20
8.7934458282
 30
0.0
 10
11.7185202847
 20
8.8011817583
 30
0.0
 10
11.7229337585
 20
8.8059073147
 30
0.0
 10
11.7252527093
 20
8.8081472297
 30
0.0
  0
SPLINE
  5
3BE
100
AcDbEntity
  8
0
100
AcDbSpline
 62
7
  6
CONTINUOUS
 70
0
 71
3
 72
23
 73
19
 74
0
 42
0.0000001
 43
0.0000001
 44
0.0000000001
 40
0.0
 40
0.0
 40
0.0
 40
0.0
 40
0.0614488807
 40
0.1232974294
 40
0.1855193177
 40
0.2480712672
 40
0.3108995318
 40
0.3739401513
 40
0.4371217414
 40
0.5003679843
 40
0.5636003151
 40
0.6267406524
 40
0.6897141172
 40
0.7524516838
 40
0.8148926113
 40
0.8769871451
 40
0.9386966623
 40
1.0
 40
1.0
 40
1.0
 40
1.0
 10
11.8002853371
 20
8.6261477465
 30
0.0
 10
11.7968613117
 20
8.6263852035
 30
0.0
 10
11.7900098446
 20
8.6271990899
 30
0.0
 10
11.7798707164
 20
8.6294096173
 30
0.0
 10
11.7699281181
 20
8.6325925088
 30
0.0
 10
11.7602787671
 20
8.6367169277
 30
0.0
 10
11.751014943
 20
8.6417430012
 30
0.0
 10
11.7422256146
 20
8.6476223288
 30
0.0
 10
11.7339950711
 20
8.654298344
 30
0.0
 10
11.726402278
 20
8.6617068926
 30
0.0
 10
11.7195201038
 20
8.6697768434
 30
0.0
 10
11.713414644
 20
8.6784307584
 30
0.0
 10
11.7081445967
 20
8.6875856115
 30
0.0
 10
11.7037607054
 20
8.6971536003
 30
0.0
 10
11.7003052237
 20
8.7070428243
 30
0.0
 10
11.6978116481
 20
8.7171586782
 30
0.0
 10
11.6963041291
 20
8.7274027434
 30
0.0
 10
11.6959653417
 20
8.7342782381
 30
0.0
 10
11.6959653417
 20
8.7377023582
 30
0.0
  0
SPLINE
  5
3BF
100
AcDbEntity
  8
0
100
AcDbSpline
 62
7
  6
CONTINUOUS
 70
0
 71
3
 72
15
 73
11
 74
0
 42
0.0000001
 43
0.0000001
 44
0.0000000001
 40
0.0
 40
0.0
 40
0.0
 40
0.0
 40
0.1273482936
 40
0.2538605366
 40
0.3795879111
 40
0.5046050899
 40
0.6290174366
 40
0.7529533732
 40
0.8765605776
 40
1.0
 40
1.0
 40
1.0
 40
1.0
 10
9.6433728392
 20
7.1288265399
 30
0.0
 10
9.6433728392
 20
7.1321527242
 30
0.0
 10
9.6436904216
 20
7.1387878548
 30
0.0
 10
9.6451266649
 20
7.1486129378
 30
0.0
 10
9.6475081957
 20
7.1581911522
 30
0.0
 10
9.6508135071
 20
7.1674329227
 30
0.0
 10
9.6550122573
 20
7.1762530236
 30
0.0
 10
9.6600661853
 20
7.1845700099
 30
0.0
 10
9.6659277823
 20
7.19230594
 30
0.0
 10
9.670341256
 20
7.1970314964
 30
0.0
 10
9.6726602068
 20
7.1992714114
 30
0.0
  0
SPLINE
  5
3C0
100
AcDbEntity
  8
0
100
AcDbSpline
 62
7
  6
CONTINUOUS
 70
0
 71
3
 72
23
 73
19
 74
0
 42
0.0000001
 43
0.0000001
 44
0.0000000001
 40
0.0
 40
0.0
 40
0.0
 40
0.0
 40
0.0614488807
 40
0.1232974294
 40
0.1855193177
 40
0.2480712672
 40
0.3108995318
 40
0.3739401513
 40
0.4371217414
 40
0.5003679843
 40
0.5636003151
 40
0.6267406524
 40
0.6897141172
 40
0.7524516838
 40
0.8148926113
 40
0.8769871451
 40
0.9386966623
 40
1.0
 40
1.0
 40
1.0
 40
1.0
 10
9.7476928347
 20
7.0172719282
 30
0.0
 10
9.7442688092
 20
7.0175093852
 30
0.0
 10
9.7374173421
 20
7.0183232716
 30
0.0
 10
9.7272782139
 20
7.020533799
 30
0.0
 10
9.7173356156
 20
7.0237166905
 30
0.0
 10
9.7076862647
 20
7.0278411095
 30
0.0
 10
9.6984224405
 20
7.0328671829
 30
0.0
 10
9.6896331122
 20
7.0387465105
 30
0.0
 10
9.6814025686
 20
7.0454225257
 30
0.0
 10
9.6738097755
 20
7.0528310743
 30
0.0
 10
9.6669276013
 20
7.0609010251
 30
0.0
 10
9.6608221415
 20
7.0695549401
 30
0.0
 10
9.6555520942
 20
7.0787097932
 30
0.0
 10
9.6511682029
 20
7.088277782
 30
0.0
 10
9.6477127213
 20
7.098167006
 30
0.0
 10
9.6452191457
 20
7.1082828599
 30
0.0
 10
9.6437116266
 20
7.1185269251
 30
0.0
 10
9.6433728392
 20
7.1254024199
 30
0.0
 10
9.6433728392
 20
7.1288265399
 30
0.0
  0
SPLINE
  5
3C1
100
AcDbEntity
  8
0
100
AcDbSpline
 62
7
  6
CONTINUOUS
 70
0
 71
3
 72
39
 73
35
 74
0
 42
0.0000001
 43
0.0000001
 44
0.0000000001
 40
0.0
 40
0.0
 40
0.0
 40
0.0
 40
0.0314026137
 40
0.0630094723
 40
0.094807121
 40
0.126773443
 40
0.1588809721
 40
0.1910970223
 40
0.2233851135
 40
0.2557062447
 40
0.2880202663
 40
0.320287276
 40
0.3524690077
 40
0.3845301837
 40
0.4164397922
 40
0.4481722491
 40
0.4797084087
 40
0.5110363814
 40
0.5421521213
 40
0.5730597421
 40
0.6037715187
 40
0.6343075558
 40
0.6646951126
 40
0.6949675911
 40
0.7251632193
 40
0.7553234784
 40
0.7854913547
 40
0.8157095097
 40
0.8460184685
 40
0.8764549271
 40
0.9070502251
 40
0.9378293516
 40
0.9688091131
 40
1.0
 40
1.0
 40
1.0
 40
1.0
 10
11.7948501417
 20
8.600613307
 30
0.0
 10
11.7907603336
 20
8.6008969361
 30
0.0
 10
11.7825766367
 20
8.6018690782
 30
0.0
 10
11.7704660113
 20
8.6045094304
 30
0.0
 10
11.75859013
 20
8.6083112175
 30
0.0
 10
11.7470645164
 20
8.6132376068
 30
0.0
 10
11.7359993931
 20
8.6192409723
 30
0.0
 10
11.7255010287
 20
8.6262635025
 30
0.0
 10
11.7156701017
 20
8.6342376318
 30
0.0
 10
11.7066009321
 20
8.6430867314
 30
0.0
 10
11.6983805574
 20
8.6527258397
 30
0.0
 10
11.6910879246
 20
8.663062459
 30
0.0
 10
11.6847931472
 20
8.6739974276
 30
0.0
 10
11.6795568276
 20
8.6854258405
 30
0.0
 10
11.6754294626
 20
8.6972380326
 30
0.0
 10
11.6724509885
 20
8.7093206222
 30
0.0
 10
11.6706503867
 20
8.7215575674
 30
0.0
 10
11.670045391
 20
8.7338312517
 30
0.0
 10
11.6706422932
 20
8.7460235859
 30
0.0
 10
11.6724358087
 20
8.7580171279
 30
0.0
 10
11.675409123
 20
8.7696962074
 30
0.0
 10
11.6795340071
 20
8.780948039
 30
0.0
 10
11.6847710396
 20
8.7916638272
 30
0.0
 10
11.691069951
 20
8.8017398459
 30
0.0
 10
11.6983700499
 20
8.8110785097
 30
0.0
 10
11.7066008218
 20
8.8195893719
 30
0.0
 10
11.71568264
 20
8.8271900429
 30
0.0
 10
11.7255275698
 20
8.8338070331
 30
0.0
 10
11.7360402586
 20
8.8393764885
 30
0.0
 10
11.7471189476
 20
8.8438448149
 30
0.0
 10
11.7586563539
 20
8.8471692529
 30
0.0
 10
11.7705413354
 20
8.8493180495
 30
0.0
 10
11.7826577481
 20
8.8502711814
 30
0.0
 10
11.7907879084
 20
8.8501039017
 30
0.0
 10
11.7948501417
 20
8.8498221849
 30
0.0
  0
SPLINE
  5
3C2
100
AcDbEntity
  8
0
100
AcDbSpline
 62
7
  6
CONTINUOUS
 70
0
 71
3
 72
15
 73
11
 74
0
 42
0.0000001
 43
0.0000001
 44
0.0000000001
 40
0.0
 40
0.0
 40
0.0
 40
0.0
 40
0.1273482936
 40
0.2538605366
 40
0.3795879111
 40
0.5046050899
 40
0.6290174366
 40
0.7529533732
 40
0.8765605776
 40
1.0
 40
1.0
 40
1.0
 40
1.0
 10
11.6959653417
 20
6.9864787663
 30
0.0
 10
11.6959653417
 20
6.9898049507
 30
0.0
 10
11.696282924
 20
6.9964400813
 30
0.0
 10
11.6977191674
 20
7.0062651643
 30
0.0
 10
11.7001006982
 20
7.0158433787
 30
0.0
 10
11.7034060096
 20
7.0250851491
 30
0.0
 10
11.7076047598
 20
7.0339052501
 30
0.0
 10
11.7126586878
 20
7.0422222364
 30
0.0
 10
11.7185202847
 20
7.0499581664
 30
0.0
 10
11.7229337585
 20
7.0546837229
 30
0.0
 10
11.7252527093
 20
7.0569236379
 30
0.0
  0
SPLINE
  5
3C3
100
AcDbEntity
  8
0
100
AcDbSpline
 62
7
  6
CONTINUOUS
 70
0
 71
3
 72
21
 73
17
 74
0
 42
0.0000001
 43
0.0000001
 44
0.0000000001
 40
0.0
 40
0.0
 40
0.0
 40
0.0
 40
0.1273176984
 40
0.2537999461
 40
0.3167619614
 40
0.3795355204
 40
0.4421314992
 40
0.5045621453
 40
0.5668413456
 40
0.6289845231
 40
0.6910084433
 40
0.7529310869
 40
0.8147714401
 40
0.8765493236
 40
0.9382852134
 40
1.0
 40
1.0
 40
1.0
 40
1.0
 10
8.8671287825
 20
6.2719599624
 30
0.0
 10
8.8671287825
 20
6.2787047705
 30
0.0
 10
8.8677726195
 20
6.2921588099
 30
0.0
 10
8.8702042108
 20
6.308790907
 30
0.0
 10
8.8731104778
 20
6.3218373306
 30
0.0
 10
8.8757608418
 20
6.3314603791
 30
0.0
 10
8.8788788364
 20
6.3409124308
 30
0.0
 10
8.8824572732
 20
6.3501719654
 30
0.0
 10
8.8864879019
 20
6.3592175668
 30
0.0
 10
8.8909615097
 20
6.3680283584
 30
0.0
 10
8.8958677478
 20
6.3765840299
 30
0.0
 10
8.9011953015
 20
6.3848648638
 30
0.0
 10
8.9069319359
 20
6.3928516984
 30
0.0
 10
8.9130644572
 20
6.4005261909
 30
0.0
 10
8.9195784506
 20
6.4078704291
 30
0.0
 10
8.9241663434
 20
6.4125359217
 30
0.0
 10
8.9265178921
 20
6.4148073295
 30
0.0
  0
SPLINE
  5
3C4
100
AcDbEntity
  8
0
100
AcDbSpline
 62
7
  6
CONTINUOUS
 70
0
 71
3
 72
23
 73
19
 74
0
 42
0.0000001
 43
0.0000001
 44
0.0000000001
 40
0.0
 40
0.0
 40
0.0
 40
0.0
 40
0.0614488807
 40
0.1232974294
 40
0.1855193177
 40
0.2480712672
 40
0.3108995318
 40
0.3739401513
 40
0.4371217414
 40
0.5003679843
 40
0.5636003151
 40
0.6267406524
 40
0.6897141172
 40
0.7524516838
 40
0.8148926113
 40
0.8769871451
 40
0.9386966623
 40
1.0
 40
1.0
 40
1.0
 40
1.0
 10
11.8002853371
 20
6.8749241547
 30
0.0
 10
11.7968613117
 20
6.8751616116
 30
0.0
 10
11.7900098446
 20
6.8759754981
 30
0.0
 10
11.7798707164
 20
6.8781860254
 30
0.0
 10
11.7699281181
 20
6.8813689169
 30
0.0
 10
11.7602787671
 20
6.8854933359
 30
0.0
 10
11.751014943
 20
6.8905194093
 30
0.0
 10
11.7422256146
 20
6.896398737
 30
0.0
 10
11.7339950711
 20
6.9030747522
 30
0.0
 10
11.726402278
 20
6.9104833008
 30
0.0
 10
11.7195201038
 20
6.9185532516
 30
0.0
 10
11.713414644
 20
6.9272071666
 30
0.0
 10
11.7081445967
 20
6.9363620197
 30
0.0
 10
11.7037607054
 20
6.9459300085
 30
0.0
 10
11.7003052237
 20
6.9558192324
 30
0.0
 10
11.6978116481
 20
6.9659350864
 30
0.0
 10
11.6963041291
 20
6.9761791516
 30
0.0
 10
11.6959653417
 20
6.9830546463
 30
0.0
 10
11.6959653417
 20
6.9864787663
 30
0.0
  0
SPLINE
  5
3C5
100
AcDbEntity
  8
0
100
AcDbSpline
 62
7
  6
CONTINUOUS
 70
0
 71
3
 72
73
 73
69
 74
0
 42
0.0000001
 43
0.0000001
 44
0.0000000001
 40
0.0
 40
0.0
 40
0.0
 40
0.0
 40
0.0085742
 40
0.0179223712
 40
0.0280748659
 40
0.0390496887
 40
0.0508534563
 40
0.0634843528
 40
0.0769337063
 40
0.0911871318
 40
0.1062254071
 40
0.1220251419
 40
0.1385593659
 40
0.155797944
 40
0.1737078655
 40
0.1922535733
 40
0.2113972489
 40
0.2310990163
 40
0.2513171048
 40
0.2720080843
 40
0.3146266377
 40
0.3585816196
 40
0.4034826385
 40
0.4489281191
 40
0.4945101589
 40
0.5398192651
 40
0.5844491039
 40
0.6280013105
 40
0.6492527226
 40
0.670091429
 40
0.69047206
 40
0.7103506619
 40
0.7296848954
 40
0.7484342455
 40
0.7665601747
 40
0.7840263305
 40
0.8007988387
 40
0.8168465801
 40
0.8321414712
 40
0.8466588627
 40
0.8603780991
 40
0.873283104
 40
0.8853631547
 40
0.8966139856
 40
0.907039309
 40
0.9119469328
 40
0.9166542751
 40
0.9211650498
 40
0.9254840139
 40
0.9296169933
 40
0.9335712025
 40
0.9373553081
 40
0.940979592
 40
0.9477950869
 40
0.9510209541
 40
0.9541479269
 40
0.9571963814
 40
0.9601885237
 40
0.9631479593
 40
0.9660991517
 40
0.9690667988
 40
0.9720751532
 40
0.9751474159
 40
0.9783051762
 40
0.9849493987
 40
0.9884738235
 40
0.992150365
 40
1.0
 40
1.0
 40
1.0
 40
1.0
 10
10.009593044
 20
10.7360864645
 30
0.0
 10
10.0108320987
 20
10.7372832995
 30
0.0
 10
10.013550331
 20
10.7396538787
 30
0.0
 10
10.0180938001
 20
10.7430047192
 30
0.0
 10
10.0232639962
 20
10.7462929305
 30
0.0
 10
10.0290486763
 20
10.7495110687
 30
0.0
 10
10.0354350037
 20
10.7526520781
 30
0.0
 10
10.0424081592
 20
10.7557086414
 30
0.0
 10
10.0499518799
 20
10.7586735442
 30
0.0
 10
10.0580484039
 20
10.7615396666
 30
0.0
 10
10.0666785353
 20
10.764300103
 30
0.0
 10
10.0758217163
 20
10.766948186
 30
0.0
 10
10.0854561098
 20
10.7694774947
 30
0.0
 10
10.0955586597
 20
10.7718818798
 30
0.0
 10
10.1061051416
 20
10.7741555126
 30
0.0
 10
10.1170702357
 20
10.7762928813
 30
0.0
 10
10.1284276059
 20
10.7782887979
 30
0.0
 10
10.1401499501
 20
10.7801384007
 30
0.0
 10
10.1522090985
 20
10.7818372469
 30
0.0
 10
10.1688624328
 20
10.7839162087
 30
0.0
 10
10.1903062172
 20
10.7860980604
 30
0.0
 10
10.2166535011
 20
10.7880360802
 30
0.0
 10
10.2436102938
 20
10.7892997073
 30
0.0
 10
10.270917349
 20
10.7898766231
 30
0.0
 10
10.2983122208
 20
10.7897611051
 30
0.0
 10
10.3255315942
 20
10.7889543468
 30
0.0
 10
10.3523136705
 20
10.7874641713
 30
0.0
 10
10.3742288207
 20
10.7856507723
 30
0.0
 10
10.3913428889
 20
10.7838607439
 30
0.0
 10
10.4038058281
 20
10.7823692867
 30
0.0
 10
10.4159708148
 20
10.7807216639
 30
0.0
 10
10.427808602
 20
10.7789218344
 30
0.0
 10
10.4392907112
 20
10.7769741659
 30
0.0
 10
10.4503895443
 20
10.7748833923
 30
0.0
 10
10.4610784337
 20
10.7726545882
 30
0.0
 10
10.4713317096
 20
10.7702931516
 30
0.0
 10
10.4811247793
 20
10.7678048159
 30
0.0
 10
10.4904341931
 20
10.765195629
 30
0.0
 10
10.4992376956
 20
10.7624719176
 30
0.0
 10
10.5075142899
 20
10.7596402625
 30
0.0
 10
10.5152443334
 20
10.7567075065
 30
0.0
 10
10.5224095568
 20
10.753680705
 30
0.0
 10
10.5289932541
 20
10.7505670282
 30
0.0
 10
10.534979887
 20
10.747373819
 30
0.0
 10
10.5395480869
 20
10.7445992256
 30
0.0
 10
10.5428810763
 20
10.7423389305
 30
0.0
 10
10.5451721658
 20
10.7406627972
 30
0.0
 10
10.5473038908
 20
10.7389724827
 30
0.0
 10
10.5492750219
 20
10.737268953
 30
0.0
 10
10.5510843611
 20
10.7355530856
 30
0.0
 10
10.5527307981
 20
10.7338259182
 30
0.0
 10
10.5542135039
 20
10.732088122
 30
0.0
 10
10.5559349884
 20
10.7298057115
 30
0.0
 10
10.5573758745
 20
10.7274554488
 30
0.0
 10
10.5584867288
 20
10.7250515537
 30
0.0
 10
10.5591367071
 20
10.7232755718
 30
0.0
 10
10.5596177564
 20
10.7214950826
 30
0.0
 10
10.559929355
 20
10.7197112623
 30
0.0
 10
10.560071119
 20
10.7179255053
 30
0.0
 10
10.5600427482
 20
10.716139253
 30
0.0
 10
10.5598443572
 20
10.7143539794
 30
0.0
 10
10.5594762327
 20
10.712571129
 30
0.0
 10
10.5589387369
 20
10.7107919617
 30
0.0
 10
10.5579814314
 20
10.7083862179
 30
0.0
 10
10.5566889854
 20
10.7060276493
 30
0.0
 10
10.5551103707
 20
10.7037357548
 30
0.0
 10
10.5532389381
 20
10.7013582715
 30
0.0
 10
10.5516458869
 20
10.6996693357
 30
0.0
 10
10.5505115388
 20
10.6985736395
 30
0.0
  0
SPLINE
  5
3C6
100
AcDbEntity
  8
0
100
AcDbSpline
 62
7
  6
CONTINUOUS
 70
0
 71
3
 72
21
 73
17
 74
0
 42
0.0000001
 43
0.0000001
 44
0.0000000001
 40
0.0
 40
0.0
 40
0.0
 40
0.0
 40
0.1273176984
 40
0.2537999461
 40
0.3167619614
 40
0.3795355204
 40
0.4421314992
 40
0.5045621453
 40
0.5668413456
 40
0.6289845231
 40
0.6910084433
 40
0.7529310869
 40
0.8147714401
 40
0.8765493236
 40
0.9382852134
 40
1.0
 40
1.0
 40
1.0
 40
1.0
 10
11.8846812838
 20
6.0626919857
 30
0.0
 10
11.8846812838
 20
6.0694367938
 30
0.0
 10
11.8853251209
 20
6.0828908332
 30
0.0
 10
11.8877567121
 20
6.0995229302
 30
0.0
 10
11.8906629792
 20
6.1125693539
 30
0.0
 10
11.8933133431
 20
6.1221924024
 30
0.0
 10
11.8964313378
 20
6.1316444541
 30
0.0
 10
11.9000097745
 20
6.1409039886
 30
0.0
 10
11.9040404032
 20
6.14994959
 30
0.0
 10
11.9085140111
 20
6.1587603816
 30
0.0
 10
11.9134202492
 20
6.1673160531
 30
0.0
 10
11.9187478028
 20
6.175596887
 30
0.0
 10
11.9244844373
 20
6.1835837216
 30
0.0
 10
11.9306169585
 20
6.1912582141
 30
0.0
 10
11.937130952
 20
6.1986024524
 30
0.0
 10
11.9417188447
 20
6.203267945
 30
0.0
 10
11.9440703934
 20
6.2055393527
 30
0.0
  0
SPLINE
  5
3C7
100
AcDbEntity
  8
0
100
AcDbSpline
 62
7
  6
CONTINUOUS
 70
0
 71
3
 72
18
 73
14
 74
0
 42
0.0000001
 43
0.0000001
 44
0.0000000001
 40
0.0
 40
0.0
 40
0.0
 40
0.0
 40
0.053980644
 40
0.1081920485
 40
0.1628619155
 40
0.2182116307
 40
0.3317376658
 40
0.4503906774
 40
0.5120899542
 40
0.575557219
 40
0.7082859207
 40
0.8495334632
 40
1.0
 40
1.0
 40
1.0
 40
1.0
 10
12.7506882635
 20
6.6861475972
 30
0.0
 10
12.7513634886
 20
6.6861007697
 30
0.0
 10
12.752720453
 20
6.6860527603
 30
0.0
 10
12.7547629215
 20
6.6861183867
 30
0.0
 10
12.7568136823
 20
6.6863215803
 30
0.0
 10
12.759580736
 20
6.6867793208
 30
0.0
 10
12.7630743425
 20
6.6877085958
 30
0.0
 10
12.7665068986
 20
6.6890702816
 30
0.0
 10
12.7692522399
 20
6.6904178743
 30
0.0
 10
12.7720807967
 20
6.6919875379
 30
0.0
 10
12.7756279976
 20
6.6943055007
 30
0.0
 10
12.7798274697
 20
6.6975829304
 30
0.0
 10
12.7825396294
 20
6.7000422866
 30
0.0
 10
12.7838966141
 20
6.7013530332
 30
0.0
  0
SPLINE
  5
3C8
100
AcDbEntity
  8
0
100
AcDbSpline
 62
7
  6
CONTINUOUS
 70
0
 71
3
 72
23
 73
19
 74
0
 42
0.0000001
 43
0.0000001
 44
0.0000000001
 40
0.0
 40
0.0
 40
0.0
 40
0.0
 40
0.0742737376
 40
0.1440770883
 40
0.2097814406
 40
0.2718521618
 40
0.3308578319
 40
0.3874738865
 40
0.4424752183
 40
0.4967130704
 40
0.5510780507
 40
0.6064541465
 40
0.6636742696
 40
0.7234865014
 40
0.7865352926
 40
0.8533608035
 40
0.9244033106
 40
1.0
 40
1.0
 40
1.0
 40
1.0
 10
12.7584657851
 20
6.6583447906
 30
0.0
 10
12.7597234069
 20
6.656798476
 30
0.0
 10
12.7622603738
 20
6.6538759036
 30
0.0
 10
12.7662632349
 20
6.6499092927
 30
0.0
 10
12.7703380651
 20
6.646505677
 30
0.0
 10
12.7744815293
 20
6.6436700461
 30
0.0
 10
12.7786902885
 20
6.6414073142
 30
0.0
 10
12.7829601096
 20
6.6397227207
 30
0.0
 10
12.7872852887
 20
6.6386210654
 30
0.0
 10
12.7916585215
 20
6.6381062234
 30
0.0
 10
12.7960713049
 20
6.638179548
 30
0.0
 10
12.8005151617
 20
6.6388401336
 30
0.0
 10
12.8049827105
 20
6.6400846825
 30
0.0
 10
12.8094680508
 20
6.6419089702
 30
0.0
 10
12.8139666015
 20
6.6443083754
 30
0.0
 10
12.8184745735
 20
6.6472786329
 30
0.0
 10
12.822987849
 20
6.6508152398
 30
0.0
 10
12.8259041519
 20
6.6534625365
 30
0.0
 10
12.8273632788
 20
6.654871945
 30
0.0
  0
SPLINE
  5
3C9
100
AcDbEntity
  8
0
100
AcDbSpline
 62
7
  6
CONTINUOUS
 70
0
 71
3
 72
15
 73
11
 74
0
 42
0.0000001
 43
0.0000001
 44
0.0000000001
 40
0.0
 40
0.0
 40
0.0
 40
0.0
 40
0.107854739
 40
0.2188512337
 40
0.3340190784
 40
0.4542663637
 40
0.5803780585
 40
0.7130213983
 40
0.852750674
 40
1.0
 40
1.0
 40
1.0
 40
1.0
 10
12.7873753425
 20
6.4688373785
 30
0.0
 10
12.7890311354
 20
6.4690277565
 30
0.0
 10
12.7923721178
 20
6.4695994979
 30
0.0
 10
12.7973500681
 20
6.470995073
 30
0.0
 10
12.8023475677
 20
6.4729356896
 30
0.0
 10
12.8073600615
 20
6.4754180703
 30
0.0
 10
12.8123843107
 20
6.4784393109
 30
0.0
 10
12.8174171632
 20
6.4819962972
 30
0.0
 10
12.822454999
 20
6.4860856548
 30
0.0
 10
12.8257266336
 20
6.4890836669
 30
0.0
 10
12.8273632788
 20
6.4906645448
 30
0.0
  0
SPLINE
  5
3CA
100
AcDbEntity
  8
0
100
AcDbSpline
 62
7
  6
CONTINUOUS
 70
0
 71
3
 72
78
 73
74
 74
0
 42
0.0000001
 43
0.0000001
 44
0.0000000001
 40
0.0
 40
0.0
 40
0.0
 40
0.0
 40
0.0027164369
 40
0.0054532501
 40
0.0082303267
 40
0.011066621
 40
0.0139798386
 40
0.0169861505
 40
0.0201001133
 40
0.0233346418
 40
0.0267009936
 40
0.0302089507
 40
0.0338668746
 40
0.0376818349
 40
0.0416598208
 40
0.0458057531
 40
0.0501236788
 40
0.0546168868
 40
0.0592878993
 40
0.064138678
 40
0.0691706199
 40
0.074384594
 40
0.0853595185
 40
0.0970633876
 40
0.1094901456
 40
0.1226294158
 40
0.1364671142
 40
0.1509859537
 40
0.1661658741
 40
0.1819843535
 40
0.1984166306
 40
0.2154359363
 40
0.233013707
 40
0.2511197402
 40
0.2697223102
 40
0.288788323
 40
0.3082834575
 40
0.3281722723
 40
0.3484182956
 40
0.3689841559
 40
0.4109212942
 40
0.4536714247
 40
0.4969135622
 40
0.5403219822
 40
0.5835693732
 40
0.6263299628
 40
0.6682826601
 40
0.6888581693
 40
0.7091150559
 40
0.7290159179
 40
0.7485242577
 40
0.7676046002
 40
0.7862225833
 40
0.8043450682
 40
0.82194029
 40
0.8389779953
 40
0.855429561
 40
0.8712681541
 40
0.8864689547
 40
0.901009364
 40
0.9148692325
 40
0.9280311759
 40
0.9404810125
 40
0.9522082268
 40
0.9632066197
 40
0.9684323262
 40
0.9734759427
 40
0.9783382952
 40
0.9830207554
 40
0.9875253486
 40
0.9918546287
 40
0.9960116292
 40
1.0
 40
1.0
 40
1.0
 40
1.0
 10
12.8171049647
 20
7.6438473175
 30
0.0
 10
12.8180008254
 20
7.6437851887
 30
0.0
 10
12.8197946815
 20
7.643579401
 30
0.0
 10
12.8224626255
 20
7.6430286595
 30
0.0
 10
12.8251103969
 20
7.6422359731
 30
0.0
 10
12.8277361409
 20
7.6412021737
 30
0.0
 10
12.8303384496
 20
7.6399280656
 30
0.0
 10
12.8329160337
 20
7.638414745
 30
0.0
 10
12.8354676977
 20
7.6366632586
 30
0.0
 10
12.837992269
 20
7.6346746757
 30
0.0
 10
12.8404887194
 20
7.6324502304
 30
0.0
 10
12.8429559239
 20
7.6299910819
 30
0.0
 10
12.8453928099
 20
7.6272985252
 30
0.0
 10
12.84779834
 20
7.6243739564
 30
0.0
 10
12.8501713579
 20
7.621218784
 30
0.0
 10
12.8525108163
 20
7.6178346038
 30
0.0
 10
12.8548156173
 20
7.6142230776
 30
0.0
 10
12.8570846138
 20
7.6103859584
 30
0.0
 10
12.8593167771
 20
7.6063251689
 30
0.0
 10
12.8615109717
 20
7.6020426952
 30
0.0
 10
12.8636661474
 20
7.5975406481
 30
0.0
 10
12.8665354121
 20
7.5911382875
 30
0.0
 10
12.8700051599
 20
7.5825915149
 30
0.0
 10
12.8739285322
 20
7.5716665814
 30
0.0
 10
12.8776719174
 20
7.5599256193
 30
0.0
 10
12.8812277799
 20
7.547391998
 30
0.0
 10
12.8845889396
 20
7.5340904848
 30
0.0
 10
12.887748593
 20
7.5200475762
 30
0.0
 10
12.8907003186
 20
7.5052912873
 30
0.0
 10
12.8934380995
 20
7.4898511201
 30
0.0
 10
12.8959563684
 20
7.4737579965
 30
0.0
 10
12.898250009
 20
7.4570441863
 30
0.0
 10
12.9003143505
 20
7.4397432217
 30
0.0
 10
12.9021451781
 20
7.4218898312
 30
0.0
 10
12.9037387718
 20
7.403519875
 30
0.0
 10
12.905091893
 20
7.3846702661
 30
0.0
 10
12.9062017848
 20
7.365378882
 30
0.0
 10
12.9070661655
 20
7.3456845056
 30
0.0
 10
12.9076833059
 20
7.3256266998
 30
0.0
 10
12.908177895
 20
7.2982750071
 30
0.0
 10
12.9081614104
 20
7.2634762537
 30
0.0
 10
12.9071501221
 20
7.2211932161
 30
0.0
 10
12.9051547613
 20
7.1784582305
 30
0.0
 10
12.9021912861
 20
7.1356147633
 30
0.0
 10
12.8982834827
 20
7.0930068545
 30
0.0
 10
12.8934628543
 20
7.0509769378
 30
0.0
 10
12.8886873003
 20
7.0164955217
 30
0.0
 10
12.8844308905
 20
6.9894604483
 30
0.0
 10
12.8810573199
 20
6.9696678352
 30
0.0
 10
12.8774888137
 20
6.9502680361
 30
0.0
 10
12.8737325388
 20
6.9313000214
 30
0.0
 10
12.8697960955
 20
6.9128019166
 30
0.0
 10
12.86568743
 20
6.8948108899
 30
0.0
 10
12.8614148305
 20
6.8773630892
 30
0.0
 10
12.8569869281
 20
6.8604935517
 30
0.0
 10
12.8524126787
 20
6.8442361304
 30
0.0
 10
12.8477013267
 20
6.8286234359
 30
0.0
 10
12.8428623818
 20
6.813686767
 30
0.0
 10
12.8379056261
 20
6.7994560231
 30
0.0
 10
12.8328410809
 20
6.7859596413
 30
0.0
 10
12.8276789657
 20
6.7732245361
 30
0.0
 10
12.8224296686
 20
6.761276063
 30
0.0
 10
12.8171037226
 20
6.7501378136
 30
0.0
 10
12.8117118151
 20
6.7398319446
 30
0.0
 10
12.8070970275
 20
6.731822747
 30
0.0
 10
12.8033725123
 20
6.7258588129
 30
0.0
 10
12.8006171011
 20
6.7216831148
 30
0.0
 10
12.7978532984
 20
6.7177301497
 30
0.0
 10
12.7950823883
 20
6.7140018617
 30
0.0
 10
12.7923057385
 20
6.7105000286
 30
0.0
 10
12.7895246159
 20
6.7072264103
 30
0.0
 10
12.7867405873
 20
6.7041827804
 30
0.0
 10
12.7848449472
 20
6.7022690527
 30
0.0
 10
12.7838966141
 20
6.7013530332
 30
0.0
  0
SPLINE
  5
3CB
100
AcDbEntity
  8
0
100
AcDbSpline
 62
7
  6
CONTINUOUS
 70
0
 71
3
 72
91
 73
87
 74
0
 42
0.0000001
 43
0.0000001
 44
0.0000000001
 40
0.0
 40
0.0
 40
0.0
 40
0.0
 40
0.0039487787
 40
0.0077209219
 40
0.011325686
 40
0.0147746025
 40
0.0212567422
 40
0.0243282937
 40
0.027311383
 40
0.0302282587
 40
0.0331028473
 40
0.0359602483
 40
0.0388260453
 40
0.0417255864
 40
0.0446832624
 40
0.0477219513
 40
0.0508625511
 40
0.0541237877
 40
0.0575221219
 40
0.0610717762
 40
0.0647849412
 40
0.0686718477
 40
0.0727410768
 40
0.0769996739
 40
0.0814533555
 40
0.086106722
 40
0.0909632949
 40
0.0960257825
 40
0.1012960589
 40
0.1067753372
 40
0.1124642414
 40
0.1183628029
 40
0.124470644
 40
0.1307868785
 40
0.1373102773
 40
0.1509713113
 40
0.1654377201
 40
0.1806883899
 40
0.1966983416
 40
0.2134392127
 40
0.2308796405
 40
0.2489855796
 40
0.267720567
 40
0.2870459531
 40
0.3069211232
 40
0.3273036914
 40
0.3481496792
 40
0.3694136836
 40
0.3910490352
 40
0.4130079573
 40
0.435241725
 40
0.4577008156
 40
0.4803350563
 40
0.5030937708
 40
0.5487794195
 40
0.5943487159
 40
0.6169623093
 40
0.6393939606
 40
0.6615935746
 40
0.6835117283
 40
0.7050998185
 40
0.7263102116
 40
0.7470963968
 40
0.7674131468
 40
0.7872166885
 40
0.8064648673
 40
0.8251173264
 40
0.8431357006
 40
0.8604838296
 40
0.8771280068
 40
0.8930372574
 40
0.9081836561
 40
0.9225427195
 40
0.9360938996
 40
0.9425616231
 40
0.9488218314
 40
0.9548733455
 40
0.9607154496
 40
0.9663478606
 40
0.9717707569
 40
0.9769849061
 40
0.9819916398
 40
0.9867931655
 40
0.9913924834
 40
0.995793275
 40
1.0
 40
1.0
 40
1.0
 40
1.0
 10
12.8286471244
 20
7.6703115769
 30
0.0
 10
12.8297302516
 20
7.6713195893
 30
0.0
 10
12.8318956116
 20
7.6732404138
 30
0.0
 10
12.8352180001
 20
7.675883966
 30
0.0
 10
12.8385374118
 20
7.6782206613
 30
0.0
 10
12.8428651954
 20
7.6808693294
 30
0.0
 10
12.84728067
 20
7.6829816086
 30
0.0
 10
12.8517428602
 20
7.6844655176
 30
0.0
 10
12.8550177633
 20
7.6852446339
 30
0.0
 10
12.8582775919
 20
7.6857084676
 30
0.0
 10
12.8615200637
 20
7.685856198
 30
0.0
 10
12.8647424282
 20
7.6856874853
 30
0.0
 10
12.867941958
 20
7.6852024421
 30
0.0
 10
12.8711159552
 20
7.6844015832
 30
0.0
 10
12.8742620004
 20
7.6832860596
 30
0.0
 10
12.8773778547
 20
7.6818570512
 30
0.0
 10
12.880461642
 20
7.6801161658
 30
0.0
 10
12.8835116279
 20
7.67806494
 30
0.0
 10
12.8865262184
 20
7.6757050058
 30
0.0
 10
12.8895039666
 20
7.6730381091
 30
0.0
 10
12.8924433055
 20
7.6700659231
 30
0.0
 10
12.8953428384
 20
7.6667903762
 30
0.0
 10
12.8982009993
 20
7.6632133825
 30
0.0
 10
12.9010162913
 20
7.6593370735
 30
0.0
 10
12.9037872061
 20
7.6551637256
 30
0.0
 10
12.906512136
 20
7.6506957406
 30
0.0
 10
12.9091896233
 20
7.6459357662
 30
0.0
 10
12.9118180516
 20
7.6408865512
 30
0.0
 10
12.9143959464
 20
7.6355510795
 30
0.0
 10
12.9169217891
 20
7.6299324834
 30
0.0
 10
12.9193940587
 20
7.6240340687
 30
0.0
 10
12.921811356
 20
7.6178593375
 30
0.0
 10
12.9241721624
 20
7.6114119318
 30
0.0
 10
12.9264751649
 20
7.6046956828
 30
0.0
 10
12.9295136399
 20
7.5952416052
 30
0.0
 10
12.9331443986
 20
7.5827729245
 30
0.0
 10
12.9371854246
 20
7.5670269809
 30
0.0
 10
12.9409651362
 20
7.5503128768
 30
0.0
 10
12.9444743983
 20
7.5326704461
 30
0.0
 10
12.9477046929
 20
7.5141415733
 30
0.0
 10
12.9506481802
 20
7.4947704039
 30
0.0
 10
12.9532977103
 20
7.4746031285
 30
0.0
 10
12.9556468475
 20
7.4536878916
 30
0.0
 10
12.9576898923
 20
7.4320746602
 30
0.0
 10
12.9594218847
 20
7.409815096
 30
0.0
 10
12.9608386172
 20
7.3869624225
 30
0.0
 10
12.9619366437
 20
7.3635712945
 30
0.0
 10
12.962713286
 20
7.339697667
 30
0.0
 10
12.9631666453
 20
7.3153986609
 30
0.0
 10
12.963295607
 20
7.2907324247
 30
0.0
 10
12.9630998379
 20
7.2657579865
 30
0.0
 10
12.9625797777
 20
7.2405351289
 30
0.0
 10
12.961736679
 20
7.2151241752
 30
0.0
 10
12.9601824582
 20
7.181031585
 30
0.0
 10
12.9574510513
 20
7.1383933887
 30
0.0
 10
12.9536854827
 20
7.0958885871
 30
0.0
 10
12.9500597047
 20
7.0621285967
 30
0.0
 10
12.9470540076
 20
7.0371110677
 30
0.0
 10
12.9437624578
 20
7.0123924124
 30
0.0
 10
12.9401929236
 20
6.9880317455
 30
0.0
 10
12.9363539845
 20
6.9640873703
 30
0.0
 10
12.9322548577
 20
6.940616576
 30
0.0
 10
12.9279053894
 20
6.9176755163
 30
0.0
 10
12.9233160301
 20
6.8953190651
 30
0.0
 10
12.9184978173
 20
6.8736006809
 30
0.0
 10
12.9134623396
 20
6.8525722782
 30
0.0
 10
12.9082217113
 20
6.8322841023
 30
0.0
 10
12.9027885432
 20
6.8127846049
 30
0.0
 10
12.8971759101
 20
6.7941203214
 30
0.0
 10
12.8913973228
 20
6.7763357366
 30
0.0
 10
12.8854666946
 20
6.7594731924
 30
0.0
 10
12.8793982911
 20
6.7435726747
 30
0.0
 10
12.8732066936
 20
6.728672049
 30
0.0
 10
12.8678771351
 20
6.7169416253
 30
0.0
 10
12.8635536645
 20
6.7080941454
 30
0.0
 10
12.8603400158
 20
6.7018336042
 30
0.0
 10
12.8571066977
 20
6.695848314
 30
0.0
 10
12.8538556276
 20
6.6901418067
 30
0.0
 10
12.8505887452
 20
6.6847174559
 30
0.0
 10
12.847307942
 20
6.6795784948
 30
0.0
 10
12.8440152375
 20
6.6747279301
 30
0.0
 10
12.8407124777
 20
6.6701686352
 30
0.0
 10
12.8374015901
 20
6.6659032214
 30
0.0
 10
12.834084389
 20
6.6619341637
 30
0.0
 10
12.830762984
 20
6.6582640168
 30
0.0
 10
12.8284970149
 20
6.6559670501
 30
0.0
 10
12.8273632788
 20
6.654871945
 30
0.0
  0
SPLINE
  5
3CC
100
AcDbEntity
  8
0
100
AcDbSpline
 62
7
  6
CONTINUOUS
 70
0
 71
3
 72
84
 73
80
 74
0
 42
0.0000001
 43
0.0000001
 44
0.0000000001
 40
0.0
 40
0.0
 40
0.0
 40
0.0
 40
0.002744265
 40
0.0055439273
 40
0.0084161736
 40
0.0113768123
 40
0.0144401023
 40
0.0176187341
 40
0.0209238751
 40
0.0243651938
 40
0.0279510471
 40
0.0316885269
 40
0.0355836259
 40
0.0396413705
 40
0.0438658643
 40
0.0482604861
 40
0.0528278863
 40
0.0575701173
 40
0.0624887115
 40
0.0675846693
 40
0.0728586143
 40
0.0783107379
 40
0.0839408944
 40
0.0897486405
 40
0.1018931117
 40
0.1147355953
 40
0.1282633691
 40
0.142460577
 40
0.1573086203
 40
0.1727864817
 40
0.1888709808
 40
0.2055369862
 40
0.2227575884
 40
0.2405042602
 40
0.2587470091
 40
0.2774545053
 40
0.2965942007
 40
0.3161324336
 40
0.3360345361
 40
0.3562649442
 40
0.3767872965
 40
0.3975645292
 40
0.4185589679
 40
0.4610456034
 40
0.5039379064
 40
0.5469220797
 40
0.5896834735
 40
0.6108831286
 40
0.6319102003
 40
0.6527264253
 40
0.673294039
 40
0.6935758673
 40
0.7135354199
 40
0.7331369902
 40
0.75234576
 40
0.7711278961
 40
0.7894506527
 40
0.8072824817
 40
0.8245931548
 40
0.8413538998
 40
0.8575375311
 40
0.8731186031
 40
0.8880735868
 40
0.9023810821
 40
0.9160220777
 40
0.9289802395
 40
0.9412422852
 40
0.947109307
 40
0.9527989845
 40
0.9583107258
 40
0.9636443104
 40
0.9687998137
 40
0.9737776882
 40
0.9785788067
 40
0.9832044793
 40
0.9876566719
 40
0.9919379046
 40
0.9960511676
 40
1.0
 40
1.0
 40
1.0
 40
1.0
 10
12.8827158583
 20
7.8541933589
 30
0.0
 10
12.8839863037
 20
7.8538870939
 30
0.0
 10
12.8865271689
 20
7.8531564594
 30
0.0
 10
12.8902771239
 20
7.8517301304
 30
0.0
 10
12.8939948203
 20
7.8499659119
 30
0.0
 10
12.8976779882
 20
7.847865148
 30
0.0
 10
12.9013250776
 20
7.8454293312
 30
0.0
 10
12.9049344864
 20
7.8426599931
 30
0.0
 10
12.9085046414
 20
7.8395586617
 30
0.0
 10
12.9120341186
 20
7.8361270783
 30
0.0
 10
12.9155213467
 20
7.8323669226
 30
0.0
 10
12.9189648669
 20
7.8282800974
 30
0.0
 10
12.9223631738
 20
7.8238685853
 30
0.0
 10
12.9257146947
 20
7.8191344767
 30
0.0
 10
12.9290179846
 20
7.8140800827
 30
0.0
 10
12.932271443
 20
7.808707778
 30
0.0
 10
12.9354735948
 20
7.8030201577
 30
0.0
 10
12.9386229301
 20
7.7970199443
 30
0.0
 10
12.9417179047
 20
7.7907100024
 30
0.0
 10
12.9447571064
 20
7.7840933928
 30
0.0
 10
12.947739006
 20
7.7771732819
 30
0.0
 10
12.9506621963
 20
7.7699530293
 30
0.0
 10
12.9535252902
 20
7.7624361138
 30
0.0
 10
12.9573172227
 20
7.7518649346
 30
0.0
 10
12.9618830684
 20
7.73792573
 30
0.0
 10
12.9670224409
 20
7.7203166172
 30
0.0
 10
12.9718905713
 20
7.7016189055
 30
0.0
 10
12.9764778887
 20
7.6818689203
 30
0.0
 10
12.9807753562
 20
7.6611048475
 30
0.0
 10
12.9847744925
 20
7.6393670048
 30
0.0
 10
12.9884673992
 20
7.6166976352
 30
0.0
 10
12.9918467761
 20
7.5931408481
 30
0.0
 10
12.9949059466
 20
7.5687425216
 30
0.0
 10
12.9976388732
 20
7.5435502077
 30
0.0
 10
13.0000401574
 20
7.5176130264
 30
0.0
 10
13.0021050536
 20
7.4909815633
 30
0.0
 10
13.0038294755
 20
7.4637077714
 30
0.0
 10
13.0052100114
 20
7.4358448716
 30
0.0
 10
13.0062439331
 20
7.407447247
 30
0.0
 10
13.0069291918
 20
7.3785703263
 30
0.0
 10
13.0072644132
 20
7.349270491
 30
0.0
 10
13.0072489436
 20
7.3196048945
 30
0.0
 10
13.0067586635
 20
7.2794827015
 30
0.0
 10
13.0052655106
 20
7.2288441853
 30
0.0
 10
13.0021017297
 20
7.1677937453
 30
0.0
 10
12.9975831272
 20
7.1066974302
 30
0.0
 10
12.9927044413
 20
7.0559988883
 30
0.0
 10
12.9881455404
 20
7.0157837644
 30
0.0
 10
12.9844225413
 20
6.9859932782
 30
0.0
 10
12.9803934351
 20
6.9565464215
 30
0.0
 10
12.9760660757
 20
6.9275006394
 30
0.0
 10
12.971448943
 20
6.8989126459
 30
0.0
 10
12.966551072
 20
6.870838245
 30
0.0
 10
12.9613820525
 20
6.8433322352
 30
0.0
 10
12.9559520163
 20
6.8164482925
 30
0.0
 10
12.9502716052
 20
6.7902388693
 30
0.0
 10
12.9443519527
 20
6.7647550936
 30
0.0
 10
12.9382046618
 20
6.7400466679
 30
0.0
 10
12.9318417826
 20
6.7161617631
 30
0.0
 10
12.9252758012
 20
6.6931469153
 30
0.0
 10
12.9185195995
 20
6.6710469348
 30
0.0
 10
12.9115864319
 20
6.6499048201
 30
0.0
 10
12.9044898953
 20
6.6297616578
 30
0.0
 10
12.8972438991
 20
6.610656554
 30
0.0
 10
12.8898626368
 20
6.5926264302
 30
0.0
 10
12.8823605576
 20
6.5757063071
 30
0.0
 10
12.8759291973
 20
6.5623687955
 30
0.0
 10
12.8707251012
 20
6.5522897824
 30
0.0
 10
12.8668584833
 20
6.5451396525
 30
0.0
 10
12.8629726217
 20
6.5382905318
 30
0.0
 10
12.8590694236
 20
6.5317456998
 30
0.0
 10
12.8551507479
 20
6.5255083348
 30
0.0
 10
12.8512184855
 20
6.5195814592
 30
0.0
 10
12.8472745884
 20
6.5139679133
 30
0.0
 10
12.8433208595
 20
6.5086704143
 30
0.0
 10
12.8393591903
 20
6.5036914304
 30
0.0
 10
12.8353913524
 20
6.4990333433
 30
0.0
 10
12.831419443
 20
6.4946986096
 30
0.0
 10
12.8287158109
 20
6.4919709905
 30
0.0
 10
12.8273632788
 20
6.4906645448
 30
0.0
  0
SPLINE
  5
3CD
100
AcDbEntity
  8
0
100
AcDbSpline
 62
7
  6
CONTINUOUS
 70
0
 71
3
 72
86
 73
82
 74
0
 42
0.0000001
 43
0.0000001
 44
0.0000000001
 40
0.0
 40
0.0
 40
0.0
 40
0.0
 40
0.0027164229
 40
0.0054532199
 40
0.0082302803
 40
0.0110665652
 40
0.0139797601
 40
0.0169860612
 40
0.0201000083
 40
0.0233345154
 40
0.0267008552
 40
0.0302087911
 40
0.0338666949
 40
0.0376816386
 40
0.0416596027
 40
0.0458055094
 40
0.0501234214
 40
0.0546165986
 40
0.0592875859
 40
0.0641383491
 40
0.0691702497
 40
0.0743842108
 40
0.0797806815
 40
0.0853597253
 40
0.0911210701
 40
0.0970640767
 40
0.1094907819
 40
0.1226299857
 40
0.1364676026
 40
0.1509863633
 40
0.166166208
 40
0.1819846021
 40
0.1984167887
 40
0.2154360082
 40
0.2330136911
 40
0.2511196222
 40
0.2697220861
 40
0.2887880011
 40
0.3082830385
 40
0.3281717446
 40
0.3484176561
 40
0.3689834073
 40
0.3898308346
 40
0.4109210783
 40
0.4322146819
 40
0.4536716962
 40
0.4969136001
 40
0.5403217884
 40
0.5835689461
 40
0.6050305436
 40
0.6263300209
 40
0.6474274143
 40
0.6682832501
 40
0.6888586484
 40
0.7091154216
 40
0.7290161766
 40
0.7485244187
 40
0.7676046599
 40
0.7862225346
 40
0.8043449193
 40
0.8219400528
 40
0.8389776685
 40
0.8554291414
 40
0.8712676506
 40
0.8864683732
 40
0.9010086996
 40
0.9148684857
 40
0.9280303658
 40
0.9404801448
 40
0.9464347977
 40
0.952207837
 40
0.9577986052
 40
0.9632068066
 40
0.9684324934
 40
0.9734760794
 40
0.9783384382
 40
0.9830208843
 40
0.9875254058
 40
0.9918546018
 40
0.9960115767
 40
1.0
 40
1.0
 40
1.0
 40
1.0
 10
12.890901039
 20
7.8542459562
 30
0.0
 10
12.8921981709
 20
7.8541559998
 30
0.0
 10
12.8947955183
 20
7.8538579816
 30
0.0
 10
12.8986584819
 20
7.8530605889
 30
0.0
 10
12.9024922427
 20
7.8519128578
 30
0.0
 10
12.9062940766
 20
7.8504159479
 30
0.0
 10
12.9100620333
 20
7.8485712051
 30
0.0
 10
12.9137941395
 20
7.8463800046
 30
0.0
 10
12.9174887373
 20
7.8438440012
 30
0.0
 10
12.9211441199
 20
7.8409647129
 30
0.0
 10
12.9247587537
 20
7.8377438813
 30
0.0
 10
12.928331071
 20
7.8341832488
 30
0.0
 10
12.9318594788
 20
7.83028465
 30
0.0
 10
12.9353424798
 20
7.8260501115
 30
0.0
 10
12.938778412
 20
7.8214816853
 30
0.0
 10
12.9421657649
 20
7.8165816791
 30
0.0
 10
12.9455029025
 20
7.8113524766
 30
0.0
 10
12.9487882377
 20
7.8057966569
 30
0.0
 10
12.9520202237
 20
7.7999169711
 30
0.0
 10
12.9551972185
 20
7.7937162947
 30
0.0
 10
12.9583177389
 20
7.7871977241
 30
0.0
 10
12.9613801795
 20
7.7803644686
 30
0.0
 10
12.9643830558
 20
7.7732199345
 30
0.0
 10
12.9673248666
 20
7.7657676794
 30
0.0
 10
12.9702041371
 20
7.7580113984
 30
0.0
 10
12.9740146364
 20
7.7471067885
 30
0.0
 10
12.9785969159
 20
7.7327341815
 30
0.0
 10
12.9837455168
 20
7.714586658
 30
0.0
 10
12.9886122013
 20
7.6953271451
 30
0.0
 10
12.9931871172
 20
7.6749941954
 30
0.0
 10
12.9974609631
 20
7.6536283131
 30
0.0
 10
13.001425043
 20
7.6312722379
 30
0.0
 10
13.0050712903
 20
7.607970736
 30
0.0
 10
13.0083922868
 20
7.5837705273
 30
0.0
 10
13.011381273
 20
7.5587201689
 30
0.0
 10
13.0140321642
 20
7.5328699508
 30
0.0
 10
13.0163395625
 20
7.5062717897
 30
0.0
 10
13.0182987655
 20
7.4789791241
 30
0.0
 10
13.0199057843
 20
7.4510468049
 30
0.0
 10
13.0211573451
 20
7.4225309813
 30
0.0
 10
13.0220508932
 20
7.3934889823
 30
0.0
 10
13.0225845972
 20
7.3639792007
 30
0.0
 10
13.0227573559
 20
7.3340609703
 30
0.0
 10
13.0225687873
 20
7.3037944691
 30
0.0
 10
13.0220192824
 20
7.2732405156
 30
0.0
 10
13.0208035895
 20
7.2320964056
 30
0.0
 10
13.0183897607
 20
7.1804011552
 30
0.0
 10
13.0140989086
 20
7.1183676453
 30
0.0
 10
13.009372002
 20
7.0668276706
 30
0.0
 10
13.0049109243
 20
7.0259004966
 30
0.0
 10
13.001247943
 20
6.9955534422
 30
0.0
 10
12.9972669106
 20
6.9655389608
 30
0.0
 10
12.9929758162
 20
6.9359173659
 30
0.0
 10
12.9883833248
 20
6.9067482339
 30
0.0
 10
12.983498698
 20
6.8780902099
 30
0.0
 10
12.9783317908
 20
6.8500009106
 30
0.0
 10
12.9728930288
 20
6.8225368028
 30
0.0
 10
12.9671933872
 20
6.795753089
 30
0.0
 10
12.961244373
 20
6.7697035897
 30
0.0
 10
12.9550580037
 20
6.744440632
 30
0.0
 10
12.9486467769
 20
6.7200149439
 30
0.0
 10
12.9420236463
 20
6.6964755513
 30
0.0
 10
12.9352019958
 20
6.6738696737
 30
0.0
 10
12.9281956086
 20
6.6522426229
 30
0.0
 10
12.9210186438
 20
6.6316376879
 30
0.0
 10
12.9136856029
 20
6.6120960678
 30
0.0
 10
12.9062112799
 20
6.593656669
 30
0.0
 10
12.8986107471
 20
6.5763563897
 30
0.0
 10
12.8920913965
 20
6.5627220112
 30
0.0
 10
12.886814323
 20
6.5524216912
 30
0.0
 10
12.882893314
 20
6.545117327
 30
0.0
 10
12.8789522111
 20
6.53812248
 30
0.0
 10
12.8749929683
 20
6.5314406194
 30
0.0
 10
12.8710175735
 20
6.525075065
 30
0.0
 10
12.8670279601
 20
6.5190290089
 30
0.0
 10
12.8630261872
 20
6.5133054279
 30
0.0
 10
12.8590141483
 20
6.5079071755
 30
0.0
 10
12.8549938097
 20
6.5028368577
 30
0.0
 10
12.850967035
 20
6.4980969515
 30
0.0
 10
12.8469359845
 20
6.4936900307
 30
0.0
 10
12.8441912264
 20
6.4909190942
 30
0.0
 10
12.8428180937
 20
6.4895927498
 30
0.0
  0
SPLINE
  5
3CE
100
AcDbEntity
  8
0
100
AcDbSpline
 62
7
  6
CONTINUOUS
 70
0
 71
3
 72
18
 73
14
 74
0
 42
0.0000001
 43
0.0000001
 44
0.0000000001
 40
0.0
 40
0.0
 40
0.0
 40
0.0
 40
0.053980644
 40
0.1081920485
 40
0.1628619155
 40
0.2182116307
 40
0.3317376658
 40
0.4503906774
 40
0.5120899542
 40
0.575557219
 40
0.7082859207
 40
0.8495334632
 40
1.0
 40
1.0
 40
1.0
 40
1.0
 10
13.025812672
 20
8.2955003198
 30
0.0
 10
13.0264878971
 20
8.2954534924
 30
0.0
 10
13.0278448615
 20
8.295405483
 30
0.0
 10
13.0298873301
 20
8.2954711094
 30
0.0
 10
13.0319380908
 20
8.295674303
 30
0.0
 10
13.0347051445
 20
8.2961320434
 30
0.0
 10
13.038198751
 20
8.2970613185
 30
0.0
 10
13.0416313071
 20
8.2984230042
 30
0.0
 10
13.0443766484
 20
8.299770597
 30
0.0
 10
13.0472052052
 20
8.3013402605
 30
0.0
 10
13.0507524061
 20
8.3036582234
 30
0.0
 10
13.0549518782
 20
8.3069356531
 30
0.0
 10
13.0576640379
 20
8.3093950093
 30
0.0
 10
13.0590210226
 20
8.3107057559
 30
0.0
  0
SPLINE
  5
3CF
100
AcDbEntity
  8
0
100
AcDbSpline
 62
7
  6
CONTINUOUS
 70
0
 71
3
 72
23
 73
19
 74
0
 42
0.0000001
 43
0.0000001
 44
0.0000000001
 40
0.0
 40
0.0
 40
0.0
 40
0.0
 40
0.0742737376
 40
0.1440770883
 40
0.2097814406
 40
0.2718521618
 40
0.3308578319
 40
0.3874738865
 40
0.4424752183
 40
0.4967130704
 40
0.5510780507
 40
0.6064541465
 40
0.6636742696
 40
0.7234865014
 40
0.7865352926
 40
0.8533608035
 40
0.9244033106
 40
1.0
 40
1.0
 40
1.0
 40
1.0
 10
13.0335901936
 20
8.2676975133
 30
0.0
 10
13.0348478154
 20
8.2661511987
 30
0.0
 10
13.0373847823
 20
8.2632286262
 30
0.0
 10
13.0413876434
 20
8.2592620154
 30
0.0
 10
13.0454624736
 20
8.2558583996
 30
0.0
 10
13.0496059378
 20
8.2530227688
 30
0.0
 10
13.053814697
 20
8.2507600369
 30
0.0
 10
13.0580845181
 20
8.2490754434
 30
0.0
 10
13.0624096973
 20
8.2479737881
 30
0.0
 10
13.0667829301
 20
8.2474589461
 30
0.0
 10
13.0711957134
 20
8.2475322707
 30
0.0
 10
13.0756395702
 20
8.2481928562
 30
0.0
 10
13.080107119
 20
8.2494374052
 30
0.0
 10
13.0845924593
 20
8.2512616929
 30
0.0
 10
13.08909101
 20
8.2536610981
 30
0.0
 10
13.093598982
 20
8.2566313556
 30
0.0
 10
13.0981122575
 20
8.2601679625
 30
0.0
 10
13.1010285604
 20
8.2628152592
 30
0.0
 10
13.1024876873
 20
8.2642246677
 30
0.0
  0
SPLINE
  5
3D0
100
AcDbEntity
  8
0
100
AcDbSpline
 62
7
  6
CONTINUOUS
 70
0
 71
3
 72
15
 73
11
 74
0
 42
0.0000001
 43
0.0000001
 44
0.0000000001
 40
0.0
 40
0.0
 40
0.0
 40
0.0
 40
0.107854739
 40
0.2188512337
 40
0.3340190784
 40
0.4542663637
 40
0.5803780585
 40
0.7130213983
 40
0.852750674
 40
1.0
 40
1.0
 40
1.0
 40
1.0
 10
13.062499751
 20
8.0781901011
 30
0.0
 10
13.0641555439
 20
8.0783804791
 30
0.0
 10
13.0674965263
 20
8.0789522206
 30
0.0
 10
13.0724744766
 20
8.0803477957
 30
0.0
 10
13.0774719762
 20
8.0822884123
 30
0.0
 10
13.0824844701
 20
8.084770793
 30
0.0
 10
13.0875087192
 20
8.0877920336
 30
0.0
 10
13.0925415718
 20
8.0913490199
 30
0.0
 10
13.0975794075
 20
8.0954383775
 30
0.0
 10
13.1008510421
 20
8.0984363895
 30
0.0
 10
13.1024876873
 20
8.1000172675
 30
0.0
  0
SPLINE
  5
3D1
100
AcDbEntity
  8
0
100
AcDbSpline
 62
7
  6
CONTINUOUS
 70
0
 71
3
 72
78
 73
74
 74
0
 42
0.0000001
 43
0.0000001
 44
0.0000000001
 40
0.0
 40
0.0
 40
0.0
 40
0.0
 40
0.0027164369
 40
0.0054532501
 40
0.0082303267
 40
0.011066621
 40
0.0139798386
 40
0.0169861505
 40
0.0201001133
 40
0.0233346418
 40
0.0267009936
 40
0.0302089507
 40
0.0338668746
 40
0.0376818349
 40
0.0416598208
 40
0.0458057531
 40
0.0501236788
 40
0.0546168868
 40
0.0592878993
 40
0.064138678
 40
0.0691706199
 40
0.074384594
 40
0.0853595185
 40
0.0970633876
 40
0.1094901456
 40
0.1226294158
 40
0.1364671142
 40
0.1509859537
 40
0.1661658741
 40
0.1819843535
 40
0.1984166306
 40
0.2154359363
 40
0.233013707
 40
0.2511197402
 40
0.2697223102
 40
0.288788323
 40
0.3082834575
 40
0.3281722723
 40
0.3484182956
 40
0.3689841559
 40
0.4109212942
 40
0.4536714247
 40
0.4969135622
 40
0.5403219822
 40
0.5835693732
 40
0.6263299628
 40
0.6682826601
 40
0.6888581693
 40
0.7091150559
 40
0.7290159179
 40
0.7485242577
 40
0.7676046002
 40
0.7862225833
 40
0.8043450682
 40
0.82194029
 40
0.8389779953
 40
0.855429561
 40
0.8712681541
 40
0.8864689547
 40
0.901009364
 40
0.9148692325
 40
0.9280311759
 40
0.9404810125
 40
0.9522082268
 40
0.9632066197
 40
0.9684323262
 40
0.9734759427
 40
0.9783382952
 40
0.9830207554
 40
0.9875253486
 40
0.9918546287
 40
0.9960116292
 40
1.0
 40
1.0
 40
1.0
 40
1.0
 10
13.0922293732
 20
9.2532000401
 30
0.0
 10
13.0931252339
 20
9.2531379114
 30
0.0
 10
13.0949190901
 20
9.2529321237
 30
0.0
 10
13.097587034
 20
9.2523813821
 30
0.0
 10
13.1002348054
 20
9.2515886957
 30
0.0
 10
13.1028605494
 20
9.2505548964
 30
0.0
 10
13.1054628581
 20
9.2492807882
 30
0.0
 10
13.1080404423
 20
9.2477674677
 30
0.0
 10
13.1105921062
 20
9.2460159812
 30
0.0
 10
13.1131166775
 20
9.2440273984
 30
0.0
 10
13.1156131279
 20
9.2418029531
 30
0.0
 10
13.1180803324
 20
9.2393438046
 30
0.0
 10
13.1205172184
 20
9.2366512479
 30
0.0
 10
13.1229227485
 20
9.2337266791
 30
0.0
 10
13.1252957664
 20
9.2305715067
 30
0.0
 10
13.1276352248
 20
9.2271873264
 30
0.0
 10
13.1299400258
 20
9.2235758002
 30
0.0
 10
13.1322090224
 20
9.2197386811
 30
0.0
 10
13.1344411856
 20
9.2156778916
 30
0.0
 10
13.1366353802
 20
9.2113954179
 30
0.0
 10
13.1387905559
 20
9.2068933707
 30
0.0
 10
13.1416598206
 20
9.2004910101
 30
0.0
 10
13.1451295685
 20
9.1919442375
 30
0.0
 10
13.1490529407
 20
9.1810193041
 30
0.0
 10
13.1527963259
 20
9.169278342
 30
0.0
 10
13.1563521884
 20
9.1567447207
 30
0.0
 10
13.1597133482
 20
9.1434432075
 30
0.0
 10
13.1628730016
 20
9.1294002988
 30
0.0
 10
13.1658247272
 20
9.11464401
 30
0.0
 10
13.168562508
 20
9.0992038427
 30
0.0
 10
13.1710807769
 20
9.0831107192
 30
0.0
 10
13.1733744175
 20
9.066396909
 30
0.0
 10
13.175438759
 20
9.0490959444
 30
0.0
 10
13.1772695866
 20
9.0312425539
 30
0.0
 10
13.1788631803
 20
9.0128725976
 30
0.0
 10
13.1802163015
 20
8.9940229888
 30
0.0
 10
13.1813261933
 20
8.9747316046
 30
0.0
 10
13.182190574
 20
8.9550372283
 30
0.0
 10
13.1828077144
 20
8.9349794225
 30
0.0
 10
13.1833023035
 20
8.9076277298
 30
0.0
 10
13.1832858189
 20
8.8728289764
 30
0.0
 10
13.1822745306
 20
8.8305459388
 30
0.0
 10
13.1802791698
 20
8.7878109532
 30
0.0
 10
13.1773156946
 20
8.7449674859
 30
0.0
 10
13.1734078912
 20
8.7023595772
 30
0.0
 10
13.1685872628
 20
8.6603296604
 30
0.0
 10
13.1638117088
 20
8.6258482444
 30
0.0
 10
13.159555299
 20
8.598813171
 30
0.0
 10
13.1561817284
 20
8.5790205579
 30
0.0
 10
13.1526132222
 20
8.5596207588
 30
0.0
 10
13.1488569473
 20
8.540652744
 30
0.0
 10
13.144920504
 20
8.5221546393
 30
0.0
 10
13.1408118385
 20
8.5041636126
 30
0.0
 10
13.136539239
 20
8.4867158119
 30
0.0
 10
13.1321113366
 20
8.4698462744
 30
0.0
 10
13.1275370872
 20
8.453588853
 30
0.0
 10
13.1228257353
 20
8.4379761586
 30
0.0
 10
13.1179867903
 20
8.4230394897
 30
0.0
 10
13.1130300346
 20
8.4088087457
 30
0.0
 10
13.1079654894
 20
8.3953123639
 30
0.0
 10
13.1028033742
 20
8.3825772588
 30
0.0
 10
13.0975540771
 20
8.3706287857
 30
0.0
 10
13.0922281312
 20
8.3594905363
 30
0.0
 10
13.0868362236
 20
8.3491846673
 30
0.0
 10
13.082221436
 20
8.3411754696
 30
0.0
 10
13.0784969208
 20
8.3352115355
 30
0.0
 10
13.0757415096
 20
8.3310358375
 30
0.0
 10
13.0729777069
 20
8.3270828723
 30
0.0
 10
13.0702067968
 20
8.3233545844
 30
0.0
 10
13.067430147
 20
8.3198527513
 30
0.0
 10
13.0646490244
 20
8.3165791329
 30
0.0
 10
13.0618649958
 20
8.313535503
 30
0.0
 10
13.0599693557
 20
8.3116217754
 30
0.0
 10
13.0590210226
 20
8.3107057559
 30
0.0
  0
SPLINE
  5
3D2
100
AcDbEntity
  8
0
100
AcDbSpline
 62
7
  6
CONTINUOUS
 70
0
 71
3
 72
91
 73
87
 74
0
 42
0.0000001
 43
0.0000001
 44
0.0000000001
 40
0.0
 40
0.0
 40
0.0
 40
0.0
 40
0.0039487787
 40
0.0077209219
 40
0.011325686
 40
0.0147746025
 40
0.0212567422
 40
0.0243282937
 40
0.027311383
 40
0.0302282587
 40
0.0331028473
 40
0.0359602483
 40
0.0388260453
 40
0.0417255864
 40
0.0446832624
 40
0.0477219513
 40
0.0508625511
 40
0.0541237877
 40
0.0575221219
 40
0.0610717762
 40
0.0647849412
 40
0.0686718477
 40
0.0727410768
 40
0.0769996739
 40
0.0814533555
 40
0.086106722
 40
0.0909632949
 40
0.0960257825
 40
0.1012960589
 40
0.1067753372
 40
0.1124642414
 40
0.1183628029
 40
0.124470644
 40
0.1307868785
 40
0.1373102773
 40
0.1509713113
 40
0.1654377201
 40
0.1806883899
 40
0.1966983416
 40
0.2134392127
 40
0.2308796405
 40
0.2489855796
 40
0.267720567
 40
0.2870459531
 40
0.3069211232
 40
0.3273036914
 40
0.3481496792
 40
0.3694136836
 40
0.3910490352
 40
0.4130079573
 40
0.435241725
 40
0.4577008156
 40
0.4803350563
 40
0.5030937708
 40
0.5487794195
 40
0.5943487159
 40
0.6169623093
 40
0.6393939606
 40
0.6615935746
 40
0.6835117283
 40
0.7050998185
 40
0.7263102116
 40
0.7470963968
 40
0.7674131468
 40
0.7872166885
 40
0.8064648673
 40
0.8251173264
 40
0.8431357006
 40
0.8604838296
 40
0.8771280068
 40
0.8930372574
 40
0.9081836561
 40
0.9225427195
 40
0.9360938996
 40
0.9425616231
 40
0.9488218314
 40
0.9548733455
 40
0.9607154496
 40
0.9663478606
 40
0.9717707569
 40
0.9769849061
 40
0.9819916398
 40
0.9867931655
 40
0.9913924834
 40
0.995793275
 40
1.0
 40
1.0
 40
1.0
 40
1.0
 10
13.1037715329
 20
9.2796642996
 30
0.0
 10
13.1048546601
 20
9.2806723119
 30
0.0
 10
13.1070200201
 20
9.2825931364
 30
0.0
 10
13.1103424086
 20
9.2852366887
 30
0.0
 10
13.1136618203
 20
9.287573384
 30
0.0
 10
13.1179896039
 20
9.2902220521
 30
0.0
 10
13.1224050785
 20
9.2923343313
 30
0.0
 10
13.1268672687
 20
9.2938182403
 30
0.0
 10
13.1301421719
 20
9.2945973566
 30
0.0
 10
13.1334020004
 20
9.2950611902
 30
0.0
 10
13.1366444722
 20
9.2952089207
 30
0.0
 10
13.1398668368
 20
9.2950402079
 30
0.0
 10
13.1430663665
 20
9.2945551648
 30
0.0
 10
13.1462403637
 20
9.2937543058
 30
0.0
 10
13.1493864089
 20
9.2926387823
 30
0.0
 10
13.1525022632
 20
9.2912097739
 30
0.0
 10
13.1555860505
 20
9.2894688885
 30
0.0
 10
13.1586360364
 20
9.2874176626
 30
0.0
 10
13.1616506269
 20
9.2850577284
 30
0.0
 10
13.1646283751
 20
9.2823908318
 30
0.0
 10
13.167567714
 20
9.2794186458
 30
0.0
 10
13.1704672469
 20
9.2761430989
 30
0.0
 10
13.1733254079
 20
9.2725661052
 30
0.0
 10
13.1761406998
 20
9.2686897962
 30
0.0
 10
13.1789116146
 20
9.2645164483
 30
0.0
 10
13.1816365445
 20
9.2600484633
 30
0.0
 10
13.1843140318
 20
9.2552884888
 30
0.0
 10
13.1869424601
 20
9.2502392738
 30
0.0
 10
13.1895203549
 20
9.2449038022
 30
0.0
 10
13.1920461977
 20
9.2392852061
 30
0.0
 10
13.1945184672
 20
9.2333867914
 30
0.0
 10
13.1969357646
 20
9.2272120601
 30
0.0
 10
13.1992965709
 20
9.2207646545
 30
0.0
 10
13.2015995734
 20
9.2140484055
 30
0.0
 10
13.2046380484
 20
9.2045943279
 30
0.0
 10
13.2082688071
 20
9.1921256472
 30
0.0
 10
13.2123098332
 20
9.1763797036
 30
0.0
 10
13.2160895447
 20
9.1596655995
 30
0.0
 10
13.2195988068
 20
9.1420231688
 30
0.0
 10
13.2228291014
 20
9.1234942959
 30
0.0
 10
13.2257725887
 20
9.1041231266
 30
0.0
 10
13.2284221188
 20
9.0839558512
 30
0.0
 10
13.230771256
 20
9.0630406142
 30
0.0
 10
13.2328143008
 20
9.0414273828
 30
0.0
 10
13.2345462933
 20
9.0191678187
 30
0.0
 10
13.2359630257
 20
8.9963151452
 30
0.0
 10
13.2370610522
 20
8.9729240171
 30
0.0
 10
13.2378376946
 20
8.9490503896
 30
0.0
 10
13.2382910539
 20
8.9247513835
 30
0.0
 10
13.2384200155
 20
8.9000851474
 30
0.0
 10
13.2382242464
 20
8.8751107091
 30
0.0
 10
13.2377041862
 20
8.8498878516
 30
0.0
 10
13.2368610875
 20
8.8244768979
 30
0.0
 10
13.2353068667
 20
8.7903843077
 30
0.0
 10
13.2325754598
 20
8.7477461113
 30
0.0
 10
13.2288098912
 20
8.7052413097
 30
0.0
 10
13.2251841132
 20
8.6714813194
 30
0.0
 10
13.2221784161
 20
8.6464637904
 30
0.0
 10
13.2188868663
 20
8.621745135
 30
0.0
 10
13.2153173321
 20
8.5973844682
 30
0.0
 10
13.211478393
 20
8.5734400929
 30
0.0
 10
13.2073792662
 20
8.5499692987
 30
0.0
 10
13.2030297979
 20
8.527028239
 30
0.0
 10
13.1984404386
 20
8.5046717878
 30
0.0
 10
13.1936222258
 20
8.4829534036
 30
0.0
 10
13.1885867481
 20
8.4619250009
 30
0.0
 10
13.1833461198
 20
8.441636825
 30
0.0
 10
13.1779129517
 20
8.4221373275
 30
0.0
 10
13.1723003186
 20
8.4034730441
 30
0.0
 10
13.1665217313
 20
8.3856884593
 30
0.0
 10
13.1605911031
 20
8.3688259151
 30
0.0
 10
13.1545226996
 20
8.3529253974
 30
0.0
 10
13.1483311021
 20
8.3380247717
 30
0.0
 10
13.1430015436
 20
8.326294348
 30
0.0
 10
13.138678073
 20
8.3174468681
 30
0.0
 10
13.1354644243
 20
8.3111863269
 30
0.0
 10
13.1322311062
 20
8.3052010367
 30
0.0
 10
13.1289800361
 20
8.2994945294
 30
0.0
 10
13.1257131537
 20
8.2940701786
 30
0.0
 10
13.1224323505
 20
8.2889312175
 30
0.0
 10
13.1191396461
 20
8.2840806528
 30
0.0
 10
13.1158368862
 20
8.2795213579
 30
0.0
 10
13.1125259986
 20
8.2752559441
 30
0.0
 10
13.1092087975
 20
8.2712868863
 30
0.0
 10
13.1058873925
 20
8.2676167395
 30
0.0
 10
13.1036214234
 20
8.2653197727
 30
0.0
 10
13.1024876873
 20
8.2642246677
 30
0.0
  0
SPLINE
  5
3D3
100
AcDbEntity
  8
0
100
AcDbSpline
 62
7
  6
CONTINUOUS
 70
0
 71
3
 72
84
 73
80
 74
0
 42
0.0000001
 43
0.0000001
 44
0.0000000001
 40
0.0
 40
0.0
 40
0.0
 40
0.0
 40
0.002744265
 40
0.0055439273
 40
0.0084161736
 40
0.0113768123
 40
0.0144401023
 40
0.0176187341
 40
0.0209238751
 40
0.0243651938
 40
0.0279510471
 40
0.0316885269
 40
0.0355836259
 40
0.0396413705
 40
0.0438658643
 40
0.0482604861
 40
0.0528278863
 40
0.0575701173
 40
0.0624887115
 40
0.0675846693
 40
0.0728586143
 40
0.0783107379
 40
0.0839408944
 40
0.0897486405
 40
0.1018931117
 40
0.1147355953
 40
0.1282633691
 40
0.142460577
 40
0.1573086203
 40
0.1727864817
 40
0.1888709808
 40
0.2055369862
 40
0.2227575884
 40
0.2405042602
 40
0.2587470091
 40
0.2774545053
 40
0.2965942007
 40
0.3161324336
 40
0.3360345361
 40
0.3562649442
 40
0.3767872965
 40
0.3975645292
 40
0.4185589679
 40
0.4610456034
 40
0.5039379064
 40
0.5469220797
 40
0.5896834735
 40
0.6108831286
 40
0.6319102003
 40
0.6527264253
 40
0.673294039
 40
0.6935758673
 40
0.7135354199
 40
0.7331369902
 40
0.75234576
 40
0.7711278961
 40
0.7894506527
 40
0.8072824817
 40
0.8245931548
 40
0.8413538998
 40
0.8575375311
 40
0.8731186031
 40
0.8880735868
 40
0.9023810821
 40
0.9160220777
 40
0.9289802395
 40
0.9412422852
 40
0.947109307
 40
0.9527989845
 40
0.9583107258
 40
0.9636443104
 40
0.9687998137
 40
0.9737776882
 40
0.9785788067
 40
0.9832044793
 40
0.9876566719
 40
0.9919379046
 40
0.9960511676
 40
1.0
 40
1.0
 40
1.0
 40
1.0
 10
13.1578402668
 20
9.4635460816
 30
0.0
 10
13.1591107122
 20
9.4632398166
 30
0.0
 10
13.1616515774
 20
9.462509182
 30
0.0
 10
13.1654015324
 20
9.461082853
 30
0.0
 10
13.1691192288
 20
9.4593186346
 30
0.0
 10
13.1728023967
 20
9.4572178707
 30
0.0
 10
13.1764494861
 20
9.4547820538
 30
0.0
 10
13.1800588949
 20
9.4520127158
 30
0.0
 10
13.1836290499
 20
9.4489113843
 30
0.0
 10
13.1871585271
 20
9.445479801
 30
0.0
 10
13.1906457552
 20
9.4417196453
 30
0.0
 10
13.1940892754
 20
9.4376328201
 30
0.0
 10
13.1974875823
 20
9.433221308
 30
0.0
 10
13.2008391033
 20
9.4284871993
 30
0.0
 10
13.2041423931
 20
9.4234328054
 30
0.0
 10
13.2073958515
 20
9.4180605007
 30
0.0
 10
13.2105980033
 20
9.4123728803
 30
0.0
 10
13.2137473386
 20
9.4063726669
 30
0.0
 10
13.2168423132
 20
9.400062725
 30
0.0
 10
13.2198815149
 20
9.3934461155
 30
0.0
 10
13.2228634145
 20
9.3865260045
 30
0.0
 10
13.2257866048
 20
9.379305752
 30
0.0
 10
13.2286496987
 20
9.3717888365
 30
0.0
 10
13.2324416312
 20
9.3612176573
 30
0.0
 10
13.2370074769
 20
9.3472784527
 30
0.0
 10
13.2421468494
 20
9.3296693398
 30
0.0
 10
13.2470149798
 20
9.3109716282
 30
0.0
 10
13.2516022972
 20
9.291221643
 30
0.0
 10
13.2558997647
 20
9.2704575702
 30
0.0
 10
13.259898901
 20
9.2487197275
 30
0.0
 10
13.2635918077
 20
9.2260503579
 30
0.0
 10
13.2669711846
 20
9.2024935707
 30
0.0
 10
13.2700303551
 20
9.1780952443
 30
0.0
 10
13.2727632817
 20
9.1529029304
 30
0.0
 10
13.2751645659
 20
9.1269657491
 30
0.0
 10
13.2772294622
 20
9.1003342859
 30
0.0
 10
13.2789538841
 20
9.073060494
 30
0.0
 10
13.28033442
 20
9.0451975942
 30
0.0
 10
13.2813683416
 20
9.0167999697
 30
0.0
 10
13.2820536003
 20
8.987923049
 30
0.0
 10
13.2823888217
 20
8.9586232137
 30
0.0
 10
13.2823733521
 20
8.9289576172
 30
0.0
 10
13.2818830721
 20
8.8888354242
 30
0.0
 10
13.2803899192
 20
8.838196908
 30
0.0
 10
13.2772261382
 20
8.7771464679
 30
0.0
 10
13.2727075357
 20
8.7160501529
 30
0.0
 10
13.2678288498
 20
8.6653516109
 30
0.0
 10
13.2632699489
 20
8.6251364871
 30
0.0
 10
13.2595469498
 20
8.5953460008
 30
0.0
 10
13.2555178436
 20
8.5658991442
 30
0.0
 10
13.2511904843
 20
8.5368533621
 30
0.0
 10
13.2465733515
 20
8.5082653685
 30
0.0
 10
13.2416754805
 20
8.4801909676
 30
0.0
 10
13.236506461
 20
8.4526849578
 30
0.0
 10
13.2310764248
 20
8.4258010152
 30
0.0
 10
13.2253960137
 20
8.3995915919
 30
0.0
 10
13.2194763612
 20
8.3741078162
 30
0.0
 10
13.2133290703
 20
8.3493993906
 30
0.0
 10
13.2069661911
 20
8.3255144857
 30
0.0
 10
13.2004002097
 20
8.302499638
 30
0.0
 10
13.193644008
 20
8.2803996574
 30
0.0
 10
13.1867108404
 20
8.2592575428
 30
0.0
 10
13.1796143038
 20
8.2391143804
 30
0.0
 10
13.1723683076
 20
8.2200092766
 30
0.0
 10
13.1649870453
 20
8.2019791529
 30
0.0
 10
13.1574849661
 20
8.1850590298
 30
0.0
 10
13.1510536058
 20
8.1717215182
 30
0.0
 10
13.1458495097
 20
8.161642505
 30
0.0
 10
13.1419828919
 20
8.1544923752
 30
0.0
 10
13.1380970303
 20
8.1476432544
 30
0.0
 10
13.1341938321
 20
8.1410984225
 30
0.0
 10
13.1302751564
 20
8.1348610575
 30
0.0
 10
13.126342894
 20
8.1289341819
 30
0.0
 10
13.1223989969
 20
8.1233206359
 30
0.0
 10
13.118445268
 20
8.1180231369
 30
0.0
 10
13.1144835988
 20
8.1130441531
 30
0.0
 10
13.110515761
 20
8.108386066
 30
0.0
 10
13.1065438515
 20
8.1040513322
 30
0.0
 10
13.1038402194
 20
8.1013237132
 30
0.0
 10
13.1024876873
 20
8.1000172675
 30
0.0
  0
SPLINE
  5
3D4
100
AcDbEntity
  8
0
100
AcDbSpline
 62
7
  6
CONTINUOUS
 70
0
 71
3
 72
86
 73
82
 74
0
 42
0.0000001
 43
0.0000001
 44
0.0000000001
 40
0.0
 40
0.0
 40
0.0
 40
0.0
 40
0.0027164229
 40
0.0054532199
 40
0.0082302803
 40
0.0110665652
 40
0.0139797601
 40
0.0169860612
 40
0.0201000083
 40
0.0233345154
 40
0.0267008552
 40
0.0302087911
 40
0.0338666949
 40
0.0376816386
 40
0.0416596027
 40
0.0458055094
 40
0.0501234214
 40
0.0546165986
 40
0.0592875859
 40
0.0641383491
 40
0.0691702497
 40
0.0743842108
 40
0.0797806815
 40
0.0853597253
 40
0.0911210701
 40
0.0970640767
 40
0.1094907819
 40
0.1226299857
 40
0.1364676026
 40
0.1509863633
 40
0.166166208
 40
0.1819846021
 40
0.1984167887
 40
0.2154360082
 40
0.2330136911
 40
0.2511196222
 40
0.2697220861
 40
0.2887880011
 40
0.3082830385
 40
0.3281717446
 40
0.3484176561
 40
0.3689834073
 40
0.3898308346
 40
0.4109210783
 40
0.4322146819
 40
0.4536716962
 40
0.4969136001
 40
0.5403217884
 40
0.5835689461
 40
0.6050305436
 40
0.6263300209
 40
0.6474274143
 40
0.6682832501
 40
0.6888586484
 40
0.7091154216
 40
0.7290161766
 40
0.7485244187
 40
0.7676046599
 40
0.7862225346
 40
0.8043449193
 40
0.8219400528
 40
0.8389776685
 40
0.8554291414
 40
0.8712676506
 40
0.8864683732
 40
0.9010086996
 40
0.9148684857
 40
0.9280303658
 40
0.9404801448
 40
0.9464347977
 40
0.952207837
 40
0.9577986052
 40
0.9632068066
 40
0.9684324934
 40
0.9734760794
 40
0.9783384382
 40
0.9830208843
 40
0.9875254058
 40
0.9918546018
 40
0.9960115767
 40
1.0
 40
1.0
 40
1.0
 40
1.0
 10
13.1660254475
 20
9.4635986789
 30
0.0
 10
13.1673225794
 20
9.4635087224
 30
0.0
 10
13.1699199268
 20
9.4632107043
 30
0.0
 10
13.1737828904
 20
9.4624133115
 30
0.0
 10
13.1776166512
 20
9.4612655805
 30
0.0
 10
13.1814184851
 20
9.4597686706
 30
0.0
 10
13.1851864419
 20
9.4579239278
 30
0.0
 10
13.188918548
 20
9.4557327272
 30
0.0
 10
13.1926131458
 20
9.4531967239
 30
0.0
 10
13.1962685284
 20
9.4503174355
 30
0.0
 10
13.1998831622
 20
9.447096604
 30
0.0
 10
13.2034554795
 20
9.4435359715
 30
0.0
 10
13.2069838873
 20
9.4396373726
 30
0.0
 10
13.2104668884
 20
9.4354028342
 30
0.0
 10
13.2139028205
 20
9.430834408
 30
0.0
 10
13.2172901734
 20
9.4259344017
 30
0.0
 10
13.220627311
 20
9.4207051993
 30
0.0
 10
13.2239126462
 20
9.4151493795
 30
0.0
 10
13.2271446322
 20
9.4092696938
 30
0.0
 10
13.230321627
 20
9.4030690174
 30
0.0
 10
13.2334421474
 20
9.3965504468
 30
0.0
 10
13.236504588
 20
9.3897171913
 30
0.0
 10
13.2395074643
 20
9.3825726572
 30
0.0
 10
13.2424492751
 20
9.375120402
 30
0.0
 10
13.2453285456
 20
9.367364121
 30
0.0
 10
13.2491390449
 20
9.3564595111
 30
0.0
 10
13.2537213244
 20
9.3420869042
 30
0.0
 10
13.2588699253
 20
9.3239393807
 30
0.0
 10
13.2637366098
 20
9.3046798677
 30
0.0
 10
13.2683115257
 20
9.284346918
 30
0.0
 10
13.2725853716
 20
9.2629810358
 30
0.0
 10
13.2765494515
 20
9.2406249606
 30
0.0
 10
13.2801956988
 20
9.2173234587
 30
0.0
 10
13.2835166953
 20
9.19312325
 30
0.0
 10
13.2865056815
 20
9.1680728916
 30
0.0
 10
13.2891565727
 20
9.1422226735
 30
0.0
 10
13.291463971
 20
9.1156245124
 30
0.0
 10
13.2934231741
 20
9.0883318467
 30
0.0
 10
13.2950301929
 20
9.0603995275
 30
0.0
 10
13.2962817537
 20
9.031883704
 30
0.0
 10
13.2971753017
 20
9.002841705
 30
0.0
 10
13.2977090057
 20
8.9733319234
 30
0.0
 10
13.2978817644
 20
8.943413693
 30
0.0
 10
13.2976931958
 20
8.9131471918
 30
0.0
 10
13.2971436909
 20
8.8825932383
 30
0.0
 10
13.295927998
 20
8.8414491283
 30
0.0
 10
13.2935141692
 20
8.7897538779
 30
0.0
 10
13.2892233171
 20
8.7277203679
 30
0.0
 10
13.2844964106
 20
8.6761803932
 30
0.0
 10
13.2800353328
 20
8.6352532192
 30
0.0
 10
13.2763723515
 20
8.6049061649
 30
0.0
 10
13.2723913191
 20
8.5748916835
 30
0.0
 10
13.2681002247
 20
8.5452700886
 30
0.0
 10
13.2635077333
 20
8.5161009565
 30
0.0
 10
13.2586231065
 20
8.4874429326
 30
0.0
 10
13.2534561993
 20
8.4593536333
 30
0.0
 10
13.2480174373
 20
8.4318895255
 30
0.0
 10
13.2423177957
 20
8.4051058116
 30
0.0
 10
13.2363687815
 20
8.3790563123
 30
0.0
 10
13.2301824122
 20
8.3537933546
 30
0.0
 10
13.2237711854
 20
8.3293676666
 30
0.0
 10
13.2171480548
 20
8.305828274
 30
0.0
 10
13.2103264043
 20
8.2832223964
 30
0.0
 10
13.2033200171
 20
8.2615953455
 30
0.0
 10
13.1961430523
 20
8.2409904105
 30
0.0
 10
13.1888100114
 20
8.2214487904
 30
0.0
 10
13.1813356884
 20
8.2030093916
 30
0.0
 10
13.1737351556
 20
8.1857091124
 30
0.0
 10
13.167215805
 20
8.1720747339
 30
0.0
 10
13.1619387315
 20
8.1617744139
 30
0.0
 10
13.1580177226
 20
8.1544700496
 30
0.0
 10
13.1540766196
 20
8.1474752026
 30
0.0
 10
13.1501173768
 20
8.1407933421
 30
0.0
 10
13.146141982
 20
8.1344277876
 30
0.0
 10
13.1421523686
 20
8.1283817316
 30
0.0
 10
13.1381505957
 20
8.1226581505
 30
0.0
 10
13.1341385568
 20
8.1172598982
 30
0.0
 10
13.1301182182
 20
8.1121895803
 30
0.0
 10
13.1260914435
 20
8.1074496742
 30
0.0
 10
13.1220603931
 20
8.1030427533
 30
0.0
 10
13.1193156349
 20
8.1002718169
 30
0.0
 10
13.1179425022
 20
8.0989454724
 30
0.0
  0
SPLINE
  5
3D5
100
AcDbEntity
  8
0
100
AcDbSpline
 62
7
  6
CONTINUOUS
 70
0
 71
3
 72
27
 73
23
 74
0
 42
0.0000001
 43
0.0000001
 44
0.0000000001
 40
0.0
 40
0.0
 40
0.0
 40
0.0
 40
0.062200974
 40
0.0932503179
 40
0.1242682267
 40
0.1862183615
 40
0.2481002854
 40
0.2790336516
 40
0.3099655958
 40
0.3718363198
 40
0.4337660659
 40
0.4957977566
 40
0.5579729725
 40
0.620330935
 40
0.6829075056
 40
0.7142932304
 40
0.745744984
 40
0.8088482425
 40
0.8722484956
 40
0.9040693541
 40
0.9359703651
 40
1.0
 40
1.0
 40
1.0
 40
1.0
 10
10.957581824
 20
8.4425062074
 30
0.0
 10
10.955422824
 20
8.4382620044
 30
0.0
 10
10.951961862
 20
8.4320094356
 30
0.0
 10
10.9469183737
 20
8.4239413553
 30
0.0
 10
10.941601619
 20
8.4160733753
 30
0.0
 10
10.9344408445
 20
8.4066124899
 30
0.0
 10
10.9266198193
 20
8.3976978954
 30
0.0
 10
10.9199912404
 20
8.390927141
 30
0.0
 10
10.9131203492
 20
8.3844037274
 30
0.0
 10
10.9040853742
 20
8.3767251503
 30
0.0
 10
10.8925847762
 20
8.3683295385
 30
0.0
 10
10.8804737056
 20
8.3607963129
 30
0.0
 10
10.8678073936
 20
8.3541682967
 30
0.0
 10
10.8546453441
 20
8.34848394
 30
0.0
 10
10.8433255675
 20
8.3445648146
 30
0.0
 10
10.8340905905
 20
8.3419320913
 30
0.0
 10
10.8247253352
 20
8.3396331308
 30
0.0
 10
10.8128285303
 20
8.3374037531
 30
0.0
 10
10.8007722988
 20
8.33605066
 30
0.0
 10
10.7910544277
 20
8.3354949048
 30
0.0
 10
10.7812750216
 20
8.3352912585
 30
0.0
 10
10.7739268369
 20
8.3355375334
 30
0.0
 10
10.7690368103
 20
8.3358766579
 30
0.0
  0
SPLINE
  5
3D6
100
AcDbEntity
  8
0
100
AcDbSpline
 62
7
  6
CONTINUOUS
 70
0
 71
3
 72
39
 73
35
 74
0
 42
0.0000001
 43
0.0000001
 44
0.0000000001
 40
0.0
 40
0.0
 40
0.0
 40
0.0
 40
0.0314026137
 40
0.0630094723
 40
0.094807121
 40
0.126773443
 40
0.1588809721
 40
0.1910970223
 40
0.2233851135
 40
0.2557062447
 40
0.2880202663
 40
0.320287276
 40
0.3524690077
 40
0.3845301837
 40
0.4164397922
 40
0.4481722491
 40
0.4797084087
 40
0.5110363814
 40
0.5421521213
 40
0.5730597421
 40
0.6037715187
 40
0.6343075558
 40
0.6646951126
 40
0.6949675911
 40
0.7251632193
 40
0.7553234784
 40
0.7854913547
 40
0.8157095097
 40
0.8460184685
 40
0.8764549271
 40
0.9070502251
 40
0.9378293516
 40
0.9688091131
 40
1.0
 40
1.0
 40
1.0
 40
1.0
 10
9.7422576392
 20
8.9921699584
 30
0.0
 10
9.7463474473
 20
8.9918863293
 30
0.0
 10
9.7545311441
 20
8.9909141871
 30
0.0
 10
9.7666417695
 20
8.988273835
 30
0.0
 10
9.7785176508
 20
8.9844720479
 30
0.0
 10
9.7900432645
 20
8.9795456586
 30
0.0
 10
9.8011083877
 20
8.9735422931
 30
0.0
 10
9.8116067522
 20
8.9665197629
 30
0.0
 10
9.8214376791
 20
8.9585456336
 30
0.0
 10
9.8305068487
 20
8.949696534
 30
0.0
 10
9.8387272234
 20
8.9400574257
 30
0.0
 10
9.8460198562
 20
8.9297208064
 30
0.0
 10
9.8523146337
 20
8.9187858378
 30
0.0
 10
9.8575509533
 20
8.9073574248
 30
0.0
 10
9.8616783183
 20
8.8955452328
 30
0.0
 10
9.8646567923
 20
8.8834626432
 30
0.0
 10
9.8664573942
 20
8.871225698
 30
0.0
 10
9.8670623898
 20
8.8589520137
 30
0.0
 10
9.8664654876
 20
8.8467596795
 30
0.0
 10
9.8646719722
 20
8.8347661375
 30
0.0
 10
9.8616986579
 20
8.8230870579
 30
0.0
 10
9.8575737737
 20
8.8118352263
 30
0.0
 10
9.8523367412
 20
8.8011194382
 30
0.0
 10
9.8460378298
 20
8.7910434195
 30
0.0
 10
9.8387377309
 20
8.7817047557
 30
0.0
 10
9.8305069591
 20
8.7731938935
 30
0.0
 10
9.8214251408
 20
8.7655932225
 30
0.0
 10
9.8115802111
 20
8.7589762323
 30
0.0
 10
9.8010675223
 20
8.7534067769
 30
0.0
 10
9.7899888333
 20
8.7489384505
 30
0.0
 10
9.778451427
 20
8.7456140124
 30
0.0
 10
9.7665664455
 20
8.7434652159
 30
0.0
 10
9.7544500327
 20
8.7425120839
 30
0.0
 10
9.7463198725
 20
8.7426793636
 30
0.0
 10
9.7422576392
 20
8.7429610805
 30
0.0
  0
SPLINE
  5
3D7
100
AcDbEntity
  8
0
100
AcDbSpline
 62
7
  6
CONTINUOUS
 70
0
 71
3
 72
42
 73
38
 74
0
 42
0.0000001
 43
0.0000001
 44
0.0000000001
 40
0.0
 40
0.0
 40
0.0
 40
0.0
 40
0.0299419634
 40
0.0449235299
 40
0.0599142017
 40
0.0899287029
 40
0.1200139772
 40
0.1350926626
 40
0.1501967046
 40
0.1804840506
 40
0.2108978877
 40
0.2414513551
 40
0.2721543675
 40
0.3030134354
 40
0.3340315696
 40
0.3652082675
 40
0.3965395775
 40
0.4280182343
 40
0.4596338596
 40
0.4913732188
 40
0.5232205284
 40
0.5551578047
 40
0.5871652463
 40
0.6192216448
 40
0.6513048151
 40
0.6833920402
 40
0.7154605222
 40
0.747487836
 40
0.7794523759
 40
0.8113337934
 40
0.8431134117
 40
0.8747746318
 40
0.9063032512
 40
0.9376879208
 40
0.9533258
 40
0.9689252634
 40
1.0
 40
1.0
 40
1.0
 40
1.0
 10
10.5280536952
 20
7.850863049
 30
0.0
 10
10.5244205561
 20
7.8473537274
 30
0.0
 10
10.5187566886
 20
7.8423023943
 30
0.0
 10
10.5108245698
 20
7.83603479
 30
0.0
 10
10.5026398529
 20
7.8300790712
 30
0.0
 10
10.4919601431
 20
7.8232399765
 30
0.0
 10
10.4807611793
 20
7.8172577479
 30
0.0
 10
10.4715249365
 20
7.8130019846
 30
0.0
 10
10.4620979001
 20
7.8090975411
 30
0.0
 10
10.4500034398
 20
7.8048991608
 30
0.0
 10
10.4350988508
 20
7.8009863757
 30
0.0
 10
10.4198690413
 20
7.7982144686
 30
0.0
 10
10.4043984127
 20
7.7965987319
 30
0.0
 10
10.3887719486
 20
7.7961477882
 30
0.0
 10
10.3730756301
 20
7.7968639325
 30
0.0
 10
10.3573957278
 20
7.798743028
 30
0.0
 10
10.3418183958
 20
7.8017745651
 30
0.0
 10
10.3264291866
 20
7.8059417193
 30
0.0
 10
10.3113125926
 20
7.8112214505
 30
0.0
 10
10.2965515869
 20
7.8175846333
 30
0.0
 10
10.282227175
 20
7.8249962191
 30
0.0
 10
10.2684179563
 20
7.833415429
 30
0.0
 10
10.2551996988
 20
7.8427959779
 30
0.0
 10
10.2426449282
 20
7.853086327
 30
0.0
 10
10.2308225351
 20
7.8642299652
 30
0.0
 10
10.2197974011
 20
7.8761657161
 30
0.0
 10
10.2096300463
 20
7.8888280711
 30
0.0
 10
10.2003763006
 20
7.9021475455
 30
0.0
 10
10.1920869998
 20
7.9160510519
 30
0.0
 10
10.1848077085
 20
7.9304623129
 30
0.0
 10
10.1785784732
 20
7.9453022141
 30
0.0
 10
10.17343359
 20
7.9604894535
 30
0.0
 10
10.1694014811
 20
7.9759401669
 30
0.0
 10
10.1669841422
 20
7.9889822441
 30
0.0
 10
10.1656280868
 20
7.999461395
 30
0.0
 10
10.1646603033
 20
8.0099305183
 30
0.0
 10
10.1643672678
 20
8.017808463
 30
0.0
 10
10.1643672678
 20
8.0230508042
 30
0.0
  0
SPLINE
  5
3D8
100
AcDbEntity
  8
0
100
AcDbSpline
 62
7
  6
CONTINUOUS
 70
0
 71
3
 72
41
 73
37
 74
0
 42
0.0000001
 43
0.0000001
 44
0.0000000001
 40
0.0
 40
0.0
 40
0.0
 40
0.0
 40
0.0300821846
 40
0.0601249677
 40
0.0901567989
 40
0.1202063636
 40
0.1503017648
 40
0.1804697351
 40
0.2107349051
 40
0.2411191527
 40
0.2716410505
 40
0.3023154243
 40
0.3331530298
 40
0.3641603486
 40
0.3953394996
 40
0.4266882618
 40
0.4582001981
 40
0.4898648721
 40
0.5216681478
 40
0.5535925601
 40
0.5856177514
 40
0.6177209595
 40
0.6498775509
 40
0.6820615894
 40
0.7142464326
 40
0.7303336168
 40
0.746411012
 40
0.7785177955
 40
0.8105474018
 40
0.8265288047
 40
0.8424823668
 40
0.8742901324
 40
0.9059584497
 40
0.9374728128
 40
0.9688219871
 40
1.0
 40
1.0
 40
1.0
 40
1.0
 10
10.0411963369
 20
7.493473863
 30
0.0
 10
10.0381093389
 20
7.4889426302
 30
0.0
 10
10.0315478093
 20
7.4801457634
 30
0.0
 10
10.0206150683
 20
7.4678523889
 30
0.0
 10
10.0086696428
 20
7.4565473821
 30
0.0
 10
9.9957904453
 20
7.4463040876
 30
0.0
 10
9.9820610886
 20
7.4371871052
 30
0.0
 10
9.9675707075
 20
7.4292540355
 30
0.0
 10
9.9524129568
 20
7.4225546136
 30
0.0
 10
9.9366854815
 20
7.4171306197
 30
0.0
 10
9.9204892556
 20
7.4130156463
 30
0.0
 10
9.9039279515
 20
7.4102349714
 30
0.0
 10
9.8871073021
 20
7.4088054732
 30
0.0
 10
9.8701344741
 20
7.4087355821
 30
0.0
 10
9.8531174433
 20
7.4100252712
 30
0.0
 10
9.8361643759
 20
7.4126660828
 30
0.0
 10
9.8193830118
 20
7.4166411894
 30
0.0
 10
9.8028800512
 20
7.4219254887
 30
0.0
 10
9.7867605414
 20
7.428485735
 30
0.0
 10
9.7711272643
 20
7.4362806939
 30
0.0
 10
9.7560801169
 20
7.4452613719
 30
0.0
 10
9.7417155498
 20
7.4553712082
 30
0.0
 10
9.7281257978
 20
7.4665465727
 30
0.0
 10
9.7153989162
 20
7.4787163238
 30
0.0
 10
9.7055777151
 20
7.4896258419
 30
0.0
 10
9.6982313888
 20
7.4987715595
 30
0.0
 10
9.6912417824
 20
7.5081750448
 30
0.0
 10
9.683187136
 20
7.5203936925
 30
0.0
 10
9.6760865241
 20
7.5331705461
 30
0.0
 10
9.6710127912
 20
7.5436696944
 30
0.0
 10
9.6663595783
 20
7.55431766
 30
0.0
 10
9.661327959
 20
7.5679087367
 30
0.0
 10
9.6565846244
 20
7.5845771195
 30
0.0
 10
9.6531722914
 20
7.6014838341
 30
0.0
 10
9.6511140018
 20
7.6185172153
 30
0.0
 10
9.6506525662
 20
7.6299187309
 30
0.0
 10
9.6506525662
 20
7.6356013075
 30
0.0
  0
SPLINE
  5
3D9
100
AcDbEntity
  8
0
100
AcDbSpline
 62
7
  6
CONTINUOUS
 70
0
 71
3
 72
15
 73
11
 74
0
 42
0.0000001
 43
0.0000001
 44
0.0000000001
 40
0.0
 40
0.0
 40
0.0
 40
0.0
 40
0.1233171261
 40
0.2468171865
 40
0.3706749939
 40
0.4950495802
 40
0.6200773232
 40
0.7458671315
 40
0.872492731
 40
1.0
 40
1.0
 40
1.0
 40
1.0
 10
11.875317965
 20
6.9015646623
 30
0.0
 10
11.8728944127
 20
6.8992237108
 30
0.0
 10
11.8677872409
 20
6.8947957821
 30
0.0
 10
11.8594518333
 20
6.8890096795
 30
0.0
 10
11.8505201613
 20
6.8841320719
 30
0.0
 10
11.8410836487
 20
6.8802130922
 30
0.0
 10
11.8312374838
 20
6.8772916485
 30
0.0
 10
11.8210808525
 20
6.8753969512
 30
0.0
 10
11.8107174308
 20
6.8745474288
 30
0.0
 10
11.8037609999
 20
6.8746831166
 30
0.0
 10
11.8002853371
 20
6.8749241547
 30
0.0
  0
SPLINE
  5
3DA
100
AcDbEntity
  8
0
100
AcDbSpline
 62
7
  6
CONTINUOUS
 70
0
 71
3
 72
42
 73
38
 74
0
 42
0.0000001
 43
0.0000001
 44
0.0000000001
 40
0.0
 40
0.0
 40
0.0
 40
0.0
 40
0.0299419634
 40
0.0449235299
 40
0.0599142017
 40
0.0899287029
 40
0.1200139772
 40
0.1350926626
 40
0.1501967046
 40
0.1804840506
 40
0.2108978877
 40
0.2414513551
 40
0.2721543675
 40
0.3030134354
 40
0.3340315696
 40
0.3652082675
 40
0.3965395775
 40
0.4280182343
 40
0.4596338596
 40
0.4913732188
 40
0.5232205284
 40
0.5551578047
 40
0.5871652463
 40
0.6192216448
 40
0.6513048151
 40
0.6833920402
 40
0.7154605222
 40
0.747487836
 40
0.7794523759
 40
0.8113337934
 40
0.8431134117
 40
0.8747746318
 40
0.9063032512
 40
0.9376879208
 40
0.9533258
 40
0.9689252634
 40
1.0
 40
1.0
 40
1.0
 40
1.0
 10
9.2308152099
 20
9.60028742
 30
0.0
 10
9.2271820708
 20
9.5967780984
 30
0.0
 10
9.2215182033
 20
9.5917267653
 30
0.0
 10
9.2135860845
 20
9.5854591609
 30
0.0
 10
9.2054013676
 20
9.5795034421
 30
0.0
 10
9.1947216578
 20
9.5726643475
 30
0.0
 10
9.183522694
 20
9.5666821189
 30
0.0
 10
9.1742864513
 20
9.5624263556
 30
0.0
 10
9.1648594148
 20
9.558521912
 30
0.0
 10
9.1527649545
 20
9.5543235318
 30
0.0
 10
9.1378603655
 20
9.5504107467
 30
0.0
 10
9.122630556
 20
9.5476388396
 30
0.0
 10
9.1071599274
 20
9.5460231029
 30
0.0
 10
9.0915334633
 20
9.5455721592
 30
0.0
 10
9.0758371448
 20
9.5462883035
 30
0.0
 10
9.0601572425
 20
9.548167399
 30
0.0
 10
9.0445799105
 20
9.5511989361
 30
0.0
 10
9.0291907014
 20
9.5553660902
 30
0.0
 10
9.0140741073
 20
9.5606458215
 30
0.0
 10
8.9993131016
 20
9.5670090043
 30
0.0
 10
8.9849886897
 20
9.5744205901
 30
0.0
 10
8.971179471
 20
9.5828398
 30
0.0
 10
8.9579612135
 20
9.5922203488
 30
0.0
 10
8.9454064429
 20
9.602510698
 30
0.0
 10
8.9335840498
 20
9.6136543361
 30
0.0
 10
8.9225589158
 20
9.6255900871
 30
0.0
 10
8.912391561
 20
9.638252442
 30
0.0
 10
8.9031378153
 20
9.6515719164
 30
0.0
 10
8.8948485145
 20
9.6654754229
 30
0.0
 10
8.8875692232
 20
9.6798866839
 30
0.0
 10
8.8813399879
 20
9.6947265851
 30
0.0
 10
8.8761951047
 20
9.7099138244
 30
0.0
 10
8.8721629958
 20
9.7253645379
 30
0.0
 10
8.8697456569
 20
9.7384066151
 30
0.0
 10
8.8683896015
 20
9.748885766
 30
0.0
 10
8.867421818
 20
9.7593548892
 30
0.0
 10
8.8671287825
 20
9.7672328339
 30
0.0
 10
8.8671287825
 20
9.7724751752
 30
0.0
  0
SPLINE
  5
3DB
100
AcDbEntity
  8
0
100
AcDbSpline
 62
7
  6
CONTINUOUS
 70
0
 71
3
 72
42
 73
38
 74
0
 42
0.0000001
 43
0.0000001
 44
0.0000000001
 40
0.0
 40
0.0
 40
0.0
 40
0.0
 40
0.0299419634
 40
0.0449235299
 40
0.0599142017
 40
0.0899287029
 40
0.1200139772
 40
0.1350926626
 40
0.1501967046
 40
0.1804840506
 40
0.2108978877
 40
0.2414513551
 40
0.2721543675
 40
0.3030134354
 40
0.3340315696
 40
0.3652082675
 40
0.3965395775
 40
0.4280182343
 40
0.4596338596
 40
0.4913732188
 40
0.5232205284
 40
0.5551578047
 40
0.5871652463
 40
0.6192216448
 40
0.6513048151
 40
0.6833920402
 40
0.7154605222
 40
0.747487836
 40
0.7794523759
 40
0.8113337934
 40
0.8431134117
 40
0.8747746318
 40
0.9063032512
 40
0.9376879208
 40
0.9533258
 40
0.9689252634
 40
1.0
 40
1.0
 40
1.0
 40
1.0
 10
12.2483677113
 20
9.3910194433
 30
0.0
 10
12.2447345721
 20
9.3875101217
 30
0.0
 10
12.2390707047
 20
9.3824587885
 30
0.0
 10
12.2311385859
 20
9.3761911842
 30
0.0
 10
12.2229538689
 20
9.3702354654
 30
0.0
 10
12.2122741591
 20
9.3633963707
 30
0.0
 10
12.2010751954
 20
9.3574141422
 30
0.0
 10
12.1918389526
 20
9.3531583788
 30
0.0
 10
12.1824119162
 20
9.3492539353
 30
0.0
 10
12.1703174559
 20
9.3450555551
 30
0.0
 10
12.1554128668
 20
9.3411427699
 30
0.0
 10
12.1401830573
 20
9.3383708629
 30
0.0
 10
12.1247124288
 20
9.3367551262
 30
0.0
 10
12.1090859646
 20
9.3363041825
 30
0.0
 10
12.0933896461
 20
9.3370203268
 30
0.0
 10
12.0777097438
 20
9.3388994222
 30
0.0
 10
12.0621324118
 20
9.3419309594
 30
0.0
 10
12.0467432027
 20
9.3460981135
 30
0.0
 10
12.0316266087
 20
9.3513778447
 30
0.0
 10
12.0168656029
 20
9.3577410276
 30
0.0
 10
12.002541191
 20
9.3651526133
 30
0.0
 10
11.9887319723
 20
9.3735718232
 30
0.0
 10
11.9755137148
 20
9.3829523721
 30
0.0
 10
11.9629589442
 20
9.3932427212
 30
0.0
 10
11.9511365512
 20
9.4043863594
 30
0.0
 10
11.9401114172
 20
9.4163221104
 30
0.0
 10
11.9299440624
 20
9.4289844653
 30
0.0
 10
11.9206903167
 20
9.4423039397
 30
0.0
 10
11.9124010159
 20
9.4562074462
 30
0.0
 10
11.9051217246
 20
9.4706187072
 30
0.0
 10
11.8988924892
 20
9.4854586084
 30
0.0
 10
11.8937476061
 20
9.5006458477
 30
0.0
 10
11.8897154971
 20
9.5160965611
 30
0.0
 10
11.8872981582
 20
9.5291386384
 30
0.0
 10
11.8859421028
 20
9.5396177893
 30
0.0
 10
11.8849743193
 20
9.5500869125
 30
0.0
 10
11.8846812838
 20
9.5579648572
 30
0.0
 10
11.8846812838
 20
9.5632071985
 30
0.0
  0
SPLINE
  5
3DC
100
AcDbEntity
  8
0
100
AcDbSpline
 62
7
  6
CONTINUOUS
 70
0
 71
3
 72
15
 73
11
 74
0
 42
0.0000001
 43
0.0000001
 44
0.0000000001
 40
0.0
 40
0.0
 40
0.0
 40
0.0
 40
0.1233171261
 40
0.2468171865
 40
0.3706749939
 40
0.4950495802
 40
0.6200773232
 40
0.7458671315
 40
0.872492731
 40
1.0
 40
1.0
 40
1.0
 40
1.0
 10
9.8227254625
 20
7.0439124358
 30
0.0
 10
9.8203019102
 20
7.0415714844
 30
0.0
 10
9.8151947384
 20
7.0371435556
 30
0.0
 10
9.8068593308
 20
7.031357453
 30
0.0
 10
9.7979276588
 20
7.0264798455
 30
0.0
 10
9.7884911462
 20
7.0225608657
 30
0.0
 10
9.7786449813
 20
7.019639422
 30
0.0
 10
9.76848835
 20
7.0177447247
 30
0.0
 10
9.7581249283
 20
7.0168952023
 30
0.0
 10
9.7511684974
 20
7.0170308902
 30
0.0
 10
9.7476928347
 20
7.0172719282
 30
0.0
  0
SPLINE
  5
3DD
100
AcDbEntity
  8
0
100
AcDbSpline
 62
7
  6
CONTINUOUS
 70
0
 71
3
 72
42
 73
38
 74
0
 42
0.0000001
 43
0.0000001
 44
0.0000000001
 40
0.0
 40
0.0
 40
0.0
 40
0.0
 40
0.0299419634
 40
0.0449235299
 40
0.0599142017
 40
0.0899287029
 40
0.1200139772
 40
0.1350926626
 40
0.1501967046
 40
0.1804840506
 40
0.2108978877
 40
0.2414513551
 40
0.2721543675
 40
0.3030134354
 40
0.3340315696
 40
0.3652082675
 40
0.3965395775
 40
0.4280182343
 40
0.4596338596
 40
0.4913732188
 40
0.5232205284
 40
0.5551578047
 40
0.5871652463
 40
0.6192216448
 40
0.6513048151
 40
0.6833920402
 40
0.7154605222
 40
0.747487836
 40
0.7794523759
 40
0.8113337934
 40
0.8431134117
 40
0.8747746318
 40
0.9063032512
 40
0.9376879208
 40
0.9533258
 40
0.9689252634
 40
1.0
 40
1.0
 40
1.0
 40
1.0
 10
9.2308152099
 20
6.0997722072
 30
0.0
 10
9.2271820708
 20
6.0962628856
 30
0.0
 10
9.2215182033
 20
6.0912115525
 30
0.0
 10
9.2135860845
 20
6.0849439481
 30
0.0
 10
9.2054013676
 20
6.0789882293
 30
0.0
 10
9.1947216578
 20
6.0721491347
 30
0.0
 10
9.183522694
 20
6.0661669061
 30
0.0
 10
9.1742864513
 20
6.0619111428
 30
0.0
 10
9.1648594148
 20
6.0580066992
 30
0.0
 10
9.1527649545
 20
6.053808319
 30
0.0
 10
9.1378603655
 20
6.0498955339
 30
0.0
 10
9.122630556
 20
6.0471236268
 30
0.0
 10
9.1071599274
 20
6.0455078901
 30
0.0
 10
9.0915334633
 20
6.0450569464
 30
0.0
 10
9.0758371448
 20
6.0457730907
 30
0.0
 10
9.0601572425
 20
6.0476521862
 30
0.0
 10
9.0445799105
 20
6.0506837233
 30
0.0
 10
9.0291907014
 20
6.0548508774
 30
0.0
 10
9.0140741073
 20
6.0601306087
 30
0.0
 10
8.9993131016
 20
6.0664937915
 30
0.0
 10
8.9849886897
 20
6.0739053773
 30
0.0
 10
8.971179471
 20
6.0823245872
 30
0.0
 10
8.9579612135
 20
6.091705136
 30
0.0
 10
8.9454064429
 20
6.1019954852
 30
0.0
 10
8.9335840498
 20
6.1131391233
 30
0.0
 10
8.9225589158
 20
6.1250748743
 30
0.0
 10
8.912391561
 20
6.1377372292
 30
0.0
 10
8.9031378153
 20
6.1510567036
 30
0.0
 10
8.8948485145
 20
6.1649602101
 30
0.0
 10
8.8875692232
 20
6.1793714711
 30
0.0
 10
8.8813399879
 20
6.1942113723
 30
0.0
 10
8.8761951047
 20
6.2093986116
 30
0.0
 10
8.8721629958
 20
6.2248493251
 30
0.0
 10
8.8697456569
 20
6.2378914023
 30
0.0
 10
8.8683896015
 20
6.2483705532
 30
0.0
 10
8.867421818
 20
6.2588396764
 30
0.0
 10
8.8671287825
 20
6.2667176211
 30
0.0
 10
8.8671287825
 20
6.2719599624
 30
0.0
  0
SPLINE
  5
3DE
100
AcDbEntity
  8
0
100
AcDbSpline
 62
7
  6
CONTINUOUS
 70
0
 71
3
 72
15
 73
11
 74
0
 42
0.0000001
 43
0.0000001
 44
0.0000000001
 40
0.0
 40
0.0
 40
0.0
 40
0.0
 40
0.1233171261
 40
0.2468171865
 40
0.3706749939
 40
0.4950495802
 40
0.6200773232
 40
0.7458671315
 40
0.872492731
 40
1.0
 40
1.0
 40
1.0
 40
1.0
 10
11.875317965
 20
8.6527882541
 30
0.0
 10
11.8728944127
 20
8.6504473027
 30
0.0
 10
11.8677872409
 20
8.6460193739
 30
0.0
 10
11.8594518333
 20
8.6402332713
 30
0.0
 10
11.8505201613
 20
8.6353556637
 30
0.0
 10
11.8410836487
 20
8.631436684
 30
0.0
 10
11.8312374838
 20
8.6285152403
 30
0.0
 10
11.8210808525
 20
8.626620543
 30
0.0
 10
11.8107174308
 20
8.6257710206
 30
0.0
 10
11.8037609999
 20
8.6259067085
 30
0.0
 10
11.8002853371
 20
8.6261477465
 30
0.0
  0
SPLINE
  5
3DF
100
AcDbEntity
  8
0
100
AcDbSpline
 62
7
  6
CONTINUOUS
 70
0
 71
3
 72
42
 73
38
 74
0
 42
0.0000001
 43
0.0000001
 44
0.0000000001
 40
0.0
 40
0.0
 40
0.0
 40
0.0
 40
0.0299419634
 40
0.0449235299
 40
0.0599142017
 40
0.0899287029
 40
0.1200139772
 40
0.1350926626
 40
0.1501967046
 40
0.1804840506
 40
0.2108978877
 40
0.2414513551
 40
0.2721543675
 40
0.3030134354
 40
0.3340315696
 40
0.3652082675
 40
0.3965395775
 40
0.4280182343
 40
0.4596338596
 40
0.4913732188
 40
0.5232205284
 40
0.5551578047
 40
0.5871652463
 40
0.6192216448
 40
0.6513048151
 40
0.6833920402
 40
0.7154605222
 40
0.747487836
 40
0.7794523759
 40
0.8113337934
 40
0.8431134117
 40
0.8747746318
 40
0.9063032512
 40
0.9376879208
 40
0.9533258
 40
0.9689252634
 40
1.0
 40
1.0
 40
1.0
 40
1.0
 10
12.2483677113
 20
5.8905042304
 30
0.0
 10
12.2447345721
 20
5.8869949089
 30
0.0
 10
12.2390707047
 20
5.8819435757
 30
0.0
 10
12.2311385859
 20
5.8756759714
 30
0.0
 10
12.2229538689
 20
5.8697202526
 30
0.0
 10
12.2122741591
 20
5.8628811579
 30
0.0
 10
12.2010751954
 20
5.8568989294
 30
0.0
 10
12.1918389526
 20
5.852643166
 30
0.0
 10
12.1824119162
 20
5.8487387225
 30
0.0
 10
12.1703174559
 20
5.8445403422
 30
0.0
 10
12.1554128668
 20
5.8406275571
 30
0.0
 10
12.1401830573
 20
5.8378556501
 30
0.0
 10
12.1247124288
 20
5.8362399134
 30
0.0
 10
12.1090859646
 20
5.8357889697
 30
0.0
 10
12.0933896461
 20
5.836505114
 30
0.0
 10
12.0777097438
 20
5.8383842094
 30
0.0
 10
12.0621324118
 20
5.8414157466
 30
0.0
 10
12.0467432027
 20
5.8455829007
 30
0.0
 10
12.0316266087
 20
5.8508626319
 30
0.0
 10
12.0168656029
 20
5.8572258148
 30
0.0
 10
12.002541191
 20
5.8646374005
 30
0.0
 10
11.9887319723
 20
5.8730566104
 30
0.0
 10
11.9755137148
 20
5.8824371593
 30
0.0
 10
11.9629589442
 20
5.8927275084
 30
0.0
 10
11.9511365512
 20
5.9038711466
 30
0.0
 10
11.9401114172
 20
5.9158068976
 30
0.0
 10
11.9299440624
 20
5.9284692525
 30
0.0
 10
11.9206903167
 20
5.9417887269
 30
0.0
 10
11.9124010159
 20
5.9556922334
 30
0.0
 10
11.9051217246
 20
5.9701034944
 30
0.0
 10
11.8988924892
 20
5.9849433956
 30
0.0
 10
11.8937476061
 20
6.0001306349
 30
0.0
 10
11.8897154971
 20
6.0155813483
 30
0.0
 10
11.8872981582
 20
6.0286234255
 30
0.0
 10
11.8859421028
 20
6.0391025765
 30
0.0
 10
11.8849743193
 20
6.0495716997
 30
0.0
 10
11.8846812838
 20
6.0574496444
 30
0.0
 10
11.8846812838
 20
6.0626919857
 30
0.0
  0
SPLINE
  5
3E0
100
AcDbEntity
  8
0
100
AcDbSpline
 62
7
  6
CONTINUOUS
 70
0
 71
3
 72
15
 73
11
 74
0
 42
0.0000001
 43
0.0000001
 44
0.0000000001
 40
0.0
 40
0.0
 40
0.0
 40
0.0
 40
0.1233171261
 40
0.2468171865
 40
0.3706749939
 40
0.4950495802
 40
0.6200773232
 40
0.7458671315
 40
0.872492731
 40
1.0
 40
1.0
 40
1.0
 40
1.0
 10
9.8227254625
 20
8.7951360276
 30
0.0
 10
9.8203019102
 20
8.7927950762
 30
0.0
 10
9.8151947384
 20
8.7883671474
 30
0.0
 10
9.8068593308
 20
8.7825810448
 30
0.0
 10
9.7979276588
 20
8.7777034373
 30
0.0
 10
9.7884911462
 20
8.7737844576
 30
0.0
 10
9.7786449813
 20
8.7708630139
 30
0.0
 10
9.76848835
 20
8.7689683165
 30
0.0
 10
9.7581249283
 20
8.7681187941
 30
0.0
 10
9.7511684974
 20
8.768254482
 30
0.0
 10
9.7476928347
 20
8.76849552
 30
0.0
  0
SPLINE
  5
3E1
100
AcDbEntity
  8
0
100
AcDbSpline
 62
4
  6
CONTINUOUS
 70
0
 71
3
 72
313
 73
309
 74
0
 42
0.0000001
 43
0.0000001
 44
0.0000000001
 40
0.0
 40
0.0
 40
0.0
 40
0.0
 40
0.015625
 40
0.0234375
 40
0.03125
 40
0.0390625
 40
0.046875
 40
0.05078125
 40
0.0546875
 40
0.056640625
 40
0.05859375
 40
0.060546875
 40
0.0615234375
 40
0.0620117188
 40
0.0625
 40
0.0629882812
 40
0.0634765625
 40
0.064453125
 40
0.06640625
 40
0.068359375
 40
0.0703125
 40
0.07421875
 40
0.078125
 40
0.0859375
 40
0.09375
 40
0.1015625
 40
0.109375
 40
0.11328125
 40
0.1171875
 40
0.119140625
 40
0.12109375
 40
0.123046875
 40
0.1240234375
 40
0.1245117188
 40
0.125
 40
0.1254882812
 40
0.1259765625
 40
0.126953125
 40
0.12890625
 40
0.130859375
 40
0.1328125
 40
0.13671875
 40
0.140625
 40
0.1484375
 40
0.15625
 40
0.1640625
 40
0.171875
 40
0.17578125
 40
0.1796875
 40
0.181640625
 40
0.18359375
 40
0.185546875
 40
0.1865234375
 40
0.1870117188
 40
0.1875
 40
0.1879882812
 40
0.1884765625
 40
0.189453125
 40
0.19140625
 40
0.193359375
 40
0.1953125
 40
0.19921875
 40
0.203125
 40
0.2109375
 40
0.21875
 40
0.2265625
 40
0.234375
 40
0.23828125
 40
0.2421875
 40
0.244140625
 40
0.24609375
 40
0.248046875
 40
0.2490234375
 40
0.2495117188
 40
0.25
 40
0.2504882812
 40
0.2509765625
 40
0.251953125
 40
0.25390625
 40
0.255859375
 40
0.2578125
 40
0.26171875
 40
0.265625
 40
0.2734375
 40
0.28125
 40
0.2890625
 40
0.296875
 40
0.30078125
 40
0.3046875
 40
0.306640625
 40
0.30859375
 40
0.310546875
 40
0.3115234375
 40
0.3120117188
 40
0.3125
 40
0.3129882812
 40
0.3134765625
 40
0.314453125
 40
0.31640625
 40
0.318359375
 40
0.3203125
 40
0.32421875
 40
0.328125
 40
0.3359375
 40
0.34375
 40
0.3515625
 40
0.359375
 40
0.36328125
 40
0.3671875
 40
0.369140625
 40
0.37109375
 40
0.373046875
 40
0.3740234375
 40
0.3745117188
 40
0.375
 40
0.3754882812
 40
0.3759765625
 40
0.376953125
 40
0.37890625
 40
0.380859375
 40
0.3828125
 40
0.38671875
 40
0.390625
 40
0.3984375
 40
0.40625
 40
0.4140625
 40
0.421875
 40
0.42578125
 40
0.4296875
 40
0.431640625
 40
0.43359375
 40
0.435546875
 40
0.4365234375
 40
0.4370117188
 40
0.4375
 40
0.4379882812
 40
0.4384765625
 40
0.439453125
 40
0.44140625
 40
0.443359375
 40
0.4453125
 40
0.44921875
 40
0.453125
 40
0.4609375
 40
0.46875
 40
0.4765625
 40
0.484375
 40
0.48828125
 40
0.4921875
 40
0.494140625
 40
0.49609375
 40
0.498046875
 40
0.4990234375
 40
0.4995117188
 40
0.5
 40
0.5004882812
 40
0.5009765625
 40
0.501953125
 40
0.50390625
 40
0.505859375
 40
0.5078125
 40
0.51171875
 40
0.515625
 40
0.5234375
 40
0.53125
 40
0.5390625
 40
0.546875
 40
0.55078125
 40
0.5546875
 40
0.556640625
 40
0.55859375
 40
0.560546875
 40
0.5615234375
 40
0.5620117188
 40
0.5625
 40
0.5629882812
 40
0.5634765625
 40
0.564453125
 40
0.56640625
 40
0.568359375
 40
0.5703125
 40
0.57421875
 40
0.578125
 40
0.5859375
 40
0.59375
 40
0.6015625
 40
0.609375
 40
0.61328125
 40
0.6171875
 40
0.619140625
 40
0.62109375
 40
0.623046875
 40
0.6240234375
 40
0.6245117188
 40
0.625
 40
0.6254882812
 40
0.6259765625
 40
0.626953125
 40
0.62890625
 40
0.630859375
 40
0.6328125
 40
0.63671875
 40
0.640625
 40
0.6484375
 40
0.65625
 40
0.6640625
 40
0.671875
 40
0.67578125
 40
0.6796875
 40
0.681640625
 40
0.68359375
 40
0.685546875
 40
0.6865234375
 40
0.6870117188
 40
0.6875
 40
0.6879882812
 40
0.6884765625
 40
0.689453125
 40
0.69140625
 40
0.693359375
 40
0.6953125
 40
0.69921875
 40
0.703125
 40
0.7109375
 40
0.71875
 40
0.7265625
 40
0.734375
 40
0.73828125
 40
0.7421875
 40
0.744140625
 40
0.74609375
 40
0.748046875
 40
0.7490234375
 40
0.7495117188
 40
0.75
 40
0.7504882812
 40
0.7509765625
 40
0.751953125
 40
0.75390625
 40
0.755859375
 40
0.7578125
 40
0.76171875
 40
0.765625
 40
0.7734375
 40
0.78125
 40
0.7890625
 40
0.796875
 40
0.80078125
 40
0.8046875
 40
0.806640625
 40
0.80859375
 40
0.810546875
 40
0.8115234375
 40
0.8120117188
 40
0.8125
 40
0.8129882812
 40
0.8134765625
 40
0.814453125
 40
0.81640625
 40
0.818359375
 40
0.8203125
 40
0.82421875
 40
0.828125
 40
0.8359375
 40
0.84375
 40
0.8515625
 40
0.859375
 40
0.86328125
 40
0.8671875
 40
0.869140625
 40
0.87109375
 40
0.873046875
 40
0.8740234375
 40
0.8745117188
 40
0.875
 40
0.8754882812
 40
0.8759765625
 40
0.876953125
 40
0.87890625
 40
0.880859375
 40
0.8828125
 40
0.88671875
 40
0.890625
 40
0.8984375
 40
0.90625
 40
0.9140625
 40
0.921875
 40
0.92578125
 40
0.9296875
 40
0.931640625
 40
0.93359375
 40
0.935546875
 40
0.9365234375
 40
0.9370117188
 40
0.9375
 40
0.9379882812
 40
0.9384765625
 40
0.939453125
 40
0.94140625
 40
0.943359375
 40
0.9453125
 40
0.94921875
 40
0.953125
 40
0.9609375
 40
0.96875
 40
0.9765625
 40
0.984375
 40
1.0
 40
1.0
 40
1.0
 40
1.0
 10
10.1620490377
 20
6.6770971608
 30
0.0
 10
10.1589158508
 20
6.6770072364
 30
0.0
 10
10.1542160703
 20
6.67687235
 30
0.0
 10
10.1479496966
 20
6.6766925005
 30
0.0
 10
10.1432499159
 20
6.6765576159
 30
0.0
 10
10.1385501369
 20
6.6764227218
 30
0.0
 10
10.1346336488
 20
6.6763103395
 30
0.0
 10
10.1315004711
 20
6.6762203677
 30
0.0
 10
10.1295422057
 20
6.6761642856
 30
0.0
 10
10.1279756606
 20
6.6761190759
 30
0.0
 10
10.1268005678
 20
6.6760861103
 30
0.0
 10
10.125821909
 20
6.6760556432
 30
0.0
 10
10.1251356994
 20
6.6760401955
 30
0.0
 10
10.1247453728
 20
6.6760221882
 30
0.0
 10
10.1244475766
 20
6.6760345432
 30
0.0
 10
10.1241690886
 20
6.6759480463
 30
0.0
 10
10.1237910363
 20
6.6758671977
 30
0.0
 10
10.1231325826
 20
6.6757096476
 30
0.0
 10
10.122190294
 20
6.6754929751
 30
0.0
 10
10.1210602499
 20
6.675229373
 30
0.0
 10
10.1195532792
 20
6.6748791592
 30
0.0
 10
10.1176696497
 20
6.6744409621
 30
0.0
 10
10.1146557956
 20
6.673740087
 30
0.0
 10
10.1108884944
 20
6.6728639101
 30
0.0
 10
10.1063677249
 20
6.6718125357
 30
0.0
 10
10.101846961
 20
6.6707611427
 30
0.0
 10
10.098079646
 20
6.6698850122
 30
0.0
 10
10.0950658194
 20
6.6691840443
 30
0.0
 10
10.0931821201
 20
6.668746083
 30
0.0
 10
10.0916752926
 20
6.6683953851
 30
0.0
 10
10.090544811
 20
6.6681332622
 30
0.0
 10
10.0896038911
 20
6.6679119615
 30
0.0
 10
10.0889429942
 20
6.6677626735
 30
0.0
 10
10.0885688566
 20
6.667668587
 30
0.0
 10
10.0882783436
 20
6.6676227527
 30
0.0
 10
10.0880257112
 20
6.6674823859
 30
0.0
 10
10.0876756549
 20
6.6673282042
 30
0.0
 10
10.0870692125
 20
6.6670430229
 30
0.0
 10
10.0861996477
 20
6.6666436532
 30
0.0
 10
10.0851575476
 20
6.6661609716
 30
0.0
 10
10.0837675996
 20
6.6655185969
 30
0.0
 10
10.0820303294
 20
6.6647152174
 30
0.0
 10
10.079250605
 20
6.66343004
 30
0.0
 10
10.0757759813
 20
6.6618234888
 30
0.0
 10
10.071606418
 20
6.6598956637
 30
0.0
 10
10.067436863
 20
6.6579678207
 30
0.0
 10
10.0639622186
 20
6.6563613145
 30
0.0
 10
10.0611825356
 20
6.6550760473
 30
0.0
 10
10.05944516
 20
6.654272896
 30
0.0
 10
10.0580554284
 20
6.6536300528
 30
0.0
 10
10.0570126671
 20
6.6531488025
 30
0.0
 10
10.056145171
 20
6.6527449544
 30
0.0
 10
10.0555350357
 20
6.6524677679
 30
0.0
 10
10.0551908964
 20
6.6523007765
 30
0.0
 10
10.0549200888
 20
6.6521997567
 30
0.0
 10
10.0546978388
 20
6.6520061417
 30
0.0
 10
10.0543845681
 20
6.6517802865
 30
0.0
 10
10.0538442357
 20
6.6513699917
 30
0.0
 10
10.0530682065
 20
6.6507917236
 30
0.0
 10
10.0521387375
 20
6.6500944343
 30
0.0
 10
10.0508988286
 20
6.6491658916
 30
0.0
 10
10.0493491538
 20
6.6480048104
 30
0.0
 10
10.0468695559
 20
6.6461473057
 30
0.0
 10
10.0437700995
 20
6.6438253471
 30
0.0
 10
10.0400507324
 20
6.6410390318
 30
0.0
 10
10.0363313775
 20
6.6382527008
 30
0.0
 10
10.0332318908
 20
6.6359307814
 30
0.0
 10
10.0307523536
 20
6.6340731983
 30
0.0
 10
10.0292025245
 20
6.6329123162
 30
0.0
 10
10.0279629322
 20
6.6319833648
 30
0.0
 10
10.0270324961
 20
6.6312873241
 30
0.0
 10
10.0262594926
 20
6.6307051495
 30
0.0
 10
10.0257137589
 20
6.6303018285
 30
0.0
 10
10.0254091425
 20
6.6300647995
 30
0.0
 10
10.0251603089
 20
6.6299055068
 30
0.0
 10
10.0249893449
 20
6.6296755778
 30
0.0
 10
10.0247342312
 20
6.6293936445
 30
0.0
 10
10.0243004373
 20
6.6288887816
 30
0.0
 10
10.0236741155
 20
6.6281735506
 30
0.0
 10
10.0229253613
 20
6.6273127044
 30
0.0
 10
10.0219260332
 20
6.6261658068
 30
0.0
 10
10.0206772117
 20
6.6247318776
 30
0.0
 10
10.0186789081
 20
6.6224377625
 30
0.0
 10
10.016181094
 20
6.6195700594
 30
0.0
 10
10.013183687
 20
6.6161288426
 30
0.0
 10
10.0101862954
 20
6.6126876132
 30
0.0
 10
10.0076884428
 20
6.6098199417
 30
0.0
 10
10.0056902162
 20
6.6075257635
 30
0.0
 10
10.004441199
 20
6.6060919949
 30
0.0
 10
10.0034422727
 20
6.6049447676
 30
0.0
 10
10.002692291
 20
6.6040849286
 30
0.0
 10
10.0020698097
 20
6.6033665465
 30
0.0
 10
10.0016291598
 20
6.6028673087
 30
0.0
 10
10.0013850311
 20
6.6025763625
 30
0.0
 10
10.0011803245
 20
6.6023741182
 30
0.0
 10
10.0010582227
 20
6.6021108462
 30
0.0
 10
10.0008666069
 20
6.601781104
 30
0.0
 10
10.0005447038
 20
6.601194137
 30
0.0
 10
10.0000778238
 20
6.600360798
 30
0.0
 10
9.9995205719
 20
6.5993585717
 30
0.0
 10
9.99877652
 20
6.5980230453
 30
0.0
 10
9.9978468145
 20
6.5963533717
 30
0.0
 10
9.9963590849
 20
6.5936820425
 30
0.0
 10
9.9944994922
 20
6.5903428298
 30
0.0
 10
9.992267949
 20
6.5863357975
 30
0.0
 10
9.9900364226
 20
6.5823287552
 30
0.0
 10
9.9881767881
 20
6.5789895678
 30
0.0
 10
9.9866891421
 20
6.5763181879
 30
0.0
 10
9.9857592239
 20
6.5746486432
 30
0.0
 10
9.9850156087
 20
6.5733128523
 30
0.0
 10
9.9844570229
 20
6.5723114338
 30
0.0
 10
9.9839943161
 20
6.5714755677
 30
0.0
 10
9.9836649631
 20
6.570893112
 30
0.0
 10
9.983485284
 20
6.5705561415
 30
0.0
 10
9.9833265162
 20
6.5703150724
 30
0.0
 10
9.9832595211
 20
6.5700294375
 30
0.0
 10
9.9831381829
 20
6.5696641361
 30
0.0
 10
9.9829407557
 20
6.5690176159
 30
0.0
 10
9.9826509193
 20
6.5680978022
 30
0.0
 10
9.9823064533
 20
6.566992405
 30
0.0
 10
9.9818459994
 20
6.5655191081
 30
0.0
 10
9.9812708313
 20
6.5636772932
 30
0.0
 10
9.9803503391
 20
6.5607304977
 30
0.0
 10
9.979199801
 20
6.557046966
 30
0.0
 10
9.9778191199
 20
6.5526267447
 30
0.0
 10
9.9764384569
 20
6.5482065158
 30
0.0
 10
9.9752878734
 20
6.5445230033
 30
0.0
 10
9.974367472
 20
6.5415761693
 30
0.0
 10
9.9737920731
 20
6.5397344521
 30
0.0
 10
9.973332093
 20
6.5382609547
 30
0.0
 10
9.9729861797
 20
6.5371561701
 30
0.0
 10
9.9727008713
 20
6.5362344398
 30
0.0
 10
9.9724953608
 20
6.535591341
 30
0.0
 10
9.9723869742
 20
6.5352205577
 30
0.0
 10
9.972280196
 20
6.5349517613
 30
0.0
 10
9.9722708467
 20
6.5346474499
 30
0.0
 10
9.9722243967
 20
6.5342540895
 30
0.0
 10
9.9721589431
 20
6.5335599369
 30
0.0
 10
9.9720571599
 20
6.5325713079
 30
0.0
 10
9.9719385633
 20
6.5313836615
 30
0.0
 10
9.9717791969
 20
6.5298005841
 30
0.0
 10
9.9715804126
 20
6.5278215828
 30
0.0
 10
9.9712621209
 20
6.5246552672
 30
0.0
 10
9.9708643382
 20
6.520697343
 30
0.0
 10
9.9703869613
 20
6.5159478467
 30
0.0
 10
9.9699096036
 20
6.5111983471
 30
0.0
 10
9.9695117732
 20
6.507240431
 30
0.0
 10
9.9691935768
 20
6.5040740992
 30
0.0
 10
9.9689945503
 20
6.502095139
 30
0.0
 10
9.9688356812
 20
6.5005119774
 30
0.0
 10
9.9687155653
 20
6.499324588
 30
0.0
 10
9.9686185355
 20
6.4983351549
 30
0.0
 10
9.9685445962
 20
6.4976424378
 30
0.0
 10
9.9685117425
 20
6.4972467774
 30
0.0
 10
9.9684606298
 20
6.4969495309
 30
0.0
 10
9.9685107081
 20
6.4966542
 30
0.0
 10
9.9685421827
 20
6.4962597574
 30
0.0
 10
9.9686137084
 20
6.4955697941
 30
0.0
 10
9.9687072903
 20
6.4945839694
 30
0.0
 10
9.9688232687
 20
6.4934010496
 30
0.0
 10
9.9689766212
 20
6.4918237987
 30
0.0
 10
9.9691687519
 20
6.4898522435
 30
0.0
 10
9.969475915
 20
6.4866977504
 30
0.0
 10
9.9698599539
 20
6.4827546358
 30
0.0
 10
9.9703207617
 20
6.4780228972
 30
0.0
 10
9.9707815887
 20
6.47329116
 30
0.0
 10
9.9711655798
 20
6.4693480419
 30
0.0
 10
9.9714728383
 20
6.4661935558
 30
0.0
 10
9.9716647266
 20
6.4642219829
 30
0.0
 10
9.9718185766
 20
6.4626447683
 30
0.0
 10
9.9719330351
 20
6.4614617378
 30
0.0
 10
9.9720313725
 20
6.4604762592
 30
0.0
 10
9.9720944089
 20
6.4597856781
 30
0.0
 10
9.9721394855
 20
6.4593922254
 30
0.0
 10
9.9721477828
 20
6.4590938538
 30
0.0
 10
9.9722535929
 20
6.4588080278
 30
0.0
 10
9.9723606594
 20
6.4584225504
 30
0.0
 10
9.9725638734
 20
6.4577500038
 30
0.0
 10
9.9728458939
 20
6.456788157
 30
0.0
 10
9.9731878648
 20
6.4556343971
 30
0.0
 10
9.9736425874
 20
6.4540958913
 30
0.0
 10
9.9742114147
 20
6.4521728135
 30
0.0
 10
9.9751213013
 20
6.4490958586
 30
0.0
 10
9.9762587414
 20
6.4452496756
 30
0.0
 10
9.9776236322
 20
6.4406342506
 30
0.0
 10
9.9789885413
 20
6.4360188299
 30
0.0
 10
9.9801259359
 20
6.4321726363
 30
0.0
 10
9.9810359134
 20
6.4290957025
 30
0.0
 10
9.9816045097
 20
6.4271725711
 30
0.0
 10
9.9820597065
 20
6.4256341755
 30
0.0
 10
9.9824002285
 20
6.4244800787
 30
0.0
 10
9.9826867822
 20
6.4235192862
 30
0.0
 10
9.9828819036
 20
6.4228448575
 30
0.0
 10
9.9830019366
 20
6.4224623957
 30
0.0
 10
9.9830679181
 20
6.4221673068
 30
0.0
 10
9.983225805
 20
6.4219037249
 30
0.0
 10
9.9834042632
 20
6.4215412924
 30
0.0
 10
9.9837315013
 20
6.420912156
 30
0.0
 10
9.9841911756
 20
6.4200107127
 30
0.0
 10
9.9847461271
 20
6.4189301266
 30
0.0
 10
9.985484895
 20
6.4174889449
 30
0.0
 10
9.9864087547
 20
6.4156876048
 30
0.0
 10
9.9878867066
 20
6.4128053841
 30
0.0
 10
9.9897342237
 20
6.4092026346
 30
0.0
 10
9.991951209
 20
6.4048793229
 30
0.0
 10
9.9941682117
 20
6.4005560183
 30
0.0
 10
9.9960156853
 20
6.3969532511
 30
0.0
 10
9.9974937242
 20
6.3940710658
 30
0.0
 10
9.9984173628
 20
6.3922696356
 30
0.0
 10
9.9991565843
 20
6.3908286388
 30
0.0
 10
9.9997101503
 20
6.3897474876
 30
0.0
 10
10.0001741595
 20
6.3888478124
 30
0.0
 10
10.000493659
 20
6.3882155197
 30
0.0
 10
10.0006845165
 20
6.3878581443
 30
0.0
 10
10.0008043168
 20
6.3875790286
 30
0.0
 10
10.001013345
 20
6.3873422824
 30
0.0
 10
10.0012609255
 20
6.3870118419
 30
0.0
 10
10.0017086926
 20
6.3864404568
 30
0.0
 10
10.0023407785
 20
6.3856205923
 30
0.0
 10
10.0031025266
 20
6.3846382959
 30
0.0
 10
10.0041170573
 20
6.3833280291
 30
0.0
 10
10.0053856088
 20
6.3816903799
 30
0.0
 10
10.0074150743
 20
6.3790700381
 30
0.0
 10
10.0099519809
 20
6.3757946466
 30
0.0
 10
10.0129962352
 20
6.3718641598
 30
0.0
 10
10.0160405043
 20
6.3679336841
 30
0.0
 10
10.0185773739
 20
6.3646582648
 30
0.0
 10
10.0206069134
 20
6.3620379786
 30
0.0
 10
10.0218752765
 20
6.3604001882
 30
0.0
 10
10.022890194
 20
6.3590902112
 30
0.0
 10
10.0236507606
 20
6.3581070296
 30
0.0
 10
10.0242865431
 20
6.3572899345
 30
0.0
 10
10.024727711
 20
6.3567136056
 30
0.0
 10
10.0249858652
 20
6.3563910862
 30
0.0
 10
10.0251624145
 20
6.3561300088
 30
0.0
 10
10.0254041999
 20
6.355942277
 30
0.0
 10
10.0257038254
 20
6.3556663842
 30
0.0
 10
10.026238772
 20
6.3551954916
 30
0.0
 10
10.0269974386
 20
6.3545165561
 30
0.0
 10
10.0279102111
 20
6.3537045009
 30
0.0
 10
10.0291264123
 20
6.3526208289
 30
0.0
 10
10.0306469476
 20
6.351266558
 30
0.0
 10
10.0330796455
 20
6.3490995462
 30
0.0
 10
10.0361205725
 20
6.3463908431
 30
0.0
 10
10.0397696602
 20
6.343140371
 30
0.0
 10
10.0434187595
 20
6.3398899136
 30
0.0
 10
10.0464596576
 20
6.3371811739
 30
0.0
 10
10.0488924134
 20
6.3350142351
 30
0.0
 10
10.0504128016
 20
6.3336597787
 30
0.0
 10
10.0516293047
 20
6.3325764876
 30
0.0
 10
10.0525411551
 20
6.3317632688
 30
0.0
 10
10.0533027064
 20
6.3310879738
 30
0.0
 10
10.0538325033
 20
6.3306105823
 30
0.0
 10
10.0541403799
 20
6.3303451023
 30
0.0
 10
10.0543568206
 20
6.3301253855
 30
0.0
 10
10.0546285605
 20
6.3299844385
 30
0.0
 10
10.0549715913
 20
6.3297690334
 30
0.0
 10
10.0555808824
 20
6.3294048759
 30
0.0
 10
10.0564465996
 20
6.3288779581
 30
0.0
 10
10.0574874714
 20
6.3282485215
 30
0.0
 10
10.058874598
 20
6.3274082721
 30
0.0
 10
10.0606087469
 20
6.326358303
 30
0.0
 10
10.0633832505
 20
6.3246781608
 30
0.0
 10
10.0668514264
 20
6.3225780493
 30
0.0
 10
10.0710132167
 20
6.3200578851
 30
0.0
 10
10.075175016
 20
6.3175377369
 30
0.0
 10
10.0786431694
 20
6.3154375851
 30
0.0
 10
10.0814177179
 20
6.3137575235
 30
0.0
 10
10.0831517527
 20
6.3127073496
 30
0.0
 10
10.0845391134
 20
6.3118675206
 30
0.0
 10
10.08557927
 20
6.3112367997
 30
0.0
 10
10.086447225
 20
6.3107139001
 30
0.0
 10
10.0870525213
 20
6.3103425696
 30
0.0
 10
10.0874019526
 20
6.3101386574
 30
0.0
 10
10.0876540323
 20
6.3099624078
 30
0.0
 10
10.0879443133
 20
6.3098752816
 30
0.0
 10
10.0883180295
 20
6.3097280261
 30
0.0
 10
10.0889782414
 20
6.309484813
 30
0.0
 10
10.0899181553
 20
6.3091297934
 30
0.0
 10
10.0910474413
 20
6.3087070111
 30
0.0
 10
10.0925526708
 20
6.3081421692
 30
0.0
 10
10.0944343737
 20
6.3074365045
 30
0.0
 10
10.0974450056
 20
6.3063072243
 30
0.0
 10
10.1012083274
 20
6.304895699
 30
0.0
 10
10.1057242992
 20
6.3032018341
 30
0.0
 10
10.1102402774
 20
6.301507987
 30
0.0
 10
10.1140035832
 20
6.3000964174
 30
0.0
 10
10.1170142472
 20
6.2989672257
 30
0.0
 10
10.1188958685
 20
6.2982613359
 30
0.0
 10
10.1204012656
 20
6.2976969562
 30
0.0
 10
10.1215300394
 20
6.2972727621
 30
0.0
 10
10.1224715559
 20
6.2969221594
 30
0.0
 10
10.1231289069
 20
6.2966710614
 30
0.0
 10
10.1235072068
 20
6.2965364396
 30
0.0
 10
10.1237834083
 20
6.2964105068
 30
0.0
 10
10.1240883682
 20
6.2963800084
 30
0.0
 10
10.1244849501
 20
6.2963060554
 30
0.0
 10
10.1251836423
 20
6.2961921474
 30
0.0
 10
10.1261793304
 20
6.2960213129
 30
0.0
 10
10.127375202
 20
6.2958197823
 30
0.0
 10
10.1289693322
 20
6.2955498626
 30
0.0
 10
10.1309621201
 20
6.2952128781
 30
0.0
 10
10.1341505107
 20
6.2946734708
 30
0.0
 10
10.138136023
 20
6.2939992913
 30
0.0
 10
10.1429186275
 20
6.2931902418
 30
0.0
 10
10.1477012348
 20
6.2923812014
 30
0.0
 10
10.1540780434
 20
6.2913024777
 30
0.0
 10
10.1588606502
 20
6.2904934357
 30
0.0
 10
10.1620490546
 20
6.2899540742
 30
0.0
  0
SPLINE
  5
3E2
100
AcDbEntity
  8
0
100
AcDbSpline
 62
4
  6
CONTINUOUS
 70
0
 71
3
 72
313
 73
309
 74
0
 42
0.0000001
 43
0.0000001
 44
0.0000000001
 40
0.0
 40
0.0
 40
0.0
 40
0.0
 40
0.015625
 40
0.0234375
 40
0.03125
 40
0.0390625
 40
0.046875
 40
0.05078125
 40
0.0546875
 40
0.056640625
 40
0.05859375
 40
0.060546875
 40
0.0615234375
 40
0.0620117188
 40
0.0625
 40
0.0629882812
 40
0.0634765625
 40
0.064453125
 40
0.06640625
 40
0.068359375
 40
0.0703125
 40
0.07421875
 40
0.078125
 40
0.0859375
 40
0.09375
 40
0.1015625
 40
0.109375
 40
0.11328125
 40
0.1171875
 40
0.119140625
 40
0.12109375
 40
0.123046875
 40
0.1240234375
 40
0.1245117188
 40
0.125
 40
0.1254882812
 40
0.1259765625
 40
0.126953125
 40
0.12890625
 40
0.130859375
 40
0.1328125
 40
0.13671875
 40
0.140625
 40
0.1484375
 40
0.15625
 40
0.1640625
 40
0.171875
 40
0.17578125
 40
0.1796875
 40
0.181640625
 40
0.18359375
 40
0.185546875
 40
0.1865234375
 40
0.1870117188
 40
0.1875
 40
0.1879882812
 40
0.1884765625
 40
0.189453125
 40
0.19140625
 40
0.193359375
 40
0.1953125
 40
0.19921875
 40
0.203125
 40
0.2109375
 40
0.21875
 40
0.2265625
 40
0.234375
 40
0.23828125
 40
0.2421875
 40
0.244140625
 40
0.24609375
 40
0.248046875
 40
0.2490234375
 40
0.2495117188
 40
0.25
 40
0.2504882812
 40
0.2509765625
 40
0.251953125
 40
0.25390625
 40
0.255859375
 40
0.2578125
 40
0.26171875
 40
0.265625
 40
0.2734375
 40
0.28125
 40
0.2890625
 40
0.296875
 40
0.30078125
 40
0.3046875
 40
0.306640625
 40
0.30859375
 40
0.310546875
 40
0.3115234375
 40
0.3120117188
 40
0.3125
 40
0.3129882812
 40
0.3134765625
 40
0.314453125
 40
0.31640625
 40
0.318359375
 40
0.3203125
 40
0.32421875
 40
0.328125
 40
0.3359375
 40
0.34375
 40
0.3515625
 40
0.359375
 40
0.36328125
 40
0.3671875
 40
0.369140625
 40
0.37109375
 40
0.373046875
 40
0.3740234375
 40
0.3745117188
 40
0.375
 40
0.3754882812
 40
0.3759765625
 40
0.376953125
 40
0.37890625
 40
0.380859375
 40
0.3828125
 40
0.38671875
 40
0.390625
 40
0.3984375
 40
0.40625
 40
0.4140625
 40
0.421875
 40
0.42578125
 40
0.4296875
 40
0.431640625
 40
0.43359375
 40
0.435546875
 40
0.4365234375
 40
0.4370117188
 40
0.4375
 40
0.4379882812
 40
0.4384765625
 40
0.439453125
 40
0.44140625
 40
0.443359375
 40
0.4453125
 40
0.44921875
 40
0.453125
 40
0.4609375
 40
0.46875
 40
0.4765625
 40
0.484375
 40
0.48828125
 40
0.4921875
 40
0.494140625
 40
0.49609375
 40
0.498046875
 40
0.4990234375
 40
0.4995117188
 40
0.5
 40
0.5004882812
 40
0.5009765625
 40
0.501953125
 40
0.50390625
 40
0.505859375
 40
0.5078125
 40
0.51171875
 40
0.515625
 40
0.5234375
 40
0.53125
 40
0.5390625
 40
0.546875
 40
0.55078125
 40
0.5546875
 40
0.556640625
 40
0.55859375
 40
0.560546875
 40
0.5615234375
 40
0.5620117188
 40
0.5625
 40
0.5629882812
 40
0.5634765625
 40
0.564453125
 40
0.56640625
 40
0.568359375
 40
0.5703125
 40
0.57421875
 40
0.578125
 40
0.5859375
 40
0.59375
 40
0.6015625
 40
0.609375
 40
0.61328125
 40
0.6171875
 40
0.619140625
 40
0.62109375
 40
0.623046875
 40
0.6240234375
 40
0.6245117188
 40
0.625
 40
0.6254882812
 40
0.6259765625
 40
0.626953125
 40
0.62890625
 40
0.630859375
 40
0.6328125
 40
0.63671875
 40
0.640625
 40
0.6484375
 40
0.65625
 40
0.6640625
 40
0.671875
 40
0.67578125
 40
0.6796875
 40
0.681640625
 40
0.68359375
 40
0.685546875
 40
0.6865234375
 40
0.6870117188
 40
0.6875
 40
0.6879882812
 40
0.6884765625
 40
0.689453125
 40
0.69140625
 40
0.693359375
 40
0.6953125
 40
0.69921875
 40
0.703125
 40
0.7109375
 40
0.71875
 40
0.7265625
 40
0.734375
 40
0.73828125
 40
0.7421875
 40
0.744140625
 40
0.74609375
 40
0.748046875
 40
0.7490234375
 40
0.7495117188
 40
0.75
 40
0.7504882812
 40
0.7509765625
 40
0.751953125
 40
0.75390625
 40
0.755859375
 40
0.7578125
 40
0.76171875
 40
0.765625
 40
0.7734375
 40
0.78125
 40
0.7890625
 40
0.796875
 40
0.80078125
 40
0.8046875
 40
0.806640625
 40
0.80859375
 40
0.810546875
 40
0.8115234375
 40
0.8120117188
 40
0.8125
 40
0.8129882812
 40
0.8134765625
 40
0.814453125
 40
0.81640625
 40
0.818359375
 40
0.8203125
 40
0.82421875
 40
0.828125
 40
0.8359375
 40
0.84375
 40
0.8515625
 40
0.859375
 40
0.86328125
 40
0.8671875
 40
0.869140625
 40
0.87109375
 40
0.873046875
 40
0.8740234375
 40
0.8745117188
 40
0.875
 40
0.8754882812
 40
0.8759765625
 40
0.876953125
 40
0.87890625
 40
0.880859375
 40
0.8828125
 40
0.88671875
 40
0.890625
 40
0.8984375
 40
0.90625
 40
0.9140625
 40
0.921875
 40
0.92578125
 40
0.9296875
 40
0.931640625
 40
0.93359375
 40
0.935546875
 40
0.9365234375
 40
0.9370117188
 40
0.9375
 40
0.9379882812
 40
0.9384765625
 40
0.939453125
 40
0.94140625
 40
0.943359375
 40
0.9453125
 40
0.94921875
 40
0.953125
 40
0.9609375
 40
0.96875
 40
0.9765625
 40
0.984375
 40
1.0
 40
1.0
 40
1.0
 40
1.0
 10
10.1620490377
 20
6.2899540753
 30
0.0
 10
10.1651822246
 20
6.2900439997
 30
0.0
 10
10.169882005
 20
6.2901788861
 30
0.0
 10
10.1761483787
 20
6.2903587356
 30
0.0
 10
10.1808481595
 20
6.2904936202
 30
0.0
 10
10.1855479384
 20
6.2906285143
 30
0.0
 10
10.1894644266
 20
6.2907408966
 30
0.0
 10
10.1925976043
 20
6.2908308684
 30
0.0
 10
10.1945558696
 20
6.2908869506
 30
0.0
 10
10.1961224148
 20
6.2909321603
 30
0.0
 10
10.1972975075
 20
6.2909651258
 30
0.0
 10
10.1982761664
 20
6.2909955929
 30
0.0
 10
10.1989623759
 20
6.2910110406
 30
0.0
 10
10.1993527026
 20
6.291029048
 30
0.0
 10
10.1996504987
 20
6.291016693
 30
0.0
 10
10.1999289868
 20
6.2911031899
 30
0.0
 10
10.2003070391
 20
6.2911840384
 30
0.0
 10
10.2009654927
 20
6.2913415885
 30
0.0
 10
10.2019077813
 20
6.291558261
 30
0.0
 10
10.2030378254
 20
6.2918218631
 30
0.0
 10
10.2045447962
 20
6.2921720769
 30
0.0
 10
10.2064284256
 20
6.2926102741
 30
0.0
 10
10.2094422797
 20
6.2933111492
 30
0.0
 10
10.213209581
 20
6.2941873261
 30
0.0
 10
10.2177303504
 20
6.2952387005
 30
0.0
 10
10.2222511144
 20
6.2962900935
 30
0.0
 10
10.2260184294
 20
6.2971662239
 30
0.0
 10
10.229032256
 20
6.2978671918
 30
0.0
 10
10.2309159552
 20
6.2983051531
 30
0.0
 10
10.2324227828
 20
6.2986558511
 30
0.0
 10
10.2335532643
 20
6.2989179739
 30
0.0
 10
10.2344941842
 20
6.2991392746
 30
0.0
 10
10.2351550812
 20
6.2992885627
 30
0.0
 10
10.2355292187
 20
6.2993826491
 30
0.0
 10
10.2358197318
 20
6.2994284834
 30
0.0
 10
10.2360723641
 20
6.2995688502
 30
0.0
 10
10.2364224205
 20
6.299723032
 30
0.0
 10
10.2370288628
 20
6.3000082132
 30
0.0
 10
10.2378984276
 20
6.3004075829
 30
0.0
 10
10.2389405277
 20
6.3008902645
 30
0.0
 10
10.2403304757
 20
6.3015326392
 30
0.0
 10
10.2420677459
 20
6.3023360188
 30
0.0
 10
10.2448474704
 20
6.3036211962
 30
0.0
 10
10.2483220941
 20
6.3052277473
 30
0.0
 10
10.2524916573
 20
6.3071555724
 30
0.0
 10
10.2566612123
 20
6.3090834155
 30
0.0
 10
10.2601358567
 20
6.3106899217
 30
0.0
 10
10.2629155397
 20
6.3119751889
 30
0.0
 10
10.2646529154
 20
6.3127783401
 30
0.0
 10
10.2660426469
 20
6.3134211834
 30
0.0
 10
10.2670854082
 20
6.3139024336
 30
0.0
 10
10.2679529043
 20
6.3143062818
 30
0.0
 10
10.2685630396
 20
6.3145834682
 30
0.0
 10
10.268907179
 20
6.3147504596
 30
0.0
 10
10.2691779865
 20
6.3148514794
 30
0.0
 10
10.2694002365
 20
6.3150450945
 30
0.0
 10
10.2697135073
 20
6.3152709496
 30
0.0
 10
10.2702538397
 20
6.3156812445
 30
0.0
 10
10.2710298688
 20
6.3162595126
 30
0.0
 10
10.2719593379
 20
6.3169568018
 30
0.0
 10
10.2731992467
 20
6.3178853445
 30
0.0
 10
10.2747489216
 20
6.3190464257
 30
0.0
 10
10.2772285194
 20
6.3209039305
 30
0.0
 10
10.2803279758
 20
6.323225889
 30
0.0
 10
10.2840473429
 20
6.3260122044
 30
0.0
 10
10.2877666979
 20
6.3287985354
 30
0.0
 10
10.2908661846
 20
6.3311204548
 30
0.0
 10
10.2933457218
 20
6.3329780379
 30
0.0
 10
10.2948955509
 20
6.3341389199
 30
0.0
 10
10.2961351432
 20
6.3350678714
 30
0.0
 10
10.2970655793
 20
6.335763912
 30
0.0
 10
10.2978385827
 20
6.3363460866
 30
0.0
 10
10.2983843165
 20
6.3367494077
 30
0.0
 10
10.2986889328
 20
6.3369864366
 30
0.0
 10
10.2989377665
 20
6.3371457293
 30
0.0
 10
10.2991087304
 20
6.3373756583
 30
0.0
 10
10.2993638442
 20
6.3376575916
 30
0.0
 10
10.2997976381
 20
6.3381624545
 30
0.0
 10
10.3004239599
 20
6.3388776856
 30
0.0
 10
10.3011727141
 20
6.3397385317
 30
0.0
 10
10.3021720422
 20
6.3408854293
 30
0.0
 10
10.3034208636
 20
6.3423193586
 30
0.0
 10
10.3054191673
 20
6.3446134736
 30
0.0
 10
10.3079169814
 20
6.3474811767
 30
0.0
 10
10.3109143883
 20
6.3509223935
 30
0.0
 10
10.3139117799
 20
6.3543636229
 30
0.0
 10
10.3164096325
 20
6.3572312944
 30
0.0
 10
10.3184078592
 20
6.3595254726
 30
0.0
 10
10.3196568764
 20
6.3609592413
 30
0.0
 10
10.3206558027
 20
6.3621064685
 30
0.0
 10
10.3214057844
 20
6.3629663076
 30
0.0
 10
10.3220282656
 20
6.3636846897
 30
0.0
 10
10.3224689156
 20
6.3641839274
 30
0.0
 10
10.3227130442
 20
6.3644748736
 30
0.0
 10
10.3229177509
 20
6.3646771179
 30
0.0
 10
10.3230398526
 20
6.3649403899
 30
0.0
 10
10.3232314685
 20
6.3652701322
 30
0.0
 10
10.3235533715
 20
6.3658570992
 30
0.0
 10
10.3240202516
 20
6.3666904382
 30
0.0
 10
10.3245775035
 20
6.3676926644
 30
0.0
 10
10.3253215553
 20
6.3690281909
 30
0.0
 10
10.3262512608
 20
6.3706978644
 30
0.0
 10
10.3277389905
 20
6.3733691936
 30
0.0
 10
10.3295985832
 20
6.3767084063
 30
0.0
 10
10.3318301263
 20
6.3807154386
 30
0.0
 10
10.3340616527
 20
6.384722481
 30
0.0
 10
10.3359212872
 20
6.3880616684
 30
0.0
 10
10.3374089332
 20
6.3907330483
 30
0.0
 10
10.3383388514
 20
6.392402593
 30
0.0
 10
10.3390824667
 20
6.3937383838
 30
0.0
 10
10.3396410524
 20
6.3947398024
 30
0.0
 10
10.3401037592
 20
6.3955756685
 30
0.0
 10
10.3404331122
 20
6.3961581241
 30
0.0
 10
10.3406127913
 20
6.3964950946
 30
0.0
 10
10.3407715591
 20
6.3967361638
 30
0.0
 10
10.3408385543
 20
6.3970217986
 30
0.0
 10
10.3409598925
 20
6.3973871
 30
0.0
 10
10.3411573196
 20
6.3980336202
 30
0.0
 10
10.341447156
 20
6.3989534339
 30
0.0
 10
10.3417916221
 20
6.4000588311
 30
0.0
 10
10.3422520759
 20
6.401532128
 30
0.0
 10
10.3428272441
 20
6.4033739429
 30
0.0
 10
10.3437477362
 20
6.4063207384
 30
0.0
 10
10.3448982744
 20
6.4100042702
 30
0.0
 10
10.3462789555
 20
6.4144244914
 30
0.0
 10
10.3476596184
 20
6.4188447203
 30
0.0
 10
10.348810202
 20
6.4225282329
 30
0.0
 10
10.3497306033
 20
6.4254750668
 30
0.0
 10
10.3503060023
 20
6.427316784
 30
0.0
 10
10.3507659824
 20
6.4287902814
 30
0.0
 10
10.3511118957
 20
6.4298950661
 30
0.0
 10
10.351397204
 20
6.4308167963
 30
0.0
 10
10.3516027146
 20
6.4314598952
 30
0.0
 10
10.3517111012
 20
6.4318306784
 30
0.0
 10
10.3518178794
 20
6.4320994749
 30
0.0
 10
10.3518272287
 20
6.4324037862
 30
0.0
 10
10.3518736787
 20
6.4327971466
 30
0.0
 10
10.3519391322
 20
6.4334912992
 30
0.0
 10
10.3520409155
 20
6.4344799282
 30
0.0
 10
10.3521595121
 20
6.4356675746
 30
0.0
 10
10.3523188785
 20
6.4372506521
 30
0.0
 10
10.3525176627
 20
6.4392296533
 30
0.0
 10
10.3528359544
 20
6.4423959689
 30
0.0
 10
10.3532337372
 20
6.4463538931
 30
0.0
 10
10.353711114
 20
6.4511033895
 30
0.0
 10
10.3541884718
 20
6.455852889
 30
0.0
 10
10.3545863022
 20
6.4598108051
 30
0.0
 10
10.3549044986
 20
6.4629771369
 30
0.0
 10
10.3551035251
 20
6.4649560972
 30
0.0
 10
10.3552623942
 20
6.4665392587
 30
0.0
 10
10.3553825101
 20
6.4677266481
 30
0.0
 10
10.3554795399
 20
6.4687160812
 30
0.0
 10
10.3555534792
 20
6.4694087983
 30
0.0
 10
10.3555863329
 20
6.4698044588
 30
0.0
 10
10.3556374456
 20
6.4701017053
 30
0.0
 10
10.3555873672
 20
6.4703970361
 30
0.0
 10
10.3555558927
 20
6.4707914787
 30
0.0
 10
10.3554843669
 20
6.4714814421
 30
0.0
 10
10.355390785
 20
6.4724672667
 30
0.0
 10
10.3552748066
 20
6.4736501866
 30
0.0
 10
10.3551214541
 20
6.4752274374
 30
0.0
 10
10.3549293234
 20
6.4771989927
 30
0.0
 10
10.3546221603
 20
6.4803534857
 30
0.0
 10
10.3542381215
 20
6.4842966004
 30
0.0
 10
10.3537773136
 20
6.4890283389
 30
0.0
 10
10.3533164867
 20
6.4937600761
 30
0.0
 10
10.3529324955
 20
6.4977031942
 30
0.0
 10
10.352625237
 20
6.5008576803
 30
0.0
 10
10.3524333487
 20
6.5028292532
 30
0.0
 10
10.3522794987
 20
6.5044064679
 30
0.0
 10
10.3521650403
 20
6.5055894984
 30
0.0
 10
10.3520667029
 20
6.5065749769
 30
0.0
 10
10.3520036664
 20
6.5072655581
 30
0.0
 10
10.3519585898
 20
6.5076590108
 30
0.0
 10
10.3519502926
 20
6.5079573823
 30
0.0
 10
10.3518444825
 20
6.5082432084
 30
0.0
 10
10.3517374159
 20
6.5086286858
 30
0.0
 10
10.3515342019
 20
6.5093012324
 30
0.0
 10
10.3512521815
 20
6.5102630791
 30
0.0
 10
10.3509102105
 20
6.511416839
 30
0.0
 10
10.350455488
 20
6.5129553449
 30
0.0
 10
10.3498866607
 20
6.5148784226
 30
0.0
 10
10.3489767741
 20
6.5179553775
 30
0.0
 10
10.347839334
 20
6.5218015606
 30
0.0
 10
10.3464744431
 20
6.5264169855
 30
0.0
 10
10.3451095341
 20
6.5310324062
 30
0.0
 10
10.3439721394
 20
6.5348785998
 30
0.0
 10
10.3430621619
 20
6.5379555336
 30
0.0
 10
10.3424935657
 20
6.5398786651
 30
0.0
 10
10.3420383689
 20
6.5414170606
 30
0.0
 10
10.3416978468
 20
6.5425711575
 30
0.0
 10
10.3414112931
 20
6.54353195
 30
0.0
 10
10.3412161717
 20
6.5442063786
 30
0.0
 10
10.3410961388
 20
6.5445888405
 30
0.0
 10
10.3410301573
 20
6.5448839293
 30
0.0
 10
10.3408722704
 20
6.5451475112
 30
0.0
 10
10.3406938122
 20
6.5455099437
 30
0.0
 10
10.340366574
 20
6.5461390801
 30
0.0
 10
10.3399068998
 20
6.5470405234
 30
0.0
 10
10.3393519482
 20
6.5481211095
 30
0.0
 10
10.3386131803
 20
6.5495622912
 30
0.0
 10
10.3376893207
 20
6.5513636313
 30
0.0
 10
10.3362113688
 20
6.5542458521
 30
0.0
 10
10.3343638517
 20
6.5578486015
 30
0.0
 10
10.3321468664
 20
6.5621719132
 30
0.0
 10
10.3299298637
 20
6.5664952179
 30
0.0
 10
10.3280823901
 20
6.570097985
 30
0.0
 10
10.3266043512
 20
6.5729801704
 30
0.0
 10
10.3256807125
 20
6.5747816006
 30
0.0
 10
10.3249414911
 20
6.5762225973
 30
0.0
 10
10.3243879251
 20
6.5773037485
 30
0.0
 10
10.3239239159
 20
6.5782034238
 30
0.0
 10
10.3236044164
 20
6.5788357164
 30
0.0
 10
10.3234135589
 20
6.5791930918
 30
0.0
 10
10.3232937585
 20
6.5794722075
 30
0.0
 10
10.3230847304
 20
6.5797089537
 30
0.0
 10
10.3228371498
 20
6.5800393942
 30
0.0
 10
10.3223893828
 20
6.5806107794
 30
0.0
 10
10.3217572969
 20
6.5814306438
 30
0.0
 10
10.3209955488
 20
6.5824129403
 30
0.0
 10
10.319981018
 20
6.5837232071
 30
0.0
 10
10.3187124665
 20
6.5853608563
 30
0.0
 10
10.3166830011
 20
6.587981198
 30
0.0
 10
10.3141460945
 20
6.5912565895
 30
0.0
 10
10.3111018402
 20
6.5951870763
 30
0.0
 10
10.308057571
 20
6.5991175521
 30
0.0
 10
10.3055207015
 20
6.6023929713
 30
0.0
 10
10.3034911619
 20
6.6050132575
 30
0.0
 10
10.3022227988
 20
6.6066510479
 30
0.0
 10
10.3012078814
 20
6.607961025
 30
0.0
 10
10.3004473148
 20
6.6089442065
 30
0.0
 10
10.2998115322
 20
6.6097613016
 30
0.0
 10
10.2993703644
 20
6.6103376305
 30
0.0
 10
10.2991122102
 20
6.6106601499
 30
0.0
 10
10.2989356609
 20
6.6109212273
 30
0.0
 10
10.2986938754
 20
6.6111089591
 30
0.0
 10
10.29839425
 20
6.611384852
 30
0.0
 10
10.2978593033
 20
6.6118557445
 30
0.0
 10
10.2971006367
 20
6.6125346801
 30
0.0
 10
10.2961878643
 20
6.6133467353
 30
0.0
 10
10.294971663
 20
6.6144304072
 30
0.0
 10
10.2934511277
 20
6.6157846781
 30
0.0
 10
10.2910184299
 20
6.6179516899
 30
0.0
 10
10.2879775028
 20
6.6206603931
 30
0.0
 10
10.2843284151
 20
6.6239108651
 30
0.0
 10
10.2806793159
 20
6.6271613226
 30
0.0
 10
10.2776384177
 20
6.6298700622
 30
0.0
 10
10.275205662
 20
6.632037001
 30
0.0
 10
10.2736852737
 20
6.6333914575
 30
0.0
 10
10.2724687707
 20
6.6344747486
 30
0.0
 10
10.2715569202
 20
6.6352879673
 30
0.0
 10
10.2707953689
 20
6.6359632624
 30
0.0
 10
10.270265572
 20
6.6364406538
 30
0.0
 10
10.2699576954
 20
6.6367061338
 30
0.0
 10
10.2697412547
 20
6.6369258506
 30
0.0
 10
10.2694695149
 20
6.6370667976
 30
0.0
 10
10.269126484
 20
6.6372822028
 30
0.0
 10
10.268517193
 20
6.6376463603
 30
0.0
 10
10.2676514757
 20
6.638173278
 30
0.0
 10
10.2666106039
 20
6.6388027146
 30
0.0
 10
10.2652234773
 20
6.639642964
 30
0.0
 10
10.2634893285
 20
6.6406929332
 30
0.0
 10
10.2607148249
 20
6.6423730753
 30
0.0
 10
10.257246649
 20
6.6444731868
 30
0.0
 10
10.2530848587
 20
6.6469933511
 30
0.0
 10
10.2489230594
 20
6.6495134992
 30
0.0
 10
10.2454549059
 20
6.651613651
 30
0.0
 10
10.2426803574
 20
6.6532937126
 30
0.0
 10
10.2409463227
 20
6.6543438865
 30
0.0
 10
10.2395589619
 20
6.6551837156
 30
0.0
 10
10.2385188053
 20
6.6558144364
 30
0.0
 10
10.2376508504
 20
6.6563373361
 30
0.0
 10
10.237045554
 20
6.6567086666
 30
0.0
 10
10.2366961227
 20
6.6569125788
 30
0.0
 10
10.236444043
 20
6.6570888284
 30
0.0
 10
10.2361537621
 20
6.6571759546
 30
0.0
 10
10.2357800458
 20
6.6573232101
 30
0.0
 10
10.235119834
 20
6.6575664231
 30
0.0
 10
10.2341799201
 20
6.6579214427
 30
0.0
 10
10.233050634
 20
6.6583442251
 30
0.0
 10
10.2315454046
 20
6.6589090669
 30
0.0
 10
10.2296637016
 20
6.6596147316
 30
0.0
 10
10.2266530698
 20
6.6607440118
 30
0.0
 10
10.2228897479
 20
6.6621555372
 30
0.0
 10
10.2183737761
 20
6.663849402
 30
0.0
 10
10.2138577979
 20
6.6655432491
 30
0.0
 10
10.2100944921
 20
6.6669548188
 30
0.0
 10
10.2070838281
 20
6.6680840104
 30
0.0
 10
10.2052022069
 20
6.6687899002
 30
0.0
 10
10.2036968098
 20
6.66935428
 30
0.0
 10
10.2025680359
 20
6.669778474
 30
0.0
 10
10.2016265195
 20
6.6701290767
 30
0.0
 10
10.2009691684
 20
6.6703801747
 30
0.0
 10
10.2005908685
 20
6.6705147965
 30
0.0
 10
10.2003146671
 20
6.6706407294
 30
0.0
 10
10.2000097072
 20
6.6706712277
 30
0.0
 10
10.1996131252
 20
6.6707451807
 30
0.0
 10
10.1989144331
 20
6.6708590888
 30
0.0
 10
10.197918745
 20
6.6710299232
 30
0.0
 10
10.1967228733
 20
6.6712314538
 30
0.0
 10
10.1951287431
 20
6.6715013735
 30
0.0
 10
10.1931359553
 20
6.6718383581
 30
0.0
 10
10.1899475646
 20
6.6723777653
 30
0.0
 10
10.1859620523
 20
6.6730519448
 30
0.0
 10
10.1811794478
 20
6.6738609943
 30
0.0
 10
10.1763968406
 20
6.6746700347
 30
0.0
 10
10.1700200319
 20
6.6757487584
 30
0.0
 10
10.1652374252
 20
6.6765578004
 30
0.0
 10
10.1620490208
 20
6.677097162
 30
0.0
  0
ELLIPSE
  5
3E3
100
AcDbEntity
  8
0
100
AcDbEllipse
 62
7
  6
CONTINUOUS
 10
11.1612028597
 20
7.9539200211
 30
0.0
 11
-0.053095879
 21
0.2155295841
 31
0.0
 40
0.8757841375
 41
0.0
 42
6.2831853072
  0
ENDSEC
  0
SECTION
  2
OBJECTS
  0
DICTIONARY
  5
C
100
AcDbDictionary
280
0
281
1
  3
ACAD_GROUP
350
D
  3
ACAD_MLINESTYLE
350
17
  3
ACAD_LAYOUT
350
1A
  3
ACAD_PLOTSETTINGS
350
19
  3
ACAD_PLOTSTYLENAME
350
E
  3
ACAD_IMAGE_DICT
350
       3E5
  3
ACAD_IMAGE_VARS
350
       3E6
  3
ACAD_TABLESTYLE
350
       3E7
  0
IMAGEDEF_REACTOR
  5
3E4
100
AcDbRasterImageDefReactor
 90
2
330
28E
  0
DICTIONARY
  5
D
102
{ACAD_REACTORS
330
C
102
}
100
AcDbDictionary
280
0
281
1
  0
ACDBDICTIONARYWDFLT
  5
E
102
{ACAD_REACTORS
330
C
102
}
100
AcDbDictionary
281
1
  3
Normal
350
F
100
AcDbDictionaryWithDefault
340
F
  0
DICTIONARY
  5
3E5
330
C
100
AcDbDictionary
281
1
  3
WAY_assy_2_img_1
350
       3EA
  0
RASTERVARIABLES
  5
3E6
330
C
100
AcDbRasterVariables
 90
0
 70
0
 71
1
 72
5
  0
DICTIONARY
  5
17
102
{ACAD_REACTORS
330
C
102
}
100
AcDbDictionary
280
0
281
1
  3
Standard
350
18
  0
DICTIONARY
  5
3E7
330
C
100
AcDbDictionary
281
1
  3
Standard
350
       3EB
  3
Standard1
350
       3EC
  0
DICTIONARY
  5
19
102
{ACAD_REACTORS
330
C
102
}
100
AcDbDictionary
281
1
  0
DICTIONARY
  5
1A
102
{ACAD_REACTORS
330
C
102
}
100
AcDbDictionary
281
1
  3
Model
350
3E8
  3
Layout1
350
3E9
  0
ACDBPLACEHOLDER
  5
F
102
{ACAD_REACTORS
330
E
102
}
  0
MLINESTYLE
  5
18
102
{ACAD_REACTORS
330
17
102
}
100
AcDbMlineStyle
  2
STANDARD
 70
0
  3

 62
256
 51
90.0
 52
90.0
 71
2
 49
0.5
 62
256
  6
BYLAYER
 49
-0.5
 62
256
  6
BYLAYER
  0
LAYOUT
  5
3E8
102
{ACAD_REACTORS
330
1A
102
}
100
AcDbPlotSettings
  1

  2
none_device
  4
ANSI_C_(22.00_x_17.00_Inches)
  6

 40
0.0
 41
0.0
 42
0.0
 43
0.0
 44
558.8
 45
431.8
 46
0.0
 47
0.0
 48
0.0
 49
0.0
140
0.0
141
0.0
142
1.0
143
1.0
 70
1024
 72
0
 73
0
 74
0
  7

 75
0
147
1.0
148
0.0
149
0.0
100
AcDbLayout
  1
Model
 70
0
 71
0
 10
0.0
 20
0.0
 11
22.0
 21
17.0
 12
0.0
 22
0.0
 32
0.0
 14
0.0
 24
0.0
 34
0.0
 15
0.0
 25
0.0
 35
0.0
146
0.0
 13
0.0
 23
0.0
 33
0.0
 16
1.0
 26
0.0
 36
0.0
 17
0.0
 27
1.0
 37
0.0
 76
0
330
20C
345
0
346
0
  0
LAYOUT
  5
3E9
102
{ACAD_REACTORS
330
1A
102
}
100
AcDbPlotSettings
  1

  2
none_device
  4
ANSI_C_(22.00_x_17.00_Inches)
  6

 40
0.0
 41
0.0
 42
0.0
 43
0.0
 44
558.8
 45
431.8
 46
0.0
 47
0.0
 48
0.0
 49
0.0
140
0.0
141
0.0
142
1.0
143
1.0
 70
0
 72
0
 73
0
 74
0
  7

 75
0
147
1.0
148
0.0
149
0.0
100
AcDbLayout
  1
Layout1
 70
0
 71
1
 10
0.0
 20
0.0
 11
22.0
 21
17.0
 12
0.0
 22
0.0
 32
0.0
 14
0.0
 24
0.0
 34
0.0
 15
0.0
 25
0.0
 35
0.0
146
0.0
 13
0.0
 23
0.0
 33
0.0
 16
1.0
 26
0.0
 36
0.0
 17
0.0
 27
1.0
 37
0.0
 76
0
330
20D
345
0
346
0
  0
IMAGEDEF
  5
3EA
102
{ACAD_REACTORS
330
3E5
330
3E4
102
}
100
AcDbRasterImageDef
 90
0
  1
WAY_assy_2_img_1.png
 10
369.0
 20
92.0
 11
0.0066666667
 21
0.0066666667
280
1
281
0
  0
TABLESTYLE
  5
3EB
102
{ACAD_REACTORS
330
3E7
330
291
330
292
102
}
330
3E7
100
AcDbTableStyle
  3
Standard
 70
0
 71
0
 40
0.06
 41
0.06
280
1
281
1
  7
Standard
140
0.18
170
1
 62
0
 63
7
283
0
  7
Standard
140
0.18
170
1
 62
0
 63
7
283
0
  7
Standard
140
0.18
170
1
 62
0
 63
7
283
0
  0
TABLESTYLE
  5
3EC
102
{ACAD_REACTORS
330
3E7
330
290
102
}
330
3E7
100
AcDbTableStyle
  3
Standard1
 70
1
 71
0
 40
0.06
 41
0.06
280
1
281
1
  7
Standard
140
0.18
170
1
 62
0
 63
7
283
0
  7
Standard
140
0.18
170
1
 62
0
 63
7
283
0
  7
Standard
140
0.18
170
1
 62
0
 63
7
283
0
  0
ENDSEC
  0
EOF
