999
DXF file: WAX_assy_2.dxf
999
Pro/ENGINEER 2014200 by Parametric Technology Corporation
  0
SECTION
  2
HEADER
  9
$ACADVER
  1
AC1021
  9
$DWGCODEPAGE
  3
ANSI_1252
  9
$EXTMAX
 10
22.0
 20
17.0
 30
0.0
  9
$EXTMIN
 10
0.0
 20
0.0
 30
0.0
  9
$LIMMIN
 10
0.0
 20
0.0
  9
$LIMMAX
 10
22.0
 20
17.0
  9
$VIEWCTR
 10
11.0
 20
8.5
  9
$VIEWSIZE
 40
17.0
  9
$CLAYER
  8
0
  9
$LTSCALE
 40
1.21
  9
$CELTYPE
  6
BYLAYER
  9
$DIMSCALE
 40
1.0
  9
$DIMASZ
 40
0.1875
  9
$DIMEXO
 40
0.0625
  9
$DIMDLI
 40
0.836
  9
$DIMEXE
 40
0.125
  9
$DIMCEN
 40
0.198
  9
$DIMLFAC
 40
1.0
  9
$DIMBLK
  1
_FILLED
  9
$DIMTXT
 40
0.1
  9
$DIMTOL
 70
0
  9
$DIMLIM
 70
0
  9
$DIMTFAC
 40
1.0
  9
$DIMGAP
 40
0.09
  9
$DIMDSEP
 70
46
  9
$AUNITS
 70
0
  9
$PDMODE
 70
3
  9
$PDSIZE
 40
0.3125
  9
$HANDSEED
  5
3C5
  9
$TILEMODE
 70
1
  9
$MEASUREMENT
 70
0
  9
$INSUNITS
 70
1
  0
ENDSEC
  0
SECTION
  2
CLASSES
  0
CLASS
  1
ACDBDICTIONARYWDFLT
  2
AcDbDictionaryWithDefault
  3
AutoCAD 2000
 90
0
 91
1
280
0
281
0
  0
CLASS
  1
ACDBPLACEHOLDER
  2
AcDbPlaceHolder
  3
AutoCAD 2000
 90
0
 91
1
280
0
281
0
  0
CLASS
  1
LAYOUT
  2
AcDbLayout
  3
AutoCAD 2000
 90
0
 91
0
280
0
281
0
  0
CLASS
  1
RASTERVARIABLES
  2
AcDbRasterVariables
  3
ISM
 90
0
 91
1
280
0
281
0
  0
CLASS
  1
IMAGEDEF
  2
AcDbRasterImageDef
  3
ISM
 90
0
 91
1
280
0
281
0
  0
CLASS
  1
IMAGEDEF_REACTOR
  2
AcDbRasterImageDefReactor
  3
ISM
 90
0
 91
1
280
0
281
0
  0
CLASS
  1
IMAGE
  2
AcDbRasterImage
  3
ISM
 90
127
 91
1
280
0
281
1
  0
CLASS
  1
TABLESTYLE
  2
AcDbTableStyle
  3
ObjectDBX Classes
 90
2047
 91
1
280
0
281
0
  0
CLASS
  1
ACAD_TABLE
  2
AcDbTable
  3
ObjectDBX Classes
 90
1025
 91
3
280
0
281
1
  0
ENDSEC
  0
SECTION
  2
TABLES
  0
TABLE
  2
VPORT
  5
8
100
AcDbSymbolTable
 70
2
  0
VPORT
  5
1F4
100
AcDbSymbolTableRecord
100
AcDbViewportTableRecord
  2
*ACTIVE
 70
0
 10
0.0
 20
0.0
 11
1.0
 21
1.0
 12
11.0
 22
8.5
 13
0.0
 23
0.0
 14
1.0
 24
1.0
 15
0.0
 25
0.0
 16
0.0
 26
0.0
 36
1.0
 17
0.0
 27
0.0
 37
0.0
 40
17.0
 41
1.2941176471
 42
50.0
 43
0.0
 44
0.0
 50
0.0
 51
0.0
 71
0
 72
100
 73
1
 74
1
 75
0
 76
0
 77
0
 78
0
  0
ENDTAB
  0
TABLE
  2
LTYPE
  5
5
100
AcDbSymbolTable
 70
6
  0
LTYPE
  5
14
100
AcDbSymbolTableRecord
100
AcDbLinetypeTableRecord
  2
BYBLOCK
 70
0
  3

 72
65
 73
0
 40
0.0
  0
LTYPE
  5
15
100
AcDbSymbolTableRecord
100
AcDbLinetypeTableRecord
  2
BYLAYER
 70
0
  3

 72
65
 73
0
 40
0.0
  0
LTYPE
  5
16
100
AcDbSymbolTableRecord
100
AcDbLinetypeTableRecord
  2
CONTINUOUS
 70
64
  3
Solid line
 72
65
 73
0
 40
0.0
  0
LTYPE
  5
1F5
100
AcDbSymbolTableRecord
100
AcDbLinetypeTableRecord
  2
CENTER
 70
64
  3
____ _ ____ _ ____ _ ____ _ ____ _ ____ _ ____
 72
65
 73
4
 40
0.6
 49
0.375
 74
0
 49
-0.075
 74
0
 49
0.075
 74
0
 49
-0.075
 74
0
  0
LTYPE
  5
1F6
100
AcDbSymbolTableRecord
100
AcDbLinetypeTableRecord
  2
HIDDEN
 70
64
  3
- - - - - - - - - - - - - - - - - - - -
 72
65
 73
2
 40
0.2
 49
0.1
 74
0
 49
-0.1
 74
0
  0
LTYPE
  5
1F7
100
AcDbSymbolTableRecord
100
AcDbLinetypeTableRecord
  2
PHANTOM
 70
64
  3
_____ _ _ _____ _ _ _____ _ _ _____
 72
65
 73
6
 40
0.8
 49
0.45
 74
0
 49
-0.05
 74
0
 49
0.1
 74
0
 49
-0.05
 74
0
 49
0.1
 74
0
 49
-0.05
 74
0
  0
LTYPE
  5
1F8
100
AcDbSymbolTableRecord
100
AcDbLinetypeTableRecord
  2
DOT
 70
64
  3
. . . . . . . . . . . . . . . . . . . .
 72
65
 73
2
 40
0.2
 49
0.1
 74
0
 49
-0.1
 74
0
  0
LTYPE
  5
1F9
100
AcDbSymbolTableRecord
100
AcDbLinetypeTableRecord
  2
DASHED
 70
64
  3
- - - - - - - - - - - - - - - - - - - -
 72
65
 73
2
 40
0.2
 49
0.1
 74
0
 49
-0.1
 74
0
  0
ENDTAB
  0
TABLE
  2
LAYER
  5
2
100
AcDbSymbolTable
 70
36
  0
LAYER
  5
10
100
AcDbSymbolTableRecord
100
AcDbLayerTableRecord
  2
0
 70
0
 62
7
  6
CONTINUOUS
370
-3
390
F
  0
LAYER
  5
1FA
100
AcDbSymbolTableRecord
100
AcDbLayerTableRecord
  2
DEFAULT_1
 70
0
 62
7
  6
CENTER
370
-3
390
F
  0
LAYER
  5
1FB
100
AcDbSymbolTableRecord
100
AcDbLayerTableRecord
  2
DEFAULT_2
 70
0
 62
8
  6
HIDDEN
370
-3
390
F
  0
LAYER
  5
1FC
100
AcDbSymbolTableRecord
100
AcDbLayerTableRecord
  2
DEFAULT_3
 70
0
 62
7
  6
PHANTOM
370
-3
390
F
  0
LAYER
  5
1FD
100
AcDbSymbolTableRecord
100
AcDbLayerTableRecord
  2
01___PRT_ALL_DTM_PLN
 70
0
 62
7
  6
CONTINUOUS
370
-3
390
F
  0
LAYER
  5
1FE
100
AcDbSymbolTableRecord
100
AcDbLayerTableRecord
  2
01___PRT_DEF_DTM_PLN
 70
0
 62
7
  6
CONTINUOUS
370
-3
390
F
  0
LAYER
  5
1FF
100
AcDbSymbolTableRecord
100
AcDbLayerTableRecord
  2
02___PRT_ALL_AXES
 70
0
 62
7
  6
CONTINUOUS
370
-3
390
F
  0
LAYER
  5
200
100
AcDbSymbolTableRecord
100
AcDbLayerTableRecord
  2
03___PRT_ALL_CURVES
 70
0
 62
7
  6
CONTINUOUS
370
-3
390
F
  0
LAYER
  5
201
100
AcDbSymbolTableRecord
100
AcDbLayerTableRecord
  2
04___PRT_ALL_DTM_PNT
 70
0
 62
7
  6
CONTINUOUS
370
-3
390
F
  0
LAYER
  5
202
100
AcDbSymbolTableRecord
100
AcDbLayerTableRecord
  2
05___PRT_ALL_DTM_CSYS
 70
0
 62
7
  6
CONTINUOUS
370
-3
390
F
  0
LAYER
  5
203
100
AcDbSymbolTableRecord
100
AcDbLayerTableRecord
  2
05___PRT_DEF_DTM_CSYS
 70
0
 62
7
  6
CONTINUOUS
370
-3
390
F
  0
LAYER
  5
204
100
AcDbSymbolTableRecord
100
AcDbLayerTableRecord
  2
06___PRT_ALL_SURFS
 70
0
 62
7
  6
CONTINUOUS
370
-3
390
F
  0
LAYER
  5
205
100
AcDbSymbolTableRecord
100
AcDbLayerTableRecord
  2
DATUM_PLANES
 70
0
 62
7
  6
CONTINUOUS
370
-3
390
F
  0
LAYER
  5
206
100
AcDbSymbolTableRecord
100
AcDbLayerTableRecord
  2
PORT_AREAS
 70
0
 62
7
  6
CONTINUOUS
370
-3
390
F
  0
LAYER
  5
207
100
AcDbSymbolTableRecord
100
AcDbLayerTableRecord
  2
SUNNBOMCOSMETIC
 70
0
 62
7
  6
CONTINUOUS
370
-3
390
F
  0
LAYER
  5
208
100
AcDbSymbolTableRecord
100
AcDbLayerTableRecord
  2
SUNNBOMSTAMPING
 70
0
 62
7
  6
CONTINUOUS
370
-3
390
F
  0
LAYER
  5
209
100
AcDbSymbolTableRecord
100
AcDbLayerTableRecord
  2
THREADS
 70
0
 62
7
  6
CONTINUOUS
370
-3
390
F
  0
ENDTAB
  0
TABLE
  2
STYLE
  5
3
100
AcDbSymbolTable
 70
1
  0
STYLE
  5
11
100
AcDbSymbolTableRecord
100
AcDbTextStyleTableRecord
  2
STANDARD
 70
0
 40
0.0
 41
0.8
 50
0.0
 71
0
 42
0.2
  3
txt
  4

  0
STYLE
  5
20A
100
AcDbSymbolTableRecord
100
AcDbTextStyleTableRecord
  2
TEXTSTYLE_1
 70
0
 40
0.0
 41
0.8
 50
0.0
 71
0
 42
0.2
  3
gdt
  4

  0
ENDTAB
  0
TABLE
  2
VIEW
  5
6
100
AcDbSymbolTable
 70
0
  0
ENDTAB
  0
TABLE
  2
UCS
  5
7
100
AcDbSymbolTable
 70
0
  0
ENDTAB
  0
TABLE
  2
APPID
  5
9
100
AcDbSymbolTable
 70
1
  0
APPID
  5
20B
100
AcDbSymbolTableRecord
100
AcDbRegAppTableRecord
  2
ACAD
 70
0
  0
ENDTAB
  0
TABLE
  2
BLOCK_RECORD
  5
1
100
AcDbSymbolTable
 70
0
  0
BLOCK_RECORD
  5
20C
100
AcDbSymbolTableRecord
100
AcDbBlockTableRecord
  2
*Model_Space
  0
BLOCK_RECORD
  5
20D
100
AcDbSymbolTableRecord
100
AcDbBlockTableRecord
  2
*Paper_Space
  0
BLOCK_RECORD
  5
20E
100
AcDbSymbolTableRecord
100
AcDbBlockTableRecord
  2
SUN_FIRST_THIRD_ANGLE_BL0
  0
BLOCK_RECORD
  5
20F
100
AcDbSymbolTableRecord
100
AcDbBlockTableRecord
  2
*T1
  0
BLOCK_RECORD
  5
210
100
AcDbSymbolTableRecord
100
AcDbBlockTableRecord
  2
*T2
  0
BLOCK_RECORD
  5
211
100
AcDbSymbolTableRecord
100
AcDbBlockTableRecord
  2
*T3
  0
ENDTAB
  0
TABLE
  2
DIMSTYLE
  5
A
100
AcDbSymbolTable
 70
1
100
AcDbDimStyleTable
 71
0
  0
DIMSTYLE
105
212
100
AcDbSymbolTableRecord
100
AcDbDimStyleTableRecord
  2
STANDARD
 70
0
  3

  4

 40
1.0
 41
0.1875
 42
0.0625
 43
0.38
 44
0.125
 45
0.0
 46
0.0
 47
0.001
 48
0.001
140
0.1
141
0.09
142
0.0
143
25.4
144
1.0
145
0.0
146
1.0
147
0.09
 71
0.0
 72
0.0
 73
1
 74
1
 75
0
 76
0
 77
0
 78
4
170
0
171
2
172
0
173
0
174
0
175
0
176
0
177
0
178
0
270
2
271
3
272
3
273
2
274
2
275
0
280
0
281
0
282
0
283
1
284
4
285
0
286
0
287
3
288
0
340
11
278
46
  0
ENDTAB
  0
ENDSEC
  0
SECTION
  2
BLOCKS
  0
BLOCK
  5
20
100
AcDbEntity
  8
0
100
AcDbBlockBegin
  2
*Model_Space
 70
0
 10
0.0
 20
0.0
 30
0.0
  3
*Model_Space
  1

  0
ENDBLK
  5
21
100
AcDbEntity
  8
0
100
AcDbBlockEnd
  0
BLOCK
  5
1C
100
AcDbEntity
  8
0
100
AcDbBlockBegin
  2
*Paper_Space
 70
0
 10
0.0
 20
0.0
 30
0.0
  3
*Paper_Space
  1

  0
ENDBLK
  5
1D
100
AcDbEntity
  8
0
100
AcDbBlockEnd
  0
BLOCK
  5
213
100
AcDbEntity
  8
0
100
AcDbBlockBegin
 62
2
  6
CONTINUOUS
  2
SUN_FIRST_THIRD_ANGLE_BL0
 70
64
 10
20.4816717061
 20
1.2289683772
  3
SUN_FIRST_THIRD_ANGLE_BL0
  1

  0
TEXT
  5
214
100
AcDbEntity
  8
0
100
AcDbText
 62
2
  6
CONTINUOUS
 10
19.4750896608
 20
1.4136269581
  7
STANDARD
 40
0.08
  1
FIRST ANGLE
 41
0.8
 72
0
100
AcDbText
  0
TEXT
  5
215
100
AcDbEntity
  8
0
100
AcDbText
 62
2
  6
CONTINUOUS
 10
20.7842537513
 20
1.4047600029
  7
STANDARD
 40
0.08
  1
THIRD ANGLE
 41
0.8
 72
0
100
AcDbText
  0
LINE
  5
216
100
AcDbEntity
  8
0
100
AcDbLine
 62
7
  6
CONTINUOUS
 10
19.4767170086
 20
1.1727031207
 11
19.6334271527
 21
1.1717972817
  0
LINE
  5
217
100
AcDbEntity
  8
0
100
AcDbLine
 62
7
  6
CONTINUOUS
 10
19.6596964832
 20
1.1717972817
 11
19.6950230232
 21
1.171593082
  0
LINE
  5
218
100
AcDbEntity
  8
0
100
AcDbLine
 62
7
  6
CONTINUOUS
 10
19.7194818561
 20
1.1708914427
 11
19.8852396156
 21
1.1699333054
  0
LINE
  5
219
100
AcDbEntity
  8
0
100
AcDbLine
 62
7
  6
CONTINUOUS
 10
19.4758111696
 20
1.2723454088
 11
19.88525039
 21
1.3511534004
  0
LINE
  5
21A
100
AcDbEntity
  8
0
100
AcDbLine
 62
7
  6
CONTINUOUS
 10
19.88525039
 20
1.3511534004
 11
19.8831348489
 21
0.9851647912
  0
LINE
  5
21B
100
AcDbEntity
  8
0
100
AcDbLine
 62
7
  6
CONTINUOUS
 10
19.8831348489
 20
0.9851647912
 11
19.4767170086
 21
1.0658141206
  0
LINE
  5
21C
100
AcDbEntity
  8
0
100
AcDbLine
 62
7
  6
CONTINUOUS
 10
19.4767170086
 20
1.0658141206
 11
19.4779056764
 21
1.2714536432
  0
CIRCLE
  5
21D
100
AcDbEntity
  8
0
100
AcDbCircle
 62
7
  6
CONTINUOUS
 10
20.2068232291
 20
1.1717972817
 40
0.175742101
  0
CIRCLE
  5
21E
100
AcDbEntity
  8
0
100
AcDbCircle
 62
7
  6
CONTINUOUS
 10
20.2068232291
 20
1.1717972817
 40
0.1005522074
  0
LINE
  5
21F
100
AcDbEntity
  8
0
100
AcDbLine
 62
7
  6
CONTINUOUS
 10
20.2077290681
 20
1.3756110529
 11
20.2071171714
 21
1.2379342989
  0
LINE
  5
220
100
AcDbEntity
  8
0
100
AcDbLine
 62
7
  6
CONTINUOUS
 10
20.2077290681
 20
1.2016899681
 11
20.2074674401
 21
1.1428236749
  0
LINE
  5
221
100
AcDbEntity
  8
0
100
AcDbLine
 62
7
  6
CONTINUOUS
 10
20.208634907
 20
1.101141841
 11
20.2080230104
 21
0.963465087
  0
LINE
  5
222
100
AcDbEntity
  8
0
100
AcDbLine
 62
7
  6
CONTINUOUS
 10
20.0066328138
 20
1.1745147986
 11
20.1443095678
 21
1.1739029019
  0
LINE
  5
223
100
AcDbEntity
  8
0
100
AcDbLine
 62
7
  6
CONTINUOUS
 10
20.1832714155
 20
1.1727031207
 11
20.238153505
 21
1.172335442
  0
LINE
  5
224
100
AcDbEntity
  8
0
100
AcDbLine
 62
7
  6
CONTINUOUS
 10
20.2756669918
 20
1.1717972817
 11
20.407916871
 21
1.1712095044
  0
CIRCLE
  5
225
100
AcDbEntity
  8
0
100
AcDbCircle
 62
7
  6
CONTINUOUS
 10
20.7509457401
 20
1.1693297793
 40
0.1722024983
  0
CIRCLE
  5
226
100
AcDbEntity
  8
0
100
AcDbCircle
 62
7
  6
CONTINUOUS
 10
20.7509457401
 20
1.1693297793
 40
0.0985164967
  0
LINE
  5
227
100
AcDbEntity
  8
0
100
AcDbLine
 62
7
  6
CONTINUOUS
 10
20.7169767782
 20
1.170462078
 11
20.7825395137
 21
1.1682766535
  0
LINE
  5
228
100
AcDbEntity
  8
0
100
AcDbLine
 62
7
  6
CONTINUOUS
 10
20.8177513651
 20
1.1693297793
 11
20.947965719
 21
1.1693297793
  0
LINE
  5
229
100
AcDbEntity
  8
0
100
AcDbLine
 62
7
  6
CONTINUOUS
 10
20.6875370113
 20
1.170462078
 11
20.5573226574
 21
1.170462078
  0
LINE
  5
22A
100
AcDbEntity
  8
0
100
AcDbLine
 62
7
  6
CONTINUOUS
 10
20.7486811426
 20
1.1987695462
 11
20.7486811426
 21
1.1432869085
  0
LINE
  5
22B
100
AcDbEntity
  8
0
100
AcDbLine
 62
7
  6
CONTINUOUS
 10
20.7498134414
 20
1.1059210505
 11
20.7498134414
 21
0.9757066966
  0
LINE
  5
22C
100
AcDbEntity
  8
0
100
AcDbLine
 62
7
  6
CONTINUOUS
 10
20.7486811426
 20
1.2338708068
 11
20.7486811426
 21
1.3640851607
  0
LINE
  5
22D
100
AcDbEntity
  8
0
100
AcDbLine
 62
7
  6
CONTINUOUS
 10
21.0702539817
 20
1.2701043662
 11
21.4790138229
 21
1.3448360823
  0
LINE
  5
22E
100
AcDbEntity
  8
0
100
AcDbLine
 62
7
  6
CONTINUOUS
 10
21.4790138229
 20
1.3448360823
 11
21.4790138229
 21
0.9779712941
  0
LINE
  5
22F
100
AcDbEntity
  8
0
100
AcDbLine
 62
7
  6
CONTINUOUS
 10
21.4790138229
 20
0.9779712941
 11
21.069121683
 21
1.0617614
  0
LINE
  5
230
100
AcDbEntity
  8
0
100
AcDbLine
 62
7
  6
CONTINUOUS
 10
21.0702539817
 20
1.2701043662
 11
21.069121683
 21
1.0617614
  0
LINE
  5
231
100
AcDbEntity
  8
0
100
AcDbLine
 62
7
  6
CONTINUOUS
 10
21.4790138229
 20
1.1693297793
 11
21.3159628059
 21
1.1693297793
  0
LINE
  5
232
100
AcDbEntity
  8
0
100
AcDbLine
 62
7
  6
CONTINUOUS
 10
21.2876553377
 20
1.1693297793
 11
21.2502894796
 21
1.1693297793
  0
LINE
  5
233
100
AcDbEntity
  8
0
100
AcDbLine
 62
7
  6
CONTINUOUS
 10
21.2208497126
 20
1.1659328831
 11
21.0713862804
 21
1.1659328831
  0
LINE
  5
234
100
AcDbEntity
  8
0
100
AcDbLine
 62
7
  6
CONTINUOUS
 10
20.4796138713
 20
1.5284908897
 11
20.4766766948
 21
0.9294458646
  0
ENDBLK
  5
235
100
AcDbEntity
  8
0
  6
BYBLOCK
 62
0
100
AcDbBlockEnd
  0
BLOCK
  5
236
100
AcDbEntity
  8
0
100
AcDbBlockBegin
  2
*T1
 70
1
 10
0.0
 20
0.0
  3
*T1
  1

  0
LINE
  5
237
100
AcDbEntity
  8
0
100
AcDbLine
 62
2
  6
CONTINUOUS
 10
9.275
 20
0.0
 11
-0.0
 21
0.0
  0
LINE
  5
238
100
AcDbEntity
  8
0
100
AcDbLine
 62
2
  6
CONTINUOUS
 10
9.275
 20
0.0
 11
9.275
 21
1.25
  0
LINE
  5
239
100
AcDbEntity
  8
0
100
AcDbLine
 62
2
  6
CONTINUOUS
 10
9.275
 20
0.625
 11
-0.0
 21
0.625
  0
LINE
  5
23A
100
AcDbEntity
  8
0
100
AcDbLine
 62
2
  6
CONTINUOUS
 10
9.275
 20
1.25
 11
-0.0
 21
1.25
  0
LINE
  5
23B
100
AcDbEntity
  8
0
100
AcDbLine
 62
2
  6
CONTINUOUS
 10
6.8
 20
0.0
 11
6.8
 21
1.25
  0
LINE
  5
23C
100
AcDbEntity
  8
0
100
AcDbLine
 62
2
  6
CONTINUOUS
 10
6.4
 20
0.0
 11
6.4
 21
0.625
  0
LINE
  5
23D
100
AcDbEntity
  8
0
100
AcDbLine
 62
2
  6
CONTINUOUS
 10
5.9
 20
0.0
 11
5.9
 21
0.625
  0
LINE
  5
23E
100
AcDbEntity
  8
0
100
AcDbLine
 62
2
  6
CONTINUOUS
 10
5.2
 20
0.0
 11
5.2
 21
0.625
  0
LINE
  5
23F
100
AcDbEntity
  8
0
100
AcDbLine
 62
2
  6
CONTINUOUS
 10
4.1
 20
0.0
 11
4.1
 21
1.25
  0
LINE
  5
240
100
AcDbEntity
  8
0
100
AcDbLine
 62
2
  6
CONTINUOUS
 10
-0.0
 20
0.0
 11
-0.0
 21
1.25
  0
MTEXT
  5
241
100
AcDbEntity
  8
0
100
AcDbMText
 62
2
  6
CONTINUOUS
  7
STANDARD
 71
2
 72
1
 10
6.6
 20
0.325
 30
0.0
 11
1.0
 21
0.0
 31
0.0
 44
0.9
  1
2
 40
0.125
 41
0.2
  0
MTEXT
  5
242
100
AcDbEntity
  8
0
100
AcDbMText
 62
2
  6
CONTINUOUS
  7
STANDARD
 71
2
 72
1
 10
6.15
 20
0.325
 30
0.0
 11
1.0
 21
0.0
 31
0.0
 44
0.9
  1
C
 40
0.125
 41
0.2
  0
MTEXT
  5
243
100
AcDbEntity
  8
0
100
AcDbMText
 62
2
  6
CONTINUOUS
  7
STANDARD
 71
2
 72
1
 10
5.55
 20
0.325
 30
0.0
 11
1.0
 21
0.0
 31
0.0
 44
0.9
  1
1.000
 40
0.125
 41
1.0
  0
MTEXT
  5
244
100
AcDbEntity
  8
0
100
AcDbMText
 62
2
  6
CONTINUOUS
  7
STANDARD
 71
2
 72
1
 10
4.65
 20
0.325
 30
0.0
 11
1.0
 21
0.0
 31
0.0
 44
0.9
  1
Aug-10-23
 40
0.125
 41
1.8
  0
MTEXT
  5
245
100
AcDbEntity
  8
0
100
AcDbMText
 62
2
  6
CONTINUOUS
  7
STANDARD
 71
2
 72
1
 10
2.05
 20
0.4625
 30
0.0
 11
1.0
 21
0.0
 31
0.0
 44
0.9
  1
T-10A Subplate ISO 05\PP to T, check on P, side ports
 40
0.125
 41
6.0
  0
MTEXT
  5
246
100
AcDbEntity
  8
0
100
AcDbMText
 62
2
  6
CONTINUOUS
  7
STANDARD
 71
1
 72
1
 10
6.45
 20
0.5625
 30
0.0
 11
1.0
 21
0.0
 31
0.0
 44
0.9
  1
SHEET
 40
0.06
 41
0.48
  0
MTEXT
  5
247
100
AcDbEntity
  8
0
100
AcDbMText
 62
2
  6
CONTINUOUS
  7
STANDARD
 71
1
 72
1
 10
5.95
 20
0.5625
 30
0.0
 11
1.0
 21
0.0
 31
0.0
 44
0.9
  1
DWG SIZE
 40
0.06
 41
0.768
  0
MTEXT
  5
248
100
AcDbEntity
  8
0
100
AcDbMText
 62
2
  6
CONTINUOUS
  7
STANDARD
 71
1
 72
1
 10
5.25
 20
0.5625
 30
0.0
 11
1.0
 21
0.0
 31
0.0
 44
0.9
  1
SCALE
 40
0.06
 41
0.48
  0
MTEXT
  5
249
100
AcDbEntity
  8
0
100
AcDbMText
 62
2
  6
CONTINUOUS
  7
STANDARD
 71
1
 72
1
 10
4.15
 20
0.5625
 30
0.0
 11
1.0
 21
0.0
 31
0.0
 44
0.9
  1
DATE
 40
0.06
 41
0.384
  0
MTEXT
  5
24A
100
AcDbEntity
  8
0
100
AcDbMText
 62
2
  6
CONTINUOUS
  7
STANDARD
 71
1
 72
1
 10
0.05
 20
0.5625
 30
0.0
 11
1.0
 21
0.0
 31
0.0
 44
0.9
  1
DESCRIPTION
 40
0.06
 41
1.056
  0
MTEXT
  5
24B
100
AcDbEntity
  8
0
100
AcDbMText
 62
2
  6
CONTINUOUS
  7
STANDARD
 71
2
 72
1
 10
5.45
 20
1.0375
 30
0.0
 11
1.0
 21
0.0
 31
0.0
 44
0.9
  1
ALL DIMENSIONS IN INCH\PVIEWS ARE THIRD ANGLE
 40
0.12
 41
4.224
  0
MTEXT
  5
24C
100
AcDbEntity
  8
0
100
AcDbMText
 62
2
  6
CONTINUOUS
  7
STANDARD
 71
2
 72
1
 10
2.05
 20
0.95
 30
0.0
 11
1.0
 21
0.0
 31
0.0
 44
0.9
  1
WAX
 40
0.125
 41
0.6
  0
MTEXT
  5
24D
100
AcDbEntity
  8
0
100
AcDbMText
 62
2
  6
CONTINUOUS
  7
STANDARD
 71
1
 72
1
 10
0.05
 20
1.1875
 30
0.0
 11
1.0
 21
0.0
 31
0.0
 44
0.9
  1
MODEL
 40
0.06
 41
0.48
  0
ENDBLK
  5
24E
100
AcDbEntity
  8
0
  6
BYBLOCK
 62
0
100
AcDbBlockEnd
  0
BLOCK
  5
24F
100
AcDbEntity
  8
0
100
AcDbBlockBegin
  2
*T2
 70
1
 10
0.0
 20
0.0
  3
*T2
  1

  0
LINE
  5
250
100
AcDbEntity
  8
0
100
AcDbLine
 62
2
  6
CONTINUOUS
 10
0.0
 20
0.0
 11
9.055
 21
0.0
  0
LINE
  5
251
100
AcDbEntity
  8
0
100
AcDbLine
 62
2
  6
CONTINUOUS
 10
0.0
 20
0.0
 11
0.0
 21
-2.844
  0
LINE
  5
252
100
AcDbEntity
  8
0
100
AcDbLine
 62
2
  6
CONTINUOUS
 10
0.0
 20
-0.344
 11
9.055
 21
-0.344
  0
LINE
  5
253
100
AcDbEntity
  8
0
100
AcDbLine
 62
2
  6
CONTINUOUS
 10
0.0
 20
-0.594
 11
9.055
 21
-0.594
  0
LINE
  5
254
100
AcDbEntity
  8
0
100
AcDbLine
 62
2
  6
CONTINUOUS
 10
0.0
 20
-0.844
 11
9.055
 21
-0.844
  0
LINE
  5
255
100
AcDbEntity
  8
0
100
AcDbLine
 62
2
  6
CONTINUOUS
 10
0.0
 20
-1.094
 11
9.055
 21
-1.094
  0
LINE
  5
256
100
AcDbEntity
  8
0
100
AcDbLine
 62
2
  6
CONTINUOUS
 10
0.0
 20
-1.344
 11
9.055
 21
-1.344
  0
LINE
  5
257
100
AcDbEntity
  8
0
100
AcDbLine
 62
2
  6
CONTINUOUS
 10
0.0
 20
-1.594
 11
9.055
 21
-1.594
  0
LINE
  5
258
100
AcDbEntity
  8
0
100
AcDbLine
 62
2
  6
CONTINUOUS
 10
0.0
 20
-1.844
 11
9.055
 21
-1.844
  0
LINE
  5
259
100
AcDbEntity
  8
0
100
AcDbLine
 62
2
  6
CONTINUOUS
 10
0.0
 20
-2.094
 11
9.055
 21
-2.094
  0
LINE
  5
25A
100
AcDbEntity
  8
0
100
AcDbLine
 62
2
  6
CONTINUOUS
 10
0.0
 20
-2.344
 11
9.055
 21
-2.344
  0
LINE
  5
25B
100
AcDbEntity
  8
0
100
AcDbLine
 62
2
  6
CONTINUOUS
 10
0.0
 20
-2.594
 11
9.055
 21
-2.594
  0
LINE
  5
25C
100
AcDbEntity
  8
0
100
AcDbLine
 62
2
  6
CONTINUOUS
 10
0.0
 20
-2.844
 11
9.055
 21
-2.844
  0
LINE
  5
25D
100
AcDbEntity
  8
0
100
AcDbLine
 62
2
  6
CONTINUOUS
 10
3.055
 20
0.0
 11
3.055
 21
-2.844
  0
LINE
  5
25E
100
AcDbEntity
  8
0
100
AcDbLine
 62
2
  6
CONTINUOUS
 10
9.055
 20
0.0
 11
9.055
 21
-2.844
  0
MTEXT
  5
25F
100
AcDbEntity
  8
0
100
AcDbMText
 62
2
  6
CONTINUOUS
  7
STANDARD
 71
2
 72
1
 10
1.5275
 20
-0.0995
 30
0.0
 11
1.0
 21
0.0
 31
0.0
 44
0.9
  1
Technical Data
 40
0.145
 41
3.248
  0
MTEXT
  5
260
100
AcDbEntity
  8
0
100
AcDbMText
 62
2
  6
CONTINUOUS
  7
STANDARD
 71
2
 72
1
 10
4.555
 20
-0.0995
 30
0.0
 11
1.0
 21
0.0
 31
0.0
 44
0.9
  1
U.S. Units
 40
0.145
 41
2.32
  0
MTEXT
  5
261
100
AcDbEntity
  8
0
100
AcDbMText
 62
2
  6
CONTINUOUS
  7
STANDARD
 71
2
 72
1
 10
7.555
 20
-0.0995
 30
0.0
 11
1.0
 21
0.0
 31
0.0
 44
0.9
  1
Metric Units
 40
0.145
 41
2.784
  0
MTEXT
  5
262
100
AcDbEntity
  8
0
100
AcDbMText
 62
2
  6
CONTINUOUS
  7
STANDARD
 71
2
 72
1
 10
1.5275
 20
-0.4065
 30
0.0
 11
1.0
 21
0.0
 31
0.0
 44
0.9
  1
Cavity
 40
0.125
 41
1.2
  0
MTEXT
  5
263
100
AcDbEntity
  8
0
100
AcDbMText
 62
2
  6
CONTINUOUS
  7
STANDARD
 71
2
 72
1
 10
6.055
 20
-0.4065
 30
0.0
 11
1.0
 21
0.0
 31
0.0
 44
0.9
  1
T-10A
 40
0.125
 41
1.0
  0
MTEXT
  5
264
100
AcDbEntity
  8
0
100
AcDbMText
 62
2
  6
CONTINUOUS
  7
STANDARD
 71
2
 72
1
 10
1.5275
 20
-0.6565
 30
0.0
 11
1.0
 21
0.0
 31
0.0
 44
0.9
  1
Body Features
 40
0.125
 41
2.6
  0
MTEXT
  5
265
100
AcDbEntity
  8
0
100
AcDbMText
 62
2
  6
CONTINUOUS
  7
STANDARD
 71
2
 72
1
 10
6.055
 20
-0.6565
 30
0.0
 11
1.0
 21
0.0
 31
0.0
 44
0.9
  1
P to T, check on P, side ports
 40
0.125
 41
6.0
  0
MTEXT
  5
266
100
AcDbEntity
  8
0
100
AcDbMText
 62
2
  6
CONTINUOUS
  7
STANDARD
 71
2
 72
1
 10
1.5275
 20
-0.9065
 30
0.0
 11
1.0
 21
0.0
 31
0.0
 44
0.9
  1
Body Type
 40
0.125
 41
1.8
  0
MTEXT
  5
267
100
AcDbEntity
  8
0
100
AcDbMText
 62
2
  6
CONTINUOUS
  7
STANDARD
 71
2
 72
1
 10
6.055
 20
-0.9065
 30
0.0
 11
1.0
 21
0.0
 31
0.0
 44
0.9
  1
Subplate
 40
0.125
 41
1.6
  0
MTEXT
  5
268
100
AcDbEntity
  8
0
100
AcDbMText
 62
2
  6
CONTINUOUS
  7
STANDARD
 71
2
 72
1
 10
1.5275
 20
-1.1565
 30
0.0
 11
1.0
 21
0.0
 31
0.0
 44
0.9
  1
Interface
 40
0.125
 41
1.8
  0
MTEXT
  5
269
100
AcDbEntity
  8
0
100
AcDbMText
 62
2
  6
CONTINUOUS
  7
STANDARD
 71
2
 72
1
 10
6.055
 20
-1.1565
 30
0.0
 11
1.0
 21
0.0
 31
0.0
 44
0.9
  1
ISO 05
 40
0.125
 41
1.2
  0
MTEXT
  5
26A
100
AcDbEntity
  8
0
100
AcDbMText
 62
2
  6
CONTINUOUS
  7
STANDARD
 71
2
 72
1
 10
1.5275
 20
-1.4065
 30
0.0
 11
1.0
 21
0.0
 31
0.0
 44
0.9
  1
Open Cavity Quantity
 40
0.125
 41
4.0
  0
MTEXT
  5
26B
100
AcDbEntity
  8
0
100
AcDbMText
 62
2
  6
CONTINUOUS
  7
STANDARD
 71
2
 72
1
 10
6.055
 20
-1.4065
 30
0.0
 11
1.0
 21
0.0
 31
0.0
 44
0.9
  1
1
 40
0.125
 41
0.2
  0
MTEXT
  5
26C
100
AcDbEntity
  8
0
100
AcDbMText
 62
2
  6
CONTINUOUS
  7
STANDARD
 71
2
 72
1
 10
1.5275
 20
-1.6565
 30
0.0
 11
1.0
 21
0.0
 31
0.0
 44
0.9
  1
Weight
 40
0.125
 41
1.2
  0
MTEXT
  5
26D
100
AcDbEntity
  8
0
100
AcDbMText
 62
2
  6
CONTINUOUS
  7
STANDARD
 71
2
 72
1
 10
4.555
 20
-1.6565
 30
0.0
 11
1.0
 21
0.0
 31
0.0
 44
0.9
  1
5.102 lb.
 40
0.125
 41
1.8
  0
MTEXT
  5
26E
100
AcDbEntity
  8
0
100
AcDbMText
 62
2
  6
CONTINUOUS
  7
STANDARD
 71
2
 72
1
 10
7.555
 20
-1.6565
 30
0.0
 11
1.0
 21
0.0
 31
0.0
 44
0.9
  1
2,314 kg.
 40
0.125
 41
1.8
  0
MTEXT
  5
26F
100
AcDbEntity
  8
0
100
AcDbMText
 62
2
  6
CONTINUOUS
  7
STANDARD
 71
2
 72
1
 10
1.5275
 20
-1.9065
 30
0.0
 11
1.0
 21
0.0
 31
0.0
 44
0.9
  1
Mounting Hole Diameter
 40
0.125
 41
4.4
  0
MTEXT
  5
270
100
AcDbEntity
  8
0
100
AcDbMText
 62
2
  6
CONTINUOUS
  7
STANDARD
 71
2
 72
1
 10
4.555
 20
-1.9065
 30
0.0
 11
1.0
 21
0.0
 31
0.0
 44
0.9
  1
.44 in.
 40
0.125
 41
1.4
  0
MTEXT
  5
271
100
AcDbEntity
  8
0
100
AcDbMText
 62
2
  6
CONTINUOUS
  7
STANDARD
 71
2
 72
1
 10
7.555
 20
-1.9065
 30
0.0
 11
1.0
 21
0.0
 31
0.0
 44
0.9
  1
11,1 mm
 40
0.125
 41
1.4
  0
MTEXT
  5
272
100
AcDbEntity
  8
0
100
AcDbMText
 62
2
  6
CONTINUOUS
  7
STANDARD
 71
2
 72
1
 10
1.5275
 20
-2.1565
 30
0.0
 11
1.0
 21
0.0
 31
0.0
 44
0.9
  1
Mounting Hole Depth
 40
0.125
 41
3.8
  0
MTEXT
  5
273
100
AcDbEntity
  8
0
100
AcDbMText
 62
2
  6
CONTINUOUS
  7
STANDARD
 71
2
 72
1
 10
6.055
 20
-2.1565
 30
0.0
 11
1.0
 21
0.0
 31
0.0
 44
0.9
  1
Through
 40
0.125
 41
1.4
  0
MTEXT
  5
274
100
AcDbEntity
  8
0
100
AcDbMText
 62
2
  6
CONTINUOUS
  7
STANDARD
 71
2
 72
1
 10
1.5275
 20
-2.4065
 30
0.0
 11
1.0
 21
0.0
 31
0.0
 44
0.9
  1
Mounting Hole Quantity
 40
0.125
 41
4.4
  0
MTEXT
  5
275
100
AcDbEntity
  8
0
100
AcDbMText
 62
2
  6
CONTINUOUS
  7
STANDARD
 71
2
 72
1
 10
6.055
 20
-2.4065
 30
0.0
 11
1.0
 21
0.0
 31
0.0
 44
0.9
  1
4
 40
0.125
 41
0.2
  0
MTEXT
  5
276
100
AcDbEntity
  8
0
100
AcDbMText
 62
2
  6
CONTINUOUS
  7
STANDARD
 71
2
 72
1
 10
1.5275
 20
-2.6565
 30
0.0
 11
1.0
 21
0.0
 31
0.0
 44
0.9
  1
Includes integral cartridge(s)
 40
0.125
 41
6.0
  0
MTEXT
  5
277
100
AcDbEntity
  8
0
100
AcDbMText
 62
2
  6
CONTINUOUS
  7
STANDARD
 71
2
 72
1
 10
6.055
 20
-2.6565
 30
0.0
 11
1.0
 21
0.0
 31
0.0
 44
0.9
  1
Yes (see Included Components)
 40
0.125
 41
5.8
  0
ENDBLK
  5
278
100
AcDbEntity
  8
0
  6
BYBLOCK
 62
0
100
AcDbBlockEnd
  0
BLOCK
  5
279
100
AcDbEntity
  8
0
100
AcDbBlockBegin
  2
*T3
 70
1
 10
0.0
 20
0.0
  3
*T3
  1

  0
LINE
  5
27A
100
AcDbEntity
  8
0
100
AcDbLine
 62
2
  6
CONTINUOUS
 10
0.0
 20
0.0
 11
4.6
 21
0.0
  0
LINE
  5
27B
100
AcDbEntity
  8
0
100
AcDbLine
 62
2
  6
CONTINUOUS
 10
0.0
 20
0.0
 11
0.0
 21
-1.18775
  0
LINE
  5
27C
100
AcDbEntity
  8
0
100
AcDbLine
 62
2
  6
CONTINUOUS
 10
0.0
 20
-0.34375
 11
4.6
 21
-0.34375
  0
LINE
  5
27D
100
AcDbEntity
  8
0
100
AcDbLine
 62
2
  6
CONTINUOUS
 10
0.0
 20
-0.68775
 11
4.6
 21
-0.68775
  0
LINE
  5
27E
100
AcDbEntity
  8
0
100
AcDbLine
 62
2
  6
CONTINUOUS
 10
0.0
 20
-0.93775
 11
4.6
 21
-0.93775
  0
LINE
  5
27F
100
AcDbEntity
  8
0
100
AcDbLine
 62
2
  6
CONTINUOUS
 10
0.0
 20
-1.18775
 11
4.6
 21
-1.18775
  0
LINE
  5
280
100
AcDbEntity
  8
0
100
AcDbLine
 62
2
  6
CONTINUOUS
 10
1.3
 20
-0.34375
 11
1.3
 21
-1.18775
  0
LINE
  5
281
100
AcDbEntity
  8
0
100
AcDbLine
 62
2
  6
CONTINUOUS
 10
3.3
 20
-0.34375
 11
3.3
 21
-1.18775
  0
LINE
  5
282
100
AcDbEntity
  8
0
100
AcDbLine
 62
2
  6
CONTINUOUS
 10
4.6
 20
0.0
 11
4.6
 21
-1.18775
  0
MTEXT
  5
283
100
AcDbEntity
  8
0
100
AcDbMText
 62
2
  6
CONTINUOUS
  7
STANDARD
 71
2
 72
1
 10
2.3
 20
-0.099375
 30
0.0
 11
1.0
 21
0.0
 31
0.0
 44
0.9
  1
Port Headings
 40
0.145
 41
3.016
  0
MTEXT
  5
284
100
AcDbEntity
  8
0
100
AcDbMText
 62
2
  6
CONTINUOUS
  7
STANDARD
 71
2
 72
1
 10
0.65
 20
-0.44325
 30
0.0
 11
1.0
 21
0.0
 31
0.0
 44
0.9
  1
Product
 40
0.145
 41
1.624
  0
MTEXT
  5
285
100
AcDbEntity
  8
0
100
AcDbMText
 62
2
  6
CONTINUOUS
  7
STANDARD
 71
2
 72
1
 10
2.3
 20
-0.44325
 30
0.0
 11
1.0
 21
0.0
 31
0.0
 44
0.9
  1
Port
 40
0.145
 41
0.928
  0
MTEXT
  5
286
100
AcDbEntity
  8
0
100
AcDbMText
 62
2
  6
CONTINUOUS
  7
STANDARD
 71
2
 72
1
 10
3.95
 20
-0.44325
 30
0.0
 11
1.0
 21
0.0
 31
0.0
 44
0.9
  1
Size
 40
0.145
 41
0.928
  0
MTEXT
  5
287
100
AcDbEntity
  8
0
100
AcDbMText
 62
2
  6
CONTINUOUS
  7
STANDARD
 71
2
 72
1
 10
0.65
 20
-0.75025
 30
0.0
 11
1.0
 21
0.0
 31
0.0
 44
0.9
  1
WAX
 40
0.125
 41
0.6
  0
MTEXT
  5
288
100
AcDbEntity
  8
0
100
AcDbMText
 62
2
  6
CONTINUOUS
  7
STANDARD
 71
2
 72
1
 10
2.3
 20
-0.75025
 30
0.0
 11
1.0
 21
0.0
 31
0.0
 44
0.9
  1
Ports A, B, P, T
 40
0.125
 41
3.2
  0
MTEXT
  5
289
100
AcDbEntity
  8
0
100
AcDbMText
 62
2
  6
CONTINUOUS
  7
STANDARD
 71
2
 72
1
 10
3.95
 20
-0.75025
 30
0.0
 11
1.0
 21
0.0
 31
0.0
 44
0.9
  1
SAE 12
 40
0.125
 41
1.2
  0
MTEXT
  5
28A
100
AcDbEntity
  8
0
100
AcDbMText
 62
2
  6
CONTINUOUS
  7
STANDARD
 71
2
 72
1
 10
0.65
 20
-1.00025
 30
0.0
 11
1.0
 21
0.0
 31
0.0
 44
0.9
  1
WAX
 40
0.125
 41
0.6
  0
MTEXT
  5
28B
100
AcDbEntity
  8
0
100
AcDbMText
 62
2
  6
CONTINUOUS
  7
STANDARD
 71
2
 72
1
 10
2.3
 20
-1.00025
 30
0.0
 11
1.0
 21
0.0
 31
0.0
 44
0.9
  1
Port G
 40
0.125
 41
1.2
  0
MTEXT
  5
28C
100
AcDbEntity
  8
0
100
AcDbMText
 62
2
  6
CONTINUOUS
  7
STANDARD
 71
2
 72
1
 10
3.95
 20
-1.00025
 30
0.0
 11
1.0
 21
0.0
 31
0.0
 44
0.9
  1
1/4" NPTF
 40
0.125
 41
1.8
  0
ENDBLK
  5
28D
100
AcDbEntity
  8
0
  6
BYBLOCK
 62
0
100
AcDbBlockEnd
  0
ENDSEC
  0
SECTION
  2
ENTITIES
  0
IMAGE
  5
28E
100
AcDbEntity
  8
0
100
AcDbRasterImage
 62
7
  6
CONTINUOUS
 10
19.2297077316
 20
0.3094318264
 30
0.0
 11
0.0066666667
 21
0.0
 31
0.0
 12
0.0
 22
0.0066666667
 32
0.0
 13
369.0
 23
92.0
340
       3C2
 70
9
280
0
281
50
282
50
283
0
360
       3BC
 71
1
 91
2
 14
-0.5
 24
-0.5
 14
368.5
 24
91.5
  0
INSERT
  5
28F
100
AcDbEntity
  8
0
100
AcDbBlockReference
 62
2
  6
CONTINUOUS
  2
SUN_FIRST_THIRD_ANGLE_BL0
 10
20.4816717061
 20
1.2289683772
  0
ACAD_TABLE
  5
290
100
AcDbEntity
  8
0
 62
2
  6
CONTINUOUS
100
AcDbBlockReference
  2
*T1
 10
12.42375
 20
0.30125
 30
0.0
100
AcDbTable
342
       3C4
343
20F
 11
1.0
 21
0.0
 31
0.0
 90
6
 91
4
 92
6
 93
20
 94
0
 95
0
 96
0
 70
1
 41
0.0
141
0.525
141
0.1
141
0.525
141
0.1
142
4.1
142
1.1
142
0.7
142
0.5
142
0.4
142
2.475
171
1
172
0
173
0
174
0
175
1
176
1
 91
33
178
0
145
0.0
301
CELL_VALUE
 90
4
  1
T-10A Subplate ISO 05\PP to T, check on P, side ports
304
ACVALUE_END
170
2
140
0.125
171
1
172
0
173
0
174
0
175
1
176
1
 91
33
178
0
145
0.0
301
CELL_VALUE
 90
4
  1
Aug-10-23
304
ACVALUE_END
170
5
140
0.125
171
1
172
0
173
0
174
0
175
1
176
1
 91
33
178
0
145
0.0
301
CELL_VALUE
 90
4
  1
1.000
304
ACVALUE_END
170
5
140
0.125
171
1
172
0
173
0
174
0
175
1
176
1
 91
33
178
0
145
0.0
301
CELL_VALUE
 90
4
  1
C
304
ACVALUE_END
170
5
140
0.125
171
1
172
0
173
0
174
0
175
1
176
1
 91
33
178
0
145
0.0
301
CELL_VALUE
 90
4
  1
2
304
ACVALUE_END
170
5
140
0.125
171
1
172
0
173
0
174
0
175
1
176
1
 91
33
178
0
145
0.0
301
CELL_VALUE
 90
4
  1
 
304
ACVALUE_END
170
1
140
0.125
171
1
172
0
173
0
174
0
175
1
176
1
 91
33
178
0
145
0.0
301
CELL_VALUE
 90
4
  1
DESCRIPTION
304
ACVALUE_END
170
1
140
0.06
171
1
172
0
173
0
174
0
175
1
176
1
 91
33
178
0
145
0.0
301
CELL_VALUE
 90
4
  1
DATE
304
ACVALUE_END
170
1
140
0.06
171
1
172
0
173
0
174
0
175
1
176
1
 91
33
178
0
145
0.0
301
CELL_VALUE
 90
4
  1
SCALE
304
ACVALUE_END
170
1
140
0.06
171
1
172
0
173
0
174
0
175
1
176
1
 91
33
178
0
145
0.0
301
CELL_VALUE
 90
4
  1
DWG SIZE
304
ACVALUE_END
170
1
140
0.06
171
1
172
0
173
0
174
0
175
1
176
1
 91
33
178
0
145
0.0
301
CELL_VALUE
 90
4
  1
SHEET
304
ACVALUE_END
170
1
140
0.06
171
1
172
0
173
0
174
0
175
1
176
1
 91
33
178
0
145
0.0
301
CELL_VALUE
 90
4
  1
 
304
ACVALUE_END
170
1
140
0.125
171
1
172
0
173
0
174
0
175
1
176
1
 91
33
178
0
145
0.0
301
CELL_VALUE
 90
4
  1
WAX
304
ACVALUE_END
170
5
140
0.125
171
1
172
0
173
0
174
0
175
4
176
1
 91
33
178
0
145
0.0
301
CELL_VALUE
 90
4
  1
ALL DIMENSIONS IN INCH\PVIEWS ARE THIRD ANGLE
304
ACVALUE_END
170
5
140
0.12
171
1
172
0
173
1
174
0
175
1
176
1
 91
1
178
0
145
0.0
170
1
171
1
172
0
173
1
174
0
175
1
176
1
 91
1
178
0
145
0.0
170
1
171
1
172
0
173
1
174
0
175
1
176
1
 91
1
178
0
145
0.0
170
5
171
1
172
0
173
0
174
0
175
1
176
1
 91
33
178
0
145
0.0
301
CELL_VALUE
 90
4
  1
 
304
ACVALUE_END
170
1
140
0.125
171
1
172
0
173
0
174
0
175
1
176
1
 91
33
178
0
145
0.0
301
CELL_VALUE
 90
4
  1
MODEL
304
ACVALUE_END
170
1
140
0.06
171
1
172
0
173
0
174
0
175
1
176
1
 91
33
178
0
145
0.0
301
CELL_VALUE
 90
4
  1
 
304
ACVALUE_END
170
1
140
0.125
171
1
172
0
173
0
174
0
175
1
176
1
 91
33
178
0
145
0.0
301
CELL_VALUE
 90
4
  1
 
304
ACVALUE_END
170
1
140
0.125
171
1
172
0
173
0
174
0
175
1
176
1
 91
33
178
0
145
0.0
301
CELL_VALUE
 90
4
  1
 
304
ACVALUE_END
170
1
140
0.125
171
1
172
0
173
0
174
0
175
1
176
1
 91
33
178
0
145
0.0
301
CELL_VALUE
 90
4
  1
 
304
ACVALUE_END
170
1
140
0.125
171
1
172
0
173
0
174
0
175
1
176
1
 91
33
178
0
145
0.0
301
CELL_VALUE
 90
4
  1
 
304
ACVALUE_END
170
1
140
0.125
  0
ACAD_TABLE
  5
291
100
AcDbEntity
  8
0
 62
2
  6
CONTINUOUS
100
AcDbBlockReference
  2
*T2
 10
12.4237499994
 20
16.47875
 30
0.0
100
AcDbTable
342
       3C3
343
210
 11
1.0
 21
0.0
 31
0.0
 90
22
 91
11
 92
3
 93
16
 94
0
 95
0
 96
0
 41
0.028
141
0.344
141
0.25
141
0.25
141
0.25
141
0.25
141
0.25
141
0.25
141
0.25
141
0.25
141
0.25
141
0.25
142
3.055
142
3.0
142
3.0
171
1
172
0
173
0
174
0
175
1
176
1
 91
33
178
0
145
0.0
301
CELL_VALUE
 90
4
  1
Technical Data
304
ACVALUE_END
170
5
140
0.145
171
1
172
0
173
0
174
0
175
1
176
1
 91
33
178
0
145
0.0
301
CELL_VALUE
 90
4
  1
U.S. Units
304
ACVALUE_END
170
5
140
0.145
171
1
172
0
173
0
174
0
175
1
176
1
 91
33
178
0
145
0.0
301
CELL_VALUE
 90
4
  1
Metric Units
304
ACVALUE_END
170
5
140
0.145
171
1
172
0
173
0
174
0
175
1
176
1
 91
33
178
0
145
0.0
301
CELL_VALUE
 90
4
  1
Cavity
304
ACVALUE_END
170
5
140
0.125
171
1
172
0
173
0
174
0
175
2
176
1
 91
33
178
0
145
0.0
301
CELL_VALUE
 90
4
  1
T-10A
304
ACVALUE_END
170
5
140
0.125
171
1
172
0
173
1
174
0
175
1
176
1
 91
1
178
0
145
0.0
170
1
171
1
172
0
173
0
174
0
175
1
176
1
 91
33
178
0
145
0.0
301
CELL_VALUE
 90
4
  1
Body Features
304
ACVALUE_END
170
5
140
0.125
171
1
172
0
173
0
174
0
175
2
176
1
 91
33
178
0
145
0.0
301
CELL_VALUE
 90
4
  1
P to T, check on P, side ports
304
ACVALUE_END
170
5
140
0.125
171
1
172
0
173
1
174
0
175
1
176
1
 91
1
178
0
145
0.0
170
1
171
1
172
0
173
0
174
0
175
1
176
1
 91
33
178
0
145
0.0
301
CELL_VALUE
 90
4
  1
Body Type
304
ACVALUE_END
170
5
140
0.125
171
1
172
0
173
0
174
0
175
2
176
1
 91
33
178
0
145
0.0
301
CELL_VALUE
 90
4
  1
Subplate
304
ACVALUE_END
170
5
140
0.125
171
1
172
0
173
1
174
0
175
1
176
1
 91
1
178
0
145
0.0
170
1
171
1
172
0
173
0
174
0
175
1
176
1
 91
33
178
0
145
0.0
301
CELL_VALUE
 90
4
  1
Interface
304
ACVALUE_END
170
5
140
0.125
171
1
172
0
173
0
174
0
175
2
176
1
 91
33
178
0
145
0.0
301
CELL_VALUE
 90
4
  1
ISO 05
304
ACVALUE_END
170
5
140
0.125
171
1
172
0
173
1
174
0
175
1
176
1
 91
1
178
0
145
0.0
170
1
171
1
172
0
173
0
174
0
175
1
176
1
 91
33
178
0
145
0.0
301
CELL_VALUE
 90
4
  1
Open Cavity Quantity
304
ACVALUE_END
170
5
140
0.125
171
1
172
0
173
0
174
0
175
2
176
1
 91
33
178
0
145
0.0
301
CELL_VALUE
 90
4
  1
1
304
ACVALUE_END
170
5
140
0.125
171
1
172
0
173
1
174
0
175
1
176
1
 91
1
178
0
145
0.0
170
1
171
1
172
0
173
0
174
0
175
1
176
1
 91
33
178
0
145
0.0
301
CELL_VALUE
 90
4
  1
Weight
304
ACVALUE_END
170
5
140
0.125
171
1
172
0
173
0
174
0
175
1
176
1
 91
33
178
0
145
0.0
301
CELL_VALUE
 90
4
  1
5.102 lb.
304
ACVALUE_END
170
5
140
0.125
171
1
172
0
173
0
174
0
175
1
176
1
 91
33
178
0
145
0.0
301
CELL_VALUE
 90
4
  1
2,314 kg.
304
ACVALUE_END
170
5
140
0.125
171
1
172
0
173
0
174
0
175
1
176
1
 91
33
178
0
145
0.0
301
CELL_VALUE
 90
4
  1
Mounting Hole Diameter
304
ACVALUE_END
170
5
140
0.125
171
1
172
0
173
0
174
0
175
1
176
1
 91
33
178
0
145
0.0
301
CELL_VALUE
 90
4
  1
.44 in.
304
ACVALUE_END
170
5
140
0.125
171
1
172
0
173
0
174
0
175
1
176
1
 91
33
178
0
145
0.0
301
CELL_VALUE
 90
4
  1
11,1 mm
304
ACVALUE_END
170
5
140
0.125
171
1
172
0
173
0
174
0
175
1
176
1
 91
33
178
0
145
0.0
301
CELL_VALUE
 90
4
  1
Mounting Hole Depth
304
ACVALUE_END
170
5
140
0.125
171
1
172
0
173
0
174
0
175
2
176
1
 91
33
178
0
145
0.0
301
CELL_VALUE
 90
4
  1
Through
304
ACVALUE_END
170
5
140
0.125
171
1
172
0
173
1
174
0
175
1
176
1
 91
1
178
0
145
0.0
170
1
171
1
172
0
173
0
174
0
175
1
176
1
 91
33
178
0
145
0.0
301
CELL_VALUE
 90
4
  1
Mounting Hole Quantity
304
ACVALUE_END
170
5
140
0.125
171
1
172
0
173
0
174
0
175
2
176
1
 91
33
178
0
145
0.0
301
CELL_VALUE
 90
4
  1
4
304
ACVALUE_END
170
5
140
0.125
171
1
172
0
173
1
174
0
175
1
176
1
 91
1
178
0
145
0.0
170
1
171
1
172
0
173
0
174
0
175
1
176
1
 91
33
178
0
145
0.0
301
CELL_VALUE
 90
4
  1
Includes integral cartridge(s)
304
ACVALUE_END
170
5
140
0.125
171
1
172
0
173
0
174
0
175
2
176
1
 91
33
178
0
145
0.0
301
CELL_VALUE
 90
4
  1
Yes (see Included Components)
304
ACVALUE_END
170
5
140
0.125
171
1
172
0
173
1
174
0
175
1
176
1
 91
1
178
0
145
0.0
170
1
  0
ACAD_TABLE
  5
292
100
AcDbEntity
  8
0
 62
2
  6
CONTINUOUS
100
AcDbBlockReference
  2
*T3
 10
0.52125
 20
1.709
 30
0.0
100
AcDbTable
342
       3C3
343
211
 11
1.0
 21
0.0
 31
0.0
 90
22
 91
4
 92
3
 93
16
 94
0
 95
0
 96
0
 41
0.05
141
0.34375
141
0.344
141
0.25
141
0.25
142
1.3
142
2.0
142
1.3
171
1
172
0
173
0
174
0
175
3
176
1
 91
33
178
0
145
0.0
301
CELL_VALUE
 90
4
  1
Port Headings
304
ACVALUE_END
170
5
140
0.145
171
1
172
0
173
1
174
0
175
1
176
1
 91
1
178
0
145
0.0
170
1
171
1
172
0
173
1
174
0
175
1
176
1
 91
1
178
0
145
0.0
170
1
171
1
172
0
173
0
174
0
175
1
176
1
 91
33
178
0
145
0.0
301
CELL_VALUE
 90
4
  1
Product
304
ACVALUE_END
170
5
140
0.145
171
1
172
0
173
0
174
0
175
1
176
1
 91
33
178
0
145
0.0
301
CELL_VALUE
 90
4
  1
Port
304
ACVALUE_END
170
5
140
0.145
171
1
172
0
173
0
174
0
175
1
176
1
 91
33
178
0
145
0.0
301
CELL_VALUE
 90
4
  1
Size
304
ACVALUE_END
170
5
140
0.145
171
1
172
0
173
0
174
0
175
1
176
1
 91
33
178
0
145
0.0
301
CELL_VALUE
 90
4
  1
WAX
304
ACVALUE_END
170
5
140
0.125
171
1
172
0
173
0
174
0
175
1
176
1
 91
33
178
0
145
0.0
301
CELL_VALUE
 90
4
  1
Ports A, B, P, T
304
ACVALUE_END
170
5
140
0.125
171
1
172
0
173
0
174
0
175
1
176
1
 91
33
178
0
145
0.0
301
CELL_VALUE
 90
4
  1
SAE 12
304
ACVALUE_END
170
5
140
0.125
171
1
172
0
173
0
174
0
175
1
176
1
 91
33
178
0
145
0.0
301
CELL_VALUE
 90
4
  1
WAX
304
ACVALUE_END
170
5
140
0.125
171
1
172
0
173
0
174
0
175
1
176
1
 91
33
178
0
145
0.0
301
CELL_VALUE
 90
4
  1
Port G
304
ACVALUE_END
170
5
140
0.125
171
1
172
0
173
0
174
0
175
1
176
1
 91
33
178
0
145
0.0
301
CELL_VALUE
 90
4
  1
1/4" NPTF
304
ACVALUE_END
170
5
140
0.125
  0
MTEXT
  5
293
100
AcDbEntity
  8
0
100
AcDbMText
 62
2
  6
CONTINUOUS
  7
STANDARD
 71
1
 72
1
 10
0.52125
 20
5.75995
 30
0.0
 11
1.0
 21
0.0
 31
0.0
 44
0.6
  3
Notes\P \P1. Important: Carefully consider\P   the maximum system pressure. The\P   pressure rating of the manifold is\P   dependent on the manifold material,\P   with the port type/size a secondary\P   consideration. Manifolds\P   constructed of alu
  3
minum are not\P   rated for pressures higher than\P   3000 psi (210 bar), regardless of\P   the port type/size specified.\P2. This drawing is for reference\P   only. It is generated by an\P   automated process and does not fall\P   under Sun's docume
  1
nt control\P   process.
 40
0.1
 41
3.04
  0
LINE
  5
294
100
AcDbEntity
  8
0
100
AcDbLine
 62
7
  6
CONTINUOUS
 10
0.30125
 20
0.30125
 11
0.30125
 21
16.69875
  0
LINE
  5
295
100
AcDbEntity
  8
0
100
AcDbLine
 62
7
  6
CONTINUOUS
 10
0.30125
 20
0.30125
 11
21.69875
 21
0.30125
  0
LINE
  5
296
100
AcDbEntity
  8
0
100
AcDbLine
 62
7
  6
CONTINUOUS
 10
0.30125
 20
16.69875
 11
21.69875
 21
16.69875
  0
LINE
  5
297
100
AcDbEntity
  8
0
100
AcDbLine
 62
7
  6
CONTINUOUS
 10
21.69875
 20
0.30125
 11
21.69875
 21
16.69875
  0
LINE
  5
298
100
AcDbEntity
  8
0
100
AcDbLine
 62
7
  6
CONTINUOUS
 10
8.6555910202
 20
10.2102208996
 11
9.4807054457
 21
11.00722028
  0
LINE
  5
299
100
AcDbEntity
  8
0
100
AcDbLine
 62
7
  6
CONTINUOUS
 10
12.5192945543
 20
5.5956056736
 11
8.6555910202
 21
5.8635544238
  0
LINE
  5
29A
100
AcDbEntity
  8
0
100
AcDbLine
 62
4
  6
CONTINUOUS
 10
10.8786004308
 20
5.7847304164
 11
10.8372035993
 21
5.7876012965
  0
LINE
  5
29B
100
AcDbEntity
  8
0
100
AcDbLine
 62
4
  6
CONTINUOUS
 10
10.7875274347
 20
5.7910463502
 11
10.7626893248
 21
5.7927688789
  0
LINE
  5
29C
100
AcDbEntity
  8
0
100
AcDbLine
 62
4
  6
CONTINUOUS
 10
10.6992142164
 20
5.7971708927
 11
10.6660967733
 21
5.7994675951
  0
LINE
  5
29D
100
AcDbEntity
  8
0
100
AcDbLine
 62
4
  6
CONTINUOUS
 10
10.2134914808
 20
5.8308558788
 11
10.1720946631
 21
5.8337267578
  0
LINE
  5
29E
100
AcDbEntity
  8
0
100
AcDbLine
 62
4
  6
CONTINUOUS
 10
10.4756713651
 20
5.8126736421
 11
10.5253475573
 21
5.8092285864
  0
LINE
  5
29F
100
AcDbEntity
  8
0
100
AcDbLine
 62
4
  6
CONTINUOUS
 10
10.9420755945
 20
5.7803283989
 11
10.9917517591
 21
5.7768833452
  0
LINE
  5
2A0
100
AcDbEntity
  8
0
100
AcDbLine
 62
4
  6
CONTINUOUS
 10
10.1058597424
 20
5.887996354
 11
10.1500163551
 21
5.8628557762
  0
LINE
  5
2A1
100
AcDbEntity
  8
0
100
AcDbLine
 62
7
  6
CONTINUOUS
 10
11.0674295046
 20
11.3181189337
 11
11.0866474359
 21
11.3276122237
  0
LINE
  5
2A2
100
AcDbEntity
  8
0
100
AcDbLine
 62
4
  6
CONTINUOUS
 10
10.2880057622
 20
5.8588057562
 11
10.3321623714
 21
5.8557434849
  0
LINE
  5
2A3
100
AcDbEntity
  8
0
100
AcDbLine
 62
4
  6
CONTINUOUS
 10
10.9751930376
 20
5.8442666171
 11
10.9420755945
 21
5.8465633196
  0
LINE
  5
2A4
100
AcDbEntity
  8
0
100
AcDbLine
 62
4
  6
CONTINUOUS
 10
10.5087888358
 20
5.8766118584
 11
10.4756713651
 21
5.8789085627
  0
LINE
  5
2A5
100
AcDbEntity
  8
0
100
AcDbLine
 62
4
  6
CONTINUOUS
 10
10.1720946631
 20
5.9496378639
 11
10.2134914808
 21
5.9467669848
  0
LINE
  5
2A6
100
AcDbEntity
  8
0
100
AcDbLine
 62
4
  6
CONTINUOUS
 10
10.3763189806
 20
5.9354748594
 11
10.4425538944
 21
5.9308814525
  0
LINE
  5
2A7
100
AcDbEntity
  8
0
100
AcDbLine
 62
4
  6
CONTINUOUS
 10
10.4756713651
 20
5.9285847481
 11
10.5253475573
 21
5.9251396925
  0
LINE
  5
2A8
100
AcDbEntity
  8
0
100
AcDbLine
 62
4
  6
CONTINUOUS
 10
10.6660967733
 20
5.9153787012
 11
10.6992142164
 21
5.9130819987
  0
LINE
  5
2A9
100
AcDbEntity
  8
0
100
AcDbLine
 62
4
  6
CONTINUOUS
 10
10.7626893248
 20
5.908679985
 11
10.7875274347
 21
5.9069574562
  0
LINE
  5
2AA
100
AcDbEntity
  8
0
100
AcDbLine
 62
4
  6
CONTINUOUS
 10
10.8372035993
 20
5.9035124025
 11
10.8786004308
 21
5.9006415225
  0
LINE
  5
2AB
100
AcDbEntity
  8
0
100
AcDbLine
 62
4
  6
CONTINUOUS
 10
10.9420755945
 20
5.8962395049
 11
10.9917517591
 21
5.8927944512
  0
LINE
  5
2AC
100
AcDbEntity
  8
0
100
AcDbLine
 62
7
  6
CONTINUOUS
 10
8.6555910202
 20
10.2102208996
 11
8.6555910202
 21
5.8635544238
  0
LINE
  5
2AD
100
AcDbEntity
  8
02___PRT_ALL_AXES
100
AcDbLine
 62
7
  6
CONTINUOUS
 10
10.0435294629
 20
10.6889570183
 11
10.0888108191
 21
10.7310960738
  0
LINE
  5
2AE
100
AcDbEntity
  8
0
100
AcDbLine
 62
4
  6
CONTINUOUS
 10
10.5943422552
 20
6.0925656815
 11
10.6384988782
 21
6.0895034093
  0
LINE
  5
2AF
100
AcDbEntity
  8
0
100
AcDbLine
 62
4
  6
CONTINUOUS
 10
11.0248692022
 20
5.8463411395
 11
11.0690258114
 21
5.8212005602
  0
LINE
  5
2B0
100
AcDbEntity
  8
0
100
AcDbLine
 62
4
  6
CONTINUOUS
 10
10.2134914808
 20
5.9467669848
 11
10.2300502092
 21
5.9290599047
  0
LINE
  5
2B1
100
AcDbEntity
  8
0
100
AcDbLine
 62
7
  6
CONTINUOUS
 10
10.1779901962
 20
10.7437456325
 11
10.1406329157
 21
10.7076612684
  0
LINE
  5
2B2
100
AcDbEntity
  8
0
100
AcDbLine
 62
7
  6
CONTINUOUS
 10
10.3821143866
 20
10.6909144715
 11
10.4194716671
 21
10.7269988357
  0
LINE
  5
2B3
100
AcDbEntity
  8
0
100
AcDbLine
 62
4
  6
CONTINUOUS
 10
10.5488057519
 20
6.3407928428
 11
10.5101687166
 21
6.3434723303
  0
LINE
  5
2B4
100
AcDbEntity
  8
0
100
AcDbLine
 62
4
  6
CONTINUOUS
 10
11.2056353527
 20
6.3531971083
 11
11.1476797997
 21
6.3572163395
  0
LINE
  5
2B5
100
AcDbEntity
  8
0
100
AcDbLine
 62
4
  6
CONTINUOUS
 10
10.838583517
 20
6.3786522396
 11
10.780627964
 21
6.3826714708
  0
LINE
  5
2B6
100
AcDbEntity
  8
0
100
AcDbLine
 62
4
  6
CONTINUOUS
 10
10.6453983403
 20
6.3920496771
 11
10.5874427873
 21
6.3960689083
  0
LINE
  5
2B7
100
AcDbEntity
  8
0
100
AcDbLine
 62
4
  6
CONTINUOUS
 10
10.5488057519
 20
6.3987483958
 11
10.4908501989
 21
6.4027676271
  0
LINE
  5
2B8
100
AcDbEntity
  8
0
100
AcDbLine
 62
4
  6
CONTINUOUS
 10
10.1827198421
 20
6.4241365399
 11
10.1247642891
 21
6.4281557712
  0
LINE
  5
2B9
100
AcDbEntity
  8
0
100
AcDbLine
 62
4
  6
CONTINUOUS
 10
10.0957865126
 20
6.4301653868
 11
10.0378309595
 21
6.434184618
  0
LINE
  5
2BA
100
AcDbEntity
  8
0
100
AcDbLine
 62
4
  6
CONTINUOUS
 10
10.8772205523
 20
6.3759727521
 11
10.9351761053
 21
6.3719535208
  0
LINE
  5
2BB
100
AcDbEntity
  8
0
100
AcDbLine
 62
4
  6
CONTINUOUS
 10
11.0510872114
 20
6.3639150583
 11
11.1090427644
 21
6.359895827
  0
LINE
  5
2BC
100
AcDbEntity
  8
0
100
AcDbLine
 62
4
  6
CONTINUOUS
 10
11.1476797997
 20
6.3861941161
 11
11.2056353527
 21
6.3821748848
  0
LINE
  5
2BD
100
AcDbEntity
  8
0
100
AcDbLine
 62
4
  6
CONTINUOUS
 10
10.780627964
 20
6.4213085062
 11
10.838583517
 21
6.4172892749
  0
LINE
  5
2BE
100
AcDbEntity
  8
0
100
AcDbLine
 62
4
  6
CONTINUOUS
 10
10.838583517
 20
6.4366077926
 11
10.7999464816
 21
6.4392872801
  0
LINE
  5
2BF
100
AcDbEntity
  8
0
100
AcDbLine
 62
4
  6
CONTINUOUS
 10
10.4435198306
 20
6.4640055523
 11
10.3855642776
 21
6.4680247835
  0
LINE
  5
2C0
100
AcDbEntity
  8
0
100
AcDbLine
 62
4
  6
CONTINUOUS
 10
10.0378309595
 20
6.492140171
 11
10.0957865126
 21
6.4881209398
  0
LINE
  5
2C1
100
AcDbEntity
  8
0
100
AcDbLine
 62
4
  6
CONTINUOUS
 10
10.5874427873
 20
6.4540244613
 11
10.6453983403
 21
6.4500052301
  0
LINE
  5
2C2
100
AcDbEntity
  8
0
100
AcDbLine
 62
4
  6
CONTINUOUS
 10
10.6840353756
 20
6.4473257426
 11
10.7419909286
 21
6.4433065113
  0
LINE
  5
2C3
100
AcDbEntity
  8
0
100
AcDbLine
 62
4
  6
CONTINUOUS
 10
11.0510872114
 20
6.4218706113
 11
11.1090427644
 21
6.4178513801
  0
LINE
  5
2C4
100
AcDbEntity
  8
0
100
AcDbLine
 62
4
  6
CONTINUOUS
 10
11.1476797997
 20
6.4151718926
 11
11.2056353527
 21
6.4111526613
  0
LINE
  5
2C5
100
AcDbEntity
  8
0
100
AcDbLine
 62
4
  6
CONTINUOUS
 10
11.0052057319
 20
6.4540302792
 11
11.0196946201
 21
6.4530254714
  0
LINE
  5
2C6
100
AcDbEntity
  8
0
100
AcDbLine
 62
4
  6
CONTINUOUS
 10
10.0957865126
 20
6.5460764928
 11
10.0378309595
 21
6.5500957241
  0
LINE
  5
2C7
100
AcDbEntity
  8
0
100
AcDbLine
 62
4
  6
CONTINUOUS
 10
10.2116976186
 20
6.5380380303
 11
10.2696531716
 21
6.534018799
  0
LINE
  5
2C8
100
AcDbEntity
  8
0
100
AcDbLine
 62
4
  6
CONTINUOUS
 10
10.6660967733
 20
5.7994675951
 11
10.6495380518
 21
5.8171746766
  0
LINE
  5
2C9
100
AcDbEntity
  8
0
100
AcDbLine
 62
4
  6
CONTINUOUS
 10
10.7626893248
 20
5.7927688789
 11
10.7461306033
 21
5.8104759604
  0
LINE
  5
2CA
100
AcDbEntity
  8
0
100
AcDbLine
 62
7
  6
CONTINUOUS
 10
10.5505115388
 20
10.6985736395
 11
10.5498125893
 21
10.6979112114
  0
LINE
  5
2CB
100
AcDbEntity
  8
0
100
AcDbLine
 62
4
  6
CONTINUOUS
 10
10.7479750742
 20
10.4263087629
 11
10.7329660655
 21
10.4193111727
  0
LINE
  5
2CC
100
AcDbEntity
  8
0
100
AcDbLine
 62
4
  6
CONTINUOUS
 10
10.7875274347
 20
5.9069574562
 11
10.8040861563
 21
5.8892503765
  0
LINE
  5
2CD
100
AcDbEntity
  8
0
100
AcDbLine
 62
4
  6
CONTINUOUS
 10
10.8786004308
 20
5.9006415225
 11
10.8951591524
 21
5.8829344428
  0
LINE
  5
2CE
100
AcDbEntity
  8
0
100
AcDbLine
 62
4
  6
CONTINUOUS
 10
10.6755306346
 20
10.4313328018
 11
10.6858833874
 21
10.4413327938
  0
LINE
  5
2CF
100
AcDbEntity
  8
0
100
AcDbLine
 62
7
  6
CONTINUOUS
 10
12.0548073595
 20
10.7143260901
 11
12.0890835878
 21
10.7312578906
  0
LINE
  5
2D0
100
AcDbEntity
  8
0
100
AcDbLine
 62
4
  6
CONTINUOUS
 10
10.6826554735
 20
6.1692347847
 11
10.7488904149
 21
6.0487302698
  0
LINE
  5
2D1
100
AcDbEntity
  8
0
100
AcDbLine
 62
4
  6
CONTINUOUS
 10
10.3100840668
 20
5.9400682662
 11
10.3432015375
 21
5.8218604558
  0
LINE
  5
2D2
100
AcDbEntity
  8
0
100
AcDbLine
 62
4
  6
CONTINUOUS
 10
10.0378309595
 20
6.5500957241
 11
10.0378309595
 21
6.492140171
  0
LINE
  5
2D3
100
AcDbEntity
  8
0
100
AcDbLine
 62
7
  6
CONTINUOUS
 10
11.3309260513
 20
10.3263962894
 11
11.3302271017
 21
10.3257338614
  0
LINE
  5
2D4
100
AcDbEntity
  8
0
100
AcDbLine
 62
4
  6
CONTINUOUS
 10
10.475671368
 20
6.1504717242
 11
10.5005094606
 21
6.0659555475
  0
LINE
  5
2D5
100
AcDbEntity
  8
0
100
AcDbLine
 62
4
  6
CONTINUOUS
 10
10.6164205736
 20
6.1738281906
 11
10.6495380305
 21
6.0556203811
  0
LINE
  5
2D6
100
AcDbEntity
  8
0
100
AcDbLine
 62
4
  6
CONTINUOUS
 10
10.4259951792
 20
6.1870342365
 11
10.4508332736
 21
6.0694006028
  0
LINE
  5
2D7
100
AcDbEntity
  8
0
100
AcDbLine
 62
4
  6
CONTINUOUS
 10
10.0957865126
 20
6.4881209398
 11
10.0957865126
 21
6.4301653868
  0
LINE
  5
2D8
100
AcDbEntity
  8
0
100
AcDbLine
 62
4
  6
CONTINUOUS
 10
10.1247642891
 20
6.4281557712
 11
10.1247642891
 21
6.5440668772
  0
LINE
  5
2D9
100
AcDbEntity
  8
0
100
AcDbLine
 62
4
  6
CONTINUOUS
 10
10.1720946631
 20
5.8337267578
 11
10.1720946631
 21
5.9496378639
  0
LINE
  5
2DA
100
AcDbEntity
  8
0
100
AcDbLine
 62
7
  6
CONTINUOUS
 10
10.1779901962
 20
10.7437456325
 11
10.1779901962
 21
10.697992505
  0
LINE
  5
2DB
100
AcDbEntity
  8
0
100
AcDbLine
 62
4
  6
CONTINUOUS
 10
10.1827198421
 20
6.5400476459
 11
10.1827198421
 21
6.4241365399
  0
LINE
  5
2DC
100
AcDbEntity
  8
0
100
AcDbLine
 62
4
  6
CONTINUOUS
 10
10.2116976186
 20
6.5380380303
 11
10.2116976186
 21
6.4221269243
  0
LINE
  5
2DD
100
AcDbEntity
  8
0
100
AcDbLine
 62
4
  6
CONTINUOUS
 10
10.2300502092
 20
5.9290599047
 11
10.2300502092
 21
5.8462662572
  0
LINE
  5
2DE
100
AcDbEntity
  8
0
100
AcDbLine
 62
4
  6
CONTINUOUS
 10
10.2696531716
 20
6.534018799
 11
10.2696531716
 21
6.418107693
  0
LINE
  5
2DF
100
AcDbEntity
  8
0
100
AcDbLine
 62
7
  6
CONTINUOUS
 10
10.3174095719
 20
10.7534144162
 11
10.3174095719
 21
10.6864271694
  0
LINE
  5
2E0
100
AcDbEntity
  8
0
100
AcDbLine
 62
4
  6
CONTINUOUS
 10
10.3855642776
 20
6.4100692305
 11
10.3855642776
 21
6.5259803365
  0
LINE
  5
2E1
100
AcDbEntity
  8
0
100
AcDbLine
 62
4
  6
CONTINUOUS
 10
10.4094364513
 20
5.8172670489
 11
10.4094364513
 21
5.933178155
  0
LINE
  5
2E2
100
AcDbEntity
  8
0
100
AcDbLine
 62
4
  6
CONTINUOUS
 10
10.4435198306
 20
6.4060499993
 11
10.4435198306
 21
6.4640055523
  0
LINE
  5
2E3
100
AcDbEntity
  8
0
100
AcDbLine
 62
4
  6
CONTINUOUS
 10
10.4756713651
 20
5.8126736421
 11
10.4756713651
 21
5.9285847481
  0
LINE
  5
2E4
100
AcDbEntity
  8
0
100
AcDbLine
 62
4
  6
CONTINUOUS
 10
10.4908501989
 20
6.4027676271
 11
10.4908501989
 21
6.4607231801
  0
LINE
  5
2E5
100
AcDbEntity
  8
0
100
AcDbLine
 62
4
  6
CONTINUOUS
 10
10.5488057519
 20
6.4567039488
 11
10.5488057519
 21
6.3407928428
  0
LINE
  5
2E6
100
AcDbEntity
  8
0
100
AcDbLine
 62
4
  6
CONTINUOUS
 10
10.5874427873
 20
6.3960689083
 11
10.5874427873
 21
6.4540244613
  0
LINE
  5
2E7
100
AcDbEntity
  8
0
100
AcDbLine
 62
4
  6
CONTINUOUS
 10
10.6453983403
 20
6.5079607831
 11
10.6453983403
 21
6.3920496771
  0
LINE
  5
2E8
100
AcDbEntity
  8
0
100
AcDbLine
 62
4
  6
CONTINUOUS
 10
10.6495380518
 20
5.8171746766
 11
10.6495380518
 21
5.899968324
  0
LINE
  5
2E9
100
AcDbEntity
  8
0
100
AcDbLine
 62
4
  6
CONTINUOUS
 10
10.6840353756
 20
6.4473257426
 11
10.6840353756
 21
6.3893701896
  0
LINE
  5
2EA
100
AcDbEntity
  8
0
100
AcDbLine
 62
4
  6
CONTINUOUS
 10
10.7461306033
 20
5.8104759604
 11
10.7461306033
 21
5.8932696078
  0
LINE
  5
2EB
100
AcDbEntity
  8
0
100
AcDbLine
 62
4
  6
CONTINUOUS
 10
10.780627964
 20
6.3826714708
 11
10.780627964
 21
6.4213085062
  0
LINE
  5
2EC
100
AcDbEntity
  8
0
100
AcDbLine
 62
4
  6
CONTINUOUS
 10
10.748495195
 20
10.4343111608
 11
10.7479750742
 21
10.4263087629
  0
LINE
  5
2ED
100
AcDbEntity
  8
0
100
AcDbLine
 62
4
  6
CONTINUOUS
 10
10.8040861563
 20
5.8892503765
 11
10.8040861563
 21
5.8064567291
  0
LINE
  5
2EE
100
AcDbEntity
  8
0
100
AcDbLine
 62
4
  6
CONTINUOUS
 10
10.8372035993
 20
5.7876012965
 11
10.8372035993
 21
5.9035124025
  0
LINE
  5
2EF
100
AcDbEntity
  8
0
100
AcDbLine
 62
4
  6
CONTINUOUS
 10
10.838583517
 20
6.4366077926
 11
10.838583517
 21
6.3786522396
  0
LINE
  5
2F0
100
AcDbEntity
  8
0
100
AcDbLine
 62
4
  6
CONTINUOUS
 10
10.8772205523
 20
6.4339283051
 11
10.8772205523
 21
6.3759727521
  0
LINE
  5
2F1
100
AcDbEntity
  8
0
100
AcDbLine
 62
4
  6
CONTINUOUS
 10
10.8951591524
 20
5.8829344428
 11
10.8951591524
 21
5.8001407954
  0
LINE
  5
2F2
100
AcDbEntity
  8
0
100
AcDbLine
 62
4
  6
CONTINUOUS
 10
10.9351761053
 20
6.3719535208
 11
10.9351761053
 21
6.4299090738
  0
LINE
  5
2F3
100
AcDbEntity
  8
0
100
AcDbLine
 62
4
  6
CONTINUOUS
 10
10.9420755945
 20
5.7803283989
 11
10.9420755945
 21
5.8962395049
  0
LINE
  5
2F4
100
AcDbEntity
  8
0
100
AcDbLine
 62
7
  6
CONTINUOUS
 10
10.95922933
 20
10.7970357805
 11
10.95922933
 21
11.1814392218
  0
LINE
  5
2F5
100
AcDbEntity
  8
0
100
AcDbLine
 62
7
  6
CONTINUOUS
 10
10.9736773782
 20
10.7830800614
 11
10.9736773782
 21
11.1674835027
  0
LINE
  5
2F6
100
AcDbEntity
  8
0
100
AcDbLine
 62
4
  6
CONTINUOUS
 10
10.9738131407
 20
6.3692740333
 11
10.9738131407
 21
6.4851851393
  0
LINE
  5
2F7
100
AcDbEntity
  8
0
100
AcDbLine
 62
4
  6
CONTINUOUS
 10
11.012450176
 20
6.3665945458
 11
11.012450176
 21
6.4245500988
  0
LINE
  5
2F8
100
AcDbEntity
  8
0
100
AcDbLine
 62
4
  6
CONTINUOUS
 10
10.5005094606
 20
6.0659555475
 11
10.5253475568
 21
6.1801441257
  0
LINE
  5
2F9
100
AcDbEntity
  8
0
100
AcDbLine
 62
7
  6
CONTINUOUS
 10
13.3444089798
 20
10.7392715299
 11
12.5192945543
 21
9.9422721495
  0
LINE
  5
2FA
100
AcDbEntity
  8
0
100
AcDbLine
 62
7
  6
CONTINUOUS
 10
11.0402565462
 20
10.6154534557
 11
11.0402565462
 21
10.7451292901
  0
LINE
  5
2FB
100
AcDbEntity
  8
0
100
AcDbLine
 62
4
  6
CONTINUOUS
 10
11.0510872114
 20
6.4218706113
 11
11.0510872114
 21
6.3639150583
  0
LINE
  5
2FC
100
AcDbEntity
  8
0
100
AcDbLine
 62
4
  6
CONTINUOUS
 10
11.1476797997
 20
6.4151718926
 11
11.1476797997
 21
6.3861941161
  0
LINE
  5
2FD
100
AcDbEntity
  8
0
100
AcDbLine
 62
4
  6
CONTINUOUS
 10
11.2056353527
 20
6.3821748848
 11
11.2056353527
 21
6.3531971083
  0
LINE
  5
2FE
100
AcDbEntity
  8
0
100
AcDbLine
 62
4
  6
CONTINUOUS
 10
10.2769666099
 20
5.8264538636
 11
10.3100840668
 21
5.9400682662
  0
LINE
  5
2FF
100
AcDbEntity
  8
0
100
AcDbLine
 62
4
  6
CONTINUOUS
 10
10.4508332736
 20
6.0694006028
 11
10.475671368
 21
6.1504717242
  0
LINE
  5
300
100
AcDbEntity
  8
0
100
AcDbLine
 62
7
  6
CONTINUOUS
 10
11.3873640962
 20
10.6760101958
 11
11.3873640962
 21
11.0604136371
  0
LINE
  5
301
100
AcDbEntity
  8
0
100
AcDbLine
 62
7
  6
CONTINUOUS
 10
11.4412849049
 20
10.672270775
 11
11.4412849049
 21
11.0566742163
  0
LINE
  5
302
100
AcDbEntity
  8
0
100
AcDbLine
 62
4
  6
CONTINUOUS
 10
10.5833031029
 20
6.0602137889
 11
10.6164205736
 21
6.1738281906
  0
LINE
  5
303
100
AcDbEntity
  8
0
100
AcDbLine
 62
4
  6
CONTINUOUS
 10
12.6041871326
 20
6.8714900156
 11
12.6015989431
 21
6.8762344603
  0
LINE
  5
304
100
AcDbEntity
  8
0
100
AcDbLine
 62
4
  6
CONTINUOUS
 10
12.6223044497
 20
6.8889900012
 11
12.6171280731
 21
6.8984788929
  0
LINE
  5
305
100
AcDbEntity
  8
0
100
AcDbLine
 62
7
  6
CONTINUOUS
 10
12.0063913125
 20
10.7114611068
 11
12.0063913125
 21
11.0958645482
  0
LINE
  5
306
100
AcDbEntity
  8
0
100
AcDbLine
 62
4
  6
CONTINUOUS
 10
10.6826554735
 20
6.0533236786
 11
10.7488904149
 21
6.1646413759
  0
LINE
  5
307
100
AcDbEntity
  8
0
100
AcDbLine
 62
7
  6
CONTINUOUS
 10
12.0458640729
 20
10.7216774051
 11
12.0458640729
 21
11.1060808464
  0
LINE
  5
308
100
AcDbEntity
  8
0
100
AcDbLine
 62
7
  6
CONTINUOUS
 10
12.1162565462
 20
10.6155407968
 11
12.1162565462
 21
10.7501293655
  0
LINE
  5
309
100
AcDbEntity
  8
0
100
AcDbLine
 62
7
  6
CONTINUOUS
 10
12.1972837625
 20
10.8679376025
 11
12.1972837625
 21
11.2523410438
  0
LINE
  5
30A
100
AcDbEntity
  8
0
100
AcDbLine
 62
4
  6
CONTINUOUS
 10
12.8785350719
 20
8.5409460357
 11
12.8837114472
 21
8.5459460306
  0
LINE
  5
30B
100
AcDbEntity
  8
02___PRT_ALL_AXES
100
AcDbLine
 62
7
  6
CONTINUOUS
 10
10.5165751199
 20
10.6889570183
 11
10.4712937637
 21
10.7310960738
  0
LINE
  5
30C
100
AcDbEntity
  8
0
100
AcDbLine
 62
7
  6
CONTINUOUS
 10
12.5192945543
 20
9.9422721495
 11
12.5192945543
 21
5.5956056736
  0
LINE
  5
30D
100
AcDbEntity
  8
0
100
AcDbLine
 62
4
  6
CONTINUOUS
 10
12.9044169539
 20
8.5079904637
 11
12.8733586948
 21
8.4779904874
  0
LINE
  5
30E
100
AcDbEntity
  8
0
100
AcDbLine
 62
4
  6
CONTINUOUS
 10
10.2300502092
 20
5.8462662572
 11
10.2134914808
 21
5.8308558788
  0
LINE
  5
30F
100
AcDbEntity
  8
0
100
AcDbLine
 62
4
  6
CONTINUOUS
 10
10.6698341366
 20
10.4183304072
 11
10.6651778822
 21
10.4213328103
  0
LINE
  5
310
100
AcDbEntity
  8
0
100
AcDbLine
 62
4
  6
CONTINUOUS
 10
10.7391826835
 20
10.4403159646
 11
10.748495195
 21
10.4343111608
  0
LINE
  5
311
100
AcDbEntity
  8
0
100
AcDbLine
 62
4
  6
CONTINUOUS
 10
12.5912461907
 20
6.8589900248
 11
12.5912461907
 21
6.8082789171
  0
LINE
  5
312
100
AcDbEntity
  8
0
100
AcDbLine
 62
4
  6
CONTINUOUS
 10
12.6041871326
 20
6.8207789078
 11
12.6041871326
 21
6.8714900156
  0
LINE
  5
313
100
AcDbEntity
  8
0
100
AcDbLine
 62
4
  6
CONTINUOUS
 10
12.6223044497
 20
6.8382788934
 11
12.6223044497
 21
6.8889900012
  0
LINE
  5
314
100
AcDbEntity
  8
0
100
AcDbLine
 62
4
  6
CONTINUOUS
 10
10.6495380518
 20
5.899968324
 11
10.6660967733
 21
5.9153787012
  0
LINE
  5
315
100
AcDbEntity
  8
0
100
AcDbLine
 62
4
  6
CONTINUOUS
 10
10.7461306033
 20
5.8932696078
 11
10.7626893248
 21
5.908679985
  0
LINE
  5
316
100
AcDbEntity
  8
0
100
AcDbLine
 62
7
  6
CONTINUOUS
 10
12.5192945543
 20
9.9422721495
 11
8.6555910202
 21
10.2102208996
  0
LINE
  5
317
100
AcDbEntity
  8
0
100
AcDbLine
 62
4
  6
CONTINUOUS
 10
10.6817348369
 20
10.4148256019
 11
10.6698341366
 21
10.4183304072
  0
LINE
  5
318
100
AcDbEntity
  8
0
100
AcDbLine
 62
4
  6
CONTINUOUS
 10
12.8837114472
 20
8.5459460306
 11
12.8862996367
 21
8.5412015859
  0
LINE
  5
319
100
AcDbEntity
  8
0
100
AcDbLine
 62
4
  6
CONTINUOUS
 10
12.8733586948
 20
8.4779904874
 11
12.8733586948
 21
8.5142127072
  0
LINE
  5
31A
100
AcDbEntity
  8
0
100
AcDbLine
 62
4
  6
CONTINUOUS
 10
12.8888878243
 20
8.5292126954
 11
12.8888878243
 21
8.4929904755
  0
LINE
  5
31B
100
AcDbEntity
  8
0
100
AcDbLine
 62
4
  6
CONTINUOUS
 10
12.8733586948
 20
8.5142127072
 11
12.8759468824
 21
8.5312015925
  0
LINE
  5
31C
100
AcDbEntity
  8
0
100
AcDbLine
 62
4
  6
CONTINUOUS
 10
12.8759468824
 20
8.5312015925
 11
12.8785350719
 21
8.5409460357
  0
LINE
  5
31D
100
AcDbEntity
  8
0
100
AcDbLine
 62
4
  6
CONTINUOUS
 10
12.5938343783
 20
6.8687344662
 11
12.5912461907
 21
6.8589900248
  0
LINE
  5
31E
100
AcDbEntity
  8
0
100
AcDbLine
 62
4
  6
CONTINUOUS
 10
12.6093635088
 20
6.8909788993
 11
12.6041871326
 21
6.8714900156
  0
LINE
  5
31F
100
AcDbEntity
  8
0
100
AcDbLine
 62
4
  6
CONTINUOUS
 10
10.8040861563
 20
5.8064567291
 11
10.7875274347
 21
5.7910463502
  0
LINE
  5
320
100
AcDbEntity
  8
0
100
AcDbLine
 62
4
  6
CONTINUOUS
 10
10.8951591524
 20
5.8001407954
 11
10.8786004308
 21
5.7847304164
  0
LINE
  5
321
100
AcDbEntity
  8
0
100
AcDbLine
 62
4
  6
CONTINUOUS
 10
10.7329660655
 20
10.4193111727
 11
10.7133008004
 21
10.4153159838
  0
LINE
  5
322
100
AcDbEntity
  8
0
100
AcDbLine
 62
4
  6
CONTINUOUS
 10
10.6858833874
 20
10.4413327938
 11
10.6957160197
 21
10.443330388
  0
LINE
  5
323
100
AcDbEntity
  8
0
100
AcDbLine
 62
4
  6
CONTINUOUS
 10
10.7133008004
 20
10.4153159838
 11
10.6962237248
 21
10.4138207942
  0
LINE
  5
324
100
AcDbEntity
  8
0
100
AcDbLine
 62
4
  6
CONTINUOUS
 10
10.6957160197
 20
10.443330388
 11
10.712793096
 21
10.4448255783
  0
LINE
  5
325
100
AcDbEntity
  8
0
100
AcDbLine
 62
4
  6
CONTINUOUS
 10
10.6962237248
 20
10.4138207942
 11
10.6817348369
 21
10.4148256019
  0
LINE
  5
326
100
AcDbEntity
  8
0
100
AcDbLine
 62
4
  6
CONTINUOUS
 10
10.7045084104
 20
10.4293231862
 11
10.6755306346
 21
10.4313328018
  0
LINE
  5
327
100
AcDbEntity
  8
0
100
AcDbLine
 62
4
  6
CONTINUOUS
 10
10.712793096
 20
10.4448255783
 11
10.7272819839
 21
10.4438207705
  0
LINE
  5
328
100
AcDbEntity
  8
0
100
AcDbLine
 62
7
  6
CONTINUOUS
 10
10.1406329157
 20
10.7076612684
 11
10.2426950109
 21
10.6812456878
  0
LINE
  5
329
100
AcDbEntity
  8
0
100
AcDbLine
 62
7
  6
CONTINUOUS
 10
10.4194716671
 20
10.7269988357
 11
10.3174095719
 21
10.7534144162
  0
LINE
  5
32A
100
AcDbEntity
  8
0
100
AcDbLine
 62
4
  6
CONTINUOUS
 10
10.7272819839
 20
10.4438207705
 11
10.7391826835
 21
10.4403159646
  0
LINE
  5
32B
100
AcDbEntity
  8
0
100
AcDbLine
 62
4
  6
CONTINUOUS
 10
12.8862996367
 20
8.5412015859
 11
12.8888878243
 21
8.5292126954
  0
LINE
  5
32C
100
AcDbEntity
  8
0
100
AcDbLine
 62
4
  6
CONTINUOUS
 10
10.1500163551
 20
5.9070123905
 11
10.1058597424
 21
5.887996354
  0
LINE
  5
32D
100
AcDbEntity
  8
0
100
AcDbLine
 62
7
  6
CONTINUOUS
 10
10.2426950109
 20
10.6812456878
 11
10.3821143866
 21
10.6909144715
  0
LINE
  5
32E
100
AcDbEntity
  8
0
100
AcDbLine
 62
7
  6
CONTINUOUS
 10
11.1017057329
 20
10.7143260901
 11
11.0559733613
 21
10.7369170061
  0
LINE
  5
32F
100
AcDbEntity
  8
0
100
AcDbLine
 62
7
  6
CONTINUOUS
 10
13.3444089798
 20
10.7392715299
 11
13.3444089798
 21
6.392605054
  0
LINE
  5
330
100
AcDbEntity
  8
0
100
AcDbLine
 62
4
  6
CONTINUOUS
 10
12.6171280731
 20
6.8984788929
 11
12.6093635088
 21
6.8909788993
  0
LINE
  5
331
100
AcDbEntity
  8
0
100
AcDbLine
 62
4
  6
CONTINUOUS
 10
12.6015989431
 20
6.8762344603
 11
12.5938343783
 21
6.8687344662
  0
LINE
  5
332
100
AcDbEntity
  8
0
100
AcDbLine
 62
4
  6
CONTINUOUS
 10
12.5912461907
 20
6.8082789171
 11
12.6223044497
 21
6.8382788934
  0
LINE
  5
333
100
AcDbEntity
  8
0
100
AcDbLine
 62
4
  6
CONTINUOUS
 10
11.0690258114
 20
5.8212005602
 11
11.0248692022
 21
5.8021845252
  0
LINE
  5
334
100
AcDbEntity
  8
0
100
AcDbLine
 62
7
  6
CONTINUOUS
 10
10.3174095719
 20
10.7534144162
 11
10.1779901962
 21
10.7437456325
  0
LINE
  5
335
100
AcDbEntity
  8
0
100
AcDbLine
 62
7
  6
CONTINUOUS
 10
9.4807054457
 20
11.00722028
 11
10.95922933
 21
10.9046843004
  0
LINE
  5
336
100
AcDbEntity
  8
0
100
AcDbLine
 62
7
  6
CONTINUOUS
 10
12.1711471595
 20
10.8206375135
 11
13.3444089798
 21
10.7392715299
  0
LINE
  5
337
100
AcDbEntity
  8
0
100
AcDbLine
 62
7
  6
CONTINUOUS
 10
12.1005397312
 20
11.3124598182
 11
12.0698656566
 21
11.3276122237
  0
LINE
  5
338
100
AcDbEntity
  8
0
100
AcDbLine
 62
7
  6
CONTINUOUS
 10
13.3444089798
 20
6.392605054
 11
12.5192945543
 21
5.5956056736
  0
ARC
  5
339
100
AcDbEntity
  8
0
100
AcDbCircle
 62
7
  6
CONTINUOUS
 10
11.5707034745
 20
12.9326944222
 40
2.2641254892
100
AcDbArc
 50
266.0354973614
 51
266.723157899
  0
ARC
  5
33A
100
AcDbEntity
  8
0
100
AcDbCircle
 62
7
  6
CONTINUOUS
 10
11.5699898789
 20
13.3058205161
 40
2.2528257918
100
AcDbArc
 50
266.0337727607
 51
266.7248824998
  0
ARC
  5
33B
100
AcDbEntity
  8
0
100
AcDbCircle
 62
7
  6
CONTINUOUS
 10
11.5647938471
 20
12.8476939246
 40
2.1789198091
100
AcDbArc
 50
265.3292248879
 51
266.0359887124
  0
ARC
  5
33C
100
AcDbEntity
  8
0
100
AcDbCircle
 62
7
  6
CONTINUOUS
 10
11.5647938471
 20
13.232097366
 40
2.1789198091
100
AcDbArc
 50
265.329224888
 51
266.0359887124
  0
ARC
  5
33D
100
AcDbEntity
  8
0
100
AcDbCircle
 62
7
  6
CONTINUOUS
 10
11.7871918746
 20
11.6397467197
 40
0.9538147475
100
AcDbArc
 50
283.286087793
 51
285.7355389587
  0
ARC
  5
33E
100
AcDbEntity
  8
0
100
AcDbCircle
 62
7
  6
CONTINUOUS
 10
11.7871918746
 20
12.024150161
 40
0.9538147475
100
AcDbArc
 50
283.286087793
 51
285.7355389587
  0
ARC
  5
33F
100
AcDbEntity
  8
0
100
AcDbCircle
 62
7
  6
CONTINUOUS
 10
11.9613081485
 20
7.1347803236
 40
0.1204894391
100
AcDbArc
 50
216.1000128216
 51
232.1266087546
  0
SPLINE
  5
340
100
AcDbEntity
  8
02___PRT_ALL_AXES
100
AcDbSpline
 62
7
  6
CONTINUOUS
 70
0
 71
3
 72
30
 73
26
 74
0
 42
0.0000001
 43
0.0000001
 44
0.0000000001
 40
0.0
 40
0.0
 40
0.0
 40
0.0
 40
0.0760978103
 40
0.1533705468
 40
0.2310983668
 40
0.3086120659
 40
0.3852193806
 40
0.4602427169
 40
0.5330247869
 40
0.6029326973
 40
0.669370128
 40
0.7011145604
 40
0.7317882449
 40
0.7613306424
 40
0.7896866576
 40
0.8168036245
 40
0.8426357556
 40
0.8671435371
 40
0.8902920027
 40
0.9120566199
 40
0.9324213189
 40
0.9513795869
 40
0.9689415584
 40
0.9851327036
 40
1.0
 40
1.0
 40
1.0
 40
1.0
 10
10.3314278295
 20
10.766955014
 30
0.0
 10
10.325125472
 20
10.767392084
 30
0.0
 10
10.3124109106
 20
10.7681004121
 30
0.0
 10
10.293232169
 20
10.7686735773
 30
0.0
 10
10.2739274108
 20
10.768762232
 30
0.0
 10
10.2546817955
 20
10.7683660136
 30
0.0
 10
10.2356767821
 20
10.7674885067
 30
0.0
 10
10.2170931969
 20
10.7661383557
 30
0.0
 10
10.1991073481
 20
10.7643287395
 30
0.0
 10
10.1818899534
 20
10.7620769795
 30
0.0
 10
10.1681164313
 20
10.7598177034
 30
0.0
 10
10.1576117871
 20
10.7577934367
 30
0.0
 10
10.1501444857
 20
10.7562023871
 30
0.0
 10
10.1429860544
 20
10.7545191632
 30
0.0
 10
10.1361533809
 20
10.7527481155
 30
0.0
 10
10.1296626907
 20
10.7508931642
 30
0.0
 10
10.1235293003
 20
10.7489588134
 30
0.0
 10
10.1177675724
 20
10.7469499744
 30
0.0
 10
10.1123911383
 20
10.7448709847
 30
0.0
 10
10.1074124608
 20
10.7427270402
 30
0.0
 10
10.1028429522
 20
10.740523314
 30
0.0
 10
10.0986933143
 20
10.7382644056
 30
0.0
 10
10.094972552
 20
10.7359557216
 30
0.0
 10
10.0916892527
 20
10.7336024329
 30
0.0
 10
10.0897153043
 20
10.7319376008
 30
0.0
 10
10.0888117556
 20
10.7310967774
 30
0.0
  0
SPLINE
  5
341
100
AcDbEntity
  8
02___PRT_ALL_AXES
100
AcDbSpline
 62
7
  6
CONTINUOUS
 70
0
 71
3
 72
26
 73
22
 74
0
 42
0.0000001
 43
0.0000001
 44
0.0000000001
 40
0.0
 40
0.0
 40
0.0
 40
0.0
 40
0.0844810504
 40
0.1673036701
 40
0.2480923067
 40
0.3265401319
 40
0.4023660625
 40
0.4752938366
 40
0.5450543067
 40
0.6114048561
 40
0.6741243906
 40
0.7330193289
 40
0.7879244449
 40
0.8387114886
 40
0.8852976289
 40
0.907006608
 40
0.9276615022
 40
0.9472704922
 40
0.9658470092
 40
0.9834130062
 40
1.0
 40
1.0
 40
1.0
 40
1.0
 10
10.3314278295
 20
10.766955014
 30
0.0
 10
10.3355358494
 20
10.7666701219
 30
0.0
 10
10.3436664388
 20
10.7660336314
 30
0.0
 10
10.3557035745
 20
10.7648670629
 30
0.0
 10
10.3674237995
 20
10.7635011609
 30
0.0
 10
10.378775848
 20
10.761942394
 30
0.0
 10
10.3897129461
 20
10.7601969851
 30
0.0
 10
10.4001898701
 20
10.7582727878
 30
0.0
 10
10.4101625826
 20
10.756177507
 30
0.0
 10
10.4195891858
 20
10.7539204268
 30
0.0
 10
10.4284304287
 20
10.7515109357
 30
0.0
 10
10.4366496157
 20
10.748959438
 30
0.0
 10
10.4442129447
 20
10.7462767074
 30
0.0
 10
10.4510890793
 20
10.7434739199
 30
0.0
 10
10.456341009
 20
10.7409930955
 30
0.0
 10
10.4601642918
 20
10.7389466858
 30
0.0
 10
10.4627749221
 20
10.7374254755
 30
0.0
 10
10.4651940217
 20
10.7358831978
 30
0.0
 10
10.4674190078
 20
10.7343211844
 30
0.0
 10
10.4694475005
 20
10.7327410508
 30
0.0
 10
10.4707028066
 20
10.7316458812
 30
0.0
 10
10.4712946629
 20
10.7310950757
 30
0.0
  0
SPLINE
  5
342
100
AcDbEntity
  8
02___PRT_ALL_AXES
100
AcDbSpline
 62
7
  6
CONTINUOUS
 70
0
 71
3
 72
50
 73
46
 74
0
 42
0.0000001
 43
0.0000001
 44
0.0000000001
 40
0.0
 40
0.0
 40
0.0
 40
0.0
 40
0.0082492209
 40
0.0160250184
 40
0.0233636887
 40
0.0303110576
 40
0.0369223806
 40
0.0432629463
 40
0.0494081642
 40
0.0554419468
 40
0.0614530639
 40
0.0675313806
 40
0.0737638192
 40
0.080230172
 40
0.0941208225
 40
0.1016719887
 40
0.1096792035
 40
0.1181744712
 40
0.1271831034
 40
0.1367248005
 40
0.1468133111
 40
0.1574577443
 40
0.1686641226
 40
0.1804359284
 40
0.1927733238
 40
0.2191303108
 40
0.2476992772
 40
0.2784139152
 40
0.3111888181
 40
0.3459202892
 40
0.382490695
 40
0.4207695651
 40
0.4606153723
 40
0.501877562
 40
0.5443966524
 40
0.5880068863
 40
0.6325353669
 40
0.6778055938
 40
0.7236366011
 40
0.7698444551
 40
0.8162405456
 40
0.8626385614
 40
0.908859746
 40
0.954718016
 40
1.0
 40
1.0
 40
1.0
 40
1.0
 10
10.4712946629
 20
10.7310950757
 30
0.0
 10
10.4718604339
 20
10.7305685461
 30
0.0
 10
10.4729285462
 20
10.7295115444
 30
0.0
 10
10.4743720756
 20
10.7278633501
 30
0.0
 10
10.4756062556
 20
10.7262021618
 30
0.0
 10
10.4766296068
 20
10.7245295867
 30
0.0
 10
10.477440559
 20
10.7228470365
 30
0.0
 10
10.4780372538
 20
10.7211561096
 30
0.0
 10
10.4784177984
 20
10.7194588364
 30
0.0
 10
10.4785813126
 20
10.7177578919
 30
0.0
 10
10.478527276
 20
10.7160561685
 30
0.0
 10
10.4782557571
 20
10.7143567008
 30
0.0
 10
10.4777673232
 20
10.7126622506
 30
0.0
 10
10.4768068932
 20
10.7103587674
 30
0.0
 10
10.4754166575
 20
10.7081218625
 30
0.0
 10
10.4736804488
 20
10.7059757912
 30
0.0
 10
10.4721332311
 20
10.7043341526
 30
0.0
 10
10.4703797464
 20
10.7027077519
 30
0.0
 10
10.4684214612
 20
10.7010975556
 30
0.0
 10
10.4662603287
 20
10.6995054011
 30
0.0
 10
10.4638986728
 20
10.6979327084
 30
0.0
 10
10.4613390885
 20
10.696380988
 30
0.0
 10
10.4585842166
 20
10.6948518591
 30
0.0
 10
10.4556368154
 20
10.693347021
 30
0.0
 10
10.4513594865
 20
10.6913304962
 30
0.0
 10
10.4455440937
 20
10.6888939291
 30
0.0
 10
10.4380006733
 20
10.6861523539
 30
0.0
 10
10.4297774599
 20
10.6835433917
 30
0.0
 10
10.4209094726
 20
10.6810788022
 30
0.0
 10
10.4114344698
 20
10.6787690679
 30
0.0
 10
10.4013930088
 20
10.6766244922
 30
0.0
 10
10.3908282133
 20
10.6746543643
 30
0.0
 10
10.3797855065
 20
10.6728673216
 30
0.0
 10
10.368312454
 20
10.6712712397
 30
0.0
 10
10.3564584826
 20
10.6698729688
 30
0.0
 10
10.3442747488
 20
10.6686788079
 30
0.0
 10
10.3318138018
 20
10.6676937081
 30
0.0
 10
10.319129383
 20
10.6669222729
 30
0.0
 10
10.3062761755
 20
10.6663675443
 30
0.0
 10
10.2933098691
 20
10.6660323359
 30
0.0
 10
10.2802866198
 20
10.665917588
 30
0.0
 10
10.267262056
 20
10.6660242901
 30
0.0
 10
10.2542915547
 20
10.666351696
 30
0.0
 10
10.2414331469
 20
10.6668987708
 30
0.0
 10
10.2329090678
 20
10.667411578
 30
0.0
 10
10.2286767534
 20
10.66770509
 30
0.0
  0
SPLINE
  5
343
100
AcDbEntity
  8
02___PRT_ALL_AXES
100
AcDbSpline
 62
7
  6
CONTINUOUS
 70
0
 71
3
 72
39
 73
35
 74
0
 42
0.0000001
 43
0.0000001
 44
0.0000000001
 40
0.0
 40
0.0
 40
0.0
 40
0.0
 40
0.0192536737
 40
0.0368857599
 40
0.0531267624
 40
0.0682871173
 40
0.0755883734
 40
0.0827717582
 40
0.08989591
 40
0.0970208946
 40
0.1042067025
 40
0.1115117809
 40
0.1266842116
 40
0.142942377
 40
0.160594398
 40
0.1798713268
 40
0.2009340671
 40
0.2238930147
 40
0.2488172124
 40
0.275740952
 40
0.3046773404
 40
0.335617407
 40
0.3685350598
 40
0.4033942408
 40
0.4401438449
 40
0.4787239891
 40
0.5190684616
 40
0.5611002345
 40
0.6047379883
 40
0.6498939604
 40
0.696471166
 40
0.7934877965
 40
0.8949792044
 40
1.0
 40
1.0
 40
1.0
 40
1.0
 10
10.0888117556
 20
10.7310967774
 30
0.0
 10
10.0879743438
 20
10.7303174994
 30
0.0
 10
10.0864359225
 20
10.7287504567
 30
0.0
 10
10.0844888823
 20
10.7262560946
 30
0.0
 10
10.0830166703
 20
10.7237306503
 30
0.0
 10
10.0821817949
 20
10.7215751389
 30
0.0
 10
10.0817727785
 20
10.7198597659
 30
0.0
 10
10.0815914974
 20
10.7185868376
 30
0.0
 10
10.0815322071
 20
10.7173129284
 30
0.0
 10
10.0815948588
 20
10.7160390369
 30
0.0
 10
10.0817794371
 20
10.7147661647
 30
0.0
 10
10.0821926978
 20
10.713050695
 30
0.0
 10
10.0830332348
 20
10.7108952683
 30
0.0
 10
10.08451201
 20
10.7083703963
 30
0.0
 10
10.0864653349
 20
10.7058761413
 30
0.0
 10
10.0888867773
 20
10.7034165792
 30
0.0
 10
10.0917694927
 20
10.7009941689
 30
0.0
 10
10.0951072937
 20
10.6986134389
 30
0.0
 10
10.0988927409
 20
10.6962791978
 30
0.0
 10
10.1031170302
 20
10.6939959944
 30
0.0
 10
10.1077706875
 20
10.6917695569
 30
0.0
 10
10.1128427185
 20
10.6896049639
 30
0.0
 10
10.1183210585
 20
10.6875071639
 30
0.0
 10
10.1241927681
 20
10.685481735
 30
0.0
 10
10.1304436199
 20
10.6835332631
 30
0.0
 10
10.1370585385
 20
10.6816665115
 30
0.0
 10
10.1440216034
 20
10.6798864032
 30
0.0
 10
10.1513159137
 20
10.6781969024
 30
0.0
 10
10.1589238223
 20
10.6766023566
 30
0.0
 10
10.1668267931
 20
10.675106805
 30
0.0
 10
10.1778821938
 20
10.6732236709
 30
0.0
 10
10.1922986265
 20
10.6711550486
 30
0.0
 10
10.2102227045
 20
10.6691498724
 30
0.0
 10
10.2224521435
 20
10.6681367682
 30
0.0
 10
10.2286767534
 20
10.66770509
 30
0.0
  0
SPLINE
  5
344
100
AcDbEntity
  8
0
100
AcDbSpline
 62
7
  6
CONTINUOUS
 70
0
 71
3
 72
29
 73
25
 74
0
 42
0.0000001
 43
0.0000001
 44
0.0000000001
 40
0.0
 40
0.0
 40
0.0
 40
0.0
 40
0.070984318
 40
0.1429825523
 40
0.2155057028
 40
0.2880809331
 40
0.3602234383
 40
0.4314560192
 40
0.5013085085
 40
0.5693229079
 40
0.6350576048
 40
0.6980916372
 40
0.728471958
 40
0.7580314442
 40
0.7867250902
 40
0.8145108681
 40
0.8413490867
 40
0.8672023195
 40
0.8920371672
 40
0.9158224349
 40
0.9385315725
 40
0.9601419631
 40
0.9806353258
 40
1.0
 40
1.0
 40
1.0
 40
1.0
 10
11.7219009977
 20
11.3996965545
 30
0.0
 10
11.7066828693
 20
11.4007519353
 30
0.0
 10
11.6760032412
 20
11.4025181038
 30
0.0
 10
11.6297155382
 20
11.4041429085
 30
0.0
 10
11.5830612726
 20
11.4047554056
 30
0.0
 10
11.5363738078
 20
11.4043517788
 30
0.0
 10
11.4899835023
 20
11.4029345336
 30
0.0
 10
11.4442205006
 20
11.4005140277
 30
0.0
 10
11.3994097355
 20
11.3971077191
 30
0.0
 10
11.3558692782
 20
11.3927403069
 30
0.0
 10
11.3139084364
 20
11.3874432548
 30
0.0
 10
11.2801020755
 20
11.3822246488
 30
0.0
 10
11.2540828368
 20
11.3775929198
 30
0.0
 10
11.2353850554
 20
11.373954991
 30
0.0
 10
11.2172969717
 20
11.3701165358
 30
0.0
 10
11.1998506576
 20
11.366084529
 30
0.0
 10
11.183077046
 20
11.3618663339
 30
0.0
 10
11.1670059135
 20
11.3574690819
 30
0.0
 10
11.151665643
 20
11.3529011904
 30
0.0
 10
11.1370834003
 20
11.3481703271
 30
0.0
 10
11.1232848975
 20
11.3432851956
 30
0.0
 10
11.1102942739
 20
11.338254565
 30
0.0
 10
11.0981346953
 20
11.3330870363
 30
0.0
 10
11.0903751355
 20
11.3294536485
 30
0.0
 10
11.0866440392
 20
11.3276105313
 30
0.0
  0
SPLINE
  5
345
100
AcDbEntity
  8
0
100
AcDbSpline
 62
7
  6
CONTINUOUS
 70
0
 71
3
 72
9
 73
5
 74
0
 42
0.0000001
 43
0.0000001
 44
0.0000000001
 40
0.0
 40
0.0
 40
0.0
 40
0.0
 40
0.4802028106
 40
1.0
 40
1.0
 40
1.0
 40
1.0
 10
10.95922933
 20
10.7970357805
 30
0.0
 10
10.9613207529
 20
10.7945894454
 30
0.0
 10
10.9659495726
 20
10.7897258556
 30
0.0
 10
10.9709830421
 20
10.7852886329
 30
0.0
 10
10.9736773782
 20
10.7830800614
 30
0.0
  0
SPLINE
  5
346
100
AcDbEntity
  8
0
100
AcDbSpline
 62
7
  6
CONTINUOUS
 70
0
 71
3
 72
9
 73
5
 74
0
 42
0.0000001
 43
0.0000001
 44
0.0000000001
 40
0.0
 40
0.0
 40
0.0
 40
0.0
 40
0.4802028106
 40
1.0
 40
1.0
 40
1.0
 40
1.0
 10
12.1972837625
 20
11.2523410438
 30
0.0
 10
12.1951923396
 20
11.2547873789
 30
0.0
 10
12.1905635199
 20
11.2596509687
 30
0.0
 10
12.1855300503
 20
11.2640881914
 30
0.0
 10
12.1828357143
 20
11.2662967629
 30
0.0
  0
SPLINE
  5
347
100
AcDbEntity
  8
0
100
AcDbSpline
 62
7
  6
CONTINUOUS
 70
0
 71
3
 72
9
 73
5
 74
0
 42
0.0000001
 43
0.0000001
 44
0.0000000001
 40
0.0
 40
0.0
 40
0.0
 40
0.0
 40
0.5043782952
 40
1.0
 40
1.0
 40
1.0
 40
1.0
 10
12.1828357143
 20
11.2662967629
 30
0.0
 10
12.1693319885
 20
11.2747055961
 30
0.0
 10
12.1422192005
 20
11.2908402141
 30
0.0
 10
12.1143464572
 20
11.3056373772
 30
0.0
 10
12.1003323462
 20
11.3125622062
 30
0.0
  0
SPLINE
  5
348
100
AcDbEntity
  8
0
100
AcDbSpline
 62
7
  6
CONTINUOUS
 70
0
 71
3
 72
9
 73
5
 74
0
 42
0.0000001
 43
0.0000001
 44
0.0000000001
 40
0.0
 40
0.0
 40
0.0
 40
0.0
 40
0.5043782952
 40
1.0
 40
1.0
 40
1.0
 40
1.0
 10
10.9736773782
 20
10.7830800614
 30
0.0
 10
10.9871811039
 20
10.7746712282
 30
0.0
 10
11.014293892
 20
10.7585366102
 30
0.0
 10
11.0421666352
 20
10.7437394471
 30
0.0
 10
11.0561807462
 20
10.7368146181
 30
0.0
  0
SPLINE
  5
349
100
AcDbEntity
  8
0
100
AcDbSpline
 62
7
  6
CONTINUOUS
 70
0
 71
3
 72
23
 73
19
 74
0
 42
0.0000001
 43
0.0000001
 44
0.0000000001
 40
0.0
 40
0.0
 40
0.0
 40
0.0
 40
0.0436202716
 40
0.0892267831
 40
0.1370684894
 40
0.1873535484
 40
0.2402536978
 40
0.2958870825
 40
0.3543309839
 40
0.4156093066
 40
0.4797101
 40
0.5465786547
 40
0.6161344819
 40
0.6882693018
 40
0.7628605839
 40
0.8397743489
 40
0.9188692317
 40
1.0
 40
1.0
 40
1.0
 40
1.0
 10
12.0888753644
 20
10.7311550685
 30
0.0
 10
12.0911852977
 20
10.732295636
 30
0.0
 10
12.0958224167
 20
10.7348107304
 30
0.0
 10
12.102649699
 20
10.73917178
 30
0.0
 10
12.1094860807
 20
10.7442140647
 30
0.0
 10
12.1163276233
 20
10.7499449961
 30
0.0
 10
12.1231687144
 20
10.7563686467
 30
0.0
 10
12.1300062478
 20
10.7634802199
 30
0.0
 10
12.1368344999
 20
10.7712710336
 30
0.0
 10
12.143650737
 20
10.7797244386
 30
0.0
 10
12.1504498985
 20
10.7888203479
 30
0.0
 10
12.1572297418
 20
10.7985327342
 30
0.0
 10
12.1639864017
 20
10.8088332874
 30
0.0
 10
12.1707182818
 20
10.8196902474
 30
0.0
 10
12.1774229919
 20
10.8310711076
 30
0.0
 10
12.1840996342
 20
10.8429421974
 30
0.0
 10
12.1907471198
 20
10.8552700443
 30
0.0
 10
12.1951062332
 20
10.8636694668
 30
0.0
 10
12.1972837625
 20
10.8679376025
 30
0.0
  0
SPLINE
  5
34A
100
AcDbEntity
  8
0
100
AcDbSpline
 62
7
  6
CONTINUOUS
 70
0
 71
3
 72
23
 73
19
 74
0
 42
0.0000001
 43
0.0000001
 44
0.0000000001
 40
0.0
 40
0.0
 40
0.0
 40
0.0
 40
0.0436202716
 40
0.0892267831
 40
0.1370684894
 40
0.1873535484
 40
0.2402536978
 40
0.2958870825
 40
0.3543309839
 40
0.4156093066
 40
0.4797101
 40
0.5465786547
 40
0.6161344819
 40
0.6882693018
 40
0.7628605839
 40
0.8397743489
 40
0.9188692317
 40
1.0
 40
1.0
 40
1.0
 40
1.0
 10
11.0676377281
 20
11.3182217558
 30
0.0
 10
11.0653277948
 20
11.3170811883
 30
0.0
 10
11.0606906758
 20
11.3145660939
 30
0.0
 10
11.0538633935
 20
11.3102050443
 30
0.0
 10
11.0470270118
 20
11.3051627596
 30
0.0
 10
11.0401854692
 20
11.2994318282
 30
0.0
 10
11.033344378
 20
11.2930081775
 30
0.0
 10
11.0265068446
 20
11.2858966044
 30
0.0
 10
11.0196785925
 20
11.2781057907
 30
0.0
 10
11.0128623554
 20
11.2696523857
 30
0.0
 10
11.0060631939
 20
11.2605564764
 30
0.0
 10
10.9992833507
 20
11.2508440901
 30
0.0
 10
10.9925266907
 20
11.2405435368
 30
0.0
 10
10.9857948106
 20
11.2296865769
 30
0.0
 10
10.9790901006
 20
11.2183057167
 30
0.0
 10
10.9724134583
 20
11.2064346269
 30
0.0
 10
10.9657659727
 20
11.19410678
 30
0.0
 10
10.9614068593
 20
11.1857073574
 30
0.0
 10
10.95922933
 20
11.1814392218
 30
0.0
  0
SPLINE
  5
34B
100
AcDbEntity
  8
0
100
AcDbSpline
 62
7
  6
CONTINUOUS
 70
0
 71
3
 72
23
 73
19
 74
0
 42
0.0000001
 43
0.0000001
 44
0.0000000001
 40
0.0
 40
0.0
 40
0.0
 40
0.0
 40
0.0430692708
 40
0.0891859059
 40
0.1383039462
 40
0.1903539308
 40
0.2452509344
 40
0.3028923159
 40
0.36316428
 40
0.4259386958
 40
0.4910792536
 40
0.558438617
 40
0.6278623889
 40
0.6991843849
 40
0.7722354743
 40
0.8468474017
 40
0.9228412057
 40
1.0
 40
1.0
 40
1.0
 40
1.0
 10
12.0698695749
 20
11.3276102736
 30
0.0
 10
12.0652718414
 20
11.3298815104
 30
0.0
 10
12.0556291969
 20
11.3343403917
 30
0.0
 10
12.0403954245
 20
11.3406047566
 30
0.0
 10
12.0239326894
 20
11.3466584907
 30
0.0
 10
12.0062846877
 20
11.3524859392
 30
0.0
 10
11.9874975656
 20
11.3580708621
 30
0.0
 10
11.9676210255
 20
11.3633989465
 30
0.0
 10
11.946707637
 20
11.3684551881
 30
0.0
 10
11.9248129197
 20
11.3732266703
 30
0.0
 10
11.9019949558
 20
11.3776999172
 30
0.0
 10
11.8783143325
 20
11.3818635205
 30
0.0
 10
11.8538342555
 20
11.385705622
 30
0.0
 10
11.8286201816
 20
11.389216573
 30
0.0
 10
11.802738579
 20
11.3923864295
 30
0.0
 10
11.7762571859
 20
11.3952071698
 30
0.0
 10
11.7492491089
 20
11.3976704529
 30
0.0
 10
11.7310660446
 20
11.3990609563
 30
0.0
 10
11.7219009977
 20
11.3996965545
 30
0.0
  0
SPLINE
  5
34C
100
AcDbEntity
  8
0
100
AcDbSpline
 62
7
  6
CONTINUOUS
 70
0
 71
3
 72
56
 73
52
 74
0
 42
0.0000001
 43
0.0000001
 44
0.0000000001
 40
0.0
 40
0.0
 40
0.0
 40
0.0
 40
0.0460140365
 40
0.0926138763
 40
0.1395821546
 40
0.1867221822
 40
0.2338288136
 40
0.280695969
 40
0.3271205498
 40
0.3729016883
 40
0.4178419215
 40
0.4617486806
 40
0.5044357275
 40
0.5457237503
 40
0.5854421779
 40
0.623430808
 40
0.6595404895
 40
0.6936358272
 40
0.7098908177
 40
0.7255987191
 40
0.7407472814
 40
0.7553261698
 40
0.7693260262
 40
0.7827391099
 40
0.795560201
 40
0.8077857039
 40
0.8194143239
 40
0.8304482927
 40
0.8408926824
 40
0.8507562508
 40
0.8600531092
 40
0.8688025169
 40
0.8770301158
 40
0.8847700999
 40
0.8920656216
 40
0.8989701892
 40
0.9055493464
 40
0.9118801083
 40
0.9180498998
 40
0.9241540552
 40
0.93029114
 40
0.9365581198
 40
0.9430454648
 40
0.9498338051
 40
0.9533640988
 40
0.9569946791
 40
0.964581397
 40
0.9726423977
 40
0.9812148065
 40
0.9903269582
 40
1.0
 40
1.0
 40
1.0
 40
1.0
 10
11.4346120947
 20
11.122196767
 30
0.0
 10
11.4469099821
 20
11.1213439056
 30
0.0
 10
11.4716791875
 20
11.1198622919
 30
0.0
 10
11.5090437943
 20
11.1183112437
 30
0.0
 10
11.546731858
 20
11.1174225472
 30
0.0
 10
11.584565455
 20
11.1172001844
 30
0.0
 10
11.6223700126
 20
11.1176449501
 30
0.0
 10
11.6599691608
 20
11.1187549823
 30
0.0
 10
11.6971875702
 20
11.1205251131
 30
0.0
 10
11.7338520165
 20
11.1229467592
 30
0.0
 10
11.7697917372
 20
11.1260086808
 30
0.0
 10
11.8048393995
 20
11.1296965295
 30
0.0
 10
11.8388319072
 20
11.1339926578
 30
0.0
 10
11.8716111212
 20
11.1388770075
 30
0.0
 10
11.9030246556
 20
11.1443265426
 30
0.0
 10
11.9329268008
 20
11.1503152368
 30
0.0
 10
11.9611785556
 20
11.1568151347
 30
0.0
 10
11.9835809368
 20
11.1627220926
 30
0.0
 10
12.0005647723
 20
11.1676999088
 30
0.0
 10
12.0126070827
 20
11.1714820712
 30
0.0
 10
12.0241434087
 20
11.1753682918
 30
0.0
 10
12.0351605193
 20
11.1793537717
 30
0.0
 10
12.0456456344
 20
11.1834339567
 30
0.0
 10
12.0555865541
 20
11.1876043423
 30
0.0
 10
12.0649719876
 20
11.1918597507
 30
0.0
 10
12.0737911503
 20
11.1961953442
 30
0.0
 10
12.0820338058
 20
11.2006064606
 30
0.0
 10
12.0896907888
 20
11.2050877294
 30
0.0
 10
12.0967534611
 20
11.2096341779
 30
0.0
 10
12.1032136309
 20
11.2142412063
 30
0.0
 10
12.1090643366
 20
11.2189035385
 30
0.0
 10
12.1142990805
 20
11.2236164201
 30
0.0
 10
12.1189114688
 20
11.2283757056
 30
0.0
 10
12.1228963092
 20
11.2331766597
 30
0.0
 10
12.1262484432
 20
11.2380150829
 30
0.0
 10
12.1289619389
 20
11.2428871331
 30
0.0
 10
12.1310318068
 20
11.247787774
 30
0.0
 10
12.1324528228
 20
11.2527112888
 30
0.0
 10
12.1332193289
 20
11.2576504961
 30
0.0
 10
12.1333287837
 20
11.2625961809
 30
0.0
 10
12.1327809676
 20
11.2675386123
 30
0.0
 10
12.1315773284
 20
11.272468302
 30
0.0
 10
12.1297229807
 20
11.2773770852
 30
0.0
 10
12.1276668736
 20
11.2813928321
 30
0.0
 10
12.1257186331
 20
11.2845832378
 30
0.0
 10
12.1234994479
 20
11.2878537497
 30
0.0
 10
12.1203082205
 20
11.2919234829
 30
0.0
 10
12.1159044163
 20
11.2966969571
 30
0.0
 10
12.1108761744
 20
11.3014258555
 30
0.0
 10
12.1052299934
 20
11.3061054062
 30
0.0
 10
12.101180854
 20
11.3090985912
 30
0.0
 10
12.0990606304
 20
11.31058867
 30
0.0
  0
SPLINE
  5
34D
100
AcDbEntity
  8
0
100
AcDbSpline
 62
7
  6
CONTINUOUS
 70
0
 71
3
 72
11
 73
7
 74
0
 42
0.0000001
 43
0.0000001
 44
0.0000000001
 40
0.0
 40
0.0
 40
0.0
 40
0.0
 40
0.2310152257
 40
0.4746103058
 40
0.7309143418
 40
1.0
 40
1.0
 40
1.0
 40
1.0
 10
12.0990606304
 20
11.31058867
 30
0.0
 10
12.0969297642
 20
11.3120862283
 30
0.0
 10
12.0924773264
 20
11.3150576246
 30
0.0
 10
12.0854349466
 20
11.319340372
 30
0.0
 10
12.0778605274
 20
11.3235619167
 30
0.0
 10
12.072589486
 20
11.3262666633
 30
0.0
 10
12.0698695749
 20
11.3276102736
 30
0.0
  0
SPLINE
  5
34E
100
AcDbEntity
  8
0
100
AcDbSpline
 62
7
  6
CONTINUOUS
 70
0
 71
3
 72
9
 73
5
 74
0
 42
0.0000001
 43
0.0000001
 44
0.0000000001
 40
0.0
 40
0.0
 40
0.0
 40
0.0
 40
0.4802028106
 40
1.0
 40
1.0
 40
1.0
 40
1.0
 10
10.95922933
 20
11.1814392218
 30
0.0
 10
10.9613207529
 20
11.1789928867
 30
0.0
 10
10.9659495726
 20
11.1741292969
 30
0.0
 10
10.9709830421
 20
11.1696920742
 30
0.0
 10
10.9736773782
 20
11.1674835027
 30
0.0
  0
SPLINE
  5
34F
100
AcDbEntity
  8
0
100
AcDbSpline
 62
7
  6
CONTINUOUS
 70
0
 71
3
 72
24
 73
20
 74
0
 42
0.0000001
 43
0.0000001
 44
0.0000000001
 40
0.0
 40
0.0
 40
0.0
 40
0.0
 40
0.0904093868
 40
0.1775325331
 40
0.2610553835
 40
0.3406844661
 40
0.41616279
 40
0.4872998029
 40
0.521207684
 40
0.5540039824
 40
0.6162843266
 40
0.6743126111
 40
0.7283969377
 40
0.7789824074
 40
0.826623815
 40
0.8719379797
 40
0.9155549124
 40
0.9580698186
 40
1.0
 40
1.0
 40
1.0
 40
1.0
 10
12.0458640729
 20
11.1060808464
 30
0.0
 10
12.0488996013
 20
11.1120307305
 30
0.0
 10
12.0549735732
 20
11.1236570541
 30
0.0
 10
12.0642990573
 20
11.1405418255
 30
0.0
 10
12.0736793226
 20
11.1564794257
 30
0.0
 10
12.0831113359
 20
11.1713787134
 30
0.0
 10
12.0925901994
 20
11.1851517656
 30
0.0
 10
12.100646041
 20
11.1957887719
 30
0.0
 10
12.1071229359
 20
11.2036491898
 30
0.0
 10
12.1133954911
 20
11.2108245017
 30
0.0
 10
12.1212346804
 20
11.2189918146
 30
0.0
 10
12.1308211901
 20
11.2276195259
 30
0.0
 10
12.1404098927
 20
11.2348944344
 30
0.0
 10
12.1499887024
 20
11.2408343014
 30
0.0
 10
12.1595442619
 20
11.2454793859
 30
0.0
 10
12.1690628501
 20
11.248887875
 30
0.0
 10
12.1785313239
 20
11.2511340934
 30
0.0
 10
12.1879374148
 20
11.2523043766
 30
0.0
 10
12.1941871748
 20
11.2524284608
 30
0.0
 10
12.1972837625
 20
11.2523410438
 30
0.0
  0
SPLINE
  5
350
100
AcDbEntity
  8
0
100
AcDbSpline
 62
7
  6
CONTINUOUS
 70
0
 71
3
 72
15
 73
11
 74
0
 42
0.0000001
 43
0.0000001
 44
0.0000000001
 40
0.0
 40
0.0
 40
0.0
 40
0.0
 40
0.1193884442
 40
0.2394118209
 40
0.3604965246
 40
0.4831212753
 40
0.6078106285
 40
0.735130254
 40
0.8656619472
 40
1.0
 40
1.0
 40
1.0
 40
1.0
 10
12.0458640729
 20
10.7216774051
 30
0.0
 10
12.0476338286
 20
10.7216274447
 30
0.0
 10
12.0511863555
 20
10.7216246132
 30
0.0
 10
12.0565266479
 20
10.7219278448
 30
0.0
 10
12.0618873415
 20
10.7225553883
 30
0.0
 10
12.0672675097
 20
10.7235239619
 30
0.0
 10
12.0726663295
 20
10.7248499772
 30
0.0
 10
12.0780824991
 20
10.7265498998
 30
0.0
 10
12.0835144588
 20
10.7286382033
 30
0.0
 10
12.0870890954
 20
10.7302730689
 30
0.0
 10
12.0888753644
 20
10.7311550685
 30
0.0
  0
SPLINE
  5
351
100
AcDbEntity
  8
0
100
AcDbSpline
 62
7
  6
CONTINUOUS
 70
0
 71
3
 72
23
 73
19
 74
0
 42
0.0000001
 43
0.0000001
 44
0.0000000001
 40
0.0
 40
0.0
 40
0.0
 40
0.0
 40
0.0584073816
 40
0.1170342823
 40
0.175946792
 40
0.235225456
 40
0.2949566682
 40
0.3552310086
 40
0.416138202
 40
0.4777588108
 40
0.540158822
 40
0.6033849084
 40
0.6674605222
 40
0.7323867869
 40
0.7981446078
 40
0.8646981496
 40
0.9320021535
 40
1.0
 40
1.0
 40
1.0
 40
1.0
 10
10.9736773782
 20
11.1674835027
 30
0.0
 10
10.982124411
 20
11.1683710092
 30
0.0
 10
10.9990828635
 20
11.169855826
 30
0.0
 10
11.0246439172
 20
11.1711209638
 30
0.0
 10
11.0503634646
 20
11.1713385885
 30
0.0
 10
11.0762292531
 20
11.1704209123
 30
0.0
 10
11.1022229543
 20
11.1682878887
 30
0.0
 10
11.1283190172
 20
11.1648724986
 30
0.0
 10
11.154485438
 20
11.1601241295
 30
0.0
 10
11.180685652
 20
11.1540157373
 30
0.0
 10
11.2068811464
 20
11.1465461432
 30
0.0
 10
11.2330336328
 20
11.1377380862
 30
0.0
 10
11.2591082496
 20
11.1276384633
 30
0.0
 10
11.2850757874
 20
11.1163143432
 30
0.0
 10
11.310912883
 20
11.1038454687
 30
0.0
 10
11.3366033343
 20
11.0903204172
 30
0.0
 10
11.3621368954
 20
11.0758319532
 30
0.0
 10
11.3789703038
 20
11.065640491
 30
0.0
 10
11.3873640962
 20
11.0604136371
 30
0.0
  0
SPLINE
  5
352
100
AcDbEntity
  8
0
100
AcDbSpline
 62
7
  6
CONTINUOUS
 70
0
 71
3
 72
23
 73
19
 74
0
 42
0.0000001
 43
0.0000001
 44
0.0000000001
 40
0.0
 40
0.0
 40
0.0
 40
0.0
 40
0.0430699451
 40
0.0891871423
 40
0.1383056318
 40
0.190355986
 40
0.2452532918
 40
0.3028948794
 40
0.3631669336
 40
0.4259413274
 40
0.4910817656
 40
0.5584409459
 40
0.6278644901
 40
0.6991861904
 40
0.7722368997
 40
0.8468483862
 40
0.9228417141
 40
1.0
 40
1.0
 40
1.0
 40
1.0
 10
11.1017061045
 20
10.7143259206
 30
0.0
 10
11.106163052
 20
10.7121243202
 30
0.0
 10
11.1155104019
 20
10.70780215
 30
0.0
 10
11.1302776066
 20
10.7017298473
 30
0.0
 10
11.1462360688
 20
10.6958617195
 30
0.0
 10
11.1633434391
 20
10.6902129414
 30
0.0
 10
11.1815549877
 20
10.6847992518
 30
0.0
 10
11.2008225325
 20
10.6796345257
 30
0.0
 10
11.2210951113
 20
10.67473331
 30
0.0
 10
11.242318906
 20
10.670108124
 30
0.0
 10
11.2644376204
 20
10.6657720278
 30
0.0
 10
11.2873925327
 20
10.6617360802
 30
0.0
 10
11.3111223775
 20
10.6580117742
 30
0.0
 10
11.335563702
 20
10.6546084627
 30
0.0
 10
11.3606520733
 20
10.6515357861
 30
0.0
 10
11.3863218331
 20
10.6488015196
 30
0.0
 10
11.4125021213
 20
10.6464137472
 30
0.0
 10
11.430127877
 20
10.645065865
 30
0.0
 10
11.4390120149
 20
10.6444497479
 30
0.0
  0
SPLINE
  5
353
100
AcDbEntity
  8
0
100
AcDbSpline
 62
7
  6
CONTINUOUS
 70
0
 71
3
 72
21
 73
17
 74
0
 42
0.0000001
 43
0.0000001
 44
0.0000000001
 40
0.0
 40
0.0
 40
0.0
 40
0.0
 40
0.1331620508
 40
0.198721389
 40
0.2635863969
 40
0.3277657689
 40
0.3912790145
 40
0.4541586317
 40
0.5164459921
 40
0.5781920281
 40
0.6394524084
 40
0.7002861096
 40
0.7607522371
 40
0.8209070106
 40
0.8808048208
 40
1.0
 40
1.0
 40
1.0
 40
1.0
 10
11.0561807462
 20
10.7368146181
 30
0.0
 10
11.0697757316
 20
10.7300968928
 30
0.0
 10
11.0903562616
 20
10.7206410045
 30
0.0
 10
11.1182223232
 20
10.7094722653
 30
0.0
 10
11.1390718101
 20
10.7019471613
 30
0.0
 10
11.1599599369
 20
10.6952582347
 30
0.0
 10
11.1808695013
 20
10.6894277457
 30
0.0
 10
11.2017802071
 20
10.6844633304
 30
0.0
 10
11.2226732618
 20
10.6803675465
 30
0.0
 10
11.2435293423
 20
10.67712768
 30
0.0
 10
11.2643315624
 20
10.6747253436
 30
0.0
 10
11.2850647815
 20
10.6731311508
 30
0.0
 10
11.3057165255
 20
10.6723102853
 30
0.0
 10
11.3262776747
 20
10.6722225198
 30
0.0
 10
11.3535145179
 20
10.6730232735
 30
0.0
 10
11.3738647629
 20
10.674591858
 30
0.0
 10
11.3873640962
 20
10.6760101958
 30
0.0
  0
SPLINE
  5
354
100
AcDbEntity
  8
0
100
AcDbSpline
 62
7
  6
CONTINUOUS
 70
0
 71
3
 72
21
 73
17
 74
0
 42
0.0000001
 43
0.0000001
 44
0.0000000001
 40
0.0
 40
0.0
 40
0.0
 40
0.0
 40
0.1269266306
 40
0.1902356571
 40
0.2534226618
 40
0.3164750211
 40
0.379381614
 40
0.442133702
 40
0.5047247465
 40
0.5671521045
 40
0.6294167402
 40
0.6915228504
 40
0.7534784743
 40
0.8152934295
 40
0.8769787052
 40
1.0
 40
1.0
 40
1.0
 40
1.0
 10
11.4412849049
 20
11.0566742163
 30
0.0
 10
11.4642924878
 20
11.0643986315
 30
0.0
 10
11.4990528933
 20
11.0751864298
 30
0.0
 10
11.545896814
 20
11.0876059872
 30
0.0
 10
11.5812010006
 20
11.095831681
 30
0.0
 10
11.6166791359
 20
11.1028893991
 30
0.0
 10
11.6522987451
 20
11.108703645
 30
0.0
 10
11.6880186808
 20
11.1132125997
 30
0.0
 10
11.7237912027
 20
11.1163758897
 30
0.0
 10
11.7595648202
 20
11.1181778925
 30
0.0
 10
11.7952880275
 20
11.1186267918
 30
0.0
 10
11.8309127443
 20
11.1177560595
 30
0.0
 10
11.8663971829
 20
11.115621656
 30
0.0
 10
11.9017084873
 20
11.112294446
 30
0.0
 10
11.9484796967
 20
11.106384304
 30
0.0
 10
11.9833121341
 20
11.1004119017
 30
0.0
 10
12.0063913125
 20
11.0958645482
 30
0.0
  0
SPLINE
  5
355
100
AcDbEntity
  8
0
100
AcDbSpline
 62
7
  6
CONTINUOUS
 70
0
 71
3
 72
29
 73
25
 74
0
 42
0.0000001
 43
0.0000001
 44
0.0000000001
 40
0.0
 40
0.0
 40
0.0
 40
0.0
 40
0.0193649952
 40
0.0398586582
 40
0.0614693309
 40
0.0841787293
 40
0.1079642341
 40
0.1327992914
 40
0.1586527009
 40
0.1854910601
 40
0.2132769506
 40
0.2419706946
 40
0.2715302662
 40
0.301910651
 40
0.3649447207
 40
0.4306793292
 40
0.4986935923
 40
0.5685459112
 40
0.6397782272
 40
0.7119204072
 40
0.7844953224
 40
0.8570181404
 40
0.9290160173
 40
1.0
 40
1.0
 40
1.0
 40
1.0
 10
12.0548067211
 20
10.7143257887
 30
0.0
 10
12.0511898489
 20
10.7125391653
 30
0.0
 10
12.0436678559
 20
10.7090171454
 30
0.0
 10
12.0318805818
 20
10.7040080058
 30
0.0
 10
12.0192877423
 20
10.6991315706
 30
0.0
 10
12.0059117937
 20
10.6943961758
 30
0.0
 10
11.9917761361
 20
10.6898103233
 30
0.0
 10
11.9769056958
 20
10.6853824503
 30
0.0
 10
11.9613268085
 20
10.6811199892
 30
0.0
 10
11.9450669873
 20
10.677031099
 30
0.0
 10
11.9281550923
 20
10.6731226919
 30
0.0
 10
11.9106211037
 20
10.6694019051
 30
0.0
 10
11.8924961092
 20
10.6658754978
 30
0.0
 10
11.8672739782
 20
10.6613857595
 30
0.0
 10
11.8345033387
 20
10.6563271425
 30
0.0
 10
11.7938280949
 20
10.6511924886
 30
0.0
 10
11.7516216781
 20
10.6469589834
 30
0.0
 10
11.7081839128
 20
10.6436571203
 30
0.0
 10
11.6638231268
 20
10.6413108459
 30
0.0
 10
11.6188542881
 20
10.6399370783
 30
0.0
 10
11.5735974096
 20
10.6395458604
 30
0.0
 10
11.5283727206
 20
10.6401396173
 30
0.0
 10
11.4835033681
 20
10.6417146529
 30
0.0
 10
11.4537638293
 20
10.6434267061
 30
0.0
 10
11.4390120149
 20
10.6444497479
 30
0.0
  0
SPLINE
  5
356
100
AcDbEntity
  8
0
100
AcDbSpline
 62
7
  6
CONTINUOUS
 70
0
 71
3
 72
21
 73
17
 74
0
 42
0.0000001
 43
0.0000001
 44
0.0000000001
 40
0.0
 40
0.0
 40
0.0
 40
0.0
 40
0.1230212948
 40
0.1847065705
 40
0.2465215258
 40
0.3084771496
 40
0.3705832599
 40
0.4328478955
 40
0.4952752535
 40
0.5578662981
 40
0.6206183861
 40
0.683524979
 40
0.7465773382
 40
0.8097643429
 40
0.8730733694
 40
1.0
 40
1.0
 40
1.0
 40
1.0
 10
11.4412849049
 20
10.672270775
 30
0.0
 10
11.4643640832
 20
10.6677234215
 30
0.0
 10
11.4991965206
 20
10.6617510191
 30
0.0
 10
11.54596773
 20
10.6558408771
 30
0.0
 10
11.5812790345
 20
10.6525136672
 30
0.0
 10
11.6167634731
 20
10.6503792636
 30
0.0
 10
11.6523881899
 20
10.6495085314
 30
0.0
 10
11.6881113972
 20
10.6499574306
 30
0.0
 10
11.7238850146
 20
10.6517594335
 30
0.0
 10
11.7596575366
 20
10.6549227235
 30
0.0
 10
11.7953774723
 20
10.6594316782
 30
0.0
 10
11.8309970814
 20
10.6652459241
 30
0.0
 10
11.8664752168
 20
10.6723036422
 30
0.0
 10
11.9017794033
 20
10.6805293359
 30
0.0
 10
11.948623324
 20
10.6929488934
 30
0.0
 10
11.9833837295
 20
10.7037366917
 30
0.0
 10
12.0063913125
 20
10.7114611068
 30
0.0
  0
SPLINE
  5
357
100
AcDbEntity
  8
0
100
AcDbSpline
 62
7
  6
CONTINUOUS
 70
0
 71
3
 72
9
 73
5
 74
0
 42
0.0000001
 43
0.0000001
 44
0.0000000001
 40
0.0
 40
0.0
 40
0.0
 40
0.0
 40
0.5151645244
 40
1.0
 40
1.0
 40
1.0
 40
1.0
 10
11.0866440392
 20
11.3276105313
 30
0.0
 10
11.0833068925
 20
11.3259620206
 30
0.0
 10
11.0768881475
 20
11.3226404401
 30
0.0
 10
11.0706184778
 20
11.3190437071
 30
0.0
 10
11.0676250336
 20
11.3172243147
 30
0.0
  0
SPLINE
  5
358
100
AcDbEntity
  8
0
100
AcDbSpline
 62
7
  6
CONTINUOUS
 70
0
 71
3
 72
55
 73
51
 74
0
 42
0.0000001
 43
0.0000001
 44
0.0000000001
 40
0.0
 40
0.0
 40
0.0
 40
0.0
 40
0.0126039668
 40
0.0246626451
 40
0.0361845815
 40
0.0471813629
 40
0.0576675083
 40
0.0676611077
 40
0.0771851246
 40
0.0862675479
 40
0.0949416347
 40
0.1032466857
 40
0.1112290233
 40
0.118941678
 40
0.1264439865
 40
0.1338010228
 40
0.1410823646
 40
0.1483598643
 40
0.1557054861
 40
0.1631891608
 40
0.1708765213
 40
0.1788275498
 40
0.1870959619
 40
0.195728829
 40
0.2047661593
 40
0.2142418107
 40
0.2241843014
 40
0.2346171506
 40
0.2455588974
 40
0.2570244016
 40
0.2690255426
 40
0.281571226
 40
0.294667253
 40
0.3083174627
 40
0.337285222
 40
0.3684733057
 40
0.4018562187
 40
0.4373894698
 40
0.4750146658
 40
0.514659581
 40
0.5562421653
 40
0.5996694007
 40
0.6448409651
 40
0.6916481552
 40
0.7399765684
 40
0.7897029257
 40
0.8407002665
 40
0.8928422091
 40
0.9459958947
 40
1.0
 40
1.0
 40
1.0
 40
1.0
 10
11.0676250336
 20
11.3172243147
 30
0.0
 10
11.0657280747
 20
11.3160713576
 30
0.0
 10
11.0620521055
 20
11.3137554497
 30
0.0
 10
11.0567841309
 20
11.3101663894
 30
0.0
 10
11.0518882053
 20
11.3065417909
 30
0.0
 10
11.0473676537
 20
11.3028842509
 30
0.0
 10
11.0432256228
 20
11.2991961624
 30
0.0
 10
11.039465286
 20
11.2954796912
 30
0.0
 10
11.0360892543
 20
11.2917372708
 30
0.0
 10
11.0330998566
 20
11.2879712881
 30
0.0
 10
11.0304994922
 20
11.2841839862
 30
0.0
 10
11.0282907942
 20
11.2803774698
 30
0.0
 10
11.0264757769
 20
11.2765542749
 30
0.0
 10
11.0250563422
 20
11.2727170499
 30
0.0
 10
11.0240345123
 20
11.2688686582
 30
0.0
 10
11.0234123761
 20
11.2650123494
 30
0.0
 10
11.0231907202
 20
11.2611519264
 30
0.0
 10
11.0233697777
 20
11.2572912957
 30
0.0
 10
11.0239493478
 20
11.2534343645
 30
0.0
 10
11.0249287698
 20
11.2495849674
 30
0.0
 10
11.0263060275
 20
11.2457464152
 30
0.0
 10
11.0280790798
 20
11.2419216039
 30
0.0
 10
11.0302460013
 20
11.2381131863
 30
0.0
 10
11.0328048487
 20
11.2343237406
 30
0.0
 10
11.0357529993
 20
11.2305553852
 30
0.0
 10
11.0390880359
 20
11.2268103511
 30
0.0
 10
11.042807623
 20
11.2230909953
 30
0.0
 10
11.0469092216
 20
11.2193997895
 30
0.0
 10
11.0513896812
 20
11.2157388858
 30
0.0
 10
11.0562458386
 20
11.2121106758
 30
0.0
 10
11.0614744578
 20
11.2085176814
 30
0.0
 10
11.0670719682
 20
11.2049624692
 30
0.0
 10
11.073034279
 20
11.2014472275
 30
0.0
 10
11.0816361841
 20
11.1967229965
 30
0.0
 10
11.0932934496
 20
11.1909564297
 30
0.0
 10
11.1083973877
 20
11.1843650895
 30
0.0
 10
11.1248403517
 20
11.1779908149
 30
0.0
 10
11.1425758439
 20
11.171851225
 30
0.0
 10
11.1615542856
 20
11.1659644526
 30
0.0
 10
11.1817219637
 20
11.1603468737
 30
0.0
 10
11.2030217783
 20
11.1550152608
 30
0.0
 10
11.2253931414
 20
11.1499844083
 30
0.0
 10
11.2487724382
 20
11.1452694016
 30
0.0
 10
11.2730931308
 20
11.1408832709
 30
0.0
 10
11.2982857194
 20
11.1368393071
 30
0.0
 10
11.3242779517
 20
11.133148535
 30
0.0
 10
11.3509961829
 20
11.1298220581
 30
0.0
 10
11.3783654109
 20
11.1268689848
 30
0.0
 10
11.4063049412
 20
11.1242986211
 30
0.0
 10
11.4251234851
 20
11.1228548044
 30
0.0
 10
11.4346120947
 20
11.122196767
 30
0.0
  0
SPLINE
  5
359
100
AcDbEntity
  8
0
100
AcDbSpline
 62
7
  6
CONTINUOUS
 70
0
 71
3
 72
59
 73
55
 74
0
 42
0.0000001
 43
0.0000001
 44
0.0000000001
 40
0.0
 40
0.0
 40
0.0
 40
0.0
 40
0.0074596563
 40
0.015454112
 40
0.0240027273
 40
0.033119185
 40
0.0428112374
 40
0.05308213
 40
0.0639314299
 40
0.0753554559
 40
0.0873477999
 40
0.0998997306
 40
0.1130004181
 40
0.126637178
 40
0.1407957148
 40
0.1554602358
 40
0.1706135724
 40
0.1862373536
 40
0.2023120775
 40
0.2188171723
 40
0.2357311336
 40
0.253031583
 40
0.2706953012
 40
0.2886983407
 40
0.3256226133
 40
0.3636009203
 40
0.4024209622
 40
0.44186408
 40
0.4817069689
 40
0.5217233855
 40
0.561685809
 40
0.6013671164
 40
0.6405422441
 40
0.6789898885
 40
0.716494185
 40
0.7528464454
 40
0.7705281358
 40
0.7878477552
 40
0.804782062
 40
0.8213086349
 40
0.8374059041
 40
0.8530532614
 40
0.8682311571
 40
0.8829211387
 40
0.8971059803
 40
0.9107698331
 40
0.9238982995
 40
0.9364786063
 40
0.9484998498
 40
0.959953163
 40
0.9708320015
 40
0.9811325701
 40
0.9908542174
 40
1.0
 40
1.0
 40
1.0
 40
1.0
 10
12.0998565233
 20
10.5911261999
 30
0.0
 10
12.097972735
 20
10.5893066
 30
0.0
 10
12.0939173874
 20
10.5856931044
 30
0.0
 10
12.0872573708
 20
10.5805209926
 30
0.0
 10
12.0798250591
 20
10.5754211769
 30
0.0
 10
12.0716318798
 20
10.570401143
 30
0.0
 10
12.0626895164
 20
10.5654678247
 30
0.0
 10
12.0530111697
 20
10.5606284781
 30
0.0
 10
12.0426111564
 20
10.5558902952
 30
0.0
 10
12.0315049864
 20
10.5512603867
 30
0.0
 10
12.0197093124
 20
10.5467457448
 30
0.0
 10
12.0072418736
 20
10.5423532567
 30
0.0
 10
11.994121487
 20
10.5380896192
 30
0.0
 10
11.9803680059
 20
10.5339613287
 30
0.0
 10
11.9660022622
 20
10.5299747173
 30
0.0
 10
11.9510460487
 20
10.5261358938
 30
0.0
 10
11.9355220842
 20
10.5224507156
 30
0.0
 10
11.9194539575
 20
10.5189248375
 30
0.0
 10
11.9028660984
 20
10.5155636718
 30
0.0
 10
11.8857837476
 20
10.5123723455
 30
0.0
 10
11.8682328985
 20
10.5093557483
 30
0.0
 10
11.8502402708
 20
10.5065185231
 30
0.0
 10
11.8318332384
 20
10.5038649647
 30
0.0
 10
11.8065625456
 20
10.5005494033
 30
0.0
 10
11.7741441866
 20
10.4969052715
 30
0.0
 10
11.7343709093
 20
10.4933572903
 30
0.0
 10
11.6936472573
 20
10.4906204018
 30
0.0
 10
11.6522212303
 20
10.4887114659
 30
0.0
 10
11.610344921
 20
10.4876422585
 30
0.0
 10
11.5682732661
 20
10.4874193984
 30
0.0
 10
11.5262623876
 20
10.4880442524
 30
0.0
 10
11.4845680348
 20
10.4895129516
 30
0.0
 10
11.4434440232
 20
10.4918164609
 30
0.0
 10
11.4031405759
 20
10.4949405193
 30
0.0
 10
11.3639031123
 20
10.4988658813
 30
0.0
 10
11.3320046337
 20
10.5028199936
 30
0.0
 10
11.3072057572
 20
10.5063780928
 30
0.0
 10
11.2891912165
 20
10.5092060457
 30
0.0
 10
11.2716170906
 20
10.5122135598
 30
0.0
 10
11.2545101036
 20
10.5153960477
 30
0.0
 10
11.2378963002
 20
10.5187486428
 30
0.0
 10
11.2218009544
 20
10.5222662171
 30
0.0
 10
11.2062485365
 20
10.5259433635
 30
0.0
 10
11.191262686
 20
10.5297744614
 30
0.0
 10
11.1768661648
 20
10.5337536562
 30
0.0
 10
11.1630808077
 20
10.5378748342
 30
0.0
 10
11.1499275051
 20
10.5421316954
 30
0.0
 10
11.1374261616
 20
10.5465177554
 30
0.0
 10
11.1255956396
 20
10.5510262982
 30
0.0
 10
11.1144537342
 20
10.5556504706
 30
0.0
 10
11.1040171892
 20
10.5603832812
 30
0.0
 10
11.0943014636
 20
10.5652176557
 30
0.0
 10
11.0853212746
 20
10.570146189
 30
0.0
 10
11.0796616777
 20
10.5735946816
 30
0.0
 10
11.0769647473
 20
10.5753375585
 30
0.0
  0
SPLINE
  5
35A
100
AcDbEntity
  8
0
100
AcDbSpline
 62
7
  6
CONTINUOUS
 70
0
 71
3
 72
23
 73
19
 74
0
 42
0.0000001
 43
0.0000001
 44
0.0000000001
 40
0.0
 40
0.0
 40
0.0
 40
0.0
 40
0.082707583
 40
0.1621569484
 40
0.238403426
 40
0.3115163767
 40
0.3815831747
 40
0.4487094901
 40
0.5130231572
 40
0.5746762585
 40
0.6338473862
 40
0.690745226
 40
0.745609061
 40
0.7987111823
 40
0.8503555682
 40
0.9008760078
 40
0.9506316735
 40
1.0
 40
1.0
 40
1.0
 40
1.0
 10
11.0769647473
 20
10.5753375585
 30
0.0
 10
11.0754025759
 20
10.5763471034
 30
0.0
 10
11.0723699632
 20
10.5783737414
 30
0.0
 10
11.0680152687
 20
10.5815030672
 30
0.0
 10
11.063949138
 20
10.5846585584
 30
0.0
 10
11.0601739375
 20
10.5878385669
 30
0.0
 10
11.0566917074
 20
10.5910413523
 30
0.0
 10
11.053504448
 20
10.5942653076
 30
0.0
 10
11.0506139731
 20
10.5975087751
 30
0.0
 10
11.0480219585
 20
10.6007701099
 30
0.0
 10
11.0457300715
 20
10.6040477494
 30
0.0
 10
11.043739736
 20
10.607339997
 30
0.0
 10
11.0420524912
 20
10.6106452465
 30
0.0
 10
11.0406696369
 20
10.6139617031
 30
0.0
 10
11.0395924714
 20
10.6172874654
 30
0.0
 10
11.0388221651
 20
10.6206205694
 30
0.0
 10
11.0383595276
 20
10.6239583561
 30
0.0
 10
11.0382565637
 20
10.6261888738
 30
0.0
 10
11.0382565612
 20
10.6272991053
 30
0.0
  0
SPLINE
  5
35B
100
AcDbEntity
  8
0
100
AcDbSpline
 62
7
  6
CONTINUOUS
 70
0
 71
3
 72
19
 73
15
 74
0
 42
0.0000001
 43
0.0000001
 44
0.0000000001
 40
0.0
 40
0.0
 40
0.0
 40
0.0
 40
0.1504611406
 40
0.2916985742
 40
0.4244193292
 40
0.4878835935
 40
0.5495802133
 40
0.6682271463
 40
0.7255606136
 40
0.7817999183
 40
0.8371467056
 40
0.8918136429
 40
0.9460222308
 40
1.0
 40
1.0
 40
1.0
 40
1.0
 10
13.1179425022
 20
9.4797365229
 30
0.0
 10
13.1200189967
 20
9.4817422627
 30
0.0
 10
13.1241691184
 20
9.4855055978
 30
0.0
 10
13.1305951876
 20
9.4905206672
 30
0.0
 10
13.1360230037
 20
9.4940676135
 30
0.0
 10
13.1403513496
 20
9.496469504
 30
0.0
 10
13.1445519973
 20
9.4985315927
 30
0.0
 10
13.1488018334
 20
9.5002171554
 30
0.0
 10
13.1530755742
 20
9.5014855642
 30
0.0
 10
13.1562354614
 20
9.5022166918
 30
0.0
 10
13.1593848331
 20
9.5027377974
 30
0.0
 10
13.1625228516
 20
9.5030486534
 30
0.0
 10
13.1656482516
 20
9.5031491314
 30
0.0
 10
13.1677246791
 20
9.5030757049
 30
0.0
 10
13.168757909
 20
9.5030040536
 30
0.0
  0
SPLINE
  5
35C
100
AcDbEntity
  8
0
100
AcDbSpline
 62
7
  6
CONTINUOUS
 70
0
 71
3
 72
19
 73
15
 74
0
 42
0.0000001
 43
0.0000001
 44
0.0000000001
 40
0.0
 40
0.0
 40
0.0
 40
0.0
 40
0.1504611406
 40
0.2916985742
 40
0.4244193292
 40
0.4878835935
 40
0.5495802133
 40
0.6682271463
 40
0.7255606136
 40
0.7817999183
 40
0.8371467056
 40
0.8918136429
 40
0.9460222308
 40
1.0
 40
1.0
 40
1.0
 40
1.0
 10
12.8428180937
 20
7.8703838003
 30
0.0
 10
12.8448945882
 20
7.8723895401
 30
0.0
 10
12.8490447099
 20
7.8761528752
 30
0.0
 10
12.8554707791
 20
7.8811679445
 30
0.0
 10
12.8608985952
 20
7.8847148909
 30
0.0
 10
12.8652269411
 20
7.8871167814
 30
0.0
 10
12.8694275888
 20
7.88917887
 30
0.0
 10
12.8736774249
 20
7.8908644327
 30
0.0
 10
12.8779511656
 20
7.8921328415
 30
0.0
 10
12.8811110529
 20
7.8928639692
 30
0.0
 10
12.8842604246
 20
7.8933850747
 30
0.0
 10
12.8873984431
 20
7.8936959307
 30
0.0
 10
12.8905238431
 20
7.8937964087
 30
0.0
 10
12.8926002706
 20
7.8937229822
 30
0.0
 10
12.8936335005
 20
7.8936513309
 30
0.0
  0
SPLINE
  5
35D
100
AcDbEntity
  8
0
100
AcDbSpline
 62
7
  6
CONTINUOUS
 70
0
 71
3
 72
21
 73
17
 74
0
 42
0.0000001
 43
0.0000001
 44
0.0000000001
 40
0.0
 40
0.0
 40
0.0
 40
0.0
 40
0.1273176984
 40
0.2537999461
 40
0.3167619614
 40
0.3795355204
 40
0.4421314992
 40
0.5045621453
 40
0.5668413456
 40
0.6289845231
 40
0.6910084433
 40
0.7529310869
 40
0.8147714401
 40
0.8765493236
 40
0.9382852134
 40
1.0
 40
1.0
 40
1.0
 40
1.0
 10
9.2902043195
 20
9.7431347871
 30
0.0
 10
9.2902043195
 20
9.736389979
 30
0.0
 10
9.2895604825
 20
9.7229359396
 30
0.0
 10
9.2871288912
 20
9.7063038425
 30
0.0
 10
9.2842226241
 20
9.6932574188
 30
0.0
 10
9.2815722602
 20
9.6836343704
 30
0.0
 10
9.2784542655
 20
9.6741823187
 30
0.0
 10
9.2748758288
 20
9.6649227841
 30
0.0
 10
9.2708452001
 20
9.6558771827
 30
0.0
 10
9.2663715922
 20
9.6470663911
 30
0.0
 10
9.2614653541
 20
9.6385107196
 30
0.0
 10
9.2561378005
 20
9.6302298857
 30
0.0
 10
9.2504011661
 20
9.6222430511
 30
0.0
 10
9.2442686448
 20
9.6145685586
 30
0.0
 10
9.2377546514
 20
9.6072243204
 30
0.0
 10
9.2331667586
 20
9.6025588278
 30
0.0
 10
9.2308152099
 20
9.60028742
 30
0.0
  0
SPLINE
  5
35E
100
AcDbEntity
  8
0
100
AcDbSpline
 62
7
  6
CONTINUOUS
 70
0
 71
3
 72
21
 73
17
 74
0
 42
0.0000001
 43
0.0000001
 44
0.0000000001
 40
0.0
 40
0.0
 40
0.0
 40
0.0
 40
0.1273176984
 40
0.2537999461
 40
0.3167619614
 40
0.3795355204
 40
0.4421314992
 40
0.5045621453
 40
0.5668413456
 40
0.6289845231
 40
0.6910084433
 40
0.7529310869
 40
0.8147714401
 40
0.8765493236
 40
0.9382852134
 40
1.0
 40
1.0
 40
1.0
 40
1.0
 10
12.3077568208
 20
9.5338668103
 30
0.0
 10
12.3077568208
 20
9.5271220022
 30
0.0
 10
12.3071129838
 20
9.5136679628
 30
0.0
 10
12.3046813926
 20
9.4970358658
 30
0.0
 10
12.3017751255
 20
9.4839894421
 30
0.0
 10
12.2991247616
 20
9.4743663936
 30
0.0
 10
12.2960067669
 20
9.4649143419
 30
0.0
 10
12.2924283301
 20
9.4556548074
 30
0.0
 10
12.2883977015
 20
9.446609206
 30
0.0
 10
12.2839240936
 20
9.4377984144
 30
0.0
 10
12.2790178555
 20
9.4292427429
 30
0.0
 10
12.2736903018
 20
9.420961909
 30
0.0
 10
12.2679536674
 20
9.4129750744
 30
0.0
 10
12.2618211462
 20
9.4053005819
 30
0.0
 10
12.2553071527
 20
9.3979563436
 30
0.0
 10
12.25071926
 20
9.393290851
 30
0.0
 10
12.2483677113
 20
9.3910194433
 30
0.0
  0
SPLINE
  5
35F
100
AcDbEntity
  8
0
100
AcDbSpline
 62
7
  6
CONTINUOUS
 70
0
 71
3
 72
21
 73
17
 74
0
 42
0.0000001
 43
0.0000001
 44
0.0000000001
 40
0.0
 40
0.0
 40
0.0
 40
0.0
 40
0.1273176984
 40
0.2537999461
 40
0.3167619614
 40
0.3795355204
 40
0.4421314992
 40
0.5045621453
 40
0.5668413456
 40
0.6289845231
 40
0.6910084433
 40
0.7529310869
 40
0.8147714401
 40
0.8765493236
 40
0.9382852134
 40
1.0
 40
1.0
 40
1.0
 40
1.0
 10
9.2902043195
 20
6.2426195743
 30
0.0
 10
9.2902043195
 20
6.2358747662
 30
0.0
 10
9.2895604825
 20
6.2224207267
 30
0.0
 10
9.2871288912
 20
6.2057886297
 30
0.0
 10
9.2842226241
 20
6.192742206
 30
0.0
 10
9.2815722602
 20
6.1831191576
 30
0.0
 10
9.2784542655
 20
6.1736671058
 30
0.0
 10
9.2748758288
 20
6.1644075713
 30
0.0
 10
9.2708452001
 20
6.1553619699
 30
0.0
 10
9.2663715922
 20
6.1465511783
 30
0.0
 10
9.2614653541
 20
6.1379955068
 30
0.0
 10
9.2561378005
 20
6.1297146729
 30
0.0
 10
9.2504011661
 20
6.1217278383
 30
0.0
 10
9.2442686448
 20
6.1140533458
 30
0.0
 10
9.2377546514
 20
6.1067091075
 30
0.0
 10
9.2331667586
 20
6.102043615
 30
0.0
 10
9.2308152099
 20
6.0997722072
 30
0.0
  0
SPLINE
  5
360
100
AcDbEntity
  8
0
100
AcDbSpline
 62
7
  6
CONTINUOUS
 70
0
 71
3
 72
21
 73
17
 74
0
 42
0.0000001
 43
0.0000001
 44
0.0000000001
 40
0.0
 40
0.0
 40
0.0
 40
0.0
 40
0.1273176984
 40
0.2537999461
 40
0.3167619614
 40
0.3795355204
 40
0.4421314992
 40
0.5045621453
 40
0.5668413456
 40
0.6289845231
 40
0.6910084433
 40
0.7529310869
 40
0.8147714401
 40
0.8765493236
 40
0.9382852134
 40
1.0
 40
1.0
 40
1.0
 40
1.0
 10
12.3077568208
 20
6.0333515975
 30
0.0
 10
12.3077568208
 20
6.0266067894
 30
0.0
 10
12.3071129838
 20
6.01315275
 30
0.0
 10
12.3046813926
 20
5.9965206529
 30
0.0
 10
12.3017751255
 20
5.9834742293
 30
0.0
 10
12.2991247616
 20
5.9738511808
 30
0.0
 10
12.2960067669
 20
5.9643991291
 30
0.0
 10
12.2924283301
 20
5.9551395946
 30
0.0
 10
12.2883977015
 20
5.9460939931
 30
0.0
 10
12.2839240936
 20
5.9372832016
 30
0.0
 10
12.2790178555
 20
5.9287275301
 30
0.0
 10
12.2736903018
 20
5.9204466961
 30
0.0
 10
12.2679536674
 20
5.9124598616
 30
0.0
 10
12.2618211462
 20
5.9047853691
 30
0.0
 10
12.2553071527
 20
5.8974411308
 30
0.0
 10
12.25071926
 20
5.8927756382
 30
0.0
 10
12.2483677113
 20
5.8905042304
 30
0.0
  0
SPLINE
  5
361
100
AcDbEntity
  8
0
100
AcDbSpline
 62
7
  6
CONTINUOUS
 70
0
 71
3
 72
15
 73
11
 74
0
 42
0.0000001
 43
0.0000001
 44
0.0000000001
 40
0.0
 40
0.0
 40
0.0
 40
0.0
 40
0.1269543178
 40
0.2532786498
 40
0.3789933825
 40
0.5041314785
 40
0.6287387446
 40
0.752872521
 40
0.8766006591
 40
1.0
 40
1.0
 40
1.0
 40
1.0
 10
10.0753441822
 20
7.6061488656
 30
0.0
 10
10.0753441822
 20
7.6010924685
 30
0.0
 10
10.0749808023
 20
7.5910008524
 30
0.0
 10
10.073338756
 20
7.5759827544
 30
0.0
 10
10.0706096802
 20
7.5611962347
 30
0.0
 10
10.0668079022
 20
7.546719246
 30
0.0
 10
10.0619535259
 20
7.5326268542
 30
0.0
 10
10.0560719992
 20
7.5189920362
 30
0.0
 10
10.0491950019
 20
7.505886375
 30
0.0
 10
10.0439635121
 20
7.4975356454
 30
0.0
 10
10.0411963369
 20
7.493473863
 30
0.0
  0
SPLINE
  5
362
100
AcDbEntity
  8
0
100
AcDbSpline
 62
7
  6
CONTINUOUS
 70
0
 71
3
 72
21
 73
17
 74
0
 42
0.0000001
 43
0.0000001
 44
0.0000000001
 40
0.0
 40
0.0
 40
0.0
 40
0.0
 40
0.1273176984
 40
0.2537999461
 40
0.3167619614
 40
0.3795355204
 40
0.4421314992
 40
0.5045621453
 40
0.5668413456
 40
0.6289845231
 40
0.6910084433
 40
0.7529310869
 40
0.8147714401
 40
0.8765493236
 40
0.9382852134
 40
1.0
 40
1.0
 40
1.0
 40
1.0
 10
10.5874428048
 20
7.9937104161
 30
0.0
 10
10.5874428048
 20
7.986965608
 30
0.0
 10
10.5867989678
 20
7.9735115686
 30
0.0
 10
10.5843673765
 20
7.9568794715
 30
0.0
 10
10.5814611094
 20
7.9438330479
 30
0.0
 10
10.5788107455
 20
7.9342099994
 30
0.0
 10
10.5756927508
 20
7.9247579477
 30
0.0
 10
10.5721143141
 20
7.9154984131
 30
0.0
 10
10.5680836854
 20
7.9064528117
 30
0.0
 10
10.5636100775
 20
7.8976420202
 30
0.0
 10
10.5587038394
 20
7.8890863486
 30
0.0
 10
10.5533762858
 20
7.8808055147
 30
0.0
 10
10.5476396514
 20
7.8728186801
 30
0.0
 10
10.5415071301
 20
7.8651441876
 30
0.0
 10
10.5349931367
 20
7.8577999494
 30
0.0
 10
10.5304052439
 20
7.8531344568
 30
0.0
 10
10.5280536952
 20
7.850863049
 30
0.0
  0
SPLINE
  5
363
100
AcDbEntity
  8
0
100
AcDbSpline
 62
7
  6
CONTINUOUS
 70
0
 71
3
 72
39
 73
35
 74
0
 42
0.0000001
 43
0.0000001
 44
0.0000000001
 40
0.0
 40
0.0
 40
0.0
 40
0.0
 40
0.0309587778
 40
0.0620589032
 40
0.0932943586
 40
0.1246578979
 40
0.1561392991
 40
0.1877266849
 40
0.2194063863
 40
0.251163416
 40
0.2829817429
 40
0.3148446332
 40
0.3467349602
 40
0.3786355036
 40
0.4105292257
 40
0.4423995257
 40
0.4742304652
 40
0.5060069651
 40
0.5377149783
 40
0.5693416398
 40
0.6008753947
 40
0.6323061093
 40
0.663625165
 40
0.694825541
 40
0.7259018814
 40
0.7568505479
 40
0.7876696656
 40
0.8183591595
 40
0.8489207795
 40
0.8793581132
 40
0.9096765839
 40
0.9398834283
 40
0.9699876587
 40
1.0
 40
1.0
 40
1.0
 40
1.0
 10
10.7690368184
 20
8.7738766836
 30
0.0
 10
10.7736401672
 20
8.7735574403
 30
0.0
 10
10.7828492494
 20
8.772606697
 30
0.0
 10
10.7965653285
 20
8.7702613383
 30
0.0
 10
10.8101566768
 20
8.7670051511
 30
0.0
 10
10.8235614034
 20
8.7628551193
 30
0.0
 10
10.83672024
 20
8.7578326006
 30
0.0
 10
10.8495755016
 20
8.7519634229
 30
0.0
 10
10.8620718851
 20
8.7452773627
 30
0.0
 10
10.8741566676
 20
8.737807883
 30
0.0
 10
10.8857799926
 20
8.7295917122
 30
0.0
 10
10.8968950599
 20
8.7206684733
 30
0.0
 10
10.9074582642
 20
8.7110802911
 30
0.0
 10
10.9174292791
 20
8.7008714207
 30
0.0
 10
10.926771091
 20
8.6900878931
 30
0.0
 10
10.9354499978
 20
8.6787771921
 30
0.0
 10
10.943435565
 20
8.6669879566
 30
0.0
 10
10.9507005561
 20
8.6547697187
 30
0.0
 10
10.9572208446
 20
8.6421726784
 30
0.0
 10
10.9629753151
 20
8.6292475129
 30
0.0
 10
10.967945759
 20
8.6160452191
 30
0.0
 10
10.9721167705
 20
8.6026169858
 30
0.0
 10
10.9754756483
 20
8.5890140937
 30
0.0
 10
10.9780123131
 20
8.5752878391
 30
0.0
 10
10.9797192358
 20
8.5614894763
 30
0.0
 10
10.9805913709
 20
8.5476701734
 30
0.0
 10
10.9806261188
 20
8.5338809818
 30
0.0
 10
10.9798233041
 20
8.5201728083
 30
0.0
 10
10.97818518
 20
8.5065963959
 30
0.0
 10
10.9757164377
 20
8.4932022739
 30
0.0
 10
10.9724242893
 20
8.4800408013
 30
0.0
 10
10.9683183878
 20
8.467161819
 30
0.0
 10
10.9634114491
 20
8.4546156814
 30
0.0
 10
10.9596100447
 20
8.446493322
 30
0.0
 10
10.957581824
 20
8.4425062074
 30
0.0
  0
SPLINE
  5
364
100
AcDbEntity
  8
0
100
AcDbSpline
 62
7
  6
CONTINUOUS
 70
0
 71
3
 72
15
 73
11
 74
0
 42
0.0000001
 43
0.0000001
 44
0.0000000001
 40
0.0
 40
0.0
 40
0.0
 40
0.0
 40
0.1273482936
 40
0.2538605366
 40
0.3795879111
 40
0.5046050899
 40
0.6290174366
 40
0.7529533732
 40
0.8765605776
 40
1.0
 40
1.0
 40
1.0
 40
1.0
 10
9.8570065436
 20
8.8659044564
 30
0.0
 10
9.8570065436
 20
8.862439681
 30
0.0
 10
9.8566757287
 20
8.8555280866
 30
0.0
 10
9.8551796418
 20
8.8452936252
 30
0.0
 10
9.8526988806
 20
8.8353163185
 30
0.0
 10
9.8492558479
 20
8.8256894743
 30
0.0
 10
9.8448821498
 20
8.8165018691
 30
0.0
 10
9.8396176414
 20
8.8078383417
 30
0.0
 10
9.8335118113
 20
8.7997800813
 30
0.0
 10
9.8289144428
 20
8.7948576266
 30
0.0
 10
9.8264988691
 20
8.7925243818
 30
0.0
  0
SPLINE
  5
365
100
AcDbEntity
  8
0
100
AcDbSpline
 62
7
  6
CONTINUOUS
 70
0
 71
3
 72
23
 73
19
 74
0
 42
0.0000001
 43
0.0000001
 44
0.0000000001
 40
0.0
 40
0.0
 40
0.0
 40
0.0
 40
0.0614488807
 40
0.1232974294
 40
0.1855193177
 40
0.2480712672
 40
0.3108995318
 40
0.3739401513
 40
0.4371217414
 40
0.5003679843
 40
0.5636003151
 40
0.6267406524
 40
0.6897141172
 40
0.7524516838
 40
0.8148926113
 40
0.8769871451
 40
0.9386966623
 40
1.0
 40
1.0
 40
1.0
 40
1.0
 10
9.7483398817
 20
8.9821071769
 30
0.0
 10
9.7519065749
 20
8.9818598258
 30
0.0
 10
9.7590435198
 20
8.9810120275
 30
0.0
 10
9.7696051117
 20
8.9787093948
 30
0.0
 10
9.7799619849
 20
8.9753938828
 30
0.0
 10
9.7900133921
 20
8.971097613
 30
0.0
 10
9.799663209
 20
8.9658621199
 30
0.0
 10
9.8088187593
 20
8.9597378203
 30
0.0
 10
9.8173922422
 20
8.9527836378
 30
0.0
 10
9.8253014017
 20
8.9450663996
 30
0.0
 10
9.8324703331
 20
8.9366602009
 30
0.0
 10
9.8388301871
 20
8.9276457061
 30
0.0
 10
9.8443198197
 20
8.9181094008
 30
0.0
 10
9.8488863731
 20
8.9081427458
 30
0.0
 10
9.8524858332
 20
8.8978414708
 30
0.0
 10
9.8550833078
 20
8.887304123
 30
0.0
 10
9.8566536401
 20
8.8766332217
 30
0.0
 10
9.8570065436
 20
8.869471248
 30
0.0
 10
9.8570065436
 20
8.8659044564
 30
0.0
  0
SPLINE
  5
366
100
AcDbEntity
  8
0
100
AcDbSpline
 62
7
  6
CONTINUOUS
 70
0
 71
3
 72
15
 73
11
 74
0
 42
0.0000001
 43
0.0000001
 44
0.0000000001
 40
0.0
 40
0.0
 40
0.0
 40
0.0
 40
0.1273482936
 40
0.2538605366
 40
0.3795879111
 40
0.5046050899
 40
0.6290174366
 40
0.7529533732
 40
0.8765605776
 40
1.0
 40
1.0
 40
1.0
 40
1.0
 10
11.9095990461
 20
8.7235566828
 30
0.0
 10
11.9095990461
 20
8.7200919075
 30
0.0
 10
11.9092682312
 20
8.7131803131
 30
0.0
 10
11.9077721443
 20
8.7029458516
 30
0.0
 10
11.9052913831
 20
8.692968545
 30
0.0
 10
11.9018483504
 20
8.6833417007
 30
0.0
 10
11.8974746523
 20
8.6741540956
 30
0.0
 10
11.8922101439
 20
8.6654905682
 30
0.0
 10
11.8861043138
 20
8.6574323077
 30
0.0
 10
11.8815069453
 20
8.6525098531
 30
0.0
 10
11.8790913716
 20
8.6501766083
 30
0.0
  0
SPLINE
  5
367
100
AcDbEntity
  8
0
100
AcDbSpline
 62
7
  6
CONTINUOUS
 70
0
 71
3
 72
23
 73
19
 74
0
 42
0.0000001
 43
0.0000001
 44
0.0000000001
 40
0.0
 40
0.0
 40
0.0
 40
0.0
 40
0.0614488807
 40
0.1232974294
 40
0.1855193177
 40
0.2480712672
 40
0.3108995318
 40
0.3739401513
 40
0.4371217414
 40
0.5003679843
 40
0.5636003151
 40
0.6267406524
 40
0.6897141172
 40
0.7524516838
 40
0.8148926113
 40
0.8769871451
 40
0.9386966623
 40
1.0
 40
1.0
 40
1.0
 40
1.0
 10
11.8009323842
 20
8.8397594033
 30
0.0
 10
11.8044990773
 20
8.8395120523
 30
0.0
 10
11.8116360222
 20
8.8386642539
 30
0.0
 10
11.8221976142
 20
8.8363616213
 30
0.0
 10
11.8325544874
 20
8.8330461093
 30
0.0
 10
11.8426058946
 20
8.8287498395
 30
0.0
 10
11.8522557114
 20
8.8235143464
 30
0.0
 10
11.8614112618
 20
8.8173900467
 30
0.0
 10
11.8699847446
 20
8.8104358643
 30
0.0
 10
11.8778939042
 20
8.8027186261
 30
0.0
 10
11.8850628356
 20
8.7943124273
 30
0.0
 10
11.8914226896
 20
8.7852979325
 30
0.0
 10
11.8969123222
 20
8.7757616272
 30
0.0
 10
11.9014788756
 20
8.7657949722
 30
0.0
 10
11.9050783357
 20
8.7554936973
 30
0.0
 10
11.9076758103
 20
8.7449563495
 30
0.0
 10
11.9092461426
 20
8.7342854482
 30
0.0
 10
11.9095990461
 20
8.7271234745
 30
0.0
 10
11.9095990461
 20
8.7235566828
 30
0.0
  0
SPLINE
  5
368
100
AcDbEntity
  8
0
100
AcDbSpline
 62
7
  6
CONTINUOUS
 70
0
 71
3
 72
15
 73
11
 74
0
 42
0.0000001
 43
0.0000001
 44
0.0000000001
 40
0.0
 40
0.0
 40
0.0
 40
0.0
 40
0.1273482936
 40
0.2538605366
 40
0.3795879111
 40
0.5046050899
 40
0.6290174366
 40
0.7529533732
 40
0.8765605776
 40
1.0
 40
1.0
 40
1.0
 40
1.0
 10
9.8570065436
 20
7.1146808645
 30
0.0
 10
9.8570065436
 20
7.1112160892
 30
0.0
 10
9.8566757287
 20
7.1043044948
 30
0.0
 10
9.8551796418
 20
7.0940700333
 30
0.0
 10
9.8526988806
 20
7.0840927267
 30
0.0
 10
9.8492558479
 20
7.0744658825
 30
0.0
 10
9.8448821498
 20
7.0652782773
 30
0.0
 10
9.8396176414
 20
7.0566147499
 30
0.0
 10
9.8335118113
 20
7.0485564894
 30
0.0
 10
9.8289144428
 20
7.0436340348
 30
0.0
 10
9.8264988691
 20
7.04130079
 30
0.0
  0
SPLINE
  5
369
100
AcDbEntity
  8
0
100
AcDbSpline
 62
7
  6
CONTINUOUS
 70
0
 71
3
 72
23
 73
19
 74
0
 42
0.0000001
 43
0.0000001
 44
0.0000000001
 40
0.0
 40
0.0
 40
0.0
 40
0.0
 40
0.0614488807
 40
0.1232974294
 40
0.1855193177
 40
0.2480712672
 40
0.3108995318
 40
0.3739401513
 40
0.4371217414
 40
0.5003679843
 40
0.5636003151
 40
0.6267406524
 40
0.6897141172
 40
0.7524516838
 40
0.8148926113
 40
0.8769871451
 40
0.9386966623
 40
1.0
 40
1.0
 40
1.0
 40
1.0
 10
9.7483398817
 20
7.230883585
 30
0.0
 10
9.7519065749
 20
7.230636234
 30
0.0
 10
9.7590435198
 20
7.2297884356
 30
0.0
 10
9.7696051117
 20
7.227485803
 30
0.0
 10
9.7799619849
 20
7.224170291
 30
0.0
 10
9.7900133921
 20
7.2198740212
 30
0.0
 10
9.799663209
 20
7.2146385281
 30
0.0
 10
9.8088187593
 20
7.2085142284
 30
0.0
 10
9.8173922422
 20
7.201560046
 30
0.0
 10
9.8253014017
 20
7.1938428078
 30
0.0
 10
9.8324703331
 20
7.185436609
 30
0.0
 10
9.8388301871
 20
7.1764221142
 30
0.0
 10
9.8443198197
 20
7.1668858089
 30
0.0
 10
9.8488863731
 20
7.156919154
 30
0.0
 10
9.8524858332
 20
7.146617879
 30
0.0
 10
9.8550833078
 20
7.1360805312
 30
0.0
 10
9.8566536401
 20
7.1254096299
 30
0.0
 10
9.8570065436
 20
7.1182476562
 30
0.0
 10
9.8570065436
 20
7.1146808645
 30
0.0
  0
SPLINE
  5
36A
100
AcDbEntity
  8
0
100
AcDbSpline
 62
7
  6
CONTINUOUS
 70
0
 71
3
 72
15
 73
11
 74
0
 42
0.0000001
 43
0.0000001
 44
0.0000000001
 40
0.0
 40
0.0
 40
0.0
 40
0.0
 40
0.1273482936
 40
0.2538605366
 40
0.3795879111
 40
0.5046050899
 40
0.6290174366
 40
0.7529533732
 40
0.8765605776
 40
1.0
 40
1.0
 40
1.0
 40
1.0
 10
11.9095990461
 20
6.972333091
 30
0.0
 10
11.9095990461
 20
6.9688683157
 30
0.0
 10
11.9092682312
 20
6.9619567213
 30
0.0
 10
11.9077721443
 20
6.9517222598
 30
0.0
 10
11.9052913831
 20
6.9417449531
 30
0.0
 10
11.9018483504
 20
6.9321181089
 30
0.0
 10
11.8974746523
 20
6.9229305037
 30
0.0
 10
11.8922101439
 20
6.9142669764
 30
0.0
 10
11.8861043138
 20
6.9062087159
 30
0.0
 10
11.8815069453
 20
6.9012862613
 30
0.0
 10
11.8790913716
 20
6.8989530165
 30
0.0
  0
SPLINE
  5
36B
100
AcDbEntity
  8
0
100
AcDbSpline
 62
7
  6
CONTINUOUS
 70
0
 71
3
 72
23
 73
19
 74
0
 42
0.0000001
 43
0.0000001
 44
0.0000000001
 40
0.0
 40
0.0
 40
0.0
 40
0.0
 40
0.0614488807
 40
0.1232974294
 40
0.1855193177
 40
0.2480712672
 40
0.3108995318
 40
0.3739401513
 40
0.4371217414
 40
0.5003679843
 40
0.5636003151
 40
0.6267406524
 40
0.6897141172
 40
0.7524516838
 40
0.8148926113
 40
0.8769871451
 40
0.9386966623
 40
1.0
 40
1.0
 40
1.0
 40
1.0
 10
11.8009323842
 20
7.0885358115
 30
0.0
 10
11.8044990773
 20
7.0882884605
 30
0.0
 10
11.8116360222
 20
7.0874406621
 30
0.0
 10
11.8221976142
 20
7.0851380294
 30
0.0
 10
11.8325544874
 20
7.0818225175
 30
0.0
 10
11.8426058946
 20
7.0775262477
 30
0.0
 10
11.8522557114
 20
7.0722907545
 30
0.0
 10
11.8614112618
 20
7.0661664549
 30
0.0
 10
11.8699847446
 20
7.0592122725
 30
0.0
 10
11.8778939042
 20
7.0514950343
 30
0.0
 10
11.8850628356
 20
7.0430888355
 30
0.0
 10
11.8914226896
 20
7.0340743407
 30
0.0
 10
11.8969123222
 20
7.0245380354
 30
0.0
 10
11.9014788756
 20
7.0145713804
 30
0.0
 10
11.9050783357
 20
7.0042701055
 30
0.0
 10
11.9076758103
 20
6.9937327576
 30
0.0
 10
11.9092461426
 20
6.9830618564
 30
0.0
 10
11.9095990461
 20
6.9758998827
 30
0.0
 10
11.9095990461
 20
6.972333091
 30
0.0
  0
SPLINE
  5
36C
100
AcDbEntity
  8
0
100
AcDbSpline
 62
7
  6
CONTINUOUS
 70
0
 71
3
 72
15
 73
11
 74
0
 42
0.0000001
 43
0.0000001
 44
0.0000000001
 40
0.0
 40
0.0
 40
0.0
 40
0.0
 40
0.1453417447
 40
0.2840011415
 40
0.4163084708
 40
0.542677962
 40
0.6636082586
 40
0.7796797611
 40
0.891558967
 40
1.0
 40
1.0
 40
1.0
 40
1.0
 10
13.0870328732
 20
9.3278149346
 30
0.0
 10
13.0882523343
 20
9.3289928436
 30
0.0
 10
13.0906902632
 20
9.3312385505
 30
0.0
 10
13.0944341676
 20
9.3343354722
 30
0.0
 10
13.0981748695
 20
9.3370773432
 30
0.0
 10
13.101910089
 20
9.3394620559
 30
0.0
 10
13.1056378141
 20
9.3414878665
 30
0.0
 10
13.1093561713
 20
9.3431530606
 30
0.0
 10
13.1130624962
 20
9.3444559641
 30
0.0
 10
13.1155574823
 20
9.345090366
 30
0.0
 10
13.1167969183
 20
9.3453433663
 30
0.0
  0
SPLINE
  5
36D
100
AcDbEntity
  8
0
100
AcDbSpline
 62
7
  6
CONTINUOUS
 70
0
 71
3
 72
79
 73
75
 74
0
 42
0.0000001
 43
0.0000001
 44
0.0000000001
 40
0.0
 40
0.0
 40
0.0
 40
0.0
 40
0.0039234914
 40
0.00800883
 40
0.0122594663
 40
0.0166782927
 40
0.0212677612
 40
0.026029828
 40
0.0309658322
 40
0.0360766224
 40
0.0413626901
 40
0.0468241163
 40
0.0582714234
 40
0.0704139443
 40
0.0832424049
 40
0.0967440999
 40
0.1109033155
 40
0.1257017275
 40
0.1411187063
 40
0.1571315482
 40
0.17371565
 40
0.1908447083
 40
0.2084908806
 40
0.2266249127
 40
0.2452162397
 40
0.2642331205
 40
0.2836427532
 40
0.3034113702
 40
0.3235043193
 40
0.3438861747
 40
0.3645208349
 40
0.406400613
 40
0.4488452918
 40
0.4915506144
 40
0.5342099361
 40
0.5765170322
 40
0.6181689043
 40
0.6386563755
 40
0.6588693161
 40
0.6787720258
 40
0.6983295374
 40
0.7175077071
 40
0.7362733286
 40
0.7545942341
 40
0.7724393822
 40
0.7897789662
 40
0.8065845551
 40
0.8228292252
 40
0.838487683
 40
0.8535364257
 40
0.8679539568
 40
0.8817210125
 40
0.894820806
 40
0.9072393593
 40
0.9189659521
 40
0.9299936666
 40
0.9352448214
 40
0.9403207729
 40
0.9452220662
 40
0.9499496997
 40
0.9545050741
 40
0.9588901572
 40
0.9631074897
 40
0.9671602315
 40
0.971052342
 40
0.9747885678
 40
0.9783746031
 40
0.9818172245
 40
0.9851243298
 40
0.9883051469
 40
0.9913702872
 40
0.9943318182
 40
0.9972033607
 40
1.0
 40
1.0
 40
1.0
 40
1.0
 10
13.0870328732
 20
9.3278149346
 30
0.0
 10
13.0859247967
 20
9.3267446148
 30
0.0
 10
13.0837097828
 20
9.3245108894
 30
0.0
 10
13.0804550321
 20
9.3209627746
 30
0.0
 10
13.077203522
 20
9.3171521775
 30
0.0
 10
13.0739569874
 20
9.3130810676
 30
0.0
 10
13.0707168442
 20
9.3087513879
 30
0.0
 10
13.0674846102
 20
9.3041651055
 30
0.0
 10
13.0642617462
 20
9.2993243791
 30
0.0
 10
13.0610497729
 20
9.2942315078
 30
0.0
 10
13.0578502449
 20
9.2888888799
 30
0.0
 10
13.0535349873
 20
9.2813166246
 30
0.0
 10
13.0481934504
 20
9.2712338291
 30
0.0
 10
13.0419537317
 20
9.2583641864
 30
0.0
 10
13.0357994071
 20
9.2445654817
 30
0.0
 10
13.0297422764
 20
9.2298639508
 30
0.0
 10
13.0237939334
 20
9.2142873761
 30
0.0
 10
13.0179658046
 20
9.1978653654
 30
0.0
 10
13.0122690991
 20
9.1806291634
 30
0.0
 10
13.0067147893
 20
9.1626116213
 30
0.0
 10
13.0013135534
 20
9.1438471302
 30
0.0
 10
12.9960757808
 20
9.1243715385
 30
0.0
 10
12.9910115511
 20
9.1042220671
 30
0.0
 10
12.9861306165
 20
9.0834372426
 30
0.0
 10
12.9814423557
 20
9.062056831
 30
0.0
 10
12.9769557782
 20
9.0401217505
 30
0.0
 10
12.9726795102
 20
9.0176739834
 30
0.0
 10
12.9686217783
 20
8.9947564967
 30
0.0
 10
12.9647903793
 20
8.9714131806
 30
0.0
 10
12.9611926372
 20
8.9476887048
 30
0.0
 10
12.9566944979
 20
8.9154504833
 30
0.0
 10
12.9517122581
 20
8.8745357709
 30
0.0
 10
12.9467910699
 20
8.8248959119
 30
0.0
 10
12.942936441
 20
8.7748547872
 30
0.0
 10
12.9401778066
 20
8.724795384
 30
0.0
 10
12.9385363029
 20
8.6751008266
 30
0.0
 10
12.9381070094
 20
8.6340873667
 30
0.0
 10
12.9383408503
 20
8.6017512884
 30
0.0
 10
12.9387997113
 20
8.5779587995
 30
0.0
 10
12.9395419999
 20
8.5545388042
 30
0.0
 10
12.9405662978
 20
8.5315361129
 30
0.0
 10
12.9418706176
 20
8.5089947813
 30
0.0
 10
12.943452428
 20
8.4869579597
 30
0.0
 10
12.9453086533
 20
8.4654678239
 30
0.0
 10
12.9474356957
 20
8.4445654971
 30
0.0
 10
12.9498294441
 20
8.4242909702
 30
0.0
 10
12.9524852595
 20
8.4046830123
 30
0.0
 10
12.9553979865
 20
8.3857790915
 30
0.0
 10
12.9585619814
 20
8.3676153106
 30
0.0
 10
12.9619711259
 20
8.3502263316
 30
0.0
 10
12.965618819
 20
8.3336452905
 30
0.0
 10
12.9694979929
 20
8.3179037107
 30
0.0
 10
12.9736011531
 20
8.3030314782
 30
0.0
 10
12.977920413
 20
8.2890566481
 30
0.0
 10
12.9824474898
 20
8.2760057637
 30
0.0
 10
12.9864487012
 20
8.265759259
 30
0.0
 10
12.9897572375
 20
8.2580537481
 30
0.0
 10
12.9922446277
 20
8.25261545
 30
0.0
 10
12.9947773957
 20
8.2474258975
 30
0.0
 10
12.9973543257
 20
8.2424875079
 30
0.0
 10
12.9999742658
 20
8.2378026358
 30
0.0
 10
13.0026359741
 20
8.2333734725
 30
0.0
 10
13.0053382056
 20
8.2292020834
 30
0.0
 10
13.008079797
 20
8.225290463
 30
0.0
 10
13.0108594529
 20
8.2216404077
 30
0.0
 10
13.0136759823
 20
8.2182536551
 30
0.0
 10
13.0165281864
 20
8.2151318371
 30
0.0
 10
13.0194147932
 20
8.2122764096
 30
0.0
 10
13.0223346627
 20
8.2096888547
 30
0.0
 10
13.0252865548
 20
8.2073704835
 30
0.0
 10
13.0282692079
 20
8.2053225579
 30
0.0
 10
13.0312814909
 20
8.20354636
 30
0.0
 10
13.0343217189
 20
8.2020430722
 30
0.0
 10
13.0363902354
 20
8.201214004
 30
0.0
 10
13.0374255533
 20
8.2008479574
 30
0.0
  0
SPLINE
  5
36E
100
AcDbEntity
  8
0
100
AcDbSpline
 62
7
  6
CONTINUOUS
 70
0
 71
3
 72
15
 73
11
 74
0
 42
0.0000001
 43
0.0000001
 44
0.0000000001
 40
0.0
 40
0.0
 40
0.0
 40
0.0
 40
0.1453417447
 40
0.2840011415
 40
0.4163084708
 40
0.542677962
 40
0.6636082586
 40
0.7796797611
 40
0.891558967
 40
1.0
 40
1.0
 40
1.0
 40
1.0
 10
12.8119084647
 20
7.7184622119
 30
0.0
 10
12.8131279258
 20
7.7196401209
 30
0.0
 10
12.8155658547
 20
7.7218858278
 30
0.0
 10
12.8193097591
 20
7.7249827496
 30
0.0
 10
12.823050461
 20
7.7277246205
 30
0.0
 10
12.8267856804
 20
7.7301093333
 30
0.0
 10
12.8305134056
 20
7.7321351438
 30
0.0
 10
12.8342317628
 20
7.7338003379
 30
0.0
 10
12.8379380877
 20
7.7351032414
 30
0.0
 10
12.8404330738
 20
7.7357376433
 30
0.0
 10
12.8416725098
 20
7.7359906436
 30
0.0
  0
SPLINE
  5
36F
100
AcDbEntity
  8
0
100
AcDbSpline
 62
7
  6
CONTINUOUS
 70
0
 71
3
 72
79
 73
75
 74
0
 42
0.0000001
 43
0.0000001
 44
0.0000000001
 40
0.0
 40
0.0
 40
0.0
 40
0.0
 40
0.0039234914
 40
0.00800883
 40
0.0122594663
 40
0.0166782927
 40
0.0212677612
 40
0.026029828
 40
0.0309658322
 40
0.0360766224
 40
0.0413626901
 40
0.0468241163
 40
0.0582714234
 40
0.0704139443
 40
0.0832424049
 40
0.0967440999
 40
0.1109033155
 40
0.1257017275
 40
0.1411187063
 40
0.1571315482
 40
0.17371565
 40
0.1908447083
 40
0.2084908806
 40
0.2266249127
 40
0.2452162397
 40
0.2642331205
 40
0.2836427532
 40
0.3034113702
 40
0.3235043193
 40
0.3438861747
 40
0.3645208349
 40
0.406400613
 40
0.4488452918
 40
0.4915506144
 40
0.5342099361
 40
0.5765170322
 40
0.6181689043
 40
0.6386563755
 40
0.6588693161
 40
0.6787720258
 40
0.6983295374
 40
0.7175077071
 40
0.7362733286
 40
0.7545942341
 40
0.7724393822
 40
0.7897789662
 40
0.8065845551
 40
0.8228292252
 40
0.838487683
 40
0.8535364257
 40
0.8679539568
 40
0.8817210125
 40
0.894820806
 40
0.9072393593
 40
0.9189659521
 40
0.9299936666
 40
0.9352448214
 40
0.9403207729
 40
0.9452220662
 40
0.9499496997
 40
0.9545050741
 40
0.9588901572
 40
0.9631074897
 40
0.9671602315
 40
0.971052342
 40
0.9747885678
 40
0.9783746031
 40
0.9818172245
 40
0.9851243298
 40
0.9883051469
 40
0.9913702872
 40
0.9943318182
 40
0.9972033607
 40
1.0
 40
1.0
 40
1.0
 40
1.0
 10
12.8119084647
 20
7.7184622119
 30
0.0
 10
12.8108003882
 20
7.7173918921
 30
0.0
 10
12.8085853743
 20
7.7151581668
 30
0.0
 10
12.8053306236
 20
7.711610052
 30
0.0
 10
12.8020791135
 20
7.7077994548
 30
0.0
 10
12.7988325789
 20
7.7037283449
 30
0.0
 10
12.7955924357
 20
7.6993986652
 30
0.0
 10
12.7923602017
 20
7.6948123828
 30
0.0
 10
12.7891373377
 20
7.6899716564
 30
0.0
 10
12.7859253644
 20
7.6848787851
 30
0.0
 10
12.7827258364
 20
7.6795361572
 30
0.0
 10
12.7784105788
 20
7.6719639019
 30
0.0
 10
12.7730690419
 20
7.6618811064
 30
0.0
 10
12.7668293232
 20
7.6490114637
 30
0.0
 10
12.7606749986
 20
7.6352127591
 30
0.0
 10
12.7546178679
 20
7.6205112281
 30
0.0
 10
12.7486695249
 20
7.6049346534
 30
0.0
 10
12.7428413961
 20
7.5885126427
 30
0.0
 10
12.7371446906
 20
7.5712764408
 30
0.0
 10
12.7315903808
 20
7.5532588986
 30
0.0
 10
12.7261891448
 20
7.5344944075
 30
0.0
 10
12.7209513723
 20
7.5150188159
 30
0.0
 10
12.7158871425
 20
7.4948693445
 30
0.0
 10
12.711006208
 20
7.47408452
 30
0.0
 10
12.7063179472
 20
7.4527041084
 30
0.0
 10
12.7018313696
 20
7.4307690279
 30
0.0
 10
12.6975551017
 20
7.4083212607
 30
0.0
 10
12.6934973698
 20
7.385403774
 30
0.0
 10
12.6896659708
 20
7.3620604579
 30
0.0
 10
12.6860682287
 20
7.3383359821
 30
0.0
 10
12.6815700894
 20
7.3060977606
 30
0.0
 10
12.6765878496
 20
7.2651830482
 30
0.0
 10
12.6716666614
 20
7.2155431892
 30
0.0
 10
12.6678120325
 20
7.1655020646
 30
0.0
 10
12.6650533981
 20
7.1154426613
 30
0.0
 10
12.6634118944
 20
7.065748104
 30
0.0
 10
12.6629826009
 20
7.024734644
 30
0.0
 10
12.6632164418
 20
6.9923985657
 30
0.0
 10
12.6636753028
 20
6.9686060768
 30
0.0
 10
12.6644175914
 20
6.9451860815
 30
0.0
 10
12.6654418893
 20
6.9221833902
 30
0.0
 10
12.6667462091
 20
6.8996420586
 30
0.0
 10
12.6683280195
 20
6.877605237
 30
0.0
 10
12.6701842448
 20
6.8561151012
 30
0.0
 10
12.6723112872
 20
6.8352127744
 30
0.0
 10
12.6747050356
 20
6.8149382475
 30
0.0
 10
12.677360851
 20
6.7953302896
 30
0.0
 10
12.680273578
 20
6.7764263689
 30
0.0
 10
12.6834375729
 20
6.7582625879
 30
0.0
 10
12.6868467174
 20
6.7408736089
 30
0.0
 10
12.6904944105
 20
6.7242925678
 30
0.0
 10
12.6943735844
 20
6.708550988
 30
0.0
 10
12.6984767446
 20
6.6936787555
 30
0.0
 10
12.7027960045
 20
6.6797039254
 30
0.0
 10
12.7073230812
 20
6.666653041
 30
0.0
 10
12.7113242927
 20
6.6564065364
 30
0.0
 10
12.714632829
 20
6.6487010255
 30
0.0
 10
12.7171202192
 20
6.6432627273
 30
0.0
 10
12.7196529872
 20
6.6380731748
 30
0.0
 10
12.7222299171
 20
6.6331347852
 30
0.0
 10
12.7248498573
 20
6.6284499131
 30
0.0
 10
12.7275115656
 20
6.6240207498
 30
0.0
 10
12.7302137971
 20
6.6198493607
 30
0.0
 10
12.7329553885
 20
6.6159377403
 30
0.0
 10
12.7357350444
 20
6.6122876851
 30
0.0
 10
12.7385515737
 20
6.6089009325
 30
0.0
 10
12.7414037779
 20
6.6057791144
 30
0.0
 10
12.7442903847
 20
6.6029236869
 30
0.0
 10
12.7472102542
 20
6.600336132
 30
0.0
 10
12.7501621463
 20
6.5980177608
 30
0.0
 10
12.7531447994
 20
6.5959698352
 30
0.0
 10
12.7561570824
 20
6.5941936374
 30
0.0
 10
12.7591973104
 20
6.5926903495
 30
0.0
 10
12.7612658269
 20
6.5918612813
 30
0.0
 10
12.7623011448
 20
6.5914952347
 30
0.0
  0
SPLINE
  5
370
100
AcDbEntity
  8
0
100
AcDbSpline
 62
7
  6
CONTINUOUS
 70
0
 71
3
 72
55
 73
51
 74
0
 42
0.0000001
 43
0.0000001
 44
0.0000000001
 40
0.0
 40
0.0
 40
0.0
 40
0.0
 40
0.007740541
 40
0.0160543931
 40
0.0249605924
 40
0.0344721052
 40
0.0445954559
 40
0.055332388
 40
0.0666806963
 40
0.0786347534
 40
0.0911861103
 40
0.1043236936
 40
0.1180343161
 40
0.1323027986
 40
0.1471121615
 40
0.1624439301
 40
0.1782780821
 40
0.1945933439
 40
0.2285751198
 40
0.2641976008
 40
0.3012530076
 40
0.3395210878
 40
0.3787713764
 40
0.4187653272
 40
0.4592583689
 40
0.5000019404
 40
0.5407454947
 40
0.5812384831
 40
0.6212323429
 40
0.6604825104
 40
0.6987504406
 40
0.7358056642
 40
0.7714279223
 40
0.8054094469
 40
0.8217245906
 40
0.837558595
 40
0.8528902182
 40
0.867699441
 40
0.8819677541
 40
0.895678233
 40
0.9088156452
 40
0.9213668299
 40
0.9333207299
 40
0.9446688551
 40
0.9554056317
 40
0.9655287768
 40
0.9750401376
 40
0.9839462789
 40
0.9922596607
 40
1.0
 40
1.0
 40
1.0
 40
1.0
 10
10.5498127129
 20
10.6979112025
 30
0.0
 10
10.5487595054
 20
10.6969311421
 30
0.0
 10
10.5464922532
 20
10.6949863662
 30
0.0
 10
10.5427729348
 20
10.692208791
 30
0.0
 10
10.5386225102
 20
10.6894731046
 30
0.0
 10
10.5340478045
 20
10.686783666
 30
0.0
 10
10.5290558956
 20
10.6841444648
 30
0.0
 10
10.5236547324
 20
10.6815597829
 30
0.0
 10
10.5178529908
 20
10.6790337668
 30
0.0
 10
10.5116600425
 20
10.6765705094
 30
0.0
 10
10.5050859252
 20
10.6741741033
 30
0.0
 10
10.4981413629
 20
10.6718484498
 30
0.0
 10
10.4908376964
 20
10.6695974183
 30
0.0
 10
10.4831868843
 20
10.6674247376
 30
0.0
 10
10.4752014763
 20
10.6653339749
 30
0.0
 10
10.4668945815
 20
10.663328645
 30
0.0
 10
10.4582798419
 20
10.6614120035
 30
0.0
 10
10.4462381164
 20
10.6589455842
 30
0.0
 10
10.4305182503
 20
10.6561197764
 30
0.0
 10
10.4109122477
 20
10.6531725261
 30
0.0
 10
10.3904449698
 20
10.6506445348
 30
0.0
 10
10.3692511144
 20
10.6485526923
 30
0.0
 10
10.3474700281
 20
10.6469110229
 30
0.0
 10
10.3252450613
 20
10.6457305118
 30
0.0
 10
10.3027225178
 20
10.6450190503
 30
0.0
 10
10.2800506941
 20
10.6447813887
 30
0.0
 10
10.257378881
 20
10.645019115
 30
0.0
 10
10.2348563695
 20
10.6457306435
 30
0.0
 10
10.2126314558
 20
10.6469112242
 30
0.0
 10
10.1908504418
 20
10.6485529568
 30
0.0
 10
10.1696566772
 20
10.6506448594
 30
0.0
 10
10.1491895107
 20
10.6531729095
 30
0.0
 10
10.1295836402
 20
10.6561202183
 30
0.0
 10
10.1138638959
 20
10.6589460812
 30
0.0
 10
10.1018222736
 20
10.6614125255
 30
0.0
 10
10.0932076194
 20
10.663329199
 30
0.0
 10
10.0849008135
 20
10.6653345537
 30
0.0
 10
10.076915497
 20
10.6674253327
 30
0.0
 10
10.0692647822
 20
10.6695980476
 30
0.0
 10
10.0619612129
 20
10.6718490888
 30
0.0
 10
10.0550167547
 20
10.6741747688
 30
0.0
 10
10.0484427449
 20
10.676571198
 30
0.0
 10
10.0422499013
 20
10.6790344614
 30
0.0
 10
10.0364482745
 20
10.6815605106
 30
0.0
 10
10.0310472257
 20
10.6841451967
 30
0.0
 10
10.0260554304
 20
10.6867844097
 30
0.0
 10
10.0214808335
 20
10.6894738811
 30
0.0
 10
10.0173305578
 20
10.692209564
 30
0.0
 10
10.0136113914
 20
10.6949871143
 30
0.0
 10
10.0113442589
 20
10.6969318396
 30
0.0
 10
10.0102911075
 20
10.6979119054
 30
0.0
  0
SPLINE
  5
371
100
AcDbEntity
  8
0
100
AcDbSpline
 62
7
  6
CONTINUOUS
 70
0
 71
3
 72
55
 73
51
 74
0
 42
0.0000001
 43
0.0000001
 44
0.0000000001
 40
0.0
 40
0.0
 40
0.0
 40
0.0
 40
0.007740541
 40
0.0160543931
 40
0.0249605924
 40
0.0344721052
 40
0.0445954559
 40
0.055332388
 40
0.0666806963
 40
0.0786347534
 40
0.0911861103
 40
0.1043236936
 40
0.1180343161
 40
0.1323027986
 40
0.1471121615
 40
0.1624439301
 40
0.1782780821
 40
0.1945933439
 40
0.2285751198
 40
0.2641976008
 40
0.3012530076
 40
0.3395210878
 40
0.3787713764
 40
0.4187653272
 40
0.4592583689
 40
0.5000019404
 40
0.5407454947
 40
0.5812384831
 40
0.6212323429
 40
0.6604825104
 40
0.6987504406
 40
0.7358056642
 40
0.7714279223
 40
0.8054094469
 40
0.8217245906
 40
0.837558595
 40
0.8528902182
 40
0.867699441
 40
0.8819677541
 40
0.895678233
 40
0.9088156452
 40
0.9213668299
 40
0.9333207299
 40
0.9446688551
 40
0.9554056317
 40
0.9655287768
 40
0.9750401376
 40
0.9839462789
 40
0.9922596607
 40
1.0
 40
1.0
 40
1.0
 40
1.0
 10
11.3302272254
 20
10.3257338525
 30
0.0
 10
11.3291740178
 20
10.324753792
 30
0.0
 10
11.3269067656
 20
10.3228090161
 30
0.0
 10
11.3231874473
 20
10.3200314409
 30
0.0
 10
11.3190370227
 20
10.3172957546
 30
0.0
 10
11.314462317
 20
10.3146063159
 30
0.0
 10
11.309470408
 20
10.3119671148
 30
0.0
 10
11.3040692449
 20
10.3093824328
 30
0.0
 10
11.2982675032
 20
10.3068564167
 30
0.0
 10
11.292074555
 20
10.3043931594
 30
0.0
 10
11.2855004376
 20
10.3019967532
 30
0.0
 10
11.2785558753
 20
10.2996710998
 30
0.0
 10
11.2712522088
 20
10.2974200683
 30
0.0
 10
11.2636013968
 20
10.2952473876
 30
0.0
 10
11.2556159887
 20
10.2931566249
 30
0.0
 10
11.2473090939
 20
10.291151295
 30
0.0
 10
11.2386943543
 20
10.2892346535
 30
0.0
 10
11.2266526289
 20
10.2867682341
 30
0.0
 10
11.2109327627
 20
10.2839424263
 30
0.0
 10
11.1913267601
 20
10.280995176
 30
0.0
 10
11.1708594822
 20
10.2784671847
 30
0.0
 10
11.1496656269
 20
10.2763753422
 30
0.0
 10
11.1278845405
 20
10.2747336728
 30
0.0
 10
11.1056595738
 20
10.2735531618
 30
0.0
 10
11.0831370302
 20
10.2728417002
 30
0.0
 10
11.0604652065
 20
10.2726040386
 30
0.0
 10
11.0377933934
 20
10.272841765
 30
0.0
 10
11.0152708819
 20
10.2735532934
 30
0.0
 10
10.9930459683
 20
10.2747338742
 30
0.0
 10
10.9712649542
 20
10.2763756067
 30
0.0
 10
10.9500711896
 20
10.2784675094
 30
0.0
 10
10.9296040231
 20
10.2809955594
 30
0.0
 10
10.9099981526
 20
10.2839428682
 30
0.0
 10
10.8942784084
 20
10.2867687311
 30
0.0
 10
10.8822367861
 20
10.2892351754
 30
0.0
 10
10.8736221319
 20
10.2911518489
 30
0.0
 10
10.8653153259
 20
10.2931572037
 30
0.0
 10
10.8573300094
 20
10.2952479826
 30
0.0
 10
10.8496792947
 20
10.2974206976
 30
0.0
 10
10.8423757253
 20
10.2996717387
 30
0.0
 10
10.8354312671
 20
10.3019974188
 30
0.0
 10
10.8288572574
 20
10.3043938479
 30
0.0
 10
10.8226644138
 20
10.3068571113
 30
0.0
 10
10.816862787
 20
10.3093831605
 30
0.0
 10
10.8114617382
 20
10.3119678466
 30
0.0
 10
10.8064699429
 20
10.3146070597
 30
0.0
 10
10.8018953459
 20
10.317296531
 30
0.0
 10
10.7977450703
 20
10.3200322139
 30
0.0
 10
10.7940259039
 20
10.3228097643
 30
0.0
 10
10.7917587714
 20
10.3247544896
 30
0.0
 10
10.79070562
 20
10.3257345553
 30
0.0
  0
SPLINE
  5
372
100
AcDbEntity
  8
0
100
AcDbSpline
 62
7
  6
CONTINUOUS
 70
0
 71
3
 72
18
 73
14
 74
0
 42
0.0000001
 43
0.0000001
 44
0.0000000001
 40
0.0
 40
0.0
 40
0.0
 40
0.0
 40
0.0548626755
 40
0.1099292576
 40
0.1654013202
 40
0.2214755501
 40
0.3361333804
 40
0.4553634196
 40
0.5171048815
 40
0.5804365284
 40
0.7123311193
 40
0.8519577055
 40
1.0
 40
1.0
 40
1.0
 40
1.0
 10
12.1182565313
 20
10.6272994571
 30
0.0
 10
12.118256533
 20
10.626536823
 30
0.0
 10
12.1182081393
 20
10.62500828
 30
0.0
 10
12.1179905313
 20
10.6227179626
 30
0.0
 10
12.1176278626
 20
10.6204289204
 30
0.0
 10
12.1169463915
 20
10.6173575341
 30
0.0
 10
12.1157186916
 20
10.6135080271
 30
0.0
 10
12.1140372286
 20
10.6097494002
 30
0.0
 10
12.1124192697
 20
10.6067623152
 30
0.0
 10
12.1105666346
 20
10.6037067732
 30
0.0
 10
12.1078765666
 20
10.5998999911
 30
0.0
 10
12.1041261167
 20
10.5954264292
 30
0.0
 10
12.1013366799
 20
10.5925559214
 30
0.0
 10
12.0998565233
 20
10.5911261999
 30
0.0
  0
SPLINE
  5
373
100
AcDbEntity
  8
0
100
AcDbSpline
 62
7
  6
CONTINUOUS
 70
0
 71
3
 72
88
 73
84
 74
0
 42
0.0000001
 43
0.0000001
 44
0.0000000001
 40
0.0
 40
0.0
 40
0.0
 40
0.0
 40
0.0027164206
 40
0.0054532135
 40
0.00823027
 40
0.0110665466
 40
0.0139797362
 40
0.0169860264
 40
0.0200999638
 40
0.0233344621
 40
0.0267007864
 40
0.030208716
 40
0.033866602
 40
0.0376815365
 40
0.0416594862
 40
0.0458053757
 40
0.0501232805
 40
0.0546164357
 40
0.0592874172
 40
0.0641381604
 40
0.0691700473
 40
0.0743839976
 40
0.0797804461
 40
0.085359486
 40
0.0911208072
 40
0.097063806
 40
0.1031875785
 40
0.1094909314
 40
0.1226301057
 40
0.1364676988
 40
0.1509864378
 40
0.1661662591
 40
0.1819846247
 40
0.1984167804
 40
0.2154359739
 40
0.2330136371
 40
0.2511195505
 40
0.2697219952
 40
0.2887878869
 40
0.3082829001
 40
0.3281715858
 40
0.3484174815
 40
0.3689832185
 40
0.3898306305
 40
0.410920857
 40
0.4322144439
 40
0.4536714439
 40
0.4969133241
 40
0.5403214886
 40
0.5835686279
 40
0.6050302166
 40
0.6263296837
 40
0.6474270673
 40
0.6682828961
 40
0.6888582896
 40
0.7091150586
 40
0.7290158075
 40
0.7485240405
 40
0.7676042737
 40
0.7862221443
 40
0.8043445271
 40
0.8219396585
 40
0.8389772699
 40
0.8554287349
 40
0.8712672375
 40
0.8864679574
 40
0.9010082824
 40
0.9148680665
 40
0.9280299429
 40
0.9343448017
 40
0.9404801679
 40
0.9464348204
 40
0.9522078552
 40
0.9577986253
 40
0.9632068219
 40
0.9684325067
 40
0.9734760906
 40
0.9783384494
 40
0.9830208978
 40
0.9875254123
 40
0.9918545974
 40
0.9960115688
 40
1.0
 40
1.0
 40
1.0
 40
1.0
 10
12.7920026869
 20
6.4281711467
 30
0.0
 10
12.7906318324
 20
6.4282662113
 30
0.0
 10
12.787886864
 20
6.4285811425
 30
0.0
 10
12.7838043428
 20
6.429423819
 30
0.0
 10
12.7797526941
 20
6.4306367734
 30
0.0
 10
12.7757347697
 20
6.4322187103
 30
0.0
 10
12.7717526691
 20
6.4341682951
 30
0.0
 10
12.7678084372
 20
6.4364839917
 30
0.0
 10
12.7639038541
 20
6.4391641055
 30
0.0
 10
12.7600407225
 20
6.4422070207
 30
0.0
 10
12.7562206307
 20
6.4456108679
 30
0.0
 10
12.7524452987
 20
6.4493738638
 30
0.0
 10
12.7487163294
 20
6.4534939991
 30
0.0
 10
12.7450353824
 20
6.4579691947
 30
0.0
 10
12.7414041616
 20
6.4627972404
 30
0.0
 10
12.7378242744
 20
6.4679757106
 30
0.0
 10
12.7342974869
 20
6.4735021023
 30
0.0
 10
12.7308254003
 20
6.4793736545
 30
0.0
 10
12.7274097445
 20
6.4855875014
 30
0.0
 10
12.7240521643
 20
6.4921405651
 30
0.0
 10
12.7207542885
 20
6.4990295995
 30
0.0
 10
12.7175177986
 20
6.506251205
 30
0.0
 10
12.7143442305
 20
6.5138017737
 30
0.0
 10
12.7112352379
 20
6.5216775672
 30
0.0
 10
12.7081923167
 20
6.5298746455
 30
0.0
 10
12.7052170267
 20
6.5383889212
 30
0.0
 10
12.7023108358
 20
6.5472161507
 30
0.0
 10
12.6984769069
 20
6.5595685074
 30
0.0
 10
12.6938812901
 20
6.5757674722
 30
0.0
 10
12.6887379852
 20
6.5961214103
 30
0.0
 10
12.683903052
 20
6.6176100081
 30
0.0
 10
12.6793862938
 20
6.6401901832
 30
0.0
 10
12.6751969039
 20
6.6638168414
 30
0.0
 10
12.6713434072
 20
6.688442654
 30
0.0
 10
12.6678336505
 20
6.7140182587
 30
0.0
 10
12.6646747784
 20
6.740492339
 30
0.0
 10
12.6618732182
 20
6.7678117434
 30
0.0
 10
12.6594346726
 20
6.7959215989
 30
0.0
 10
12.6573641067
 20
6.8247654279
 30
0.0
 10
12.6556657391
 20
6.8542852651
 30
0.0
 10
12.6543430345
 20
6.8844217747
 30
0.0
 10
12.6533986957
 20
6.9151143707
 30
0.0
 10
12.6528346547
 20
6.9463013387
 30
0.0
 10
12.6526520724
 20
6.9779199692
 30
0.0
 10
12.652851348
 20
7.0099066636
 30
0.0
 10
12.6534320722
 20
7.0421971485
 30
0.0
 10
12.6547168453
 20
7.0856796859
 30
0.0
 10
12.6572678621
 20
7.1403130414
 30
0.0
 10
12.661802574
 20
7.2058722372
 30
0.0
 10
12.6667981169
 20
7.260341499
 30
0.0
 10
12.6715127351
 20
7.3035947798
 30
0.0
 10
12.675383902
 20
7.3356666161
 30
0.0
 10
12.6795911949
 20
7.3673869786
 30
0.0
 10
12.6841261682
 20
7.398692128
 30
0.0
 10
12.6889796676
 20
7.4295191016
 30
0.0
 10
12.6941419072
 20
7.4598059184
 30
0.0
 10
12.6996024731
 20
7.4894916841
 30
0.0
 10
12.7053503488
 20
7.5185167223
 30
0.0
 10
12.7113739297
 20
7.5468226974
 30
0.0
 10
12.7176610529
 20
7.5743527328
 30
0.0
 10
12.7241990212
 20
7.6010515264
 30
0.0
 10
12.7309746277
 20
7.6268654631
 30
0.0
 10
12.7379741829
 20
7.6517427283
 30
0.0
 10
12.7451835445
 20
7.6756334166
 30
0.0
 10
12.752588141
 20
7.6984896521
 30
0.0
 10
12.7601730068
 20
7.7202656661
 30
0.0
 10
12.767922822
 20
7.7409179939
 30
0.0
 10
12.7758219415
 20
7.7604052446
 30
0.0
 10
12.7826060033
 20
7.7758475165
 30
0.0
 10
12.7881056585
 20
7.787579239
 30
0.0
 10
12.7922008067
 20
7.795941219
 30
0.0
 10
12.7963213472
 20
7.8039839587
 30
0.0
 10
12.8004651919
 20
7.8117034632
 30
0.0
 10
12.8046302862
 20
7.8190958696
 30
0.0
 10
12.8088145575
 20
7.8261574932
 30
0.0
 10
12.8130158899
 20
7.8328848375
 30
0.0
 10
12.8172322544
 20
7.839274524
 30
0.0
 10
12.8214614737
 20
7.8453234069
 30
0.0
 10
12.8257015351
 20
7.8510284732
 30
0.0
 10
12.8299503694
 20
7.8563869585
 30
0.0
 10
12.8342059982
 20
7.8613962553
 30
0.0
 10
12.8384661544
 20
7.8660536441
 30
0.0
 10
12.8413669152
 20
7.8689820694
 30
0.0
 10
12.8428180937
 20
7.8703838003
 30
0.0
  0
SPLINE
  5
374
100
AcDbEntity
  8
0
100
AcDbSpline
 62
7
  6
CONTINUOUS
 70
0
 71
3
 72
88
 73
84
 74
0
 42
0.0000001
 43
0.0000001
 44
0.0000000001
 40
0.0
 40
0.0
 40
0.0
 40
0.0
 40
0.0027164206
 40
0.0054532135
 40
0.00823027
 40
0.0110665466
 40
0.0139797362
 40
0.0169860264
 40
0.0200999638
 40
0.0233344621
 40
0.0267007864
 40
0.030208716
 40
0.033866602
 40
0.0376815365
 40
0.0416594862
 40
0.0458053757
 40
0.0501232805
 40
0.0546164357
 40
0.0592874172
 40
0.0641381604
 40
0.0691700473
 40
0.0743839976
 40
0.0797804461
 40
0.085359486
 40
0.0911208072
 40
0.097063806
 40
0.1031875785
 40
0.1094909314
 40
0.1226301057
 40
0.1364676988
 40
0.1509864378
 40
0.1661662591
 40
0.1819846247
 40
0.1984167804
 40
0.2154359739
 40
0.2330136371
 40
0.2511195505
 40
0.2697219952
 40
0.2887878869
 40
0.3082829001
 40
0.3281715858
 40
0.3484174815
 40
0.3689832185
 40
0.3898306305
 40
0.410920857
 40
0.4322144439
 40
0.4536714439
 40
0.4969133241
 40
0.5403214886
 40
0.5835686279
 40
0.6050302166
 40
0.6263296837
 40
0.6474270673
 40
0.6682828961
 40
0.6888582896
 40
0.7091150586
 40
0.7290158075
 40
0.7485240405
 40
0.7676042737
 40
0.7862221443
 40
0.8043445271
 40
0.8219396585
 40
0.8389772699
 40
0.8554287349
 40
0.8712672375
 40
0.8864679574
 40
0.9010082824
 40
0.9148680665
 40
0.9280299429
 40
0.9343448017
 40
0.9404801679
 40
0.9464348204
 40
0.9522078552
 40
0.9577986253
 40
0.9632068219
 40
0.9684325067
 40
0.9734760906
 40
0.9783384494
 40
0.9830208978
 40
0.9875254123
 40
0.9918545974
 40
0.9960115688
 40
1.0
 40
1.0
 40
1.0
 40
1.0
 10
13.0671270954
 20
8.0375238694
 30
0.0
 10
13.0657562409
 20
8.0376189339
 30
0.0
 10
13.0630112725
 20
8.0379338652
 30
0.0
 10
13.0589287513
 20
8.0387765417
 30
0.0
 10
13.0548771026
 20
8.039989496
 30
0.0
 10
13.0508591782
 20
8.041571433
 30
0.0
 10
13.0468770776
 20
8.0435210178
 30
0.0
 10
13.0429328458
 20
8.0458367144
 30
0.0
 10
13.0390282626
 20
8.0485168281
 30
0.0
 10
13.035165131
 20
8.0515597434
 30
0.0
 10
13.0313450392
 20
8.0549635906
 30
0.0
 10
13.0275697072
 20
8.0587265865
 30
0.0
 10
13.0238407379
 20
8.0628467218
 30
0.0
 10
13.0201597909
 20
8.0673219174
 30
0.0
 10
13.0165285701
 20
8.072149963
 30
0.0
 10
13.012948683
 20
8.0773284332
 30
0.0
 10
13.0094218954
 20
8.082854825
 30
0.0
 10
13.0059498088
 20
8.0887263772
 30
0.0
 10
13.002534153
 20
8.0949402241
 30
0.0
 10
12.9991765728
 20
8.1014932878
 30
0.0
 10
12.995878697
 20
8.1083823222
 30
0.0
 10
12.9926422071
 20
8.1156039277
 30
0.0
 10
12.989468639
 20
8.1231544964
 30
0.0
 10
12.9863596464
 20
8.1310302898
 30
0.0
 10
12.9833167252
 20
8.1392273682
 30
0.0
 10
12.9803414352
 20
8.1477416439
 30
0.0
 10
12.9774352443
 20
8.1565688734
 30
0.0
 10
12.9736013154
 20
8.1689212301
 30
0.0
 10
12.9690056987
 20
8.1851201949
 30
0.0
 10
12.9638623937
 20
8.205474133
 30
0.0
 10
12.9590274605
 20
8.2269627308
 30
0.0
 10
12.9545107024
 20
8.2495429059
 30
0.0
 10
12.9503213125
 20
8.2731695641
 30
0.0
 10
12.9464678157
 20
8.2977953767
 30
0.0
 10
12.942958059
 20
8.3233709813
 30
0.0
 10
12.9397991869
 20
8.3498450617
 30
0.0
 10
12.9369976267
 20
8.3771644661
 30
0.0
 10
12.9345590811
 20
8.4052743215
 30
0.0
 10
12.9324885152
 20
8.4341181506
 30
0.0
 10
12.9307901477
 20
8.4636379878
 30
0.0
 10
12.929467443
 20
8.4937744974
 30
0.0
 10
12.9285231042
 20
8.5244670933
 30
0.0
 10
12.9279590632
 20
8.5556540614
 30
0.0
 10
12.9277764809
 20
8.5872726919
 30
0.0
 10
12.9279757565
 20
8.6192593863
 30
0.0
 10
12.9285564807
 20
8.6515498711
 30
0.0
 10
12.9298412539
 20
8.6950324085
 30
0.0
 10
12.9323922706
 20
8.749665764
 30
0.0
 10
12.9369269825
 20
8.8152249599
 30
0.0
 10
12.9419225254
 20
8.8696942216
 30
0.0
 10
12.9466371436
 20
8.9129475024
 30
0.0
 10
12.9505083105
 20
8.9450193388
 30
0.0
 10
12.9547156034
 20
8.9767397012
 30
0.0
 10
12.9592505767
 20
9.0080448507
 30
0.0
 10
12.9641040761
 20
9.0388718243
 30
0.0
 10
12.9692663157
 20
9.0691586411
 30
0.0
 10
12.9747268816
 20
9.0988444067
 30
0.0
 10
12.9804747573
 20
9.127869445
 30
0.0
 10
12.9864983382
 20
9.1561754201
 30
0.0
 10
12.9927854614
 20
9.1837054555
 30
0.0
 10
12.9993234297
 20
9.210404249
 30
0.0
 10
13.0060990362
 20
9.2362181858
 30
0.0
 10
13.0130985914
 20
9.2610954509
 30
0.0
 10
13.020307953
 20
9.2849861393
 30
0.0
 10
13.0277125495
 20
9.3078423747
 30
0.0
 10
13.0352974153
 20
9.3296183888
 30
0.0
 10
13.0430472305
 20
9.3502707166
 30
0.0
 10
13.05094635
 20
9.3697579673
 30
0.0
 10
13.0577304118
 20
9.3852002392
 30
0.0
 10
13.063230067
 20
9.3969319616
 30
0.0
 10
13.0673252152
 20
9.4052939417
 30
0.0
 10
13.0714457557
 20
9.4133366814
 30
0.0
 10
13.0755896004
 20
9.4210561859
 30
0.0
 10
13.0797546947
 20
9.4284485922
 30
0.0
 10
13.083938966
 20
9.4355102159
 30
0.0
 10
13.0881402984
 20
9.4422375602
 30
0.0
 10
13.0923566629
 20
9.4486272466
 30
0.0
 10
13.0965858822
 20
9.4546761296
 30
0.0
 10
13.1008259436
 20
9.4603811958
 30
0.0
 10
13.1050747779
 20
9.4657396812
 30
0.0
 10
13.1093304067
 20
9.470748978
 30
0.0
 10
13.1135905629
 20
9.4754063667
 30
0.0
 10
13.1164913237
 20
9.478334792
 30
0.0
 10
13.1179425022
 20
9.4797365229
 30
0.0
  0
SPLINE
  5
375
100
AcDbEntity
  8
0
100
AcDbSpline
 62
7
  6
CONTINUOUS
 70
0
 71
3
 72
27
 73
23
 74
0
 42
0.0000001
 43
0.0000001
 44
0.0000000001
 40
0.0
 40
0.0
 40
0.0
 40
0.0
 40
0.0622009741
 40
0.093250318
 40
0.1242682268
 40
0.1862183617
 40
0.2481002856
 40
0.2790336518
 40
0.3099655961
 40
0.3718363201
 40
0.4337660663
 40
0.495797757
 40
0.5579729729
 40
0.6203309354
 40
0.6829075059
 40
0.7142932308
 40
0.7457449843
 40
0.8088482427
 40
0.8722484958
 40
0.9040693542
 40
0.9359703652
 40
1.0
 40
1.0
 40
1.0
 40
1.0
 10
10.5804918127
 20
8.6672471339
 30
0.0
 10
10.5826508126
 20
8.6714913368
 30
0.0
 10
10.5861117745
 20
8.6777439054
 30
0.0
 10
10.5911552626
 20
8.6858119854
 30
0.0
 10
10.5964720172
 20
8.6936799651
 30
0.0
 10
10.6036327914
 20
8.7031408502
 30
0.0
 10
10.6114538162
 20
8.7120554445
 30
0.0
 10
10.6180823948
 20
8.7188261988
 30
0.0
 10
10.6249532857
 20
8.7253496122
 30
0.0
 10
10.6339882602
 20
8.7330281892
 30
0.0
 10
10.6454888577
 20
8.7414238009
 30
0.0
 10
10.6575999277
 20
8.7489570264
 30
0.0
 10
10.6702662391
 20
8.7555850426
 30
0.0
 10
10.683428288
 20
8.7612693995
 30
0.0
 10
10.6947480641
 20
8.7651885251
 30
0.0
 10
10.7039830408
 20
8.7678212485
 30
0.0
 10
10.7133482956
 20
8.7701202093
 30
0.0
 10
10.7252451
 20
8.7723495872
 30
0.0
 10
10.737301331
 20
8.7737026807
 30
0.0
 10
10.7470192017
 20
8.7742584362
 30
0.0
 10
10.7567986075
 20
8.7744620829
 30
0.0
 10
10.7641467919
 20
8.7742158081
 30
0.0
 10
10.7690368184
 20
8.7738766836
 30
0.0
  0
SPLINE
  5
376
100
AcDbEntity
  8
0
100
AcDbSpline
 62
7
  6
CONTINUOUS
 70
0
 71
3
 72
42
 73
38
 74
0
 42
0.0000001
 43
0.0000001
 44
0.0000000001
 40
0.0
 40
0.0
 40
0.0
 40
0.0
 40
0.0299419634
 40
0.0449235299
 40
0.0599142017
 40
0.0899287029
 40
0.1200139772
 40
0.1350926626
 40
0.1501967046
 40
0.1804840506
 40
0.2108978877
 40
0.2414513551
 40
0.2721543675
 40
0.3030134354
 40
0.3340315696
 40
0.3652082675
 40
0.3965395775
 40
0.4280182343
 40
0.4596338596
 40
0.4913732188
 40
0.5232205284
 40
0.5551578047
 40
0.5871652463
 40
0.6192216448
 40
0.6513048151
 40
0.6833920402
 40
0.7154605222
 40
0.747487836
 40
0.7794523759
 40
0.8113337934
 40
0.8431134117
 40
0.8747746318
 40
0.9063032512
 40
0.9376879208
 40
0.9533258
 40
0.9689252634
 40
1.0
 40
1.0
 40
1.0
 40
1.0
 10
10.2237563773
 20
8.1658981713
 30
0.0
 10
10.2273895165
 20
8.1694074929
 30
0.0
 10
10.233053384
 20
8.174458826
 30
0.0
 10
10.2409855028
 20
8.1807264304
 30
0.0
 10
10.2491702197
 20
8.1866821492
 30
0.0
 10
10.2598499295
 20
8.1935212438
 30
0.0
 10
10.2710488932
 20
8.1995034724
 30
0.0
 10
10.280285136
 20
8.2037592357
 30
0.0
 10
10.2897121725
 20
8.2076636793
 30
0.0
 10
10.3018066327
 20
8.2118620595
 30
0.0
 10
10.3167112218
 20
8.2157748446
 30
0.0
 10
10.3319410313
 20
8.2185467517
 30
0.0
 10
10.3474116598
 20
8.2201624884
 30
0.0
 10
10.363038124
 20
8.2206134321
 30
0.0
 10
10.3787344425
 20
8.2198972878
 30
0.0
 10
10.3944143448
 20
8.2180181923
 30
0.0
 10
10.4099916768
 20
8.2149866552
 30
0.0
 10
10.4253808859
 20
8.2108195011
 30
0.0
 10
10.4404974799
 20
8.2055397699
 30
0.0
 10
10.4552584857
 20
8.199176587
 30
0.0
 10
10.4695828976
 20
8.1917650012
 30
0.0
 10
10.4833921163
 20
8.1833457913
 30
0.0
 10
10.4966103738
 20
8.1739652425
 30
0.0
 10
10.5091651444
 20
8.1636748933
 30
0.0
 10
10.5209875374
 20
8.1525312552
 30
0.0
 10
10.5320126714
 20
8.1405955042
 30
0.0
 10
10.5421800262
 20
8.1279331493
 30
0.0
 10
10.5514337719
 20
8.1146136749
 30
0.0
 10
10.5597230727
 20
8.1007101684
 30
0.0
 10
10.567002364
 20
8.0862989074
 30
0.0
 10
10.5732315994
 20
8.0714590062
 30
0.0
 10
10.5783764825
 20
8.0562717669
 30
0.0
 10
10.5824085915
 20
8.0408210534
 30
0.0
 10
10.5848259304
 20
8.0277789762
 30
0.0
 10
10.5861819858
 20
8.0172998253
 30
0.0
 10
10.5871497693
 20
8.0068307021
 30
0.0
 10
10.5874428048
 20
7.9989527574
 30
0.0
 10
10.5874428048
 20
7.9937104161
 30
0.0
  0
SPLINE
  5
377
100
AcDbEntity
  8
0
100
AcDbSpline
 62
7
  6
CONTINUOUS
 70
0
 71
3
 72
41
 73
37
 74
0
 42
0.0000001
 43
0.0000001
 44
0.0000000001
 40
0.0
 40
0.0
 40
0.0
 40
0.0
 40
0.0300821846
 40
0.0601249677
 40
0.0901567989
 40
0.1202063636
 40
0.1503017648
 40
0.180469735
 40
0.210734905
 40
0.2411191526
 40
0.2716410504
 40
0.3023154241
 40
0.3331530295
 40
0.3641603482
 40
0.3953394991
 40
0.4266882612
 40
0.4582001974
 40
0.4898648714
 40
0.5216681469
 40
0.5535925592
 40
0.5856177504
 40
0.6177209585
 40
0.6498775498
 40
0.6820615883
 40
0.7142464316
 40
0.7303336157
 40
0.746411011
 40
0.7785177945
 40
0.8105474009
 40
0.8265288039
 40
0.842482366
 40
0.8742901317
 40
0.9059584493
 40
0.9374728125
 40
0.968821987
 40
1.0
 40
1.0
 40
1.0
 40
1.0
 10
9.6848004123
 20
7.7482762884
 30
0.0
 10
9.6878874102
 20
7.752807521
 30
0.0
 10
9.6944489396
 20
7.7616043874
 30
0.0
 10
9.70538168
 20
7.7738977616
 30
0.0
 10
9.7173271049
 20
7.785202768
 30
0.0
 10
9.7302063019
 20
7.7954460622
 30
0.0
 10
9.7439356579
 20
7.8045630445
 30
0.0
 10
9.7584260382
 20
7.8124961141
 30
0.0
 10
9.7735837881
 20
7.8191955361
 30
0.0
 10
9.7893112626
 20
7.8246195302
 30
0.0
 10
9.8055074878
 20
7.8287345038
 30
0.0
 10
9.8220687911
 20
7.8315151792
 30
0.0
 10
9.8388894397
 20
7.8329446778
 30
0.0
 10
9.855862267
 20
7.8330145695
 30
0.0
 10
9.8728792971
 20
7.8317248812
 30
0.0
 10
9.8898323639
 20
7.8290840704
 30
0.0
 10
9.9066137275
 20
7.8251089648
 30
0.0
 10
9.9231166877
 20
7.8198246664
 30
0.0
 10
9.9392361971
 20
7.8132644212
 30
0.0
 10
9.9548694739
 20
7.8054694635
 30
0.0
 10
9.9699166212
 20
7.7964887867
 30
0.0
 10
9.9842811883
 20
7.7863789517
 30
0.0
 10
9.9978709404
 20
7.7752035885
 30
0.0
 10
10.0105978223
 20
7.7630338386
 30
0.0
 10
10.0204190237
 20
7.7521243216
 30
0.0
 10
10.0277653504
 20
7.7429786049
 30
0.0
 10
10.0347549572
 20
7.7335751204
 30
0.0
 10
10.0428096042
 20
7.7213564738
 30
0.0
 10
10.0499102168
 20
7.7085796213
 30
0.0
 10
10.0549839504
 20
7.6980804738
 30
0.0
 10
10.059637164
 20
7.6874325089
 30
0.0
 10
10.0646687842
 20
7.6738414331
 30
0.0
 10
10.0694121202
 20
7.6571730513
 30
0.0
 10
10.0728244545
 20
7.6402663375
 30
0.0
 10
10.0748827459
 20
7.6232329572
 30
0.0
 10
10.0753441823
 20
7.611831442
 30
0.0
 10
10.0753441822
 20
7.6061488656
 30
0.0
  0
SPLINE
  5
378
100
AcDbEntity
  8
0
100
AcDbSpline
 62
7
  6
CONTINUOUS
 70
0
 71
3
 72
15
 73
11
 74
0
 42
0.0000001
 43
0.0000001
 44
0.0000000001
 40
0.0
 40
0.0
 40
0.0
 40
0.0
 40
0.1233171261
 40
0.2468171865
 40
0.3706749939
 40
0.4950495802
 40
0.6200773232
 40
0.7458671315
 40
0.872492731
 40
1.0
 40
1.0
 40
1.0
 40
1.0
 10
11.7227733968
 20
7.0607852827
 30
0.0
 10
11.7252979305
 20
7.0632237738
 30
0.0
 10
11.7306179011
 20
7.0678361996
 30
0.0
 10
11.7393006174
 20
7.0738633898
 30
0.0
 10
11.7486044423
 20
7.078944231
 30
0.0
 10
11.758434143
 20
7.0830265016
 30
0.0
 10
11.7686905648
 20
7.0860696721
 30
0.0
 10
11.7792703891
 20
7.0880433151
 30
0.0
 10
11.79006562
 20
7.0889282343
 30
0.0
 10
11.7973119022
 20
7.0887868928
 30
0.0
 10
11.8009323842
 20
7.0885358115
 30
0.0
  0
SPLINE
  5
379
100
AcDbEntity
  8
0
100
AcDbSpline
 62
7
  6
CONTINUOUS
 70
0
 71
3
 72
15
 73
11
 74
0
 42
0.0000001
 43
0.0000001
 44
0.0000000001
 40
0.0
 40
0.0
 40
0.0
 40
0.0
 40
0.1233171261
 40
0.2468171865
 40
0.3706749939
 40
0.4950495802
 40
0.6200773232
 40
0.7458671315
 40
0.872492731
 40
1.0
 40
1.0
 40
1.0
 40
1.0
 10
9.6701808944
 20
7.2031330562
 30
0.0
 10
9.672705428
 20
7.2055715474
 30
0.0
 10
9.6780253986
 20
7.2101839731
 30
0.0
 10
9.6867081149
 20
7.2162111633
 30
0.0
 10
9.6960119399
 20
7.2212920046
 30
0.0
 10
9.7058416405
 20
7.2253742751
 30
0.0
 10
9.7160980623
 20
7.2284174456
 30
0.0
 10
9.7266778866
 20
7.2303910887
 30
0.0
 10
9.7374731175
 20
7.2312760078
 30
0.0
 10
9.7447193997
 20
7.2311346663
 30
0.0
 10
9.7483398817
 20
7.230883585
 30
0.0
  0
SPLINE
  5
37A
100
AcDbEntity
  8
0
100
AcDbSpline
 62
7
  6
CONTINUOUS
 70
0
 71
3
 72
15
 73
11
 74
0
 42
0.0000001
 43
0.0000001
 44
0.0000000001
 40
0.0
 40
0.0
 40
0.0
 40
0.0
 40
0.1233171261
 40
0.2468171865
 40
0.3706749939
 40
0.4950495802
 40
0.6200773232
 40
0.7458671315
 40
0.872492731
 40
1.0
 40
1.0
 40
1.0
 40
1.0
 10
11.7227733968
 20
8.8120088745
 30
0.0
 10
11.7252979305
 20
8.8144473656
 30
0.0
 10
11.7306179011
 20
8.8190597914
 30
0.0
 10
11.7393006174
 20
8.8250869816
 30
0.0
 10
11.7486044423
 20
8.8301678228
 30
0.0
 10
11.758434143
 20
8.8342500934
 30
0.0
 10
11.7686905648
 20
8.8372932639
 30
0.0
 10
11.7792703891
 20
8.839266907
 30
0.0
 10
11.79006562
 20
8.8401518261
 30
0.0
 10
11.7973119022
 20
8.8400104846
 30
0.0
 10
11.8009323842
 20
8.8397594033
 30
0.0
  0
SPLINE
  5
37B
100
AcDbEntity
  8
0
100
AcDbSpline
 62
7
  6
CONTINUOUS
 70
0
 71
3
 72
15
 73
11
 74
0
 42
0.0000001
 43
0.0000001
 44
0.0000000001
 40
0.0
 40
0.0
 40
0.0
 40
0.0
 40
0.1233171261
 40
0.2468171865
 40
0.3706749939
 40
0.4950495802
 40
0.6200773232
 40
0.7458671315
 40
0.872492731
 40
1.0
 40
1.0
 40
1.0
 40
1.0
 10
9.6701808944
 20
8.9543566481
 30
0.0
 10
9.672705428
 20
8.9567951392
 30
0.0
 10
9.6780253986
 20
8.9614075649
 30
0.0
 10
9.6867081149
 20
8.9674347551
 30
0.0
 10
9.6960119399
 20
8.9725155964
 30
0.0
 10
9.7058416405
 20
8.9765978669
 30
0.0
 10
9.7160980623
 20
8.9796410374
 30
0.0
 10
9.7266778866
 20
8.9816146805
 30
0.0
 10
9.7374731175
 20
8.9824995997
 30
0.0
 10
9.7447193997
 20
8.9823582581
 30
0.0
 10
9.7483398817
 20
8.9821071769
 30
0.0
  0
SPLINE
  5
37C
100
AcDbEntity
  8
0
100
AcDbSpline
 62
7
  6
CONTINUOUS
 70
0
 71
3
 72
42
 73
38
 74
0
 42
0.0000001
 43
0.0000001
 44
0.0000000001
 40
0.0
 40
0.0
 40
0.0
 40
0.0
 40
0.0299419634
 40
0.0449235299
 40
0.0599142017
 40
0.0899287029
 40
0.1200139772
 40
0.1350926626
 40
0.1501967046
 40
0.1804840506
 40
0.2108978877
 40
0.2414513551
 40
0.2721543675
 40
0.3030134354
 40
0.3340315696
 40
0.3652082675
 40
0.3965395775
 40
0.4280182343
 40
0.4596338596
 40
0.4913732188
 40
0.5232205284
 40
0.5551578047
 40
0.5871652463
 40
0.6192216448
 40
0.6513048151
 40
0.6833920402
 40
0.7154605222
 40
0.747487836
 40
0.7794523759
 40
0.8113337934
 40
0.8431134117
 40
0.8747746318
 40
0.9063032512
 40
0.9376879208
 40
0.9533258
 40
0.9689252634
 40
1.0
 40
1.0
 40
1.0
 40
1.0
 10
11.9440703934
 20
6.2055393527
 30
0.0
 10
11.9477035326
 20
6.2090486743
 30
0.0
 10
11.9533674
 20
6.2141000075
 30
0.0
 10
11.9612995188
 20
6.2203676118
 30
0.0
 10
11.9694842358
 20
6.2263233306
 30
0.0
 10
11.9801639455
 20
6.2331624253
 30
0.0
 10
11.9913629093
 20
6.2391446538
 30
0.0
 10
12.0005991521
 20
6.2434004172
 30
0.0
 10
12.0100261885
 20
6.2473048607
 30
0.0
 10
12.0221206488
 20
6.251503241
 30
0.0
 10
12.0370252378
 20
6.2554160261
 30
0.0
 10
12.0522550473
 20
6.2581879331
 30
0.0
 10
12.0677256759
 20
6.2598036698
 30
0.0
 10
12.08335214
 20
6.2602546135
 30
0.0
 10
12.0990484585
 20
6.2595384692
 30
0.0
 10
12.1147283608
 20
6.2576593738
 30
0.0
 10
12.1303056929
 20
6.2546278366
 30
0.0
 10
12.145694902
 20
6.2504606825
 30
0.0
 10
12.160811496
 20
6.2451809513
 30
0.0
 10
12.1755725017
 20
6.2388177684
 30
0.0
 10
12.1898969137
 20
6.2314061827
 30
0.0
 10
12.2037061323
 20
6.2229869728
 30
0.0
 10
12.2169243899
 20
6.2136064239
 30
0.0
 10
12.2294791604
 20
6.2033160748
 30
0.0
 10
12.2413015535
 20
6.1921724366
 30
0.0
 10
12.2523266875
 20
6.1802366856
 30
0.0
 10
12.2624940423
 20
6.1675743307
 30
0.0
 10
12.271747788
 20
6.1542548563
 30
0.0
 10
12.2800370888
 20
6.1403513498
 30
0.0
 10
12.2873163801
 20
6.1259400888
 30
0.0
 10
12.2935456155
 20
6.1111001876
 30
0.0
 10
12.2986904986
 20
6.0959129483
 30
0.0
 10
12.3027226075
 20
6.0804622349
 30
0.0
 10
12.3051399464
 20
6.0674201577
 30
0.0
 10
12.3064960018
 20
6.0569410067
 30
0.0
 10
12.3074637853
 20
6.0464718835
 30
0.0
 10
12.3077568208
 20
6.0385939388
 30
0.0
 10
12.3077568208
 20
6.0333515975
 30
0.0
  0
SPLINE
  5
37D
100
AcDbEntity
  8
0
100
AcDbSpline
 62
7
  6
CONTINUOUS
 70
0
 71
3
 72
42
 73
38
 74
0
 42
0.0000001
 43
0.0000001
 44
0.0000000001
 40
0.0
 40
0.0
 40
0.0
 40
0.0
 40
0.0299419634
 40
0.0449235299
 40
0.0599142017
 40
0.0899287029
 40
0.1200139772
 40
0.1350926626
 40
0.1501967046
 40
0.1804840506
 40
0.2108978877
 40
0.2414513551
 40
0.2721543675
 40
0.3030134354
 40
0.3340315696
 40
0.3652082675
 40
0.3965395775
 40
0.4280182343
 40
0.4596338596
 40
0.4913732188
 40
0.5232205284
 40
0.5551578047
 40
0.5871652463
 40
0.6192216448
 40
0.6513048151
 40
0.6833920402
 40
0.7154605222
 40
0.747487836
 40
0.7794523759
 40
0.8113337934
 40
0.8431134117
 40
0.8747746318
 40
0.9063032512
 40
0.9376879208
 40
0.9533258
 40
0.9689252634
 40
1.0
 40
1.0
 40
1.0
 40
1.0
 10
8.9265178921
 20
6.4148073295
 30
0.0
 10
8.9301510312
 20
6.4183166511
 30
0.0
 10
8.9358148987
 20
6.4233679842
 30
0.0
 10
8.9437470175
 20
6.4296355885
 30
0.0
 10
8.9519317344
 20
6.4355913073
 30
0.0
 10
8.9626114442
 20
6.442430402
 30
0.0
 10
8.9738104079
 20
6.4484126306
 30
0.0
 10
8.9830466507
 20
6.4526683939
 30
0.0
 10
8.9924736872
 20
6.4565728374
 30
0.0
 10
9.0045681474
 20
6.4607712177
 30
0.0
 10
9.0194727365
 20
6.4646840028
 30
0.0
 10
9.034702546
 20
6.4674559099
 30
0.0
 10
9.0501731745
 20
6.4690716466
 30
0.0
 10
9.0657996387
 20
6.4695225903
 30
0.0
 10
9.0814959572
 20
6.468806446
 30
0.0
 10
9.0971758595
 20
6.4669273505
 30
0.0
 10
9.1127531915
 20
6.4638958134
 30
0.0
 10
9.1281424006
 20
6.4597286592
 30
0.0
 10
9.1432589946
 20
6.454448928
 30
0.0
 10
9.1580200004
 20
6.4480857452
 30
0.0
 10
9.1723444123
 20
6.4406741594
 30
0.0
 10
9.186153631
 20
6.4322549495
 30
0.0
 10
9.1993718885
 20
6.4228744006
 30
0.0
 10
9.2119266591
 20
6.4125840515
 30
0.0
 10
9.2237490521
 20
6.4014404133
 30
0.0
 10
9.2347741861
 20
6.3895046624
 30
0.0
 10
9.2449415409
 20
6.3768423075
 30
0.0
 10
9.2541952866
 20
6.363522833
 30
0.0
 10
9.2624845875
 20
6.3496193266
 30
0.0
 10
9.2697638788
 20
6.3352080656
 30
0.0
 10
9.2759931141
 20
6.3203681644
 30
0.0
 10
9.2811379972
 20
6.305180925
 30
0.0
 10
9.2851701062
 20
6.2897302116
 30
0.0
 10
9.2875874451
 20
6.2766881344
 30
0.0
 10
9.2889435005
 20
6.2662089835
 30
0.0
 10
9.289911284
 20
6.2557398603
 30
0.0
 10
9.2902043195
 20
6.2478619155
 30
0.0
 10
9.2902043195
 20
6.2426195743
 30
0.0
  0
SPLINE
  5
37E
100
AcDbEntity
  8
0
100
AcDbSpline
 62
7
  6
CONTINUOUS
 70
0
 71
3
 72
42
 73
38
 74
0
 42
0.0000001
 43
0.0000001
 44
0.0000000001
 40
0.0
 40
0.0
 40
0.0
 40
0.0
 40
0.0299419634
 40
0.0449235299
 40
0.0599142017
 40
0.0899287029
 40
0.1200139772
 40
0.1350926626
 40
0.1501967046
 40
0.1804840506
 40
0.2108978877
 40
0.2414513551
 40
0.2721543675
 40
0.3030134354
 40
0.3340315696
 40
0.3652082675
 40
0.3965395775
 40
0.4280182343
 40
0.4596338596
 40
0.4913732188
 40
0.5232205284
 40
0.5551578047
 40
0.5871652463
 40
0.6192216448
 40
0.6513048151
 40
0.6833920402
 40
0.7154605222
 40
0.747487836
 40
0.7794523759
 40
0.8113337934
 40
0.8431134117
 40
0.8747746318
 40
0.9063032512
 40
0.9376879208
 40
0.9533258
 40
0.9689252634
 40
1.0
 40
1.0
 40
1.0
 40
1.0
 10
8.9265178921
 20
9.9153225423
 30
0.0
 10
8.9301510312
 20
9.9188318639
 30
0.0
 10
8.9358148987
 20
9.923883197
 30
0.0
 10
8.9437470175
 20
9.9301508014
 30
0.0
 10
8.9519317344
 20
9.9361065202
 30
0.0
 10
8.9626114442
 20
9.9429456148
 30
0.0
 10
8.9738104079
 20
9.9489278434
 30
0.0
 10
8.9830466507
 20
9.9531836067
 30
0.0
 10
8.9924736872
 20
9.9570880503
 30
0.0
 10
9.0045681474
 20
9.9612864305
 30
0.0
 10
9.0194727365
 20
9.9651992156
 30
0.0
 10
9.034702546
 20
9.9679711227
 30
0.0
 10
9.0501731745
 20
9.9695868594
 30
0.0
 10
9.0657996387
 20
9.9700378031
 30
0.0
 10
9.0814959572
 20
9.9693216588
 30
0.0
 10
9.0971758595
 20
9.9674425633
 30
0.0
 10
9.1127531915
 20
9.9644110262
 30
0.0
 10
9.1281424006
 20
9.9602438721
 30
0.0
 10
9.1432589946
 20
9.9549641408
 30
0.0
 10
9.1580200004
 20
9.948600958
 30
0.0
 10
9.1723444123
 20
9.9411893722
 30
0.0
 10
9.186153631
 20
9.9327701623
 30
0.0
 10
9.1993718885
 20
9.9233896135
 30
0.0
 10
9.2119266591
 20
9.9130992643
 30
0.0
 10
9.2237490521
 20
9.9019556261
 30
0.0
 10
9.2347741861
 20
9.8900198752
 30
0.0
 10
9.2449415409
 20
9.8773575203
 30
0.0
 10
9.2541952866
 20
9.8640380459
 30
0.0
 10
9.2624845875
 20
9.8501345394
 30
0.0
 10
9.2697638788
 20
9.8357232784
 30
0.0
 10
9.2759931141
 20
9.8208833772
 30
0.0
 10
9.2811379972
 20
9.8056961379
 30
0.0
 10
9.2851701062
 20
9.7902454244
 30
0.0
 10
9.2875874451
 20
9.7772033472
 30
0.0
 10
9.2889435005
 20
9.7667241963
 30
0.0
 10
9.289911284
 20
9.7562550731
 30
0.0
 10
9.2902043195
 20
9.7483771284
 30
0.0
 10
9.2902043195
 20
9.7431347871
 30
0.0
  0
SPLINE
  5
37F
100
AcDbEntity
  8
0
100
AcDbSpline
 62
7
  6
CONTINUOUS
 70
0
 71
3
 72
42
 73
38
 74
0
 42
0.0000001
 43
0.0000001
 44
0.0000000001
 40
0.0
 40
0.0
 40
0.0
 40
0.0
 40
0.0299419634
 40
0.0449235299
 40
0.0599142017
 40
0.0899287029
 40
0.1200139772
 40
0.1350926626
 40
0.1501967046
 40
0.1804840506
 40
0.2108978877
 40
0.2414513551
 40
0.2721543675
 40
0.3030134354
 40
0.3340315696
 40
0.3652082675
 40
0.3965395775
 40
0.4280182343
 40
0.4596338596
 40
0.4913732188
 40
0.5232205284
 40
0.5551578047
 40
0.5871652463
 40
0.6192216448
 40
0.6513048151
 40
0.6833920402
 40
0.7154605222
 40
0.747487836
 40
0.7794523759
 40
0.8113337934
 40
0.8431134117
 40
0.8747746318
 40
0.9063032512
 40
0.9376879208
 40
0.9533258
 40
0.9689252634
 40
1.0
 40
1.0
 40
1.0
 40
1.0
 10
11.9440703934
 20
9.7060545656
 30
0.0
 10
11.9477035326
 20
9.7095638871
 30
0.0
 10
11.9533674
 20
9.7146152203
 30
0.0
 10
11.9612995188
 20
9.7208828246
 30
0.0
 10
11.9694842358
 20
9.7268385434
 30
0.0
 10
11.9801639455
 20
9.7336776381
 30
0.0
 10
11.9913629093
 20
9.7396598666
 30
0.0
 10
12.0005991521
 20
9.74391563
 30
0.0
 10
12.0100261885
 20
9.7478200735
 30
0.0
 10
12.0221206488
 20
9.7520184538
 30
0.0
 10
12.0370252378
 20
9.7559312389
 30
0.0
 10
12.0522550473
 20
9.7587031459
 30
0.0
 10
12.0677256759
 20
9.7603188826
 30
0.0
 10
12.08335214
 20
9.7607698263
 30
0.0
 10
12.0990484585
 20
9.760053682
 30
0.0
 10
12.1147283608
 20
9.7581745866
 30
0.0
 10
12.1303056929
 20
9.7551430495
 30
0.0
 10
12.145694902
 20
9.7509758953
 30
0.0
 10
12.160811496
 20
9.7456961641
 30
0.0
 10
12.1755725017
 20
9.7393329812
 30
0.0
 10
12.1898969137
 20
9.7319213955
 30
0.0
 10
12.2037061323
 20
9.7235021856
 30
0.0
 10
12.2169243899
 20
9.7141216367
 30
0.0
 10
12.2294791604
 20
9.7038312876
 30
0.0
 10
12.2413015535
 20
9.6926876494
 30
0.0
 10
12.2523266875
 20
9.6807518984
 30
0.0
 10
12.2624940423
 20
9.6680895435
 30
0.0
 10
12.271747788
 20
9.6547700691
 30
0.0
 10
12.2800370888
 20
9.6408665626
 30
0.0
 10
12.2873163801
 20
9.6264553016
 30
0.0
 10
12.2935456155
 20
9.6116154004
 30
0.0
 10
12.2986904986
 20
9.5964281611
 30
0.0
 10
12.3027226075
 20
9.5809774477
 30
0.0
 10
12.3051399464
 20
9.5679353705
 30
0.0
 10
12.3064960018
 20
9.5574562195
 30
0.0
 10
12.3074637853
 20
9.5469870963
 30
0.0
 10
12.3077568208
 20
9.5391091516
 30
0.0
 10
12.3077568208
 20
9.5338668103
 30
0.0
  0
SPLINE
  5
380
100
AcDbEntity
  8
0
100
AcDbSpline
 62
7
  6
CONTINUOUS
 70
0
 71
3
 72
11
 73
7
 74
0
 42
0.0000001
 43
0.0000001
 44
0.0000000001
 40
0.0
 40
0.0
 40
0.0
 40
0.0
 40
0.2552692216
 40
0.5060519912
 40
0.7537940265
 40
1.0
 40
1.0
 40
1.0
 40
1.0
 10
12.1163130271
 20
10.6391463502
 30
0.0
 10
12.116633281
 20
10.6381720372
 30
0.0
 10
12.1171971144
 20
10.6362162146
 30
0.0
 10
12.1178080615
 20
10.63324683
 30
0.0
 10
12.1181749198
 20
10.6302741231
 30
0.0
 10
12.1182565291
 20
10.6282886402
 30
0.0
 10
12.1182565313
 20
10.6272994571
 30
0.0
  0
SPLINE
  5
381
100
AcDbEntity
  8
0
100
AcDbSpline
 62
7
  6
CONTINUOUS
 70
0
 71
3
 72
15
 73
11
 74
0
 42
0.0000001
 43
0.0000001
 44
0.0000000001
 40
0.0
 40
0.0
 40
0.0
 40
0.0
 40
0.1273482936
 40
0.2538605366
 40
0.3795879111
 40
0.5046050899
 40
0.6290174366
 40
0.7529533732
 40
0.8765605776
 40
1.0
 40
1.0
 40
1.0
 40
1.0
 10
11.6922657223
 20
6.9874052082
 30
0.0
 10
11.6922657223
 20
6.9908699835
 30
0.0
 10
11.6925965372
 20
6.9977815779
 30
0.0
 10
11.6940926241
 20
7.0080160394
 30
0.0
 10
11.6965733854
 20
7.0179933461
 30
0.0
 10
11.700016418
 20
7.0276201903
 30
0.0
 10
11.7043901161
 20
7.0368077955
 30
0.0
 10
11.7096546245
 20
7.0454713228
 30
0.0
 10
11.7157604546
 20
7.0535295833
 30
0.0
 10
11.7203578231
 20
7.0584520379
 30
0.0
 10
11.7227733968
 20
7.0607852827
 30
0.0
  0
SPLINE
  5
382
100
AcDbEntity
  8
0
100
AcDbSpline
 62
7
  6
CONTINUOUS
 70
0
 71
3
 72
23
 73
19
 74
0
 42
0.0000001
 43
0.0000001
 44
0.0000000001
 40
0.0
 40
0.0
 40
0.0
 40
0.0
 40
0.0614488807
 40
0.1232974294
 40
0.1855193177
 40
0.2480712672
 40
0.3108995318
 40
0.3739401513
 40
0.4371217414
 40
0.5003679843
 40
0.5636003151
 40
0.6267406524
 40
0.6897141172
 40
0.7524516838
 40
0.8148926113
 40
0.8769871451
 40
0.9386966623
 40
1.0
 40
1.0
 40
1.0
 40
1.0
 10
11.8009323842
 20
6.8712024877
 30
0.0
 10
11.7973656911
 20
6.8714498387
 30
0.0
 10
11.7902287462
 20
6.8722976371
 30
0.0
 10
11.7796671543
 20
6.8746002698
 30
0.0
 10
11.769310281
 20
6.8779157818
 30
0.0
 10
11.7592588738
 20
6.8822120515
 30
0.0
 10
11.749609057
 20
6.8874475447
 30
0.0
 10
11.7404535066
 20
6.8935718443
 30
0.0
 10
11.7318800238
 20
6.9005260268
 30
0.0
 10
11.7239708643
 20
6.9082432649
 30
0.0
 10
11.7168019328
 20
6.9166494637
 30
0.0
 10
11.7104420788
 20
6.9256639585
 30
0.0
 10
11.7049524462
 20
6.9352002638
 30
0.0
 10
11.7003858928
 20
6.9451669188
 30
0.0
 10
11.6967864328
 20
6.9554681937
 30
0.0
 10
11.6941889582
 20
6.9660055416
 30
0.0
 10
11.6926186258
 20
6.9766764428
 30
0.0
 10
11.6922657223
 20
6.9838384165
 30
0.0
 10
11.6922657223
 20
6.9874052082
 30
0.0
  0
SPLINE
  5
383
100
AcDbEntity
  8
0
100
AcDbSpline
 62
7
  6
CONTINUOUS
 70
0
 71
3
 72
39
 73
35
 74
0
 42
0.0000001
 43
0.0000001
 44
0.0000000001
 40
0.0
 40
0.0
 40
0.0
 40
0.0
 40
0.0314026163
 40
0.0630094802
 40
0.0948071156
 40
0.1267734443
 40
0.1588809719
 40
0.1910970226
 40
0.2233851133
 40
0.2557062446
 40
0.2880202668
 40
0.3202872758
 40
0.3524690062
 40
0.3845301827
 40
0.4164397934
 40
0.4481722512
 40
0.4797084083
 40
0.5110363787
 40
0.5421521198
 40
0.5730597435
 40
0.6037715204
 40
0.6343075558
 40
0.6646951112
 40
0.69496759
 40
0.7251632189
 40
0.7553234785
 40
0.7854913552
 40
0.8157095102
 40
0.8460184684
 40
0.8764549241
 40
0.9070502294
 40
0.9378293436
 40
0.9688091107
 40
1.0
 40
1.0
 40
1.0
 40
1.0
 10
9.7422576392
 20
8.9989314396
 30
0.0
 10
9.7465693753
 20
8.9986324197
 30
0.0
 10
9.7551971496
 20
8.9976075241
 30
0.0
 10
9.7679649405
 20
8.9948238993
 30
0.0
 10
9.7804852495
 20
8.9908158148
 30
0.0
 10
9.7926362862
 20
8.985622109
 30
0.0
 10
9.8043018387
 20
8.9792929698
 30
0.0
 10
9.8153698765
 20
8.971889365
 30
0.0
 10
9.8257342686
 20
8.9634825364
 30
0.0
 10
9.8352955718
 20
8.9541532612
 30
0.0
 10
9.8439620192
 20
8.9439911047
 30
0.0
 10
9.8516503613
 20
8.9330935725
 30
0.0
 10
9.858286704
 20
8.9215652277
 30
0.0
 10
9.8638071754
 20
8.9095166734
 30
0.0
 10
9.8681585235
 20
8.8970635151
 30
0.0
 10
9.871298624
 20
8.884325281
 30
0.0
 10
9.8731969111
 20
8.8714243124
 30
0.0
 10
9.8738347214
 20
8.8584846146
 30
0.0
 10
9.8732054434
 20
8.8456306807
 30
0.0
 10
9.8713146277
 20
8.8329863219
 30
0.0
 10
9.8681799671
 20
8.8206734935
 30
0.0
 10
9.8638312341
 20
8.8088111042
 30
0.0
 10
9.8583100108
 20
8.7975138455
 30
0.0
 10
9.8516693102
 20
8.7868910593
 30
0.0
 10
9.8439730971
 20
8.7770456334
 30
0.0
 10
9.835295688
 20
8.768072946
 30
0.0
 10
9.8257210499
 20
8.7600598449
 30
0.0
 10
9.8153418955
 20
8.7530837994
 30
0.0
 10
9.8042587559
 20
8.7472121175
 30
0.0
 10
9.7925789008
 20
8.7425013133
 30
0.0
 10
9.7804154322
 20
8.738996487
 30
0.0
 10
9.7678855291
 20
8.7367310901
 30
0.0
 10
9.755111637
 20
8.73572624
 30
0.0
 10
9.7465403041
 20
8.7359025955
 30
0.0
 10
9.7422576392
 20
8.7361995993
 30
0.0
  0
SPLINE
  5
384
100
AcDbEntity
  8
0
100
AcDbSpline
 62
7
  6
CONTINUOUS
 70
0
 71
3
 72
39
 73
35
 74
0
 42
0.0000001
 43
0.0000001
 44
0.0000000001
 40
0.0
 40
0.0
 40
0.0
 40
0.0
 40
0.0314026163
 40
0.0630094802
 40
0.0948071156
 40
0.1267734443
 40
0.1588809719
 40
0.1910970226
 40
0.2233851133
 40
0.2557062446
 40
0.2880202668
 40
0.3202872758
 40
0.3524690062
 40
0.3845301827
 40
0.4164397934
 40
0.4481722512
 40
0.4797084083
 40
0.5110363787
 40
0.5421521198
 40
0.5730597435
 40
0.6037715204
 40
0.6343075558
 40
0.6646951112
 40
0.69496759
 40
0.7251632189
 40
0.7553234785
 40
0.7854913552
 40
0.8157095102
 40
0.8460184684
 40
0.8764549241
 40
0.9070502294
 40
0.9378293436
 40
0.9688091107
 40
1.0
 40
1.0
 40
1.0
 40
1.0
 10
9.7422576392
 20
8.7361995993
 30
0.0
 10
9.7379459031
 20
8.7364986192
 30
0.0
 10
9.7293181288
 20
8.7375235148
 30
0.0
 10
9.7165503379
 20
8.7403071396
 30
0.0
 10
9.7040300288
 20
8.7443152242
 30
0.0
 10
9.6918789922
 20
8.7495089299
 30
0.0
 10
9.6802134397
 20
8.7558380692
 30
0.0
 10
9.6691454019
 20
8.7632416739
 30
0.0
 10
9.6587810098
 20
8.7716485025
 30
0.0
 10
9.6492197066
 20
8.7809777777
 30
0.0
 10
9.6405532592
 20
8.7911399342
 30
0.0
 10
9.6328649171
 20
8.8020374664
 30
0.0
 10
9.6262285743
 20
8.8135658112
 30
0.0
 10
9.620708103
 20
8.8256143655
 30
0.0
 10
9.6163567548
 20
8.8380675238
 30
0.0
 10
9.6132166544
 20
8.8508057579
 30
0.0
 10
9.6113183673
 20
8.8637067265
 30
0.0
 10
9.610680557
 20
8.8766464243
 30
0.0
 10
9.6113098349
 20
8.8895003582
 30
0.0
 10
9.6132006507
 20
8.902144717
 30
0.0
 10
9.6163353112
 20
8.9144575454
 30
0.0
 10
9.6206840443
 20
8.9263199347
 30
0.0
 10
9.6262052676
 20
8.9376171934
 30
0.0
 10
9.6328459681
 20
8.9482399796
 30
0.0
 10
9.6405421812
 20
8.9580854055
 30
0.0
 10
9.6492195903
 20
8.9670580929
 30
0.0
 10
9.6587942285
 20
8.975071194
 30
0.0
 10
9.6691733829
 20
8.9820472395
 30
0.0
 10
9.6802565225
 20
8.9879189214
 30
0.0
 10
9.6919363776
 20
8.9926297256
 30
0.0
 10
9.7040998462
 20
8.9961345519
 30
0.0
 10
9.7166297493
 20
8.9983999488
 30
0.0
 10
9.7294036414
 20
8.9994047989
 30
0.0
 10
9.7379749743
 20
8.9992284434
 30
0.0
 10
9.7422576392
 20
8.9989314396
 30
0.0
  0
SPLINE
  5
385
100
AcDbEntity
  8
0
100
AcDbSpline
 62
7
  6
CONTINUOUS
 70
0
 71
3
 72
39
 73
35
 74
0
 42
0.0000001
 43
0.0000001
 44
0.0000000001
 40
0.0
 40
0.0
 40
0.0
 40
0.0
 40
0.0314026163
 40
0.0630094802
 40
0.0948071156
 40
0.1267734443
 40
0.1588809719
 40
0.1910970226
 40
0.2233851133
 40
0.2557062446
 40
0.2880202668
 40
0.3202872758
 40
0.3524690062
 40
0.3845301827
 40
0.4164397934
 40
0.4481722512
 40
0.4797084083
 40
0.5110363787
 40
0.5421521198
 40
0.5730597435
 40
0.6037715204
 40
0.6343075558
 40
0.6646951112
 40
0.69496759
 40
0.7251632189
 40
0.7553234785
 40
0.7854913552
 40
0.8157095102
 40
0.8460184684
 40
0.8764549241
 40
0.9070502294
 40
0.9378293436
 40
0.9688091107
 40
1.0
 40
1.0
 40
1.0
 40
1.0
 10
11.7948501417
 20
8.8565836661
 30
0.0
 10
11.7991618777
 20
8.8562846462
 30
0.0
 10
11.8077896521
 20
8.8552597505
 30
0.0
 10
11.820557443
 20
8.8524761257
 30
0.0
 10
11.833077752
 20
8.8484680412
 30
0.0
 10
11.8452287887
 20
8.8432743355
 30
0.0
 10
11.8568943412
 20
8.8369451962
 30
0.0
 10
11.8679623789
 20
8.8295415915
 30
0.0
 10
11.8783267711
 20
8.8211347629
 30
0.0
 10
11.8878880743
 20
8.8118054877
 30
0.0
 10
11.8965545217
 20
8.8016433312
 30
0.0
 10
11.9042428638
 20
8.790745799
 30
0.0
 10
11.9108792065
 20
8.7792174542
 30
0.0
 10
11.9163996778
 20
8.7671688999
 30
0.0
 10
11.920751026
 20
8.7547157416
 30
0.0
 10
11.9238911265
 20
8.7419775075
 30
0.0
 10
11.9257894136
 20
8.7290765389
 30
0.0
 10
11.9264272239
 20
8.7161368411
 30
0.0
 10
11.9257979459
 20
8.7032829072
 30
0.0
 10
11.9239071302
 20
8.6906385484
 30
0.0
 10
11.9207724696
 20
8.67832572
 30
0.0
 10
11.9164237365
 20
8.6664633306
 30
0.0
 10
11.9109025133
 20
8.655166072
 30
0.0
 10
11.9042618127
 20
8.6445432858
 30
0.0
 10
11.8965655996
 20
8.6346978599
 30
0.0
 10
11.8878881905
 20
8.6257251725
 30
0.0
 10
11.8783135524
 20
8.6177120714
 30
0.0
 10
11.8679343979
 20
8.6107360259
 30
0.0
 10
11.8568512584
 20
8.604864344
 30
0.0
 10
11.8451714033
 20
8.6001535398
 30
0.0
 10
11.8330079347
 20
8.5966487135
 30
0.0
 10
11.8204780316
 20
8.5943833166
 30
0.0
 10
11.8077041395
 20
8.5933784665
 30
0.0
 10
11.7991328066
 20
8.593554822
 30
0.0
 10
11.7948501417
 20
8.5938518258
 30
0.0
  0
SPLINE
  5
386
100
AcDbEntity
  8
0
100
AcDbSpline
 62
7
  6
CONTINUOUS
 70
0
 71
3
 72
19
 73
15
 74
0
 42
0.0000001
 43
0.0000001
 44
0.0000000001
 40
0.0
 40
0.0
 40
0.0
 40
0.0
 40
0.1504611406
 40
0.2916985742
 40
0.4244193292
 40
0.4878835935
 40
0.5495802133
 40
0.6682271463
 40
0.7255606136
 40
0.7817999183
 40
0.8371467056
 40
0.8918136429
 40
0.9460222308
 40
1.0
 40
1.0
 40
1.0
 40
1.0
 10
13.1179425022
 20
8.0607914
 30
0.0
 10
13.1158660077
 20
8.0587856602
 30
0.0
 10
13.111715886
 20
8.0550223252
 30
0.0
 10
13.1052898168
 20
8.0500072558
 30
0.0
 10
13.0998620007
 20
8.0464603095
 30
0.0
 10
13.0955336548
 20
8.044058419
 30
0.0
 10
13.0913330071
 20
8.0419963303
 30
0.0
 10
13.087083171
 20
8.0403107676
 30
0.0
 10
13.0828094303
 20
8.0390423588
 30
0.0
 10
13.079649543
 20
8.0383112312
 30
0.0
 10
13.0765001713
 20
8.0377901256
 30
0.0
 10
13.0733621528
 20
8.0374792696
 30
0.0
 10
13.0702367528
 20
8.0373787916
 30
0.0
 10
13.0681603253
 20
8.0374522181
 30
0.0
 10
13.0671270954
 20
8.0375238694
 30
0.0
  0
SPLINE
  5
387
100
AcDbEntity
  8
0
100
AcDbSpline
 62
7
  6
CONTINUOUS
 70
0
 71
3
 72
39
 73
35
 74
0
 42
0.0000001
 43
0.0000001
 44
0.0000000001
 40
0.0
 40
0.0
 40
0.0
 40
0.0
 40
0.0314026163
 40
0.0630094802
 40
0.0948071156
 40
0.1267734443
 40
0.1588809719
 40
0.1910970226
 40
0.2233851133
 40
0.2557062446
 40
0.2880202668
 40
0.3202872758
 40
0.3524690062
 40
0.3845301827
 40
0.4164397934
 40
0.4481722512
 40
0.4797084083
 40
0.5110363787
 40
0.5421521198
 40
0.5730597435
 40
0.6037715204
 40
0.6343075558
 40
0.6646951112
 40
0.69496759
 40
0.7251632189
 40
0.7553234785
 40
0.7854913552
 40
0.8157095102
 40
0.8460184684
 40
0.8764549241
 40
0.9070502294
 40
0.9378293436
 40
0.9688091107
 40
1.0
 40
1.0
 40
1.0
 40
1.0
 10
11.7948501417
 20
8.5938518258
 30
0.0
 10
11.7905384056
 20
8.5941508457
 30
0.0
 10
11.7819106313
 20
8.5951757413
 30
0.0
 10
11.7691428404
 20
8.5979593661
 30
0.0
 10
11.7566225313
 20
8.6019674506
 30
0.0
 10
11.7444714947
 20
8.6071611563
 30
0.0
 10
11.7328059422
 20
8.6134902956
 30
0.0
 10
11.7217379044
 20
8.6208939004
 30
0.0
 10
11.7113735122
 20
8.629300729
 30
0.0
 10
11.7018122091
 20
8.6386300041
 30
0.0
 10
11.6931457616
 20
8.6487921607
 30
0.0
 10
11.6854574195
 20
8.6596896928
 30
0.0
 10
11.6788210768
 20
8.6712180377
 30
0.0
 10
11.6733006055
 20
8.683266592
 30
0.0
 10
11.6689492573
 20
8.6957197503
 30
0.0
 10
11.6658091569
 20
8.7084579843
 30
0.0
 10
11.6639108698
 20
8.721358953
 30
0.0
 10
11.6632730594
 20
8.7342986508
 30
0.0
 10
11.6639023374
 20
8.7471525847
 30
0.0
 10
11.6657931531
 20
8.7597969435
 30
0.0
 10
11.6689278137
 20
8.7721097719
 30
0.0
 10
11.6732765468
 20
8.7839721612
 30
0.0
 10
11.6787977701
 20
8.7952694199
 30
0.0
 10
11.6854384706
 20
8.8058922061
 30
0.0
 10
11.6931346837
 20
8.815737632
 30
0.0
 10
11.7018120928
 20
8.8247103194
 30
0.0
 10
11.711386731
 20
8.8327234204
 30
0.0
 10
11.7217658854
 20
8.839699466
 30
0.0
 10
11.732849025
 20
8.8455711479
 30
0.0
 10
11.7445288801
 20
8.8502819521
 30
0.0
 10
11.7566923486
 20
8.8537867784
 30
0.0
 10
11.7692222517
 20
8.8560521753
 30
0.0
 10
11.7819961439
 20
8.8570570253
 30
0.0
 10
11.7905674768
 20
8.8568806699
 30
0.0
 10
11.7948501417
 20
8.8565836661
 30
0.0
  0
SPLINE
  5
388
100
AcDbEntity
  8
0
100
AcDbSpline
 62
7
  6
CONTINUOUS
 70
0
 71
3
 72
39
 73
35
 74
0
 42
0.0000001
 43
0.0000001
 44
0.0000000001
 40
0.0
 40
0.0
 40
0.0
 40
0.0
 40
0.0314026163
 40
0.0630094802
 40
0.0948071156
 40
0.1267734443
 40
0.1588809719
 40
0.1910970226
 40
0.2233851133
 40
0.2557062446
 40
0.2880202668
 40
0.3202872758
 40
0.3524690062
 40
0.3845301827
 40
0.4164397934
 40
0.4481722512
 40
0.4797084083
 40
0.5110363787
 40
0.5421521198
 40
0.5730597435
 40
0.6037715204
 40
0.6343075558
 40
0.6646951112
 40
0.69496759
 40
0.7251632189
 40
0.7553234785
 40
0.7854913552
 40
0.8157095102
 40
0.8460184684
 40
0.8764549241
 40
0.9070502294
 40
0.9378293436
 40
0.9688091107
 40
1.0
 40
1.0
 40
1.0
 40
1.0
 10
9.7422576392
 20
7.2477078478
 30
0.0
 10
9.7465693753
 20
7.2474088279
 30
0.0
 10
9.7551971496
 20
7.2463839322
 30
0.0
 10
9.7679649405
 20
7.2436003074
 30
0.0
 10
9.7804852495
 20
7.2395922229
 30
0.0
 10
9.7926362862
 20
7.2343985172
 30
0.0
 10
9.8043018387
 20
7.2280693779
 30
0.0
 10
9.8153698765
 20
7.2206657732
 30
0.0
 10
9.8257342686
 20
7.2122589446
 30
0.0
 10
9.8352955718
 20
7.2029296694
 30
0.0
 10
9.8439620192
 20
7.1927675129
 30
0.0
 10
9.8516503613
 20
7.1818699807
 30
0.0
 10
9.858286704
 20
7.1703416359
 30
0.0
 10
9.8638071754
 20
7.1582930816
 30
0.0
 10
9.8681585235
 20
7.1458399233
 30
0.0
 10
9.871298624
 20
7.1331016892
 30
0.0
 10
9.8731969111
 20
7.1202007206
 30
0.0
 10
9.8738347214
 20
7.1072610228
 30
0.0
 10
9.8732054434
 20
7.0944070889
 30
0.0
 10
9.8713146277
 20
7.0817627301
 30
0.0
 10
9.8681799671
 20
7.0694499017
 30
0.0
 10
9.8638312341
 20
7.0575875123
 30
0.0
 10
9.8583100108
 20
7.0462902537
 30
0.0
 10
9.8516693102
 20
7.0356674675
 30
0.0
 10
9.8439730971
 20
7.0258220416
 30
0.0
 10
9.835295688
 20
7.0168493542
 30
0.0
 10
9.8257210499
 20
7.0088362531
 30
0.0
 10
9.8153418955
 20
7.0018602076
 30
0.0
 10
9.8042587559
 20
6.9959885257
 30
0.0
 10
9.7925789008
 20
6.9912777215
 30
0.0
 10
9.7804154322
 20
6.9877728952
 30
0.0
 10
9.7678855291
 20
6.9855074983
 30
0.0
 10
9.755111637
 20
6.9845026482
 30
0.0
 10
9.7465403041
 20
6.9846790037
 30
0.0
 10
9.7422576392
 20
6.9849760075
 30
0.0
  0
SPLINE
  5
389
100
AcDbEntity
  8
0
100
AcDbSpline
 62
7
  6
CONTINUOUS
 70
0
 71
3
 72
39
 73
35
 74
0
 42
0.0000001
 43
0.0000001
 44
0.0000000001
 40
0.0
 40
0.0
 40
0.0
 40
0.0
 40
0.0314026163
 40
0.0630094802
 40
0.0948071156
 40
0.1267734443
 40
0.1588809719
 40
0.1910970226
 40
0.2233851133
 40
0.2557062446
 40
0.2880202668
 40
0.3202872758
 40
0.3524690062
 40
0.3845301827
 40
0.4164397934
 40
0.4481722512
 40
0.4797084083
 40
0.5110363787
 40
0.5421521198
 40
0.5730597435
 40
0.6037715204
 40
0.6343075558
 40
0.6646951112
 40
0.69496759
 40
0.7251632189
 40
0.7553234785
 40
0.7854913552
 40
0.8157095102
 40
0.8460184684
 40
0.8764549241
 40
0.9070502294
 40
0.9378293436
 40
0.9688091107
 40
1.0
 40
1.0
 40
1.0
 40
1.0
 10
9.7422576392
 20
6.9849760075
 30
0.0
 10
9.7379459031
 20
6.9852750274
 30
0.0
 10
9.7293181288
 20
6.986299923
 30
0.0
 10
9.7165503379
 20
6.9890835478
 30
0.0
 10
9.7040300288
 20
6.9930916323
 30
0.0
 10
9.6918789922
 20
6.998285338
 30
0.0
 10
9.6802134397
 20
7.0046144773
 30
0.0
 10
9.6691454019
 20
7.0120180821
 30
0.0
 10
9.6587810098
 20
7.0204249107
 30
0.0
 10
9.6492197066
 20
7.0297541858
 30
0.0
 10
9.6405532592
 20
7.0399163424
 30
0.0
 10
9.6328649171
 20
7.0508138745
 30
0.0
 10
9.6262285743
 20
7.0623422194
 30
0.0
 10
9.620708103
 20
7.0743907737
 30
0.0
 10
9.6163567548
 20
7.086843932
 30
0.0
 10
9.6132166544
 20
7.0995821661
 30
0.0
 10
9.6113183673
 20
7.1124831347
 30
0.0
 10
9.610680557
 20
7.1254228325
 30
0.0
 10
9.6113098349
 20
7.1382767664
 30
0.0
 10
9.6132006507
 20
7.1509211252
 30
0.0
 10
9.6163353112
 20
7.1632339536
 30
0.0
 10
9.6206840443
 20
7.1750963429
 30
0.0
 10
9.6262052676
 20
7.1863936016
 30
0.0
 10
9.6328459681
 20
7.1970163878
 30
0.0
 10
9.6405421812
 20
7.2068618137
 30
0.0
 10
9.6492195903
 20
7.2158345011
 30
0.0
 10
9.6587942285
 20
7.2238476021
 30
0.0
 10
9.6691733829
 20
7.2308236477
 30
0.0
 10
9.6802565225
 20
7.2366953296
 30
0.0
 10
9.6919363776
 20
7.2414061338
 30
0.0
 10
9.7040998462
 20
7.2449109601
 30
0.0
 10
9.7166297493
 20
7.247176357
 30
0.0
 10
9.7294036414
 20
7.248181207
 30
0.0
 10
9.7379749743
 20
7.2480048516
 30
0.0
 10
9.7422576392
 20
7.2477078478
 30
0.0
  0
SPLINE
  5
38A
100
AcDbEntity
  8
0
100
AcDbSpline
 62
7
  6
CONTINUOUS
 70
0
 71
3
 72
23
 73
19
 74
0
 42
0.0000001
 43
0.0000001
 44
0.0000000001
 40
0.0
 40
0.0
 40
0.0
 40
0.0
 40
0.0749622956
 40
0.1455687508
 40
0.2121601675
 40
0.2751635748
 40
0.33509855
 40
0.3925837401
 40
0.4483299218
 40
0.5031241966
 40
0.5577987316
 40
0.6131918565
 40
0.6701072336
 40
0.7292787372
 40
0.7913521562
 40
0.8568780091
 40
0.9263100847
 40
1.0
 40
1.0
 40
1.0
 40
1.0
 10
10.0102911075
 20
10.6979119054
 30
0.0
 10
10.0094825693
 20
10.6986643333
 30
0.0
 10
10.0079573211
 20
10.7001749708
 30
0.0
 10
10.0058992233
 20
10.7025317102
 30
0.0
 10
10.0041442773
 20
10.7049071838
 30
0.0
 10
10.0026949453
 20
10.7072992022
 30
0.0
 10
10.0015538098
 20
10.7097057608
 30
0.0
 10
10.0007232594
 20
10.7121243069
 30
0.0
 10
10.0002058116
 20
10.7145517958
 30
0.0
 10
10.0000031204
 20
10.7169843383
 30
0.0
 10
10.0001161574
 20
10.7194175318
 30
0.0
 10
10.0005443088
 20
10.7218468861
 30
0.0
 10
10.0012861644
 20
10.7242683122
 30
0.0
 10
10.0023392796
 20
10.7266785455
 30
0.0
 10
10.0037013016
 20
10.7290749174
 30
0.0
 10
10.0053697125
 20
10.731455361
 30
0.0
 10
10.0073419543
 20
10.7338175713
 30
0.0
 10
10.0088121238
 20
10.7353321534
 30
0.0
 10
10.009593044
 20
10.7360864645
 30
0.0
  0
SPLINE
  5
38B
100
AcDbEntity
  8
0
100
AcDbSpline
 62
7
  6
CONTINUOUS
 70
0
 71
3
 72
39
 73
35
 74
0
 42
0.0000001
 43
0.0000001
 44
0.0000000001
 40
0.0
 40
0.0
 40
0.0
 40
0.0
 40
0.0314026163
 40
0.0630094802
 40
0.0948071156
 40
0.1267734443
 40
0.1588809719
 40
0.1910970226
 40
0.2233851133
 40
0.2557062446
 40
0.2880202668
 40
0.3202872758
 40
0.3524690062
 40
0.3845301827
 40
0.4164397934
 40
0.4481722512
 40
0.4797084083
 40
0.5110363787
 40
0.5421521198
 40
0.5730597435
 40
0.6037715204
 40
0.6343075558
 40
0.6646951112
 40
0.69496759
 40
0.7251632189
 40
0.7553234785
 40
0.7854913552
 40
0.8157095102
 40
0.8460184684
 40
0.8764549241
 40
0.9070502294
 40
0.9378293436
 40
0.9688091107
 40
1.0
 40
1.0
 40
1.0
 40
1.0
 10
11.7948501417
 20
7.1053600743
 30
0.0
 10
11.7991618777
 20
7.1050610544
 30
0.0
 10
11.8077896521
 20
7.1040361587
 30
0.0
 10
11.820557443
 20
7.1012525339
 30
0.0
 10
11.833077752
 20
7.0972444494
 30
0.0
 10
11.8452287887
 20
7.0920507437
 30
0.0
 10
11.8568943412
 20
7.0857216044
 30
0.0
 10
11.8679623789
 20
7.0783179996
 30
0.0
 10
11.8783267711
 20
7.069911171
 30
0.0
 10
11.8878880743
 20
7.0605818959
 30
0.0
 10
11.8965545217
 20
7.0504197393
 30
0.0
 10
11.9042428638
 20
7.0395222072
 30
0.0
 10
11.9108792065
 20
7.0279938623
 30
0.0
 10
11.9163996778
 20
7.015945308
 30
0.0
 10
11.920751026
 20
7.0034921498
 30
0.0
 10
11.9238911265
 20
6.9907539157
 30
0.0
 10
11.9257894136
 20
6.977852947
 30
0.0
 10
11.9264272239
 20
6.9649132493
 30
0.0
 10
11.9257979459
 20
6.9520593154
 30
0.0
 10
11.9239071302
 20
6.9394149566
 30
0.0
 10
11.9207724696
 20
6.9271021282
 30
0.0
 10
11.9164237365
 20
6.9152397388
 30
0.0
 10
11.9109025133
 20
6.9039424802
 30
0.0
 10
11.9042618127
 20
6.893319694
 30
0.0
 10
11.8965655996
 20
6.8834742681
 30
0.0
 10
11.8878881905
 20
6.8745015807
 30
0.0
 10
11.8783135524
 20
6.8664884796
 30
0.0
 10
11.8679343979
 20
6.8595124341
 30
0.0
 10
11.8568512584
 20
6.8536407522
 30
0.0
 10
11.8451714033
 20
6.8489299479
 30
0.0
 10
11.8330079347
 20
6.8454251217
 30
0.0
 10
11.8204780316
 20
6.8431597248
 30
0.0
 10
11.8077041395
 20
6.8421548747
 30
0.0
 10
11.7991328066
 20
6.8423312301
 30
0.0
 10
11.7948501417
 20
6.8426282339
 30
0.0
  0
SPLINE
  5
38C
100
AcDbEntity
  8
0
100
AcDbSpline
 62
7
  6
CONTINUOUS
 70
0
 71
3
 72
23
 73
19
 74
0
 42
0.0000001
 43
0.0000001
 44
0.0000000001
 40
0.0
 40
0.0
 40
0.0
 40
0.0
 40
0.0749622956
 40
0.1455687508
 40
0.2121601675
 40
0.2751635748
 40
0.33509855
 40
0.3925837401
 40
0.4483299218
 40
0.5031241966
 40
0.5577987316
 40
0.6131918565
 40
0.6701072336
 40
0.7292787372
 40
0.7913521562
 40
0.8568780091
 40
0.9263100847
 40
1.0
 40
1.0
 40
1.0
 40
1.0
 10
10.79070562
 20
10.3257345553
 30
0.0
 10
10.7898970818
 20
10.3264869833
 30
0.0
 10
10.7883718336
 20
10.3279976207
 30
0.0
 10
10.7863137358
 20
10.3303543602
 30
0.0
 10
10.7845587898
 20
10.3327298337
 30
0.0
 10
10.7831094578
 20
10.3351218522
 30
0.0
 10
10.7819683223
 20
10.3375284107
 30
0.0
 10
10.7811377718
 20
10.3399469568
 30
0.0
 10
10.780620324
 20
10.3423744457
 30
0.0
 10
10.7804176328
 20
10.3448069883
 30
0.0
 10
10.7805306699
 20
10.3472401817
 30
0.0
 10
10.7809588213
 20
10.3496695361
 30
0.0
 10
10.7817006769
 20
10.3520909622
 30
0.0
 10
10.7827537921
 20
10.3545011954
 30
0.0
 10
10.784115814
 20
10.3568975674
 30
0.0
 10
10.7857842249
 20
10.3592780109
 30
0.0
 10
10.7877564668
 20
10.3616402213
 30
0.0
 10
10.7892266362
 20
10.3631548034
 30
0.0
 10
10.7900075565
 20
10.3639091145
 30
0.0
  0
SPLINE
  5
38D
100
AcDbEntity
  8
0
100
AcDbSpline
 62
7
  6
CONTINUOUS
 70
0
 71
3
 72
39
 73
35
 74
0
 42
0.0000001
 43
0.0000001
 44
0.0000000001
 40
0.0
 40
0.0
 40
0.0
 40
0.0
 40
0.0314026163
 40
0.0630094802
 40
0.0948071156
 40
0.1267734443
 40
0.1588809719
 40
0.1910970226
 40
0.2233851133
 40
0.2557062446
 40
0.2880202668
 40
0.3202872758
 40
0.3524690062
 40
0.3845301827
 40
0.4164397934
 40
0.4481722512
 40
0.4797084083
 40
0.5110363787
 40
0.5421521198
 40
0.5730597435
 40
0.6037715204
 40
0.6343075558
 40
0.6646951112
 40
0.69496759
 40
0.7251632189
 40
0.7553234785
 40
0.7854913552
 40
0.8157095102
 40
0.8460184684
 40
0.8764549241
 40
0.9070502294
 40
0.9378293436
 40
0.9688091107
 40
1.0
 40
1.0
 40
1.0
 40
1.0
 10
11.7948501417
 20
6.8426282339
 30
0.0
 10
11.7905384056
 20
6.8429272539
 30
0.0
 10
11.7819106313
 20
6.8439521495
 30
0.0
 10
11.7691428404
 20
6.8467357743
 30
0.0
 10
11.7566225313
 20
6.8507438588
 30
0.0
 10
11.7444714947
 20
6.8559375645
 30
0.0
 10
11.7328059422
 20
6.8622667038
 30
0.0
 10
11.7217379044
 20
6.8696703086
 30
0.0
 10
11.7113735122
 20
6.8780771372
 30
0.0
 10
11.7018122091
 20
6.8874064123
 30
0.0
 10
11.6931457616
 20
6.8975685689
 30
0.0
 10
11.6854574195
 20
6.908466101
 30
0.0
 10
11.6788210768
 20
6.9199944459
 30
0.0
 10
11.6733006055
 20
6.9320430002
 30
0.0
 10
11.6689492573
 20
6.9444961584
 30
0.0
 10
11.6658091569
 20
6.9572343925
 30
0.0
 10
11.6639108698
 20
6.9701353612
 30
0.0
 10
11.6632730594
 20
6.9830750589
 30
0.0
 10
11.6639023374
 20
6.9959289928
 30
0.0
 10
11.6657931531
 20
7.0085733516
 30
0.0
 10
11.6689278137
 20
7.02088618
 30
0.0
 10
11.6732765468
 20
7.0327485694
 30
0.0
 10
11.6787977701
 20
7.0440458281
 30
0.0
 10
11.6854384706
 20
7.0546686142
 30
0.0
 10
11.6931346837
 20
7.0645140402
 30
0.0
 10
11.7018120928
 20
7.0734867275
 30
0.0
 10
11.711386731
 20
7.0814998286
 30
0.0
 10
11.7217658854
 20
7.0884758742
 30
0.0
 10
11.732849025
 20
7.094347556
 30
0.0
 10
11.7445288801
 20
7.0990583603
 30
0.0
 10
11.7566923486
 20
7.1025631866
 30
0.0
 10
11.7692222517
 20
7.1048285834
 30
0.0
 10
11.7819961439
 20
7.1058334335
 30
0.0
 10
11.7905674768
 20
7.1056570781
 30
0.0
 10
11.7948501417
 20
7.1053600743
 30
0.0
  0
SPLINE
  5
38E
100
AcDbEntity
  8
0
100
AcDbSpline
 62
7
  6
CONTINUOUS
 70
0
 71
3
 72
73
 73
69
 74
0
 42
0.0000001
 43
0.0000001
 44
0.0000000001
 40
0.0
 40
0.0
 40
0.0
 40
0.0
 40
0.0085742
 40
0.0179223712
 40
0.0280748659
 40
0.0390496887
 40
0.0508534563
 40
0.0634843528
 40
0.0769337063
 40
0.0911871318
 40
0.1062254071
 40
0.1220251419
 40
0.1385593659
 40
0.155797944
 40
0.1737078655
 40
0.1922535733
 40
0.2113972489
 40
0.2310990163
 40
0.2513171048
 40
0.2720080843
 40
0.3146266377
 40
0.3585816196
 40
0.4034826385
 40
0.4489281191
 40
0.4945101589
 40
0.5398192651
 40
0.5844491039
 40
0.6280013105
 40
0.6492527226
 40
0.670091429
 40
0.69047206
 40
0.7103506619
 40
0.7296848954
 40
0.7484342455
 40
0.7665601747
 40
0.7840263305
 40
0.8007988387
 40
0.8168465801
 40
0.8321414712
 40
0.8466588627
 40
0.8603780991
 40
0.873283104
 40
0.8853631547
 40
0.8966139856
 40
0.907039309
 40
0.9119469328
 40
0.9166542751
 40
0.9211650498
 40
0.9254840139
 40
0.9296169933
 40
0.9335712025
 40
0.9373553081
 40
0.940979592
 40
0.9477950869
 40
0.9510209541
 40
0.9541479269
 40
0.9571963814
 40
0.9601885237
 40
0.9631479593
 40
0.9660991517
 40
0.9690667988
 40
0.9720751532
 40
0.9751474159
 40
0.9783051762
 40
0.9849493987
 40
0.9884738235
 40
0.992150365
 40
1.0
 40
1.0
 40
1.0
 40
1.0
 10
10.7900075565
 20
10.3639091145
 30
0.0
 10
10.7912466112
 20
10.3651059495
 30
0.0
 10
10.7939648435
 20
10.3674765286
 30
0.0
 10
10.7985083125
 20
10.3708273691
 30
0.0
 10
10.8036785087
 20
10.3741155805
 30
0.0
 10
10.8094631887
 20
10.3773337187
 30
0.0
 10
10.8158495162
 20
10.380474728
 30
0.0
 10
10.8228226716
 20
10.3835312914
 30
0.0
 10
10.8303663924
 20
10.3864961941
 30
0.0
 10
10.8384629163
 20
10.3893623165
 30
0.0
 10
10.8470930478
 20
10.3921227529
 30
0.0
 10
10.8562362287
 20
10.3947708359
 30
0.0
 10
10.8658706223
 20
10.3973001447
 30
0.0
 10
10.8759731722
 20
10.3997045297
 30
0.0
 10
10.8865196541
 20
10.4019781626
 30
0.0
 10
10.8974847482
 20
10.4041155312
 30
0.0
 10
10.9088421183
 20
10.4061114479
 30
0.0
 10
10.9205644626
 20
10.4079610506
 30
0.0
 10
10.932623611
 20
10.4096598969
 30
0.0
 10
10.9492769453
 20
10.4117388587
 30
0.0
 10
10.9707207297
 20
10.4139207104
 30
0.0
 10
10.9970680136
 20
10.4158587301
 30
0.0
 10
11.0240248062
 20
10.4171223573
 30
0.0
 10
11.0513318614
 20
10.417699273
 30
0.0
 10
11.0787267333
 20
10.417583755
 30
0.0
 10
11.1059461067
 20
10.4167769967
 30
0.0
 10
11.1327281829
 20
10.4152868212
 30
0.0
 10
11.1546433331
 20
10.4134734222
 30
0.0
 10
11.1717574014
 20
10.4116833939
 30
0.0
 10
11.1842203405
 20
10.4101919366
 30
0.0
 10
11.1963853272
 20
10.4085443138
 30
0.0
 10
11.2082231145
 20
10.4067444844
 30
0.0
 10
11.2197052236
 20
10.4047968159
 30
0.0
 10
11.2308040568
 20
10.4027060422
 30
0.0
 10
11.2414929462
 20
10.4004772381
 30
0.0
 10
11.2517462221
 20
10.3981158016
 30
0.0
 10
11.2615392918
 20
10.3956274659
 30
0.0
 10
11.2708487055
 20
10.393018279
 30
0.0
 10
11.2796522081
 20
10.3902945676
 30
0.0
 10
11.2879288023
 20
10.3874629124
 30
0.0
 10
11.2956588459
 20
10.3845301564
 30
0.0
 10
11.3028240692
 20
10.381503355
 30
0.0
 10
11.3094077665
 20
10.3783896781
 30
0.0
 10
11.3153943995
 20
10.375196469
 30
0.0
 10
11.3199625994
 20
10.3724218755
 30
0.0
 10
11.3232955888
 20
10.3701615804
 30
0.0
 10
11.3255866782
 20
10.3684854472
 30
0.0
 10
11.3277184033
 20
10.3667951327
 30
0.0
 10
11.3296895344
 20
10.3650916029
 30
0.0
 10
11.3314988735
 20
10.3633757356
 30
0.0
 10
11.3331453106
 20
10.3616485681
 30
0.0
 10
11.3346280164
 20
10.359910772
 30
0.0
 10
11.3363495009
 20
10.3576283615
 30
0.0
 10
11.337790387
 20
10.3552780988
 30
0.0
 10
11.3389012413
 20
10.3528742036
 30
0.0
 10
11.3395512195
 20
10.3510982217
 30
0.0
 10
11.3400322688
 20
10.3493177325
 30
0.0
 10
11.3403438675
 20
10.3475339122
 30
0.0
 10
11.3404856315
 20
10.3457481552
 30
0.0
 10
11.3404572607
 20
10.343961903
 30
0.0
 10
11.3402588697
 20
10.3421766293
 30
0.0
 10
11.3398907452
 20
10.3403937789
 30
0.0
 10
11.3393532494
 20
10.3386146116
 30
0.0
 10
11.3383959439
 20
10.3362088678
 30
0.0
 10
11.3371034979
 20
10.3338502992
 30
0.0
 10
11.3355248831
 20
10.3315584047
 30
0.0
 10
11.3336534506
 20
10.3291809214
 30
0.0
 10
11.3320603993
 20
10.3274919856
 30
0.0
 10
11.3309260513
 20
10.3263962894
 30
0.0
  0
SPLINE
  5
38F
100
AcDbEntity
  8
0
100
AcDbSpline
 62
7
  6
CONTINUOUS
 70
0
 71
3
 72
53
 73
49
 74
0
 42
0.0000001
 43
0.0000001
 44
0.0000000001
 40
0.0
 40
0.0
 40
0.0
 40
0.0
 40
0.0080824019
 40
0.0167313485
 40
0.025960258
 40
0.0357770839
 40
0.0461845671
 40
0.0571817215
 40
0.0687643171
 40
0.0809253425
 40
0.0936553507
 40
0.1069427236
 40
0.1207740484
 40
0.1351341006
 40
0.1500062764
 40
0.1653724183
 40
0.1975072476
 40
0.2313717335
 40
0.2667820453
 40
0.3035410721
 40
0.341440592
 40
0.3802632748
 40
0.4197845824
 40
0.4597746089
 40
0.4999998851
 40
0.5402251646
 40
0.5802152009
 40
0.619736525
 40
0.6585592306
 40
0.6964587796
 40
0.7332178414
 40
0.768628194
 40
0.802492726
 40
0.8346276064
 40
0.8499937756
 40
0.8648659796
 40
0.8792260609
 40
0.8930574163
 40
0.9063448207
 40
0.9190748589
 40
0.9312359153
 40
0.9428185511
 40
0.9538157414
 40
0.9642232256
 40
0.9740400845
 40
0.9832691598
 40
0.9919180923
 40
1.0
 40
1.0
 40
1.0
 40
1.0
 10
10.8591114227
 20
10.2948258146
 30
0.0
 10
10.8599733908
 20
10.2955381331
 30
0.0
 10
10.8618098847
 20
10.2969503112
 30
0.0
 10
10.8647828589
 20
10.2989685356
 30
0.0
 10
10.8680613538
 20
10.3009545612
 30
0.0
 10
10.8716403418
 20
10.3029053368
 30
0.0
 10
10.8755144774
 20
10.30481802
 30
0.0
 10
10.8796778405
 20
10.306689617
 30
0.0
 10
10.8841240357
 20
10.3085172619
 30
0.0
 10
10.8888462094
 20
10.3102981069
 30
0.0
 10
10.8938370541
 20
10.3120293499
 30
0.0
 10
10.8990888139
 20
10.3137082986
 30
0.0
 10
10.9045933205
 20
10.3153322764
 30
0.0
 10
10.9103419857
 20
10.3168987686
 30
0.0
 10
10.9163258494
 20
10.3184052785
 30
0.0
 10
10.924731315
 20
10.320360033
 30
0.0
 10
10.9357600673
 20
10.3226260549
 30
0.0
 10
10.949584088
 20
10.3250327576
 30
0.0
 10
10.96410204
 20
10.3271504506
 30
0.0
 10
10.9792231038
 20
10.3289656813
 30
0.0
 10
10.9948527886
 20
10.3304668743
 30
0.0
 10
11.0108932978
 20
10.3316444821
 30
0.0
 10
11.0272442342
 20
10.3324910168
 30
0.0
 10
11.0438032227
 20
10.3330010999
 30
0.0
 10
11.0604665693
 20
10.3331714915
 30
0.0
 10
11.0771299174
 20
10.3330011095
 30
0.0
 10
11.0936889104
 20
10.3324910359
 30
0.0
 10
11.110039854
 20
10.3316445106
 30
0.0
 10
11.1260803733
 20
10.330466912
 30
0.0
 10
11.1417100711
 20
10.3289657279
 30
0.0
 10
11.1568311505
 20
10.327150506
 30
0.0
 10
11.1713491208
 20
10.3250328213
 30
0.0
 10
11.1851731623
 20
10.3226261265
 30
0.0
 10
11.1962019334
 20
10.3203601111
 30
0.0
 10
11.2046074153
 20
10.3184053615
 30
0.0
 10
11.2105912919
 20
10.3168988551
 30
0.0
 10
11.2163399707
 20
10.3153323662
 30
0.0
 10
11.2218444914
 20
10.3137083915
 30
0.0
 10
11.2270962655
 20
10.3120294456
 30
0.0
 10
11.2320871248
 20
10.3102982059
 30
0.0
 10
11.2368093147
 20
10.3085173641
 30
0.0
 10
11.2412555262
 20
10.3066897198
 30
0.0
 10
11.2454189018
 20
10.3048181249
 30
0.0
 10
11.2492930527
 20
10.302905451
 30
0.0
 10
11.2528720716
 20
10.3009546739
 30
0.0
 10
11.2561505839
 20
10.2989686272
 30
0.0
 10
11.2591235245
 20
10.2969504394
 30
0.0
 10
11.2609599846
 20
10.2955383328
 30
0.0
 10
11.2618219057
 20
10.2948260649
 30
0.0
  0
SPLINE
  5
390
100
AcDbEntity
  8
0
100
AcDbSpline
 62
7
  6
CONTINUOUS
 70
0
 71
3
 72
11
 73
7
 74
0
 42
0.0000001
 43
0.0000001
 44
0.0000000001
 40
0.0
 40
0.0
 40
0.0
 40
0.0
 40
0.2462598102
 40
0.4940332787
 40
0.7448046145
 40
1.0
 40
1.0
 40
1.0
 40
1.0
 10
11.0382565612
 20
10.6272991053
 30
0.0
 10
11.0382565589
 20
10.6282810477
 30
0.0
 10
11.038336961
 20
10.6302518924
 30
0.0
 10
11.0386983858
 20
10.6332027749
 30
0.0
 10
11.0393003857
 20
10.6361504091
 30
0.0
 10
11.0398560373
 20
10.6380922356
 30
0.0
 10
11.0401716629
 20
10.6390596207
 30
0.0
  0
SPLINE
  5
391
100
AcDbEntity
  8
0
100
AcDbSpline
 62
7
  6
CONTINUOUS
 70
0
 71
3
 72
15
 73
11
 74
0
 42
0.0000001
 43
0.0000001
 44
0.0000000001
 40
0.0
 40
0.0
 40
0.0
 40
0.0
 40
0.1269543169
 40
0.2532786486
 40
0.3789933813
 40
0.5041314773
 40
0.6287387435
 40
0.7528725202
 40
0.8766006586
 40
1.0
 40
1.0
 40
1.0
 40
1.0
 10
9.6506525662
 20
7.6356013075
 30
0.0
 10
9.6506525662
 20
7.6406577036
 30
0.0
 10
9.651015949
 20
7.6507493177
 30
0.0
 10
9.6526579955
 20
7.6657674129
 30
0.0
 10
9.6553870721
 20
7.6805539297
 30
0.0
 10
9.6591888502
 20
7.6950309155
 30
0.0
 10
9.6640432263
 20
7.7091233046
 30
0.0
 10
9.6699247524
 20
7.7227581199
 30
0.0
 10
9.6768017487
 20
7.7358637787
 30
0.0
 10
9.6820332377
 20
7.7442145067
 30
0.0
 10
9.6848004123
 20
7.7482762884
 30
0.0
  0
SPLINE
  5
392
100
AcDbEntity
  8
0
100
AcDbSpline
 62
7
  6
CONTINUOUS
 70
0
 71
3
 72
21
 73
17
 74
0
 42
0.0000001
 43
0.0000001
 44
0.0000000001
 40
0.0
 40
0.0
 40
0.0
 40
0.0
 40
0.1273176984
 40
0.2537999461
 40
0.3167619614
 40
0.3795355204
 40
0.4421314992
 40
0.5045621453
 40
0.5668413456
 40
0.6289845231
 40
0.6910084433
 40
0.7529310869
 40
0.8147714401
 40
0.8765493236
 40
0.9382852134
 40
1.0
 40
1.0
 40
1.0
 40
1.0
 10
10.1643672678
 20
8.0230508042
 30
0.0
 10
10.1643672678
 20
8.0297956123
 30
0.0
 10
10.1650111048
 20
8.0432496518
 30
0.0
 10
10.1674426961
 20
8.0598817488
 30
0.0
 10
10.1703489631
 20
8.0729281725
 30
0.0
 10
10.1729993271
 20
8.0825512209
 30
0.0
 10
10.1761173217
 20
8.0920032727
 30
0.0
 10
10.1796957585
 20
8.1012628072
 30
0.0
 10
10.1837263871
 20
8.1103084086
 30
0.0
 10
10.188199995
 20
8.1191192002
 30
0.0
 10
10.1931062331
 20
8.1276748717
 30
0.0
 10
10.1984337868
 20
8.1359557056
 30
0.0
 10
10.2041704212
 20
8.1439425402
 30
0.0
 10
10.2103029425
 20
8.1516170327
 30
0.0
 10
10.2168169359
 20
8.158961271
 30
0.0
 10
10.2214048287
 20
8.1636267636
 30
0.0
 10
10.2237563773
 20
8.1658981713
 30
0.0
  0
SPLINE
  5
393
100
AcDbEntity
  8
0
100
AcDbSpline
 62
7
  6
CONTINUOUS
 70
0
 71
3
 72
21
 73
17
 74
0
 42
0.0000001
 43
0.0000001
 44
0.0000000001
 40
0.0
 40
0.0
 40
0.0
 40
0.0
 40
0.1273176984
 40
0.2537999461
 40
0.3167619614
 40
0.3795355204
 40
0.4421314992
 40
0.5045621453
 40
0.5668413456
 40
0.6289845231
 40
0.6910084433
 40
0.7529310869
 40
0.8147714401
 40
0.8765493236
 40
0.9382852134
 40
1.0
 40
1.0
 40
1.0
 40
1.0
 10
11.8846812838
 20
6.0626919857
 30
0.0
 10
11.8846812838
 20
6.0694367938
 30
0.0
 10
11.8853251209
 20
6.0828908332
 30
0.0
 10
11.8877567121
 20
6.0995229302
 30
0.0
 10
11.8906629792
 20
6.1125693539
 30
0.0
 10
11.8933133431
 20
6.1221924024
 30
0.0
 10
11.8964313378
 20
6.1316444541
 30
0.0
 10
11.9000097745
 20
6.1409039886
 30
0.0
 10
11.9040404032
 20
6.14994959
 30
0.0
 10
11.9085140111
 20
6.1587603816
 30
0.0
 10
11.9134202492
 20
6.1673160531
 30
0.0
 10
11.9187478028
 20
6.175596887
 30
0.0
 10
11.9244844373
 20
6.1835837216
 30
0.0
 10
11.9306169585
 20
6.1912582141
 30
0.0
 10
11.937130952
 20
6.1986024524
 30
0.0
 10
11.9417188447
 20
6.203267945
 30
0.0
 10
11.9440703934
 20
6.2055393527
 30
0.0
  0
SPLINE
  5
394
100
AcDbEntity
  8
0
100
AcDbSpline
 62
7
  6
CONTINUOUS
 70
0
 71
3
 72
19
 73
15
 74
0
 42
0.0000001
 43
0.0000001
 44
0.0000000001
 40
0.0
 40
0.0
 40
0.0
 40
0.0
 40
0.1504611406
 40
0.2916985742
 40
0.4244193292
 40
0.4878835935
 40
0.5495802133
 40
0.6682271463
 40
0.7255606136
 40
0.7817999183
 40
0.8371467056
 40
0.8918136429
 40
0.9460222308
 40
1.0
 40
1.0
 40
1.0
 40
1.0
 10
12.8428180937
 20
6.4514386774
 30
0.0
 10
12.8407415992
 20
6.4494329376
 30
0.0
 10
12.8365914775
 20
6.4456696025
 30
0.0
 10
12.8301654083
 20
6.4406545331
 30
0.0
 10
12.8247375922
 20
6.4371075868
 30
0.0
 10
12.8204092463
 20
6.4347056963
 30
0.0
 10
12.8162085986
 20
6.4326436076
 30
0.0
 10
12.8119587625
 20
6.4309580449
 30
0.0
 10
12.8076850217
 20
6.4296896361
 30
0.0
 10
12.8045251345
 20
6.4289585085
 30
0.0
 10
12.8013757628
 20
6.428437403
 30
0.0
 10
12.7982377443
 20
6.4281265469
 30
0.0
 10
12.7951123443
 20
6.428026069
 30
0.0
 10
12.7930359168
 20
6.4280994954
 30
0.0
 10
12.7920026869
 20
6.4281711467
 30
0.0
  0
SPLINE
  5
395
100
AcDbEntity
  8
0
100
AcDbSpline
 62
7
  6
CONTINUOUS
 70
0
 71
3
 72
15
 73
11
 74
0
 42
0.0000001
 43
0.0000001
 44
0.0000000001
 40
0.0
 40
0.0
 40
0.0
 40
0.0
 40
0.1273482936
 40
0.2538605366
 40
0.3795879111
 40
0.5046050899
 40
0.6290174366
 40
0.7529533732
 40
0.8765605776
 40
1.0
 40
1.0
 40
1.0
 40
1.0
 10
9.6396732198
 20
8.8809765736
 30
0.0
 10
9.6396732198
 20
8.8844413489
 30
0.0
 10
9.6400040348
 20
8.8913529433
 30
0.0
 10
9.6415001216
 20
8.9015874047
 30
0.0
 10
9.6439808829
 20
8.9115647114
 30
0.0
 10
9.6474239155
 20
8.9211915556
 30
0.0
 10
9.6517976137
 20
8.9303791608
 30
0.0
 10
9.657062122
 20
8.9390426882
 30
0.0
 10
9.6631679521
 20
8.9471009487
 30
0.0
 10
9.6677653206
 20
8.9520234033
 30
0.0
 10
9.6701808944
 20
8.9543566481
 30
0.0
  0
SPLINE
  5
396
100
AcDbEntity
  8
0
100
AcDbSpline
 62
7
  6
CONTINUOUS
 70
0
 71
3
 72
23
 73
19
 74
0
 42
0.0000001
 43
0.0000001
 44
0.0000000001
 40
0.0
 40
0.0
 40
0.0
 40
0.0
 40
0.0614488807
 40
0.1232974294
 40
0.1855193177
 40
0.2480712672
 40
0.3108995318
 40
0.3739401513
 40
0.4371217414
 40
0.5003679843
 40
0.5636003151
 40
0.6267406524
 40
0.6897141172
 40
0.7524516838
 40
0.8148926113
 40
0.8769871451
 40
0.9386966623
 40
1.0
 40
1.0
 40
1.0
 40
1.0
 10
9.7483398817
 20
8.7647738531
 30
0.0
 10
9.7447731886
 20
8.7650212041
 30
0.0
 10
9.7376362437
 20
8.7658690024
 30
0.0
 10
9.7270746518
 20
8.7681716351
 30
0.0
 10
9.7167177785
 20
8.7714871471
 30
0.0
 10
9.7066663713
 20
8.7757834169
 30
0.0
 10
9.6970165545
 20
8.78101891
 30
0.0
 10
9.6878610041
 20
8.7871432097
 30
0.0
 10
9.6792875213
 20
8.7940973921
 30
0.0
 10
9.6713783618
 20
8.8018146303
 30
0.0
 10
9.6642094303
 20
8.810220829
 30
0.0
 10
9.6578495764
 20
8.8192353238
 30
0.0
 10
9.6523599438
 20
8.8287716291
 30
0.0
 10
9.6477933904
 20
8.8387382841
 30
0.0
 10
9.6441939303
 20
8.8490395591
 30
0.0
 10
9.6415964557
 20
8.8595769069
 30
0.0
 10
9.6400261233
 20
8.8702478082
 30
0.0
 10
9.6396732198
 20
8.8774097819
 30
0.0
 10
9.6396732198
 20
8.8809765736
 30
0.0
  0
SPLINE
  5
397
100
AcDbEntity
  8
0
100
AcDbSpline
 62
7
  6
CONTINUOUS
 70
0
 71
3
 72
39
 73
35
 74
0
 42
0.0000001
 43
0.0000001
 44
0.0000000001
 40
0.0
 40
0.0
 40
0.0
 40
0.0
 40
0.0309587779
 40
0.0620589034
 40
0.0932943588
 40
0.1246578982
 40
0.1561392994
 40
0.1877266853
 40
0.2194063868
 40
0.2511634165
 40
0.2829817434
 40
0.3148446337
 40
0.3467349606
 40
0.3786355041
 40
0.4105292261
 40
0.4423995261
 40
0.4742304656
 40
0.5060069654
 40
0.5377149787
 40
0.5693416401
 40
0.600875395
 40
0.6323061096
 40
0.6636251652
 40
0.6948255412
 40
0.7259018816
 40
0.756850548
 40
0.7876696657
 40
0.8183591596
 40
0.8489207795
 40
0.8793581133
 40
0.9096765839
 40
0.9398834283
 40
0.9699876587
 40
1.0
 40
1.0
 40
1.0
 40
1.0
 10
10.7690368103
 20
8.3358766579
 30
0.0
 10
10.7644334616
 20
8.3361959013
 30
0.0
 10
10.7552243796
 20
8.3371466455
 30
0.0
 10
10.7415083008
 20
8.3394920045
 30
0.0
 10
10.7279169528
 20
8.3427481922
 30
0.0
 10
10.7145122265
 20
8.3468982243
 30
0.0
 10
10.7013533903
 20
8.3519207434
 30
0.0
 10
10.6884981291
 20
8.3577899214
 30
0.0
 10
10.676001746
 20
8.3644759818
 30
0.0
 10
10.6639169639
 20
8.3719454618
 30
0.0
 10
10.6522936393
 20
8.3801616327
 30
0.0
 10
10.6411785724
 20
8.3890848717
 30
0.0
 10
10.6306153686
 20
8.398673054
 30
0.0
 10
10.6206443541
 20
8.4088819244
 30
0.0
 10
10.6113025426
 20
8.419665452
 30
0.0
 10
10.6026236362
 20
8.430976153
 30
0.0
 10
10.5946380693
 20
8.4427653884
 30
0.0
 10
10.5873730786
 20
8.4549836262
 30
0.0
 10
10.5808527905
 20
8.4675806664
 30
0.0
 10
10.5750983202
 20
8.4805058317
 30
0.0
 10
10.5701278767
 20
8.4937081254
 30
0.0
 10
10.5659568654
 20
8.5071363585
 30
0.0
 10
10.5625979878
 20
8.5207392504
 30
0.0
 10
10.5600613233
 20
8.5344655047
 30
0.0
 10
10.5583544007
 20
8.5482638673
 30
0.0
 10
10.5574822657
 20
8.5620831699
 30
0.0
 10
10.557447518
 20
8.5758723613
 30
0.0
 10
10.5582503328
 20
8.5895805345
 30
0.0
 10
10.559888457
 20
8.6031569466
 30
0.0
 10
10.5623571993
 20
8.6165510684
 30
0.0
 10
10.5656493476
 20
8.6297125407
 30
0.0
 10
10.5697552491
 20
8.6425915227
 30
0.0
 10
10.5746621877
 20
8.6551376601
 30
0.0
 10
10.5784635921
 20
8.6632600194
 30
0.0
 10
10.5804918127
 20
8.6672471339
 30
0.0
  0
SPLINE
  5
398
100
AcDbEntity
  8
0
100
AcDbSpline
 62
7
  6
CONTINUOUS
 70
0
 71
3
 72
21
 73
17
 74
0
 42
0.0000001
 43
0.0000001
 44
0.0000000001
 40
0.0
 40
0.0
 40
0.0
 40
0.0
 40
0.1273176984
 40
0.2537999461
 40
0.3167619614
 40
0.3795355204
 40
0.4421314992
 40
0.5045621453
 40
0.5668413456
 40
0.6289845231
 40
0.6910084433
 40
0.7529310869
 40
0.8147714401
 40
0.8765493236
 40
0.9382852134
 40
1.0
 40
1.0
 40
1.0
 40
1.0
 10
8.8671287825
 20
9.7724751752
 30
0.0
 10
8.8671287825
 20
9.7792199833
 30
0.0
 10
8.8677726195
 20
9.7926740227
 30
0.0
 10
8.8702042108
 20
9.8093061198
 30
0.0
 10
8.8731104778
 20
9.8223525434
 30
0.0
 10
8.8757608418
 20
9.8319755919
 30
0.0
 10
8.8788788364
 20
9.8414276436
 30
0.0
 10
8.8824572732
 20
9.8506871782
 30
0.0
 10
8.8864879019
 20
9.8597327796
 30
0.0
 10
8.8909615097
 20
9.8685435712
 30
0.0
 10
8.8958677478
 20
9.8770992427
 30
0.0
 10
8.9011953015
 20
9.8853800766
 30
0.0
 10
8.9069319359
 20
9.8933669112
 30
0.0
 10
8.9130644572
 20
9.9010414037
 30
0.0
 10
8.9195784506
 20
9.9083856419
 30
0.0
 10
8.9241663434
 20
9.9130511345
 30
0.0
 10
8.9265178921
 20
9.9153225423
 30
0.0
  0
SPLINE
  5
399
100
AcDbEntity
  8
0
100
AcDbSpline
 62
7
  6
CONTINUOUS
 70
0
 71
3
 72
15
 73
11
 74
0
 42
0.0000001
 43
0.0000001
 44
0.0000000001
 40
0.0
 40
0.0
 40
0.0
 40
0.0
 40
0.1273482936
 40
0.2538605366
 40
0.3795879111
 40
0.5046050899
 40
0.6290174366
 40
0.7529533732
 40
0.8765605776
 40
1.0
 40
1.0
 40
1.0
 40
1.0
 10
11.6922657223
 20
8.7386288
 30
0.0
 10
11.6922657223
 20
8.7420935754
 30
0.0
 10
11.6925965372
 20
8.7490051698
 30
0.0
 10
11.6940926241
 20
8.7592396312
 30
0.0
 10
11.6965733854
 20
8.7692169379
 30
0.0
 10
11.700016418
 20
8.7788437821
 30
0.0
 10
11.7043901161
 20
8.7880313873
 30
0.0
 10
11.7096546245
 20
8.7966949146
 30
0.0
 10
11.7157604546
 20
8.8047531751
 30
0.0
 10
11.7203578231
 20
8.8096756298
 30
0.0
 10
11.7227733968
 20
8.8120088745
 30
0.0
  0
SPLINE
  5
39A
100
AcDbEntity
  8
0
100
AcDbSpline
 62
7
  6
CONTINUOUS
 70
0
 71
3
 72
23
 73
19
 74
0
 42
0.0000001
 43
0.0000001
 44
0.0000000001
 40
0.0
 40
0.0
 40
0.0
 40
0.0
 40
0.0614488807
 40
0.1232974294
 40
0.1855193177
 40
0.2480712672
 40
0.3108995318
 40
0.3739401513
 40
0.4371217414
 40
0.5003679843
 40
0.5636003151
 40
0.6267406524
 40
0.6897141172
 40
0.7524516838
 40
0.8148926113
 40
0.8769871451
 40
0.9386966623
 40
1.0
 40
1.0
 40
1.0
 40
1.0
 10
11.8009323842
 20
8.6224260795
 30
0.0
 10
11.7973656911
 20
8.6226734305
 30
0.0
 10
11.7902287462
 20
8.6235212289
 30
0.0
 10
11.7796671543
 20
8.6258238616
 30
0.0
 10
11.769310281
 20
8.6291393736
 30
0.0
 10
11.7592588738
 20
8.6334356433
 30
0.0
 10
11.749609057
 20
8.6386711365
 30
0.0
 10
11.7404535066
 20
8.6447954361
 30
0.0
 10
11.7318800238
 20
8.6517496186
 30
0.0
 10
11.7239708643
 20
8.6594668568
 30
0.0
 10
11.7168019328
 20
8.6678730555
 30
0.0
 10
11.7104420788
 20
8.6768875503
 30
0.0
 10
11.7049524462
 20
8.6864238556
 30
0.0
 10
11.7003858928
 20
8.6963905106
 30
0.0
 10
11.6967864328
 20
8.7066917856
 30
0.0
 10
11.6941889582
 20
8.7172291334
 30
0.0
 10
11.6926186258
 20
8.7279000347
 30
0.0
 10
11.6922657223
 20
8.7350620083
 30
0.0
 10
11.6922657223
 20
8.7386288
 30
0.0
  0
SPLINE
  5
39B
100
AcDbEntity
  8
0
100
AcDbSpline
 62
7
  6
CONTINUOUS
 70
0
 71
3
 72
15
 73
11
 74
0
 42
0.0000001
 43
0.0000001
 44
0.0000000001
 40
0.0
 40
0.0
 40
0.0
 40
0.0
 40
0.1273482936
 40
0.2538605366
 40
0.3795879111
 40
0.5046050899
 40
0.6290174366
 40
0.7529533732
 40
0.8765605776
 40
1.0
 40
1.0
 40
1.0
 40
1.0
 10
9.6396732198
 20
7.1297529817
 30
0.0
 10
9.6396732198
 20
7.1332177571
 30
0.0
 10
9.6400040348
 20
7.1401293515
 30
0.0
 10
9.6415001216
 20
7.1503638129
 30
0.0
 10
9.6439808829
 20
7.1603411196
 30
0.0
 10
9.6474239155
 20
7.1699679638
 30
0.0
 10
9.6517976137
 20
7.179155569
 30
0.0
 10
9.657062122
 20
7.1878190964
 30
0.0
 10
9.6631679521
 20
7.1958773568
 30
0.0
 10
9.6677653206
 20
7.2007998115
 30
0.0
 10
9.6701808944
 20
7.2031330562
 30
0.0
  0
SPLINE
  5
39C
100
AcDbEntity
  8
0
100
AcDbSpline
 62
7
  6
CONTINUOUS
 70
0
 71
3
 72
23
 73
19
 74
0
 42
0.0000001
 43
0.0000001
 44
0.0000000001
 40
0.0
 40
0.0
 40
0.0
 40
0.0
 40
0.0614488807
 40
0.1232974294
 40
0.1855193177
 40
0.2480712672
 40
0.3108995318
 40
0.3739401513
 40
0.4371217414
 40
0.5003679843
 40
0.5636003151
 40
0.6267406524
 40
0.6897141172
 40
0.7524516838
 40
0.8148926113
 40
0.8769871451
 40
0.9386966623
 40
1.0
 40
1.0
 40
1.0
 40
1.0
 10
9.7483398817
 20
7.0135502612
 30
0.0
 10
9.7447731886
 20
7.0137976122
 30
0.0
 10
9.7376362437
 20
7.0146454106
 30
0.0
 10
9.7270746518
 20
7.0169480433
 30
0.0
 10
9.7167177785
 20
7.0202635553
 30
0.0
 10
9.7066663713
 20
7.0245598251
 30
0.0
 10
9.6970165545
 20
7.0297953182
 30
0.0
 10
9.6878610041
 20
7.0359196178
 30
0.0
 10
9.6792875213
 20
7.0428738003
 30
0.0
 10
9.6713783618
 20
7.0505910385
 30
0.0
 10
9.6642094303
 20
7.0589972372
 30
0.0
 10
9.6578495764
 20
7.068011732
 30
0.0
 10
9.6523599438
 20
7.0775480373
 30
0.0
 10
9.6477933904
 20
7.0875146923
 30
0.0
 10
9.6441939303
 20
7.0978159673
 30
0.0
 10
9.6415964557
 20
7.1083533151
 30
0.0
 10
9.6400261233
 20
7.1190242164
 30
0.0
 10
9.6396732198
 20
7.12618619
 30
0.0
 10
9.6396732198
 20
7.1297529817
 30
0.0
  0
SPLINE
  5
39D
100
AcDbEntity
  8
0
100
AcDbSpline
 62
7
  6
CONTINUOUS
 70
0
 71
3
 72
73
 73
69
 74
0
 42
0.0000001
 43
0.0000001
 44
0.0000000001
 40
0.0
 40
0.0
 40
0.0
 40
0.0
 40
0.0085742
 40
0.0179223712
 40
0.0280748659
 40
0.0390496887
 40
0.0508534563
 40
0.0634843528
 40
0.0769337063
 40
0.0911871318
 40
0.1062254071
 40
0.1220251419
 40
0.1385593659
 40
0.155797944
 40
0.1737078655
 40
0.1922535733
 40
0.2113972489
 40
0.2310990163
 40
0.2513171048
 40
0.2720080843
 40
0.3146266377
 40
0.3585816196
 40
0.4034826385
 40
0.4489281191
 40
0.4945101589
 40
0.5398192651
 40
0.5844491039
 40
0.6280013105
 40
0.6492527226
 40
0.670091429
 40
0.69047206
 40
0.7103506619
 40
0.7296848954
 40
0.7484342455
 40
0.7665601747
 40
0.7840263305
 40
0.8007988387
 40
0.8168465801
 40
0.8321414712
 40
0.8466588627
 40
0.8603780991
 40
0.873283104
 40
0.8853631547
 40
0.8966139856
 40
0.907039309
 40
0.9119469328
 40
0.9166542751
 40
0.9211650498
 40
0.9254840139
 40
0.9296169933
 40
0.9335712025
 40
0.9373553081
 40
0.940979592
 40
0.9477950869
 40
0.9510209541
 40
0.9541479269
 40
0.9571963814
 40
0.9601885237
 40
0.9631479593
 40
0.9660991517
 40
0.9690667988
 40
0.9720751532
 40
0.9751474159
 40
0.9783051762
 40
0.9849493987
 40
0.9884738235
 40
0.992150365
 40
1.0
 40
1.0
 40
1.0
 40
1.0
 10
10.009593044
 20
10.7360864645
 30
0.0
 10
10.0108320987
 20
10.7372832995
 30
0.0
 10
10.013550331
 20
10.7396538787
 30
0.0
 10
10.0180938001
 20
10.7430047192
 30
0.0
 10
10.0232639962
 20
10.7462929305
 30
0.0
 10
10.0290486763
 20
10.7495110687
 30
0.0
 10
10.0354350037
 20
10.7526520781
 30
0.0
 10
10.0424081592
 20
10.7557086414
 30
0.0
 10
10.0499518799
 20
10.7586735442
 30
0.0
 10
10.0580484039
 20
10.7615396666
 30
0.0
 10
10.0666785353
 20
10.764300103
 30
0.0
 10
10.0758217163
 20
10.766948186
 30
0.0
 10
10.0854561098
 20
10.7694774947
 30
0.0
 10
10.0955586597
 20
10.7718818798
 30
0.0
 10
10.1061051416
 20
10.7741555126
 30
0.0
 10
10.1170702357
 20
10.7762928813
 30
0.0
 10
10.1284276059
 20
10.7782887979
 30
0.0
 10
10.1401499501
 20
10.7801384007
 30
0.0
 10
10.1522090985
 20
10.7818372469
 30
0.0
 10
10.1688624328
 20
10.7839162087
 30
0.0
 10
10.1903062172
 20
10.7860980604
 30
0.0
 10
10.2166535011
 20
10.7880360802
 30
0.0
 10
10.2436102938
 20
10.7892997073
 30
0.0
 10
10.270917349
 20
10.7898766231
 30
0.0
 10
10.2983122208
 20
10.7897611051
 30
0.0
 10
10.3255315942
 20
10.7889543468
 30
0.0
 10
10.3523136705
 20
10.7874641713
 30
0.0
 10
10.3742288207
 20
10.7856507723
 30
0.0
 10
10.3913428889
 20
10.7838607439
 30
0.0
 10
10.4038058281
 20
10.7823692867
 30
0.0
 10
10.4159708148
 20
10.7807216639
 30
0.0
 10
10.427808602
 20
10.7789218344
 30
0.0
 10
10.4392907112
 20
10.7769741659
 30
0.0
 10
10.4503895443
 20
10.7748833923
 30
0.0
 10
10.4610784337
 20
10.7726545882
 30
0.0
 10
10.4713317096
 20
10.7702931516
 30
0.0
 10
10.4811247793
 20
10.7678048159
 30
0.0
 10
10.4904341931
 20
10.765195629
 30
0.0
 10
10.4992376956
 20
10.7624719176
 30
0.0
 10
10.5075142899
 20
10.7596402625
 30
0.0
 10
10.5152443334
 20
10.7567075065
 30
0.0
 10
10.5224095568
 20
10.753680705
 30
0.0
 10
10.5289932541
 20
10.7505670282
 30
0.0
 10
10.534979887
 20
10.747373819
 30
0.0
 10
10.5395480869
 20
10.7445992256
 30
0.0
 10
10.5428810763
 20
10.7423389305
 30
0.0
 10
10.5451721658
 20
10.7406627972
 30
0.0
 10
10.5473038908
 20
10.7389724827
 30
0.0
 10
10.5492750219
 20
10.737268953
 30
0.0
 10
10.5510843611
 20
10.7355530856
 30
0.0
 10
10.5527307981
 20
10.7338259182
 30
0.0
 10
10.5542135039
 20
10.732088122
 30
0.0
 10
10.5559349884
 20
10.7298057115
 30
0.0
 10
10.5573758745
 20
10.7274554488
 30
0.0
 10
10.5584867288
 20
10.7250515537
 30
0.0
 10
10.5591367071
 20
10.7232755718
 30
0.0
 10
10.5596177564
 20
10.7214950826
 30
0.0
 10
10.559929355
 20
10.7197112623
 30
0.0
 10
10.560071119
 20
10.7179255053
 30
0.0
 10
10.5600427482
 20
10.716139253
 30
0.0
 10
10.5598443572
 20
10.7143539794
 30
0.0
 10
10.5594762327
 20
10.712571129
 30
0.0
 10
10.5589387369
 20
10.7107919617
 30
0.0
 10
10.5579814314
 20
10.7083862179
 30
0.0
 10
10.5566889854
 20
10.7060276493
 30
0.0
 10
10.5551103707
 20
10.7037357548
 30
0.0
 10
10.5532389381
 20
10.7013582715
 30
0.0
 10
10.5516458869
 20
10.6996693357
 30
0.0
 10
10.5505115388
 20
10.6985736395
 30
0.0
  0
SPLINE
  5
39E
100
AcDbEntity
  8
0
100
AcDbSpline
 62
7
  6
CONTINUOUS
 70
0
 71
3
 72
23
 73
19
 74
0
 42
0.0000001
 43
0.0000001
 44
0.0000000001
 40
0.0
 40
0.0
 40
0.0
 40
0.0
 40
0.0567844354
 40
0.1127382999
 40
0.1682231183
 40
0.2236106289
 40
0.2792745738
 40
0.3355828581
 40
0.3928897077
 40
0.4515296759
 40
0.511812882
 40
0.574021138
 40
0.6384081773
 40
0.7051999556
 40
0.7745955863
 40
0.8467687855
 40
0.9218636366
 40
1.0
 40
1.0
 40
1.0
 40
1.0
 10
12.7623011448
 20
6.5914952347
 30
0.0
 10
12.7632850589
 20
6.5911473624
 30
0.0
 10
12.7652666628
 20
6.5905332048
 30
0.0
 10
12.768288336
 20
6.5898631114
 30
0.0
 10
12.771330543
 20
6.5894531802
 30
0.0
 10
12.7743912373
 20
6.5893037695
 30
0.0
 10
12.7774686643
 20
6.5894148746
 30
0.0
 10
12.7805610006
 20
6.5897864134
 30
0.0
 10
12.7836665396
 20
6.5904178587
 30
0.0
 10
12.7867836722
 20
6.5913086332
 30
0.0
 10
12.7899108638
 20
6.5924580496
 30
0.0
 10
12.7930467354
 20
6.5938651589
 30
0.0
 10
12.7961899244
 20
6.5955291193
 30
0.0
 10
12.7993391553
 20
6.5974489992
 30
0.0
 10
12.8024932302
 20
6.59962378
 30
0.0
 10
12.8056508171
 20
6.6020524675
 30
0.0
 10
12.8088104938
 20
6.6047336646
 30
0.0
 10
12.8108756063
 20
6.6066497812
 30
0.0
 10
12.8119084647
 20
6.6076474459
 30
0.0
  0
SPLINE
  5
39F
100
AcDbEntity
  8
0
100
AcDbSpline
 62
7
  6
CONTINUOUS
 70
0
 71
3
 72
15
 73
11
 74
0
 42
0.0000001
 43
0.0000001
 44
0.0000000001
 40
0.0
 40
0.0
 40
0.0
 40
0.0
 40
0.1090525012
 40
0.2216230895
 40
0.3383149051
 40
0.4596620114
 40
0.5861319539
 40
0.7181296687
 40
0.8559944512
 40
1.0
 40
1.0
 40
1.0
 40
1.0
 10
12.7766785415
 20
6.4318422073
 30
0.0
 10
12.7781497622
 20
6.4322278228
 30
0.0
 10
12.7811073923
 20
6.4331397591
 30
0.0
 10
12.7854955275
 20
6.4348857698
 30
0.0
 10
12.7898960883
 20
6.4370275004
 30
0.0
 10
12.7943064202
 20
6.4395632872
 30
0.0
 10
12.798724598
 20
6.4424914352
 30
0.0
 10
12.8031485321
 20
6.4458101956
 30
0.0
 10
12.8075758605
 20
6.4495174264
 30
0.0
 10
12.8104639171
 20
6.4521869415
 30
0.0
 10
12.8119084647
 20
6.4535822674
 30
0.0
  0
SPLINE
  5
3A0
100
AcDbEntity
  8
0
100
AcDbSpline
 62
7
  6
CONTINUOUS
 70
0
 71
3
 72
39
 73
35
 74
0
 42
0.0000001
 43
0.0000001
 44
0.0000000001
 40
0.0
 40
0.0
 40
0.0
 40
0.0
 40
0.0235372374
 40
0.0484731425
 40
0.0747472708
 40
0.1022916173
 40
0.1310315431
 40
0.1608865455
 40
0.1917709211
 40
0.223594355
 40
0.2562624602
 40
0.2896772805
 40
0.3237377695
 40
0.3583402528
 40
0.3933788783
 40
0.428746059
 40
0.4643329109
 40
0.5000296866
 40
0.5357262087
 40
0.5713123004
 40
0.6066782176
 40
0.6417150811
 40
0.6763153108
 40
0.7103730636
 40
0.7437846761
 40
0.7764491151
 40
0.8082684396
 40
0.83914828
 40
0.8689983418
 40
0.897732944
 40
0.9252716095
 40
0.951539728
 40
0.9764693273
 40
1.0
 40
1.0
 40
1.0
 40
1.0
 10
12.7333744905
 20
7.5587209059
 30
0.0
 10
12.7348838642
 20
7.5527305988
 30
0.0
 10
12.7377700425
 20
7.540337291
 30
0.0
 10
12.7416264035
 20
7.5210993854
 30
0.0
 10
12.7451251633
 20
7.5007254375
 30
0.0
 10
12.7482545181
 20
7.4792823943
 30
0.0
 10
12.7510039867
 20
7.4568404007
 30
0.0
 10
12.7533643366
 20
7.4334731024
 30
0.0
 10
12.7553276473
 20
7.4092572175
 30
0.0
 10
12.7568873253
 20
7.384272314
 30
0.0
 10
12.7580381264
 20
7.3586005231
 30
0.0
 10
12.75877617
 20
7.3323262634
 30
0.0
 10
12.7590989503
 20
7.3055359561
 30
0.0
 10
12.7590053428
 20
7.2783177354
 30
0.0
 10
12.7584956064
 20
7.2507611546
 30
0.0
 10
12.7575713817
 20
7.2229568886
 30
0.0
 10
12.7562356844
 20
7.1949964329
 30
0.0
 10
12.754492895
 20
7.1669717999
 30
0.0
 10
12.7523487439
 20
7.1389752148
 30
0.0
 10
12.7498102921
 20
7.1110988094
 30
0.0
 10
12.7468859081
 20
7.0834343178
 30
0.0
 10
12.7435852404
 20
7.0560727717
 30
0.0
 10
12.7399191864
 20
7.0291041992
 30
0.0
 10
12.7358998568
 20
7.0026173256
 30
0.0
 10
12.7315405363
 20
6.9766992782
 30
0.0
 10
12.7268556412
 20
6.9514352954
 30
0.0
 10
12.7218606726
 20
6.9269084417
 30
0.0
 10
12.7165721663
 20
6.903199326
 30
0.0
 10
12.7110076404
 20
6.8803858315
 30
0.0
 10
12.7051855338
 20
6.8585428338
 30
0.0
 10
12.6991251599
 20
6.8377419836
 30
0.0
 10
12.692846586
 20
6.8180512906
 30
0.0
 10
12.6863707466
 20
6.7995354141
 30
0.0
 10
12.6818008868
 20
6.7876629843
 30
0.0
 10
12.6794788017
 20
6.781940343
 30
0.0
  0
SPLINE
  5
3A1
100
AcDbEntity
  8
0
100
AcDbSpline
 62
7
  6
CONTINUOUS
 70
0
 71
3
 72
54
 73
50
 74
0
 42
0.0000001
 43
0.0000001
 44
0.0000000001
 40
0.0
 40
0.0
 40
0.0
 40
0.0
 40
0.0094755899
 40
0.0194589203
 40
0.0299480802
 40
0.040939127
 40
0.0524262179
 40
0.0644019581
 40
0.0768575149
 40
0.0897827369
 40
0.1031663766
 40
0.116996063
 40
0.1312584925
 40
0.145939475
 40
0.1610239522
 40
0.1764961599
 40
0.1923395743
 40
0.2085370324
 40
0.2419218671
 40
0.2765024972
 40
0.3121223135
 40
0.3486181285
 40
0.385821327
 40
0.4235589779
 40
0.4616549226
 40
0.4999308634
 40
0.5382074327
 40
0.5763052572
 40
0.6140460266
 40
0.6512535694
 40
0.6877549283
 40
0.7233814493
 40
0.7579698959
 40
0.7913636169
 40
0.8234137574
 40
0.8388912732
 40
0.8539812945
 40
0.8686680145
 40
0.8829364137
 40
0.8967722418
 40
0.9101622049
 40
0.9230939342
 40
0.9355561193
 40
0.9475386497
 40
0.9590326277
 40
0.970030651
 40
0.9805268816
 40
0.9905172858
 40
1.0
 40
1.0
 40
1.0
 40
1.0
 10
12.7693325305
 20
7.6541915342
 30
0.0
 10
12.7706119734
 20
7.6513268022
 30
0.0
 10
12.7731247554
 20
7.6453921321
 30
0.0
 10
12.7766776531
 20
7.63613265
 30
0.0
 10
12.7801084992
 20
7.626294277
 30
0.0
 10
12.7834128888
 20
7.6158892862
 30
0.0
 10
12.7865867725
 20
7.6049304795
 30
0.0
 10
12.7896261407
 20
7.5934314348
 30
0.0
 10
12.7925271697
 20
7.5814064139
 30
0.0
 10
12.7952862495
 20
7.5688703653
 30
0.0
 10
12.7978998599
 20
7.5558388838
 30
0.0
 10
12.8003647484
 20
7.5423282034
 30
0.0
 10
12.8026778006
 20
7.5283551644
 30
0.0
 10
12.8048360839
 20
7.513937194
 30
0.0
 10
12.8068369204
 20
7.4990922816
 30
0.0
 10
12.8086777425
 20
7.4838389628
 30
0.0
 10
12.8103562841
 20
7.4681962627
 30
0.0
 10
12.8123955662
 20
7.4466288844
 30
0.0
 10
12.8145111614
 20
7.4188393391
 30
0.0
 10
12.8163499135
 20
7.384587979
 30
0.0
 10
12.817503882
 20
7.349276171
 30
0.0
 10
12.817967106
 20
7.3130803237
 30
0.0
 10
12.8177370564
 20
7.2761811097
 30
0.0
 10
12.8168147351
 20
7.2387628171
 30
0.0
 10
12.8152046541
 20
7.2010123396
 30
0.0
 10
12.8129148007
 20
7.1631182514
 30
0.0
 10
12.809956594
 20
7.1252698483
 30
0.0
 10
12.8063448254
 20
7.0876561965
 30
0.0
 10
12.8020975918
 20
7.0504651773
 30
0.0
 10
12.797236212
 20
7.0138825382
 30
0.0
 10
12.7917851094
 20
6.9780909487
 30
0.0
 10
12.7857716918
 20
6.9432691019
 30
0.0
 10
12.779226233
 20
6.9095907067
 30
0.0
 10
12.7721816755
 20
6.8772239237
 30
0.0
 10
12.7658536693
 20
6.8511847828
 30
0.0
 10
12.760555701
 20
6.8311391985
 30
0.0
 10
12.7565262624
 20
6.8167064786
 30
0.0
 10
12.7523997415
 20
6.8027181143
 30
0.0
 10
12.7481813066
 20
6.7891915374
 30
0.0
 10
12.7438762118
 20
6.7761436261
 30
0.0
 10
12.739489892
 20
6.7635906318
 30
0.0
 10
12.7350278288
 20
6.7515481882
 30
0.0
 10
12.7304955979
 20
6.7400312784
 30
0.0
 10
12.7258989149
 20
6.7290542009
 30
0.0
 10
12.7212434748
 20
6.718630578
 30
0.0
 10
12.7165351336
 20
6.7087733127
 30
0.0
 10
12.7117797176
 20
6.6994945179
 30
0.0
 10
12.7069831889
 20
6.6908057858
 30
0.0
 10
12.7036756564
 20
6.6852690737
 30
0.0
 10
12.7020131837
 20
6.6826054942
 30
0.0
  0
SPLINE
  5
3A2
100
AcDbEntity
  8
0
100
AcDbSpline
 62
7
  6
CONTINUOUS
 70
0
 71
3
 72
85
 73
81
 74
0
 42
0.0000001
 43
0.0000001
 44
0.0000000001
 40
0.0
 40
0.0
 40
0.0
 40
0.0
 40
0.0028240033
 40
0.0056048609
 40
0.0083637173
 40
0.0111222622
 40
0.0139021978
 40
0.016724681
 40
0.0196098576
 40
0.0225764624
 40
0.0288164703
 40
0.0321226632
 40
0.0355678904
 40
0.0391622565
 40
0.0429143476
 40
0.0468314467
 40
0.0509195727
 40
0.055183722
 40
0.0596279415
 40
0.0642554181
 40
0.0690686673
 40
0.0740694932
 40
0.0792591676
 40
0.0846384532
 40
0.090207615
 40
0.095966573
 40
0.1019148146
 40
0.1143750845
 40
0.1275789008
 40
0.1415119855
 40
0.1561565
 40
0.171491486
 40
0.1874932343
 40
0.2041355963
 40
0.2213902299
 40
0.2392268066
 40
0.2576131805
 40
0.2765155655
 40
0.2958986927
 40
0.3157259475
 40
0.3359594944
 40
0.3565603949
 40
0.3774887406
 40
0.3987037713
 40
0.4201639872
 40
0.4418272566
 40
0.4855912058
 40
0.5296509886
 40
0.5736582188
 40
0.6172650435
 40
0.6388109917
 40
0.6601284218
 40
0.6811755706
 40
0.7019113697
 40
0.7222955568
 40
0.7422887927
 40
0.7618527932
 40
0.7809504435
 40
0.7995459222
 40
0.8176048341
 40
0.8350943637
 40
0.8519834449
 40
0.8682429218
 40
0.8838457441
 40
0.8987671981
 40
0.9129851973
 40
0.9264806189
 40
0.9392377072
 40
0.9453357619
 40
0.9512451591
 40
0.9569651152
 40
0.9624952593
 40
0.9678355348
 40
0.9729863231
 40
0.9779484618
 40
0.9827232912
 40
0.9873128909
 40
0.9917199511
 40
0.9959476985
 40
1.0
 40
1.0
 40
1.0
 40
1.0
 10
12.8416725098
 20
7.7359906436
 30
0.0
 10
12.8427775411
 20
7.7362162085
 30
0.0
 10
12.8449910779
 20
7.7365709063
 30
0.0
 10
12.8483275539
 20
7.7368034638
 30
0.0
 10
12.8516455511
 20
7.7367310195
 30
0.0
 10
12.8549423658
 20
7.7363535211
 30
0.0
 10
12.8582156939
 20
7.7356712154
 30
0.0
 10
12.8614632474
 20
7.7346849903
 30
0.0
 10
12.864683116
 20
7.7333956348
 30
0.0
 10
12.869008506
 20
7.7312384509
 30
0.0
 10
12.8732059013
 20
7.7284888322
 30
0.0
 10
12.8772492765
 20
7.7252344718
 30
0.0
 10
12.8803055399
 20
7.7224500119
 30
0.0
 10
12.8833243784
 20
7.7193712643
 30
0.0
 10
12.8863049372
 20
7.7159996476
 30
0.0
 10
12.8892456157
 20
7.7123369688
 30
0.0
 10
12.8921451333
 20
7.7083851693
 30
0.0
 10
12.8950020313
 20
7.7041462681
 30
0.0
 10
12.8978148945
 20
7.699622449
 30
0.0
 10
12.9005823679
 20
7.6948160695
 30
0.0
 10
12.903302972
 20
7.6897295771
 30
0.0
 10
12.9059753809
 20
7.6843656348
 30
0.0
 10
12.9085981875
 20
7.6787270129
 30
0.0
 10
12.9111700138
 20
7.6728166391
 30
0.0
 10
12.9136895669
 20
7.6666376118
 30
0.0
 10
12.91615549
 20
7.6601931278
 30
0.0
 10
12.9194208169
 20
7.6511099443
 30
0.0
 10
12.9233463188
 20
7.6391075707
 30
0.0
 10
12.9277532853
 20
7.6239175225
 30
0.0
 10
12.9319172913
 20
7.6077568619
 30
0.0
 10
12.9358294871
 20
7.5906594851
 30
0.0
 10
12.9394815318
 20
7.5726610859
 30
0.0
 10
12.9428656389
 20
7.5537994159
 30
0.0
 10
12.9459745815
 20
7.5341140738
 30
0.0
 10
12.9488017173
 20
7.5136464372
 30
0.0
 10
12.9513409991
 20
7.4924395647
 30
0.0
 10
12.9535870079
 20
7.4705381063
 30
0.0
 10
12.9555349497
 20
7.4479881982
 30
0.0
 10
12.957180662
 20
7.4248373554
 30
0.0
 10
12.958520623
 20
7.4011343684
 30
0.0
 10
12.9595519595
 20
7.3769292046
 30
0.0
 10
12.9602724671
 20
7.352272903
 30
0.0
 10
12.9606806
 20
7.3272174566
 30
0.0
 10
12.9607754644
 20
7.3018157158
 30
0.0
 10
12.9605568607
 20
7.2761212104
 30
0.0
 10
12.9598455002
 20
7.2414277108
 30
0.0
 10
12.9581744378
 20
7.1977296632
 30
0.0
 10
12.9549517506
 20
7.1451747188
 30
0.0
 10
12.9505317131
 20
7.0927698699
 30
0.0
 10
12.9458635527
 20
7.0494210491
 30
0.0
 10
12.9415519196
 20
7.0151570857
 30
0.0
 10
12.9380579695
 20
6.9898728305
 30
0.0
 10
12.9342984921
 20
6.964953862
 30
0.0
 10
12.9302814065
 20
6.9404526916
 30
0.0
 10
12.9260152187
 20
6.916420997
 30
0.0
 10
12.9215089495
 20
6.8929094466
 30
0.0
 10
12.9167721456
 20
6.8699676019
 30
0.0
 10
12.9118148403
 20
6.8476438107
 30
0.0
 10
12.9066475343
 20
6.8259851097
 30
0.0
 10
12.9012811723
 20
6.8050371228
 30
0.0
 10
12.8957271235
 20
6.7848439541
 30
0.0
 10
12.8899971688
 20
6.7654480837
 30
0.0
 10
12.8841034573
 20
6.7468902825
 30
0.0
 10
12.8780584834
 20
6.7292095166
 30
0.0
 10
12.8718750527
 20
6.7124428795
 30
0.0
 10
12.8655662543
 20
6.6966253931
 30
0.0
 10
12.8591454434
 20
6.6817902437
 30
0.0
 10
12.853632963
 20
6.670102353
 30
0.0
 10
12.8491683911
 20
6.661276628
 30
0.0
 10
12.8458508295
 20
6.6550217305
 30
0.0
 10
12.8425154051
 20
6.6490346521
 30
0.0
 10
12.8391638958
 20
6.6433184867
 30
0.0
 10
12.8357980091
 20
6.6378762408
 30
0.0
 10
12.8324195204
 20
6.6327107537
 30
0.0
 10
12.8290302295
 20
6.6278247027
 30
0.0
 10
12.8256318072
 20
6.6232206384
 30
0.0
 10
12.8222260122
 20
6.6189008702
 30
0.0
 10
12.8188144805
 20
6.6148676369
 30
0.0
 10
12.8153991696
 20
6.6111232318
 30
0.0
 10
12.8130724788
 20
6.6087717972
 30
0.0
 10
12.8119084647
 20
6.6076474459
 30
0.0
  0
SPLINE
  5
3A3
100
AcDbEntity
  8
0
100
AcDbSpline
 62
7
  6
CONTINUOUS
 70
0
 71
3
 72
83
 73
79
 74
0
 42
0.0000001
 43
0.0000001
 44
0.0000000001
 40
0.0
 40
0.0
 40
0.0
 40
0.0
 40
0.0028368303
 40
0.0057583712
 40
0.0087784853
 40
0.011909565
 40
0.0151625368
 40
0.0185469085
 40
0.0220709258
 40
0.0257416053
 40
0.0295649213
 40
0.033545886
 40
0.0376886349
 40
0.0419965911
 40
0.0464724556
 40
0.0511183694
 40
0.0559359347
 40
0.0609262579
 40
0.0660900676
 40
0.0714276579
 40
0.0769390185
 40
0.0826238155
 40
0.0945104983
 40
0.1070802678
 40
0.1203216028
 40
0.1342199279
 40
0.1487579867
 40
0.1639161613
 40
0.1796727257
 40
0.1960040542
 40
0.2128847957
 40
0.2302880189
 40
0.2481853589
 40
0.2665471454
 40
0.2853425152
 40
0.3045395174
 40
0.3241052075
 40
0.344005751
 40
0.3642065199
 40
0.3846721832
 40
0.4053667941
 40
0.426253875
 40
0.4684567762
 40
0.5109824934
 40
0.5535290334
 40
0.5957942193
 40
0.6167278246
 40
0.6374790819
 40
0.6580113872
 40
0.6782886395
 40
0.6982753273
 40
0.7179366165
 40
0.737238445
 40
0.7561476201
 40
0.7746319081
 40
0.7926601326
 40
0.8102022786
 40
0.8272296098
 40
0.8437147962
 40
0.8596320382
 40
0.8749572138
 40
0.8896680484
 40
0.9037443198
 40
0.9171681047
 40
0.9299240563
 40
0.9419997648
 40
0.947779801
 40
0.9533867253
 40
0.9588200134
 40
0.9640794966
 40
0.9691652927
 40
0.9740778783
 40
0.978818134
 40
0.9833873571
 40
0.9877874713
 40
0.9920209302
 40
0.9960906338
 40
1.0
 40
1.0
 40
1.0
 40
1.0
 10
12.8779948379
 20
7.8921119085
 30
0.0
 10
12.8793052236
 20
7.89156447
 30
0.0
 10
12.8819217666
 20
7.8903466761
 30
0.0
 10
12.8857597732
 20
7.8881987053
 30
0.0
 10
12.8895612923
 20
7.8857068834
 30
0.0
 10
12.8933243432
 20
7.8828728204
 30
0.0
 10
12.8970474468
 20
7.8796980504
 30
0.0
 10
12.9007291105
 20
7.876184301
 30
0.0
 10
12.9043677415
 20
7.8723332435
 30
0.0
 10
12.9079618892
 20
7.8681468009
 30
0.0
 10
12.911509987
 20
7.863626919
 30
0.0
 10
12.9150104848
 20
7.8587757082
 30
0.0
 10
12.9184618958
 20
7.8535954542
 30
0.0
 10
12.9218625972
 20
7.8480885188
 30
0.0
 10
12.9252111225
 20
7.8422574973
 30
0.0
 10
12.9285059005
 20
7.8361050807
 30
0.0
 10
12.9317454063
 20
7.8296341356
 30
0.0
 10
12.934928183
 20
7.8228476978
 30
0.0
 10
12.9380526768
 20
7.8157489172
 30
0.0
 10
12.9411174828
 20
7.808341145
 30
0.0
 10
12.9441211532
 20
7.8006278329
 30
0.0
 10
12.9481018897
 20
7.7897790176
 30
0.0
 10
12.9529006034
 20
7.77546985
 30
0.0
 10
12.9583110337
 20
7.757387195
 30
0.0
 10
12.9634455347
 20
7.7381801324
 30
0.0
 10
12.9682943129
 20
7.7178848606
 30
0.0
 10
12.9728481064
 20
7.6965394375
 30
0.0
 10
12.9770982011
 20
7.6741840725
 30
0.0
 10
12.9810364562
 20
7.6508609144
 30
0.0
 10
12.9846553235
 20
7.6266139918
 30
0.0
 10
12.9879478621
 20
7.6014891175
 30
0.0
 10
12.9909077676
 20
7.5755338007
 30
0.0
 10
12.9935293705
 20
7.5487971467
 30
0.0
 10
12.9958076466
 20
7.5213297539
 30
0.0
 10
12.9977382264
 20
7.4931836145
 30
0.0
 10
12.9993174015
 20
7.4644120195
 30
0.0
 10
13.0005421441
 20
7.4350694564
 30
0.0
 10
13.0014101027
 20
7.4052115042
 30
0.0
 10
13.0019196054
 20
7.3748947173
 30
0.0
 10
13.0020696528
 20
7.3441765369
 30
0.0
 10
13.0018599622
 20
7.3131151107
 30
0.0
 10
13.0010984969
 20
7.2711780176
 30
0.0
 10
12.9992475681
 20
7.2183336062
 30
0.0
 10
12.9956245171
 20
7.15471677
 30
0.0
 10
12.9906189873
 20
7.0911624868
 30
0.0
 10
12.985310829
 20
7.0384875807
 30
0.0
 10
12.980395743
 20
6.996749155
 30
0.0
 10
12.976402249
 20
6.9658590883
 30
0.0
 10
12.9720976541
 20
6.9353426449
 30
0.0
 10
12.9674901005
 20
6.9052575914
 30
0.0
 10
12.9625883491
 20
6.8756609299
 30
0.0
 10
12.957401707
 20
6.8466087202
 30
0.0
 10
12.9519400304
 20
6.8181559867
 30
0.0
 10
12.9462137067
 20
6.7903566055
 30
0.0
 10
12.9402336247
 20
6.7632632062
 30
0.0
 10
12.9340111575
 20
6.736927074
 30
0.0
 10
12.9275581384
 20
6.7113980496
 30
0.0
 10
12.920886843
 20
6.6867244254
 30
0.0
 10
12.9140099731
 20
6.6629528464
 30
0.0
 10
12.9069406185
 20
6.640128222
 30
0.0
 10
12.8996922352
 20
6.6182936422
 30
0.0
 10
12.8922786137
 20
6.5974902782
 30
0.0
 10
12.8847138526
 20
6.5777573169
 30
0.0
 10
12.8770123258
 20
6.5591317576
 30
0.0
 10
12.869188659
 20
6.5416487067
 30
0.0
 10
12.8624852704
 20
6.5278645174
 30
0.0
 10
12.8570628585
 20
6.5174447959
 30
0.0
 10
12.8530341807
 20
6.510050105
 30
0.0
 10
12.8489860575
 20
6.5029646257
 30
0.0
 10
12.8449204137
 20
6.4961916511
 30
0.0
 10
12.8408391317
 20
6.4897343716
 30
0.0
 10
12.8367441191
 20
6.4835958254
 30
0.0
 10
12.8326373498
 20
6.4777788669
 30
0.0
 10
12.8285206471
 20
6.4722862296
 30
0.0
 10
12.8243959213
 20
6.4671203986
 30
0.0
 10
12.8202649654
 20
6.4622837714
 30
0.0
 10
12.8161298971
 20
6.4577788246
 30
0.0
 10
12.8133160898
 20
6.454941929
 30
0.0
 10
12.8119084647
 20
6.4535822674
 30
0.0
  0
SPLINE
  5
3A4
100
AcDbEntity
  8
0
100
AcDbSpline
 62
7
  6
CONTINUOUS
 70
0
 71
3
 72
88
 73
84
 74
0
 42
0.0000001
 43
0.0000001
 44
0.0000000001
 40
0.0
 40
0.0
 40
0.0
 40
0.0
 40
0.0027164206
 40
0.0054532135
 40
0.00823027
 40
0.0110665466
 40
0.0139797362
 40
0.0169860264
 40
0.0200999638
 40
0.0233344621
 40
0.0267007864
 40
0.030208716
 40
0.033866602
 40
0.0376815365
 40
0.0416594862
 40
0.0458053757
 40
0.0501232805
 40
0.0546164357
 40
0.0592874172
 40
0.0641381604
 40
0.0691700473
 40
0.0743839976
 40
0.0797804461
 40
0.085359486
 40
0.0911208072
 40
0.097063806
 40
0.1031875785
 40
0.1094909314
 40
0.1226301057
 40
0.1364676988
 40
0.1509864378
 40
0.1661662591
 40
0.1819846247
 40
0.1984167804
 40
0.2154359739
 40
0.2330136371
 40
0.2511195505
 40
0.2697219952
 40
0.2887878869
 40
0.3082829001
 40
0.3281715858
 40
0.3484174815
 40
0.3689832185
 40
0.3898306305
 40
0.410920857
 40
0.4322144439
 40
0.4536714439
 40
0.4969133241
 40
0.5403214886
 40
0.5835686279
 40
0.6050302166
 40
0.6263296837
 40
0.6474270673
 40
0.6682828961
 40
0.6888582896
 40
0.7091150586
 40
0.7290158075
 40
0.7485240405
 40
0.7676042737
 40
0.7862221443
 40
0.8043445271
 40
0.8219396585
 40
0.8389772699
 40
0.8554287349
 40
0.8712672375
 40
0.8864679574
 40
0.9010082824
 40
0.9148680665
 40
0.9280299429
 40
0.9343448017
 40
0.9404801679
 40
0.9464348204
 40
0.9522078552
 40
0.9577986253
 40
0.9632068219
 40
0.9684325067
 40
0.9734760906
 40
0.9783384494
 40
0.9830208978
 40
0.9875254123
 40
0.9918545974
 40
0.9960115688
 40
1.0
 40
1.0
 40
1.0
 40
1.0
 10
12.8936335005
 20
7.8936513309
 30
0.0
 10
12.895004355
 20
7.8935562664
 30
0.0
 10
12.8977493234
 20
7.8932413352
 30
0.0
 10
12.9018318446
 20
7.8923986587
 30
0.0
 10
12.9058834933
 20
7.8911857043
 30
0.0
 10
12.9099014177
 20
7.8896037673
 30
0.0
 10
12.9138835183
 20
7.8876541825
 30
0.0
 10
12.9178277501
 20
7.8853384859
 30
0.0
 10
12.9217323333
 20
7.8826583722
 30
0.0
 10
12.9255954649
 20
7.8796154569
 30
0.0
 10
12.9294155567
 20
7.8762116097
 30
0.0
 10
12.9331908887
 20
7.8724486139
 30
0.0
 10
12.936919858
 20
7.8683284785
 30
0.0
 10
12.940600805
 20
7.863853283
 30
0.0
 10
12.9442320258
 20
7.8590252373
 30
0.0
 10
12.947811913
 20
7.8538467671
 30
0.0
 10
12.9513387005
 20
7.8483203753
 30
0.0
 10
12.9548107871
 20
7.8424488232
 30
0.0
 10
12.9582264429
 20
7.8362349763
 30
0.0
 10
12.9615840231
 20
7.8296819125
 30
0.0
 10
12.9648818989
 20
7.8227928781
 30
0.0
 10
12.9681183888
 20
7.8155712727
 30
0.0
 10
12.9712919569
 20
7.8080207039
 30
0.0
 10
12.9744009495
 20
7.8001449105
 30
0.0
 10
12.9774438707
 20
7.7919478321
 30
0.0
 10
12.9804191607
 20
7.7834335564
 30
0.0
 10
12.9833253516
 20
7.774606327
 30
0.0
 10
12.9871592805
 20
7.7622539703
 30
0.0
 10
12.9917548972
 20
7.7460550055
 30
0.0
 10
12.9968982022
 20
7.7257010674
 30
0.0
 10
13.0017331354
 20
7.7042124695
 30
0.0
 10
13.0062498935
 20
7.6816322944
 30
0.0
 10
13.0104392835
 20
7.6580056363
 30
0.0
 10
13.0142927802
 20
7.6333798237
 30
0.0
 10
13.0178025369
 20
7.607804219
 30
0.0
 10
13.020961409
 20
7.5813301387
 30
0.0
 10
13.0237629692
 20
7.5540107342
 30
0.0
 10
13.0262015148
 20
7.5259008788
 30
0.0
 10
13.0282720807
 20
7.4970570497
 30
0.0
 10
13.0299704483
 20
7.4675372125
 30
0.0
 10
13.0312931529
 20
7.4374007029
 30
0.0
 10
13.0322374917
 20
7.406708107
 30
0.0
 10
13.0328015327
 20
7.375521139
 30
0.0
 10
13.032984115
 20
7.3439025084
 30
0.0
 10
13.0327848394
 20
7.3119158141
 30
0.0
 10
13.0322041152
 20
7.2796253292
 30
0.0
 10
13.0309193421
 20
7.2361427918
 30
0.0
 10
13.0283683253
 20
7.1815094363
 30
0.0
 10
13.0238336134
 20
7.1159502404
 30
0.0
 10
13.0188380705
 20
7.0614809787
 30
0.0
 10
13.0141234523
 20
7.0182276979
 30
0.0
 10
13.0102522854
 20
6.9861558616
 30
0.0
 10
13.0060449925
 20
6.9544354991
 30
0.0
 10
13.0015100192
 20
6.9231303496
 30
0.0
 10
12.9966565198
 20
6.892303376
 30
0.0
 10
12.9914942802
 20
6.8620165593
 30
0.0
 10
12.9860337143
 20
6.8323307936
 30
0.0
 10
12.9802858386
 20
6.8033057554
 30
0.0
 10
12.9742622577
 20
6.7749997803
 30
0.0
 10
12.9679751345
 20
6.7474697448
 30
0.0
 10
12.9614371662
 20
6.7207709513
 30
0.0
 10
12.9546615597
 20
6.6949570145
 30
0.0
 10
12.9476620045
 20
6.6700797494
 30
0.0
 10
12.9404526429
 20
6.6461890611
 30
0.0
 10
12.9330480464
 20
6.6233328256
 30
0.0
 10
12.9254631806
 20
6.6015568115
 30
0.0
 10
12.9177133654
 20
6.5809044838
 30
0.0
 10
12.9098142459
 20
6.561417233
 30
0.0
 10
12.9030301841
 20
6.5459749611
 30
0.0
 10
12.8975305289
 20
6.5342432387
 30
0.0
 10
12.8934353807
 20
6.5258812587
 30
0.0
 10
12.8893148402
 20
6.5178385189
 30
0.0
 10
12.8851709955
 20
6.5101190144
 30
0.0
 10
12.8810059012
 20
6.5027266081
 30
0.0
 10
12.8768216299
 20
6.4956649845
 30
0.0
 10
12.8726202975
 20
6.4889376401
 30
0.0
 10
12.868403933
 20
6.4825479537
 30
0.0
 10
12.8641747137
 20
6.4764990707
 30
0.0
 10
12.8599346523
 20
6.4707940045
 30
0.0
 10
12.855685818
 20
6.4654355191
 30
0.0
 10
12.8514301892
 20
6.4604262224
 30
0.0
 10
12.847170033
 20
6.4557688336
 30
0.0
 10
12.8442692722
 20
6.4528404083
 30
0.0
 10
12.8428180937
 20
6.4514386774
 30
0.0
  0
SPLINE
  5
3A5
100
AcDbEntity
  8
0
100
AcDbSpline
 62
7
  6
CONTINUOUS
 70
0
 71
3
 72
23
 73
19
 74
0
 42
0.0000001
 43
0.0000001
 44
0.0000000001
 40
0.0
 40
0.0
 40
0.0
 40
0.0
 40
0.0567844354
 40
0.1127382999
 40
0.1682231183
 40
0.2236106289
 40
0.2792745738
 40
0.3355828581
 40
0.3928897077
 40
0.4515296759
 40
0.511812882
 40
0.574021138
 40
0.6384081773
 40
0.7051999556
 40
0.7745955863
 40
0.8467687855
 40
0.9218636366
 40
1.0
 40
1.0
 40
1.0
 40
1.0
 10
13.0374255533
 20
8.2008479574
 30
0.0
 10
13.0384094674
 20
8.2005000851
 30
0.0
 10
13.0403910714
 20
8.1998859274
 30
0.0
 10
13.0434127445
 20
8.1992158341
 30
0.0
 10
13.0464549515
 20
8.1988059029
 30
0.0
 10
13.0495156459
 20
8.1986564922
 30
0.0
 10
13.0525930728
 20
8.1987675973
 30
0.0
 10
13.0556854091
 20
8.1991391361
 30
0.0
 10
13.0587909481
 20
8.1997705813
 30
0.0
 10
13.0619080807
 20
8.2006613558
 30
0.0
 10
13.0650352723
 20
8.2018107723
 30
0.0
 10
13.0681711439
 20
8.2032178816
 30
0.0
 10
13.0713143329
 20
8.204881842
 30
0.0
 10
13.0744635638
 20
8.2068017219
 30
0.0
 10
13.0776176387
 20
8.2089765026
 30
0.0
 10
13.0807752256
 20
8.2114051901
 30
0.0
 10
13.0839349023
 20
8.2140863873
 30
0.0
 10
13.0860000148
 20
8.2160025038
 30
0.0
 10
13.0870328732
 20
8.2170001685
 30
0.0
  0
SPLINE
  5
3A6
100
AcDbEntity
  8
0
100
AcDbSpline
 62
7
  6
CONTINUOUS
 70
0
 71
3
 72
15
 73
11
 74
0
 42
0.0000001
 43
0.0000001
 44
0.0000000001
 40
0.0
 40
0.0
 40
0.0
 40
0.0
 40
0.1090525012
 40
0.2216230895
 40
0.3383149051
 40
0.4596620114
 40
0.5861319539
 40
0.7181296687
 40
0.8559944512
 40
1.0
 40
1.0
 40
1.0
 40
1.0
 10
13.05180295
 20
8.04119493
 30
0.0
 10
13.0532741707
 20
8.0415805454
 30
0.0
 10
13.0562318008
 20
8.0424924818
 30
0.0
 10
13.060619936
 20
8.0442384925
 30
0.0
 10
13.0650204969
 20
8.046380223
 30
0.0
 10
13.0694308287
 20
8.0489160098
 30
0.0
 10
13.0738490065
 20
8.0518441578
 30
0.0
 10
13.0782729406
 20
8.0551629183
 30
0.0
 10
13.082700269
 20
8.0588701491
 30
0.0
 10
13.0855883256
 20
8.0615396642
 30
0.0
 10
13.0870328732
 20
8.0629349901
 30
0.0
  0
SPLINE
  5
3A7
100
AcDbEntity
  8
0
100
AcDbSpline
 62
7
  6
CONTINUOUS
 70
0
 71
3
 72
39
 73
35
 74
0
 42
0.0000001
 43
0.0000001
 44
0.0000000001
 40
0.0
 40
0.0
 40
0.0
 40
0.0
 40
0.0235372374
 40
0.0484731425
 40
0.0747472708
 40
0.1022916173
 40
0.1310315431
 40
0.1608865455
 40
0.1917709211
 40
0.223594355
 40
0.2562624602
 40
0.2896772805
 40
0.3237377695
 40
0.3583402528
 40
0.3933788783
 40
0.428746059
 40
0.4643329109
 40
0.5000296866
 40
0.5357262087
 40
0.5713123004
 40
0.6066782176
 40
0.6417150811
 40
0.6763153108
 40
0.7103730636
 40
0.7437846761
 40
0.7764491151
 40
0.8082684396
 40
0.83914828
 40
0.8689983418
 40
0.897732944
 40
0.9252716095
 40
0.951539728
 40
0.9764693273
 40
1.0
 40
1.0
 40
1.0
 40
1.0
 10
13.0084988991
 20
9.1680736285
 30
0.0
 10
13.0100082727
 20
9.1620833215
 30
0.0
 10
13.012894451
 20
9.1496900136
 30
0.0
 10
13.016750812
 20
9.1304521081
 30
0.0
 10
13.0202495718
 20
9.1100781602
 30
0.0
 10
13.0233789267
 20
9.088635117
 30
0.0
 10
13.0261283952
 20
9.0661931234
 30
0.0
 10
13.0284887451
 20
9.0428258251
 30
0.0
 10
13.0304520558
 20
9.0186099402
 30
0.0
 10
13.0320117338
 20
8.9936250367
 30
0.0
 10
13.0331625349
 20
8.9679532457
 30
0.0
 10
13.0339005785
 20
8.9416789861
 30
0.0
 10
13.0342233588
 20
8.9148886788
 30
0.0
 10
13.0341297513
 20
8.887670458
 30
0.0
 10
13.0336200149
 20
8.8601138772
 30
0.0
 10
13.0326957902
 20
8.8323096113
 30
0.0
 10
13.0313600929
 20
8.8043491555
 30
0.0
 10
13.0296173036
 20
8.7763245226
 30
0.0
 10
13.0274731524
 20
8.7483279375
 30
0.0
 10
13.0249347006
 20
8.7204515321
 30
0.0
 10
13.0220103166
 20
8.6927870404
 30
0.0
 10
13.0187096489
 20
8.6654254943
 30
0.0
 10
13.0150435949
 20
8.6384569219
 30
0.0
 10
13.0110242653
 20
8.6119700482
 30
0.0
 10
13.0066649448
 20
8.5860520008
 30
0.0
 10
13.0019800497
 20
8.5607880181
 30
0.0
 10
12.9969850811
 20
8.5362611643
 30
0.0
 10
12.9916965748
 20
8.5125520487
 30
0.0
 10
12.9861320489
 20
8.4897385541
 30
0.0
 10
12.9803099423
 20
8.4678955565
 30
0.0
 10
12.9742495685
 20
8.4470947063
 30
0.0
 10
12.9679709945
 20
8.4274040133
 30
0.0
 10
12.9614951551
 20
8.4088881368
 30
0.0
 10
12.9569252954
 20
8.397015707
 30
0.0
 10
12.9546032102
 20
8.3912930657
 30
0.0
  0
SPLINE
  5
3A8
100
AcDbEntity
  8
0
100
AcDbSpline
 62
7
  6
CONTINUOUS
 70
0
 71
3
 72
21
 73
17
 74
0
 42
0.0000001
 43
0.0000001
 44
0.0000000001
 40
0.0
 40
0.0
 40
0.0
 40
0.0
 40
0.1273176984
 40
0.2537999461
 40
0.3167619614
 40
0.3795355204
 40
0.4421314992
 40
0.5045621453
 40
0.5668413456
 40
0.6289845231
 40
0.6910084433
 40
0.7529310869
 40
0.8147714401
 40
0.8765493236
 40
0.9382852134
 40
1.0
 40
1.0
 40
1.0
 40
1.0
 10
11.8846812838
 20
9.5632071985
 30
0.0
 10
11.8846812838
 20
9.5699520066
 30
0.0
 10
11.8853251209
 20
9.583406046
 30
0.0
 10
11.8877567121
 20
9.6000381431
 30
0.0
 10
11.8906629792
 20
9.6130845667
 30
0.0
 10
11.8933133431
 20
9.6227076152
 30
0.0
 10
11.8964313378
 20
9.6321596669
 30
0.0
 10
11.9000097745
 20
9.6414192014
 30
0.0
 10
11.9040404032
 20
9.6504648029
 30
0.0
 10
11.9085140111
 20
9.6592755944
 30
0.0
 10
11.9134202492
 20
9.6678312659
 30
0.0
 10
11.9187478028
 20
9.6761120999
 30
0.0
 10
11.9244844373
 20
9.6840989344
 30
0.0
 10
11.9306169585
 20
9.6917734269
 30
0.0
 10
11.937130952
 20
9.6991176652
 30
0.0
 10
11.9417188447
 20
9.7037831578
 30
0.0
 10
11.9440703934
 20
9.7060545656
 30
0.0
  0
SPLINE
  5
3A9
100
AcDbEntity
  8
0
100
AcDbSpline
 62
7
  6
CONTINUOUS
 70
0
 71
3
 72
54
 73
50
 74
0
 42
0.0000001
 43
0.0000001
 44
0.0000000001
 40
0.0
 40
0.0
 40
0.0
 40
0.0
 40
0.0094755899
 40
0.0194589203
 40
0.0299480802
 40
0.040939127
 40
0.0524262179
 40
0.0644019581
 40
0.0768575149
 40
0.0897827369
 40
0.1031663766
 40
0.116996063
 40
0.1312584925
 40
0.145939475
 40
0.1610239522
 40
0.1764961599
 40
0.1923395743
 40
0.2085370324
 40
0.2419218671
 40
0.2765024972
 40
0.3121223135
 40
0.3486181285
 40
0.385821327
 40
0.4235589779
 40
0.4616549226
 40
0.4999308634
 40
0.5382074327
 40
0.5763052572
 40
0.6140460266
 40
0.6512535694
 40
0.6877549283
 40
0.7233814493
 40
0.7579698959
 40
0.7913636169
 40
0.8234137574
 40
0.8388912732
 40
0.8539812945
 40
0.8686680145
 40
0.8829364137
 40
0.8967722418
 40
0.9101622049
 40
0.9230939342
 40
0.9355561193
 40
0.9475386497
 40
0.9590326277
 40
0.970030651
 40
0.9805268816
 40
0.9905172858
 40
1.0
 40
1.0
 40
1.0
 40
1.0
 10
13.044456939
 20
9.2635442569
 30
0.0
 10
13.0457363819
 20
9.2606795249
 30
0.0
 10
13.0482491639
 20
9.2547448548
 30
0.0
 10
13.0518020616
 20
9.2454853727
 30
0.0
 10
13.0552329077
 20
9.2356469997
 30
0.0
 10
13.0585372973
 20
9.2252420088
 30
0.0
 10
13.061711181
 20
9.2142832022
 30
0.0
 10
13.0647505492
 20
9.2027841574
 30
0.0
 10
13.0676515783
 20
9.1907591366
 30
0.0
 10
13.070410658
 20
9.178223088
 30
0.0
 10
13.0730242684
 20
9.1651916064
 30
0.0
 10
13.0754891569
 20
9.151680926
 30
0.0
 10
13.0778022091
 20
9.1377078871
 30
0.0
 10
13.0799604924
 20
9.1232899167
 30
0.0
 10
13.0819613289
 20
9.1084450043
 30
0.0
 10
13.083802151
 20
9.0931916854
 30
0.0
 10
13.0854806926
 20
9.0775489853
 30
0.0
 10
13.0875199748
 20
9.0559816071
 30
0.0
 10
13.0896355699
 20
9.0281920618
 30
0.0
 10
13.091474322
 20
8.9939407017
 30
0.0
 10
13.0926282905
 20
8.9586288936
 30
0.0
 10
13.0930915145
 20
8.9224330464
 30
0.0
 10
13.0928614649
 20
8.8855338324
 30
0.0
 10
13.0919391436
 20
8.8481155398
 30
0.0
 10
13.0903290626
 20
8.8103650623
 30
0.0
 10
13.0880392092
 20
8.7724709741
 30
0.0
 10
13.0850810025
 20
8.7346225709
 30
0.0
 10
13.0814692339
 20
8.6970089192
 30
0.0
 10
13.0772220003
 20
8.6598179
 30
0.0
 10
13.0723606205
 20
8.6232352609
 30
0.0
 10
13.0669095179
 20
8.5874436714
 30
0.0
 10
13.0608961003
 20
8.5526218245
 30
0.0
 10
13.0543506415
 20
8.5189434294
 30
0.0
 10
13.047306084
 20
8.4865766464
 30
0.0
 10
13.0409780779
 20
8.4605375055
 30
0.0
 10
13.0356801095
 20
8.4404919211
 30
0.0
 10
13.0316506709
 20
8.4260592012
 30
0.0
 10
13.0275241501
 20
8.412070837
 30
0.0
 10
13.0233057151
 20
8.3985442601
 30
0.0
 10
13.0190006203
 20
8.3854963488
 30
0.0
 10
13.0146143006
 20
8.3729433545
 30
0.0
 10
13.0101522373
 20
8.3609009108
 30
0.0
 10
13.0056200064
 20
8.349384001
 30
0.0
 10
13.0010233234
 20
8.3384069236
 30
0.0
 10
12.9963678833
 20
8.3279833007
 30
0.0
 10
12.9916595421
 20
8.3181260354
 30
0.0
 10
12.9869041261
 20
8.3088472406
 30
0.0
 10
12.9821075974
 20
8.3001585084
 30
0.0
 10
12.9788000649
 20
8.2946217964
 30
0.0
 10
12.9771375922
 20
8.2919582168
 30
0.0
  0
SPLINE
  5
3AA
100
AcDbEntity
  8
0
100
AcDbSpline
 62
7
  6
CONTINUOUS
 70
0
 71
3
 72
85
 73
81
 74
0
 42
0.0000001
 43
0.0000001
 44
0.0000000001
 40
0.0
 40
0.0
 40
0.0
 40
0.0
 40
0.0028240033
 40
0.0056048609
 40
0.0083637173
 40
0.0111222622
 40
0.0139021978
 40
0.016724681
 40
0.0196098576
 40
0.0225764624
 40
0.0288164703
 40
0.0321226632
 40
0.0355678904
 40
0.0391622565
 40
0.0429143476
 40
0.0468314467
 40
0.0509195727
 40
0.055183722
 40
0.0596279415
 40
0.0642554181
 40
0.0690686673
 40
0.0740694932
 40
0.0792591676
 40
0.0846384532
 40
0.090207615
 40
0.095966573
 40
0.1019148146
 40
0.1143750845
 40
0.1275789008
 40
0.1415119855
 40
0.1561565
 40
0.171491486
 40
0.1874932343
 40
0.2041355963
 40
0.2213902299
 40
0.2392268066
 40
0.2576131805
 40
0.2765155655
 40
0.2958986927
 40
0.3157259475
 40
0.3359594944
 40
0.3565603949
 40
0.3774887406
 40
0.3987037713
 40
0.4201639872
 40
0.4418272566
 40
0.4855912058
 40
0.5296509886
 40
0.5736582188
 40
0.6172650435
 40
0.6388109917
 40
0.6601284218
 40
0.6811755706
 40
0.7019113697
 40
0.7222955568
 40
0.7422887927
 40
0.7618527932
 40
0.7809504435
 40
0.7995459222
 40
0.8176048341
 40
0.8350943637
 40
0.8519834449
 40
0.8682429218
 40
0.8838457441
 40
0.8987671981
 40
0.9129851973
 40
0.9264806189
 40
0.9392377072
 40
0.9453357619
 40
0.9512451591
 40
0.9569651152
 40
0.9624952593
 40
0.9678355348
 40
0.9729863231
 40
0.9779484618
 40
0.9827232912
 40
0.9873128909
 40
0.9917199511
 40
0.9959476985
 40
1.0
 40
1.0
 40
1.0
 40
1.0
 10
13.1167969183
 20
9.3453433663
 30
0.0
 10
13.1179019497
 20
9.3455689311
 30
0.0
 10
13.1201154864
 20
9.345923629
 30
0.0
 10
13.1234519624
 20
9.3461561865
 30
0.0
 10
13.1267699596
 20
9.3460837422
 30
0.0
 10
13.1300667743
 20
9.3457062438
 30
0.0
 10
13.1333401024
 20
9.3450239381
 30
0.0
 10
13.1365876559
 20
9.344037713
 30
0.0
 10
13.1398075245
 20
9.3427483574
 30
0.0
 10
13.1441329145
 20
9.3405911735
 30
0.0
 10
13.1483303098
 20
9.3378415549
 30
0.0
 10
13.152373685
 20
9.3345871945
 30
0.0
 10
13.1554299484
 20
9.3318027346
 30
0.0
 10
13.1584487869
 20
9.328723987
 30
0.0
 10
13.1614293457
 20
9.3253523702
 30
0.0
 10
13.1643700242
 20
9.3216896915
 30
0.0
 10
13.1672695419
 20
9.3177378919
 30
0.0
 10
13.1701264398
 20
9.3134989908
 30
0.0
 10
13.1729393031
 20
9.3089751717
 30
0.0
 10
13.1757067764
 20
9.3041687921
 30
0.0
 10
13.1784273805
 20
9.2990822998
 30
0.0
 10
13.1810997894
 20
9.2937183575
 30
0.0
 10
13.183722596
 20
9.2880797356
 30
0.0
 10
13.1862944223
 20
9.2821693618
 30
0.0
 10
13.1888139754
 20
9.2759903345
 30
0.0
 10
13.1912798986
 20
9.2695458505
 30
0.0
 10
13.1945452254
 20
9.260462667
 30
0.0
 10
13.1984707273
 20
9.2484602934
 30
0.0
 10
13.2028776938
 20
9.2332702452
 30
0.0
 10
13.2070416998
 20
9.2171095846
 30
0.0
 10
13.2109538956
 20
9.2000122078
 30
0.0
 10
13.2146059403
 20
9.1820138086
 30
0.0
 10
13.2179900474
 20
9.1631521385
 30
0.0
 10
13.2210989901
 20
9.1434667965
 30
0.0
 10
13.2239261258
 20
9.1229991598
 30
0.0
 10
13.2264654077
 20
9.1017922874
 30
0.0
 10
13.2287114165
 20
9.0798908289
 30
0.0
 10
13.2306593582
 20
9.0573409209
 30
0.0
 10
13.2323050705
 20
9.0341900781
 30
0.0
 10
13.2336450315
 20
9.0104870911
 30
0.0
 10
13.234676368
 20
8.9862819273
 30
0.0
 10
13.2353968756
 20
8.9616256257
 30
0.0
 10
13.2358050085
 20
8.9365701792
 30
0.0
 10
13.2358998729
 20
8.9111684385
 30
0.0
 10
13.2356812692
 20
8.8854739331
 30
0.0
 10
13.2349699087
 20
8.8507804335
 30
0.0
 10
13.2332988463
 20
8.8070823858
 30
0.0
 10
13.2300761591
 20
8.7545274415
 30
0.0
 10
13.2256561216
 20
8.7021225926
 30
0.0
 10
13.2209879612
 20
8.6587737718
 30
0.0
 10
13.2166763281
 20
8.6245098084
 30
0.0
 10
13.213182378
 20
8.5992255532
 30
0.0
 10
13.2094229006
 20
8.5743065846
 30
0.0
 10
13.205405815
 20
8.5498054143
 30
0.0
 10
13.2011396272
 20
8.5257737197
 30
0.0
 10
13.196633358
 20
8.5022621692
 30
0.0
 10
13.1918965541
 20
8.4793203246
 30
0.0
 10
13.1869392488
 20
8.4569965334
 30
0.0
 10
13.1817719428
 20
8.4353378323
 30
0.0
 10
13.1764055808
 20
8.4143898455
 30
0.0
 10
13.170851532
 20
8.3941966768
 30
0.0
 10
13.1651215773
 20
8.3748008064
 30
0.0
 10
13.1592278658
 20
8.3562430052
 30
0.0
 10
13.1531828919
 20
8.3385622393
 30
0.0
 10
13.1469994612
 20
8.3217956022
 30
0.0
 10
13.1406906628
 20
8.3059781158
 30
0.0
 10
13.1342698519
 20
8.2911429664
 30
0.0
 10
13.1287573715
 20
8.2794550756
 30
0.0
 10
13.1242927996
 20
8.2706293506
 30
0.0
 10
13.120975238
 20
8.2643744531
 30
0.0
 10
13.1176398137
 20
8.2583873747
 30
0.0
 10
13.1142883043
 20
8.2526712094
 30
0.0
 10
13.1109224176
 20
8.2472289635
 30
0.0
 10
13.1075439289
 20
8.2420634764
 30
0.0
 10
13.104154638
 20
8.2371774254
 30
0.0
 10
13.1007562157
 20
8.2325733611
 30
0.0
 10
13.0973504207
 20
8.2282535929
 30
0.0
 10
13.093938889
 20
8.2242203596
 30
0.0
 10
13.0905235781
 20
8.2204759544
 30
0.0
 10
13.0881968873
 20
8.2181245199
 30
0.0
 10
13.0870328732
 20
8.2170001685
 30
0.0
  0
SPLINE
  5
3AB
100
AcDbEntity
  8
0
100
AcDbSpline
 62
7
  6
CONTINUOUS
 70
0
 71
3
 72
83
 73
79
 74
0
 42
0.0000001
 43
0.0000001
 44
0.0000000001
 40
0.0
 40
0.0
 40
0.0
 40
0.0
 40
0.0028368303
 40
0.0057583712
 40
0.0087784853
 40
0.011909565
 40
0.0151625368
 40
0.0185469085
 40
0.0220709258
 40
0.0257416053
 40
0.0295649213
 40
0.033545886
 40
0.0376886349
 40
0.0419965911
 40
0.0464724556
 40
0.0511183694
 40
0.0559359347
 40
0.0609262579
 40
0.0660900676
 40
0.0714276579
 40
0.0769390185
 40
0.0826238155
 40
0.0945104983
 40
0.1070802678
 40
0.1203216028
 40
0.1342199279
 40
0.1487579867
 40
0.1639161613
 40
0.1796727257
 40
0.1960040542
 40
0.2128847957
 40
0.2302880189
 40
0.2481853589
 40
0.2665471454
 40
0.2853425152
 40
0.3045395174
 40
0.3241052075
 40
0.344005751
 40
0.3642065199
 40
0.3846721832
 40
0.4053667941
 40
0.426253875
 40
0.4684567762
 40
0.5109824934
 40
0.5535290334
 40
0.5957942193
 40
0.6167278246
 40
0.6374790819
 40
0.6580113872
 40
0.6782886395
 40
0.6982753273
 40
0.7179366165
 40
0.737238445
 40
0.7561476201
 40
0.7746319081
 40
0.7926601326
 40
0.8102022786
 40
0.8272296098
 40
0.8437147962
 40
0.8596320382
 40
0.8749572138
 40
0.8896680484
 40
0.9037443198
 40
0.9171681047
 40
0.9299240563
 40
0.9419997648
 40
0.947779801
 40
0.9533867253
 40
0.9588200134
 40
0.9640794966
 40
0.9691652927
 40
0.9740778783
 40
0.978818134
 40
0.9833873571
 40
0.9877874713
 40
0.9920209302
 40
0.9960906338
 40
1.0
 40
1.0
 40
1.0
 40
1.0
 10
13.1531192464
 20
9.5014646312
 30
0.0
 10
13.1544296321
 20
9.5009171927
 30
0.0
 10
13.1570461751
 20
9.4996993987
 30
0.0
 10
13.1608841817
 20
9.497551428
 30
0.0
 10
13.1646857008
 20
9.4950596061
 30
0.0
 10
13.1684487517
 20
9.4922255431
 30
0.0
 10
13.1721718553
 20
9.4890507731
 30
0.0
 10
13.175853519
 20
9.4855370236
 30
0.0
 10
13.17949215
 20
9.4816859661
 30
0.0
 10
13.1830862977
 20
9.4774995236
 30
0.0
 10
13.1866343956
 20
9.4729796417
 30
0.0
 10
13.1901348933
 20
9.4681284309
 30
0.0
 10
13.1935863043
 20
9.4629481768
 30
0.0
 10
13.1969870057
 20
9.4574412414
 30
0.0
 10
13.200335531
 20
9.45161022
 30
0.0
 10
13.203630309
 20
9.4454578034
 30
0.0
 10
13.2068698149
 20
9.4389868583
 30
0.0
 10
13.2100525915
 20
9.4322004205
 30
0.0
 10
13.2131770853
 20
9.4251016399
 30
0.0
 10
13.2162418913
 20
9.4176938677
 30
0.0
 10
13.2192455617
 20
9.4099805555
 30
0.0
 10
13.2232262983
 20
9.3991317403
 30
0.0
 10
13.2280250119
 20
9.3848225727
 30
0.0
 10
13.2334354422
 20
9.3667399177
 30
0.0
 10
13.2385699432
 20
9.347532855
 30
0.0
 10
13.2434187215
 20
9.3272375833
 30
0.0
 10
13.2479725149
 20
9.3058921601
 30
0.0
 10
13.2522226096
 20
9.2835367952
 30
0.0
 10
13.2561608647
 20
9.2602136371
 30
0.0
 10
13.259779732
 20
9.2359667145
 30
0.0
 10
13.2630722707
 20
9.2108418402
 30
0.0
 10
13.2660321761
 20
9.1848865234
 30
0.0
 10
13.268653779
 20
9.1581498694
 30
0.0
 10
13.2709320551
 20
9.1306824765
 30
0.0
 10
13.272862635
 20
9.1025363372
 30
0.0
 10
13.27444181
 20
9.0737647422
 30
0.0
 10
13.2756665526
 20
9.0444221791
 30
0.0
 10
13.2765345112
 20
9.0145642269
 30
0.0
 10
13.2770440139
 20
8.9842474399
 30
0.0
 10
13.2771940614
 20
8.9535292596
 30
0.0
 10
13.2769843707
 20
8.9224678334
 30
0.0
 10
13.2762229054
 20
8.8805307403
 30
0.0
 10
13.2743719766
 20
8.8276863289
 30
0.0
 10
13.2707489257
 20
8.7640694927
 30
0.0
 10
13.2657433958
 20
8.7005152095
 30
0.0
 10
13.2604352375
 20
8.6478403034
 30
0.0
 10
13.2555201515
 20
8.6061018777
 30
0.0
 10
13.2515266575
 20
8.575211811
 30
0.0
 10
13.2472220626
 20
8.5446953676
 30
0.0
 10
13.2426145091
 20
8.5146103141
 30
0.0
 10
13.2377127577
 20
8.4850136525
 30
0.0
 10
13.2325261155
 20
8.4559614429
 30
0.0
 10
13.2270644389
 20
8.4275087094
 30
0.0
 10
13.2213381152
 20
8.3997093281
 30
0.0
 10
13.2153580333
 20
8.3726159288
 30
0.0
 10
13.209135566
 20
8.3462797966
 30
0.0
 10
13.2026825469
 20
8.3207507723
 30
0.0
 10
13.1960112515
 20
8.2960771481
 30
0.0
 10
13.1891343816
 20
8.272305569
 30
0.0
 10
13.182065027
 20
8.2494809446
 30
0.0
 10
13.1748166437
 20
8.2276463649
 30
0.0
 10
13.1674030222
 20
8.2068430009
 30
0.0
 10
13.1598382611
 20
8.1871100395
 30
0.0
 10
13.1521367343
 20
8.1684844803
 30
0.0
 10
13.1443130676
 20
8.1510014294
 30
0.0
 10
13.1376096789
 20
8.1372172401
 30
0.0
 10
13.132187267
 20
8.1267975186
 30
0.0
 10
13.1281585892
 20
8.1194028277
 30
0.0
 10
13.124110466
 20
8.1123173484
 30
0.0
 10
13.1200448223
 20
8.1055443738
 30
0.0
 10
13.1159635402
 20
8.0990870943
 30
0.0
 10
13.1118685276
 20
8.092948548
 30
0.0
 10
13.1077617583
 20
8.0871315896
 30
0.0
 10
13.1036450556
 20
8.0816389522
 30
0.0
 10
13.0995203298
 20
8.0764731213
 30
0.0
 10
13.0953893739
 20
8.071636494
 30
0.0
 10
13.0912543056
 20
8.0671315472
 30
0.0
 10
13.0884404983
 20
8.0642946516
 30
0.0
 10
13.0870328732
 20
8.0629349901
 30
0.0
  0
SPLINE
  5
3AC
100
AcDbEntity
  8
0
100
AcDbSpline
 62
7
  6
CONTINUOUS
 70
0
 71
3
 72
88
 73
84
 74
0
 42
0.0000001
 43
0.0000001
 44
0.0000000001
 40
0.0
 40
0.0
 40
0.0
 40
0.0
 40
0.0027164206
 40
0.0054532135
 40
0.00823027
 40
0.0110665466
 40
0.0139797362
 40
0.0169860264
 40
0.0200999638
 40
0.0233344621
 40
0.0267007864
 40
0.030208716
 40
0.033866602
 40
0.0376815365
 40
0.0416594862
 40
0.0458053757
 40
0.0501232805
 40
0.0546164357
 40
0.0592874172
 40
0.0641381604
 40
0.0691700473
 40
0.0743839976
 40
0.0797804461
 40
0.085359486
 40
0.0911208072
 40
0.097063806
 40
0.1031875785
 40
0.1094909314
 40
0.1226301057
 40
0.1364676988
 40
0.1509864378
 40
0.1661662591
 40
0.1819846247
 40
0.1984167804
 40
0.2154359739
 40
0.2330136371
 40
0.2511195505
 40
0.2697219952
 40
0.2887878869
 40
0.3082829001
 40
0.3281715858
 40
0.3484174815
 40
0.3689832185
 40
0.3898306305
 40
0.410920857
 40
0.4322144439
 40
0.4536714439
 40
0.4969133241
 40
0.5403214886
 40
0.5835686279
 40
0.6050302166
 40
0.6263296837
 40
0.6474270673
 40
0.6682828961
 40
0.6888582896
 40
0.7091150586
 40
0.7290158075
 40
0.7485240405
 40
0.7676042737
 40
0.7862221443
 40
0.8043445271
 40
0.8219396585
 40
0.8389772699
 40
0.8554287349
 40
0.8712672375
 40
0.8864679574
 40
0.9010082824
 40
0.9148680665
 40
0.9280299429
 40
0.9343448017
 40
0.9404801679
 40
0.9464348204
 40
0.9522078552
 40
0.9577986253
 40
0.9632068219
 40
0.9684325067
 40
0.9734760906
 40
0.9783384494
 40
0.9830208978
 40
0.9875254123
 40
0.9918545974
 40
0.9960115688
 40
1.0
 40
1.0
 40
1.0
 40
1.0
 10
13.168757909
 20
9.5030040536
 30
0.0
 10
13.1701287635
 20
9.502908989
 30
0.0
 10
13.172873732
 20
9.5025940578
 30
0.0
 10
13.1769562531
 20
9.5017513813
 30
0.0
 10
13.1810079018
 20
9.500538427
 30
0.0
 10
13.1850258262
 20
9.49895649
 30
0.0
 10
13.1890079268
 20
9.4970069052
 30
0.0
 10
13.1929521587
 20
9.4946912086
 30
0.0
 10
13.1968567418
 20
9.4920110949
 30
0.0
 10
13.2007198734
 20
9.4889681796
 30
0.0
 10
13.2045399652
 20
9.4855643324
 30
0.0
 10
13.2083152972
 20
9.4818013365
 30
0.0
 10
13.2120442665
 20
9.4776812012
 30
0.0
 10
13.2157252135
 20
9.4732060056
 30
0.0
 10
13.2193564343
 20
9.46837796
 30
0.0
 10
13.2229363215
 20
9.4631994898
 30
0.0
 10
13.226463109
 20
9.457673098
 30
0.0
 10
13.2299351956
 20
9.4518015458
 30
0.0
 10
13.2333508514
 20
9.4455876989
 30
0.0
 10
13.2367084316
 20
9.4390346352
 30
0.0
 10
13.2400063074
 20
9.4321456008
 30
0.0
 10
13.2432427973
 20
9.4249239953
 30
0.0
 10
13.2464163654
 20
9.4173734266
 30
0.0
 10
13.249525358
 20
9.4094976332
 30
0.0
 10
13.2525682792
 20
9.4013005548
 30
0.0
 10
13.2555435692
 20
9.3927862791
 30
0.0
 10
13.2584497601
 20
9.3839590496
 30
0.0
 10
13.262283689
 20
9.3716066929
 30
0.0
 10
13.2668793058
 20
9.3554077281
 30
0.0
 10
13.2720226107
 20
9.33505379
 30
0.0
 10
13.2768575439
 20
9.3135651922
 30
0.0
 10
13.2813743021
 20
9.2909850171
 30
0.0
 10
13.285563692
 20
9.2673583589
 30
0.0
 10
13.2894171887
 20
9.2427325463
 30
0.0
 10
13.2929269455
 20
9.2171569416
 30
0.0
 10
13.2960858175
 20
9.1906828613
 30
0.0
 10
13.2988873777
 20
9.1633634569
 30
0.0
 10
13.3013259233
 20
9.1352536015
 30
0.0
 10
13.3033964892
 20
9.1064097724
 30
0.0
 10
13.3050948568
 20
9.0768899352
 30
0.0
 10
13.3064175614
 20
9.0467534256
 30
0.0
 10
13.3073619002
 20
9.0160608297
 30
0.0
 10
13.3079259412
 20
8.9848738616
 30
0.0
 10
13.3081085235
 20
8.9532552311
 30
0.0
 10
13.3079092479
 20
8.9212685367
 30
0.0
 10
13.3073285237
 20
8.8889780519
 30
0.0
 10
13.3060437506
 20
8.8454955145
 30
0.0
 10
13.3034927338
 20
8.790862159
 30
0.0
 10
13.2989580219
 20
8.7253029631
 30
0.0
 10
13.293962479
 20
8.6708337014
 30
0.0
 10
13.2892478608
 20
8.6275804206
 30
0.0
 10
13.2853766939
 20
8.5955085842
 30
0.0
 10
13.281169401
 20
8.5637882218
 30
0.0
 10
13.2766344277
 20
8.5324830723
 30
0.0
 10
13.2717809283
 20
8.5016560987
 30
0.0
 10
13.2666186887
 20
8.4713692819
 30
0.0
 10
13.2611581228
 20
8.4416835163
 30
0.0
 10
13.2554102471
 20
8.412658478
 30
0.0
 10
13.2493866662
 20
8.3843525029
 30
0.0
 10
13.243099543
 20
8.3568224675
 30
0.0
 10
13.2365615747
 20
8.330123674
 30
0.0
 10
13.2297859682
 20
8.3043097372
 30
0.0
 10
13.222786413
 20
8.2794324721
 30
0.0
 10
13.2155770514
 20
8.2555417837
 30
0.0
 10
13.2081724549
 20
8.2326855483
 30
0.0
 10
13.2005875891
 20
8.2109095342
 30
0.0
 10
13.1928377739
 20
8.1902572064
 30
0.0
 10
13.1849386544
 20
8.1707699557
 30
0.0
 10
13.1781545926
 20
8.1553276838
 30
0.0
 10
13.1726549374
 20
8.1435959614
 30
0.0
 10
13.1685597892
 20
8.1352339813
 30
0.0
 10
13.1644392487
 20
8.1271912416
 30
0.0
 10
13.160295404
 20
8.1194717371
 30
0.0
 10
13.1561303097
 20
8.1120793308
 30
0.0
 10
13.1519460384
 20
8.1050177071
 30
0.0
 10
13.147744706
 20
8.0982903628
 30
0.0
 10
13.1435283415
 20
8.0919006763
 30
0.0
 10
13.1392991222
 20
8.0858517934
 30
0.0
 10
13.1350590608
 20
8.0801467271
 30
0.0
 10
13.1308102265
 20
8.0747882418
 30
0.0
 10
13.1265545977
 20
8.069778945
 30
0.0
 10
13.1222944415
 20
8.0651215563
 30
0.0
 10
13.1193936807
 20
8.0621931309
 30
0.0
 10
13.1179425022
 20
8.0607914
 30
0.0
  0
SPLINE
  5
3AD
100
AcDbEntity
  8
0
100
AcDbSpline
 62
7
  6
CONTINUOUS
 70
0
 71
3
 72
27
 73
23
 74
0
 42
0.0000001
 43
0.0000001
 44
0.0000000001
 40
0.0
 40
0.0
 40
0.0
 40
0.0
 40
0.062200974
 40
0.0932503179
 40
0.1242682267
 40
0.1862183615
 40
0.2481002854
 40
0.2790336516
 40
0.3099655958
 40
0.3718363198
 40
0.4337660659
 40
0.4957977566
 40
0.5579729725
 40
0.620330935
 40
0.6829075056
 40
0.7142932304
 40
0.745744984
 40
0.8088482425
 40
0.8722484956
 40
0.9040693541
 40
0.9359703651
 40
1.0
 40
1.0
 40
1.0
 40
1.0
 10
10.957581824
 20
8.4425062074
 30
0.0
 10
10.955422824
 20
8.4382620044
 30
0.0
 10
10.951961862
 20
8.4320094356
 30
0.0
 10
10.9469183737
 20
8.4239413553
 30
0.0
 10
10.941601619
 20
8.4160733753
 30
0.0
 10
10.9344408445
 20
8.4066124899
 30
0.0
 10
10.9266198193
 20
8.3976978954
 30
0.0
 10
10.9199912404
 20
8.390927141
 30
0.0
 10
10.9131203492
 20
8.3844037274
 30
0.0
 10
10.9040853742
 20
8.3767251503
 30
0.0
 10
10.8925847762
 20
8.3683295385
 30
0.0
 10
10.8804737056
 20
8.3607963129
 30
0.0
 10
10.8678073936
 20
8.3541682967
 30
0.0
 10
10.8546453441
 20
8.34848394
 30
0.0
 10
10.8433255675
 20
8.3445648146
 30
0.0
 10
10.8340905905
 20
8.3419320913
 30
0.0
 10
10.8247253352
 20
8.3396331308
 30
0.0
 10
10.8128285303
 20
8.3374037531
 30
0.0
 10
10.8007722988
 20
8.33605066
 30
0.0
 10
10.7910544277
 20
8.3354949048
 30
0.0
 10
10.7812750216
 20
8.3352912585
 30
0.0
 10
10.7739268369
 20
8.3355375334
 30
0.0
 10
10.7690368103
 20
8.3358766579
 30
0.0
  0
SPLINE
  5
3AE
100
AcDbEntity
  8
0
100
AcDbSpline
 62
7
  6
CONTINUOUS
 70
0
 71
3
 72
42
 73
38
 74
0
 42
0.0000001
 43
0.0000001
 44
0.0000000001
 40
0.0
 40
0.0
 40
0.0
 40
0.0
 40
0.0299419634
 40
0.0449235299
 40
0.0599142017
 40
0.0899287029
 40
0.1200139772
 40
0.1350926626
 40
0.1501967046
 40
0.1804840506
 40
0.2108978877
 40
0.2414513551
 40
0.2721543675
 40
0.3030134354
 40
0.3340315696
 40
0.3652082675
 40
0.3965395775
 40
0.4280182343
 40
0.4596338596
 40
0.4913732188
 40
0.5232205284
 40
0.5551578047
 40
0.5871652463
 40
0.6192216448
 40
0.6513048151
 40
0.6833920402
 40
0.7154605222
 40
0.747487836
 40
0.7794523759
 40
0.8113337934
 40
0.8431134117
 40
0.8747746318
 40
0.9063032512
 40
0.9376879208
 40
0.9533258
 40
0.9689252634
 40
1.0
 40
1.0
 40
1.0
 40
1.0
 10
10.5280536952
 20
7.850863049
 30
0.0
 10
10.5244205561
 20
7.8473537274
 30
0.0
 10
10.5187566886
 20
7.8423023943
 30
0.0
 10
10.5108245698
 20
7.83603479
 30
0.0
 10
10.5026398529
 20
7.8300790712
 30
0.0
 10
10.4919601431
 20
7.8232399765
 30
0.0
 10
10.4807611793
 20
7.8172577479
 30
0.0
 10
10.4715249365
 20
7.8130019846
 30
0.0
 10
10.4620979001
 20
7.8090975411
 30
0.0
 10
10.4500034398
 20
7.8048991608
 30
0.0
 10
10.4350988508
 20
7.8009863757
 30
0.0
 10
10.4198690413
 20
7.7982144686
 30
0.0
 10
10.4043984127
 20
7.7965987319
 30
0.0
 10
10.3887719486
 20
7.7961477882
 30
0.0
 10
10.3730756301
 20
7.7968639325
 30
0.0
 10
10.3573957278
 20
7.798743028
 30
0.0
 10
10.3418183958
 20
7.8017745651
 30
0.0
 10
10.3264291866
 20
7.8059417193
 30
0.0
 10
10.3113125926
 20
7.8112214505
 30
0.0
 10
10.2965515869
 20
7.8175846333
 30
0.0
 10
10.282227175
 20
7.8249962191
 30
0.0
 10
10.2684179563
 20
7.833415429
 30
0.0
 10
10.2551996988
 20
7.8427959779
 30
0.0
 10
10.2426449282
 20
7.853086327
 30
0.0
 10
10.2308225351
 20
7.8642299652
 30
0.0
 10
10.2197974011
 20
7.8761657161
 30
0.0
 10
10.2096300463
 20
7.8888280711
 30
0.0
 10
10.2003763006
 20
7.9021475455
 30
0.0
 10
10.1920869998
 20
7.9160510519
 30
0.0
 10
10.1848077085
 20
7.9304623129
 30
0.0
 10
10.1785784732
 20
7.9453022141
 30
0.0
 10
10.17343359
 20
7.9604894535
 30
0.0
 10
10.1694014811
 20
7.9759401669
 30
0.0
 10
10.1669841422
 20
7.9889822441
 30
0.0
 10
10.1656280868
 20
7.999461395
 30
0.0
 10
10.1646603033
 20
8.0099305183
 30
0.0
 10
10.1643672678
 20
8.017808463
 30
0.0
 10
10.1643672678
 20
8.0230508042
 30
0.0
  0
SPLINE
  5
3AF
100
AcDbEntity
  8
0
100
AcDbSpline
 62
7
  6
CONTINUOUS
 70
0
 71
3
 72
41
 73
37
 74
0
 42
0.0000001
 43
0.0000001
 44
0.0000000001
 40
0.0
 40
0.0
 40
0.0
 40
0.0
 40
0.0300821846
 40
0.0601249677
 40
0.0901567989
 40
0.1202063636
 40
0.1503017648
 40
0.1804697351
 40
0.2107349051
 40
0.2411191527
 40
0.2716410505
 40
0.3023154243
 40
0.3331530298
 40
0.3641603486
 40
0.3953394996
 40
0.4266882618
 40
0.4582001981
 40
0.4898648721
 40
0.5216681478
 40
0.5535925601
 40
0.5856177514
 40
0.6177209595
 40
0.6498775509
 40
0.6820615894
 40
0.7142464326
 40
0.7303336168
 40
0.746411012
 40
0.7785177955
 40
0.8105474018
 40
0.8265288047
 40
0.8424823668
 40
0.8742901324
 40
0.9059584497
 40
0.9374728128
 40
0.9688219871
 40
1.0
 40
1.0
 40
1.0
 40
1.0
 10
10.0411963369
 20
7.493473863
 30
0.0
 10
10.0381093389
 20
7.4889426302
 30
0.0
 10
10.0315478093
 20
7.4801457634
 30
0.0
 10
10.0206150683
 20
7.4678523889
 30
0.0
 10
10.0086696428
 20
7.4565473821
 30
0.0
 10
9.9957904453
 20
7.4463040876
 30
0.0
 10
9.9820610886
 20
7.4371871052
 30
0.0
 10
9.9675707075
 20
7.4292540355
 30
0.0
 10
9.9524129568
 20
7.4225546136
 30
0.0
 10
9.9366854815
 20
7.4171306197
 30
0.0
 10
9.9204892556
 20
7.4130156463
 30
0.0
 10
9.9039279515
 20
7.4102349714
 30
0.0
 10
9.8871073021
 20
7.4088054732
 30
0.0
 10
9.8701344741
 20
7.4087355821
 30
0.0
 10
9.8531174433
 20
7.4100252712
 30
0.0
 10
9.8361643759
 20
7.4126660828
 30
0.0
 10
9.8193830118
 20
7.4166411894
 30
0.0
 10
9.8028800512
 20
7.4219254887
 30
0.0
 10
9.7867605414
 20
7.428485735
 30
0.0
 10
9.7711272643
 20
7.4362806939
 30
0.0
 10
9.7560801169
 20
7.4452613719
 30
0.0
 10
9.7417155498
 20
7.4553712082
 30
0.0
 10
9.7281257978
 20
7.4665465727
 30
0.0
 10
9.7153989162
 20
7.4787163238
 30
0.0
 10
9.7055777151
 20
7.4896258419
 30
0.0
 10
9.6982313888
 20
7.4987715595
 30
0.0
 10
9.6912417824
 20
7.5081750448
 30
0.0
 10
9.683187136
 20
7.5203936925
 30
0.0
 10
9.6760865241
 20
7.5331705461
 30
0.0
 10
9.6710127912
 20
7.5436696944
 30
0.0
 10
9.6663595783
 20
7.55431766
 30
0.0
 10
9.661327959
 20
7.5679087367
 30
0.0
 10
9.6565846244
 20
7.5845771195
 30
0.0
 10
9.6531722914
 20
7.6014838341
 30
0.0
 10
9.6511140018
 20
7.6185172153
 30
0.0
 10
9.6506525662
 20
7.6299187309
 30
0.0
 10
9.6506525662
 20
7.6356013075
 30
0.0
  0
SPLINE
  5
3B0
100
AcDbEntity
  8
0
100
AcDbSpline
 62
7
  6
CONTINUOUS
 70
0
 71
3
 72
15
 73
11
 74
0
 42
0.0000001
 43
0.0000001
 44
0.0000000001
 40
0.0
 40
0.0
 40
0.0
 40
0.0
 40
0.1233171261
 40
0.2468171865
 40
0.3706749939
 40
0.4950495802
 40
0.6200773232
 40
0.7458671315
 40
0.872492731
 40
1.0
 40
1.0
 40
1.0
 40
1.0
 10
11.8790913716
 20
6.8989530165
 30
0.0
 10
11.8765668379
 20
6.8965145254
 30
0.0
 10
11.8712468673
 20
6.8919020996
 30
0.0
 10
11.862564151
 20
6.8858749094
 30
0.0
 10
11.8532603261
 20
6.8807940682
 30
0.0
 10
11.8434306254
 20
6.8767117976
 30
0.0
 10
11.8331742036
 20
6.8736686271
 30
0.0
 10
11.8225943793
 20
6.8716949841
 30
0.0
 10
11.8117991484
 20
6.8708100649
 30
0.0
 10
11.8045528662
 20
6.8709514064
 30
0.0
 10
11.8009323842
 20
6.8712024877
 30
0.0
  0
SPLINE
  5
3B1
100
AcDbEntity
  8
0
100
AcDbSpline
 62
7
  6
CONTINUOUS
 70
0
 71
3
 72
15
 73
11
 74
0
 42
0.0000001
 43
0.0000001
 44
0.0000000001
 40
0.0
 40
0.0
 40
0.0
 40
0.0
 40
0.1233171261
 40
0.2468171865
 40
0.3706749939
 40
0.4950495802
 40
0.6200773232
 40
0.7458671315
 40
0.872492731
 40
1.0
 40
1.0
 40
1.0
 40
1.0
 10
9.8264988691
 20
7.04130079
 30
0.0
 10
9.8239743354
 20
7.0388622989
 30
0.0
 10
9.8186543648
 20
7.0342498731
 30
0.0
 10
9.8099716485
 20
7.0282226829
 30
0.0
 10
9.8006678236
 20
7.0231418417
 30
0.0
 10
9.790838123
 20
7.0190595712
 30
0.0
 10
9.7805817011
 20
7.0160164007
 30
0.0
 10
9.7700018769
 20
7.0140427576
 30
0.0
 10
9.7592066459
 20
7.0131578384
 30
0.0
 10
9.7519603637
 20
7.01329918
 30
0.0
 10
9.7483398817
 20
7.0135502612
 30
0.0
  0
SPLINE
  5
3B2
100
AcDbEntity
  8
0
100
AcDbSpline
 62
7
  6
CONTINUOUS
 70
0
 71
3
 72
15
 73
11
 74
0
 42
0.0000001
 43
0.0000001
 44
0.0000000001
 40
0.0
 40
0.0
 40
0.0
 40
0.0
 40
0.1233171261
 40
0.2468171865
 40
0.3706749939
 40
0.4950495802
 40
0.6200773232
 40
0.7458671315
 40
0.872492731
 40
1.0
 40
1.0
 40
1.0
 40
1.0
 10
11.8790913716
 20
8.6501766083
 30
0.0
 10
11.8765668379
 20
8.6477381172
 30
0.0
 10
11.8712468673
 20
8.6431256914
 30
0.0
 10
11.862564151
 20
8.6370985012
 30
0.0
 10
11.8532603261
 20
8.63201766
 30
0.0
 10
11.8434306254
 20
8.6279353895
 30
0.0
 10
11.8331742036
 20
8.624892219
 30
0.0
 10
11.8225943793
 20
8.6229185759
 30
0.0
 10
11.8117991484
 20
8.6220336567
 30
0.0
 10
11.8045528662
 20
8.6221749983
 30
0.0
 10
11.8009323842
 20
8.6224260795
 30
0.0
  0
SPLINE
  5
3B3
100
AcDbEntity
  8
0
100
AcDbSpline
 62
7
  6
CONTINUOUS
 70
0
 71
3
 72
15
 73
11
 74
0
 42
0.0000001
 43
0.0000001
 44
0.0000000001
 40
0.0
 40
0.0
 40
0.0
 40
0.0
 40
0.1233171261
 40
0.2468171865
 40
0.3706749939
 40
0.4950495802
 40
0.6200773232
 40
0.7458671315
 40
0.872492731
 40
1.0
 40
1.0
 40
1.0
 40
1.0
 10
9.8264988691
 20
8.7925243818
 30
0.0
 10
9.8239743354
 20
8.7900858907
 30
0.0
 10
9.8186543648
 20
8.785473465
 30
0.0
 10
9.8099716485
 20
8.7794462748
 30
0.0
 10
9.8006678236
 20
8.7743654335
 30
0.0
 10
9.790838123
 20
8.770283163
 30
0.0
 10
9.7805817011
 20
8.7672399925
 30
0.0
 10
9.7700018769
 20
8.7652663494
 30
0.0
 10
9.7592066459
 20
8.7643814303
 30
0.0
 10
9.7519603637
 20
8.7645227718
 30
0.0
 10
9.7483398817
 20
8.7647738531
 30
0.0
  0
SPLINE
  5
3B4
100
AcDbEntity
  8
0
100
AcDbSpline
 62
7
  6
CONTINUOUS
 70
0
 71
3
 72
21
 73
17
 74
0
 42
0.0000001
 43
0.0000001
 44
0.0000000001
 40
0.0
 40
0.0
 40
0.0
 40
0.0
 40
0.1273176984
 40
0.2537999461
 40
0.3167619614
 40
0.3795355204
 40
0.4421314992
 40
0.5045621453
 40
0.5668413456
 40
0.6289845231
 40
0.6910084433
 40
0.7529310869
 40
0.8147714401
 40
0.8765493236
 40
0.9382852134
 40
1.0
 40
1.0
 40
1.0
 40
1.0
 10
8.8671287825
 20
6.2719599624
 30
0.0
 10
8.8671287825
 20
6.2787047705
 30
0.0
 10
8.8677726195
 20
6.2921588099
 30
0.0
 10
8.8702042108
 20
6.308790907
 30
0.0
 10
8.8731104778
 20
6.3218373306
 30
0.0
 10
8.8757608418
 20
6.3314603791
 30
0.0
 10
8.8788788364
 20
6.3409124308
 30
0.0
 10
8.8824572732
 20
6.3501719654
 30
0.0
 10
8.8864879019
 20
6.3592175668
 30
0.0
 10
8.8909615097
 20
6.3680283584
 30
0.0
 10
8.8958677478
 20
6.3765840299
 30
0.0
 10
8.9011953015
 20
6.3848648638
 30
0.0
 10
8.9069319359
 20
6.3928516984
 30
0.0
 10
8.9130644572
 20
6.4005261909
 30
0.0
 10
8.9195784506
 20
6.4078704291
 30
0.0
 10
8.9241663434
 20
6.4125359217
 30
0.0
 10
8.9265178921
 20
6.4148073295
 30
0.0
  0
SPLINE
  5
3B5
100
AcDbEntity
  8
0
100
AcDbSpline
 62
7
  6
CONTINUOUS
 70
0
 71
3
 72
42
 73
38
 74
0
 42
0.0000001
 43
0.0000001
 44
0.0000000001
 40
0.0
 40
0.0
 40
0.0
 40
0.0
 40
0.0299419634
 40
0.0449235299
 40
0.0599142017
 40
0.0899287029
 40
0.1200139772
 40
0.1350926626
 40
0.1501967046
 40
0.1804840506
 40
0.2108978877
 40
0.2414513551
 40
0.2721543675
 40
0.3030134354
 40
0.3340315696
 40
0.3652082675
 40
0.3965395775
 40
0.4280182343
 40
0.4596338596
 40
0.4913732188
 40
0.5232205284
 40
0.5551578047
 40
0.5871652463
 40
0.6192216448
 40
0.6513048151
 40
0.6833920402
 40
0.7154605222
 40
0.747487836
 40
0.7794523759
 40
0.8113337934
 40
0.8431134117
 40
0.8747746318
 40
0.9063032512
 40
0.9376879208
 40
0.9533258
 40
0.9689252634
 40
1.0
 40
1.0
 40
1.0
 40
1.0
 10
12.2483677113
 20
5.8905042304
 30
0.0
 10
12.2447345721
 20
5.8869949089
 30
0.0
 10
12.2390707047
 20
5.8819435757
 30
0.0
 10
12.2311385859
 20
5.8756759714
 30
0.0
 10
12.2229538689
 20
5.8697202526
 30
0.0
 10
12.2122741591
 20
5.8628811579
 30
0.0
 10
12.2010751954
 20
5.8568989294
 30
0.0
 10
12.1918389526
 20
5.852643166
 30
0.0
 10
12.1824119162
 20
5.8487387225
 30
0.0
 10
12.1703174559
 20
5.8445403422
 30
0.0
 10
12.1554128668
 20
5.8406275571
 30
0.0
 10
12.1401830573
 20
5.8378556501
 30
0.0
 10
12.1247124288
 20
5.8362399134
 30
0.0
 10
12.1090859646
 20
5.8357889697
 30
0.0
 10
12.0933896461
 20
5.836505114
 30
0.0
 10
12.0777097438
 20
5.8383842094
 30
0.0
 10
12.0621324118
 20
5.8414157466
 30
0.0
 10
12.0467432027
 20
5.8455829007
 30
0.0
 10
12.0316266087
 20
5.8508626319
 30
0.0
 10
12.0168656029
 20
5.8572258148
 30
0.0
 10
12.002541191
 20
5.8646374005
 30
0.0
 10
11.9887319723
 20
5.8730566104
 30
0.0
 10
11.9755137148
 20
5.8824371593
 30
0.0
 10
11.9629589442
 20
5.8927275084
 30
0.0
 10
11.9511365512
 20
5.9038711466
 30
0.0
 10
11.9401114172
 20
5.9158068976
 30
0.0
 10
11.9299440624
 20
5.9284692525
 30
0.0
 10
11.9206903167
 20
5.9417887269
 30
0.0
 10
11.9124010159
 20
5.9556922334
 30
0.0
 10
11.9051217246
 20
5.9701034944
 30
0.0
 10
11.8988924892
 20
5.9849433956
 30
0.0
 10
11.8937476061
 20
6.0001306349
 30
0.0
 10
11.8897154971
 20
6.0155813483
 30
0.0
 10
11.8872981582
 20
6.0286234255
 30
0.0
 10
11.8859421028
 20
6.0391025765
 30
0.0
 10
11.8849743193
 20
6.0495716997
 30
0.0
 10
11.8846812838
 20
6.0574496444
 30
0.0
 10
11.8846812838
 20
6.0626919857
 30
0.0
  0
SPLINE
  5
3B6
100
AcDbEntity
  8
0
100
AcDbSpline
 62
7
  6
CONTINUOUS
 70
0
 71
3
 72
42
 73
38
 74
0
 42
0.0000001
 43
0.0000001
 44
0.0000000001
 40
0.0
 40
0.0
 40
0.0
 40
0.0
 40
0.0299419634
 40
0.0449235299
 40
0.0599142017
 40
0.0899287029
 40
0.1200139772
 40
0.1350926626
 40
0.1501967046
 40
0.1804840506
 40
0.2108978877
 40
0.2414513551
 40
0.2721543675
 40
0.3030134354
 40
0.3340315696
 40
0.3652082675
 40
0.3965395775
 40
0.4280182343
 40
0.4596338596
 40
0.4913732188
 40
0.5232205284
 40
0.5551578047
 40
0.5871652463
 40
0.6192216448
 40
0.6513048151
 40
0.6833920402
 40
0.7154605222
 40
0.747487836
 40
0.7794523759
 40
0.8113337934
 40
0.8431134117
 40
0.8747746318
 40
0.9063032512
 40
0.9376879208
 40
0.9533258
 40
0.9689252634
 40
1.0
 40
1.0
 40
1.0
 40
1.0
 10
9.2308152099
 20
6.0997722072
 30
0.0
 10
9.2271820708
 20
6.0962628856
 30
0.0
 10
9.2215182033
 20
6.0912115525
 30
0.0
 10
9.2135860845
 20
6.0849439481
 30
0.0
 10
9.2054013676
 20
6.0789882293
 30
0.0
 10
9.1947216578
 20
6.0721491347
 30
0.0
 10
9.183522694
 20
6.0661669061
 30
0.0
 10
9.1742864513
 20
6.0619111428
 30
0.0
 10
9.1648594148
 20
6.0580066992
 30
0.0
 10
9.1527649545
 20
6.053808319
 30
0.0
 10
9.1378603655
 20
6.0498955339
 30
0.0
 10
9.122630556
 20
6.0471236268
 30
0.0
 10
9.1071599274
 20
6.0455078901
 30
0.0
 10
9.0915334633
 20
6.0450569464
 30
0.0
 10
9.0758371448
 20
6.0457730907
 30
0.0
 10
9.0601572425
 20
6.0476521862
 30
0.0
 10
9.0445799105
 20
6.0506837233
 30
0.0
 10
9.0291907014
 20
6.0548508774
 30
0.0
 10
9.0140741073
 20
6.0601306087
 30
0.0
 10
8.9993131016
 20
6.0664937915
 30
0.0
 10
8.9849886897
 20
6.0739053773
 30
0.0
 10
8.971179471
 20
6.0823245872
 30
0.0
 10
8.9579612135
 20
6.091705136
 30
0.0
 10
8.9454064429
 20
6.1019954852
 30
0.0
 10
8.9335840498
 20
6.1131391233
 30
0.0
 10
8.9225589158
 20
6.1250748743
 30
0.0
 10
8.912391561
 20
6.1377372292
 30
0.0
 10
8.9031378153
 20
6.1510567036
 30
0.0
 10
8.8948485145
 20
6.1649602101
 30
0.0
 10
8.8875692232
 20
6.1793714711
 30
0.0
 10
8.8813399879
 20
6.1942113723
 30
0.0
 10
8.8761951047
 20
6.2093986116
 30
0.0
 10
8.8721629958
 20
6.2248493251
 30
0.0
 10
8.8697456569
 20
6.2378914023
 30
0.0
 10
8.8683896015
 20
6.2483705532
 30
0.0
 10
8.867421818
 20
6.2588396764
 30
0.0
 10
8.8671287825
 20
6.2667176211
 30
0.0
 10
8.8671287825
 20
6.2719599624
 30
0.0
  0
SPLINE
  5
3B7
100
AcDbEntity
  8
0
100
AcDbSpline
 62
7
  6
CONTINUOUS
 70
0
 71
3
 72
42
 73
38
 74
0
 42
0.0000001
 43
0.0000001
 44
0.0000000001
 40
0.0
 40
0.0
 40
0.0
 40
0.0
 40
0.0299419634
 40
0.0449235299
 40
0.0599142017
 40
0.0899287029
 40
0.1200139772
 40
0.1350926626
 40
0.1501967046
 40
0.1804840506
 40
0.2108978877
 40
0.2414513551
 40
0.2721543675
 40
0.3030134354
 40
0.3340315696
 40
0.3652082675
 40
0.3965395775
 40
0.4280182343
 40
0.4596338596
 40
0.4913732188
 40
0.5232205284
 40
0.5551578047
 40
0.5871652463
 40
0.6192216448
 40
0.6513048151
 40
0.6833920402
 40
0.7154605222
 40
0.747487836
 40
0.7794523759
 40
0.8113337934
 40
0.8431134117
 40
0.8747746318
 40
0.9063032512
 40
0.9376879208
 40
0.9533258
 40
0.9689252634
 40
1.0
 40
1.0
 40
1.0
 40
1.0
 10
12.2483677113
 20
9.3910194433
 30
0.0
 10
12.2447345721
 20
9.3875101217
 30
0.0
 10
12.2390707047
 20
9.3824587885
 30
0.0
 10
12.2311385859
 20
9.3761911842
 30
0.0
 10
12.2229538689
 20
9.3702354654
 30
0.0
 10
12.2122741591
 20
9.3633963707
 30
0.0
 10
12.2010751954
 20
9.3574141422
 30
0.0
 10
12.1918389526
 20
9.3531583788
 30
0.0
 10
12.1824119162
 20
9.3492539353
 30
0.0
 10
12.1703174559
 20
9.3450555551
 30
0.0
 10
12.1554128668
 20
9.3411427699
 30
0.0
 10
12.1401830573
 20
9.3383708629
 30
0.0
 10
12.1247124288
 20
9.3367551262
 30
0.0
 10
12.1090859646
 20
9.3363041825
 30
0.0
 10
12.0933896461
 20
9.3370203268
 30
0.0
 10
12.0777097438
 20
9.3388994222
 30
0.0
 10
12.0621324118
 20
9.3419309594
 30
0.0
 10
12.0467432027
 20
9.3460981135
 30
0.0
 10
12.0316266087
 20
9.3513778447
 30
0.0
 10
12.0168656029
 20
9.3577410276
 30
0.0
 10
12.002541191
 20
9.3651526133
 30
0.0
 10
11.9887319723
 20
9.3735718232
 30
0.0
 10
11.9755137148
 20
9.3829523721
 30
0.0
 10
11.9629589442
 20
9.3932427212
 30
0.0
 10
11.9511365512
 20
9.4043863594
 30
0.0
 10
11.9401114172
 20
9.4163221104
 30
0.0
 10
11.9299440624
 20
9.4289844653
 30
0.0
 10
11.9206903167
 20
9.4423039397
 30
0.0
 10
11.9124010159
 20
9.4562074462
 30
0.0
 10
11.9051217246
 20
9.4706187072
 30
0.0
 10
11.8988924892
 20
9.4854586084
 30
0.0
 10
11.8937476061
 20
9.5006458477
 30
0.0
 10
11.8897154971
 20
9.5160965611
 30
0.0
 10
11.8872981582
 20
9.5291386384
 30
0.0
 10
11.8859421028
 20
9.5396177893
 30
0.0
 10
11.8849743193
 20
9.5500869125
 30
0.0
 10
11.8846812838
 20
9.5579648572
 30
0.0
 10
11.8846812838
 20
9.5632071985
 30
0.0
  0
SPLINE
  5
3B8
100
AcDbEntity
  8
0
100
AcDbSpline
 62
7
  6
CONTINUOUS
 70
0
 71
3
 72
42
 73
38
 74
0
 42
0.0000001
 43
0.0000001
 44
0.0000000001
 40
0.0
 40
0.0
 40
0.0
 40
0.0
 40
0.0299419634
 40
0.0449235299
 40
0.0599142017
 40
0.0899287029
 40
0.1200139772
 40
0.1350926626
 40
0.1501967046
 40
0.1804840506
 40
0.2108978877
 40
0.2414513551
 40
0.2721543675
 40
0.3030134354
 40
0.3340315696
 40
0.3652082675
 40
0.3965395775
 40
0.4280182343
 40
0.4596338596
 40
0.4913732188
 40
0.5232205284
 40
0.5551578047
 40
0.5871652463
 40
0.6192216448
 40
0.6513048151
 40
0.6833920402
 40
0.7154605222
 40
0.747487836
 40
0.7794523759
 40
0.8113337934
 40
0.8431134117
 40
0.8747746318
 40
0.9063032512
 40
0.9376879208
 40
0.9533258
 40
0.9689252634
 40
1.0
 40
1.0
 40
1.0
 40
1.0
 10
9.2308152099
 20
9.60028742
 30
0.0
 10
9.2271820708
 20
9.5967780984
 30
0.0
 10
9.2215182033
 20
9.5917267653
 30
0.0
 10
9.2135860845
 20
9.5854591609
 30
0.0
 10
9.2054013676
 20
9.5795034421
 30
0.0
 10
9.1947216578
 20
9.5726643475
 30
0.0
 10
9.183522694
 20
9.5666821189
 30
0.0
 10
9.1742864513
 20
9.5624263556
 30
0.0
 10
9.1648594148
 20
9.558521912
 30
0.0
 10
9.1527649545
 20
9.5543235318
 30
0.0
 10
9.1378603655
 20
9.5504107467
 30
0.0
 10
9.122630556
 20
9.5476388396
 30
0.0
 10
9.1071599274
 20
9.5460231029
 30
0.0
 10
9.0915334633
 20
9.5455721592
 30
0.0
 10
9.0758371448
 20
9.5462883035
 30
0.0
 10
9.0601572425
 20
9.548167399
 30
0.0
 10
9.0445799105
 20
9.5511989361
 30
0.0
 10
9.0291907014
 20
9.5553660902
 30
0.0
 10
9.0140741073
 20
9.5606458215
 30
0.0
 10
8.9993131016
 20
9.5670090043
 30
0.0
 10
8.9849886897
 20
9.5744205901
 30
0.0
 10
8.971179471
 20
9.5828398
 30
0.0
 10
8.9579612135
 20
9.5922203488
 30
0.0
 10
8.9454064429
 20
9.602510698
 30
0.0
 10
8.9335840498
 20
9.6136543361
 30
0.0
 10
8.9225589158
 20
9.6255900871
 30
0.0
 10
8.912391561
 20
9.638252442
 30
0.0
 10
8.9031378153
 20
9.6515719164
 30
0.0
 10
8.8948485145
 20
9.6654754229
 30
0.0
 10
8.8875692232
 20
9.6798866839
 30
0.0
 10
8.8813399879
 20
9.6947265851
 30
0.0
 10
8.8761951047
 20
9.7099138244
 30
0.0
 10
8.8721629958
 20
9.7253645379
 30
0.0
 10
8.8697456569
 20
9.7384066151
 30
0.0
 10
8.8683896015
 20
9.748885766
 30
0.0
 10
8.867421818
 20
9.7593548892
 30
0.0
 10
8.8671287825
 20
9.7672328339
 30
0.0
 10
8.8671287825
 20
9.7724751752
 30
0.0
  0
SPLINE
  5
3B9
100
AcDbEntity
  8
0
100
AcDbSpline
 62
4
  6
CONTINUOUS
 70
0
 71
3
 72
313
 73
309
 74
0
 42
0.0000001
 43
0.0000001
 44
0.0000000001
 40
0.0
 40
0.0
 40
0.0
 40
0.0
 40
0.015625
 40
0.0234375
 40
0.03125
 40
0.0390625
 40
0.046875
 40
0.05078125
 40
0.0546875
 40
0.056640625
 40
0.05859375
 40
0.060546875
 40
0.0615234375
 40
0.0620117188
 40
0.0625
 40
0.0629882812
 40
0.0634765625
 40
0.064453125
 40
0.06640625
 40
0.068359375
 40
0.0703125
 40
0.07421875
 40
0.078125
 40
0.0859375
 40
0.09375
 40
0.1015625
 40
0.109375
 40
0.11328125
 40
0.1171875
 40
0.119140625
 40
0.12109375
 40
0.123046875
 40
0.1240234375
 40
0.1245117188
 40
0.125
 40
0.1254882812
 40
0.1259765625
 40
0.126953125
 40
0.12890625
 40
0.130859375
 40
0.1328125
 40
0.13671875
 40
0.140625
 40
0.1484375
 40
0.15625
 40
0.1640625
 40
0.171875
 40
0.17578125
 40
0.1796875
 40
0.181640625
 40
0.18359375
 40
0.185546875
 40
0.1865234375
 40
0.1870117188
 40
0.1875
 40
0.1879882812
 40
0.1884765625
 40
0.189453125
 40
0.19140625
 40
0.193359375
 40
0.1953125
 40
0.19921875
 40
0.203125
 40
0.2109375
 40
0.21875
 40
0.2265625
 40
0.234375
 40
0.23828125
 40
0.2421875
 40
0.244140625
 40
0.24609375
 40
0.248046875
 40
0.2490234375
 40
0.2495117188
 40
0.25
 40
0.2504882812
 40
0.2509765625
 40
0.251953125
 40
0.25390625
 40
0.255859375
 40
0.2578125
 40
0.26171875
 40
0.265625
 40
0.2734375
 40
0.28125
 40
0.2890625
 40
0.296875
 40
0.30078125
 40
0.3046875
 40
0.306640625
 40
0.30859375
 40
0.310546875
 40
0.3115234375
 40
0.3120117188
 40
0.3125
 40
0.3129882812
 40
0.3134765625
 40
0.314453125
 40
0.31640625
 40
0.318359375
 40
0.3203125
 40
0.32421875
 40
0.328125
 40
0.3359375
 40
0.34375
 40
0.3515625
 40
0.359375
 40
0.36328125
 40
0.3671875
 40
0.369140625
 40
0.37109375
 40
0.373046875
 40
0.3740234375
 40
0.3745117188
 40
0.375
 40
0.3754882812
 40
0.3759765625
 40
0.376953125
 40
0.37890625
 40
0.380859375
 40
0.3828125
 40
0.38671875
 40
0.390625
 40
0.3984375
 40
0.40625
 40
0.4140625
 40
0.421875
 40
0.42578125
 40
0.4296875
 40
0.431640625
 40
0.43359375
 40
0.435546875
 40
0.4365234375
 40
0.4370117188
 40
0.4375
 40
0.4379882812
 40
0.4384765625
 40
0.439453125
 40
0.44140625
 40
0.443359375
 40
0.4453125
 40
0.44921875
 40
0.453125
 40
0.4609375
 40
0.46875
 40
0.4765625
 40
0.484375
 40
0.48828125
 40
0.4921875
 40
0.494140625
 40
0.49609375
 40
0.498046875
 40
0.4990234375
 40
0.4995117188
 40
0.5
 40
0.5004882812
 40
0.5009765625
 40
0.501953125
 40
0.50390625
 40
0.505859375
 40
0.5078125
 40
0.51171875
 40
0.515625
 40
0.5234375
 40
0.53125
 40
0.5390625
 40
0.546875
 40
0.55078125
 40
0.5546875
 40
0.556640625
 40
0.55859375
 40
0.560546875
 40
0.5615234375
 40
0.5620117188
 40
0.5625
 40
0.5629882812
 40
0.5634765625
 40
0.564453125
 40
0.56640625
 40
0.568359375
 40
0.5703125
 40
0.57421875
 40
0.578125
 40
0.5859375
 40
0.59375
 40
0.6015625
 40
0.609375
 40
0.61328125
 40
0.6171875
 40
0.619140625
 40
0.62109375
 40
0.623046875
 40
0.6240234375
 40
0.6245117188
 40
0.625
 40
0.6254882812
 40
0.6259765625
 40
0.626953125
 40
0.62890625
 40
0.630859375
 40
0.6328125
 40
0.63671875
 40
0.640625
 40
0.6484375
 40
0.65625
 40
0.6640625
 40
0.671875
 40
0.67578125
 40
0.6796875
 40
0.681640625
 40
0.68359375
 40
0.685546875
 40
0.6865234375
 40
0.6870117188
 40
0.6875
 40
0.6879882812
 40
0.6884765625
 40
0.689453125
 40
0.69140625
 40
0.693359375
 40
0.6953125
 40
0.69921875
 40
0.703125
 40
0.7109375
 40
0.71875
 40
0.7265625
 40
0.734375
 40
0.73828125
 40
0.7421875
 40
0.744140625
 40
0.74609375
 40
0.748046875
 40
0.7490234375
 40
0.7495117188
 40
0.75
 40
0.7504882812
 40
0.7509765625
 40
0.751953125
 40
0.75390625
 40
0.755859375
 40
0.7578125
 40
0.76171875
 40
0.765625
 40
0.7734375
 40
0.78125
 40
0.7890625
 40
0.796875
 40
0.80078125
 40
0.8046875
 40
0.806640625
 40
0.80859375
 40
0.810546875
 40
0.8115234375
 40
0.8120117188
 40
0.8125
 40
0.8129882812
 40
0.8134765625
 40
0.814453125
 40
0.81640625
 40
0.818359375
 40
0.8203125
 40
0.82421875
 40
0.828125
 40
0.8359375
 40
0.84375
 40
0.8515625
 40
0.859375
 40
0.86328125
 40
0.8671875
 40
0.869140625
 40
0.87109375
 40
0.873046875
 40
0.8740234375
 40
0.8745117188
 40
0.875
 40
0.8754882812
 40
0.8759765625
 40
0.876953125
 40
0.87890625
 40
0.880859375
 40
0.8828125
 40
0.88671875
 40
0.890625
 40
0.8984375
 40
0.90625
 40
0.9140625
 40
0.921875
 40
0.92578125
 40
0.9296875
 40
0.931640625
 40
0.93359375
 40
0.935546875
 40
0.9365234375
 40
0.9370117188
 40
0.9375
 40
0.9379882812
 40
0.9384765625
 40
0.939453125
 40
0.94140625
 40
0.943359375
 40
0.9453125
 40
0.94921875
 40
0.953125
 40
0.9609375
 40
0.96875
 40
0.9765625
 40
0.984375
 40
1.0
 40
1.0
 40
1.0
 40
1.0
 10
10.1537420656
 20
6.6579683676
 30
0.0
 10
10.1509278258
 20
6.6578875971
 30
0.0
 10
10.146706466
 20
6.6577664417
 30
0.0
 10
10.1410779865
 20
6.6576049003
 30
0.0
 10
10.1368566264
 20
6.6574837464
 30
0.0
 10
10.132635268
 20
6.657362584
 30
0.0
 10
10.1291174642
 20
6.6572616419
 30
0.0
 10
10.1263032327
 20
6.6571808289
 30
0.0
 10
10.1245443117
 20
6.6571304557
 30
0.0
 10
10.1231372352
 20
6.6570898481
 30
0.0
 10
10.1220817626
 20
6.6570602384
 30
0.0
 10
10.1212027277
 20
6.6570328727
 30
0.0
 10
10.1205863718
 20
6.6570189975
 30
0.0
 10
10.120235779
 20
6.6570028233
 30
0.0
 10
10.1199682974
 20
6.6570139206
 30
0.0
 10
10.1197181584
 20
6.6569362288
 30
0.0
 10
10.1193785905
 20
6.6568636103
 30
0.0
 10
10.118787165
 20
6.6567220982
 30
0.0
 10
10.117940798
 20
6.6565274822
 30
0.0
 10
10.1169257883
 20
6.6562907138
 30
0.0
 10
10.1155722217
 20
6.6559761506
 30
0.0
 10
10.113880339
 20
6.6555825603
 30
0.0
 10
10.1111732844
 20
6.6549530317
 30
0.0
 10
10.1077894807
 20
6.6541660465
 30
0.0
 10
10.1037289093
 20
6.6532216982
 30
0.0
 10
10.0996683428
 20
6.6522773332
 30
0.0
 10
10.0962845268
 20
6.6514903897
 30
0.0
 10
10.0935774969
 20
6.6508607777
 30
0.0
 10
10.0918855514
 20
6.6504673993
 30
0.0
 10
10.0905321135
 20
6.6501524012
 30
0.0
 10
10.0895167109
 20
6.6499169615
 30
0.0
 10
10.0886715732
 20
6.6497181884
 30
0.0
 10
10.0880779532
 20
6.6495840973
 30
0.0
 10
10.0877419015
 20
6.6494995886
 30
0.0
 10
10.0874809616
 20
6.64945842
 30
0.0
 10
10.0872540463
 20
6.649332342
 30
0.0
 10
10.0869396244
 20
6.6491938554
 30
0.0
 10
10.0863949157
 20
6.6489377046
 30
0.0
 10
10.0856138695
 20
6.6485789893
 30
0.0
 10
10.0846778514
 20
6.6481454429
 30
0.0
 10
10.0834293951
 20
6.6475684596
 30
0.0
 10
10.0818689727
 20
6.6468468612
 30
0.0
 10
10.0793722142
 20
6.6456925103
 30
0.0
 10
10.0762512946
 20
6.6442495002
 30
0.0
 10
10.0725061778
 20
6.6425179208
 30
0.0
 10
10.0687610685
 20
6.6407863252
 30
0.0
 10
10.0656401303
 20
6.6393433555
 30
0.0
 10
10.063143409
 20
6.6381889238
 30
0.0
 10
10.0615828919
 20
6.6374675305
 30
0.0
 10
10.06033463
 20
6.6368901264
 30
0.0
 10
10.0593980181
 20
6.6364578656
 30
0.0
 10
10.0586188299
 20
6.6360951278
 30
0.0
 10
10.0580708042
 20
6.6358461579
 30
0.0
 10
10.057761697
 20
6.6356961657
 30
0.0
 10
10.0575184567
 20
6.6356054293
 30
0.0
 10
10.0573188309
 20
6.6354315235
 30
0.0
 10
10.05703745
 20
6.6352286596
 30
0.0
 10
10.0565521215
 20
6.6348601313
 30
0.0
 10
10.0558550893
 20
6.6343407288
 30
0.0
 10
10.0550202368
 20
6.6337144211
 30
0.0
 10
10.0539065462
 20
6.6328804007
 30
0.0
 10
10.0525146227
 20
6.6318375133
 30
0.0
 10
10.0502874389
 20
6.6301690959
 30
0.0
 10
10.047503496
 20
6.6280835043
 30
0.0
 10
10.044162747
 20
6.6255808258
 30
0.0
 10
10.040822009
 20
6.6230781332
 30
0.0
 10
10.0380380388
 20
6.6209925768
 30
0.0
 10
10.0358109095
 20
6.619324089
 30
0.0
 10
10.0344188475
 20
6.6182813805
 30
0.0
 10
10.0333054412
 20
6.617446993
 30
0.0
 10
10.0324697201
 20
6.6168218068
 30
0.0
 10
10.0317754056
 20
6.6162988954
 30
0.0
 10
10.0312852256
 20
6.615936631
 30
0.0
 10
10.0310116181
 20
6.6157237307
 30
0.0
 10
10.0307881148
 20
6.6155806535
 30
0.0
 10
10.0306345544
 20
6.6153741304
 30
0.0
 10
10.0304054103
 20
6.6151208969
 30
0.0
 10
10.030015775
 20
6.6146674272
 30
0.0
 10
10.0294532105
 20
6.6140250041
 30
0.0
 10
10.0287806768
 20
6.613251789
 30
0.0
 10
10.0278830767
 20
6.6122216414
 30
0.0
 10
10.0267613808
 20
6.610933681
 30
0.0
 10
10.0249664972
 20
6.6088730986
 30
0.0
 10
10.0227229515
 20
6.6062973173
 30
0.0
 10
10.0200306698
 20
6.6032064039
 30
0.0
 10
10.0173384018
 20
6.6001154792
 30
0.0
 10
10.0150948216
 20
6.5975397263
 30
0.0
 10
10.0133000072
 20
6.5954790872
 30
0.0
 10
10.0121781354
 20
6.594191271
 30
0.0
 10
10.0112808962
 20
6.5931608273
 30
0.0
 10
10.0106072599
 20
6.5923885168
 30
0.0
 10
10.010048145
 20
6.5917432634
 30
0.0
 10
10.0096523517
 20
6.5912948462
 30
0.0
 10
10.0094330744
 20
6.5910335173
 30
0.0
 10
10.0092492062
 20
6.5908518608
 30
0.0
 10
10.0091395339
 20
6.5906153889
 30
0.0
 10
10.0089674239
 20
6.5903192132
 30
0.0
 10
10.0086782894
 20
6.5897919973
 30
0.0
 10
10.008258936
 20
6.5890434892
 30
0.0
 10
10.0077584104
 20
6.588143286
 30
0.0
 10
10.0070901003
 20
6.5869437113
 30
0.0
 10
10.0062550355
 20
6.5854440045
 30
0.0
 10
10.0049187513
 20
6.5830446069
 30
0.0
 10
10.0032484585
 20
6.580045314
 30
0.0
 10
10.0012440784
 20
6.5764461832
 30
0.0
 10
9.9992397133
 20
6.5728470432
 30
0.0
 10
9.9975693828
 20
6.5698477731
 30
0.0
 10
9.9962331738
 20
6.56744833
 30
0.0
 10
9.9953979179
 20
6.5659487389
 30
0.0
 10
9.99473
 20
6.5647489267
 30
0.0
 10
9.9942282763
 20
6.563849449
 30
0.0
 10
9.9938126714
 20
6.563098671
 30
0.0
 10
9.9935168453
 20
6.5625755072
 30
0.0
 10
9.9933554569
 20
6.5622728391
 30
0.0
 10
9.9932128511
 20
6.56205631
 30
0.0
 10
9.9931526758
 20
6.5617997517
 30
0.0
 10
9.9930436894
 20
6.5614716367
 30
0.0
 10
9.9928663596
 20
6.5608909299
 30
0.0
 10
9.9926060275
 20
6.5600647499
 30
0.0
 10
9.9922966269
 20
6.5590718781
 30
0.0
 10
9.9918830456
 20
6.5577485576
 30
0.0
 10
9.9913664275
 20
6.5560942327
 30
0.0
 10
9.9905396381
 20
6.5534474104
 30
0.0
 10
9.9895062206
 20
6.5501388488
 30
0.0
 10
9.9882660878
 20
6.5461685902
 30
0.0
 10
9.9870259713
 20
6.5421983246
 30
0.0
 10
9.9859925131
 20
6.5388897803
 30
0.0
 10
9.9851658052
 20
6.5362429234
 30
0.0
 10
9.9846489798
 20
6.5345886863
 30
0.0
 10
9.984235824
 20
6.5332651857
 30
0.0
 10
9.9839251234
 20
6.5322728641
 30
0.0
 10
9.9836688585
 20
6.5314449627
 30
0.0
 10
9.9834842682
 20
6.5308673289
 30
0.0
 10
9.9833869149
 20
6.5305342901
 30
0.0
 10
9.9832910063
 20
6.5302928562
 30
0.0
 10
9.9832826088
 20
6.5300195226
 30
0.0
 10
9.9832408872
 20
6.5296662048
 30
0.0
 10
9.9831820966
 20
6.5290427145
 30
0.0
 10
9.9830906745
 20
6.5281547243
 30
0.0
 10
9.9829841506
 20
6.527087976
 30
0.0
 10
9.9828410071
 20
6.5256660502
 30
0.0
 10
9.9826624584
 20
6.5238885041
 30
0.0
 10
9.9823765677
 20
6.521044508
 30
0.0
 10
9.9820192777
 20
6.5174894862
 30
0.0
 10
9.9815904962
 20
6.5132234714
 30
0.0
 10
9.9811617317
 20
6.5089574537
 30
0.0
 10
9.980804399
 20
6.5054024392
 30
0.0
 10
9.9805185938
 20
6.5025584286
 30
0.0
 10
9.9803398275
 20
6.5007809193
 30
0.0
 10
9.9801971307
 20
6.4993589179
 30
0.0
 10
9.9800892422
 20
6.4982924004
 30
0.0
 10
9.9800020897
 20
6.4974036881
 30
0.0
 10
9.9799356771
 20
6.496781487
 30
0.0
 10
9.9799061678
 20
6.4964261034
 30
0.0
 10
9.9798602582
 20
6.4961591155
 30
0.0
 10
9.9799052387
 20
6.4958938483
 30
0.0
 10
9.9799335093
 20
6.4955395585
 30
0.0
 10
9.979997754
 20
6.494919831
 30
0.0
 10
9.9800818096
 20
6.4940343597
 30
0.0
 10
9.9801859818
 20
6.4929718568
 30
0.0
 10
9.9803237236
 20
6.4915551644
 30
0.0
 10
9.9804962961
 20
6.4897843063
 30
0.0
 10
9.9807721911
 20
6.4869509293
 30
0.0
 10
9.9811171362
 20
6.4834092095
 30
0.0
 10
9.9815310354
 20
6.4791591448
 30
0.0
 10
9.9819449518
 20
6.4749090813
 30
0.0
 10
9.9822898541
 20
6.4713673584
 30
0.0
 10
9.9825658348
 20
6.4685339876
 30
0.0
 10
9.9827381896
 20
6.4667631137
 30
0.0
 10
9.9828763782
 20
6.4653464538
 30
0.0
 10
9.9829791852
 20
6.4642838515
 30
0.0
 10
9.9830675122
 20
6.4633986912
 30
0.0
 10
9.9831241317
 20
6.4627784087
 30
0.0
 10
9.9831646197
 20
6.462425008
 30
0.0
 10
9.9831720723
 20
6.4621570096
 30
0.0
 10
9.9832671113
 20
6.4619002796
 30
0.0
 10
9.9833632789
 20
6.4615540424
 30
0.0
 10
9.9835458065
 20
6.4609499587
 30
0.0
 10
9.9837991182
 20
6.4600860244
 30
0.0
 10
9.9841062778
 20
6.4590497131
 30
0.0
 10
9.9845147112
 20
6.4576678216
 30
0.0
 10
9.985025634
 20
6.4559405062
 30
0.0
 10
9.9858428974
 20
6.4531767742
 30
0.0
 10
9.9868645502
 20
6.4497221187
 30
0.0
 10
9.9880905001
 20
6.4455765273
 30
0.0
 10
9.9893164663
 20
6.4414309398
 30
0.0
 10
9.9903380783
 20
6.4379762748
 30
0.0
 10
9.9911554234
 20
6.4352125618
 30
0.0
 10
9.9916661386
 20
6.4334851981
 30
0.0
 10
9.992074998
 20
6.4321034057
 30
0.0
 10
9.9923808561
 20
6.4310667917
 30
0.0
 10
9.9926382397
 20
6.4302038044
 30
0.0
 10
9.9928134985
 20
6.4295980302
 30
0.0
 10
9.9929213125
 20
6.4292545016
 30
0.0
 10
9.9929805773
 20
6.4289894517
 30
0.0
 10
9.9931223919
 20
6.4287527015
 30
0.0
 10
9.9932826837
 20
6.4284271633
 30
0.0
 10
9.9935766102
 20
6.4278620707
 30
0.0
 10
9.9939894913
 20
6.4270523911
 30
0.0
 10
9.9944879507
 20
6.4260818048
 30
0.0
 10
9.9951515147
 20
6.4247873301
 30
0.0
 10
9.9959813288
 20
6.42316936
 30
0.0
 10
9.9973088306
 20
6.4205805388
 30
0.0
 10
9.9989682771
 20
6.4173445363
 30
0.0
 10
10.0009595813
 20
6.4134613221
 30
0.0
 10
10.0029509011
 20
6.4095781142
 30
0.0
 10
10.0046103086
 20
6.4063420957
 30
0.0
 10
10.0059378885
 20
6.4037533065
 30
0.0
 10
10.0067675041
 20
6.4021352554
 30
0.0
 10
10.0074314754
 20
6.4008409469
 30
0.0
 10
10.0079286904
 20
6.3998698529
 30
0.0
 10
10.0083454651
 20
6.3990617614
 30
0.0
 10
10.0086324407
 20
6.3984938338
 30
0.0
 10
10.0088038696
 20
6.398172838
 30
0.0
 10
10.0089114748
 20
6.3979221352
 30
0.0
 10
10.0090992246
 20
6.397709489
 30
0.0
 10
10.0093216023
 20
6.3974126861
 30
0.0
 10
10.0097237883
 20
6.3968994659
 30
0.0
 10
10.0102915302
 20
6.3961630607
 30
0.0
 10
10.0109757351
 20
6.3952807585
 30
0.0
 10
10.0118869902
 20
6.3941038721
 30
0.0
 10
10.0130264078
 20
6.3926329297
 30
0.0
 10
10.014849281
 20
6.3902793292
 30
0.0
 10
10.0171279396
 20
6.3873373608
 30
0.0
 10
10.0198622999
 20
6.3838069833
 30
0.0
 10
10.0225966734
 20
6.3802766158
 30
0.0
 10
10.0248752988
 20
6.3773346224
 30
0.0
 10
10.0266982386
 20
6.3749810718
 30
0.0
 10
10.0278374869
 20
6.3735100026
 30
0.0
 10
10.0287490894
 20
6.3723333765
 30
0.0
 10
10.029432233
 20
6.3714502792
 30
0.0
 10
10.0300032953
 20
6.3707163615
 30
0.0
 10
10.0303995538
 20
6.3701987008
 30
0.0
 10
10.0306314288
 20
6.3699090127
 30
0.0
 10
10.0307900061
 20
6.3696745121
 30
0.0
 10
10.0310071786
 20
6.3695058907
 30
0.0
 10
10.0312763033
 20
6.3692580827
 30
0.0
 10
10.0317567943
 20
6.3688351253
 30
0.0
 10
10.0324382314
 20
6.368225303
 30
0.0
 10
10.0332580869
 20
6.367495912
 30
0.0
 10
10.0343504832
 20
6.366522554
 30
0.0
 10
10.0357162335
 20
6.365306143
 30
0.0
 10
10.0379012915
 20
6.3633597251
 30
0.0
 10
10.0406326632
 20
6.3609267582
 30
0.0
 10
10.043910287
 20
6.3580071724
 30
0.0
 10
10.0471879211
 20
6.3550875998
 30
0.0
 10
10.0499192668
 20
6.3526546001
 30
0.0
 10
10.0521043768
 20
6.3507082478
 30
0.0
 10
10.053469995
 20
6.3494916701
 30
0.0
 10
10.0545626624
 20
6.3485186542
 30
0.0
 10
10.0553816898
 20
6.3477882181
 30
0.0
 10
10.0560657179
 20
6.3471816657
 30
0.0
 10
10.0565415835
 20
6.346752871
 30
0.0
 10
10.0568181193
 20
6.3465144159
 30
0.0
 10
10.0570125272
 20
6.3463170654
 30
0.0
 10
10.0572566049
 20
6.3461904663
 30
0.0
 10
10.0575647164
 20
6.3459969887
 30
0.0
 10
10.0581119838
 20
6.3456699011
 30
0.0
 10
10.0588895742
 20
6.3451966216
 30
0.0
 10
10.059824489
 20
6.3446312594
 30
0.0
 10
10.0610704111
 20
6.3438765444
 30
0.0
 10
10.0626280299
 20
6.3429334583
 30
0.0
 10
10.0651200991
 20
6.3414243485
 30
0.0
 10
10.0682352272
 20
6.3395380208
 30
0.0
 10
10.0719733623
 20
6.3372744002
 30
0.0
 10
10.0757115054
 20
6.335010794
 30
0.0
 10
10.0788266134
 20
6.3331244301
 30
0.0
 10
10.0813187229
 20
6.3316153927
 30
0.0
 10
10.0828762391
 20
6.3306721227
 30
0.0
 10
10.0841223716
 20
6.3299177852
 30
0.0
 10
10.085056644
 20
6.3293512694
 30
0.0
 10
10.0858362442
 20
6.3288815991
 30
0.0
 10
10.0863799236
 20
6.3285480687
 30
0.0
 10
10.0866937841
 20
6.328364914
 30
0.0
 10
10.086920203
 20
6.328206606
 30
0.0
 10
10.0871809344
 20
6.3281283489
 30
0.0
 10
10.0875166077
 20
6.3279960835
 30
0.0
 10
10.0881096123
 20
6.3277776287
 30
0.0
 10
10.0889538464
 20
6.3274587487
 30
0.0
 10
10.0899681752
 20
6.3270790041
 30
0.0
 10
10.0913201777
 20
6.3265716611
 30
0.0
 10
10.0930103301
 20
6.3259378306
 30
0.0
 10
10.0957144905
 20
6.324923507
 30
0.0
 10
10.0990947198
 20
6.3236556698
 30
0.0
 10
10.103150982
 20
6.3221342343
 30
0.0
 10
10.1072072499
 20
6.3206128147
 30
0.0
 10
10.1105874648
 20
6.3193449378
 30
0.0
 10
10.1132916541
 20
6.3183306938
 30
0.0
 10
10.1149817331
 20
6.317696661
 30
0.0
 10
10.1163338862
 20
6.317189733
 30
0.0
 10
10.1173477549
 20
6.3168087204
 30
0.0
 10
10.1181934284
 20
6.3164938078
 30
0.0
 10
10.1187838635
 20
6.3162682707
 30
0.0
 10
10.1191236538
 20
6.3161473529
 30
0.0
 10
10.119371739
 20
6.3160342395
 30
0.0
 10
10.1196456551
 20
6.3160068458
 30
0.0
 10
10.1200018664
 20
6.3159404209
 30
0.0
 10
10.1206294342
 20
6.3158381083
 30
0.0
 10
10.1215237649
 20
6.3156846642
 30
0.0
 10
10.1225979011
 20
6.3155036487
 30
0.0
 10
10.1240297546
 20
6.3152612059
 30
0.0
 10
10.1258196839
 20
6.3149585251
 30
0.0
 10
10.1286835079
 20
6.3144740276
 30
0.0
 10
10.1322633094
 20
6.3138684771
 30
0.0
 10
10.1365590621
 20
6.3131417859
 30
0.0
 10
10.1408548172
 20
6.3124151029
 30
0.0
 10
10.1465824897
 20
6.3114461894
 30
0.0
 10
10.1508782444
 20
6.3107195049
 30
0.0
 10
10.1537420808
 20
6.3102350485
 30
0.0
  0
SPLINE
  5
3BA
100
AcDbEntity
  8
0
100
AcDbSpline
 62
4
  6
CONTINUOUS
 70
0
 71
3
 72
313
 73
309
 74
0
 42
0.0000001
 43
0.0000001
 44
0.0000000001
 40
0.0
 40
0.0
 40
0.0
 40
0.0
 40
0.015625
 40
0.0234375
 40
0.03125
 40
0.0390625
 40
0.046875
 40
0.05078125
 40
0.0546875
 40
0.056640625
 40
0.05859375
 40
0.060546875
 40
0.0615234375
 40
0.0620117188
 40
0.0625
 40
0.0629882812
 40
0.0634765625
 40
0.064453125
 40
0.06640625
 40
0.068359375
 40
0.0703125
 40
0.07421875
 40
0.078125
 40
0.0859375
 40
0.09375
 40
0.1015625
 40
0.109375
 40
0.11328125
 40
0.1171875
 40
0.119140625
 40
0.12109375
 40
0.123046875
 40
0.1240234375
 40
0.1245117188
 40
0.125
 40
0.1254882812
 40
0.1259765625
 40
0.126953125
 40
0.12890625
 40
0.130859375
 40
0.1328125
 40
0.13671875
 40
0.140625
 40
0.1484375
 40
0.15625
 40
0.1640625
 40
0.171875
 40
0.17578125
 40
0.1796875
 40
0.181640625
 40
0.18359375
 40
0.185546875
 40
0.1865234375
 40
0.1870117188
 40
0.1875
 40
0.1879882812
 40
0.1884765625
 40
0.189453125
 40
0.19140625
 40
0.193359375
 40
0.1953125
 40
0.19921875
 40
0.203125
 40
0.2109375
 40
0.21875
 40
0.2265625
 40
0.234375
 40
0.23828125
 40
0.2421875
 40
0.244140625
 40
0.24609375
 40
0.248046875
 40
0.2490234375
 40
0.2495117188
 40
0.25
 40
0.2504882812
 40
0.2509765625
 40
0.251953125
 40
0.25390625
 40
0.255859375
 40
0.2578125
 40
0.26171875
 40
0.265625
 40
0.2734375
 40
0.28125
 40
0.2890625
 40
0.296875
 40
0.30078125
 40
0.3046875
 40
0.306640625
 40
0.30859375
 40
0.310546875
 40
0.3115234375
 40
0.3120117188
 40
0.3125
 40
0.3129882812
 40
0.3134765625
 40
0.314453125
 40
0.31640625
 40
0.318359375
 40
0.3203125
 40
0.32421875
 40
0.328125
 40
0.3359375
 40
0.34375
 40
0.3515625
 40
0.359375
 40
0.36328125
 40
0.3671875
 40
0.369140625
 40
0.37109375
 40
0.373046875
 40
0.3740234375
 40
0.3745117188
 40
0.375
 40
0.3754882812
 40
0.3759765625
 40
0.376953125
 40
0.37890625
 40
0.380859375
 40
0.3828125
 40
0.38671875
 40
0.390625
 40
0.3984375
 40
0.40625
 40
0.4140625
 40
0.421875
 40
0.42578125
 40
0.4296875
 40
0.431640625
 40
0.43359375
 40
0.435546875
 40
0.4365234375
 40
0.4370117188
 40
0.4375
 40
0.4379882812
 40
0.4384765625
 40
0.439453125
 40
0.44140625
 40
0.443359375
 40
0.4453125
 40
0.44921875
 40
0.453125
 40
0.4609375
 40
0.46875
 40
0.4765625
 40
0.484375
 40
0.48828125
 40
0.4921875
 40
0.494140625
 40
0.49609375
 40
0.498046875
 40
0.4990234375
 40
0.4995117188
 40
0.5
 40
0.5004882812
 40
0.5009765625
 40
0.501953125
 40
0.50390625
 40
0.505859375
 40
0.5078125
 40
0.51171875
 40
0.515625
 40
0.5234375
 40
0.53125
 40
0.5390625
 40
0.546875
 40
0.55078125
 40
0.5546875
 40
0.556640625
 40
0.55859375
 40
0.560546875
 40
0.5615234375
 40
0.5620117188
 40
0.5625
 40
0.5629882812
 40
0.5634765625
 40
0.564453125
 40
0.56640625
 40
0.568359375
 40
0.5703125
 40
0.57421875
 40
0.578125
 40
0.5859375
 40
0.59375
 40
0.6015625
 40
0.609375
 40
0.61328125
 40
0.6171875
 40
0.619140625
 40
0.62109375
 40
0.623046875
 40
0.6240234375
 40
0.6245117188
 40
0.625
 40
0.6254882812
 40
0.6259765625
 40
0.626953125
 40
0.62890625
 40
0.630859375
 40
0.6328125
 40
0.63671875
 40
0.640625
 40
0.6484375
 40
0.65625
 40
0.6640625
 40
0.671875
 40
0.67578125
 40
0.6796875
 40
0.681640625
 40
0.68359375
 40
0.685546875
 40
0.6865234375
 40
0.6870117188
 40
0.6875
 40
0.6879882812
 40
0.6884765625
 40
0.689453125
 40
0.69140625
 40
0.693359375
 40
0.6953125
 40
0.69921875
 40
0.703125
 40
0.7109375
 40
0.71875
 40
0.7265625
 40
0.734375
 40
0.73828125
 40
0.7421875
 40
0.744140625
 40
0.74609375
 40
0.748046875
 40
0.7490234375
 40
0.7495117188
 40
0.75
 40
0.7504882812
 40
0.7509765625
 40
0.751953125
 40
0.75390625
 40
0.755859375
 40
0.7578125
 40
0.76171875
 40
0.765625
 40
0.7734375
 40
0.78125
 40
0.7890625
 40
0.796875
 40
0.80078125
 40
0.8046875
 40
0.806640625
 40
0.80859375
 40
0.810546875
 40
0.8115234375
 40
0.8120117188
 40
0.8125
 40
0.8129882812
 40
0.8134765625
 40
0.814453125
 40
0.81640625
 40
0.818359375
 40
0.8203125
 40
0.82421875
 40
0.828125
 40
0.8359375
 40
0.84375
 40
0.8515625
 40
0.859375
 40
0.86328125
 40
0.8671875
 40
0.869140625
 40
0.87109375
 40
0.873046875
 40
0.8740234375
 40
0.8745117188
 40
0.875
 40
0.8754882812
 40
0.8759765625
 40
0.876953125
 40
0.87890625
 40
0.880859375
 40
0.8828125
 40
0.88671875
 40
0.890625
 40
0.8984375
 40
0.90625
 40
0.9140625
 40
0.921875
 40
0.92578125
 40
0.9296875
 40
0.931640625
 40
0.93359375
 40
0.935546875
 40
0.9365234375
 40
0.9370117188
 40
0.9375
 40
0.9379882812
 40
0.9384765625
 40
0.939453125
 40
0.94140625
 40
0.943359375
 40
0.9453125
 40
0.94921875
 40
0.953125
 40
0.9609375
 40
0.96875
 40
0.9765625
 40
0.984375
 40
1.0
 40
1.0
 40
1.0
 40
1.0
 10
10.1537420656
 20
6.3102350495
 30
0.0
 10
10.1565563054
 20
6.3103158199
 30
0.0
 10
10.1607776651
 20
6.3104369754
 30
0.0
 10
10.1664061446
 20
6.3105985168
 30
0.0
 10
10.1706275047
 20
6.3107196707
 30
0.0
 10
10.1748488631
 20
6.310840833
 30
0.0
 10
10.1783666669
 20
6.3109417752
 30
0.0
 10
10.1811808984
 20
6.3110225882
 30
0.0
 10
10.1829398195
 20
6.3110729614
 30
0.0
 10
10.184346896
 20
6.3111135689
 30
0.0
 10
10.1854023685
 20
6.3111431787
 30
0.0
 10
10.1862814034
 20
6.3111705444
 30
0.0
 10
10.1868977593
 20
6.3111844195
 30
0.0
 10
10.1872483521
 20
6.3112005938
 30
0.0
 10
10.1875158337
 20
6.3111894965
 30
0.0
 10
10.1877659727
 20
6.3112671883
 30
0.0
 10
10.1881055407
 20
6.3113398068
 30
0.0
 10
10.1886969661
 20
6.3114813188
 30
0.0
 10
10.1895433331
 20
6.3116759349
 30
0.0
 10
10.1905583428
 20
6.3119127032
 30
0.0
 10
10.1919119094
 20
6.3122272665
 30
0.0
 10
10.1936037922
 20
6.3126208568
 30
0.0
 10
10.1963108468
 20
6.3132503854
 30
0.0
 10
10.1996946504
 20
6.3140373706
 30
0.0
 10
10.2037552218
 20
6.3149817189
 30
0.0
 10
10.2078157884
 20
6.3159260839
 30
0.0
 10
10.2111996043
 20
6.3167130274
 30
0.0
 10
10.2139066343
 20
6.3173426393
 30
0.0
 10
10.2155985797
 20
6.3177360177
 30
0.0
 10
10.2169520177
 20
6.3180510159
 30
0.0
 10
10.2179674203
 20
6.3182864556
 30
0.0
 10
10.218812558
 20
6.3184852287
 30
0.0
 10
10.219406178
 20
6.3186193198
 30
0.0
 10
10.2197422297
 20
6.3187038285
 30
0.0
 10
10.2200031695
 20
6.3187449971
 30
0.0
 10
10.2202300848
 20
6.318871075
 30
0.0
 10
10.2205445067
 20
6.3190095616
 30
0.0
 10
10.2210892154
 20
6.3192657125
 30
0.0
 10
10.2218702617
 20
6.3196244278
 30
0.0
 10
10.2228062797
 20
6.3200579742
 30
0.0
 10
10.224054736
 20
6.3206349574
 30
0.0
 10
10.2256151584
 20
6.3213565558
 30
0.0
 10
10.228111917
 20
6.3225109068
 30
0.0
 10
10.2312328365
 20
6.3239539168
 30
0.0
 10
10.2349779533
 20
6.3256854963
 30
0.0
 10
10.2387230626
 20
6.3274170919
 30
0.0
 10
10.2418440008
 20
6.3288600616
 30
0.0
 10
10.2443407221
 20
6.3300144933
 30
0.0
 10
10.2459012392
 20
6.3307358866
 30
0.0
 10
10.2471495011
 20
6.3313132907
 30
0.0
 10
10.2480861131
 20
6.3317455514
 30
0.0
 10
10.2488653012
 20
6.3321082893
 30
0.0
 10
10.2494133269
 20
6.3323572592
 30
0.0
 10
10.2497224341
 20
6.3325072514
 30
0.0
 10
10.2499656745
 20
6.3325979878
 30
0.0
 10
10.2501653002
 20
6.3327718935
 30
0.0
 10
10.2504466812
 20
6.3329747574
 30
0.0
 10
10.2509320097
 20
6.3333432858
 30
0.0
 10
10.2516290419
 20
6.3338626883
 30
0.0
 10
10.2524638943
 20
6.334488996
 30
0.0
 10
10.2535775849
 20
6.3353230164
 30
0.0
 10
10.2549695085
 20
6.3363659037
 30
0.0
 10
10.2571966922
 20
6.3380343212
 30
0.0
 10
10.2599806352
 20
6.3401199128
 30
0.0
 10
10.2633213841
 20
6.3426225913
 30
0.0
 10
10.2666621222
 20
6.3451252838
 30
0.0
 10
10.2694460923
 20
6.3472108402
 30
0.0
 10
10.2716732216
 20
6.3488793281
 30
0.0
 10
10.2730652837
 20
6.3499220365
 30
0.0
 10
10.27417869
 20
6.3507564241
 30
0.0
 10
10.275014411
 20
6.3513816103
 30
0.0
 10
10.2757087255
 20
6.3519045216
 30
0.0
 10
10.2761989056
 20
6.3522667861
 30
0.0
 10
10.2764725131
 20
6.3524796863
 30
0.0
 10
10.2766960163
 20
6.3526227636
 30
0.0
 10
10.2768495768
 20
6.3528292867
 30
0.0
 10
10.2770787209
 20
6.3530825202
 30
0.0
 10
10.2774683561
 20
6.3535359899
 30
0.0
 10
10.2780309206
 20
6.354178413
 30
0.0
 10
10.2787034544
 20
6.3549516281
 30
0.0
 10
10.2796010545
 20
6.3559817757
 30
0.0
 10
10.2807227504
 20
6.3572697361
 30
0.0
 10
10.2825176339
 20
6.3593303185
 30
0.0
 10
10.2847611796
 20
6.3619060998
 30
0.0
 10
10.2874534614
 20
6.3649970131
 30
0.0
 10
10.2901457293
 20
6.3680879379
 30
0.0
 10
10.2923893096
 20
6.3706636907
 30
0.0
 10
10.2941841239
 20
6.3727243299
 30
0.0
 10
10.2953059957
 20
6.3740121461
 30
0.0
 10
10.2962032349
 20
6.3750425898
 30
0.0
 10
10.2968768712
 20
6.3758149003
 30
0.0
 10
10.2974359861
 20
6.3764601537
 30
0.0
 10
10.2978317795
 20
6.3769085708
 30
0.0
 10
10.2980510567
 20
6.3771698998
 30
0.0
 10
10.2982349249
 20
6.3773515563
 30
0.0
 10
10.2983445972
 20
6.3775880282
 30
0.0
 10
10.2985167073
 20
6.3778842039
 30
0.0
 10
10.2988058417
 20
6.3784114197
 30
0.0
 10
10.2992251951
 20
6.3791599278
 30
0.0
 10
10.2997257208
 20
6.3800601311
 30
0.0
 10
10.3003940308
 20
6.3812597058
 30
0.0
 10
10.3012290956
 20
6.3827594126
 30
0.0
 10
10.3025653798
 20
6.3851588101
 30
0.0
 10
10.3042356727
 20
6.388158103
 30
0.0
 10
10.3062400528
 20
6.3917572339
 30
0.0
 10
10.3082444179
 20
6.3953563738
 30
0.0
 10
10.3099147483
 20
6.398355644
 30
0.0
 10
10.3112509573
 20
6.4007550871
 30
0.0
 10
10.3120862132
 20
6.4022546782
 30
0.0
 10
10.3127541311
 20
6.4034544903
 30
0.0
 10
10.3132558548
 20
6.4043539681
 30
0.0
 10
10.3136714597
 20
6.4051047461
 30
0.0
 10
10.3139672858
 20
6.4056279098
 30
0.0
 10
10.3141286742
 20
6.405930578
 30
0.0
 10
10.31427128
 20
6.4061471071
 30
0.0
 10
10.3143314553
 20
6.4064036654
 30
0.0
 10
10.3144404417
 20
6.4067317804
 30
0.0
 10
10.3146177715
 20
6.4073124872
 30
0.0
 10
10.3148781036
 20
6.4081386672
 30
0.0
 10
10.3151875043
 20
6.409131539
 30
0.0
 10
10.3156010856
 20
6.4104548595
 30
0.0
 10
10.3161177037
 20
6.4121091843
 30
0.0
 10
10.3169444931
 20
6.4147560067
 30
0.0
 10
10.3179779106
 20
6.4180645682
 30
0.0
 10
10.3192180433
 20
6.4220348269
 30
0.0
 10
10.3204581598
 20
6.4260050925
 30
0.0
 10
10.3214916181
 20
6.4293136368
 30
0.0
 10
10.3223183259
 20
6.4319604937
 30
0.0
 10
10.3228351513
 20
6.4336147307
 30
0.0
 10
10.3232483071
 20
6.4349382314
 30
0.0
 10
10.3235590077
 20
6.435930553
 30
0.0
 10
10.3238152727
 20
6.4367584544
 30
0.0
 10
10.323999863
 20
6.4373360881
 30
0.0
 10
10.3240972162
 20
6.437669127
 30
0.0
 10
10.3241931248
 20
6.4379105609
 30
0.0
 10
10.3242015224
 20
6.4381838945
 30
0.0
 10
10.3242432439
 20
6.4385372122
 30
0.0
 10
10.3243020346
 20
6.4391607026
 30
0.0
 10
10.3243934566
 20
6.4400486927
 30
0.0
 10
10.3244999805
 20
6.441115441
 30
0.0
 10
10.324643124
 20
6.4425373669
 30
0.0
 10
10.3248216727
 20
6.4443149129
 30
0.0
 10
10.3251075635
 20
6.4471589091
 30
0.0
 10
10.3254648534
 20
6.4507139309
 30
0.0
 10
10.325893635
 20
6.4549799457
 30
0.0
 10
10.3263223994
 20
6.4592459633
 30
0.0
 10
10.3266797322
 20
6.4628009779
 30
0.0
 10
10.3269655373
 20
6.4656449885
 30
0.0
 10
10.3271443036
 20
6.4674224978
 30
0.0
 10
10.3272870004
 20
6.4688444992
 30
0.0
 10
10.327394889
 20
6.4699110166
 30
0.0
 10
10.3274820415
 20
6.470799729
 30
0.0
 10
10.327548454
 20
6.47142193
 30
0.0
 10
10.3275779633
 20
6.4717773137
 30
0.0
 10
10.327623873
 20
6.4720443016
 30
0.0
 10
10.3275788924
 20
6.4723095688
 30
0.0
 10
10.3275506219
 20
6.4726638586
 30
0.0
 10
10.3274863771
 20
6.4732835861
 30
0.0
 10
10.3274023216
 20
6.4741690574
 30
0.0
 10
10.3272981493
 20
6.4752315603
 30
0.0
 10
10.3271604076
 20
6.4766482527
 30
0.0
 10
10.3269878351
 20
6.4784191107
 30
0.0
 10
10.3267119401
 20
6.4812524878
 30
0.0
 10
10.326366995
 20
6.4847942076
 30
0.0
 10
10.3259530957
 20
6.4890442723
 30
0.0
 10
10.3255391793
 20
6.4932943357
 30
0.0
 10
10.325194277
 20
6.4968360587
 30
0.0
 10
10.3249182964
 20
6.4996694295
 30
0.0
 10
10.3247459416
 20
6.5014403034
 30
0.0
 10
10.324607753
 20
6.5028569633
 30
0.0
 10
10.324504946
 20
6.5039195655
 30
0.0
 10
10.324416619
 20
6.5048047259
 30
0.0
 10
10.3243599994
 20
6.5054250084
 30
0.0
 10
10.3243195114
 20
6.5057784091
 30
0.0
 10
10.3243120588
 20
6.5060464075
 30
0.0
 10
10.3242170198
 20
6.5063031375
 30
0.0
 10
10.3241208523
 20
6.5066493746
 30
0.0
 10
10.3239383247
 20
6.5072534584
 30
0.0
 10
10.3236850129
 20
6.5081173927
 30
0.0
 10
10.3233778534
 20
6.509153704
 30
0.0
 10
10.3229694199
 20
6.5105355955
 30
0.0
 10
10.3224584972
 20
6.5122629109
 30
0.0
 10
10.3216412338
 20
6.5150266429
 30
0.0
 10
10.3206195809
 20
6.5184812984
 30
0.0
 10
10.319393631
 20
6.5226268897
 30
0.0
 10
10.3181676648
 20
6.5267724773
 30
0.0
 10
10.3171460528
 20
6.5302271423
 30
0.0
 10
10.3163287078
 20
6.5329908553
 30
0.0
 10
10.3158179925
 20
6.534718219
 30
0.0
 10
10.3154091331
 20
6.5361000114
 30
0.0
 10
10.315103275
 20
6.5371366254
 30
0.0
 10
10.3148458914
 20
6.5379996127
 30
0.0
 10
10.3146706327
 20
6.5386053869
 30
0.0
 10
10.3145628187
 20
6.5389489155
 30
0.0
 10
10.3145035539
 20
6.5392139654
 30
0.0
 10
10.3143617393
 20
6.5394507156
 30
0.0
 10
10.3142014474
 20
6.5397762538
 30
0.0
 10
10.3139075209
 20
6.5403413463
 30
0.0
 10
10.3134946399
 20
6.541151026
 30
0.0
 10
10.3129961804
 20
6.5421216123
 30
0.0
 10
10.3123326164
 20
6.5434160869
 30
0.0
 10
10.3115028023
 20
6.5450340571
 30
0.0
 10
10.3101753006
 20
6.5476228782
 30
0.0
 10
10.308515854
 20
6.5508588808
 30
0.0
 10
10.3065245498
 20
6.554742095
 30
0.0
 10
10.30453323
 20
6.5586253028
 30
0.0
 10
10.3028738225
 20
6.5618613213
 30
0.0
 10
10.3015462427
 20
6.5644501106
 30
0.0
 10
10.3007166271
 20
6.5660681617
 30
0.0
 10
10.3000526557
 20
6.5673624702
 30
0.0
 10
10.2995554408
 20
6.5683335641
 30
0.0
 10
10.299138666
 20
6.5691416557
 30
0.0
 10
10.2988516904
 20
6.5697095832
 30
0.0
 10
10.2986802615
 20
6.5700305791
 30
0.0
 10
10.2985726564
 20
6.5702812819
 30
0.0
 10
10.2983849065
 20
6.5704939281
 30
0.0
 10
10.2981625288
 20
6.570790731
 30
0.0
 10
10.2977603428
 20
6.5713039512
 30
0.0
 10
10.297192601
 20
6.5720403564
 30
0.0
 10
10.2965083961
 20
6.5729226586
 30
0.0
 10
10.2955971409
 20
6.574099545
 30
0.0
 10
10.2944577234
 20
6.5755704874
 30
0.0
 10
10.2926348502
 20
6.5779240879
 30
0.0
 10
10.2903561915
 20
6.5808660563
 30
0.0
 10
10.2876218313
 20
6.5843964338
 30
0.0
 10
10.2848874578
 20
6.5879268013
 30
0.0
 10
10.2826088324
 20
6.5908687947
 30
0.0
 10
10.2807858926
 20
6.5932223452
 30
0.0
 10
10.2796466443
 20
6.5946934145
 30
0.0
 10
10.2787350418
 20
6.5958700406
 30
0.0
 10
10.2780518981
 20
6.5967531378
 30
0.0
 10
10.2774808359
 20
6.5974870556
 30
0.0
 10
10.2770845773
 20
6.5980047163
 30
0.0
 10
10.2768527023
 20
6.5982944044
 30
0.0
 10
10.2766941251
 20
6.598528905
 30
0.0
 10
10.2764769525
 20
6.5986975264
 30
0.0
 10
10.2762078278
 20
6.5989453344
 30
0.0
 10
10.2757273369
 20
6.5993682918
 30
0.0
 10
10.2750458998
 20
6.5999781141
 30
0.0
 10
10.2742260443
 20
6.600707505
 30
0.0
 10
10.2731336479
 20
6.6016808631
 30
0.0
 10
10.2717678976
 20
6.6028972741
 30
0.0
 10
10.2695828396
 20
6.6048436919
 30
0.0
 10
10.2668514679
 20
6.6072766589
 30
0.0
 10
10.2635738442
 20
6.6101962446
 30
0.0
 10
10.26029621
 20
6.6131158173
 30
0.0
 10
10.2575648643
 20
6.615548817
 30
0.0
 10
10.2553797544
 20
6.6174951693
 30
0.0
 10
10.2540141361
 20
6.6187117469
 30
0.0
 10
10.2529214687
 20
6.6196847629
 30
0.0
 10
10.2521024413
 20
6.6204151989
 30
0.0
 10
10.2514184132
 20
6.6210217514
 30
0.0
 10
10.2509425477
 20
6.6214505461
 30
0.0
 10
10.2506660118
 20
6.6216890012
 30
0.0
 10
10.250471604
 20
6.6218863516
 30
0.0
 10
10.2502275263
 20
6.6220129507
 30
0.0
 10
10.2499194147
 20
6.6222064284
 30
0.0
 10
10.2493721473
 20
6.622533516
 30
0.0
 10
10.248594557
 20
6.6230067954
 30
0.0
 10
10.2476596422
 20
6.6235721577
 30
0.0
 10
10.24641372
 20
6.6243268727
 30
0.0
 10
10.2448561013
 20
6.6252699588
 30
0.0
 10
10.2423640321
 20
6.6267790685
 30
0.0
 10
10.239248904
 20
6.6286653962
 30
0.0
 10
10.2355107689
 20
6.6309290169
 30
0.0
 10
10.2317726257
 20
6.6331926231
 30
0.0
 10
10.2286575178
 20
6.635078987
 30
0.0
 10
10.2261654083
 20
6.6365880244
 30
0.0
 10
10.224607892
 20
6.6375312944
 30
0.0
 10
10.2233617596
 20
6.6382856319
 30
0.0
 10
10.2224274871
 20
6.6388521476
 30
0.0
 10
10.2216478869
 20
6.639321818
 30
0.0
 10
10.2211042075
 20
6.6396553484
 30
0.0
 10
10.220790347
 20
6.6398385031
 30
0.0
 10
10.2205639282
 20
6.6399968111
 30
0.0
 10
10.2203031967
 20
6.6400750682
 30
0.0
 10
10.2199675235
 20
6.6402073336
 30
0.0
 10
10.2193745188
 20
6.6404257884
 30
0.0
 10
10.2185302847
 20
6.6407446683
 30
0.0
 10
10.2175159559
 20
6.6411244129
 30
0.0
 10
10.2161639534
 20
6.6416317559
 30
0.0
 10
10.214473801
 20
6.6422655865
 30
0.0
 10
10.2117696406
 20
6.6432799101
 30
0.0
 10
10.2083894113
 20
6.6445477472
 30
0.0
 10
10.2043331492
 20
6.6460691828
 30
0.0
 10
10.2002768812
 20
6.6475906023
 30
0.0
 10
10.1968966663
 20
6.6488584793
 30
0.0
 10
10.1941924771
 20
6.6498727233
 30
0.0
 10
10.192502398
 20
6.6505067561
 30
0.0
 10
10.1911502449
 20
6.651013684
 30
0.0
 10
10.1901363762
 20
6.6513946967
 30
0.0
 10
10.1892907027
 20
6.6517096093
 30
0.0
 10
10.1887002676
 20
6.6519351464
 30
0.0
 10
10.1883604773
 20
6.6520560642
 30
0.0
 10
10.1881123921
 20
6.6521691775
 30
0.0
 10
10.187838476
 20
6.6521965712
 30
0.0
 10
10.1874822647
 20
6.6522629961
 30
0.0
 10
10.1868546969
 20
6.6523653087
 30
0.0
 10
10.1859603663
 20
6.6525187529
 30
0.0
 10
10.18488623
 20
6.6526997684
 30
0.0
 10
10.1834543765
 20
6.6529422112
 30
0.0
 10
10.1816644473
 20
6.653244892
 30
0.0
 10
10.1788006233
 20
6.6537293895
 30
0.0
 10
10.1752208217
 20
6.65433494
 30
0.0
 10
10.1709250691
 20
6.6550616311
 30
0.0
 10
10.166629314
 20
6.6557883141
 30
0.0
 10
10.1609016414
 20
6.6567572277
 30
0.0
 10
10.1566058868
 20
6.6574839122
 30
0.0
 10
10.1537420504
 20
6.6579683686
 30
0.0
  0
ELLIPSE
  5
3BB
100
AcDbEntity
  8
0
100
AcDbEllipse
 62
7
  6
CONTINUOUS
 10
11.1612028597
 20
7.9539200211
 30
0.0
 11
-0.053095879
 21
0.2155295841
 31
0.0
 40
0.8757841375
 41
0.0
 42
6.2831853072
  0
ENDSEC
  0
SECTION
  2
OBJECTS
  0
DICTIONARY
  5
C
100
AcDbDictionary
280
0
281
1
  3
ACAD_GROUP
350
D
  3
ACAD_MLINESTYLE
350
17
  3
ACAD_LAYOUT
350
1A
  3
ACAD_PLOTSETTINGS
350
19
  3
ACAD_PLOTSTYLENAME
350
E
  3
ACAD_IMAGE_DICT
350
       3BD
  3
ACAD_IMAGE_VARS
350
       3BE
  3
ACAD_TABLESTYLE
350
       3BF
  0
IMAGEDEF_REACTOR
  5
3BC
100
AcDbRasterImageDefReactor
 90
2
330
28E
  0
DICTIONARY
  5
D
102
{ACAD_REACTORS
330
C
102
}
100
AcDbDictionary
280
0
281
1
  0
ACDBDICTIONARYWDFLT
  5
E
102
{ACAD_REACTORS
330
C
102
}
100
AcDbDictionary
281
1
  3
Normal
350
F
100
AcDbDictionaryWithDefault
340
F
  0
DICTIONARY
  5
3BD
330
C
100
AcDbDictionary
281
1
  3
WAX_assy_2_img_1
350
       3C2
  0
RASTERVARIABLES
  5
3BE
330
C
100
AcDbRasterVariables
 90
0
 70
0
 71
1
 72
5
  0
DICTIONARY
  5
17
102
{ACAD_REACTORS
330
C
102
}
100
AcDbDictionary
280
0
281
1
  3
Standard
350
18
  0
DICTIONARY
  5
3BF
330
C
100
AcDbDictionary
281
1
  3
Standard
350
       3C3
  3
Standard1
350
       3C4
  0
DICTIONARY
  5
19
102
{ACAD_REACTORS
330
C
102
}
100
AcDbDictionary
281
1
  0
DICTIONARY
  5
1A
102
{ACAD_REACTORS
330
C
102
}
100
AcDbDictionary
281
1
  3
Model
350
3C0
  3
Layout1
350
3C1
  0
ACDBPLACEHOLDER
  5
F
102
{ACAD_REACTORS
330
E
102
}
  0
MLINESTYLE
  5
18
102
{ACAD_REACTORS
330
17
102
}
100
AcDbMlineStyle
  2
STANDARD
 70
0
  3

 62
256
 51
90.0
 52
90.0
 71
2
 49
0.5
 62
256
  6
BYLAYER
 49
-0.5
 62
256
  6
BYLAYER
  0
LAYOUT
  5
3C0
102
{ACAD_REACTORS
330
1A
102
}
100
AcDbPlotSettings
  1

  2
none_device
  4
ANSI_C_(22.00_x_17.00_Inches)
  6

 40
0.0
 41
0.0
 42
0.0
 43
0.0
 44
558.8
 45
431.8
 46
0.0
 47
0.0
 48
0.0
 49
0.0
140
0.0
141
0.0
142
1.0
143
1.0
 70
1024
 72
0
 73
0
 74
0
  7

 75
0
147
1.0
148
0.0
149
0.0
100
AcDbLayout
  1
Model
 70
0
 71
0
 10
0.0
 20
0.0
 11
22.0
 21
17.0
 12
0.0
 22
0.0
 32
0.0
 14
0.0
 24
0.0
 34
0.0
 15
0.0
 25
0.0
 35
0.0
146
0.0
 13
0.0
 23
0.0
 33
0.0
 16
1.0
 26
0.0
 36
0.0
 17
0.0
 27
1.0
 37
0.0
 76
0
330
20C
345
0
346
0
  0
LAYOUT
  5
3C1
102
{ACAD_REACTORS
330
1A
102
}
100
AcDbPlotSettings
  1

  2
none_device
  4
ANSI_C_(22.00_x_17.00_Inches)
  6

 40
0.0
 41
0.0
 42
0.0
 43
0.0
 44
558.8
 45
431.8
 46
0.0
 47
0.0
 48
0.0
 49
0.0
140
0.0
141
0.0
142
1.0
143
1.0
 70
0
 72
0
 73
0
 74
0
  7

 75
0
147
1.0
148
0.0
149
0.0
100
AcDbLayout
  1
Layout1
 70
0
 71
1
 10
0.0
 20
0.0
 11
22.0
 21
17.0
 12
0.0
 22
0.0
 32
0.0
 14
0.0
 24
0.0
 34
0.0
 15
0.0
 25
0.0
 35
0.0
146
0.0
 13
0.0
 23
0.0
 33
0.0
 16
1.0
 26
0.0
 36
0.0
 17
0.0
 27
1.0
 37
0.0
 76
0
330
20D
345
0
346
0
  0
IMAGEDEF
  5
3C2
102
{ACAD_REACTORS
330
3BD
330
3BC
102
}
100
AcDbRasterImageDef
 90
0
  1
WAX_assy_2_img_1.png
 10
369.0
 20
92.0
 11
0.0066666667
 21
0.0066666667
280
1
281
0
  0
TABLESTYLE
  5
3C3
102
{ACAD_REACTORS
330
3BF
330
291
330
292
102
}
330
3BF
100
AcDbTableStyle
  3
Standard
 70
0
 71
0
 40
0.06
 41
0.06
280
1
281
1
  7
Standard
140
0.18
170
1
 62
0
 63
7
283
0
  7
Standard
140
0.18
170
1
 62
0
 63
7
283
0
  7
Standard
140
0.18
170
1
 62
0
 63
7
283
0
  0
TABLESTYLE
  5
3C4
102
{ACAD_REACTORS
330
3BF
330
290
102
}
330
3BF
100
AcDbTableStyle
  3
Standard1
 70
1
 71
0
 40
0.06
 41
0.06
280
1
281
1
  7
Standard
140
0.18
170
1
 62
0
 63
7
283
0
  7
Standard
140
0.18
170
1
 62
0
 63
7
283
0
  7
Standard
140
0.18
170
1
 62
0
 63
7
283
0
  0
ENDSEC
  0
EOF
