999
DXF file: WAU_assy_2.dxf
999
Pro/ENGINEER 2014200 by Parametric Technology Corporation
  0
SECTION
  2
HEADER
  9
$ACADVER
  1
AC1021
  9
$DWGCODEPAGE
  3
ANSI_1252
  9
$EXTMAX
 10
22.0
 20
17.0
 30
0.0
  9
$EXTMIN
 10
0.0
 20
0.0
 30
0.0
  9
$LIMMIN
 10
0.0
 20
0.0
  9
$LIMMAX
 10
22.0
 20
17.0
  9
$VIEWCTR
 10
11.0
 20
8.5
  9
$VIEWSIZE
 40
17.0
  9
$CLAYER
  8
0
  9
$LTSCALE
 40
1.21
  9
$CELTYPE
  6
BYLAYER
  9
$DIMSCALE
 40
1.0
  9
$DIMASZ
 40
0.1875
  9
$DIMEXO
 40
0.0625
  9
$DIMDLI
 40
0.836
  9
$DIMEXE
 40
0.125
  9
$DIMCEN
 40
0.198
  9
$DIMLFAC
 40
1.0
  9
$DIMBLK
  1
_FILLED
  9
$DIMTXT
 40
0.1
  9
$DIMTOL
 70
0
  9
$DIMLIM
 70
0
  9
$DIMTFAC
 40
1.0
  9
$DIMGAP
 40
0.09
  9
$DIMDSEP
 70
46
  9
$AUNITS
 70
0
  9
$PDMODE
 70
3
  9
$PDSIZE
 40
0.3125
  9
$HANDSEED
  5
3E2
  9
$TILEMODE
 70
1
  9
$MEASUREMENT
 70
0
  9
$INSUNITS
 70
1
  0
ENDSEC
  0
SECTION
  2
CLASSES
  0
CLASS
  1
ACDBDICTIONARYWDFLT
  2
AcDbDictionaryWithDefault
  3
AutoCAD 2000
 90
0
 91
1
280
0
281
0
  0
CLASS
  1
ACDBPLACEHOLDER
  2
AcDbPlaceHolder
  3
AutoCAD 2000
 90
0
 91
1
280
0
281
0
  0
CLASS
  1
LAYOUT
  2
AcDbLayout
  3
AutoCAD 2000
 90
0
 91
0
280
0
281
0
  0
CLASS
  1
RASTERVARIABLES
  2
AcDbRasterVariables
  3
ISM
 90
0
 91
1
280
0
281
0
  0
CLASS
  1
IMAGEDEF
  2
AcDbRasterImageDef
  3
ISM
 90
0
 91
1
280
0
281
0
  0
CLASS
  1
IMAGEDEF_REACTOR
  2
AcDbRasterImageDefReactor
  3
ISM
 90
0
 91
1
280
0
281
0
  0
CLASS
  1
IMAGE
  2
AcDbRasterImage
  3
ISM
 90
127
 91
1
280
0
281
1
  0
CLASS
  1
TABLESTYLE
  2
AcDbTableStyle
  3
ObjectDBX Classes
 90
2047
 91
1
280
0
281
0
  0
CLASS
  1
ACAD_TABLE
  2
AcDbTable
  3
ObjectDBX Classes
 90
1025
 91
3
280
0
281
1
  0
ENDSEC
  0
SECTION
  2
TABLES
  0
TABLE
  2
VPORT
  5
8
100
AcDbSymbolTable
 70
2
  0
VPORT
  5
1F4
100
AcDbSymbolTableRecord
100
AcDbViewportTableRecord
  2
*ACTIVE
 70
0
 10
0.0
 20
0.0
 11
1.0
 21
1.0
 12
11.0
 22
8.5
 13
0.0
 23
0.0
 14
1.0
 24
1.0
 15
0.0
 25
0.0
 16
0.0
 26
0.0
 36
1.0
 17
0.0
 27
0.0
 37
0.0
 40
17.0
 41
1.2941176471
 42
50.0
 43
0.0
 44
0.0
 50
0.0
 51
0.0
 71
0
 72
100
 73
1
 74
1
 75
0
 76
0
 77
0
 78
0
  0
ENDTAB
  0
TABLE
  2
LTYPE
  5
5
100
AcDbSymbolTable
 70
6
  0
LTYPE
  5
14
100
AcDbSymbolTableRecord
100
AcDbLinetypeTableRecord
  2
BYBLOCK
 70
0
  3

 72
65
 73
0
 40
0.0
  0
LTYPE
  5
15
100
AcDbSymbolTableRecord
100
AcDbLinetypeTableRecord
  2
BYLAYER
 70
0
  3

 72
65
 73
0
 40
0.0
  0
LTYPE
  5
16
100
AcDbSymbolTableRecord
100
AcDbLinetypeTableRecord
  2
CONTINUOUS
 70
64
  3
Solid line
 72
65
 73
0
 40
0.0
  0
LTYPE
  5
1F5
100
AcDbSymbolTableRecord
100
AcDbLinetypeTableRecord
  2
CENTER
 70
64
  3
____ _ ____ _ ____ _ ____ _ ____ _ ____ _ ____
 72
65
 73
4
 40
0.6
 49
0.375
 74
0
 49
-0.075
 74
0
 49
0.075
 74
0
 49
-0.075
 74
0
  0
LTYPE
  5
1F6
100
AcDbSymbolTableRecord
100
AcDbLinetypeTableRecord
  2
HIDDEN
 70
64
  3
- - - - - - - - - - - - - - - - - - - -
 72
65
 73
2
 40
0.2
 49
0.1
 74
0
 49
-0.1
 74
0
  0
LTYPE
  5
1F7
100
AcDbSymbolTableRecord
100
AcDbLinetypeTableRecord
  2
PHANTOM
 70
64
  3
_____ _ _ _____ _ _ _____ _ _ _____
 72
65
 73
6
 40
0.8
 49
0.45
 74
0
 49
-0.05
 74
0
 49
0.1
 74
0
 49
-0.05
 74
0
 49
0.1
 74
0
 49
-0.05
 74
0
  0
LTYPE
  5
1F8
100
AcDbSymbolTableRecord
100
AcDbLinetypeTableRecord
  2
DOT
 70
64
  3
. . . . . . . . . . . . . . . . . . . .
 72
65
 73
2
 40
0.2
 49
0.1
 74
0
 49
-0.1
 74
0
  0
LTYPE
  5
1F9
100
AcDbSymbolTableRecord
100
AcDbLinetypeTableRecord
  2
DASHED
 70
64
  3
- - - - - - - - - - - - - - - - - - - -
 72
65
 73
2
 40
0.2
 49
0.1
 74
0
 49
-0.1
 74
0
  0
ENDTAB
  0
TABLE
  2
LAYER
  5
2
100
AcDbSymbolTable
 70
36
  0
LAYER
  5
10
100
AcDbSymbolTableRecord
100
AcDbLayerTableRecord
  2
0
 70
0
 62
7
  6
CONTINUOUS
370
-3
390
F
  0
LAYER
  5
1FA
100
AcDbSymbolTableRecord
100
AcDbLayerTableRecord
  2
DEFAULT_1
 70
0
 62
7
  6
CENTER
370
-3
390
F
  0
LAYER
  5
1FB
100
AcDbSymbolTableRecord
100
AcDbLayerTableRecord
  2
DEFAULT_2
 70
0
 62
8
  6
HIDDEN
370
-3
390
F
  0
LAYER
  5
1FC
100
AcDbSymbolTableRecord
100
AcDbLayerTableRecord
  2
DEFAULT_3
 70
0
 62
7
  6
PHANTOM
370
-3
390
F
  0
LAYER
  5
1FD
100
AcDbSymbolTableRecord
100
AcDbLayerTableRecord
  2
01___PRT_ALL_DTM_PLN
 70
0
 62
7
  6
CONTINUOUS
370
-3
390
F
  0
LAYER
  5
1FE
100
AcDbSymbolTableRecord
100
AcDbLayerTableRecord
  2
01___PRT_DEF_DTM_PLN
 70
0
 62
7
  6
CONTINUOUS
370
-3
390
F
  0
LAYER
  5
1FF
100
AcDbSymbolTableRecord
100
AcDbLayerTableRecord
  2
02___PRT_ALL_AXES
 70
0
 62
7
  6
CONTINUOUS
370
-3
390
F
  0
LAYER
  5
200
100
AcDbSymbolTableRecord
100
AcDbLayerTableRecord
  2
03___PRT_ALL_CURVES
 70
0
 62
7
  6
CONTINUOUS
370
-3
390
F
  0
LAYER
  5
201
100
AcDbSymbolTableRecord
100
AcDbLayerTableRecord
  2
04___PRT_ALL_DTM_PNT
 70
0
 62
7
  6
CONTINUOUS
370
-3
390
F
  0
LAYER
  5
202
100
AcDbSymbolTableRecord
100
AcDbLayerTableRecord
  2
05___PRT_ALL_DTM_CSYS
 70
0
 62
7
  6
CONTINUOUS
370
-3
390
F
  0
LAYER
  5
203
100
AcDbSymbolTableRecord
100
AcDbLayerTableRecord
  2
05___PRT_DEF_DTM_CSYS
 70
0
 62
7
  6
CONTINUOUS
370
-3
390
F
  0
LAYER
  5
204
100
AcDbSymbolTableRecord
100
AcDbLayerTableRecord
  2
06___PRT_ALL_SURFS
 70
0
 62
7
  6
CONTINUOUS
370
-3
390
F
  0
LAYER
  5
205
100
AcDbSymbolTableRecord
100
AcDbLayerTableRecord
  2
DATUM_PLANES
 70
0
 62
7
  6
CONTINUOUS
370
-3
390
F
  0
LAYER
  5
206
100
AcDbSymbolTableRecord
100
AcDbLayerTableRecord
  2
PORT_AREAS
 70
0
 62
7
  6
CONTINUOUS
370
-3
390
F
  0
LAYER
  5
207
100
AcDbSymbolTableRecord
100
AcDbLayerTableRecord
  2
SUNNBOMCOSMETIC
 70
0
 62
7
  6
CONTINUOUS
370
-3
390
F
  0
LAYER
  5
208
100
AcDbSymbolTableRecord
100
AcDbLayerTableRecord
  2
SUNNBOMSTAMPING
 70
0
 62
7
  6
CONTINUOUS
370
-3
390
F
  0
LAYER
  5
209
100
AcDbSymbolTableRecord
100
AcDbLayerTableRecord
  2
THREADS
 70
0
 62
7
  6
CONTINUOUS
370
-3
390
F
  0
ENDTAB
  0
TABLE
  2
STYLE
  5
3
100
AcDbSymbolTable
 70
1
  0
STYLE
  5
11
100
AcDbSymbolTableRecord
100
AcDbTextStyleTableRecord
  2
STANDARD
 70
0
 40
0.0
 41
0.8
 50
0.0
 71
0
 42
0.2
  3
txt
  4

  0
STYLE
  5
20A
100
AcDbSymbolTableRecord
100
AcDbTextStyleTableRecord
  2
TEXTSTYLE_1
 70
0
 40
0.0
 41
0.8
 50
0.0
 71
0
 42
0.2
  3
gdt
  4

  0
ENDTAB
  0
TABLE
  2
VIEW
  5
6
100
AcDbSymbolTable
 70
0
  0
ENDTAB
  0
TABLE
  2
UCS
  5
7
100
AcDbSymbolTable
 70
0
  0
ENDTAB
  0
TABLE
  2
APPID
  5
9
100
AcDbSymbolTable
 70
1
  0
APPID
  5
20B
100
AcDbSymbolTableRecord
100
AcDbRegAppTableRecord
  2
ACAD
 70
0
  0
ENDTAB
  0
TABLE
  2
BLOCK_RECORD
  5
1
100
AcDbSymbolTable
 70
0
  0
BLOCK_RECORD
  5
20C
100
AcDbSymbolTableRecord
100
AcDbBlockTableRecord
  2
*Model_Space
  0
BLOCK_RECORD
  5
20D
100
AcDbSymbolTableRecord
100
AcDbBlockTableRecord
  2
*Paper_Space
  0
BLOCK_RECORD
  5
20E
100
AcDbSymbolTableRecord
100
AcDbBlockTableRecord
  2
SUN_FIRST_THIRD_ANGLE_BL0
  0
BLOCK_RECORD
  5
20F
100
AcDbSymbolTableRecord
100
AcDbBlockTableRecord
  2
*T1
  0
BLOCK_RECORD
  5
210
100
AcDbSymbolTableRecord
100
AcDbBlockTableRecord
  2
*T2
  0
BLOCK_RECORD
  5
211
100
AcDbSymbolTableRecord
100
AcDbBlockTableRecord
  2
*T3
  0
ENDTAB
  0
TABLE
  2
DIMSTYLE
  5
A
100
AcDbSymbolTable
 70
1
100
AcDbDimStyleTable
 71
0
  0
DIMSTYLE
105
212
100
AcDbSymbolTableRecord
100
AcDbDimStyleTableRecord
  2
STANDARD
 70
0
  3

  4

 40
1.0
 41
0.1875
 42
0.0625
 43
0.38
 44
0.125
 45
0.0
 46
0.0
 47
0.001
 48
0.001
140
0.1
141
0.09
142
0.0
143
25.4
144
1.0
145
0.0
146
1.0
147
0.09
 71
0.0
 72
0.0
 73
1
 74
1
 75
0
 76
0
 77
0
 78
4
170
0
171
2
172
0
173
0
174
0
175
0
176
0
177
0
178
0
270
2
271
3
272
3
273
2
274
2
275
0
280
0
281
0
282
0
283
1
284
4
285
0
286
0
287
3
288
0
340
11
278
46
  0
ENDTAB
  0
ENDSEC
  0
SECTION
  2
BLOCKS
  0
BLOCK
  5
20
100
AcDbEntity
  8
0
100
AcDbBlockBegin
  2
*Model_Space
 70
0
 10
0.0
 20
0.0
 30
0.0
  3
*Model_Space
  1

  0
ENDBLK
  5
21
100
AcDbEntity
  8
0
100
AcDbBlockEnd
  0
BLOCK
  5
1C
100
AcDbEntity
  8
0
100
AcDbBlockBegin
  2
*Paper_Space
 70
0
 10
0.0
 20
0.0
 30
0.0
  3
*Paper_Space
  1

  0
ENDBLK
  5
1D
100
AcDbEntity
  8
0
100
AcDbBlockEnd
  0
BLOCK
  5
213
100
AcDbEntity
  8
0
100
AcDbBlockBegin
 62
2
  6
CONTINUOUS
  2
SUN_FIRST_THIRD_ANGLE_BL0
 70
64
 10
20.4816717061
 20
1.2289683772
  3
SUN_FIRST_THIRD_ANGLE_BL0
  1

  0
TEXT
  5
214
100
AcDbEntity
  8
0
100
AcDbText
 62
2
  6
CONTINUOUS
 10
19.4750896608
 20
1.4136269581
  7
STANDARD
 40
0.08
  1
FIRST ANGLE
 41
0.8
 72
0
100
AcDbText
  0
TEXT
  5
215
100
AcDbEntity
  8
0
100
AcDbText
 62
2
  6
CONTINUOUS
 10
20.7842537513
 20
1.4047600029
  7
STANDARD
 40
0.08
  1
THIRD ANGLE
 41
0.8
 72
0
100
AcDbText
  0
LINE
  5
216
100
AcDbEntity
  8
0
100
AcDbLine
 62
7
  6
CONTINUOUS
 10
19.4767170086
 20
1.1727031207
 11
19.6334271527
 21
1.1717972817
  0
LINE
  5
217
100
AcDbEntity
  8
0
100
AcDbLine
 62
7
  6
CONTINUOUS
 10
19.6596964832
 20
1.1717972817
 11
19.6950230232
 21
1.171593082
  0
LINE
  5
218
100
AcDbEntity
  8
0
100
AcDbLine
 62
7
  6
CONTINUOUS
 10
19.7194818561
 20
1.1708914427
 11
19.8852396156
 21
1.1699333054
  0
LINE
  5
219
100
AcDbEntity
  8
0
100
AcDbLine
 62
7
  6
CONTINUOUS
 10
19.4758111696
 20
1.2723454088
 11
19.88525039
 21
1.3511534004
  0
LINE
  5
21A
100
AcDbEntity
  8
0
100
AcDbLine
 62
7
  6
CONTINUOUS
 10
19.88525039
 20
1.3511534004
 11
19.8831348489
 21
0.9851647912
  0
LINE
  5
21B
100
AcDbEntity
  8
0
100
AcDbLine
 62
7
  6
CONTINUOUS
 10
19.8831348489
 20
0.9851647912
 11
19.4767170086
 21
1.0658141206
  0
LINE
  5
21C
100
AcDbEntity
  8
0
100
AcDbLine
 62
7
  6
CONTINUOUS
 10
19.4767170086
 20
1.0658141206
 11
19.4779056764
 21
1.2714536432
  0
CIRCLE
  5
21D
100
AcDbEntity
  8
0
100
AcDbCircle
 62
7
  6
CONTINUOUS
 10
20.2068232291
 20
1.1717972817
 40
0.175742101
  0
CIRCLE
  5
21E
100
AcDbEntity
  8
0
100
AcDbCircle
 62
7
  6
CONTINUOUS
 10
20.2068232291
 20
1.1717972817
 40
0.1005522074
  0
LINE
  5
21F
100
AcDbEntity
  8
0
100
AcDbLine
 62
7
  6
CONTINUOUS
 10
20.2077290681
 20
1.3756110529
 11
20.2071171714
 21
1.2379342989
  0
LINE
  5
220
100
AcDbEntity
  8
0
100
AcDbLine
 62
7
  6
CONTINUOUS
 10
20.2077290681
 20
1.2016899681
 11
20.2074674401
 21
1.1428236749
  0
LINE
  5
221
100
AcDbEntity
  8
0
100
AcDbLine
 62
7
  6
CONTINUOUS
 10
20.208634907
 20
1.101141841
 11
20.2080230104
 21
0.963465087
  0
LINE
  5
222
100
AcDbEntity
  8
0
100
AcDbLine
 62
7
  6
CONTINUOUS
 10
20.0066328138
 20
1.1745147986
 11
20.1443095678
 21
1.1739029019
  0
LINE
  5
223
100
AcDbEntity
  8
0
100
AcDbLine
 62
7
  6
CONTINUOUS
 10
20.1832714155
 20
1.1727031207
 11
20.238153505
 21
1.172335442
  0
LINE
  5
224
100
AcDbEntity
  8
0
100
AcDbLine
 62
7
  6
CONTINUOUS
 10
20.2756669918
 20
1.1717972817
 11
20.407916871
 21
1.1712095044
  0
CIRCLE
  5
225
100
AcDbEntity
  8
0
100
AcDbCircle
 62
7
  6
CONTINUOUS
 10
20.7509457401
 20
1.1693297793
 40
0.1722024983
  0
CIRCLE
  5
226
100
AcDbEntity
  8
0
100
AcDbCircle
 62
7
  6
CONTINUOUS
 10
20.7509457401
 20
1.1693297793
 40
0.0985164967
  0
LINE
  5
227
100
AcDbEntity
  8
0
100
AcDbLine
 62
7
  6
CONTINUOUS
 10
20.7169767782
 20
1.170462078
 11
20.7825395137
 21
1.1682766535
  0
LINE
  5
228
100
AcDbEntity
  8
0
100
AcDbLine
 62
7
  6
CONTINUOUS
 10
20.8177513651
 20
1.1693297793
 11
20.947965719
 21
1.1693297793
  0
LINE
  5
229
100
AcDbEntity
  8
0
100
AcDbLine
 62
7
  6
CONTINUOUS
 10
20.6875370113
 20
1.170462078
 11
20.5573226574
 21
1.170462078
  0
LINE
  5
22A
100
AcDbEntity
  8
0
100
AcDbLine
 62
7
  6
CONTINUOUS
 10
20.7486811426
 20
1.1987695462
 11
20.7486811426
 21
1.1432869085
  0
LINE
  5
22B
100
AcDbEntity
  8
0
100
AcDbLine
 62
7
  6
CONTINUOUS
 10
20.7498134414
 20
1.1059210505
 11
20.7498134414
 21
0.9757066966
  0
LINE
  5
22C
100
AcDbEntity
  8
0
100
AcDbLine
 62
7
  6
CONTINUOUS
 10
20.7486811426
 20
1.2338708068
 11
20.7486811426
 21
1.3640851607
  0
LINE
  5
22D
100
AcDbEntity
  8
0
100
AcDbLine
 62
7
  6
CONTINUOUS
 10
21.0702539817
 20
1.2701043662
 11
21.4790138229
 21
1.3448360823
  0
LINE
  5
22E
100
AcDbEntity
  8
0
100
AcDbLine
 62
7
  6
CONTINUOUS
 10
21.4790138229
 20
1.3448360823
 11
21.4790138229
 21
0.9779712941
  0
LINE
  5
22F
100
AcDbEntity
  8
0
100
AcDbLine
 62
7
  6
CONTINUOUS
 10
21.4790138229
 20
0.9779712941
 11
21.069121683
 21
1.0617614
  0
LINE
  5
230
100
AcDbEntity
  8
0
100
AcDbLine
 62
7
  6
CONTINUOUS
 10
21.0702539817
 20
1.2701043662
 11
21.069121683
 21
1.0617614
  0
LINE
  5
231
100
AcDbEntity
  8
0
100
AcDbLine
 62
7
  6
CONTINUOUS
 10
21.4790138229
 20
1.1693297793
 11
21.3159628059
 21
1.1693297793
  0
LINE
  5
232
100
AcDbEntity
  8
0
100
AcDbLine
 62
7
  6
CONTINUOUS
 10
21.2876553377
 20
1.1693297793
 11
21.2502894796
 21
1.1693297793
  0
LINE
  5
233
100
AcDbEntity
  8
0
100
AcDbLine
 62
7
  6
CONTINUOUS
 10
21.2208497126
 20
1.1659328831
 11
21.0713862804
 21
1.1659328831
  0
LINE
  5
234
100
AcDbEntity
  8
0
100
AcDbLine
 62
7
  6
CONTINUOUS
 10
20.4796138713
 20
1.5284908897
 11
20.4766766948
 21
0.9294458646
  0
ENDBLK
  5
235
100
AcDbEntity
  8
0
  6
BYBLOCK
 62
0
100
AcDbBlockEnd
  0
BLOCK
  5
236
100
AcDbEntity
  8
0
100
AcDbBlockBegin
  2
*T1
 70
1
 10
0.0
 20
0.0
  3
*T1
  1

  0
LINE
  5
237
100
AcDbEntity
  8
0
100
AcDbLine
 62
2
  6
CONTINUOUS
 10
9.275
 20
0.0
 11
-0.0
 21
0.0
  0
LINE
  5
238
100
AcDbEntity
  8
0
100
AcDbLine
 62
2
  6
CONTINUOUS
 10
9.275
 20
0.0
 11
9.275
 21
1.25
  0
LINE
  5
239
100
AcDbEntity
  8
0
100
AcDbLine
 62
2
  6
CONTINUOUS
 10
9.275
 20
0.625
 11
-0.0
 21
0.625
  0
LINE
  5
23A
100
AcDbEntity
  8
0
100
AcDbLine
 62
2
  6
CONTINUOUS
 10
9.275
 20
1.25
 11
-0.0
 21
1.25
  0
LINE
  5
23B
100
AcDbEntity
  8
0
100
AcDbLine
 62
2
  6
CONTINUOUS
 10
6.8
 20
0.0
 11
6.8
 21
1.25
  0
LINE
  5
23C
100
AcDbEntity
  8
0
100
AcDbLine
 62
2
  6
CONTINUOUS
 10
6.4
 20
0.0
 11
6.4
 21
0.625
  0
LINE
  5
23D
100
AcDbEntity
  8
0
100
AcDbLine
 62
2
  6
CONTINUOUS
 10
5.9
 20
0.0
 11
5.9
 21
0.625
  0
LINE
  5
23E
100
AcDbEntity
  8
0
100
AcDbLine
 62
2
  6
CONTINUOUS
 10
5.2
 20
0.0
 11
5.2
 21
0.625
  0
LINE
  5
23F
100
AcDbEntity
  8
0
100
AcDbLine
 62
2
  6
CONTINUOUS
 10
4.1
 20
0.0
 11
4.1
 21
1.25
  0
LINE
  5
240
100
AcDbEntity
  8
0
100
AcDbLine
 62
2
  6
CONTINUOUS
 10
-0.0
 20
0.0
 11
-0.0
 21
1.25
  0
MTEXT
  5
241
100
AcDbEntity
  8
0
100
AcDbMText
 62
2
  6
CONTINUOUS
  7
STANDARD
 71
2
 72
1
 10
6.6
 20
0.325
 30
0.0
 11
1.0
 21
0.0
 31
0.0
 44
0.9
  1
2
 40
0.125
 41
0.2
  0
MTEXT
  5
242
100
AcDbEntity
  8
0
100
AcDbMText
 62
2
  6
CONTINUOUS
  7
STANDARD
 71
2
 72
1
 10
6.15
 20
0.325
 30
0.0
 11
1.0
 21
0.0
 31
0.0
 44
0.9
  1
C
 40
0.125
 41
0.2
  0
MTEXT
  5
243
100
AcDbEntity
  8
0
100
AcDbMText
 62
2
  6
CONTINUOUS
  7
STANDARD
 71
2
 72
1
 10
5.55
 20
0.325
 30
0.0
 11
1.0
 21
0.0
 31
0.0
 44
0.9
  1
1.000
 40
0.125
 41
1.0
  0
MTEXT
  5
244
100
AcDbEntity
  8
0
100
AcDbMText
 62
2
  6
CONTINUOUS
  7
STANDARD
 71
2
 72
1
 10
4.65
 20
0.325
 30
0.0
 11
1.0
 21
0.0
 31
0.0
 44
0.9
  1
May-25-21
 40
0.125
 41
1.8
  0
MTEXT
  5
245
100
AcDbEntity
  8
0
100
AcDbMText
 62
2
  6
CONTINUOUS
  7
STANDARD
 71
2
 72
1
 10
2.05
 20
0.4625
 30
0.0
 11
1.0
 21
0.0
 31
0.0
 44
0.9
  1
T-10A Subplate ISO 05\PP to T, check on P, side ports
 40
0.125
 41
6.0
  0
MTEXT
  5
246
100
AcDbEntity
  8
0
100
AcDbMText
 62
2
  6
CONTINUOUS
  7
STANDARD
 71
1
 72
1
 10
6.45
 20
0.5625
 30
0.0
 11
1.0
 21
0.0
 31
0.0
 44
0.9
  1
SHEET
 40
0.06
 41
0.48
  0
MTEXT
  5
247
100
AcDbEntity
  8
0
100
AcDbMText
 62
2
  6
CONTINUOUS
  7
STANDARD
 71
1
 72
1
 10
5.95
 20
0.5625
 30
0.0
 11
1.0
 21
0.0
 31
0.0
 44
0.9
  1
DWG SIZE
 40
0.06
 41
0.768
  0
MTEXT
  5
248
100
AcDbEntity
  8
0
100
AcDbMText
 62
2
  6
CONTINUOUS
  7
STANDARD
 71
1
 72
1
 10
5.25
 20
0.5625
 30
0.0
 11
1.0
 21
0.0
 31
0.0
 44
0.9
  1
SCALE
 40
0.06
 41
0.48
  0
MTEXT
  5
249
100
AcDbEntity
  8
0
100
AcDbMText
 62
2
  6
CONTINUOUS
  7
STANDARD
 71
1
 72
1
 10
4.15
 20
0.5625
 30
0.0
 11
1.0
 21
0.0
 31
0.0
 44
0.9
  1
DATE
 40
0.06
 41
0.384
  0
MTEXT
  5
24A
100
AcDbEntity
  8
0
100
AcDbMText
 62
2
  6
CONTINUOUS
  7
STANDARD
 71
1
 72
1
 10
0.05
 20
0.5625
 30
0.0
 11
1.0
 21
0.0
 31
0.0
 44
0.9
  1
DESCRIPTION
 40
0.06
 41
1.056
  0
MTEXT
  5
24B
100
AcDbEntity
  8
0
100
AcDbMText
 62
2
  6
CONTINUOUS
  7
STANDARD
 71
2
 72
1
 10
5.45
 20
1.0375
 30
0.0
 11
1.0
 21
0.0
 31
0.0
 44
0.9
  1
ALL DIMENSIONS IN INCH\PVIEWS ARE THIRD ANGLE
 40
0.12
 41
4.224
  0
MTEXT
  5
24C
100
AcDbEntity
  8
0
100
AcDbMText
 62
2
  6
CONTINUOUS
  7
STANDARD
 71
2
 72
1
 10
2.05
 20
0.95
 30
0.0
 11
1.0
 21
0.0
 31
0.0
 44
0.9
  1
WAU
 40
0.125
 41
0.6
  0
MTEXT
  5
24D
100
AcDbEntity
  8
0
100
AcDbMText
 62
2
  6
CONTINUOUS
  7
STANDARD
 71
1
 72
1
 10
0.05
 20
1.1875
 30
0.0
 11
1.0
 21
0.0
 31
0.0
 44
0.9
  1
MODEL
 40
0.06
 41
0.48
  0
ENDBLK
  5
24E
100
AcDbEntity
  8
0
  6
BYBLOCK
 62
0
100
AcDbBlockEnd
  0
BLOCK
  5
24F
100
AcDbEntity
  8
0
100
AcDbBlockBegin
  2
*T2
 70
1
 10
0.0
 20
0.0
  3
*T2
  1

  0
LINE
  5
250
100
AcDbEntity
  8
0
100
AcDbLine
 62
2
  6
CONTINUOUS
 10
0.0
 20
0.0
 11
9.055
 21
0.0
  0
LINE
  5
251
100
AcDbEntity
  8
0
100
AcDbLine
 62
2
  6
CONTINUOUS
 10
0.0
 20
0.0
 11
0.0
 21
-2.844
  0
LINE
  5
252
100
AcDbEntity
  8
0
100
AcDbLine
 62
2
  6
CONTINUOUS
 10
0.0
 20
-0.344
 11
9.055
 21
-0.344
  0
LINE
  5
253
100
AcDbEntity
  8
0
100
AcDbLine
 62
2
  6
CONTINUOUS
 10
0.0
 20
-0.594
 11
9.055
 21
-0.594
  0
LINE
  5
254
100
AcDbEntity
  8
0
100
AcDbLine
 62
2
  6
CONTINUOUS
 10
0.0
 20
-0.844
 11
9.055
 21
-0.844
  0
LINE
  5
255
100
AcDbEntity
  8
0
100
AcDbLine
 62
2
  6
CONTINUOUS
 10
0.0
 20
-1.094
 11
9.055
 21
-1.094
  0
LINE
  5
256
100
AcDbEntity
  8
0
100
AcDbLine
 62
2
  6
CONTINUOUS
 10
0.0
 20
-1.344
 11
9.055
 21
-1.344
  0
LINE
  5
257
100
AcDbEntity
  8
0
100
AcDbLine
 62
2
  6
CONTINUOUS
 10
0.0
 20
-1.594
 11
9.055
 21
-1.594
  0
LINE
  5
258
100
AcDbEntity
  8
0
100
AcDbLine
 62
2
  6
CONTINUOUS
 10
0.0
 20
-1.844
 11
9.055
 21
-1.844
  0
LINE
  5
259
100
AcDbEntity
  8
0
100
AcDbLine
 62
2
  6
CONTINUOUS
 10
0.0
 20
-2.094
 11
9.055
 21
-2.094
  0
LINE
  5
25A
100
AcDbEntity
  8
0
100
AcDbLine
 62
2
  6
CONTINUOUS
 10
0.0
 20
-2.344
 11
9.055
 21
-2.344
  0
LINE
  5
25B
100
AcDbEntity
  8
0
100
AcDbLine
 62
2
  6
CONTINUOUS
 10
0.0
 20
-2.594
 11
9.055
 21
-2.594
  0
LINE
  5
25C
100
AcDbEntity
  8
0
100
AcDbLine
 62
2
  6
CONTINUOUS
 10
0.0
 20
-2.844
 11
9.055
 21
-2.844
  0
LINE
  5
25D
100
AcDbEntity
  8
0
100
AcDbLine
 62
2
  6
CONTINUOUS
 10
3.055
 20
0.0
 11
3.055
 21
-2.844
  0
LINE
  5
25E
100
AcDbEntity
  8
0
100
AcDbLine
 62
2
  6
CONTINUOUS
 10
9.055
 20
0.0
 11
9.055
 21
-2.844
  0
MTEXT
  5
25F
100
AcDbEntity
  8
0
100
AcDbMText
 62
2
  6
CONTINUOUS
  7
STANDARD
 71
2
 72
1
 10
1.5275
 20
-0.0995
 30
0.0
 11
1.0
 21
0.0
 31
0.0
 44
0.9
  1
Technical Data
 40
0.145
 41
3.248
  0
MTEXT
  5
260
100
AcDbEntity
  8
0
100
AcDbMText
 62
2
  6
CONTINUOUS
  7
STANDARD
 71
2
 72
1
 10
4.555
 20
-0.0995
 30
0.0
 11
1.0
 21
0.0
 31
0.0
 44
0.9
  1
U.S. Units
 40
0.145
 41
2.32
  0
MTEXT
  5
261
100
AcDbEntity
  8
0
100
AcDbMText
 62
2
  6
CONTINUOUS
  7
STANDARD
 71
2
 72
1
 10
7.555
 20
-0.0995
 30
0.0
 11
1.0
 21
0.0
 31
0.0
 44
0.9
  1
Metric Units
 40
0.145
 41
2.784
  0
MTEXT
  5
262
100
AcDbEntity
  8
0
100
AcDbMText
 62
2
  6
CONTINUOUS
  7
STANDARD
 71
2
 72
1
 10
1.5275
 20
-0.4065
 30
0.0
 11
1.0
 21
0.0
 31
0.0
 44
0.9
  1
Cavity
 40
0.125
 41
1.2
  0
MTEXT
  5
263
100
AcDbEntity
  8
0
100
AcDbMText
 62
2
  6
CONTINUOUS
  7
STANDARD
 71
2
 72
1
 10
6.055
 20
-0.4065
 30
0.0
 11
1.0
 21
0.0
 31
0.0
 44
0.9
  1
T-10A
 40
0.125
 41
1.0
  0
MTEXT
  5
264
100
AcDbEntity
  8
0
100
AcDbMText
 62
2
  6
CONTINUOUS
  7
STANDARD
 71
2
 72
1
 10
1.5275
 20
-0.6565
 30
0.0
 11
1.0
 21
0.0
 31
0.0
 44
0.9
  1
Body Features
 40
0.125
 41
2.6
  0
MTEXT
  5
265
100
AcDbEntity
  8
0
100
AcDbMText
 62
2
  6
CONTINUOUS
  7
STANDARD
 71
2
 72
1
 10
6.055
 20
-0.6565
 30
0.0
 11
1.0
 21
0.0
 31
0.0
 44
0.9
  1
P to T, check on P, side ports
 40
0.125
 41
6.0
  0
MTEXT
  5
266
100
AcDbEntity
  8
0
100
AcDbMText
 62
2
  6
CONTINUOUS
  7
STANDARD
 71
2
 72
1
 10
1.5275
 20
-0.9065
 30
0.0
 11
1.0
 21
0.0
 31
0.0
 44
0.9
  1
Body Type
 40
0.125
 41
1.8
  0
MTEXT
  5
267
100
AcDbEntity
  8
0
100
AcDbMText
 62
2
  6
CONTINUOUS
  7
STANDARD
 71
2
 72
1
 10
6.055
 20
-0.9065
 30
0.0
 11
1.0
 21
0.0
 31
0.0
 44
0.9
  1
Subplate
 40
0.125
 41
1.6
  0
MTEXT
  5
268
100
AcDbEntity
  8
0
100
AcDbMText
 62
2
  6
CONTINUOUS
  7
STANDARD
 71
2
 72
1
 10
1.5275
 20
-1.1565
 30
0.0
 11
1.0
 21
0.0
 31
0.0
 44
0.9
  1
Interface
 40
0.125
 41
1.8
  0
MTEXT
  5
269
100
AcDbEntity
  8
0
100
AcDbMText
 62
2
  6
CONTINUOUS
  7
STANDARD
 71
2
 72
1
 10
6.055
 20
-1.1565
 30
0.0
 11
1.0
 21
0.0
 31
0.0
 44
0.9
  1
ISO 05
 40
0.125
 41
1.2
  0
MTEXT
  5
26A
100
AcDbEntity
  8
0
100
AcDbMText
 62
2
  6
CONTINUOUS
  7
STANDARD
 71
2
 72
1
 10
1.5275
 20
-1.4065
 30
0.0
 11
1.0
 21
0.0
 31
0.0
 44
0.9
  1
Open Cavity Quantity
 40
0.125
 41
4.0
  0
MTEXT
  5
26B
100
AcDbEntity
  8
0
100
AcDbMText
 62
2
  6
CONTINUOUS
  7
STANDARD
 71
2
 72
1
 10
6.055
 20
-1.4065
 30
0.0
 11
1.0
 21
0.0
 31
0.0
 44
0.9
  1
1
 40
0.125
 41
0.2
  0
MTEXT
  5
26C
100
AcDbEntity
  8
0
100
AcDbMText
 62
2
  6
CONTINUOUS
  7
STANDARD
 71
2
 72
1
 10
1.5275
 20
-1.6565
 30
0.0
 11
1.0
 21
0.0
 31
0.0
 44
0.9
  1
Weight
 40
0.125
 41
1.2
  0
MTEXT
  5
26D
100
AcDbEntity
  8
0
100
AcDbMText
 62
2
  6
CONTINUOUS
  7
STANDARD
 71
2
 72
1
 10
4.555
 20
-1.6565
 30
0.0
 11
1.0
 21
0.0
 31
0.0
 44
0.9
  1
5.228 lb.
 40
0.125
 41
1.8
  0
MTEXT
  5
26E
100
AcDbEntity
  8
0
100
AcDbMText
 62
2
  6
CONTINUOUS
  7
STANDARD
 71
2
 72
1
 10
7.555
 20
-1.6565
 30
0.0
 11
1.0
 21
0.0
 31
0.0
 44
0.9
  1
2,371 kg.
 40
0.125
 41
1.8
  0
MTEXT
  5
26F
100
AcDbEntity
  8
0
100
AcDbMText
 62
2
  6
CONTINUOUS
  7
STANDARD
 71
2
 72
1
 10
1.5275
 20
-1.9065
 30
0.0
 11
1.0
 21
0.0
 31
0.0
 44
0.9
  1
Mounting Hole Diameter
 40
0.125
 41
4.4
  0
MTEXT
  5
270
100
AcDbEntity
  8
0
100
AcDbMText
 62
2
  6
CONTINUOUS
  7
STANDARD
 71
2
 72
1
 10
4.555
 20
-1.9065
 30
0.0
 11
1.0
 21
0.0
 31
0.0
 44
0.9
  1
.44 in.
 40
0.125
 41
1.4
  0
MTEXT
  5
271
100
AcDbEntity
  8
0
100
AcDbMText
 62
2
  6
CONTINUOUS
  7
STANDARD
 71
2
 72
1
 10
7.555
 20
-1.9065
 30
0.0
 11
1.0
 21
0.0
 31
0.0
 44
0.9
  1
11,1 mm
 40
0.125
 41
1.4
  0
MTEXT
  5
272
100
AcDbEntity
  8
0
100
AcDbMText
 62
2
  6
CONTINUOUS
  7
STANDARD
 71
2
 72
1
 10
1.5275
 20
-2.1565
 30
0.0
 11
1.0
 21
0.0
 31
0.0
 44
0.9
  1
Mounting Hole Depth
 40
0.125
 41
3.8
  0
MTEXT
  5
273
100
AcDbEntity
  8
0
100
AcDbMText
 62
2
  6
CONTINUOUS
  7
STANDARD
 71
2
 72
1
 10
6.055
 20
-2.1565
 30
0.0
 11
1.0
 21
0.0
 31
0.0
 44
0.9
  1
Through
 40
0.125
 41
1.4
  0
MTEXT
  5
274
100
AcDbEntity
  8
0
100
AcDbMText
 62
2
  6
CONTINUOUS
  7
STANDARD
 71
2
 72
1
 10
1.5275
 20
-2.4065
 30
0.0
 11
1.0
 21
0.0
 31
0.0
 44
0.9
  1
Mounting Hole Quantity
 40
0.125
 41
4.4
  0
MTEXT
  5
275
100
AcDbEntity
  8
0
100
AcDbMText
 62
2
  6
CONTINUOUS
  7
STANDARD
 71
2
 72
1
 10
6.055
 20
-2.4065
 30
0.0
 11
1.0
 21
0.0
 31
0.0
 44
0.9
  1
4
 40
0.125
 41
0.2
  0
MTEXT
  5
276
100
AcDbEntity
  8
0
100
AcDbMText
 62
2
  6
CONTINUOUS
  7
STANDARD
 71
2
 72
1
 10
1.5275
 20
-2.6565
 30
0.0
 11
1.0
 21
0.0
 31
0.0
 44
0.9
  1
Includes integral cartridge(s)
 40
0.125
 41
6.0
  0
MTEXT
  5
277
100
AcDbEntity
  8
0
100
AcDbMText
 62
2
  6
CONTINUOUS
  7
STANDARD
 71
2
 72
1
 10
6.055
 20
-2.6565
 30
0.0
 11
1.0
 21
0.0
 31
0.0
 44
0.9
  1
Yes (see Included Components)
 40
0.125
 41
5.8
  0
ENDBLK
  5
278
100
AcDbEntity
  8
0
  6
BYBLOCK
 62
0
100
AcDbBlockEnd
  0
BLOCK
  5
279
100
AcDbEntity
  8
0
100
AcDbBlockBegin
  2
*T3
 70
1
 10
0.0
 20
0.0
  3
*T3
  1

  0
LINE
  5
27A
100
AcDbEntity
  8
0
100
AcDbLine
 62
2
  6
CONTINUOUS
 10
0.0
 20
0.0
 11
4.6
 21
0.0
  0
LINE
  5
27B
100
AcDbEntity
  8
0
100
AcDbLine
 62
2
  6
CONTINUOUS
 10
0.0
 20
0.0
 11
0.0
 21
-1.18775
  0
LINE
  5
27C
100
AcDbEntity
  8
0
100
AcDbLine
 62
2
  6
CONTINUOUS
 10
0.0
 20
-0.34375
 11
4.6
 21
-0.34375
  0
LINE
  5
27D
100
AcDbEntity
  8
0
100
AcDbLine
 62
2
  6
CONTINUOUS
 10
0.0
 20
-0.68775
 11
4.6
 21
-0.68775
  0
LINE
  5
27E
100
AcDbEntity
  8
0
100
AcDbLine
 62
2
  6
CONTINUOUS
 10
0.0
 20
-0.93775
 11
4.6
 21
-0.93775
  0
LINE
  5
27F
100
AcDbEntity
  8
0
100
AcDbLine
 62
2
  6
CONTINUOUS
 10
0.0
 20
-1.18775
 11
4.6
 21
-1.18775
  0
LINE
  5
280
100
AcDbEntity
  8
0
100
AcDbLine
 62
2
  6
CONTINUOUS
 10
1.3
 20
-0.34375
 11
1.3
 21
-1.18775
  0
LINE
  5
281
100
AcDbEntity
  8
0
100
AcDbLine
 62
2
  6
CONTINUOUS
 10
3.3
 20
-0.34375
 11
3.3
 21
-1.18775
  0
LINE
  5
282
100
AcDbEntity
  8
0
100
AcDbLine
 62
2
  6
CONTINUOUS
 10
4.6
 20
0.0
 11
4.6
 21
-1.18775
  0
MTEXT
  5
283
100
AcDbEntity
  8
0
100
AcDbMText
 62
2
  6
CONTINUOUS
  7
STANDARD
 71
2
 72
1
 10
2.3
 20
-0.099375
 30
0.0
 11
1.0
 21
0.0
 31
0.0
 44
0.9
  1
Port Headings
 40
0.145
 41
3.016
  0
MTEXT
  5
284
100
AcDbEntity
  8
0
100
AcDbMText
 62
2
  6
CONTINUOUS
  7
STANDARD
 71
2
 72
1
 10
0.65
 20
-0.44325
 30
0.0
 11
1.0
 21
0.0
 31
0.0
 44
0.9
  1
Product
 40
0.145
 41
1.624
  0
MTEXT
  5
285
100
AcDbEntity
  8
0
100
AcDbMText
 62
2
  6
CONTINUOUS
  7
STANDARD
 71
2
 72
1
 10
2.3
 20
-0.44325
 30
0.0
 11
1.0
 21
0.0
 31
0.0
 44
0.9
  1
Port
 40
0.145
 41
0.928
  0
MTEXT
  5
286
100
AcDbEntity
  8
0
100
AcDbMText
 62
2
  6
CONTINUOUS
  7
STANDARD
 71
2
 72
1
 10
3.95
 20
-0.44325
 30
0.0
 11
1.0
 21
0.0
 31
0.0
 44
0.9
  1
Size
 40
0.145
 41
0.928
  0
MTEXT
  5
287
100
AcDbEntity
  8
0
100
AcDbMText
 62
2
  6
CONTINUOUS
  7
STANDARD
 71
2
 72
1
 10
0.65
 20
-0.75025
 30
0.0
 11
1.0
 21
0.0
 31
0.0
 44
0.9
  1
WAU
 40
0.125
 41
0.6
  0
MTEXT
  5
288
100
AcDbEntity
  8
0
100
AcDbMText
 62
2
  6
CONTINUOUS
  7
STANDARD
 71
2
 72
1
 10
2.3
 20
-0.75025
 30
0.0
 11
1.0
 21
0.0
 31
0.0
 44
0.9
  1
Ports A, B, P, T
 40
0.125
 41
3.2
  0
MTEXT
  5
289
100
AcDbEntity
  8
0
100
AcDbMText
 62
2
  6
CONTINUOUS
  7
STANDARD
 71
2
 72
1
 10
3.95
 20
-0.75025
 30
0.0
 11
1.0
 21
0.0
 31
0.0
 44
0.9
  1
SAE 10
 40
0.125
 41
1.2
  0
MTEXT
  5
28A
100
AcDbEntity
  8
0
100
AcDbMText
 62
2
  6
CONTINUOUS
  7
STANDARD
 71
2
 72
1
 10
0.65
 20
-1.00025
 30
0.0
 11
1.0
 21
0.0
 31
0.0
 44
0.9
  1
WAU
 40
0.125
 41
0.6
  0
MTEXT
  5
28B
100
AcDbEntity
  8
0
100
AcDbMText
 62
2
  6
CONTINUOUS
  7
STANDARD
 71
2
 72
1
 10
2.3
 20
-1.00025
 30
0.0
 11
1.0
 21
0.0
 31
0.0
 44
0.9
  1
Port G
 40
0.125
 41
1.2
  0
MTEXT
  5
28C
100
AcDbEntity
  8
0
100
AcDbMText
 62
2
  6
CONTINUOUS
  7
STANDARD
 71
2
 72
1
 10
3.95
 20
-1.00025
 30
0.0
 11
1.0
 21
0.0
 31
0.0
 44
0.9
  1
1/4" NPTF
 40
0.125
 41
1.8
  0
ENDBLK
  5
28D
100
AcDbEntity
  8
0
  6
BYBLOCK
 62
0
100
AcDbBlockEnd
  0
ENDSEC
  0
SECTION
  2
ENTITIES
  0
IMAGE
  5
28E
100
AcDbEntity
  8
0
100
AcDbRasterImage
 62
7
  6
CONTINUOUS
 10
19.2297077316
 20
0.3094318264
 30
0.0
 11
0.0066666667
 21
0.0
 31
0.0
 12
0.0
 22
0.0066666667
 32
0.0
 13
369.0
 23
92.0
340
       3DF
 70
9
280
0
281
50
282
50
283
0
360
       3D9
 71
1
 91
2
 14
-0.5
 24
-0.5
 14
368.5
 24
91.5
  0
INSERT
  5
28F
100
AcDbEntity
  8
0
100
AcDbBlockReference
 62
2
  6
CONTINUOUS
  2
SUN_FIRST_THIRD_ANGLE_BL0
 10
20.4816717061
 20
1.2289683772
  0
ACAD_TABLE
  5
290
100
AcDbEntity
  8
0
 62
2
  6
CONTINUOUS
100
AcDbBlockReference
  2
*T1
 10
12.42375
 20
0.30125
 30
0.0
100
AcDbTable
342
       3E1
343
20F
 11
1.0
 21
0.0
 31
0.0
 90
6
 91
4
 92
6
 93
20
 94
0
 95
0
 96
0
 70
1
 41
0.0
141
0.525
141
0.1
141
0.525
141
0.1
142
4.1
142
1.1
142
0.7
142
0.5
142
0.4
142
2.475
171
1
172
0
173
0
174
0
175
1
176
1
 91
33
178
0
145
0.0
301
CELL_VALUE
 90
4
  1
T-10A Subplate ISO 05\PP to T, check on P, side ports
304
ACVALUE_END
170
2
140
0.125
171
1
172
0
173
0
174
0
175
1
176
1
 91
33
178
0
145
0.0
301
CELL_VALUE
 90
4
  1
May-25-21
304
ACVALUE_END
170
5
140
0.125
171
1
172
0
173
0
174
0
175
1
176
1
 91
33
178
0
145
0.0
301
CELL_VALUE
 90
4
  1
1.000
304
ACVALUE_END
170
5
140
0.125
171
1
172
0
173
0
174
0
175
1
176
1
 91
33
178
0
145
0.0
301
CELL_VALUE
 90
4
  1
C
304
ACVALUE_END
170
5
140
0.125
171
1
172
0
173
0
174
0
175
1
176
1
 91
33
178
0
145
0.0
301
CELL_VALUE
 90
4
  1
2
304
ACVALUE_END
170
5
140
0.125
171
1
172
0
173
0
174
0
175
1
176
1
 91
33
178
0
145
0.0
301
CELL_VALUE
 90
4
  1
 
304
ACVALUE_END
170
1
140
0.125
171
1
172
0
173
0
174
0
175
1
176
1
 91
33
178
0
145
0.0
301
CELL_VALUE
 90
4
  1
DESCRIPTION
304
ACVALUE_END
170
1
140
0.06
171
1
172
0
173
0
174
0
175
1
176
1
 91
33
178
0
145
0.0
301
CELL_VALUE
 90
4
  1
DATE
304
ACVALUE_END
170
1
140
0.06
171
1
172
0
173
0
174
0
175
1
176
1
 91
33
178
0
145
0.0
301
CELL_VALUE
 90
4
  1
SCALE
304
ACVALUE_END
170
1
140
0.06
171
1
172
0
173
0
174
0
175
1
176
1
 91
33
178
0
145
0.0
301
CELL_VALUE
 90
4
  1
DWG SIZE
304
ACVALUE_END
170
1
140
0.06
171
1
172
0
173
0
174
0
175
1
176
1
 91
33
178
0
145
0.0
301
CELL_VALUE
 90
4
  1
SHEET
304
ACVALUE_END
170
1
140
0.06
171
1
172
0
173
0
174
0
175
1
176
1
 91
33
178
0
145
0.0
301
CELL_VALUE
 90
4
  1
 
304
ACVALUE_END
170
1
140
0.125
171
1
172
0
173
0
174
0
175
1
176
1
 91
33
178
0
145
0.0
301
CELL_VALUE
 90
4
  1
WAU
304
ACVALUE_END
170
5
140
0.125
171
1
172
0
173
0
174
0
175
4
176
1
 91
33
178
0
145
0.0
301
CELL_VALUE
 90
4
  1
ALL DIMENSIONS IN INCH\PVIEWS ARE THIRD ANGLE
304
ACVALUE_END
170
5
140
0.12
171
1
172
0
173
1
174
0
175
1
176
1
 91
1
178
0
145
0.0
170
1
171
1
172
0
173
1
174
0
175
1
176
1
 91
1
178
0
145
0.0
170
1
171
1
172
0
173
1
174
0
175
1
176
1
 91
1
178
0
145
0.0
170
5
171
1
172
0
173
0
174
0
175
1
176
1
 91
33
178
0
145
0.0
301
CELL_VALUE
 90
4
  1
 
304
ACVALUE_END
170
1
140
0.125
171
1
172
0
173
0
174
0
175
1
176
1
 91
33
178
0
145
0.0
301
CELL_VALUE
 90
4
  1
MODEL
304
ACVALUE_END
170
1
140
0.06
171
1
172
0
173
0
174
0
175
1
176
1
 91
33
178
0
145
0.0
301
CELL_VALUE
 90
4
  1
 
304
ACVALUE_END
170
1
140
0.125
171
1
172
0
173
0
174
0
175
1
176
1
 91
33
178
0
145
0.0
301
CELL_VALUE
 90
4
  1
 
304
ACVALUE_END
170
1
140
0.125
171
1
172
0
173
0
174
0
175
1
176
1
 91
33
178
0
145
0.0
301
CELL_VALUE
 90
4
  1
 
304
ACVALUE_END
170
1
140
0.125
171
1
172
0
173
0
174
0
175
1
176
1
 91
33
178
0
145
0.0
301
CELL_VALUE
 90
4
  1
 
304
ACVALUE_END
170
1
140
0.125
171
1
172
0
173
0
174
0
175
1
176
1
 91
33
178
0
145
0.0
301
CELL_VALUE
 90
4
  1
 
304
ACVALUE_END
170
1
140
0.125
  0
ACAD_TABLE
  5
291
100
AcDbEntity
  8
0
 62
2
  6
CONTINUOUS
100
AcDbBlockReference
  2
*T2
 10
12.4237499994
 20
16.47875
 30
0.0
100
AcDbTable
342
       3E0
343
210
 11
1.0
 21
0.0
 31
0.0
 90
22
 91
11
 92
3
 93
16
 94
0
 95
0
 96
0
 41
0.028
141
0.344
141
0.25
141
0.25
141
0.25
141
0.25
141
0.25
141
0.25
141
0.25
141
0.25
141
0.25
141
0.25
142
3.055
142
3.0
142
3.0
171
1
172
0
173
0
174
0
175
1
176
1
 91
33
178
0
145
0.0
301
CELL_VALUE
 90
4
  1
Technical Data
304
ACVALUE_END
170
5
140
0.145
171
1
172
0
173
0
174
0
175
1
176
1
 91
33
178
0
145
0.0
301
CELL_VALUE
 90
4
  1
U.S. Units
304
ACVALUE_END
170
5
140
0.145
171
1
172
0
173
0
174
0
175
1
176
1
 91
33
178
0
145
0.0
301
CELL_VALUE
 90
4
  1
Metric Units
304
ACVALUE_END
170
5
140
0.145
171
1
172
0
173
0
174
0
175
1
176
1
 91
33
178
0
145
0.0
301
CELL_VALUE
 90
4
  1
Cavity
304
ACVALUE_END
170
5
140
0.125
171
1
172
0
173
0
174
0
175
2
176
1
 91
33
178
0
145
0.0
301
CELL_VALUE
 90
4
  1
T-10A
304
ACVALUE_END
170
5
140
0.125
171
1
172
0
173
1
174
0
175
1
176
1
 91
1
178
0
145
0.0
170
1
171
1
172
0
173
0
174
0
175
1
176
1
 91
33
178
0
145
0.0
301
CELL_VALUE
 90
4
  1
Body Features
304
ACVALUE_END
170
5
140
0.125
171
1
172
0
173
0
174
0
175
2
176
1
 91
33
178
0
145
0.0
301
CELL_VALUE
 90
4
  1
P to T, check on P, side ports
304
ACVALUE_END
170
5
140
0.125
171
1
172
0
173
1
174
0
175
1
176
1
 91
1
178
0
145
0.0
170
1
171
1
172
0
173
0
174
0
175
1
176
1
 91
33
178
0
145
0.0
301
CELL_VALUE
 90
4
  1
Body Type
304
ACVALUE_END
170
5
140
0.125
171
1
172
0
173
0
174
0
175
2
176
1
 91
33
178
0
145
0.0
301
CELL_VALUE
 90
4
  1
Subplate
304
ACVALUE_END
170
5
140
0.125
171
1
172
0
173
1
174
0
175
1
176
1
 91
1
178
0
145
0.0
170
1
171
1
172
0
173
0
174
0
175
1
176
1
 91
33
178
0
145
0.0
301
CELL_VALUE
 90
4
  1
Interface
304
ACVALUE_END
170
5
140
0.125
171
1
172
0
173
0
174
0
175
2
176
1
 91
33
178
0
145
0.0
301
CELL_VALUE
 90
4
  1
ISO 05
304
ACVALUE_END
170
5
140
0.125
171
1
172
0
173
1
174
0
175
1
176
1
 91
1
178
0
145
0.0
170
1
171
1
172
0
173
0
174
0
175
1
176
1
 91
33
178
0
145
0.0
301
CELL_VALUE
 90
4
  1
Open Cavity Quantity
304
ACVALUE_END
170
5
140
0.125
171
1
172
0
173
0
174
0
175
2
176
1
 91
33
178
0
145
0.0
301
CELL_VALUE
 90
4
  1
1
304
ACVALUE_END
170
5
140
0.125
171
1
172
0
173
1
174
0
175
1
176
1
 91
1
178
0
145
0.0
170
1
171
1
172
0
173
0
174
0
175
1
176
1
 91
33
178
0
145
0.0
301
CELL_VALUE
 90
4
  1
Weight
304
ACVALUE_END
170
5
140
0.125
171
1
172
0
173
0
174
0
175
1
176
1
 91
33
178
0
145
0.0
301
CELL_VALUE
 90
4
  1
5.228 lb.
304
ACVALUE_END
170
5
140
0.125
171
1
172
0
173
0
174
0
175
1
176
1
 91
33
178
0
145
0.0
301
CELL_VALUE
 90
4
  1
2,371 kg.
304
ACVALUE_END
170
5
140
0.125
171
1
172
0
173
0
174
0
175
1
176
1
 91
33
178
0
145
0.0
301
CELL_VALUE
 90
4
  1
Mounting Hole Diameter
304
ACVALUE_END
170
5
140
0.125
171
1
172
0
173
0
174
0
175
1
176
1
 91
33
178
0
145
0.0
301
CELL_VALUE
 90
4
  1
.44 in.
304
ACVALUE_END
170
5
140
0.125
171
1
172
0
173
0
174
0
175
1
176
1
 91
33
178
0
145
0.0
301
CELL_VALUE
 90
4
  1
11,1 mm
304
ACVALUE_END
170
5
140
0.125
171
1
172
0
173
0
174
0
175
1
176
1
 91
33
178
0
145
0.0
301
CELL_VALUE
 90
4
  1
Mounting Hole Depth
304
ACVALUE_END
170
5
140
0.125
171
1
172
0
173
0
174
0
175
2
176
1
 91
33
178
0
145
0.0
301
CELL_VALUE
 90
4
  1
Through
304
ACVALUE_END
170
5
140
0.125
171
1
172
0
173
1
174
0
175
1
176
1
 91
1
178
0
145
0.0
170
1
171
1
172
0
173
0
174
0
175
1
176
1
 91
33
178
0
145
0.0
301
CELL_VALUE
 90
4
  1
Mounting Hole Quantity
304
ACVALUE_END
170
5
140
0.125
171
1
172
0
173
0
174
0
175
2
176
1
 91
33
178
0
145
0.0
301
CELL_VALUE
 90
4
  1
4
304
ACVALUE_END
170
5
140
0.125
171
1
172
0
173
1
174
0
175
1
176
1
 91
1
178
0
145
0.0
170
1
171
1
172
0
173
0
174
0
175
1
176
1
 91
33
178
0
145
0.0
301
CELL_VALUE
 90
4
  1
Includes integral cartridge(s)
304
ACVALUE_END
170
5
140
0.125
171
1
172
0
173
0
174
0
175
2
176
1
 91
33
178
0
145
0.0
301
CELL_VALUE
 90
4
  1
Yes (see Included Components)
304
ACVALUE_END
170
5
140
0.125
171
1
172
0
173
1
174
0
175
1
176
1
 91
1
178
0
145
0.0
170
1
  0
ACAD_TABLE
  5
292
100
AcDbEntity
  8
0
 62
2
  6
CONTINUOUS
100
AcDbBlockReference
  2
*T3
 10
0.52125
 20
1.709
 30
0.0
100
AcDbTable
342
       3E0
343
211
 11
1.0
 21
0.0
 31
0.0
 90
22
 91
4
 92
3
 93
16
 94
0
 95
0
 96
0
 41
0.05
141
0.34375
141
0.344
141
0.25
141
0.25
142
1.3
142
2.0
142
1.3
171
1
172
0
173
0
174
0
175
3
176
1
 91
33
178
0
145
0.0
301
CELL_VALUE
 90
4
  1
Port Headings
304
ACVALUE_END
170
5
140
0.145
171
1
172
0
173
1
174
0
175
1
176
1
 91
1
178
0
145
0.0
170
1
171
1
172
0
173
1
174
0
175
1
176
1
 91
1
178
0
145
0.0
170
1
171
1
172
0
173
0
174
0
175
1
176
1
 91
33
178
0
145
0.0
301
CELL_VALUE
 90
4
  1
Product
304
ACVALUE_END
170
5
140
0.145
171
1
172
0
173
0
174
0
175
1
176
1
 91
33
178
0
145
0.0
301
CELL_VALUE
 90
4
  1
Port
304
ACVALUE_END
170
5
140
0.145
171
1
172
0
173
0
174
0
175
1
176
1
 91
33
178
0
145
0.0
301
CELL_VALUE
 90
4
  1
Size
304
ACVALUE_END
170
5
140
0.145
171
1
172
0
173
0
174
0
175
1
176
1
 91
33
178
0
145
0.0
301
CELL_VALUE
 90
4
  1
WAU
304
ACVALUE_END
170
5
140
0.125
171
1
172
0
173
0
174
0
175
1
176
1
 91
33
178
0
145
0.0
301
CELL_VALUE
 90
4
  1
Ports A, B, P, T
304
ACVALUE_END
170
5
140
0.125
171
1
172
0
173
0
174
0
175
1
176
1
 91
33
178
0
145
0.0
301
CELL_VALUE
 90
4
  1
SAE 10
304
ACVALUE_END
170
5
140
0.125
171
1
172
0
173
0
174
0
175
1
176
1
 91
33
178
0
145
0.0
301
CELL_VALUE
 90
4
  1
WAU
304
ACVALUE_END
170
5
140
0.125
171
1
172
0
173
0
174
0
175
1
176
1
 91
33
178
0
145
0.0
301
CELL_VALUE
 90
4
  1
Port G
304
ACVALUE_END
170
5
140
0.125
171
1
172
0
173
0
174
0
175
1
176
1
 91
33
178
0
145
0.0
301
CELL_VALUE
 90
4
  1
1/4" NPTF
304
ACVALUE_END
170
5
140
0.125
  0
MTEXT
  5
293
100
AcDbEntity
  8
0
100
AcDbMText
 62
2
  6
CONTINUOUS
  7
STANDARD
 71
1
 72
1
 10
0.52125
 20
5.75995
 30
0.0
 11
1.0
 21
0.0
 31
0.0
 44
0.6
  3
Notes\P \P1. Important: Carefully consider\P   the maximum system pressure. The\P   pressure rating of the manifold is\P   dependent on the manifold material,\P   with the port type/size a secondary\P   consideration. Manifolds\P   constructed of alu
  1
minum are not\P   rated for pressures higher than\P   3000 psi (210 bar), regardless of\P   the port type/size specified.
 40
0.1
 41
3.04
  0
LINE
  5
294
100
AcDbEntity
  8
0
100
AcDbLine
 62
7
  6
CONTINUOUS
 10
0.30125
 20
0.30125
 11
0.30125
 21
16.69875
  0
LINE
  5
295
100
AcDbEntity
  8
0
100
AcDbLine
 62
7
  6
CONTINUOUS
 10
0.30125
 20
0.30125
 11
21.69875
 21
0.30125
  0
LINE
  5
296
100
AcDbEntity
  8
0
100
AcDbLine
 62
7
  6
CONTINUOUS
 10
0.30125
 20
16.69875
 11
21.69875
 21
16.69875
  0
LINE
  5
297
100
AcDbEntity
  8
0
100
AcDbLine
 62
7
  6
CONTINUOUS
 10
21.69875
 20
0.30125
 11
21.69875
 21
16.69875
  0
LINE
  5
298
100
AcDbEntity
  8
0
100
AcDbLine
 62
7
  6
CONTINUOUS
 10
8.6555910202
 20
10.2102208996
 11
9.4807054457
 21
11.00722028
  0
LINE
  5
299
100
AcDbEntity
  8
0
100
AcDbLine
 62
7
  6
CONTINUOUS
 10
12.5192945543
 20
5.5956056736
 11
8.6555910202
 21
5.8635544238
  0
LINE
  5
29A
100
AcDbEntity
  8
0
100
AcDbLine
 62
4
  6
CONTINUOUS
 10
10.8786004423
 20
5.7847304302
 11
10.8372036118
 21
5.7876013101
  0
LINE
  5
29B
100
AcDbEntity
  8
0
100
AcDbLine
 62
4
  6
CONTINUOUS
 10
10.7875274483
 20
5.7910463637
 11
10.7626893389
 21
5.7927688925
  0
LINE
  5
29C
100
AcDbEntity
  8
0
100
AcDbLine
 62
4
  6
CONTINUOUS
 10
10.6992142319
 20
5.7971709061
 11
10.6660967896
 21
5.7994676085
  0
LINE
  5
29D
100
AcDbEntity
  8
0
100
AcDbLine
 62
4
  6
CONTINUOUS
 10
10.2134915072
 20
5.8308558915
 11
10.1720946904
 21
5.8337267705
  0
LINE
  5
29E
100
AcDbEntity
  8
0
100
AcDbLine
 62
4
  6
CONTINUOUS
 10
10.4756713856
 20
5.8126736551
 11
10.5253475767
 21
5.8092285996
  0
LINE
  5
29F
100
AcDbEntity
  8
0
100
AcDbLine
 62
4
  6
CONTINUOUS
 10
10.9420756046
 20
5.7803284127
 11
10.9917517681
 21
5.7768833591
  0
LINE
  5
2A0
100
AcDbEntity
  8
0
100
AcDbLine
 62
4
  6
CONTINUOUS
 10
10.1058597712
 20
5.8879963654
 11
10.1500163829
 21
5.8628557881
  0
LINE
  5
2A1
100
AcDbEntity
  8
0
100
AcDbLine
 62
7
  6
CONTINUOUS
 10
11.0674295046
 20
11.3181189337
 11
11.0866474359
 21
11.3276122237
  0
LINE
  5
2A2
100
AcDbEntity
  8
0
100
AcDbLine
 62
4
  6
CONTINUOUS
 10
10.2880057869
 20
5.8588057682
 11
10.3321623951
 21
5.855743497
  0
LINE
  5
2A3
100
AcDbEntity
  8
0
100
AcDbLine
 62
4
  6
CONTINUOUS
 10
10.975193047
 20
5.8442666295
 11
10.9420756046
 21
5.8465633319
  0
LINE
  5
2A4
100
AcDbEntity
  8
0
100
AcDbLine
 62
4
  6
CONTINUOUS
 10
10.5087888556
 20
5.87661187
 11
10.4756713856
 21
5.8789085744
  0
LINE
  5
2A5
100
AcDbEntity
  8
0
100
AcDbLine
 62
4
  6
CONTINUOUS
 10
10.1720946904
 20
5.9496378739
 11
10.2134915072
 21
5.9467669949
  0
LINE
  5
2A6
100
AcDbEntity
  8
0
100
AcDbLine
 62
4
  6
CONTINUOUS
 10
10.3763190033
 20
5.9354748697
 11
10.4425539156
 21
5.9308814629
  0
LINE
  5
2A7
100
AcDbEntity
  8
0
100
AcDbLine
 62
4
  6
CONTINUOUS
 10
10.4756713856
 20
5.9285847586
 11
10.5253475767
 21
5.925139703
  0
LINE
  5
2A8
100
AcDbEntity
  8
0
100
AcDbLine
 62
4
  6
CONTINUOUS
 10
10.6660967896
 20
5.915378712
 11
10.6992142319
 21
5.9130820095
  0
LINE
  5
2A9
100
AcDbEntity
  8
0
100
AcDbLine
 62
4
  6
CONTINUOUS
 10
10.7626893389
 20
5.9086799959
 11
10.7875274483
 21
5.9069574672
  0
LINE
  5
2AA
100
AcDbEntity
  8
0
100
AcDbLine
 62
4
  6
CONTINUOUS
 10
10.8372036118
 20
5.9035124135
 11
10.8786004423
 21
5.9006415336
  0
LINE
  5
2AB
100
AcDbEntity
  8
0
100
AcDbLine
 62
4
  6
CONTINUOUS
 10
10.9420756046
 20
5.8962395161
 11
10.9917517681
 21
5.8927944625
  0
LINE
  5
2AC
100
AcDbEntity
  8
0
100
AcDbLine
 62
4
  6
CONTINUOUS
 10
10.7033539793
 20
6.0518882412
 11
10.7281920611
 21
6.0501657144
  0
LINE
  5
2AD
100
AcDbEntity
  8
0
100
AcDbLine
 62
7
  6
CONTINUOUS
 10
8.6555910202
 20
10.2102208996
 11
8.6555910202
 21
5.8635544238
  0
LINE
  5
2AE
100
AcDbEntity
  8
02___PRT_ALL_AXES
100
AcDbLine
 62
7
  6
CONTINUOUS
 10
10.0435294629
 20
10.6889570183
 11
10.0888108191
 21
10.7310960738
  0
LINE
  5
2AF
100
AcDbEntity
  8
0
100
AcDbLine
 62
4
  6
CONTINUOUS
 10
10.5984820141
 20
6.0922785963
 11
10.6426386361
 21
6.0892163241
  0
LINE
  5
2B0
100
AcDbEntity
  8
0
100
AcDbLine
 62
4
  6
CONTINUOUS
 10
11.0248692104
 20
5.8463411519
 11
11.0690258186
 21
5.8212005731
  0
LINE
  5
2B1
100
AcDbEntity
  8
0
100
AcDbLine
 62
4
  6
CONTINUOUS
 10
10.2134915072
 20
5.9467669949
 11
10.2300502352
 21
5.9290599151
  0
LINE
  5
2B2
100
AcDbEntity
  8
0
100
AcDbLine
 62
7
  6
CONTINUOUS
 10
10.1779901962
 20
10.7437456325
 11
10.1406329157
 21
10.7076612684
  0
LINE
  5
2B3
100
AcDbEntity
  8
0
100
AcDbLine
 62
7
  6
CONTINUOUS
 10
10.3821143866
 20
10.6909144715
 11
10.4194716671
 21
10.7269988357
  0
LINE
  5
2B4
100
AcDbEntity
  8
0
100
AcDbLine
 62
4
  6
CONTINUOUS
 10
10.4922301146
 20
6.375074049
 11
10.5087888358
 21
6.3739256978
  0
LINE
  5
2B5
100
AcDbEntity
  8
0
100
AcDbLine
 62
4
  6
CONTINUOUS
 10
11.0469475777
 20
6.3642021442
 11
11.0138300248
 21
6.3664988543
  0
LINE
  5
2B6
100
AcDbEntity
  8
0
100
AcDbLine
 62
4
  6
CONTINUOUS
 10
10.9117179202
 20
6.3735803528
 11
10.895159199
 21
6.374728704
  0
LINE
  5
2B7
100
AcDbEntity
  8
0
100
AcDbLine
 62
4
  6
CONTINUOUS
 10
10.7709687073
 20
6.3833413438
 11
10.737851265
 21
6.3856380463
  0
LINE
  5
2B8
100
AcDbEntity
  8
0
100
AcDbLine
 62
4
  6
CONTINUOUS
 10
10.6136607734
 20
6.3942506861
 11
10.580543331
 21
6.3965473885
  0
LINE
  5
2B9
100
AcDbEntity
  8
0
100
AcDbLine
 62
4
  6
CONTINUOUS
 10
10.053423787
 20
6.4331032531
 11
10.0865412457
 21
6.4308065495
  0
LINE
  5
2BA
100
AcDbEntity
  8
0
100
AcDbLine
 62
4
  6
CONTINUOUS
 10
10.152776158
 20
6.4262131427
 11
10.1776142605
 21
6.4244906145
  0
LINE
  5
2BB
100
AcDbEntity
  8
0
100
AcDbLine
 62
4
  6
CONTINUOUS
 10
10.8123655379
 20
6.3804704639
 11
10.8537623684
 21
6.3775995839
  0
LINE
  5
2BC
100
AcDbEntity
  8
0
100
AcDbLine
 62
4
  6
CONTINUOUS
 10
11.088344353
 20
6.3613312681
 11
11.1214617953
 21
6.3590345656
  0
LINE
  5
2BD
100
AcDbEntity
  8
0
100
AcDbLine
 62
4
  6
CONTINUOUS
 10
10.737851265
 20
6.4270348699
 11
10.7709687073
 21
6.4247381675
  0
LINE
  5
2BE
100
AcDbEntity
  8
0
100
AcDbLine
 62
4
  6
CONTINUOUS
 10
10.7626893744
 20
6.4667091648
 11
10.7212925438
 21
6.4695800448
  0
LINE
  5
2BF
100
AcDbEntity
  8
0
100
AcDbLine
 62
4
  6
CONTINUOUS
 10
10.4094364535
 20
6.4912073381
 11
10.4508332841
 21
6.4883364581
  0
LINE
  5
2C0
100
AcDbEntity
  8
0
100
AcDbLine
 62
4
  6
CONTINUOUS
 10
10.580543331
 20
6.4793410358
 11
10.6136607734
 21
6.4770443334
  0
LINE
  5
2C1
100
AcDbEntity
  8
0
100
AcDbLine
 62
4
  6
CONTINUOUS
 10
10.646778271
 20
6.4747476271
 11
10.6798957133
 21
6.4724509247
  0
LINE
  5
2C2
100
AcDbEntity
  8
0
100
AcDbLine
 62
4
  6
CONTINUOUS
 10
11.0138300248
 20
6.4492925015
 11
11.0469475777
 21
6.4469957915
  0
LINE
  5
2C3
100
AcDbEntity
  8
0
100
AcDbLine
 62
4
  6
CONTINUOUS
 10
11.088344353
 20
6.4441249153
 11
11.1214617953
 21
6.4418282129
  0
LINE
  5
2C4
100
AcDbEntity
  8
0
100
AcDbLine
 62
4
  6
CONTINUOUS
 10
10.0617031519
 20
6.5484401806
 11
10.0948206097
 21
6.5461434771
  0
LINE
  5
2C5
100
AcDbEntity
  8
0
100
AcDbLine
 62
4
  6
CONTINUOUS
 10
10.9613940837
 20
6.4860464026
 11
10.9641538613
 21
6.4858550113
  0
LINE
  5
2C6
100
AcDbEntity
  8
0
100
AcDbLine
 62
4
  6
CONTINUOUS
 10
11.1214617953
 20
6.3976716013
 11
11.088344353
 21
6.4054878797
  0
LINE
  5
2C7
100
AcDbEntity
  8
0
100
AcDbLine
 62
4
  6
CONTINUOUS
 10
10.580543331
 20
6.3965473885
 11
10.5639846099
 21
6.4059751046
  0
LINE
  5
2C8
100
AcDbEntity
  8
0
100
AcDbLine
 62
4
  6
CONTINUOUS
 10
10.737851265
 20
6.3856380463
 11
10.7212925438
 21
6.3950657624
  0
LINE
  5
2C9
100
AcDbEntity
  8
0
100
AcDbLine
 62
4
  6
CONTINUOUS
 10
10.1030999738
 20
6.4627756574
 11
10.0451444221
 21
6.5164710763
  0
LINE
  5
2CA
100
AcDbEntity
  8
0
100
AcDbLine
 62
4
  6
CONTINUOUS
 10
10.0451444221
 20
6.4419567939
 11
10.053423787
 21
6.4331032531
  0
LINE
  5
2CB
100
AcDbEntity
  8
0
100
AcDbLine
 62
4
  6
CONTINUOUS
 10
10.6660967896
 20
5.7994676085
 11
10.6495380684
 21
5.8171746895
  0
LINE
  5
2CC
100
AcDbEntity
  8
0
100
AcDbLine
 62
4
  6
CONTINUOUS
 10
10.1362174299
 20
6.4439202242
 11
10.152776158
 21
6.4262131427
  0
LINE
  5
2CD
100
AcDbEntity
  8
0
100
AcDbLine
 62
4
  6
CONTINUOUS
 10
10.7626893389
 20
5.7927688925
 11
10.7461306177
 21
5.8104759735
  0
LINE
  5
2CE
100
AcDbEntity
  8
0
100
AcDbLine
 62
4
  6
CONTINUOUS
 10
10.0948206097
 20
6.5461434771
 11
10.1030999738
 21
6.5372899338
  0
LINE
  5
2CF
100
AcDbEntity
  8
0
100
AcDbLine
 62
7
  6
CONTINUOUS
 10
10.5505115388
 20
10.6985736395
 11
10.5498125893
 21
10.6979112114
  0
LINE
  5
2D0
100
AcDbEntity
  8
0
100
AcDbLine
 62
4
  6
CONTINUOUS
 10
10.7171025181
 20
10.4364882429
 11
10.7020935094
 21
10.4294906527
  0
LINE
  5
2D1
100
AcDbEntity
  8
0
100
AcDbLine
 62
4
  6
CONTINUOUS
 10
10.7875274483
 20
5.9069574672
 11
10.8040861695
 21
5.8892503879
  0
LINE
  5
2D2
100
AcDbEntity
  8
0
100
AcDbLine
 62
4
  6
CONTINUOUS
 10
10.6867952305
 20
6.0695953241
 11
10.7033539793
 21
6.0518882412
  0
LINE
  5
2D3
100
AcDbEntity
  8
0
100
AcDbLine
 62
4
  6
CONTINUOUS
 10
10.8786004423
 20
5.9006415336
 11
10.8951591635
 21
5.8829344543
  0
LINE
  5
2D4
100
AcDbEntity
  8
0
100
AcDbLine
 62
4
  6
CONTINUOUS
 10
10.4508332841
 20
6.4883364581
 11
10.4591126447
 21
6.479482915
  0
LINE
  5
2D5
100
AcDbEntity
  8
0
100
AcDbLine
 62
4
  6
CONTINUOUS
 10
10.6446580785
 20
10.4415122818
 11
10.6550108313
 21
10.4515122738
  0
LINE
  5
2D6
100
AcDbEntity
  8
0
100
AcDbLine
 62
7
  6
CONTINUOUS
 10
12.0548073595
 20
10.7143260901
 11
12.0890835878
 21
10.7312578906
  0
LINE
  5
2D7
100
AcDbEntity
  8
0
100
AcDbLine
 62
4
  6
CONTINUOUS
 10
11.088344353
 20
6.4054878797
 11
11.08006502
 21
6.4115816294
  0
LINE
  5
2D8
100
AcDbEntity
  8
0
100
AcDbLine
 62
4
  6
CONTINUOUS
 10
11.1297411282
 20
6.3915778515
 11
11.1214617953
 21
6.3976716013
  0
LINE
  5
2D9
100
AcDbEntity
  8
0
100
AcDbLine
 62
4
  6
CONTINUOUS
 10
10.8040861497
 20
6.3893240063
 11
10.8123655379
 21
6.3804704639
  0
LINE
  5
2DA
100
AcDbEntity
  8
0
100
AcDbLine
 62
4
  6
CONTINUOUS
 10
10.895159199
 20
6.374728704
 11
10.8868798108
 21
6.3835822464
  0
LINE
  5
2DB
100
AcDbEntity
  8
0
100
AcDbLine
 62
4
  6
CONTINUOUS
 10
10.2272904378
 20
6.5369566633
 11
10.2852459895
 21
6.4170263287
  0
LINE
  5
2DC
100
AcDbEntity
  8
0
100
AcDbLine
 62
4
  6
CONTINUOUS
 10
11.0138300248
 20
6.3664988543
 11
11.0055506919
 21
6.3753523929
  0
LINE
  5
2DD
100
AcDbEntity
  8
0
100
AcDbLine
 62
4
  6
CONTINUOUS
 10
11.08006502
 20
6.3701848066
 11
11.088344353
 21
6.3613312681
  0
LINE
  5
2DE
100
AcDbEntity
  8
0
100
AcDbLine
 62
4
  6
CONTINUOUS
 10
11.1214617953
 20
6.4418282129
 11
11.1297411282
 21
6.4329746717
  0
LINE
  5
2DF
100
AcDbEntity
  8
0
100
AcDbLine
 62
4
  6
CONTINUOUS
 10
10.6798957133
 20
6.4724509247
 11
10.6854152686
 21
6.4637887748
  0
LINE
  5
2E0
100
AcDbEntity
  8
0
100
AcDbLine
 62
4
  6
CONTINUOUS
 10
10.310084091
 20
5.9400682765
 11
10.343201561
 21
5.8218604687
  0
LINE
  5
2E1
100
AcDbEntity
  8
0
100
AcDbLine
 62
7
  6
CONTINUOUS
 10
11.3309260513
 20
10.3263962894
 11
11.3302271017
 21
10.3257338614
  0
LINE
  5
2E2
100
AcDbEntity
  8
0
100
AcDbLine
 62
4
  6
CONTINUOUS
 10
10.7709687073
 20
6.449576263
 11
10.7626893744
 21
6.4667091648
  0
LINE
  5
2E3
100
AcDbEntity
  8
0
100
AcDbLine
 62
4
  6
CONTINUOUS
 10
10.4798111296
 20
6.1501846378
 11
10.5046492217
 21
6.0656684629
  0
LINE
  5
2E4
100
AcDbEntity
  8
0
100
AcDbLine
 62
4
  6
CONTINUOUS
 10
10.4922301146
 20
6.4854655782
 11
10.517068224
 21
6.4009494022
  0
LINE
  5
2E5
100
AcDbEntity
  8
0
100
AcDbLine
 62
4
  6
CONTINUOUS
 10
10.620560332
 20
6.1735411036
 11
10.6536777882
 21
6.0553332968
  0
LINE
  5
2E6
100
AcDbEntity
  8
0
100
AcDbLine
 62
4
  6
CONTINUOUS
 10
10.4301349419
 20
6.1867471492
 11
10.4549730357
 21
6.0691135181
  0
LINE
  5
2E7
100
AcDbEntity
  8
0
100
AcDbLine
 62
4
  6
CONTINUOUS
 10
10.0451444221
 20
6.5164710763
 11
10.0451444221
 21
6.5330298043
  0
LINE
  5
2E8
100
AcDbEntity
  8
0
100
AcDbLine
 62
4
  6
CONTINUOUS
 10
10.1030999738
 20
6.4462169276
 11
10.1030999738
 21
6.4627756574
  0
LINE
  5
2E9
100
AcDbEntity
  8
0
100
AcDbLine
 62
4
  6
CONTINUOUS
 10
10.1362174299
 20
6.5432725979
 11
10.1362174299
 21
6.4439202242
  0
LINE
  5
2EA
100
AcDbEntity
  8
0
100
AcDbLine
 62
4
  6
CONTINUOUS
 10
10.1720946904
 20
5.8337267705
 11
10.1720946904
 21
5.9496378739
  0
LINE
  5
2EB
100
AcDbEntity
  8
0
100
AcDbLine
 62
7
  6
CONTINUOUS
 10
10.1779901962
 20
10.7437456325
 11
10.1779901962
 21
10.697992505
  0
LINE
  5
2EC
100
AcDbEntity
  8
0
100
AcDbLine
 62
4
  6
CONTINUOUS
 10
10.1941729816
 20
6.4399009931
 11
10.1941729816
 21
6.5392533667
  0
LINE
  5
2ED
100
AcDbEntity
  8
0
100
AcDbLine
 62
4
  6
CONTINUOUS
 10
10.2272904378
 20
6.4210455599
 11
10.2272904378
 21
6.5369566633
  0
LINE
  5
2EE
100
AcDbEntity
  8
0
100
AcDbLine
 62
4
  6
CONTINUOUS
 10
10.2300502352
 20
5.9290599151
 11
10.2300502352
 21
5.8462662696
  0
LINE
  5
2EF
100
AcDbEntity
  8
0
100
AcDbLine
 62
4
  6
CONTINUOUS
 10
10.2852459895
 20
6.4170263287
 11
10.2852459895
 21
6.5329374322
  0
LINE
  5
2F0
100
AcDbEntity
  8
0
100
AcDbLine
 62
7
  6
CONTINUOUS
 10
10.3174095719
 20
10.7534144162
 11
10.3174095719
 21
10.6864271694
  0
LINE
  5
2F1
100
AcDbEntity
  8
0
100
AcDbLine
 62
4
  6
CONTINUOUS
 10
10.4094364535
 20
6.4084136908
 11
10.4094364535
 21
6.5243247942
  0
LINE
  5
2F2
100
AcDbEntity
  8
0
100
AcDbLine
 62
4
  6
CONTINUOUS
 10
10.4094364733
 20
5.8172670619
 11
10.4094364733
 21
5.9331781653
  0
LINE
  5
2F3
100
AcDbEntity
  8
0
100
AcDbLine
 62
4
  6
CONTINUOUS
 10
10.4591126447
 20
6.479482915
 11
10.4591126447
 21
6.4049686352
  0
LINE
  5
2F4
100
AcDbEntity
  8
0
100
AcDbLine
 62
4
  6
CONTINUOUS
 10
10.4756713856
 20
5.8126736551
 11
10.4756713856
 21
5.9285847586
  0
LINE
  5
2F5
100
AcDbEntity
  8
0
100
AcDbLine
 62
4
  6
CONTINUOUS
 10
10.5639846099
 20
6.4059751046
 11
10.5639846099
 21
6.4722100195
  0
LINE
  5
2F6
100
AcDbEntity
  8
0
100
AcDbLine
 62
4
  6
CONTINUOUS
 10
10.6136607734
 20
6.5101617895
 11
10.6136607734
 21
6.3942506861
  0
LINE
  5
2F7
100
AcDbEntity
  8
0
100
AcDbLine
 62
4
  6
CONTINUOUS
 10
10.646778271
 20
6.3919539798
 11
10.646778271
 21
6.4747476271
  0
LINE
  5
2F8
100
AcDbEntity
  8
0
100
AcDbLine
 62
4
  6
CONTINUOUS
 10
10.6495380684
 20
5.8171746895
 11
10.6495380684
 21
5.8999683351
  0
LINE
  5
2F9
100
AcDbEntity
  8
0
100
AcDbLine
 62
4
  6
CONTINUOUS
 10
10.6854152686
 20
6.4637887748
 11
10.6854152686
 21
6.4472300467
  0
LINE
  5
2FA
100
AcDbEntity
  8
0
100
AcDbLine
 62
4
  6
CONTINUOUS
 10
10.6867952305
 20
6.1689476978
 11
10.6867952305
 21
6.0695953241
  0
LINE
  5
2FB
100
AcDbEntity
  8
0
100
AcDbLine
 62
4
  6
CONTINUOUS
 10
10.7212925438
 20
6.3950657624
 11
10.7212925438
 21
6.4199038571
  0
LINE
  5
2FC
100
AcDbEntity
  8
0
100
AcDbLine
 62
4
  6
CONTINUOUS
 10
10.7447507822
 20
6.065576093
 11
10.7447507822
 21
6.1649284666
  0
LINE
  5
2FD
100
AcDbEntity
  8
0
100
AcDbLine
 62
4
  6
CONTINUOUS
 10
10.7461306177
 20
5.8104759735
 11
10.7461306177
 21
5.8932696191
  0
LINE
  5
2FE
100
AcDbEntity
  8
0
100
AcDbLine
 62
4
  6
CONTINUOUS
 10
10.7709687073
 20
6.3833413438
 11
10.7709687073
 21
6.449576263
  0
LINE
  5
2FF
100
AcDbEntity
  8
0
100
AcDbLine
 62
4
  6
CONTINUOUS
 10
10.7176226389
 20
10.4444906409
 11
10.7171025181
 21
10.4364882429
  0
LINE
  5
300
100
AcDbEntity
  8
0
100
AcDbLine
 62
4
  6
CONTINUOUS
 10
10.8040861497
 20
6.4638382887
 11
10.8040861497
 21
6.3893240063
  0
LINE
  5
301
100
AcDbEntity
  8
0
100
AcDbLine
 62
4
  6
CONTINUOUS
 10
10.8040861695
 20
5.8892503879
 11
10.8040861695
 21
5.8064567423
  0
LINE
  5
302
100
AcDbEntity
  8
0
100
AcDbLine
 62
4
  6
CONTINUOUS
 10
10.8372036118
 20
5.7876013101
 11
10.8372036118
 21
5.9035124135
  0
LINE
  5
303
100
AcDbEntity
  8
0
100
AcDbLine
 62
4
  6
CONTINUOUS
 10
10.8537623684
 20
6.3775995839
 11
10.8537623684
 21
6.4603932312
  0
LINE
  5
304
100
AcDbEntity
  8
0
100
AcDbLine
 62
4
  6
CONTINUOUS
 10
10.8868798108
 20
6.3835822464
 11
10.8868798108
 21
6.4912139849
  0
LINE
  5
305
100
AcDbEntity
  8
0
100
AcDbLine
 62
4
  6
CONTINUOUS
 10
10.8951591635
 20
5.8829344543
 11
10.8951591635
 21
5.8001408087
  0
LINE
  5
306
100
AcDbEntity
  8
0
100
AcDbLine
 62
4
  6
CONTINUOUS
 10
10.9420756046
 20
5.7803284127
 11
10.9420756046
 21
5.8962395161
  0
LINE
  5
307
100
AcDbEntity
  8
0
100
AcDbLine
 62
7
  6
CONTINUOUS
 10
10.95922933
 20
10.7970357805
 11
10.95922933
 21
11.1814392218
  0
LINE
  5
308
100
AcDbEntity
  8
0
100
AcDbLine
 62
4
  6
CONTINUOUS
 10
10.9613940837
 20
6.3701352991
 11
10.9613940837
 21
6.4529289464
  0
LINE
  5
309
100
AcDbEntity
  8
0
100
AcDbLine
 62
4
  6
CONTINUOUS
 10
10.9613940837
 20
6.4777670351
 11
10.9613940837
 21
6.4860464026
  0
LINE
  5
30A
100
AcDbEntity
  8
0
100
AcDbLine
 62
7
  6
CONTINUOUS
 10
10.9736773782
 20
10.7830800614
 11
10.9736773782
 21
11.1674835027
  0
LINE
  5
30B
100
AcDbEntity
  8
0
100
AcDbLine
 62
4
  6
CONTINUOUS
 10
11.0055506919
 20
6.3753523929
 11
11.0055506919
 21
6.4415873077
  0
LINE
  5
30C
100
AcDbEntity
  8
0
100
AcDbLine
 62
4
  6
CONTINUOUS
 10
10.5046492217
 20
6.0656684629
 11
10.5294873172
 21
6.1798570386
  0
LINE
  5
30D
100
AcDbEntity
  8
0
100
AcDbLine
 62
7
  6
CONTINUOUS
 10
13.3444089798
 20
10.7392715299
 11
12.5192945543
 21
9.9422721495
  0
LINE
  5
30E
100
AcDbEntity
  8
0
100
AcDbLine
 62
7
  6
CONTINUOUS
 10
11.0402565462
 20
10.6154534557
 11
11.0402565462
 21
10.7451292901
  0
LINE
  5
30F
100
AcDbEntity
  8
0
100
AcDbLine
 62
4
  6
CONTINUOUS
 10
11.08006502
 20
6.4115816294
 11
11.08006502
 21
6.4364197215
  0
LINE
  5
310
100
AcDbEntity
  8
0
100
AcDbLine
 62
4
  6
CONTINUOUS
 10
11.1297411282
 20
6.3667397568
 11
11.1297411282
 21
6.3915778515
  0
LINE
  5
311
100
AcDbEntity
  8
0
100
AcDbLine
 62
4
  6
CONTINUOUS
 10
10.2769666349
 20
5.8264538764
 11
10.310084091
 21
5.9400682765
  0
LINE
  5
312
100
AcDbEntity
  8
0
100
AcDbLine
 62
4
  6
CONTINUOUS
 10
10.5087888358
 20
6.3739256978
 11
10.5419062781
 21
6.4820205245
  0
LINE
  5
313
100
AcDbEntity
  8
0
100
AcDbLine
 62
4
  6
CONTINUOUS
 10
10.4549730357
 20
6.0691135181
 11
10.4798111296
 21
6.1501846378
  0
LINE
  5
314
100
AcDbEntity
  8
0
100
AcDbLine
 62
7
  6
CONTINUOUS
 10
11.3873640962
 20
10.6760101958
 11
11.3873640962
 21
11.0604136371
  0
LINE
  5
315
100
AcDbEntity
  8
0
100
AcDbLine
 62
7
  6
CONTINUOUS
 10
11.4412849049
 20
10.672270775
 11
11.4412849049
 21
11.0566742163
  0
LINE
  5
316
100
AcDbEntity
  8
0
100
AcDbLine
 62
4
  6
CONTINUOUS
 10
10.5874428621
 20
6.0599267045
 11
10.620560332
 21
6.1735411036
  0
LINE
  5
317
100
AcDbEntity
  8
0
100
AcDbLine
 62
4
  6
CONTINUOUS
 10
10.9641538613
 20
6.4858550113
 11
10.9613940837
 21
6.4777670351
  0
LINE
  5
318
100
AcDbEntity
  8
0
100
AcDbLine
 62
4
  6
CONTINUOUS
 10
12.6430099203
 20
6.9920595439
 11
12.6404217308
 21
6.9968039886
  0
LINE
  5
319
100
AcDbEntity
  8
0
100
AcDbLine
 62
4
  6
CONTINUOUS
 10
12.6611272374
 20
7.0095595295
 11
12.6559508608
 21
7.0190484212
  0
LINE
  5
31A
100
AcDbEntity
  8
0
100
AcDbLine
 62
7
  6
CONTINUOUS
 10
12.0063913125
 20
10.7114611068
 11
12.0063913125
 21
11.0958645482
  0
LINE
  5
31B
100
AcDbEntity
  8
0
100
AcDbLine
 62
4
  6
CONTINUOUS
 10
10.0451444221
 20
6.5330298043
 11
10.0617031519
 21
6.5484401806
  0
LINE
  5
31C
100
AcDbEntity
  8
0
100
AcDbLine
 62
4
  6
CONTINUOUS
 10
10.0865412457
 20
6.4308065495
 11
10.1030999738
 21
6.4462169276
  0
LINE
  5
31D
100
AcDbEntity
  8
0
100
AcDbLine
 62
4
  6
CONTINUOUS
 10
10.1776142605
 20
6.4244906145
 11
10.1941729816
 21
6.4399009931
  0
LINE
  5
31E
100
AcDbEntity
  8
0
100
AcDbLine
 62
7
  6
CONTINUOUS
 10
12.0458640729
 20
10.7216774051
 11
12.0458640729
 21
11.1060808464
  0
LINE
  5
31F
100
AcDbEntity
  8
0
100
AcDbLine
 62
7
  6
CONTINUOUS
 10
12.1162565462
 20
10.6155407968
 11
12.1162565462
 21
10.7501293655
  0
LINE
  5
320
100
AcDbEntity
  8
0
100
AcDbLine
 62
7
  6
CONTINUOUS
 10
12.1972837625
 20
10.8679376025
 11
12.1972837625
 21
11.2523410438
  0
LINE
  5
321
100
AcDbEntity
  8
0
100
AcDbLine
 62
4
  6
CONTINUOUS
 10
12.9199461072
 20
8.6176511981
 11
12.9251224825
 21
8.622651193
  0
LINE
  5
322
100
AcDbEntity
  8
02___PRT_ALL_AXES
100
AcDbLine
 62
7
  6
CONTINUOUS
 10
10.5165751199
 20
10.6889570183
 11
10.4712937637
 21
10.7310960738
  0
LINE
  5
323
100
AcDbEntity
  8
0
100
AcDbLine
 62
7
  6
CONTINUOUS
 10
12.5192945543
 20
9.9422721495
 11
12.5192945543
 21
5.5956056736
  0
LINE
  5
324
100
AcDbEntity
  8
0
100
AcDbLine
 62
4
  6
CONTINUOUS
 10
12.9458279891
 20
8.5846956261
 11
12.91476973
 21
8.5546956498
  0
LINE
  5
325
100
AcDbEntity
  8
0
100
AcDbLine
 62
4
  6
CONTINUOUS
 10
10.2300502352
 20
5.8462662696
 11
10.2134915072
 21
5.8308558915
  0
LINE
  5
326
100
AcDbEntity
  8
0
100
AcDbLine
 62
4
  6
CONTINUOUS
 10
11.0055506919
 20
6.4415873077
 11
11.0138300248
 21
6.4492925015
  0
LINE
  5
327
100
AcDbEntity
  8
0
100
AcDbLine
 62
4
  6
CONTINUOUS
 10
10.6389615805
 20
10.4285098872
 11
10.6343053261
 21
10.4315122903
  0
LINE
  5
328
100
AcDbEntity
  8
0
100
AcDbLine
 62
4
  6
CONTINUOUS
 10
10.7083101274
 20
10.4504954446
 11
10.7176226389
 21
10.4444906409
  0
LINE
  5
329
100
AcDbEntity
  8
0
100
AcDbLine
 62
4
  6
CONTINUOUS
 10
12.6300689784
 20
6.9795595532
 11
12.6300689784
 21
6.9288484454
  0
LINE
  5
32A
100
AcDbEntity
  8
0
100
AcDbLine
 62
4
  6
CONTINUOUS
 10
12.6430099203
 20
6.9413484361
 11
12.6430099203
 21
6.9920595439
  0
LINE
  5
32B
100
AcDbEntity
  8
0
100
AcDbLine
 62
4
  6
CONTINUOUS
 10
12.6611272374
 20
6.9588484218
 11
12.6611272374
 21
7.0095595295
  0
LINE
  5
32C
100
AcDbEntity
  8
0
100
AcDbLine
 62
4
  6
CONTINUOUS
 10
11.08006502
 20
6.4364197215
 11
11.088344353
 21
6.4441249153
  0
LINE
  5
32D
100
AcDbEntity
  8
0
100
AcDbLine
 62
4
  6
CONTINUOUS
 10
10.7281920611
 20
6.0501657144
 11
10.7447507822
 21
6.065576093
  0
LINE
  5
32E
100
AcDbEntity
  8
0
100
AcDbLine
 62
4
  6
CONTINUOUS
 10
11.1214617953
 20
6.3590345656
 11
11.1297411282
 21
6.3667397568
  0
LINE
  5
32F
100
AcDbEntity
  8
0
100
AcDbLine
 62
4
  6
CONTINUOUS
 10
10.6495380684
 20
5.8999683351
 11
10.6660967896
 21
5.915378712
  0
LINE
  5
330
100
AcDbEntity
  8
0
100
AcDbLine
 62
4
  6
CONTINUOUS
 10
10.7461306177
 20
5.8932696191
 11
10.7626893389
 21
5.9086799959
  0
LINE
  5
331
100
AcDbEntity
  8
0
100
AcDbLine
 62
4
  6
CONTINUOUS
 10
10.5639846099
 20
6.4722100195
 11
10.580543331
 21
6.4793410358
  0
LINE
  5
332
100
AcDbEntity
  8
0
100
AcDbLine
 62
7
  6
CONTINUOUS
 10
12.5192945543
 20
9.9422721495
 11
8.6555910202
 21
10.2102208996
  0
LINE
  5
333
100
AcDbEntity
  8
0
100
AcDbLine
 62
4
  6
CONTINUOUS
 10
10.6508622808
 20
10.425005082
 11
10.6389615805
 21
10.4285098872
  0
LINE
  5
334
100
AcDbEntity
  8
0
100
AcDbLine
 62
4
  6
CONTINUOUS
 10
12.9251224825
 20
8.622651193
 11
12.9277106719
 21
8.6179067483
  0
LINE
  5
335
100
AcDbEntity
  8
0
100
AcDbLine
 62
4
  6
CONTINUOUS
 10
12.91476973
 20
8.5546956498
 11
12.91476973
 21
8.5909178696
  0
LINE
  5
336
100
AcDbEntity
  8
0
100
AcDbLine
 62
4
  6
CONTINUOUS
 10
12.9302988596
 20
8.6059178578
 11
12.9302988596
 21
8.569695638
  0
LINE
  5
337
100
AcDbEntity
  8
0
100
AcDbLine
 62
4
  6
CONTINUOUS
 10
12.91476973
 20
8.5909178696
 11
12.9173579177
 21
8.607906755
  0
LINE
  5
338
100
AcDbEntity
  8
0
100
AcDbLine
 62
4
  6
CONTINUOUS
 10
12.9173579177
 20
8.607906755
 11
12.9199461072
 21
8.6176511981
  0
LINE
  5
339
100
AcDbEntity
  8
0
100
AcDbLine
 62
4
  6
CONTINUOUS
 10
12.632657166
 20
6.9893039946
 11
12.6300689784
 21
6.9795595532
  0
LINE
  5
33A
100
AcDbEntity
  8
0
100
AcDbLine
 62
4
  6
CONTINUOUS
 10
12.6481862965
 20
7.0115484276
 11
12.6430099203
 21
6.9920595439
  0
LINE
  5
33B
100
AcDbEntity
  8
0
100
AcDbLine
 62
4
  6
CONTINUOUS
 10
10.8040861695
 20
5.8064567423
 11
10.7875274483
 21
5.7910463637
  0
LINE
  5
33C
100
AcDbEntity
  8
0
100
AcDbLine
 62
4
  6
CONTINUOUS
 10
10.8951591635
 20
5.8001408087
 11
10.8786004423
 21
5.7847304302
  0
LINE
  5
33D
100
AcDbEntity
  8
0
100
AcDbLine
 62
4
  6
CONTINUOUS
 10
10.7212925438
 20
6.4199038571
 11
10.737851265
 21
6.4270348699
  0
LINE
  5
33E
100
AcDbEntity
  8
0
100
AcDbLine
 62
4
  6
CONTINUOUS
 10
10.7020935094
 20
10.4294906527
 11
10.6824282443
 21
10.4254954638
  0
LINE
  5
33F
100
AcDbEntity
  8
0
100
AcDbLine
 62
4
  6
CONTINUOUS
 10
10.6550108313
 20
10.4515122738
 11
10.6648434636
 21
10.453509868
  0
LINE
  5
340
100
AcDbEntity
  8
0
100
AcDbLine
 62
4
  6
CONTINUOUS
 10
10.6824282443
 20
10.4254954638
 11
10.6653511687
 21
10.4240002742
  0
LINE
  5
341
100
AcDbEntity
  8
0
100
AcDbLine
 62
4
  6
CONTINUOUS
 10
10.6648434636
 20
10.453509868
 11
10.6819205399
 21
10.4550050583
  0
LINE
  5
342
100
AcDbEntity
  8
0
100
AcDbLine
 62
4
  6
CONTINUOUS
 10
10.6653511687
 20
10.4240002742
 11
10.6508622808
 21
10.425005082
  0
LINE
  5
343
100
AcDbEntity
  8
0
100
AcDbLine
 62
4
  6
CONTINUOUS
 10
10.6736358543
 20
10.4395026663
 11
10.6446580785
 21
10.4415122818
  0
LINE
  5
344
100
AcDbEntity
  8
0
100
AcDbLine
 62
4
  6
CONTINUOUS
 10
10.6819205399
 20
10.4550050583
 11
10.6964094278
 21
10.4540002505
  0
LINE
  5
345
100
AcDbEntity
  8
0
100
AcDbLine
 62
7
  6
CONTINUOUS
 10
10.1406329157
 20
10.7076612684
 11
10.2426950109
 21
10.6812456878
  0
LINE
  5
346
100
AcDbEntity
  8
0
100
AcDbLine
 62
7
  6
CONTINUOUS
 10
10.4194716671
 20
10.7269988357
 11
10.3174095719
 21
10.7534144162
  0
LINE
  5
347
100
AcDbEntity
  8
0
100
AcDbLine
 62
4
  6
CONTINUOUS
 10
10.6964094278
 20
10.4540002505
 11
10.7083101274
 21
10.4504954446
  0
LINE
  5
348
100
AcDbEntity
  8
0
100
AcDbLine
 62
4
  6
CONTINUOUS
 10
12.9277106719
 20
8.6179067483
 11
12.9302988596
 21
8.6059178578
  0
LINE
  5
349
100
AcDbEntity
  8
0
100
AcDbLine
 62
4
  6
CONTINUOUS
 10
12.6559508608
 20
7.0190484212
 11
12.6481862965
 21
7.0115484276
  0
LINE
  5
34A
100
AcDbEntity
  8
0
100
AcDbLine
 62
4
  6
CONTINUOUS
 10
12.6404217308
 20
6.9968039886
 11
12.632657166
 21
6.9893039946
  0
LINE
  5
34B
100
AcDbEntity
  8
0
100
AcDbLine
 62
4
  6
CONTINUOUS
 10
12.6300689784
 20
6.9288484454
 11
12.6611272374
 21
6.9588484218
  0
LINE
  5
34C
100
AcDbEntity
  8
0
100
AcDbLine
 62
4
  6
CONTINUOUS
 10
10.1500163829
 20
5.9070124015
 11
10.1058597712
 21
5.8879963654
  0
LINE
  5
34D
100
AcDbEntity
  8
0
100
AcDbLine
 62
7
  6
CONTINUOUS
 10
10.2426950109
 20
10.6812456878
 11
10.3821143866
 21
10.6909144715
  0
LINE
  5
34E
100
AcDbEntity
  8
0
100
AcDbLine
 62
7
  6
CONTINUOUS
 10
11.1017057329
 20
10.7143260901
 11
11.0559733613
 21
10.7369170061
  0
LINE
  5
34F
100
AcDbEntity
  8
0
100
AcDbLine
 62
7
  6
CONTINUOUS
 10
13.3444089798
 20
10.7392715299
 11
13.3444089798
 21
6.392605054
  0
LINE
  5
350
100
AcDbEntity
  8
0
100
AcDbLine
 62
4
  6
CONTINUOUS
 10
11.0690258186
 20
5.8212005731
 11
11.0248692104
 21
5.8021845385
  0
LINE
  5
351
100
AcDbEntity
  8
0
100
AcDbLine
 62
7
  6
CONTINUOUS
 10
10.3174095719
 20
10.7534144162
 11
10.1779901962
 21
10.7437456325
  0
LINE
  5
352
100
AcDbEntity
  8
0
100
AcDbLine
 62
7
  6
CONTINUOUS
 10
9.4807054457
 20
11.00722028
 11
10.95922933
 21
10.9046843004
  0
LINE
  5
353
100
AcDbEntity
  8
0
100
AcDbLine
 62
7
  6
CONTINUOUS
 10
12.1711471595
 20
10.8206375135
 11
13.3444089798
 21
10.7392715299
  0
LINE
  5
354
100
AcDbEntity
  8
0
100
AcDbLine
 62
7
  6
CONTINUOUS
 10
12.1005397312
 20
11.3124598182
 11
12.0698656566
 21
11.3276122237
  0
LINE
  5
355
100
AcDbEntity
  8
0
100
AcDbLine
 62
7
  6
CONTINUOUS
 10
13.3444089798
 20
6.392605054
 11
12.5192945543
 21
5.5956056736
  0
ARC
  5
356
100
AcDbEntity
  8
0
100
AcDbCircle
 62
7
  6
CONTINUOUS
 10
11.5707034745
 20
12.9326944222
 40
2.2641254892
100
AcDbArc
 50
266.0354973614
 51
266.723157899
  0
ARC
  5
357
100
AcDbEntity
  8
0
100
AcDbCircle
 62
7
  6
CONTINUOUS
 10
11.5699898789
 20
13.3058205161
 40
2.2528257918
100
AcDbArc
 50
266.0337727607
 51
266.7248824998
  0
ARC
  5
358
100
AcDbEntity
  8
0
100
AcDbCircle
 62
7
  6
CONTINUOUS
 10
11.5647938471
 20
12.8476939246
 40
2.1789198091
100
AcDbArc
 50
265.3292248879
 51
266.0359887124
  0
ARC
  5
359
100
AcDbEntity
  8
0
100
AcDbCircle
 62
7
  6
CONTINUOUS
 10
11.5647938471
 20
13.232097366
 40
2.1789198091
100
AcDbArc
 50
265.329224888
 51
266.0359887124
  0
ARC
  5
35A
100
AcDbEntity
  8
0
100
AcDbCircle
 62
7
  6
CONTINUOUS
 10
11.7871918746
 20
11.6397467197
 40
0.9538147475
100
AcDbArc
 50
283.286087793
 51
285.7355389587
  0
ARC
  5
35B
100
AcDbEntity
  8
0
100
AcDbCircle
 62
7
  6
CONTINUOUS
 10
11.7871918746
 20
12.024150161
 40
0.9538147475
100
AcDbArc
 50
283.286087793
 51
285.7355389587
  0
ARC
  5
35C
100
AcDbEntity
  8
0
100
AcDbCircle
 62
7
  6
CONTINUOUS
 10
11.9613081485
 20
7.1347803236
 40
0.1204894391
100
AcDbArc
 50
216.1000128216
 51
232.1266087546
  0
SPLINE
  5
35D
100
AcDbEntity
  8
02___PRT_ALL_AXES
100
AcDbSpline
 62
7
  6
CONTINUOUS
 70
0
 71
3
 72
30
 73
26
 74
0
 42
0.0000001
 43
0.0000001
 44
0.0000000001
 40
0.0
 40
0.0
 40
0.0
 40
0.0
 40
0.0760978103
 40
0.1533705468
 40
0.2310983668
 40
0.3086120659
 40
0.3852193806
 40
0.4602427169
 40
0.5330247869
 40
0.6029326973
 40
0.669370128
 40
0.7011145604
 40
0.7317882449
 40
0.7613306424
 40
0.7896866576
 40
0.8168036245
 40
0.8426357556
 40
0.8671435371
 40
0.8902920027
 40
0.9120566199
 40
0.9324213189
 40
0.9513795869
 40
0.9689415584
 40
0.9851327036
 40
1.0
 40
1.0
 40
1.0
 40
1.0
 10
10.3314278295
 20
10.766955014
 30
0.0
 10
10.325125472
 20
10.767392084
 30
0.0
 10
10.3124109106
 20
10.7681004121
 30
0.0
 10
10.293232169
 20
10.7686735773
 30
0.0
 10
10.2739274108
 20
10.768762232
 30
0.0
 10
10.2546817955
 20
10.7683660136
 30
0.0
 10
10.2356767821
 20
10.7674885067
 30
0.0
 10
10.2170931969
 20
10.7661383557
 30
0.0
 10
10.1991073481
 20
10.7643287395
 30
0.0
 10
10.1818899534
 20
10.7620769795
 30
0.0
 10
10.1681164313
 20
10.7598177034
 30
0.0
 10
10.1576117871
 20
10.7577934367
 30
0.0
 10
10.1501444857
 20
10.7562023871
 30
0.0
 10
10.1429860544
 20
10.7545191632
 30
0.0
 10
10.1361533809
 20
10.7527481155
 30
0.0
 10
10.1296626907
 20
10.7508931642
 30
0.0
 10
10.1235293003
 20
10.7489588134
 30
0.0
 10
10.1177675724
 20
10.7469499744
 30
0.0
 10
10.1123911383
 20
10.7448709847
 30
0.0
 10
10.1074124608
 20
10.7427270402
 30
0.0
 10
10.1028429522
 20
10.740523314
 30
0.0
 10
10.0986933143
 20
10.7382644056
 30
0.0
 10
10.094972552
 20
10.7359557216
 30
0.0
 10
10.0916892527
 20
10.7336024329
 30
0.0
 10
10.0897153043
 20
10.7319376008
 30
0.0
 10
10.0888117556
 20
10.7310967774
 30
0.0
  0
SPLINE
  5
35E
100
AcDbEntity
  8
02___PRT_ALL_AXES
100
AcDbSpline
 62
7
  6
CONTINUOUS
 70
0
 71
3
 72
26
 73
22
 74
0
 42
0.0000001
 43
0.0000001
 44
0.0000000001
 40
0.0
 40
0.0
 40
0.0
 40
0.0
 40
0.0844810504
 40
0.1673036701
 40
0.2480923067
 40
0.3265401319
 40
0.4023660625
 40
0.4752938366
 40
0.5450543067
 40
0.6114048561
 40
0.6741243906
 40
0.7330193289
 40
0.7879244449
 40
0.8387114886
 40
0.8852976289
 40
0.907006608
 40
0.9276615022
 40
0.9472704922
 40
0.9658470092
 40
0.9834130062
 40
1.0
 40
1.0
 40
1.0
 40
1.0
 10
10.3314278295
 20
10.766955014
 30
0.0
 10
10.3355358494
 20
10.7666701219
 30
0.0
 10
10.3436664388
 20
10.7660336314
 30
0.0
 10
10.3557035745
 20
10.7648670629
 30
0.0
 10
10.3674237995
 20
10.7635011609
 30
0.0
 10
10.378775848
 20
10.761942394
 30
0.0
 10
10.3897129461
 20
10.7601969851
 30
0.0
 10
10.4001898701
 20
10.7582727878
 30
0.0
 10
10.4101625826
 20
10.756177507
 30
0.0
 10
10.4195891858
 20
10.7539204268
 30
0.0
 10
10.4284304287
 20
10.7515109357
 30
0.0
 10
10.4366496157
 20
10.748959438
 30
0.0
 10
10.4442129447
 20
10.7462767074
 30
0.0
 10
10.4510890793
 20
10.7434739199
 30
0.0
 10
10.456341009
 20
10.7409930955
 30
0.0
 10
10.4601642918
 20
10.7389466858
 30
0.0
 10
10.4627749221
 20
10.7374254755
 30
0.0
 10
10.4651940217
 20
10.7358831978
 30
0.0
 10
10.4674190078
 20
10.7343211844
 30
0.0
 10
10.4694475005
 20
10.7327410508
 30
0.0
 10
10.4707028066
 20
10.7316458812
 30
0.0
 10
10.4712946629
 20
10.7310950757
 30
0.0
  0
SPLINE
  5
35F
100
AcDbEntity
  8
02___PRT_ALL_AXES
100
AcDbSpline
 62
7
  6
CONTINUOUS
 70
0
 71
3
 72
50
 73
46
 74
0
 42
0.0000001
 43
0.0000001
 44
0.0000000001
 40
0.0
 40
0.0
 40
0.0
 40
0.0
 40
0.0082492209
 40
0.0160250184
 40
0.0233636887
 40
0.0303110576
 40
0.0369223806
 40
0.0432629463
 40
0.0494081642
 40
0.0554419468
 40
0.0614530639
 40
0.0675313806
 40
0.0737638192
 40
0.080230172
 40
0.0941208225
 40
0.1016719887
 40
0.1096792035
 40
0.1181744712
 40
0.1271831034
 40
0.1367248005
 40
0.1468133111
 40
0.1574577443
 40
0.1686641226
 40
0.1804359284
 40
0.1927733238
 40
0.2191303108
 40
0.2476992772
 40
0.2784139152
 40
0.3111888181
 40
0.3459202892
 40
0.382490695
 40
0.4207695651
 40
0.4606153723
 40
0.501877562
 40
0.5443966524
 40
0.5880068863
 40
0.6325353669
 40
0.6778055938
 40
0.7236366011
 40
0.7698444551
 40
0.8162405456
 40
0.8626385614
 40
0.908859746
 40
0.954718016
 40
1.0
 40
1.0
 40
1.0
 40
1.0
 10
10.4712946629
 20
10.7310950757
 30
0.0
 10
10.4718604339
 20
10.7305685461
 30
0.0
 10
10.4729285462
 20
10.7295115444
 30
0.0
 10
10.4743720756
 20
10.7278633501
 30
0.0
 10
10.4756062556
 20
10.7262021618
 30
0.0
 10
10.4766296068
 20
10.7245295867
 30
0.0
 10
10.477440559
 20
10.7228470365
 30
0.0
 10
10.4780372538
 20
10.7211561096
 30
0.0
 10
10.4784177984
 20
10.7194588364
 30
0.0
 10
10.4785813126
 20
10.7177578919
 30
0.0
 10
10.478527276
 20
10.7160561685
 30
0.0
 10
10.4782557571
 20
10.7143567008
 30
0.0
 10
10.4777673232
 20
10.7126622506
 30
0.0
 10
10.4768068932
 20
10.7103587674
 30
0.0
 10
10.4754166575
 20
10.7081218625
 30
0.0
 10
10.4736804488
 20
10.7059757912
 30
0.0
 10
10.4721332311
 20
10.7043341526
 30
0.0
 10
10.4703797464
 20
10.7027077519
 30
0.0
 10
10.4684214612
 20
10.7010975556
 30
0.0
 10
10.4662603287
 20
10.6995054011
 30
0.0
 10
10.4638986728
 20
10.6979327084
 30
0.0
 10
10.4613390885
 20
10.696380988
 30
0.0
 10
10.4585842166
 20
10.6948518591
 30
0.0
 10
10.4556368154
 20
10.693347021
 30
0.0
 10
10.4513594865
 20
10.6913304962
 30
0.0
 10
10.4455440937
 20
10.6888939291
 30
0.0
 10
10.4380006733
 20
10.6861523539
 30
0.0
 10
10.4297774599
 20
10.6835433917
 30
0.0
 10
10.4209094726
 20
10.6810788022
 30
0.0
 10
10.4114344698
 20
10.6787690679
 30
0.0
 10
10.4013930088
 20
10.6766244922
 30
0.0
 10
10.3908282133
 20
10.6746543643
 30
0.0
 10
10.3797855065
 20
10.6728673216
 30
0.0
 10
10.368312454
 20
10.6712712397
 30
0.0
 10
10.3564584826
 20
10.6698729688
 30
0.0
 10
10.3442747488
 20
10.6686788079
 30
0.0
 10
10.3318138018
 20
10.6676937081
 30
0.0
 10
10.319129383
 20
10.6669222729
 30
0.0
 10
10.3062761755
 20
10.6663675443
 30
0.0
 10
10.2933098691
 20
10.6660323359
 30
0.0
 10
10.2802866198
 20
10.665917588
 30
0.0
 10
10.267262056
 20
10.6660242901
 30
0.0
 10
10.2542915547
 20
10.666351696
 30
0.0
 10
10.2414331469
 20
10.6668987708
 30
0.0
 10
10.2329090678
 20
10.667411578
 30
0.0
 10
10.2286767534
 20
10.66770509
 30
0.0
  0
SPLINE
  5
360
100
AcDbEntity
  8
02___PRT_ALL_AXES
100
AcDbSpline
 62
7
  6
CONTINUOUS
 70
0
 71
3
 72
39
 73
35
 74
0
 42
0.0000001
 43
0.0000001
 44
0.0000000001
 40
0.0
 40
0.0
 40
0.0
 40
0.0
 40
0.0192536737
 40
0.0368857599
 40
0.0531267624
 40
0.0682871173
 40
0.0755883734
 40
0.0827717582
 40
0.08989591
 40
0.0970208946
 40
0.1042067025
 40
0.1115117809
 40
0.1266842116
 40
0.142942377
 40
0.160594398
 40
0.1798713268
 40
0.2009340671
 40
0.2238930147
 40
0.2488172124
 40
0.275740952
 40
0.3046773404
 40
0.335617407
 40
0.3685350598
 40
0.4033942408
 40
0.4401438449
 40
0.4787239891
 40
0.5190684616
 40
0.5611002345
 40
0.6047379883
 40
0.6498939604
 40
0.696471166
 40
0.7934877965
 40
0.8949792044
 40
1.0
 40
1.0
 40
1.0
 40
1.0
 10
10.0888117556
 20
10.7310967774
 30
0.0
 10
10.0879743438
 20
10.7303174994
 30
0.0
 10
10.0864359225
 20
10.7287504567
 30
0.0
 10
10.0844888823
 20
10.7262560946
 30
0.0
 10
10.0830166703
 20
10.7237306503
 30
0.0
 10
10.0821817949
 20
10.7215751389
 30
0.0
 10
10.0817727785
 20
10.7198597659
 30
0.0
 10
10.0815914974
 20
10.7185868376
 30
0.0
 10
10.0815322071
 20
10.7173129284
 30
0.0
 10
10.0815948588
 20
10.7160390369
 30
0.0
 10
10.0817794371
 20
10.7147661647
 30
0.0
 10
10.0821926978
 20
10.713050695
 30
0.0
 10
10.0830332348
 20
10.7108952683
 30
0.0
 10
10.08451201
 20
10.7083703963
 30
0.0
 10
10.0864653349
 20
10.7058761413
 30
0.0
 10
10.0888867773
 20
10.7034165792
 30
0.0
 10
10.0917694927
 20
10.7009941689
 30
0.0
 10
10.0951072937
 20
10.6986134389
 30
0.0
 10
10.0988927409
 20
10.6962791978
 30
0.0
 10
10.1031170302
 20
10.6939959944
 30
0.0
 10
10.1077706875
 20
10.6917695569
 30
0.0
 10
10.1128427185
 20
10.6896049639
 30
0.0
 10
10.1183210585
 20
10.6875071639
 30
0.0
 10
10.1241927681
 20
10.685481735
 30
0.0
 10
10.1304436199
 20
10.6835332631
 30
0.0
 10
10.1370585385
 20
10.6816665115
 30
0.0
 10
10.1440216034
 20
10.6798864032
 30
0.0
 10
10.1513159137
 20
10.6781969024
 30
0.0
 10
10.1589238223
 20
10.6766023566
 30
0.0
 10
10.1668267931
 20
10.675106805
 30
0.0
 10
10.1778821938
 20
10.6732236709
 30
0.0
 10
10.1922986265
 20
10.6711550486
 30
0.0
 10
10.2102227045
 20
10.6691498724
 30
0.0
 10
10.2224521435
 20
10.6681367682
 30
0.0
 10
10.2286767534
 20
10.66770509
 30
0.0
  0
SPLINE
  5
361
100
AcDbEntity
  8
0
100
AcDbSpline
 62
7
  6
CONTINUOUS
 70
0
 71
3
 72
29
 73
25
 74
0
 42
0.0000001
 43
0.0000001
 44
0.0000000001
 40
0.0
 40
0.0
 40
0.0
 40
0.0
 40
0.070984318
 40
0.1429825523
 40
0.2155057028
 40
0.2880809331
 40
0.3602234383
 40
0.4314560192
 40
0.5013085085
 40
0.5693229079
 40
0.6350576048
 40
0.6980916372
 40
0.728471958
 40
0.7580314442
 40
0.7867250902
 40
0.8145108681
 40
0.8413490867
 40
0.8672023195
 40
0.8920371672
 40
0.9158224349
 40
0.9385315725
 40
0.9601419631
 40
0.9806353258
 40
1.0
 40
1.0
 40
1.0
 40
1.0
 10
11.7219009977
 20
11.3996965545
 30
0.0
 10
11.7066828693
 20
11.4007519353
 30
0.0
 10
11.6760032412
 20
11.4025181038
 30
0.0
 10
11.6297155382
 20
11.4041429085
 30
0.0
 10
11.5830612726
 20
11.4047554056
 30
0.0
 10
11.5363738078
 20
11.4043517788
 30
0.0
 10
11.4899835023
 20
11.4029345336
 30
0.0
 10
11.4442205006
 20
11.4005140277
 30
0.0
 10
11.3994097355
 20
11.3971077191
 30
0.0
 10
11.3558692782
 20
11.3927403069
 30
0.0
 10
11.3139084364
 20
11.3874432548
 30
0.0
 10
11.2801020755
 20
11.3822246488
 30
0.0
 10
11.2540828368
 20
11.3775929198
 30
0.0
 10
11.2353850554
 20
11.373954991
 30
0.0
 10
11.2172969717
 20
11.3701165358
 30
0.0
 10
11.1998506576
 20
11.366084529
 30
0.0
 10
11.183077046
 20
11.3618663339
 30
0.0
 10
11.1670059135
 20
11.3574690819
 30
0.0
 10
11.151665643
 20
11.3529011904
 30
0.0
 10
11.1370834003
 20
11.3481703271
 30
0.0
 10
11.1232848975
 20
11.3432851956
 30
0.0
 10
11.1102942739
 20
11.338254565
 30
0.0
 10
11.0981346953
 20
11.3330870363
 30
0.0
 10
11.0903751355
 20
11.3294536485
 30
0.0
 10
11.0866440392
 20
11.3276105313
 30
0.0
  0
SPLINE
  5
362
100
AcDbEntity
  8
0
100
AcDbSpline
 62
7
  6
CONTINUOUS
 70
0
 71
3
 72
9
 73
5
 74
0
 42
0.0000001
 43
0.0000001
 44
0.0000000001
 40
0.0
 40
0.0
 40
0.0
 40
0.0
 40
0.4802028106
 40
1.0
 40
1.0
 40
1.0
 40
1.0
 10
10.95922933
 20
10.7970357805
 30
0.0
 10
10.9613207529
 20
10.7945894454
 30
0.0
 10
10.9659495726
 20
10.7897258556
 30
0.0
 10
10.9709830421
 20
10.7852886329
 30
0.0
 10
10.9736773782
 20
10.7830800614
 30
0.0
  0
SPLINE
  5
363
100
AcDbEntity
  8
0
100
AcDbSpline
 62
7
  6
CONTINUOUS
 70
0
 71
3
 72
9
 73
5
 74
0
 42
0.0000001
 43
0.0000001
 44
0.0000000001
 40
0.0
 40
0.0
 40
0.0
 40
0.0
 40
0.4802028106
 40
1.0
 40
1.0
 40
1.0
 40
1.0
 10
12.1972837625
 20
11.2523410438
 30
0.0
 10
12.1951923396
 20
11.2547873789
 30
0.0
 10
12.1905635199
 20
11.2596509687
 30
0.0
 10
12.1855300503
 20
11.2640881914
 30
0.0
 10
12.1828357143
 20
11.2662967629
 30
0.0
  0
SPLINE
  5
364
100
AcDbEntity
  8
0
100
AcDbSpline
 62
7
  6
CONTINUOUS
 70
0
 71
3
 72
9
 73
5
 74
0
 42
0.0000001
 43
0.0000001
 44
0.0000000001
 40
0.0
 40
0.0
 40
0.0
 40
0.0
 40
0.5043782952
 40
1.0
 40
1.0
 40
1.0
 40
1.0
 10
12.1828357143
 20
11.2662967629
 30
0.0
 10
12.1693319885
 20
11.2747055961
 30
0.0
 10
12.1422192005
 20
11.2908402141
 30
0.0
 10
12.1143464572
 20
11.3056373772
 30
0.0
 10
12.1003323462
 20
11.3125622062
 30
0.0
  0
SPLINE
  5
365
100
AcDbEntity
  8
0
100
AcDbSpline
 62
7
  6
CONTINUOUS
 70
0
 71
3
 72
9
 73
5
 74
0
 42
0.0000001
 43
0.0000001
 44
0.0000000001
 40
0.0
 40
0.0
 40
0.0
 40
0.0
 40
0.5043782952
 40
1.0
 40
1.0
 40
1.0
 40
1.0
 10
10.9736773782
 20
10.7830800614
 30
0.0
 10
10.9871811039
 20
10.7746712282
 30
0.0
 10
11.014293892
 20
10.7585366102
 30
0.0
 10
11.0421666352
 20
10.7437394471
 30
0.0
 10
11.0561807462
 20
10.7368146181
 30
0.0
  0
SPLINE
  5
366
100
AcDbEntity
  8
0
100
AcDbSpline
 62
7
  6
CONTINUOUS
 70
0
 71
3
 72
23
 73
19
 74
0
 42
0.0000001
 43
0.0000001
 44
0.0000000001
 40
0.0
 40
0.0
 40
0.0
 40
0.0
 40
0.0436202716
 40
0.0892267831
 40
0.1370684894
 40
0.1873535484
 40
0.2402536978
 40
0.2958870825
 40
0.3543309839
 40
0.4156093066
 40
0.4797101
 40
0.5465786547
 40
0.6161344819
 40
0.6882693018
 40
0.7628605839
 40
0.8397743489
 40
0.9188692317
 40
1.0
 40
1.0
 40
1.0
 40
1.0
 10
12.0888753644
 20
10.7311550685
 30
0.0
 10
12.0911852977
 20
10.732295636
 30
0.0
 10
12.0958224167
 20
10.7348107304
 30
0.0
 10
12.102649699
 20
10.73917178
 30
0.0
 10
12.1094860807
 20
10.7442140647
 30
0.0
 10
12.1163276233
 20
10.7499449961
 30
0.0
 10
12.1231687144
 20
10.7563686467
 30
0.0
 10
12.1300062478
 20
10.7634802199
 30
0.0
 10
12.1368344999
 20
10.7712710336
 30
0.0
 10
12.143650737
 20
10.7797244386
 30
0.0
 10
12.1504498985
 20
10.7888203479
 30
0.0
 10
12.1572297418
 20
10.7985327342
 30
0.0
 10
12.1639864017
 20
10.8088332874
 30
0.0
 10
12.1707182818
 20
10.8196902474
 30
0.0
 10
12.1774229919
 20
10.8310711076
 30
0.0
 10
12.1840996342
 20
10.8429421974
 30
0.0
 10
12.1907471198
 20
10.8552700443
 30
0.0
 10
12.1951062332
 20
10.8636694668
 30
0.0
 10
12.1972837625
 20
10.8679376025
 30
0.0
  0
SPLINE
  5
367
100
AcDbEntity
  8
0
100
AcDbSpline
 62
7
  6
CONTINUOUS
 70
0
 71
3
 72
23
 73
19
 74
0
 42
0.0000001
 43
0.0000001
 44
0.0000000001
 40
0.0
 40
0.0
 40
0.0
 40
0.0
 40
0.0436202716
 40
0.0892267831
 40
0.1370684894
 40
0.1873535484
 40
0.2402536978
 40
0.2958870825
 40
0.3543309839
 40
0.4156093066
 40
0.4797101
 40
0.5465786547
 40
0.6161344819
 40
0.6882693018
 40
0.7628605839
 40
0.8397743489
 40
0.9188692317
 40
1.0
 40
1.0
 40
1.0
 40
1.0
 10
11.0676377281
 20
11.3182217558
 30
0.0
 10
11.0653277948
 20
11.3170811883
 30
0.0
 10
11.0606906758
 20
11.3145660939
 30
0.0
 10
11.0538633935
 20
11.3102050443
 30
0.0
 10
11.0470270118
 20
11.3051627596
 30
0.0
 10
11.0401854692
 20
11.2994318282
 30
0.0
 10
11.033344378
 20
11.2930081775
 30
0.0
 10
11.0265068446
 20
11.2858966044
 30
0.0
 10
11.0196785925
 20
11.2781057907
 30
0.0
 10
11.0128623554
 20
11.2696523857
 30
0.0
 10
11.0060631939
 20
11.2605564764
 30
0.0
 10
10.9992833507
 20
11.2508440901
 30
0.0
 10
10.9925266907
 20
11.2405435368
 30
0.0
 10
10.9857948106
 20
11.2296865769
 30
0.0
 10
10.9790901006
 20
11.2183057167
 30
0.0
 10
10.9724134583
 20
11.2064346269
 30
0.0
 10
10.9657659727
 20
11.19410678
 30
0.0
 10
10.9614068593
 20
11.1857073574
 30
0.0
 10
10.95922933
 20
11.1814392218
 30
0.0
  0
SPLINE
  5
368
100
AcDbEntity
  8
0
100
AcDbSpline
 62
7
  6
CONTINUOUS
 70
0
 71
3
 72
23
 73
19
 74
0
 42
0.0000001
 43
0.0000001
 44
0.0000000001
 40
0.0
 40
0.0
 40
0.0
 40
0.0
 40
0.0430692708
 40
0.0891859059
 40
0.1383039462
 40
0.1903539308
 40
0.2452509344
 40
0.3028923159
 40
0.36316428
 40
0.4259386958
 40
0.4910792536
 40
0.558438617
 40
0.6278623889
 40
0.6991843849
 40
0.7722354743
 40
0.8468474017
 40
0.9228412057
 40
1.0
 40
1.0
 40
1.0
 40
1.0
 10
12.0698695749
 20
11.3276102736
 30
0.0
 10
12.0652718414
 20
11.3298815104
 30
0.0
 10
12.0556291969
 20
11.3343403917
 30
0.0
 10
12.0403954245
 20
11.3406047566
 30
0.0
 10
12.0239326894
 20
11.3466584907
 30
0.0
 10
12.0062846877
 20
11.3524859392
 30
0.0
 10
11.9874975656
 20
11.3580708621
 30
0.0
 10
11.9676210255
 20
11.3633989465
 30
0.0
 10
11.946707637
 20
11.3684551881
 30
0.0
 10
11.9248129197
 20
11.3732266703
 30
0.0
 10
11.9019949558
 20
11.3776999172
 30
0.0
 10
11.8783143325
 20
11.3818635205
 30
0.0
 10
11.8538342555
 20
11.385705622
 30
0.0
 10
11.8286201816
 20
11.389216573
 30
0.0
 10
11.802738579
 20
11.3923864295
 30
0.0
 10
11.7762571859
 20
11.3952071698
 30
0.0
 10
11.7492491089
 20
11.3976704529
 30
0.0
 10
11.7310660446
 20
11.3990609563
 30
0.0
 10
11.7219009977
 20
11.3996965545
 30
0.0
  0
SPLINE
  5
369
100
AcDbEntity
  8
0
100
AcDbSpline
 62
7
  6
CONTINUOUS
 70
0
 71
3
 72
56
 73
52
 74
0
 42
0.0000001
 43
0.0000001
 44
0.0000000001
 40
0.0
 40
0.0
 40
0.0
 40
0.0
 40
0.0460140365
 40
0.0926138763
 40
0.1395821546
 40
0.1867221822
 40
0.2338288136
 40
0.280695969
 40
0.3271205498
 40
0.3729016883
 40
0.4178419215
 40
0.4617486806
 40
0.5044357275
 40
0.5457237503
 40
0.5854421779
 40
0.623430808
 40
0.6595404895
 40
0.6936358272
 40
0.7098908177
 40
0.7255987191
 40
0.7407472814
 40
0.7553261698
 40
0.7693260262
 40
0.7827391099
 40
0.795560201
 40
0.8077857039
 40
0.8194143239
 40
0.8304482927
 40
0.8408926824
 40
0.8507562508
 40
0.8600531092
 40
0.8688025169
 40
0.8770301158
 40
0.8847700999
 40
0.8920656216
 40
0.8989701892
 40
0.9055493464
 40
0.9118801083
 40
0.9180498998
 40
0.9241540552
 40
0.93029114
 40
0.9365581198
 40
0.9430454648
 40
0.9498338051
 40
0.9533640988
 40
0.9569946791
 40
0.964581397
 40
0.9726423977
 40
0.9812148065
 40
0.9903269582
 40
1.0
 40
1.0
 40
1.0
 40
1.0
 10
11.4346120947
 20
11.122196767
 30
0.0
 10
11.4469099821
 20
11.1213439056
 30
0.0
 10
11.4716791875
 20
11.1198622919
 30
0.0
 10
11.5090437943
 20
11.1183112437
 30
0.0
 10
11.546731858
 20
11.1174225472
 30
0.0
 10
11.584565455
 20
11.1172001844
 30
0.0
 10
11.6223700126
 20
11.1176449501
 30
0.0
 10
11.6599691608
 20
11.1187549823
 30
0.0
 10
11.6971875702
 20
11.1205251131
 30
0.0
 10
11.7338520165
 20
11.1229467592
 30
0.0
 10
11.7697917372
 20
11.1260086808
 30
0.0
 10
11.8048393995
 20
11.1296965295
 30
0.0
 10
11.8388319072
 20
11.1339926578
 30
0.0
 10
11.8716111212
 20
11.1388770075
 30
0.0
 10
11.9030246556
 20
11.1443265426
 30
0.0
 10
11.9329268008
 20
11.1503152368
 30
0.0
 10
11.9611785556
 20
11.1568151347
 30
0.0
 10
11.9835809368
 20
11.1627220926
 30
0.0
 10
12.0005647723
 20
11.1676999088
 30
0.0
 10
12.0126070827
 20
11.1714820712
 30
0.0
 10
12.0241434087
 20
11.1753682918
 30
0.0
 10
12.0351605193
 20
11.1793537717
 30
0.0
 10
12.0456456344
 20
11.1834339567
 30
0.0
 10
12.0555865541
 20
11.1876043423
 30
0.0
 10
12.0649719876
 20
11.1918597507
 30
0.0
 10
12.0737911503
 20
11.1961953442
 30
0.0
 10
12.0820338058
 20
11.2006064606
 30
0.0
 10
12.0896907888
 20
11.2050877294
 30
0.0
 10
12.0967534611
 20
11.2096341779
 30
0.0
 10
12.1032136309
 20
11.2142412063
 30
0.0
 10
12.1090643366
 20
11.2189035385
 30
0.0
 10
12.1142990805
 20
11.2236164201
 30
0.0
 10
12.1189114688
 20
11.2283757056
 30
0.0
 10
12.1228963092
 20
11.2331766597
 30
0.0
 10
12.1262484432
 20
11.2380150829
 30
0.0
 10
12.1289619389
 20
11.2428871331
 30
0.0
 10
12.1310318068
 20
11.247787774
 30
0.0
 10
12.1324528228
 20
11.2527112888
 30
0.0
 10
12.1332193289
 20
11.2576504961
 30
0.0
 10
12.1333287837
 20
11.2625961809
 30
0.0
 10
12.1327809676
 20
11.2675386123
 30
0.0
 10
12.1315773284
 20
11.272468302
 30
0.0
 10
12.1297229807
 20
11.2773770852
 30
0.0
 10
12.1276668736
 20
11.2813928321
 30
0.0
 10
12.1257186331
 20
11.2845832378
 30
0.0
 10
12.1234994479
 20
11.2878537497
 30
0.0
 10
12.1203082205
 20
11.2919234829
 30
0.0
 10
12.1159044163
 20
11.2966969571
 30
0.0
 10
12.1108761744
 20
11.3014258555
 30
0.0
 10
12.1052299934
 20
11.3061054062
 30
0.0
 10
12.101180854
 20
11.3090985912
 30
0.0
 10
12.0990606304
 20
11.31058867
 30
0.0
  0
SPLINE
  5
36A
100
AcDbEntity
  8
0
100
AcDbSpline
 62
7
  6
CONTINUOUS
 70
0
 71
3
 72
11
 73
7
 74
0
 42
0.0000001
 43
0.0000001
 44
0.0000000001
 40
0.0
 40
0.0
 40
0.0
 40
0.0
 40
0.2310152257
 40
0.4746103058
 40
0.7309143418
 40
1.0
 40
1.0
 40
1.0
 40
1.0
 10
12.0990606304
 20
11.31058867
 30
0.0
 10
12.0969297642
 20
11.3120862283
 30
0.0
 10
12.0924773264
 20
11.3150576246
 30
0.0
 10
12.0854349466
 20
11.319340372
 30
0.0
 10
12.0778605274
 20
11.3235619167
 30
0.0
 10
12.072589486
 20
11.3262666633
 30
0.0
 10
12.0698695749
 20
11.3276102736
 30
0.0
  0
SPLINE
  5
36B
100
AcDbEntity
  8
0
100
AcDbSpline
 62
7
  6
CONTINUOUS
 70
0
 71
3
 72
9
 73
5
 74
0
 42
0.0000001
 43
0.0000001
 44
0.0000000001
 40
0.0
 40
0.0
 40
0.0
 40
0.0
 40
0.4802028106
 40
1.0
 40
1.0
 40
1.0
 40
1.0
 10
10.95922933
 20
11.1814392218
 30
0.0
 10
10.9613207529
 20
11.1789928867
 30
0.0
 10
10.9659495726
 20
11.1741292969
 30
0.0
 10
10.9709830421
 20
11.1696920742
 30
0.0
 10
10.9736773782
 20
11.1674835027
 30
0.0
  0
SPLINE
  5
36C
100
AcDbEntity
  8
0
100
AcDbSpline
 62
7
  6
CONTINUOUS
 70
0
 71
3
 72
24
 73
20
 74
0
 42
0.0000001
 43
0.0000001
 44
0.0000000001
 40
0.0
 40
0.0
 40
0.0
 40
0.0
 40
0.0904093868
 40
0.1775325331
 40
0.2610553835
 40
0.3406844661
 40
0.41616279
 40
0.4872998029
 40
0.521207684
 40
0.5540039824
 40
0.6162843266
 40
0.6743126111
 40
0.7283969377
 40
0.7789824074
 40
0.826623815
 40
0.8719379797
 40
0.9155549124
 40
0.9580698186
 40
1.0
 40
1.0
 40
1.0
 40
1.0
 10
12.0458640729
 20
11.1060808464
 30
0.0
 10
12.0488996013
 20
11.1120307305
 30
0.0
 10
12.0549735732
 20
11.1236570541
 30
0.0
 10
12.0642990573
 20
11.1405418255
 30
0.0
 10
12.0736793226
 20
11.1564794257
 30
0.0
 10
12.0831113359
 20
11.1713787134
 30
0.0
 10
12.0925901994
 20
11.1851517656
 30
0.0
 10
12.100646041
 20
11.1957887719
 30
0.0
 10
12.1071229359
 20
11.2036491898
 30
0.0
 10
12.1133954911
 20
11.2108245017
 30
0.0
 10
12.1212346804
 20
11.2189918146
 30
0.0
 10
12.1308211901
 20
11.2276195259
 30
0.0
 10
12.1404098927
 20
11.2348944344
 30
0.0
 10
12.1499887024
 20
11.2408343014
 30
0.0
 10
12.1595442619
 20
11.2454793859
 30
0.0
 10
12.1690628501
 20
11.248887875
 30
0.0
 10
12.1785313239
 20
11.2511340934
 30
0.0
 10
12.1879374148
 20
11.2523043766
 30
0.0
 10
12.1941871748
 20
11.2524284608
 30
0.0
 10
12.1972837625
 20
11.2523410438
 30
0.0
  0
SPLINE
  5
36D
100
AcDbEntity
  8
0
100
AcDbSpline
 62
7
  6
CONTINUOUS
 70
0
 71
3
 72
15
 73
11
 74
0
 42
0.0000001
 43
0.0000001
 44
0.0000000001
 40
0.0
 40
0.0
 40
0.0
 40
0.0
 40
0.1193884442
 40
0.2394118209
 40
0.3604965246
 40
0.4831212753
 40
0.6078106285
 40
0.735130254
 40
0.8656619472
 40
1.0
 40
1.0
 40
1.0
 40
1.0
 10
12.0458640729
 20
10.7216774051
 30
0.0
 10
12.0476338286
 20
10.7216274447
 30
0.0
 10
12.0511863555
 20
10.7216246132
 30
0.0
 10
12.0565266479
 20
10.7219278448
 30
0.0
 10
12.0618873415
 20
10.7225553883
 30
0.0
 10
12.0672675097
 20
10.7235239619
 30
0.0
 10
12.0726663295
 20
10.7248499772
 30
0.0
 10
12.0780824991
 20
10.7265498998
 30
0.0
 10
12.0835144588
 20
10.7286382033
 30
0.0
 10
12.0870890954
 20
10.7302730689
 30
0.0
 10
12.0888753644
 20
10.7311550685
 30
0.0
  0
SPLINE
  5
36E
100
AcDbEntity
  8
0
100
AcDbSpline
 62
7
  6
CONTINUOUS
 70
0
 71
3
 72
23
 73
19
 74
0
 42
0.0000001
 43
0.0000001
 44
0.0000000001
 40
0.0
 40
0.0
 40
0.0
 40
0.0
 40
0.0584073816
 40
0.1170342823
 40
0.175946792
 40
0.235225456
 40
0.2949566682
 40
0.3552310086
 40
0.416138202
 40
0.4777588108
 40
0.540158822
 40
0.6033849084
 40
0.6674605222
 40
0.7323867869
 40
0.7981446078
 40
0.8646981496
 40
0.9320021535
 40
1.0
 40
1.0
 40
1.0
 40
1.0
 10
10.9736773782
 20
11.1674835027
 30
0.0
 10
10.982124411
 20
11.1683710092
 30
0.0
 10
10.9990828635
 20
11.169855826
 30
0.0
 10
11.0246439172
 20
11.1711209638
 30
0.0
 10
11.0503634646
 20
11.1713385885
 30
0.0
 10
11.0762292531
 20
11.1704209123
 30
0.0
 10
11.1022229543
 20
11.1682878887
 30
0.0
 10
11.1283190172
 20
11.1648724986
 30
0.0
 10
11.154485438
 20
11.1601241295
 30
0.0
 10
11.180685652
 20
11.1540157373
 30
0.0
 10
11.2068811464
 20
11.1465461432
 30
0.0
 10
11.2330336328
 20
11.1377380862
 30
0.0
 10
11.2591082496
 20
11.1276384633
 30
0.0
 10
11.2850757874
 20
11.1163143432
 30
0.0
 10
11.310912883
 20
11.1038454687
 30
0.0
 10
11.3366033343
 20
11.0903204172
 30
0.0
 10
11.3621368954
 20
11.0758319532
 30
0.0
 10
11.3789703038
 20
11.065640491
 30
0.0
 10
11.3873640962
 20
11.0604136371
 30
0.0
  0
SPLINE
  5
36F
100
AcDbEntity
  8
0
100
AcDbSpline
 62
7
  6
CONTINUOUS
 70
0
 71
3
 72
23
 73
19
 74
0
 42
0.0000001
 43
0.0000001
 44
0.0000000001
 40
0.0
 40
0.0
 40
0.0
 40
0.0
 40
0.0430699451
 40
0.0891871423
 40
0.1383056318
 40
0.190355986
 40
0.2452532918
 40
0.3028948794
 40
0.3631669336
 40
0.4259413274
 40
0.4910817656
 40
0.5584409459
 40
0.6278644901
 40
0.6991861904
 40
0.7722368997
 40
0.8468483862
 40
0.9228417141
 40
1.0
 40
1.0
 40
1.0
 40
1.0
 10
11.1017061045
 20
10.7143259206
 30
0.0
 10
11.106163052
 20
10.7121243202
 30
0.0
 10
11.1155104019
 20
10.70780215
 30
0.0
 10
11.1302776066
 20
10.7017298473
 30
0.0
 10
11.1462360688
 20
10.6958617195
 30
0.0
 10
11.1633434391
 20
10.6902129414
 30
0.0
 10
11.1815549877
 20
10.6847992518
 30
0.0
 10
11.2008225325
 20
10.6796345257
 30
0.0
 10
11.2210951113
 20
10.67473331
 30
0.0
 10
11.242318906
 20
10.670108124
 30
0.0
 10
11.2644376204
 20
10.6657720278
 30
0.0
 10
11.2873925327
 20
10.6617360802
 30
0.0
 10
11.3111223775
 20
10.6580117742
 30
0.0
 10
11.335563702
 20
10.6546084627
 30
0.0
 10
11.3606520733
 20
10.6515357861
 30
0.0
 10
11.3863218331
 20
10.6488015196
 30
0.0
 10
11.4125021213
 20
10.6464137472
 30
0.0
 10
11.430127877
 20
10.645065865
 30
0.0
 10
11.4390120149
 20
10.6444497479
 30
0.0
  0
SPLINE
  5
370
100
AcDbEntity
  8
0
100
AcDbSpline
 62
7
  6
CONTINUOUS
 70
0
 71
3
 72
21
 73
17
 74
0
 42
0.0000001
 43
0.0000001
 44
0.0000000001
 40
0.0
 40
0.0
 40
0.0
 40
0.0
 40
0.1331620508
 40
0.198721389
 40
0.2635863969
 40
0.3277657689
 40
0.3912790145
 40
0.4541586317
 40
0.5164459921
 40
0.5781920281
 40
0.6394524084
 40
0.7002861096
 40
0.7607522371
 40
0.8209070106
 40
0.8808048208
 40
1.0
 40
1.0
 40
1.0
 40
1.0
 10
11.0561807462
 20
10.7368146181
 30
0.0
 10
11.0697757316
 20
10.7300968928
 30
0.0
 10
11.0903562616
 20
10.7206410045
 30
0.0
 10
11.1182223232
 20
10.7094722653
 30
0.0
 10
11.1390718101
 20
10.7019471613
 30
0.0
 10
11.1599599369
 20
10.6952582347
 30
0.0
 10
11.1808695013
 20
10.6894277457
 30
0.0
 10
11.2017802071
 20
10.6844633304
 30
0.0
 10
11.2226732618
 20
10.6803675465
 30
0.0
 10
11.2435293423
 20
10.67712768
 30
0.0
 10
11.2643315624
 20
10.6747253436
 30
0.0
 10
11.2850647815
 20
10.6731311508
 30
0.0
 10
11.3057165255
 20
10.6723102853
 30
0.0
 10
11.3262776747
 20
10.6722225198
 30
0.0
 10
11.3535145179
 20
10.6730232735
 30
0.0
 10
11.3738647629
 20
10.674591858
 30
0.0
 10
11.3873640962
 20
10.6760101958
 30
0.0
  0
SPLINE
  5
371
100
AcDbEntity
  8
0
100
AcDbSpline
 62
7
  6
CONTINUOUS
 70
0
 71
3
 72
21
 73
17
 74
0
 42
0.0000001
 43
0.0000001
 44
0.0000000001
 40
0.0
 40
0.0
 40
0.0
 40
0.0
 40
0.1269266306
 40
0.1902356571
 40
0.2534226618
 40
0.3164750211
 40
0.379381614
 40
0.442133702
 40
0.5047247465
 40
0.5671521045
 40
0.6294167402
 40
0.6915228504
 40
0.7534784743
 40
0.8152934295
 40
0.8769787052
 40
1.0
 40
1.0
 40
1.0
 40
1.0
 10
11.4412849049
 20
11.0566742163
 30
0.0
 10
11.4642924878
 20
11.0643986315
 30
0.0
 10
11.4990528933
 20
11.0751864298
 30
0.0
 10
11.545896814
 20
11.0876059872
 30
0.0
 10
11.5812010006
 20
11.095831681
 30
0.0
 10
11.6166791359
 20
11.1028893991
 30
0.0
 10
11.6522987451
 20
11.108703645
 30
0.0
 10
11.6880186808
 20
11.1132125997
 30
0.0
 10
11.7237912027
 20
11.1163758897
 30
0.0
 10
11.7595648202
 20
11.1181778925
 30
0.0
 10
11.7952880275
 20
11.1186267918
 30
0.0
 10
11.8309127443
 20
11.1177560595
 30
0.0
 10
11.8663971829
 20
11.115621656
 30
0.0
 10
11.9017084873
 20
11.112294446
 30
0.0
 10
11.9484796967
 20
11.106384304
 30
0.0
 10
11.9833121341
 20
11.1004119017
 30
0.0
 10
12.0063913125
 20
11.0958645482
 30
0.0
  0
SPLINE
  5
372
100
AcDbEntity
  8
0
100
AcDbSpline
 62
7
  6
CONTINUOUS
 70
0
 71
3
 72
29
 73
25
 74
0
 42
0.0000001
 43
0.0000001
 44
0.0000000001
 40
0.0
 40
0.0
 40
0.0
 40
0.0
 40
0.0193649952
 40
0.0398586582
 40
0.0614693309
 40
0.0841787293
 40
0.1079642341
 40
0.1327992914
 40
0.1586527009
 40
0.1854910601
 40
0.2132769506
 40
0.2419706946
 40
0.2715302662
 40
0.301910651
 40
0.3649447207
 40
0.4306793292
 40
0.4986935923
 40
0.5685459112
 40
0.6397782272
 40
0.7119204072
 40
0.7844953224
 40
0.8570181404
 40
0.9290160173
 40
1.0
 40
1.0
 40
1.0
 40
1.0
 10
12.0548067211
 20
10.7143257887
 30
0.0
 10
12.0511898489
 20
10.7125391653
 30
0.0
 10
12.0436678559
 20
10.7090171454
 30
0.0
 10
12.0318805818
 20
10.7040080058
 30
0.0
 10
12.0192877423
 20
10.6991315706
 30
0.0
 10
12.0059117937
 20
10.6943961758
 30
0.0
 10
11.9917761361
 20
10.6898103233
 30
0.0
 10
11.9769056958
 20
10.6853824503
 30
0.0
 10
11.9613268085
 20
10.6811199892
 30
0.0
 10
11.9450669873
 20
10.677031099
 30
0.0
 10
11.9281550923
 20
10.6731226919
 30
0.0
 10
11.9106211037
 20
10.6694019051
 30
0.0
 10
11.8924961092
 20
10.6658754978
 30
0.0
 10
11.8672739782
 20
10.6613857595
 30
0.0
 10
11.8345033387
 20
10.6563271425
 30
0.0
 10
11.7938280949
 20
10.6511924886
 30
0.0
 10
11.7516216781
 20
10.6469589834
 30
0.0
 10
11.7081839128
 20
10.6436571203
 30
0.0
 10
11.6638231268
 20
10.6413108459
 30
0.0
 10
11.6188542881
 20
10.6399370783
 30
0.0
 10
11.5735974096
 20
10.6395458604
 30
0.0
 10
11.5283727206
 20
10.6401396173
 30
0.0
 10
11.4835033681
 20
10.6417146529
 30
0.0
 10
11.4537638293
 20
10.6434267061
 30
0.0
 10
11.4390120149
 20
10.6444497479
 30
0.0
  0
SPLINE
  5
373
100
AcDbEntity
  8
0
100
AcDbSpline
 62
7
  6
CONTINUOUS
 70
0
 71
3
 72
21
 73
17
 74
0
 42
0.0000001
 43
0.0000001
 44
0.0000000001
 40
0.0
 40
0.0
 40
0.0
 40
0.0
 40
0.1230212948
 40
0.1847065705
 40
0.2465215258
 40
0.3084771496
 40
0.3705832599
 40
0.4328478955
 40
0.4952752535
 40
0.5578662981
 40
0.6206183861
 40
0.683524979
 40
0.7465773382
 40
0.8097643429
 40
0.8730733694
 40
1.0
 40
1.0
 40
1.0
 40
1.0
 10
11.4412849049
 20
10.672270775
 30
0.0
 10
11.4643640832
 20
10.6677234215
 30
0.0
 10
11.4991965206
 20
10.6617510191
 30
0.0
 10
11.54596773
 20
10.6558408771
 30
0.0
 10
11.5812790345
 20
10.6525136672
 30
0.0
 10
11.6167634731
 20
10.6503792636
 30
0.0
 10
11.6523881899
 20
10.6495085314
 30
0.0
 10
11.6881113972
 20
10.6499574306
 30
0.0
 10
11.7238850146
 20
10.6517594335
 30
0.0
 10
11.7596575366
 20
10.6549227235
 30
0.0
 10
11.7953774723
 20
10.6594316782
 30
0.0
 10
11.8309970814
 20
10.6652459241
 30
0.0
 10
11.8664752168
 20
10.6723036422
 30
0.0
 10
11.9017794033
 20
10.6805293359
 30
0.0
 10
11.948623324
 20
10.6929488934
 30
0.0
 10
11.9833837295
 20
10.7037366917
 30
0.0
 10
12.0063913125
 20
10.7114611068
 30
0.0
  0
SPLINE
  5
374
100
AcDbEntity
  8
0
100
AcDbSpline
 62
7
  6
CONTINUOUS
 70
0
 71
3
 72
9
 73
5
 74
0
 42
0.0000001
 43
0.0000001
 44
0.0000000001
 40
0.0
 40
0.0
 40
0.0
 40
0.0
 40
0.5151645244
 40
1.0
 40
1.0
 40
1.0
 40
1.0
 10
11.0866440392
 20
11.3276105313
 30
0.0
 10
11.0833068925
 20
11.3259620206
 30
0.0
 10
11.0768881475
 20
11.3226404401
 30
0.0
 10
11.0706184778
 20
11.3190437071
 30
0.0
 10
11.0676250336
 20
11.3172243147
 30
0.0
  0
SPLINE
  5
375
100
AcDbEntity
  8
0
100
AcDbSpline
 62
7
  6
CONTINUOUS
 70
0
 71
3
 72
55
 73
51
 74
0
 42
0.0000001
 43
0.0000001
 44
0.0000000001
 40
0.0
 40
0.0
 40
0.0
 40
0.0
 40
0.0126039668
 40
0.0246626451
 40
0.0361845815
 40
0.0471813629
 40
0.0576675083
 40
0.0676611077
 40
0.0771851246
 40
0.0862675479
 40
0.0949416347
 40
0.1032466857
 40
0.1112290233
 40
0.118941678
 40
0.1264439865
 40
0.1338010228
 40
0.1410823646
 40
0.1483598643
 40
0.1557054861
 40
0.1631891608
 40
0.1708765213
 40
0.1788275498
 40
0.1870959619
 40
0.195728829
 40
0.2047661593
 40
0.2142418107
 40
0.2241843014
 40
0.2346171506
 40
0.2455588974
 40
0.2570244016
 40
0.2690255426
 40
0.281571226
 40
0.294667253
 40
0.3083174627
 40
0.337285222
 40
0.3684733057
 40
0.4018562187
 40
0.4373894698
 40
0.4750146658
 40
0.514659581
 40
0.5562421653
 40
0.5996694007
 40
0.6448409651
 40
0.6916481552
 40
0.7399765684
 40
0.7897029257
 40
0.8407002665
 40
0.8928422091
 40
0.9459958947
 40
1.0
 40
1.0
 40
1.0
 40
1.0
 10
11.0676250336
 20
11.3172243147
 30
0.0
 10
11.0657280747
 20
11.3160713576
 30
0.0
 10
11.0620521055
 20
11.3137554497
 30
0.0
 10
11.0567841309
 20
11.3101663894
 30
0.0
 10
11.0518882053
 20
11.3065417909
 30
0.0
 10
11.0473676537
 20
11.3028842509
 30
0.0
 10
11.0432256228
 20
11.2991961624
 30
0.0
 10
11.039465286
 20
11.2954796912
 30
0.0
 10
11.0360892543
 20
11.2917372708
 30
0.0
 10
11.0330998566
 20
11.2879712881
 30
0.0
 10
11.0304994922
 20
11.2841839862
 30
0.0
 10
11.0282907942
 20
11.2803774698
 30
0.0
 10
11.0264757769
 20
11.2765542749
 30
0.0
 10
11.0250563422
 20
11.2727170499
 30
0.0
 10
11.0240345123
 20
11.2688686582
 30
0.0
 10
11.0234123761
 20
11.2650123494
 30
0.0
 10
11.0231907202
 20
11.2611519264
 30
0.0
 10
11.0233697777
 20
11.2572912957
 30
0.0
 10
11.0239493478
 20
11.2534343645
 30
0.0
 10
11.0249287698
 20
11.2495849674
 30
0.0
 10
11.0263060275
 20
11.2457464152
 30
0.0
 10
11.0280790798
 20
11.2419216039
 30
0.0
 10
11.0302460013
 20
11.2381131863
 30
0.0
 10
11.0328048487
 20
11.2343237406
 30
0.0
 10
11.0357529993
 20
11.2305553852
 30
0.0
 10
11.0390880359
 20
11.2268103511
 30
0.0
 10
11.042807623
 20
11.2230909953
 30
0.0
 10
11.0469092216
 20
11.2193997895
 30
0.0
 10
11.0513896812
 20
11.2157388858
 30
0.0
 10
11.0562458386
 20
11.2121106758
 30
0.0
 10
11.0614744578
 20
11.2085176814
 30
0.0
 10
11.0670719682
 20
11.2049624692
 30
0.0
 10
11.073034279
 20
11.2014472275
 30
0.0
 10
11.0816361841
 20
11.1967229965
 30
0.0
 10
11.0932934496
 20
11.1909564297
 30
0.0
 10
11.1083973877
 20
11.1843650895
 30
0.0
 10
11.1248403517
 20
11.1779908149
 30
0.0
 10
11.1425758439
 20
11.171851225
 30
0.0
 10
11.1615542856
 20
11.1659644526
 30
0.0
 10
11.1817219637
 20
11.1603468737
 30
0.0
 10
11.2030217783
 20
11.1550152608
 30
0.0
 10
11.2253931414
 20
11.1499844083
 30
0.0
 10
11.2487724382
 20
11.1452694016
 30
0.0
 10
11.2730931308
 20
11.1408832709
 30
0.0
 10
11.2982857194
 20
11.1368393071
 30
0.0
 10
11.3242779517
 20
11.133148535
 30
0.0
 10
11.3509961829
 20
11.1298220581
 30
0.0
 10
11.3783654109
 20
11.1268689848
 30
0.0
 10
11.4063049412
 20
11.1242986211
 30
0.0
 10
11.4251234851
 20
11.1228548044
 30
0.0
 10
11.4346120947
 20
11.122196767
 30
0.0
  0
SPLINE
  5
376
100
AcDbEntity
  8
0
100
AcDbSpline
 62
7
  6
CONTINUOUS
 70
0
 71
3
 72
59
 73
55
 74
0
 42
0.0000001
 43
0.0000001
 44
0.0000000001
 40
0.0
 40
0.0
 40
0.0
 40
0.0
 40
0.0074596563
 40
0.015454112
 40
0.0240027273
 40
0.033119185
 40
0.0428112374
 40
0.05308213
 40
0.0639314299
 40
0.0753554559
 40
0.0873477999
 40
0.0998997306
 40
0.1130004181
 40
0.126637178
 40
0.1407957148
 40
0.1554602358
 40
0.1706135724
 40
0.1862373536
 40
0.2023120775
 40
0.2188171723
 40
0.2357311336
 40
0.253031583
 40
0.2706953012
 40
0.2886983407
 40
0.3256226133
 40
0.3636009203
 40
0.4024209622
 40
0.44186408
 40
0.4817069689
 40
0.5217233855
 40
0.561685809
 40
0.6013671164
 40
0.6405422441
 40
0.6789898885
 40
0.716494185
 40
0.7528464454
 40
0.7705281358
 40
0.7878477552
 40
0.804782062
 40
0.8213086349
 40
0.8374059041
 40
0.8530532614
 40
0.8682311571
 40
0.8829211387
 40
0.8971059803
 40
0.9107698331
 40
0.9238982995
 40
0.9364786063
 40
0.9484998498
 40
0.959953163
 40
0.9708320015
 40
0.9811325701
 40
0.9908542174
 40
1.0
 40
1.0
 40
1.0
 40
1.0
 10
12.0998565233
 20
10.5911261999
 30
0.0
 10
12.097972735
 20
10.5893066
 30
0.0
 10
12.0939173874
 20
10.5856931044
 30
0.0
 10
12.0872573708
 20
10.5805209926
 30
0.0
 10
12.0798250591
 20
10.5754211769
 30
0.0
 10
12.0716318798
 20
10.570401143
 30
0.0
 10
12.0626895164
 20
10.5654678247
 30
0.0
 10
12.0530111697
 20
10.5606284781
 30
0.0
 10
12.0426111564
 20
10.5558902952
 30
0.0
 10
12.0315049864
 20
10.5512603867
 30
0.0
 10
12.0197093124
 20
10.5467457448
 30
0.0
 10
12.0072418736
 20
10.5423532567
 30
0.0
 10
11.994121487
 20
10.5380896192
 30
0.0
 10
11.9803680059
 20
10.5339613287
 30
0.0
 10
11.9660022622
 20
10.5299747173
 30
0.0
 10
11.9510460487
 20
10.5261358938
 30
0.0
 10
11.9355220842
 20
10.5224507156
 30
0.0
 10
11.9194539575
 20
10.5189248375
 30
0.0
 10
11.9028660984
 20
10.5155636718
 30
0.0
 10
11.8857837476
 20
10.5123723455
 30
0.0
 10
11.8682328985
 20
10.5093557483
 30
0.0
 10
11.8502402708
 20
10.5065185231
 30
0.0
 10
11.8318332384
 20
10.5038649647
 30
0.0
 10
11.8065625456
 20
10.5005494033
 30
0.0
 10
11.7741441866
 20
10.4969052715
 30
0.0
 10
11.7343709093
 20
10.4933572903
 30
0.0
 10
11.6936472573
 20
10.4906204018
 30
0.0
 10
11.6522212303
 20
10.4887114659
 30
0.0
 10
11.610344921
 20
10.4876422585
 30
0.0
 10
11.5682732661
 20
10.4874193984
 30
0.0
 10
11.5262623876
 20
10.4880442524
 30
0.0
 10
11.4845680348
 20
10.4895129516
 30
0.0
 10
11.4434440232
 20
10.4918164609
 30
0.0
 10
11.4031405759
 20
10.4949405193
 30
0.0
 10
11.3639031123
 20
10.4988658813
 30
0.0
 10
11.3320046337
 20
10.5028199936
 30
0.0
 10
11.3072057572
 20
10.5063780928
 30
0.0
 10
11.2891912165
 20
10.5092060457
 30
0.0
 10
11.2716170906
 20
10.5122135598
 30
0.0
 10
11.2545101036
 20
10.5153960477
 30
0.0
 10
11.2378963002
 20
10.5187486428
 30
0.0
 10
11.2218009544
 20
10.5222662171
 30
0.0
 10
11.2062485365
 20
10.5259433635
 30
0.0
 10
11.191262686
 20
10.5297744614
 30
0.0
 10
11.1768661648
 20
10.5337536562
 30
0.0
 10
11.1630808077
 20
10.5378748342
 30
0.0
 10
11.1499275051
 20
10.5421316954
 30
0.0
 10
11.1374261616
 20
10.5465177554
 30
0.0
 10
11.1255956396
 20
10.5510262982
 30
0.0
 10
11.1144537342
 20
10.5556504706
 30
0.0
 10
11.1040171892
 20
10.5603832812
 30
0.0
 10
11.0943014636
 20
10.5652176557
 30
0.0
 10
11.0853212746
 20
10.570146189
 30
0.0
 10
11.0796616777
 20
10.5735946816
 30
0.0
 10
11.0769647473
 20
10.5753375585
 30
0.0
  0
SPLINE
  5
377
100
AcDbEntity
  8
0
100
AcDbSpline
 62
7
  6
CONTINUOUS
 70
0
 71
3
 72
23
 73
19
 74
0
 42
0.0000001
 43
0.0000001
 44
0.0000000001
 40
0.0
 40
0.0
 40
0.0
 40
0.0
 40
0.082707583
 40
0.1621569484
 40
0.238403426
 40
0.3115163767
 40
0.3815831747
 40
0.4487094901
 40
0.5130231572
 40
0.5746762585
 40
0.6338473862
 40
0.690745226
 40
0.745609061
 40
0.7987111823
 40
0.8503555682
 40
0.9008760078
 40
0.9506316735
 40
1.0
 40
1.0
 40
1.0
 40
1.0
 10
11.0769647473
 20
10.5753375585
 30
0.0
 10
11.0754025759
 20
10.5763471034
 30
0.0
 10
11.0723699632
 20
10.5783737414
 30
0.0
 10
11.0680152687
 20
10.5815030672
 30
0.0
 10
11.063949138
 20
10.5846585584
 30
0.0
 10
11.0601739375
 20
10.5878385669
 30
0.0
 10
11.0566917074
 20
10.5910413523
 30
0.0
 10
11.053504448
 20
10.5942653076
 30
0.0
 10
11.0506139731
 20
10.5975087751
 30
0.0
 10
11.0480219585
 20
10.6007701099
 30
0.0
 10
11.0457300715
 20
10.6040477494
 30
0.0
 10
11.043739736
 20
10.607339997
 30
0.0
 10
11.0420524912
 20
10.6106452465
 30
0.0
 10
11.0406696369
 20
10.6139617031
 30
0.0
 10
11.0395924714
 20
10.6172874654
 30
0.0
 10
11.0388221651
 20
10.6206205694
 30
0.0
 10
11.0383595276
 20
10.6239583561
 30
0.0
 10
11.0382565637
 20
10.6261888738
 30
0.0
 10
11.0382565612
 20
10.6272991053
 30
0.0
  0
SPLINE
  5
378
100
AcDbEntity
  8
0
100
AcDbSpline
 62
7
  6
CONTINUOUS
 70
0
 71
3
 72
18
 73
14
 74
0
 42
0.0000001
 43
0.0000001
 44
0.0000000001
 40
0.0
 40
0.0
 40
0.0
 40
0.0
 40
0.1504683897
 40
0.2917144302
 40
0.4244424337
 40
0.4879098403
 40
0.5496094316
 40
0.6682625858
 40
0.7817882724
 40
0.8371379912
 40
0.8918078094
 40
0.9460192717
 40
1.0
 40
1.0
 40
1.0
 40
1.0
 10
13.1179425022
 20
9.3449898622
 30
0.0
 10
13.1196246335
 20
9.3466146763
 30
0.0
 10
13.1229866049
 20
9.3496632967
 30
0.0
 10
13.1281922666
 20
9.3537259452
 30
0.0
 10
13.1325893269
 20
9.3565992662
 30
0.0
 10
13.1360956006
 20
9.3585449856
 30
0.0
 10
13.139498721
 20
9.3602154511
 30
0.0
 10
13.143753701
 20
9.3619033939
 30
0.0
 10
13.1480843692
 20
9.3630552499
 30
0.0
 10
13.1515143862
 20
9.3636226701
 30
0.0
 10
13.1540565045
 20
9.3638744875
 30
0.0
 10
13.1565883378
 20
9.3639558129
 30
0.0
 10
13.1582704257
 20
9.3638963061
 30
0.0
 10
13.1591074319
 20
9.3638382551
 30
0.0
  0
SPLINE
  5
379
100
AcDbEntity
  8
0
100
AcDbSpline
 62
7
  6
CONTINUOUS
 70
0
 71
3
 72
18
 73
14
 74
0
 42
0.0000001
 43
0.0000001
 44
0.0000000001
 40
0.0
 40
0.0
 40
0.0
 40
0.0
 40
0.1504683897
 40
0.2917144302
 40
0.4244424337
 40
0.4879098403
 40
0.5496094316
 40
0.6682625858
 40
0.7817882724
 40
0.8371379912
 40
0.8918078094
 40
0.9460192717
 40
1.0
 40
1.0
 40
1.0
 40
1.0
 10
12.8428180937
 20
7.7356371395
 30
0.0
 10
12.8445002249
 20
7.7372619536
 30
0.0
 10
12.8478621963
 20
7.740310574
 30
0.0
 10
12.8530678581
 20
7.7443732225
 30
0.0
 10
12.8574649183
 20
7.7472465435
 30
0.0
 10
12.8609711921
 20
7.7491922629
 30
0.0
 10
12.8643743125
 20
7.7508627285
 30
0.0
 10
12.8686292925
 20
7.7525506713
 30
0.0
 10
12.8729599607
 20
7.7537025272
 30
0.0
 10
12.8763899777
 20
7.7542699474
 30
0.0
 10
12.878932096
 20
7.7545217648
 30
0.0
 10
12.8814639293
 20
7.7546030902
 30
0.0
 10
12.8831460172
 20
7.7545435834
 30
0.0
 10
12.8839830234
 20
7.7544855324
 30
0.0
  0
SPLINE
  5
37A
100
AcDbEntity
  8
0
100
AcDbSpline
 62
7
  6
CONTINUOUS
 70
0
 71
3
 72
21
 73
17
 74
0
 42
0.0000001
 43
0.0000001
 44
0.0000000001
 40
0.0
 40
0.0
 40
0.0
 40
0.0
 40
0.1273176984
 40
0.2537999461
 40
0.3167619614
 40
0.3795355204
 40
0.4421314992
 40
0.5045621453
 40
0.5668413456
 40
0.6289845231
 40
0.6910084433
 40
0.7529310869
 40
0.8147714401
 40
0.8765493236
 40
0.9382852134
 40
1.0
 40
1.0
 40
1.0
 40
1.0
 10
9.2902043195
 20
9.7431347871
 30
0.0
 10
9.2902043195
 20
9.736389979
 30
0.0
 10
9.2895604825
 20
9.7229359396
 30
0.0
 10
9.2871288912
 20
9.7063038425
 30
0.0
 10
9.2842226241
 20
9.6932574188
 30
0.0
 10
9.2815722602
 20
9.6836343704
 30
0.0
 10
9.2784542655
 20
9.6741823187
 30
0.0
 10
9.2748758288
 20
9.6649227841
 30
0.0
 10
9.2708452001
 20
9.6558771827
 30
0.0
 10
9.2663715922
 20
9.6470663911
 30
0.0
 10
9.2614653541
 20
9.6385107196
 30
0.0
 10
9.2561378005
 20
9.6302298857
 30
0.0
 10
9.2504011661
 20
9.6222430511
 30
0.0
 10
9.2442686448
 20
9.6145685586
 30
0.0
 10
9.2377546514
 20
9.6072243204
 30
0.0
 10
9.2331667586
 20
9.6025588278
 30
0.0
 10
9.2308152099
 20
9.60028742
 30
0.0
  0
SPLINE
  5
37B
100
AcDbEntity
  8
0
100
AcDbSpline
 62
7
  6
CONTINUOUS
 70
0
 71
3
 72
21
 73
17
 74
0
 42
0.0000001
 43
0.0000001
 44
0.0000000001
 40
0.0
 40
0.0
 40
0.0
 40
0.0
 40
0.1273176984
 40
0.2537999461
 40
0.3167619614
 40
0.3795355204
 40
0.4421314992
 40
0.5045621453
 40
0.5668413456
 40
0.6289845231
 40
0.6910084433
 40
0.7529310869
 40
0.8147714401
 40
0.8765493236
 40
0.9382852134
 40
1.0
 40
1.0
 40
1.0
 40
1.0
 10
12.3077568208
 20
9.5338668103
 30
0.0
 10
12.3077568208
 20
9.5271220022
 30
0.0
 10
12.3071129838
 20
9.5136679628
 30
0.0
 10
12.3046813926
 20
9.4970358658
 30
0.0
 10
12.3017751255
 20
9.4839894421
 30
0.0
 10
12.2991247616
 20
9.4743663936
 30
0.0
 10
12.2960067669
 20
9.4649143419
 30
0.0
 10
12.2924283301
 20
9.4556548074
 30
0.0
 10
12.2883977015
 20
9.446609206
 30
0.0
 10
12.2839240936
 20
9.4377984144
 30
0.0
 10
12.2790178555
 20
9.4292427429
 30
0.0
 10
12.2736903018
 20
9.420961909
 30
0.0
 10
12.2679536674
 20
9.4129750744
 30
0.0
 10
12.2618211462
 20
9.4053005819
 30
0.0
 10
12.2553071527
 20
9.3979563436
 30
0.0
 10
12.25071926
 20
9.393290851
 30
0.0
 10
12.2483677113
 20
9.3910194433
 30
0.0
  0
SPLINE
  5
37C
100
AcDbEntity
  8
0
100
AcDbSpline
 62
7
  6
CONTINUOUS
 70
0
 71
3
 72
21
 73
17
 74
0
 42
0.0000001
 43
0.0000001
 44
0.0000000001
 40
0.0
 40
0.0
 40
0.0
 40
0.0
 40
0.1273176984
 40
0.2537999461
 40
0.3167619614
 40
0.3795355204
 40
0.4421314992
 40
0.5045621453
 40
0.5668413456
 40
0.6289845231
 40
0.6910084433
 40
0.7529310869
 40
0.8147714401
 40
0.8765493236
 40
0.9382852134
 40
1.0
 40
1.0
 40
1.0
 40
1.0
 10
9.2902043195
 20
6.2426195743
 30
0.0
 10
9.2902043195
 20
6.2358747662
 30
0.0
 10
9.2895604825
 20
6.2224207267
 30
0.0
 10
9.2871288912
 20
6.2057886297
 30
0.0
 10
9.2842226241
 20
6.192742206
 30
0.0
 10
9.2815722602
 20
6.1831191576
 30
0.0
 10
9.2784542655
 20
6.1736671058
 30
0.0
 10
9.2748758288
 20
6.1644075713
 30
0.0
 10
9.2708452001
 20
6.1553619699
 30
0.0
 10
9.2663715922
 20
6.1465511783
 30
0.0
 10
9.2614653541
 20
6.1379955068
 30
0.0
 10
9.2561378005
 20
6.1297146729
 30
0.0
 10
9.2504011661
 20
6.1217278383
 30
0.0
 10
9.2442686448
 20
6.1140533458
 30
0.0
 10
9.2377546514
 20
6.1067091075
 30
0.0
 10
9.2331667586
 20
6.102043615
 30
0.0
 10
9.2308152099
 20
6.0997722072
 30
0.0
  0
SPLINE
  5
37D
100
AcDbEntity
  8
0
100
AcDbSpline
 62
7
  6
CONTINUOUS
 70
0
 71
3
 72
21
 73
17
 74
0
 42
0.0000001
 43
0.0000001
 44
0.0000000001
 40
0.0
 40
0.0
 40
0.0
 40
0.0
 40
0.1273176984
 40
0.2537999461
 40
0.3167619614
 40
0.3795355204
 40
0.4421314992
 40
0.5045621453
 40
0.5668413456
 40
0.6289845231
 40
0.6910084433
 40
0.7529310869
 40
0.8147714401
 40
0.8765493236
 40
0.9382852134
 40
1.0
 40
1.0
 40
1.0
 40
1.0
 10
12.3077568208
 20
6.0333515975
 30
0.0
 10
12.3077568208
 20
6.0266067894
 30
0.0
 10
12.3071129838
 20
6.01315275
 30
0.0
 10
12.3046813926
 20
5.9965206529
 30
0.0
 10
12.3017751255
 20
5.9834742293
 30
0.0
 10
12.2991247616
 20
5.9738511808
 30
0.0
 10
12.2960067669
 20
5.9643991291
 30
0.0
 10
12.2924283301
 20
5.9551395946
 30
0.0
 10
12.2883977015
 20
5.9460939931
 30
0.0
 10
12.2839240936
 20
5.9372832016
 30
0.0
 10
12.2790178555
 20
5.9287275301
 30
0.0
 10
12.2736903018
 20
5.9204466961
 30
0.0
 10
12.2679536674
 20
5.9124598616
 30
0.0
 10
12.2618211462
 20
5.9047853691
 30
0.0
 10
12.2553071527
 20
5.8974411308
 30
0.0
 10
12.25071926
 20
5.8927756382
 30
0.0
 10
12.2483677113
 20
5.8905042304
 30
0.0
  0
SPLINE
  5
37E
100
AcDbEntity
  8
0
100
AcDbSpline
 62
7
  6
CONTINUOUS
 70
0
 71
3
 72
15
 73
11
 74
0
 42
0.0000001
 43
0.0000001
 44
0.0000000001
 40
0.0
 40
0.0
 40
0.0
 40
0.0
 40
0.1269543178
 40
0.2532786498
 40
0.3789933825
 40
0.5041314785
 40
0.6287387446
 40
0.752872521
 40
0.8766006591
 40
1.0
 40
1.0
 40
1.0
 40
1.0
 10
10.0753441822
 20
7.6061488656
 30
0.0
 10
10.0753441822
 20
7.6010924685
 30
0.0
 10
10.0749808023
 20
7.5910008524
 30
0.0
 10
10.073338756
 20
7.5759827544
 30
0.0
 10
10.0706096802
 20
7.5611962347
 30
0.0
 10
10.0668079022
 20
7.546719246
 30
0.0
 10
10.0619535259
 20
7.5326268542
 30
0.0
 10
10.0560719992
 20
7.5189920362
 30
0.0
 10
10.0491950019
 20
7.505886375
 30
0.0
 10
10.0439635121
 20
7.4975356454
 30
0.0
 10
10.0411963369
 20
7.493473863
 30
0.0
  0
SPLINE
  5
37F
100
AcDbEntity
  8
0
100
AcDbSpline
 62
7
  6
CONTINUOUS
 70
0
 71
3
 72
21
 73
17
 74
0
 42
0.0000001
 43
0.0000001
 44
0.0000000001
 40
0.0
 40
0.0
 40
0.0
 40
0.0
 40
0.1273176984
 40
0.2537999461
 40
0.3167619614
 40
0.3795355204
 40
0.4421314992
 40
0.5045621453
 40
0.5668413456
 40
0.6289845231
 40
0.6910084433
 40
0.7529310869
 40
0.8147714401
 40
0.8765493236
 40
0.9382852134
 40
1.0
 40
1.0
 40
1.0
 40
1.0
 10
10.5874428048
 20
7.9937104161
 30
0.0
 10
10.5874428048
 20
7.986965608
 30
0.0
 10
10.5867989678
 20
7.9735115686
 30
0.0
 10
10.5843673765
 20
7.9568794715
 30
0.0
 10
10.5814611094
 20
7.9438330479
 30
0.0
 10
10.5788107455
 20
7.9342099994
 30
0.0
 10
10.5756927508
 20
7.9247579477
 30
0.0
 10
10.5721143141
 20
7.9154984131
 30
0.0
 10
10.5680836854
 20
7.9064528117
 30
0.0
 10
10.5636100775
 20
7.8976420202
 30
0.0
 10
10.5587038394
 20
7.8890863486
 30
0.0
 10
10.5533762858
 20
7.8808055147
 30
0.0
 10
10.5476396514
 20
7.8728186801
 30
0.0
 10
10.5415071301
 20
7.8651441876
 30
0.0
 10
10.5349931367
 20
7.8577999494
 30
0.0
 10
10.5304052439
 20
7.8531344568
 30
0.0
 10
10.5280536952
 20
7.850863049
 30
0.0
  0
SPLINE
  5
380
100
AcDbEntity
  8
0
100
AcDbSpline
 62
7
  6
CONTINUOUS
 70
0
 71
3
 72
39
 73
35
 74
0
 42
0.0000001
 43
0.0000001
 44
0.0000000001
 40
0.0
 40
0.0
 40
0.0
 40
0.0
 40
0.0309587778
 40
0.0620589032
 40
0.0932943586
 40
0.1246578979
 40
0.1561392991
 40
0.1877266849
 40
0.2194063863
 40
0.251163416
 40
0.2829817429
 40
0.3148446332
 40
0.3467349602
 40
0.3786355036
 40
0.4105292257
 40
0.4423995257
 40
0.4742304652
 40
0.5060069651
 40
0.5377149783
 40
0.5693416398
 40
0.6008753947
 40
0.6323061093
 40
0.663625165
 40
0.694825541
 40
0.7259018814
 40
0.7568505479
 40
0.7876696656
 40
0.8183591595
 40
0.8489207795
 40
0.8793581132
 40
0.9096765839
 40
0.9398834283
 40
0.9699876587
 40
1.0
 40
1.0
 40
1.0
 40
1.0
 10
10.7690368184
 20
8.7738766836
 30
0.0
 10
10.7736401672
 20
8.7735574403
 30
0.0
 10
10.7828492494
 20
8.772606697
 30
0.0
 10
10.7965653285
 20
8.7702613383
 30
0.0
 10
10.8101566768
 20
8.7670051511
 30
0.0
 10
10.8235614034
 20
8.7628551193
 30
0.0
 10
10.83672024
 20
8.7578326006
 30
0.0
 10
10.8495755016
 20
8.7519634229
 30
0.0
 10
10.8620718851
 20
8.7452773627
 30
0.0
 10
10.8741566676
 20
8.737807883
 30
0.0
 10
10.8857799926
 20
8.7295917122
 30
0.0
 10
10.8968950599
 20
8.7206684733
 30
0.0
 10
10.9074582642
 20
8.7110802911
 30
0.0
 10
10.9174292791
 20
8.7008714207
 30
0.0
 10
10.926771091
 20
8.6900878931
 30
0.0
 10
10.9354499978
 20
8.6787771921
 30
0.0
 10
10.943435565
 20
8.6669879566
 30
0.0
 10
10.9507005561
 20
8.6547697187
 30
0.0
 10
10.9572208446
 20
8.6421726784
 30
0.0
 10
10.9629753151
 20
8.6292475129
 30
0.0
 10
10.967945759
 20
8.6160452191
 30
0.0
 10
10.9721167705
 20
8.6026169858
 30
0.0
 10
10.9754756483
 20
8.5890140937
 30
0.0
 10
10.9780123131
 20
8.5752878391
 30
0.0
 10
10.9797192358
 20
8.5614894763
 30
0.0
 10
10.9805913709
 20
8.5476701734
 30
0.0
 10
10.9806261188
 20
8.5338809818
 30
0.0
 10
10.9798233041
 20
8.5201728083
 30
0.0
 10
10.97818518
 20
8.5065963959
 30
0.0
 10
10.9757164377
 20
8.4932022739
 30
0.0
 10
10.9724242893
 20
8.4800408013
 30
0.0
 10
10.9683183878
 20
8.467161819
 30
0.0
 10
10.9634114491
 20
8.4546156814
 30
0.0
 10
10.9596100447
 20
8.446493322
 30
0.0
 10
10.957581824
 20
8.4425062074
 30
0.0
  0
SPLINE
  5
381
100
AcDbEntity
  8
0
100
AcDbSpline
 62
7
  6
CONTINUOUS
 70
0
 71
3
 72
15
 73
11
 74
0
 42
0.0000001
 43
0.0000001
 44
0.0000000001
 40
0.0
 40
0.0
 40
0.0
 40
0.0
 40
0.1273482936
 40
0.2538605366
 40
0.3795879111
 40
0.5046050899
 40
0.6290174366
 40
0.7529533732
 40
0.8765605776
 40
1.0
 40
1.0
 40
1.0
 40
1.0
 10
9.8570065436
 20
8.8659044564
 30
0.0
 10
9.8570065436
 20
8.862439681
 30
0.0
 10
9.8566757287
 20
8.8555280866
 30
0.0
 10
9.8551796418
 20
8.8452936252
 30
0.0
 10
9.8526988806
 20
8.8353163185
 30
0.0
 10
9.8492558479
 20
8.8256894743
 30
0.0
 10
9.8448821498
 20
8.8165018691
 30
0.0
 10
9.8396176414
 20
8.8078383417
 30
0.0
 10
9.8335118113
 20
8.7997800813
 30
0.0
 10
9.8289144428
 20
8.7948576266
 30
0.0
 10
9.8264988691
 20
8.7925243818
 30
0.0
  0
SPLINE
  5
382
100
AcDbEntity
  8
0
100
AcDbSpline
 62
7
  6
CONTINUOUS
 70
0
 71
3
 72
23
 73
19
 74
0
 42
0.0000001
 43
0.0000001
 44
0.0000000001
 40
0.0
 40
0.0
 40
0.0
 40
0.0
 40
0.0614488807
 40
0.1232974294
 40
0.1855193177
 40
0.2480712672
 40
0.3108995318
 40
0.3739401513
 40
0.4371217414
 40
0.5003679843
 40
0.5636003151
 40
0.6267406524
 40
0.6897141172
 40
0.7524516838
 40
0.8148926113
 40
0.8769871451
 40
0.9386966623
 40
1.0
 40
1.0
 40
1.0
 40
1.0
 10
9.7483398817
 20
8.9821071769
 30
0.0
 10
9.7519065749
 20
8.9818598258
 30
0.0
 10
9.7590435198
 20
8.9810120275
 30
0.0
 10
9.7696051117
 20
8.9787093948
 30
0.0
 10
9.7799619849
 20
8.9753938828
 30
0.0
 10
9.7900133921
 20
8.971097613
 30
0.0
 10
9.799663209
 20
8.9658621199
 30
0.0
 10
9.8088187593
 20
8.9597378203
 30
0.0
 10
9.8173922422
 20
8.9527836378
 30
0.0
 10
9.8253014017
 20
8.9450663996
 30
0.0
 10
9.8324703331
 20
8.9366602009
 30
0.0
 10
9.8388301871
 20
8.9276457061
 30
0.0
 10
9.8443198197
 20
8.9181094008
 30
0.0
 10
9.8488863731
 20
8.9081427458
 30
0.0
 10
9.8524858332
 20
8.8978414708
 30
0.0
 10
9.8550833078
 20
8.887304123
 30
0.0
 10
9.8566536401
 20
8.8766332217
 30
0.0
 10
9.8570065436
 20
8.869471248
 30
0.0
 10
9.8570065436
 20
8.8659044564
 30
0.0
  0
SPLINE
  5
383
100
AcDbEntity
  8
0
100
AcDbSpline
 62
7
  6
CONTINUOUS
 70
0
 71
3
 72
15
 73
11
 74
0
 42
0.0000001
 43
0.0000001
 44
0.0000000001
 40
0.0
 40
0.0
 40
0.0
 40
0.0
 40
0.1273482936
 40
0.2538605366
 40
0.3795879111
 40
0.5046050899
 40
0.6290174366
 40
0.7529533732
 40
0.8765605776
 40
1.0
 40
1.0
 40
1.0
 40
1.0
 10
11.9095990461
 20
8.7235566828
 30
0.0
 10
11.9095990461
 20
8.7200919075
 30
0.0
 10
11.9092682312
 20
8.7131803131
 30
0.0
 10
11.9077721443
 20
8.7029458516
 30
0.0
 10
11.9052913831
 20
8.692968545
 30
0.0
 10
11.9018483504
 20
8.6833417007
 30
0.0
 10
11.8974746523
 20
8.6741540956
 30
0.0
 10
11.8922101439
 20
8.6654905682
 30
0.0
 10
11.8861043138
 20
8.6574323077
 30
0.0
 10
11.8815069453
 20
8.6525098531
 30
0.0
 10
11.8790913716
 20
8.6501766083
 30
0.0
  0
SPLINE
  5
384
100
AcDbEntity
  8
0
100
AcDbSpline
 62
7
  6
CONTINUOUS
 70
0
 71
3
 72
23
 73
19
 74
0
 42
0.0000001
 43
0.0000001
 44
0.0000000001
 40
0.0
 40
0.0
 40
0.0
 40
0.0
 40
0.0614488807
 40
0.1232974294
 40
0.1855193177
 40
0.2480712672
 40
0.3108995318
 40
0.3739401513
 40
0.4371217414
 40
0.5003679843
 40
0.5636003151
 40
0.6267406524
 40
0.6897141172
 40
0.7524516838
 40
0.8148926113
 40
0.8769871451
 40
0.9386966623
 40
1.0
 40
1.0
 40
1.0
 40
1.0
 10
11.8009323842
 20
8.8397594033
 30
0.0
 10
11.8044990773
 20
8.8395120523
 30
0.0
 10
11.8116360222
 20
8.8386642539
 30
0.0
 10
11.8221976142
 20
8.8363616213
 30
0.0
 10
11.8325544874
 20
8.8330461093
 30
0.0
 10
11.8426058946
 20
8.8287498395
 30
0.0
 10
11.8522557114
 20
8.8235143464
 30
0.0
 10
11.8614112618
 20
8.8173900467
 30
0.0
 10
11.8699847446
 20
8.8104358643
 30
0.0
 10
11.8778939042
 20
8.8027186261
 30
0.0
 10
11.8850628356
 20
8.7943124273
 30
0.0
 10
11.8914226896
 20
8.7852979325
 30
0.0
 10
11.8969123222
 20
8.7757616272
 30
0.0
 10
11.9014788756
 20
8.7657949722
 30
0.0
 10
11.9050783357
 20
8.7554936973
 30
0.0
 10
11.9076758103
 20
8.7449563495
 30
0.0
 10
11.9092461426
 20
8.7342854482
 30
0.0
 10
11.9095990461
 20
8.7271234745
 30
0.0
 10
11.9095990461
 20
8.7235566828
 30
0.0
  0
SPLINE
  5
385
100
AcDbEntity
  8
0
100
AcDbSpline
 62
7
  6
CONTINUOUS
 70
0
 71
3
 72
15
 73
11
 74
0
 42
0.0000001
 43
0.0000001
 44
0.0000000001
 40
0.0
 40
0.0
 40
0.0
 40
0.0
 40
0.1273482936
 40
0.2538605366
 40
0.3795879111
 40
0.5046050899
 40
0.6290174366
 40
0.7529533732
 40
0.8765605776
 40
1.0
 40
1.0
 40
1.0
 40
1.0
 10
9.8570065436
 20
7.1146808645
 30
0.0
 10
9.8570065436
 20
7.1112160892
 30
0.0
 10
9.8566757287
 20
7.1043044948
 30
0.0
 10
9.8551796418
 20
7.0940700333
 30
0.0
 10
9.8526988806
 20
7.0840927267
 30
0.0
 10
9.8492558479
 20
7.0744658825
 30
0.0
 10
9.8448821498
 20
7.0652782773
 30
0.0
 10
9.8396176414
 20
7.0566147499
 30
0.0
 10
9.8335118113
 20
7.0485564894
 30
0.0
 10
9.8289144428
 20
7.0436340348
 30
0.0
 10
9.8264988691
 20
7.04130079
 30
0.0
  0
SPLINE
  5
386
100
AcDbEntity
  8
0
100
AcDbSpline
 62
7
  6
CONTINUOUS
 70
0
 71
3
 72
23
 73
19
 74
0
 42
0.0000001
 43
0.0000001
 44
0.0000000001
 40
0.0
 40
0.0
 40
0.0
 40
0.0
 40
0.0614488807
 40
0.1232974294
 40
0.1855193177
 40
0.2480712672
 40
0.3108995318
 40
0.3739401513
 40
0.4371217414
 40
0.5003679843
 40
0.5636003151
 40
0.6267406524
 40
0.6897141172
 40
0.7524516838
 40
0.8148926113
 40
0.8769871451
 40
0.9386966623
 40
1.0
 40
1.0
 40
1.0
 40
1.0
 10
9.7483398817
 20
7.230883585
 30
0.0
 10
9.7519065749
 20
7.230636234
 30
0.0
 10
9.7590435198
 20
7.2297884356
 30
0.0
 10
9.7696051117
 20
7.227485803
 30
0.0
 10
9.7799619849
 20
7.224170291
 30
0.0
 10
9.7900133921
 20
7.2198740212
 30
0.0
 10
9.799663209
 20
7.2146385281
 30
0.0
 10
9.8088187593
 20
7.2085142284
 30
0.0
 10
9.8173922422
 20
7.201560046
 30
0.0
 10
9.8253014017
 20
7.1938428078
 30
0.0
 10
9.8324703331
 20
7.185436609
 30
0.0
 10
9.8388301871
 20
7.1764221142
 30
0.0
 10
9.8443198197
 20
7.1668858089
 30
0.0
 10
9.8488863731
 20
7.156919154
 30
0.0
 10
9.8524858332
 20
7.146617879
 30
0.0
 10
9.8550833078
 20
7.1360805312
 30
0.0
 10
9.8566536401
 20
7.1254096299
 30
0.0
 10
9.8570065436
 20
7.1182476562
 30
0.0
 10
9.8570065436
 20
7.1146808645
 30
0.0
  0
SPLINE
  5
387
100
AcDbEntity
  8
0
100
AcDbSpline
 62
7
  6
CONTINUOUS
 70
0
 71
3
 72
15
 73
11
 74
0
 42
0.0000001
 43
0.0000001
 44
0.0000000001
 40
0.0
 40
0.0
 40
0.0
 40
0.0
 40
0.1273482936
 40
0.2538605366
 40
0.3795879111
 40
0.5046050899
 40
0.6290174366
 40
0.7529533732
 40
0.8765605776
 40
1.0
 40
1.0
 40
1.0
 40
1.0
 10
11.9095990461
 20
6.972333091
 30
0.0
 10
11.9095990461
 20
6.9688683157
 30
0.0
 10
11.9092682312
 20
6.9619567213
 30
0.0
 10
11.9077721443
 20
6.9517222598
 30
0.0
 10
11.9052913831
 20
6.9417449531
 30
0.0
 10
11.9018483504
 20
6.9321181089
 30
0.0
 10
11.8974746523
 20
6.9229305037
 30
0.0
 10
11.8922101439
 20
6.9142669764
 30
0.0
 10
11.8861043138
 20
6.9062087159
 30
0.0
 10
11.8815069453
 20
6.9012862613
 30
0.0
 10
11.8790913716
 20
6.8989530165
 30
0.0
  0
SPLINE
  5
388
100
AcDbEntity
  8
0
100
AcDbSpline
 62
7
  6
CONTINUOUS
 70
0
 71
3
 72
23
 73
19
 74
0
 42
0.0000001
 43
0.0000001
 44
0.0000000001
 40
0.0
 40
0.0
 40
0.0
 40
0.0
 40
0.0614488807
 40
0.1232974294
 40
0.1855193177
 40
0.2480712672
 40
0.3108995318
 40
0.3739401513
 40
0.4371217414
 40
0.5003679843
 40
0.5636003151
 40
0.6267406524
 40
0.6897141172
 40
0.7524516838
 40
0.8148926113
 40
0.8769871451
 40
0.9386966623
 40
1.0
 40
1.0
 40
1.0
 40
1.0
 10
11.8009323842
 20
7.0885358115
 30
0.0
 10
11.8044990773
 20
7.0882884605
 30
0.0
 10
11.8116360222
 20
7.0874406621
 30
0.0
 10
11.8221976142
 20
7.0851380294
 30
0.0
 10
11.8325544874
 20
7.0818225175
 30
0.0
 10
11.8426058946
 20
7.0775262477
 30
0.0
 10
11.8522557114
 20
7.0722907545
 30
0.0
 10
11.8614112618
 20
7.0661664549
 30
0.0
 10
11.8699847446
 20
7.0592122725
 30
0.0
 10
11.8778939042
 20
7.0514950343
 30
0.0
 10
11.8850628356
 20
7.0430888355
 30
0.0
 10
11.8914226896
 20
7.0340743407
 30
0.0
 10
11.8969123222
 20
7.0245380354
 30
0.0
 10
11.9014788756
 20
7.0145713804
 30
0.0
 10
11.9050783357
 20
7.0042701055
 30
0.0
 10
11.9076758103
 20
6.9937327576
 30
0.0
 10
11.9092461426
 20
6.9830618564
 30
0.0
 10
11.9095990461
 20
6.9758998827
 30
0.0
 10
11.9095990461
 20
6.972333091
 30
0.0
  0
SPLINE
  5
389
100
AcDbEntity
  8
0
100
AcDbSpline
 62
7
  6
CONTINUOUS
 70
0
 71
3
 72
15
 73
11
 74
0
 42
0.0000001
 43
0.0000001
 44
0.0000000001
 40
0.0
 40
0.0
 40
0.0
 40
0.0
 40
0.1453404775
 40
0.2839999347
 40
0.4163082429
 40
0.5426780151
 40
0.6636081764
 40
0.779679403
 40
0.891558747
 40
1.0
 40
1.0
 40
1.0
 40
1.0
 10
13.0870328732
 20
9.2263927168
 30
0.0
 10
13.0880296325
 20
9.2273555124
 30
0.0
 10
13.0900223494
 20
9.2291911083
 30
0.0
 10
13.0930825544
 20
9.2317224819
 30
0.0
 10
13.0961401443
 20
9.2339636651
 30
0.0
 10
13.0991932616
 20
9.2359128973
 30
0.0
 10
13.1022402325
 20
9.2375687822
 30
0.0
 10
13.1052795563
 20
9.2389298838
 30
0.0
 10
13.1083090398
 20
9.2399948764
 30
0.0
 10
13.1103483991
 20
9.2405134516
 30
0.0
 10
13.1113614954
 20
9.2407202548
 30
0.0
  0
SPLINE
  5
38A
100
AcDbEntity
  8
0
100
AcDbSpline
 62
7
  6
CONTINUOUS
 70
0
 71
3
 72
73
 73
69
 74
0
 42
0.0000001
 43
0.0000001
 44
0.0000000001
 40
0.0
 40
0.0
 40
0.0
 40
0.0
 40
0.0039234929
 40
0.008008861
 40
0.0122595496
 40
0.0166784293
 40
0.0212679351
 40
0.0260300218
 40
0.0309660623
 40
0.0360768903
 40
0.0468238455
 40
0.0582712309
 40
0.0704138386
 40
0.0832424075
 40
0.0967442057
 40
0.1109035182
 40
0.1257020404
 40
0.1411191497
 40
0.1571321104
 40
0.1737163263
 40
0.1908455176
 40
0.2084918349
 40
0.2266259987
 40
0.2452174573
 40
0.2642344882
 40
0.2836442741
 40
0.3034130341
 40
0.3235061305
 40
0.364522239
 40
0.4064023271
 40
0.4488473252
 40
0.4915529658
 40
0.5342126033
 40
0.5765200123
 40
0.6181721903
 40
0.6588721577
 40
0.6787750135
 40
0.6983326667
 40
0.71751097
 40
0.7362767276
 40
0.754597769
 40
0.7724430399
 40
0.7897827391
 40
0.806588452
 40
0.8228332431
 40
0.8384917983
 40
0.8535406375
 40
0.8679582787
 40
0.8817254333
 40
0.8948252981
 40
0.9072439298
 40
0.9189706153
 40
0.929998401
 40
0.9403248473
 40
0.9499529613
 40
0.9545083681
 40
0.9588934897
 40
0.9631108284
 40
0.9671636081
 40
0.9710557421
 40
0.9747919789
 40
0.9783780499
 40
0.9818206828
 40
0.9851278071
 40
0.9883086524
 40
0.9943317843
 40
0.9972033474
 40
1.0
 40
1.0
 40
1.0
 40
1.0
 10
13.0870328732
 20
9.2263927168
 30
0.0
 10
13.0861271472
 20
9.2255178527
 30
0.0
 10
13.0843166213
 20
9.2236920296
 30
0.0
 10
13.0816562194
 20
9.2207918308
 30
0.0
 10
13.0789984483
 20
9.217677076
 30
0.0
 10
13.0763447506
 20
9.2143493733
 30
0.0
 10
13.073696284
 20
9.2108103263
 30
0.0
 10
13.0710542861
 20
9.2070615446
 30
0.0
 10
13.0684199369
 20
9.2031047726
 30
0.0
 10
13.0648595408
 20
9.1974593066
 30
0.0
 10
13.0604462822
 20
9.1898844328
 30
0.0
 10
13.0552858739
 20
9.1801439079
 30
0.0
 10
13.0501855544
 20
9.169624226
 30
0.0
 10
13.0451550761
 20
9.158345316
 30
0.0
 10
13.0402040275
 20
9.146328394
 30
0.0
 10
13.0353418971
 20
9.1335962411
 30
0.0
 10
13.0305780313
 20
9.1201730256
 30
0.0
 10
13.0259216031
 20
9.1060842914
 30
0.0
 10
13.0213815556
 20
9.0913569033
 30
0.0
 10
13.0169666238
 20
9.0760189703
 30
0.0
 10
13.0126853149
 20
9.0600997823
 30
0.0
 10
13.0085458661
 20
9.0436297671
 30
0.0
 10
13.0045562281
 20
9.0266404268
 30
0.0
 10
13.0007240766
 20
9.0091642613
 30
0.0
 10
12.9970567909
 20
8.9912347061
 30
0.0
 10
12.9935614181
 20
8.9728860892
 30
0.0
 10
12.9902446396
 20
8.9541535143
 30
0.0
 10
12.986040318
 20
8.9285376673
 30
0.0
 10
12.9812862814
 20
8.8958231552
 30
0.0
 10
12.9764229323
 20
8.8558862177
 30
0.0
 10
12.9724004408
 20
8.8153108832
 30
0.0
 10
12.9692496822
 20
8.7744077173
 30
0.0
 10
12.9669948236
 20
8.7334896111
 30
0.0
 10
12.9656530254
 20
8.6928695718
 30
0.0
 10
12.9652343979
 20
8.6528585179
 30
0.0
 10
12.9656601509
 20
8.6200387337
 30
0.0
 10
12.9664751104
 20
8.5943233245
 30
0.0
 10
12.9673123815
 20
8.5755211065
 30
0.0
 10
12.9683785243
 20
8.5570960229
 30
0.0
 10
12.969671485
 20
8.5390833143
 30
0.0
 10
12.9711887457
 20
8.5215174637
 30
0.0
 10
12.9729273781
 20
8.5044320867
 30
0.0
 10
12.9748840161
 20
8.4878598689
 30
0.0
 10
12.9770548555
 20
8.4718324945
 30
0.0
 10
12.9794356902
 20
8.4563805953
 30
0.0
 10
12.9820219239
 20
8.4415336873
 30
0.0
 10
12.9848085372
 20
8.427320095
 30
0.0
 10
12.9877901253
 20
8.4137668956
 30
0.0
 10
12.9909609263
 20
8.400899872
 30
0.0
 10
12.9943148298
 20
8.3887434446
 30
0.0
 10
12.997845361
 20
8.3773205809
 30
0.0
 10
13.0015457477
 20
8.3666527961
 30
0.0
 10
13.0054089981
 20
8.3567599414
 30
0.0
 10
13.0094278292
 20
8.3476606466
 30
0.0
 10
13.012962797
 20
8.3406283127
 30
0.0
 10
13.0158719848
 20
8.3354260219
 30
0.0
 10
13.0180476467
 20
8.3318056518
 30
0.0
 10
13.0202564558
 20
8.3283960211
 30
0.0
 10
13.0224973886
 20
8.3251986898
 30
0.0
 10
13.0247694572
 20
8.3222151699
 30
0.0
 10
13.0270716832
 20
8.3194468955
 30
0.0
 10
13.0294030393
 20
8.3168951219
 30
0.0
 10
13.0317624884
 20
8.3145611779
 30
0.0
 10
13.0341493734
 20
8.312446022
 30
0.0
 10
13.0373083588
 20
8.309964787
 30
0.0
 10
13.0405809908
 20
8.3078610002
 30
0.0
 10
13.0439472581
 20
8.3061965753
 30
0.0
 10
13.0456381198
 20
8.3055188868
 30
0.0
 10
13.0464843781
 20
8.3052196855
 30
0.0
  0
SPLINE
  5
38B
100
AcDbEntity
  8
0
100
AcDbSpline
 62
7
  6
CONTINUOUS
 70
0
 71
3
 72
15
 73
11
 74
0
 42
0.0000001
 43
0.0000001
 44
0.0000000001
 40
0.0
 40
0.0
 40
0.0
 40
0.0
 40
0.1453404775
 40
0.2839999347
 40
0.4163082429
 40
0.5426780151
 40
0.6636081764
 40
0.779679403
 40
0.891558747
 40
1.0
 40
1.0
 40
1.0
 40
1.0
 10
12.8119084647
 20
7.6170399941
 30
0.0
 10
12.812905224
 20
7.6180027898
 30
0.0
 10
12.8148979409
 20
7.6198383856
 30
0.0
 10
12.8179581459
 20
7.6223697593
 30
0.0
 10
12.8210157358
 20
7.6246109424
 30
0.0
 10
12.8240688531
 20
7.6265601746
 30
0.0
 10
12.827115824
 20
7.6282160596
 30
0.0
 10
12.8301551478
 20
7.6295771612
 30
0.0
 10
12.8331846312
 20
7.6306421538
 30
0.0
 10
12.8352239906
 20
7.631160729
 30
0.0
 10
12.8362370869
 20
7.6313675322
 30
0.0
  0
SPLINE
  5
38C
100
AcDbEntity
  8
0
100
AcDbSpline
 62
7
  6
CONTINUOUS
 70
0
 71
3
 72
73
 73
69
 74
0
 42
0.0000001
 43
0.0000001
 44
0.0000000001
 40
0.0
 40
0.0
 40
0.0
 40
0.0
 40
0.0039234929
 40
0.008008861
 40
0.0122595496
 40
0.0166784293
 40
0.0212679351
 40
0.0260300218
 40
0.0309660623
 40
0.0360768903
 40
0.0468238455
 40
0.0582712309
 40
0.0704138386
 40
0.0832424075
 40
0.0967442057
 40
0.1109035182
 40
0.1257020404
 40
0.1411191497
 40
0.1571321104
 40
0.1737163263
 40
0.1908455176
 40
0.2084918349
 40
0.2266259987
 40
0.2452174573
 40
0.2642344882
 40
0.2836442741
 40
0.3034130341
 40
0.3235061305
 40
0.364522239
 40
0.4064023271
 40
0.4488473252
 40
0.4915529658
 40
0.5342126033
 40
0.5765200123
 40
0.6181721903
 40
0.6588721577
 40
0.6787750135
 40
0.6983326667
 40
0.71751097
 40
0.7362767276
 40
0.754597769
 40
0.7724430399
 40
0.7897827391
 40
0.806588452
 40
0.8228332431
 40
0.8384917983
 40
0.8535406375
 40
0.8679582787
 40
0.8817254333
 40
0.8948252981
 40
0.9072439298
 40
0.9189706153
 40
0.929998401
 40
0.9403248473
 40
0.9499529613
 40
0.9545083681
 40
0.9588934897
 40
0.9631108284
 40
0.9671636081
 40
0.9710557421
 40
0.9747919789
 40
0.9783780499
 40
0.9818206828
 40
0.9851278071
 40
0.9883086524
 40
0.9943317843
 40
0.9972033474
 40
1.0
 40
1.0
 40
1.0
 40
1.0
 10
12.8119084647
 20
7.6170399941
 30
0.0
 10
12.8110027387
 20
7.61616513
 30
0.0
 10
12.8091922128
 20
7.614339307
 30
0.0
 10
12.8065318108
 20
7.6114391082
 30
0.0
 10
12.8038740398
 20
7.6083243533
 30
0.0
 10
12.8012203421
 20
7.6049966506
 30
0.0
 10
12.7985718755
 20
7.6014576036
 30
0.0
 10
12.7959298776
 20
7.5977088219
 30
0.0
 10
12.7932955284
 20
7.59375205
 30
0.0
 10
12.7897351322
 20
7.5881065839
 30
0.0
 10
12.7853218737
 20
7.5805317101
 30
0.0
 10
12.7801614654
 20
7.5707911852
 30
0.0
 10
12.7750611459
 20
7.5602715034
 30
0.0
 10
12.7700306676
 20
7.5489925933
 30
0.0
 10
12.765079619
 20
7.5369756713
 30
0.0
 10
12.7602174886
 20
7.5242435184
 30
0.0
 10
12.7554536228
 20
7.510820303
 30
0.0
 10
12.7507971946
 20
7.4967315687
 30
0.0
 10
12.746257147
 20
7.4820041806
 30
0.0
 10
12.7418422153
 20
7.4666662476
 30
0.0
 10
12.7375609064
 20
7.4507470597
 30
0.0
 10
12.7334214575
 20
7.4342770444
 30
0.0
 10
12.7294318196
 20
7.4172877041
 30
0.0
 10
12.7255996681
 20
7.3998115386
 30
0.0
 10
12.7219323824
 20
7.3818819834
 30
0.0
 10
12.7184370096
 20
7.3635333665
 30
0.0
 10
12.7151202311
 20
7.3448007916
 30
0.0
 10
12.7109159095
 20
7.3191849446
 30
0.0
 10
12.7061618729
 20
7.2864704325
 30
0.0
 10
12.7012985238
 20
7.246533495
 30
0.0
 10
12.6972760323
 20
7.2059581605
 30
0.0
 10
12.6941252737
 20
7.1650549946
 30
0.0
 10
12.691870415
 20
7.1241368885
 30
0.0
 10
12.6905286169
 20
7.0835168492
 30
0.0
 10
12.6901099893
 20
7.0435057953
 30
0.0
 10
12.6905357423
 20
7.010686011
 30
0.0
 10
12.6913507019
 20
6.9849706018
 30
0.0
 10
12.692187973
 20
6.9661683839
 30
0.0
 10
12.6932541158
 20
6.9477433002
 30
0.0
 10
12.6945470765
 20
6.9297305917
 30
0.0
 10
12.6960643372
 20
6.912164741
 30
0.0
 10
12.6978029696
 20
6.895079364
 30
0.0
 10
12.6997596076
 20
6.8785071462
 30
0.0
 10
12.701930447
 20
6.8624797718
 30
0.0
 10
12.7043112817
 20
6.8470278726
 30
0.0
 10
12.7068975154
 20
6.8321809647
 30
0.0
 10
12.7096841286
 20
6.8179673723
 30
0.0
 10
12.7126657168
 20
6.804414173
 30
0.0
 10
12.7158365178
 20
6.7915471494
 30
0.0
 10
12.7191904213
 20
6.7793907219
 30
0.0
 10
12.7227209525
 20
6.7679678583
 30
0.0
 10
12.7264213392
 20
6.7573000734
 30
0.0
 10
12.7302845895
 20
6.7474072188
 30
0.0
 10
12.7343034206
 20
6.738307924
 30
0.0
 10
12.7378383885
 20
6.73127559
 30
0.0
 10
12.7407475763
 20
6.7260732992
 30
0.0
 10
12.7429232382
 20
6.7224529291
 30
0.0
 10
12.7451320473
 20
6.7190432984
 30
0.0
 10
12.74737298
 20
6.7158459672
 30
0.0
 10
12.7496450487
 20
6.7128624472
 30
0.0
 10
12.7519472747
 20
6.7100941729
 30
0.0
 10
12.7542786308
 20
6.7075423992
 30
0.0
 10
12.7566380799
 20
6.7052084552
 30
0.0
 10
12.7590249649
 20
6.7030932993
 30
0.0
 10
12.7621839503
 20
6.7006120643
 30
0.0
 10
12.7654565823
 20
6.6985082775
 30
0.0
 10
12.7688228496
 20
6.6968438526
 30
0.0
 10
12.7705137113
 20
6.6961661642
 30
0.0
 10
12.7713599696
 20
6.6958669629
 30
0.0
  0
SPLINE
  5
38D
100
AcDbEntity
  8
0
100
AcDbSpline
 62
7
  6
CONTINUOUS
 70
0
 71
3
 72
55
 73
51
 74
0
 42
0.0000001
 43
0.0000001
 44
0.0000000001
 40
0.0
 40
0.0
 40
0.0
 40
0.0
 40
0.007740541
 40
0.0160543931
 40
0.0249605924
 40
0.0344721052
 40
0.0445954559
 40
0.055332388
 40
0.0666806963
 40
0.0786347534
 40
0.0911861103
 40
0.1043236936
 40
0.1180343161
 40
0.1323027986
 40
0.1471121615
 40
0.1624439301
 40
0.1782780821
 40
0.1945933439
 40
0.2285751198
 40
0.2641976008
 40
0.3012530076
 40
0.3395210878
 40
0.3787713764
 40
0.4187653272
 40
0.4592583689
 40
0.5000019404
 40
0.5407454947
 40
0.5812384831
 40
0.6212323429
 40
0.6604825104
 40
0.6987504406
 40
0.7358056642
 40
0.7714279223
 40
0.8054094469
 40
0.8217245906
 40
0.837558595
 40
0.8528902182
 40
0.867699441
 40
0.8819677541
 40
0.895678233
 40
0.9088156452
 40
0.9213668299
 40
0.9333207299
 40
0.9446688551
 40
0.9554056317
 40
0.9655287768
 40
0.9750401376
 40
0.9839462789
 40
0.9922596607
 40
1.0
 40
1.0
 40
1.0
 40
1.0
 10
10.5498127129
 20
10.6979112025
 30
0.0
 10
10.5487595054
 20
10.6969311421
 30
0.0
 10
10.5464922532
 20
10.6949863662
 30
0.0
 10
10.5427729348
 20
10.692208791
 30
0.0
 10
10.5386225102
 20
10.6894731046
 30
0.0
 10
10.5340478045
 20
10.686783666
 30
0.0
 10
10.5290558956
 20
10.6841444648
 30
0.0
 10
10.5236547324
 20
10.6815597829
 30
0.0
 10
10.5178529908
 20
10.6790337668
 30
0.0
 10
10.5116600425
 20
10.6765705094
 30
0.0
 10
10.5050859252
 20
10.6741741033
 30
0.0
 10
10.4981413629
 20
10.6718484498
 30
0.0
 10
10.4908376964
 20
10.6695974183
 30
0.0
 10
10.4831868843
 20
10.6674247376
 30
0.0
 10
10.4752014763
 20
10.6653339749
 30
0.0
 10
10.4668945815
 20
10.663328645
 30
0.0
 10
10.4582798419
 20
10.6614120035
 30
0.0
 10
10.4462381164
 20
10.6589455842
 30
0.0
 10
10.4305182503
 20
10.6561197764
 30
0.0
 10
10.4109122477
 20
10.6531725261
 30
0.0
 10
10.3904449698
 20
10.6506445348
 30
0.0
 10
10.3692511144
 20
10.6485526923
 30
0.0
 10
10.3474700281
 20
10.6469110229
 30
0.0
 10
10.3252450613
 20
10.6457305118
 30
0.0
 10
10.3027225178
 20
10.6450190503
 30
0.0
 10
10.2800506941
 20
10.6447813887
 30
0.0
 10
10.257378881
 20
10.645019115
 30
0.0
 10
10.2348563695
 20
10.6457306435
 30
0.0
 10
10.2126314558
 20
10.6469112242
 30
0.0
 10
10.1908504418
 20
10.6485529568
 30
0.0
 10
10.1696566772
 20
10.6506448594
 30
0.0
 10
10.1491895107
 20
10.6531729095
 30
0.0
 10
10.1295836402
 20
10.6561202183
 30
0.0
 10
10.1138638959
 20
10.6589460812
 30
0.0
 10
10.1018222736
 20
10.6614125255
 30
0.0
 10
10.0932076194
 20
10.663329199
 30
0.0
 10
10.0849008135
 20
10.6653345537
 30
0.0
 10
10.076915497
 20
10.6674253327
 30
0.0
 10
10.0692647822
 20
10.6695980476
 30
0.0
 10
10.0619612129
 20
10.6718490888
 30
0.0
 10
10.0550167547
 20
10.6741747688
 30
0.0
 10
10.0484427449
 20
10.676571198
 30
0.0
 10
10.0422499013
 20
10.6790344614
 30
0.0
 10
10.0364482745
 20
10.6815605106
 30
0.0
 10
10.0310472257
 20
10.6841451967
 30
0.0
 10
10.0260554304
 20
10.6867844097
 30
0.0
 10
10.0214808335
 20
10.6894738811
 30
0.0
 10
10.0173305578
 20
10.692209564
 30
0.0
 10
10.0136113914
 20
10.6949871143
 30
0.0
 10
10.0113442589
 20
10.6969318396
 30
0.0
 10
10.0102911075
 20
10.6979119054
 30
0.0
  0
SPLINE
  5
38E
100
AcDbEntity
  8
0
100
AcDbSpline
 62
7
  6
CONTINUOUS
 70
0
 71
3
 72
55
 73
51
 74
0
 42
0.0000001
 43
0.0000001
 44
0.0000000001
 40
0.0
 40
0.0
 40
0.0
 40
0.0
 40
0.007740541
 40
0.0160543931
 40
0.0249605924
 40
0.0344721052
 40
0.0445954559
 40
0.055332388
 40
0.0666806963
 40
0.0786347534
 40
0.0911861103
 40
0.1043236936
 40
0.1180343161
 40
0.1323027986
 40
0.1471121615
 40
0.1624439301
 40
0.1782780821
 40
0.1945933439
 40
0.2285751198
 40
0.2641976008
 40
0.3012530076
 40
0.3395210878
 40
0.3787713764
 40
0.4187653272
 40
0.4592583689
 40
0.5000019404
 40
0.5407454947
 40
0.5812384831
 40
0.6212323429
 40
0.6604825104
 40
0.6987504406
 40
0.7358056642
 40
0.7714279223
 40
0.8054094469
 40
0.8217245906
 40
0.837558595
 40
0.8528902182
 40
0.867699441
 40
0.8819677541
 40
0.895678233
 40
0.9088156452
 40
0.9213668299
 40
0.9333207299
 40
0.9446688551
 40
0.9554056317
 40
0.9655287768
 40
0.9750401376
 40
0.9839462789
 40
0.9922596607
 40
1.0
 40
1.0
 40
1.0
 40
1.0
 10
11.3302272254
 20
10.3257338525
 30
0.0
 10
11.3291740178
 20
10.324753792
 30
0.0
 10
11.3269067656
 20
10.3228090161
 30
0.0
 10
11.3231874473
 20
10.3200314409
 30
0.0
 10
11.3190370227
 20
10.3172957546
 30
0.0
 10
11.314462317
 20
10.3146063159
 30
0.0
 10
11.309470408
 20
10.3119671148
 30
0.0
 10
11.3040692449
 20
10.3093824328
 30
0.0
 10
11.2982675032
 20
10.3068564167
 30
0.0
 10
11.292074555
 20
10.3043931594
 30
0.0
 10
11.2855004376
 20
10.3019967532
 30
0.0
 10
11.2785558753
 20
10.2996710998
 30
0.0
 10
11.2712522088
 20
10.2974200683
 30
0.0
 10
11.2636013968
 20
10.2952473876
 30
0.0
 10
11.2556159887
 20
10.2931566249
 30
0.0
 10
11.2473090939
 20
10.291151295
 30
0.0
 10
11.2386943543
 20
10.2892346535
 30
0.0
 10
11.2266526289
 20
10.2867682341
 30
0.0
 10
11.2109327627
 20
10.2839424263
 30
0.0
 10
11.1913267601
 20
10.280995176
 30
0.0
 10
11.1708594822
 20
10.2784671847
 30
0.0
 10
11.1496656269
 20
10.2763753422
 30
0.0
 10
11.1278845405
 20
10.2747336728
 30
0.0
 10
11.1056595738
 20
10.2735531618
 30
0.0
 10
11.0831370302
 20
10.2728417002
 30
0.0
 10
11.0604652065
 20
10.2726040386
 30
0.0
 10
11.0377933934
 20
10.272841765
 30
0.0
 10
11.0152708819
 20
10.2735532934
 30
0.0
 10
10.9930459683
 20
10.2747338742
 30
0.0
 10
10.9712649542
 20
10.2763756067
 30
0.0
 10
10.9500711896
 20
10.2784675094
 30
0.0
 10
10.9296040231
 20
10.2809955594
 30
0.0
 10
10.9099981526
 20
10.2839428682
 30
0.0
 10
10.8942784084
 20
10.2867687311
 30
0.0
 10
10.8822367861
 20
10.2892351754
 30
0.0
 10
10.8736221319
 20
10.2911518489
 30
0.0
 10
10.8653153259
 20
10.2931572037
 30
0.0
 10
10.8573300094
 20
10.2952479826
 30
0.0
 10
10.8496792947
 20
10.2974206976
 30
0.0
 10
10.8423757253
 20
10.2996717387
 30
0.0
 10
10.8354312671
 20
10.3019974188
 30
0.0
 10
10.8288572574
 20
10.3043938479
 30
0.0
 10
10.8226644138
 20
10.3068571113
 30
0.0
 10
10.816862787
 20
10.3093831605
 30
0.0
 10
10.8114617382
 20
10.3119678466
 30
0.0
 10
10.8064699429
 20
10.3146070597
 30
0.0
 10
10.8018953459
 20
10.317296531
 30
0.0
 10
10.7977450703
 20
10.3200322139
 30
0.0
 10
10.7940259039
 20
10.3228097643
 30
0.0
 10
10.7917587714
 20
10.3247544896
 30
0.0
 10
10.79070562
 20
10.3257345553
 30
0.0
  0
SPLINE
  5
38F
100
AcDbEntity
  8
0
100
AcDbSpline
 62
7
  6
CONTINUOUS
 70
0
 71
3
 72
18
 73
14
 74
0
 42
0.0000001
 43
0.0000001
 44
0.0000000001
 40
0.0
 40
0.0
 40
0.0
 40
0.0
 40
0.0548626755
 40
0.1099292576
 40
0.1654013202
 40
0.2214755501
 40
0.3361333804
 40
0.4553634196
 40
0.5171048815
 40
0.5804365284
 40
0.7123311193
 40
0.8519577055
 40
1.0
 40
1.0
 40
1.0
 40
1.0
 10
12.1182565313
 20
10.6272994571
 30
0.0
 10
12.118256533
 20
10.626536823
 30
0.0
 10
12.1182081393
 20
10.62500828
 30
0.0
 10
12.1179905313
 20
10.6227179626
 30
0.0
 10
12.1176278626
 20
10.6204289204
 30
0.0
 10
12.1169463915
 20
10.6173575341
 30
0.0
 10
12.1157186916
 20
10.6135080271
 30
0.0
 10
12.1140372286
 20
10.6097494002
 30
0.0
 10
12.1124192697
 20
10.6067623152
 30
0.0
 10
12.1105666346
 20
10.6037067732
 30
0.0
 10
12.1078765666
 20
10.5998999911
 30
0.0
 10
12.1041261167
 20
10.5954264292
 30
0.0
 10
12.1013366799
 20
10.5925559214
 30
0.0
 10
12.0998565233
 20
10.5911261999
 30
0.0
  0
SPLINE
  5
390
100
AcDbEntity
  8
0
100
AcDbSpline
 62
7
  6
CONTINUOUS
 70
0
 71
3
 72
83
 73
79
 74
0
 42
0.0000001
 43
0.0000001
 44
0.0000000001
 40
0.0
 40
0.0
 40
0.0
 40
0.0
 40
0.0027164276
 40
0.0054532334
 40
0.0082303009
 40
0.0110665998
 40
0.0139798088
 40
0.0169861218
 40
0.0201000928
 40
0.0233346095
 40
0.026700976
 40
0.0302089312
 40
0.0338668524
 40
0.0376818289
 40
0.0416598023
 40
0.0458057443
 40
0.0501236753
 40
0.0546168743
 40
0.0592878974
 40
0.0641386698
 40
0.0691706105
 40
0.0743845883
 40
0.0797810847
 40
0.0853601631
 40
0.0970640219
 40
0.1094907699
 40
0.1226300177
 40
0.1364676887
 40
0.150986507
 40
0.1661664045
 40
0.1819848426
 40
0.1984170703
 40
0.2154363375
 40
0.2330140708
 40
0.2511200494
 40
0.2697225561
 40
0.2887885105
 40
0.3082835895
 40
0.3281723378
 40
0.3484182894
 40
0.3689840785
 40
0.3898315425
 40
0.4109218226
 40
0.453671794
 40
0.496913762
 40
0.5403220095
 40
0.5835692233
 40
0.6263296343
 40
0.6474270493
 40
0.6682829087
 40
0.6888583326
 40
0.7091151299
 40
0.7290159025
 40
0.7485241591
 40
0.7676044182
 40
0.7862223163
 40
0.8043447241
 40
0.821939872
 40
0.8389774975
 40
0.8554289822
 40
0.8712675108
 40
0.8864682552
 40
0.9010085951
 40
0.9148683895
 40
0.9280302787
 40
0.9404800721
 40
0.9464347343
 40
0.9522077813
 40
0.9577985496
 40
0.9632067643
 40
0.968432455
 40
0.973476048
 40
0.978338406
 40
0.9830208506
 40
0.98752539
 40
0.9918546103
 40
0.9960115929
 40
1.0
 40
1.0
 40
1.0
 40
1.0
 10
12.801653164
 20
6.5673369453
 30
0.0
 10
12.8005426707
 20
6.5674139641
 30
0.0
 10
12.7983190419
 20
6.5676691119
 30
0.0
 10
12.7950119147
 20
6.568351841
 30
0.0
 10
12.7917297692
 20
6.5693344279
 30
0.0
 10
12.788474976
 20
6.5706160122
 30
0.0
 10
12.7852491796
 20
6.5721953561
 30
0.0
 10
12.7820540595
 20
6.5740712889
 30
0.0
 10
12.77889109
 20
6.576242462
 30
0.0
 10
12.7757616392
 20
6.5787074602
 30
0.0
 10
12.772667126
 20
6.581464917
 30
0.0
 10
12.7696088116
 20
6.5845132498
 30
0.0
 10
12.7665880828
 20
6.5878509198
 30
0.0
 10
12.7636062689
 20
6.5914762187
 30
0.0
 10
12.7606646861
 20
6.5953873208
 30
0.0
 10
12.7577647602
 20
6.5995823345
 30
0.0
 10
12.7549077786
 20
6.6040591505
 30
0.0
 10
12.7520951555
 20
6.6088155953
 30
0.0
 10
12.7493282349
 20
6.6138493163
 30
0.0
 10
12.7466083345
 20
6.6191578186
 30
0.0
 10
12.743936849
 20
6.6247384997
 30
0.0
 10
12.7413150394
 20
6.630588566
 30
0.0
 10
12.738744222
 20
6.6367051381
 30
0.0
 10
12.735331615
 20
6.6453503602
 30
0.0
 10
12.731215787
 20
6.6568118245
 30
0.0
 10
12.7265755726
 20
6.6713655641
 30
0.0
 10
12.722167796
 20
6.6869021187
 30
0.0
 10
12.7180013695
 20
6.7033904621
 30
0.0
 10
12.7140847351
 20
6.7207978525
 30
0.0
 10
12.7104258482
 20
6.7390895276
 30
0.0
 10
12.7070321514
 20
6.7582289165
 30
0.0
 10
12.7039105531
 20
6.7781776936
 30
0.0
 10
12.7010674133
 20
6.7988958693
 30
0.0
 10
12.698508514
 20
6.8203418717
 30
0.0
 10
12.6962390615
 20
6.8424726421
 30
0.0
 10
12.6942636758
 20
6.8652437314
 30
0.0
 10
12.6925863816
 20
6.8886093924
 30
0.0
 10
12.6912106009
 20
6.9125226692
 30
0.0
 10
12.6901391345
 20
6.9369354913
 30
0.0
 10
12.6893741656
 20
6.9617987796
 30
0.0
 10
12.6889172682
 20
6.9870625323
 30
0.0
 10
12.6887693598
 20
7.0126759921
 30
0.0
 10
12.6889856746
 20
7.0473800563
 30
0.0
 10
12.6900351792
 20
7.0912528603
 30
0.0
 10
12.6925085423
 20
7.1442262092
 30
0.0
 10
12.6961820478
 20
7.1973342978
 30
0.0
 10
12.7010261298
 20
7.250150107
 30
0.0
 10
12.7060276926
 20
7.2937589288
 30
0.0
 10
12.7105921923
 20
7.328172922
 30
0.0
 10
12.7142658828
 20
7.3535324082
 30
0.0
 10
12.7181975767
 20
7.3785045092
 30
0.0
 10
12.722379379
 20
7.4030390483
 30
0.0
 10
12.7268028495
 20
7.4270866872
 30
0.0
 10
12.7314590597
 20
7.4505990888
 30
0.0
 10
12.7363386084
 20
7.4735289993
 30
0.0
 10
12.7414316438
 20
7.4958303437
 30
0.0
 10
12.7467278821
 20
7.517458318
 30
0.0
 10
12.75221663
 20
7.5383694874
 30
0.0
 10
12.7578867926
 20
7.5585218823
 30
0.0
 10
12.7637269093
 20
7.5778750851
 30
0.0
 10
12.7697251769
 20
7.5963903079
 30
0.0
 10
12.7758694758
 20
7.6140304855
 30
0.0
 10
12.7821473997
 20
7.6307603383
 30
0.0
 10
12.7885462781
 20
7.6465465586
 30
0.0
 10
12.7950532052
 20
7.6613575643
 30
0.0
 10
12.8006345146
 20
7.6730301461
 30
0.0
 10
12.805152292
 20
7.6818483971
 30
0.0
 10
12.8085091187
 20
7.6881017677
 30
0.0
 10
12.8118831633
 20
7.6940901497
 30
0.0
 10
12.8152727175
 20
7.6998105901
 30
0.0
 10
12.8186761216
 20
7.7052602263
 30
0.0
 10
12.8220916806
 20
7.7104363402
 30
0.0
 10
12.8255176496
 20
7.7153363766
 30
0.0
 10
12.8289524167
 20
7.7199578934
 30
0.0
 10
12.8323942889
 20
7.7242986746
 30
0.0
 10
12.8358416831
 20
7.7283565808
 30
0.0
 10
12.8392927219
 20
7.7321294092
 30
0.0
 10
12.8416425415
 20
7.7345016432
 30
0.0
 10
12.8428180937
 20
7.7356371395
 30
0.0
  0
SPLINE
  5
391
100
AcDbEntity
  8
0
100
AcDbSpline
 62
7
  6
CONTINUOUS
 70
0
 71
3
 72
83
 73
79
 74
0
 42
0.0000001
 43
0.0000001
 44
0.0000000001
 40
0.0
 40
0.0
 40
0.0
 40
0.0
 40
0.0027164276
 40
0.0054532334
 40
0.0082303009
 40
0.0110665998
 40
0.0139798088
 40
0.0169861218
 40
0.0201000928
 40
0.0233346095
 40
0.026700976
 40
0.0302089312
 40
0.0338668524
 40
0.0376818289
 40
0.0416598023
 40
0.0458057443
 40
0.0501236753
 40
0.0546168743
 40
0.0592878974
 40
0.0641386698
 40
0.0691706105
 40
0.0743845883
 40
0.0797810847
 40
0.0853601631
 40
0.0970640219
 40
0.1094907699
 40
0.1226300177
 40
0.1364676887
 40
0.150986507
 40
0.1661664045
 40
0.1819848426
 40
0.1984170703
 40
0.2154363375
 40
0.2330140708
 40
0.2511200494
 40
0.2697225561
 40
0.2887885105
 40
0.3082835895
 40
0.3281723378
 40
0.3484182894
 40
0.3689840785
 40
0.3898315425
 40
0.4109218226
 40
0.453671794
 40
0.496913762
 40
0.5403220095
 40
0.5835692233
 40
0.6263296343
 40
0.6474270493
 40
0.6682829087
 40
0.6888583326
 40
0.7091151299
 40
0.7290159025
 40
0.7485241591
 40
0.7676044182
 40
0.7862223163
 40
0.8043447241
 40
0.821939872
 40
0.8389774975
 40
0.8554289822
 40
0.8712675108
 40
0.8864682552
 40
0.9010085951
 40
0.9148683895
 40
0.9280302787
 40
0.9404800721
 40
0.9464347343
 40
0.9522077813
 40
0.9577985496
 40
0.9632067643
 40
0.968432455
 40
0.973476048
 40
0.978338406
 40
0.9830208506
 40
0.98752539
 40
0.9918546103
 40
0.9960115929
 40
1.0
 40
1.0
 40
1.0
 40
1.0
 10
13.0767775725
 20
8.1766896679
 30
0.0
 10
13.0756670793
 20
8.1767666868
 30
0.0
 10
13.0734434504
 20
8.1770218346
 30
0.0
 10
13.0701363232
 20
8.1777045636
 30
0.0
 10
13.0668541777
 20
8.1786871506
 30
0.0
 10
13.0635993846
 20
8.1799687349
 30
0.0
 10
13.0603735881
 20
8.1815480788
 30
0.0
 10
13.057178468
 20
8.1834240115
 30
0.0
 10
13.0540154985
 20
8.1855951847
 30
0.0
 10
13.0508860477
 20
8.1880601829
 30
0.0
 10
13.0477915345
 20
8.1908176397
 30
0.0
 10
13.0447332201
 20
8.1938659724
 30
0.0
 10
13.0417124914
 20
8.1972036425
 30
0.0
 10
13.0387306774
 20
8.2008289414
 30
0.0
 10
13.0357890946
 20
8.2047400434
 30
0.0
 10
13.0328891687
 20
8.2089350572
 30
0.0
 10
13.0300321871
 20
8.2134118732
 30
0.0
 10
13.027219564
 20
8.218168318
 30
0.0
 10
13.0244526434
 20
8.223202039
 30
0.0
 10
13.021732743
 20
8.2285105413
 30
0.0
 10
13.0190612576
 20
8.2340912224
 30
0.0
 10
13.0164394479
 20
8.2399412887
 30
0.0
 10
13.0138686305
 20
8.2460578608
 30
0.0
 10
13.0104560235
 20
8.2547030829
 30
0.0
 10
13.0063401955
 20
8.2661645471
 30
0.0
 10
13.0016999812
 20
8.2807182867
 30
0.0
 10
12.9972922045
 20
8.2962548414
 30
0.0
 10
12.993125778
 20
8.3127431848
 30
0.0
 10
12.9892091436
 20
8.3301505752
 30
0.0
 10
12.9855502568
 20
8.3484422502
 30
0.0
 10
12.9821565599
 20
8.3675816391
 30
0.0
 10
12.9790349616
 20
8.3875304163
 30
0.0
 10
12.9761918218
 20
8.4082485919
 30
0.0
 10
12.9736329225
 20
8.4296945943
 30
0.0
 10
12.97136347
 20
8.4518253648
 30
0.0
 10
12.9693880843
 20
8.4745964541
 30
0.0
 10
12.9677107901
 20
8.4979621151
 30
0.0
 10
12.9663350094
 20
8.5218753918
 30
0.0
 10
12.965263543
 20
8.546288214
 30
0.0
 10
12.9644985741
 20
8.5711515022
 30
0.0
 10
12.9640416767
 20
8.596415255
 30
0.0
 10
12.9638937683
 20
8.6220287148
 30
0.0
 10
12.9641100831
 20
8.656732779
 30
0.0
 10
12.9651595877
 20
8.700605583
 30
0.0
 10
12.9676329509
 20
8.7535789319
 30
0.0
 10
12.9713064563
 20
8.8066870205
 30
0.0
 10
12.9761505383
 20
8.8595028296
 30
0.0
 10
12.9811521011
 20
8.9031116515
 30
0.0
 10
12.9857166008
 20
8.9375256447
 30
0.0
 10
12.9893902914
 20
8.9628851309
 30
0.0
 10
12.9933219852
 20
8.9878572319
 30
0.0
 10
12.9975037875
 20
9.012391771
 30
0.0
 10
13.001927258
 20
9.0364394098
 30
0.0
 10
13.0065834682
 20
9.0599518115
 30
0.0
 10
13.0114630169
 20
9.082881722
 30
0.0
 10
13.0165560523
 20
9.1051830663
 30
0.0
 10
13.0218522906
 20
9.1268110407
 30
0.0
 10
13.0273410385
 20
9.14772221
 30
0.0
 10
13.0330112011
 20
9.167874605
 30
0.0
 10
13.0388513178
 20
9.1872278077
 30
0.0
 10
13.0448495854
 20
9.2057430306
 30
0.0
 10
13.0509938843
 20
9.2233832082
 30
0.0
 10
13.0572718082
 20
9.2401130609
 30
0.0
 10
13.0636706866
 20
9.2558992813
 30
0.0
 10
13.0701776137
 20
9.270710287
 30
0.0
 10
13.0757589232
 20
9.2823828688
 30
0.0
 10
13.0802767005
 20
9.2912011197
 30
0.0
 10
13.0836335272
 20
9.2974544904
 30
0.0
 10
13.0870075719
 20
9.3034428724
 30
0.0
 10
13.090397126
 20
9.3091633127
 30
0.0
 10
13.0938005301
 20
9.314612949
 30
0.0
 10
13.0972160892
 20
9.3197890628
 30
0.0
 10
13.1006420581
 20
9.3246890993
 30
0.0
 10
13.1040768252
 20
9.3293106161
 30
0.0
 10
13.1075186974
 20
9.3336513973
 30
0.0
 10
13.1109660917
 20
9.3377093035
 30
0.0
 10
13.1144171304
 20
9.3414821319
 30
0.0
 10
13.11676695
 20
9.3438543659
 30
0.0
 10
13.1179425022
 20
9.3449898622
 30
0.0
  0
SPLINE
  5
392
100
AcDbEntity
  8
0
100
AcDbSpline
 62
7
  6
CONTINUOUS
 70
0
 71
3
 72
27
 73
23
 74
0
 42
0.0000001
 43
0.0000001
 44
0.0000000001
 40
0.0
 40
0.0
 40
0.0
 40
0.0
 40
0.0622009741
 40
0.093250318
 40
0.1242682268
 40
0.1862183617
 40
0.2481002856
 40
0.2790336518
 40
0.3099655961
 40
0.3718363201
 40
0.4337660663
 40
0.495797757
 40
0.5579729729
 40
0.6203309354
 40
0.6829075059
 40
0.7142932308
 40
0.7457449843
 40
0.8088482427
 40
0.8722484958
 40
0.9040693542
 40
0.9359703652
 40
1.0
 40
1.0
 40
1.0
 40
1.0
 10
10.5804918127
 20
8.6672471339
 30
0.0
 10
10.5826508126
 20
8.6714913368
 30
0.0
 10
10.5861117745
 20
8.6777439054
 30
0.0
 10
10.5911552626
 20
8.6858119854
 30
0.0
 10
10.5964720172
 20
8.6936799651
 30
0.0
 10
10.6036327914
 20
8.7031408502
 30
0.0
 10
10.6114538162
 20
8.7120554445
 30
0.0
 10
10.6180823948
 20
8.7188261988
 30
0.0
 10
10.6249532857
 20
8.7253496122
 30
0.0
 10
10.6339882602
 20
8.7330281892
 30
0.0
 10
10.6454888577
 20
8.7414238009
 30
0.0
 10
10.6575999277
 20
8.7489570264
 30
0.0
 10
10.6702662391
 20
8.7555850426
 30
0.0
 10
10.683428288
 20
8.7612693995
 30
0.0
 10
10.6947480641
 20
8.7651885251
 30
0.0
 10
10.7039830408
 20
8.7678212485
 30
0.0
 10
10.7133482956
 20
8.7701202093
 30
0.0
 10
10.7252451
 20
8.7723495872
 30
0.0
 10
10.737301331
 20
8.7737026807
 30
0.0
 10
10.7470192017
 20
8.7742584362
 30
0.0
 10
10.7567986075
 20
8.7744620829
 30
0.0
 10
10.7641467919
 20
8.7742158081
 30
0.0
 10
10.7690368184
 20
8.7738766836
 30
0.0
  0
SPLINE
  5
393
100
AcDbEntity
  8
0
100
AcDbSpline
 62
7
  6
CONTINUOUS
 70
0
 71
3
 72
42
 73
38
 74
0
 42
0.0000001
 43
0.0000001
 44
0.0000000001
 40
0.0
 40
0.0
 40
0.0
 40
0.0
 40
0.0299419634
 40
0.0449235299
 40
0.0599142017
 40
0.0899287029
 40
0.1200139772
 40
0.1350926626
 40
0.1501967046
 40
0.1804840506
 40
0.2108978877
 40
0.2414513551
 40
0.2721543675
 40
0.3030134354
 40
0.3340315696
 40
0.3652082675
 40
0.3965395775
 40
0.4280182343
 40
0.4596338596
 40
0.4913732188
 40
0.5232205284
 40
0.5551578047
 40
0.5871652463
 40
0.6192216448
 40
0.6513048151
 40
0.6833920402
 40
0.7154605222
 40
0.747487836
 40
0.7794523759
 40
0.8113337934
 40
0.8431134117
 40
0.8747746318
 40
0.9063032512
 40
0.9376879208
 40
0.9533258
 40
0.9689252634
 40
1.0
 40
1.0
 40
1.0
 40
1.0
 10
10.2237563773
 20
8.1658981713
 30
0.0
 10
10.2273895165
 20
8.1694074929
 30
0.0
 10
10.233053384
 20
8.174458826
 30
0.0
 10
10.2409855028
 20
8.1807264304
 30
0.0
 10
10.2491702197
 20
8.1866821492
 30
0.0
 10
10.2598499295
 20
8.1935212438
 30
0.0
 10
10.2710488932
 20
8.1995034724
 30
0.0
 10
10.280285136
 20
8.2037592357
 30
0.0
 10
10.2897121725
 20
8.2076636793
 30
0.0
 10
10.3018066327
 20
8.2118620595
 30
0.0
 10
10.3167112218
 20
8.2157748446
 30
0.0
 10
10.3319410313
 20
8.2185467517
 30
0.0
 10
10.3474116598
 20
8.2201624884
 30
0.0
 10
10.363038124
 20
8.2206134321
 30
0.0
 10
10.3787344425
 20
8.2198972878
 30
0.0
 10
10.3944143448
 20
8.2180181923
 30
0.0
 10
10.4099916768
 20
8.2149866552
 30
0.0
 10
10.4253808859
 20
8.2108195011
 30
0.0
 10
10.4404974799
 20
8.2055397699
 30
0.0
 10
10.4552584857
 20
8.199176587
 30
0.0
 10
10.4695828976
 20
8.1917650012
 30
0.0
 10
10.4833921163
 20
8.1833457913
 30
0.0
 10
10.4966103738
 20
8.1739652425
 30
0.0
 10
10.5091651444
 20
8.1636748933
 30
0.0
 10
10.5209875374
 20
8.1525312552
 30
0.0
 10
10.5320126714
 20
8.1405955042
 30
0.0
 10
10.5421800262
 20
8.1279331493
 30
0.0
 10
10.5514337719
 20
8.1146136749
 30
0.0
 10
10.5597230727
 20
8.1007101684
 30
0.0
 10
10.567002364
 20
8.0862989074
 30
0.0
 10
10.5732315994
 20
8.0714590062
 30
0.0
 10
10.5783764825
 20
8.0562717669
 30
0.0
 10
10.5824085915
 20
8.0408210534
 30
0.0
 10
10.5848259304
 20
8.0277789762
 30
0.0
 10
10.5861819858
 20
8.0172998253
 30
0.0
 10
10.5871497693
 20
8.0068307021
 30
0.0
 10
10.5874428048
 20
7.9989527574
 30
0.0
 10
10.5874428048
 20
7.9937104161
 30
0.0
  0
SPLINE
  5
394
100
AcDbEntity
  8
0
100
AcDbSpline
 62
7
  6
CONTINUOUS
 70
0
 71
3
 72
42
 73
38
 74
0
 42
0.0000001
 43
0.0000001
 44
0.0000000001
 40
0.0
 40
0.0
 40
0.0
 40
0.0
 40
0.0299419634
 40
0.0449235299
 40
0.0599142017
 40
0.0899287029
 40
0.1200139772
 40
0.1350926626
 40
0.1501967046
 40
0.1804840506
 40
0.2108978877
 40
0.2414513551
 40
0.2721543675
 40
0.3030134354
 40
0.3340315696
 40
0.3652082675
 40
0.3965395775
 40
0.4280182343
 40
0.4596338596
 40
0.4913732188
 40
0.5232205284
 40
0.5551578047
 40
0.5871652463
 40
0.6192216448
 40
0.6513048151
 40
0.6833920402
 40
0.7154605222
 40
0.747487836
 40
0.7794523759
 40
0.8113337934
 40
0.8431134117
 40
0.8747746318
 40
0.9063032512
 40
0.9376879208
 40
0.9533258
 40
0.9689252634
 40
1.0
 40
1.0
 40
1.0
 40
1.0
 10
8.9265178921
 20
9.9153225423
 30
0.0
 10
8.9301510312
 20
9.9188318639
 30
0.0
 10
8.9358148987
 20
9.923883197
 30
0.0
 10
8.9437470175
 20
9.9301508014
 30
0.0
 10
8.9519317344
 20
9.9361065202
 30
0.0
 10
8.9626114442
 20
9.9429456148
 30
0.0
 10
8.9738104079
 20
9.9489278434
 30
0.0
 10
8.9830466507
 20
9.9531836067
 30
0.0
 10
8.9924736872
 20
9.9570880503
 30
0.0
 10
9.0045681474
 20
9.9612864305
 30
0.0
 10
9.0194727365
 20
9.9651992156
 30
0.0
 10
9.034702546
 20
9.9679711227
 30
0.0
 10
9.0501731745
 20
9.9695868594
 30
0.0
 10
9.0657996387
 20
9.9700378031
 30
0.0
 10
9.0814959572
 20
9.9693216588
 30
0.0
 10
9.0971758595
 20
9.9674425633
 30
0.0
 10
9.1127531915
 20
9.9644110262
 30
0.0
 10
9.1281424006
 20
9.9602438721
 30
0.0
 10
9.1432589946
 20
9.9549641408
 30
0.0
 10
9.1580200004
 20
9.948600958
 30
0.0
 10
9.1723444123
 20
9.9411893722
 30
0.0
 10
9.186153631
 20
9.9327701623
 30
0.0
 10
9.1993718885
 20
9.9233896135
 30
0.0
 10
9.2119266591
 20
9.9130992643
 30
0.0
 10
9.2237490521
 20
9.9019556261
 30
0.0
 10
9.2347741861
 20
9.8900198752
 30
0.0
 10
9.2449415409
 20
9.8773575203
 30
0.0
 10
9.2541952866
 20
9.8640380459
 30
0.0
 10
9.2624845875
 20
9.8501345394
 30
0.0
 10
9.2697638788
 20
9.8357232784
 30
0.0
 10
9.2759931141
 20
9.8208833772
 30
0.0
 10
9.2811379972
 20
9.8056961379
 30
0.0
 10
9.2851701062
 20
9.7902454244
 30
0.0
 10
9.2875874451
 20
9.7772033472
 30
0.0
 10
9.2889435005
 20
9.7667241963
 30
0.0
 10
9.289911284
 20
9.7562550731
 30
0.0
 10
9.2902043195
 20
9.7483771284
 30
0.0
 10
9.2902043195
 20
9.7431347871
 30
0.0
  0
SPLINE
  5
395
100
AcDbEntity
  8
0
100
AcDbSpline
 62
7
  6
CONTINUOUS
 70
0
 71
3
 72
41
 73
37
 74
0
 42
0.0000001
 43
0.0000001
 44
0.0000000001
 40
0.0
 40
0.0
 40
0.0
 40
0.0
 40
0.0300821846
 40
0.0601249677
 40
0.0901567989
 40
0.1202063636
 40
0.1503017648
 40
0.180469735
 40
0.210734905
 40
0.2411191526
 40
0.2716410504
 40
0.3023154241
 40
0.3331530295
 40
0.3641603482
 40
0.3953394991
 40
0.4266882612
 40
0.4582001974
 40
0.4898648714
 40
0.5216681469
 40
0.5535925592
 40
0.5856177504
 40
0.6177209585
 40
0.6498775498
 40
0.6820615883
 40
0.7142464316
 40
0.7303336157
 40
0.746411011
 40
0.7785177945
 40
0.8105474009
 40
0.8265288039
 40
0.842482366
 40
0.8742901317
 40
0.9059584493
 40
0.9374728125
 40
0.968821987
 40
1.0
 40
1.0
 40
1.0
 40
1.0
 10
9.6848004123
 20
7.7482762884
 30
0.0
 10
9.6878874102
 20
7.752807521
 30
0.0
 10
9.6944489396
 20
7.7616043874
 30
0.0
 10
9.70538168
 20
7.7738977616
 30
0.0
 10
9.7173271049
 20
7.785202768
 30
0.0
 10
9.7302063019
 20
7.7954460622
 30
0.0
 10
9.7439356579
 20
7.8045630445
 30
0.0
 10
9.7584260382
 20
7.8124961141
 30
0.0
 10
9.7735837881
 20
7.8191955361
 30
0.0
 10
9.7893112626
 20
7.8246195302
 30
0.0
 10
9.8055074878
 20
7.8287345038
 30
0.0
 10
9.8220687911
 20
7.8315151792
 30
0.0
 10
9.8388894397
 20
7.8329446778
 30
0.0
 10
9.855862267
 20
7.8330145695
 30
0.0
 10
9.8728792971
 20
7.8317248812
 30
0.0
 10
9.8898323639
 20
7.8290840704
 30
0.0
 10
9.9066137275
 20
7.8251089648
 30
0.0
 10
9.9231166877
 20
7.8198246664
 30
0.0
 10
9.9392361971
 20
7.8132644212
 30
0.0
 10
9.9548694739
 20
7.8054694635
 30
0.0
 10
9.9699166212
 20
7.7964887867
 30
0.0
 10
9.9842811883
 20
7.7863789517
 30
0.0
 10
9.9978709404
 20
7.7752035885
 30
0.0
 10
10.0105978223
 20
7.7630338386
 30
0.0
 10
10.0204190237
 20
7.7521243216
 30
0.0
 10
10.0277653504
 20
7.7429786049
 30
0.0
 10
10.0347549572
 20
7.7335751204
 30
0.0
 10
10.0428096042
 20
7.7213564738
 30
0.0
 10
10.0499102168
 20
7.7085796213
 30
0.0
 10
10.0549839504
 20
7.6980804738
 30
0.0
 10
10.059637164
 20
7.6874325089
 30
0.0
 10
10.0646687842
 20
7.6738414331
 30
0.0
 10
10.0694121202
 20
7.6571730513
 30
0.0
 10
10.0728244545
 20
7.6402663375
 30
0.0
 10
10.0748827459
 20
7.6232329572
 30
0.0
 10
10.0753441823
 20
7.611831442
 30
0.0
 10
10.0753441822
 20
7.6061488656
 30
0.0
  0
SPLINE
  5
396
100
AcDbEntity
  8
0
100
AcDbSpline
 62
7
  6
CONTINUOUS
 70
0
 71
3
 72
42
 73
38
 74
0
 42
0.0000001
 43
0.0000001
 44
0.0000000001
 40
0.0
 40
0.0
 40
0.0
 40
0.0
 40
0.0299419634
 40
0.0449235299
 40
0.0599142017
 40
0.0899287029
 40
0.1200139772
 40
0.1350926626
 40
0.1501967046
 40
0.1804840506
 40
0.2108978877
 40
0.2414513551
 40
0.2721543675
 40
0.3030134354
 40
0.3340315696
 40
0.3652082675
 40
0.3965395775
 40
0.4280182343
 40
0.4596338596
 40
0.4913732188
 40
0.5232205284
 40
0.5551578047
 40
0.5871652463
 40
0.6192216448
 40
0.6513048151
 40
0.6833920402
 40
0.7154605222
 40
0.747487836
 40
0.7794523759
 40
0.8113337934
 40
0.8431134117
 40
0.8747746318
 40
0.9063032512
 40
0.9376879208
 40
0.9533258
 40
0.9689252634
 40
1.0
 40
1.0
 40
1.0
 40
1.0
 10
11.9440703934
 20
9.7060545656
 30
0.0
 10
11.9477035326
 20
9.7095638871
 30
0.0
 10
11.9533674
 20
9.7146152203
 30
0.0
 10
11.9612995188
 20
9.7208828246
 30
0.0
 10
11.9694842358
 20
9.7268385434
 30
0.0
 10
11.9801639455
 20
9.7336776381
 30
0.0
 10
11.9913629093
 20
9.7396598666
 30
0.0
 10
12.0005991521
 20
9.74391563
 30
0.0
 10
12.0100261885
 20
9.7478200735
 30
0.0
 10
12.0221206488
 20
9.7520184538
 30
0.0
 10
12.0370252378
 20
9.7559312389
 30
0.0
 10
12.0522550473
 20
9.7587031459
 30
0.0
 10
12.0677256759
 20
9.7603188826
 30
0.0
 10
12.08335214
 20
9.7607698263
 30
0.0
 10
12.0990484585
 20
9.760053682
 30
0.0
 10
12.1147283608
 20
9.7581745866
 30
0.0
 10
12.1303056929
 20
9.7551430495
 30
0.0
 10
12.145694902
 20
9.7509758953
 30
0.0
 10
12.160811496
 20
9.7456961641
 30
0.0
 10
12.1755725017
 20
9.7393329812
 30
0.0
 10
12.1898969137
 20
9.7319213955
 30
0.0
 10
12.2037061323
 20
9.7235021856
 30
0.0
 10
12.2169243899
 20
9.7141216367
 30
0.0
 10
12.2294791604
 20
9.7038312876
 30
0.0
 10
12.2413015535
 20
9.6926876494
 30
0.0
 10
12.2523266875
 20
9.6807518984
 30
0.0
 10
12.2624940423
 20
9.6680895435
 30
0.0
 10
12.271747788
 20
9.6547700691
 30
0.0
 10
12.2800370888
 20
9.6408665626
 30
0.0
 10
12.2873163801
 20
9.6264553016
 30
0.0
 10
12.2935456155
 20
9.6116154004
 30
0.0
 10
12.2986904986
 20
9.5964281611
 30
0.0
 10
12.3027226075
 20
9.5809774477
 30
0.0
 10
12.3051399464
 20
9.5679353705
 30
0.0
 10
12.3064960018
 20
9.5574562195
 30
0.0
 10
12.3074637853
 20
9.5469870963
 30
0.0
 10
12.3077568208
 20
9.5391091516
 30
0.0
 10
12.3077568208
 20
9.5338668103
 30
0.0
  0
SPLINE
  5
397
100
AcDbEntity
  8
0
100
AcDbSpline
 62
7
  6
CONTINUOUS
 70
0
 71
3
 72
15
 73
11
 74
0
 42
0.0000001
 43
0.0000001
 44
0.0000000001
 40
0.0
 40
0.0
 40
0.0
 40
0.0
 40
0.1233171261
 40
0.2468171865
 40
0.3706749939
 40
0.4950495802
 40
0.6200773232
 40
0.7458671315
 40
0.872492731
 40
1.0
 40
1.0
 40
1.0
 40
1.0
 10
11.7227733968
 20
7.0607852827
 30
0.0
 10
11.7252979305
 20
7.0632237738
 30
0.0
 10
11.7306179011
 20
7.0678361996
 30
0.0
 10
11.7393006174
 20
7.0738633898
 30
0.0
 10
11.7486044423
 20
7.078944231
 30
0.0
 10
11.758434143
 20
7.0830265016
 30
0.0
 10
11.7686905648
 20
7.0860696721
 30
0.0
 10
11.7792703891
 20
7.0880433151
 30
0.0
 10
11.79006562
 20
7.0889282343
 30
0.0
 10
11.7973119022
 20
7.0887868928
 30
0.0
 10
11.8009323842
 20
7.0885358115
 30
0.0
  0
SPLINE
  5
398
100
AcDbEntity
  8
0
100
AcDbSpline
 62
7
  6
CONTINUOUS
 70
0
 71
3
 72
42
 73
38
 74
0
 42
0.0000001
 43
0.0000001
 44
0.0000000001
 40
0.0
 40
0.0
 40
0.0
 40
0.0
 40
0.0299419634
 40
0.0449235299
 40
0.0599142017
 40
0.0899287029
 40
0.1200139772
 40
0.1350926626
 40
0.1501967046
 40
0.1804840506
 40
0.2108978877
 40
0.2414513551
 40
0.2721543675
 40
0.3030134354
 40
0.3340315696
 40
0.3652082675
 40
0.3965395775
 40
0.4280182343
 40
0.4596338596
 40
0.4913732188
 40
0.5232205284
 40
0.5551578047
 40
0.5871652463
 40
0.6192216448
 40
0.6513048151
 40
0.6833920402
 40
0.7154605222
 40
0.747487836
 40
0.7794523759
 40
0.8113337934
 40
0.8431134117
 40
0.8747746318
 40
0.9063032512
 40
0.9376879208
 40
0.9533258
 40
0.9689252634
 40
1.0
 40
1.0
 40
1.0
 40
1.0
 10
8.9265178921
 20
6.4148073295
 30
0.0
 10
8.9301510312
 20
6.4183166511
 30
0.0
 10
8.9358148987
 20
6.4233679842
 30
0.0
 10
8.9437470175
 20
6.4296355885
 30
0.0
 10
8.9519317344
 20
6.4355913073
 30
0.0
 10
8.9626114442
 20
6.442430402
 30
0.0
 10
8.9738104079
 20
6.4484126306
 30
0.0
 10
8.9830466507
 20
6.4526683939
 30
0.0
 10
8.9924736872
 20
6.4565728374
 30
0.0
 10
9.0045681474
 20
6.4607712177
 30
0.0
 10
9.0194727365
 20
6.4646840028
 30
0.0
 10
9.034702546
 20
6.4674559099
 30
0.0
 10
9.0501731745
 20
6.4690716466
 30
0.0
 10
9.0657996387
 20
6.4695225903
 30
0.0
 10
9.0814959572
 20
6.468806446
 30
0.0
 10
9.0971758595
 20
6.4669273505
 30
0.0
 10
9.1127531915
 20
6.4638958134
 30
0.0
 10
9.1281424006
 20
6.4597286592
 30
0.0
 10
9.1432589946
 20
6.454448928
 30
0.0
 10
9.1580200004
 20
6.4480857452
 30
0.0
 10
9.1723444123
 20
6.4406741594
 30
0.0
 10
9.186153631
 20
6.4322549495
 30
0.0
 10
9.1993718885
 20
6.4228744006
 30
0.0
 10
9.2119266591
 20
6.4125840515
 30
0.0
 10
9.2237490521
 20
6.4014404133
 30
0.0
 10
9.2347741861
 20
6.3895046624
 30
0.0
 10
9.2449415409
 20
6.3768423075
 30
0.0
 10
9.2541952866
 20
6.363522833
 30
0.0
 10
9.2624845875
 20
6.3496193266
 30
0.0
 10
9.2697638788
 20
6.3352080656
 30
0.0
 10
9.2759931141
 20
6.3203681644
 30
0.0
 10
9.2811379972
 20
6.305180925
 30
0.0
 10
9.2851701062
 20
6.2897302116
 30
0.0
 10
9.2875874451
 20
6.2766881344
 30
0.0
 10
9.2889435005
 20
6.2662089835
 30
0.0
 10
9.289911284
 20
6.2557398603
 30
0.0
 10
9.2902043195
 20
6.2478619155
 30
0.0
 10
9.2902043195
 20
6.2426195743
 30
0.0
  0
SPLINE
  5
399
100
AcDbEntity
  8
0
100
AcDbSpline
 62
7
  6
CONTINUOUS
 70
0
 71
3
 72
15
 73
11
 74
0
 42
0.0000001
 43
0.0000001
 44
0.0000000001
 40
0.0
 40
0.0
 40
0.0
 40
0.0
 40
0.1233171261
 40
0.2468171865
 40
0.3706749939
 40
0.4950495802
 40
0.6200773232
 40
0.7458671315
 40
0.872492731
 40
1.0
 40
1.0
 40
1.0
 40
1.0
 10
9.6701808944
 20
7.2031330562
 30
0.0
 10
9.672705428
 20
7.2055715474
 30
0.0
 10
9.6780253986
 20
7.2101839731
 30
0.0
 10
9.6867081149
 20
7.2162111633
 30
0.0
 10
9.6960119399
 20
7.2212920046
 30
0.0
 10
9.7058416405
 20
7.2253742751
 30
0.0
 10
9.7160980623
 20
7.2284174456
 30
0.0
 10
9.7266778866
 20
7.2303910887
 30
0.0
 10
9.7374731175
 20
7.2312760078
 30
0.0
 10
9.7447193997
 20
7.2311346663
 30
0.0
 10
9.7483398817
 20
7.230883585
 30
0.0
  0
SPLINE
  5
39A
100
AcDbEntity
  8
0
100
AcDbSpline
 62
7
  6
CONTINUOUS
 70
0
 71
3
 72
42
 73
38
 74
0
 42
0.0000001
 43
0.0000001
 44
0.0000000001
 40
0.0
 40
0.0
 40
0.0
 40
0.0
 40
0.0299419634
 40
0.0449235299
 40
0.0599142017
 40
0.0899287029
 40
0.1200139772
 40
0.1350926626
 40
0.1501967046
 40
0.1804840506
 40
0.2108978877
 40
0.2414513551
 40
0.2721543675
 40
0.3030134354
 40
0.3340315696
 40
0.3652082675
 40
0.3965395775
 40
0.4280182343
 40
0.4596338596
 40
0.4913732188
 40
0.5232205284
 40
0.5551578047
 40
0.5871652463
 40
0.6192216448
 40
0.6513048151
 40
0.6833920402
 40
0.7154605222
 40
0.747487836
 40
0.7794523759
 40
0.8113337934
 40
0.8431134117
 40
0.8747746318
 40
0.9063032512
 40
0.9376879208
 40
0.9533258
 40
0.9689252634
 40
1.0
 40
1.0
 40
1.0
 40
1.0
 10
11.9440703934
 20
6.2055393527
 30
0.0
 10
11.9477035326
 20
6.2090486743
 30
0.0
 10
11.9533674
 20
6.2141000075
 30
0.0
 10
11.9612995188
 20
6.2203676118
 30
0.0
 10
11.9694842358
 20
6.2263233306
 30
0.0
 10
11.9801639455
 20
6.2331624253
 30
0.0
 10
11.9913629093
 20
6.2391446538
 30
0.0
 10
12.0005991521
 20
6.2434004172
 30
0.0
 10
12.0100261885
 20
6.2473048607
 30
0.0
 10
12.0221206488
 20
6.251503241
 30
0.0
 10
12.0370252378
 20
6.2554160261
 30
0.0
 10
12.0522550473
 20
6.2581879331
 30
0.0
 10
12.0677256759
 20
6.2598036698
 30
0.0
 10
12.08335214
 20
6.2602546135
 30
0.0
 10
12.0990484585
 20
6.2595384692
 30
0.0
 10
12.1147283608
 20
6.2576593738
 30
0.0
 10
12.1303056929
 20
6.2546278366
 30
0.0
 10
12.145694902
 20
6.2504606825
 30
0.0
 10
12.160811496
 20
6.2451809513
 30
0.0
 10
12.1755725017
 20
6.2388177684
 30
0.0
 10
12.1898969137
 20
6.2314061827
 30
0.0
 10
12.2037061323
 20
6.2229869728
 30
0.0
 10
12.2169243899
 20
6.2136064239
 30
0.0
 10
12.2294791604
 20
6.2033160748
 30
0.0
 10
12.2413015535
 20
6.1921724366
 30
0.0
 10
12.2523266875
 20
6.1802366856
 30
0.0
 10
12.2624940423
 20
6.1675743307
 30
0.0
 10
12.271747788
 20
6.1542548563
 30
0.0
 10
12.2800370888
 20
6.1403513498
 30
0.0
 10
12.2873163801
 20
6.1259400888
 30
0.0
 10
12.2935456155
 20
6.1111001876
 30
0.0
 10
12.2986904986
 20
6.0959129483
 30
0.0
 10
12.3027226075
 20
6.0804622349
 30
0.0
 10
12.3051399464
 20
6.0674201577
 30
0.0
 10
12.3064960018
 20
6.0569410067
 30
0.0
 10
12.3074637853
 20
6.0464718835
 30
0.0
 10
12.3077568208
 20
6.0385939388
 30
0.0
 10
12.3077568208
 20
6.0333515975
 30
0.0
  0
SPLINE
  5
39B
100
AcDbEntity
  8
0
100
AcDbSpline
 62
7
  6
CONTINUOUS
 70
0
 71
3
 72
15
 73
11
 74
0
 42
0.0000001
 43
0.0000001
 44
0.0000000001
 40
0.0
 40
0.0
 40
0.0
 40
0.0
 40
0.1233171261
 40
0.2468171865
 40
0.3706749939
 40
0.4950495802
 40
0.6200773232
 40
0.7458671315
 40
0.872492731
 40
1.0
 40
1.0
 40
1.0
 40
1.0
 10
11.7227733968
 20
8.8120088745
 30
0.0
 10
11.7252979305
 20
8.8144473656
 30
0.0
 10
11.7306179011
 20
8.8190597914
 30
0.0
 10
11.7393006174
 20
8.8250869816
 30
0.0
 10
11.7486044423
 20
8.8301678228
 30
0.0
 10
11.758434143
 20
8.8342500934
 30
0.0
 10
11.7686905648
 20
8.8372932639
 30
0.0
 10
11.7792703891
 20
8.839266907
 30
0.0
 10
11.79006562
 20
8.8401518261
 30
0.0
 10
11.7973119022
 20
8.8400104846
 30
0.0
 10
11.8009323842
 20
8.8397594033
 30
0.0
  0
SPLINE
  5
39C
100
AcDbEntity
  8
0
100
AcDbSpline
 62
7
  6
CONTINUOUS
 70
0
 71
3
 72
15
 73
11
 74
0
 42
0.0000001
 43
0.0000001
 44
0.0000000001
 40
0.0
 40
0.0
 40
0.0
 40
0.0
 40
0.1233171261
 40
0.2468171865
 40
0.3706749939
 40
0.4950495802
 40
0.6200773232
 40
0.7458671315
 40
0.872492731
 40
1.0
 40
1.0
 40
1.0
 40
1.0
 10
9.6701808944
 20
8.9543566481
 30
0.0
 10
9.672705428
 20
8.9567951392
 30
0.0
 10
9.6780253986
 20
8.9614075649
 30
0.0
 10
9.6867081149
 20
8.9674347551
 30
0.0
 10
9.6960119399
 20
8.9725155964
 30
0.0
 10
9.7058416405
 20
8.9765978669
 30
0.0
 10
9.7160980623
 20
8.9796410374
 30
0.0
 10
9.7266778866
 20
8.9816146805
 30
0.0
 10
9.7374731175
 20
8.9824995997
 30
0.0
 10
9.7447193997
 20
8.9823582581
 30
0.0
 10
9.7483398817
 20
8.9821071769
 30
0.0
  0
SPLINE
  5
39D
100
AcDbEntity
  8
0
100
AcDbSpline
 62
7
  6
CONTINUOUS
 70
0
 71
3
 72
39
 73
35
 74
0
 42
0.0000001
 43
0.0000001
 44
0.0000000001
 40
0.0
 40
0.0
 40
0.0
 40
0.0
 40
0.0314026163
 40
0.0630094802
 40
0.0948071156
 40
0.1267734443
 40
0.1588809719
 40
0.1910970226
 40
0.2233851133
 40
0.2557062446
 40
0.2880202668
 40
0.3202872758
 40
0.3524690062
 40
0.3845301827
 40
0.4164397934
 40
0.4481722512
 40
0.4797084083
 40
0.5110363787
 40
0.5421521198
 40
0.5730597435
 40
0.6037715204
 40
0.6343075558
 40
0.6646951112
 40
0.69496759
 40
0.7251632189
 40
0.7553234785
 40
0.7854913552
 40
0.8157095102
 40
0.8460184684
 40
0.8764549241
 40
0.9070502294
 40
0.9378293436
 40
0.9688091107
 40
1.0
 40
1.0
 40
1.0
 40
1.0
 10
9.7422576392
 20
8.9989314396
 30
0.0
 10
9.7465693753
 20
8.9986324197
 30
0.0
 10
9.7551971496
 20
8.9976075241
 30
0.0
 10
9.7679649405
 20
8.9948238993
 30
0.0
 10
9.7804852495
 20
8.9908158148
 30
0.0
 10
9.7926362862
 20
8.985622109
 30
0.0
 10
9.8043018387
 20
8.9792929698
 30
0.0
 10
9.8153698765
 20
8.971889365
 30
0.0
 10
9.8257342686
 20
8.9634825364
 30
0.0
 10
9.8352955718
 20
8.9541532612
 30
0.0
 10
9.8439620192
 20
8.9439911047
 30
0.0
 10
9.8516503613
 20
8.9330935725
 30
0.0
 10
9.858286704
 20
8.9215652277
 30
0.0
 10
9.8638071754
 20
8.9095166734
 30
0.0
 10
9.8681585235
 20
8.8970635151
 30
0.0
 10
9.871298624
 20
8.884325281
 30
0.0
 10
9.8731969111
 20
8.8714243124
 30
0.0
 10
9.8738347214
 20
8.8584846146
 30
0.0
 10
9.8732054434
 20
8.8456306807
 30
0.0
 10
9.8713146277
 20
8.8329863219
 30
0.0
 10
9.8681799671
 20
8.8206734935
 30
0.0
 10
9.8638312341
 20
8.8088111042
 30
0.0
 10
9.8583100108
 20
8.7975138455
 30
0.0
 10
9.8516693102
 20
8.7868910593
 30
0.0
 10
9.8439730971
 20
8.7770456334
 30
0.0
 10
9.835295688
 20
8.768072946
 30
0.0
 10
9.8257210499
 20
8.7600598449
 30
0.0
 10
9.8153418955
 20
8.7530837994
 30
0.0
 10
9.8042587559
 20
8.7472121175
 30
0.0
 10
9.7925789008
 20
8.7425013133
 30
0.0
 10
9.7804154322
 20
8.738996487
 30
0.0
 10
9.7678855291
 20
8.7367310901
 30
0.0
 10
9.755111637
 20
8.73572624
 30
0.0
 10
9.7465403041
 20
8.7359025955
 30
0.0
 10
9.7422576392
 20
8.7361995993
 30
0.0
  0
SPLINE
  5
39E
100
AcDbEntity
  8
0
100
AcDbSpline
 62
7
  6
CONTINUOUS
 70
0
 71
3
 72
39
 73
35
 74
0
 42
0.0000001
 43
0.0000001
 44
0.0000000001
 40
0.0
 40
0.0
 40
0.0
 40
0.0
 40
0.0314026163
 40
0.0630094802
 40
0.0948071156
 40
0.1267734443
 40
0.1588809719
 40
0.1910970226
 40
0.2233851133
 40
0.2557062446
 40
0.2880202668
 40
0.3202872758
 40
0.3524690062
 40
0.3845301827
 40
0.4164397934
 40
0.4481722512
 40
0.4797084083
 40
0.5110363787
 40
0.5421521198
 40
0.5730597435
 40
0.6037715204
 40
0.6343075558
 40
0.6646951112
 40
0.69496759
 40
0.7251632189
 40
0.7553234785
 40
0.7854913552
 40
0.8157095102
 40
0.8460184684
 40
0.8764549241
 40
0.9070502294
 40
0.9378293436
 40
0.9688091107
 40
1.0
 40
1.0
 40
1.0
 40
1.0
 10
9.7422576392
 20
8.7361995993
 30
0.0
 10
9.7379459031
 20
8.7364986192
 30
0.0
 10
9.7293181288
 20
8.7375235148
 30
0.0
 10
9.7165503379
 20
8.7403071396
 30
0.0
 10
9.7040300288
 20
8.7443152242
 30
0.0
 10
9.6918789922
 20
8.7495089299
 30
0.0
 10
9.6802134397
 20
8.7558380692
 30
0.0
 10
9.6691454019
 20
8.7632416739
 30
0.0
 10
9.6587810098
 20
8.7716485025
 30
0.0
 10
9.6492197066
 20
8.7809777777
 30
0.0
 10
9.6405532592
 20
8.7911399342
 30
0.0
 10
9.6328649171
 20
8.8020374664
 30
0.0
 10
9.6262285743
 20
8.8135658112
 30
0.0
 10
9.620708103
 20
8.8256143655
 30
0.0
 10
9.6163567548
 20
8.8380675238
 30
0.0
 10
9.6132166544
 20
8.8508057579
 30
0.0
 10
9.6113183673
 20
8.8637067265
 30
0.0
 10
9.610680557
 20
8.8766464243
 30
0.0
 10
9.6113098349
 20
8.8895003582
 30
0.0
 10
9.6132006507
 20
8.902144717
 30
0.0
 10
9.6163353112
 20
8.9144575454
 30
0.0
 10
9.6206840443
 20
8.9263199347
 30
0.0
 10
9.6262052676
 20
8.9376171934
 30
0.0
 10
9.6328459681
 20
8.9482399796
 30
0.0
 10
9.6405421812
 20
8.9580854055
 30
0.0
 10
9.6492195903
 20
8.9670580929
 30
0.0
 10
9.6587942285
 20
8.975071194
 30
0.0
 10
9.6691733829
 20
8.9820472395
 30
0.0
 10
9.6802565225
 20
8.9879189214
 30
0.0
 10
9.6919363776
 20
8.9926297256
 30
0.0
 10
9.7040998462
 20
8.9961345519
 30
0.0
 10
9.7166297493
 20
8.9983999488
 30
0.0
 10
9.7294036414
 20
8.9994047989
 30
0.0
 10
9.7379749743
 20
8.9992284434
 30
0.0
 10
9.7422576392
 20
8.9989314396
 30
0.0
  0
SPLINE
  5
39F
100
AcDbEntity
  8
0
100
AcDbSpline
 62
7
  6
CONTINUOUS
 70
0
 71
3
 72
39
 73
35
 74
0
 42
0.0000001
 43
0.0000001
 44
0.0000000001
 40
0.0
 40
0.0
 40
0.0
 40
0.0
 40
0.0314026163
 40
0.0630094802
 40
0.0948071156
 40
0.1267734443
 40
0.1588809719
 40
0.1910970226
 40
0.2233851133
 40
0.2557062446
 40
0.2880202668
 40
0.3202872758
 40
0.3524690062
 40
0.3845301827
 40
0.4164397934
 40
0.4481722512
 40
0.4797084083
 40
0.5110363787
 40
0.5421521198
 40
0.5730597435
 40
0.6037715204
 40
0.6343075558
 40
0.6646951112
 40
0.69496759
 40
0.7251632189
 40
0.7553234785
 40
0.7854913552
 40
0.8157095102
 40
0.8460184684
 40
0.8764549241
 40
0.9070502294
 40
0.9378293436
 40
0.9688091107
 40
1.0
 40
1.0
 40
1.0
 40
1.0
 10
11.7948501417
 20
8.8565836661
 30
0.0
 10
11.7991618777
 20
8.8562846462
 30
0.0
 10
11.8077896521
 20
8.8552597505
 30
0.0
 10
11.820557443
 20
8.8524761257
 30
0.0
 10
11.833077752
 20
8.8484680412
 30
0.0
 10
11.8452287887
 20
8.8432743355
 30
0.0
 10
11.8568943412
 20
8.8369451962
 30
0.0
 10
11.8679623789
 20
8.8295415915
 30
0.0
 10
11.8783267711
 20
8.8211347629
 30
0.0
 10
11.8878880743
 20
8.8118054877
 30
0.0
 10
11.8965545217
 20
8.8016433312
 30
0.0
 10
11.9042428638
 20
8.790745799
 30
0.0
 10
11.9108792065
 20
8.7792174542
 30
0.0
 10
11.9163996778
 20
8.7671688999
 30
0.0
 10
11.920751026
 20
8.7547157416
 30
0.0
 10
11.9238911265
 20
8.7419775075
 30
0.0
 10
11.9257894136
 20
8.7290765389
 30
0.0
 10
11.9264272239
 20
8.7161368411
 30
0.0
 10
11.9257979459
 20
8.7032829072
 30
0.0
 10
11.9239071302
 20
8.6906385484
 30
0.0
 10
11.9207724696
 20
8.67832572
 30
0.0
 10
11.9164237365
 20
8.6664633306
 30
0.0
 10
11.9109025133
 20
8.655166072
 30
0.0
 10
11.9042618127
 20
8.6445432858
 30
0.0
 10
11.8965655996
 20
8.6346978599
 30
0.0
 10
11.8878881905
 20
8.6257251725
 30
0.0
 10
11.8783135524
 20
8.6177120714
 30
0.0
 10
11.8679343979
 20
8.6107360259
 30
0.0
 10
11.8568512584
 20
8.604864344
 30
0.0
 10
11.8451714033
 20
8.6001535398
 30
0.0
 10
11.8330079347
 20
8.5966487135
 30
0.0
 10
11.8204780316
 20
8.5943833166
 30
0.0
 10
11.8077041395
 20
8.5933784665
 30
0.0
 10
11.7991328066
 20
8.593554822
 30
0.0
 10
11.7948501417
 20
8.5938518258
 30
0.0
  0
SPLINE
  5
3A0
100
AcDbEntity
  8
0
100
AcDbSpline
 62
7
  6
CONTINUOUS
 70
0
 71
3
 72
23
 73
19
 74
0
 42
0.0000001
 43
0.0000001
 44
0.0000000001
 40
0.0
 40
0.0
 40
0.0
 40
0.0
 40
0.0749622956
 40
0.1455687508
 40
0.2121601675
 40
0.2751635748
 40
0.33509855
 40
0.3925837401
 40
0.4483299218
 40
0.5031241966
 40
0.5577987316
 40
0.6131918565
 40
0.6701072336
 40
0.7292787372
 40
0.7913521562
 40
0.8568780091
 40
0.9263100847
 40
1.0
 40
1.0
 40
1.0
 40
1.0
 10
10.0102911075
 20
10.6979119054
 30
0.0
 10
10.0094825693
 20
10.6986643333
 30
0.0
 10
10.0079573211
 20
10.7001749708
 30
0.0
 10
10.0058992233
 20
10.7025317102
 30
0.0
 10
10.0041442773
 20
10.7049071838
 30
0.0
 10
10.0026949453
 20
10.7072992022
 30
0.0
 10
10.0015538098
 20
10.7097057608
 30
0.0
 10
10.0007232594
 20
10.7121243069
 30
0.0
 10
10.0002058116
 20
10.7145517958
 30
0.0
 10
10.0000031204
 20
10.7169843383
 30
0.0
 10
10.0001161574
 20
10.7194175318
 30
0.0
 10
10.0005443088
 20
10.7218468861
 30
0.0
 10
10.0012861644
 20
10.7242683122
 30
0.0
 10
10.0023392796
 20
10.7266785455
 30
0.0
 10
10.0037013016
 20
10.7290749174
 30
0.0
 10
10.0053697125
 20
10.731455361
 30
0.0
 10
10.0073419543
 20
10.7338175713
 30
0.0
 10
10.0088121238
 20
10.7353321534
 30
0.0
 10
10.009593044
 20
10.7360864645
 30
0.0
  0
SPLINE
  5
3A1
100
AcDbEntity
  8
0
100
AcDbSpline
 62
7
  6
CONTINUOUS
 70
0
 71
3
 72
39
 73
35
 74
0
 42
0.0000001
 43
0.0000001
 44
0.0000000001
 40
0.0
 40
0.0
 40
0.0
 40
0.0
 40
0.0314026163
 40
0.0630094802
 40
0.0948071156
 40
0.1267734443
 40
0.1588809719
 40
0.1910970226
 40
0.2233851133
 40
0.2557062446
 40
0.2880202668
 40
0.3202872758
 40
0.3524690062
 40
0.3845301827
 40
0.4164397934
 40
0.4481722512
 40
0.4797084083
 40
0.5110363787
 40
0.5421521198
 40
0.5730597435
 40
0.6037715204
 40
0.6343075558
 40
0.6646951112
 40
0.69496759
 40
0.7251632189
 40
0.7553234785
 40
0.7854913552
 40
0.8157095102
 40
0.8460184684
 40
0.8764549241
 40
0.9070502294
 40
0.9378293436
 40
0.9688091107
 40
1.0
 40
1.0
 40
1.0
 40
1.0
 10
11.7948501417
 20
8.5938518258
 30
0.0
 10
11.7905384056
 20
8.5941508457
 30
0.0
 10
11.7819106313
 20
8.5951757413
 30
0.0
 10
11.7691428404
 20
8.5979593661
 30
0.0
 10
11.7566225313
 20
8.6019674506
 30
0.0
 10
11.7444714947
 20
8.6071611563
 30
0.0
 10
11.7328059422
 20
8.6134902956
 30
0.0
 10
11.7217379044
 20
8.6208939004
 30
0.0
 10
11.7113735122
 20
8.629300729
 30
0.0
 10
11.7018122091
 20
8.6386300041
 30
0.0
 10
11.6931457616
 20
8.6487921607
 30
0.0
 10
11.6854574195
 20
8.6596896928
 30
0.0
 10
11.6788210768
 20
8.6712180377
 30
0.0
 10
11.6733006055
 20
8.683266592
 30
0.0
 10
11.6689492573
 20
8.6957197503
 30
0.0
 10
11.6658091569
 20
8.7084579843
 30
0.0
 10
11.6639108698
 20
8.721358953
 30
0.0
 10
11.6632730594
 20
8.7342986508
 30
0.0
 10
11.6639023374
 20
8.7471525847
 30
0.0
 10
11.6657931531
 20
8.7597969435
 30
0.0
 10
11.6689278137
 20
8.7721097719
 30
0.0
 10
11.6732765468
 20
8.7839721612
 30
0.0
 10
11.6787977701
 20
8.7952694199
 30
0.0
 10
11.6854384706
 20
8.8058922061
 30
0.0
 10
11.6931346837
 20
8.815737632
 30
0.0
 10
11.7018120928
 20
8.8247103194
 30
0.0
 10
11.711386731
 20
8.8327234204
 30
0.0
 10
11.7217658854
 20
8.839699466
 30
0.0
 10
11.732849025
 20
8.8455711479
 30
0.0
 10
11.7445288801
 20
8.8502819521
 30
0.0
 10
11.7566923486
 20
8.8537867784
 30
0.0
 10
11.7692222517
 20
8.8560521753
 30
0.0
 10
11.7819961439
 20
8.8570570253
 30
0.0
 10
11.7905674768
 20
8.8568806699
 30
0.0
 10
11.7948501417
 20
8.8565836661
 30
0.0
  0
SPLINE
  5
3A2
100
AcDbEntity
  8
0
100
AcDbSpline
 62
7
  6
CONTINUOUS
 70
0
 71
3
 72
18
 73
14
 74
0
 42
0.0000001
 43
0.0000001
 44
0.0000000001
 40
0.0
 40
0.0
 40
0.0
 40
0.0
 40
0.1504683897
 40
0.2917144302
 40
0.4244424337
 40
0.4879098403
 40
0.5496094316
 40
0.6682625858
 40
0.7817882724
 40
0.8371379912
 40
0.8918078094
 40
0.9460192717
 40
1.0
 40
1.0
 40
1.0
 40
1.0
 10
13.1179425022
 20
8.1955380608
 30
0.0
 10
13.116260371
 20
8.1939132467
 30
0.0
 10
13.1128983996
 20
8.1908646263
 30
0.0
 10
13.1076927378
 20
8.1868019778
 30
0.0
 10
13.1032956776
 20
8.1839286568
 30
0.0
 10
13.0997894038
 20
8.1819829374
 30
0.0
 10
13.0963862834
 20
8.1803124718
 30
0.0
 10
13.0921313034
 20
8.1786245291
 30
0.0
 10
13.0878006352
 20
8.1774726731
 30
0.0
 10
13.0843706182
 20
8.1769052529
 30
0.0
 10
13.0818284999
 20
8.1766534355
 30
0.0
 10
13.0792966666
 20
8.1765721101
 30
0.0
 10
13.0776145787
 20
8.1766316169
 30
0.0
 10
13.0767775725
 20
8.1766896679
 30
0.0
  0
SPLINE
  5
3A3
100
AcDbEntity
  8
0
100
AcDbSpline
 62
7
  6
CONTINUOUS
 70
0
 71
3
 72
23
 73
19
 74
0
 42
0.0000001
 43
0.0000001
 44
0.0000000001
 40
0.0
 40
0.0
 40
0.0
 40
0.0
 40
0.0749622956
 40
0.1455687508
 40
0.2121601675
 40
0.2751635748
 40
0.33509855
 40
0.3925837401
 40
0.4483299218
 40
0.5031241966
 40
0.5577987316
 40
0.6131918565
 40
0.6701072336
 40
0.7292787372
 40
0.7913521562
 40
0.8568780091
 40
0.9263100847
 40
1.0
 40
1.0
 40
1.0
 40
1.0
 10
10.79070562
 20
10.3257345553
 30
0.0
 10
10.7898970818
 20
10.3264869833
 30
0.0
 10
10.7883718336
 20
10.3279976207
 30
0.0
 10
10.7863137358
 20
10.3303543602
 30
0.0
 10
10.7845587898
 20
10.3327298337
 30
0.0
 10
10.7831094578
 20
10.3351218522
 30
0.0
 10
10.7819683223
 20
10.3375284107
 30
0.0
 10
10.7811377718
 20
10.3399469568
 30
0.0
 10
10.780620324
 20
10.3423744457
 30
0.0
 10
10.7804176328
 20
10.3448069883
 30
0.0
 10
10.7805306699
 20
10.3472401817
 30
0.0
 10
10.7809588213
 20
10.3496695361
 30
0.0
 10
10.7817006769
 20
10.3520909622
 30
0.0
 10
10.7827537921
 20
10.3545011954
 30
0.0
 10
10.784115814
 20
10.3568975674
 30
0.0
 10
10.7857842249
 20
10.3592780109
 30
0.0
 10
10.7877564668
 20
10.3616402213
 30
0.0
 10
10.7892266362
 20
10.3631548034
 30
0.0
 10
10.7900075565
 20
10.3639091145
 30
0.0
  0
SPLINE
  5
3A4
100
AcDbEntity
  8
0
100
AcDbSpline
 62
7
  6
CONTINUOUS
 70
0
 71
3
 72
39
 73
35
 74
0
 42
0.0000001
 43
0.0000001
 44
0.0000000001
 40
0.0
 40
0.0
 40
0.0
 40
0.0
 40
0.0314026163
 40
0.0630094802
 40
0.0948071156
 40
0.1267734443
 40
0.1588809719
 40
0.1910970226
 40
0.2233851133
 40
0.2557062446
 40
0.2880202668
 40
0.3202872758
 40
0.3524690062
 40
0.3845301827
 40
0.4164397934
 40
0.4481722512
 40
0.4797084083
 40
0.5110363787
 40
0.5421521198
 40
0.5730597435
 40
0.6037715204
 40
0.6343075558
 40
0.6646951112
 40
0.69496759
 40
0.7251632189
 40
0.7553234785
 40
0.7854913552
 40
0.8157095102
 40
0.8460184684
 40
0.8764549241
 40
0.9070502294
 40
0.9378293436
 40
0.9688091107
 40
1.0
 40
1.0
 40
1.0
 40
1.0
 10
9.7422576392
 20
7.2477078478
 30
0.0
 10
9.7465693753
 20
7.2474088279
 30
0.0
 10
9.7551971496
 20
7.2463839322
 30
0.0
 10
9.7679649405
 20
7.2436003074
 30
0.0
 10
9.7804852495
 20
7.2395922229
 30
0.0
 10
9.7926362862
 20
7.2343985172
 30
0.0
 10
9.8043018387
 20
7.2280693779
 30
0.0
 10
9.8153698765
 20
7.2206657732
 30
0.0
 10
9.8257342686
 20
7.2122589446
 30
0.0
 10
9.8352955718
 20
7.2029296694
 30
0.0
 10
9.8439620192
 20
7.1927675129
 30
0.0
 10
9.8516503613
 20
7.1818699807
 30
0.0
 10
9.858286704
 20
7.1703416359
 30
0.0
 10
9.8638071754
 20
7.1582930816
 30
0.0
 10
9.8681585235
 20
7.1458399233
 30
0.0
 10
9.871298624
 20
7.1331016892
 30
0.0
 10
9.8731969111
 20
7.1202007206
 30
0.0
 10
9.8738347214
 20
7.1072610228
 30
0.0
 10
9.8732054434
 20
7.0944070889
 30
0.0
 10
9.8713146277
 20
7.0817627301
 30
0.0
 10
9.8681799671
 20
7.0694499017
 30
0.0
 10
9.8638312341
 20
7.0575875123
 30
0.0
 10
9.8583100108
 20
7.0462902537
 30
0.0
 10
9.8516693102
 20
7.0356674675
 30
0.0
 10
9.8439730971
 20
7.0258220416
 30
0.0
 10
9.835295688
 20
7.0168493542
 30
0.0
 10
9.8257210499
 20
7.0088362531
 30
0.0
 10
9.8153418955
 20
7.0018602076
 30
0.0
 10
9.8042587559
 20
6.9959885257
 30
0.0
 10
9.7925789008
 20
6.9912777215
 30
0.0
 10
9.7804154322
 20
6.9877728952
 30
0.0
 10
9.7678855291
 20
6.9855074983
 30
0.0
 10
9.755111637
 20
6.9845026482
 30
0.0
 10
9.7465403041
 20
6.9846790037
 30
0.0
 10
9.7422576392
 20
6.9849760075
 30
0.0
  0
SPLINE
  5
3A5
100
AcDbEntity
  8
0
100
AcDbSpline
 62
7
  6
CONTINUOUS
 70
0
 71
3
 72
39
 73
35
 74
0
 42
0.0000001
 43
0.0000001
 44
0.0000000001
 40
0.0
 40
0.0
 40
0.0
 40
0.0
 40
0.0314026163
 40
0.0630094802
 40
0.0948071156
 40
0.1267734443
 40
0.1588809719
 40
0.1910970226
 40
0.2233851133
 40
0.2557062446
 40
0.2880202668
 40
0.3202872758
 40
0.3524690062
 40
0.3845301827
 40
0.4164397934
 40
0.4481722512
 40
0.4797084083
 40
0.5110363787
 40
0.5421521198
 40
0.5730597435
 40
0.6037715204
 40
0.6343075558
 40
0.6646951112
 40
0.69496759
 40
0.7251632189
 40
0.7553234785
 40
0.7854913552
 40
0.8157095102
 40
0.8460184684
 40
0.8764549241
 40
0.9070502294
 40
0.9378293436
 40
0.9688091107
 40
1.0
 40
1.0
 40
1.0
 40
1.0
 10
9.7422576392
 20
6.9849760075
 30
0.0
 10
9.7379459031
 20
6.9852750274
 30
0.0
 10
9.7293181288
 20
6.986299923
 30
0.0
 10
9.7165503379
 20
6.9890835478
 30
0.0
 10
9.7040300288
 20
6.9930916323
 30
0.0
 10
9.6918789922
 20
6.998285338
 30
0.0
 10
9.6802134397
 20
7.0046144773
 30
0.0
 10
9.6691454019
 20
7.0120180821
 30
0.0
 10
9.6587810098
 20
7.0204249107
 30
0.0
 10
9.6492197066
 20
7.0297541858
 30
0.0
 10
9.6405532592
 20
7.0399163424
 30
0.0
 10
9.6328649171
 20
7.0508138745
 30
0.0
 10
9.6262285743
 20
7.0623422194
 30
0.0
 10
9.620708103
 20
7.0743907737
 30
0.0
 10
9.6163567548
 20
7.086843932
 30
0.0
 10
9.6132166544
 20
7.0995821661
 30
0.0
 10
9.6113183673
 20
7.1124831347
 30
0.0
 10
9.610680557
 20
7.1254228325
 30
0.0
 10
9.6113098349
 20
7.1382767664
 30
0.0
 10
9.6132006507
 20
7.1509211252
 30
0.0
 10
9.6163353112
 20
7.1632339536
 30
0.0
 10
9.6206840443
 20
7.1750963429
 30
0.0
 10
9.6262052676
 20
7.1863936016
 30
0.0
 10
9.6328459681
 20
7.1970163878
 30
0.0
 10
9.6405421812
 20
7.2068618137
 30
0.0
 10
9.6492195903
 20
7.2158345011
 30
0.0
 10
9.6587942285
 20
7.2238476021
 30
0.0
 10
9.6691733829
 20
7.2308236477
 30
0.0
 10
9.6802565225
 20
7.2366953296
 30
0.0
 10
9.6919363776
 20
7.2414061338
 30
0.0
 10
9.7040998462
 20
7.2449109601
 30
0.0
 10
9.7166297493
 20
7.247176357
 30
0.0
 10
9.7294036414
 20
7.248181207
 30
0.0
 10
9.7379749743
 20
7.2480048516
 30
0.0
 10
9.7422576392
 20
7.2477078478
 30
0.0
  0
SPLINE
  5
3A6
100
AcDbEntity
  8
0
100
AcDbSpline
 62
7
  6
CONTINUOUS
 70
0
 71
3
 72
39
 73
35
 74
0
 42
0.0000001
 43
0.0000001
 44
0.0000000001
 40
0.0
 40
0.0
 40
0.0
 40
0.0
 40
0.0314026163
 40
0.0630094802
 40
0.0948071156
 40
0.1267734443
 40
0.1588809719
 40
0.1910970226
 40
0.2233851133
 40
0.2557062446
 40
0.2880202668
 40
0.3202872758
 40
0.3524690062
 40
0.3845301827
 40
0.4164397934
 40
0.4481722512
 40
0.4797084083
 40
0.5110363787
 40
0.5421521198
 40
0.5730597435
 40
0.6037715204
 40
0.6343075558
 40
0.6646951112
 40
0.69496759
 40
0.7251632189
 40
0.7553234785
 40
0.7854913552
 40
0.8157095102
 40
0.8460184684
 40
0.8764549241
 40
0.9070502294
 40
0.9378293436
 40
0.9688091107
 40
1.0
 40
1.0
 40
1.0
 40
1.0
 10
11.7948501417
 20
7.1053600743
 30
0.0
 10
11.7991618777
 20
7.1050610544
 30
0.0
 10
11.8077896521
 20
7.1040361587
 30
0.0
 10
11.820557443
 20
7.1012525339
 30
0.0
 10
11.833077752
 20
7.0972444494
 30
0.0
 10
11.8452287887
 20
7.0920507437
 30
0.0
 10
11.8568943412
 20
7.0857216044
 30
0.0
 10
11.8679623789
 20
7.0783179996
 30
0.0
 10
11.8783267711
 20
7.069911171
 30
0.0
 10
11.8878880743
 20
7.0605818959
 30
0.0
 10
11.8965545217
 20
7.0504197393
 30
0.0
 10
11.9042428638
 20
7.0395222072
 30
0.0
 10
11.9108792065
 20
7.0279938623
 30
0.0
 10
11.9163996778
 20
7.015945308
 30
0.0
 10
11.920751026
 20
7.0034921498
 30
0.0
 10
11.9238911265
 20
6.9907539157
 30
0.0
 10
11.9257894136
 20
6.977852947
 30
0.0
 10
11.9264272239
 20
6.9649132493
 30
0.0
 10
11.9257979459
 20
6.9520593154
 30
0.0
 10
11.9239071302
 20
6.9394149566
 30
0.0
 10
11.9207724696
 20
6.9271021282
 30
0.0
 10
11.9164237365
 20
6.9152397388
 30
0.0
 10
11.9109025133
 20
6.9039424802
 30
0.0
 10
11.9042618127
 20
6.893319694
 30
0.0
 10
11.8965655996
 20
6.8834742681
 30
0.0
 10
11.8878881905
 20
6.8745015807
 30
0.0
 10
11.8783135524
 20
6.8664884796
 30
0.0
 10
11.8679343979
 20
6.8595124341
 30
0.0
 10
11.8568512584
 20
6.8536407522
 30
0.0
 10
11.8451714033
 20
6.8489299479
 30
0.0
 10
11.8330079347
 20
6.8454251217
 30
0.0
 10
11.8204780316
 20
6.8431597248
 30
0.0
 10
11.8077041395
 20
6.8421548747
 30
0.0
 10
11.7991328066
 20
6.8423312301
 30
0.0
 10
11.7948501417
 20
6.8426282339
 30
0.0
  0
SPLINE
  5
3A7
100
AcDbEntity
  8
0
100
AcDbSpline
 62
7
  6
CONTINUOUS
 70
0
 71
3
 72
53
 73
49
 74
0
 42
0.0000001
 43
0.0000001
 44
0.0000000001
 40
0.0
 40
0.0
 40
0.0
 40
0.0
 40
0.0080824019
 40
0.0167313485
 40
0.025960258
 40
0.0357770839
 40
0.0461845671
 40
0.0571817215
 40
0.0687643171
 40
0.0809253425
 40
0.0936553507
 40
0.1069427236
 40
0.1207740484
 40
0.1351341006
 40
0.1500062764
 40
0.1653724183
 40
0.1975072476
 40
0.2313717335
 40
0.2667820453
 40
0.3035410721
 40
0.341440592
 40
0.3802632748
 40
0.4197845824
 40
0.4597746089
 40
0.4999998851
 40
0.5402251646
 40
0.5802152009
 40
0.619736525
 40
0.6585592306
 40
0.6964587796
 40
0.7332178414
 40
0.768628194
 40
0.802492726
 40
0.8346276064
 40
0.8499937756
 40
0.8648659796
 40
0.8792260609
 40
0.8930574163
 40
0.9063448207
 40
0.9190748589
 40
0.9312359153
 40
0.9428185511
 40
0.9538157414
 40
0.9642232256
 40
0.9740400845
 40
0.9832691598
 40
0.9919180923
 40
1.0
 40
1.0
 40
1.0
 40
1.0
 10
10.8591114227
 20
10.2948258146
 30
0.0
 10
10.8599733908
 20
10.2955381331
 30
0.0
 10
10.8618098847
 20
10.2969503112
 30
0.0
 10
10.8647828589
 20
10.2989685356
 30
0.0
 10
10.8680613538
 20
10.3009545612
 30
0.0
 10
10.8716403418
 20
10.3029053368
 30
0.0
 10
10.8755144774
 20
10.30481802
 30
0.0
 10
10.8796778405
 20
10.306689617
 30
0.0
 10
10.8841240357
 20
10.3085172619
 30
0.0
 10
10.8888462094
 20
10.3102981069
 30
0.0
 10
10.8938370541
 20
10.3120293499
 30
0.0
 10
10.8990888139
 20
10.3137082986
 30
0.0
 10
10.9045933205
 20
10.3153322764
 30
0.0
 10
10.9103419857
 20
10.3168987686
 30
0.0
 10
10.9163258494
 20
10.3184052785
 30
0.0
 10
10.924731315
 20
10.320360033
 30
0.0
 10
10.9357600673
 20
10.3226260549
 30
0.0
 10
10.949584088
 20
10.3250327576
 30
0.0
 10
10.96410204
 20
10.3271504506
 30
0.0
 10
10.9792231038
 20
10.3289656813
 30
0.0
 10
10.9948527886
 20
10.3304668743
 30
0.0
 10
11.0108932978
 20
10.3316444821
 30
0.0
 10
11.0272442342
 20
10.3324910168
 30
0.0
 10
11.0438032227
 20
10.3330010999
 30
0.0
 10
11.0604665693
 20
10.3331714915
 30
0.0
 10
11.0771299174
 20
10.3330011095
 30
0.0
 10
11.0936889104
 20
10.3324910359
 30
0.0
 10
11.110039854
 20
10.3316445106
 30
0.0
 10
11.1260803733
 20
10.330466912
 30
0.0
 10
11.1417100711
 20
10.3289657279
 30
0.0
 10
11.1568311505
 20
10.327150506
 30
0.0
 10
11.1713491208
 20
10.3250328213
 30
0.0
 10
11.1851731623
 20
10.3226261265
 30
0.0
 10
11.1962019334
 20
10.3203601111
 30
0.0
 10
11.2046074153
 20
10.3184053615
 30
0.0
 10
11.2105912919
 20
10.3168988551
 30
0.0
 10
11.2163399707
 20
10.3153323662
 30
0.0
 10
11.2218444914
 20
10.3137083915
 30
0.0
 10
11.2270962655
 20
10.3120294456
 30
0.0
 10
11.2320871248
 20
10.3102982059
 30
0.0
 10
11.2368093147
 20
10.3085173641
 30
0.0
 10
11.2412555262
 20
10.3066897198
 30
0.0
 10
11.2454189018
 20
10.3048181249
 30
0.0
 10
11.2492930527
 20
10.302905451
 30
0.0
 10
11.2528720716
 20
10.3009546739
 30
0.0
 10
11.2561505839
 20
10.2989686272
 30
0.0
 10
11.2591235245
 20
10.2969504394
 30
0.0
 10
11.2609599846
 20
10.2955383328
 30
0.0
 10
11.2618219057
 20
10.2948260649
 30
0.0
  0
SPLINE
  5
3A8
100
AcDbEntity
  8
0
100
AcDbSpline
 62
7
  6
CONTINUOUS
 70
0
 71
3
 72
39
 73
35
 74
0
 42
0.0000001
 43
0.0000001
 44
0.0000000001
 40
0.0
 40
0.0
 40
0.0
 40
0.0
 40
0.0314026163
 40
0.0630094802
 40
0.0948071156
 40
0.1267734443
 40
0.1588809719
 40
0.1910970226
 40
0.2233851133
 40
0.2557062446
 40
0.2880202668
 40
0.3202872758
 40
0.3524690062
 40
0.3845301827
 40
0.4164397934
 40
0.4481722512
 40
0.4797084083
 40
0.5110363787
 40
0.5421521198
 40
0.5730597435
 40
0.6037715204
 40
0.6343075558
 40
0.6646951112
 40
0.69496759
 40
0.7251632189
 40
0.7553234785
 40
0.7854913552
 40
0.8157095102
 40
0.8460184684
 40
0.8764549241
 40
0.9070502294
 40
0.9378293436
 40
0.9688091107
 40
1.0
 40
1.0
 40
1.0
 40
1.0
 10
11.7948501417
 20
6.8426282339
 30
0.0
 10
11.7905384056
 20
6.8429272539
 30
0.0
 10
11.7819106313
 20
6.8439521495
 30
0.0
 10
11.7691428404
 20
6.8467357743
 30
0.0
 10
11.7566225313
 20
6.8507438588
 30
0.0
 10
11.7444714947
 20
6.8559375645
 30
0.0
 10
11.7328059422
 20
6.8622667038
 30
0.0
 10
11.7217379044
 20
6.8696703086
 30
0.0
 10
11.7113735122
 20
6.8780771372
 30
0.0
 10
11.7018122091
 20
6.8874064123
 30
0.0
 10
11.6931457616
 20
6.8975685689
 30
0.0
 10
11.6854574195
 20
6.908466101
 30
0.0
 10
11.6788210768
 20
6.9199944459
 30
0.0
 10
11.6733006055
 20
6.9320430002
 30
0.0
 10
11.6689492573
 20
6.9444961584
 30
0.0
 10
11.6658091569
 20
6.9572343925
 30
0.0
 10
11.6639108698
 20
6.9701353612
 30
0.0
 10
11.6632730594
 20
6.9830750589
 30
0.0
 10
11.6639023374
 20
6.9959289928
 30
0.0
 10
11.6657931531
 20
7.0085733516
 30
0.0
 10
11.6689278137
 20
7.02088618
 30
0.0
 10
11.6732765468
 20
7.0327485694
 30
0.0
 10
11.6787977701
 20
7.0440458281
 30
0.0
 10
11.6854384706
 20
7.0546686142
 30
0.0
 10
11.6931346837
 20
7.0645140402
 30
0.0
 10
11.7018120928
 20
7.0734867275
 30
0.0
 10
11.711386731
 20
7.0814998286
 30
0.0
 10
11.7217658854
 20
7.0884758742
 30
0.0
 10
11.732849025
 20
7.094347556
 30
0.0
 10
11.7445288801
 20
7.0990583603
 30
0.0
 10
11.7566923486
 20
7.1025631866
 30
0.0
 10
11.7692222517
 20
7.1048285834
 30
0.0
 10
11.7819961439
 20
7.1058334335
 30
0.0
 10
11.7905674768
 20
7.1056570781
 30
0.0
 10
11.7948501417
 20
7.1053600743
 30
0.0
  0
SPLINE
  5
3A9
100
AcDbEntity
  8
0
100
AcDbSpline
 62
7
  6
CONTINUOUS
 70
0
 71
3
 72
11
 73
7
 74
0
 42
0.0000001
 43
0.0000001
 44
0.0000000001
 40
0.0
 40
0.0
 40
0.0
 40
0.0
 40
0.2462598102
 40
0.4940332787
 40
0.7448046145
 40
1.0
 40
1.0
 40
1.0
 40
1.0
 10
11.0382565612
 20
10.6272991053
 30
0.0
 10
11.0382565589
 20
10.6282810477
 30
0.0
 10
11.038336961
 20
10.6302518924
 30
0.0
 10
11.0386983858
 20
10.6332027749
 30
0.0
 10
11.0393003857
 20
10.6361504091
 30
0.0
 10
11.0398560373
 20
10.6380922356
 30
0.0
 10
11.0401716629
 20
10.6390596207
 30
0.0
  0
SPLINE
  5
3AA
100
AcDbEntity
  8
0
100
AcDbSpline
 62
7
  6
CONTINUOUS
 70
0
 71
3
 72
73
 73
69
 74
0
 42
0.0000001
 43
0.0000001
 44
0.0000000001
 40
0.0
 40
0.0
 40
0.0
 40
0.0
 40
0.0085742
 40
0.0179223712
 40
0.0280748659
 40
0.0390496887
 40
0.0508534563
 40
0.0634843528
 40
0.0769337063
 40
0.0911871318
 40
0.1062254071
 40
0.1220251419
 40
0.1385593659
 40
0.155797944
 40
0.1737078655
 40
0.1922535733
 40
0.2113972489
 40
0.2310990163
 40
0.2513171048
 40
0.2720080843
 40
0.3146266377
 40
0.3585816196
 40
0.4034826385
 40
0.4489281191
 40
0.4945101589
 40
0.5398192651
 40
0.5844491039
 40
0.6280013105
 40
0.6492527226
 40
0.670091429
 40
0.69047206
 40
0.7103506619
 40
0.7296848954
 40
0.7484342455
 40
0.7665601747
 40
0.7840263305
 40
0.8007988387
 40
0.8168465801
 40
0.8321414712
 40
0.8466588627
 40
0.8603780991
 40
0.873283104
 40
0.8853631547
 40
0.8966139856
 40
0.907039309
 40
0.9119469328
 40
0.9166542751
 40
0.9211650498
 40
0.9254840139
 40
0.9296169933
 40
0.9335712025
 40
0.9373553081
 40
0.940979592
 40
0.9477950869
 40
0.9510209541
 40
0.9541479269
 40
0.9571963814
 40
0.9601885237
 40
0.9631479593
 40
0.9660991517
 40
0.9690667988
 40
0.9720751532
 40
0.9751474159
 40
0.9783051762
 40
0.9849493987
 40
0.9884738235
 40
0.992150365
 40
1.0
 40
1.0
 40
1.0
 40
1.0
 10
10.7900075565
 20
10.3639091145
 30
0.0
 10
10.7912466112
 20
10.3651059495
 30
0.0
 10
10.7939648435
 20
10.3674765286
 30
0.0
 10
10.7985083125
 20
10.3708273691
 30
0.0
 10
10.8036785087
 20
10.3741155805
 30
0.0
 10
10.8094631887
 20
10.3773337187
 30
0.0
 10
10.8158495162
 20
10.380474728
 30
0.0
 10
10.8228226716
 20
10.3835312914
 30
0.0
 10
10.8303663924
 20
10.3864961941
 30
0.0
 10
10.8384629163
 20
10.3893623165
 30
0.0
 10
10.8470930478
 20
10.3921227529
 30
0.0
 10
10.8562362287
 20
10.3947708359
 30
0.0
 10
10.8658706223
 20
10.3973001447
 30
0.0
 10
10.8759731722
 20
10.3997045297
 30
0.0
 10
10.8865196541
 20
10.4019781626
 30
0.0
 10
10.8974847482
 20
10.4041155312
 30
0.0
 10
10.9088421183
 20
10.4061114479
 30
0.0
 10
10.9205644626
 20
10.4079610506
 30
0.0
 10
10.932623611
 20
10.4096598969
 30
0.0
 10
10.9492769453
 20
10.4117388587
 30
0.0
 10
10.9707207297
 20
10.4139207104
 30
0.0
 10
10.9970680136
 20
10.4158587301
 30
0.0
 10
11.0240248062
 20
10.4171223573
 30
0.0
 10
11.0513318614
 20
10.417699273
 30
0.0
 10
11.0787267333
 20
10.417583755
 30
0.0
 10
11.1059461067
 20
10.4167769967
 30
0.0
 10
11.1327281829
 20
10.4152868212
 30
0.0
 10
11.1546433331
 20
10.4134734222
 30
0.0
 10
11.1717574014
 20
10.4116833939
 30
0.0
 10
11.1842203405
 20
10.4101919366
 30
0.0
 10
11.1963853272
 20
10.4085443138
 30
0.0
 10
11.2082231145
 20
10.4067444844
 30
0.0
 10
11.2197052236
 20
10.4047968159
 30
0.0
 10
11.2308040568
 20
10.4027060422
 30
0.0
 10
11.2414929462
 20
10.4004772381
 30
0.0
 10
11.2517462221
 20
10.3981158016
 30
0.0
 10
11.2615392918
 20
10.3956274659
 30
0.0
 10
11.2708487055
 20
10.393018279
 30
0.0
 10
11.2796522081
 20
10.3902945676
 30
0.0
 10
11.2879288023
 20
10.3874629124
 30
0.0
 10
11.2956588459
 20
10.3845301564
 30
0.0
 10
11.3028240692
 20
10.381503355
 30
0.0
 10
11.3094077665
 20
10.3783896781
 30
0.0
 10
11.3153943995
 20
10.375196469
 30
0.0
 10
11.3199625994
 20
10.3724218755
 30
0.0
 10
11.3232955888
 20
10.3701615804
 30
0.0
 10
11.3255866782
 20
10.3684854472
 30
0.0
 10
11.3277184033
 20
10.3667951327
 30
0.0
 10
11.3296895344
 20
10.3650916029
 30
0.0
 10
11.3314988735
 20
10.3633757356
 30
0.0
 10
11.3331453106
 20
10.3616485681
 30
0.0
 10
11.3346280164
 20
10.359910772
 30
0.0
 10
11.3363495009
 20
10.3576283615
 30
0.0
 10
11.337790387
 20
10.3552780988
 30
0.0
 10
11.3389012413
 20
10.3528742036
 30
0.0
 10
11.3395512195
 20
10.3510982217
 30
0.0
 10
11.3400322688
 20
10.3493177325
 30
0.0
 10
11.3403438675
 20
10.3475339122
 30
0.0
 10
11.3404856315
 20
10.3457481552
 30
0.0
 10
11.3404572607
 20
10.343961903
 30
0.0
 10
11.3402588697
 20
10.3421766293
 30
0.0
 10
11.3398907452
 20
10.3403937789
 30
0.0
 10
11.3393532494
 20
10.3386146116
 30
0.0
 10
11.3383959439
 20
10.3362088678
 30
0.0
 10
11.3371034979
 20
10.3338502992
 30
0.0
 10
11.3355248831
 20
10.3315584047
 30
0.0
 10
11.3336534506
 20
10.3291809214
 30
0.0
 10
11.3320603993
 20
10.3274919856
 30
0.0
 10
11.3309260513
 20
10.3263962894
 30
0.0
  0
SPLINE
  5
3AB
100
AcDbEntity
  8
0
100
AcDbSpline
 62
7
  6
CONTINUOUS
 70
0
 71
3
 72
15
 73
11
 74
0
 42
0.0000001
 43
0.0000001
 44
0.0000000001
 40
0.0
 40
0.0
 40
0.0
 40
0.0
 40
0.1269543169
 40
0.2532786486
 40
0.3789933813
 40
0.5041314773
 40
0.6287387435
 40
0.7528725202
 40
0.8766006586
 40
1.0
 40
1.0
 40
1.0
 40
1.0
 10
9.6506525662
 20
7.6356013075
 30
0.0
 10
9.6506525662
 20
7.6406577036
 30
0.0
 10
9.651015949
 20
7.6507493177
 30
0.0
 10
9.6526579955
 20
7.6657674129
 30
0.0
 10
9.6553870721
 20
7.6805539297
 30
0.0
 10
9.6591888502
 20
7.6950309155
 30
0.0
 10
9.6640432263
 20
7.7091233046
 30
0.0
 10
9.6699247524
 20
7.7227581199
 30
0.0
 10
9.6768017487
 20
7.7358637787
 30
0.0
 10
9.6820332377
 20
7.7442145067
 30
0.0
 10
9.6848004123
 20
7.7482762884
 30
0.0
  0
SPLINE
  5
3AC
100
AcDbEntity
  8
0
100
AcDbSpline
 62
7
  6
CONTINUOUS
 70
0
 71
3
 72
15
 73
11
 74
0
 42
0.0000001
 43
0.0000001
 44
0.0000000001
 40
0.0
 40
0.0
 40
0.0
 40
0.0
 40
0.1273482936
 40
0.2538605366
 40
0.3795879111
 40
0.5046050899
 40
0.6290174366
 40
0.7529533732
 40
0.8765605776
 40
1.0
 40
1.0
 40
1.0
 40
1.0
 10
9.6396732198
 20
8.8809765736
 30
0.0
 10
9.6396732198
 20
8.8844413489
 30
0.0
 10
9.6400040348
 20
8.8913529433
 30
0.0
 10
9.6415001216
 20
8.9015874047
 30
0.0
 10
9.6439808829
 20
8.9115647114
 30
0.0
 10
9.6474239155
 20
8.9211915556
 30
0.0
 10
9.6517976137
 20
8.9303791608
 30
0.0
 10
9.657062122
 20
8.9390426882
 30
0.0
 10
9.6631679521
 20
8.9471009487
 30
0.0
 10
9.6677653206
 20
8.9520234033
 30
0.0
 10
9.6701808944
 20
8.9543566481
 30
0.0
  0
SPLINE
  5
3AD
100
AcDbEntity
  8
0
100
AcDbSpline
 62
7
  6
CONTINUOUS
 70
0
 71
3
 72
18
 73
14
 74
0
 42
0.0000001
 43
0.0000001
 44
0.0000000001
 40
0.0
 40
0.0
 40
0.0
 40
0.0
 40
0.1504683897
 40
0.2917144302
 40
0.4244424337
 40
0.4879098403
 40
0.5496094316
 40
0.6682625858
 40
0.7817882724
 40
0.8371379912
 40
0.8918078094
 40
0.9460192717
 40
1.0
 40
1.0
 40
1.0
 40
1.0
 10
12.8428180937
 20
6.5861853381
 30
0.0
 10
12.8411359624
 20
6.584560524
 30
0.0
 10
12.837773991
 20
6.5815119037
 30
0.0
 10
12.8325683293
 20
6.5774492552
 30
0.0
 10
12.828171269
 20
6.5745759341
 30
0.0
 10
12.8246649953
 20
6.5726302147
 30
0.0
 10
12.8212618749
 20
6.5709597492
 30
0.0
 10
12.8170068949
 20
6.5692718064
 30
0.0
 10
12.8126762267
 20
6.5681199505
 30
0.0
 10
12.8092462097
 20
6.5675525303
 30
0.0
 10
12.8067040914
 20
6.5673007128
 30
0.0
 10
12.8041722581
 20
6.5672193874
 30
0.0
 10
12.8024901702
 20
6.5672788943
 30
0.0
 10
12.801653164
 20
6.5673369453
 30
0.0
  0
SPLINE
  5
3AE
100
AcDbEntity
  8
0
100
AcDbSpline
 62
7
  6
CONTINUOUS
 70
0
 71
3
 72
23
 73
19
 74
0
 42
0.0000001
 43
0.0000001
 44
0.0000000001
 40
0.0
 40
0.0
 40
0.0
 40
0.0
 40
0.0614488807
 40
0.1232974294
 40
0.1855193177
 40
0.2480712672
 40
0.3108995318
 40
0.3739401513
 40
0.4371217414
 40
0.5003679843
 40
0.5636003151
 40
0.6267406524
 40
0.6897141172
 40
0.7524516838
 40
0.8148926113
 40
0.8769871451
 40
0.9386966623
 40
1.0
 40
1.0
 40
1.0
 40
1.0
 10
9.7483398817
 20
8.7647738531
 30
0.0
 10
9.7447731886
 20
8.7650212041
 30
0.0
 10
9.7376362437
 20
8.7658690024
 30
0.0
 10
9.7270746518
 20
8.7681716351
 30
0.0
 10
9.7167177785
 20
8.7714871471
 30
0.0
 10
9.7066663713
 20
8.7757834169
 30
0.0
 10
9.6970165545
 20
8.78101891
 30
0.0
 10
9.6878610041
 20
8.7871432097
 30
0.0
 10
9.6792875213
 20
8.7940973921
 30
0.0
 10
9.6713783618
 20
8.8018146303
 30
0.0
 10
9.6642094303
 20
8.810220829
 30
0.0
 10
9.6578495764
 20
8.8192353238
 30
0.0
 10
9.6523599438
 20
8.8287716291
 30
0.0
 10
9.6477933904
 20
8.8387382841
 30
0.0
 10
9.6441939303
 20
8.8490395591
 30
0.0
 10
9.6415964557
 20
8.8595769069
 30
0.0
 10
9.6400261233
 20
8.8702478082
 30
0.0
 10
9.6396732198
 20
8.8774097819
 30
0.0
 10
9.6396732198
 20
8.8809765736
 30
0.0
  0
SPLINE
  5
3AF
100
AcDbEntity
  8
0
100
AcDbSpline
 62
7
  6
CONTINUOUS
 70
0
 71
3
 72
21
 73
17
 74
0
 42
0.0000001
 43
0.0000001
 44
0.0000000001
 40
0.0
 40
0.0
 40
0.0
 40
0.0
 40
0.1273176984
 40
0.2537999461
 40
0.3167619614
 40
0.3795355204
 40
0.4421314992
 40
0.5045621453
 40
0.5668413456
 40
0.6289845231
 40
0.6910084433
 40
0.7529310869
 40
0.8147714401
 40
0.8765493236
 40
0.9382852134
 40
1.0
 40
1.0
 40
1.0
 40
1.0
 10
10.1643672678
 20
8.0230508042
 30
0.0
 10
10.1643672678
 20
8.0297956123
 30
0.0
 10
10.1650111048
 20
8.0432496518
 30
0.0
 10
10.1674426961
 20
8.0598817488
 30
0.0
 10
10.1703489631
 20
8.0729281725
 30
0.0
 10
10.1729993271
 20
8.0825512209
 30
0.0
 10
10.1761173217
 20
8.0920032727
 30
0.0
 10
10.1796957585
 20
8.1012628072
 30
0.0
 10
10.1837263871
 20
8.1103084086
 30
0.0
 10
10.188199995
 20
8.1191192002
 30
0.0
 10
10.1931062331
 20
8.1276748717
 30
0.0
 10
10.1984337868
 20
8.1359557056
 30
0.0
 10
10.2041704212
 20
8.1439425402
 30
0.0
 10
10.2103029425
 20
8.1516170327
 30
0.0
 10
10.2168169359
 20
8.158961271
 30
0.0
 10
10.2214048287
 20
8.1636267636
 30
0.0
 10
10.2237563773
 20
8.1658981713
 30
0.0
  0
SPLINE
  5
3B0
100
AcDbEntity
  8
0
100
AcDbSpline
 62
7
  6
CONTINUOUS
 70
0
 71
3
 72
15
 73
11
 74
0
 42
0.0000001
 43
0.0000001
 44
0.0000000001
 40
0.0
 40
0.0
 40
0.0
 40
0.0
 40
0.1273482936
 40
0.2538605366
 40
0.3795879111
 40
0.5046050899
 40
0.6290174366
 40
0.7529533732
 40
0.8765605776
 40
1.0
 40
1.0
 40
1.0
 40
1.0
 10
11.6922657223
 20
8.7386288
 30
0.0
 10
11.6922657223
 20
8.7420935754
 30
0.0
 10
11.6925965372
 20
8.7490051698
 30
0.0
 10
11.6940926241
 20
8.7592396312
 30
0.0
 10
11.6965733854
 20
8.7692169379
 30
0.0
 10
11.700016418
 20
8.7788437821
 30
0.0
 10
11.7043901161
 20
8.7880313873
 30
0.0
 10
11.7096546245
 20
8.7966949146
 30
0.0
 10
11.7157604546
 20
8.8047531751
 30
0.0
 10
11.7203578231
 20
8.8096756298
 30
0.0
 10
11.7227733968
 20
8.8120088745
 30
0.0
  0
SPLINE
  5
3B1
100
AcDbEntity
  8
0
100
AcDbSpline
 62
7
  6
CONTINUOUS
 70
0
 71
3
 72
23
 73
19
 74
0
 42
0.0000001
 43
0.0000001
 44
0.0000000001
 40
0.0
 40
0.0
 40
0.0
 40
0.0
 40
0.0614488807
 40
0.1232974294
 40
0.1855193177
 40
0.2480712672
 40
0.3108995318
 40
0.3739401513
 40
0.4371217414
 40
0.5003679843
 40
0.5636003151
 40
0.6267406524
 40
0.6897141172
 40
0.7524516838
 40
0.8148926113
 40
0.8769871451
 40
0.9386966623
 40
1.0
 40
1.0
 40
1.0
 40
1.0
 10
11.8009323842
 20
8.6224260795
 30
0.0
 10
11.7973656911
 20
8.6226734305
 30
0.0
 10
11.7902287462
 20
8.6235212289
 30
0.0
 10
11.7796671543
 20
8.6258238616
 30
0.0
 10
11.769310281
 20
8.6291393736
 30
0.0
 10
11.7592588738
 20
8.6334356433
 30
0.0
 10
11.749609057
 20
8.6386711365
 30
0.0
 10
11.7404535066
 20
8.6447954361
 30
0.0
 10
11.7318800238
 20
8.6517496186
 30
0.0
 10
11.7239708643
 20
8.6594668568
 30
0.0
 10
11.7168019328
 20
8.6678730555
 30
0.0
 10
11.7104420788
 20
8.6768875503
 30
0.0
 10
11.7049524462
 20
8.6864238556
 30
0.0
 10
11.7003858928
 20
8.6963905106
 30
0.0
 10
11.6967864328
 20
8.7066917856
 30
0.0
 10
11.6941889582
 20
8.7172291334
 30
0.0
 10
11.6926186258
 20
8.7279000347
 30
0.0
 10
11.6922657223
 20
8.7350620083
 30
0.0
 10
11.6922657223
 20
8.7386288
 30
0.0
  0
SPLINE
  5
3B2
100
AcDbEntity
  8
0
100
AcDbSpline
 62
7
  6
CONTINUOUS
 70
0
 71
3
 72
39
 73
35
 74
0
 42
0.0000001
 43
0.0000001
 44
0.0000000001
 40
0.0
 40
0.0
 40
0.0
 40
0.0
 40
0.0309587779
 40
0.0620589034
 40
0.0932943588
 40
0.1246578982
 40
0.1561392994
 40
0.1877266853
 40
0.2194063868
 40
0.2511634165
 40
0.2829817434
 40
0.3148446337
 40
0.3467349606
 40
0.3786355041
 40
0.4105292261
 40
0.4423995261
 40
0.4742304656
 40
0.5060069654
 40
0.5377149787
 40
0.5693416401
 40
0.600875395
 40
0.6323061096
 40
0.6636251652
 40
0.6948255412
 40
0.7259018816
 40
0.756850548
 40
0.7876696657
 40
0.8183591596
 40
0.8489207795
 40
0.8793581133
 40
0.9096765839
 40
0.9398834283
 40
0.9699876587
 40
1.0
 40
1.0
 40
1.0
 40
1.0
 10
10.7690368103
 20
8.3358766579
 30
0.0
 10
10.7644334616
 20
8.3361959013
 30
0.0
 10
10.7552243796
 20
8.3371466455
 30
0.0
 10
10.7415083008
 20
8.3394920045
 30
0.0
 10
10.7279169528
 20
8.3427481922
 30
0.0
 10
10.7145122265
 20
8.3468982243
 30
0.0
 10
10.7013533903
 20
8.3519207434
 30
0.0
 10
10.6884981291
 20
8.3577899214
 30
0.0
 10
10.676001746
 20
8.3644759818
 30
0.0
 10
10.6639169639
 20
8.3719454618
 30
0.0
 10
10.6522936393
 20
8.3801616327
 30
0.0
 10
10.6411785724
 20
8.3890848717
 30
0.0
 10
10.6306153686
 20
8.398673054
 30
0.0
 10
10.6206443541
 20
8.4088819244
 30
0.0
 10
10.6113025426
 20
8.419665452
 30
0.0
 10
10.6026236362
 20
8.430976153
 30
0.0
 10
10.5946380693
 20
8.4427653884
 30
0.0
 10
10.5873730786
 20
8.4549836262
 30
0.0
 10
10.5808527905
 20
8.4675806664
 30
0.0
 10
10.5750983202
 20
8.4805058317
 30
0.0
 10
10.5701278767
 20
8.4937081254
 30
0.0
 10
10.5659568654
 20
8.5071363585
 30
0.0
 10
10.5625979878
 20
8.5207392504
 30
0.0
 10
10.5600613233
 20
8.5344655047
 30
0.0
 10
10.5583544007
 20
8.5482638673
 30
0.0
 10
10.5574822657
 20
8.5620831699
 30
0.0
 10
10.557447518
 20
8.5758723613
 30
0.0
 10
10.5582503328
 20
8.5895805345
 30
0.0
 10
10.559888457
 20
8.6031569466
 30
0.0
 10
10.5623571993
 20
8.6165510684
 30
0.0
 10
10.5656493476
 20
8.6297125407
 30
0.0
 10
10.5697552491
 20
8.6425915227
 30
0.0
 10
10.5746621877
 20
8.6551376601
 30
0.0
 10
10.5784635921
 20
8.6632600194
 30
0.0
 10
10.5804918127
 20
8.6672471339
 30
0.0
  0
SPLINE
  5
3B3
100
AcDbEntity
  8
0
100
AcDbSpline
 62
7
  6
CONTINUOUS
 70
0
 71
3
 72
15
 73
11
 74
0
 42
0.0000001
 43
0.0000001
 44
0.0000000001
 40
0.0
 40
0.0
 40
0.0
 40
0.0
 40
0.1273482936
 40
0.2538605366
 40
0.3795879111
 40
0.5046050899
 40
0.6290174366
 40
0.7529533732
 40
0.8765605776
 40
1.0
 40
1.0
 40
1.0
 40
1.0
 10
9.6396732198
 20
7.1297529817
 30
0.0
 10
9.6396732198
 20
7.1332177571
 30
0.0
 10
9.6400040348
 20
7.1401293515
 30
0.0
 10
9.6415001216
 20
7.1503638129
 30
0.0
 10
9.6439808829
 20
7.1603411196
 30
0.0
 10
9.6474239155
 20
7.1699679638
 30
0.0
 10
9.6517976137
 20
7.179155569
 30
0.0
 10
9.657062122
 20
7.1878190964
 30
0.0
 10
9.6631679521
 20
7.1958773568
 30
0.0
 10
9.6677653206
 20
7.2007998115
 30
0.0
 10
9.6701808944
 20
7.2031330562
 30
0.0
  0
SPLINE
  5
3B4
100
AcDbEntity
  8
0
100
AcDbSpline
 62
7
  6
CONTINUOUS
 70
0
 71
3
 72
23
 73
19
 74
0
 42
0.0000001
 43
0.0000001
 44
0.0000000001
 40
0.0
 40
0.0
 40
0.0
 40
0.0
 40
0.0614488807
 40
0.1232974294
 40
0.1855193177
 40
0.2480712672
 40
0.3108995318
 40
0.3739401513
 40
0.4371217414
 40
0.5003679843
 40
0.5636003151
 40
0.6267406524
 40
0.6897141172
 40
0.7524516838
 40
0.8148926113
 40
0.8769871451
 40
0.9386966623
 40
1.0
 40
1.0
 40
1.0
 40
1.0
 10
9.7483398817
 20
7.0135502612
 30
0.0
 10
9.7447731886
 20
7.0137976122
 30
0.0
 10
9.7376362437
 20
7.0146454106
 30
0.0
 10
9.7270746518
 20
7.0169480433
 30
0.0
 10
9.7167177785
 20
7.0202635553
 30
0.0
 10
9.7066663713
 20
7.0245598251
 30
0.0
 10
9.6970165545
 20
7.0297953182
 30
0.0
 10
9.6878610041
 20
7.0359196178
 30
0.0
 10
9.6792875213
 20
7.0428738003
 30
0.0
 10
9.6713783618
 20
7.0505910385
 30
0.0
 10
9.6642094303
 20
7.0589972372
 30
0.0
 10
9.6578495764
 20
7.068011732
 30
0.0
 10
9.6523599438
 20
7.0775480373
 30
0.0
 10
9.6477933904
 20
7.0875146923
 30
0.0
 10
9.6441939303
 20
7.0978159673
 30
0.0
 10
9.6415964557
 20
7.1083533151
 30
0.0
 10
9.6400261233
 20
7.1190242164
 30
0.0
 10
9.6396732198
 20
7.12618619
 30
0.0
 10
9.6396732198
 20
7.1297529817
 30
0.0
  0
SPLINE
  5
3B5
100
AcDbEntity
  8
0
100
AcDbSpline
 62
7
  6
CONTINUOUS
 70
0
 71
3
 72
21
 73
17
 74
0
 42
0.0000001
 43
0.0000001
 44
0.0000000001
 40
0.0
 40
0.0
 40
0.0
 40
0.0
 40
0.1273176984
 40
0.2537999461
 40
0.3167619614
 40
0.3795355204
 40
0.4421314992
 40
0.5045621453
 40
0.5668413456
 40
0.6289845231
 40
0.6910084433
 40
0.7529310869
 40
0.8147714401
 40
0.8765493236
 40
0.9382852134
 40
1.0
 40
1.0
 40
1.0
 40
1.0
 10
8.8671287825
 20
9.7724751752
 30
0.0
 10
8.8671287825
 20
9.7792199833
 30
0.0
 10
8.8677726195
 20
9.7926740227
 30
0.0
 10
8.8702042108
 20
9.8093061198
 30
0.0
 10
8.8731104778
 20
9.8223525434
 30
0.0
 10
8.8757608418
 20
9.8319755919
 30
0.0
 10
8.8788788364
 20
9.8414276436
 30
0.0
 10
8.8824572732
 20
9.8506871782
 30
0.0
 10
8.8864879019
 20
9.8597327796
 30
0.0
 10
8.8909615097
 20
9.8685435712
 30
0.0
 10
8.8958677478
 20
9.8770992427
 30
0.0
 10
8.9011953015
 20
9.8853800766
 30
0.0
 10
8.9069319359
 20
9.8933669112
 30
0.0
 10
8.9130644572
 20
9.9010414037
 30
0.0
 10
8.9195784506
 20
9.9083856419
 30
0.0
 10
8.9241663434
 20
9.9130511345
 30
0.0
 10
8.9265178921
 20
9.9153225423
 30
0.0
  0
SPLINE
  5
3B6
100
AcDbEntity
  8
0
100
AcDbSpline
 62
7
  6
CONTINUOUS
 70
0
 71
3
 72
21
 73
17
 74
0
 42
0.0000001
 43
0.0000001
 44
0.0000000001
 40
0.0
 40
0.0
 40
0.0
 40
0.0
 40
0.1273176984
 40
0.2537999461
 40
0.3167619614
 40
0.3795355204
 40
0.4421314992
 40
0.5045621453
 40
0.5668413456
 40
0.6289845231
 40
0.6910084433
 40
0.7529310869
 40
0.8147714401
 40
0.8765493236
 40
0.9382852134
 40
1.0
 40
1.0
 40
1.0
 40
1.0
 10
11.8846812838
 20
6.0626919857
 30
0.0
 10
11.8846812838
 20
6.0694367938
 30
0.0
 10
11.8853251209
 20
6.0828908332
 30
0.0
 10
11.8877567121
 20
6.0995229302
 30
0.0
 10
11.8906629792
 20
6.1125693539
 30
0.0
 10
11.8933133431
 20
6.1221924024
 30
0.0
 10
11.8964313378
 20
6.1316444541
 30
0.0
 10
11.9000097745
 20
6.1409039886
 30
0.0
 10
11.9040404032
 20
6.14994959
 30
0.0
 10
11.9085140111
 20
6.1587603816
 30
0.0
 10
11.9134202492
 20
6.1673160531
 30
0.0
 10
11.9187478028
 20
6.175596887
 30
0.0
 10
11.9244844373
 20
6.1835837216
 30
0.0
 10
11.9306169585
 20
6.1912582141
 30
0.0
 10
11.937130952
 20
6.1986024524
 30
0.0
 10
11.9417188447
 20
6.203267945
 30
0.0
 10
11.9440703934
 20
6.2055393527
 30
0.0
  0
SPLINE
  5
3B7
100
AcDbEntity
  8
0
100
AcDbSpline
 62
7
  6
CONTINUOUS
 70
0
 71
3
 72
15
 73
11
 74
0
 42
0.0000001
 43
0.0000001
 44
0.0000000001
 40
0.0
 40
0.0
 40
0.0
 40
0.0
 40
0.1273482936
 40
0.2538605366
 40
0.3795879111
 40
0.5046050899
 40
0.6290174366
 40
0.7529533732
 40
0.8765605776
 40
1.0
 40
1.0
 40
1.0
 40
1.0
 10
11.6922657223
 20
6.9874052082
 30
0.0
 10
11.6922657223
 20
6.9908699835
 30
0.0
 10
11.6925965372
 20
6.9977815779
 30
0.0
 10
11.6940926241
 20
7.0080160394
 30
0.0
 10
11.6965733854
 20
7.0179933461
 30
0.0
 10
11.700016418
 20
7.0276201903
 30
0.0
 10
11.7043901161
 20
7.0368077955
 30
0.0
 10
11.7096546245
 20
7.0454713228
 30
0.0
 10
11.7157604546
 20
7.0535295833
 30
0.0
 10
11.7203578231
 20
7.0584520379
 30
0.0
 10
11.7227733968
 20
7.0607852827
 30
0.0
  0
SPLINE
  5
3B8
100
AcDbEntity
  8
0
100
AcDbSpline
 62
7
  6
CONTINUOUS
 70
0
 71
3
 72
23
 73
19
 74
0
 42
0.0000001
 43
0.0000001
 44
0.0000000001
 40
0.0
 40
0.0
 40
0.0
 40
0.0
 40
0.0614488807
 40
0.1232974294
 40
0.1855193177
 40
0.2480712672
 40
0.3108995318
 40
0.3739401513
 40
0.4371217414
 40
0.5003679843
 40
0.5636003151
 40
0.6267406524
 40
0.6897141172
 40
0.7524516838
 40
0.8148926113
 40
0.8769871451
 40
0.9386966623
 40
1.0
 40
1.0
 40
1.0
 40
1.0
 10
11.8009323842
 20
6.8712024877
 30
0.0
 10
11.7973656911
 20
6.8714498387
 30
0.0
 10
11.7902287462
 20
6.8722976371
 30
0.0
 10
11.7796671543
 20
6.8746002698
 30
0.0
 10
11.769310281
 20
6.8779157818
 30
0.0
 10
11.7592588738
 20
6.8822120515
 30
0.0
 10
11.749609057
 20
6.8874475447
 30
0.0
 10
11.7404535066
 20
6.8935718443
 30
0.0
 10
11.7318800238
 20
6.9005260268
 30
0.0
 10
11.7239708643
 20
6.9082432649
 30
0.0
 10
11.7168019328
 20
6.9166494637
 30
0.0
 10
11.7104420788
 20
6.9256639585
 30
0.0
 10
11.7049524462
 20
6.9352002638
 30
0.0
 10
11.7003858928
 20
6.9451669188
 30
0.0
 10
11.6967864328
 20
6.9554681937
 30
0.0
 10
11.6941889582
 20
6.9660055416
 30
0.0
 10
11.6926186258
 20
6.9766764428
 30
0.0
 10
11.6922657223
 20
6.9838384165
 30
0.0
 10
11.6922657223
 20
6.9874052082
 30
0.0
  0
SPLINE
  5
3B9
100
AcDbEntity
  8
0
100
AcDbSpline
 62
7
  6
CONTINUOUS
 70
0
 71
3
 72
11
 73
7
 74
0
 42
0.0000001
 43
0.0000001
 44
0.0000000001
 40
0.0
 40
0.0
 40
0.0
 40
0.0
 40
0.2552692216
 40
0.5060519912
 40
0.7537940265
 40
1.0
 40
1.0
 40
1.0
 40
1.0
 10
12.1163130271
 20
10.6391463502
 30
0.0
 10
12.116633281
 20
10.6381720372
 30
0.0
 10
12.1171971144
 20
10.6362162146
 30
0.0
 10
12.1178080615
 20
10.63324683
 30
0.0
 10
12.1181749198
 20
10.6302741231
 30
0.0
 10
12.1182565291
 20
10.6282886402
 30
0.0
 10
12.1182565313
 20
10.6272994571
 30
0.0
  0
SPLINE
  5
3BA
100
AcDbEntity
  8
0
100
AcDbSpline
 62
7
  6
CONTINUOUS
 70
0
 71
3
 72
19
 73
15
 74
0
 42
0.0000001
 43
0.0000001
 44
0.0000000001
 40
0.0
 40
0.0
 40
0.0
 40
0.0
 40
0.05679694
 40
0.1127630659
 40
0.1682600565
 40
0.2236597227
 40
0.2793359028
 40
0.3356565831
 40
0.3929760383
 40
0.4516290584
 40
0.5740732824
 40
0.7052206549
 40
0.8467735763
 40
1.0
 40
1.0
 40
1.0
 40
1.0
 10
12.7713599696
 20
6.6958669629
 30
0.0
 10
12.7721642113
 20
6.6955826169
 30
0.0
 10
12.7737839494
 20
6.6950805991
 30
0.0
 10
12.7762538366
 20
6.6945328856
 30
0.0
 10
12.7787405058
 20
6.6941978379
 30
0.0
 10
12.7812422821
 20
6.6940756887
 30
0.0
 10
12.7837577425
 20
6.6941665312
 30
0.0
 10
12.7862853682
 20
6.6944702205
 30
0.0
 10
12.7888238687
 20
6.6949863812
 30
0.0
 10
12.7922697858
 20
6.6959710529
 30
0.0
 10
12.7966214129
 20
6.6977639238
 30
0.0
 10
12.8017802702
 20
6.7007255527
 30
0.0
 10
12.8069460538
 20
6.7045175495
 30
0.0
 10
12.8102532481
 20
6.7074708471
 30
0.0
 10
12.8119084647
 20
6.7090696636
 30
0.0
  0
SPLINE
  5
3BB
100
AcDbEntity
  8
0
100
AcDbSpline
 62
7
  6
CONTINUOUS
 70
0
 71
3
 72
14
 73
10
 74
0
 42
0.0000001
 43
0.0000001
 44
0.0000000001
 40
0.0
 40
0.0
 40
0.0
 40
0.0
 40
0.2237616369
 40
0.3413702581
 40
0.463279675
 40
0.5898267208
 40
0.721305951
 40
0.857962155
 40
1.0
 40
1.0
 40
1.0
 40
1.0
 10
12.7865678609
 20
6.57168625
 30
0.0
 10
12.7887229645
 20
6.572426155
 30
0.0
 10
12.7919321178
 20
6.5737971419
 30
0.0
 10
12.7960820687
 20
6.5760438133
 30
0.0
 10
12.7992531229
 20
6.5780076918
 30
0.0
 10
12.8024284648
 20
6.5802209684
 30
0.0
 10
12.8056072874
 20
6.5826828721
 30
0.0
 10
12.8087880931
 20
6.5853920137
 30
0.0
 10
12.810868148
 20
6.5873240594
 30
0.0
 10
12.8119084647
 20
6.5883289282
 30
0.0
  0
SPLINE
  5
3BC
100
AcDbEntity
  8
0
100
AcDbSpline
 62
7
  6
CONTINUOUS
 70
0
 71
3
 72
41
 73
37
 74
0
 42
0.0000001
 43
0.0000001
 44
0.0000000001
 40
0.0
 40
0.0
 40
0.0
 40
0.0
 40
0.0111868222
 40
0.0227617594
 40
0.0347183231
 40
0.04704919
 40
0.0728009788
 40
0.0999476303
 40
0.1284104147
 40
0.1581032623
 40
0.1889336406
 40
0.2208033172
 40
0.2536090434
 40
0.2872431858
 40
0.3215943213
 40
0.356547807
 40
0.3919863345
 40
0.4277904727
 40
0.4638392037
 40
0.5000104537
 40
0.536181622
 40
0.5722301081
 40
0.6080338392
 40
0.6434717989
 40
0.6784245584
 40
0.7127748122
 40
0.746407921
 40
0.779212466
 40
0.8110808189
 40
0.8419097375
 40
0.8716009966
 40
0.9000620721
 40
0.9272069036
 40
0.9529567723
 40
0.9772413496
 40
1.0
 40
1.0
 40
1.0
 40
1.0
 10
12.7520750561
 20
7.5002945028
 30
0.0
 10
12.7527571448
 20
7.4978793435
 30
0.0
 10
12.7540941225
 20
7.4929507444
 30
0.0
 10
12.7559904177
 20
7.4853960574
 30
0.0
 10
12.7578103532
 20
7.4775588881
 30
0.0
 10
12.7601670503
 20
7.4665829163
 30
0.0
 10
12.762897704
 20
7.4522040974
 30
0.0
 10
12.7658004026
 20
7.4341818916
 30
0.0
 10
12.7683637698
 20
7.4152158969
 30
0.0
 10
12.7705783905
 20
7.3953745265
 30
0.0
 10
12.7724360741
 20
7.3747292226
 30
0.0
 10
12.773929963
 20
7.3533544538
 30
0.0
 10
12.7750545326
 20
7.3313273509
 30
0.0
 10
12.7758056149
 20
7.3087274394
 30
0.0
 10
12.7761804102
 20
7.285636337
 30
0.0
 10
12.7761774949
 20
7.2621374551
 30
0.0
 10
12.7757968254
 20
7.2383156914
 30
0.0
 10
12.7750397368
 20
7.2142571197
 30
0.0
 10
12.7739089366
 20
7.1900486762
 30
0.0
 10
12.7724084946
 20
7.1657778422
 30
0.0
 10
12.7705438276
 20
7.141532326
 30
0.0
 10
12.7683216793
 20
7.1173997438
 30
0.0
 10
12.7657500963
 20
7.0934673005
 30
0.0
 10
12.7628383987
 20
7.0698214727
 30
0.0
 10
12.7595971474
 20
7.0465476931
 30
0.0
 10
12.7560381062
 20
7.023730039
 30
0.0
 10
12.7521742001
 20
7.0014509244
 30
0.0
 10
12.7480194699
 20
6.9797907971
 30
0.0
 10
12.7435890226
 20
6.9588278417
 30
0.0
 10
12.7388989775
 20
6.9386376878
 30
0.0
 10
12.7339664103
 20
6.919293129
 30
0.0
 10
12.7288092856
 20
6.900863829
 30
0.0
 10
12.723446409
 20
6.8834160997
 30
0.0
 10
12.7178972882
 20
6.86701245
 30
0.0
 10
12.7121822691
 20
6.8517119357
 30
0.0
 10
12.708141312
 20
6.8419593384
 30
0.0
 10
12.7060884585
 20
6.8372845923
 30
0.0
  0
SPLINE
  5
3BD
100
AcDbEntity
  8
0
100
AcDbSpline
 62
7
  6
CONTINUOUS
 70
0
 71
3
 72
53
 73
49
 74
0
 42
0.0000001
 43
0.0000001
 44
0.0000000001
 40
0.0
 40
0.0
 40
0.0
 40
0.0
 40
0.0093265531
 40
0.0191700118
 40
0.0295292842
 40
0.0404010696
 40
0.0517799675
 40
0.0636589064
 40
0.0760292311
 40
0.0888808885
 40
0.102202636
 40
0.1159820095
 40
0.1302056008
 40
0.1448589747
 40
0.1599268571
 40
0.1753931641
 40
0.207452237
 40
0.2408940503
 40
0.2755660426
 40
0.3113074021
 40
0.3479503508
 40
0.385321371
 40
0.4232423916
 40
0.4615319431
 40
0.5000062964
 40
0.538480593
 40
0.5767699732
 40
0.6146907079
 40
0.6520613297
 40
0.6887037722
 40
0.7244445243
 40
0.7591158097
 40
0.7925568138
 40
0.8246149811
 40
0.8400808071
 40
0.8551481784
 40
0.8698010422
 40
0.8840240766
 40
0.8978029047
 40
0.9111240698
 40
0.9239751392
 40
0.9363448702
 40
0.9482231799
 40
0.9596014713
 40
0.9704726097
 40
0.9808312505
 40
0.9906740697
 40
1.0
 40
1.0
 40
1.0
 40
1.0
 10
12.7787238357
 20
7.5676548598
 30
0.0
 10
12.7797981727
 20
7.5653454598
 30
0.0
 10
12.7819084587
 20
7.5605526644
 30
0.0
 10
12.7848910515
 20
7.5530585426
 30
0.0
 10
12.7877725584
 20
7.5450748728
 30
0.0
 10
12.7905491654
 20
7.5366118545
 30
0.0
 10
12.7932174096
 20
7.527680146
 30
0.0
 10
12.7957738202
 20
7.5182910795
 30
0.0
 10
12.7982151178
 20
7.5084565861
 30
0.0
 10
12.8005381787
 20
7.498189191
 30
0.0
 10
12.8027399595
 20
7.4875019845
 30
0.0
 10
12.8048176744
 20
7.4764086119
 30
0.0
 10
12.8067685906
 20
7.4649232452
 30
0.0
 10
12.8085902161
 20
7.4530605731
 30
0.0
 10
12.810280216
 20
7.4408357529
 30
0.0
 10
12.812380155
 20
7.4238706521
 30
0.0
 10
12.8146469514
 20
7.4018724318
 30
0.0
 10
12.8167810362
 20
7.3745963367
 30
0.0
 10
12.818349095
 20
7.346274762
 30
0.0
 10
12.8193428699
 20
7.3170527151
 30
0.0
 10
12.8197570302
 20
7.2870796756
 30
0.0
 10
12.8195892889
 20
7.256509087
 30
0.0
 10
12.8188403761
 20
7.2254974727
 30
0.0
 10
12.8175140394
 20
7.1942036432
 30
0.0
 10
12.8156170193
 20
7.1627878677
 30
0.0
 10
12.8131590123
 20
7.1314110466
 30
0.0
 10
12.810152623
 20
7.1002338793
 30
0.0
 10
12.8066133025
 20
7.0694160304
 30
0.0
 10
12.8025592638
 20
7.0391153057
 30
0.0
 10
12.7980113922
 20
7.0094868271
 30
0.0
 10
12.7929931376
 20
6.98068225
 30
0.0
 10
12.7875304125
 20
6.9528488861
 30
0.0
 10
12.7816514101
 20
6.9261292147
 30
0.0
 10
12.776369551
 20
6.9046551487
 30
0.0
 10
12.7719477651
 20
6.8881428962
 30
0.0
 10
12.7685863591
 20
6.8762688425
 30
0.0
 10
12.7651446073
 20
6.8647716553
 30
0.0
 10
12.761626857
 20
6.8536660309
 30
0.0
 10
12.7580376704
 20
6.8429661631
 30
0.0
 10
12.7543816522
 20
6.832685719
 30
0.0
 10
12.7506634798
 20
6.8228378226
 30
0.0
 10
12.7468879746
 20
6.8134350178
 30
0.0
 10
12.7430599217
 20
6.8044892873
 30
0.0
 10
12.7391842827
 20
6.7960119773
 30
0.0
 10
12.7352659791
 20
6.7880138553
 30
0.0
 10
12.7313099909
 20
6.7805049718
 30
0.0
 10
12.7273214424
 20
6.7734949171
 30
0.0
 10
12.7245697463
 20
6.7690397227
 30
0.0
 10
12.7231868926
 20
6.7669009432
 30
0.0
  0
SPLINE
  5
3BE
100
AcDbEntity
  8
0
100
AcDbSpline
 62
7
  6
CONTINUOUS
 70
0
 71
3
 72
80
 73
76
 74
0
 42
0.0000001
 43
0.0000001
 44
0.0000000001
 40
0.0
 40
0.0
 40
0.0
 40
0.0
 40
0.0028240184
 40
0.0056048907
 40
0.0083637577
 40
0.0111223127
 40
0.0139022553
 40
0.0167247485
 40
0.0196099252
 40
0.0225765369
 40
0.0288165448
 40
0.0321227505
 40
0.0355679712
 40
0.039162339
 40
0.0429144422
 40
0.0468315258
 40
0.0509196684
 40
0.055183816
 40
0.0596280308
 40
0.064255529
 40
0.0690687627
 40
0.0740696052
 40
0.0792592888
 40
0.0902070135
 40
0.1019136112
 40
0.114373894
 40
0.1275777468
 40
0.1415108719
 40
0.1561554143
 40
0.171490426
 40
0.1874922198
 40
0.2041346363
 40
0.2213893204
 40
0.2392259416
 40
0.2576123708
 40
0.2765148205
 40
0.2958980129
 40
0.3157253314
 40
0.3359589458
 40
0.3565599198
 40
0.3774883405
 40
0.3987034474
 40
0.4418263167
 40
0.4855904318
 40
0.5296503871
 40
0.573657793
 40
0.6172647928
 40
0.6601275576
 40
0.6811747977
 40
0.7019106794
 40
0.7222949454
 40
0.7422882686
 40
0.7618523601
 40
0.7809500899
 40
0.7995456377
 40
0.8176046243
 40
0.8350942393
 40
0.8519833963
 40
0.8682429334
 40
0.8838458152
 40
0.8987673394
 40
0.9129854074
 40
0.9264808809
 40
0.9392380166
 40
0.9512449546
 40
0.9569649383
 40
0.9624951124
 40
0.9678354057
 40
0.9729862168
 40
0.9779483621
 40
0.9827232081
 40
0.9873128449
 40
0.9917199454
 40
0.9959477105
 40
1.0
 40
1.0
 40
1.0
 40
1.0
 10
12.8362370869
 20
7.6313675322
 30
0.0
 10
12.837140331
 20
7.6315519113
 30
0.0
 10
12.8389496593
 20
7.6318418406
 30
0.0
 10
12.8416768668
 20
7.6320319835
 30
0.0
 10
12.8443889726
 20
7.6319727658
 30
0.0
 10
12.8470837617
 20
7.6316642258
 30
0.0
 10
12.8497593621
 20
7.6311065582
 30
0.0
 10
12.8524138756
 20
7.6303004118
 30
0.0
 10
12.8550457871
 20
7.6292465616
 30
0.0
 10
12.8585813111
 20
7.6274832958
 30
0.0
 10
12.8620122571
 20
7.6252358427
 30
0.0
 10
12.865317254
 20
7.6225757458
 30
0.0
 10
12.8678154395
 20
7.6202997907
 30
0.0
 10
12.8702830162
 20
7.6177832644
 30
0.0
 10
12.8727192813
 20
7.6150273361
 30
0.0
 10
12.8751230055
 20
7.6120335359
 30
0.0
 10
12.8774930207
 20
7.6088033663
 30
0.0
 10
12.8798282392
 20
7.6053385486
 30
0.0
 10
12.8821274665
 20
7.6016408392
 30
0.0
 10
12.8843895503
 20
7.5977121475
 30
0.0
 10
12.8866133813
 20
7.5935545238
 30
0.0
 10
12.8887977915
 20
7.5891700843
 30
0.0
 10
12.8917082744
 20
7.5829128025
 30
0.0
 10
12.8952273233
 20
7.5745282927
 30
0.0
 10
12.8992034915
 20
7.5637740573
 30
0.0
 10
12.9029966786
 20
7.5521767062
 30
0.0
 10
12.9065988896
 20
7.5397604138
 30
0.0
 10
12.9100025174
 20
7.5265508682
 30
0.0
 10
12.9132003243
 20
7.5125756322
 30
0.0
 10
12.9161854917
 20
7.4978639193
 30
0.0
 10
12.9189516371
 20
7.4824465642
 30
0.0
 10
12.9214928638
 20
7.466355941
 30
0.0
 10
12.9238037473
 20
7.4496258794
 30
0.0
 10
12.9258793496
 20
7.4322915754
 30
0.0
 10
12.9277152265
 20
7.4143895189
 30
0.0
 10
12.9293074618
 20
7.3959574196
 30
0.0
 10
12.9306526591
 20
7.3770341203
 30
0.0
 10
12.931747941
 20
7.3576595042
 30
0.0
 10
12.9325909569
 20
7.3378744098
 30
0.0
 10
12.9331798946
 20
7.3177205631
 30
0.0
 10
12.9335135205
 20
7.2972404317
 30
0.0
 10
12.9336174029
 20
7.2694057181
 30
0.0
 10
12.9330985005
 20
7.2341170385
 30
0.0
 10
12.9314650654
 20
7.1913982937
 30
0.0
 10
12.9288308122
 20
7.1484402139
 30
0.0
 10
12.9252179721
 20
7.1056048033
 30
0.0
 10
12.9206570106
 20
7.063253038
 30
0.0
 10
12.9160711754
 20
7.0284523113
 30
0.0
 10
12.9119490767
 20
7.0011291356
 30
0.0
 10
12.9086655223
 20
6.9811020577
 30
0.0
 10
12.9051783776
 20
6.9614587478
 30
0.0
 10
12.9014949943
 20
6.9422405878
 30
0.0
 10
12.8976231783
 20
6.9234880997
 30
0.0
 10
12.8935711173
 20
6.9052408089
 30
0.0
 10
12.8893473991
 20
6.8875371621
 30
0.0
 10
12.8849609787
 20
6.8704144421
 30
0.0
 10
12.880421153
 20
6.8539086973
 30
0.0
 10
12.8757375373
 20
6.8380546621
 30
0.0
 10
12.8709200613
 20
6.822885665
 30
0.0
 10
12.8659789462
 20
6.8084335525
 30
0.0
 10
12.8609246639
 20
6.7947286188
 30
0.0
 10
12.8557679117
 20
6.781799562
 30
0.0
 10
12.8505195801
 20
6.7696732959
 30
0.0
 10
12.8451907574
 20
6.7583752058
 30
0.0
 10
12.8406213828
 20
6.7495319931
 30
0.0
 10
12.836926343
 20
6.7428992404
 30
0.0
 10
12.8341868325
 20
6.7382268848
 30
0.0
 10
12.8314355772
 20
6.7337784419
 30
0.0
 10
12.8286740387
 20
6.7295562121
 30
0.0
 10
12.8259036613
 20
6.7255623978
 30
0.0
 10
12.8231258174
 20
6.7217990722
 30
0.0
 10
12.8203419428
 20
6.7182681164
 30
0.0
 10
12.8175533691
 20
6.7149713787
 30
0.0
 10
12.8147617244
 20
6.7119107318
 30
0.0
 10
12.8128599138
 20
6.709988693
 30
0.0
 10
12.8119084647
 20
6.7090696636
 30
0.0
  0
SPLINE
  5
3BF
100
AcDbEntity
  8
0
100
AcDbSpline
 62
7
  6
CONTINUOUS
 70
0
 71
3
 72
77
 73
73
 74
0
 42
0.0000001
 43
0.0000001
 44
0.0000000001
 40
0.0
 40
0.0
 40
0.0
 40
0.0
 40
0.0028949947
 40
0.0058854089
 40
0.0089836432
 40
0.0122006676
 40
0.0155460958
 40
0.0190282104
 40
0.0226541553
 40
0.0264299915
 40
0.0303608019
 40
0.0344508657
 40
0.0387036516
 40
0.0431219798
 40
0.0477080914
 40
0.0524636438
 40
0.0573898751
 40
0.0624875688
 40
0.0731980031
 40
0.0845949576
 40
0.0966731469
 40
0.1094234304
 40
0.1228333786
 40
0.1368877326
 40
0.1515687469
 40
0.1668564444
 40
0.1827288429
 40
0.1991621718
 40
0.2161310346
 40
0.2336085366
 40
0.2515664073
 40
0.2699751405
 40
0.2888041016
 40
0.308021618
 40
0.3275950678
 40
0.3474909915
 40
0.3881120582
 40
0.4296043876
 40
0.4716788724
 40
0.5140411766
 40
0.5563944025
 40
0.5984417285
 40
0.6398890675
 40
0.6602975812
 40
0.6804484169
 40
0.7003067736
 40
0.7198385199
 40
0.7390102954
 40
0.7577896031
 40
0.7761448889
 40
0.7940456363
 40
0.8114624842
 40
0.8283673422
 40
0.84473349
 40
0.8605357038
 40
0.8757504193
 40
0.8903559108
 40
0.904332462
 40
0.917662595
 40
0.9303313694
 40
0.9423267582
 40
0.9536400581
 40
0.9590395404
 40
0.9642671003
 40
0.9693228514
 40
0.9742073017
 40
0.9789213084
 40
0.9834661947
 40
0.9878438826
 40
0.9920567744
 40
0.9961076947
 40
1.0
 40
1.0
 40
1.0
 40
1.0
 10
12.868094132
 20
7.7524342383
 30
0.0
 10
12.8691431344
 20
7.751913389
 30
0.0
 10
12.871236246
 20
7.7507732835
 30
0.0
 10
12.8743000669
 20
7.7488134387
 30
0.0
 10
12.8773336289
 20
7.746579706
 30
0.0
 10
12.8803354485
 20
7.7440734484
 30
0.0
 10
12.8833043265
 20
7.741295886
 30
0.0
 10
12.886239104
 20
7.7382484715
 30
0.0
 10
12.8891385284
 20
7.734932612
 30
0.0
 10
12.8920013842
 20
7.7313498676
 30
0.0
 10
12.8948264961
 20
7.727501922
 30
0.0
 10
12.8976125688
 20
7.7233904985
 30
0.0
 10
12.9003584299
 20
7.7190175163
 30
0.0
 10
12.9030628455
 20
7.714384971
 30
0.0
 10
12.9057245598
 20
7.7094949704
 30
0.0
 10
12.9083424182
 20
7.7043497922
 30
0.0
 10
12.9109152043
 20
7.6989517734
 30
0.0
 10
12.9143404287
 20
7.6912939761
 30
0.0
 10
12.9184879135
 20
7.6810953549
 30
0.0
 10
12.9231880164
 20
7.6680852543
 30
0.0
 10
12.9276812097
 20
7.6541329077
 30
0.0
 10
12.931959097
 20
7.6392641624
 30
0.0
 10
12.9360136667
 20
7.6235063567
 30
0.0
 10
12.9398372802
 20
7.6068886686
 30
0.0
 10
12.9434227131
 20
7.5894419156
 30
0.0
 10
12.9467631903
 20
7.5711985335
 30
0.0
 10
12.9498524085
 20
7.5521924926
 30
0.0
 10
12.952684527
 20
7.5324592152
 30
0.0
 10
12.9552541834
 20
7.5120355009
 30
0.0
 10
12.9575565149
 20
7.4909594647
 30
0.0
 10
12.9595871787
 20
7.4692704623
 30
0.0
 10
12.9613423347
 20
7.4470090052
 30
0.0
 10
12.9628186592
 20
7.4242166761
 30
0.0
 10
12.9640133434
 20
7.4009360728
 30
0.0
 10
12.9649241658
 20
7.3772106712
 30
0.0
 10
12.9657634361
 20
7.3448196647
 30
0.0
 10
12.9660803244
 20
7.3035480481
 30
0.0
 10
12.9653137778
 20
7.253308658
 30
0.0
 10
12.9634080491
 20
7.2023946359
 30
0.0
 10
12.960377234
 20
7.1511864316
 30
0.0
 10
12.9562438983
 20
7.1000663728
 30
0.0
 10
12.9510389379
 20
7.0494164521
 30
0.0
 10
12.9458147441
 20
7.0077035791
 30
0.0
 10
12.9411209879
 20
6.9748602326
 30
0.0
 10
12.9373774505
 20
6.9507055617
 30
0.0
 10
12.9333998059
 20
6.9269479069
 30
0.0
 10
12.9291954728
 20
6.9036316463
 30
0.0
 10
12.9247723459
 20
6.8808003649
 30
0.0
 10
12.9201387275
 20
6.8584967203
 30
0.0
 10
12.9153033125
 20
6.8367623835
 30
0.0
 10
12.9102751677
 20
6.8156379575
 30
0.0
 10
12.905063731
 20
6.7951628897
 30
0.0
 10
12.8996787961
 20
6.7753753934
 30
0.0
 10
12.8941304761
 20
6.7563123844
 30
0.0
 10
12.8884291852
 20
6.738009412
 30
0.0
 10
12.8825856271
 20
6.720500574
 30
0.0
 10
12.8766107854
 20
6.7038184421
 30
0.0
 10
12.8705158741
 20
6.6879939988
 30
0.0
 10
12.8643123173
 20
6.6730566049
 30
0.0
 10
12.8580117064
 20
6.6590338099
 30
0.0
 10
12.8516258302
 20
6.6459516401
 30
0.0
 10
12.8461613557
 20
6.635699842
 30
0.0
 10
12.8417477907
 20
6.6279981369
 30
0.0
 10
12.8384753054
 20
6.6225620118
 30
0.0
 10
12.8351903983
 20
6.6173784086
 30
0.0
 10
12.8318946163
 20
6.6124497021
 30
0.0
 10
12.8285894835
 20
6.6077781759
 30
0.0
 10
12.8252764563
 20
6.6033659794
 30
0.0
 10
12.8219570506
 20
6.5992150706
 30
0.0
 10
12.8186326815
 20
6.5953273805
 30
0.0
 10
12.8153050762
 20
6.5917048721
 30
0.0
 10
12.8130410469
 20
6.5894229187
 30
0.0
 10
12.8119084647
 20
6.5883289282
 30
0.0
  0
SPLINE
  5
3C0
100
AcDbEntity
  8
0
100
AcDbSpline
 62
7
  6
CONTINUOUS
 70
0
 71
3
 72
83
 73
79
 74
0
 42
0.0000001
 43
0.0000001
 44
0.0000000001
 40
0.0
 40
0.0
 40
0.0
 40
0.0
 40
0.0027164276
 40
0.0054532334
 40
0.0082303009
 40
0.0110665998
 40
0.0139798088
 40
0.0169861218
 40
0.0201000928
 40
0.0233346095
 40
0.026700976
 40
0.0302089312
 40
0.0338668524
 40
0.0376818289
 40
0.0416598023
 40
0.0458057443
 40
0.0501236753
 40
0.0546168743
 40
0.0592878974
 40
0.0641386698
 40
0.0691706105
 40
0.0743845883
 40
0.0797810847
 40
0.0853601631
 40
0.0970640219
 40
0.1094907699
 40
0.1226300177
 40
0.1364676887
 40
0.150986507
 40
0.1661664045
 40
0.1819848426
 40
0.1984170703
 40
0.2154363375
 40
0.2330140708
 40
0.2511200494
 40
0.2697225561
 40
0.2887885105
 40
0.3082835895
 40
0.3281723378
 40
0.3484182894
 40
0.3689840785
 40
0.3898315425
 40
0.4109218226
 40
0.453671794
 40
0.496913762
 40
0.5403220095
 40
0.5835692233
 40
0.6263296343
 40
0.6474270493
 40
0.6682829087
 40
0.6888583326
 40
0.7091151299
 40
0.7290159025
 40
0.7485241591
 40
0.7676044182
 40
0.7862223163
 40
0.8043447241
 40
0.821939872
 40
0.8389774975
 40
0.8554289822
 40
0.8712675108
 40
0.8864682552
 40
0.9010085951
 40
0.9148683895
 40
0.9280302787
 40
0.9404800721
 40
0.9464347343
 40
0.9522077813
 40
0.9577985496
 40
0.9632067643
 40
0.968432455
 40
0.973476048
 40
0.978338406
 40
0.9830208506
 40
0.98752539
 40
0.9918546103
 40
0.9960115929
 40
1.0
 40
1.0
 40
1.0
 40
1.0
 10
12.8839830234
 20
7.7544855324
 30
0.0
 10
12.8850935167
 20
7.7544085135
 30
0.0
 10
12.8873171455
 20
7.7541533657
 30
0.0
 10
12.8906242727
 20
7.7534706367
 30
0.0
 10
12.8939064182
 20
7.7524880497
 30
0.0
 10
12.8971612114
 20
7.7512064654
 30
0.0
 10
12.9003870078
 20
7.7496271215
 30
0.0
 10
12.9035821279
 20
7.7477511888
 30
0.0
 10
12.9067450974
 20
7.7455800157
 30
0.0
 10
12.9098745482
 20
7.7431150175
 30
0.0
 10
12.9129690614
 20
7.7403575606
 30
0.0
 10
12.9160273758
 20
7.7373092279
 30
0.0
 10
12.9190481045
 20
7.7339715578
 30
0.0
 10
12.9220299185
 20
7.730346259
 30
0.0
 10
12.9249715013
 20
7.7264351569
 30
0.0
 10
12.9278714272
 20
7.7222401432
 30
0.0
 10
12.9307284088
 20
7.7177633271
 30
0.0
 10
12.9335410319
 20
7.7130068823
 30
0.0
 10
12.9363079525
 20
7.7079731613
 30
0.0
 10
12.9390278529
 20
7.702664659
 30
0.0
 10
12.9416993383
 20
7.697083978
 30
0.0
 10
12.944321148
 20
7.6912339116
 30
0.0
 10
12.9468919654
 20
7.6851173395
 30
0.0
 10
12.9503045724
 20
7.6764721175
 30
0.0
 10
12.9544204004
 20
7.6650106532
 30
0.0
 10
12.9590606147
 20
7.6504569136
 30
0.0
 10
12.9634683914
 20
7.6349203589
 30
0.0
 10
12.9676348179
 20
7.6184320155
 30
0.0
 10
12.9715514523
 20
7.6010246251
 30
0.0
 10
12.9752103391
 20
7.5827329501
 30
0.0
 10
12.978604036
 20
7.5635935612
 30
0.0
 10
12.9817256343
 20
7.543644784
 30
0.0
 10
12.9845687741
 20
7.5229266084
 30
0.0
 10
12.9871276734
 20
7.501480606
 30
0.0
 10
12.9893971259
 20
7.4793498356
 30
0.0
 10
12.9913725116
 20
7.4565787462
 30
0.0
 10
12.9930498058
 20
7.4332130853
 30
0.0
 10
12.9944255865
 20
7.4092998085
 30
0.0
 10
12.9954970529
 20
7.3848869863
 30
0.0
 10
12.9962620218
 20
7.3600236981
 30
0.0
 10
12.9967189192
 20
7.3347599453
 30
0.0
 10
12.9968668276
 20
7.3091464855
 30
0.0
 10
12.9966505128
 20
7.2744424213
 30
0.0
 10
12.9956010082
 20
7.2305696173
 30
0.0
 10
12.993127645
 20
7.1775962685
 30
0.0
 10
12.9894541396
 20
7.1244881799
 30
0.0
 10
12.9846100576
 20
7.0716723707
 30
0.0
 10
12.9796084948
 20
7.0280635488
 30
0.0
 10
12.9750439951
 20
6.9936495556
 30
0.0
 10
12.9713703046
 20
6.9682900694
 30
0.0
 10
12.9674386107
 20
6.9433179685
 30
0.0
 10
12.9632568084
 20
6.9187834293
 30
0.0
 10
12.9588333379
 20
6.8947357905
 30
0.0
 10
12.9541771277
 20
6.8712233888
 30
0.0
 10
12.949297579
 20
6.8482934783
 30
0.0
 10
12.9442045436
 20
6.825992134
 30
0.0
 10
12.9389083053
 20
6.8043641597
 30
0.0
 10
12.9334195574
 20
6.7834529903
 30
0.0
 10
12.9277493948
 20
6.7633005953
 30
0.0
 10
12.9219092781
 20
6.7439473926
 30
0.0
 10
12.9159110105
 20
6.7254321698
 30
0.0
 10
12.9097667116
 20
6.7077919921
 30
0.0
 10
12.9034887877
 20
6.6910621394
 30
0.0
 10
12.8970899093
 20
6.6752759191
 30
0.0
 10
12.8905829822
 20
6.6604649133
 30
0.0
 10
12.8850016727
 20
6.6487923315
 30
0.0
 10
12.8804838954
 20
6.6399740806
 30
0.0
 10
12.8771270687
 20
6.6337207099
 30
0.0
 10
12.873753024
 20
6.6277323279
 30
0.0
 10
12.8703634699
 20
6.6220118876
 30
0.0
 10
12.8669600658
 20
6.6165622514
 30
0.0
 10
12.8635445068
 20
6.6113861375
 30
0.0
 10
12.8601185378
 20
6.6064861011
 30
0.0
 10
12.8566837707
 20
6.6018645842
 30
0.0
 10
12.8532418985
 20
6.597523803
 30
0.0
 10
12.8497945042
 20
6.5934658968
 30
0.0
 10
12.8463434655
 20
6.5896930685
 30
0.0
 10
12.8439936459
 20
6.5873208344
 30
0.0
 10
12.8428180937
 20
6.5861853381
 30
0.0
  0
SPLINE
  5
3C1
100
AcDbEntity
  8
0
100
AcDbSpline
 62
7
  6
CONTINUOUS
 70
0
 71
3
 72
73
 73
69
 74
0
 42
0.0000001
 43
0.0000001
 44
0.0000000001
 40
0.0
 40
0.0
 40
0.0
 40
0.0
 40
0.0085742
 40
0.0179223712
 40
0.0280748659
 40
0.0390496887
 40
0.0508534563
 40
0.0634843528
 40
0.0769337063
 40
0.0911871318
 40
0.1062254071
 40
0.1220251419
 40
0.1385593659
 40
0.155797944
 40
0.1737078655
 40
0.1922535733
 40
0.2113972489
 40
0.2310990163
 40
0.2513171048
 40
0.2720080843
 40
0.3146266377
 40
0.3585816196
 40
0.4034826385
 40
0.4489281191
 40
0.4945101589
 40
0.5398192651
 40
0.5844491039
 40
0.6280013105
 40
0.6492527226
 40
0.670091429
 40
0.69047206
 40
0.7103506619
 40
0.7296848954
 40
0.7484342455
 40
0.7665601747
 40
0.7840263305
 40
0.8007988387
 40
0.8168465801
 40
0.8321414712
 40
0.8466588627
 40
0.8603780991
 40
0.873283104
 40
0.8853631547
 40
0.8966139856
 40
0.907039309
 40
0.9119469328
 40
0.9166542751
 40
0.9211650498
 40
0.9254840139
 40
0.9296169933
 40
0.9335712025
 40
0.9373553081
 40
0.940979592
 40
0.9477950869
 40
0.9510209541
 40
0.9541479269
 40
0.9571963814
 40
0.9601885237
 40
0.9631479593
 40
0.9660991517
 40
0.9690667988
 40
0.9720751532
 40
0.9751474159
 40
0.9783051762
 40
0.9849493987
 40
0.9884738235
 40
0.992150365
 40
1.0
 40
1.0
 40
1.0
 40
1.0
 10
10.009593044
 20
10.7360864645
 30
0.0
 10
10.0108320987
 20
10.7372832995
 30
0.0
 10
10.013550331
 20
10.7396538787
 30
0.0
 10
10.0180938001
 20
10.7430047192
 30
0.0
 10
10.0232639962
 20
10.7462929305
 30
0.0
 10
10.0290486763
 20
10.7495110687
 30
0.0
 10
10.0354350037
 20
10.7526520781
 30
0.0
 10
10.0424081592
 20
10.7557086414
 30
0.0
 10
10.0499518799
 20
10.7586735442
 30
0.0
 10
10.0580484039
 20
10.7615396666
 30
0.0
 10
10.0666785353
 20
10.764300103
 30
0.0
 10
10.0758217163
 20
10.766948186
 30
0.0
 10
10.0854561098
 20
10.7694774947
 30
0.0
 10
10.0955586597
 20
10.7718818798
 30
0.0
 10
10.1061051416
 20
10.7741555126
 30
0.0
 10
10.1170702357
 20
10.7762928813
 30
0.0
 10
10.1284276059
 20
10.7782887979
 30
0.0
 10
10.1401499501
 20
10.7801384007
 30
0.0
 10
10.1522090985
 20
10.7818372469
 30
0.0
 10
10.1688624328
 20
10.7839162087
 30
0.0
 10
10.1903062172
 20
10.7860980604
 30
0.0
 10
10.2166535011
 20
10.7880360802
 30
0.0
 10
10.2436102938
 20
10.7892997073
 30
0.0
 10
10.270917349
 20
10.7898766231
 30
0.0
 10
10.2983122208
 20
10.7897611051
 30
0.0
 10
10.3255315942
 20
10.7889543468
 30
0.0
 10
10.3523136705
 20
10.7874641713
 30
0.0
 10
10.3742288207
 20
10.7856507723
 30
0.0
 10
10.3913428889
 20
10.7838607439
 30
0.0
 10
10.4038058281
 20
10.7823692867
 30
0.0
 10
10.4159708148
 20
10.7807216639
 30
0.0
 10
10.427808602
 20
10.7789218344
 30
0.0
 10
10.4392907112
 20
10.7769741659
 30
0.0
 10
10.4503895443
 20
10.7748833923
 30
0.0
 10
10.4610784337
 20
10.7726545882
 30
0.0
 10
10.4713317096
 20
10.7702931516
 30
0.0
 10
10.4811247793
 20
10.7678048159
 30
0.0
 10
10.4904341931
 20
10.765195629
 30
0.0
 10
10.4992376956
 20
10.7624719176
 30
0.0
 10
10.5075142899
 20
10.7596402625
 30
0.0
 10
10.5152443334
 20
10.7567075065
 30
0.0
 10
10.5224095568
 20
10.753680705
 30
0.0
 10
10.5289932541
 20
10.7505670282
 30
0.0
 10
10.534979887
 20
10.747373819
 30
0.0
 10
10.5395480869
 20
10.7445992256
 30
0.0
 10
10.5428810763
 20
10.7423389305
 30
0.0
 10
10.5451721658
 20
10.7406627972
 30
0.0
 10
10.5473038908
 20
10.7389724827
 30
0.0
 10
10.5492750219
 20
10.737268953
 30
0.0
 10
10.5510843611
 20
10.7355530856
 30
0.0
 10
10.5527307981
 20
10.7338259182
 30
0.0
 10
10.5542135039
 20
10.732088122
 30
0.0
 10
10.5559349884
 20
10.7298057115
 30
0.0
 10
10.5573758745
 20
10.7274554488
 30
0.0
 10
10.5584867288
 20
10.7250515537
 30
0.0
 10
10.5591367071
 20
10.7232755718
 30
0.0
 10
10.5596177564
 20
10.7214950826
 30
0.0
 10
10.559929355
 20
10.7197112623
 30
0.0
 10
10.560071119
 20
10.7179255053
 30
0.0
 10
10.5600427482
 20
10.716139253
 30
0.0
 10
10.5598443572
 20
10.7143539794
 30
0.0
 10
10.5594762327
 20
10.712571129
 30
0.0
 10
10.5589387369
 20
10.7107919617
 30
0.0
 10
10.5579814314
 20
10.7083862179
 30
0.0
 10
10.5566889854
 20
10.7060276493
 30
0.0
 10
10.5551103707
 20
10.7037357548
 30
0.0
 10
10.5532389381
 20
10.7013582715
 30
0.0
 10
10.5516458869
 20
10.6996693357
 30
0.0
 10
10.5505115388
 20
10.6985736395
 30
0.0
  0
SPLINE
  5
3C2
100
AcDbEntity
  8
0
100
AcDbSpline
 62
7
  6
CONTINUOUS
 70
0
 71
3
 72
21
 73
17
 74
0
 42
0.0000001
 43
0.0000001
 44
0.0000000001
 40
0.0
 40
0.0
 40
0.0
 40
0.0
 40
0.1273176984
 40
0.2537999461
 40
0.3167619614
 40
0.3795355204
 40
0.4421314992
 40
0.5045621453
 40
0.5668413456
 40
0.6289845231
 40
0.6910084433
 40
0.7529310869
 40
0.8147714401
 40
0.8765493236
 40
0.9382852134
 40
1.0
 40
1.0
 40
1.0
 40
1.0
 10
11.8846812838
 20
9.5632071985
 30
0.0
 10
11.8846812838
 20
9.5699520066
 30
0.0
 10
11.8853251209
 20
9.583406046
 30
0.0
 10
11.8877567121
 20
9.6000381431
 30
0.0
 10
11.8906629792
 20
9.6130845667
 30
0.0
 10
11.8933133431
 20
9.6227076152
 30
0.0
 10
11.8964313378
 20
9.6321596669
 30
0.0
 10
11.9000097745
 20
9.6414192014
 30
0.0
 10
11.9040404032
 20
9.6504648029
 30
0.0
 10
11.9085140111
 20
9.6592755944
 30
0.0
 10
11.9134202492
 20
9.6678312659
 30
0.0
 10
11.9187478028
 20
9.6761120999
 30
0.0
 10
11.9244844373
 20
9.6840989344
 30
0.0
 10
11.9306169585
 20
9.6917734269
 30
0.0
 10
11.937130952
 20
9.6991176652
 30
0.0
 10
11.9417188447
 20
9.7037831578
 30
0.0
 10
11.9440703934
 20
9.7060545656
 30
0.0
  0
SPLINE
  5
3C3
100
AcDbEntity
  8
0
100
AcDbSpline
 62
7
  6
CONTINUOUS
 70
0
 71
3
 72
19
 73
15
 74
0
 42
0.0000001
 43
0.0000001
 44
0.0000000001
 40
0.0
 40
0.0
 40
0.0
 40
0.0
 40
0.05679694
 40
0.1127630659
 40
0.1682600565
 40
0.2236597227
 40
0.2793359028
 40
0.3356565831
 40
0.3929760383
 40
0.4516290584
 40
0.5740732824
 40
0.7052206549
 40
0.8467735763
 40
1.0
 40
1.0
 40
1.0
 40
1.0
 10
13.0464843781
 20
8.3052196855
 30
0.0
 10
13.0472886198
 20
8.3049353396
 30
0.0
 10
13.0489083579
 20
8.3044333218
 30
0.0
 10
13.0513782452
 20
8.3038856082
 30
0.0
 10
13.0538649143
 20
8.3035505605
 30
0.0
 10
13.0563666906
 20
8.3034284114
 30
0.0
 10
13.058882151
 20
8.3035192538
 30
0.0
 10
13.0614097767
 20
8.3038229432
 30
0.0
 10
13.0639482772
 20
8.3043391039
 30
0.0
 10
13.0673941943
 20
8.3053237756
 30
0.0
 10
13.0717458214
 20
8.3071166464
 30
0.0
 10
13.0769046787
 20
8.3100782754
 30
0.0
 10
13.0820704623
 20
8.3138702722
 30
0.0
 10
13.0853776566
 20
8.3168235698
 30
0.0
 10
13.0870328732
 20
8.3184223863
 30
0.0
  0
SPLINE
  5
3C4
100
AcDbEntity
  8
0
100
AcDbSpline
 62
7
  6
CONTINUOUS
 70
0
 71
3
 72
14
 73
10
 74
0
 42
0.0000001
 43
0.0000001
 44
0.0000000001
 40
0.0
 40
0.0
 40
0.0
 40
0.0
 40
0.2237616369
 40
0.3413702581
 40
0.463279675
 40
0.5898267208
 40
0.721305951
 40
0.857962155
 40
1.0
 40
1.0
 40
1.0
 40
1.0
 10
13.0616922694
 20
8.1810389726
 30
0.0
 10
13.063847373
 20
8.1817788777
 30
0.0
 10
13.0670565263
 20
8.1831498645
 30
0.0
 10
13.0712064772
 20
8.185396536
 30
0.0
 10
13.0743775314
 20
8.1873604145
 30
0.0
 10
13.0775528733
 20
8.1895736911
 30
0.0
 10
13.0807316959
 20
8.1920355947
 30
0.0
 10
13.0839125016
 20
8.1947447364
 30
0.0
 10
13.0859925566
 20
8.1966767821
 30
0.0
 10
13.0870328732
 20
8.1976816509
 30
0.0
  0
SPLINE
  5
3C5
100
AcDbEntity
  8
0
100
AcDbSpline
 62
7
  6
CONTINUOUS
 70
0
 71
3
 72
41
 73
37
 74
0
 42
0.0000001
 43
0.0000001
 44
0.0000000001
 40
0.0
 40
0.0
 40
0.0
 40
0.0
 40
0.0111868222
 40
0.0227617594
 40
0.0347183231
 40
0.04704919
 40
0.0728009788
 40
0.0999476303
 40
0.1284104147
 40
0.1581032623
 40
0.1889336406
 40
0.2208033172
 40
0.2536090434
 40
0.2872431858
 40
0.3215943213
 40
0.356547807
 40
0.3919863345
 40
0.4277904727
 40
0.4638392037
 40
0.5000104537
 40
0.536181622
 40
0.5722301081
 40
0.6080338392
 40
0.6434717989
 40
0.6784245584
 40
0.7127748122
 40
0.746407921
 40
0.779212466
 40
0.8110808189
 40
0.8419097375
 40
0.8716009966
 40
0.9000620721
 40
0.9272069036
 40
0.9529567723
 40
0.9772413496
 40
1.0
 40
1.0
 40
1.0
 40
1.0
 10
13.0271994646
 20
9.1096472255
 30
0.0
 10
13.0278815533
 20
9.1072320662
 30
0.0
 10
13.0292185311
 20
9.1023034671
 30
0.0
 10
13.0311148262
 20
9.0947487801
 30
0.0
 10
13.0329347617
 20
9.0869116108
 30
0.0
 10
13.0352914588
 20
9.075935639
 30
0.0
 10
13.0380221125
 20
9.0615568201
 30
0.0
 10
13.0409248111
 20
9.0435346142
 30
0.0
 10
13.0434881783
 20
9.0245686196
 30
0.0
 10
13.045702799
 20
9.0047272492
 30
0.0
 10
13.0475604826
 20
8.9840819452
 30
0.0
 10
13.0490543715
 20
8.9627071765
 30
0.0
 10
13.0501789411
 20
8.9406800736
 30
0.0
 10
13.0509300234
 20
8.918080162
 30
0.0
 10
13.0513048187
 20
8.8949890597
 30
0.0
 10
13.0513019034
 20
8.8714901778
 30
0.0
 10
13.0509212339
 20
8.847668414
 30
0.0
 10
13.0501641453
 20
8.8236098424
 30
0.0
 10
13.0490333451
 20
8.7994013989
 30
0.0
 10
13.0475329031
 20
8.7751305649
 30
0.0
 10
13.0456682361
 20
8.7508850487
 30
0.0
 10
13.0434460878
 20
8.7267524664
 30
0.0
 10
13.0408745048
 20
8.7028200232
 30
0.0
 10
13.0379628072
 20
8.6791741953
 30
0.0
 10
13.0347215559
 20
8.6559004158
 30
0.0
 10
13.0311625147
 20
8.6330827617
 30
0.0
 10
13.0272986086
 20
8.6108036471
 30
0.0
 10
13.0231438784
 20
8.5891435197
 30
0.0
 10
13.0187134311
 20
8.5681805644
 30
0.0
 10
13.0140233861
 20
8.5479904105
 30
0.0
 10
13.0090908188
 20
8.5286458517
 30
0.0
 10
13.0039336941
 20
8.5102165516
 30
0.0
 10
12.9985708175
 20
8.4927688224
 30
0.0
 10
12.9930216968
 20
8.4763651727
 30
0.0
 10
12.9873066776
 20
8.4610646584
 30
0.0
 10
12.9832657205
 20
8.4513120611
 30
0.0
 10
12.981212867
 20
8.446637315
 30
0.0
  0
SPLINE
  5
3C6
100
AcDbEntity
  8
0
100
AcDbSpline
 62
7
  6
CONTINUOUS
 70
0
 71
3
 72
53
 73
49
 74
0
 42
0.0000001
 43
0.0000001
 44
0.0000000001
 40
0.0
 40
0.0
 40
0.0
 40
0.0
 40
0.0093265531
 40
0.0191700118
 40
0.0295292842
 40
0.0404010696
 40
0.0517799675
 40
0.0636589064
 40
0.0760292311
 40
0.0888808885
 40
0.102202636
 40
0.1159820095
 40
0.1302056008
 40
0.1448589747
 40
0.1599268571
 40
0.1753931641
 40
0.207452237
 40
0.2408940503
 40
0.2755660426
 40
0.3113074021
 40
0.3479503508
 40
0.385321371
 40
0.4232423916
 40
0.4615319431
 40
0.5000062964
 40
0.538480593
 40
0.5767699732
 40
0.6146907079
 40
0.6520613297
 40
0.6887037722
 40
0.7244445243
 40
0.7591158097
 40
0.7925568138
 40
0.8246149811
 40
0.8400808071
 40
0.8551481784
 40
0.8698010422
 40
0.8840240766
 40
0.8978029047
 40
0.9111240698
 40
0.9239751392
 40
0.9363448702
 40
0.9482231799
 40
0.9596014713
 40
0.9704726097
 40
0.9808312505
 40
0.9906740697
 40
1.0
 40
1.0
 40
1.0
 40
1.0
 10
13.0538482442
 20
9.1770075825
 30
0.0
 10
13.0549225812
 20
9.1746981825
 30
0.0
 10
13.0570328672
 20
9.169905387
 30
0.0
 10
13.06001546
 20
9.1624112652
 30
0.0
 10
13.0628969669
 20
9.1544275955
 30
0.0
 10
13.0656735739
 20
9.1459645771
 30
0.0
 10
13.0683418181
 20
9.1370328687
 30
0.0
 10
13.0708982287
 20
9.1276438021
 30
0.0
 10
13.0733395263
 20
9.1178093088
 30
0.0
 10
13.0756625873
 20
9.1075419137
 30
0.0
 10
13.077864368
 20
9.0968547071
 30
0.0
 10
13.0799420829
 20
9.0857613345
 30
0.0
 10
13.0818929991
 20
9.0742759679
 30
0.0
 10
13.0837146246
 20
9.0624132958
 30
0.0
 10
13.0854046245
 20
9.0501884756
 30
0.0
 10
13.0875045635
 20
9.0332233748
 30
0.0
 10
13.0897713599
 20
9.0112251545
 30
0.0
 10
13.0919054447
 20
8.9839490594
 30
0.0
 10
13.0934735035
 20
8.9556274847
 30
0.0
 10
13.0944672784
 20
8.9264054378
 30
0.0
 10
13.0948814387
 20
8.8964323983
 30
0.0
 10
13.0947136974
 20
8.8658618097
 30
0.0
 10
13.0939647846
 20
8.8348501954
 30
0.0
 10
13.0926384479
 20
8.8035563659
 30
0.0
 10
13.0907414278
 20
8.7721405903
 30
0.0
 10
13.0882834208
 20
8.7407637693
 30
0.0
 10
13.0852770315
 20
8.709586602
 30
0.0
 10
13.081737711
 20
8.6787687531
 30
0.0
 10
13.0776836723
 20
8.6484680283
 30
0.0
 10
13.0731358007
 20
8.6188395498
 30
0.0
 10
13.0681175461
 20
8.5900349726
 30
0.0
 10
13.062654821
 20
8.5622016087
 30
0.0
 10
13.0567758186
 20
8.5354819373
 30
0.0
 10
13.0514939595
 20
8.5140078714
 30
0.0
 10
13.0470721736
 20
8.4974956189
 30
0.0
 10
13.0437107676
 20
8.4856215652
 30
0.0
 10
13.0402690158
 20
8.474124378
 30
0.0
 10
13.0367512655
 20
8.4630187535
 30
0.0
 10
13.0331620789
 20
8.4523188858
 30
0.0
 10
13.0295060607
 20
8.4420384416
 30
0.0
 10
13.0257878883
 20
8.4321905452
 30
0.0
 10
13.0220123831
 20
8.4227877405
 30
0.0
 10
13.0181843302
 20
8.41384201
 30
0.0
 10
13.0143086912
 20
8.4053647
 30
0.0
 10
13.0103903876
 20
8.397366578
 30
0.0
 10
13.0064343994
 20
8.3898576944
 30
0.0
 10
13.0024458509
 20
8.3828476398
 30
0.0
 10
12.9996941548
 20
8.3783924454
 30
0.0
 10
12.9983113011
 20
8.3762536658
 30
0.0
  0
SPLINE
  5
3C7
100
AcDbEntity
  8
0
100
AcDbSpline
 62
7
  6
CONTINUOUS
 70
0
 71
3
 72
80
 73
76
 74
0
 42
0.0000001
 43
0.0000001
 44
0.0000000001
 40
0.0
 40
0.0
 40
0.0
 40
0.0
 40
0.0028240184
 40
0.0056048907
 40
0.0083637577
 40
0.0111223127
 40
0.0139022553
 40
0.0167247485
 40
0.0196099252
 40
0.0225765369
 40
0.0288165448
 40
0.0321227505
 40
0.0355679712
 40
0.039162339
 40
0.0429144422
 40
0.0468315258
 40
0.0509196684
 40
0.055183816
 40
0.0596280308
 40
0.064255529
 40
0.0690687627
 40
0.0740696052
 40
0.0792592888
 40
0.0902070135
 40
0.1019136112
 40
0.114373894
 40
0.1275777468
 40
0.1415108719
 40
0.1561554143
 40
0.171490426
 40
0.1874922198
 40
0.2041346363
 40
0.2213893204
 40
0.2392259416
 40
0.2576123708
 40
0.2765148205
 40
0.2958980129
 40
0.3157253314
 40
0.3359589458
 40
0.3565599198
 40
0.3774883405
 40
0.3987034474
 40
0.4418263167
 40
0.4855904318
 40
0.5296503871
 40
0.573657793
 40
0.6172647928
 40
0.6601275576
 40
0.6811747977
 40
0.7019106794
 40
0.7222949454
 40
0.7422882686
 40
0.7618523601
 40
0.7809500899
 40
0.7995456377
 40
0.8176046243
 40
0.8350942393
 40
0.8519833963
 40
0.8682429334
 40
0.8838458152
 40
0.8987673394
 40
0.9129854074
 40
0.9264808809
 40
0.9392380166
 40
0.9512449546
 40
0.9569649383
 40
0.9624951124
 40
0.9678354057
 40
0.9729862168
 40
0.9779483621
 40
0.9827232081
 40
0.9873128449
 40
0.9917199454
 40
0.9959477105
 40
1.0
 40
1.0
 40
1.0
 40
1.0
 10
13.1113614954
 20
9.2407202548
 30
0.0
 10
13.1122647395
 20
9.2409046339
 30
0.0
 10
13.1140740678
 20
9.2411945632
 30
0.0
 10
13.1168012753
 20
9.2413847062
 30
0.0
 10
13.1195133811
 20
9.2413254885
 30
0.0
 10
13.1222081702
 20
9.2410169485
 30
0.0
 10
13.1248837706
 20
9.2404592809
 30
0.0
 10
13.1275382841
 20
9.2396531345
 30
0.0
 10
13.1301701956
 20
9.2385992843
 30
0.0
 10
13.1337057196
 20
9.2368360185
 30
0.0
 10
13.1371366656
 20
9.2345885653
 30
0.0
 10
13.1404416625
 20
9.2319284685
 30
0.0
 10
13.142939848
 20
9.2296525134
 30
0.0
 10
13.1454074248
 20
9.2271359871
 30
0.0
 10
13.1478436898
 20
9.2243800588
 30
0.0
 10
13.150247414
 20
9.2213862586
 30
0.0
 10
13.1526174292
 20
9.218156089
 30
0.0
 10
13.1549526477
 20
9.2146912713
 30
0.0
 10
13.157251875
 20
9.2109935619
 30
0.0
 10
13.1595139588
 20
9.2070648702
 30
0.0
 10
13.1617377898
 20
9.2029072465
 30
0.0
 10
13.1639222
 20
9.198522807
 30
0.0
 10
13.1668326829
 20
9.1922655252
 30
0.0
 10
13.1703517318
 20
9.1838810154
 30
0.0
 10
13.1743279
 20
9.17312678
 30
0.0
 10
13.1781210871
 20
9.1615294288
 30
0.0
 10
13.1817232981
 20
9.1491131365
 30
0.0
 10
13.1851269259
 20
9.1359035909
 30
0.0
 10
13.1883247329
 20
9.1219283549
 30
0.0
 10
13.1913099002
 20
9.107216642
 30
0.0
 10
13.1940760456
 20
9.0917992868
 30
0.0
 10
13.1966172724
 20
9.0757086636
 30
0.0
 10
13.1989281558
 20
9.0589786021
 30
0.0
 10
13.2010037581
 20
9.0416442981
 30
0.0
 10
13.202839635
 20
9.0237422415
 30
0.0
 10
13.2044318703
 20
9.0053101423
 30
0.0
 10
13.2057770676
 20
8.986386843
 30
0.0
 10
13.2068723496
 20
8.9670122268
 30
0.0
 10
13.2077153654
 20
8.9472271324
 30
0.0
 10
13.2083043032
 20
8.9270732857
 30
0.0
 10
13.2086379291
 20
8.9065931543
 30
0.0
 10
13.2087418114
 20
8.8787584408
 30
0.0
 10
13.208222909
 20
8.8434697612
 30
0.0
 10
13.2065894739
 20
8.8007510163
 30
0.0
 10
13.2039552207
 20
8.7577929366
 30
0.0
 10
13.2003423806
 20
8.714957526
 30
0.0
 10
13.1957814191
 20
8.6726057606
 30
0.0
 10
13.1911955839
 20
8.637805034
 30
0.0
 10
13.1870734852
 20
8.6104818582
 30
0.0
 10
13.1837899309
 20
8.5904547804
 30
0.0
 10
13.1803027861
 20
8.5708114705
 30
0.0
 10
13.1766194028
 20
8.5515933105
 30
0.0
 10
13.1727475868
 20
8.5328408223
 30
0.0
 10
13.1686955258
 20
8.5145935315
 30
0.0
 10
13.1644718076
 20
8.4968898848
 30
0.0
 10
13.1600853872
 20
8.4797671648
 30
0.0
 10
13.1555455615
 20
8.46326142
 30
0.0
 10
13.1508619458
 20
8.4474073847
 30
0.0
 10
13.1460444698
 20
8.4322383876
 30
0.0
 10
13.1411033547
 20
8.4177862752
 30
0.0
 10
13.1360490724
 20
8.4040813415
 30
0.0
 10
13.1308923202
 20
8.3911522847
 30
0.0
 10
13.1256439886
 20
8.3790260185
 30
0.0
 10
13.1203151659
 20
8.3677279284
 30
0.0
 10
13.1157457913
 20
8.3588847157
 30
0.0
 10
13.1120507516
 20
8.3522519631
 30
0.0
 10
13.109311241
 20
8.3475796075
 30
0.0
 10
13.1065599857
 20
8.3431311646
 30
0.0
 10
13.1037984473
 20
8.3389089347
 30
0.0
 10
13.1010280698
 20
8.3349151205
 30
0.0
 10
13.0982502259
 20
8.3311517949
 30
0.0
 10
13.0954663513
 20
8.327620839
 30
0.0
 10
13.0926777776
 20
8.3243241014
 30
0.0
 10
13.0898861329
 20
8.3212634545
 30
0.0
 10
13.0879843224
 20
8.3193414157
 30
0.0
 10
13.0870328732
 20
8.3184223863
 30
0.0
  0
SPLINE
  5
3C8
100
AcDbEntity
  8
0
100
AcDbSpline
 62
7
  6
CONTINUOUS
 70
0
 71
3
 72
77
 73
73
 74
0
 42
0.0000001
 43
0.0000001
 44
0.0000000001
 40
0.0
 40
0.0
 40
0.0
 40
0.0
 40
0.0028949947
 40
0.0058854089
 40
0.0089836432
 40
0.0122006676
 40
0.0155460958
 40
0.0190282104
 40
0.0226541553
 40
0.0264299915
 40
0.0303608019
 40
0.0344508657
 40
0.0387036516
 40
0.0431219798
 40
0.0477080914
 40
0.0524636438
 40
0.0573898751
 40
0.0624875688
 40
0.0731980031
 40
0.0845949576
 40
0.0966731469
 40
0.1094234304
 40
0.1228333786
 40
0.1368877326
 40
0.1515687469
 40
0.1668564444
 40
0.1827288429
 40
0.1991621718
 40
0.2161310346
 40
0.2336085366
 40
0.2515664073
 40
0.2699751405
 40
0.2888041016
 40
0.308021618
 40
0.3275950678
 40
0.3474909915
 40
0.3881120582
 40
0.4296043876
 40
0.4716788724
 40
0.5140411766
 40
0.5563944025
 40
0.5984417285
 40
0.6398890675
 40
0.6602975812
 40
0.6804484169
 40
0.7003067736
 40
0.7198385199
 40
0.7390102954
 40
0.7577896031
 40
0.7761448889
 40
0.7940456363
 40
0.8114624842
 40
0.8283673422
 40
0.84473349
 40
0.8605357038
 40
0.8757504193
 40
0.8903559108
 40
0.904332462
 40
0.917662595
 40
0.9303313694
 40
0.9423267582
 40
0.9536400581
 40
0.9590395404
 40
0.9642671003
 40
0.9693228514
 40
0.9742073017
 40
0.9789213084
 40
0.9834661947
 40
0.9878438826
 40
0.9920567744
 40
0.9961076947
 40
1.0
 40
1.0
 40
1.0
 40
1.0
 10
13.1432185405
 20
9.361786961
 30
0.0
 10
13.1442675429
 20
9.3612661117
 30
0.0
 10
13.1463606545
 20
9.3601260061
 30
0.0
 10
13.1494244754
 20
9.3581661614
 30
0.0
 10
13.1524580374
 20
9.3559324286
 30
0.0
 10
13.155459857
 20
9.3534261711
 30
0.0
 10
13.158428735
 20
9.3506486087
 30
0.0
 10
13.1613635125
 20
9.3476011942
 30
0.0
 10
13.164262937
 20
9.3442853347
 30
0.0
 10
13.1671257927
 20
9.3407025903
 30
0.0
 10
13.1699509046
 20
9.3368546446
 30
0.0
 10
13.1727369773
 20
9.3327432212
 30
0.0
 10
13.1754828384
 20
9.328370239
 30
0.0
 10
13.178187254
 20
9.3237376937
 30
0.0
 10
13.1808489683
 20
9.318847693
 30
0.0
 10
13.1834668267
 20
9.3137025149
 30
0.0
 10
13.1860396128
 20
9.308304496
 30
0.0
 10
13.1894648372
 20
9.3006466988
 30
0.0
 10
13.193612322
 20
9.2904480776
 30
0.0
 10
13.1983124249
 20
9.277437977
 30
0.0
 10
13.2028056182
 20
9.2634856304
 30
0.0
 10
13.2070835055
 20
9.2486168851
 30
0.0
 10
13.2111380752
 20
9.2328590794
 30
0.0
 10
13.2149616887
 20
9.2162413912
 30
0.0
 10
13.2185471216
 20
9.1987946383
 30
0.0
 10
13.2218875988
 20
9.1805512562
 30
0.0
 10
13.224976817
 20
9.1615452153
 30
0.0
 10
13.2278089355
 20
9.1418119379
 30
0.0
 10
13.230378592
 20
9.1213882235
 30
0.0
 10
13.2326809234
 20
9.1003121874
 30
0.0
 10
13.2347115872
 20
9.078623185
 30
0.0
 10
13.2364667432
 20
9.0563617279
 30
0.0
 10
13.2379430677
 20
9.0335693987
 30
0.0
 10
13.2391377519
 20
9.0102887955
 30
0.0
 10
13.2400485743
 20
8.9865633939
 30
0.0
 10
13.2408878446
 20
8.9541723874
 30
0.0
 10
13.2412047329
 20
8.9129007707
 30
0.0
 10
13.2404381863
 20
8.8626613807
 30
0.0
 10
13.2385324576
 20
8.8117473585
 30
0.0
 10
13.2355016426
 20
8.7605391543
 30
0.0
 10
13.2313683068
 20
8.7094190955
 30
0.0
 10
13.2261633464
 20
8.6587691747
 30
0.0
 10
13.2209391526
 20
8.6170563017
 30
0.0
 10
13.2162453964
 20
8.5842129553
 30
0.0
 10
13.212501859
 20
8.5600582843
 30
0.0
 10
13.2085242144
 20
8.5363006296
 30
0.0
 10
13.2043198813
 20
8.5129843689
 30
0.0
 10
13.1998967544
 20
8.4901530876
 30
0.0
 10
13.195263136
 20
8.467849443
 30
0.0
 10
13.190427721
 20
8.4461151061
 30
0.0
 10
13.1853995762
 20
8.4249906801
 30
0.0
 10
13.1801881396
 20
8.4045156124
 30
0.0
 10
13.1748032046
 20
8.384728116
 30
0.0
 10
13.1692548846
 20
8.365665107
 30
0.0
 10
13.1635535937
 20
8.3473621347
 30
0.0
 10
13.1577100356
 20
8.3298532967
 30
0.0
 10
13.151735194
 20
8.3131711648
 30
0.0
 10
13.1456402826
 20
8.2973467215
 30
0.0
 10
13.1394367259
 20
8.2824093275
 30
0.0
 10
13.1331361149
 20
8.2683865326
 30
0.0
 10
13.1267502387
 20
8.2553043628
 30
0.0
 10
13.1212857642
 20
8.2450525646
 30
0.0
 10
13.1168721992
 20
8.2373508596
 30
0.0
 10
13.1135997139
 20
8.2319147345
 30
0.0
 10
13.1103148068
 20
8.2267311313
 30
0.0
 10
13.1070190248
 20
8.2218024248
 30
0.0
 10
13.103713892
 20
8.2171308986
 30
0.0
 10
13.1004008648
 20
8.2127187021
 30
0.0
 10
13.0970814591
 20
8.2085677932
 30
0.0
 10
13.09375709
 20
8.2046801031
 30
0.0
 10
13.0904294847
 20
8.2010575948
 30
0.0
 10
13.0881654554
 20
8.1987756413
 30
0.0
 10
13.0870328732
 20
8.1976816509
 30
0.0
  0
SPLINE
  5
3C9
100
AcDbEntity
  8
0
100
AcDbSpline
 62
7
  6
CONTINUOUS
 70
0
 71
3
 72
83
 73
79
 74
0
 42
0.0000001
 43
0.0000001
 44
0.0000000001
 40
0.0
 40
0.0
 40
0.0
 40
0.0
 40
0.0027164276
 40
0.0054532334
 40
0.0082303009
 40
0.0110665998
 40
0.0139798088
 40
0.0169861218
 40
0.0201000928
 40
0.0233346095
 40
0.026700976
 40
0.0302089312
 40
0.0338668524
 40
0.0376818289
 40
0.0416598023
 40
0.0458057443
 40
0.0501236753
 40
0.0546168743
 40
0.0592878974
 40
0.0641386698
 40
0.0691706105
 40
0.0743845883
 40
0.0797810847
 40
0.0853601631
 40
0.0970640219
 40
0.1094907699
 40
0.1226300177
 40
0.1364676887
 40
0.150986507
 40
0.1661664045
 40
0.1819848426
 40
0.1984170703
 40
0.2154363375
 40
0.2330140708
 40
0.2511200494
 40
0.2697225561
 40
0.2887885105
 40
0.3082835895
 40
0.3281723378
 40
0.3484182894
 40
0.3689840785
 40
0.3898315425
 40
0.4109218226
 40
0.453671794
 40
0.496913762
 40
0.5403220095
 40
0.5835692233
 40
0.6263296343
 40
0.6474270493
 40
0.6682829087
 40
0.6888583326
 40
0.7091151299
 40
0.7290159025
 40
0.7485241591
 40
0.7676044182
 40
0.7862223163
 40
0.8043447241
 40
0.821939872
 40
0.8389774975
 40
0.8554289822
 40
0.8712675108
 40
0.8864682552
 40
0.9010085951
 40
0.9148683895
 40
0.9280302787
 40
0.9404800721
 40
0.9464347343
 40
0.9522077813
 40
0.9577985496
 40
0.9632067643
 40
0.968432455
 40
0.973476048
 40
0.978338406
 40
0.9830208506
 40
0.98752539
 40
0.9918546103
 40
0.9960115929
 40
1.0
 40
1.0
 40
1.0
 40
1.0
 10
13.1591074319
 20
9.3638382551
 30
0.0
 10
13.1602179252
 20
9.3637612362
 30
0.0
 10
13.162441554
 20
9.3635060884
 30
0.0
 10
13.1657486812
 20
9.3628233594
 30
0.0
 10
13.1690308267
 20
9.3618407724
 30
0.0
 10
13.1722856199
 20
9.3605591881
 30
0.0
 10
13.1755114163
 20
9.3589798442
 30
0.0
 10
13.1787065364
 20
9.3571039114
 30
0.0
 10
13.1818695059
 20
9.3549327383
 30
0.0
 10
13.1849989567
 20
9.3524677401
 30
0.0
 10
13.1880934699
 20
9.3497102833
 30
0.0
 10
13.1911517843
 20
9.3466619506
 30
0.0
 10
13.1941725131
 20
9.3433242805
 30
0.0
 10
13.197154327
 20
9.3396989816
 30
0.0
 10
13.2000959098
 20
9.3357878796
 30
0.0
 10
13.2029958357
 20
9.3315928658
 30
0.0
 10
13.2058528173
 20
9.3271160498
 30
0.0
 10
13.2086654405
 20
9.322359605
 30
0.0
 10
13.211432361
 20
9.317325884
 30
0.0
 10
13.2141522614
 20
9.3120173817
 30
0.0
 10
13.2168237469
 20
9.3064367006
 30
0.0
 10
13.2194455565
 20
9.3005866343
 30
0.0
 10
13.2220163739
 20
9.2944700622
 30
0.0
 10
13.2254289809
 20
9.2858248401
 30
0.0
 10
13.2295448089
 20
9.2743633758
 30
0.0
 10
13.2341850233
 20
9.2598096363
 30
0.0
 10
13.2385928
 20
9.2442730816
 30
0.0
 10
13.2427592264
 20
9.2277847382
 30
0.0
 10
13.2466758608
 20
9.2103773478
 30
0.0
 10
13.2503347477
 20
9.1920856728
 30
0.0
 10
13.2537284445
 20
9.1729462839
 30
0.0
 10
13.2568500428
 20
9.1529975067
 30
0.0
 10
13.2596931826
 20
9.1322793311
 30
0.0
 10
13.2622520819
 20
9.1108333287
 30
0.0
 10
13.2645215344
 20
9.0887025582
 30
0.0
 10
13.2664969201
 20
9.0659314689
 30
0.0
 10
13.2681742144
 20
9.0425658079
 30
0.0
 10
13.269549995
 20
9.0186525312
 30
0.0
 10
13.2706214614
 20
8.994239709
 30
0.0
 10
13.2713864304
 20
8.9693764208
 30
0.0
 10
13.2718433277
 20
8.944112668
 30
0.0
 10
13.2719912361
 20
8.9184992082
 30
0.0
 10
13.2717749214
 20
8.883795144
 30
0.0
 10
13.2707254167
 20
8.83992234
 30
0.0
 10
13.2682520536
 20
8.7869489911
 30
0.0
 10
13.2645785481
 20
8.7338409025
 30
0.0
 10
13.2597344661
 20
8.6810250934
 30
0.0
 10
13.2547329033
 20
8.6374162715
 30
0.0
 10
13.2501684036
 20
8.6030022783
 30
0.0
 10
13.2464947131
 20
8.5776427921
 30
0.0
 10
13.2425630192
 20
8.5526706911
 30
0.0
 10
13.2383812169
 20
8.528136152
 30
0.0
 10
13.2339577464
 20
8.5040885132
 30
0.0
 10
13.2293015362
 20
8.4805761115
 30
0.0
 10
13.2244219875
 20
8.457646201
 30
0.0
 10
13.2193289521
 20
8.4353448567
 30
0.0
 10
13.2140327138
 20
8.4137168823
 30
0.0
 10
13.2085439659
 20
8.392805713
 30
0.0
 10
13.2028738033
 20
8.372653318
 30
0.0
 10
13.1970336866
 20
8.3533001153
 30
0.0
 10
13.191035419
 20
8.3347848924
 30
0.0
 10
13.1848911201
 20
8.3171447148
 30
0.0
 10
13.1786131962
 20
8.3004148621
 30
0.0
 10
13.1722143178
 20
8.2846286417
 30
0.0
 10
13.1657073907
 20
8.269817636
 30
0.0
 10
13.1601260813
 20
8.2581450542
 30
0.0
 10
13.1556083039
 20
8.2493268032
 30
0.0
 10
13.1522514773
 20
8.2430734326
 30
0.0
 10
13.1488774326
 20
8.2370850506
 30
0.0
 10
13.1454878784
 20
8.2313646103
 30
0.0
 10
13.1420844743
 20
8.225914974
 30
0.0
 10
13.1386689153
 20
8.2207388602
 30
0.0
 10
13.1352429463
 20
8.2158388237
 30
0.0
 10
13.1318081792
 20
8.2112173069
 30
0.0
 10
13.1283663071
 20
8.2068765257
 30
0.0
 10
13.1249189128
 20
8.2028186195
 30
0.0
 10
13.121467874
 20
8.1990457911
 30
0.0
 10
13.1191180544
 20
8.1966735571
 30
0.0
 10
13.1179425022
 20
8.1955380608
 30
0.0
  0
SPLINE
  5
3CA
100
AcDbEntity
  8
0
100
AcDbSpline
 62
7
  6
CONTINUOUS
 70
0
 71
3
 72
27
 73
23
 74
0
 42
0.0000001
 43
0.0000001
 44
0.0000000001
 40
0.0
 40
0.0
 40
0.0
 40
0.0
 40
0.062200974
 40
0.0932503179
 40
0.1242682267
 40
0.1862183615
 40
0.2481002854
 40
0.2790336516
 40
0.3099655958
 40
0.3718363198
 40
0.4337660659
 40
0.4957977566
 40
0.5579729725
 40
0.620330935
 40
0.6829075056
 40
0.7142932304
 40
0.745744984
 40
0.8088482425
 40
0.8722484956
 40
0.9040693541
 40
0.9359703651
 40
1.0
 40
1.0
 40
1.0
 40
1.0
 10
10.957581824
 20
8.4425062074
 30
0.0
 10
10.955422824
 20
8.4382620044
 30
0.0
 10
10.951961862
 20
8.4320094356
 30
0.0
 10
10.9469183737
 20
8.4239413553
 30
0.0
 10
10.941601619
 20
8.4160733753
 30
0.0
 10
10.9344408445
 20
8.4066124899
 30
0.0
 10
10.9266198193
 20
8.3976978954
 30
0.0
 10
10.9199912404
 20
8.390927141
 30
0.0
 10
10.9131203492
 20
8.3844037274
 30
0.0
 10
10.9040853742
 20
8.3767251503
 30
0.0
 10
10.8925847762
 20
8.3683295385
 30
0.0
 10
10.8804737056
 20
8.3607963129
 30
0.0
 10
10.8678073936
 20
8.3541682967
 30
0.0
 10
10.8546453441
 20
8.34848394
 30
0.0
 10
10.8433255675
 20
8.3445648146
 30
0.0
 10
10.8340905905
 20
8.3419320913
 30
0.0
 10
10.8247253352
 20
8.3396331308
 30
0.0
 10
10.8128285303
 20
8.3374037531
 30
0.0
 10
10.8007722988
 20
8.33605066
 30
0.0
 10
10.7910544277
 20
8.3354949048
 30
0.0
 10
10.7812750216
 20
8.3352912585
 30
0.0
 10
10.7739268369
 20
8.3355375334
 30
0.0
 10
10.7690368103
 20
8.3358766579
 30
0.0
  0
SPLINE
  5
3CB
100
AcDbEntity
  8
0
100
AcDbSpline
 62
7
  6
CONTINUOUS
 70
0
 71
3
 72
42
 73
38
 74
0
 42
0.0000001
 43
0.0000001
 44
0.0000000001
 40
0.0
 40
0.0
 40
0.0
 40
0.0
 40
0.0299419634
 40
0.0449235299
 40
0.0599142017
 40
0.0899287029
 40
0.1200139772
 40
0.1350926626
 40
0.1501967046
 40
0.1804840506
 40
0.2108978877
 40
0.2414513551
 40
0.2721543675
 40
0.3030134354
 40
0.3340315696
 40
0.3652082675
 40
0.3965395775
 40
0.4280182343
 40
0.4596338596
 40
0.4913732188
 40
0.5232205284
 40
0.5551578047
 40
0.5871652463
 40
0.6192216448
 40
0.6513048151
 40
0.6833920402
 40
0.7154605222
 40
0.747487836
 40
0.7794523759
 40
0.8113337934
 40
0.8431134117
 40
0.8747746318
 40
0.9063032512
 40
0.9376879208
 40
0.9533258
 40
0.9689252634
 40
1.0
 40
1.0
 40
1.0
 40
1.0
 10
10.5280536952
 20
7.850863049
 30
0.0
 10
10.5244205561
 20
7.8473537274
 30
0.0
 10
10.5187566886
 20
7.8423023943
 30
0.0
 10
10.5108245698
 20
7.83603479
 30
0.0
 10
10.5026398529
 20
7.8300790712
 30
0.0
 10
10.4919601431
 20
7.8232399765
 30
0.0
 10
10.4807611793
 20
7.8172577479
 30
0.0
 10
10.4715249365
 20
7.8130019846
 30
0.0
 10
10.4620979001
 20
7.8090975411
 30
0.0
 10
10.4500034398
 20
7.8048991608
 30
0.0
 10
10.4350988508
 20
7.8009863757
 30
0.0
 10
10.4198690413
 20
7.7982144686
 30
0.0
 10
10.4043984127
 20
7.7965987319
 30
0.0
 10
10.3887719486
 20
7.7961477882
 30
0.0
 10
10.3730756301
 20
7.7968639325
 30
0.0
 10
10.3573957278
 20
7.798743028
 30
0.0
 10
10.3418183958
 20
7.8017745651
 30
0.0
 10
10.3264291866
 20
7.8059417193
 30
0.0
 10
10.3113125926
 20
7.8112214505
 30
0.0
 10
10.2965515869
 20
7.8175846333
 30
0.0
 10
10.282227175
 20
7.8249962191
 30
0.0
 10
10.2684179563
 20
7.833415429
 30
0.0
 10
10.2551996988
 20
7.8427959779
 30
0.0
 10
10.2426449282
 20
7.853086327
 30
0.0
 10
10.2308225351
 20
7.8642299652
 30
0.0
 10
10.2197974011
 20
7.8761657161
 30
0.0
 10
10.2096300463
 20
7.8888280711
 30
0.0
 10
10.2003763006
 20
7.9021475455
 30
0.0
 10
10.1920869998
 20
7.9160510519
 30
0.0
 10
10.1848077085
 20
7.9304623129
 30
0.0
 10
10.1785784732
 20
7.9453022141
 30
0.0
 10
10.17343359
 20
7.9604894535
 30
0.0
 10
10.1694014811
 20
7.9759401669
 30
0.0
 10
10.1669841422
 20
7.9889822441
 30
0.0
 10
10.1656280868
 20
7.999461395
 30
0.0
 10
10.1646603033
 20
8.0099305183
 30
0.0
 10
10.1643672678
 20
8.017808463
 30
0.0
 10
10.1643672678
 20
8.0230508042
 30
0.0
  0
SPLINE
  5
3CC
100
AcDbEntity
  8
0
100
AcDbSpline
 62
7
  6
CONTINUOUS
 70
0
 71
3
 72
42
 73
38
 74
0
 42
0.0000001
 43
0.0000001
 44
0.0000000001
 40
0.0
 40
0.0
 40
0.0
 40
0.0
 40
0.0299419634
 40
0.0449235299
 40
0.0599142017
 40
0.0899287029
 40
0.1200139772
 40
0.1350926626
 40
0.1501967046
 40
0.1804840506
 40
0.2108978877
 40
0.2414513551
 40
0.2721543675
 40
0.3030134354
 40
0.3340315696
 40
0.3652082675
 40
0.3965395775
 40
0.4280182343
 40
0.4596338596
 40
0.4913732188
 40
0.5232205284
 40
0.5551578047
 40
0.5871652463
 40
0.6192216448
 40
0.6513048151
 40
0.6833920402
 40
0.7154605222
 40
0.747487836
 40
0.7794523759
 40
0.8113337934
 40
0.8431134117
 40
0.8747746318
 40
0.9063032512
 40
0.9376879208
 40
0.9533258
 40
0.9689252634
 40
1.0
 40
1.0
 40
1.0
 40
1.0
 10
9.2308152099
 20
9.60028742
 30
0.0
 10
9.2271820708
 20
9.5967780984
 30
0.0
 10
9.2215182033
 20
9.5917267653
 30
0.0
 10
9.2135860845
 20
9.5854591609
 30
0.0
 10
9.2054013676
 20
9.5795034421
 30
0.0
 10
9.1947216578
 20
9.5726643475
 30
0.0
 10
9.183522694
 20
9.5666821189
 30
0.0
 10
9.1742864513
 20
9.5624263556
 30
0.0
 10
9.1648594148
 20
9.558521912
 30
0.0
 10
9.1527649545
 20
9.5543235318
 30
0.0
 10
9.1378603655
 20
9.5504107467
 30
0.0
 10
9.122630556
 20
9.5476388396
 30
0.0
 10
9.1071599274
 20
9.5460231029
 30
0.0
 10
9.0915334633
 20
9.5455721592
 30
0.0
 10
9.0758371448
 20
9.5462883035
 30
0.0
 10
9.0601572425
 20
9.548167399
 30
0.0
 10
9.0445799105
 20
9.5511989361
 30
0.0
 10
9.0291907014
 20
9.5553660902
 30
0.0
 10
9.0140741073
 20
9.5606458215
 30
0.0
 10
8.9993131016
 20
9.5670090043
 30
0.0
 10
8.9849886897
 20
9.5744205901
 30
0.0
 10
8.971179471
 20
9.5828398
 30
0.0
 10
8.9579612135
 20
9.5922203488
 30
0.0
 10
8.9454064429
 20
9.602510698
 30
0.0
 10
8.9335840498
 20
9.6136543361
 30
0.0
 10
8.9225589158
 20
9.6255900871
 30
0.0
 10
8.912391561
 20
9.638252442
 30
0.0
 10
8.9031378153
 20
9.6515719164
 30
0.0
 10
8.8948485145
 20
9.6654754229
 30
0.0
 10
8.8875692232
 20
9.6798866839
 30
0.0
 10
8.8813399879
 20
9.6947265851
 30
0.0
 10
8.8761951047
 20
9.7099138244
 30
0.0
 10
8.8721629958
 20
9.7253645379
 30
0.0
 10
8.8697456569
 20
9.7384066151
 30
0.0
 10
8.8683896015
 20
9.748885766
 30
0.0
 10
8.867421818
 20
9.7593548892
 30
0.0
 10
8.8671287825
 20
9.7672328339
 30
0.0
 10
8.8671287825
 20
9.7724751752
 30
0.0
  0
SPLINE
  5
3CD
100
AcDbEntity
  8
0
100
AcDbSpline
 62
7
  6
CONTINUOUS
 70
0
 71
3
 72
41
 73
37
 74
0
 42
0.0000001
 43
0.0000001
 44
0.0000000001
 40
0.0
 40
0.0
 40
0.0
 40
0.0
 40
0.0300821846
 40
0.0601249677
 40
0.0901567989
 40
0.1202063636
 40
0.1503017648
 40
0.1804697351
 40
0.2107349051
 40
0.2411191527
 40
0.2716410505
 40
0.3023154243
 40
0.3331530298
 40
0.3641603486
 40
0.3953394996
 40
0.4266882618
 40
0.4582001981
 40
0.4898648721
 40
0.5216681478
 40
0.5535925601
 40
0.5856177514
 40
0.6177209595
 40
0.6498775509
 40
0.6820615894
 40
0.7142464326
 40
0.7303336168
 40
0.746411012
 40
0.7785177955
 40
0.8105474018
 40
0.8265288047
 40
0.8424823668
 40
0.8742901324
 40
0.9059584497
 40
0.9374728128
 40
0.9688219871
 40
1.0
 40
1.0
 40
1.0
 40
1.0
 10
10.0411963369
 20
7.493473863
 30
0.0
 10
10.0381093389
 20
7.4889426302
 30
0.0
 10
10.0315478093
 20
7.4801457634
 30
0.0
 10
10.0206150683
 20
7.4678523889
 30
0.0
 10
10.0086696428
 20
7.4565473821
 30
0.0
 10
9.9957904453
 20
7.4463040876
 30
0.0
 10
9.9820610886
 20
7.4371871052
 30
0.0
 10
9.9675707075
 20
7.4292540355
 30
0.0
 10
9.9524129568
 20
7.4225546136
 30
0.0
 10
9.9366854815
 20
7.4171306197
 30
0.0
 10
9.9204892556
 20
7.4130156463
 30
0.0
 10
9.9039279515
 20
7.4102349714
 30
0.0
 10
9.8871073021
 20
7.4088054732
 30
0.0
 10
9.8701344741
 20
7.4087355821
 30
0.0
 10
9.8531174433
 20
7.4100252712
 30
0.0
 10
9.8361643759
 20
7.4126660828
 30
0.0
 10
9.8193830118
 20
7.4166411894
 30
0.0
 10
9.8028800512
 20
7.4219254887
 30
0.0
 10
9.7867605414
 20
7.428485735
 30
0.0
 10
9.7711272643
 20
7.4362806939
 30
0.0
 10
9.7560801169
 20
7.4452613719
 30
0.0
 10
9.7417155498
 20
7.4553712082
 30
0.0
 10
9.7281257978
 20
7.4665465727
 30
0.0
 10
9.7153989162
 20
7.4787163238
 30
0.0
 10
9.7055777151
 20
7.4896258419
 30
0.0
 10
9.6982313888
 20
7.4987715595
 30
0.0
 10
9.6912417824
 20
7.5081750448
 30
0.0
 10
9.683187136
 20
7.5203936925
 30
0.0
 10
9.6760865241
 20
7.5331705461
 30
0.0
 10
9.6710127912
 20
7.5436696944
 30
0.0
 10
9.6663595783
 20
7.55431766
 30
0.0
 10
9.661327959
 20
7.5679087367
 30
0.0
 10
9.6565846244
 20
7.5845771195
 30
0.0
 10
9.6531722914
 20
7.6014838341
 30
0.0
 10
9.6511140018
 20
7.6185172153
 30
0.0
 10
9.6506525662
 20
7.6299187309
 30
0.0
 10
9.6506525662
 20
7.6356013075
 30
0.0
  0
SPLINE
  5
3CE
100
AcDbEntity
  8
0
100
AcDbSpline
 62
7
  6
CONTINUOUS
 70
0
 71
3
 72
42
 73
38
 74
0
 42
0.0000001
 43
0.0000001
 44
0.0000000001
 40
0.0
 40
0.0
 40
0.0
 40
0.0
 40
0.0299419634
 40
0.0449235299
 40
0.0599142017
 40
0.0899287029
 40
0.1200139772
 40
0.1350926626
 40
0.1501967046
 40
0.1804840506
 40
0.2108978877
 40
0.2414513551
 40
0.2721543675
 40
0.3030134354
 40
0.3340315696
 40
0.3652082675
 40
0.3965395775
 40
0.4280182343
 40
0.4596338596
 40
0.4913732188
 40
0.5232205284
 40
0.5551578047
 40
0.5871652463
 40
0.6192216448
 40
0.6513048151
 40
0.6833920402
 40
0.7154605222
 40
0.747487836
 40
0.7794523759
 40
0.8113337934
 40
0.8431134117
 40
0.8747746318
 40
0.9063032512
 40
0.9376879208
 40
0.9533258
 40
0.9689252634
 40
1.0
 40
1.0
 40
1.0
 40
1.0
 10
12.2483677113
 20
9.3910194433
 30
0.0
 10
12.2447345721
 20
9.3875101217
 30
0.0
 10
12.2390707047
 20
9.3824587885
 30
0.0
 10
12.2311385859
 20
9.3761911842
 30
0.0
 10
12.2229538689
 20
9.3702354654
 30
0.0
 10
12.2122741591
 20
9.3633963707
 30
0.0
 10
12.2010751954
 20
9.3574141422
 30
0.0
 10
12.1918389526
 20
9.3531583788
 30
0.0
 10
12.1824119162
 20
9.3492539353
 30
0.0
 10
12.1703174559
 20
9.3450555551
 30
0.0
 10
12.1554128668
 20
9.3411427699
 30
0.0
 10
12.1401830573
 20
9.3383708629
 30
0.0
 10
12.1247124288
 20
9.3367551262
 30
0.0
 10
12.1090859646
 20
9.3363041825
 30
0.0
 10
12.0933896461
 20
9.3370203268
 30
0.0
 10
12.0777097438
 20
9.3388994222
 30
0.0
 10
12.0621324118
 20
9.3419309594
 30
0.0
 10
12.0467432027
 20
9.3460981135
 30
0.0
 10
12.0316266087
 20
9.3513778447
 30
0.0
 10
12.0168656029
 20
9.3577410276
 30
0.0
 10
12.002541191
 20
9.3651526133
 30
0.0
 10
11.9887319723
 20
9.3735718232
 30
0.0
 10
11.9755137148
 20
9.3829523721
 30
0.0
 10
11.9629589442
 20
9.3932427212
 30
0.0
 10
11.9511365512
 20
9.4043863594
 30
0.0
 10
11.9401114172
 20
9.4163221104
 30
0.0
 10
11.9299440624
 20
9.4289844653
 30
0.0
 10
11.9206903167
 20
9.4423039397
 30
0.0
 10
11.9124010159
 20
9.4562074462
 30
0.0
 10
11.9051217246
 20
9.4706187072
 30
0.0
 10
11.8988924892
 20
9.4854586084
 30
0.0
 10
11.8937476061
 20
9.5006458477
 30
0.0
 10
11.8897154971
 20
9.5160965611
 30
0.0
 10
11.8872981582
 20
9.5291386384
 30
0.0
 10
11.8859421028
 20
9.5396177893
 30
0.0
 10
11.8849743193
 20
9.5500869125
 30
0.0
 10
11.8846812838
 20
9.5579648572
 30
0.0
 10
11.8846812838
 20
9.5632071985
 30
0.0
  0
SPLINE
  5
3CF
100
AcDbEntity
  8
0
100
AcDbSpline
 62
7
  6
CONTINUOUS
 70
0
 71
3
 72
15
 73
11
 74
0
 42
0.0000001
 43
0.0000001
 44
0.0000000001
 40
0.0
 40
0.0
 40
0.0
 40
0.0
 40
0.1233171261
 40
0.2468171865
 40
0.3706749939
 40
0.4950495802
 40
0.6200773232
 40
0.7458671315
 40
0.872492731
 40
1.0
 40
1.0
 40
1.0
 40
1.0
 10
11.8790913716
 20
6.8989530165
 30
0.0
 10
11.8765668379
 20
6.8965145254
 30
0.0
 10
11.8712468673
 20
6.8919020996
 30
0.0
 10
11.862564151
 20
6.8858749094
 30
0.0
 10
11.8532603261
 20
6.8807940682
 30
0.0
 10
11.8434306254
 20
6.8767117976
 30
0.0
 10
11.8331742036
 20
6.8736686271
 30
0.0
 10
11.8225943793
 20
6.8716949841
 30
0.0
 10
11.8117991484
 20
6.8708100649
 30
0.0
 10
11.8045528662
 20
6.8709514064
 30
0.0
 10
11.8009323842
 20
6.8712024877
 30
0.0
  0
SPLINE
  5
3D0
100
AcDbEntity
  8
0
100
AcDbSpline
 62
7
  6
CONTINUOUS
 70
0
 71
3
 72
42
 73
38
 74
0
 42
0.0000001
 43
0.0000001
 44
0.0000000001
 40
0.0
 40
0.0
 40
0.0
 40
0.0
 40
0.0299419634
 40
0.0449235299
 40
0.0599142017
 40
0.0899287029
 40
0.1200139772
 40
0.1350926626
 40
0.1501967046
 40
0.1804840506
 40
0.2108978877
 40
0.2414513551
 40
0.2721543675
 40
0.3030134354
 40
0.3340315696
 40
0.3652082675
 40
0.3965395775
 40
0.4280182343
 40
0.4596338596
 40
0.4913732188
 40
0.5232205284
 40
0.5551578047
 40
0.5871652463
 40
0.6192216448
 40
0.6513048151
 40
0.6833920402
 40
0.7154605222
 40
0.747487836
 40
0.7794523759
 40
0.8113337934
 40
0.8431134117
 40
0.8747746318
 40
0.9063032512
 40
0.9376879208
 40
0.9533258
 40
0.9689252634
 40
1.0
 40
1.0
 40
1.0
 40
1.0
 10
9.2308152099
 20
6.0997722072
 30
0.0
 10
9.2271820708
 20
6.0962628856
 30
0.0
 10
9.2215182033
 20
6.0912115525
 30
0.0
 10
9.2135860845
 20
6.0849439481
 30
0.0
 10
9.2054013676
 20
6.0789882293
 30
0.0
 10
9.1947216578
 20
6.0721491347
 30
0.0
 10
9.183522694
 20
6.0661669061
 30
0.0
 10
9.1742864513
 20
6.0619111428
 30
0.0
 10
9.1648594148
 20
6.0580066992
 30
0.0
 10
9.1527649545
 20
6.053808319
 30
0.0
 10
9.1378603655
 20
6.0498955339
 30
0.0
 10
9.122630556
 20
6.0471236268
 30
0.0
 10
9.1071599274
 20
6.0455078901
 30
0.0
 10
9.0915334633
 20
6.0450569464
 30
0.0
 10
9.0758371448
 20
6.0457730907
 30
0.0
 10
9.0601572425
 20
6.0476521862
 30
0.0
 10
9.0445799105
 20
6.0506837233
 30
0.0
 10
9.0291907014
 20
6.0548508774
 30
0.0
 10
9.0140741073
 20
6.0601306087
 30
0.0
 10
8.9993131016
 20
6.0664937915
 30
0.0
 10
8.9849886897
 20
6.0739053773
 30
0.0
 10
8.971179471
 20
6.0823245872
 30
0.0
 10
8.9579612135
 20
6.091705136
 30
0.0
 10
8.9454064429
 20
6.1019954852
 30
0.0
 10
8.9335840498
 20
6.1131391233
 30
0.0
 10
8.9225589158
 20
6.1250748743
 30
0.0
 10
8.912391561
 20
6.1377372292
 30
0.0
 10
8.9031378153
 20
6.1510567036
 30
0.0
 10
8.8948485145
 20
6.1649602101
 30
0.0
 10
8.8875692232
 20
6.1793714711
 30
0.0
 10
8.8813399879
 20
6.1942113723
 30
0.0
 10
8.8761951047
 20
6.2093986116
 30
0.0
 10
8.8721629958
 20
6.2248493251
 30
0.0
 10
8.8697456569
 20
6.2378914023
 30
0.0
 10
8.8683896015
 20
6.2483705532
 30
0.0
 10
8.867421818
 20
6.2588396764
 30
0.0
 10
8.8671287825
 20
6.2667176211
 30
0.0
 10
8.8671287825
 20
6.2719599624
 30
0.0
  0
SPLINE
  5
3D1
100
AcDbEntity
  8
0
100
AcDbSpline
 62
7
  6
CONTINUOUS
 70
0
 71
3
 72
21
 73
17
 74
0
 42
0.0000001
 43
0.0000001
 44
0.0000000001
 40
0.0
 40
0.0
 40
0.0
 40
0.0
 40
0.1273176984
 40
0.2537999461
 40
0.3167619614
 40
0.3795355204
 40
0.4421314992
 40
0.5045621453
 40
0.5668413456
 40
0.6289845231
 40
0.6910084433
 40
0.7529310869
 40
0.8147714401
 40
0.8765493236
 40
0.9382852134
 40
1.0
 40
1.0
 40
1.0
 40
1.0
 10
8.8671287825
 20
6.2719599624
 30
0.0
 10
8.8671287825
 20
6.2787047705
 30
0.0
 10
8.8677726195
 20
6.2921588099
 30
0.0
 10
8.8702042108
 20
6.308790907
 30
0.0
 10
8.8731104778
 20
6.3218373306
 30
0.0
 10
8.8757608418
 20
6.3314603791
 30
0.0
 10
8.8788788364
 20
6.3409124308
 30
0.0
 10
8.8824572732
 20
6.3501719654
 30
0.0
 10
8.8864879019
 20
6.3592175668
 30
0.0
 10
8.8909615097
 20
6.3680283584
 30
0.0
 10
8.8958677478
 20
6.3765840299
 30
0.0
 10
8.9011953015
 20
6.3848648638
 30
0.0
 10
8.9069319359
 20
6.3928516984
 30
0.0
 10
8.9130644572
 20
6.4005261909
 30
0.0
 10
8.9195784506
 20
6.4078704291
 30
0.0
 10
8.9241663434
 20
6.4125359217
 30
0.0
 10
8.9265178921
 20
6.4148073295
 30
0.0
  0
SPLINE
  5
3D2
100
AcDbEntity
  8
0
100
AcDbSpline
 62
7
  6
CONTINUOUS
 70
0
 71
3
 72
15
 73
11
 74
0
 42
0.0000001
 43
0.0000001
 44
0.0000000001
 40
0.0
 40
0.0
 40
0.0
 40
0.0
 40
0.1233171261
 40
0.2468171865
 40
0.3706749939
 40
0.4950495802
 40
0.6200773232
 40
0.7458671315
 40
0.872492731
 40
1.0
 40
1.0
 40
1.0
 40
1.0
 10
9.8264988691
 20
7.04130079
 30
0.0
 10
9.8239743354
 20
7.0388622989
 30
0.0
 10
9.8186543648
 20
7.0342498731
 30
0.0
 10
9.8099716485
 20
7.0282226829
 30
0.0
 10
9.8006678236
 20
7.0231418417
 30
0.0
 10
9.790838123
 20
7.0190595712
 30
0.0
 10
9.7805817011
 20
7.0160164007
 30
0.0
 10
9.7700018769
 20
7.0140427576
 30
0.0
 10
9.7592066459
 20
7.0131578384
 30
0.0
 10
9.7519603637
 20
7.01329918
 30
0.0
 10
9.7483398817
 20
7.0135502612
 30
0.0
  0
SPLINE
  5
3D3
100
AcDbEntity
  8
0
100
AcDbSpline
 62
7
  6
CONTINUOUS
 70
0
 71
3
 72
42
 73
38
 74
0
 42
0.0000001
 43
0.0000001
 44
0.0000000001
 40
0.0
 40
0.0
 40
0.0
 40
0.0
 40
0.0299419634
 40
0.0449235299
 40
0.0599142017
 40
0.0899287029
 40
0.1200139772
 40
0.1350926626
 40
0.1501967046
 40
0.1804840506
 40
0.2108978877
 40
0.2414513551
 40
0.2721543675
 40
0.3030134354
 40
0.3340315696
 40
0.3652082675
 40
0.3965395775
 40
0.4280182343
 40
0.4596338596
 40
0.4913732188
 40
0.5232205284
 40
0.5551578047
 40
0.5871652463
 40
0.6192216448
 40
0.6513048151
 40
0.6833920402
 40
0.7154605222
 40
0.747487836
 40
0.7794523759
 40
0.8113337934
 40
0.8431134117
 40
0.8747746318
 40
0.9063032512
 40
0.9376879208
 40
0.9533258
 40
0.9689252634
 40
1.0
 40
1.0
 40
1.0
 40
1.0
 10
12.2483677113
 20
5.8905042304
 30
0.0
 10
12.2447345721
 20
5.8869949089
 30
0.0
 10
12.2390707047
 20
5.8819435757
 30
0.0
 10
12.2311385859
 20
5.8756759714
 30
0.0
 10
12.2229538689
 20
5.8697202526
 30
0.0
 10
12.2122741591
 20
5.8628811579
 30
0.0
 10
12.2010751954
 20
5.8568989294
 30
0.0
 10
12.1918389526
 20
5.852643166
 30
0.0
 10
12.1824119162
 20
5.8487387225
 30
0.0
 10
12.1703174559
 20
5.8445403422
 30
0.0
 10
12.1554128668
 20
5.8406275571
 30
0.0
 10
12.1401830573
 20
5.8378556501
 30
0.0
 10
12.1247124288
 20
5.8362399134
 30
0.0
 10
12.1090859646
 20
5.8357889697
 30
0.0
 10
12.0933896461
 20
5.836505114
 30
0.0
 10
12.0777097438
 20
5.8383842094
 30
0.0
 10
12.0621324118
 20
5.8414157466
 30
0.0
 10
12.0467432027
 20
5.8455829007
 30
0.0
 10
12.0316266087
 20
5.8508626319
 30
0.0
 10
12.0168656029
 20
5.8572258148
 30
0.0
 10
12.002541191
 20
5.8646374005
 30
0.0
 10
11.9887319723
 20
5.8730566104
 30
0.0
 10
11.9755137148
 20
5.8824371593
 30
0.0
 10
11.9629589442
 20
5.8927275084
 30
0.0
 10
11.9511365512
 20
5.9038711466
 30
0.0
 10
11.9401114172
 20
5.9158068976
 30
0.0
 10
11.9299440624
 20
5.9284692525
 30
0.0
 10
11.9206903167
 20
5.9417887269
 30
0.0
 10
11.9124010159
 20
5.9556922334
 30
0.0
 10
11.9051217246
 20
5.9701034944
 30
0.0
 10
11.8988924892
 20
5.9849433956
 30
0.0
 10
11.8937476061
 20
6.0001306349
 30
0.0
 10
11.8897154971
 20
6.0155813483
 30
0.0
 10
11.8872981582
 20
6.0286234255
 30
0.0
 10
11.8859421028
 20
6.0391025765
 30
0.0
 10
11.8849743193
 20
6.0495716997
 30
0.0
 10
11.8846812838
 20
6.0574496444
 30
0.0
 10
11.8846812838
 20
6.0626919857
 30
0.0
  0
SPLINE
  5
3D4
100
AcDbEntity
  8
0
100
AcDbSpline
 62
7
  6
CONTINUOUS
 70
0
 71
3
 72
15
 73
11
 74
0
 42
0.0000001
 43
0.0000001
 44
0.0000000001
 40
0.0
 40
0.0
 40
0.0
 40
0.0
 40
0.1233171261
 40
0.2468171865
 40
0.3706749939
 40
0.4950495802
 40
0.6200773232
 40
0.7458671315
 40
0.872492731
 40
1.0
 40
1.0
 40
1.0
 40
1.0
 10
9.8264988691
 20
8.7925243818
 30
0.0
 10
9.8239743354
 20
8.7900858907
 30
0.0
 10
9.8186543648
 20
8.785473465
 30
0.0
 10
9.8099716485
 20
8.7794462748
 30
0.0
 10
9.8006678236
 20
8.7743654335
 30
0.0
 10
9.790838123
 20
8.770283163
 30
0.0
 10
9.7805817011
 20
8.7672399925
 30
0.0
 10
9.7700018769
 20
8.7652663494
 30
0.0
 10
9.7592066459
 20
8.7643814303
 30
0.0
 10
9.7519603637
 20
8.7645227718
 30
0.0
 10
9.7483398817
 20
8.7647738531
 30
0.0
  0
SPLINE
  5
3D5
100
AcDbEntity
  8
0
100
AcDbSpline
 62
7
  6
CONTINUOUS
 70
0
 71
3
 72
15
 73
11
 74
0
 42
0.0000001
 43
0.0000001
 44
0.0000000001
 40
0.0
 40
0.0
 40
0.0
 40
0.0
 40
0.1233171261
 40
0.2468171865
 40
0.3706749939
 40
0.4950495802
 40
0.6200773232
 40
0.7458671315
 40
0.872492731
 40
1.0
 40
1.0
 40
1.0
 40
1.0
 10
11.8790913716
 20
8.6501766083
 30
0.0
 10
11.8765668379
 20
8.6477381172
 30
0.0
 10
11.8712468673
 20
8.6431256914
 30
0.0
 10
11.862564151
 20
8.6370985012
 30
0.0
 10
11.8532603261
 20
8.63201766
 30
0.0
 10
11.8434306254
 20
8.6279353895
 30
0.0
 10
11.8331742036
 20
8.624892219
 30
0.0
 10
11.8225943793
 20
8.6229185759
 30
0.0
 10
11.8117991484
 20
8.6220336567
 30
0.0
 10
11.8045528662
 20
8.6221749983
 30
0.0
 10
11.8009323842
 20
8.6224260795
 30
0.0
  0
SPLINE
  5
3D6
100
AcDbEntity
  8
0
100
AcDbSpline
 62
4
  6
CONTINUOUS
 70
0
 71
3
 72
313
 73
309
 74
0
 42
0.0000001
 43
0.0000001
 44
0.0000000001
 40
0.0
 40
0.0
 40
0.0
 40
0.0
 40
0.015625
 40
0.0234375
 40
0.03125
 40
0.0390625
 40
0.046875
 40
0.05078125
 40
0.0546875
 40
0.056640625
 40
0.05859375
 40
0.060546875
 40
0.0615234375
 40
0.0620117188
 40
0.0625
 40
0.0629882812
 40
0.0634765625
 40
0.064453125
 40
0.06640625
 40
0.068359375
 40
0.0703125
 40
0.07421875
 40
0.078125
 40
0.0859375
 40
0.09375
 40
0.1015625
 40
0.109375
 40
0.11328125
 40
0.1171875
 40
0.119140625
 40
0.12109375
 40
0.123046875
 40
0.1240234375
 40
0.1245117188
 40
0.125
 40
0.1254882812
 40
0.1259765625
 40
0.126953125
 40
0.12890625
 40
0.130859375
 40
0.1328125
 40
0.13671875
 40
0.140625
 40
0.1484375
 40
0.15625
 40
0.1640625
 40
0.171875
 40
0.17578125
 40
0.1796875
 40
0.181640625
 40
0.18359375
 40
0.185546875
 40
0.1865234375
 40
0.1870117188
 40
0.1875
 40
0.1879882812
 40
0.1884765625
 40
0.189453125
 40
0.19140625
 40
0.193359375
 40
0.1953125
 40
0.19921875
 40
0.203125
 40
0.2109375
 40
0.21875
 40
0.2265625
 40
0.234375
 40
0.23828125
 40
0.2421875
 40
0.244140625
 40
0.24609375
 40
0.248046875
 40
0.2490234375
 40
0.2495117188
 40
0.25
 40
0.2504882812
 40
0.2509765625
 40
0.251953125
 40
0.25390625
 40
0.255859375
 40
0.2578125
 40
0.26171875
 40
0.265625
 40
0.2734375
 40
0.28125
 40
0.2890625
 40
0.296875
 40
0.30078125
 40
0.3046875
 40
0.306640625
 40
0.30859375
 40
0.310546875
 40
0.3115234375
 40
0.3120117188
 40
0.3125
 40
0.3129882812
 40
0.3134765625
 40
0.314453125
 40
0.31640625
 40
0.318359375
 40
0.3203125
 40
0.32421875
 40
0.328125
 40
0.3359375
 40
0.34375
 40
0.3515625
 40
0.359375
 40
0.36328125
 40
0.3671875
 40
0.369140625
 40
0.37109375
 40
0.373046875
 40
0.3740234375
 40
0.3745117188
 40
0.375
 40
0.3754882812
 40
0.3759765625
 40
0.376953125
 40
0.37890625
 40
0.380859375
 40
0.3828125
 40
0.38671875
 40
0.390625
 40
0.3984375
 40
0.40625
 40
0.4140625
 40
0.421875
 40
0.42578125
 40
0.4296875
 40
0.431640625
 40
0.43359375
 40
0.435546875
 40
0.4365234375
 40
0.4370117188
 40
0.4375
 40
0.4379882812
 40
0.4384765625
 40
0.439453125
 40
0.44140625
 40
0.443359375
 40
0.4453125
 40
0.44921875
 40
0.453125
 40
0.4609375
 40
0.46875
 40
0.4765625
 40
0.484375
 40
0.48828125
 40
0.4921875
 40
0.494140625
 40
0.49609375
 40
0.498046875
 40
0.4990234375
 40
0.4995117188
 40
0.5
 40
0.5004882812
 40
0.5009765625
 40
0.501953125
 40
0.50390625
 40
0.505859375
 40
0.5078125
 40
0.51171875
 40
0.515625
 40
0.5234375
 40
0.53125
 40
0.5390625
 40
0.546875
 40
0.55078125
 40
0.5546875
 40
0.556640625
 40
0.55859375
 40
0.560546875
 40
0.5615234375
 40
0.5620117188
 40
0.5625
 40
0.5629882812
 40
0.5634765625
 40
0.564453125
 40
0.56640625
 40
0.568359375
 40
0.5703125
 40
0.57421875
 40
0.578125
 40
0.5859375
 40
0.59375
 40
0.6015625
 40
0.609375
 40
0.61328125
 40
0.6171875
 40
0.619140625
 40
0.62109375
 40
0.623046875
 40
0.6240234375
 40
0.6245117188
 40
0.625
 40
0.6254882812
 40
0.6259765625
 40
0.626953125
 40
0.62890625
 40
0.630859375
 40
0.6328125
 40
0.63671875
 40
0.640625
 40
0.6484375
 40
0.65625
 40
0.6640625
 40
0.671875
 40
0.67578125
 40
0.6796875
 40
0.681640625
 40
0.68359375
 40
0.685546875
 40
0.6865234375
 40
0.6870117188
 40
0.6875
 40
0.6879882812
 40
0.6884765625
 40
0.689453125
 40
0.69140625
 40
0.693359375
 40
0.6953125
 40
0.69921875
 40
0.703125
 40
0.7109375
 40
0.71875
 40
0.7265625
 40
0.734375
 40
0.73828125
 40
0.7421875
 40
0.744140625
 40
0.74609375
 40
0.748046875
 40
0.7490234375
 40
0.7495117188
 40
0.75
 40
0.7504882812
 40
0.7509765625
 40
0.751953125
 40
0.75390625
 40
0.755859375
 40
0.7578125
 40
0.76171875
 40
0.765625
 40
0.7734375
 40
0.78125
 40
0.7890625
 40
0.796875
 40
0.80078125
 40
0.8046875
 40
0.806640625
 40
0.80859375
 40
0.810546875
 40
0.8115234375
 40
0.8120117188
 40
0.8125
 40
0.8129882812
 40
0.8134765625
 40
0.814453125
 40
0.81640625
 40
0.818359375
 40
0.8203125
 40
0.82421875
 40
0.828125
 40
0.8359375
 40
0.84375
 40
0.8515625
 40
0.859375
 40
0.86328125
 40
0.8671875
 40
0.869140625
 40
0.87109375
 40
0.873046875
 40
0.8740234375
 40
0.8745117188
 40
0.875
 40
0.8754882812
 40
0.8759765625
 40
0.876953125
 40
0.87890625
 40
0.880859375
 40
0.8828125
 40
0.88671875
 40
0.890625
 40
0.8984375
 40
0.90625
 40
0.9140625
 40
0.921875
 40
0.92578125
 40
0.9296875
 40
0.931640625
 40
0.93359375
 40
0.935546875
 40
0.9365234375
 40
0.9370117188
 40
0.9375
 40
0.9379882812
 40
0.9384765625
 40
0.939453125
 40
0.94140625
 40
0.943359375
 40
0.9453125
 40
0.94921875
 40
0.953125
 40
0.9609375
 40
0.96875
 40
0.9765625
 40
0.984375
 40
1.0
 40
1.0
 40
1.0
 40
1.0
 10
10.1620490377
 20
6.6770971608
 30
0.0
 10
10.1589158508
 20
6.6770072364
 30
0.0
 10
10.1542160703
 20
6.67687235
 30
0.0
 10
10.1479496966
 20
6.6766925005
 30
0.0
 10
10.1432499159
 20
6.6765576159
 30
0.0
 10
10.1385501369
 20
6.6764227218
 30
0.0
 10
10.1346336488
 20
6.6763103395
 30
0.0
 10
10.1315004711
 20
6.6762203677
 30
0.0
 10
10.1295422057
 20
6.6761642856
 30
0.0
 10
10.1279756606
 20
6.6761190759
 30
0.0
 10
10.1268005678
 20
6.6760861103
 30
0.0
 10
10.125821909
 20
6.6760556432
 30
0.0
 10
10.1251356994
 20
6.6760401955
 30
0.0
 10
10.1247453728
 20
6.6760221882
 30
0.0
 10
10.1244475766
 20
6.6760345432
 30
0.0
 10
10.1241690886
 20
6.6759480463
 30
0.0
 10
10.1237910363
 20
6.6758671977
 30
0.0
 10
10.1231325826
 20
6.6757096476
 30
0.0
 10
10.122190294
 20
6.6754929751
 30
0.0
 10
10.1210602499
 20
6.675229373
 30
0.0
 10
10.1195532792
 20
6.6748791592
 30
0.0
 10
10.1176696497
 20
6.6744409621
 30
0.0
 10
10.1146557956
 20
6.673740087
 30
0.0
 10
10.1108884944
 20
6.6728639101
 30
0.0
 10
10.1063677249
 20
6.6718125357
 30
0.0
 10
10.101846961
 20
6.6707611427
 30
0.0
 10
10.098079646
 20
6.6698850122
 30
0.0
 10
10.0950658194
 20
6.6691840443
 30
0.0
 10
10.0931821201
 20
6.668746083
 30
0.0
 10
10.0916752926
 20
6.6683953851
 30
0.0
 10
10.090544811
 20
6.6681332622
 30
0.0
 10
10.0896038911
 20
6.6679119615
 30
0.0
 10
10.0889429942
 20
6.6677626735
 30
0.0
 10
10.0885688566
 20
6.667668587
 30
0.0
 10
10.0882783436
 20
6.6676227527
 30
0.0
 10
10.0880257112
 20
6.6674823859
 30
0.0
 10
10.0876756549
 20
6.6673282042
 30
0.0
 10
10.0870692125
 20
6.6670430229
 30
0.0
 10
10.0861996477
 20
6.6666436532
 30
0.0
 10
10.0851575476
 20
6.6661609716
 30
0.0
 10
10.0837675996
 20
6.6655185969
 30
0.0
 10
10.0820303294
 20
6.6647152174
 30
0.0
 10
10.079250605
 20
6.66343004
 30
0.0
 10
10.0757759813
 20
6.6618234888
 30
0.0
 10
10.071606418
 20
6.6598956637
 30
0.0
 10
10.067436863
 20
6.6579678207
 30
0.0
 10
10.0639622186
 20
6.6563613145
 30
0.0
 10
10.0611825356
 20
6.6550760473
 30
0.0
 10
10.05944516
 20
6.654272896
 30
0.0
 10
10.0580554284
 20
6.6536300528
 30
0.0
 10
10.0570126671
 20
6.6531488025
 30
0.0
 10
10.056145171
 20
6.6527449544
 30
0.0
 10
10.0555350357
 20
6.6524677679
 30
0.0
 10
10.0551908964
 20
6.6523007765
 30
0.0
 10
10.0549200888
 20
6.6521997567
 30
0.0
 10
10.0546978388
 20
6.6520061417
 30
0.0
 10
10.0543845681
 20
6.6517802865
 30
0.0
 10
10.0538442357
 20
6.6513699917
 30
0.0
 10
10.0530682065
 20
6.6507917236
 30
0.0
 10
10.0521387375
 20
6.6500944343
 30
0.0
 10
10.0508988286
 20
6.6491658916
 30
0.0
 10
10.0493491538
 20
6.6480048104
 30
0.0
 10
10.0468695559
 20
6.6461473057
 30
0.0
 10
10.0437700995
 20
6.6438253471
 30
0.0
 10
10.0400507324
 20
6.6410390318
 30
0.0
 10
10.0363313775
 20
6.6382527008
 30
0.0
 10
10.0332318908
 20
6.6359307814
 30
0.0
 10
10.0307523536
 20
6.6340731983
 30
0.0
 10
10.0292025245
 20
6.6329123162
 30
0.0
 10
10.0279629322
 20
6.6319833648
 30
0.0
 10
10.0270324961
 20
6.6312873241
 30
0.0
 10
10.0262594926
 20
6.6307051495
 30
0.0
 10
10.0257137589
 20
6.6303018285
 30
0.0
 10
10.0254091425
 20
6.6300647995
 30
0.0
 10
10.0251603089
 20
6.6299055068
 30
0.0
 10
10.0249893449
 20
6.6296755778
 30
0.0
 10
10.0247342312
 20
6.6293936445
 30
0.0
 10
10.0243004373
 20
6.6288887816
 30
0.0
 10
10.0236741155
 20
6.6281735506
 30
0.0
 10
10.0229253613
 20
6.6273127044
 30
0.0
 10
10.0219260332
 20
6.6261658068
 30
0.0
 10
10.0206772117
 20
6.6247318776
 30
0.0
 10
10.0186789081
 20
6.6224377625
 30
0.0
 10
10.016181094
 20
6.6195700594
 30
0.0
 10
10.013183687
 20
6.6161288426
 30
0.0
 10
10.0101862954
 20
6.6126876132
 30
0.0
 10
10.0076884428
 20
6.6098199417
 30
0.0
 10
10.0056902162
 20
6.6075257635
 30
0.0
 10
10.004441199
 20
6.6060919949
 30
0.0
 10
10.0034422727
 20
6.6049447676
 30
0.0
 10
10.002692291
 20
6.6040849286
 30
0.0
 10
10.0020698097
 20
6.6033665465
 30
0.0
 10
10.0016291598
 20
6.6028673087
 30
0.0
 10
10.0013850311
 20
6.6025763625
 30
0.0
 10
10.0011803245
 20
6.6023741182
 30
0.0
 10
10.0010582227
 20
6.6021108462
 30
0.0
 10
10.0008666069
 20
6.601781104
 30
0.0
 10
10.0005447038
 20
6.601194137
 30
0.0
 10
10.0000778238
 20
6.600360798
 30
0.0
 10
9.9995205719
 20
6.5993585717
 30
0.0
 10
9.99877652
 20
6.5980230453
 30
0.0
 10
9.9978468145
 20
6.5963533717
 30
0.0
 10
9.9963590849
 20
6.5936820425
 30
0.0
 10
9.9944994922
 20
6.5903428298
 30
0.0
 10
9.992267949
 20
6.5863357975
 30
0.0
 10
9.9900364226
 20
6.5823287552
 30
0.0
 10
9.9881767881
 20
6.5789895678
 30
0.0
 10
9.9866891421
 20
6.5763181879
 30
0.0
 10
9.9857592239
 20
6.5746486432
 30
0.0
 10
9.9850156087
 20
6.5733128523
 30
0.0
 10
9.9844570229
 20
6.5723114338
 30
0.0
 10
9.9839943161
 20
6.5714755677
 30
0.0
 10
9.9836649631
 20
6.570893112
 30
0.0
 10
9.983485284
 20
6.5705561415
 30
0.0
 10
9.9833265162
 20
6.5703150724
 30
0.0
 10
9.9832595211
 20
6.5700294375
 30
0.0
 10
9.9831381829
 20
6.5696641361
 30
0.0
 10
9.9829407557
 20
6.5690176159
 30
0.0
 10
9.9826509193
 20
6.5680978022
 30
0.0
 10
9.9823064533
 20
6.566992405
 30
0.0
 10
9.9818459994
 20
6.5655191081
 30
0.0
 10
9.9812708313
 20
6.5636772932
 30
0.0
 10
9.9803503391
 20
6.5607304977
 30
0.0
 10
9.979199801
 20
6.557046966
 30
0.0
 10
9.9778191199
 20
6.5526267447
 30
0.0
 10
9.9764384569
 20
6.5482065158
 30
0.0
 10
9.9752878734
 20
6.5445230033
 30
0.0
 10
9.974367472
 20
6.5415761693
 30
0.0
 10
9.9737920731
 20
6.5397344521
 30
0.0
 10
9.973332093
 20
6.5382609547
 30
0.0
 10
9.9729861797
 20
6.5371561701
 30
0.0
 10
9.9727008713
 20
6.5362344398
 30
0.0
 10
9.9724953608
 20
6.535591341
 30
0.0
 10
9.9723869742
 20
6.5352205577
 30
0.0
 10
9.972280196
 20
6.5349517613
 30
0.0
 10
9.9722708467
 20
6.5346474499
 30
0.0
 10
9.9722243967
 20
6.5342540895
 30
0.0
 10
9.9721589431
 20
6.5335599369
 30
0.0
 10
9.9720571599
 20
6.5325713079
 30
0.0
 10
9.9719385633
 20
6.5313836615
 30
0.0
 10
9.9717791969
 20
6.5298005841
 30
0.0
 10
9.9715804126
 20
6.5278215828
 30
0.0
 10
9.9712621209
 20
6.5246552672
 30
0.0
 10
9.9708643382
 20
6.520697343
 30
0.0
 10
9.9703869613
 20
6.5159478467
 30
0.0
 10
9.9699096036
 20
6.5111983471
 30
0.0
 10
9.9695117732
 20
6.507240431
 30
0.0
 10
9.9691935768
 20
6.5040740992
 30
0.0
 10
9.9689945503
 20
6.502095139
 30
0.0
 10
9.9688356812
 20
6.5005119774
 30
0.0
 10
9.9687155653
 20
6.499324588
 30
0.0
 10
9.9686185355
 20
6.4983351549
 30
0.0
 10
9.9685445962
 20
6.4976424378
 30
0.0
 10
9.9685117425
 20
6.4972467774
 30
0.0
 10
9.9684606298
 20
6.4969495309
 30
0.0
 10
9.9685107081
 20
6.4966542
 30
0.0
 10
9.9685421827
 20
6.4962597574
 30
0.0
 10
9.9686137084
 20
6.4955697941
 30
0.0
 10
9.9687072903
 20
6.4945839694
 30
0.0
 10
9.9688232687
 20
6.4934010496
 30
0.0
 10
9.9689766212
 20
6.4918237987
 30
0.0
 10
9.9691687519
 20
6.4898522435
 30
0.0
 10
9.969475915
 20
6.4866977504
 30
0.0
 10
9.9698599539
 20
6.4827546358
 30
0.0
 10
9.9703207617
 20
6.4780228972
 30
0.0
 10
9.9707815887
 20
6.47329116
 30
0.0
 10
9.9711655798
 20
6.4693480419
 30
0.0
 10
9.9714728383
 20
6.4661935558
 30
0.0
 10
9.9716647266
 20
6.4642219829
 30
0.0
 10
9.9718185766
 20
6.4626447683
 30
0.0
 10
9.9719330351
 20
6.4614617378
 30
0.0
 10
9.9720313725
 20
6.4604762592
 30
0.0
 10
9.9720944089
 20
6.4597856781
 30
0.0
 10
9.9721394855
 20
6.4593922254
 30
0.0
 10
9.9721477828
 20
6.4590938538
 30
0.0
 10
9.9722535929
 20
6.4588080278
 30
0.0
 10
9.9723606594
 20
6.4584225504
 30
0.0
 10
9.9725638734
 20
6.4577500038
 30
0.0
 10
9.9728458939
 20
6.456788157
 30
0.0
 10
9.9731878648
 20
6.4556343971
 30
0.0
 10
9.9736425874
 20
6.4540958913
 30
0.0
 10
9.9742114147
 20
6.4521728135
 30
0.0
 10
9.9751213013
 20
6.4490958586
 30
0.0
 10
9.9762587414
 20
6.4452496756
 30
0.0
 10
9.9776236322
 20
6.4406342506
 30
0.0
 10
9.9789885413
 20
6.4360188299
 30
0.0
 10
9.9801259359
 20
6.4321726363
 30
0.0
 10
9.9810359134
 20
6.4290957025
 30
0.0
 10
9.9816045097
 20
6.4271725711
 30
0.0
 10
9.9820597065
 20
6.4256341755
 30
0.0
 10
9.9824002285
 20
6.4244800787
 30
0.0
 10
9.9826867822
 20
6.4235192862
 30
0.0
 10
9.9828819036
 20
6.4228448575
 30
0.0
 10
9.9830019366
 20
6.4224623957
 30
0.0
 10
9.9830679181
 20
6.4221673068
 30
0.0
 10
9.983225805
 20
6.4219037249
 30
0.0
 10
9.9834042632
 20
6.4215412924
 30
0.0
 10
9.9837315013
 20
6.420912156
 30
0.0
 10
9.9841911756
 20
6.4200107127
 30
0.0
 10
9.9847461271
 20
6.4189301266
 30
0.0
 10
9.985484895
 20
6.4174889449
 30
0.0
 10
9.9864087547
 20
6.4156876048
 30
0.0
 10
9.9878867066
 20
6.4128053841
 30
0.0
 10
9.9897342237
 20
6.4092026346
 30
0.0
 10
9.991951209
 20
6.4048793229
 30
0.0
 10
9.9941682117
 20
6.4005560183
 30
0.0
 10
9.9960156853
 20
6.3969532511
 30
0.0
 10
9.9974937242
 20
6.3940710658
 30
0.0
 10
9.9984173628
 20
6.3922696356
 30
0.0
 10
9.9991565843
 20
6.3908286388
 30
0.0
 10
9.9997101503
 20
6.3897474876
 30
0.0
 10
10.0001741595
 20
6.3888478124
 30
0.0
 10
10.000493659
 20
6.3882155197
 30
0.0
 10
10.0006845165
 20
6.3878581443
 30
0.0
 10
10.0008043168
 20
6.3875790286
 30
0.0
 10
10.001013345
 20
6.3873422824
 30
0.0
 10
10.0012609255
 20
6.3870118419
 30
0.0
 10
10.0017086926
 20
6.3864404568
 30
0.0
 10
10.0023407785
 20
6.3856205923
 30
0.0
 10
10.0031025266
 20
6.3846382959
 30
0.0
 10
10.0041170573
 20
6.3833280291
 30
0.0
 10
10.0053856088
 20
6.3816903799
 30
0.0
 10
10.0074150743
 20
6.3790700381
 30
0.0
 10
10.0099519809
 20
6.3757946466
 30
0.0
 10
10.0129962352
 20
6.3718641598
 30
0.0
 10
10.0160405043
 20
6.3679336841
 30
0.0
 10
10.0185773739
 20
6.3646582648
 30
0.0
 10
10.0206069134
 20
6.3620379786
 30
0.0
 10
10.0218752765
 20
6.3604001882
 30
0.0
 10
10.022890194
 20
6.3590902112
 30
0.0
 10
10.0236507606
 20
6.3581070296
 30
0.0
 10
10.0242865431
 20
6.3572899345
 30
0.0
 10
10.024727711
 20
6.3567136056
 30
0.0
 10
10.0249858652
 20
6.3563910862
 30
0.0
 10
10.0251624145
 20
6.3561300088
 30
0.0
 10
10.0254041999
 20
6.355942277
 30
0.0
 10
10.0257038254
 20
6.3556663842
 30
0.0
 10
10.026238772
 20
6.3551954916
 30
0.0
 10
10.0269974386
 20
6.3545165561
 30
0.0
 10
10.0279102111
 20
6.3537045009
 30
0.0
 10
10.0291264123
 20
6.3526208289
 30
0.0
 10
10.0306469476
 20
6.351266558
 30
0.0
 10
10.0330796455
 20
6.3490995462
 30
0.0
 10
10.0361205725
 20
6.3463908431
 30
0.0
 10
10.0397696602
 20
6.343140371
 30
0.0
 10
10.0434187595
 20
6.3398899136
 30
0.0
 10
10.0464596576
 20
6.3371811739
 30
0.0
 10
10.0488924134
 20
6.3350142351
 30
0.0
 10
10.0504128016
 20
6.3336597787
 30
0.0
 10
10.0516293047
 20
6.3325764876
 30
0.0
 10
10.0525411551
 20
6.3317632688
 30
0.0
 10
10.0533027064
 20
6.3310879738
 30
0.0
 10
10.0538325033
 20
6.3306105823
 30
0.0
 10
10.0541403799
 20
6.3303451023
 30
0.0
 10
10.0543568206
 20
6.3301253855
 30
0.0
 10
10.0546285605
 20
6.3299844385
 30
0.0
 10
10.0549715913
 20
6.3297690334
 30
0.0
 10
10.0555808824
 20
6.3294048759
 30
0.0
 10
10.0564465996
 20
6.3288779581
 30
0.0
 10
10.0574874714
 20
6.3282485215
 30
0.0
 10
10.058874598
 20
6.3274082721
 30
0.0
 10
10.0606087469
 20
6.326358303
 30
0.0
 10
10.0633832505
 20
6.3246781608
 30
0.0
 10
10.0668514264
 20
6.3225780493
 30
0.0
 10
10.0710132167
 20
6.3200578851
 30
0.0
 10
10.075175016
 20
6.3175377369
 30
0.0
 10
10.0786431694
 20
6.3154375851
 30
0.0
 10
10.0814177179
 20
6.3137575235
 30
0.0
 10
10.0831517527
 20
6.3127073496
 30
0.0
 10
10.0845391134
 20
6.3118675206
 30
0.0
 10
10.08557927
 20
6.3112367997
 30
0.0
 10
10.086447225
 20
6.3107139001
 30
0.0
 10
10.0870525213
 20
6.3103425696
 30
0.0
 10
10.0874019526
 20
6.3101386574
 30
0.0
 10
10.0876540323
 20
6.3099624078
 30
0.0
 10
10.0879443133
 20
6.3098752816
 30
0.0
 10
10.0883180295
 20
6.3097280261
 30
0.0
 10
10.0889782414
 20
6.309484813
 30
0.0
 10
10.0899181553
 20
6.3091297934
 30
0.0
 10
10.0910474413
 20
6.3087070111
 30
0.0
 10
10.0925526708
 20
6.3081421692
 30
0.0
 10
10.0944343737
 20
6.3074365045
 30
0.0
 10
10.0974450056
 20
6.3063072243
 30
0.0
 10
10.1012083274
 20
6.304895699
 30
0.0
 10
10.1057242992
 20
6.3032018341
 30
0.0
 10
10.1102402774
 20
6.301507987
 30
0.0
 10
10.1140035832
 20
6.3000964174
 30
0.0
 10
10.1170142472
 20
6.2989672257
 30
0.0
 10
10.1188958685
 20
6.2982613359
 30
0.0
 10
10.1204012656
 20
6.2976969562
 30
0.0
 10
10.1215300394
 20
6.2972727621
 30
0.0
 10
10.1224715559
 20
6.2969221594
 30
0.0
 10
10.1231289069
 20
6.2966710614
 30
0.0
 10
10.1235072068
 20
6.2965364396
 30
0.0
 10
10.1237834083
 20
6.2964105068
 30
0.0
 10
10.1240883682
 20
6.2963800084
 30
0.0
 10
10.1244849501
 20
6.2963060554
 30
0.0
 10
10.1251836423
 20
6.2961921474
 30
0.0
 10
10.1261793304
 20
6.2960213129
 30
0.0
 10
10.127375202
 20
6.2958197823
 30
0.0
 10
10.1289693322
 20
6.2955498626
 30
0.0
 10
10.1309621201
 20
6.2952128781
 30
0.0
 10
10.1341505107
 20
6.2946734708
 30
0.0
 10
10.138136023
 20
6.2939992913
 30
0.0
 10
10.1429186275
 20
6.2931902418
 30
0.0
 10
10.1477012348
 20
6.2923812014
 30
0.0
 10
10.1540780434
 20
6.2913024777
 30
0.0
 10
10.1588606502
 20
6.2904934357
 30
0.0
 10
10.1620490546
 20
6.2899540742
 30
0.0
  0
SPLINE
  5
3D7
100
AcDbEntity
  8
0
100
AcDbSpline
 62
4
  6
CONTINUOUS
 70
0
 71
3
 72
313
 73
309
 74
0
 42
0.0000001
 43
0.0000001
 44
0.0000000001
 40
0.0
 40
0.0
 40
0.0
 40
0.0
 40
0.015625
 40
0.0234375
 40
0.03125
 40
0.0390625
 40
0.046875
 40
0.05078125
 40
0.0546875
 40
0.056640625
 40
0.05859375
 40
0.060546875
 40
0.0615234375
 40
0.0620117188
 40
0.0625
 40
0.0629882812
 40
0.0634765625
 40
0.064453125
 40
0.06640625
 40
0.068359375
 40
0.0703125
 40
0.07421875
 40
0.078125
 40
0.0859375
 40
0.09375
 40
0.1015625
 40
0.109375
 40
0.11328125
 40
0.1171875
 40
0.119140625
 40
0.12109375
 40
0.123046875
 40
0.1240234375
 40
0.1245117188
 40
0.125
 40
0.1254882812
 40
0.1259765625
 40
0.126953125
 40
0.12890625
 40
0.130859375
 40
0.1328125
 40
0.13671875
 40
0.140625
 40
0.1484375
 40
0.15625
 40
0.1640625
 40
0.171875
 40
0.17578125
 40
0.1796875
 40
0.181640625
 40
0.18359375
 40
0.185546875
 40
0.1865234375
 40
0.1870117188
 40
0.1875
 40
0.1879882812
 40
0.1884765625
 40
0.189453125
 40
0.19140625
 40
0.193359375
 40
0.1953125
 40
0.19921875
 40
0.203125
 40
0.2109375
 40
0.21875
 40
0.2265625
 40
0.234375
 40
0.23828125
 40
0.2421875
 40
0.244140625
 40
0.24609375
 40
0.248046875
 40
0.2490234375
 40
0.2495117188
 40
0.25
 40
0.2504882812
 40
0.2509765625
 40
0.251953125
 40
0.25390625
 40
0.255859375
 40
0.2578125
 40
0.26171875
 40
0.265625
 40
0.2734375
 40
0.28125
 40
0.2890625
 40
0.296875
 40
0.30078125
 40
0.3046875
 40
0.306640625
 40
0.30859375
 40
0.310546875
 40
0.3115234375
 40
0.3120117188
 40
0.3125
 40
0.3129882812
 40
0.3134765625
 40
0.314453125
 40
0.31640625
 40
0.318359375
 40
0.3203125
 40
0.32421875
 40
0.328125
 40
0.3359375
 40
0.34375
 40
0.3515625
 40
0.359375
 40
0.36328125
 40
0.3671875
 40
0.369140625
 40
0.37109375
 40
0.373046875
 40
0.3740234375
 40
0.3745117188
 40
0.375
 40
0.3754882812
 40
0.3759765625
 40
0.376953125
 40
0.37890625
 40
0.380859375
 40
0.3828125
 40
0.38671875
 40
0.390625
 40
0.3984375
 40
0.40625
 40
0.4140625
 40
0.421875
 40
0.42578125
 40
0.4296875
 40
0.431640625
 40
0.43359375
 40
0.435546875
 40
0.4365234375
 40
0.4370117188
 40
0.4375
 40
0.4379882812
 40
0.4384765625
 40
0.439453125
 40
0.44140625
 40
0.443359375
 40
0.4453125
 40
0.44921875
 40
0.453125
 40
0.4609375
 40
0.46875
 40
0.4765625
 40
0.484375
 40
0.48828125
 40
0.4921875
 40
0.494140625
 40
0.49609375
 40
0.498046875
 40
0.4990234375
 40
0.4995117188
 40
0.5
 40
0.5004882812
 40
0.5009765625
 40
0.501953125
 40
0.50390625
 40
0.505859375
 40
0.5078125
 40
0.51171875
 40
0.515625
 40
0.5234375
 40
0.53125
 40
0.5390625
 40
0.546875
 40
0.55078125
 40
0.5546875
 40
0.556640625
 40
0.55859375
 40
0.560546875
 40
0.5615234375
 40
0.5620117188
 40
0.5625
 40
0.5629882812
 40
0.5634765625
 40
0.564453125
 40
0.56640625
 40
0.568359375
 40
0.5703125
 40
0.57421875
 40
0.578125
 40
0.5859375
 40
0.59375
 40
0.6015625
 40
0.609375
 40
0.61328125
 40
0.6171875
 40
0.619140625
 40
0.62109375
 40
0.623046875
 40
0.6240234375
 40
0.6245117188
 40
0.625
 40
0.6254882812
 40
0.6259765625
 40
0.626953125
 40
0.62890625
 40
0.630859375
 40
0.6328125
 40
0.63671875
 40
0.640625
 40
0.6484375
 40
0.65625
 40
0.6640625
 40
0.671875
 40
0.67578125
 40
0.6796875
 40
0.681640625
 40
0.68359375
 40
0.685546875
 40
0.6865234375
 40
0.6870117188
 40
0.6875
 40
0.6879882812
 40
0.6884765625
 40
0.689453125
 40
0.69140625
 40
0.693359375
 40
0.6953125
 40
0.69921875
 40
0.703125
 40
0.7109375
 40
0.71875
 40
0.7265625
 40
0.734375
 40
0.73828125
 40
0.7421875
 40
0.744140625
 40
0.74609375
 40
0.748046875
 40
0.7490234375
 40
0.7495117188
 40
0.75
 40
0.7504882812
 40
0.7509765625
 40
0.751953125
 40
0.75390625
 40
0.755859375
 40
0.7578125
 40
0.76171875
 40
0.765625
 40
0.7734375
 40
0.78125
 40
0.7890625
 40
0.796875
 40
0.80078125
 40
0.8046875
 40
0.806640625
 40
0.80859375
 40
0.810546875
 40
0.8115234375
 40
0.8120117188
 40
0.8125
 40
0.8129882812
 40
0.8134765625
 40
0.814453125
 40
0.81640625
 40
0.818359375
 40
0.8203125
 40
0.82421875
 40
0.828125
 40
0.8359375
 40
0.84375
 40
0.8515625
 40
0.859375
 40
0.86328125
 40
0.8671875
 40
0.869140625
 40
0.87109375
 40
0.873046875
 40
0.8740234375
 40
0.8745117188
 40
0.875
 40
0.8754882812
 40
0.8759765625
 40
0.876953125
 40
0.87890625
 40
0.880859375
 40
0.8828125
 40
0.88671875
 40
0.890625
 40
0.8984375
 40
0.90625
 40
0.9140625
 40
0.921875
 40
0.92578125
 40
0.9296875
 40
0.931640625
 40
0.93359375
 40
0.935546875
 40
0.9365234375
 40
0.9370117188
 40
0.9375
 40
0.9379882812
 40
0.9384765625
 40
0.939453125
 40
0.94140625
 40
0.943359375
 40
0.9453125
 40
0.94921875
 40
0.953125
 40
0.9609375
 40
0.96875
 40
0.9765625
 40
0.984375
 40
1.0
 40
1.0
 40
1.0
 40
1.0
 10
10.1620490377
 20
6.2899540753
 30
0.0
 10
10.1651822246
 20
6.2900439997
 30
0.0
 10
10.169882005
 20
6.2901788861
 30
0.0
 10
10.1761483787
 20
6.2903587356
 30
0.0
 10
10.1808481595
 20
6.2904936202
 30
0.0
 10
10.1855479384
 20
6.2906285143
 30
0.0
 10
10.1894644266
 20
6.2907408966
 30
0.0
 10
10.1925976043
 20
6.2908308684
 30
0.0
 10
10.1945558696
 20
6.2908869506
 30
0.0
 10
10.1961224148
 20
6.2909321603
 30
0.0
 10
10.1972975075
 20
6.2909651258
 30
0.0
 10
10.1982761664
 20
6.2909955929
 30
0.0
 10
10.1989623759
 20
6.2910110406
 30
0.0
 10
10.1993527026
 20
6.291029048
 30
0.0
 10
10.1996504987
 20
6.291016693
 30
0.0
 10
10.1999289868
 20
6.2911031899
 30
0.0
 10
10.2003070391
 20
6.2911840384
 30
0.0
 10
10.2009654927
 20
6.2913415885
 30
0.0
 10
10.2019077813
 20
6.291558261
 30
0.0
 10
10.2030378254
 20
6.2918218631
 30
0.0
 10
10.2045447962
 20
6.2921720769
 30
0.0
 10
10.2064284256
 20
6.2926102741
 30
0.0
 10
10.2094422797
 20
6.2933111492
 30
0.0
 10
10.213209581
 20
6.2941873261
 30
0.0
 10
10.2177303504
 20
6.2952387005
 30
0.0
 10
10.2222511144
 20
6.2962900935
 30
0.0
 10
10.2260184294
 20
6.2971662239
 30
0.0
 10
10.229032256
 20
6.2978671918
 30
0.0
 10
10.2309159552
 20
6.2983051531
 30
0.0
 10
10.2324227828
 20
6.2986558511
 30
0.0
 10
10.2335532643
 20
6.2989179739
 30
0.0
 10
10.2344941842
 20
6.2991392746
 30
0.0
 10
10.2351550812
 20
6.2992885627
 30
0.0
 10
10.2355292187
 20
6.2993826491
 30
0.0
 10
10.2358197318
 20
6.2994284834
 30
0.0
 10
10.2360723641
 20
6.2995688502
 30
0.0
 10
10.2364224205
 20
6.299723032
 30
0.0
 10
10.2370288628
 20
6.3000082132
 30
0.0
 10
10.2378984276
 20
6.3004075829
 30
0.0
 10
10.2389405277
 20
6.3008902645
 30
0.0
 10
10.2403304757
 20
6.3015326392
 30
0.0
 10
10.2420677459
 20
6.3023360188
 30
0.0
 10
10.2448474704
 20
6.3036211962
 30
0.0
 10
10.2483220941
 20
6.3052277473
 30
0.0
 10
10.2524916573
 20
6.3071555724
 30
0.0
 10
10.2566612123
 20
6.3090834155
 30
0.0
 10
10.2601358567
 20
6.3106899217
 30
0.0
 10
10.2629155397
 20
6.3119751889
 30
0.0
 10
10.2646529154
 20
6.3127783401
 30
0.0
 10
10.2660426469
 20
6.3134211834
 30
0.0
 10
10.2670854082
 20
6.3139024336
 30
0.0
 10
10.2679529043
 20
6.3143062818
 30
0.0
 10
10.2685630396
 20
6.3145834682
 30
0.0
 10
10.268907179
 20
6.3147504596
 30
0.0
 10
10.2691779865
 20
6.3148514794
 30
0.0
 10
10.2694002365
 20
6.3150450945
 30
0.0
 10
10.2697135073
 20
6.3152709496
 30
0.0
 10
10.2702538397
 20
6.3156812445
 30
0.0
 10
10.2710298688
 20
6.3162595126
 30
0.0
 10
10.2719593379
 20
6.3169568018
 30
0.0
 10
10.2731992467
 20
6.3178853445
 30
0.0
 10
10.2747489216
 20
6.3190464257
 30
0.0
 10
10.2772285194
 20
6.3209039305
 30
0.0
 10
10.2803279758
 20
6.323225889
 30
0.0
 10
10.2840473429
 20
6.3260122044
 30
0.0
 10
10.2877666979
 20
6.3287985354
 30
0.0
 10
10.2908661846
 20
6.3311204548
 30
0.0
 10
10.2933457218
 20
6.3329780379
 30
0.0
 10
10.2948955509
 20
6.3341389199
 30
0.0
 10
10.2961351432
 20
6.3350678714
 30
0.0
 10
10.2970655793
 20
6.335763912
 30
0.0
 10
10.2978385827
 20
6.3363460866
 30
0.0
 10
10.2983843165
 20
6.3367494077
 30
0.0
 10
10.2986889328
 20
6.3369864366
 30
0.0
 10
10.2989377665
 20
6.3371457293
 30
0.0
 10
10.2991087304
 20
6.3373756583
 30
0.0
 10
10.2993638442
 20
6.3376575916
 30
0.0
 10
10.2997976381
 20
6.3381624545
 30
0.0
 10
10.3004239599
 20
6.3388776856
 30
0.0
 10
10.3011727141
 20
6.3397385317
 30
0.0
 10
10.3021720422
 20
6.3408854293
 30
0.0
 10
10.3034208636
 20
6.3423193586
 30
0.0
 10
10.3054191673
 20
6.3446134736
 30
0.0
 10
10.3079169814
 20
6.3474811767
 30
0.0
 10
10.3109143883
 20
6.3509223935
 30
0.0
 10
10.3139117799
 20
6.3543636229
 30
0.0
 10
10.3164096325
 20
6.3572312944
 30
0.0
 10
10.3184078592
 20
6.3595254726
 30
0.0
 10
10.3196568764
 20
6.3609592413
 30
0.0
 10
10.3206558027
 20
6.3621064685
 30
0.0
 10
10.3214057844
 20
6.3629663076
 30
0.0
 10
10.3220282656
 20
6.3636846897
 30
0.0
 10
10.3224689156
 20
6.3641839274
 30
0.0
 10
10.3227130442
 20
6.3644748736
 30
0.0
 10
10.3229177509
 20
6.3646771179
 30
0.0
 10
10.3230398526
 20
6.3649403899
 30
0.0
 10
10.3232314685
 20
6.3652701322
 30
0.0
 10
10.3235533715
 20
6.3658570992
 30
0.0
 10
10.3240202516
 20
6.3666904382
 30
0.0
 10
10.3245775035
 20
6.3676926644
 30
0.0
 10
10.3253215553
 20
6.3690281909
 30
0.0
 10
10.3262512608
 20
6.3706978644
 30
0.0
 10
10.3277389905
 20
6.3733691936
 30
0.0
 10
10.3295985832
 20
6.3767084063
 30
0.0
 10
10.3318301263
 20
6.3807154386
 30
0.0
 10
10.3340616527
 20
6.384722481
 30
0.0
 10
10.3359212872
 20
6.3880616684
 30
0.0
 10
10.3374089332
 20
6.3907330483
 30
0.0
 10
10.3383388514
 20
6.392402593
 30
0.0
 10
10.3390824667
 20
6.3937383838
 30
0.0
 10
10.3396410524
 20
6.3947398024
 30
0.0
 10
10.3401037592
 20
6.3955756685
 30
0.0
 10
10.3404331122
 20
6.3961581241
 30
0.0
 10
10.3406127913
 20
6.3964950946
 30
0.0
 10
10.3407715591
 20
6.3967361638
 30
0.0
 10
10.3408385543
 20
6.3970217986
 30
0.0
 10
10.3409598925
 20
6.3973871
 30
0.0
 10
10.3411573196
 20
6.3980336202
 30
0.0
 10
10.341447156
 20
6.3989534339
 30
0.0
 10
10.3417916221
 20
6.4000588311
 30
0.0
 10
10.3422520759
 20
6.401532128
 30
0.0
 10
10.3428272441
 20
6.4033739429
 30
0.0
 10
10.3437477362
 20
6.4063207384
 30
0.0
 10
10.3448982744
 20
6.4100042702
 30
0.0
 10
10.3462789555
 20
6.4144244914
 30
0.0
 10
10.3476596184
 20
6.4188447203
 30
0.0
 10
10.348810202
 20
6.4225282329
 30
0.0
 10
10.3497306033
 20
6.4254750668
 30
0.0
 10
10.3503060023
 20
6.427316784
 30
0.0
 10
10.3507659824
 20
6.4287902814
 30
0.0
 10
10.3511118957
 20
6.4298950661
 30
0.0
 10
10.351397204
 20
6.4308167963
 30
0.0
 10
10.3516027146
 20
6.4314598952
 30
0.0
 10
10.3517111012
 20
6.4318306784
 30
0.0
 10
10.3518178794
 20
6.4320994749
 30
0.0
 10
10.3518272287
 20
6.4324037862
 30
0.0
 10
10.3518736787
 20
6.4327971466
 30
0.0
 10
10.3519391322
 20
6.4334912992
 30
0.0
 10
10.3520409155
 20
6.4344799282
 30
0.0
 10
10.3521595121
 20
6.4356675746
 30
0.0
 10
10.3523188785
 20
6.4372506521
 30
0.0
 10
10.3525176627
 20
6.4392296533
 30
0.0
 10
10.3528359544
 20
6.4423959689
 30
0.0
 10
10.3532337372
 20
6.4463538931
 30
0.0
 10
10.353711114
 20
6.4511033895
 30
0.0
 10
10.3541884718
 20
6.455852889
 30
0.0
 10
10.3545863022
 20
6.4598108051
 30
0.0
 10
10.3549044986
 20
6.4629771369
 30
0.0
 10
10.3551035251
 20
6.4649560972
 30
0.0
 10
10.3552623942
 20
6.4665392587
 30
0.0
 10
10.3553825101
 20
6.4677266481
 30
0.0
 10
10.3554795399
 20
6.4687160812
 30
0.0
 10
10.3555534792
 20
6.4694087983
 30
0.0
 10
10.3555863329
 20
6.4698044588
 30
0.0
 10
10.3556374456
 20
6.4701017053
 30
0.0
 10
10.3555873672
 20
6.4703970361
 30
0.0
 10
10.3555558927
 20
6.4707914787
 30
0.0
 10
10.3554843669
 20
6.4714814421
 30
0.0
 10
10.355390785
 20
6.4724672667
 30
0.0
 10
10.3552748066
 20
6.4736501866
 30
0.0
 10
10.3551214541
 20
6.4752274374
 30
0.0
 10
10.3549293234
 20
6.4771989927
 30
0.0
 10
10.3546221603
 20
6.4803534857
 30
0.0
 10
10.3542381215
 20
6.4842966004
 30
0.0
 10
10.3537773136
 20
6.4890283389
 30
0.0
 10
10.3533164867
 20
6.4937600761
 30
0.0
 10
10.3529324955
 20
6.4977031942
 30
0.0
 10
10.352625237
 20
6.5008576803
 30
0.0
 10
10.3524333487
 20
6.5028292532
 30
0.0
 10
10.3522794987
 20
6.5044064679
 30
0.0
 10
10.3521650403
 20
6.5055894984
 30
0.0
 10
10.3520667029
 20
6.5065749769
 30
0.0
 10
10.3520036664
 20
6.5072655581
 30
0.0
 10
10.3519585898
 20
6.5076590108
 30
0.0
 10
10.3519502926
 20
6.5079573823
 30
0.0
 10
10.3518444825
 20
6.5082432084
 30
0.0
 10
10.3517374159
 20
6.5086286858
 30
0.0
 10
10.3515342019
 20
6.5093012324
 30
0.0
 10
10.3512521815
 20
6.5102630791
 30
0.0
 10
10.3509102105
 20
6.511416839
 30
0.0
 10
10.350455488
 20
6.5129553449
 30
0.0
 10
10.3498866607
 20
6.5148784226
 30
0.0
 10
10.3489767741
 20
6.5179553775
 30
0.0
 10
10.347839334
 20
6.5218015606
 30
0.0
 10
10.3464744431
 20
6.5264169855
 30
0.0
 10
10.3451095341
 20
6.5310324062
 30
0.0
 10
10.3439721394
 20
6.5348785998
 30
0.0
 10
10.3430621619
 20
6.5379555336
 30
0.0
 10
10.3424935657
 20
6.5398786651
 30
0.0
 10
10.3420383689
 20
6.5414170606
 30
0.0
 10
10.3416978468
 20
6.5425711575
 30
0.0
 10
10.3414112931
 20
6.54353195
 30
0.0
 10
10.3412161717
 20
6.5442063786
 30
0.0
 10
10.3410961388
 20
6.5445888405
 30
0.0
 10
10.3410301573
 20
6.5448839293
 30
0.0
 10
10.3408722704
 20
6.5451475112
 30
0.0
 10
10.3406938122
 20
6.5455099437
 30
0.0
 10
10.340366574
 20
6.5461390801
 30
0.0
 10
10.3399068998
 20
6.5470405234
 30
0.0
 10
10.3393519482
 20
6.5481211095
 30
0.0
 10
10.3386131803
 20
6.5495622912
 30
0.0
 10
10.3376893207
 20
6.5513636313
 30
0.0
 10
10.3362113688
 20
6.5542458521
 30
0.0
 10
10.3343638517
 20
6.5578486015
 30
0.0
 10
10.3321468664
 20
6.5621719132
 30
0.0
 10
10.3299298637
 20
6.5664952179
 30
0.0
 10
10.3280823901
 20
6.570097985
 30
0.0
 10
10.3266043512
 20
6.5729801704
 30
0.0
 10
10.3256807125
 20
6.5747816006
 30
0.0
 10
10.3249414911
 20
6.5762225973
 30
0.0
 10
10.3243879251
 20
6.5773037485
 30
0.0
 10
10.3239239159
 20
6.5782034238
 30
0.0
 10
10.3236044164
 20
6.5788357164
 30
0.0
 10
10.3234135589
 20
6.5791930918
 30
0.0
 10
10.3232937585
 20
6.5794722075
 30
0.0
 10
10.3230847304
 20
6.5797089537
 30
0.0
 10
10.3228371498
 20
6.5800393942
 30
0.0
 10
10.3223893828
 20
6.5806107794
 30
0.0
 10
10.3217572969
 20
6.5814306438
 30
0.0
 10
10.3209955488
 20
6.5824129403
 30
0.0
 10
10.319981018
 20
6.5837232071
 30
0.0
 10
10.3187124665
 20
6.5853608563
 30
0.0
 10
10.3166830011
 20
6.587981198
 30
0.0
 10
10.3141460945
 20
6.5912565895
 30
0.0
 10
10.3111018402
 20
6.5951870763
 30
0.0
 10
10.308057571
 20
6.5991175521
 30
0.0
 10
10.3055207015
 20
6.6023929713
 30
0.0
 10
10.3034911619
 20
6.6050132575
 30
0.0
 10
10.3022227988
 20
6.6066510479
 30
0.0
 10
10.3012078814
 20
6.607961025
 30
0.0
 10
10.3004473148
 20
6.6089442065
 30
0.0
 10
10.2998115322
 20
6.6097613016
 30
0.0
 10
10.2993703644
 20
6.6103376305
 30
0.0
 10
10.2991122102
 20
6.6106601499
 30
0.0
 10
10.2989356609
 20
6.6109212273
 30
0.0
 10
10.2986938754
 20
6.6111089591
 30
0.0
 10
10.29839425
 20
6.611384852
 30
0.0
 10
10.2978593033
 20
6.6118557445
 30
0.0
 10
10.2971006367
 20
6.6125346801
 30
0.0
 10
10.2961878643
 20
6.6133467353
 30
0.0
 10
10.294971663
 20
6.6144304072
 30
0.0
 10
10.2934511277
 20
6.6157846781
 30
0.0
 10
10.2910184299
 20
6.6179516899
 30
0.0
 10
10.2879775028
 20
6.6206603931
 30
0.0
 10
10.2843284151
 20
6.6239108651
 30
0.0
 10
10.2806793159
 20
6.6271613226
 30
0.0
 10
10.2776384177
 20
6.6298700622
 30
0.0
 10
10.275205662
 20
6.632037001
 30
0.0
 10
10.2736852737
 20
6.6333914575
 30
0.0
 10
10.2724687707
 20
6.6344747486
 30
0.0
 10
10.2715569202
 20
6.6352879673
 30
0.0
 10
10.2707953689
 20
6.6359632624
 30
0.0
 10
10.270265572
 20
6.6364406538
 30
0.0
 10
10.2699576954
 20
6.6367061338
 30
0.0
 10
10.2697412547
 20
6.6369258506
 30
0.0
 10
10.2694695149
 20
6.6370667976
 30
0.0
 10
10.269126484
 20
6.6372822028
 30
0.0
 10
10.268517193
 20
6.6376463603
 30
0.0
 10
10.2676514757
 20
6.638173278
 30
0.0
 10
10.2666106039
 20
6.6388027146
 30
0.0
 10
10.2652234773
 20
6.639642964
 30
0.0
 10
10.2634893285
 20
6.6406929332
 30
0.0
 10
10.2607148249
 20
6.6423730753
 30
0.0
 10
10.257246649
 20
6.6444731868
 30
0.0
 10
10.2530848587
 20
6.6469933511
 30
0.0
 10
10.2489230594
 20
6.6495134992
 30
0.0
 10
10.2454549059
 20
6.651613651
 30
0.0
 10
10.2426803574
 20
6.6532937126
 30
0.0
 10
10.2409463227
 20
6.6543438865
 30
0.0
 10
10.2395589619
 20
6.6551837156
 30
0.0
 10
10.2385188053
 20
6.6558144364
 30
0.0
 10
10.2376508504
 20
6.6563373361
 30
0.0
 10
10.237045554
 20
6.6567086666
 30
0.0
 10
10.2366961227
 20
6.6569125788
 30
0.0
 10
10.236444043
 20
6.6570888284
 30
0.0
 10
10.2361537621
 20
6.6571759546
 30
0.0
 10
10.2357800458
 20
6.6573232101
 30
0.0
 10
10.235119834
 20
6.6575664231
 30
0.0
 10
10.2341799201
 20
6.6579214427
 30
0.0
 10
10.233050634
 20
6.6583442251
 30
0.0
 10
10.2315454046
 20
6.6589090669
 30
0.0
 10
10.2296637016
 20
6.6596147316
 30
0.0
 10
10.2266530698
 20
6.6607440118
 30
0.0
 10
10.2228897479
 20
6.6621555372
 30
0.0
 10
10.2183737761
 20
6.663849402
 30
0.0
 10
10.2138577979
 20
6.6655432491
 30
0.0
 10
10.2100944921
 20
6.6669548188
 30
0.0
 10
10.2070838281
 20
6.6680840104
 30
0.0
 10
10.2052022069
 20
6.6687899002
 30
0.0
 10
10.2036968098
 20
6.66935428
 30
0.0
 10
10.2025680359
 20
6.669778474
 30
0.0
 10
10.2016265195
 20
6.6701290767
 30
0.0
 10
10.2009691684
 20
6.6703801747
 30
0.0
 10
10.2005908685
 20
6.6705147965
 30
0.0
 10
10.2003146671
 20
6.6706407294
 30
0.0
 10
10.2000097072
 20
6.6706712277
 30
0.0
 10
10.1996131252
 20
6.6707451807
 30
0.0
 10
10.1989144331
 20
6.6708590888
 30
0.0
 10
10.197918745
 20
6.6710299232
 30
0.0
 10
10.1967228733
 20
6.6712314538
 30
0.0
 10
10.1951287431
 20
6.6715013735
 30
0.0
 10
10.1931359553
 20
6.6718383581
 30
0.0
 10
10.1899475646
 20
6.6723777653
 30
0.0
 10
10.1859620523
 20
6.6730519448
 30
0.0
 10
10.1811794478
 20
6.6738609943
 30
0.0
 10
10.1763968406
 20
6.6746700347
 30
0.0
 10
10.1700200319
 20
6.6757487584
 30
0.0
 10
10.1652374252
 20
6.6765578004
 30
0.0
 10
10.1620490208
 20
6.677097162
 30
0.0
  0
ELLIPSE
  5
3D8
100
AcDbEntity
  8
0
100
AcDbEllipse
 62
7
  6
CONTINUOUS
 10
11.1612028597
 20
7.9539200211
 30
0.0
 11
-0.053095879
 21
0.2155295841
 31
0.0
 40
0.8757841375
 41
0.0
 42
6.2831853072
  0
ENDSEC
  0
SECTION
  2
OBJECTS
  0
DICTIONARY
  5
C
100
AcDbDictionary
280
0
281
1
  3
ACAD_GROUP
350
D
  3
ACAD_MLINESTYLE
350
17
  3
ACAD_LAYOUT
350
1A
  3
ACAD_PLOTSETTINGS
350
19
  3
ACAD_PLOTSTYLENAME
350
E
  3
ACAD_IMAGE_DICT
350
       3DA
  3
ACAD_IMAGE_VARS
350
       3DB
  3
ACAD_TABLESTYLE
350
       3DC
  0
IMAGEDEF_REACTOR
  5
3D9
100
AcDbRasterImageDefReactor
 90
2
330
28E
  0
DICTIONARY
  5
D
102
{ACAD_REACTORS
330
C
102
}
100
AcDbDictionary
280
0
281
1
  0
ACDBDICTIONARYWDFLT
  5
E
102
{ACAD_REACTORS
330
C
102
}
100
AcDbDictionary
281
1
  3
Normal
350
F
100
AcDbDictionaryWithDefault
340
F
  0
DICTIONARY
  5
3DA
330
C
100
AcDbDictionary
281
1
  3
WAU_assy_2_img_1
350
       3DF
  0
RASTERVARIABLES
  5
3DB
330
C
100
AcDbRasterVariables
 90
0
 70
0
 71
1
 72
5
  0
DICTIONARY
  5
17
102
{ACAD_REACTORS
330
C
102
}
100
AcDbDictionary
280
0
281
1
  3
Standard
350
18
  0
DICTIONARY
  5
3DC
330
C
100
AcDbDictionary
281
1
  3
Standard
350
       3E0
  3
Standard1
350
       3E1
  0
DICTIONARY
  5
19
102
{ACAD_REACTORS
330
C
102
}
100
AcDbDictionary
281
1
  0
DICTIONARY
  5
1A
102
{ACAD_REACTORS
330
C
102
}
100
AcDbDictionary
281
1
  3
Model
350
3DD
  3
Layout1
350
3DE
  0
ACDBPLACEHOLDER
  5
F
102
{ACAD_REACTORS
330
E
102
}
  0
MLINESTYLE
  5
18
102
{ACAD_REACTORS
330
17
102
}
100
AcDbMlineStyle
  2
STANDARD
 70
0
  3

 62
256
 51
90.0
 52
90.0
 71
2
 49
0.5
 62
256
  6
BYLAYER
 49
-0.5
 62
256
  6
BYLAYER
  0
LAYOUT
  5
3DD
102
{ACAD_REACTORS
330
1A
102
}
100
AcDbPlotSettings
  1

  2
none_device
  4
ANSI_C_(22.00_x_17.00_Inches)
  6

 40
0.0
 41
0.0
 42
0.0
 43
0.0
 44
558.8
 45
431.8
 46
0.0
 47
0.0
 48
0.0
 49
0.0
140
0.0
141
0.0
142
1.0
143
1.0
 70
1024
 72
0
 73
0
 74
0
  7

 75
0
147
1.0
148
0.0
149
0.0
100
AcDbLayout
  1
Model
 70
0
 71
0
 10
0.0
 20
0.0
 11
22.0
 21
17.0
 12
0.0
 22
0.0
 32
0.0
 14
0.0
 24
0.0
 34
0.0
 15
0.0
 25
0.0
 35
0.0
146
0.0
 13
0.0
 23
0.0
 33
0.0
 16
1.0
 26
0.0
 36
0.0
 17
0.0
 27
1.0
 37
0.0
 76
0
330
20C
345
0
346
0
  0
LAYOUT
  5
3DE
102
{ACAD_REACTORS
330
1A
102
}
100
AcDbPlotSettings
  1

  2
none_device
  4
ANSI_C_(22.00_x_17.00_Inches)
  6

 40
0.0
 41
0.0
 42
0.0
 43
0.0
 44
558.8
 45
431.8
 46
0.0
 47
0.0
 48
0.0
 49
0.0
140
0.0
141
0.0
142
1.0
143
1.0
 70
0
 72
0
 73
0
 74
0
  7

 75
0
147
1.0
148
0.0
149
0.0
100
AcDbLayout
  1
Layout1
 70
0
 71
1
 10
0.0
 20
0.0
 11
22.0
 21
17.0
 12
0.0
 22
0.0
 32
0.0
 14
0.0
 24
0.0
 34
0.0
 15
0.0
 25
0.0
 35
0.0
146
0.0
 13
0.0
 23
0.0
 33
0.0
 16
1.0
 26
0.0
 36
0.0
 17
0.0
 27
1.0
 37
0.0
 76
0
330
20D
345
0
346
0
  0
IMAGEDEF
  5
3DF
102
{ACAD_REACTORS
330
3DA
330
3D9
102
}
100
AcDbRasterImageDef
 90
0
  1
WAU_assy_2_img_1.png
 10
369.0
 20
92.0
 11
0.0066666667
 21
0.0066666667
280
1
281
0
  0
TABLESTYLE
  5
3E0
102
{ACAD_REACTORS
330
3DC
330
291
330
292
102
}
330
3DC
100
AcDbTableStyle
  3
Standard
 70
0
 71
0
 40
0.06
 41
0.06
280
1
281
1
  7
Standard
140
0.18
170
1
 62
0
 63
7
283
0
  7
Standard
140
0.18
170
1
 62
0
 63
7
283
0
  7
Standard
140
0.18
170
1
 62
0
 63
7
283
0
  0
TABLESTYLE
  5
3E1
102
{ACAD_REACTORS
330
3DC
330
290
102
}
330
3DC
100
AcDbTableStyle
  3
Standard1
 70
1
 71
0
 40
0.06
 41
0.06
280
1
281
1
  7
Standard
140
0.18
170
1
 62
0
 63
7
283
0
  7
Standard
140
0.18
170
1
 62
0
 63
7
283
0
  7
Standard
140
0.18
170
1
 62
0
 63
7
283
0
  0
ENDSEC
  0
EOF
