999
DXF file: W8S_assy_2.dxf
999
Pro/ENGINEER 2014200 by Parametric Technology Corporation
  0
SECTION
  2
HEADER
  9
$ACADVER
  1
AC1021
  9
$DWGCODEPAGE
  3
ANSI_1252
  9
$EXTMAX
 10
22.0
 20
17.0
 30
0.0
  9
$EXTMIN
 10
0.0
 20
0.0
 30
0.0
  9
$LIMMIN
 10
0.0
 20
0.0
  9
$LIMMAX
 10
22.0
 20
17.0
  9
$VIEWCTR
 10
11.0
 20
8.5
  9
$VIEWSIZE
 40
17.0
  9
$CLAYER
  8
0
  9
$LTSCALE
 40
1.21
  9
$CELTYPE
  6
BYLAYER
  9
$DIMSCALE
 40
1.0
  9
$DIMASZ
 40
0.1875
  9
$DIMEXO
 40
0.0625
  9
$DIMDLI
 40
0.836
  9
$DIMEXE
 40
0.125
  9
$DIMCEN
 40
0.198
  9
$DIMLFAC
 40
1.0
  9
$DIMBLK
  1
_FILLED
  9
$DIMTXT
 40
0.1
  9
$DIMTOL
 70
0
  9
$DIMLIM
 70
0
  9
$DIMTFAC
 40
1.0
  9
$DIMGAP
 40
0.09
  9
$DIMDSEP
 70
46
  9
$AUNITS
 70
0
  9
$PDMODE
 70
3
  9
$PDSIZE
 40
0.3125
  9
$HANDSEED
  5
2EA
  9
$TILEMODE
 70
1
  9
$MEASUREMENT
 70
0
  9
$INSUNITS
 70
1
  0
ENDSEC
  0
SECTION
  2
CLASSES
  0
CLASS
  1
ACDBDICTIONARYWDFLT
  2
AcDbDictionaryWithDefault
  3
AutoCAD 2000
 90
0
 91
1
280
0
281
0
  0
CLASS
  1
ACDBPLACEHOLDER
  2
AcDbPlaceHolder
  3
AutoCAD 2000
 90
0
 91
1
280
0
281
0
  0
CLASS
  1
LAYOUT
  2
AcDbLayout
  3
AutoCAD 2000
 90
0
 91
0
280
0
281
0
  0
CLASS
  1
RASTERVARIABLES
  2
AcDbRasterVariables
  3
ISM
 90
0
 91
1
280
0
281
0
  0
CLASS
  1
IMAGEDEF
  2
AcDbRasterImageDef
  3
ISM
 90
0
 91
1
280
0
281
0
  0
CLASS
  1
IMAGEDEF_REACTOR
  2
AcDbRasterImageDefReactor
  3
ISM
 90
0
 91
1
280
0
281
0
  0
CLASS
  1
IMAGE
  2
AcDbRasterImage
  3
ISM
 90
127
 91
1
280
0
281
1
  0
CLASS
  1
TABLESTYLE
  2
AcDbTableStyle
  3
ObjectDBX Classes
 90
2047
 91
1
280
0
281
0
  0
CLASS
  1
ACAD_TABLE
  2
AcDbTable
  3
ObjectDBX Classes
 90
1025
 91
3
280
0
281
1
  0
ENDSEC
  0
SECTION
  2
TABLES
  0
TABLE
  2
VPORT
  5
8
100
AcDbSymbolTable
 70
2
  0
VPORT
  5
1F4
100
AcDbSymbolTableRecord
100
AcDbViewportTableRecord
  2
*ACTIVE
 70
0
 10
0.0
 20
0.0
 11
1.0
 21
1.0
 12
11.0
 22
8.5
 13
0.0
 23
0.0
 14
1.0
 24
1.0
 15
0.0
 25
0.0
 16
0.0
 26
0.0
 36
1.0
 17
0.0
 27
0.0
 37
0.0
 40
17.0
 41
1.2941176471
 42
50.0
 43
0.0
 44
0.0
 50
0.0
 51
0.0
 71
0
 72
100
 73
1
 74
1
 75
0
 76
0
 77
0
 78
0
  0
ENDTAB
  0
TABLE
  2
LTYPE
  5
5
100
AcDbSymbolTable
 70
6
  0
LTYPE
  5
14
100
AcDbSymbolTableRecord
100
AcDbLinetypeTableRecord
  2
BYBLOCK
 70
0
  3

 72
65
 73
0
 40
0.0
  0
LTYPE
  5
15
100
AcDbSymbolTableRecord
100
AcDbLinetypeTableRecord
  2
BYLAYER
 70
0
  3

 72
65
 73
0
 40
0.0
  0
LTYPE
  5
16
100
AcDbSymbolTableRecord
100
AcDbLinetypeTableRecord
  2
CONTINUOUS
 70
64
  3
Solid line
 72
65
 73
0
 40
0.0
  0
LTYPE
  5
1F5
100
AcDbSymbolTableRecord
100
AcDbLinetypeTableRecord
  2
CENTER
 70
64
  3
____ _ ____ _ ____ _ ____ _ ____ _ ____ _ ____
 72
65
 73
4
 40
0.6
 49
0.375
 74
0
 49
-0.075
 74
0
 49
0.075
 74
0
 49
-0.075
 74
0
  0
LTYPE
  5
1F6
100
AcDbSymbolTableRecord
100
AcDbLinetypeTableRecord
  2
HIDDEN
 70
64
  3
- - - - - - - - - - - - - - - - - - - -
 72
65
 73
2
 40
0.2
 49
0.1
 74
0
 49
-0.1
 74
0
  0
LTYPE
  5
1F7
100
AcDbSymbolTableRecord
100
AcDbLinetypeTableRecord
  2
PHANTOM
 70
64
  3
_____ _ _ _____ _ _ _____ _ _ _____
 72
65
 73
6
 40
0.8
 49
0.45
 74
0
 49
-0.05
 74
0
 49
0.1
 74
0
 49
-0.05
 74
0
 49
0.1
 74
0
 49
-0.05
 74
0
  0
LTYPE
  5
1F8
100
AcDbSymbolTableRecord
100
AcDbLinetypeTableRecord
  2
DOT
 70
64
  3
. . . . . . . . . . . . . . . . . . . .
 72
65
 73
2
 40
0.2
 49
0.1
 74
0
 49
-0.1
 74
0
  0
LTYPE
  5
1F9
100
AcDbSymbolTableRecord
100
AcDbLinetypeTableRecord
  2
DASHED
 70
64
  3
- - - - - - - - - - - - - - - - - - - -
 72
65
 73
2
 40
0.2
 49
0.1
 74
0
 49
-0.1
 74
0
  0
ENDTAB
  0
TABLE
  2
LAYER
  5
2
100
AcDbSymbolTable
 70
36
  0
LAYER
  5
10
100
AcDbSymbolTableRecord
100
AcDbLayerTableRecord
  2
0
 70
0
 62
7
  6
CONTINUOUS
370
-3
390
F
  0
LAYER
  5
1FA
100
AcDbSymbolTableRecord
100
AcDbLayerTableRecord
  2
DEFAULT_1
 70
0
 62
7
  6
CENTER
370
-3
390
F
  0
LAYER
  5
1FB
100
AcDbSymbolTableRecord
100
AcDbLayerTableRecord
  2
DEFAULT_2
 70
0
 62
8
  6
HIDDEN
370
-3
390
F
  0
LAYER
  5
1FC
100
AcDbSymbolTableRecord
100
AcDbLayerTableRecord
  2
DEFAULT_3
 70
0
 62
7
  6
PHANTOM
370
-3
390
F
  0
LAYER
  5
1FD
100
AcDbSymbolTableRecord
100
AcDbLayerTableRecord
  2
DATUM_PLANES
 70
0
 62
7
  6
CONTINUOUS
370
-3
390
F
  0
LAYER
  5
1FE
100
AcDbSymbolTableRecord
100
AcDbLayerTableRecord
  2
DIMENSIONS
 70
0
 62
7
  6
CONTINUOUS
370
-3
390
F
  0
LAYER
  5
1FF
100
AcDbSymbolTableRecord
100
AcDbLayerTableRecord
  2
DTM_500001
 70
0
 62
7
  6
CONTINUOUS
370
-3
390
F
  0
LAYER
  5
200
100
AcDbSymbolTableRecord
100
AcDbLayerTableRecord
  2
PARAMETERDIMENSIONS
 70
0
 62
7
  6
CONTINUOUS
370
-3
390
F
  0
LAYER
  5
201
100
AcDbSymbolTableRecord
100
AcDbLayerTableRecord
  2
PORT_AREAS
 70
0
 62
7
  6
CONTINUOUS
370
-3
390
F
  0
LAYER
  5
202
100
AcDbSymbolTableRecord
100
AcDbLayerTableRecord
  2
SUNNBOMCOSMETIC
 70
0
 62
7
  6
CONTINUOUS
370
-3
390
F
  0
LAYER
  5
203
100
AcDbSymbolTableRecord
100
AcDbLayerTableRecord
  2
SUNNBOMSTAMPING
 70
0
 62
7
  6
CONTINUOUS
370
-3
390
F
  0
LAYER
  5
204
100
AcDbSymbolTableRecord
100
AcDbLayerTableRecord
  2
THREADS
 70
0
 62
7
  6
CONTINUOUS
370
-3
390
F
  0
ENDTAB
  0
TABLE
  2
STYLE
  5
3
100
AcDbSymbolTable
 70
1
  0
STYLE
  5
11
100
AcDbSymbolTableRecord
100
AcDbTextStyleTableRecord
  2
STANDARD
 70
0
 40
0.0
 41
0.8
 50
0.0
 71
0
 42
0.2
  3
txt
  4

  0
STYLE
  5
205
100
AcDbSymbolTableRecord
100
AcDbTextStyleTableRecord
  2
TEXTSTYLE_1
 70
0
 40
0.0
 41
0.8
 50
0.0
 71
0
 42
0.2
  3
gdt
  4

  0
ENDTAB
  0
TABLE
  2
VIEW
  5
6
100
AcDbSymbolTable
 70
0
  0
ENDTAB
  0
TABLE
  2
UCS
  5
7
100
AcDbSymbolTable
 70
0
  0
ENDTAB
  0
TABLE
  2
APPID
  5
9
100
AcDbSymbolTable
 70
1
  0
APPID
  5
206
100
AcDbSymbolTableRecord
100
AcDbRegAppTableRecord
  2
ACAD
 70
0
  0
ENDTAB
  0
TABLE
  2
BLOCK_RECORD
  5
1
100
AcDbSymbolTable
 70
0
  0
BLOCK_RECORD
  5
207
100
AcDbSymbolTableRecord
100
AcDbBlockTableRecord
  2
*Model_Space
  0
BLOCK_RECORD
  5
208
100
AcDbSymbolTableRecord
100
AcDbBlockTableRecord
  2
*Paper_Space
  0
BLOCK_RECORD
  5
209
100
AcDbSymbolTableRecord
100
AcDbBlockTableRecord
  2
SUN_FIRST_THIRD_ANGLE_BL0
  0
BLOCK_RECORD
  5
20A
100
AcDbSymbolTableRecord
100
AcDbBlockTableRecord
  2
*T1
  0
BLOCK_RECORD
  5
20B
100
AcDbSymbolTableRecord
100
AcDbBlockTableRecord
  2
*T2
  0
BLOCK_RECORD
  5
20C
100
AcDbSymbolTableRecord
100
AcDbBlockTableRecord
  2
*T3
  0
ENDTAB
  0
TABLE
  2
DIMSTYLE
  5
A
100
AcDbSymbolTable
 70
1
100
AcDbDimStyleTable
 71
0
  0
DIMSTYLE
105
20D
100
AcDbSymbolTableRecord
100
AcDbDimStyleTableRecord
  2
STANDARD
 70
0
  3

  4

 40
1.0
 41
0.1875
 42
0.0625
 43
0.38
 44
0.125
 45
0.0
 46
0.0
 47
0.001
 48
0.001
140
0.1
141
0.09
142
0.0
143
25.4
144
1.0
145
0.0
146
1.0
147
0.09
 71
0.0
 72
0.0
 73
1
 74
1
 75
0
 76
0
 77
0
 78
4
170
0
171
2
172
0
173
0
174
0
175
0
176
0
177
0
178
0
270
2
271
3
272
3
273
2
274
2
275
0
280
0
281
0
282
0
283
1
284
4
285
0
286
0
287
3
288
0
340
11
278
46
  0
ENDTAB
  0
ENDSEC
  0
SECTION
  2
BLOCKS
  0
BLOCK
  5
20
100
AcDbEntity
  8
0
100
AcDbBlockBegin
  2
*Model_Space
 70
0
 10
0.0
 20
0.0
 30
0.0
  3
*Model_Space
  1

  0
ENDBLK
  5
21
100
AcDbEntity
  8
0
100
AcDbBlockEnd
  0
BLOCK
  5
1C
100
AcDbEntity
  8
0
100
AcDbBlockBegin
  2
*Paper_Space
 70
0
 10
0.0
 20
0.0
 30
0.0
  3
*Paper_Space
  1

  0
ENDBLK
  5
1D
100
AcDbEntity
  8
0
100
AcDbBlockEnd
  0
BLOCK
  5
20E
100
AcDbEntity
  8
0
100
AcDbBlockBegin
 62
2
  6
CONTINUOUS
  2
SUN_FIRST_THIRD_ANGLE_BL0
 70
64
 10
20.4816717061
 20
1.2289683772
  3
SUN_FIRST_THIRD_ANGLE_BL0
  1

  0
TEXT
  5
20F
100
AcDbEntity
  8
0
100
AcDbText
 62
2
  6
CONTINUOUS
 10
19.4750896608
 20
1.4136269581
  7
STANDARD
 40
0.08
  1
FIRST ANGLE
 41
0.8
 72
0
100
AcDbText
  0
TEXT
  5
210
100
AcDbEntity
  8
0
100
AcDbText
 62
2
  6
CONTINUOUS
 10
20.7842537513
 20
1.4047600029
  7
STANDARD
 40
0.08
  1
THIRD ANGLE
 41
0.8
 72
0
100
AcDbText
  0
LINE
  5
211
100
AcDbEntity
  8
0
100
AcDbLine
 62
7
  6
CONTINUOUS
 10
19.4767170086
 20
1.1727031207
 11
19.6334271527
 21
1.1717972817
  0
LINE
  5
212
100
AcDbEntity
  8
0
100
AcDbLine
 62
7
  6
CONTINUOUS
 10
19.6596964832
 20
1.1717972817
 11
19.6950230232
 21
1.171593082
  0
LINE
  5
213
100
AcDbEntity
  8
0
100
AcDbLine
 62
7
  6
CONTINUOUS
 10
19.7194818561
 20
1.1708914427
 11
19.8852396156
 21
1.1699333054
  0
LINE
  5
214
100
AcDbEntity
  8
0
100
AcDbLine
 62
7
  6
CONTINUOUS
 10
19.4758111696
 20
1.2723454088
 11
19.88525039
 21
1.3511534004
  0
LINE
  5
215
100
AcDbEntity
  8
0
100
AcDbLine
 62
7
  6
CONTINUOUS
 10
19.88525039
 20
1.3511534004
 11
19.8831348489
 21
0.9851647912
  0
LINE
  5
216
100
AcDbEntity
  8
0
100
AcDbLine
 62
7
  6
CONTINUOUS
 10
19.8831348489
 20
0.9851647912
 11
19.4767170086
 21
1.0658141206
  0
LINE
  5
217
100
AcDbEntity
  8
0
100
AcDbLine
 62
7
  6
CONTINUOUS
 10
19.4767170086
 20
1.0658141206
 11
19.4779056764
 21
1.2714536432
  0
CIRCLE
  5
218
100
AcDbEntity
  8
0
100
AcDbCircle
 62
7
  6
CONTINUOUS
 10
20.2068232291
 20
1.1717972817
 40
0.175742101
  0
CIRCLE
  5
219
100
AcDbEntity
  8
0
100
AcDbCircle
 62
7
  6
CONTINUOUS
 10
20.2068232291
 20
1.1717972817
 40
0.1005522074
  0
LINE
  5
21A
100
AcDbEntity
  8
0
100
AcDbLine
 62
7
  6
CONTINUOUS
 10
20.2077290681
 20
1.3756110529
 11
20.2071171714
 21
1.2379342989
  0
LINE
  5
21B
100
AcDbEntity
  8
0
100
AcDbLine
 62
7
  6
CONTINUOUS
 10
20.2077290681
 20
1.2016899681
 11
20.2074674401
 21
1.1428236749
  0
LINE
  5
21C
100
AcDbEntity
  8
0
100
AcDbLine
 62
7
  6
CONTINUOUS
 10
20.208634907
 20
1.101141841
 11
20.2080230104
 21
0.963465087
  0
LINE
  5
21D
100
AcDbEntity
  8
0
100
AcDbLine
 62
7
  6
CONTINUOUS
 10
20.0066328138
 20
1.1745147986
 11
20.1443095678
 21
1.1739029019
  0
LINE
  5
21E
100
AcDbEntity
  8
0
100
AcDbLine
 62
7
  6
CONTINUOUS
 10
20.1832714155
 20
1.1727031207
 11
20.238153505
 21
1.172335442
  0
LINE
  5
21F
100
AcDbEntity
  8
0
100
AcDbLine
 62
7
  6
CONTINUOUS
 10
20.2756669918
 20
1.1717972817
 11
20.407916871
 21
1.1712095044
  0
CIRCLE
  5
220
100
AcDbEntity
  8
0
100
AcDbCircle
 62
7
  6
CONTINUOUS
 10
20.7509457401
 20
1.1693297793
 40
0.1722024983
  0
CIRCLE
  5
221
100
AcDbEntity
  8
0
100
AcDbCircle
 62
7
  6
CONTINUOUS
 10
20.7509457401
 20
1.1693297793
 40
0.0985164967
  0
LINE
  5
222
100
AcDbEntity
  8
0
100
AcDbLine
 62
7
  6
CONTINUOUS
 10
20.7169767782
 20
1.170462078
 11
20.7825395137
 21
1.1682766535
  0
LINE
  5
223
100
AcDbEntity
  8
0
100
AcDbLine
 62
7
  6
CONTINUOUS
 10
20.8177513651
 20
1.1693297793
 11
20.947965719
 21
1.1693297793
  0
LINE
  5
224
100
AcDbEntity
  8
0
100
AcDbLine
 62
7
  6
CONTINUOUS
 10
20.6875370113
 20
1.170462078
 11
20.5573226574
 21
1.170462078
  0
LINE
  5
225
100
AcDbEntity
  8
0
100
AcDbLine
 62
7
  6
CONTINUOUS
 10
20.7486811426
 20
1.1987695462
 11
20.7486811426
 21
1.1432869085
  0
LINE
  5
226
100
AcDbEntity
  8
0
100
AcDbLine
 62
7
  6
CONTINUOUS
 10
20.7498134414
 20
1.1059210505
 11
20.7498134414
 21
0.9757066966
  0
LINE
  5
227
100
AcDbEntity
  8
0
100
AcDbLine
 62
7
  6
CONTINUOUS
 10
20.7486811426
 20
1.2338708068
 11
20.7486811426
 21
1.3640851607
  0
LINE
  5
228
100
AcDbEntity
  8
0
100
AcDbLine
 62
7
  6
CONTINUOUS
 10
21.0702539817
 20
1.2701043662
 11
21.4790138229
 21
1.3448360823
  0
LINE
  5
229
100
AcDbEntity
  8
0
100
AcDbLine
 62
7
  6
CONTINUOUS
 10
21.4790138229
 20
1.3448360823
 11
21.4790138229
 21
0.9779712941
  0
LINE
  5
22A
100
AcDbEntity
  8
0
100
AcDbLine
 62
7
  6
CONTINUOUS
 10
21.4790138229
 20
0.9779712941
 11
21.069121683
 21
1.0617614
  0
LINE
  5
22B
100
AcDbEntity
  8
0
100
AcDbLine
 62
7
  6
CONTINUOUS
 10
21.0702539817
 20
1.2701043662
 11
21.069121683
 21
1.0617614
  0
LINE
  5
22C
100
AcDbEntity
  8
0
100
AcDbLine
 62
7
  6
CONTINUOUS
 10
21.4790138229
 20
1.1693297793
 11
21.3159628059
 21
1.1693297793
  0
LINE
  5
22D
100
AcDbEntity
  8
0
100
AcDbLine
 62
7
  6
CONTINUOUS
 10
21.2876553377
 20
1.1693297793
 11
21.2502894796
 21
1.1693297793
  0
LINE
  5
22E
100
AcDbEntity
  8
0
100
AcDbLine
 62
7
  6
CONTINUOUS
 10
21.2208497126
 20
1.1659328831
 11
21.0713862804
 21
1.1659328831
  0
LINE
  5
22F
100
AcDbEntity
  8
0
100
AcDbLine
 62
7
  6
CONTINUOUS
 10
20.4796138713
 20
1.5284908897
 11
20.4766766948
 21
0.9294458646
  0
ENDBLK
  5
230
100
AcDbEntity
  8
0
  6
BYBLOCK
 62
0
100
AcDbBlockEnd
  0
BLOCK
  5
231
100
AcDbEntity
  8
0
100
AcDbBlockBegin
  2
*T1
 70
1
 10
0.0
 20
0.0
  3
*T1
  1

  0
LINE
  5
232
100
AcDbEntity
  8
0
100
AcDbLine
 62
2
  6
CONTINUOUS
 10
9.275
 20
0.0
 11
-0.0
 21
0.0
  0
LINE
  5
233
100
AcDbEntity
  8
0
100
AcDbLine
 62
2
  6
CONTINUOUS
 10
9.275
 20
0.0
 11
9.275
 21
1.25
  0
LINE
  5
234
100
AcDbEntity
  8
0
100
AcDbLine
 62
2
  6
CONTINUOUS
 10
9.275
 20
0.625
 11
-0.0
 21
0.625
  0
LINE
  5
235
100
AcDbEntity
  8
0
100
AcDbLine
 62
2
  6
CONTINUOUS
 10
9.275
 20
1.25
 11
-0.0
 21
1.25
  0
LINE
  5
236
100
AcDbEntity
  8
0
100
AcDbLine
 62
2
  6
CONTINUOUS
 10
6.8
 20
0.0
 11
6.8
 21
1.25
  0
LINE
  5
237
100
AcDbEntity
  8
0
100
AcDbLine
 62
2
  6
CONTINUOUS
 10
6.4
 20
0.0
 11
6.4
 21
0.625
  0
LINE
  5
238
100
AcDbEntity
  8
0
100
AcDbLine
 62
2
  6
CONTINUOUS
 10
5.9
 20
0.0
 11
5.9
 21
0.625
  0
LINE
  5
239
100
AcDbEntity
  8
0
100
AcDbLine
 62
2
  6
CONTINUOUS
 10
5.2
 20
0.0
 11
5.2
 21
0.625
  0
LINE
  5
23A
100
AcDbEntity
  8
0
100
AcDbLine
 62
2
  6
CONTINUOUS
 10
4.1
 20
0.0
 11
4.1
 21
1.25
  0
LINE
  5
23B
100
AcDbEntity
  8
0
100
AcDbLine
 62
2
  6
CONTINUOUS
 10
-0.0
 20
0.0
 11
-0.0
 21
1.25
  0
MTEXT
  5
23C
100
AcDbEntity
  8
0
100
AcDbMText
 62
2
  6
CONTINUOUS
  7
STANDARD
 71
2
 72
1
 10
6.6
 20
0.325
 30
0.0
 11
1.0
 21
0.0
 31
0.0
 44
0.9
  1
2
 40
0.125
 41
0.2
  0
MTEXT
  5
23D
100
AcDbEntity
  8
0
100
AcDbMText
 62
2
  6
CONTINUOUS
  7
STANDARD
 71
2
 72
1
 10
6.15
 20
0.325
 30
0.0
 11
1.0
 21
0.0
 31
0.0
 44
0.9
  1
C
 40
0.125
 41
0.2
  0
MTEXT
  5
23E
100
AcDbEntity
  8
0
100
AcDbMText
 62
2
  6
CONTINUOUS
  7
STANDARD
 71
2
 72
1
 10
5.55
 20
0.325
 30
0.0
 11
1.0
 21
0.0
 31
0.0
 44
0.9
  1
1.000
 40
0.125
 41
1.0
  0
MTEXT
  5
23F
100
AcDbEntity
  8
0
100
AcDbMText
 62
2
  6
CONTINUOUS
  7
STANDARD
 71
2
 72
1
 10
4.65
 20
0.325
 30
0.0
 11
1.0
 21
0.0
 31
0.0
 44
0.9
  1
Aug-22-19
 40
0.125
 41
1.8
  0
MTEXT
  5
240
100
AcDbEntity
  8
0
100
AcDbMText
 62
2
  6
CONTINUOUS
  7
STANDARD
 71
2
 72
1
 10
2.05
 20
0.4625
 30
0.0
 11
1.0
 21
0.0
 31
0.0
 44
0.9
  1
T-10A Sandwich ISO 05\PP to T
 40
0.125
 41
4.2
  0
MTEXT
  5
241
100
AcDbEntity
  8
0
100
AcDbMText
 62
2
  6
CONTINUOUS
  7
STANDARD
 71
1
 72
1
 10
6.45
 20
0.5625
 30
0.0
 11
1.0
 21
0.0
 31
0.0
 44
0.9
  1
SHEET
 40
0.06
 41
0.48
  0
MTEXT
  5
242
100
AcDbEntity
  8
0
100
AcDbMText
 62
2
  6
CONTINUOUS
  7
STANDARD
 71
1
 72
1
 10
5.95
 20
0.5625
 30
0.0
 11
1.0
 21
0.0
 31
0.0
 44
0.9
  1
DWG SIZE
 40
0.06
 41
0.768
  0
MTEXT
  5
243
100
AcDbEntity
  8
0
100
AcDbMText
 62
2
  6
CONTINUOUS
  7
STANDARD
 71
1
 72
1
 10
5.25
 20
0.5625
 30
0.0
 11
1.0
 21
0.0
 31
0.0
 44
0.9
  1
SCALE
 40
0.06
 41
0.48
  0
MTEXT
  5
244
100
AcDbEntity
  8
0
100
AcDbMText
 62
2
  6
CONTINUOUS
  7
STANDARD
 71
1
 72
1
 10
4.15
 20
0.5625
 30
0.0
 11
1.0
 21
0.0
 31
0.0
 44
0.9
  1
DATE
 40
0.06
 41
0.384
  0
MTEXT
  5
245
100
AcDbEntity
  8
0
100
AcDbMText
 62
2
  6
CONTINUOUS
  7
STANDARD
 71
1
 72
1
 10
0.05
 20
0.5625
 30
0.0
 11
1.0
 21
0.0
 31
0.0
 44
0.9
  1
DESCRIPTION
 40
0.06
 41
1.056
  0
MTEXT
  5
246
100
AcDbEntity
  8
0
100
AcDbMText
 62
2
  6
CONTINUOUS
  7
STANDARD
 71
2
 72
1
 10
5.45
 20
1.0375
 30
0.0
 11
1.0
 21
0.0
 31
0.0
 44
0.9
  1
ALL DIMENSIONS IN INCH\PVIEWS ARE THIRD ANGLE
 40
0.12
 41
4.224
  0
MTEXT
  5
247
100
AcDbEntity
  8
0
100
AcDbMText
 62
2
  6
CONTINUOUS
  7
STANDARD
 71
2
 72
1
 10
2.05
 20
0.95
 30
0.0
 11
1.0
 21
0.0
 31
0.0
 44
0.9
  1
W8S
 40
0.125
 41
0.6
  0
MTEXT
  5
248
100
AcDbEntity
  8
0
100
AcDbMText
 62
2
  6
CONTINUOUS
  7
STANDARD
 71
1
 72
1
 10
0.05
 20
1.1875
 30
0.0
 11
1.0
 21
0.0
 31
0.0
 44
0.9
  1
MODEL
 40
0.06
 41
0.48
  0
ENDBLK
  5
249
100
AcDbEntity
  8
0
  6
BYBLOCK
 62
0
100
AcDbBlockEnd
  0
BLOCK
  5
24A
100
AcDbEntity
  8
0
100
AcDbBlockBegin
  2
*T2
 70
1
 10
0.0
 20
0.0
  3
*T2
  1

  0
LINE
  5
24B
100
AcDbEntity
  8
0
100
AcDbLine
 62
2
  6
CONTINUOUS
 10
0.0
 20
0.0
 11
9.055
 21
0.0
  0
LINE
  5
24C
100
AcDbEntity
  8
0
100
AcDbLine
 62
2
  6
CONTINUOUS
 10
0.0
 20
0.0
 11
0.0
 21
-2.094
  0
LINE
  5
24D
100
AcDbEntity
  8
0
100
AcDbLine
 62
2
  6
CONTINUOUS
 10
0.0
 20
-0.344
 11
9.055
 21
-0.344
  0
LINE
  5
24E
100
AcDbEntity
  8
0
100
AcDbLine
 62
2
  6
CONTINUOUS
 10
0.0
 20
-0.594
 11
9.055
 21
-0.594
  0
LINE
  5
24F
100
AcDbEntity
  8
0
100
AcDbLine
 62
2
  6
CONTINUOUS
 10
0.0
 20
-0.844
 11
9.055
 21
-0.844
  0
LINE
  5
250
100
AcDbEntity
  8
0
100
AcDbLine
 62
2
  6
CONTINUOUS
 10
0.0
 20
-1.094
 11
9.055
 21
-1.094
  0
LINE
  5
251
100
AcDbEntity
  8
0
100
AcDbLine
 62
2
  6
CONTINUOUS
 10
0.0
 20
-1.344
 11
9.055
 21
-1.344
  0
LINE
  5
252
100
AcDbEntity
  8
0
100
AcDbLine
 62
2
  6
CONTINUOUS
 10
0.0
 20
-1.594
 11
9.055
 21
-1.594
  0
LINE
  5
253
100
AcDbEntity
  8
0
100
AcDbLine
 62
2
  6
CONTINUOUS
 10
0.0
 20
-1.844
 11
9.055
 21
-1.844
  0
LINE
  5
254
100
AcDbEntity
  8
0
100
AcDbLine
 62
2
  6
CONTINUOUS
 10
0.0
 20
-2.094
 11
9.055
 21
-2.094
  0
LINE
  5
255
100
AcDbEntity
  8
0
100
AcDbLine
 62
2
  6
CONTINUOUS
 10
3.055
 20
0.0
 11
3.055
 21
-2.094
  0
LINE
  5
256
100
AcDbEntity
  8
0
100
AcDbLine
 62
2
  6
CONTINUOUS
 10
9.055
 20
0.0
 11
9.055
 21
-2.094
  0
MTEXT
  5
257
100
AcDbEntity
  8
0
100
AcDbMText
 62
2
  6
CONTINUOUS
  7
STANDARD
 71
2
 72
1
 10
1.5275
 20
-0.0995
 30
0.0
 11
1.0
 21
0.0
 31
0.0
 44
0.9
  1
Technical Data
 40
0.145
 41
3.248
  0
MTEXT
  5
258
100
AcDbEntity
  8
0
100
AcDbMText
 62
2
  6
CONTINUOUS
  7
STANDARD
 71
2
 72
1
 10
4.555
 20
-0.0995
 30
0.0
 11
1.0
 21
0.0
 31
0.0
 44
0.9
  1
U.S. Units
 40
0.145
 41
2.32
  0
MTEXT
  5
259
100
AcDbEntity
  8
0
100
AcDbMText
 62
2
  6
CONTINUOUS
  7
STANDARD
 71
2
 72
1
 10
7.555
 20
-0.0995
 30
0.0
 11
1.0
 21
0.0
 31
0.0
 44
0.9
  1
Metric Units
 40
0.145
 41
2.784
  0
MTEXT
  5
25A
100
AcDbEntity
  8
0
100
AcDbMText
 62
2
  6
CONTINUOUS
  7
STANDARD
 71
2
 72
1
 10
1.5275
 20
-0.4065
 30
0.0
 11
1.0
 21
0.0
 31
0.0
 44
0.9
  1
Cavity
 40
0.125
 41
1.2
  0
MTEXT
  5
25B
100
AcDbEntity
  8
0
100
AcDbMText
 62
2
  6
CONTINUOUS
  7
STANDARD
 71
2
 72
1
 10
6.055
 20
-0.4065
 30
0.0
 11
1.0
 21
0.0
 31
0.0
 44
0.9
  1
T-10A
 40
0.125
 41
1.0
  0
MTEXT
  5
25C
100
AcDbEntity
  8
0
100
AcDbMText
 62
2
  6
CONTINUOUS
  7
STANDARD
 71
2
 72
1
 10
1.5275
 20
-0.6565
 30
0.0
 11
1.0
 21
0.0
 31
0.0
 44
0.9
  1
Body Features
 40
0.125
 41
2.6
  0
MTEXT
  5
25D
100
AcDbEntity
  8
0
100
AcDbMText
 62
2
  6
CONTINUOUS
  7
STANDARD
 71
2
 72
1
 10
6.055
 20
-0.6565
 30
0.0
 11
1.0
 21
0.0
 31
0.0
 44
0.9
  1
P to T
 40
0.125
 41
1.2
  0
MTEXT
  5
25E
100
AcDbEntity
  8
0
100
AcDbMText
 62
2
  6
CONTINUOUS
  7
STANDARD
 71
2
 72
1
 10
1.5275
 20
-0.9065
 30
0.0
 11
1.0
 21
0.0
 31
0.0
 44
0.9
  1
Body Type
 40
0.125
 41
1.8
  0
MTEXT
  5
25F
100
AcDbEntity
  8
0
100
AcDbMText
 62
2
  6
CONTINUOUS
  7
STANDARD
 71
2
 72
1
 10
6.055
 20
-0.9065
 30
0.0
 11
1.0
 21
0.0
 31
0.0
 44
0.9
  1
Sandwich
 40
0.125
 41
1.6
  0
MTEXT
  5
260
100
AcDbEntity
  8
0
100
AcDbMText
 62
2
  6
CONTINUOUS
  7
STANDARD
 71
2
 72
1
 10
1.5275
 20
-1.1565
 30
0.0
 11
1.0
 21
0.0
 31
0.0
 44
0.9
  1
Interface
 40
0.125
 41
1.8
  0
MTEXT
  5
261
100
AcDbEntity
  8
0
100
AcDbMText
 62
2
  6
CONTINUOUS
  7
STANDARD
 71
2
 72
1
 10
6.055
 20
-1.1565
 30
0.0
 11
1.0
 21
0.0
 31
0.0
 44
0.9
  1
ISO 05
 40
0.125
 41
1.2
  0
MTEXT
  5
262
100
AcDbEntity
  8
0
100
AcDbMText
 62
2
  6
CONTINUOUS
  7
STANDARD
 71
2
 72
1
 10
1.5275
 20
-1.4065
 30
0.0
 11
1.0
 21
0.0
 31
0.0
 44
0.9
  1
Open Cavity Quantity
 40
0.125
 41
4.0
  0
MTEXT
  5
263
100
AcDbEntity
  8
0
100
AcDbMText
 62
2
  6
CONTINUOUS
  7
STANDARD
 71
2
 72
1
 10
6.055
 20
-1.4065
 30
0.0
 11
1.0
 21
0.0
 31
0.0
 44
0.9
  1
1
 40
0.125
 41
0.2
  0
MTEXT
  5
264
100
AcDbEntity
  8
0
100
AcDbMText
 62
2
  6
CONTINUOUS
  7
STANDARD
 71
2
 72
1
 10
1.5275
 20
-1.6565
 30
0.0
 11
1.0
 21
0.0
 31
0.0
 44
0.9
  1
Stack Height
 40
0.125
 41
2.4
  0
MTEXT
  5
265
100
AcDbEntity
  8
0
100
AcDbMText
 62
2
  6
CONTINUOUS
  7
STANDARD
 71
2
 72
1
 10
4.555
 20
-1.6565
 30
0.0
 11
1.0
 21
0.0
 31
0.0
 44
0.9
  1
1.94 in.
 40
0.125
 41
1.6
  0
MTEXT
  5
266
100
AcDbEntity
  8
0
100
AcDbMText
 62
2
  6
CONTINUOUS
  7
STANDARD
 71
2
 72
1
 10
7.555
 20
-1.6565
 30
0.0
 11
1.0
 21
0.0
 31
0.0
 44
0.9
  1
49 mm
 40
0.125
 41
1.0
  0
MTEXT
  5
267
100
AcDbEntity
  8
0
100
AcDbMText
 62
2
  6
CONTINUOUS
  7
STANDARD
 71
2
 72
1
 10
1.5275
 20
-1.9065
 30
0.0
 11
1.0
 21
0.0
 31
0.0
 44
0.9
  1
Weight
 40
0.125
 41
1.2
  0
MTEXT
  5
268
100
AcDbEntity
  8
0
100
AcDbMText
 62
2
  6
CONTINUOUS
  7
STANDARD
 71
2
 72
1
 10
4.555
 20
-1.9065
 30
0.0
 11
1.0
 21
0.0
 31
0.0
 44
0.9
  1
1.510 lb.
 40
0.125
 41
1.8
  0
MTEXT
  5
269
100
AcDbEntity
  8
0
100
AcDbMText
 62
2
  6
CONTINUOUS
  7
STANDARD
 71
2
 72
1
 10
7.555
 20
-1.9065
 30
0.0
 11
1.0
 21
0.0
 31
0.0
 44
0.9
  1
0,685 kg.
 40
0.125
 41
1.8
  0
ENDBLK
  5
26A
100
AcDbEntity
  8
0
  6
BYBLOCK
 62
0
100
AcDbBlockEnd
  0
BLOCK
  5
26B
100
AcDbEntity
  8
0
100
AcDbBlockBegin
  2
*T3
 70
1
 10
0.0
 20
0.0
  3
*T3
  1

  0
LINE
  5
26C
100
AcDbEntity
  8
0
100
AcDbLine
 62
2
  6
CONTINUOUS
 10
0.0
 20
0.0
 11
4.6
 21
0.0
  0
LINE
  5
26D
100
AcDbEntity
  8
0
100
AcDbLine
 62
2
  6
CONTINUOUS
 10
0.0
 20
0.0
 11
0.0
 21
-0.93775
  0
LINE
  5
26E
100
AcDbEntity
  8
0
100
AcDbLine
 62
2
  6
CONTINUOUS
 10
0.0
 20
-0.34375
 11
4.6
 21
-0.34375
  0
LINE
  5
26F
100
AcDbEntity
  8
0
100
AcDbLine
 62
2
  6
CONTINUOUS
 10
0.0
 20
-0.68775
 11
4.6
 21
-0.68775
  0
LINE
  5
270
100
AcDbEntity
  8
0
100
AcDbLine
 62
2
  6
CONTINUOUS
 10
0.0
 20
-0.93775
 11
4.6
 21
-0.93775
  0
LINE
  5
271
100
AcDbEntity
  8
0
100
AcDbLine
 62
2
  6
CONTINUOUS
 10
1.3
 20
-0.34375
 11
1.3
 21
-0.93775
  0
LINE
  5
272
100
AcDbEntity
  8
0
100
AcDbLine
 62
2
  6
CONTINUOUS
 10
3.3
 20
-0.34375
 11
3.3
 21
-0.93775
  0
LINE
  5
273
100
AcDbEntity
  8
0
100
AcDbLine
 62
2
  6
CONTINUOUS
 10
4.6
 20
0.0
 11
4.6
 21
-0.93775
  0
MTEXT
  5
274
100
AcDbEntity
  8
0
100
AcDbMText
 62
2
  6
CONTINUOUS
  7
STANDARD
 71
2
 72
1
 10
2.3
 20
-0.099375
 30
0.0
 11
1.0
 21
0.0
 31
0.0
 44
0.9
  1
Port Headings
 40
0.145
 41
3.016
  0
MTEXT
  5
275
100
AcDbEntity
  8
0
100
AcDbMText
 62
2
  6
CONTINUOUS
  7
STANDARD
 71
2
 72
1
 10
0.65
 20
-0.44325
 30
0.0
 11
1.0
 21
0.0
 31
0.0
 44
0.9
  1
Product
 40
0.145
 41
1.624
  0
MTEXT
  5
276
100
AcDbEntity
  8
0
100
AcDbMText
 62
2
  6
CONTINUOUS
  7
STANDARD
 71
2
 72
1
 10
2.3
 20
-0.44325
 30
0.0
 11
1.0
 21
0.0
 31
0.0
 44
0.9
  1
Port
 40
0.145
 41
0.928
  0
MTEXT
  5
277
100
AcDbEntity
  8
0
100
AcDbMText
 62
2
  6
CONTINUOUS
  7
STANDARD
 71
2
 72
1
 10
3.95
 20
-0.44325
 30
0.0
 11
1.0
 21
0.0
 31
0.0
 44
0.9
  1
Size
 40
0.145
 41
0.928
  0
MTEXT
  5
278
100
AcDbEntity
  8
0
100
AcDbMText
 62
2
  6
CONTINUOUS
  7
STANDARD
 71
2
 72
1
 10
0.65
 20
-0.75025
 30
0.0
 11
1.0
 21
0.0
 31
0.0
 44
0.9
  1
W8S
 40
0.125
 41
0.6
  0
MTEXT
  5
279
100
AcDbEntity
  8
0
100
AcDbMText
 62
2
  6
CONTINUOUS
  7
STANDARD
 71
2
 72
1
 10
2.3
 20
-0.75025
 30
0.0
 11
1.0
 21
0.0
 31
0.0
 44
0.9
  1
Gage Port (Plugged)
 40
0.125
 41
3.8
  0
MTEXT
  5
27A
100
AcDbEntity
  8
0
100
AcDbMText
 62
2
  6
CONTINUOUS
  7
STANDARD
 71
2
 72
1
 10
3.95
 20
-0.75025
 30
0.0
 11
1.0
 21
0.0
 31
0.0
 44
0.9
  1
SAE 4
 40
0.125
 41
1.0
  0
ENDBLK
  5
27B
100
AcDbEntity
  8
0
  6
BYBLOCK
 62
0
100
AcDbBlockEnd
  0
ENDSEC
  0
SECTION
  2
ENTITIES
  0
IMAGE
  5
27C
100
AcDbEntity
  8
0
100
AcDbRasterImage
 62
7
  6
CONTINUOUS
 10
19.2297077316
 20
0.3094318264
 30
0.0
 11
0.0066666667
 21
0.0
 31
0.0
 12
0.0
 22
0.0066666667
 32
0.0
 13
369.0
 23
92.0
340
       2E7
 70
9
280
0
281
50
282
50
283
0
360
       2E1
 71
1
 91
2
 14
-0.5
 24
-0.5
 14
368.5
 24
91.5
  0
INSERT
  5
27D
100
AcDbEntity
  8
0
100
AcDbBlockReference
 62
2
  6
CONTINUOUS
  2
SUN_FIRST_THIRD_ANGLE_BL0
 10
20.4816717061
 20
1.2289683772
  0
ACAD_TABLE
  5
27E
100
AcDbEntity
  8
0
 62
2
  6
CONTINUOUS
100
AcDbBlockReference
  2
*T1
 10
12.42375
 20
0.30125
 30
0.0
100
AcDbTable
342
       2E9
343
20A
 11
1.0
 21
0.0
 31
0.0
 90
6
 91
4
 92
6
 93
20
 94
0
 95
0
 96
0
 70
1
 41
0.0
141
0.525
141
0.1
141
0.525
141
0.1
142
4.1
142
1.1
142
0.7
142
0.5
142
0.4
142
2.475
171
1
172
0
173
0
174
0
175
1
176
1
 91
33
178
0
145
0.0
301
CELL_VALUE
 90
4
  1
T-10A Sandwich ISO 05\PP to T
304
ACVALUE_END
170
2
140
0.125
171
1
172
0
173
0
174
0
175
1
176
1
 91
33
178
0
145
0.0
301
CELL_VALUE
 90
4
  1
Aug-22-19
304
ACVALUE_END
170
5
140
0.125
171
1
172
0
173
0
174
0
175
1
176
1
 91
33
178
0
145
0.0
301
CELL_VALUE
 90
4
  1
1.000
304
ACVALUE_END
170
5
140
0.125
171
1
172
0
173
0
174
0
175
1
176
1
 91
33
178
0
145
0.0
301
CELL_VALUE
 90
4
  1
C
304
ACVALUE_END
170
5
140
0.125
171
1
172
0
173
0
174
0
175
1
176
1
 91
33
178
0
145
0.0
301
CELL_VALUE
 90
4
  1
2
304
ACVALUE_END
170
5
140
0.125
171
1
172
0
173
0
174
0
175
1
176
1
 91
33
178
0
145
0.0
301
CELL_VALUE
 90
4
  1
 
304
ACVALUE_END
170
1
140
0.125
171
1
172
0
173
0
174
0
175
1
176
1
 91
33
178
0
145
0.0
301
CELL_VALUE
 90
4
  1
DESCRIPTION
304
ACVALUE_END
170
1
140
0.06
171
1
172
0
173
0
174
0
175
1
176
1
 91
33
178
0
145
0.0
301
CELL_VALUE
 90
4
  1
DATE
304
ACVALUE_END
170
1
140
0.06
171
1
172
0
173
0
174
0
175
1
176
1
 91
33
178
0
145
0.0
301
CELL_VALUE
 90
4
  1
SCALE
304
ACVALUE_END
170
1
140
0.06
171
1
172
0
173
0
174
0
175
1
176
1
 91
33
178
0
145
0.0
301
CELL_VALUE
 90
4
  1
DWG SIZE
304
ACVALUE_END
170
1
140
0.06
171
1
172
0
173
0
174
0
175
1
176
1
 91
33
178
0
145
0.0
301
CELL_VALUE
 90
4
  1
SHEET
304
ACVALUE_END
170
1
140
0.06
171
1
172
0
173
0
174
0
175
1
176
1
 91
33
178
0
145
0.0
301
CELL_VALUE
 90
4
  1
 
304
ACVALUE_END
170
1
140
0.125
171
1
172
0
173
0
174
0
175
1
176
1
 91
33
178
0
145
0.0
301
CELL_VALUE
 90
4
  1
W8S
304
ACVALUE_END
170
5
140
0.125
171
1
172
0
173
0
174
0
175
4
176
1
 91
33
178
0
145
0.0
301
CELL_VALUE
 90
4
  1
ALL DIMENSIONS IN INCH\PVIEWS ARE THIRD ANGLE
304
ACVALUE_END
170
5
140
0.12
171
1
172
0
173
1
174
0
175
1
176
1
 91
1
178
0
145
0.0
170
1
171
1
172
0
173
1
174
0
175
1
176
1
 91
1
178
0
145
0.0
170
1
171
1
172
0
173
1
174
0
175
1
176
1
 91
1
178
0
145
0.0
170
5
171
1
172
0
173
0
174
0
175
1
176
1
 91
33
178
0
145
0.0
301
CELL_VALUE
 90
4
  1
 
304
ACVALUE_END
170
1
140
0.125
171
1
172
0
173
0
174
0
175
1
176
1
 91
33
178
0
145
0.0
301
CELL_VALUE
 90
4
  1
MODEL
304
ACVALUE_END
170
1
140
0.06
171
1
172
0
173
0
174
0
175
1
176
1
 91
33
178
0
145
0.0
301
CELL_VALUE
 90
4
  1
 
304
ACVALUE_END
170
1
140
0.125
171
1
172
0
173
0
174
0
175
1
176
1
 91
33
178
0
145
0.0
301
CELL_VALUE
 90
4
  1
 
304
ACVALUE_END
170
1
140
0.125
171
1
172
0
173
0
174
0
175
1
176
1
 91
33
178
0
145
0.0
301
CELL_VALUE
 90
4
  1
 
304
ACVALUE_END
170
1
140
0.125
171
1
172
0
173
0
174
0
175
1
176
1
 91
33
178
0
145
0.0
301
CELL_VALUE
 90
4
  1
 
304
ACVALUE_END
170
1
140
0.125
171
1
172
0
173
0
174
0
175
1
176
1
 91
33
178
0
145
0.0
301
CELL_VALUE
 90
4
  1
 
304
ACVALUE_END
170
1
140
0.125
  0
ACAD_TABLE
  5
27F
100
AcDbEntity
  8
0
 62
2
  6
CONTINUOUS
100
AcDbBlockReference
  2
*T2
 10
12.4237499994
 20
16.47875
 30
0.0
100
AcDbTable
342
       2E8
343
20B
 11
1.0
 21
0.0
 31
0.0
 90
22
 91
8
 92
3
 93
16
 94
0
 95
0
 96
0
 41
0.028
141
0.344
141
0.25
141
0.25
141
0.25
141
0.25
141
0.25
141
0.25
141
0.25
142
3.055
142
3.0
142
3.0
171
1
172
0
173
0
174
0
175
1
176
1
 91
33
178
0
145
0.0
301
CELL_VALUE
 90
4
  1
Technical Data
304
ACVALUE_END
170
5
140
0.145
171
1
172
0
173
0
174
0
175
1
176
1
 91
33
178
0
145
0.0
301
CELL_VALUE
 90
4
  1
U.S. Units
304
ACVALUE_END
170
5
140
0.145
171
1
172
0
173
0
174
0
175
1
176
1
 91
33
178
0
145
0.0
301
CELL_VALUE
 90
4
  1
Metric Units
304
ACVALUE_END
170
5
140
0.145
171
1
172
0
173
0
174
0
175
1
176
1
 91
33
178
0
145
0.0
301
CELL_VALUE
 90
4
  1
Cavity
304
ACVALUE_END
170
5
140
0.125
171
1
172
0
173
0
174
0
175
2
176
1
 91
33
178
0
145
0.0
301
CELL_VALUE
 90
4
  1
T-10A
304
ACVALUE_END
170
5
140
0.125
171
1
172
0
173
1
174
0
175
1
176
1
 91
1
178
0
145
0.0
170
1
171
1
172
0
173
0
174
0
175
1
176
1
 91
33
178
0
145
0.0
301
CELL_VALUE
 90
4
  1
Body Features
304
ACVALUE_END
170
5
140
0.125
171
1
172
0
173
0
174
0
175
2
176
1
 91
33
178
0
145
0.0
301
CELL_VALUE
 90
4
  1
P to T
304
ACVALUE_END
170
5
140
0.125
171
1
172
0
173
1
174
0
175
1
176
1
 91
1
178
0
145
0.0
170
1
171
1
172
0
173
0
174
0
175
1
176
1
 91
33
178
0
145
0.0
301
CELL_VALUE
 90
4
  1
Body Type
304
ACVALUE_END
170
5
140
0.125
171
1
172
0
173
0
174
0
175
2
176
1
 91
33
178
0
145
0.0
301
CELL_VALUE
 90
4
  1
Sandwich
304
ACVALUE_END
170
5
140
0.125
171
1
172
0
173
1
174
0
175
1
176
1
 91
1
178
0
145
0.0
170
1
171
1
172
0
173
0
174
0
175
1
176
1
 91
33
178
0
145
0.0
301
CELL_VALUE
 90
4
  1
Interface
304
ACVALUE_END
170
5
140
0.125
171
1
172
0
173
0
174
0
175
2
176
1
 91
33
178
0
145
0.0
301
CELL_VALUE
 90
4
  1
ISO 05
304
ACVALUE_END
170
5
140
0.125
171
1
172
0
173
1
174
0
175
1
176
1
 91
1
178
0
145
0.0
170
1
171
1
172
0
173
0
174
0
175
1
176
1
 91
33
178
0
145
0.0
301
CELL_VALUE
 90
4
  1
Open Cavity Quantity
304
ACVALUE_END
170
5
140
0.125
171
1
172
0
173
0
174
0
175
2
176
1
 91
33
178
0
145
0.0
301
CELL_VALUE
 90
4
  1
1
304
ACVALUE_END
170
5
140
0.125
171
1
172
0
173
1
174
0
175
1
176
1
 91
1
178
0
145
0.0
170
1
171
1
172
0
173
0
174
0
175
1
176
1
 91
33
178
0
145
0.0
301
CELL_VALUE
 90
4
  1
Stack Height
304
ACVALUE_END
170
5
140
0.125
171
1
172
0
173
0
174
0
175
1
176
1
 91
33
178
0
145
0.0
301
CELL_VALUE
 90
4
  1
1.94 in.
304
ACVALUE_END
170
5
140
0.125
171
1
172
0
173
0
174
0
175
1
176
1
 91
33
178
0
145
0.0
301
CELL_VALUE
 90
4
  1
49 mm
304
ACVALUE_END
170
5
140
0.125
171
1
172
0
173
0
174
0
175
1
176
1
 91
33
178
0
145
0.0
301
CELL_VALUE
 90
4
  1
Weight
304
ACVALUE_END
170
5
140
0.125
171
1
172
0
173
0
174
0
175
1
176
1
 91
33
178
0
145
0.0
301
CELL_VALUE
 90
4
  1
1.510 lb.
304
ACVALUE_END
170
5
140
0.125
171
1
172
0
173
0
174
0
175
1
176
1
 91
33
178
0
145
0.0
301
CELL_VALUE
 90
4
  1
0,685 kg.
304
ACVALUE_END
170
5
140
0.125
  0
ACAD_TABLE
  5
280
100
AcDbEntity
  8
0
 62
2
  6
CONTINUOUS
100
AcDbBlockReference
  2
*T3
 10
0.52125
 20
1.459
 30
0.0
100
AcDbTable
342
       2E8
343
20C
 11
1.0
 21
0.0
 31
0.0
 90
22
 91
3
 92
3
 93
16
 94
0
 95
0
 96
0
 41
0.05
141
0.34375
141
0.344
141
0.25
142
1.3
142
2.0
142
1.3
171
1
172
0
173
0
174
0
175
3
176
1
 91
33
178
0
145
0.0
301
CELL_VALUE
 90
4
  1
Port Headings
304
ACVALUE_END
170
5
140
0.145
171
1
172
0
173
1
174
0
175
1
176
1
 91
1
178
0
145
0.0
170
1
171
1
172
0
173
1
174
0
175
1
176
1
 91
1
178
0
145
0.0
170
1
171
1
172
0
173
0
174
0
175
1
176
1
 91
33
178
0
145
0.0
301
CELL_VALUE
 90
4
  1
Product
304
ACVALUE_END
170
5
140
0.145
171
1
172
0
173
0
174
0
175
1
176
1
 91
33
178
0
145
0.0
301
CELL_VALUE
 90
4
  1
Port
304
ACVALUE_END
170
5
140
0.145
171
1
172
0
173
0
174
0
175
1
176
1
 91
33
178
0
145
0.0
301
CELL_VALUE
 90
4
  1
Size
304
ACVALUE_END
170
5
140
0.145
171
1
172
0
173
0
174
0
175
1
176
1
 91
33
178
0
145
0.0
301
CELL_VALUE
 90
4
  1
W8S
304
ACVALUE_END
170
5
140
0.125
171
1
172
0
173
0
174
0
175
1
176
1
 91
33
178
0
145
0.0
301
CELL_VALUE
 90
4
  1
Gage Port (Plugged)
304
ACVALUE_END
170
5
140
0.125
171
1
172
0
173
0
174
0
175
1
176
1
 91
33
178
0
145
0.0
301
CELL_VALUE
 90
4
  1
SAE 4
304
ACVALUE_END
170
5
140
0.125
  0
MTEXT
  5
281
100
AcDbEntity
  8
0
100
AcDbMText
 62
2
  6
CONTINUOUS
  7
STANDARD
 71
1
 72
1
 10
0.52125
 20
5.75995
 30
0.0
 11
1.0
 21
0.0
 31
0.0
 44
0.6
  3
Notes\P \P1. Important: Carefully consider\P   the maximum system pressure. The\P   pressure rating of the manifold is\P   dependent on the manifold material,\P   with the port type/size a secondary\P   consideration. Manifolds\P   constructed of alu
  1
minum are not\P   rated for pressures higher than\P   3000 psi (210 bar), regardless of\P   the port type/size specified.
 40
0.1
 41
3.04
  0
LINE
  5
282
100
AcDbEntity
  8
0
100
AcDbLine
 62
7
  6
CONTINUOUS
 10
0.30125
 20
0.30125
 11
0.30125
 21
16.69875
  0
LINE
  5
283
100
AcDbEntity
  8
0
100
AcDbLine
 62
7
  6
CONTINUOUS
 10
0.30125
 20
0.30125
 11
21.69875
 21
0.30125
  0
LINE
  5
284
100
AcDbEntity
  8
0
100
AcDbLine
 62
7
  6
CONTINUOUS
 10
0.30125
 20
16.69875
 11
21.69875
 21
16.69875
  0
LINE
  5
285
100
AcDbEntity
  8
0
100
AcDbLine
 62
7
  6
CONTINUOUS
 10
21.69875
 20
0.30125
 11
21.69875
 21
16.69875
  0
LINE
  5
286
100
AcDbEntity
  8
0
100
AcDbLine
 62
7
  6
CONTINUOUS
 10
9.7028827658
 20
10.2651892011
 11
10.002077335
 21
10.5541889798
  0
LINE
  5
287
100
AcDbEntity
  8
0
100
AcDbLine
 62
7
  6
CONTINUOUS
 10
9.7328264682
 20
10.2930563007
 11
10.0320210374
 21
10.5820560793
  0
LINE
  5
288
100
AcDbEntity
  8
0
100
AcDbLine
 62
7
  6
CONTINUOUS
 10
10.002077335
 20
10.5541889798
 11
10.0030121251
 21
10.5550751228
  0
LINE
  5
289
100
AcDbEntity
  8
0
100
AcDbLine
 62
7
  6
CONTINUOUS
 10
10.0320210374
 20
10.5820560793
 11
10.0328795819
 21
10.5828697967
  0
LINE
  5
28A
100
AcDbEntity
  8
0
100
AcDbLine
 62
7
  6
CONTINUOUS
 10
10.0320136158
 20
10.5820640544
 11
10.002077335
 21
10.5541889798
  0
LINE
  5
28B
100
AcDbEntity
  8
0
100
AcDbLine
 62
7
  6
CONTINUOUS
 10
9.7328264682
 20
10.2930563007
 11
9.7028827658
 21
10.2651892011
  0
LINE
  5
28C
100
AcDbEntity
  8
0
100
AcDbLine
 62
7
  6
CONTINUOUS
 10
11.9566119114
 20
6.3519587167
 11
9.5417972026
 21
6.5194266856
  0
LINE
  5
28D
100
AcDbEntity
  8
0
100
AcDbLine
 62
7
  6
CONTINUOUS
 10
9.5417972026
 20
9.4172043937
 11
9.6901049721
 21
9.560458707
  0
LINE
  5
28E
100
AcDbEntity
  8
0
100
AcDbLine
 62
7
  6
CONTINUOUS
 10
9.5417972026
 20
9.4172043937
 11
9.5417972026
 21
6.5194266856
  0
LINE
  5
28F
100
AcDbEntity
  8
0
100
AcDbLine
 62
7
  6
CONTINUOUS
 10
9.6901049721
 20
9.4856809133
 11
9.6901049721
 21
10.2400690058
  0
LINE
  5
290
100
AcDbEntity
  8
0
100
AcDbLine
 62
7
  6
CONTINUOUS
 10
9.976071294
 20
10.1840127741
 11
9.9680479103
 21
10.1463190776
  0
LINE
  5
291
100
AcDbEntity
  8
0
100
AcDbLine
 62
7
  6
CONTINUOUS
 10
9.9680479103
 20
10.1463190776
 11
9.9680479103
 21
9.3919309852
  0
LINE
  5
292
100
AcDbEntity
  8
0
100
AcDbLine
 62
7
  6
CONTINUOUS
 10
12.266207606
 20
10.4271147145
 11
11.9670130367
 21
10.1381149359
  0
LINE
  5
293
100
AcDbEntity
  8
0
100
AcDbLine
 62
7
  6
CONTINUOUS
 10
12.2961513084
 20
10.3950944093
 11
11.9969567391
 21
10.1060946307
  0
LINE
  5
294
100
AcDbEntity
  8
0
100
AcDbLine
 62
7
  6
CONTINUOUS
 10
12.2961513084
 20
9.6407063169
 11
11.9969567391
 21
9.3517065383
  0
LINE
  5
295
100
AcDbEntity
  8
0
100
AcDbLine
 62
7
  6
CONTINUOUS
 10
12.4582027974
 20
9.7342360447
 11
11.9566119114
 21
9.2497364249
  0
LINE
  5
296
100
AcDbEntity
  8
0
100
AcDbLine
 62
7
  6
CONTINUOUS
 10
11.5457008548
 20
10.0751585943
 11
11.537677471
 21
10.0374648979
  0
LINE
  5
297
100
AcDbEntity
  8
0
100
AcDbLine
 62
7
  6
CONTINUOUS
 10
11.537677471
 20
10.0374648979
 11
11.537677471
 21
9.2830768054
  0
LINE
  5
298
100
AcDbEntity
  8
0
100
AcDbLine
 62
7
  6
CONTINUOUS
 10
11.9566119114
 20
9.2497364249
 11
9.5417972026
 21
9.4172043937
  0
LINE
  5
299
100
AcDbEntity
  8
0
100
AcDbLine
 62
7
  6
CONTINUOUS
 10
11.537677471
 20
9.2830768054
 11
9.9680479103
 21
9.3919309852
  0
LINE
  5
29A
100
AcDbEntity
  8
0
100
AcDbLine
 62
7
  6
CONTINUOUS
 10
11.9566119114
 20
9.2497364249
 11
11.9566119114
 21
6.3519587167
  0
LINE
  5
29B
100
AcDbEntity
  8
0
100
AcDbLine
 62
7
  6
CONTINUOUS
 10
11.9969567391
 20
10.1060946307
 11
11.9969567391
 21
9.3517065383
  0
LINE
  5
29C
100
AcDbEntity
  8
0
100
AcDbLine
 62
7
  6
CONTINUOUS
 10
12.2961513084
 20
10.3950944093
 11
12.2961513084
 21
9.6407063169
  0
LINE
  5
29D
100
AcDbEntity
  8
0
100
AcDbLine
 62
7
  6
CONTINUOUS
 10
12.308929102
 20
9.6658265122
 11
12.308929102
 21
10.4202146047
  0
LINE
  5
29E
100
AcDbEntity
  8
0
100
AcDbLine
 62
7
  6
CONTINUOUS
 10
12.308929102
 20
9.7445882106
 11
12.4582027974
 21
9.7342360447
  0
LINE
  5
29F
100
AcDbEntity
  8
0
100
AcDbLine
 62
7
  6
CONTINUOUS
 10
12.4582027974
 20
9.7342360447
 11
12.4582027974
 21
6.8364583365
  0
LINE
  5
2A0
100
AcDbEntity
  8
0
100
AcDbLine
 62
7
  6
CONTINUOUS
 10
11.537677471
 20
10.0374648979
 11
9.9680479103
 21
10.1463190776
  0
LINE
  5
2A1
100
AcDbEntity
  8
0
100
AcDbLine
 62
7
  6
CONTINUOUS
 10
11.5457008548
 20
10.0751585943
 11
9.976071294
 21
10.1840127741
  0
LINE
  5
2A2
100
AcDbEntity
  8
0
100
AcDbLine
 62
7
  6
CONTINUOUS
 10
11.9670130367
 20
10.1381149359
 11
11.9969567391
 21
10.1060946307
  0
LINE
  5
2A3
100
AcDbEntity
  8
0
100
AcDbLine
 62
7
  6
CONTINUOUS
 10
12.4582027974
 20
6.8364583365
 11
11.9566119114
 21
6.3519587167
  0
LINE
  5
2A4
100
AcDbEntity
  8
0
100
AcDbLine
 62
7
  6
CONTINUOUS
 10
10.4533332193
 20
10.6450124209
 11
12.0229627801
 21
10.5361582412
  0
LINE
  5
2A5
100
AcDbEntity
  8
0
100
AcDbLine
 62
7
  6
CONTINUOUS
 10
12.266207606
 20
10.4271147145
 11
12.2961513084
 21
10.3950944093
  0
LINE
  5
2A6
100
AcDbEntity
  8
0
100
AcDbLine
 62
7
  6
CONTINUOUS
 10
12.2952165182
 20
10.446220943
 11
12.2653500918
 21
10.4740147881
  0
SPLINE
  5
2A7
100
AcDbEntity
  8
0
100
AcDbSpline
 62
7
  6
CONTINUOUS
 70
0
 71
3
 72
56
 73
52
 74
0
 42
0.0000001
 43
0.0000001
 44
0.0000000001
 40
0.0
 40
0.0
 40
0.0
 40
0.0
 40
0.031072346
 40
0.0465152317
 40
0.0618873124
 40
0.0924244558
 40
0.1227285839
 40
0.1378086476
 40
0.152843805
 40
0.1678401144
 40
0.1828038429
 40
0.2126503375
 40
0.2275575076
 40
0.2424602021
 40
0.2573657768
 40
0.2722815596
 40
0.2872148075
 40
0.3021724288
 40
0.3171611944
 40
0.3321875086
 40
0.3472571497
 40
0.3623756664
 40
0.3927682644
 40
0.4234071833
 40
0.4388308412
 40
0.4543232404
 40
0.485507794
 40
0.5169699549
 40
0.5328065592
 40
0.5487076996
 40
0.5806824155
 40
0.6128739827
 40
0.6290441713
 40
0.6452543848
 40
0.6777639099
 40
0.7103643313
 40
0.7266873147
 40
0.7430142246
 40
0.7756456102
 40
0.791945892
 40
0.80822475
 40
0.8244760382
 40
0.8406940716
 40
0.8568734333
 40
0.8730088969
 40
0.8890954876
 40
0.905128265
 40
0.9370074718
 40
0.9528594107
 40
0.9686481654
 40
1.0
 40
1.0
 40
1.0
 40
1.0
 10
10.365265044
 20
7.9125319118
 30
0.0
 10
10.3652649093
 20
7.9045182813
 30
0.0
 10
10.3646767932
 20
7.8925105411
 30
0.0
 10
10.3627073181
 20
7.8766667582
 30
0.0
 10
10.3599685204
 20
7.8610766075
 30
0.0
 10
10.3551071962
 20
7.8419948112
 30
0.0
 10
10.3483460762
 20
7.8235794044
 30
0.0
 10
10.3418543225
 20
7.8094072835
 30
0.0
 10
10.3364629267
 20
7.7990914247
 30
0.0
 10
10.3305561063
 20
7.7890963978
 30
0.0
 10
10.3220210101
 20
7.7762424943
 30
0.0
 10
10.3124963325
 20
7.7640961638
 30
0.0
 10
10.3020705086
 20
7.7527744187
 30
0.0
 10
10.2938172816
 20
7.7447116564
 30
0.0
 10
10.2851489367
 20
7.7370942795
 30
0.0
 10
10.276084284
 20
7.7299401432
 30
0.0
 10
10.2666441243
 20
7.7232661832
 30
0.0
 10
10.2568506262
 20
7.7170871095
 30
0.0
 10
10.2467255244
 20
7.7114185433
 30
0.0
 10
10.2362921902
 20
7.7062741938
 30
0.0
 10
10.2255746974
 20
7.7016655421
 30
0.0
 10
10.210915579
 20
7.696243379
 30
0.0
 10
10.1919889814
 20
7.6908644199
 30
0.0
 10
10.1725370546
 20
7.6874258206
 30
0.0
 10
10.1567352897
 20
7.6858424382
 30
0.0
 10
10.1407335323
 20
7.6850424446
 30
0.0
 10
10.1205525973
 20
7.6855355517
 30
0.0
 10
10.1004291079
 20
7.6880060338
 30
0.0
 10
10.0844304807
 20
7.691150937
 30
0.0
 10
10.0684722123
 20
7.6950894661
 30
0.0
 10
10.0487964084
 20
7.7014628994
 30
0.0
 10
10.0297423489
 20
7.709681214
 30
0.0
 10
10.0149410659
 20
7.7173248714
 30
0.0
 10
10.0004385044
 20
7.7256866964
 30
0.0
 10
9.9830100345
 20
7.7374093062
 30
0.0
 10
9.9667057735
 20
7.7506964395
 30
0.0
 10
9.954413879
 20
7.7621974804
 30
0.0
 10
9.942654734
 20
7.7742529654
 30
0.0
 10
9.9317348606
 20
7.7870966142
 30
0.0
 10
9.9217432313
 20
7.8006302457
 30
0.0
 10
9.9147314602
 20
7.811096813
 30
0.0
 10
9.9082188762
 20
7.8218559035
 30
0.0
 10
9.9022209966
 20
7.8328810891
 30
0.0
 10
9.8967512266
 20
7.8441444249
 30
0.0
 10
9.891823909
 20
7.8556184612
 30
0.0
 10
9.8874502554
 20
7.8672748123
 30
0.0
 10
9.8823796118
 20
7.8829867419
 30
0.0
 10
9.8784392792
 20
7.8989828349
 30
0.0
 10
9.8756699304
 20
7.9151343884
 30
0.0
 10
9.8736975231
 20
7.9312646452
 30
0.0
 10
9.8730963525
 20
7.9434327176
 30
0.0
 10
9.8730962051
 20
7.9515184289
 30
0.0
  0
SPLINE
  5
2A8
100
AcDbEntity
  8
0
100
AcDbSpline
 62
7
  6
CONTINUOUS
 70
0
 71
3
 72
56
 73
52
 74
0
 42
0.0000001
 43
0.0000001
 44
0.0000000001
 40
0.0
 40
0.0
 40
0.0
 40
0.0
 40
0.0310723444
 40
0.0465152282
 40
0.0618873079
 40
0.0924244521
 40
0.1227285817
 40
0.1378086463
 40
0.1528438045
 40
0.1678401149
 40
0.1828038444
 40
0.2126503405
 40
0.227557511
 40
0.2424602055
 40
0.2573657799
 40
0.272281562
 40
0.2872148089
 40
0.3021724291
 40
0.3171611937
 40
0.3321875071
 40
0.3472571476
 40
0.362375664
 40
0.3927682619
 40
0.4234071812
 40
0.4388308394
 40
0.454323239
 40
0.4855077933
 40
0.5169699546
 40
0.532806559
 40
0.5487076994
 40
0.5806824153
 40
0.6128739824
 40
0.6290441709
 40
0.6452543843
 40
0.6777639093
 40
0.7103643307
 40
0.7266873141
 40
0.7430142241
 40
0.7756456098
 40
0.7919458916
 40
0.8082247496
 40
0.8244760379
 40
0.8406940714
 40
0.8568734332
 40
0.8730088968
 40
0.8890954876
 40
0.905128265
 40
0.9370074719
 40
0.9528594107
 40
0.9686481654
 40
1.0
 40
1.0
 40
1.0
 40
1.0
 10
9.873096203
 20
7.9515183282
 30
0.0
 10
9.8730963377
 20
7.9595319583
 30
0.0
 10
9.8736844534
 20
7.9715396977
 30
0.0
 10
9.8756539286
 20
7.9873834793
 30
0.0
 10
9.8783927261
 20
8.0029736296
 30
0.0
 10
9.8832540501
 20
8.0220554263
 30
0.0
 10
9.89001517
 20
8.040470834
 30
0.0
 10
9.8965069241
 20
8.0546429556
 30
0.0
 10
9.9018983203
 20
8.064958815
 30
0.0
 10
9.907805141
 20
8.0749538426
 30
0.0
 10
9.9163402377
 20
8.0878077468
 30
0.0
 10
9.9258649159
 20
8.0999540777
 30
0.0
 10
9.9362907402
 20
8.1112758232
 30
0.0
 10
9.9445439674
 20
8.1193385854
 30
0.0
 10
9.9532123122
 20
8.1269559619
 30
0.0
 10
9.9622769645
 20
8.134110098
 30
0.0
 10
9.9717171236
 20
8.1407840575
 30
0.0
 10
9.9815106211
 20
8.1469631306
 30
0.0
 10
9.9916357222
 20
8.1526316965
 30
0.0
 10
10.0020690559
 20
8.1577760457
 30
0.0
 10
10.0127865482
 20
8.1623846973
 30
0.0
 10
10.0274456663
 20
8.1678068604
 30
0.0
 10
10.0463722639
 20
8.1731858197
 30
0.0
 10
10.0658241909
 20
8.1766244191
 30
0.0
 10
10.0816259561
 20
8.1782078017
 30
0.0
 10
10.0976277138
 20
8.1790077953
 30
0.0
 10
10.1178086491
 20
8.1785146883
 30
0.0
 10
10.1379321388
 20
8.1760442062
 30
0.0
 10
10.1539307662
 20
8.172899303
 30
0.0
 10
10.1698890346
 20
8.1689607739
 30
0.0
 10
10.1895648384
 20
8.1625873406
 30
0.0
 10
10.208618898
 20
8.1543690261
 30
0.0
 10
10.2234201809
 20
8.1467253687
 30
0.0
 10
10.2379227423
 20
8.1383635437
 30
0.0
 10
10.2553512122
 20
8.126640934
 30
0.0
 10
10.2716554732
 20
8.1133538007
 30
0.0
 10
10.2839473677
 20
8.1018527598
 30
0.0
 10
10.2957065127
 20
8.0897972748
 30
0.0
 10
10.3066263862
 20
8.076953626
 30
0.0
 10
10.3166180155
 20
8.0634199945
 30
0.0
 10
10.3236297867
 20
8.0529534271
 30
0.0
 10
10.3301423707
 20
8.0421943367
 30
0.0
 10
10.3361402503
 20
8.031169151
 30
0.0
 10
10.3416100204
 20
8.0199058152
 30
0.0
 10
10.3465373379
 20
8.0084317788
 30
0.0
 10
10.3509109916
 20
7.9967754277
 30
0.0
 10
10.3559816352
 20
7.9810634981
 30
0.0
 10
10.3599219678
 20
7.965067405
 30
0.0
 10
10.3626913166
 20
7.9489158515
 30
0.0
 10
10.364663724
 20
7.9327855947
 30
0.0
 10
10.3652648945
 20
7.9206175223
 30
0.0
 10
10.3652650419
 20
7.9125318111
 30
0.0
  0
SPLINE
  5
2A9
100
AcDbEntity
  8
0
100
AcDbSpline
 62
7
  6
CONTINUOUS
 70
0
 71
3
 72
56
 73
52
 74
0
 42
0.0000001
 43
0.0000001
 44
0.0000000001
 40
0.0
 40
0.0
 40
0.0
 40
0.0
 40
0.031072346
 40
0.0465152317
 40
0.0618873124
 40
0.0924244558
 40
0.1227285839
 40
0.1378086476
 40
0.152843805
 40
0.1678401144
 40
0.1828038429
 40
0.2126503375
 40
0.2275575076
 40
0.2424602021
 40
0.2573657768
 40
0.2722815596
 40
0.2872148075
 40
0.3021724288
 40
0.3171611944
 40
0.3321875086
 40
0.3472571497
 40
0.3623756664
 40
0.3927682644
 40
0.4234071833
 40
0.4388308412
 40
0.4543232404
 40
0.485507794
 40
0.5169699549
 40
0.5328065592
 40
0.5487076996
 40
0.5806824155
 40
0.6128739827
 40
0.6290441713
 40
0.6452543848
 40
0.6777639099
 40
0.7103643313
 40
0.7266873147
 40
0.7430142246
 40
0.7756456102
 40
0.791945892
 40
0.80822475
 40
0.8244760382
 40
0.8406940716
 40
0.8568734333
 40
0.8730088969
 40
0.8890954876
 40
0.905128265
 40
0.9370074718
 40
0.9528594107
 40
0.9686481654
 40
1.0
 40
1.0
 40
1.0
 40
1.0
 10
11.3611346474
 20
6.9374296765
 30
0.0
 10
11.3611345127
 20
6.929416046
 30
0.0
 10
11.3605463966
 20
6.9174083058
 30
0.0
 10
11.3585769215
 20
6.9015645229
 30
0.0
 10
11.3558381238
 20
6.8859743722
 30
0.0
 10
11.3509767996
 20
6.8668925759
 30
0.0
 10
11.3442156797
 20
6.8484771691
 30
0.0
 10
11.3377239259
 20
6.8343050482
 30
0.0
 10
11.3323325301
 20
6.8239891894
 30
0.0
 10
11.3264257097
 20
6.8139941625
 30
0.0
 10
11.3178906135
 20
6.801140259
 30
0.0
 10
11.3083659359
 20
6.7889939285
 30
0.0
 10
11.297940112
 20
6.7776721834
 30
0.0
 10
11.289686885
 20
6.7696094211
 30
0.0
 10
11.2810185401
 20
6.7619920442
 30
0.0
 10
11.2719538874
 20
6.7548379079
 30
0.0
 10
11.2625137277
 20
6.7481639479
 30
0.0
 10
11.2527202296
 20
6.7419848742
 30
0.0
 10
11.2425951279
 20
6.736316308
 30
0.0
 10
11.2321617936
 20
6.7311719585
 30
0.0
 10
11.2214443008
 20
6.7265633068
 30
0.0
 10
11.2067851824
 20
6.7211411437
 30
0.0
 10
11.1878585848
 20
6.7157621846
 30
0.0
 10
11.168406658
 20
6.7123235853
 30
0.0
 10
11.1526048931
 20
6.7107402029
 30
0.0
 10
11.1366031357
 20
6.7099402093
 30
0.0
 10
11.1164222007
 20
6.7104333164
 30
0.0
 10
11.0962987114
 20
6.7129037985
 30
0.0
 10
11.0803000841
 20
6.7160487017
 30
0.0
 10
11.0643418157
 20
6.7199872308
 30
0.0
 10
11.0446660119
 20
6.7263606641
 30
0.0
 10
11.0256119523
 20
6.7345789786
 30
0.0
 10
11.0108106693
 20
6.7422226361
 30
0.0
 10
10.9963081078
 20
6.7505844611
 30
0.0
 10
10.9788796379
 20
6.7623070709
 30
0.0
 10
10.9625753769
 20
6.7755942042
 30
0.0
 10
10.9502834825
 20
6.7870952451
 30
0.0
 10
10.9385243374
 20
6.7991507301
 30
0.0
 10
10.927604464
 20
6.8119943789
 30
0.0
 10
10.9176128347
 20
6.8255280104
 30
0.0
 10
10.9106010636
 20
6.8359945777
 30
0.0
 10
10.9040884796
 20
6.8467536682
 30
0.0
 10
10.8980906
 20
6.8577788538
 30
0.0
 10
10.89262083
 20
6.8690421896
 30
0.0
 10
10.8876935125
 20
6.8805162259
 30
0.0
 10
10.8833198589
 20
6.892172577
 30
0.0
 10
10.8782492152
 20
6.9078845066
 30
0.0
 10
10.8743088826
 20
6.9238805996
 30
0.0
 10
10.8715395338
 20
6.9400321531
 30
0.0
 10
10.8695671265
 20
6.9561624099
 30
0.0
 10
10.8689659559
 20
6.9683304823
 30
0.0
 10
10.8689658085
 20
6.9764161936
 30
0.0
  0
SPLINE
  5
2AA
100
AcDbEntity
  8
0
100
AcDbSpline
 62
7
  6
CONTINUOUS
 70
0
 71
3
 72
56
 73
52
 74
0
 42
0.0000001
 43
0.0000001
 44
0.0000000001
 40
0.0
 40
0.0
 40
0.0
 40
0.0
 40
0.0310723444
 40
0.0465152282
 40
0.0618873079
 40
0.0924244521
 40
0.1227285817
 40
0.1378086463
 40
0.1528438045
 40
0.1678401149
 40
0.1828038444
 40
0.2126503405
 40
0.227557511
 40
0.2424602055
 40
0.2573657799
 40
0.272281562
 40
0.2872148089
 40
0.3021724291
 40
0.3171611937
 40
0.3321875071
 40
0.3472571476
 40
0.362375664
 40
0.3927682619
 40
0.4234071812
 40
0.4388308394
 40
0.454323239
 40
0.4855077933
 40
0.5169699546
 40
0.532806559
 40
0.5487076994
 40
0.5806824153
 40
0.6128739824
 40
0.6290441709
 40
0.6452543843
 40
0.6777639093
 40
0.7103643307
 40
0.7266873141
 40
0.7430142241
 40
0.7756456098
 40
0.7919458916
 40
0.8082247496
 40
0.8244760379
 40
0.8406940714
 40
0.8568734332
 40
0.8730088968
 40
0.8890954876
 40
0.905128265
 40
0.9370074719
 40
0.9528594107
 40
0.9686481654
 40
1.0
 40
1.0
 40
1.0
 40
1.0
 10
10.8689658065
 20
6.9764160929
 30
0.0
 10
10.8689659411
 20
6.984429723
 30
0.0
 10
10.8695540568
 20
6.9964374624
 30
0.0
 10
10.871523532
 20
7.012281244
 30
0.0
 10
10.8742623295
 20
7.0278713943
 30
0.0
 10
10.8791236535
 20
7.046953191
 30
0.0
 10
10.8858847734
 20
7.0653685987
 30
0.0
 10
10.8923765275
 20
7.0795407203
 30
0.0
 10
10.8977679237
 20
7.0898565797
 30
0.0
 10
10.9036747445
 20
7.0998516073
 30
0.0
 10
10.9122098411
 20
7.1127055115
 30
0.0
 10
10.9217345194
 20
7.1248518424
 30
0.0
 10
10.9321603436
 20
7.1361735878
 30
0.0
 10
10.9404135708
 20
7.1442363501
 30
0.0
 10
10.9490819156
 20
7.1518537266
 30
0.0
 10
10.9581465679
 20
7.1590078627
 30
0.0
 10
10.967586727
 20
7.1656818221
 30
0.0
 10
10.9773802245
 20
7.1718608953
 30
0.0
 10
10.9875053256
 20
7.1775294612
 30
0.0
 10
10.9979386593
 20
7.1826738104
 30
0.0
 10
11.0086561516
 20
7.187282462
 30
0.0
 10
11.0233152697
 20
7.1927046251
 30
0.0
 10
11.0422418673
 20
7.1980835844
 30
0.0
 10
11.0616937943
 20
7.2015221838
 30
0.0
 10
11.0774955595
 20
7.2031055664
 30
0.0
 10
11.0934973172
 20
7.20390556
 30
0.0
 10
11.1136782526
 20
7.203412453
 30
0.0
 10
11.1338017422
 20
7.2009419709
 30
0.0
 10
11.1498003696
 20
7.1977970677
 30
0.0
 10
11.165758638
 20
7.1938585386
 30
0.0
 10
11.1854344419
 20
7.1874851053
 30
0.0
 10
11.2044885014
 20
7.1792667908
 30
0.0
 10
11.2192897843
 20
7.1716231334
 30
0.0
 10
11.2337923457
 20
7.1632613084
 30
0.0
 10
11.2512208156
 20
7.1515386987
 30
0.0
 10
11.2675250766
 20
7.1382515654
 30
0.0
 10
11.2798169711
 20
7.1267505245
 30
0.0
 10
11.2915761162
 20
7.1146950395
 30
0.0
 10
11.3024959896
 20
7.1018513907
 30
0.0
 10
11.3124876189
 20
7.0883177592
 30
0.0
 10
11.3194993901
 20
7.0778511918
 30
0.0
 10
11.3260119741
 20
7.0670921013
 30
0.0
 10
11.3320098538
 20
7.0560669157
 30
0.0
 10
11.3374796238
 20
7.0448035799
 30
0.0
 10
11.3424069414
 20
7.0333295435
 30
0.0
 10
11.346780595
 20
7.0216731924
 30
0.0
 10
11.3518512387
 20
7.0059612628
 30
0.0
 10
11.3557915712
 20
6.9899651697
 30
0.0
 10
11.3585609201
 20
6.9738136162
 30
0.0
 10
11.3605333274
 20
6.9576833594
 30
0.0
 10
11.3611344979
 20
6.945515287
 30
0.0
 10
11.3611346453
 20
6.9374295758
 30
0.0
  0
SPLINE
  5
2AB
100
AcDbEntity
  8
0
100
AcDbSpline
 62
7
  6
CONTINUOUS
 70
0
 71
3
 72
56
 73
52
 74
0
 42
0.0000001
 43
0.0000001
 44
0.0000000001
 40
0.0
 40
0.0
 40
0.0
 40
0.0
 40
0.031072346
 40
0.0465152317
 40
0.0618873124
 40
0.0924244558
 40
0.1227285839
 40
0.1378086476
 40
0.152843805
 40
0.1678401144
 40
0.1828038429
 40
0.2126503375
 40
0.2275575076
 40
0.2424602021
 40
0.2573657768
 40
0.2722815596
 40
0.2872148075
 40
0.3021724288
 40
0.3171611944
 40
0.3321875086
 40
0.3472571497
 40
0.3623756664
 40
0.3927682644
 40
0.4234071833
 40
0.4388308412
 40
0.4543232404
 40
0.485507794
 40
0.5169699549
 40
0.5328065592
 40
0.5487076996
 40
0.5806824155
 40
0.6128739827
 40
0.6290441713
 40
0.6452543848
 40
0.6777639099
 40
0.7103643313
 40
0.7266873147
 40
0.7430142246
 40
0.7756456102
 40
0.791945892
 40
0.80822475
 40
0.8244760382
 40
0.8406940716
 40
0.8568734333
 40
0.8730088969
 40
0.8890954876
 40
0.905128265
 40
0.9370074718
 40
0.9528594107
 40
0.9686481654
 40
1.0
 40
1.0
 40
1.0
 40
1.0
 10
10.9390250013
 20
7.4796096264
 30
0.0
 10
10.9390248666
 20
7.4715959959
 30
0.0
 10
10.9384367505
 20
7.4595882557
 30
0.0
 10
10.9364672754
 20
7.4437444728
 30
0.0
 10
10.9337284777
 20
7.428154322
 30
0.0
 10
10.9288671535
 20
7.4090725258
 30
0.0
 10
10.9221060335
 20
7.3906571189
 30
0.0
 10
10.9156142798
 20
7.3764849981
 30
0.0
 10
10.910222884
 20
7.3661691393
 30
0.0
 10
10.9043160636
 20
7.3561741124
 30
0.0
 10
10.8957809674
 20
7.3433202088
 30
0.0
 10
10.8862562898
 20
7.3311738784
 30
0.0
 10
10.8758304659
 20
7.3198521333
 30
0.0
 10
10.8675772389
 20
7.311789371
 30
0.0
 10
10.858908894
 20
7.3041719941
 30
0.0
 10
10.8498442413
 20
7.2970178578
 30
0.0
 10
10.8404040816
 20
7.2903438978
 30
0.0
 10
10.8306105835
 20
7.2841648241
 30
0.0
 10
10.8204854818
 20
7.2784962578
 30
0.0
 10
10.8100521475
 20
7.2733519084
 30
0.0
 10
10.7993346547
 20
7.2687432567
 30
0.0
 10
10.7846755363
 20
7.2633210936
 30
0.0
 10
10.7657489387
 20
7.2579421345
 30
0.0
 10
10.7462970119
 20
7.2545035352
 30
0.0
 10
10.730495247
 20
7.2529201528
 30
0.0
 10
10.7144934896
 20
7.2521201592
 30
0.0
 10
10.6943125546
 20
7.2526132663
 30
0.0
 10
10.6741890653
 20
7.2550837484
 30
0.0
 10
10.658190438
 20
7.2582286516
 30
0.0
 10
10.6422321696
 20
7.2621671807
 30
0.0
 10
10.6225563658
 20
7.268540614
 30
0.0
 10
10.6035023062
 20
7.2767589285
 30
0.0
 10
10.5887010232
 20
7.2844025859
 30
0.0
 10
10.5741984617
 20
7.292764411
 30
0.0
 10
10.5567699918
 20
7.3044870208
 30
0.0
 10
10.5404657308
 20
7.3177741541
 30
0.0
 10
10.5281738363
 20
7.329275195
 30
0.0
 10
10.5164146913
 20
7.34133068
 30
0.0
 10
10.5054948179
 20
7.3541743288
 30
0.0
 10
10.4955031886
 20
7.3677079603
 30
0.0
 10
10.4884914175
 20
7.3781745276
 30
0.0
 10
10.4819788335
 20
7.3889336181
 30
0.0
 10
10.4759809539
 20
7.3999588037
 30
0.0
 10
10.4705111839
 20
7.4112221395
 30
0.0
 10
10.4655838664
 20
7.4226961758
 30
0.0
 10
10.4612102128
 20
7.4343525269
 30
0.0
 10
10.4561395691
 20
7.4500644565
 30
0.0
 10
10.4521992365
 20
7.4660605495
 30
0.0
 10
10.4494298877
 20
7.482212103
 30
0.0
 10
10.4474574804
 20
7.4983423598
 30
0.0
 10
10.4468563098
 20
7.5105104322
 30
0.0
 10
10.4468561624
 20
7.5185961435
 30
0.0
  0
SPLINE
  5
2AC
100
AcDbEntity
  8
0
100
AcDbSpline
 62
7
  6
CONTINUOUS
 70
0
 71
3
 72
56
 73
52
 74
0
 42
0.0000001
 43
0.0000001
 44
0.0000000001
 40
0.0
 40
0.0
 40
0.0
 40
0.0
 40
0.0310723444
 40
0.0465152282
 40
0.0618873079
 40
0.0924244521
 40
0.1227285817
 40
0.1378086463
 40
0.1528438045
 40
0.1678401149
 40
0.1828038444
 40
0.2126503405
 40
0.227557511
 40
0.2424602055
 40
0.2573657799
 40
0.272281562
 40
0.2872148089
 40
0.3021724291
 40
0.3171611937
 40
0.3321875071
 40
0.3472571476
 40
0.362375664
 40
0.3927682619
 40
0.4234071812
 40
0.4388308394
 40
0.454323239
 40
0.4855077933
 40
0.5169699546
 40
0.532806559
 40
0.5487076994
 40
0.5806824153
 40
0.6128739824
 40
0.6290441709
 40
0.6452543843
 40
0.6777639093
 40
0.7103643307
 40
0.7266873141
 40
0.7430142241
 40
0.7756456098
 40
0.7919458916
 40
0.8082247496
 40
0.8244760379
 40
0.8406940714
 40
0.8568734332
 40
0.8730088968
 40
0.8890954876
 40
0.905128265
 40
0.9370074719
 40
0.9528594107
 40
0.9686481654
 40
1.0
 40
1.0
 40
1.0
 40
1.0
 10
10.4468561604
 20
7.5185960428
 30
0.0
 10
10.446856295
 20
7.5266096729
 30
0.0
 10
10.4474444107
 20
7.5386174122
 30
0.0
 10
10.4494138859
 20
7.5544611939
 30
0.0
 10
10.4521526834
 20
7.5700513442
 30
0.0
 10
10.4570140074
 20
7.5891331409
 30
0.0
 10
10.4637751273
 20
7.6075485486
 30
0.0
 10
10.4702668814
 20
7.6217206702
 30
0.0
 10
10.4756582776
 20
7.6320365296
 30
0.0
 10
10.4815650983
 20
7.6420315572
 30
0.0
 10
10.490100195
 20
7.6548854614
 30
0.0
 10
10.4996248733
 20
7.6670317923
 30
0.0
 10
10.5100506975
 20
7.6783535377
 30
0.0
 10
10.5183039247
 20
7.6864163
 30
0.0
 10
10.5269722695
 20
7.6940336765
 30
0.0
 10
10.5360369218
 20
7.7011878125
 30
0.0
 10
10.5454770809
 20
7.707861772
 30
0.0
 10
10.5552705784
 20
7.7140408452
 30
0.0
 10
10.5653956795
 20
7.7197094111
 30
0.0
 10
10.5758290132
 20
7.7248537603
 30
0.0
 10
10.5865465055
 20
7.7294624119
 30
0.0
 10
10.6012056236
 20
7.7348845749
 30
0.0
 10
10.6201322212
 20
7.7402635343
 30
0.0
 10
10.6395841482
 20
7.7437021337
 30
0.0
 10
10.6553859134
 20
7.7452855163
 30
0.0
 10
10.6713876711
 20
7.7460855099
 30
0.0
 10
10.6915686065
 20
7.7455924029
 30
0.0
 10
10.7116920961
 20
7.7431219208
 30
0.0
 10
10.7276907235
 20
7.7399770176
 30
0.0
 10
10.7436489919
 20
7.7360384884
 30
0.0
 10
10.7633247958
 20
7.7296650552
 30
0.0
 10
10.7823788553
 20
7.7214467407
 30
0.0
 10
10.7971801382
 20
7.7138030833
 30
0.0
 10
10.8116826996
 20
7.7054412583
 30
0.0
 10
10.8291111695
 20
7.6937186486
 30
0.0
 10
10.8454154305
 20
7.6804315153
 30
0.0
 10
10.857707325
 20
7.6689304744
 30
0.0
 10
10.8694664701
 20
7.6568749894
 30
0.0
 10
10.8803863435
 20
7.6440313406
 30
0.0
 10
10.8903779728
 20
7.6304977091
 30
0.0
 10
10.897389744
 20
7.6200311417
 30
0.0
 10
10.903902328
 20
7.6092720512
 30
0.0
 10
10.9099002077
 20
7.5982468656
 30
0.0
 10
10.9153699777
 20
7.5869835298
 30
0.0
 10
10.9202972953
 20
7.5755094934
 30
0.0
 10
10.9246709489
 20
7.5638531423
 30
0.0
 10
10.9297415925
 20
7.5481412127
 30
0.0
 10
10.9336819251
 20
7.5321451196
 30
0.0
 10
10.9364512739
 20
7.5159935661
 30
0.0
 10
10.9384236813
 20
7.4998633093
 30
0.0
 10
10.9390248518
 20
7.4876952369
 30
0.0
 10
10.9390249992
 20
7.4796095257
 30
0.0
  0
SPLINE
  5
2AD
100
AcDbEntity
  8
0
100
AcDbSpline
 62
7
  6
CONTINUOUS
 70
0
 71
3
 72
56
 73
52
 74
0
 42
0.0000001
 43
0.0000001
 44
0.0000000001
 40
0.0
 40
0.0
 40
0.0
 40
0.0
 40
0.031072346
 40
0.0465152317
 40
0.0618873124
 40
0.0924244558
 40
0.1227285839
 40
0.1378086476
 40
0.152843805
 40
0.1678401144
 40
0.1828038429
 40
0.2126503375
 40
0.2275575076
 40
0.2424602021
 40
0.2573657768
 40
0.2722815596
 40
0.2872148075
 40
0.3021724288
 40
0.3171611944
 40
0.3321875086
 40
0.3472571497
 40
0.3623756664
 40
0.3927682644
 40
0.4234071833
 40
0.4388308412
 40
0.4543232404
 40
0.485507794
 40
0.5169699549
 40
0.5328065592
 40
0.5487076996
 40
0.5806824155
 40
0.6128739827
 40
0.6290441713
 40
0.6452543848
 40
0.6777639099
 40
0.7103643313
 40
0.7266873147
 40
0.7430142246
 40
0.7756456102
 40
0.791945892
 40
0.80822475
 40
0.8244760382
 40
0.8406940716
 40
0.8568734333
 40
0.8730088969
 40
0.8890954876
 40
0.905128265
 40
0.9370074718
 40
0.9528594107
 40
0.9686481654
 40
1.0
 40
1.0
 40
1.0
 40
1.0
 10
10.9390250013
 20
8.2649074498
 30
0.0
 10
10.9390248666
 20
8.2568938193
 30
0.0
 10
10.9384367505
 20
8.2448860791
 30
0.0
 10
10.9364672754
 20
8.2290422963
 30
0.0
 10
10.9337284777
 20
8.2134521455
 30
0.0
 10
10.9288671535
 20
8.1943703492
 30
0.0
 10
10.9221060335
 20
8.1759549424
 30
0.0
 10
10.9156142798
 20
8.1617828215
 30
0.0
 10
10.910222884
 20
8.1514669627
 30
0.0
 10
10.9043160636
 20
8.1414719358
 30
0.0
 10
10.8957809674
 20
8.1286180323
 30
0.0
 10
10.8862562898
 20
8.1164717018
 30
0.0
 10
10.8758304659
 20
8.1051499567
 30
0.0
 10
10.8675772389
 20
8.0970871944
 30
0.0
 10
10.858908894
 20
8.0894698175
 30
0.0
 10
10.8498442413
 20
8.0823156812
 30
0.0
 10
10.8404040816
 20
8.0756417212
 30
0.0
 10
10.8306105835
 20
8.0694626475
 30
0.0
 10
10.8204854818
 20
8.0637940813
 30
0.0
 10
10.8100521475
 20
8.0586497319
 30
0.0
 10
10.7993346547
 20
8.0540410801
 30
0.0
 10
10.7846755363
 20
8.048618917
 30
0.0
 10
10.7657489387
 20
8.0432399579
 30
0.0
 10
10.7462970119
 20
8.0398013586
 30
0.0
 10
10.730495247
 20
8.0382179762
 30
0.0
 10
10.7144934896
 20
8.0374179826
 30
0.0
 10
10.6943125546
 20
8.0379110898
 30
0.0
 10
10.6741890653
 20
8.0403815718
 30
0.0
 10
10.658190438
 20
8.0435264751
 30
0.0
 10
10.6422321696
 20
8.0474650042
 30
0.0
 10
10.6225563658
 20
8.0538384375
 30
0.0
 10
10.6035023062
 20
8.062056752
 30
0.0
 10
10.5887010232
 20
8.0697004094
 30
0.0
 10
10.5741984617
 20
8.0780622345
 30
0.0
 10
10.5567699918
 20
8.0897848442
 30
0.0
 10
10.5404657308
 20
8.1030719776
 30
0.0
 10
10.5281738363
 20
8.1145730184
 30
0.0
 10
10.5164146913
 20
8.1266285034
 30
0.0
 10
10.5054948179
 20
8.1394721523
 30
0.0
 10
10.4955031886
 20
8.1530057837
 30
0.0
 10
10.4884914175
 20
8.1634723511
 30
0.0
 10
10.4819788335
 20
8.1742314415
 30
0.0
 10
10.4759809539
 20
8.1852566272
 30
0.0
 10
10.4705111839
 20
8.1965199629
 30
0.0
 10
10.4655838664
 20
8.2079939992
 30
0.0
 10
10.4612102128
 20
8.2196503503
 30
0.0
 10
10.4561395691
 20
8.2353622799
 30
0.0
 10
10.4521992365
 20
8.251358373
 30
0.0
 10
10.4494298877
 20
8.2675099264
 30
0.0
 10
10.4474574804
 20
8.2836401833
 30
0.0
 10
10.4468563098
 20
8.2958082556
 30
0.0
 10
10.4468561624
 20
8.3038939669
 30
0.0
  0
SPLINE
  5
2AE
100
AcDbEntity
  8
0
100
AcDbSpline
 62
7
  6
CONTINUOUS
 70
0
 71
3
 72
56
 73
52
 74
0
 42
0.0000001
 43
0.0000001
 44
0.0000000001
 40
0.0
 40
0.0
 40
0.0
 40
0.0
 40
0.0310723444
 40
0.0465152282
 40
0.0618873079
 40
0.0924244521
 40
0.1227285817
 40
0.1378086463
 40
0.1528438045
 40
0.1678401149
 40
0.1828038444
 40
0.2126503405
 40
0.227557511
 40
0.2424602055
 40
0.2573657799
 40
0.272281562
 40
0.2872148089
 40
0.3021724291
 40
0.3171611937
 40
0.3321875071
 40
0.3472571476
 40
0.362375664
 40
0.3927682619
 40
0.4234071812
 40
0.4388308394
 40
0.454323239
 40
0.4855077933
 40
0.5169699546
 40
0.532806559
 40
0.5487076994
 40
0.5806824153
 40
0.6128739824
 40
0.6290441709
 40
0.6452543843
 40
0.6777639093
 40
0.7103643307
 40
0.7266873141
 40
0.7430142241
 40
0.7756456098
 40
0.7919458916
 40
0.8082247496
 40
0.8244760379
 40
0.8406940714
 40
0.8568734332
 40
0.8730088968
 40
0.8890954876
 40
0.905128265
 40
0.9370074719
 40
0.9528594107
 40
0.9686481654
 40
1.0
 40
1.0
 40
1.0
 40
1.0
 10
10.4468561604
 20
8.3038938663
 30
0.0
 10
10.446856295
 20
8.3119074964
 30
0.0
 10
10.4474444107
 20
8.3239152357
 30
0.0
 10
10.4494138859
 20
8.3397590174
 30
0.0
 10
10.4521526834
 20
8.3553491676
 30
0.0
 10
10.4570140074
 20
8.3744309643
 30
0.0
 10
10.4637751273
 20
8.392846372
 30
0.0
 10
10.4702668814
 20
8.4070184936
 30
0.0
 10
10.4756582776
 20
8.417334353
 30
0.0
 10
10.4815650983
 20
8.4273293806
 30
0.0
 10
10.490100195
 20
8.4401832849
 30
0.0
 10
10.4996248733
 20
8.4523296157
 30
0.0
 10
10.5100506975
 20
8.4636513612
 30
0.0
 10
10.5183039247
 20
8.4717141234
 30
0.0
 10
10.5269722695
 20
8.4793315
 30
0.0
 10
10.5360369218
 20
8.486485636
 30
0.0
 10
10.5454770809
 20
8.4931595955
 30
0.0
 10
10.5552705784
 20
8.4993386687
 30
0.0
 10
10.5653956795
 20
8.5050072345
 30
0.0
 10
10.5758290132
 20
8.5101515837
 30
0.0
 10
10.5865465055
 20
8.5147602354
 30
0.0
 10
10.6012056236
 20
8.5201823984
 30
0.0
 10
10.6201322212
 20
8.5255613578
 30
0.0
 10
10.6395841482
 20
8.5289999571
 30
0.0
 10
10.6553859134
 20
8.5305833398
 30
0.0
 10
10.6713876711
 20
8.5313833334
 30
0.0
 10
10.6915686065
 20
8.5308902264
 30
0.0
 10
10.7116920961
 20
8.5284197442
 30
0.0
 10
10.7276907235
 20
8.525274841
 30
0.0
 10
10.7436489919
 20
8.5213363119
 30
0.0
 10
10.7633247958
 20
8.5149628786
 30
0.0
 10
10.7823788553
 20
8.5067445641
 30
0.0
 10
10.7971801382
 20
8.4991009068
 30
0.0
 10
10.8116826996
 20
8.4907390817
 30
0.0
 10
10.8291111695
 20
8.479016472
 30
0.0
 10
10.8454154305
 20
8.4657293388
 30
0.0
 10
10.857707325
 20
8.4542282979
 30
0.0
 10
10.8694664701
 20
8.4421728129
 30
0.0
 10
10.8803863435
 20
8.429329164
 30
0.0
 10
10.8903779728
 20
8.4157955325
 30
0.0
 10
10.897389744
 20
8.4053289652
 30
0.0
 10
10.903902328
 20
8.3945698747
 30
0.0
 10
10.9099002077
 20
8.383544689
 30
0.0
 10
10.9153699777
 20
8.3722813532
 30
0.0
 10
10.9202972953
 20
8.3608073168
 30
0.0
 10
10.9246709489
 20
8.3491509657
 30
0.0
 10
10.9297415925
 20
8.3334390361
 30
0.0
 10
10.9336819251
 20
8.317442943
 30
0.0
 10
10.9364512739
 20
8.3012913896
 30
0.0
 10
10.9384236813
 20
8.2851611327
 30
0.0
 10
10.9390248518
 20
8.2729930604
 30
0.0
 10
10.9390249992
 20
8.2649073491
 30
0.0
  0
SPLINE
  5
2AF
100
AcDbEntity
  8
0
100
AcDbSpline
 62
7
  6
CONTINUOUS
 70
0
 71
3
 72
56
 73
52
 74
0
 42
0.0000001
 43
0.0000001
 44
0.0000000001
 40
0.0
 40
0.0
 40
0.0
 40
0.0
 40
0.031072346
 40
0.0465152317
 40
0.0618873124
 40
0.0924244558
 40
0.1227285839
 40
0.1378086476
 40
0.152843805
 40
0.1678401144
 40
0.1828038429
 40
0.2126503375
 40
0.2275575076
 40
0.2424602021
 40
0.2573657768
 40
0.2722815596
 40
0.2872148075
 40
0.3021724288
 40
0.3171611944
 40
0.3321875086
 40
0.3472571497
 40
0.3623756664
 40
0.3927682644
 40
0.4234071833
 40
0.4388308412
 40
0.4543232404
 40
0.485507794
 40
0.5169699549
 40
0.5328065592
 40
0.5487076996
 40
0.5806824155
 40
0.6128739827
 40
0.6290441713
 40
0.6452543848
 40
0.6777639099
 40
0.7103643313
 40
0.7266873147
 40
0.7430142246
 40
0.7756456102
 40
0.791945892
 40
0.80822475
 40
0.8244760382
 40
0.8406940716
 40
0.8568734333
 40
0.8730088969
 40
0.8890954876
 40
0.905128265
 40
0.9370074718
 40
0.9528594107
 40
0.9686481654
 40
1.0
 40
1.0
 40
1.0
 40
1.0
 10
11.3611346474
 20
8.7485407081
 30
0.0
 10
11.3611345127
 20
8.7405270776
 30
0.0
 10
11.3605463966
 20
8.7285193374
 30
0.0
 10
11.3585769215
 20
8.7126755545
 30
0.0
 10
11.3558381238
 20
8.6970854038
 30
0.0
 10
11.3509767996
 20
8.6780036075
 30
0.0
 10
11.3442156797
 20
8.6595882007
 30
0.0
 10
11.3377239259
 20
8.6454160798
 30
0.0
 10
11.3323325301
 20
8.635100221
 30
0.0
 10
11.3264257097
 20
8.6251051941
 30
0.0
 10
11.3178906135
 20
8.6122512906
 30
0.0
 10
11.3083659359
 20
8.6001049601
 30
0.0
 10
11.297940112
 20
8.588783215
 30
0.0
 10
11.289686885
 20
8.5807204527
 30
0.0
 10
11.2810185401
 20
8.5731030758
 30
0.0
 10
11.2719538874
 20
8.5659489395
 30
0.0
 10
11.2625137277
 20
8.5592749795
 30
0.0
 10
11.2527202296
 20
8.5530959058
 30
0.0
 10
11.2425951279
 20
8.5474273396
 30
0.0
 10
11.2321617936
 20
8.5422829901
 30
0.0
 10
11.2214443008
 20
8.5376743384
 30
0.0
 10
11.2067851824
 20
8.5322521753
 30
0.0
 10
11.1878585848
 20
8.5268732162
 30
0.0
 10
11.168406658
 20
8.5234346169
 30
0.0
 10
11.1526048931
 20
8.5218512345
 30
0.0
 10
11.1366031357
 20
8.5210512409
 30
0.0
 10
11.1164222007
 20
8.521544348
 30
0.0
 10
11.0962987114
 20
8.5240148301
 30
0.0
 10
11.0803000841
 20
8.5271597333
 30
0.0
 10
11.0643418157
 20
8.5310982624
 30
0.0
 10
11.0446660119
 20
8.5374716957
 30
0.0
 10
11.0256119523
 20
8.5456900103
 30
0.0
 10
11.0108106693
 20
8.5533336677
 30
0.0
 10
10.9963081078
 20
8.5616954927
 30
0.0
 10
10.9788796379
 20
8.5734181025
 30
0.0
 10
10.9625753769
 20
8.5867052358
 30
0.0
 10
10.9502834825
 20
8.5982062767
 30
0.0
 10
10.9385243374
 20
8.6102617617
 30
0.0
 10
10.927604464
 20
8.6231054105
 30
0.0
 10
10.9176128347
 20
8.636639042
 30
0.0
 10
10.9106010636
 20
8.6471056093
 30
0.0
 10
10.9040884796
 20
8.6578646998
 30
0.0
 10
10.8980906
 20
8.6688898854
 30
0.0
 10
10.89262083
 20
8.6801532212
 30
0.0
 10
10.8876935125
 20
8.6916272575
 30
0.0
 10
10.8833198589
 20
8.7032836086
 30
0.0
 10
10.8782492152
 20
8.7189955382
 30
0.0
 10
10.8743088826
 20
8.7349916312
 30
0.0
 10
10.8715395338
 20
8.7511431847
 30
0.0
 10
10.8695671265
 20
8.7672734415
 30
0.0
 10
10.8689659559
 20
8.7794415139
 30
0.0
 10
10.8689658085
 20
8.7875272252
 30
0.0
  0
SPLINE
  5
2B0
100
AcDbEntity
  8
0
100
AcDbSpline
 62
7
  6
CONTINUOUS
 70
0
 71
3
 72
56
 73
52
 74
0
 42
0.0000001
 43
0.0000001
 44
0.0000000001
 40
0.0
 40
0.0
 40
0.0
 40
0.0
 40
0.0310723444
 40
0.0465152282
 40
0.0618873079
 40
0.0924244521
 40
0.1227285817
 40
0.1378086463
 40
0.1528438045
 40
0.1678401149
 40
0.1828038444
 40
0.2126503405
 40
0.227557511
 40
0.2424602055
 40
0.2573657799
 40
0.272281562
 40
0.2872148089
 40
0.3021724291
 40
0.3171611937
 40
0.3321875071
 40
0.3472571476
 40
0.362375664
 40
0.3927682619
 40
0.4234071812
 40
0.4388308394
 40
0.454323239
 40
0.4855077933
 40
0.5169699546
 40
0.532806559
 40
0.5487076994
 40
0.5806824153
 40
0.6128739824
 40
0.6290441709
 40
0.6452543843
 40
0.6777639093
 40
0.7103643307
 40
0.7266873141
 40
0.7430142241
 40
0.7756456098
 40
0.7919458916
 40
0.8082247496
 40
0.8244760379
 40
0.8406940714
 40
0.8568734332
 40
0.8730088968
 40
0.8890954876
 40
0.905128265
 40
0.9370074719
 40
0.9528594107
 40
0.9686481654
 40
1.0
 40
1.0
 40
1.0
 40
1.0
 10
10.8689658065
 20
8.7875271245
 30
0.0
 10
10.8689659411
 20
8.7955407546
 30
0.0
 10
10.8695540568
 20
8.807548494
 30
0.0
 10
10.871523532
 20
8.8233922756
 30
0.0
 10
10.8742623295
 20
8.8389824259
 30
0.0
 10
10.8791236535
 20
8.8580642226
 30
0.0
 10
10.8858847734
 20
8.8764796303
 30
0.0
 10
10.8923765275
 20
8.8906517519
 30
0.0
 10
10.8977679237
 20
8.9009676113
 30
0.0
 10
10.9036747445
 20
8.9109626389
 30
0.0
 10
10.9122098411
 20
8.9238165431
 30
0.0
 10
10.9217345194
 20
8.935962874
 30
0.0
 10
10.9321603436
 20
8.9472846195
 30
0.0
 10
10.9404135708
 20
8.9553473817
 30
0.0
 10
10.9490819156
 20
8.9629647582
 30
0.0
 10
10.9581465679
 20
8.9701188943
 30
0.0
 10
10.967586727
 20
8.9767928538
 30
0.0
 10
10.9773802245
 20
8.9829719269
 30
0.0
 10
10.9875053256
 20
8.9886404928
 30
0.0
 10
10.9979386593
 20
8.993784842
 30
0.0
 10
11.0086561516
 20
8.9983934936
 30
0.0
 10
11.0233152697
 20
9.0038156567
 30
0.0
 10
11.0422418673
 20
9.009194616
 30
0.0
 10
11.0616937943
 20
9.0126332154
 30
0.0
 10
11.0774955595
 20
9.014216598
 30
0.0
 10
11.0934973172
 20
9.0150165916
 30
0.0
 10
11.1136782526
 20
9.0145234846
 30
0.0
 10
11.1338017422
 20
9.0120530025
 30
0.0
 10
11.1498003696
 20
9.0089080993
 30
0.0
 10
11.165758638
 20
9.0049695702
 30
0.0
 10
11.1854344419
 20
8.9985961369
 30
0.0
 10
11.2044885014
 20
8.9903778224
 30
0.0
 10
11.2192897843
 20
8.982734165
 30
0.0
 10
11.2337923457
 20
8.97437234
 30
0.0
 10
11.2512208156
 20
8.9626497303
 30
0.0
 10
11.2675250766
 20
8.949362597
 30
0.0
 10
11.2798169711
 20
8.9378615561
 30
0.0
 10
11.2915761162
 20
8.9258060711
 30
0.0
 10
11.3024959896
 20
8.9129624223
 30
0.0
 10
11.3124876189
 20
8.8994287908
 30
0.0
 10
11.3194993901
 20
8.8889622234
 30
0.0
 10
11.3260119741
 20
8.878203133
 30
0.0
 10
11.3320098538
 20
8.8671779473
 30
0.0
 10
11.3374796238
 20
8.8559146115
 30
0.0
 10
11.3424069414
 20
8.8444405751
 30
0.0
 10
11.346780595
 20
8.832784224
 30
0.0
 10
11.3518512387
 20
8.8170722944
 30
0.0
 10
11.3557915712
 20
8.8010762013
 30
0.0
 10
11.3585609201
 20
8.7849246478
 30
0.0
 10
11.3605333274
 20
8.768794391
 30
0.0
 10
11.3611344979
 20
8.7566263186
 30
0.0
 10
11.3611346453
 20
8.7485406074
 30
0.0
  0
SPLINE
  5
2B1
100
AcDbEntity
  8
0
100
AcDbSpline
 62
7
  6
CONTINUOUS
 70
0
 71
3
 72
83
 73
79
 74
0
 42
0.0000001
 43
0.0000001
 44
0.0000000001
 40
0.0
 40
0.0
 40
0.0
 40
0.0
 40
0.003980149
 40
0.0081240919
 40
0.0124359835
 40
0.0169193603
 40
0.0215772246
 40
0.0264119606
 40
0.0314252324
 40
0.0366182158
 40
0.0419916195
 40
0.0475457334
 40
0.0532805161
 40
0.0591955185
 40
0.0715625327
 40
0.0846382143
 40
0.0984095328
 40
0.1128601134
 40
0.1279706583
 40
0.1437192718
 40
0.1600817502
 40
0.1770318183
 40
0.1945413264
 40
0.2125804203
 40
0.2311176863
 40
0.2501203005
 40
0.269554164
 40
0.2893840224
 40
0.3095735802
 40
0.3300856048
 40
0.3508820422
 40
0.3719241252
 40
0.4145864312
 40
0.4577527569
 40
0.5010975799
 40
0.5442936399
 40
0.5870151259
 40
0.6080976714
 40
0.6289416876
 40
0.6495082871
 40
0.6697592834
 40
0.6896572915
 40
0.7091658343
 40
0.7282494515
 40
0.7468738239
 40
0.7650058946
 40
0.78261399
 40
0.7996679565
 40
0.8161393115
 40
0.8320014232
 40
0.8472297058
 40
0.8618018332
 40
0.8756980061
 40
0.8889012771
 40
0.9013979681
 40
0.9131781873
 40
0.9187980573
 40
0.924237173
 40
0.9294957148
 40
0.9345742409
 40
0.9394737433
 40
0.9441957547
 40
0.948742307
 40
0.9531161074
 40
0.9573205402
 40
0.9613597705
 40
0.9652388909
 40
0.9689639409
 40
0.9725421207
 40
0.975981843
 40
0.9792928682
 40
0.9824864417
 40
0.9855753029
 40
0.9885737828
 40
0.9914977139
 40
0.9943643205
 40
0.9971920042
 40
1.0
 40
1.0
 40
1.0
 40
1.0
 10
11.3559436531
 20
10.3353672379
 30
0.0
 10
11.3550910288
 20
10.334543666
 30
0.0
 10
11.3533119704
 20
10.3329023396
 30
0.0
 10
11.3504873629
 20
10.3305050464
 30
0.0
 10
11.3474553271
 20
10.328124928
 30
0.0
 10
11.3442175278
 20
10.3257632877
 30
0.0
 10
11.3407755684
 20
10.3234212064
 30
0.0
 10
11.3371311121
 20
10.3210998442
 30
0.0
 10
11.3332859854
 20
10.3188002895
 30
0.0
 10
11.3292420984
 20
10.316523727
 30
0.0
 10
11.3250014809
 20
10.3142712918
 30
0.0
 10
11.3205662658
 20
10.3120440902
 30
0.0
 10
11.315938653
 20
10.3098432574
 30
0.0
 10
11.309417995
 20
10.3069016873
 30
0.0
 10
11.3007956519
 20
10.3033070382
 30
0.0
 10
11.2898687634
 20
10.299177471
 30
0.0
 10
11.2782352674
 20
10.2951786346
 30
0.0
 10
11.2659185777
 20
10.291318645
 30
0.0
 10
11.2529433528
 20
10.2876053505
 30
0.0
 10
11.2393356938
 20
10.2840463052
 30
0.0
 10
11.2251230024
 20
10.2806487553
 30
0.0
 10
11.2103339344
 20
10.2774196219
 30
0.0
 10
11.1949983298
 20
10.2743654844
 30
0.0
 10
11.1791471531
 20
10.2714925678
 30
0.0
 10
11.1628124302
 20
10.2688067198
 30
0.0
 10
11.1460271778
 20
10.2663134067
 30
0.0
 10
11.1288253299
 20
10.2640177036
 30
0.0
 10
11.1112416695
 20
10.2619242842
 30
0.0
 10
11.0933117558
 20
10.2600374103
 30
0.0
 10
11.0750718661
 20
10.2583609239
 30
0.0
 10
11.0565588709
 20
10.2568982094
 30
0.0
 10
11.0314464152
 20
10.2552294331
 30
0.0
 10
10.999649817
 20
10.253703244
 30
0.0
 10
10.9611854191
 20
10.2527673616
 30
0.0
 10
10.9225505636
 20
10.2527265939
 30
0.0
 10
10.8840577941
 20
10.2535812989
 30
0.0
 10
10.8522194756
 20
10.2550401092
 30
0.0
 10
10.8270595889
 20
10.2566554044
 30
0.0
 10
10.8085009393
 20
10.2580789053
 30
0.0
 10
10.7902086249
 20
10.2597167551
 30
0.0
 10
10.7722196192
 20
10.2615656424
 30
0.0
 10
10.7545703175
 20
10.2636217997
 30
0.0
 10
10.7372964155
 20
10.2658810457
 30
0.0
 10
10.7204328475
 20
10.268338786
 30
0.0
 10
10.7040137076
 20
10.2709900175
 30
0.0
 10
10.6880721796
 20
10.273829339
 30
0.0
 10
10.6726404708
 20
10.276850968
 30
0.0
 10
10.6577497467
 20
10.2800487504
 30
0.0
 10
10.6434300636
 20
10.2834161756
 30
0.0
 10
10.629710297
 20
10.2869463841
 30
0.0
 10
10.6166180788
 20
10.2906321817
 30
0.0
 10
10.6041797319
 20
10.2944660661
 30
0.0
 10
10.5924202347
 20
10.2984402403
 30
0.0
 10
10.58136307
 20
10.302546652
 30
0.0
 10
10.5710304537
 20
10.3067769805
 30
0.0
 10
10.5629179587
 20
10.3104539386
 30
0.0
 10
10.5568144799
 20
10.3134581816
 30
0.0
 10
10.5525028285
 20
10.3157015926
 30
0.0
 10
10.5483871498
 20
10.3179695052
 30
0.0
 10
10.5444694942
 20
10.3202608134
 30
0.0
 10
10.5407518331
 20
10.3225743991
 30
0.0
 10
10.5372359958
 20
10.3249090746
 30
0.0
 10
10.5339237576
 20
10.3272637424
 30
0.0
 10
10.5308167475
 20
10.3296372239
 30
0.0
 10
10.5279165104
 20
10.3320283798
 30
0.0
 10
10.5252245135
 20
10.3344360996
 30
0.0
 10
10.5227420684
 20
10.3368592052
 30
0.0
 10
10.5204704771
 20
10.3392966278
 30
0.0
 10
10.5184108847
 20
10.3417472201
 30
0.0
 10
10.5165643937
 20
10.3442098848
 30
0.0
 10
10.514932074
 20
10.3466835386
 30
0.0
 10
10.5135148451
 20
10.3491670211
 30
0.0
 10
10.5123137051
 20
10.3516592224
 30
0.0
 10
10.5113294764
 20
10.3541589048
 30
0.0
 10
10.5105629696
 20
10.3566647639
 30
0.0
 10
10.5100149246
 20
10.3591754732
 30
0.0
 10
10.5096858133
 20
10.3616892523
 30
0.0
 10
10.5096125728
 20
10.3633686597
 30
0.0
 10
10.5096125695
 20
10.3642049792
 30
0.0
  0
SPLINE
  5
2B2
100
AcDbEntity
  8
0
100
AcDbSpline
 62
7
  6
CONTINUOUS
 70
0
 71
3
 72
15
 73
11
 74
0
 42
0.0000001
 43
0.0000001
 44
0.0000000001
 40
0.0
 40
0.0
 40
0.0
 40
0.0
 40
0.1273482789
 40
0.2538606571
 40
0.3795878378
 40
0.5046051156
 40
0.629017439
 40
0.7529533823
 40
0.8765605864
 40
1.0
 40
1.0
 40
1.0
 40
1.0
 10
10.0097883044
 20
8.961673541
 30
0.0
 10
10.0097883044
 20
8.9573464573
 30
0.0
 10
10.0093751541
 20
8.9487147105
 30
0.0
 10
10.0075067495
 20
8.9359331085
 30
0.0
 10
10.0044086102
 20
8.9234726538
 30
0.0
 10
10.0001087224
 20
8.9114498815
 30
0.0
 10
9.9946465221
 20
8.8999756649
 30
0.0
 10
9.9880718378
 20
8.8891559433
 30
0.0
 10
9.9804464685
 20
8.8790920985
 30
0.0
 10
9.9747049461
 20
8.8729445191
 30
0.0
 10
9.9716882103
 20
8.8700305561
 30
0.0
  0
SPLINE
  5
2B3
100
AcDbEntity
  8
0
100
AcDbSpline
 62
7
  6
CONTINUOUS
 70
0
 71
3
 72
15
 73
11
 74
0
 42
0.0000001
 43
0.0000001
 44
0.0000000001
 40
0.0
 40
0.0
 40
0.0
 40
0.0
 40
0.1273482789
 40
0.2538606571
 40
0.3795878378
 40
0.5046051156
 40
0.629017439
 40
0.7529533823
 40
0.8765605864
 40
1.0
 40
1.0
 40
1.0
 40
1.0
 10
11.7600458964
 20
8.8402927647
 30
0.0
 10
11.7600458964
 20
8.835965681
 30
0.0
 10
11.7596327461
 20
8.8273339342
 30
0.0
 10
11.7577643415
 20
8.8145523322
 30
0.0
 10
11.7546662023
 20
8.8020918775
 30
0.0
 10
11.7503663144
 20
8.7900691052
 30
0.0
 10
11.7449041141
 20
8.7785948886
 30
0.0
 10
11.7383294299
 20
8.7677751671
 30
0.0
 10
11.7307040605
 20
8.7577113222
 30
0.0
 10
11.7249625381
 20
8.7515637428
 30
0.0
 10
11.7219458023
 20
8.7486497798
 30
0.0
  0
SPLINE
  5
2B4
100
AcDbEntity
  8
0
100
AcDbSpline
 62
7
  6
CONTINUOUS
 70
0
 71
3
 72
15
 73
11
 74
0
 42
0.0000001
 43
0.0000001
 44
0.0000000001
 40
0.0
 40
0.0
 40
0.0
 40
0.0
 40
0.1273482789
 40
0.2538606571
 40
0.3795878378
 40
0.5046051156
 40
0.629017439
 40
0.7529533823
 40
0.8765605864
 40
1.0
 40
1.0
 40
1.0
 40
1.0
 10
11.7600458964
 20
6.7877002623
 30
0.0
 10
11.7600458964
 20
6.7833731785
 30
0.0
 10
11.7596327461
 20
6.7747414317
 30
0.0
 10
11.7577643415
 20
6.7619598297
 30
0.0
 10
11.7546662023
 20
6.749499375
 30
0.0
 10
11.7503663144
 20
6.7374766027
 30
0.0
 10
11.7449041141
 20
6.7260023861
 30
0.0
 10
11.7383294299
 20
6.7151826646
 30
0.0
 10
11.7307040605
 20
6.7051188197
 30
0.0
 10
11.7249625381
 20
6.6989712404
 30
0.0
 10
11.7219458023
 20
6.6960572774
 30
0.0
  0
SPLINE
  5
2B5
100
AcDbEntity
  8
0
100
AcDbSpline
 62
7
  6
CONTINUOUS
 70
0
 71
3
 72
15
 73
11
 74
0
 42
0.0000001
 43
0.0000001
 44
0.0000000001
 40
0.0
 40
0.0
 40
0.0
 40
0.0
 40
0.1273482789
 40
0.2538606571
 40
0.3795878378
 40
0.5046051156
 40
0.629017439
 40
0.7529533823
 40
0.8765605864
 40
1.0
 40
1.0
 40
1.0
 40
1.0
 10
10.0097883044
 20
6.9090810385
 30
0.0
 10
10.0097883044
 20
6.9047539548
 30
0.0
 10
10.0093751541
 20
6.896122208
 30
0.0
 10
10.0075067495
 20
6.883340606
 30
0.0
 10
10.0044086102
 20
6.8708801513
 30
0.0
 10
10.0001087224
 20
6.858857379
 30
0.0
 10
9.9946465221
 20
6.8473831624
 30
0.0
 10
9.9880718378
 20
6.8365634408
 30
0.0
 10
9.9804464685
 20
6.826499596
 30
0.0
 10
9.9747049461
 20
6.8203520166
 30
0.0
 10
9.9716882103
 20
6.8174380536
 30
0.0
  0
SPLINE
  5
2B6
100
AcDbEntity
  8
0
100
AcDbSpline
 62
7
  6
CONTINUOUS
 70
0
 71
3
 72
32
 73
28
 74
0
 42
0.0000001
 43
0.0000001
 44
0.0000000001
 40
0.0
 40
0.0
 40
0.0
 40
0.0
 40
0.0845017374
 40
0.167300855
 40
0.2480795303
 40
0.3265298693
 40
0.4023572177
 40
0.4752815404
 40
0.545039923
 40
0.5786558619
 40
0.6113908052
 40
0.6432178835
 40
0.6741118203
 40
0.704049142
 40
0.7330081882
 40
0.760969474
 40
0.7879156344
 40
0.8138319636
 40
0.8387063238
 40
0.8625298908
 40
0.8852970833
 40
0.9070065571
 40
0.9276612459
 40
0.94726967
 40
0.9658462264
 40
0.9834129037
 40
1.0
 40
1.0
 40
1.0
 40
1.0
 10
12.0229627801
 20
10.5361582412
 30
0.0
 10
12.0300837842
 20
10.5356643979
 30
0.0
 10
12.0441740084
 20
10.5345616785
 30
0.0
 10
12.0650334301
 20
10.5325396532
 30
0.0
 10
12.0853421738
 20
10.5301729379
 30
0.0
 10
12.1050149261
 20
10.5274715797
 30
0.0
 10
12.1239691979
 20
10.5244470801
 30
0.0
 10
12.1421254122
 20
10.5211122755
 30
0.0
 10
12.1567016482
 20
10.5180500262
 30
0.0
 10
12.1679011654
 20
10.5154476497
 30
0.0
 10
12.1759510549
 20
10.5134514491
 30
0.0
 10
12.1837465949
 20
10.51138888
 30
0.0
 10
12.1912796209
 20
10.5092620906
 30
0.0
 10
12.1985422368
 20
10.5070733419
 30
0.0
 10
12.2055268365
 20
10.5048249206
 30
0.0
 10
12.2122261157
 20
10.5025192218
 30
0.0
 10
12.2186330697
 20
10.5001586393
 30
0.0
 10
12.2247410211
 20
10.4977456939
 30
0.0
 10
12.2305436001
 20
10.4952828693
 30
0.0
 10
12.2360347922
 20
10.4927727947
 30
0.0
 10
12.2412088942
 20
10.4902180213
 30
0.0
 10
12.2460605884
 20
10.4876212613
 30
0.0
 10
12.2505848689
 20
10.4849850976
 30
0.0
 10
12.2547771304
 20
10.4823122932
 30
0.0
 10
12.2586331226
 20
10.4796053708
 30
0.0
 10
12.2621488056
 20
10.476867215
 30
0.0
 10
12.2643243888
 20
10.4749692996
 30
0.0
 10
12.2653501089
 20
10.4740147587
 30
0.0
  0
SPLINE
  5
2B7
100
AcDbEntity
  8
0
100
AcDbSpline
 62
7
  6
CONTINUOUS
 70
0
 71
3
 72
41
 73
37
 74
0
 42
0.0000001
 43
0.0000001
 44
0.0000000001
 40
0.0
 40
0.0
 40
0.0
 40
0.0
 40
0.0310750246
 40
0.0466744069
 40
0.0623124833
 40
0.0936973966
 40
0.1252262277
 40
0.1568876644
 40
0.1886675012
 40
0.2205491378
 40
0.2525138983
 40
0.268523564
 40
0.2845462635
 40
0.3166149667
 40
0.3487024128
 40
0.380785804
 40
0.4128424231
 40
0.4448500853
 40
0.4767875815
 40
0.5086351098
 40
0.540374686
 40
0.5719905267
 40
0.6034693978
 40
0.634800921
 40
0.6659778311
 40
0.6969961763
 40
0.7278554535
 40
0.7585586735
 40
0.7891123471
 40
0.8195263896
 40
0.8498139405
 40
0.8799910991
 40
0.9100765785
 40
0.9400912847
 40
0.9700578312
 40
1.0
 40
1.0
 40
1.0
 40
1.0
 10
11.3356466542
 20
6.9510026836
 30
0.0
 10
11.3356466542
 20
6.9562450407
 30
0.0
 10
11.3353536185
 20
6.9641229711
 30
0.0
 10
11.3343858371
 20
6.9745920971
 30
0.0
 10
11.3330297684
 20
6.9850712411
 30
0.0
 10
11.3306124321
 20
6.998113345
 30
0.0
 10
11.3265803109
 20
7.0135640753
 30
0.0
 10
11.3214354383
 20
7.0287513057
 30
0.0
 10
11.315206156
 20
7.0435912837
 30
0.0
 10
11.3079270289
 20
7.0580023036
 30
0.0
 10
11.3010221085
 20
7.0695837091
 30
0.0
 10
11.2950163353
 20
7.0785576424
 30
0.0
 10
11.2886924051
 20
7.0873319182
 30
0.0
 10
11.2802163184
 20
7.097888046
 30
0.0
 10
11.2691913493
 20
7.1098235511
 30
0.0
 10
11.2573688963
 20
7.1209672577
 30
0.0
 10
11.2448141272
 20
7.1312575916
 30
0.0
 10
11.2315958547
 20
7.140638147
 30
0.0
 10
11.217786624
 20
7.1490573543
 30
0.0
 10
11.2034621962
 20
7.1564689323
 30
0.0
 10
11.188701175
 20
7.1628321032
 30
0.0
 10
11.1735845667
 20
7.1681118215
 30
0.0
 10
11.158195345
 20
7.1722789631
 30
0.0
 10
11.1426180016
 20
7.1753104888
 30
0.0
 10
11.1269380896
 20
7.1771895734
 30
0.0
 10
11.11124176
 20
7.1779057046
 30
0.0
 10
11.0956152945
 20
7.177454746
 30
0.0
 10
11.0801446354
 20
7.1758389755
 30
0.0
 10
11.0649149142
 20
7.173067084
 30
0.0
 10
11.0500099821
 20
7.1691541303
 30
0.0
 10
11.0355119538
 20
7.164121478
 30
0.0
 10
11.0215007211
 20
7.1579966626
 30
0.0
 10
11.0080536111
 20
7.1508133502
 30
0.0
 10
10.9952445543
 20
7.1426107842
 30
0.0
 10
10.9831451315
 20
7.1334349686
 30
0.0
 10
10.9755931499
 20
7.1266995595
 30
0.0
 10
10.9719600112
 20
7.1231902329
 30
0.0
  0
SPLINE
  5
2B8
100
AcDbEntity
  8
0
100
AcDbSpline
 62
7
  6
CONTINUOUS
 70
0
 71
3
 72
18
 73
14
 74
0
 42
0.0000001
 43
0.0000001
 44
0.0000000001
 40
0.0
 40
0.0
 40
0.0
 40
0.0
 40
0.0548627003
 40
0.1099292984
 40
0.1654013502
 40
0.22147558
 40
0.3361333207
 40
0.4553633897
 40
0.5171049197
 40
0.5804365965
 40
0.7123310206
 40
0.851957275
 40
1.0
 40
1.0
 40
1.0
 40
1.0
 10
11.370612551
 20
10.364205465
 30
0.0
 10
11.3706125534
 20
10.363597474
 30
0.0
 10
11.3705739729
 20
10.3623788813
 30
0.0
 10
11.3704004964
 20
10.3605529831
 30
0.0
 10
11.3701113798
 20
10.3587281
 30
0.0
 10
11.3695680943
 20
10.3562795162
 30
0.0
 10
11.3685893557
 20
10.3532105905
 30
0.0
 10
11.3672488519
 20
10.3502141197
 30
0.0
 10
11.3659589768
 20
10.3478327394
 30
0.0
 10
11.3644820155
 20
10.3453967836
 30
0.0
 10
11.3623374299
 20
10.3423619271
 30
0.0
 10
11.3593474844
 20
10.3387954893
 30
0.0
 10
11.3571236739
 20
10.3365070505
 30
0.0
 10
11.3559436531
 20
10.3353672379
 30
0.0
  0
SPLINE
  5
2B9
100
AcDbEntity
  8
0
100
AcDbSpline
 62
7
  6
CONTINUOUS
 70
0
 71
3
 72
18
 73
14
 74
0
 42
0.0000001
 43
0.0000001
 44
0.0000000001
 40
0.0
 40
0.0
 40
0.0
 40
0.0
 40
0.0548626221
 40
0.1099291996
 40
0.1654012684
 40
0.2214754896
 40
0.3361336267
 40
0.4553633642
 40
0.5171046005
 40
0.5804361693
 40
0.7123314363
 40
0.8519591016
 40
1.0
 40
1.0
 40
1.0
 40
1.0
 10
9.6901049831
 20
10.2400690058
 30
0.0
 10
9.6901049803
 20
10.24059861
 30
0.0
 10
9.6901385828
 20
10.2416600937
 30
0.0
 10
9.6902897264
 20
10.2432505822
 30
0.0
 10
9.6905415839
 20
10.2448401865
 30
0.0
 10
9.6910148163
 20
10.2469730902
 30
0.0
 10
9.6918674205
 20
10.2496463353
 30
0.0
 10
9.6930350778
 20
10.2522564873
 30
0.0
 10
9.6941586618
 20
10.2543308336
 30
0.0
 10
9.6954452149
 20
10.2564527288
 30
0.0
 10
9.6973133183
 20
10.2590963303
 30
0.0
 10
9.6999178006
 20
10.2622029498
 30
0.0
 10
9.7018548933
 20
10.2641963525
 30
0.0
 10
9.7028827658
 20
10.2651892011
 30
0.0
  0
SPLINE
  5
2BA
100
AcDbEntity
  8
0
100
AcDbSpline
 62
7
  6
CONTINUOUS
 70
0
 71
3
 72
40
 73
36
 74
0
 42
0.0000001
 43
0.0000001
 44
0.0000000001
 40
0.0
 40
0.0
 40
0.0
 40
0.0
 40
0.0072740528
 40
0.0148710823
 40
0.0227989803
 40
0.0310643696
 40
0.0396726394
 40
0.0486277804
 40
0.0579322968
 40
0.06758775
 40
0.0775946908
 40
0.087952845
 40
0.0986612591
 40
0.1097181257
 40
0.1328664065
 40
0.1573731659
 40
0.183204926
 40
0.2103214309
 40
0.2386764685
 40
0.2682185483
 40
0.2988915156
 40
0.3306350296
 40
0.3633849648
 40
0.3970737454
 40
0.4316307205
 40
0.466982487
 40
0.5030531739
 40
0.5397646988
 40
0.5770370433
 40
0.6147885387
 40
0.6913939367
 40
0.768905648
 40
0.8466362492
 40
0.9238955648
 40
1.0
 40
1.0
 40
1.0
 40
1.0
 10
10.0328794594
 20
10.5828698055
 30
0.0
 10
10.0336456005
 20
10.5835827426
 30
0.0
 10
10.0352471304
 20
10.5850027773
 30
0.0
 10
10.0377935991
 20
10.5870717601
 30
0.0
 10
10.0405340446
 20
10.5891238804
 30
0.0
 10
10.04346671
 20
10.5911579012
 30
0.0
 10
10.046589934
 20
10.5931727118
 30
0.0
 10
10.0499019295
 20
10.5951671486
 30
0.0
 10
10.0534007433
 20
10.5971401071
 30
0.0
 10
10.0570843373
 20
10.5990903717
 30
0.0
 10
10.060950531
 20
10.6010168171
 30
0.0
 10
10.0649970447
 20
10.6029183193
 30
0.0
 10
10.0692215146
 20
10.6047937352
 30
0.0
 10
10.0751794631
 20
10.6072963885
 30
0.0
 10
10.0830599687
 20
10.6103434368
 30
0.0
 10
10.0930448654
 20
10.6138250092
 30
0.0
 10
10.1036740674
 20
10.6171771065
 30
0.0
 10
10.1149224171
 20
10.6203917105
 30
0.0
 10
10.1267633999
 20
10.6234611193
 30
0.0
 10
10.1391689854
 20
10.6263779834
 30
0.0
 10
10.1521097832
 20
10.6291353088
 30
0.0
 10
10.165555104
 20
10.6317264826
 30
0.0
 10
10.1794730373
 20
10.6341452859
 30
0.0
 10
10.1938305251
 20
10.6363859281
 30
0.0
 10
10.2085934502
 20
10.6384430436
 30
0.0
 10
10.2237267251
 20
10.6403117044
 30
0.0
 10
10.2391943773
 20
10.6419874319
 30
0.0
 10
10.254959619
 20
10.643466207
 30
0.0
 10
10.2709849858
 20
10.6447445218
 30
0.0
 10
10.2927533742
 20
10.6461844262
 30
0.0
 10
10.3203322017
 20
10.6474576461
 30
0.0
 10
10.3536852895
 20
10.6481444206
 30
0.0
 10
10.3871393503
 20
10.6479905907
 30
0.0
 10
10.4203762381
 20
10.6469976932
 30
0.0
 10
10.4424100525
 20
10.6457699451
 30
0.0
 10
10.4533332193
 20
10.6450124209
 30
0.0
  0
SPLINE
  5
2BB
100
AcDbEntity
  8
0
100
AcDbSpline
 62
7
  6
CONTINUOUS
 70
0
 71
3
 72
18
 73
14
 74
0
 42
0.0000001
 43
0.0000001
 44
0.0000000001
 40
0.0
 40
0.0
 40
0.0
 40
0.0
 40
0.1492375281
 40
0.289655037
 40
0.421961834
 40
0.4853619434
 40
0.5470838486
 40
0.6660306073
 40
0.780131264
 40
0.8358489547
 40
0.8909261061
 40
0.94557164
 40
1.0
 40
1.0
 40
1.0
 40
1.0
 10
12.295216514
 20
10.4462209427
 30
0.0
 10
12.2963180076
 20
10.4451958804
 30
0.0
 10
12.298393861
 20
10.4431377509
 30
0.0
 10
12.3011885788
 20
10.439924715
 30
0.0
 10
12.3031949974
 20
10.4371874177
 30
0.0
 10
12.304576909
 20
10.4349892562
 30
0.0
 10
12.3057822097
 20
10.4328428813
 30
0.0
 10
12.3070354192
 20
10.4301412604
 30
0.0
 10
12.3079517993
 20
10.427369843
 30
0.0
 10
12.3084602463
 20
10.4251587778
 30
0.0
 10
12.3087307001
 20
10.4235116064
 30
0.0
 10
12.3088929867
 20
10.4218634402
 30
0.0
 10
12.308929088
 20
10.4207633734
 30
0.0
 10
12.308929091
 20
10.4202146047
 30
0.0
  0
SPLINE
  5
2BC
100
AcDbEntity
  8
0
100
AcDbSpline
 62
7
  6
CONTINUOUS
 70
0
 71
3
 72
41
 73
37
 74
0
 42
0.0000001
 43
0.0000001
 44
0.0000000001
 40
0.0
 40
0.0
 40
0.0
 40
0.0
 40
0.029942123
 40
0.0449237706
 40
0.0599145177
 40
0.0899291716
 40
0.1200145961
 40
0.1350933574
 40
0.1501974726
 40
0.1804849654
 40
0.2108989488
 40
0.2414525624
 40
0.2721557217
 40
0.3030149378
 40
0.3340332219
 40
0.3652100719
 40
0.3965415365
 40
0.4280203507
 40
0.4596361361
 40
0.4913756582
 40
0.5232231336
 40
0.5551605782
 40
0.5871681905
 40
0.6192247616
 40
0.6513081064
 40
0.6833955071
 40
0.7154641657
 40
0.7474916563
 40
0.7794563734
 40
0.811337967
 40
0.843117763
 40
0.8747791516
 40
0.9063079641
 40
0.9376927517
 40
0.9689251728
 40
1.0
 40
1.0
 40
1.0
 40
1.0
 10
9.7764632252
 20
9.0721399256
 30
0.0
 10
9.7787940719
 20
9.074391366
 30
0.0
 10
9.7824277024
 20
9.077632139
 30
0.0
 10
9.7875165459
 20
9.0816532236
 30
0.0
 10
9.7927674562
 20
9.0854742042
 30
0.0
 10
9.7996190276
 20
9.0898619504
 30
0.0
 10
9.8068037459
 20
9.0936999545
 30
0.0
 10
9.8127292702
 20
9.0964303454
 30
0.0
 10
9.818777217
 20
9.0989353105
 30
0.0
 10
9.8265364517
 20
9.1016288939
 30
0.0
 10
9.8360985472
 20
9.1041392556
 30
0.0
 10
9.8458692962
 20
9.1059176821
 30
0.0
 10
9.8557945518
 20
9.1069543573
 30
0.0
 10
9.8658197917
 20
9.1072437498
 30
0.0
 10
9.8758898536
 20
9.1067843865
 30
0.0
 10
9.8859493897
 20
9.1055789209
 30
0.0
 10
9.8959431267
 20
9.103634095
 30
0.0
 10
9.9058161772
 20
9.1009607023
 30
0.0
 10
9.915514334
 20
9.097573524
 30
0.0
 10
9.9249843646
 20
9.0934912455
 30
0.0
 10
9.9341742987
 20
9.0887363524
 30
0.0
 10
9.9430337097
 20
9.0833350066
 30
0.0
 10
9.9515139875
 20
9.0773169025
 30
0.0
 10
9.9595686022
 20
9.0707151054
 30
0.0
 10
9.9671533559
 20
9.0635658704
 30
0.0
 10
9.9742266229
 20
9.0559084459
 30
0.0
 10
9.9807495755
 20
9.0477848596
 30
0.0
 10
9.9866863954
 20
9.0392396906
 30
0.0
 10
9.992004468
 20
9.0303198273
 30
0.0
 10
9.9966745607
 20
9.0210742121
 30
0.0
 10
10.0006709815
 20
9.0115535819
 30
0.0
 10
10.0039717229
 20
9.0018101697
 30
0.0
 10
10.0065585757
 20
8.9918975104
 30
0.0
 10
10.0084172445
 20
8.9818698245
 30
0.0
 10
10.0095374064
 20
8.9717829228
 30
0.0
 10
10.0097883044
 20
8.965036787
 30
0.0
 10
10.0097883044
 20
8.961673541
 30
0.0
  0
SPLINE
  5
2BD
100
AcDbEntity
  8
0
100
AcDbSpline
 62
7
  6
CONTINUOUS
 70
0
 71
3
 72
41
 73
37
 74
0
 42
0.0000001
 43
0.0000001
 44
0.0000000001
 40
0.0
 40
0.0
 40
0.0
 40
0.0
 40
0.029942123
 40
0.0449237706
 40
0.0599145177
 40
0.0899291716
 40
0.1200145961
 40
0.1350933574
 40
0.1501974726
 40
0.1804849654
 40
0.2108989488
 40
0.2414525624
 40
0.2721557217
 40
0.3030149378
 40
0.3340332219
 40
0.3652100719
 40
0.3965415365
 40
0.4280203507
 40
0.4596361361
 40
0.4913756582
 40
0.5232231336
 40
0.5551605782
 40
0.5871681905
 40
0.6192247616
 40
0.6513081064
 40
0.6833955071
 40
0.7154641657
 40
0.7474916563
 40
0.7794563734
 40
0.811337967
 40
0.843117763
 40
0.8747791516
 40
0.9063079641
 40
0.9376927517
 40
0.9689251728
 40
1.0
 40
1.0
 40
1.0
 40
1.0
 10
11.5267208172
 20
8.9507591493
 30
0.0
 10
11.5290516639
 20
8.9530105898
 30
0.0
 10
11.5326852944
 20
8.9562513627
 30
0.0
 10
11.5377741379
 20
8.9602724473
 30
0.0
 10
11.5430250482
 20
8.964093428
 30
0.0
 10
11.5498766197
 20
8.9684811741
 30
0.0
 10
11.5570613379
 20
8.9723191782
 30
0.0
 10
11.5629868623
 20
8.9750495691
 30
0.0
 10
11.5690348091
 20
8.9775545342
 30
0.0
 10
11.5767940437
 20
8.9802481176
 30
0.0
 10
11.5863561392
 20
8.9827584793
 30
0.0
 10
11.5961268882
 20
8.9845369058
 30
0.0
 10
11.6060521438
 20
8.985573581
 30
0.0
 10
11.6160773837
 20
8.9858629736
 30
0.0
 10
11.6261474456
 20
8.9854036103
 30
0.0
 10
11.6362069817
 20
8.9841981446
 30
0.0
 10
11.6462007187
 20
8.9822533187
 30
0.0
 10
11.6560737692
 20
8.979579926
 30
0.0
 10
11.665771926
 20
8.9761927477
 30
0.0
 10
11.6752419566
 20
8.9721104693
 30
0.0
 10
11.6844318907
 20
8.9673555762
 30
0.0
 10
11.6932913017
 20
8.9619542303
 30
0.0
 10
11.7017715795
 20
8.9559361263
 30
0.0
 10
11.7098261942
 20
8.9493343291
 30
0.0
 10
11.7174109479
 20
8.9421850941
 30
0.0
 10
11.7244842149
 20
8.9345276696
 30
0.0
 10
11.7310071676
 20
8.9264040833
 30
0.0
 10
11.7369439874
 20
8.9178589143
 30
0.0
 10
11.74226206
 20
8.908939051
 30
0.0
 10
11.7469321527
 20
8.8996934359
 30
0.0
 10
11.7509285735
 20
8.8901728056
 30
0.0
 10
11.7542293149
 20
8.8804293935
 30
0.0
 10
11.7568161678
 20
8.8705167341
 30
0.0
 10
11.7586748366
 20
8.8604890482
 30
0.0
 10
11.7597949984
 20
8.8504021465
 30
0.0
 10
11.7600458964
 20
8.8436560107
 30
0.0
 10
11.7600458964
 20
8.8402927647
 30
0.0
  0
SPLINE
  5
2BE
100
AcDbEntity
  8
0
100
AcDbSpline
 62
7
  6
CONTINUOUS
 70
0
 71
3
 72
41
 73
37
 74
0
 42
0.0000001
 43
0.0000001
 44
0.0000000001
 40
0.0
 40
0.0
 40
0.0
 40
0.0
 40
0.029942123
 40
0.0449237706
 40
0.0599145177
 40
0.0899291716
 40
0.1200145961
 40
0.1350933574
 40
0.1501974726
 40
0.1804849654
 40
0.2108989488
 40
0.2414525624
 40
0.2721557217
 40
0.3030149378
 40
0.3340332219
 40
0.3652100719
 40
0.3965415365
 40
0.4280203507
 40
0.4596361361
 40
0.4913756582
 40
0.5232231336
 40
0.5551605782
 40
0.5871681905
 40
0.6192247616
 40
0.6513081064
 40
0.6833955071
 40
0.7154641657
 40
0.7474916563
 40
0.7794563734
 40
0.811337967
 40
0.843117763
 40
0.8747791516
 40
0.9063079641
 40
0.9376927517
 40
0.9689251728
 40
1.0
 40
1.0
 40
1.0
 40
1.0
 10
11.5267208172
 20
6.8981666469
 30
0.0
 10
11.5290516639
 20
6.9004180873
 30
0.0
 10
11.5326852944
 20
6.9036588602
 30
0.0
 10
11.5377741379
 20
6.9076799448
 30
0.0
 10
11.5430250482
 20
6.9115009255
 30
0.0
 10
11.5498766197
 20
6.9158886716
 30
0.0
 10
11.5570613379
 20
6.9197266758
 30
0.0
 10
11.5629868623
 20
6.9224570666
 30
0.0
 10
11.5690348091
 20
6.9249620318
 30
0.0
 10
11.5767940437
 20
6.9276556151
 30
0.0
 10
11.5863561392
 20
6.9301659769
 30
0.0
 10
11.5961268882
 20
6.9319444033
 30
0.0
 10
11.6060521438
 20
6.9329810785
 30
0.0
 10
11.6160773837
 20
6.9332704711
 30
0.0
 10
11.6261474456
 20
6.9328111078
 30
0.0
 10
11.6362069817
 20
6.9316056422
 30
0.0
 10
11.6462007187
 20
6.9296608162
 30
0.0
 10
11.6560737692
 20
6.9269874235
 30
0.0
 10
11.665771926
 20
6.9236002453
 30
0.0
 10
11.6752419566
 20
6.9195179668
 30
0.0
 10
11.6844318907
 20
6.9147630737
 30
0.0
 10
11.6932913017
 20
6.9093617278
 30
0.0
 10
11.7017715795
 20
6.9033436238
 30
0.0
 10
11.7098261942
 20
6.8967418266
 30
0.0
 10
11.7174109479
 20
6.8895925916
 30
0.0
 10
11.7244842149
 20
6.8819351671
 30
0.0
 10
11.7310071676
 20
6.8738115808
 30
0.0
 10
11.7369439874
 20
6.8652664118
 30
0.0
 10
11.74226206
 20
6.8563465486
 30
0.0
 10
11.7469321527
 20
6.8471009334
 30
0.0
 10
11.7509285735
 20
6.8375803031
 30
0.0
 10
11.7542293149
 20
6.827836891
 30
0.0
 10
11.7568161678
 20
6.8179242316
 30
0.0
 10
11.7586748366
 20
6.8078965458
 30
0.0
 10
11.7597949984
 20
6.7978096441
 30
0.0
 10
11.7600458964
 20
6.7910635082
 30
0.0
 10
11.7600458964
 20
6.7877002623
 30
0.0
  0
SPLINE
  5
2BF
100
AcDbEntity
  8
0
100
AcDbSpline
 62
7
  6
CONTINUOUS
 70
0
 71
3
 72
41
 73
37
 74
0
 42
0.0000001
 43
0.0000001
 44
0.0000000001
 40
0.0
 40
0.0
 40
0.0
 40
0.0
 40
0.029942123
 40
0.0449237706
 40
0.0599145177
 40
0.0899291716
 40
0.1200145961
 40
0.1350933574
 40
0.1501974726
 40
0.1804849654
 40
0.2108989488
 40
0.2414525624
 40
0.2721557217
 40
0.3030149378
 40
0.3340332219
 40
0.3652100719
 40
0.3965415365
 40
0.4280203507
 40
0.4596361361
 40
0.4913756582
 40
0.5232231336
 40
0.5551605782
 40
0.5871681905
 40
0.6192247616
 40
0.6513081064
 40
0.6833955071
 40
0.7154641657
 40
0.7474916563
 40
0.7794563734
 40
0.811337967
 40
0.843117763
 40
0.8747791516
 40
0.9063079641
 40
0.9376927517
 40
0.9689251728
 40
1.0
 40
1.0
 40
1.0
 40
1.0
 10
9.7764632252
 20
7.0195474231
 30
0.0
 10
9.7787940719
 20
7.0217988635
 30
0.0
 10
9.7824277024
 20
7.0250396365
 30
0.0
 10
9.7875165459
 20
7.0290607211
 30
0.0
 10
9.7927674562
 20
7.0328817018
 30
0.0
 10
9.7996190276
 20
7.0372694479
 30
0.0
 10
9.8068037459
 20
7.041107452
 30
0.0
 10
9.8127292702
 20
7.0438378429
 30
0.0
 10
9.818777217
 20
7.046342808
 30
0.0
 10
9.8265364517
 20
7.0490363914
 30
0.0
 10
9.8360985472
 20
7.0515467531
 30
0.0
 10
9.8458692962
 20
7.0533251796
 30
0.0
 10
9.8557945518
 20
7.0543618548
 30
0.0
 10
9.8658197917
 20
7.0546512474
 30
0.0
 10
9.8758898536
 20
7.054191884
 30
0.0
 10
9.8859493897
 20
7.0529864184
 30
0.0
 10
9.8959431267
 20
7.0510415925
 30
0.0
 10
9.9058161772
 20
7.0483681998
 30
0.0
 10
9.915514334
 20
7.0449810215
 30
0.0
 10
9.9249843646
 20
7.040898743
 30
0.0
 10
9.9341742987
 20
7.03614385
 30
0.0
 10
9.9430337097
 20
7.0307425041
 30
0.0
 10
9.9515139875
 20
7.0247244
 30
0.0
 10
9.9595686022
 20
7.0181226029
 30
0.0
 10
9.9671533559
 20
7.0109733679
 30
0.0
 10
9.9742266229
 20
7.0033159434
 30
0.0
 10
9.9807495755
 20
6.9951923571
 30
0.0
 10
9.9866863954
 20
6.9866471881
 30
0.0
 10
9.992004468
 20
6.9777273248
 30
0.0
 10
9.9966745607
 20
6.9684817096
 30
0.0
 10
10.0006709815
 20
6.9589610794
 30
0.0
 10
10.0039717229
 20
6.9492176672
 30
0.0
 10
10.0065585757
 20
6.9393050079
 30
0.0
 10
10.0084172445
 20
6.929277322
 30
0.0
 10
10.0095374064
 20
6.9191904203
 30
0.0
 10
10.0097883044
 20
6.9124442845
 30
0.0
 10
10.0097883044
 20
6.9090810385
 30
0.0
  0
SPLINE
  5
2C0
100
AcDbEntity
  8
0
100
AcDbSpline
 62
7
  6
CONTINUOUS
 70
0
 71
3
 72
23
 73
19
 74
0
 42
0.0000001
 43
0.0000001
 44
0.0000000001
 40
0.0
 40
0.0
 40
0.0
 40
0.0
 40
0.0617101501
 40
0.1234414058
 40
0.1852146535
 40
0.2470503593
 40
0.308968354
 40
0.3709876246
 40
0.433126135
 40
0.4954006564
 40
0.5578266089
 40
0.620417913
 40
0.6831867712
 40
0.7461439027
 40
0.8092980189
 40
0.8726549242
 40
0.9362233983
 40
1.0
 40
1.0
 40
1.0
 40
1.0
 10
11.2762577602
 20
6.8081555224
 30
0.0
 10
11.2786093026
 20
6.8104269276
 30
0.0
 10
11.2831971744
 20
6.8150924234
 30
0.0
 10
11.2897111571
 20
6.8224366467
 30
0.0
 10
11.2958436446
 20
6.8301111432
 30
0.0
 10
11.301580253
 20
6.8380979728
 30
0.0
 10
11.3069078135
 20
6.8463787808
 30
0.0
 10
11.3118140168
 20
6.8549344526
 30
0.0
 10
11.3162875908
 20
6.863745239
 30
0.0
 10
11.3203182367
 20
6.8727908148
 30
0.0
 10
11.3238966561
 20
6.8820503265
 30
0.0
 10
11.3270146129
 20
6.8915024155
 30
0.0
 10
11.3296649725
 20
6.9011252782
 30
0.0
 10
11.331841636
 20
6.9108967429
 30
0.0
 10
11.3335395619
 20
6.9207942203
 30
0.0
 10
11.3347549641
 20
6.9307951139
 30
0.0
 10
11.3354849124
 20
6.9408758971
 30
0.0
 10
11.3356466542
 20
6.9476237941
 30
0.0
 10
11.3356466542
 20
6.9510026836
 30
0.0
  0
SPLINE
  5
2C1
100
AcDbEntity
  8
0
100
AcDbSpline
 62
7
  6
CONTINUOUS
 70
0
 71
3
 72
10
 73
6
 74
0
 42
0.0000001
 43
0.0000001
 44
0.0000000001
 40
0.0
 40
0.0
 40
0.0
 40
0.0
 40
0.2714522895
 40
0.5278418418
 40
1.0
 40
1.0
 40
1.0
 40
1.0
 10
10.5242814674
 20
10.3630995044
 30
0.0
 10
10.52313
 20
10.3619872723
 30
0.0
 10
10.5209565318
 20
10.3597538924
 30
0.0
 10
10.5171536172
 20
10.3552438229
 30
0.0
 10
10.5147685536
 20
10.3516340223
 30
0.0
 10
10.5134809991
 20
10.3491649725
 30
0.0
  0
SPLINE
  5
2C2
100
AcDbEntity
  8
0
100
AcDbSpline
 62
7
  6
CONTINUOUS
 70
0
 71
3
 72
75
 73
71
 74
0
 42
0.0000001
 43
0.0000001
 44
0.0000000001
 40
0.0
 40
0.0
 40
0.0
 40
0.0
 40
0.0038568807
 40
0.0078649613
 40
0.0120279443
 40
0.0163489857
 40
0.020830807
 40
0.0254756382
 40
0.0302851085
 40
0.0352603593
 40
0.0404021746
 40
0.0457109336
 40
0.0568288107
 40
0.0686117955
 40
0.0810529934
 40
0.0941420867
 40
0.1078657659
 40
0.1222081337
 40
0.1371510111
 40
0.1526741702
 40
0.1687555129
 40
0.1853712715
 40
0.2024961659
 40
0.2201035269
 40
0.2381653959
 40
0.256652659
 40
0.2755351535
 40
0.2947817568
 40
0.3143604638
 40
0.3342384942
 40
0.3543823816
 40
0.3953301903
 40
0.4369261619
 40
0.4788860363
 40
0.5209223131
 40
0.5627468189
 40
0.6040732609
 40
0.6446197663
 40
0.6645146956
 40
0.6841122885
 40
0.703379716
 40
0.7222849353
 40
0.7407967688
 40
0.758884986
 40
0.7765204007
 40
0.7936749974
 40
0.8103220265
 40
0.8264361107
 40
0.8419933804
 40
0.8569716515
 40
0.8713505781
 40
0.8851118401
 40
0.8982393877
 40
0.9107197678
 40
0.9225424688
 40
0.9337003678
 40
0.9441903315
 40
0.9491855267
 40
0.9540148173
 40
0.958679352
 40
0.9631806681
 40
0.9675208456
 40
0.9717025008
 40
0.9757288391
 40
0.9796038094
 40
0.9833320879
 40
0.9869192254
 40
0.9903717515
 40
0.9936972051
 40
1.0
 40
1.0
 40
1.0
 40
1.0
 10
10.5242814674
 20
10.3630995044
 30
0.0
 10
10.5250931256
 20
10.3638835061
 30
0.0
 10
10.5267833179
 20
10.3654462829
 30
0.0
 10
10.5294604519
 20
10.3677317666
 30
0.0
 10
10.5323260816
 20
10.3700017932
 30
0.0
 10
10.5353787767
 20
10.3722551952
 30
0.0
 10
10.538617139
 20
10.3744910396
 30
0.0
 10
10.5420397547
 20
10.3767083232
 30
0.0
 10
10.5456450794
 20
10.3789060902
 30
0.0
 10
10.5494314689
 20
10.3810833505
 30
0.0
 10
10.5533972213
 20
10.3832390924
 30
0.0
 10
10.5590082806
 20
10.3861279959
 30
0.0
 10
10.5664659222
 20
10.3896703125
 30
0.0
 10
10.575966957
 20
10.3937569449
 30
0.0
 10
10.586135754
 20
10.3977349492
 30
0.0
 10
10.596953768
 20
10.4015970161
 30
0.0
 10
10.6084014063
 20
10.4053360609
 30
0.0
 10
10.6204578077
 20
10.4089451914
 30
0.0
 10
10.6331009795
 20
10.412417743
 30
0.0
 10
10.6463078143
 20
10.4157472907
 30
0.0
 10
10.6600541376
 20
10.4189276892
 30
0.0
 10
10.6743147645
 20
10.4219530614
 30
0.0
 10
10.689063557
 20
10.4248178123
 30
0.0
 10
10.7042734673
 20
10.4275166392
 30
0.0
 10
10.7199165844
 20
10.4300445625
 30
0.0
 10
10.7359641938
 20
10.4323969138
 30
0.0
 10
10.7523868359
 20
10.4345693452
 30
0.0
 10
10.7691543589
 20
10.4365578386
 30
0.0
 10
10.7862359601
 20
10.4383587233
 30
0.0
 10
10.8036002892
 20
10.4399686987
 30
0.0
 10
10.827215252
 20
10.4418670181
 30
0.0
 10
10.8572051227
 20
10.4437358237
 30
0.0
 10
10.8936080708
 20
10.4451678315
 30
0.0
 10
10.930352415
 20
10.4457904292
 30
0.0
 10
10.9671683436
 20
10.4455990461
 30
0.0
 10
11.003785764
 20
10.4445950739
 30
0.0
 10
11.0399358005
 20
10.4427859991
 30
0.0
 10
11.0696348717
 20
10.4406053568
 30
0.0
 10
11.0929553152
 20
10.4384607159
 30
0.0
 10
11.1100547834
 20
10.4366711756
 30
0.0
 10
11.1268420116
 20
10.4346938338
 30
0.0
 10
11.143286197
 20
10.4325323243
 30
0.0
 10
11.1593571398
 20
10.4301906485
 30
0.0
 10
11.1750253352
 20
10.4276731292
 30
0.0
 10
11.190262021
 20
10.4249844096
 30
0.0
 10
11.2050392416
 20
10.4221294648
 30
0.0
 10
11.2193298972
 20
10.419113575
 30
0.0
 10
11.2331077877
 20
10.415942314
 30
0.0
 10
11.2463476684
 20
10.412621535
 30
0.0
 10
11.2590253094
 20
10.4091573828
 30
0.0
 10
11.2711175405
 20
10.4055562619
 30
0.0
 10
11.2826022887
 20
10.4018248202
 30
0.0
 10
11.2934586386
 20
10.3979699254
 30
0.0
 10
11.3036668671
 20
10.3939986769
 30
0.0
 10
11.3132085816
 20
10.3899183374
 30
0.0
 10
11.3220664256
 20
10.3857363679
 30
0.0
 10
11.3289735016
 20
10.3821162055
 30
0.0
 10
11.3341353576
 20
10.3791683964
 30
0.0
 10
11.3377624909
 20
10.3769730075
 30
0.0
 10
11.3412071229
 20
10.3747580098
 30
0.0
 10
11.3444676762
 20
10.3725243261
 30
0.0
 10
11.3475426877
 20
10.3702729832
 30
0.0
 10
11.3504307755
 20
10.3680049836
 30
0.0
 10
11.3531306048
 20
10.365721279
 30
0.0
 10
11.3556409803
 20
10.3634229113
 30
0.0
 10
11.3579607533
 20
10.3611108126
 30
0.0
 10
11.3600887859
 20
10.3587860371
 30
0.0
 10
11.3620243069
 20
10.356449289
 30
0.0
 10
11.3643055248
 20
10.3533749968
 30
0.0
 10
11.3657917125
 20
10.3509708001
 30
0.0
 10
11.3666523892
 20
10.3493398531
 30
0.0
  0
SPLINE
  5
2C3
100
AcDbEntity
  8
0
100
AcDbSpline
 62
7
  6
CONTINUOUS
 70
0
 71
3
 72
80
 73
76
 74
0
 42
0.0000001
 43
0.0000001
 44
0.0000000001
 40
0.0
 40
0.0
 40
0.0
 40
0.0
 40
0.0039568198
 40
0.0080750361
 40
0.0123587137
 40
0.0168113061
 40
0.0214357565
 40
0.0262344282
 40
0.0312089847
 40
0.0363605902
 40
0.041689977
 40
0.0471974434
 40
0.0587456105
 40
0.071001569
 40
0.0839566148
 40
0.0975982591
 40
0.1119107406
 40
0.126875421
 40
0.1424711331
 40
0.1586744591
 40
0.1754599547
 40
0.1928003303
 40
0.2106666152
 40
0.229028325
 40
0.247853598
 40
0.2671093169
 40
0.2867612145
 40
0.3067739963
 40
0.3271114541
 40
0.3477365675
 40
0.3686115995
 40
0.4109567279
 40
0.4538352165
 40
0.4969294969
 40
0.5399199361
 40
0.5824878889
 40
0.6243187807
 40
0.6448618041
 40
0.66510602
 40
0.6850146412
 40
0.7045517247
 40
0.7236822735
 40
0.7423723469
 40
0.7605891888
 40
0.7783013393
 40
0.7954787558
 40
0.8120929516
 40
0.8281171633
 40
0.8435265338
 40
0.8582982974
 40
0.8724120152
 40
0.8858498639
 40
0.8985970099
 40
0.9106420399
 40
0.9219775157
 40
0.9273784563
 40
0.9326014582
 40
0.9376470502
 40
0.9425162527
 40
0.9472105368
 40
0.9517319041
 40
0.9560830042
 40
0.9602671085
 40
0.9642882984
 40
0.9681514991
 40
0.9718625752
 40
0.9754285134
 40
0.9788574426
 40
0.9821588239
 40
0.9853435229
 40
0.988423858
 40
0.991413693
 40
0.9943283413
 40
0.9971844926
 40
1.0
 40
1.0
 40
1.0
 40
1.0
 10
10.5368385038
 20
10.362228671
 30
0.0
 10
10.5376579197
 20
10.363020166
 30
0.0
 10
10.5393670471
 20
10.3645976262
 30
0.0
 10
10.5420794215
 20
10.366902193
 30
0.0
 10
10.5449894517
 20
10.369190429
 30
0.0
 10
10.5480955677
 20
10.3714610865
 30
0.0
 10
10.5513962477
 20
10.3737131493
 30
0.0
 10
10.55488993
 20
10.3759455194
 30
0.0
 10
10.5585748985
 20
10.3781571682
 30
0.0
 10
10.5624493475
 20
10.3803469875
 30
0.0
 10
10.5665113806
 20
10.3825139041
 30
0.0
 10
10.5722661263
 20
10.3854171564
 30
0.0
 10
10.5799228667
 20
10.3889726841
 30
0.0
 10
10.5896851547
 20
10.3930664808
 30
0.0
 10
10.6001426738
 20
10.3970441674
 30
0.0
 10
10.6112747925
 20
10.400897839
 30
0.0
 10
10.6230597007
 20
10.4046198189
 30
0.0
 10
10.6354741575
 20
10.4082026811
 30
0.0
 10
10.6484936456
 20
10.411639266
 30
0.0
 10
10.6620924102
 20
10.4149226987
 30
0.0
 10
10.676243523
 20
10.4180464051
 30
0.0
 10
10.6909189325
 20
10.4210041323
 30
0.0
 10
10.7060895236
 20
10.4237899681
 30
0.0
 10
10.7217251858
 20
10.4263983401
 30
0.0
 10
10.7377948777
 20
10.4288240301
 30
0.0
 10
10.7542666868
 20
10.4310621825
 30
0.0
 10
10.7711078899
 20
10.4331083253
 30
0.0
 10
10.7882850251
 20
10.4349583738
 30
0.0
 10
10.8057639518
 20
10.4366086249
 30
0.0
 10
10.8235099637
 20
10.4380558006
 30
0.0
 10
10.8475940845
 20
10.4397184867
 30
0.0
 10
10.8781063291
 20
10.4412642334
 30
0.0
 10
10.9150415714
 20
10.4422663156
 30
0.0
 10
10.9521759692
 20
10.4424159911
 30
0.0
 10
10.9892145976
 20
10.4417121287
 30
0.0
 10
11.0258632879
 20
10.4401603278
 30
0.0
 10
11.0560154047
 20
10.4381593315
 30
0.0
 10
11.0797173808
 20
10.4361363163
 30
0.0
 10
11.0971096989
 20
10.4344259375
 30
0.0
 10
11.1141899233
 20
10.4325168496
 30
0.0
 10
11.1309241442
 20
10.4304128431
 30
0.0
 10
11.1472791049
 20
10.4281181286
 30
0.0
 10
11.1632223178
 20
10.4256372869
 30
0.0
 10
11.1787221226
 20
10.4229752842
 30
0.0
 10
11.193747752
 20
10.4201374471
 30
0.0
 10
11.2082693884
 20
10.4171294531
 30
0.0
 10
11.222258227
 20
10.4139573169
 30
0.0
 10
11.2356865427
 20
10.410627384
 30
0.0
 10
11.2485277531
 20
10.407146323
 30
0.0
 10
11.260756469
 20
10.4035210969
 30
0.0
 10
11.2723485557
 20
10.3997589496
 30
0.0
 10
11.283281169
 20
10.3958673819
 30
0.0
 10
11.2935329158
 20
10.3918541335
 30
0.0
 10
11.3030835897
 20
10.3877271739
 30
0.0
 10
11.3105589495
 20
10.3841445764
 30
0.0
 10
11.3161654757
 20
10.3812207907
 30
0.0
 10
11.3201155628
 20
10.3790400516
 30
0.0
 10
11.3238769116
 20
10.3768370485
 30
0.0
 10
11.3274476982
 20
10.3746128662
 30
0.0
 10
11.330826171
 20
10.3723685848
 30
0.0
 10
11.3340106623
 20
10.3701052597
 30
0.0
 10
11.336999644
 20
10.3678240204
 30
0.0
 10
11.3397916266
 20
10.3655259004
 30
0.0
 10
11.3423852583
 20
10.3632120015
 30
0.0
 10
11.3447792716
 20
10.3608833999
 30
0.0
 10
11.3469724383
 20
10.3585411178
 30
0.0
 10
11.3489636934
 20
10.3561862574
 30
0.0
 10
11.3507519556
 20
10.3538198242
 30
0.0
 10
11.3523362533
 20
10.351442877
 30
0.0
 10
11.3537156916
 20
10.3490564924
 30
0.0
 10
11.3548893272
 20
10.3466617139
 30
0.0
 10
11.3558564045
 20
10.3442597381
 30
0.0
 10
11.3566161264
 20
10.3418516893
 30
0.0
 10
11.3571677968
 20
10.3394391198
 30
0.0
 10
11.3573977533
 20
10.3378200563
 30
0.0
 10
11.3574771591
 20
10.337013307
 30
0.0
  0
SPLINE
  5
2C4
100
AcDbEntity
  8
0
100
AcDbSpline
 62
7
  6
CONTINUOUS
 70
0
 71
3
 72
18
 73
14
 74
0
 42
0.0000001
 43
0.0000001
 44
0.0000000001
 40
0.0
 40
0.0
 40
0.0
 40
0.0
 40
0.0548627003
 40
0.1099292984
 40
0.1654013502
 40
0.22147558
 40
0.3361333207
 40
0.4553633897
 40
0.5171049197
 40
0.5804365965
 40
0.7123310206
 40
0.851957275
 40
1.0
 40
1.0
 40
1.0
 40
1.0
 10
10.5096125695
 20
10.3642049792
 30
0.0
 10
10.509612567
 20
10.3648129701
 30
0.0
 10
10.5096511475
 20
10.3660315628
 30
0.0
 10
10.509824624
 20
10.3678574611
 30
0.0
 10
10.5101137406
 20
10.3696823441
 30
0.0
 10
10.5106570262
 20
10.372130928
 30
0.0
 10
10.5116357647
 20
10.3751998537
 30
0.0
 10
10.5129762685
 20
10.3781963245
 30
0.0
 10
10.5142661436
 20
10.3805777048
 30
0.0
 10
10.515743105
 20
10.3830136605
 30
0.0
 10
10.5178876906
 20
10.386048517
 30
0.0
 10
10.520877636
 20
10.3896149549
 30
0.0
 10
10.5231014466
 20
10.3919033937
 30
0.0
 10
10.5242814674
 20
10.3930432063
 30
0.0
  0
SPLINE
  5
2C5
100
AcDbEntity
  8
0
100
AcDbSpline
 62
7
  6
CONTINUOUS
 70
0
 71
3
 72
75
 73
71
 74
0
 42
0.0000001
 43
0.0000001
 44
0.0000000001
 40
0.0
 40
0.0
 40
0.0
 40
0.0
 40
0.0038937699
 40
0.0079425086
 40
0.0121500485
 40
0.016519644
 40
0.0210540909
 40
0.0257556721
 40
0.0306260435
 40
0.0356663478
 40
0.0408773565
 40
0.0462594181
 40
0.0575360289
 40
0.0694935172
 40
0.0821243427
 40
0.0954174074
 40
0.109358507
 40
0.1239307546
 40
0.1391148976
 40
0.1548895551
 40
0.1712314076
 40
0.1881154092
 40
0.205514949
 40
0.2234019752
 40
0.2417471049
 40
0.2605197674
 40
0.2796883132
 40
0.2992201036
 40
0.3190815984
 40
0.3596549311
 40
0.4011266597
 40
0.4432058868
 40
0.4855961414
 40
0.5279981049
 40
0.5701123505
 40
0.611642088
 40
0.6522958829
 40
0.6722058002
 40
0.691791321
 40
0.711018779
 40
0.7298553942
 40
0.7482693526
 40
0.766229901
 40
0.7837074682
 40
0.8006737939
 40
0.817102028
 40
0.8329668617
 40
0.8482447018
 40
0.8629138594
 40
0.8769547271
 40
0.8903500202
 40
0.9030851016
 40
0.9151483648
 40
0.9265316738
 40
0.9372309658
 40
0.942324525
 40
0.947247871
 40
0.9520020553
 40
0.9565885443
 40
0.9610093718
 40
0.9652670906
 40
0.9693648924
 40
0.9733067152
 40
0.9770972392
 40
0.9807420765
 40
0.9876196677
 40
0.9908714558
 40
0.9940108682
 40
0.9970494124
 40
1.0
 40
1.0
 40
1.0
 40
1.0
 10
10.5469807256
 20
10.3439584621
 30
0.0
 10
10.547759829
 20
10.3447110182
 30
0.0
 10
10.5493832203
 20
10.3462110258
 30
0.0
 10
10.5519564181
 20
10.3484038659
 30
0.0
 10
10.5547131721
 20
10.3505816184
 30
0.0
 10
10.5576520656
 20
10.352743128
 30
0.0
 10
10.5607717112
 20
10.3548874744
 30
0.0
 10
10.5640707063
 20
10.3570136667
 30
0.0
 10
10.5675475189
 20
10.3591207601
 30
0.0
 10
10.5712005151
 20
10.3612077793
 30
0.0
 10
10.5750280039
 20
10.363273723
 30
0.0
 10
10.5804461001
 20
10.3660420743
 30
0.0
 10
10.5876501843
 20
10.3694350258
 30
0.0
 10
10.5968309258
 20
10.3733464769
 30
0.0
 10
10.6066602075
 20
10.3771513805
 30
0.0
 10
10.6171195617
 20
10.3808425319
 30
0.0
 10
10.628189469
 20
10.3844129526
 30
0.0
 10
10.639849145
 20
10.3878558594
 30
0.0
 10
10.6520766755
 20
10.3911646985
 30
0.0
 10
10.6648490338
 20
10.3943331621
 30
0.0
 10
10.6781421306
 20
10.3973552251
 30
0.0
 10
10.6919308737
 20
10.4002251319
 30
0.0
 10
10.7061892242
 20
10.4029374124
 30
0.0
 10
10.7208902403
 20
10.4054868945
 30
0.0
 10
10.7360061263
 20
10.4078687322
 30
0.0
 10
10.7515082972
 20
10.410078394
 30
0.0
 10
10.7673674271
 20
10.4121116637
 30
0.0
 10
10.7835535397
 20
10.4139646916
 30
0.0
 10
10.8056868026
 20
10.4162061298
 30
0.0
 10
10.8339444838
 20
10.4185240203
 30
0.0
 10
10.8684199396
 20
10.4205213568
 30
0.0
 10
10.9034375101
 20
10.4217383982
 30
0.0
 10
10.938732319
 20
10.4221657972
 30
0.0
 10
10.974037563
 20
10.4218002872
 30
0.0
 10
11.0090863587
 20
10.420644659
 30
0.0
 10
11.0436135914
 20
10.4187077878
 30
0.0
 10
11.071927459
 20
10.416439782
 30
0.0
 10
11.0941157128
 20
10.4142376296
 30
0.0
 10
11.1103501463
 20
10.4124130835
 30
0.0
 10
11.1262623418
 20
10.4104077228
 30
0.0
 10
11.1418222229
 20
10.4082253462
 30
0.0
 10
11.1570003521
 20
10.405870115
 30
0.0
 10
11.1717680236
 20
10.4033465056
 30
0.0
 10
11.1860973164
 20
10.40065932
 30
0.0
 10
11.1999611548
 20
10.397813684
 30
0.0
 10
11.2133333531
 20
10.3948150188
 30
0.0
 10
11.2261886644
 20
10.3916690303
 30
0.0
 10
11.238502842
 20
10.3883817075
 30
0.0
 10
11.2502526948
 20
10.3849593189
 30
0.0
 10
11.2614161237
 20
10.3814083782
 30
0.0
 10
11.2719721763
 20
10.3777356255
 30
0.0
 10
11.2819010809
 20
10.3739480235
 30
0.0
 10
11.2911843969
 20
10.3700527236
 30
0.0
 10
11.2998047265
 20
10.3660570691
 30
0.0
 10
11.3065288868
 20
10.3625953757
 30
0.0
 10
11.3115552182
 20
10.3597749824
 30
0.0
 10
11.3150872538
 20
10.3576740352
 30
0.0
 10
11.3184419839
 20
10.3555537042
 30
0.0
 10
11.3216178251
 20
10.3534149019
 30
0.0
 10
11.3246133217
 20
10.3512586594
 30
0.0
 10
11.3274270665
 20
10.3490859427
 30
0.0
 10
11.3300577484
 20
10.3468977025
 30
0.0
 10
11.3325041221
 20
10.3446950053
 30
0.0
 10
11.3347651789
 20
10.34247861
 30
0.0
 10
11.337478437
 20
10.3395633073
 30
0.0
 10
11.339883657
 20
10.3365689764
 30
0.0
 10
11.3419340696
 20
10.3334972976
 30
0.0
 10
11.3432530796
 20
10.3312275659
 30
0.0
 10
11.3443810267
 20
10.3289502546
 30
0.0
 10
11.3450136239
 20
10.3274069981
 30
0.0
 10
11.3452959368
 20
10.3266362494
 30
0.0
  0
SPLINE
  5
2C6
100
AcDbEntity
  8
0
100
AcDbSpline
 62
7
  6
CONTINUOUS
 70
0
 71
3
 72
23
 73
19
 74
0
 42
0.0000001
 43
0.0000001
 44
0.0000000001
 40
0.0
 40
0.0
 40
0.0
 40
0.0
 40
0.056580304
 40
0.1154843566
 40
0.176412265
 40
0.2390491337
 40
0.3030677007
 40
0.3681309476
 40
0.4338945811
 40
0.5000094587
 40
0.5661240295
 40
0.6318867449
 40
0.6969484686
 40
0.760964918
 40
0.8235990894
 40
0.88452374
 40
0.9434239983
 40
1.0
 40
1.0
 40
1.0
 40
1.0
 10
10.7089277878
 20
10.2702727372
 30
0.0
 10
10.7175514881
 20
10.2718131818
 30
0.0
 10
10.7351985752
 20
10.2747066807
 30
0.0
 10
10.7622587218
 20
10.2784372309
 30
0.0
 10
10.7903314118
 20
10.2816310197
 30
0.0
 10
10.819256711
 20
10.2842695369
 30
0.0
 10
10.8488701202
 20
10.286337564
 30
0.0
 10
10.8790030569
 20
10.2878231616
 30
0.0
 10
10.9094839723
 20
10.2887177477
 30
0.0
 10
10.9401393028
 20
10.2890161671
 30
0.0
 10
10.970794481
 20
10.2887167061
 30
0.0
 10
11.0012749405
 20
10.2878210843
 30
0.0
 10
11.0314071201
 20
10.286334463
 30
0.0
 10
11.0610194756
 20
10.2842654302
 30
0.0
 10
11.0899434304
 20
10.2816259309
 30
0.0
 10
11.1180144931
 20
10.2784311894
 30
0.0
 10
11.1450727391
 20
10.2746997215
 30
0.0
 10
11.1627184557
 20
10.2718056077
 30
0.0
 10
11.1713414251
 20
10.2702648599
 30
0.0
  0
SPLINE
  5
2C7
100
AcDbEntity
  8
0
100
AcDbSpline
 62
7
  6
CONTINUOUS
 70
0
 71
3
 72
54
 73
50
 74
0
 42
0.0000001
 43
0.0000001
 44
0.0000000001
 40
0.0
 40
0.0
 40
0.0
 40
0.0
 40
0.052784991
 40
0.1048060923
 40
0.1559445044
 40
0.2060905216
 40
0.2551340321
 40
0.3029694639
 40
0.3494949945
 40
0.3946130603
 40
0.438230921
 40
0.4802611185
 40
0.5206221511
 40
0.559239105
 40
0.5960444107
 40
0.6309787921
 40
0.663992489
 40
0.6950468015
 40
0.709831479
 40
0.7241178387
 40
0.7379051855
 40
0.751193962
 40
0.7639858374
 40
0.7762841535
 40
0.7880937245
 40
0.7994213683
 40
0.8102760565
 40
0.8206690605
 40
0.830614617
 40
0.8401299511
 40
0.8492359035
 40
0.8579573592
 40
0.8663234793
 40
0.8743683592
 40
0.8821310443
 40
0.8896557027
 40
0.8969914552
 40
0.9041916844
 40
0.9113132101
 40
0.9184149027
 40
0.9255561887
 40
0.9327954181
 40
0.9401884307
 40
0.9477872381
 40
0.9637758035
 40
0.972256837
 40
0.9811038595
 40
0.9903441354
 40
1.0
 40
1.0
 40
1.0
 40
1.0
 10
9.976071294
 20
10.1840127741
 30
0.0
 10
9.9706697356
 20
10.1843873734
 30
0.0
 10
9.9599496387
 20
10.1852033176
 30
0.0
 10
9.9440173489
 20
10.1866390012
 30
0.0
 10
9.9283764752
 20
10.1882750273
 30
0.0
 10
9.9130649242
 20
10.1901073494
 30
0.0
 10
9.8981193528
 20
10.1921315854
 30
0.0
 10
9.8835757917
 20
10.1943428083
 30
0.0
 10
9.8694691992
 20
10.196735653
 30
0.0
 10
9.855833487
 20
10.1993043159
 30
0.0
 10
9.8427014239
 20
10.2020425635
 30
0.0
 10
9.8301045428
 20
10.2049437584
 30
0.0
 10
9.8180730574
 20
10.2080008536
 30
0.0
 10
9.806635776
 20
10.2112064273
 30
0.0
 10
9.7958200538
 20
10.2145527048
 30
0.0
 10
9.7856516311
 20
10.2180315915
 30
0.0
 10
9.7761548276
 20
10.2216346825
 30
0.0
 10
9.7687016529
 20
10.2247830224
 30
0.0
 10
9.7630998701
 20
10.227364362
 30
0.0
 10
9.759149363
 20
10.229294249
 30
0.0
 10
9.7553829341
 20
10.2312486023
 30
0.0
 10
9.7518028123
 20
10.2332262716
 30
0.0
 10
9.748411145
 20
10.2352261231
 30
0.0
 10
9.7452099146
 20
10.2372469238
 30
0.0
 10
9.742201034
 20
10.239287537
 30
0.0
 10
9.739386275
 20
10.24134677
 30
0.0
 10
9.7367672769
 20
10.2434234168
 30
0.0
 10
9.7343456265
 20
10.2455163642
 30
0.0
 10
9.7321227176
 20
10.2476243925
 30
0.0
 10
9.7300999093
 20
10.2497463914
 30
0.0
 10
9.7282784553
 20
10.2518812333
 30
0.0
 10
9.7266594705
 20
10.2540277577
 30
0.0
 10
9.7252441248
 20
10.2561849036
 30
0.0
 10
9.7240334012
 20
10.2583514848
 30
0.0
 10
9.7230283189
 20
10.2605263384
 30
0.0
 10
9.722229864
 20
10.2627082067
 30
0.0
 10
9.721638813
 20
10.2648956701
 30
0.0
 10
9.7212559961
 20
10.2670872201
 30
0.0
 10
9.7210818648
 20
10.2692811526
 30
0.0
 10
9.7211166729
 20
10.2714756918
 30
0.0
 10
9.7213604423
 20
10.273669025
 30
0.0
 10
9.7218127019
 20
10.27585938
 30
0.0
 10
9.7224730337
 20
10.2780452233
 30
0.0
 10
9.7236491871
 20
10.2810008373
 30
0.0
 10
9.7252370497
 20
10.2838985557
 30
0.0
 10
9.7271764383
 20
10.2867141981
 30
0.0
 10
9.7288632233
 20
10.2888572376
 30
0.0
 10
9.7307518835
 20
10.2909878095
 30
0.0
 10
9.7321140675
 20
10.2923681745
 30
0.0
 10
9.7328264682
 20
10.2930563007
 30
0.0
  0
SPLINE
  5
2C8
100
AcDbEntity
  8
0
100
AcDbSpline
 62
7
  6
CONTINUOUS
 70
0
 71
3
 72
40
 73
36
 74
0
 42
0.0000001
 43
0.0000001
 44
0.0000000001
 40
0.0
 40
0.0
 40
0.0
 40
0.0
 40
0.0958312793
 40
0.1891000446
 40
0.2345965891
 40
0.279241512
 40
0.3229681675
 40
0.3657118109
 40
0.4074099461
 40
0.4480024746
 40
0.4874320226
 40
0.5256441407
 40
0.5625874576
 40
0.5982141394
 40
0.6324802032
 40
0.6653457683
 40
0.6967756912
 40
0.7267401448
 40
0.7552151418
 40
0.7821835616
 40
0.8076363113
 40
0.8315735468
 40
0.8540066404
 40
0.8749606632
 40
0.8944772684
 40
0.9126187468
 40
0.9294730511
 40
0.9451593172
 40
0.9598338268
 40
0.9668558706
 40
0.9737029056
 40
0.980406309
 40
0.9869997194
 40
0.9935186515
 40
1.0
 40
1.0
 40
1.0
 40
1.0
 10
9.9680479103
 20
10.1463190776
 30
0.0
 10
9.9582806395
 20
10.1469964401
 30
0.0
 10
9.9390214315
 20
10.1485478965
 30
0.0
 10
9.9151805065
 20
10.1510358277
 30
0.0
 10
9.8965831975
 20
10.153334267
 30
0.0
 10
9.8830322696
 20
10.1551887072
 30
0.0
 10
9.8697858358
 20
10.1571848132
 30
0.0
 10
9.8568660016
 20
10.1593192456
 30
0.0
 10
9.8442943597
 20
10.1615884024
 30
0.0
 10
9.8320919126
 20
10.163988487
 30
0.0
 10
9.8202790324
 20
10.1665154556
 30
0.0
 10
9.808875431
 20
10.1691650469
 30
0.0
 10
9.7979001333
 20
10.1719328228
 30
0.0
 10
9.7873714292
 20
10.1748141251
 30
0.0
 10
9.7773068412
 20
10.1778040946
 30
0.0
 10
9.7677231068
 20
10.180897726
 30
0.0
 10
9.7586361285
 20
10.1840898295
 30
0.0
 10
9.7500609378
 20
10.187375041
 30
0.0
 10
9.7420116851
 20
10.190747895
 30
0.0
 10
9.7345015895
 20
10.194202802
 30
0.0
 10
9.7275428938
 20
10.1977340557
 30
0.0
 10
9.7211468697
 20
10.2013359426
 30
0.0
 10
9.7153237807
 20
10.2050027627
 30
0.0
 10
9.7100828485
 20
10.208728858
 30
0.0
 10
9.7054323283
 20
10.2125088288
 30
0.0
 10
9.7013796397
 20
10.2163375293
 30
0.0
 10
9.6979314162
 20
10.2202104528
 30
0.0
 10
9.6950943638
 20
10.2241226915
 30
0.0
 10
9.6932178358
 20
10.2274615651
 30
0.0
 10
9.692048041
 20
10.2301350005
 30
0.0
 10
9.6913398065
 20
10.2321158086
 30
0.0
 10
9.690788424
 20
10.2341005168
 30
0.0
 10
9.69039424
 20
10.2360883116
 30
0.0
 10
9.6901576351
 20
10.2380780472
 30
0.0
 10
9.6901049867
 20
10.2394068302
 30
0.0
 10
9.6901049831
 20
10.2400690058
 30
0.0
  0
SPLINE
  5
2C9
100
AcDbEntity
  8
0
100
AcDbSpline
 62
7
  6
CONTINUOUS
 70
0
 71
3
 72
15
 73
11
 74
0
 42
0.0000001
 43
0.0000001
 44
0.0000000001
 40
0.0
 40
0.0
 40
0.0
 40
0.0
 40
0.1273482789
 40
0.2538606571
 40
0.3795878378
 40
0.5046051156
 40
0.629017439
 40
0.7529533823
 40
0.8765605864
 40
1.0
 40
1.0
 40
1.0
 40
1.0
 10
9.7383631311
 20
8.9804969407
 30
0.0
 10
9.7383631311
 20
8.9848240244
 30
0.0
 10
9.7387762815
 20
8.9934557712
 30
0.0
 10
9.7406446861
 20
9.0062373732
 30
0.0
 10
9.7437428253
 20
9.0186978279
 30
0.0
 10
9.7480427131
 20
9.0307206003
 30
0.0
 10
9.7535049134
 20
9.0421948168
 30
0.0
 10
9.7600795977
 20
9.0530145384
 30
0.0
 10
9.7677049671
 20
9.0630783833
 30
0.0
 10
9.7734464894
 20
9.0692259626
 30
0.0
 10
9.7764632252
 20
9.0721399256
 30
0.0
  0
SPLINE
  5
2CA
100
AcDbEntity
  8
0
100
AcDbSpline
 62
7
  6
CONTINUOUS
 70
0
 71
3
 72
15
 73
11
 74
0
 42
0.0000001
 43
0.0000001
 44
0.0000000001
 40
0.0
 40
0.0
 40
0.0
 40
0.0
 40
0.1273482789
 40
0.2538606571
 40
0.3795878378
 40
0.5046051156
 40
0.629017439
 40
0.7529533823
 40
0.8765605864
 40
1.0
 40
1.0
 40
1.0
 40
1.0
 10
11.4886207232
 20
8.8591161644
 30
0.0
 10
11.4886207232
 20
8.8634432482
 30
0.0
 10
11.4890338735
 20
8.8720749949
 30
0.0
 10
11.4909022781
 20
8.884856597
 30
0.0
 10
11.4940004173
 20
8.8973170517
 30
0.0
 10
11.4983003052
 20
8.909339824
 30
0.0
 10
11.5037625054
 20
8.9208140406
 30
0.0
 10
11.5103371897
 20
8.9316337621
 30
0.0
 10
11.5179625591
 20
8.941697607
 30
0.0
 10
11.5237040814
 20
8.9478451863
 30
0.0
 10
11.5267208172
 20
8.9507591493
 30
0.0
  0
SPLINE
  5
2CB
100
AcDbEntity
  8
0
100
AcDbSpline
 62
7
  6
CONTINUOUS
 70
0
 71
3
 72
40
 73
36
 74
0
 42
0.0000001
 43
0.0000001
 44
0.0000000001
 40
0.0
 40
0.0
 40
0.0
 40
0.0
 40
0.0958313936
 40
0.1891002636
 40
0.2345968559
 40
0.2792418231
 40
0.3229685191
 40
0.3657121987
 40
0.4074103657
 40
0.4480029213
 40
0.4874324913
 40
0.5256446262
 40
0.5625879545
 40
0.5982146421
 40
0.632480706
 40
0.6653462654
 40
0.6967761768
 40
0.726740613
 40
0.7552155871
 40
0.7821839784
 40
0.8076366943
 40
0.8315738914
 40
0.8540069425
 40
0.8749609194
 40
0.8944774765
 40
0.9126189061
 40
0.9294731629
 40
0.9451593854
 40
0.9598338584
 40
0.9668558876
 40
0.9737029112
 40
0.9804063068
 40
0.9869997133
 40
0.9935186461
 40
1.0
 40
1.0
 40
1.0
 40
1.0
 10
9.9680479103
 20
9.3919309852
 30
0.0
 10
9.9582806194
 20
9.3926083491
 30
0.0
 10
9.9390213725
 20
9.3941598091
 30
0.0
 10
9.9151804001
 20
9.3966477469
 30
0.0
 10
9.8965830554
 20
9.3989461929
 30
0.0
 10
9.8830321027
 20
9.4008006386
 30
0.0
 10
9.8697856456
 20
9.4027967506
 30
0.0
 10
9.8568657898
 20
9.4049311896
 30
0.0
 10
9.8442941281
 20
9.4072003535
 30
0.0
 10
9.8320916632
 20
9.4096004455
 30
0.0
 10
9.8202787671
 20
9.4121274221
 30
0.0
 10
9.808875152
 20
9.4147770218
 30
0.0
 10
9.797899843
 20
9.4175448064
 30
0.0
 10
9.7873711297
 20
9.4204261178
 30
0.0
 10
9.777306535
 20
9.4234160967
 30
0.0
 10
9.7677227964
 20
9.4265097378
 30
0.0
 10
9.7586358166
 20
9.4297018513
 30
0.0
 10
9.750060627
 20
9.4329870728
 30
0.0
 10
9.742011378
 20
9.4363599371
 30
0.0
 10
9.7345012889
 20
9.4398148544
 30
0.0
 10
9.7275426024
 20
9.4433461186
 30
0.0
 10
9.7211465904
 20
9.446948016
 30
0.0
 10
9.7153235163
 20
9.4506148466
 30
0.0
 10
9.7100826018
 20
9.4543409524
 30
0.0
 10
9.7054321022
 20
9.4581209336
 30
0.0
 10
9.7013794369
 20
9.4619496446
 30
0.0
 10
9.6979312397
 20
9.4658225785
 30
0.0
 10
9.6950942164
 20
9.4697348274
 30
0.0
 10
9.6932177158
 20
9.4730737094
 30
0.0
 10
9.6920479444
 20
9.4757471507
 30
0.0
 10
9.6913397278
 20
9.4777279636
 30
0.0
 10
9.6907883639
 20
9.4797126763
 30
0.0
 10
9.6903941992
 20
9.4817004756
 30
0.0
 10
9.6901576144
 20
9.4836902156
 30
0.0
 10
9.6901049797
 20
9.4850190009
 30
0.0
 10
9.6901049831
 20
9.4856811777
 30
0.0
  0
SPLINE
  5
2CC
100
AcDbEntity
  8
0
100
AcDbSpline
 62
7
  6
CONTINUOUS
 70
0
 71
3
 72
18
 73
14
 74
0
 42
0.0000001
 43
0.0000001
 44
0.0000000001
 40
0.0
 40
0.0
 40
0.0
 40
0.0
 40
0.054862568
 40
0.1099291209
 40
0.1654011893
 40
0.2214754292
 40
0.336133642
 40
0.4553634706
 40
0.5171047465
 40
0.5804363458
 40
0.712331634
 40
0.8519592464
 40
1.0
 40
1.0
 40
1.0
 40
1.0
 10
12.308929091
 20
9.6658262479
 30
0.0
 10
12.3089290882
 20
9.665296649
 30
0.0
 10
12.3088954752
 20
9.6642351761
 30
0.0
 10
12.308744318
 20
9.6626447043
 30
0.0
 10
12.308492449
 20
9.6610551168
 30
0.0
 10
12.308019204
 20
9.6589222354
 30
0.0
 10
12.3071665894
 20
9.6562490188
 30
0.0
 10
12.3059989291
 20
9.6536388948
 30
0.0
 10
12.3048753465
 20
9.6515645704
 30
0.0
 10
12.3035887979
 20
9.6494426979
 30
0.0
 10
12.3017207058
 20
9.6467991247
 30
0.0
 10
12.2991162447
 20
9.643692538
 30
0.0
 10
12.2971791704
 20
9.6416991555
 30
0.0
 10
12.2961513084
 20
9.6407063169
 30
0.0
  0
SPLINE
  5
2CD
100
AcDbEntity
  8
0
100
AcDbSpline
 62
7
  6
CONTINUOUS
 70
0
 71
3
 72
18
 73
14
 74
0
 42
0.0000001
 43
0.0000001
 44
0.0000000001
 40
0.0
 40
0.0
 40
0.0
 40
0.0
 40
0.0548626221
 40
0.1099291996
 40
0.1654012684
 40
0.2214754896
 40
0.3361336267
 40
0.4553633642
 40
0.5171046005
 40
0.5804361693
 40
0.7123314363
 40
0.8519591016
 40
1.0
 40
1.0
 40
1.0
 40
1.0
 10
12.308929091
 20
10.4202146047
 30
0.0
 10
12.3089290938
 20
10.4196850005
 30
0.0
 10
12.3088954913
 20
10.4186235168
 30
0.0
 10
12.3087443477
 20
10.4170330283
 30
0.0
 10
12.3084924902
 20
10.415443424
 30
0.0
 10
12.3080192579
 20
10.4133105202
 30
0.0
 10
12.3071666537
 20
10.4106372751
 30
0.0
 10
12.3059989963
 20
10.4080271232
 30
0.0
 10
12.3048754123
 20
10.4059527769
 30
0.0
 10
12.3035888592
 20
10.4038308817
 30
0.0
 10
12.3017207558
 20
10.4011872801
 30
0.0
 10
12.2991162735
 20
10.3980806607
 30
0.0
 10
12.2971791808
 20
10.3960872579
 30
0.0
 10
12.2961513084
 20
10.3950944093
 30
0.0
  0
SPLINE
  5
2CE
100
AcDbEntity
  8
0
100
AcDbSpline
 62
7
  6
CONTINUOUS
 70
0
 71
3
 72
23
 73
19
 74
0
 42
0.0000001
 43
0.0000001
 44
0.0000000001
 40
0.0
 40
0.0
 40
0.0
 40
0.0
 40
0.0749625009
 40
0.1455684839
 40
0.2121600745
 40
0.2751631548
 40
0.3350982506
 40
0.3925832742
 40
0.4483295117
 40
0.5031237972
 40
0.5577983643
 40
0.613191491
 40
0.670106811
 40
0.729278715
 40
0.7913522906
 40
0.8568775564
 40
0.9263090861
 40
1.0
 40
1.0
 40
1.0
 40
1.0
 10
12.2653501089
 20
10.4740147587
 30
0.0
 10
12.266343454
 20
10.4730903462
 30
0.0
 10
12.2682173477
 20
10.4712344542
 30
0.0
 10
12.2707457955
 20
10.468338989
 30
0.0
 10
12.2729019065
 20
10.4654206028
 30
0.0
 10
12.2746824375
 20
10.4624818055
 30
0.0
 10
12.2760844479
 20
10.4595252157
 30
0.0
 10
12.2771047642
 20
10.4565538446
 30
0.0
 10
12.2777405327
 20
10.453571523
 30
0.0
 10
12.2779894882
 20
10.4505829727
 30
0.0
 10
12.2778506512
 20
10.4475936291
 30
0.0
 10
12.2773245976
 20
10.4446090101
 30
0.0
 10
12.2764132049
 20
10.4416341109
 30
0.0
 10
12.2751193415
 20
10.4386729831
 30
0.0
 10
12.2734460181
 20
10.4357288737
 30
0.0
 10
12.2713962685
 20
10.4328043553
 30
0.0
 10
12.2689732479
 20
10.4299022143
 30
0.0
 10
12.2671670322
 20
10.4280414491
 30
0.0
 10
12.266207606
 20
10.4271147145
 30
0.0
  0
SPLINE
  5
2CF
100
AcDbEntity
  8
0
100
AcDbSpline
 62
7
  6
CONTINUOUS
 70
0
 71
3
 72
41
 73
37
 74
0
 42
0.0000001
 43
0.0000001
 44
0.0000000001
 40
0.0
 40
0.0
 40
0.0
 40
0.0
 40
0.029942123
 40
0.0449237706
 40
0.0599145177
 40
0.0899291716
 40
0.1200145961
 40
0.1350933574
 40
0.1501974726
 40
0.1804849654
 40
0.2108989488
 40
0.2414525624
 40
0.2721557217
 40
0.3030149378
 40
0.3340332219
 40
0.3652100719
 40
0.3965415365
 40
0.4280203507
 40
0.4596361361
 40
0.4913756582
 40
0.5232231336
 40
0.5551605782
 40
0.5871681905
 40
0.6192247616
 40
0.6513081064
 40
0.6833955071
 40
0.7154641657
 40
0.7474916563
 40
0.7794563734
 40
0.811337967
 40
0.843117763
 40
0.8747791516
 40
0.9063079641
 40
0.9376927517
 40
0.9689251728
 40
1.0
 40
1.0
 40
1.0
 40
1.0
 10
9.9716882103
 20
8.8700305561
 30
0.0
 10
9.9693573637
 20
8.8677791157
 30
0.0
 10
9.9657237331
 20
8.8645383428
 30
0.0
 10
9.9606348896
 20
8.8605172581
 30
0.0
 10
9.9553839794
 20
8.8566962775
 30
0.0
 10
9.9485324079
 20
8.8523085313
 30
0.0
 10
9.9413476897
 20
8.8484705272
 30
0.0
 10
9.9354221653
 20
8.8457401364
 30
0.0
 10
9.9293742185
 20
8.8432351712
 30
0.0
 10
9.9216149839
 20
8.8405415878
 30
0.0
 10
9.9120528883
 20
8.8380312261
 30
0.0
 10
9.9022821394
 20
8.8362527996
 30
0.0
 10
9.8923568837
 20
8.8352161245
 30
0.0
 10
9.8823316438
 20
8.8349267319
 30
0.0
 10
9.8722615819
 20
8.8353860952
 30
0.0
 10
9.8622020458
 20
8.8365915608
 30
0.0
 10
9.8522083089
 20
8.8385363867
 30
0.0
 10
9.8423352584
 20
8.8412097794
 30
0.0
 10
9.8326371016
 20
8.8445969577
 30
0.0
 10
9.823167071
 20
8.8486792362
 30
0.0
 10
9.8139771368
 20
8.8534341293
 30
0.0
 10
9.8051177259
 20
8.8588354751
 30
0.0
 10
9.796637448
 20
8.8648535792
 30
0.0
 10
9.7885828334
 20
8.8714553764
 30
0.0
 10
9.7809980797
 20
8.8786046113
 30
0.0
 10
9.7739248127
 20
8.8862620359
 30
0.0
 10
9.76740186
 20
8.8943856221
 30
0.0
 10
9.7614650401
 20
8.9029307912
 30
0.0
 10
9.7561469676
 20
8.9118506544
 30
0.0
 10
9.7514768749
 20
8.9210962696
 30
0.0
 10
9.747480454
 20
8.9306168998
 30
0.0
 10
9.7441797127
 20
8.940360312
 30
0.0
 10
9.7415928598
 20
8.9502729714
 30
0.0
 10
9.739734191
 20
8.9603006572
 30
0.0
 10
9.7386140292
 20
8.9703875589
 30
0.0
 10
9.7383631311
 20
8.9771336948
 30
0.0
 10
9.7383631311
 20
8.9804969407
 30
0.0
  0
SPLINE
  5
2D0
100
AcDbEntity
  8
0
100
AcDbSpline
 62
7
  6
CONTINUOUS
 70
0
 71
3
 72
15
 73
11
 74
0
 42
0.0000001
 43
0.0000001
 44
0.0000000001
 40
0.0
 40
0.0
 40
0.0
 40
0.0
 40
0.1273482789
 40
0.2538606571
 40
0.3795878378
 40
0.5046051156
 40
0.629017439
 40
0.7529533823
 40
0.8765605864
 40
1.0
 40
1.0
 40
1.0
 40
1.0
 10
11.4886207232
 20
6.806523662
 30
0.0
 10
11.4886207232
 20
6.8108507457
 30
0.0
 10
11.4890338735
 20
6.8194824925
 30
0.0
 10
11.4909022781
 20
6.8322640945
 30
0.0
 10
11.4940004173
 20
6.8447245492
 30
0.0
 10
11.4983003052
 20
6.8567473215
 30
0.0
 10
11.5037625054
 20
6.8682215381
 30
0.0
 10
11.5103371897
 20
6.8790412596
 30
0.0
 10
11.5179625591
 20
6.8891051045
 30
0.0
 10
11.5237040814
 20
6.8952526838
 30
0.0
 10
11.5267208172
 20
6.8981666469
 30
0.0
  0
SPLINE
  5
2D1
100
AcDbEntity
  8
0
100
AcDbSpline
 62
7
  6
CONTINUOUS
 70
0
 71
3
 72
41
 73
37
 74
0
 42
0.0000001
 43
0.0000001
 44
0.0000000001
 40
0.0
 40
0.0
 40
0.0
 40
0.0
 40
0.029942123
 40
0.0449237706
 40
0.0599145177
 40
0.0899291716
 40
0.1200145961
 40
0.1350933574
 40
0.1501974726
 40
0.1804849654
 40
0.2108989488
 40
0.2414525624
 40
0.2721557217
 40
0.3030149378
 40
0.3340332219
 40
0.3652100719
 40
0.3965415365
 40
0.4280203507
 40
0.4596361361
 40
0.4913756582
 40
0.5232231336
 40
0.5551605782
 40
0.5871681905
 40
0.6192247616
 40
0.6513081064
 40
0.6833955071
 40
0.7154641657
 40
0.7474916563
 40
0.7794563734
 40
0.811337967
 40
0.843117763
 40
0.8747791516
 40
0.9063079641
 40
0.9376927517
 40
0.9689251728
 40
1.0
 40
1.0
 40
1.0
 40
1.0
 10
11.7219458023
 20
8.7486497798
 30
0.0
 10
11.7196149557
 20
8.7463983394
 30
0.0
 10
11.7159813252
 20
8.7431575665
 30
0.0
 10
11.7108924816
 20
8.7391364819
 30
0.0
 10
11.7056415714
 20
8.7353155012
 30
0.0
 10
11.6987899999
 20
8.7309277551
 30
0.0
 10
11.6916052817
 20
8.7270897509
 30
0.0
 10
11.6856797573
 20
8.7243593601
 30
0.0
 10
11.6796318105
 20
8.7218543949
 30
0.0
 10
11.6718725759
 20
8.7191608116
 30
0.0
 10
11.6623104803
 20
8.7166504498
 30
0.0
 10
11.6525397314
 20
8.7148720234
 30
0.0
 10
11.6426144757
 20
8.7138353482
 30
0.0
 10
11.6325892359
 20
8.7135459556
 30
0.0
 10
11.6225191739
 20
8.7140053189
 30
0.0
 10
11.6124596379
 20
8.7152107845
 30
0.0
 10
11.6024659009
 20
8.7171556105
 30
0.0
 10
11.5925928504
 20
8.7198290031
 30
0.0
 10
11.5828946936
 20
8.7232161814
 30
0.0
 10
11.573424663
 20
8.7272984599
 30
0.0
 10
11.5642347289
 20
8.732053353
 30
0.0
 10
11.5553753179
 20
8.7374546989
 30
0.0
 10
11.5468950401
 20
8.7434728029
 30
0.0
 10
11.5388404254
 20
8.7500746001
 30
0.0
 10
11.5312556717
 20
8.7572238351
 30
0.0
 10
11.5241824047
 20
8.7648812596
 30
0.0
 10
11.517659452
 20
8.7730048459
 30
0.0
 10
11.5117226321
 20
8.7815500149
 30
0.0
 10
11.5064045596
 20
8.7904698781
 30
0.0
 10
11.5017344669
 20
8.7997154933
 30
0.0
 10
11.497738046
 20
8.8092361236
 30
0.0
 10
11.4944373047
 20
8.8189795357
 30
0.0
 10
11.4918504518
 20
8.8288921951
 30
0.0
 10
11.489991783
 20
8.8389198809
 30
0.0
 10
11.4888716212
 20
8.8490067826
 30
0.0
 10
11.4886207232
 20
8.8557529185
 30
0.0
 10
11.4886207232
 20
8.8591161644
 30
0.0
  0
SPLINE
  5
2D2
100
AcDbEntity
  8
0
100
AcDbSpline
 62
7
  6
CONTINUOUS
 70
0
 71
3
 72
83
 73
79
 74
0
 42
0.0000001
 43
0.0000001
 44
0.0000000001
 40
0.0
 40
0.0
 40
0.0
 40
0.0
 40
0.003980149
 40
0.0081240919
 40
0.0124359835
 40
0.0169193603
 40
0.0215772246
 40
0.0264119606
 40
0.0314252324
 40
0.0366182158
 40
0.0419916195
 40
0.0475457334
 40
0.0532805161
 40
0.0591955185
 40
0.0715625327
 40
0.0846382143
 40
0.0984095328
 40
0.1128601134
 40
0.1279706583
 40
0.1437192718
 40
0.1600817502
 40
0.1770318183
 40
0.1945413264
 40
0.2125804203
 40
0.2311176863
 40
0.2501203005
 40
0.269554164
 40
0.2893840224
 40
0.3095735802
 40
0.3300856048
 40
0.3508820422
 40
0.3719241252
 40
0.4145864312
 40
0.4577527569
 40
0.5010975799
 40
0.5442936399
 40
0.5870151259
 40
0.6080976714
 40
0.6289416876
 40
0.6495082871
 40
0.6697592834
 40
0.6896572915
 40
0.7091658343
 40
0.7282494515
 40
0.7468738239
 40
0.7650058946
 40
0.78261399
 40
0.7996679565
 40
0.8161393115
 40
0.8320014232
 40
0.8472297058
 40
0.8618018332
 40
0.8756980061
 40
0.8889012771
 40
0.9013979681
 40
0.9131781873
 40
0.9187980573
 40
0.924237173
 40
0.9294957148
 40
0.9345742409
 40
0.9394737433
 40
0.9441957547
 40
0.948742307
 40
0.9531161074
 40
0.9573205402
 40
0.9613597705
 40
0.9652388909
 40
0.9689639409
 40
0.9725421207
 40
0.975981843
 40
0.9792928682
 40
0.9824864417
 40
0.9855753029
 40
0.9885737828
 40
0.9914977139
 40
0.9943643205
 40
0.9971920042
 40
1.0
 40
1.0
 40
1.0
 40
1.0
 10
10.5242814674
 20
10.3930432063
 30
0.0
 10
10.5251340917
 20
10.3938667782
 30
0.0
 10
10.5269131501
 20
10.3955081046
 30
0.0
 10
10.5297377576
 20
10.3979053978
 30
0.0
 10
10.5327697933
 20
10.4002855161
 30
0.0
 10
10.5360075926
 20
10.4026471564
 30
0.0
 10
10.5394495521
 20
10.4049892378
 30
0.0
 10
10.5430940084
 20
10.4073106
 30
0.0
 10
10.546939135
 20
10.4096101547
 30
0.0
 10
10.5509830221
 20
10.4118867172
 30
0.0
 10
10.5552236395
 20
10.4141391524
 30
0.0
 10
10.5596588546
 20
10.416366354
 30
0.0
 10
10.5642864674
 20
10.4185671868
 30
0.0
 10
10.5708071254
 20
10.4215087568
 30
0.0
 10
10.5794294685
 20
10.425103406
 30
0.0
 10
10.5903563571
 20
10.4292329732
 30
0.0
 10
10.6019898531
 20
10.4332318096
 30
0.0
 10
10.6143065427
 20
10.4370917992
 30
0.0
 10
10.6272817676
 20
10.4408050936
 30
0.0
 10
10.6408894266
 20
10.444364139
 30
0.0
 10
10.655102118
 20
10.4477616889
 30
0.0
 10
10.669891186
 20
10.4509908223
 30
0.0
 10
10.6852267907
 20
10.4540449598
 30
0.0
 10
10.7010779673
 20
10.4569178764
 30
0.0
 10
10.7174126902
 20
10.4596037244
 30
0.0
 10
10.7341979427
 20
10.4620970375
 30
0.0
 10
10.7513997905
 20
10.4643927406
 30
0.0
 10
10.768983451
 20
10.46648616
 30
0.0
 10
10.7869133647
 20
10.4683730339
 30
0.0
 10
10.8051532543
 20
10.4700495202
 30
0.0
 10
10.8236662496
 20
10.4715122348
 30
0.0
 10
10.8487787052
 20
10.4731810111
 30
0.0
 10
10.8805753035
 20
10.4747072002
 30
0.0
 10
10.9190397013
 20
10.4756430826
 30
0.0
 10
10.9576745569
 20
10.4756838503
 30
0.0
 10
10.9961673263
 20
10.4748291453
 30
0.0
 10
11.0280056449
 20
10.4733703349
 30
0.0
 10
11.0531655316
 20
10.4717550398
 30
0.0
 10
11.0717241811
 20
10.4703315389
 30
0.0
 10
11.0900164955
 20
10.4686936891
 30
0.0
 10
11.1080055012
 20
10.4668448018
 30
0.0
 10
11.1256548029
 20
10.4647886445
 30
0.0
 10
11.1429287049
 20
10.4625293985
 30
0.0
 10
11.159792273
 20
10.4600716582
 30
0.0
 10
11.1762114128
 20
10.4574204266
 30
0.0
 10
11.1921529408
 20
10.4545811052
 30
0.0
 10
11.2075846497
 20
10.4515594762
 30
0.0
 10
11.2224753737
 20
10.4483616938
 30
0.0
 10
11.2367950568
 20
10.4449942685
 30
0.0
 10
11.2505148234
 20
10.4414640601
 30
0.0
 10
11.2636070416
 20
10.4377782625
 30
0.0
 10
11.2760453885
 20
10.4339443781
 30
0.0
 10
11.2878048857
 20
10.4299702039
 30
0.0
 10
11.2988620504
 20
10.4258637922
 30
0.0
 10
11.3091946668
 20
10.4216334637
 30
0.0
 10
11.3173071617
 20
10.4179565056
 30
0.0
 10
11.3234106405
 20
10.4149522625
 30
0.0
 10
11.3277222919
 20
10.4127088516
 30
0.0
 10
11.3318379706
 20
10.4104409389
 30
0.0
 10
11.3357556262
 20
10.4081496308
 30
0.0
 10
11.3394732873
 20
10.4058360451
 30
0.0
 10
11.3429891246
 20
10.4035013696
 30
0.0
 10
11.3463013629
 20
10.4011467018
 30
0.0
 10
11.3494083729
 20
10.3987732203
 30
0.0
 10
11.3523086101
 20
10.3963820644
 30
0.0
 10
11.3550006069
 20
10.3939743446
 30
0.0
 10
11.357483052
 20
10.3915512389
 30
0.0
 10
11.3597546433
 20
10.3891138163
 30
0.0
 10
11.3618142358
 20
10.3866632241
 30
0.0
 10
11.3636607267
 20
10.3842005594
 30
0.0
 10
11.3652930464
 20
10.3817269056
 30
0.0
 10
11.3667102754
 20
10.379243423
 30
0.0
 10
11.3679114154
 20
10.3767512218
 30
0.0
 10
11.368895644
 20
10.3742515393
 30
0.0
 10
11.3696621509
 20
10.3717456802
 30
0.0
 10
11.3702101959
 20
10.369234971
 30
0.0
 10
11.3705393071
 20
10.3667211918
 30
0.0
 10
11.3706125476
 20
10.3650417845
 30
0.0
 10
11.370612551
 20
10.364205465
 30
0.0
  0
SPLINE
  5
2D3
100
AcDbEntity
  8
0
100
AcDbSpline
 62
7
  6
CONTINUOUS
 70
0
 71
3
 72
41
 73
37
 74
0
 42
0.0000001
 43
0.0000001
 44
0.0000000001
 40
0.0
 40
0.0
 40
0.0
 40
0.0
 40
0.029942123
 40
0.0449237706
 40
0.0599145177
 40
0.0899291716
 40
0.1200145961
 40
0.1350933574
 40
0.1501974726
 40
0.1804849654
 40
0.2108989488
 40
0.2414525624
 40
0.2721557217
 40
0.3030149378
 40
0.3340332219
 40
0.3652100719
 40
0.3965415365
 40
0.4280203507
 40
0.4596361361
 40
0.4913756582
 40
0.5232231336
 40
0.5551605782
 40
0.5871681905
 40
0.6192247616
 40
0.6513081064
 40
0.6833955071
 40
0.7154641657
 40
0.7474916563
 40
0.7794563734
 40
0.811337967
 40
0.843117763
 40
0.8747791516
 40
0.9063079641
 40
0.9376927517
 40
0.9689251728
 40
1.0
 40
1.0
 40
1.0
 40
1.0
 10
11.7219458023
 20
6.6960572774
 30
0.0
 10
11.7196149557
 20
6.6938058369
 30
0.0
 10
11.7159813252
 20
6.690565064
 30
0.0
 10
11.7108924816
 20
6.6865439794
 30
0.0
 10
11.7056415714
 20
6.6827229987
 30
0.0
 10
11.6987899999
 20
6.6783352526
 30
0.0
 10
11.6916052817
 20
6.6744972484
 30
0.0
 10
11.6856797573
 20
6.6717668576
 30
0.0
 10
11.6796318105
 20
6.6692618925
 30
0.0
 10
11.6718725759
 20
6.6665683091
 30
0.0
 10
11.6623104803
 20
6.6640579473
 30
0.0
 10
11.6525397314
 20
6.6622795209
 30
0.0
 10
11.6426144757
 20
6.6612428457
 30
0.0
 10
11.6325892359
 20
6.6609534531
 30
0.0
 10
11.6225191739
 20
6.6614128164
 30
0.0
 10
11.6124596379
 20
6.6626182821
 30
0.0
 10
11.6024659009
 20
6.664563108
 30
0.0
 10
11.5925928504
 20
6.6672365007
 30
0.0
 10
11.5828946936
 20
6.670623679
 30
0.0
 10
11.573424663
 20
6.6747059574
 30
0.0
 10
11.5642347289
 20
6.6794608505
 30
0.0
 10
11.5553753179
 20
6.6848621964
 30
0.0
 10
11.5468950401
 20
6.6908803004
 30
0.0
 10
11.5388404254
 20
6.6974820976
 30
0.0
 10
11.5312556717
 20
6.7046313326
 30
0.0
 10
11.5241824047
 20
6.7122887571
 30
0.0
 10
11.517659452
 20
6.7204123434
 30
0.0
 10
11.5117226321
 20
6.7289575124
 30
0.0
 10
11.5064045596
 20
6.7378773756
 30
0.0
 10
11.5017344669
 20
6.7471229908
 30
0.0
 10
11.497738046
 20
6.7566436211
 30
0.0
 10
11.4944373047
 20
6.7663870332
 30
0.0
 10
11.4918504518
 20
6.7762996926
 30
0.0
 10
11.489991783
 20
6.7863273785
 30
0.0
 10
11.4888716212
 20
6.7964142801
 30
0.0
 10
11.4886207232
 20
6.803160416
 30
0.0
 10
11.4886207232
 20
6.806523662
 30
0.0
  0
SPLINE
  5
2D4
100
AcDbEntity
  8
0
100
AcDbSpline
 62
7
  6
CONTINUOUS
 70
0
 71
3
 72
15
 73
11
 74
0
 42
0.0000001
 43
0.0000001
 44
0.0000000001
 40
0.0
 40
0.0
 40
0.0
 40
0.0
 40
0.1466418859
 40
0.2856868576
 40
0.4176699642
 40
0.5432685826
 40
0.6632921755
 40
0.7786840245
 40
0.8905210125
 40
1.0
 40
1.0
 40
1.0
 40
1.0
 10
10.5368385038
 20
10.362228671
 30
0.0
 10
10.5357967638
 20
10.3612224273
 30
0.0
 10
10.5338231113
 20
10.3592028439
 30
0.0
 10
10.5311384043
 20
10.356066512
 30
0.0
 10
10.52881357
 20
10.3529086571
 30
0.0
 10
10.5268512133
 20
10.3497317915
 30
0.0
 10
10.5252537523
 20
10.3465381815
 30
0.0
 10
10.5240234958
 20
10.3433302702
 30
0.0
 10
10.5231628861
 20
10.3401115928
 30
0.0
 10
10.5228344457
 20
10.3379449526
 30
0.0
 10
10.5227340702
 20
10.3368683134
 30
0.0
  0
SPLINE
  5
2D5
100
AcDbEntity
  8
0
100
AcDbSpline
 62
7
  6
CONTINUOUS
 70
0
 71
3
 72
41
 73
37
 74
0
 42
0.0000001
 43
0.0000001
 44
0.0000000001
 40
0.0
 40
0.0
 40
0.0
 40
0.0
 40
0.029942123
 40
0.0449237706
 40
0.0599145177
 40
0.0899291716
 40
0.1200145961
 40
0.1350933574
 40
0.1501974726
 40
0.1804849654
 40
0.2108989488
 40
0.2414525624
 40
0.2721557217
 40
0.3030149378
 40
0.3340332219
 40
0.3652100719
 40
0.3965415365
 40
0.4280203507
 40
0.4596361361
 40
0.4913756582
 40
0.5232231336
 40
0.5551605782
 40
0.5871681905
 40
0.6192247616
 40
0.6513081064
 40
0.6833955071
 40
0.7154641657
 40
0.7474916563
 40
0.7794563734
 40
0.811337967
 40
0.843117763
 40
0.8747791516
 40
0.9063079641
 40
0.9376927517
 40
0.9689251728
 40
1.0
 40
1.0
 40
1.0
 40
1.0
 10
9.9716882103
 20
6.8174380536
 30
0.0
 10
9.9693573637
 20
6.8151866132
 30
0.0
 10
9.9657237331
 20
6.8119458403
 30
0.0
 10
9.9606348896
 20
6.8079247557
 30
0.0
 10
9.9553839794
 20
6.804103775
 30
0.0
 10
9.9485324079
 20
6.7997160289
 30
0.0
 10
9.9413476897
 20
6.7958780247
 30
0.0
 10
9.9354221653
 20
6.7931476339
 30
0.0
 10
9.9293742185
 20
6.7906426687
 30
0.0
 10
9.9216149839
 20
6.7879490853
 30
0.0
 10
9.9120528883
 20
6.7854387236
 30
0.0
 10
9.9022821394
 20
6.7836602972
 30
0.0
 10
9.8923568837
 20
6.782623622
 30
0.0
 10
9.8823316438
 20
6.7823342294
 30
0.0
 10
9.8722615819
 20
6.7827935927
 30
0.0
 10
9.8622020458
 20
6.7839990583
 30
0.0
 10
9.8522083089
 20
6.7859438843
 30
0.0
 10
9.8423352584
 20
6.7886172769
 30
0.0
 10
9.8326371016
 20
6.7920044552
 30
0.0
 10
9.823167071
 20
6.7960867337
 30
0.0
 10
9.8139771368
 20
6.8008416268
 30
0.0
 10
9.8051177259
 20
6.8062429727
 30
0.0
 10
9.796637448
 20
6.8122610767
 30
0.0
 10
9.7885828334
 20
6.8188628739
 30
0.0
 10
9.7809980797
 20
6.8260121089
 30
0.0
 10
9.7739248127
 20
6.8336695334
 30
0.0
 10
9.76740186
 20
6.8417931196
 30
0.0
 10
9.7614650401
 20
6.8503382887
 30
0.0
 10
9.7561469676
 20
6.8592581519
 30
0.0
 10
9.7514768749
 20
6.8685037671
 30
0.0
 10
9.747480454
 20
6.8780243974
 30
0.0
 10
9.7441797127
 20
6.8877678095
 30
0.0
 10
9.7415928598
 20
6.8976804689
 30
0.0
 10
9.739734191
 20
6.9077081547
 30
0.0
 10
9.7386140292
 20
6.9177950564
 30
0.0
 10
9.7383631311
 20
6.9245411923
 30
0.0
 10
9.7383631311
 20
6.9279044382
 30
0.0
  0
SPLINE
  5
2D6
100
AcDbEntity
  8
0
100
AcDbSpline
 62
7
  6
CONTINUOUS
 70
0
 71
3
 72
23
 73
19
 74
0
 42
0.0000001
 43
0.0000001
 44
0.0000000001
 40
0.0
 40
0.0
 40
0.0
 40
0.0
 40
0.0617101501
 40
0.1234414058
 40
0.1852146535
 40
0.2470503593
 40
0.308968354
 40
0.3709876246
 40
0.433126135
 40
0.4954006564
 40
0.5578266089
 40
0.620417913
 40
0.6831867712
 40
0.7461439027
 40
0.8092980189
 40
0.8726549242
 40
0.9362233983
 40
1.0
 40
1.0
 40
1.0
 40
1.0
 10
10.9719600112
 20
7.1231902329
 30
0.0
 10
10.9696084688
 20
7.1209188277
 30
0.0
 10
10.965020597
 20
7.1162533319
 30
0.0
 10
10.9585066143
 20
7.1089091086
 30
0.0
 10
10.9523741268
 20
7.1012346121
 30
0.0
 10
10.9466375184
 20
7.0932477825
 30
0.0
 10
10.9413099579
 20
7.0849669745
 30
0.0
 10
10.9364037546
 20
7.0764113027
 30
0.0
 10
10.9319301806
 20
7.0676005163
 30
0.0
 10
10.9278995347
 20
7.0585549406
 30
0.0
 10
10.9243211152
 20
7.0492954288
 30
0.0
 10
10.9212031585
 20
7.0398433398
 30
0.0
 10
10.9185527989
 20
7.0302204771
 30
0.0
 10
10.9163761354
 20
7.0204490124
 30
0.0
 10
10.9146782094
 20
7.010551535
 30
0.0
 10
10.9134628072
 20
7.0005506414
 30
0.0
 10
10.912732859
 20
6.9904698582
 30
0.0
 10
10.9125711172
 20
6.9837219612
 30
0.0
 10
10.9125711172
 20
6.9803430717
 30
0.0
  0
SPLINE
  5
2D7
100
AcDbEntity
  8
0
100
AcDbSpline
 62
7
  6
CONTINUOUS
 70
0
 71
3
 72
15
 73
11
 74
0
 42
0.0000001
 43
0.0000001
 44
0.0000000001
 40
0.0
 40
0.0
 40
0.0
 40
0.0
 40
0.1273482789
 40
0.2538606571
 40
0.3795878378
 40
0.5046051156
 40
0.629017439
 40
0.7529533823
 40
0.8765605864
 40
1.0
 40
1.0
 40
1.0
 40
1.0
 10
9.7383631311
 20
6.9279044382
 30
0.0
 10
9.7383631311
 20
6.932231522
 30
0.0
 10
9.7387762815
 20
6.9408632687
 30
0.0
 10
9.7406446861
 20
6.9536448708
 30
0.0
 10
9.7437428253
 20
6.9661053255
 30
0.0
 10
9.7480427131
 20
6.9781280978
 30
0.0
 10
9.7535049134
 20
6.9896023144
 30
0.0
 10
9.7600795977
 20
7.0004220359
 30
0.0
 10
9.7677049671
 20
7.0104858808
 30
0.0
 10
9.7734464894
 20
7.0166334601
 30
0.0
 10
9.7764632252
 20
7.0195474231
 30
0.0
  0
SPLINE
  5
2D8
100
AcDbEntity
  8
0
100
AcDbSpline
 62
7
  6
CONTINUOUS
 70
0
 71
3
 72
41
 73
37
 74
0
 42
0.0000001
 43
0.0000001
 44
0.0000000001
 40
0.0
 40
0.0
 40
0.0
 40
0.0
 40
0.0310750246
 40
0.0466744069
 40
0.0623124833
 40
0.0936973966
 40
0.1252262277
 40
0.1568876644
 40
0.1886675012
 40
0.2205491378
 40
0.2525138983
 40
0.268523564
 40
0.2845462635
 40
0.3166149667
 40
0.3487024128
 40
0.380785804
 40
0.4128424231
 40
0.4448500853
 40
0.4767875815
 40
0.5086351098
 40
0.540374686
 40
0.5719905267
 40
0.6034693978
 40
0.634800921
 40
0.6659778311
 40
0.6969961763
 40
0.7278554535
 40
0.7585586735
 40
0.7891123471
 40
0.8195263896
 40
0.8498139405
 40
0.8799910991
 40
0.9100765785
 40
0.9400912847
 40
0.9700578312
 40
1.0
 40
1.0
 40
1.0
 40
1.0
 10
10.9125711172
 20
6.9803430717
 30
0.0
 10
10.9125711172
 20
6.9751007146
 30
0.0
 10
10.9128641529
 20
6.9672227842
 30
0.0
 10
10.9138319343
 20
6.9567536582
 30
0.0
 10
10.915188003
 20
6.9462745142
 30
0.0
 10
10.9176053393
 20
6.9332324103
 30
0.0
 10
10.9216374605
 20
6.91778168
 30
0.0
 10
10.9267823331
 20
6.9025944496
 30
0.0
 10
10.9330116154
 20
6.8877544716
 30
0.0
 10
10.9402907425
 20
6.8733434517
 30
0.0
 10
10.9471956628
 20
6.8617620462
 30
0.0
 10
10.953201436
 20
6.8527881129
 30
0.0
 10
10.9595253663
 20
6.8440138371
 30
0.0
 10
10.968001453
 20
6.8334577093
 30
0.0
 10
10.979026422
 20
6.8215222042
 30
0.0
 10
10.9908488751
 20
6.8103784976
 30
0.0
 10
11.0034036442
 20
6.8000881637
 30
0.0
 10
11.0166219167
 20
6.7907076083
 30
0.0
 10
11.0304311474
 20
6.782288401
 30
0.0
 10
11.0447555751
 20
6.774876823
 30
0.0
 10
11.0595165963
 20
6.7685136521
 30
0.0
 10
11.0746332046
 20
6.7632339338
 30
0.0
 10
11.0900224264
 20
6.7590667922
 30
0.0
 10
11.1055997697
 20
6.7560352665
 30
0.0
 10
11.1212796818
 20
6.7541561819
 30
0.0
 10
11.1369760114
 20
6.7534400507
 30
0.0
 10
11.1526024769
 20
6.7538910094
 30
0.0
 10
11.168073136
 20
6.7555067798
 30
0.0
 10
11.1833028572
 20
6.7582786713
 30
0.0
 10
11.1982077893
 20
6.7621916251
 30
0.0
 10
11.2127058176
 20
6.7672242773
 30
0.0
 10
11.2267170503
 20
6.7733490927
 30
0.0
 10
11.2401641603
 20
6.7805324051
 30
0.0
 10
11.2529732171
 20
6.7887349711
 30
0.0
 10
11.2650726399
 20
6.7979107867
 30
0.0
 10
11.2726246215
 20
6.8046461958
 30
0.0
 10
11.2762577602
 20
6.8081555224
 30
0.0
  0
SPLINE
  5
2D9
100
AcDbEntity
  8
0
100
AcDbSpline
 62
7
  6
CONTINUOUS
 70
0
 71
3
 72
13
 73
9
 74
0
 42
0.0000001
 43
0.0000001
 44
0.0000000001
 40
0.0
 40
0.0
 40
0.0
 40
0.0
 40
0.2772773072
 40
0.4083588388
 40
0.5347245267
 40
0.774527297
 40
0.8888471627
 40
1.0
 40
1.0
 40
1.0
 40
1.0
 10
10.5469807256
 20
10.3439584621
 30
0.0
 10
10.5455639071
 20
10.3425899204
 30
0.0
 10
10.5435561106
 20
10.3404886198
 30
0.0
 10
10.5411415761
 20
10.3375539598
 30
0.0
 10
10.5390424764
 20
10.3347113344
 30
0.0
 10
10.5372441192
 20
10.3317981956
 30
0.0
 10
10.5357910271
 20
10.3288271181
 30
0.0
 10
10.5351866941
 20
10.3273419293
 30
0.0
 10
10.5349159786
 20
10.3266001279
 30
0.0
  0
SPLINE
  5
2DA
100
AcDbEntity
  8
0
100
AcDbSpline
 62
7
  6
CONTINUOUS
 70
0
 71
3
 72
41
 73
37
 74
0
 42
0.0000001
 43
0.0000001
 44
0.0000000001
 40
0.0
 40
0.0
 40
0.0
 40
0.0
 40
0.0071758425
 40
0.0146741453
 40
0.0225035656
 40
0.0306713257
 40
0.0391834036
 40
0.0480443729
 40
0.0572572157
 40
0.0668238661
 40
0.0767452117
 40
0.087021259
 40
0.0976512753
 40
0.1086336553
 40
0.1316452786
 40
0.1560326285
 40
0.1817628121
 40
0.2087958578
 40
0.2370856249
 40
0.2665805114
 40
0.2972240455
 40
0.3289554128
 40
0.3617098907
 40
0.3954192316
 40
0.4300120033
 40
0.4654138991
 40
0.5015480605
 40
0.5383353682
 40
0.5756947176
 40
0.6135432851
 40
0.6517967846
 40
0.6903697386
 40
0.7681261117
 40
0.8461161118
 40
0.923638923
 40
1.0
 40
1.0
 40
1.0
 40
1.0
 10
11.9969567391
 20
9.3517065383
 30
0.0
 10
11.9961450351
 20
9.3509224923
 30
0.0
 10
11.9944447851
 20
9.3493605417
 30
0.0
 10
11.9917330686
 20
9.3470847935
 30
0.0
 10
11.9888066672
 20
9.3448271051
 30
0.0
 10
11.9856674854
 20
9.3425889305
 30
0.0
 10
11.9823173621
 20
9.3403714833
 30
0.0
 10
11.9787582234
 20
9.3381760679
 30
0.0
 10
11.9749921887
 20
9.3360039054
 30
0.0
 10
11.9710214781
 20
9.3338563382
 30
0.0
 10
11.9668484659
 20
9.3317346255
 30
0.0
 10
11.9624756411
 20
9.3296400206
 30
0.0
 10
11.9579055906
 20
9.3275737889
 30
0.0
 10
11.9514520608
 20
9.3248152427
 30
0.0
 10
11.9429046488
 20
9.321455991
 30
0.0
 10
11.932061187
 20
9.3176174328
 30
0.0
 10
11.9205029538
 20
9.3139204118
 30
0.0
 10
11.9082576328
 20
9.3103738707
 30
0.0
 10
11.895354421
 20
9.3069864103
 30
0.0
 10
11.8818242195
 20
9.3037662508
 30
0.0
 10
11.8676994676
 20
9.3007212033
 30
0.0
 10
11.8530140722
 20
9.2978586578
 30
0.0
 10
11.8378033098
 20
9.2951855611
 30
0.0
 10
11.8221037395
 20
9.2927083999
 30
0.0
 10
11.8059531144
 20
9.290433186
 30
0.0
 10
11.7893902888
 20
9.2883654321
 30
0.0
 10
11.7724551191
 20
9.2865101486
 30
0.0
 10
11.755188364
 20
9.2848718318
 30
0.0
 10
11.7376315817
 20
9.2834544501
 30
0.0
 10
11.719827046
 20
9.2822614474
 30
0.0
 10
11.7018175882
 20
9.2812956869
 30
0.0
 10
11.6775259084
 20
9.2803116477
 30
0.0
 10
11.6469687619
 20
9.2796661747
 30
0.0
 10
11.6102792782
 20
9.2798208438
 30
0.0
 10
11.5738249935
 20
9.2809013483
 30
0.0
 10
11.5496579004
 20
9.2822459598
 30
0.0
 10
11.537677471
 20
9.2830768054
 30
0.0
  0
SPLINE
  5
2DB
100
AcDbEntity
  8
0
100
AcDbSpline
 62
7
  6
CONTINUOUS
 70
0
 71
3
 72
41
 73
37
 74
0
 42
0.0000001
 43
0.0000001
 44
0.0000000001
 40
0.0
 40
0.0
 40
0.0
 40
0.0
 40
0.0071757878
 40
0.0146740945
 40
0.0225035609
 40
0.0306713549
 40
0.0391834197
 40
0.0480443679
 40
0.0572572149
 40
0.0668238567
 40
0.076745221
 40
0.0870212626
 40
0.0976512706
 40
0.1086336674
 40
0.131645286
 40
0.1560326206
 40
0.1817627982
 40
0.2087958624
 40
0.2370856423
 40
0.2665805176
 40
0.2972240341
 40
0.3289554007
 40
0.3617098966
 40
0.3954192459
 40
0.4300120062
 40
0.4654138894
 40
0.5015480547
 40
0.5383353725
 40
0.5756947244
 40
0.6135432851
 40
0.6517967806
 40
0.6903697378
 40
0.7681261148
 40
0.8461161177
 40
0.9236388544
 40
1.0
 40
1.0
 40
1.0
 40
1.0
 10
11.9670130367
 20
10.1381149359
 30
0.0
 10
11.9662684392
 20
10.1373957099
 30
0.0
 10
11.9647087472
 20
10.135962887
 30
0.0
 10
11.9622211988
 20
10.1338752692
 30
0.0
 10
11.9595367085
 20
10.1318042026
 30
0.0
 10
11.9566570223
 20
10.1297510479
 30
0.0
 10
11.9535838442
 20
10.1277169073
 30
0.0
 10
11.9503189305
 20
10.125702983
 30
0.0
 10
11.9468642207
 20
10.1237103948
 30
0.0
 10
11.9432217599
 20
10.1217403473
 30
0.0
 10
11.9393937116
 20
10.119794038
 30
0.0
 10
11.935382375
 20
10.1178725829
 30
0.0
 10
11.9311901158
 20
10.1159771574
 30
0.0
 10
11.9252700732
 20
10.1134466605
 30
0.0
 10
11.9174292503
 20
10.1103651009
 30
0.0
 10
11.9074821857
 20
10.1068438622
 30
0.0
 10
11.8968794345
 20
10.1034524586
 30
0.0
 10
11.8856463881
 20
10.1001991033
 30
0.0
 10
11.873809838
 20
10.0970916762
 30
0.0
 10
11.8613981362
 20
10.0941377138
 30
0.0
 10
11.8484410358
 20
10.0913443858
 30
0.0
 10
11.8349696333
 20
10.0887184765
 30
0.0
 10
11.8210162892
 20
10.0862663612
 30
0.0
 10
11.8066145474
 20
10.0839939817
 30
0.0
 10
11.7917990434
 20
10.0819068489
 30
0.0
 10
11.776605415
 20
10.0800100242
 30
0.0
 10
11.761070219
 20
10.078308112
 30
0.0
 10
11.7452308462
 20
10.0768052336
 30
0.0
 10
11.7291254236
 20
10.0755050246
 30
0.0
 10
11.712792731
 20
10.0744106401
 30
0.0
 10
11.6962720563
 20
10.0735247116
 30
0.0
 10
11.6739884882
 20
10.0726220226
 30
0.0
 10
11.6459573976
 20
10.0720299134
 30
0.0
 10
11.612300921
 20
10.0721717896
 30
0.0
 10
11.5788601911
 20
10.0731629754
 30
0.0
 10
11.5566909118
 20
10.0743964313
 30
0.0
 10
11.5457008548
 20
10.0751585943
 30
0.0
  0
SPLINE
  5
2DC
100
AcDbEntity
  8
0
100
AcDbSpline
 62
7
  6
CONTINUOUS
 70
0
 71
3
 72
41
 73
37
 74
0
 42
0.0000001
 43
0.0000001
 44
0.0000000001
 40
0.0
 40
0.0
 40
0.0
 40
0.0
 40
0.0071758425
 40
0.0146741453
 40
0.0225035656
 40
0.0306713257
 40
0.0391834036
 40
0.0480443729
 40
0.0572572157
 40
0.0668238661
 40
0.0767452117
 40
0.087021259
 40
0.0976512753
 40
0.1086336553
 40
0.1316452786
 40
0.1560326285
 40
0.1817628121
 40
0.2087958578
 40
0.2370856249
 40
0.2665805114
 40
0.2972240455
 40
0.3289554128
 40
0.3617098907
 40
0.3954192316
 40
0.4300120033
 40
0.4654138991
 40
0.5015480605
 40
0.5383353682
 40
0.5756947176
 40
0.6135432851
 40
0.6517967846
 40
0.6903697386
 40
0.7681261117
 40
0.8461161118
 40
0.923638923
 40
1.0
 40
1.0
 40
1.0
 40
1.0
 10
11.9969567391
 20
10.1060946307
 30
0.0
 10
11.9961450351
 20
10.1053105847
 30
0.0
 10
11.9944447851
 20
10.1037486341
 30
0.0
 10
11.9917330686
 20
10.101472886
 30
0.0
 10
11.9888066672
 20
10.0992151976
 30
0.0
 10
11.9856674854
 20
10.096977023
 30
0.0
 10
11.9823173621
 20
10.0947595757
 30
0.0
 10
11.9787582234
 20
10.0925641604
 30
0.0
 10
11.9749921887
 20
10.0903919978
 30
0.0
 10
11.9710214781
 20
10.0882444306
 30
0.0
 10
11.9668484659
 20
10.0861227179
 30
0.0
 10
11.9624756411
 20
10.084028113
 30
0.0
 10
11.9579055906
 20
10.0819618814
 30
0.0
 10
11.9514520608
 20
10.0792033352
 30
0.0
 10
11.9429046488
 20
10.0758440835
 30
0.0
 10
11.932061187
 20
10.0720055252
 30
0.0
 10
11.9205029538
 20
10.0683085043
 30
0.0
 10
11.9082576328
 20
10.0647619632
 30
0.0
 10
11.895354421
 20
10.0613745028
 30
0.0
 10
11.8818242195
 20
10.0581543432
 30
0.0
 10
11.8676994676
 20
10.0551092957
 30
0.0
 10
11.8530140722
 20
10.0522467503
 30
0.0
 10
11.8378033098
 20
10.0495736535
 30
0.0
 10
11.8221037395
 20
10.0470964924
 30
0.0
 10
11.8059531144
 20
10.0448212785
 30
0.0
 10
11.7893902888
 20
10.0427535246
 30
0.0
 10
11.7724551191
 20
10.0408982411
 30
0.0
 10
11.755188364
 20
10.0392599242
 30
0.0
 10
11.7376315817
 20
10.0378425426
 30
0.0
 10
11.719827046
 20
10.0366495399
 30
0.0
 10
11.7018175882
 20
10.0356837794
 30
0.0
 10
11.6775259084
 20
10.0346997402
 30
0.0
 10
11.6469687619
 20
10.0340542672
 30
0.0
 10
11.6102792782
 20
10.0342089363
 30
0.0
 10
11.5738249935
 20
10.0352894407
 30
0.0
 10
11.5496579004
 20
10.0366340523
 30
0.0
 10
11.537677471
 20
10.0374648979
 30
0.0
  0
ELLIPSE
  5
2DD
100
AcDbEntity
  8
0
100
AcDbEllipse
 62
7
  6
CONTINUOUS
 10
10.7019671421
 20
7.5078550535
 30
0.0
 11
0.2123866522
 21
-0.0660860982
 31
0.0
 40
0.8721856509
 41
0.0
 42
6.2831853072
  0
ELLIPSE
  5
2DE
100
AcDbEntity
  8
0
100
AcDbEllipse
 62
7
  6
CONTINUOUS
 10
10.1282071848
 20
7.9407773389
 30
0.0
 11
0.2123866522
 21
-0.0660860982
 31
0.0
 40
0.8721856509
 41
0.0
 42
6.2831853072
  0
ELLIPSE
  5
2DF
100
AcDbEntity
  8
0
100
AcDbEllipse
 62
7
  6
CONTINUOUS
 10
10.7019671421
 20
8.293152877
 30
0.0
 11
0.2123866522
 21
-0.0660860982
 31
0.0
 40
0.8721856509
 41
0.0
 42
6.2831853072
  0
ELLIPSE
  5
2E0
100
AcDbEntity
  8
0
100
AcDbEllipse
 62
7
  6
CONTINUOUS
 10
11.1241088857
 20
8.7770641874
 30
0.0
 11
-0.044091614
 21
0.2236764531
 31
0.0
 40
0.8541864234
 41
0.0
 42
6.2831853072
  0
ENDSEC
  0
SECTION
  2
OBJECTS
  0
DICTIONARY
  5
C
100
AcDbDictionary
280
0
281
1
  3
ACAD_GROUP
350
D
  3
ACAD_MLINESTYLE
350
17
  3
ACAD_LAYOUT
350
1A
  3
ACAD_PLOTSETTINGS
350
19
  3
ACAD_PLOTSTYLENAME
350
E
  3
ACAD_IMAGE_DICT
350
       2E2
  3
ACAD_IMAGE_VARS
350
       2E3
  3
ACAD_TABLESTYLE
350
       2E4
  0
IMAGEDEF_REACTOR
  5
2E1
100
AcDbRasterImageDefReactor
 90
2
330
27C
  0
DICTIONARY
  5
D
102
{ACAD_REACTORS
330
C
102
}
100
AcDbDictionary
280
0
281
1
  0
ACDBDICTIONARYWDFLT
  5
E
102
{ACAD_REACTORS
330
C
102
}
100
AcDbDictionary
281
1
  3
Normal
350
F
100
AcDbDictionaryWithDefault
340
F
  0
DICTIONARY
  5
2E2
330
C
100
AcDbDictionary
281
1
  3
W8S_assy_2_img_1
350
       2E7
  0
RASTERVARIABLES
  5
2E3
330
C
100
AcDbRasterVariables
 90
0
 70
0
 71
1
 72
5
  0
DICTIONARY
  5
17
102
{ACAD_REACTORS
330
C
102
}
100
AcDbDictionary
280
0
281
1
  3
Standard
350
18
  0
DICTIONARY
  5
2E4
330
C
100
AcDbDictionary
281
1
  3
Standard
350
       2E8
  3
Standard1
350
       2E9
  0
DICTIONARY
  5
19
102
{ACAD_REACTORS
330
C
102
}
100
AcDbDictionary
281
1
  0
DICTIONARY
  5
1A
102
{ACAD_REACTORS
330
C
102
}
100
AcDbDictionary
281
1
  3
Model
350
2E5
  3
Layout1
350
2E6
  0
ACDBPLACEHOLDER
  5
F
102
{ACAD_REACTORS
330
E
102
}
  0
MLINESTYLE
  5
18
102
{ACAD_REACTORS
330
17
102
}
100
AcDbMlineStyle
  2
STANDARD
 70
0
  3

 62
256
 51
90.0
 52
90.0
 71
2
 49
0.5
 62
256
  6
BYLAYER
 49
-0.5
 62
256
  6
BYLAYER
  0
LAYOUT
  5
2E5
102
{ACAD_REACTORS
330
1A
102
}
100
AcDbPlotSettings
  1

  2
none_device
  4
ANSI_C_(22.00_x_17.00_Inches)
  6

 40
0.0
 41
0.0
 42
0.0
 43
0.0
 44
558.8
 45
431.8
 46
0.0
 47
0.0
 48
0.0
 49
0.0
140
0.0
141
0.0
142
1.0
143
1.0
 70
1024
 72
0
 73
0
 74
0
  7

 75
0
147
1.0
148
0.0
149
0.0
100
AcDbLayout
  1
Model
 70
0
 71
0
 10
0.0
 20
0.0
 11
22.0
 21
17.0
 12
0.0
 22
0.0
 32
0.0
 14
0.0
 24
0.0
 34
0.0
 15
0.0
 25
0.0
 35
0.0
146
0.0
 13
0.0
 23
0.0
 33
0.0
 16
1.0
 26
0.0
 36
0.0
 17
0.0
 27
1.0
 37
0.0
 76
0
330
207
345
0
346
0
  0
LAYOUT
  5
2E6
102
{ACAD_REACTORS
330
1A
102
}
100
AcDbPlotSettings
  1

  2
none_device
  4
ANSI_C_(22.00_x_17.00_Inches)
  6

 40
0.0
 41
0.0
 42
0.0
 43
0.0
 44
558.8
 45
431.8
 46
0.0
 47
0.0
 48
0.0
 49
0.0
140
0.0
141
0.0
142
1.0
143
1.0
 70
0
 72
0
 73
0
 74
0
  7

 75
0
147
1.0
148
0.0
149
0.0
100
AcDbLayout
  1
Layout1
 70
0
 71
1
 10
0.0
 20
0.0
 11
22.0
 21
17.0
 12
0.0
 22
0.0
 32
0.0
 14
0.0
 24
0.0
 34
0.0
 15
0.0
 25
0.0
 35
0.0
146
0.0
 13
0.0
 23
0.0
 33
0.0
 16
1.0
 26
0.0
 36
0.0
 17
0.0
 27
1.0
 37
0.0
 76
0
330
208
345
0
346
0
  0
IMAGEDEF
  5
2E7
102
{ACAD_REACTORS
330
2E2
330
2E1
102
}
100
AcDbRasterImageDef
 90
0
  1
W8S_assy_2_img_1.png
 10
369.0
 20
92.0
 11
0.0066666667
 21
0.0066666667
280
1
281
0
  0
TABLESTYLE
  5
2E8
102
{ACAD_REACTORS
330
2E4
330
27F
330
280
102
}
330
2E4
100
AcDbTableStyle
  3
Standard
 70
0
 71
0
 40
0.06
 41
0.06
280
1
281
1
  7
Standard
140
0.18
170
1
 62
0
 63
7
283
0
  7
Standard
140
0.18
170
1
 62
0
 63
7
283
0
  7
Standard
140
0.18
170
1
 62
0
 63
7
283
0
  0
TABLESTYLE
  5
2E9
102
{ACAD_REACTORS
330
2E4
330
27E
102
}
330
2E4
100
AcDbTableStyle
  3
Standard1
 70
1
 71
0
 40
0.06
 41
0.06
280
1
281
1
  7
Standard
140
0.18
170
1
 62
0
 63
7
283
0
  7
Standard
140
0.18
170
1
 62
0
 63
7
283
0
  7
Standard
140
0.18
170
1
 62
0
 63
7
283
0
  0
ENDSEC
  0
EOF
