999
DXF file: W4L_assy_2.dxf
999
Pro/ENGINEER 2014200 by Parametric Technology Corporation
  0
SECTION
  2
HEADER
  9
$ACADVER
  1
AC1021
  9
$DWGCODEPAGE
  3
ANSI_1252
  9
$EXTMAX
 10
22.0
 20
17.0
 30
0.0
  9
$EXTMIN
 10
0.0
 20
0.0
 30
0.0
  9
$LIMMIN
 10
0.0
 20
0.0
  9
$LIMMAX
 10
22.0
 20
17.0
  9
$VIEWCTR
 10
11.0
 20
8.5
  9
$VIEWSIZE
 40
17.0
  9
$CLAYER
  8
0
  9
$LTSCALE
 40
1.21
  9
$CELTYPE
  6
BYLAYER
  9
$DIMSCALE
 40
1.0
  9
$DIMASZ
 40
0.1875
  9
$DIMEXO
 40
0.0625
  9
$DIMDLI
 40
0.836
  9
$DIMEXE
 40
0.125
  9
$DIMCEN
 40
0.198
  9
$DIMLFAC
 40
1.0
  9
$DIMBLK
  1
_FILLED
  9
$DIMTXT
 40
0.1
  9
$DIMTOL
 70
0
  9
$DIMLIM
 70
0
  9
$DIMTFAC
 40
1.0
  9
$DIMGAP
 40
0.09
  9
$DIMDSEP
 70
46
  9
$AUNITS
 70
0
  9
$PDMODE
 70
3
  9
$PDSIZE
 40
0.3125
  9
$HANDSEED
  5
31B
  9
$TILEMODE
 70
1
  9
$MEASUREMENT
 70
0
  9
$INSUNITS
 70
1
  0
ENDSEC
  0
SECTION
  2
CLASSES
  0
CLASS
  1
ACDBDICTIONARYWDFLT
  2
AcDbDictionaryWithDefault
  3
AutoCAD 2000
 90
0
 91
1
280
0
281
0
  0
CLASS
  1
ACDBPLACEHOLDER
  2
AcDbPlaceHolder
  3
AutoCAD 2000
 90
0
 91
1
280
0
281
0
  0
CLASS
  1
LAYOUT
  2
AcDbLayout
  3
AutoCAD 2000
 90
0
 91
0
280
0
281
0
  0
CLASS
  1
RASTERVARIABLES
  2
AcDbRasterVariables
  3
ISM
 90
0
 91
1
280
0
281
0
  0
CLASS
  1
IMAGEDEF
  2
AcDbRasterImageDef
  3
ISM
 90
0
 91
1
280
0
281
0
  0
CLASS
  1
IMAGEDEF_REACTOR
  2
AcDbRasterImageDefReactor
  3
ISM
 90
0
 91
1
280
0
281
0
  0
CLASS
  1
IMAGE
  2
AcDbRasterImage
  3
ISM
 90
127
 91
1
280
0
281
1
  0
CLASS
  1
TABLESTYLE
  2
AcDbTableStyle
  3
ObjectDBX Classes
 90
2047
 91
1
280
0
281
0
  0
CLASS
  1
ACAD_TABLE
  2
AcDbTable
  3
ObjectDBX Classes
 90
1025
 91
3
280
0
281
1
  0
ENDSEC
  0
SECTION
  2
TABLES
  0
TABLE
  2
VPORT
  5
8
100
AcDbSymbolTable
 70
2
  0
VPORT
  5
1F4
100
AcDbSymbolTableRecord
100
AcDbViewportTableRecord
  2
*ACTIVE
 70
0
 10
0.0
 20
0.0
 11
1.0
 21
1.0
 12
11.0
 22
8.5
 13
0.0
 23
0.0
 14
1.0
 24
1.0
 15
0.0
 25
0.0
 16
0.0
 26
0.0
 36
1.0
 17
0.0
 27
0.0
 37
0.0
 40
17.0
 41
1.2941176471
 42
50.0
 43
0.0
 44
0.0
 50
0.0
 51
0.0
 71
0
 72
100
 73
1
 74
1
 75
0
 76
0
 77
0
 78
0
  0
ENDTAB
  0
TABLE
  2
LTYPE
  5
5
100
AcDbSymbolTable
 70
6
  0
LTYPE
  5
14
100
AcDbSymbolTableRecord
100
AcDbLinetypeTableRecord
  2
BYBLOCK
 70
0
  3

 72
65
 73
0
 40
0.0
  0
LTYPE
  5
15
100
AcDbSymbolTableRecord
100
AcDbLinetypeTableRecord
  2
BYLAYER
 70
0
  3

 72
65
 73
0
 40
0.0
  0
LTYPE
  5
16
100
AcDbSymbolTableRecord
100
AcDbLinetypeTableRecord
  2
CONTINUOUS
 70
64
  3
Solid line
 72
65
 73
0
 40
0.0
  0
LTYPE
  5
1F5
100
AcDbSymbolTableRecord
100
AcDbLinetypeTableRecord
  2
CENTER
 70
64
  3
____ _ ____ _ ____ _ ____ _ ____ _ ____ _ ____
 72
65
 73
4
 40
0.6
 49
0.375
 74
0
 49
-0.075
 74
0
 49
0.075
 74
0
 49
-0.075
 74
0
  0
LTYPE
  5
1F6
100
AcDbSymbolTableRecord
100
AcDbLinetypeTableRecord
  2
HIDDEN
 70
64
  3
- - - - - - - - - - - - - - - - - - - -
 72
65
 73
2
 40
0.2
 49
0.1
 74
0
 49
-0.1
 74
0
  0
LTYPE
  5
1F7
100
AcDbSymbolTableRecord
100
AcDbLinetypeTableRecord
  2
PHANTOM
 70
64
  3
_____ _ _ _____ _ _ _____ _ _ _____
 72
65
 73
6
 40
0.8
 49
0.45
 74
0
 49
-0.05
 74
0
 49
0.1
 74
0
 49
-0.05
 74
0
 49
0.1
 74
0
 49
-0.05
 74
0
  0
LTYPE
  5
1F8
100
AcDbSymbolTableRecord
100
AcDbLinetypeTableRecord
  2
DOT
 70
64
  3
. . . . . . . . . . . . . . . . . . . .
 72
65
 73
2
 40
0.2
 49
0.1
 74
0
 49
-0.1
 74
0
  0
LTYPE
  5
1F9
100
AcDbSymbolTableRecord
100
AcDbLinetypeTableRecord
  2
DASHED
 70
64
  3
- - - - - - - - - - - - - - - - - - - -
 72
65
 73
2
 40
0.2
 49
0.1
 74
0
 49
-0.1
 74
0
  0
ENDTAB
  0
TABLE
  2
LAYER
  5
2
100
AcDbSymbolTable
 70
36
  0
LAYER
  5
10
100
AcDbSymbolTableRecord
100
AcDbLayerTableRecord
  2
0
 70
0
 62
7
  6
CONTINUOUS
370
-3
390
F
  0
LAYER
  5
1FA
100
AcDbSymbolTableRecord
100
AcDbLayerTableRecord
  2
DEFAULT_1
 70
0
 62
7
  6
CENTER
370
-3
390
F
  0
LAYER
  5
1FB
100
AcDbSymbolTableRecord
100
AcDbLayerTableRecord
  2
DEFAULT_2
 70
0
 62
8
  6
HIDDEN
370
-3
390
F
  0
LAYER
  5
1FC
100
AcDbSymbolTableRecord
100
AcDbLayerTableRecord
  2
DEFAULT_3
 70
0
 62
7
  6
PHANTOM
370
-3
390
F
  0
LAYER
  5
1FD
100
AcDbSymbolTableRecord
100
AcDbLayerTableRecord
  2
01___PRT_ALL_DTM_PLN
 70
0
 62
7
  6
CONTINUOUS
370
-3
390
F
  0
LAYER
  5
1FE
100
AcDbSymbolTableRecord
100
AcDbLayerTableRecord
  2
01___PRT_DEF_DTM_PLN
 70
0
 62
7
  6
CONTINUOUS
370
-3
390
F
  0
LAYER
  5
1FF
100
AcDbSymbolTableRecord
100
AcDbLayerTableRecord
  2
02___PRT_ALL_AXES
 70
0
 62
7
  6
CONTINUOUS
370
-3
390
F
  0
LAYER
  5
200
100
AcDbSymbolTableRecord
100
AcDbLayerTableRecord
  2
03___PRT_ALL_CURVES
 70
0
 62
7
  6
CONTINUOUS
370
-3
390
F
  0
LAYER
  5
201
100
AcDbSymbolTableRecord
100
AcDbLayerTableRecord
  2
04___PRT_ALL_DTM_PNT
 70
0
 62
7
  6
CONTINUOUS
370
-3
390
F
  0
LAYER
  5
202
100
AcDbSymbolTableRecord
100
AcDbLayerTableRecord
  2
05___PRT_ALL_DTM_CSYS
 70
0
 62
7
  6
CONTINUOUS
370
-3
390
F
  0
LAYER
  5
203
100
AcDbSymbolTableRecord
100
AcDbLayerTableRecord
  2
05___PRT_DEF_DTM_CSYS
 70
0
 62
7
  6
CONTINUOUS
370
-3
390
F
  0
LAYER
  5
204
100
AcDbSymbolTableRecord
100
AcDbLayerTableRecord
  2
06___PRT_ALL_SURFS
 70
0
 62
7
  6
CONTINUOUS
370
-3
390
F
  0
LAYER
  5
205
100
AcDbSymbolTableRecord
100
AcDbLayerTableRecord
  2
DATUM_PLANES
 70
0
 62
7
  6
CONTINUOUS
370
-3
390
F
  0
LAYER
  5
206
100
AcDbSymbolTableRecord
100
AcDbLayerTableRecord
  2
DIMENSIONS
 70
0
 62
7
  6
CONTINUOUS
370
-3
390
F
  0
LAYER
  5
207
100
AcDbSymbolTableRecord
100
AcDbLayerTableRecord
  2
DTM_500001
 70
0
 62
7
  6
CONTINUOUS
370
-3
390
F
  0
LAYER
  5
208
100
AcDbSymbolTableRecord
100
AcDbLayerTableRecord
  2
PARAMETERDIMENSIONS
 70
0
 62
7
  6
CONTINUOUS
370
-3
390
F
  0
LAYER
  5
209
100
AcDbSymbolTableRecord
100
AcDbLayerTableRecord
  2
PLANE
 70
0
 62
7
  6
CONTINUOUS
370
-3
390
F
  0
LAYER
  5
20A
100
AcDbSymbolTableRecord
100
AcDbLayerTableRecord
  2
PORT_AREAS
 70
0
 62
7
  6
CONTINUOUS
370
-3
390
F
  0
LAYER
  5
20B
100
AcDbSymbolTableRecord
100
AcDbLayerTableRecord
  2
SUNNBOMCOSMETIC
 70
0
 62
7
  6
CONTINUOUS
370
-3
390
F
  0
LAYER
  5
20C
100
AcDbSymbolTableRecord
100
AcDbLayerTableRecord
  2
SUNNBOMSTAMPING
 70
0
 62
7
  6
CONTINUOUS
370
-3
390
F
  0
LAYER
  5
20D
100
AcDbSymbolTableRecord
100
AcDbLayerTableRecord
  2
THREADS
 70
0
 62
7
  6
CONTINUOUS
370
-3
390
F
  0
ENDTAB
  0
TABLE
  2
STYLE
  5
3
100
AcDbSymbolTable
 70
1
  0
STYLE
  5
11
100
AcDbSymbolTableRecord
100
AcDbTextStyleTableRecord
  2
STANDARD
 70
0
 40
0.0
 41
0.8
 50
0.0
 71
0
 42
0.2
  3
txt
  4

  0
STYLE
  5
20E
100
AcDbSymbolTableRecord
100
AcDbTextStyleTableRecord
  2
TEXTSTYLE_1
 70
0
 40
0.0
 41
0.8
 50
0.0
 71
0
 42
0.2
  3
gdt
  4

  0
ENDTAB
  0
TABLE
  2
VIEW
  5
6
100
AcDbSymbolTable
 70
0
  0
ENDTAB
  0
TABLE
  2
UCS
  5
7
100
AcDbSymbolTable
 70
0
  0
ENDTAB
  0
TABLE
  2
APPID
  5
9
100
AcDbSymbolTable
 70
1
  0
APPID
  5
20F
100
AcDbSymbolTableRecord
100
AcDbRegAppTableRecord
  2
ACAD
 70
0
  0
ENDTAB
  0
TABLE
  2
BLOCK_RECORD
  5
1
100
AcDbSymbolTable
 70
0
  0
BLOCK_RECORD
  5
210
100
AcDbSymbolTableRecord
100
AcDbBlockTableRecord
  2
*Model_Space
  0
BLOCK_RECORD
  5
211
100
AcDbSymbolTableRecord
100
AcDbBlockTableRecord
  2
*Paper_Space
  0
BLOCK_RECORD
  5
212
100
AcDbSymbolTableRecord
100
AcDbBlockTableRecord
  2
SUN_FIRST_THIRD_ANGLE_BL0
  0
BLOCK_RECORD
  5
213
100
AcDbSymbolTableRecord
100
AcDbBlockTableRecord
  2
*T1
  0
BLOCK_RECORD
  5
214
100
AcDbSymbolTableRecord
100
AcDbBlockTableRecord
  2
*T2
  0
BLOCK_RECORD
  5
215
100
AcDbSymbolTableRecord
100
AcDbBlockTableRecord
  2
*T3
  0
ENDTAB
  0
TABLE
  2
DIMSTYLE
  5
A
100
AcDbSymbolTable
 70
1
100
AcDbDimStyleTable
 71
0
  0
DIMSTYLE
105
216
100
AcDbSymbolTableRecord
100
AcDbDimStyleTableRecord
  2
STANDARD
 70
0
  3

  4

 40
1.0
 41
0.1875
 42
0.0625
 43
0.38
 44
0.125
 45
0.0
 46
0.0
 47
0.001
 48
0.001
140
0.1
141
0.09
142
0.0
143
25.4
144
1.0
145
0.0
146
1.0
147
0.09
 71
0.0
 72
0.0
 73
1
 74
1
 75
0
 76
0
 77
0
 78
4
170
0
171
2
172
0
173
0
174
0
175
0
176
0
177
0
178
0
270
2
271
3
272
3
273
2
274
2
275
0
280
0
281
0
282
0
283
1
284
4
285
0
286
0
287
3
288
0
340
11
278
46
  0
ENDTAB
  0
ENDSEC
  0
SECTION
  2
BLOCKS
  0
BLOCK
  5
20
100
AcDbEntity
  8
0
100
AcDbBlockBegin
  2
*Model_Space
 70
0
 10
0.0
 20
0.0
 30
0.0
  3
*Model_Space
  1

  0
ENDBLK
  5
21
100
AcDbEntity
  8
0
100
AcDbBlockEnd
  0
BLOCK
  5
1C
100
AcDbEntity
  8
0
100
AcDbBlockBegin
  2
*Paper_Space
 70
0
 10
0.0
 20
0.0
 30
0.0
  3
*Paper_Space
  1

  0
ENDBLK
  5
1D
100
AcDbEntity
  8
0
100
AcDbBlockEnd
  0
BLOCK
  5
217
100
AcDbEntity
  8
0
100
AcDbBlockBegin
 62
2
  6
CONTINUOUS
  2
SUN_FIRST_THIRD_ANGLE_BL0
 70
64
 10
20.4816717061
 20
1.2289683772
  3
SUN_FIRST_THIRD_ANGLE_BL0
  1

  0
TEXT
  5
218
100
AcDbEntity
  8
0
100
AcDbText
 62
2
  6
CONTINUOUS
 10
19.4750896608
 20
1.4136269581
  7
STANDARD
 40
0.08
  1
FIRST ANGLE
 41
0.8
 72
0
100
AcDbText
  0
TEXT
  5
219
100
AcDbEntity
  8
0
100
AcDbText
 62
2
  6
CONTINUOUS
 10
20.7842537513
 20
1.4047600029
  7
STANDARD
 40
0.08
  1
THIRD ANGLE
 41
0.8
 72
0
100
AcDbText
  0
LINE
  5
21A
100
AcDbEntity
  8
0
100
AcDbLine
 62
7
  6
CONTINUOUS
 10
19.4767170086
 20
1.1727031207
 11
19.6334271527
 21
1.1717972817
  0
LINE
  5
21B
100
AcDbEntity
  8
0
100
AcDbLine
 62
7
  6
CONTINUOUS
 10
19.6596964832
 20
1.1717972817
 11
19.6950230232
 21
1.171593082
  0
LINE
  5
21C
100
AcDbEntity
  8
0
100
AcDbLine
 62
7
  6
CONTINUOUS
 10
19.7194818561
 20
1.1708914427
 11
19.8852396156
 21
1.1699333054
  0
LINE
  5
21D
100
AcDbEntity
  8
0
100
AcDbLine
 62
7
  6
CONTINUOUS
 10
19.4758111696
 20
1.2723454088
 11
19.88525039
 21
1.3511534004
  0
LINE
  5
21E
100
AcDbEntity
  8
0
100
AcDbLine
 62
7
  6
CONTINUOUS
 10
19.88525039
 20
1.3511534004
 11
19.8831348489
 21
0.9851647912
  0
LINE
  5
21F
100
AcDbEntity
  8
0
100
AcDbLine
 62
7
  6
CONTINUOUS
 10
19.8831348489
 20
0.9851647912
 11
19.4767170086
 21
1.0658141206
  0
LINE
  5
220
100
AcDbEntity
  8
0
100
AcDbLine
 62
7
  6
CONTINUOUS
 10
19.4767170086
 20
1.0658141206
 11
19.4779056764
 21
1.2714536432
  0
CIRCLE
  5
221
100
AcDbEntity
  8
0
100
AcDbCircle
 62
7
  6
CONTINUOUS
 10
20.2068232291
 20
1.1717972817
 40
0.175742101
  0
CIRCLE
  5
222
100
AcDbEntity
  8
0
100
AcDbCircle
 62
7
  6
CONTINUOUS
 10
20.2068232291
 20
1.1717972817
 40
0.1005522074
  0
LINE
  5
223
100
AcDbEntity
  8
0
100
AcDbLine
 62
7
  6
CONTINUOUS
 10
20.2077290681
 20
1.3756110529
 11
20.2071171714
 21
1.2379342989
  0
LINE
  5
224
100
AcDbEntity
  8
0
100
AcDbLine
 62
7
  6
CONTINUOUS
 10
20.2077290681
 20
1.2016899681
 11
20.2074674401
 21
1.1428236749
  0
LINE
  5
225
100
AcDbEntity
  8
0
100
AcDbLine
 62
7
  6
CONTINUOUS
 10
20.208634907
 20
1.101141841
 11
20.2080230104
 21
0.963465087
  0
LINE
  5
226
100
AcDbEntity
  8
0
100
AcDbLine
 62
7
  6
CONTINUOUS
 10
20.0066328138
 20
1.1745147986
 11
20.1443095678
 21
1.1739029019
  0
LINE
  5
227
100
AcDbEntity
  8
0
100
AcDbLine
 62
7
  6
CONTINUOUS
 10
20.1832714155
 20
1.1727031207
 11
20.238153505
 21
1.172335442
  0
LINE
  5
228
100
AcDbEntity
  8
0
100
AcDbLine
 62
7
  6
CONTINUOUS
 10
20.2756669918
 20
1.1717972817
 11
20.407916871
 21
1.1712095044
  0
CIRCLE
  5
229
100
AcDbEntity
  8
0
100
AcDbCircle
 62
7
  6
CONTINUOUS
 10
20.7509457401
 20
1.1693297793
 40
0.1722024983
  0
CIRCLE
  5
22A
100
AcDbEntity
  8
0
100
AcDbCircle
 62
7
  6
CONTINUOUS
 10
20.7509457401
 20
1.1693297793
 40
0.0985164967
  0
LINE
  5
22B
100
AcDbEntity
  8
0
100
AcDbLine
 62
7
  6
CONTINUOUS
 10
20.7169767782
 20
1.170462078
 11
20.7825395137
 21
1.1682766535
  0
LINE
  5
22C
100
AcDbEntity
  8
0
100
AcDbLine
 62
7
  6
CONTINUOUS
 10
20.8177513651
 20
1.1693297793
 11
20.947965719
 21
1.1693297793
  0
LINE
  5
22D
100
AcDbEntity
  8
0
100
AcDbLine
 62
7
  6
CONTINUOUS
 10
20.6875370113
 20
1.170462078
 11
20.5573226574
 21
1.170462078
  0
LINE
  5
22E
100
AcDbEntity
  8
0
100
AcDbLine
 62
7
  6
CONTINUOUS
 10
20.7486811426
 20
1.1987695462
 11
20.7486811426
 21
1.1432869085
  0
LINE
  5
22F
100
AcDbEntity
  8
0
100
AcDbLine
 62
7
  6
CONTINUOUS
 10
20.7498134414
 20
1.1059210505
 11
20.7498134414
 21
0.9757066966
  0
LINE
  5
230
100
AcDbEntity
  8
0
100
AcDbLine
 62
7
  6
CONTINUOUS
 10
20.7486811426
 20
1.2338708068
 11
20.7486811426
 21
1.3640851607
  0
LINE
  5
231
100
AcDbEntity
  8
0
100
AcDbLine
 62
7
  6
CONTINUOUS
 10
21.0702539817
 20
1.2701043662
 11
21.4790138229
 21
1.3448360823
  0
LINE
  5
232
100
AcDbEntity
  8
0
100
AcDbLine
 62
7
  6
CONTINUOUS
 10
21.4790138229
 20
1.3448360823
 11
21.4790138229
 21
0.9779712941
  0
LINE
  5
233
100
AcDbEntity
  8
0
100
AcDbLine
 62
7
  6
CONTINUOUS
 10
21.4790138229
 20
0.9779712941
 11
21.069121683
 21
1.0617614
  0
LINE
  5
234
100
AcDbEntity
  8
0
100
AcDbLine
 62
7
  6
CONTINUOUS
 10
21.0702539817
 20
1.2701043662
 11
21.069121683
 21
1.0617614
  0
LINE
  5
235
100
AcDbEntity
  8
0
100
AcDbLine
 62
7
  6
CONTINUOUS
 10
21.4790138229
 20
1.1693297793
 11
21.3159628059
 21
1.1693297793
  0
LINE
  5
236
100
AcDbEntity
  8
0
100
AcDbLine
 62
7
  6
CONTINUOUS
 10
21.2876553377
 20
1.1693297793
 11
21.2502894796
 21
1.1693297793
  0
LINE
  5
237
100
AcDbEntity
  8
0
100
AcDbLine
 62
7
  6
CONTINUOUS
 10
21.2208497126
 20
1.1659328831
 11
21.0713862804
 21
1.1659328831
  0
LINE
  5
238
100
AcDbEntity
  8
0
100
AcDbLine
 62
7
  6
CONTINUOUS
 10
20.4796138713
 20
1.5284908897
 11
20.4766766948
 21
0.9294458646
  0
ENDBLK
  5
239
100
AcDbEntity
  8
0
  6
BYBLOCK
 62
0
100
AcDbBlockEnd
  0
BLOCK
  5
23A
100
AcDbEntity
  8
0
100
AcDbBlockBegin
  2
*T1
 70
1
 10
0.0
 20
0.0
  3
*T1
  1

  0
LINE
  5
23B
100
AcDbEntity
  8
0
100
AcDbLine
 62
2
  6
CONTINUOUS
 10
9.275
 20
0.0
 11
-0.0
 21
0.0
  0
LINE
  5
23C
100
AcDbEntity
  8
0
100
AcDbLine
 62
2
  6
CONTINUOUS
 10
9.275
 20
0.0
 11
9.275
 21
1.25
  0
LINE
  5
23D
100
AcDbEntity
  8
0
100
AcDbLine
 62
2
  6
CONTINUOUS
 10
9.275
 20
0.625
 11
-0.0
 21
0.625
  0
LINE
  5
23E
100
AcDbEntity
  8
0
100
AcDbLine
 62
2
  6
CONTINUOUS
 10
9.275
 20
1.25
 11
-0.0
 21
1.25
  0
LINE
  5
23F
100
AcDbEntity
  8
0
100
AcDbLine
 62
2
  6
CONTINUOUS
 10
6.8
 20
0.0
 11
6.8
 21
1.25
  0
LINE
  5
240
100
AcDbEntity
  8
0
100
AcDbLine
 62
2
  6
CONTINUOUS
 10
6.4
 20
0.0
 11
6.4
 21
0.625
  0
LINE
  5
241
100
AcDbEntity
  8
0
100
AcDbLine
 62
2
  6
CONTINUOUS
 10
5.9
 20
0.0
 11
5.9
 21
0.625
  0
LINE
  5
242
100
AcDbEntity
  8
0
100
AcDbLine
 62
2
  6
CONTINUOUS
 10
5.2
 20
0.0
 11
5.2
 21
0.625
  0
LINE
  5
243
100
AcDbEntity
  8
0
100
AcDbLine
 62
2
  6
CONTINUOUS
 10
4.1
 20
0.0
 11
4.1
 21
1.25
  0
LINE
  5
244
100
AcDbEntity
  8
0
100
AcDbLine
 62
2
  6
CONTINUOUS
 10
-0.0
 20
0.0
 11
-0.0
 21
1.25
  0
MTEXT
  5
245
100
AcDbEntity
  8
0
100
AcDbMText
 62
2
  6
CONTINUOUS
  7
STANDARD
 71
2
 72
1
 10
6.6
 20
0.325
 30
0.0
 11
1.0
 21
0.0
 31
0.0
 44
0.9
  1
2
 40
0.125
 41
0.2
  0
MTEXT
  5
246
100
AcDbEntity
  8
0
100
AcDbMText
 62
2
  6
CONTINUOUS
  7
STANDARD
 71
2
 72
1
 10
6.15
 20
0.325
 30
0.0
 11
1.0
 21
0.0
 31
0.0
 44
0.9
  1
C
 40
0.125
 41
0.2
  0
MTEXT
  5
247
100
AcDbEntity
  8
0
100
AcDbMText
 62
2
  6
CONTINUOUS
  7
STANDARD
 71
2
 72
1
 10
5.55
 20
0.325
 30
0.0
 11
1.0
 21
0.0
 31
0.0
 44
0.9
  1
2.000
 40
0.125
 41
1.0
  0
MTEXT
  5
248
100
AcDbEntity
  8
0
100
AcDbMText
 62
2
  6
CONTINUOUS
  7
STANDARD
 71
2
 72
1
 10
4.65
 20
0.325
 30
0.0
 11
1.0
 21
0.0
 31
0.0
 44
0.9
  1
Jun-27-23
 40
0.125
 41
1.8
  0
MTEXT
  5
249
100
AcDbEntity
  8
0
100
AcDbMText
 62
2
  6
CONTINUOUS
  7
STANDARD
 71
2
 72
1
 10
2.05
 20
0.4625
 30
0.0
 11
1.0
 21
0.0
 31
0.0
 44
0.9
  1
T-11A Sandwich ISO 03 - 40mm\POn P, port 3 to T
 40
0.125
 41
5.6
  0
MTEXT
  5
24A
100
AcDbEntity
  8
0
100
AcDbMText
 62
2
  6
CONTINUOUS
  7
STANDARD
 71
1
 72
1
 10
6.45
 20
0.5625
 30
0.0
 11
1.0
 21
0.0
 31
0.0
 44
0.9
  1
SHEET
 40
0.06
 41
0.48
  0
MTEXT
  5
24B
100
AcDbEntity
  8
0
100
AcDbMText
 62
2
  6
CONTINUOUS
  7
STANDARD
 71
1
 72
1
 10
5.95
 20
0.5625
 30
0.0
 11
1.0
 21
0.0
 31
0.0
 44
0.9
  1
DWG SIZE
 40
0.06
 41
0.768
  0
MTEXT
  5
24C
100
AcDbEntity
  8
0
100
AcDbMText
 62
2
  6
CONTINUOUS
  7
STANDARD
 71
1
 72
1
 10
5.25
 20
0.5625
 30
0.0
 11
1.0
 21
0.0
 31
0.0
 44
0.9
  1
SCALE
 40
0.06
 41
0.48
  0
MTEXT
  5
24D
100
AcDbEntity
  8
0
100
AcDbMText
 62
2
  6
CONTINUOUS
  7
STANDARD
 71
1
 72
1
 10
4.15
 20
0.5625
 30
0.0
 11
1.0
 21
0.0
 31
0.0
 44
0.9
  1
DATE
 40
0.06
 41
0.384
  0
MTEXT
  5
24E
100
AcDbEntity
  8
0
100
AcDbMText
 62
2
  6
CONTINUOUS
  7
STANDARD
 71
1
 72
1
 10
0.05
 20
0.5625
 30
0.0
 11
1.0
 21
0.0
 31
0.0
 44
0.9
  1
DESCRIPTION
 40
0.06
 41
1.056
  0
MTEXT
  5
24F
100
AcDbEntity
  8
0
100
AcDbMText
 62
2
  6
CONTINUOUS
  7
STANDARD
 71
2
 72
1
 10
5.45
 20
1.0375
 30
0.0
 11
1.0
 21
0.0
 31
0.0
 44
0.9
  1
ALL DIMENSIONS IN INCH\PVIEWS ARE THIRD ANGLE
 40
0.12
 41
4.224
  0
MTEXT
  5
250
100
AcDbEntity
  8
0
100
AcDbMText
 62
2
  6
CONTINUOUS
  7
STANDARD
 71
2
 72
1
 10
2.05
 20
0.95
 30
0.0
 11
1.0
 21
0.0
 31
0.0
 44
0.9
  1
W4L
 40
0.125
 41
0.6
  0
MTEXT
  5
251
100
AcDbEntity
  8
0
100
AcDbMText
 62
2
  6
CONTINUOUS
  7
STANDARD
 71
1
 72
1
 10
0.05
 20
1.1875
 30
0.0
 11
1.0
 21
0.0
 31
0.0
 44
0.9
  1
MODEL
 40
0.06
 41
0.48
  0
ENDBLK
  5
252
100
AcDbEntity
  8
0
  6
BYBLOCK
 62
0
100
AcDbBlockEnd
  0
BLOCK
  5
253
100
AcDbEntity
  8
0
100
AcDbBlockBegin
  2
*T2
 70
1
 10
0.0
 20
0.0
  3
*T2
  1

  0
LINE
  5
254
100
AcDbEntity
  8
0
100
AcDbLine
 62
2
  6
CONTINUOUS
 10
0.0
 20
0.0
 11
9.055
 21
0.0
  0
LINE
  5
255
100
AcDbEntity
  8
0
100
AcDbLine
 62
2
  6
CONTINUOUS
 10
0.0
 20
0.0
 11
0.0
 21
-2.344
  0
LINE
  5
256
100
AcDbEntity
  8
0
100
AcDbLine
 62
2
  6
CONTINUOUS
 10
0.0
 20
-0.344
 11
9.055
 21
-0.344
  0
LINE
  5
257
100
AcDbEntity
  8
0
100
AcDbLine
 62
2
  6
CONTINUOUS
 10
0.0
 20
-0.594
 11
9.055
 21
-0.594
  0
LINE
  5
258
100
AcDbEntity
  8
0
100
AcDbLine
 62
2
  6
CONTINUOUS
 10
0.0
 20
-0.844
 11
9.055
 21
-0.844
  0
LINE
  5
259
100
AcDbEntity
  8
0
100
AcDbLine
 62
2
  6
CONTINUOUS
 10
0.0
 20
-1.094
 11
9.055
 21
-1.094
  0
LINE
  5
25A
100
AcDbEntity
  8
0
100
AcDbLine
 62
2
  6
CONTINUOUS
 10
0.0
 20
-1.344
 11
9.055
 21
-1.344
  0
LINE
  5
25B
100
AcDbEntity
  8
0
100
AcDbLine
 62
2
  6
CONTINUOUS
 10
0.0
 20
-1.594
 11
9.055
 21
-1.594
  0
LINE
  5
25C
100
AcDbEntity
  8
0
100
AcDbLine
 62
2
  6
CONTINUOUS
 10
0.0
 20
-1.844
 11
9.055
 21
-1.844
  0
LINE
  5
25D
100
AcDbEntity
  8
0
100
AcDbLine
 62
2
  6
CONTINUOUS
 10
0.0
 20
-2.094
 11
9.055
 21
-2.094
  0
LINE
  5
25E
100
AcDbEntity
  8
0
100
AcDbLine
 62
2
  6
CONTINUOUS
 10
0.0
 20
-2.344
 11
9.055
 21
-2.344
  0
LINE
  5
25F
100
AcDbEntity
  8
0
100
AcDbLine
 62
2
  6
CONTINUOUS
 10
3.055
 20
0.0
 11
3.055
 21
-2.344
  0
LINE
  5
260
100
AcDbEntity
  8
0
100
AcDbLine
 62
2
  6
CONTINUOUS
 10
9.055
 20
0.0
 11
9.055
 21
-2.344
  0
MTEXT
  5
261
100
AcDbEntity
  8
0
100
AcDbMText
 62
2
  6
CONTINUOUS
  7
STANDARD
 71
2
 72
1
 10
1.5275
 20
-0.0995
 30
0.0
 11
1.0
 21
0.0
 31
0.0
 44
0.9
  1
Technical Data
 40
0.145
 41
3.248
  0
MTEXT
  5
262
100
AcDbEntity
  8
0
100
AcDbMText
 62
2
  6
CONTINUOUS
  7
STANDARD
 71
2
 72
1
 10
4.555
 20
-0.0995
 30
0.0
 11
1.0
 21
0.0
 31
0.0
 44
0.9
  1
U.S. Units
 40
0.145
 41
2.32
  0
MTEXT
  5
263
100
AcDbEntity
  8
0
100
AcDbMText
 62
2
  6
CONTINUOUS
  7
STANDARD
 71
2
 72
1
 10
7.555
 20
-0.0995
 30
0.0
 11
1.0
 21
0.0
 31
0.0
 44
0.9
  1
Metric Units
 40
0.145
 41
2.784
  0
MTEXT
  5
264
100
AcDbEntity
  8
0
100
AcDbMText
 62
2
  6
CONTINUOUS
  7
STANDARD
 71
2
 72
1
 10
1.5275
 20
-0.4065
 30
0.0
 11
1.0
 21
0.0
 31
0.0
 44
0.9
  1
Cavity
 40
0.125
 41
1.2
  0
MTEXT
  5
265
100
AcDbEntity
  8
0
100
AcDbMText
 62
2
  6
CONTINUOUS
  7
STANDARD
 71
2
 72
1
 10
6.055
 20
-0.4065
 30
0.0
 11
1.0
 21
0.0
 31
0.0
 44
0.9
  1
T-11A
 40
0.125
 41
1.0
  0
MTEXT
  5
266
100
AcDbEntity
  8
0
100
AcDbMText
 62
2
  6
CONTINUOUS
  7
STANDARD
 71
2
 72
1
 10
1.5275
 20
-0.6565
 30
0.0
 11
1.0
 21
0.0
 31
0.0
 44
0.9
  1
Body Features
 40
0.125
 41
2.6
  0
MTEXT
  5
267
100
AcDbEntity
  8
0
100
AcDbMText
 62
2
  6
CONTINUOUS
  7
STANDARD
 71
2
 72
1
 10
6.055
 20
-0.6565
 30
0.0
 11
1.0
 21
0.0
 31
0.0
 44
0.9
  1
On P, port 3 to T
 40
0.125
 41
3.4
  0
MTEXT
  5
268
100
AcDbEntity
  8
0
100
AcDbMText
 62
2
  6
CONTINUOUS
  7
STANDARD
 71
2
 72
1
 10
1.5275
 20
-0.9065
 30
0.0
 11
1.0
 21
0.0
 31
0.0
 44
0.9
  1
Body Type
 40
0.125
 41
1.8
  0
MTEXT
  5
269
100
AcDbEntity
  8
0
100
AcDbMText
 62
2
  6
CONTINUOUS
  7
STANDARD
 71
2
 72
1
 10
6.055
 20
-0.9065
 30
0.0
 11
1.0
 21
0.0
 31
0.0
 44
0.9
  1
Sandwich
 40
0.125
 41
1.6
  0
MTEXT
  5
26A
100
AcDbEntity
  8
0
100
AcDbMText
 62
2
  6
CONTINUOUS
  7
STANDARD
 71
2
 72
1
 10
1.5275
 20
-1.1565
 30
0.0
 11
1.0
 21
0.0
 31
0.0
 44
0.9
  1
Interface
 40
0.125
 41
1.8
  0
MTEXT
  5
26B
100
AcDbEntity
  8
0
100
AcDbMText
 62
2
  6
CONTINUOUS
  7
STANDARD
 71
2
 72
1
 10
6.055
 20
-1.1565
 30
0.0
 11
1.0
 21
0.0
 31
0.0
 44
0.9
  1
ISO 03 - 40mm
 40
0.125
 41
2.6
  0
MTEXT
  5
26C
100
AcDbEntity
  8
0
100
AcDbMText
 62
2
  6
CONTINUOUS
  7
STANDARD
 71
2
 72
1
 10
1.5275
 20
-1.4065
 30
0.0
 11
1.0
 21
0.0
 31
0.0
 44
0.9
  1
Open Cavity Quantity
 40
0.125
 41
4.0
  0
MTEXT
  5
26D
100
AcDbEntity
  8
0
100
AcDbMText
 62
2
  6
CONTINUOUS
  7
STANDARD
 71
2
 72
1
 10
6.055
 20
-1.4065
 30
0.0
 11
1.0
 21
0.0
 31
0.0
 44
0.9
  1
1
 40
0.125
 41
0.2
  0
MTEXT
  5
26E
100
AcDbEntity
  8
0
100
AcDbMText
 62
2
  6
CONTINUOUS
  7
STANDARD
 71
2
 72
1
 10
1.5275
 20
-1.6565
 30
0.0
 11
1.0
 21
0.0
 31
0.0
 44
0.9
  1
Stack Height
 40
0.125
 41
2.4
  0
MTEXT
  5
26F
100
AcDbEntity
  8
0
100
AcDbMText
 62
2
  6
CONTINUOUS
  7
STANDARD
 71
2
 72
1
 10
4.555
 20
-1.6565
 30
0.0
 11
1.0
 21
0.0
 31
0.0
 44
0.9
  1
1.58 in.
 40
0.125
 41
1.6
  0
MTEXT
  5
270
100
AcDbEntity
  8
0
100
AcDbMText
 62
2
  6
CONTINUOUS
  7
STANDARD
 71
2
 72
1
 10
7.555
 20
-1.6565
 30
0.0
 11
1.0
 21
0.0
 31
0.0
 44
0.9
  1
40 mm
 40
0.125
 41
1.0
  0
MTEXT
  5
271
100
AcDbEntity
  8
0
100
AcDbMText
 62
2
  6
CONTINUOUS
  7
STANDARD
 71
2
 72
1
 10
1.5275
 20
-1.9065
 30
0.0
 11
1.0
 21
0.0
 31
0.0
 44
0.9
  1
Weight
 40
0.125
 41
1.2
  0
MTEXT
  5
272
100
AcDbEntity
  8
0
100
AcDbMText
 62
2
  6
CONTINUOUS
  7
STANDARD
 71
2
 72
1
 10
4.555
 20
-1.9065
 30
0.0
 11
1.0
 21
0.0
 31
0.0
 44
0.9
  1
0.761 lb.
 40
0.125
 41
1.8
  0
MTEXT
  5
273
100
AcDbEntity
  8
0
100
AcDbMText
 62
2
  6
CONTINUOUS
  7
STANDARD
 71
2
 72
1
 10
7.555
 20
-1.9065
 30
0.0
 11
1.0
 21
0.0
 31
0.0
 44
0.9
  1
0,345 kg.
 40
0.125
 41
1.8
  0
MTEXT
  5
274
100
AcDbEntity
  8
0
100
AcDbMText
 62
2
  6
CONTINUOUS
  7
STANDARD
 71
2
 72
1
 10
1.5275
 20
-2.1565
 30
0.0
 11
1.0
 21
0.0
 31
0.0
 44
0.9
  1
Seal Plate Included (see notes)
 40
0.125
 41
6.2
  0
MTEXT
  5
275
100
AcDbEntity
  8
0
100
AcDbMText
 62
2
  6
CONTINUOUS
  7
STANDARD
 71
2
 72
1
 10
6.055
 20
-2.1565
 30
0.0
 11
1.0
 21
0.0
 31
0.0
 44
0.9
  1
No
 40
0.125
 41
0.4
  0
ENDBLK
  5
276
100
AcDbEntity
  8
0
  6
BYBLOCK
 62
0
100
AcDbBlockEnd
  0
BLOCK
  5
277
100
AcDbEntity
  8
0
100
AcDbBlockBegin
  2
*T3
 70
1
 10
0.0
 20
0.0
  3
*T3
  1

  0
LINE
  5
278
100
AcDbEntity
  8
0
100
AcDbLine
 62
2
  6
CONTINUOUS
 10
0.0
 20
0.0
 11
4.6
 21
0.0
  0
LINE
  5
279
100
AcDbEntity
  8
0
100
AcDbLine
 62
2
  6
CONTINUOUS
 10
0.0
 20
0.0
 11
0.0
 21
-0.93775
  0
LINE
  5
27A
100
AcDbEntity
  8
0
100
AcDbLine
 62
2
  6
CONTINUOUS
 10
0.0
 20
-0.34375
 11
4.6
 21
-0.34375
  0
LINE
  5
27B
100
AcDbEntity
  8
0
100
AcDbLine
 62
2
  6
CONTINUOUS
 10
0.0
 20
-0.68775
 11
4.6
 21
-0.68775
  0
LINE
  5
27C
100
AcDbEntity
  8
0
100
AcDbLine
 62
2
  6
CONTINUOUS
 10
0.0
 20
-0.93775
 11
4.6
 21
-0.93775
  0
LINE
  5
27D
100
AcDbEntity
  8
0
100
AcDbLine
 62
2
  6
CONTINUOUS
 10
1.3
 20
-0.34375
 11
1.3
 21
-0.93775
  0
LINE
  5
27E
100
AcDbEntity
  8
0
100
AcDbLine
 62
2
  6
CONTINUOUS
 10
3.3
 20
-0.34375
 11
3.3
 21
-0.93775
  0
LINE
  5
27F
100
AcDbEntity
  8
0
100
AcDbLine
 62
2
  6
CONTINUOUS
 10
4.6
 20
0.0
 11
4.6
 21
-0.93775
  0
MTEXT
  5
280
100
AcDbEntity
  8
0
100
AcDbMText
 62
2
  6
CONTINUOUS
  7
STANDARD
 71
2
 72
1
 10
2.3
 20
-0.099375
 30
0.0
 11
1.0
 21
0.0
 31
0.0
 44
0.9
  1
Port Headings
 40
0.145
 41
3.016
  0
MTEXT
  5
281
100
AcDbEntity
  8
0
100
AcDbMText
 62
2
  6
CONTINUOUS
  7
STANDARD
 71
2
 72
1
 10
0.65
 20
-0.44325
 30
0.0
 11
1.0
 21
0.0
 31
0.0
 44
0.9
  1
Product
 40
0.145
 41
1.624
  0
MTEXT
  5
282
100
AcDbEntity
  8
0
100
AcDbMText
 62
2
  6
CONTINUOUS
  7
STANDARD
 71
2
 72
1
 10
2.3
 20
-0.44325
 30
0.0
 11
1.0
 21
0.0
 31
0.0
 44
0.9
  1
Port
 40
0.145
 41
0.928
  0
MTEXT
  5
283
100
AcDbEntity
  8
0
100
AcDbMText
 62
2
  6
CONTINUOUS
  7
STANDARD
 71
2
 72
1
 10
3.95
 20
-0.44325
 30
0.0
 11
1.0
 21
0.0
 31
0.0
 44
0.9
  1
Size
 40
0.145
 41
0.928
  0
MTEXT
  5
284
100
AcDbEntity
  8
0
100
AcDbMText
 62
2
  6
CONTINUOUS
  7
STANDARD
 71
2
 72
1
 10
0.65
 20
-0.75025
 30
0.0
 11
1.0
 21
0.0
 31
0.0
 44
0.9
  1
W4L
 40
0.125
 41
0.6
  0
MTEXT
  5
285
100
AcDbEntity
  8
0
100
AcDbMText
 62
2
  6
CONTINUOUS
  7
STANDARD
 71
2
 72
1
 10
2.3
 20
-0.75025
 30
0.0
 11
1.0
 21
0.0
 31
0.0
 44
0.9
  1
Gage Port (Plugged)
 40
0.125
 41
3.8
  0
MTEXT
  5
286
100
AcDbEntity
  8
0
100
AcDbMText
 62
2
  6
CONTINUOUS
  7
STANDARD
 71
2
 72
1
 10
3.95
 20
-0.75025
 30
0.0
 11
1.0
 21
0.0
 31
0.0
 44
0.9
  1
1/4" NPTF
 40
0.125
 41
1.8
  0
ENDBLK
  5
287
100
AcDbEntity
  8
0
  6
BYBLOCK
 62
0
100
AcDbBlockEnd
  0
ENDSEC
  0
SECTION
  2
ENTITIES
  0
IMAGE
  5
288
100
AcDbEntity
  8
0
100
AcDbRasterImage
 62
7
  6
CONTINUOUS
 10
19.2297077316
 20
0.3094318264
 30
0.0
 11
0.0066666667
 21
0.0
 31
0.0
 12
0.0
 22
0.0066666667
 32
0.0
 13
369.0
 23
92.0
340
       318
 70
9
280
0
281
50
282
50
283
0
360
       312
 71
1
 91
2
 14
-0.5
 24
-0.5
 14
368.5
 24
91.5
  0
INSERT
  5
289
100
AcDbEntity
  8
0
100
AcDbBlockReference
 62
2
  6
CONTINUOUS
  2
SUN_FIRST_THIRD_ANGLE_BL0
 10
20.4816717061
 20
1.2289683772
  0
ACAD_TABLE
  5
28A
100
AcDbEntity
  8
0
 62
2
  6
CONTINUOUS
100
AcDbBlockReference
  2
*T1
 10
12.42375
 20
0.30125
 30
0.0
100
AcDbTable
342
       31A
343
213
 11
1.0
 21
0.0
 31
0.0
 90
6
 91
4
 92
6
 93
20
 94
0
 95
0
 96
0
 70
1
 41
0.0
141
0.525
141
0.1
141
0.525
141
0.1
142
4.1
142
1.1
142
0.7
142
0.5
142
0.4
142
2.475
171
1
172
0
173
0
174
0
175
1
176
1
 91
33
178
0
145
0.0
301
CELL_VALUE
 90
4
  1
T-11A Sandwich ISO 03 - 40mm\POn P, port 3 to T
304
ACVALUE_END
170
2
140
0.125
171
1
172
0
173
0
174
0
175
1
176
1
 91
33
178
0
145
0.0
301
CELL_VALUE
 90
4
  1
Jun-27-23
304
ACVALUE_END
170
5
140
0.125
171
1
172
0
173
0
174
0
175
1
176
1
 91
33
178
0
145
0.0
301
CELL_VALUE
 90
4
  1
2.000
304
ACVALUE_END
170
5
140
0.125
171
1
172
0
173
0
174
0
175
1
176
1
 91
33
178
0
145
0.0
301
CELL_VALUE
 90
4
  1
C
304
ACVALUE_END
170
5
140
0.125
171
1
172
0
173
0
174
0
175
1
176
1
 91
33
178
0
145
0.0
301
CELL_VALUE
 90
4
  1
2
304
ACVALUE_END
170
5
140
0.125
171
1
172
0
173
0
174
0
175
1
176
1
 91
33
178
0
145
0.0
301
CELL_VALUE
 90
4
  1
 
304
ACVALUE_END
170
1
140
0.125
171
1
172
0
173
0
174
0
175
1
176
1
 91
33
178
0
145
0.0
301
CELL_VALUE
 90
4
  1
DESCRIPTION
304
ACVALUE_END
170
1
140
0.06
171
1
172
0
173
0
174
0
175
1
176
1
 91
33
178
0
145
0.0
301
CELL_VALUE
 90
4
  1
DATE
304
ACVALUE_END
170
1
140
0.06
171
1
172
0
173
0
174
0
175
1
176
1
 91
33
178
0
145
0.0
301
CELL_VALUE
 90
4
  1
SCALE
304
ACVALUE_END
170
1
140
0.06
171
1
172
0
173
0
174
0
175
1
176
1
 91
33
178
0
145
0.0
301
CELL_VALUE
 90
4
  1
DWG SIZE
304
ACVALUE_END
170
1
140
0.06
171
1
172
0
173
0
174
0
175
1
176
1
 91
33
178
0
145
0.0
301
CELL_VALUE
 90
4
  1
SHEET
304
ACVALUE_END
170
1
140
0.06
171
1
172
0
173
0
174
0
175
1
176
1
 91
33
178
0
145
0.0
301
CELL_VALUE
 90
4
  1
 
304
ACVALUE_END
170
1
140
0.125
171
1
172
0
173
0
174
0
175
1
176
1
 91
33
178
0
145
0.0
301
CELL_VALUE
 90
4
  1
W4L
304
ACVALUE_END
170
5
140
0.125
171
1
172
0
173
0
174
0
175
4
176
1
 91
33
178
0
145
0.0
301
CELL_VALUE
 90
4
  1
ALL DIMENSIONS IN INCH\PVIEWS ARE THIRD ANGLE
304
ACVALUE_END
170
5
140
0.12
171
1
172
0
173
1
174
0
175
1
176
1
 91
1
178
0
145
0.0
170
1
171
1
172
0
173
1
174
0
175
1
176
1
 91
1
178
0
145
0.0
170
1
171
1
172
0
173
1
174
0
175
1
176
1
 91
1
178
0
145
0.0
170
5
171
1
172
0
173
0
174
0
175
1
176
1
 91
33
178
0
145
0.0
301
CELL_VALUE
 90
4
  1
 
304
ACVALUE_END
170
1
140
0.125
171
1
172
0
173
0
174
0
175
1
176
1
 91
33
178
0
145
0.0
301
CELL_VALUE
 90
4
  1
MODEL
304
ACVALUE_END
170
1
140
0.06
171
1
172
0
173
0
174
0
175
1
176
1
 91
33
178
0
145
0.0
301
CELL_VALUE
 90
4
  1
 
304
ACVALUE_END
170
1
140
0.125
171
1
172
0
173
0
174
0
175
1
176
1
 91
33
178
0
145
0.0
301
CELL_VALUE
 90
4
  1
 
304
ACVALUE_END
170
1
140
0.125
171
1
172
0
173
0
174
0
175
1
176
1
 91
33
178
0
145
0.0
301
CELL_VALUE
 90
4
  1
 
304
ACVALUE_END
170
1
140
0.125
171
1
172
0
173
0
174
0
175
1
176
1
 91
33
178
0
145
0.0
301
CELL_VALUE
 90
4
  1
 
304
ACVALUE_END
170
1
140
0.125
171
1
172
0
173
0
174
0
175
1
176
1
 91
33
178
0
145
0.0
301
CELL_VALUE
 90
4
  1
 
304
ACVALUE_END
170
1
140
0.125
  0
ACAD_TABLE
  5
28B
100
AcDbEntity
  8
0
 62
2
  6
CONTINUOUS
100
AcDbBlockReference
  2
*T2
 10
12.4237499994
 20
16.47875
 30
0.0
100
AcDbTable
342
       319
343
214
 11
1.0
 21
0.0
 31
0.0
 90
22
 91
9
 92
3
 93
16
 94
0
 95
0
 96
0
 41
0.028
141
0.344
141
0.25
141
0.25
141
0.25
141
0.25
141
0.25
141
0.25
141
0.25
141
0.25
142
3.055
142
3.0
142
3.0
171
1
172
0
173
0
174
0
175
1
176
1
 91
33
178
0
145
0.0
301
CELL_VALUE
 90
4
  1
Technical Data
304
ACVALUE_END
170
5
140
0.145
171
1
172
0
173
0
174
0
175
1
176
1
 91
33
178
0
145
0.0
301
CELL_VALUE
 90
4
  1
U.S. Units
304
ACVALUE_END
170
5
140
0.145
171
1
172
0
173
0
174
0
175
1
176
1
 91
33
178
0
145
0.0
301
CELL_VALUE
 90
4
  1
Metric Units
304
ACVALUE_END
170
5
140
0.145
171
1
172
0
173
0
174
0
175
1
176
1
 91
33
178
0
145
0.0
301
CELL_VALUE
 90
4
  1
Cavity
304
ACVALUE_END
170
5
140
0.125
171
1
172
0
173
0
174
0
175
2
176
1
 91
33
178
0
145
0.0
301
CELL_VALUE
 90
4
  1
T-11A
304
ACVALUE_END
170
5
140
0.125
171
1
172
0
173
1
174
0
175
1
176
1
 91
1
178
0
145
0.0
170
1
171
1
172
0
173
0
174
0
175
1
176
1
 91
33
178
0
145
0.0
301
CELL_VALUE
 90
4
  1
Body Features
304
ACVALUE_END
170
5
140
0.125
171
1
172
0
173
0
174
0
175
2
176
1
 91
33
178
0
145
0.0
301
CELL_VALUE
 90
4
  1
On P, port 3 to T
304
ACVALUE_END
170
5
140
0.125
171
1
172
0
173
1
174
0
175
1
176
1
 91
1
178
0
145
0.0
170
1
171
1
172
0
173
0
174
0
175
1
176
1
 91
33
178
0
145
0.0
301
CELL_VALUE
 90
4
  1
Body Type
304
ACVALUE_END
170
5
140
0.125
171
1
172
0
173
0
174
0
175
2
176
1
 91
33
178
0
145
0.0
301
CELL_VALUE
 90
4
  1
Sandwich
304
ACVALUE_END
170
5
140
0.125
171
1
172
0
173
1
174
0
175
1
176
1
 91
1
178
0
145
0.0
170
1
171
1
172
0
173
0
174
0
175
1
176
1
 91
33
178
0
145
0.0
301
CELL_VALUE
 90
4
  1
Interface
304
ACVALUE_END
170
5
140
0.125
171
1
172
0
173
0
174
0
175
2
176
1
 91
33
178
0
145
0.0
301
CELL_VALUE
 90
4
  1
ISO 03 - 40mm
304
ACVALUE_END
170
5
140
0.125
171
1
172
0
173
1
174
0
175
1
176
1
 91
1
178
0
145
0.0
170
1
171
1
172
0
173
0
174
0
175
1
176
1
 91
33
178
0
145
0.0
301
CELL_VALUE
 90
4
  1
Open Cavity Quantity
304
ACVALUE_END
170
5
140
0.125
171
1
172
0
173
0
174
0
175
2
176
1
 91
33
178
0
145
0.0
301
CELL_VALUE
 90
4
  1
1
304
ACVALUE_END
170
5
140
0.125
171
1
172
0
173
1
174
0
175
1
176
1
 91
1
178
0
145
0.0
170
1
171
1
172
0
173
0
174
0
175
1
176
1
 91
33
178
0
145
0.0
301
CELL_VALUE
 90
4
  1
Stack Height
304
ACVALUE_END
170
5
140
0.125
171
1
172
0
173
0
174
0
175
1
176
1
 91
33
178
0
145
0.0
301
CELL_VALUE
 90
4
  1
1.58 in.
304
ACVALUE_END
170
5
140
0.125
171
1
172
0
173
0
174
0
175
1
176
1
 91
33
178
0
145
0.0
301
CELL_VALUE
 90
4
  1
40 mm
304
ACVALUE_END
170
5
140
0.125
171
1
172
0
173
0
174
0
175
1
176
1
 91
33
178
0
145
0.0
301
CELL_VALUE
 90
4
  1
Weight
304
ACVALUE_END
170
5
140
0.125
171
1
172
0
173
0
174
0
175
1
176
1
 91
33
178
0
145
0.0
301
CELL_VALUE
 90
4
  1
0.761 lb.
304
ACVALUE_END
170
5
140
0.125
171
1
172
0
173
0
174
0
175
1
176
1
 91
33
178
0
145
0.0
301
CELL_VALUE
 90
4
  1
0,345 kg.
304
ACVALUE_END
170
5
140
0.125
171
1
172
0
173
0
174
0
175
1
176
1
 91
33
178
0
145
0.0
301
CELL_VALUE
 90
4
  1
Seal Plate Included (see notes)
304
ACVALUE_END
170
5
140
0.125
171
1
172
0
173
0
174
0
175
2
176
1
 91
33
178
0
145
0.0
301
CELL_VALUE
 90
4
  1
No
304
ACVALUE_END
170
5
140
0.125
171
1
172
0
173
1
174
0
175
1
176
1
 91
1
178
0
145
0.0
170
1
  0
ACAD_TABLE
  5
28C
100
AcDbEntity
  8
0
 62
2
  6
CONTINUOUS
100
AcDbBlockReference
  2
*T3
 10
0.52125
 20
1.459
 30
0.0
100
AcDbTable
342
       319
343
215
 11
1.0
 21
0.0
 31
0.0
 90
22
 91
3
 92
3
 93
16
 94
0
 95
0
 96
0
 41
0.05
141
0.34375
141
0.344
141
0.25
142
1.3
142
2.0
142
1.3
171
1
172
0
173
0
174
0
175
3
176
1
 91
33
178
0
145
0.0
301
CELL_VALUE
 90
4
  1
Port Headings
304
ACVALUE_END
170
5
140
0.145
171
1
172
0
173
1
174
0
175
1
176
1
 91
1
178
0
145
0.0
170
1
171
1
172
0
173
1
174
0
175
1
176
1
 91
1
178
0
145
0.0
170
1
171
1
172
0
173
0
174
0
175
1
176
1
 91
33
178
0
145
0.0
301
CELL_VALUE
 90
4
  1
Product
304
ACVALUE_END
170
5
140
0.145
171
1
172
0
173
0
174
0
175
1
176
1
 91
33
178
0
145
0.0
301
CELL_VALUE
 90
4
  1
Port
304
ACVALUE_END
170
5
140
0.145
171
1
172
0
173
0
174
0
175
1
176
1
 91
33
178
0
145
0.0
301
CELL_VALUE
 90
4
  1
Size
304
ACVALUE_END
170
5
140
0.145
171
1
172
0
173
0
174
0
175
1
176
1
 91
33
178
0
145
0.0
301
CELL_VALUE
 90
4
  1
W4L
304
ACVALUE_END
170
5
140
0.125
171
1
172
0
173
0
174
0
175
1
176
1
 91
33
178
0
145
0.0
301
CELL_VALUE
 90
4
  1
Gage Port (Plugged)
304
ACVALUE_END
170
5
140
0.125
171
1
172
0
173
0
174
0
175
1
176
1
 91
33
178
0
145
0.0
301
CELL_VALUE
 90
4
  1
1/4" NPTF
304
ACVALUE_END
170
5
140
0.125
  0
MTEXT
  5
28D
100
AcDbEntity
  8
0
100
AcDbMText
 62
2
  6
CONTINUOUS
  7
STANDARD
 71
1
 72
1
 10
0.52125
 20
5.75995
 30
0.0
 11
1.0
 21
0.0
 31
0.0
 44
0.6
  3
Notes\P \P1. Important: Carefully consider\P   the maximum system pressure. The\P   pressure rating of the manifold is\P   dependent on the manifold material,\P   with the port type/size a secondary\P   consideration. Manifolds\P   constructed of alu
  3
minum are not\P   rated for pressures higher than\P   3000 psi (210 bar), regardless of\P   the port type/size specified.\P2. Seal retainer plate is not\P   required for this model.\P3. This drawing is for reference\P   only. It is generated by an\P 
  1
  automated process and does not fall\P   under Sun's document control\P   process.
 40
0.1
 41
3.04
  0
LINE
  5
28E
100
AcDbEntity
  8
0
100
AcDbLine
 62
7
  6
CONTINUOUS
 10
0.30125
 20
0.30125
 11
0.30125
 21
16.69875
  0
LINE
  5
28F
100
AcDbEntity
  8
0
100
AcDbLine
 62
7
  6
CONTINUOUS
 10
0.30125
 20
0.30125
 11
21.69875
 21
0.30125
  0
LINE
  5
290
100
AcDbEntity
  8
0
100
AcDbLine
 62
7
  6
CONTINUOUS
 10
0.30125
 20
16.69875
 11
21.69875
 21
16.69875
  0
LINE
  5
291
100
AcDbEntity
  8
0
100
AcDbLine
 62
7
  6
CONTINUOUS
 10
21.69875
 20
0.30125
 11
21.69875
 21
16.69875
  0
LINE
  5
292
100
AcDbEntity
  8
0
100
AcDbLine
 62
7
  6
CONTINUOUS
 10
7.103302301
 20
6.5666011655
 11
7.103302301
 21
9.9473417578
  0
LINE
  5
293
100
AcDbEntity
  8
0
100
AcDbLine
 62
7
  6
CONTINUOUS
 10
7.9185816449
 20
10.7348411784
 11
7.103302301
 21
9.9473417578
  0
LINE
  5
294
100
AcDbEntity
  8
0
100
AcDbLine
 62
4
  6
CONTINUOUS
 10
8.5135540666
 20
8.1688294731
 11
8.5135540666
 21
8.2074665053
  0
LINE
  5
295
100
AcDbEntity
  8
0
100
AcDbLine
 62
4
  6
CONTINUOUS
 10
8.62946517
 20
8.2573836016
 11
8.62946517
 21
8.1028354591
  0
LINE
  5
296
100
AcDbEntity
  8
0
100
AcDbLine
 62
4
  6
CONTINUOUS
 10
8.8033318252
 20
8.3225999725
 11
8.8033318252
 21
8.0907777656
  0
LINE
  5
297
100
AcDbEntity
  8
0
100
AcDbLine
 62
7
  6
CONTINUOUS
 10
7.103302301
 20
6.5666011655
 11
11.4499687768
 21
6.2651588216
  0
LINE
  5
298
100
AcDbEntity
  8
0
100
AcDbLine
 62
4
  6
CONTINUOUS
 10
8.5425318424
 20
8.1281828237
 11
8.5135540666
 21
8.1688294731
  0
LINE
  5
299
100
AcDbEntity
  8
0
100
AcDbLine
 62
4
  6
CONTINUOUS
 10
8.6004873942
 20
8.2400746907
 11
8.62946517
 21
8.199428043
  0
LINE
  5
29A
100
AcDbEntity
  8
0
100
AcDbLine
 62
4
  6
CONTINUOUS
 10
9.2379983911
 20
7.2299372057
 11
9.2090206152
 21
7.289902373
  0
LINE
  5
29B
100
AcDbEntity
  8
0
100
AcDbLine
 62
4
  6
CONTINUOUS
 10
9.2090206152
 20
7.3864949638
 11
9.2090206152
 21
7.15467275
  0
LINE
  5
29C
100
AcDbEntity
  8
0
100
AcDbLine
 62
4
  6
CONTINUOUS
 10
8.5135540666
 20
8.2074665053
 11
8.5425318424
 21
8.2440939219
  0
LINE
  5
29D
100
AcDbEntity
  8
0
100
AcDbLine
 62
7
  6
CONTINUOUS
 10
14.1300763201
 20
6.9500951422
 11
14.0541421478
 21
6.9387483597
  0
LINE
  5
29E
100
AcDbEntity
  8
0
100
AcDbLine
 62
7
  6
CONTINUOUS
 10
11.5999594468
 20
6.5581068423
 11
14.1963682217
 21
6.3780452822
  0
LINE
  5
29F
100
AcDbEntity
  8
0
100
AcDbLine
 62
4
  6
CONTINUOUS
 10
9.2669761669
 20
7.3824757326
 11
9.2959539428
 21
7.3611475906
  0
LINE
  5
2A0
100
AcDbEntity
  8
0
100
AcDbLine
 62
4
  6
CONTINUOUS
 10
9.2959539428
 20
7.3611475906
 11
9.3249317186
 21
7.3205009428
  0
LINE
  5
2A1
100
AcDbEntity
  8
0
100
AcDbLine
 62
4
  6
CONTINUOUS
 10
9.2669761669
 20
8.7927275836
 11
9.2669761669
 21
9.0245497904
  0
LINE
  5
2A2
100
AcDbEntity
  8
0
100
AcDbLine
 62
4
  6
CONTINUOUS
 10
9.3249317186
 20
7.3205009428
 11
9.3249317186
 21
7.2818639106
  0
LINE
  5
2A3
100
AcDbEntity
  8
0
100
AcDbLine
 62
4
  6
CONTINUOUS
 10
9.4987983738
 20
9.0084728658
 11
9.4987983738
 21
8.7766506589
  0
LINE
  5
2A4
100
AcDbEntity
  8
0
100
AcDbLine
 62
4
  6
CONTINUOUS
 10
9.4987983738
 20
7.4436728723
 11
9.4987983738
 21
7.2118506654
  0
LINE
  5
2A5
100
AcDbEntity
  8
0
100
AcDbLine
 62
4
  6
CONTINUOUS
 10
8.62946517
 20
8.1607910108
 11
8.6004873942
 21
8.1241635925
  0
LINE
  5
2A6
100
AcDbEntity
  8
0
100
AcDbLine
 62
4
  6
CONTINUOUS
 10
8.5715096183
 20
8.1068546903
 11
8.5425318424
 21
8.1281828237
  0
LINE
  5
2A7
100
AcDbEntity
  8
0
100
AcDbLine
 62
4
  6
CONTINUOUS
 10
8.5715096183
 20
8.2614028328
 11
8.6004873942
 21
8.2400746907
  0
LINE
  5
2A8
100
AcDbEntity
  8
0
100
AcDbLine
 62
4
  6
CONTINUOUS
 10
9.827213282
 20
8.2515935523
 11
9.827213282
 21
8.0197713454
  0
LINE
  5
2A9
100
AcDbEntity
  8
0
100
AcDbLine
 62
4
  6
CONTINUOUS
 10
9.2669761669
 20
7.2279275901
 11
9.2379983911
 21
7.2299372057
  0
LINE
  5
2AA
100
AcDbEntity
  8
0
100
AcDbLine
 62
7
  6
CONTINUOUS
 10
14.0541421478
 20
6.9387483597
 11
11.4577333729
 21
7.1188099198
  0
LINE
  5
2AB
100
AcDbEntity
  8
0
100
AcDbLine
 62
4
  6
CONTINUOUS
 10
9.8561910579
 20
8.0370802476
 11
9.827213282
 21
8.0777268971
  0
LINE
  5
2AC
100
AcDbEntity
  8
0
100
AcDbLine
 62
4
  6
CONTINUOUS
 10
9.9431243854
 20
8.108325467
 11
9.9431243854
 21
8.0696884348
  0
LINE
  5
2AD
100
AcDbEntity
  8
0
100
AcDbLine
 62
4
  6
CONTINUOUS
 10
10.1169910406
 20
8.2314973965
 11
10.1169910406
 21
7.9996751896
  0
LINE
  5
2AE
100
AcDbEntity
  8
0
100
AcDbLine
 62
4
  6
CONTINUOUS
 10
8.5425318424
 20
8.2440939219
 11
8.5715096183
 21
8.2614028328
  0
LINE
  5
2AF
100
AcDbEntity
  8
0
100
AcDbLine
 62
4
  6
CONTINUOUS
 10
8.6004873942
 20
8.1241635925
 11
8.5715096183
 21
8.1068546903
  0
LINE
  5
2B0
100
AcDbEntity
  8
0
100
AcDbLine
 62
4
  6
CONTINUOUS
 10
9.8851688337
 20
8.0157521143
 11
9.8561910579
 21
8.0370802476
  0
LINE
  5
2B1
100
AcDbEntity
  8
0
100
AcDbLine
 62
4
  6
CONTINUOUS
 10
9.8851688337
 20
8.1703002568
 11
9.9141466096
 21
8.1489721147
  0
LINE
  5
2B2
100
AcDbEntity
  8
0
100
AcDbLine
 62
4
  6
CONTINUOUS
 10
9.9141466096
 20
8.1489721147
 11
9.9431243854
 21
8.108325467
  0
LINE
  5
2B3
100
AcDbEntity
  8
0
100
AcDbLine
 62
4
  6
CONTINUOUS
 10
9.827213282
 20
8.1163639293
 11
9.8561910579
 21
8.1529913459
  0
LINE
  5
2B4
100
AcDbEntity
  8
0
100
AcDbLine
 62
4
  6
CONTINUOUS
 10
9.2090206152
 20
7.3285394051
 11
9.2379983911
 21
7.3651668217
  0
LINE
  5
2B5
100
AcDbEntity
  8
0
100
AcDbLine
 62
4
  6
CONTINUOUS
 10
9.9431243854
 20
8.0696884348
 11
9.9141466096
 21
8.0330610165
  0
LINE
  5
2B6
100
AcDbEntity
  8
0
100
AcDbLine
 62
4
  6
CONTINUOUS
 10
9.3249317186
 20
7.2818639106
 11
9.2959539428
 21
7.2452364923
  0
LINE
  5
2B7
100
AcDbEntity
  8
0
100
AcDbLine
 62
7
  6
CONTINUOUS
 10
11.4499687768
 20
9.6458994139
 11
12.2652481207
 21
10.4333988345
  0
LINE
  5
2B8
100
AcDbEntity
  8
0
100
AcDbLine
 62
7
  6
CONTINUOUS
 10
11.6518474965
 20
9.721124485
 11
12.0623341633
 21
10.1176241813
  0
LINE
  5
2B9
100
AcDbEntity
  8
0
100
AcDbLine
 62
4
  6
CONTINUOUS
 10
9.8561910579
 20
8.1529913459
 11
9.8851688337
 21
8.1703002568
  0
LINE
  5
2BA
100
AcDbEntity
  8
0
100
AcDbLine
 62
7
  6
CONTINUOUS
 10
14.1300763201
 20
8.6404654384
 11
14.0541421478
 21
8.6291186559
  0
LINE
  5
2BB
100
AcDbEntity
  8
0
100
AcDbLine
 62
4
  6
CONTINUOUS
 10
9.9141466096
 20
8.0330610165
 11
9.8851688337
 21
8.0157521143
  0
LINE
  5
2BC
100
AcDbEntity
  8
0
100
AcDbLine
 62
4
  6
CONTINUOUS
 10
9.2379983911
 20
7.3651668217
 11
9.2669761669
 21
7.3824757326
  0
LINE
  5
2BD
100
AcDbEntity
  8
0
100
AcDbLine
 62
4
  6
CONTINUOUS
 10
9.2959539428
 20
7.2452364923
 11
9.2669761669
 21
7.2279275901
  0
LINE
  5
2BE
100
AcDbEntity
  8
0
100
AcDbLine
 62
4
  6
CONTINUOUS
 10
9.2235095031
 20
8.930971623
 11
9.3104428307
 21
8.9249427763
  0
LINE
  5
2BF
100
AcDbEntity
  8
0
100
AcDbLine
 62
7
  6
CONTINUOUS
 10
11.4499687768
 20
6.2651588216
 11
11.4499687768
 21
9.6458994139
  0
LINE
  5
2C0
100
AcDbEntity
  8
0
100
AcDbLine
 62
7
  6
CONTINUOUS
 10
11.4577333729
 20
7.1188099198
 11
11.4577333729
 21
8.809180216
  0
LINE
  5
2C1
100
AcDbEntity
  8
0
100
AcDbLine
 62
7
  6
CONTINUOUS
 10
14.0541421478
 20
8.6291186559
 11
11.4577333729
 21
8.809180216
  0
LINE
  5
2C2
100
AcDbEntity
  8
0
100
AcDbLine
 62
7
  6
CONTINUOUS
 10
7.103302301
 20
9.9473417578
 11
11.4499687768
 21
9.6458994139
  0
LINE
  5
2C3
100
AcDbEntity
  8
0
100
AcDbLine
 62
7
  6
CONTINUOUS
 10
12.2652481207
 20
10.1309090203
 11
12.2652481207
 21
10.4333988345
  0
LINE
  5
2C4
100
AcDbEntity
  8
0
100
AcDbLine
 62
7
  6
CONTINUOUS
 10
14.2482562714
 20
9.5410629249
 11
14.6587429382
 21
9.9375626212
  0
LINE
  5
2C5
100
AcDbEntity
  8
0
100
AcDbLine
 62
7
  6
CONTINUOUS
 10
14.2482562714
 20
9.5410629249
 11
11.6518474965
 21
9.721124485
  0
LINE
  5
2C6
100
AcDbEntity
  8
0
100
AcDbLine
 62
7
  6
CONTINUOUS
 10
14.3081436762
 20
9.4770223145
 11
14.718630343
 21
9.8735220108
  0
LINE
  5
2C7
100
AcDbEntity
  8
0
100
AcDbLine
 62
7
  6
CONTINUOUS
 10
14.6587429382
 20
9.9375626212
 11
12.0623341633
 21
10.1176241813
  0
LINE
  5
2C8
100
AcDbEntity
  8
0
100
AcDbLine
 62
7
  6
CONTINUOUS
 10
12.114222213
 20
10.1413827025
 11
14.7106309879
 21
9.9613211424
  0
LINE
  5
2C9
100
AcDbEntity
  8
0
100
AcDbLine
 62
7
  6
CONTINUOUS
 10
11.4499687768
 20
6.2651588216
 11
11.7429823057
 21
6.5481881733
  0
LINE
  5
2CA
100
AcDbEntity
  8
0
100
AcDbLine
 62
7
  6
CONTINUOUS
 10
12.2652481207
 20
10.4333988345
 11
7.9185816449
 21
10.7348411784
  0
LINE
  5
2CB
100
AcDbEntity
  8
0
100
AcDbLine
 62
7
  6
CONTINUOUS
 10
14.0541421478
 20
6.9387483597
 11
14.0541421478
 21
8.6291186559
  0
LINE
  5
2CC
100
AcDbEntity
  8
0
100
AcDbLine
 62
7
  6
CONTINUOUS
 10
14.1300763201
 20
6.9500951422
 11
14.1300763201
 21
8.6404654384
  0
LINE
  5
2CD
100
AcDbEntity
  8
0
100
AcDbLine
 62
7
  6
CONTINUOUS
 10
14.3081436762
 20
9.4770223145
 11
14.2482562714
 21
9.5410629249
  0
LINE
  5
2CE
100
AcDbEntity
  8
0
100
AcDbLine
 62
7
  6
CONTINUOUS
 10
14.896697699
 20
9.3809648711
 11
14.896697699
 21
7.690594575
  0
LINE
  5
2CF
100
AcDbEntity
  8
0
100
AcDbLine
 62
7
  6
CONTINUOUS
 10
14.718630343
 20
6.8540376989
 11
14.3081436762
 21
6.4575380026
  0
LINE
  5
2D0
100
AcDbEntity
  8
0
100
AcDbLine
 62
7
  6
CONTINUOUS
 10
14.3081436762
 20
6.4575380026
 11
14.3064611603
 21
6.45594271
  0
LINE
  5
2D1
100
AcDbEntity
  8
0
100
AcDbLine
 62
7
  6
CONTINUOUS
 10
14.2464238653
 20
6.4000661135
 11
14.306462749
 21
6.4559439617
  0
LINE
  5
2D2
100
AcDbEntity
  8
0
100
AcDbLine
 62
7
  6
CONTINUOUS
 10
14.718630343
 20
9.8735220108
 11
14.6587429382
 21
9.9375626212
  0
LINE
  5
2D3
100
AcDbEntity
  8
0
100
AcDbLine
 62
7
  6
CONTINUOUS
 10
14.7571677748
 20
9.9326016033
 11
14.8089187264
 21
9.8689711037
  0
SPLINE
  5
2D4
100
AcDbEntity
  8
0
100
AcDbSpline
 62
7
  6
CONTINUOUS
 70
0
 71
3
 72
39
 73
35
 74
0
 42
0.0000001
 43
0.0000001
 44
0.0000000001
 40
0.0
 40
0.0
 40
0.0
 40
0.0
 40
0.0311449008
 40
0.0624431523
 40
0.093888332
 40
0.1254709881
 40
0.1571788807
 40
0.1889972566
 40
0.2209091706
 40
0.2528958383
 40
0.2849370172
 40
0.3170114073
 40
0.349097067
 40
0.3811718373
 40
0.4132137693
 40
0.4452015485
 40
0.4771149106
 40
0.5089350431
 40
0.540644966
 40
0.5722298857
 40
0.6036775159
 40
0.634978357
 40
0.6661259293
 40
0.697116951
 40
0.727951455
 40
0.7586328387
 40
0.7891678408
 40
0.8195664415
 40
0.8498416836
 40
0.8800094164
 40
0.9100879631
 40
0.9400977201
 40
0.9700606955
 40
1.0
 40
1.0
 40
1.0
 40
1.0
 10
9.2766355389
 20
9.1378592088
 30
0.0
 10
9.2825322658
 20
9.1374502694
 30
0.0
 10
9.2943292077
 20
9.1361987529
 30
0.0
 10
9.311881592
 20
9.133046184
 30
0.0
 10
9.3292459922
 20
9.1286303365
 30
0.0
 10
9.3463285843
 20
9.1229750124
 30
0.0
 10
9.3630386455
 20
9.1161104929
 30
0.0
 10
9.3792870323
 20
9.1080735082
 30
0.0
 10
9.3949871881
 20
9.0989070048
 30
0.0
 10
9.4100554533
 20
9.0886599263
 30
0.0
 10
9.4244115441
 20
9.0773869506
 30
0.0
 10
9.4379789655
 20
9.0651482011
 30
0.0
 10
9.4506854164
 20
9.0520089285
 30
0.0
 10
9.4624631707
 20
9.0380391662
 30
0.0
 10
9.4732494346
 20
9.0233133606
 30
0.0
 10
9.4829866785
 20
9.0079099784
 30
0.0
 10
9.4916229413
 20
8.9919110934
 30
0.0
 10
9.4991121056
 20
8.975401954
 30
0.0
 10
9.5054141428
 20
8.9584705345
 30
0.0
 10
9.5104953266
 20
8.9412070724
 30
0.0
 10
9.5143284147
 20
8.9237035942
 30
0.0
 10
9.5168927962
 20
8.9060534312
 30
0.0
 10
9.5181746065
 20
8.8883507282
 30
0.0
 10
9.5181668069
 20
8.8706899481
 30
0.0
 10
9.5168692305
 20
8.8531653729
 30
0.0
 10
9.5142885925
 20
8.8358706039
 30
0.0
 10
9.5104384657
 20
8.8188980649
 30
0.0
 10
9.5053392177
 20
8.8023385051
 30
0.0
 10
9.4990179222
 20
8.786280519
 30
0.0
 10
9.491508195
 20
8.7708100358
 30
0.0
 10
9.4828501381
 20
8.7560099614
 30
0.0
 10
9.4730897055
 20
8.7419593096
 30
0.0
 10
9.4622800481
 20
8.7287343038
 30
0.0
 10
9.454409189
 20
8.7205118337
 30
0.0
 10
9.450322326
 20
8.7165642235
 30
0.0
  0
SPLINE
  5
2D5
100
AcDbEntity
  8
0
100
AcDbSpline
 62
7
  6
CONTINUOUS
 70
0
 71
3
 72
22
 73
18
 74
0
 42
0.0000001
 43
0.0000001
 44
0.0000000001
 40
0.0
 40
0.0
 40
0.0
 40
0.0
 40
0.0611509426
 40
0.1226415228
 40
0.1844515816
 40
0.2465497841
 40
0.3088988027
 40
0.3714567734
 40
0.4341802748
 40
0.4970263278
 40
0.5599540156
 40
0.6229255205
 40
0.6859067792
 40
0.7488677206
 40
0.8117821605
 40
0.874627486
 40
1.0
 40
1.0
 40
1.0
 40
1.0
 10
8.6082147971
 20
7.8461610404
 30
0.0
 10
8.6029148438
 20
7.8465285935
 30
0.0
 10
8.5923111435
 20
7.8477087886
 30
0.0
 10
8.5765662942
 20
7.8507790859
 30
0.0
 10
8.5610371051
 20
7.8551183334
 30
0.0
 10
8.5458223593
 20
7.8606740791
 30
0.0
 10
8.5310085136
 20
7.8673809704
 30
0.0
 10
8.5166703503
 20
7.8751644869
 30
0.0
 10
8.5028698527
 20
7.8839444707
 30
0.0
 10
8.4896567046
 20
7.8936384094
 30
0.0
 10
8.4770692093
 20
7.9041640828
 30
0.0
 10
8.4651356641
 20
7.9154415611
 30
0.0
 10
8.4538758106
 20
7.9273946762
 30
0.0
 10
8.4433025522
 20
7.9399515669
 30
0.0
 10
8.4334227022
 20
7.9530462869
 30
0.0
 10
8.4211910822
 20
7.9711210943
 30
0.0
 10
8.4130410634
 20
7.9853357956
 30
0.0
 10
8.4080691881
 20
7.9950269822
 30
0.0
  0
SPLINE
  5
2D6
100
AcDbEntity
  8
0
100
AcDbSpline
 62
7
  6
CONTINUOUS
 70
0
 71
3
 72
41
 73
37
 74
0
 42
0.0000001
 43
0.0000001
 44
0.0000000001
 40
0.0
 40
0.0
 40
0.0
 40
0.0
 40
0.0311445023
 40
0.0624426262
 40
0.0938874266
 40
0.1254698196
 40
0.1571774021
 40
0.173076041
 40
0.1890002642
 40
0.2209118757
 40
0.2528982414
 40
0.2689155192
 40
0.2849438007
 40
0.3170178868
 40
0.3491032421
 40
0.3811777079
 40
0.4132193358
 40
0.4452068114
 40
0.4771198707
 40
0.5089397015
 40
0.540649324
 40
0.5722339448
 40
0.6036812775
 40
0.6349818227
 40
0.6661291006
 40
0.6971198291
 40
0.7279540411
 40
0.7586351339
 40
0.7891698461
 40
0.8195681577
 40
0.8498431118
 40
0.8800105574
 40
0.9100888178
 40
0.9400982893
 40
0.9700609798
 40
1.0
 40
1.0
 40
1.0
 40
1.0
 10
7.6422889712
 20
7.2469052168
 30
0.0
 10
7.647312969
 20
7.2465568014
 30
0.0
 10
7.6573639832
 20
7.2454904967
 30
0.0
 10
7.6723186066
 20
7.2428045335
 30
0.0
 10
7.6871131675
 20
7.2390421683
 30
0.0
 10
7.7016672814
 20
7.2342239645
 30
0.0
 10
7.7135220433
 20
7.2293539355
 30
0.0
 10
7.7228096297
 20
7.2249597634
 30
0.0
 10
7.7319687207
 20
7.2202311968
 30
0.0
 10
7.7431246691
 20
7.2137179217
 30
0.0
 10
7.7538190707
 20
7.206445127
 30
0.0
 10
7.7620722377
 20
7.200190019
 30
0.0
 10
7.7701177459
 20
7.1936475251
 30
0.0
 10
7.7797538179
 20
7.1849552108
 30
0.0
 10
7.7905794888
 20
7.1737607108
 30
0.0
 10
7.8006141958
 20
7.1618584141
 30
0.0
 10
7.8098040752
 20
7.1493120273
 30
0.0
 10
7.8181002091
 20
7.1361883295
 30
0.0
 10
7.8254583004
 20
7.1225572675
 30
0.0
 10
7.8318390639
 20
7.1084914676
 30
0.0
 10
7.8372083934
 20
7.0940658854
 30
0.0
 10
7.8415375543
 20
7.079357403
 30
0.0
 10
7.8448033357
 20
7.0644444273
 30
0.0
 10
7.846988177
 20
7.0494064765
 30
0.0
 10
7.8480802652
 20
7.0343237626
 30
0.0
 10
7.848073603
 20
7.0192767681
 30
0.0
 10
7.8469680484
 20
7.0043458217
 30
0.0
 10
7.844769323
 20
6.9896106723
 30
0.0
 10
7.8414889913
 20
6.975150065
 30
0.0
 10
7.837144407
 20
6.9610413183
 30
0.0
 10
7.8317586374
 20
6.9473599148
 30
0.0
 10
7.8253603234
 20
6.9341790662
 30
0.0
 10
7.8179836326
 20
6.9215694082
 30
0.0
 10
7.8096677171
 20
6.9095982611
 30
0.0
 10
7.8004578647
 20
6.8983305641
 30
0.0
 10
7.7937518713
 20
6.8913250323
 30
0.0
 10
7.7902698588
 20
6.8879616695
 30
0.0
  0
SPLINE
  5
2D7
100
AcDbEntity
  8
0
100
AcDbSpline
 62
7
  6
CONTINUOUS
 70
0
 71
3
 72
41
 73
37
 74
0
 42
0.0000001
 43
0.0000001
 44
0.0000000001
 40
0.0
 40
0.0
 40
0.0
 40
0.0
 40
0.0311445023
 40
0.0624426262
 40
0.0938874266
 40
0.1254698196
 40
0.1571774021
 40
0.173076041
 40
0.1890002642
 40
0.2209118757
 40
0.2528982414
 40
0.2689155192
 40
0.2849438007
 40
0.3170178868
 40
0.3491032421
 40
0.3811777079
 40
0.4132193358
 40
0.4452068114
 40
0.4771198707
 40
0.5089397015
 40
0.540649324
 40
0.5722339448
 40
0.6036812775
 40
0.6349818227
 40
0.6661291006
 40
0.6971198291
 40
0.7279540411
 40
0.7586351339
 40
0.7891698461
 40
0.8195681577
 40
0.8498431118
 40
0.8800105574
 40
0.9100888178
 40
0.9400982893
 40
0.9700609798
 40
1.0
 40
1.0
 40
1.0
 40
1.0
 10
7.6422889712
 20
9.6037644279
 30
0.0
 10
7.647312969
 20
9.6034160124
 30
0.0
 10
7.6573639832
 20
9.6023497078
 30
0.0
 10
7.6723186066
 20
9.5996637446
 30
0.0
 10
7.6871131675
 20
9.5959013794
 30
0.0
 10
7.7016672814
 20
9.5910831755
 30
0.0
 10
7.7135220433
 20
9.5862131466
 30
0.0
 10
7.7228096297
 20
9.5818189745
 30
0.0
 10
7.7319687207
 20
9.5770904079
 30
0.0
 10
7.7431246691
 20
9.5705771328
 30
0.0
 10
7.7538190707
 20
9.5633043381
 30
0.0
 10
7.7620722377
 20
9.5570492301
 30
0.0
 10
7.7701177459
 20
9.5505067362
 30
0.0
 10
7.7797538179
 20
9.5418144219
 30
0.0
 10
7.7905794888
 20
9.5306199218
 30
0.0
 10
7.8006141958
 20
9.5187176252
 30
0.0
 10
7.8098040752
 20
9.5061712383
 30
0.0
 10
7.8181002091
 20
9.4930475405
 30
0.0
 10
7.8254583004
 20
9.4794164785
 30
0.0
 10
7.8318390639
 20
9.4653506786
 30
0.0
 10
7.8372083934
 20
9.4509250964
 30
0.0
 10
7.8415375543
 20
9.4362166141
 30
0.0
 10
7.8448033357
 20
9.4213036383
 30
0.0
 10
7.846988177
 20
9.4062656876
 30
0.0
 10
7.8480802652
 20
9.3911829736
 30
0.0
 10
7.848073603
 20
9.3761359791
 30
0.0
 10
7.8469680484
 20
9.3612050328
 30
0.0
 10
7.844769323
 20
9.3464698833
 30
0.0
 10
7.8414889913
 20
9.332009276
 30
0.0
 10
7.837144407
 20
9.3179005294
 30
0.0
 10
7.8317586374
 20
9.3042191259
 30
0.0
 10
7.8253603234
 20
9.2910382773
 30
0.0
 10
7.8179836326
 20
9.2784286193
 30
0.0
 10
7.8096677171
 20
9.2664574722
 30
0.0
 10
7.8004578647
 20
9.2551897751
 30
0.0
 10
7.7937518713
 20
9.2481842433
 30
0.0
 10
7.7902698588
 20
9.2448208806
 30
0.0
  0
SPLINE
  5
2D8
100
AcDbEntity
  8
0
100
AcDbSpline
 62
7
  6
CONTINUOUS
 70
0
 71
3
 72
41
 73
37
 74
0
 42
0.0000001
 43
0.0000001
 44
0.0000000001
 40
0.0
 40
0.0
 40
0.0
 40
0.0
 40
0.0311445023
 40
0.0624426262
 40
0.0938874266
 40
0.1254698196
 40
0.1571774021
 40
0.173076041
 40
0.1890002642
 40
0.2209118757
 40
0.2528982414
 40
0.2689155192
 40
0.2849438007
 40
0.3170178868
 40
0.3491032421
 40
0.3811777079
 40
0.4132193358
 40
0.4452068114
 40
0.4771198707
 40
0.5089397015
 40
0.540649324
 40
0.5722339448
 40
0.6036812775
 40
0.6349818227
 40
0.6661291006
 40
0.6971198291
 40
0.7279540411
 40
0.7586351339
 40
0.7891698461
 40
0.8195681577
 40
0.8498431118
 40
0.8800105574
 40
0.9100888178
 40
0.9400982893
 40
0.9700609798
 40
1.0
 40
1.0
 40
1.0
 40
1.0
 10
10.7216607104
 20
9.4481647702
 30
0.0
 10
10.7266847082
 20
9.4478163547
 30
0.0
 10
10.7367357224
 20
9.4467500501
 30
0.0
 10
10.7516903459
 20
9.4440640869
 30
0.0
 10
10.7664849068
 20
9.4403017216
 30
0.0
 10
10.7810390206
 20
9.4354835178
 30
0.0
 10
10.7928937825
 20
9.4306134889
 30
0.0
 10
10.8021813689
 20
9.4262193167
 30
0.0
 10
10.81134046
 20
9.4214907502
 30
0.0
 10
10.8224964083
 20
9.414977475
 30
0.0
 10
10.83319081
 20
9.4077046804
 30
0.0
 10
10.8414439769
 20
9.4014495724
 30
0.0
 10
10.8494894851
 20
9.3949070785
 30
0.0
 10
10.8591255571
 20
9.3862147641
 30
0.0
 10
10.869951228
 20
9.3750202641
 30
0.0
 10
10.879985935
 20
9.3631179675
 30
0.0
 10
10.8891758144
 20
9.3505715806
 30
0.0
 10
10.8974719483
 20
9.3374478828
 30
0.0
 10
10.9048300396
 20
9.3238168208
 30
0.0
 10
10.9112108032
 20
9.3097510209
 30
0.0
 10
10.9165801326
 20
9.2953254387
 30
0.0
 10
10.9209092935
 20
9.2806169564
 30
0.0
 10
10.9241750749
 20
9.2657039806
 30
0.0
 10
10.9263599162
 20
9.2506660299
 30
0.0
 10
10.9274520044
 20
9.2355833159
 30
0.0
 10
10.9274453423
 20
9.2205363214
 30
0.0
 10
10.9263397876
 20
9.2056053751
 30
0.0
 10
10.9241410622
 20
9.1908702256
 30
0.0
 10
10.9208607305
 20
9.1764096183
 30
0.0
 10
10.9165161462
 20
9.1623008717
 30
0.0
 10
10.9111303766
 20
9.1486194682
 30
0.0
 10
10.9047320626
 20
9.1354386196
 30
0.0
 10
10.8973553718
 20
9.1228289616
 30
0.0
 10
10.8890394563
 20
9.1108578145
 30
0.0
 10
10.879829604
 20
9.0995901174
 30
0.0
 10
10.8731236105
 20
9.0925845856
 30
0.0
 10
10.869641598
 20
9.0892212229
 30
0.0
  0
SPLINE
  5
2D9
100
AcDbEntity
  8
0
100
AcDbSpline
 62
7
  6
CONTINUOUS
 70
0
 71
3
 72
41
 73
37
 74
0
 42
0.0000001
 43
0.0000001
 44
0.0000000001
 40
0.0
 40
0.0
 40
0.0
 40
0.0
 40
0.0311445023
 40
0.0624426262
 40
0.0938874266
 40
0.1254698196
 40
0.1571774021
 40
0.173076041
 40
0.1890002642
 40
0.2209118757
 40
0.2528982414
 40
0.2689155192
 40
0.2849438007
 40
0.3170178868
 40
0.3491032421
 40
0.3811777079
 40
0.4132193358
 40
0.4452068114
 40
0.4771198707
 40
0.5089397015
 40
0.540649324
 40
0.5722339448
 40
0.6036812775
 40
0.6349818227
 40
0.6661291006
 40
0.6971198291
 40
0.7279540411
 40
0.7586351339
 40
0.7891698461
 40
0.8195681577
 40
0.8498431118
 40
0.8800105574
 40
0.9100888178
 40
0.9400982893
 40
0.9700609798
 40
1.0
 40
1.0
 40
1.0
 40
1.0
 10
10.7216607104
 20
6.9753945348
 30
0.0
 10
10.7266847082
 20
6.9750461194
 30
0.0
 10
10.7367357224
 20
6.9739798148
 30
0.0
 10
10.7516903459
 20
6.9712938516
 30
0.0
 10
10.7664849068
 20
6.9675314863
 30
0.0
 10
10.7810390206
 20
6.9627132825
 30
0.0
 10
10.7928937825
 20
6.9578432535
 30
0.0
 10
10.8021813689
 20
6.9534490814
 30
0.0
 10
10.81134046
 20
6.9487205149
 30
0.0
 10
10.8224964083
 20
6.9422072397
 30
0.0
 10
10.83319081
 20
6.934934445
 30
0.0
 10
10.8414439769
 20
6.928679337
 30
0.0
 10
10.8494894851
 20
6.9221368431
 30
0.0
 10
10.8591255571
 20
6.9134445288
 30
0.0
 10
10.869951228
 20
6.9022500288
 30
0.0
 10
10.879985935
 20
6.8903477322
 30
0.0
 10
10.8891758144
 20
6.8778013453
 30
0.0
 10
10.8974719483
 20
6.8646776475
 30
0.0
 10
10.9048300396
 20
6.8510465855
 30
0.0
 10
10.9112108032
 20
6.8369807856
 30
0.0
 10
10.9165801326
 20
6.8225552034
 30
0.0
 10
10.9209092935
 20
6.807846721
 30
0.0
 10
10.9241750749
 20
6.7929337453
 30
0.0
 10
10.9263599162
 20
6.7778957945
 30
0.0
 10
10.9274520044
 20
6.7628130806
 30
0.0
 10
10.9274453423
 20
6.7477660861
 30
0.0
 10
10.9263397876
 20
6.7328351397
 30
0.0
 10
10.9241410622
 20
6.7180999903
 30
0.0
 10
10.9208607305
 20
6.703639383
 30
0.0
 10
10.9165161462
 20
6.6895306363
 30
0.0
 10
10.9111303766
 20
6.6758492328
 30
0.0
 10
10.9047320626
 20
6.6626683842
 30
0.0
 10
10.8973553718
 20
6.6500587262
 30
0.0
 10
10.8890394563
 20
6.6380875791
 30
0.0
 10
10.879829604
 20
6.6268198821
 30
0.0
 10
10.8731236105
 20
6.6198143503
 30
0.0
 10
10.869641598
 20
6.6164509875
 30
0.0
  0
SPLINE
  5
2DA
100
AcDbEntity
  8
0
100
AcDbSpline
 62
7
  6
CONTINUOUS
 70
0
 71
3
 72
42
 73
38
 74
0
 42
0.0000001
 43
0.0000001
 44
0.0000000001
 40
0.0
 40
0.0
 40
0.0
 40
0.0
 40
0.031144028
 40
0.0467773834
 40
0.0624473586
 40
0.093891729
 40
0.1254739719
 40
0.1571813013
 40
0.1889991584
 40
0.2209105411
 40
0.2528966817
 40
0.2849373338
 40
0.3170111966
 40
0.3490963275
 40
0.381170568
 40
0.4132119707
 40
0.4451992228
 40
0.4771120617
 40
0.5089316758
 40
0.5406410848
 40
0.5722254935
 40
0.6036726138
 40
0.6349729465
 40
0.6661200124
 40
0.6971105309
 40
0.727944536
 40
0.7586254253
 40
0.7891599372
 40
0.81955805
 40
0.8498328043
 40
0.8649315682
 40
0.8800056579
 40
0.9100837141
 40
0.9400929792
 40
0.9550815062
 40
0.9700611896
 40
1.0
 40
1.0
 40
1.0
 40
1.0
 10
10.1517642917
 20
6.9598592103
 30
0.0
 10
10.1554437951
 20
6.9596040359
 30
0.0
 10
10.1609589807
 20
6.9590188826
 30
0.0
 10
10.168261586
 20
6.9578430562
 30
0.0
 10
10.1755526005
 20
6.9563994454
 30
0.0
 10
10.1845932617
 20
6.9541003568
 30
0.0
 10
10.1952525724
 20
6.9505715223
 30
0.0
 10
10.2056796725
 20
6.9462880601
 30
0.0
 10
10.2158186266
 20
6.9412730244
 30
0.0
 10
10.2256155064
 20
6.9355531611
 30
0.0
 10
10.2350180867
 20
6.929159026
 30
0.0
 10
10.2439762728
 20
6.9221247282
 30
0.0
 10
10.2524423288
 20
6.9144877858
 30
0.0
 10
10.2603711424
 20
6.906288919
 30
0.0
 10
10.2677204549
 20
6.8975718302
 30
0.0
 10
10.2744510851
 20
6.8883829742
 30
0.0
 10
10.2805271357
 20
6.8787713132
 30
0.0
 10
10.2859161831
 20
6.8687880595
 30
0.0
 10
10.2905894484
 20
6.858486406
 30
0.0
 10
10.294521951
 20
6.8479212472
 30
0.0
 10
10.2976926403
 20
6.8371488897
 30
0.0
 10
10.3000845189
 20
6.8262267597
 30
0.0
 10
10.30168473
 20
6.8152130967
 30
0.0
 10
10.3024846244
 20
6.8041666459
 30
0.0
 10
10.302479812
 20
6.7931463528
 30
0.0
 10
10.3016701852
 20
6.7822110406
 30
0.0
 10
10.3000599455
 20
6.7714191422
 30
0.0
 10
10.2976575114
 20
6.7608282304
 30
0.0
 10
10.294475765
 20
6.7504953013
 30
0.0
 10
10.2911853042
 20
6.7421365566
 30
0.0
 10
10.2881825449
 20
6.7356363532
 30
0.0
 10
10.2849420387
 20
6.7292774594
 30
0.0
 10
10.280442731
 20
6.721586058
 30
0.0
 10
10.27536473
 20
6.7142760729
 30
0.0
 10
10.2709766337
 20
6.7086884601
 30
0.0
 10
10.2663791362
 20
6.703283281
 30
0.0
 10
10.262695791
 20
6.6994352019
 30
0.0
 10
10.2601456064
 20
6.696971891
 30
0.0
  0
SPLINE
  5
2DB
100
AcDbEntity
  8
0
100
AcDbSpline
 62
7
  6
CONTINUOUS
 70
0
 71
3
 72
50
 73
46
 74
0
 42
0.0000001
 43
0.0000001
 44
0.0000000001
 40
0.0
 40
0.0
 40
0.0
 40
0.0
 40
0.03794026
 40
0.076276687
 40
0.1149215832
 40
0.1537872318
 40
0.192784741
 40
0.2318250647
 40
0.2708189487
 40
0.3096773017
 40
0.3483114168
 40
0.3866332421
 40
0.4245556382
 40
0.4619926406
 40
0.4988597244
 40
0.5350740728
 40
0.5705548502
 40
0.6052234832
 40
0.6390039506
 40
0.6718230867
 40
0.7036109031
 40
0.7343009362
 40
0.763830629
 40
0.7781422172
 40
0.7921422485
 40
0.8058242434
 40
0.8191819904
 40
0.8322096955
 40
0.8449019038
 40
0.8572535946
 40
0.8692601787
 40
0.8809175248
 40
0.8922220445
 40
0.90317065
 40
0.9137609262
 40
0.9239910372
 40
0.9338599693
 40
0.9433674225
 40
0.9525140952
 40
0.9613016125
 40
0.969732819
 40
0.9778117975
 40
0.9855441507
 40
0.9929371491
 40
1.0
 40
1.0
 40
1.0
 40
1.0
 10
14.2879557979
 20
7.7652202074
 30
0.0
 10
14.2879557979
 20
7.7801918621
 30
0.0
 10
14.2881559926
 20
7.8102918542
 30
0.0
 10
14.2890432531
 20
7.8556336985
 30
0.0
 10
14.2905171746
 20
7.9013256792
 30
0.0
 10
14.2925741523
 20
7.9472562167
 30
0.0
 10
14.2952092151
 20
7.9933135078
 30
0.0
 10
14.2984159335
 20
8.0393852512
 30
0.0
 10
14.3021864996
 20
8.0853591871
 30
0.0
 10
14.3065117131
 20
8.1311232676
 30
0.0
 10
14.3113810189
 20
8.1765659679
 30
0.0
 10
14.3167825265
 20
8.2215765474
 30
0.0
 10
14.3227030406
 20
8.2660453247
 30
0.0
 10
14.3291280927
 20
8.3098639458
 30
0.0
 10
14.3360419759
 20
8.35292565
 30
0.0
 10
14.3434277825
 20
8.395125533
 30
0.0
 10
14.3512674446
 20
8.4363608061
 30
0.0
 10
14.3595417768
 20
8.4765310491
 30
0.0
 10
14.368230523
 20
8.5155384658
 30
0.0
 10
14.3773124061
 20
8.5532881078
 30
0.0
 10
14.3867651761
 20
8.5896881853
 30
0.0
 10
14.396565675
 20
8.6246500476
 30
0.0
 10
14.4050889049
 20
8.6528014997
 30
0.0
 10
14.4120735576
 20
8.6745318377
 30
0.0
 10
14.4173293128
 20
8.6902478729
 30
0.0
 10
14.4226536814
 20
8.7055428047
 30
0.0
 10
14.4280434956
 20
8.7204073333
 30
0.0
 10
14.433495414
 20
8.7348324206
 30
0.0
 10
14.4390061418
 20
8.7488092934
 30
0.0
 10
14.4445723047
 20
8.7623294587
 30
0.0
 10
14.4501905017
 20
8.7753847077
 30
0.0
 10
14.4558573354
 20
8.7879671092
 30
0.0
 10
14.4615693083
 20
8.800069045
 30
0.0
 10
14.4673230095
 20
8.8116831643
 30
0.0
 10
14.473114862
 20
8.8228024629
 30
0.0
 10
14.4789414458
 20
8.83342019
 30
0.0
 10
14.4847991327
 20
8.8435299753
 30
0.0
 10
14.4906844922
 20
8.8531256902
 30
0.0
 10
14.4965938862
 20
8.8622016108
 30
0.0
 10
14.5025238721
 20
8.8707522535
 30
0.0
 10
14.5084708558
 20
8.8787725472
 30
0.0
 10
14.5144313772
 20
8.8862576602
 30
0.0
 10
14.5204019934
 20
8.89320321
 30
0.0
 10
14.5263790688
 20
8.8996048536
 30
0.0
 10
14.5304573544
 20
8.9035969818
 30
0.0
 10
14.5324975517
 20
8.9054957744
 30
0.0
  0
SPLINE
  5
2DC
100
AcDbEntity
  8
0
100
AcDbSpline
 62
7
  6
CONTINUOUS
 70
0
 71
3
 72
14
 73
10
 74
0
 42
0.0000001
 43
0.0000001
 44
0.0000000001
 40
0.0
 40
0.0
 40
0.0
 40
0.0
 40
0.2546678917
 40
0.3807345112
 40
0.5059499511
 40
0.6303694443
 40
0.7540889663
 40
0.8772428126
 40
1.0
 40
1.0
 40
1.0
 40
1.0
 10
9.4115374578
 20
8.7852015223
 30
0.0
 10
9.4193704838
 20
8.7846583001
 30
0.0
 10
9.431127904
 20
8.7843748616
 30
0.0
 10
9.446714374
 20
8.7851008295
 30
0.0
 10
9.4582511426
 20
8.7861933436
 30
0.0
 10
9.4696488018
 20
8.7878380891
 30
0.0
 10
9.4808881413
 20
8.790037585
 30
0.0
 10
9.4919509385
 20
8.7927943103
 30
0.0
 10
9.499206665
 20
8.7950081757
 30
0.0
 10
9.5027962933
 20
8.7962079093
 30
0.0
  0
SPLINE
  5
2DD
100
AcDbEntity
  8
0
100
AcDbSpline
 62
7
  6
CONTINUOUS
 70
0
 71
3
 72
31
 73
27
 74
0
 42
0.0000001
 43
0.0000001
 44
0.0000000001
 40
0.0
 40
0.0
 40
0.0
 40
0.0
 40
0.0542567555
 40
0.111624085
 40
0.1412847945
 40
0.1714812422
 40
0.2021334217
 40
0.2331650873
 40
0.2645054876
 40
0.2960909816
 40
0.3278661484
 40
0.3597841845
 40
0.3918067558
 40
0.4239037474
 40
0.4560521095
 40
0.4882344147
 40
0.5204379219
 40
0.5526535866
 40
0.6170759862
 40
0.6814707989
 40
0.7457784025
 40
0.8099124794
 40
0.873754621
 40
0.9055279241
 40
0.9371735785
 40
1.0
 40
1.0
 40
1.0
 40
1.0
 10
9.1936256551
 20
8.9985188207
 30
0.0
 10
9.1933339887
 20
8.9924180852
 30
0.0
 10
9.1933758903
 20
8.9798281147
 30
0.0
 10
9.1950714727
 20
8.963982965
 30
0.0
 10
9.1975210077
 20
8.9510106514
 30
0.0
 10
9.1999597541
 20
8.9411125744
 30
0.0
 10
9.202991246
 20
8.9312182004
 30
0.0
 10
9.2066188656
 20
8.9213888943
 30
0.0
 10
9.210837722
 20
8.9116837409
 30
0.0
 10
9.2156353595
 20
8.9021574507
 30
0.0
 10
9.2209927894
 20
8.8928592956
 30
0.0
 10
9.2268857706
 20
8.883832303
 30
0.0
 10
9.2332861658
 20
8.8751129109
 30
0.0
 10
9.2401631619
 20
8.8667309619
 30
0.0
 10
9.2474846509
 20
8.8587102476
 30
0.0
 10
9.2552180754
 20
8.85106927
 30
0.0
 10
9.2633313998
 20
8.8438215892
 30
0.0
 10
9.2746114781
 20
8.8346970821
 30
0.0
 10
9.2895072553
 20
8.8243161207
 30
0.0
 10
9.3084164695
 20
8.8135336645
 30
0.0
 10
9.3281524051
 20
8.8044315433
 30
0.0
 10
9.348512241
 20
8.7970142951
 30
0.0
 10
9.3658691459
 20
8.7922317223
 30
0.0
 10
9.3798860036
 20
8.7892560941
 30
0.0
 10
9.3938964839
 20
8.7868587858
 30
0.0
 10
9.4044820097
 20
8.7856908193
 30
0.0
 10
9.4115374578
 20
8.7852015223
 30
0.0
  0
SPLINE
  5
2DE
100
AcDbEntity
  8
0
100
AcDbSpline
 62
7
  6
CONTINUOUS
 70
0
 71
3
 72
49
 73
45
 74
0
 42
0.0000001
 43
0.0000001
 44
0.0000000001
 40
0.0
 40
0.0
 40
0.0
 40
0.0
 40
0.0378126678
 40
0.0760191833
 40
0.1145315913
 40
0.1532645855
 40
0.1921302441
 40
0.2310409693
 40
0.2699088596
 40
0.3086461551
 40
0.347165484
 40
0.3853800912
 40
0.4232041003
 40
0.4605527681
 40
0.4973427527
 40
0.5334923658
 40
0.5689218342
 40
0.6035535685
 40
0.6373124477
 40
0.670126132
 40
0.7019253617
 40
0.732644284
 40
0.7622208174
 40
0.7905970638
 40
0.8043185081
 40
0.8177203466
 40
0.830796754
 40
0.8435422278
 40
0.8559517607
 40
0.8680206388
 40
0.8797447099
 40
0.8911202558
 40
0.9021440611
 40
0.9128135739
 40
0.9231267422
 40
0.9330823447
 40
0.9426798516
 40
0.9519195606
 40
0.9608027573
 40
0.9693317075
 40
0.9775101973
 40
0.9853433366
 40
0.9928373965
 40
1.0
 40
1.0
 40
1.0
 40
1.0
 10
14.896697699
 20
7.690594575
 30
0.0
 10
14.896697699
 20
7.6796559834
 30
0.0
 10
14.8965523023
 20
7.6576646133
 30
0.0
 10
14.8959079088
 20
7.6245379025
 30
0.0
 10
14.8948373602
 20
7.591155812
 30
0.0
 10
14.8933433142
 20
7.5575991548
 30
0.0
 10
14.8914292908
 20
7.5239484218
 30
0.0
 10
14.8890999168
 20
7.4902847747
 30
0.0
 10
14.8863607943
 20
7.4566892414
 30
0.0
 10
14.8832185314
 20
7.4232427275
 30
0.0
 10
14.8796807073
 20
7.390025771
 30
0.0
 10
14.875755856
 20
7.357118354
 30
0.0
 10
14.8714534462
 20
7.3245997139
 30
0.0
 10
14.8667838637
 20
7.2925481451
 30
0.0
 10
14.8617583944
 20
7.2610408069
 30
0.0
 10
14.8563891826
 20
7.2301535391
 30
0.0
 10
14.8506892053
 20
7.1999606808
 30
0.0
 10
14.8446722417
 20
7.1705348905
 30
0.0
 10
14.838352838
 20
7.141946964
 30
0.0
 10
14.8317462907
 20
7.1142656486
 30
0.0
 10
14.8248685917
 20
7.0875574922
 30
0.0
 10
14.8177363949
 20
7.061886623
 30
0.0
 10
14.8103669631
 20
7.0373148017
 30
0.0
 10
14.8039735716
 20
7.0175887814
 30
0.0
 10
14.7987454654
 20
7.0024083669
 30
0.0
 10
14.7948201153
 20
6.9914614141
 30
0.0
 10
14.7908490193
 20
6.9808318426
 30
0.0
 10
14.7868344972
 20
6.970526042
 30
0.0
 10
14.7827790517
 20
6.960550187
 30
0.0
 10
14.7786850483
 20
6.9509102824
 30
0.0
 10
14.7745550035
 20
6.9416120989
 30
0.0
 10
14.7703913977
 20
6.9326612094
 30
0.0
 10
14.7661966909
 20
6.9240629907
 30
0.0
 10
14.7619734856
 20
6.9158225611
 30
0.0
 10
14.757724224
 20
6.9079448741
 30
0.0
 10
14.7534515146
 20
6.9004346001
 30
0.0
 10
14.7491578785
 20
6.8932962184
 30
0.0
 10
14.7448458476
 20
6.8865340003
 30
0.0
 10
14.7405180811
 20
6.8801519295
 30
0.0
 10
14.7361770109
 20
6.87415381
 30
0.0
 10
14.7318251947
 20
6.8685430863
 30
0.0
 10
14.7274650208
 20
6.8633230467
 30
0.0
 10
14.7230992984
 20
6.8584970702
 30
0.0
 10
14.7201206564
 20
6.8554772312
 30
0.0
 10
14.718630343
 20
6.8540376989
 30
0.0
  0
SPLINE
  5
2DF
100
AcDbEntity
  8
0
100
AcDbSpline
 62
7
  6
CONTINUOUS
 70
0
 71
3
 72
33
 73
29
 74
0
 42
0.0000001
 43
0.0000001
 44
0.0000000001
 40
0.0
 40
0.0
 40
0.0
 40
0.0
 40
0.0166489154
 40
0.0332515378
 40
0.0500241572
 40
0.0671741089
 40
0.0848891685
 40
0.1033334278
 40
0.1226487792
 40
0.1429502013
 40
0.1643318962
 40
0.18686885
 40
0.2106168309
 40
0.235619599
 40
0.2619072044
 40
0.2894993109
 40
0.3184087717
 40
0.3486389851
 40
0.3801888992
 40
0.4130523528
 40
0.4472175846
 40
0.4826711711
 40
0.5573615166
 40
0.6369603118
 40
0.7212644782
 40
0.8100413832
 40
0.9030469735
 40
1.0
 40
1.0
 40
1.0
 40
1.0
 10
9.2315660691
 20
9.0776100902
 30
0.0
 10
9.2310465059
 20
9.0776461984
 30
0.0
 10
9.2300038837
 20
9.0776614114
 30
0.0
 10
9.2284433981
 20
9.077507909
 30
0.0
 10
9.2268942546
 20
9.0771786185
 30
0.0
 10
9.2253565373
 20
9.0766744183
 30
0.0
 10
9.2238299977
 20
9.0759965738
 30
0.0
 10
9.222314517
 20
9.0751463802
 30
0.0
 10
9.2208100956
 20
9.0741252067
 30
0.0
 10
9.2193170041
 20
9.0729343
 30
0.0
 10
9.2178358432
 20
9.0715749498
 30
0.0
 10
9.2163675197
 20
9.0700485367
 30
0.0
 10
9.2149134681
 20
9.068356338
 30
0.0
 10
9.2134753394
 20
9.0664999368
 30
0.0
 10
9.2120552627
 20
9.064480901
 30
0.0
 10
9.2106557812
 20
9.0623009098
 30
0.0
 10
9.2092795728
 20
9.0599619407
 30
0.0
 10
9.2079299342
 20
9.0574659046
 30
0.0
 10
9.2066102975
 20
9.0548150069
 30
0.0
 10
9.2053243958
 20
9.0520115995
 30
0.0
 10
9.204076442
 20
9.0490580627
 30
0.0
 10
9.2024403007
 20
9.0448501043
 30
0.0
 10
9.2005251621
 20
9.039228578
 30
0.0
 10
9.1984922327
 20
9.0320436919
 30
0.0
 10
9.1967300296
 20
9.0243347418
 30
0.0
 10
9.1952848597
 20
9.0161337567
 30
0.0
 10
9.194205294
 20
9.0074777981
 30
0.0
 10
9.1937704884
 20
9.0015482746
 30
0.0
 10
9.1936256551
 20
8.9985188207
 30
0.0
  0
SPLINE
  5
2E0
100
AcDbEntity
  8
0
100
AcDbSpline
 62
7
  6
CONTINUOUS
 70
0
 71
3
 72
23
 73
19
 74
0
 42
0.0000001
 43
0.0000001
 44
0.0000000001
 40
0.0
 40
0.0
 40
0.0
 40
0.0
 40
0.0616482124
 40
0.1233194439
 40
0.1850364753
 40
0.2468215683
 40
0.3086962113
 40
0.3706809222
 40
0.4327950085
 40
0.4950563306
 40
0.5574811863
 40
0.6200840811
 40
0.6828775412
 40
0.7458724798
 40
0.8090768825
 40
0.8724962987
 40
0.9361399042
 40
1.0
 40
1.0
 40
1.0
 40
1.0
 10
9.1029487518
 20
9.0761912524
 30
0.0
 10
9.1057542686
 20
9.078901176
 30
0.0
 10
9.1115133494
 20
9.0841721915
 30
0.0
 10
9.1205661573
 20
9.0916045333
 30
0.0
 10
9.1300120555
 20
9.0985456362
 30
0.0
 10
9.1398269657
 20
9.1049776444
 30
0.0
 10
9.149986207
 20
9.1108844842
 30
0.0
 10
9.1604641371
 20
9.116251304
 30
0.0
 10
9.1712343908
 20
9.1210645456
 30
0.0
 10
9.1822698177
 20
9.1253121187
 30
0.0
 10
9.1935425964
 20
9.1289834043
 30
0.0
 10
9.2050243456
 20
9.1320691315
 30
0.0
 10
9.2166861576
 20
9.1345615567
 30
0.0
 10
9.2284986505
 20
9.1364544696
 30
0.0
 10
9.2404320009
 20
9.1377431277
 30
0.0
 10
9.2524565219
 20
9.138424343
 30
0.0
 10
9.2645412305
 20
9.1384962969
 30
0.0
 10
9.2726046796
 20
9.1381387499
 30
0.0
 10
9.2766355389
 20
9.1378592088
 30
0.0
  0
SPLINE
  5
2E1
100
AcDbEntity
  8
0
100
AcDbSpline
 62
7
  6
CONTINUOUS
 70
0
 71
3
 72
45
 73
41
 74
0
 42
0.0000001
 43
0.0000001
 44
0.0000000001
 40
0.0
 40
0.0
 40
0.0
 40
0.0
 40
0.0324528591
 40
0.0648235361
 40
0.0971052695
 40
0.1292926847
 40
0.1933491588
 40
0.2252324042
 40
0.2570098845
 40
0.3202249846
 40
0.3516811139
 40
0.3830306432
 40
0.4142748836
 40
0.445415797
 40
0.4764561301
 40
0.5073996246
 40
0.5382512211
 40
0.5690172484
 40
0.5997056736
 40
0.6303265075
 40
0.660892187
 40
0.691417964
 40
0.7219222758
 40
0.752427032
 40
0.7676905967
 40
0.7829643804
 40
0.7982518705
 40
0.8135571561
 40
0.8288840749
 40
0.8442368337
 40
0.8596195164
 40
0.8750361542
 40
0.8904908144
 40
0.9059870783
 40
0.9215284977
 40
0.9371181618
 40
0.9527583111
 40
0.9684510543
 40
0.9841990573
 40
1.0
 40
1.0
 40
1.0
 40
1.0
 10
8.8083604059
 20
8.3101838692
 30
0.0
 10
8.8113405024
 20
8.3043750608
 30
0.0
 10
8.8169701679
 20
8.2926033514
 30
0.0
 10
8.8244357858
 20
8.2745418796
 30
0.0
 10
8.8309238841
 20
8.2561624481
 30
0.0
 10
8.8382703797
 20
8.2313633215
 30
0.0
 10
8.8437206039
 20
8.206118584
 30
0.0
 10
8.8472791701
 20
8.180664681
 30
0.0
 10
8.8495766698
 20
8.1552361153
 30
0.0
 10
8.8500139451
 20
8.12975329
 30
0.0
 10
8.8485740625
 20
8.1044342888
 30
0.0
 10
8.8465591059
 20
8.0856130743
 30
0.0
 10
8.843603492
 20
8.0669810388
 30
0.0
 10
8.8397014834
 20
8.0485870412
 30
0.0
 10
8.8348458177
 20
8.0304837066
 30
0.0
 10
8.8290279298
 20
8.0127269397
 30
0.0
 10
8.8222382869
 20
7.9953771093
 30
0.0
 10
8.8144668579
 20
7.9784998822
 30
0.0
 10
8.8057038055
 20
7.9621672014
 30
0.0
 10
8.7959404233
 20
7.9464582018
 30
0.0
 10
8.7851704562
 20
7.9314601829
 30
0.0
 10
8.7733914678
 20
7.9172691935
 30
0.0
 10
8.7606081203
 20
7.9039913612
 30
0.0
 10
8.7491285597
 20
7.8937832706
 30
0.0
 10
8.7394681971
 20
7.8861971727
 30
0.0
 10
8.7319839634
 20
7.8808097826
 30
0.0
 10
8.7242690566
 20
7.8757429549
 30
0.0
 10
8.7163302712
 20
7.8710133783
 30
0.0
 10
8.7081760123
 20
7.8666377126
 30
0.0
 10
8.6998160566
 20
7.8626326478
 30
0.0
 10
8.6912617475
 20
7.859014565
 30
0.0
 10
8.6825261208
 20
7.8557991153
 30
0.0
 10
8.6736237635
 20
7.853001551
 30
0.0
 10
8.6645710615
 20
7.850635563
 30
0.0
 10
8.6553859042
 20
7.8487138858
 30
0.0
 10
8.6460877739
 20
7.8472475539
 30
0.0
 10
8.6366975871
 20
7.8462453771
 30
0.0
 10
8.6272370047
 20
7.8457145379
 30
0.0
 10
8.6177295966
 20
7.8456596567
 30
0.0
 10
8.6113859074
 20
7.8459411232
 30
0.0
 10
8.6082147971
 20
7.8461610404
 30
0.0
  0
SPLINE
  5
2E2
100
AcDbEntity
  8
0
100
AcDbSpline
 62
7
  6
CONTINUOUS
 70
0
 71
3
 72
23
 73
19
 74
0
 42
0.0000001
 43
0.0000001
 44
0.0000000001
 40
0.0
 40
0.0
 40
0.0
 40
0.0
 40
0.061648204
 40
0.1233194452
 40
0.1850364756
 40
0.2468215591
 40
0.308696212
 40
0.3706809269
 40
0.4327950009
 40
0.4950563329
 40
0.557481203
 40
0.6200840606
 40
0.6828775398
 40
0.7458725787
 40
0.8090767404
 40
0.8724961897
 40
0.9361405028
 40
1.0
 40
1.0
 40
1.0
 40
1.0
 10
7.4943080835
 20
7.1943643377
 30
0.0
 10
7.4966983806
 20
7.1966731853
 30
0.0
 10
7.5016050977
 20
7.2011640911
 30
0.0
 10
7.5093180796
 20
7.2074964286
 30
0.0
 10
7.5173660079
 20
7.2134101807
 30
0.0
 10
7.5257282763
 20
7.218890265
 30
0.0
 10
7.5343839371
 20
7.2239228765
 30
0.0
 10
7.5433111404
 20
7.2284953465
 30
0.0
 10
7.5524873656
 20
7.2325962443
 30
0.0
 10
7.5618895336
 20
7.2362151643
 30
0.0
 10
7.5714939335
 20
7.2393430507
 30
0.0
 10
7.5812763564
 20
7.2419721076
 30
0.0
 10
7.5912122059
 20
7.2440956456
 30
0.0
 10
7.6012764274
 20
7.2457083687
 30
0.0
 10
7.6114436115
 20
7.2468063298
 30
0.0
 10
7.6216885102
 20
7.2473867177
 30
0.0
 10
7.6319846678
 20
7.2474479987
 30
0.0
 10
7.6388547184
 20
7.247143383
 30
0.0
 10
7.6422889712
 20
7.2469052168
 30
0.0
  0
SPLINE
  5
2E3
100
AcDbEntity
  8
0
100
AcDbSpline
 62
7
  6
CONTINUOUS
 70
0
 71
3
 72
23
 73
19
 74
0
 42
0.0000001
 43
0.0000001
 44
0.0000000001
 40
0.0
 40
0.0
 40
0.0
 40
0.0
 40
0.061648204
 40
0.1233194452
 40
0.1850364756
 40
0.2468215591
 40
0.308696212
 40
0.3706809269
 40
0.4327950009
 40
0.4950563329
 40
0.557481203
 40
0.6200840606
 40
0.6828775398
 40
0.7458725787
 40
0.8090767404
 40
0.8724961897
 40
0.9361405028
 40
1.0
 40
1.0
 40
1.0
 40
1.0
 10
7.4943080835
 20
9.5512235488
 30
0.0
 10
7.4966983806
 20
9.5535323964
 30
0.0
 10
7.5016050977
 20
9.5580233022
 30
0.0
 10
7.5093180796
 20
9.5643556396
 30
0.0
 10
7.5173660079
 20
9.5702693917
 30
0.0
 10
7.5257282763
 20
9.5757494761
 30
0.0
 10
7.5343839371
 20
9.5807820876
 30
0.0
 10
7.5433111404
 20
9.5853545576
 30
0.0
 10
7.5524873656
 20
9.5894554554
 30
0.0
 10
7.5618895336
 20
9.5930743754
 30
0.0
 10
7.5714939335
 20
9.5962022618
 30
0.0
 10
7.5812763564
 20
9.5988313186
 30
0.0
 10
7.5912122059
 20
9.6009548567
 30
0.0
 10
7.6012764274
 20
9.6025675798
 30
0.0
 10
7.6114436115
 20
9.6036655409
 30
0.0
 10
7.6216885102
 20
9.6042459287
 30
0.0
 10
7.6319846678
 20
9.6043072098
 30
0.0
 10
7.6388547184
 20
9.6040025941
 30
0.0
 10
7.6422889712
 20
9.6037644279
 30
0.0
  0
SPLINE
  5
2E4
100
AcDbEntity
  8
0
100
AcDbSpline
 62
7
  6
CONTINUOUS
 70
0
 71
3
 72
23
 73
19
 74
0
 42
0.0000001
 43
0.0000001
 44
0.0000000001
 40
0.0
 40
0.0
 40
0.0
 40
0.0
 40
0.061648204
 40
0.1233194452
 40
0.1850364756
 40
0.2468215591
 40
0.308696212
 40
0.3706809269
 40
0.4327950009
 40
0.4950563329
 40
0.557481203
 40
0.6200840606
 40
0.6828775398
 40
0.7458725787
 40
0.8090767404
 40
0.8724961897
 40
0.9361405028
 40
1.0
 40
1.0
 40
1.0
 40
1.0
 10
10.5736798227
 20
9.3956238911
 30
0.0
 10
10.5760701198
 20
9.3979327387
 30
0.0
 10
10.5809768369
 20
9.4024236445
 30
0.0
 10
10.5886898188
 20
9.4087559819
 30
0.0
 10
10.5967377471
 20
9.414669734
 30
0.0
 10
10.6051000155
 20
9.4201498184
 30
0.0
 10
10.6137556763
 20
9.4251824299
 30
0.0
 10
10.6226828796
 20
9.4297548999
 30
0.0
 10
10.6318591048
 20
9.4338557977
 30
0.0
 10
10.6412612728
 20
9.4374747177
 30
0.0
 10
10.6508656728
 20
9.4406026041
 30
0.0
 10
10.6606480957
 20
9.4432316609
 30
0.0
 10
10.6705839452
 20
9.445355199
 30
0.0
 10
10.6806481666
 20
9.4469679221
 30
0.0
 10
10.6908153508
 20
9.4480658831
 30
0.0
 10
10.7010602494
 20
9.448646271
 30
0.0
 10
10.711356407
 20
9.4487075521
 30
0.0
 10
10.7182264576
 20
9.4484029364
 30
0.0
 10
10.7216607104
 20
9.4481647702
 30
0.0
  0
SPLINE
  5
2E5
100
AcDbEntity
  8
0
100
AcDbSpline
 62
7
  6
CONTINUOUS
 70
0
 71
3
 72
23
 73
19
 74
0
 42
0.0000001
 43
0.0000001
 44
0.0000000001
 40
0.0
 40
0.0
 40
0.0
 40
0.0
 40
0.061648204
 40
0.1233194452
 40
0.1850364756
 40
0.2468215591
 40
0.308696212
 40
0.3706809269
 40
0.4327950009
 40
0.4950563329
 40
0.557481203
 40
0.6200840606
 40
0.6828775398
 40
0.7458725787
 40
0.8090767404
 40
0.8724961897
 40
0.9361405028
 40
1.0
 40
1.0
 40
1.0
 40
1.0
 10
10.5736798227
 20
6.9228536557
 30
0.0
 10
10.5760701198
 20
6.9251625034
 30
0.0
 10
10.5809768369
 20
6.9296534091
 30
0.0
 10
10.5886898188
 20
6.9359857466
 30
0.0
 10
10.5967377471
 20
6.9418994987
 30
0.0
 10
10.6051000155
 20
6.9473795831
 30
0.0
 10
10.6137556763
 20
6.9524121946
 30
0.0
 10
10.6226828796
 20
6.9569846646
 30
0.0
 10
10.6318591048
 20
6.9610855623
 30
0.0
 10
10.6412612728
 20
6.9647044823
 30
0.0
 10
10.6508656728
 20
6.9678323687
 30
0.0
 10
10.6606480957
 20
6.9704614256
 30
0.0
 10
10.6705839452
 20
6.9725849636
 30
0.0
 10
10.6806481666
 20
6.9741976867
 30
0.0
 10
10.6908153508
 20
6.9752956478
 30
0.0
 10
10.7010602494
 20
6.9758760357
 30
0.0
 10
10.711356407
 20
6.9759373168
 30
0.0
 10
10.7182264576
 20
6.9756327011
 30
0.0
 10
10.7216607104
 20
6.9753945348
 30
0.0
  0
SPLINE
  5
2E6
100
AcDbEntity
  8
0
100
AcDbSpline
 62
7
  6
CONTINUOUS
 70
0
 71
3
 72
23
 73
19
 74
0
 42
0.0000001
 43
0.0000001
 44
0.0000000001
 40
0.0
 40
0.0
 40
0.0
 40
0.0
 40
0.061648222
 40
0.1233194599
 40
0.1850364872
 40
0.2468215826
 40
0.3086962191
 40
0.3706809311
 40
0.4327950059
 40
0.4950563306
 40
0.5574812037
 40
0.620083994
 40
0.682877569
 40
0.7458727056
 40
0.8090763209
 40
0.8724960975
 40
0.9361416631
 40
1.0
 40
1.0
 40
1.0
 40
1.0
 10
10.0433829771
 20
6.921377654
 30
0.0
 10
10.0451336289
 20
6.9230686686
 30
0.0
 10
10.0487272711
 20
6.9263578747
 30
0.0
 10
10.0543762706
 20
6.9309957039
 30
0.0
 10
10.0602705206
 20
6.9353270494
 30
0.0
 10
10.0663950626
 20
6.9393406851
 30
0.0
 10
10.0727344629
 20
6.9430266247
 30
0.0
 10
10.0792727261
 20
6.9463755977
 30
0.0
 10
10.0859934261
 20
6.9493790826
 30
0.0
 10
10.0928795666
 20
6.9520296646
 30
0.0
 10
10.0999138425
 20
6.9543205648
 30
0.0
 10
10.1070785149
 20
6.9562460873
 30
0.0
 10
10.1143555458
 20
6.9578014432
 30
0.0
 10
10.121726597
 20
6.9589825809
 30
0.0
 10
10.1291730578
 20
6.9597867699
 30
0.0
 10
10.136676488
 20
6.9602118661
 30
0.0
 10
10.1442174357
 20
6.960256719
 30
0.0
 10
10.1492490822
 20
6.9600336407
 30
0.0
 10
10.1517642917
 20
6.9598592103
 30
0.0
  0
SPLINE
  5
2E7
100
AcDbEntity
  8
0
100
AcDbSpline
 62
7
  6
CONTINUOUS
 70
0
 71
3
 72
41
 73
37
 74
0
 42
0.0000001
 43
0.0000001
 44
0.0000000001
 40
0.0
 40
0.0
 40
0.0
 40
0.0
 40
0.0079857009
 40
0.0162160954
 40
0.0246962756
 40
0.0334305851
 40
0.042422793
 40
0.0516761225
 40
0.0611931896
 40
0.0709761621
 40
0.0913455143
 40
0.1127943922
 40
0.1353264753
 40
0.1589406095
 40
0.183631528
 40
0.20939045
 40
0.2362052853
 40
0.2640612238
 40
0.2929408601
 40
0.3228244455
 40
0.3536902276
 40
0.3855143998
 40
0.418271458
 40
0.4519342377
 40
0.4864739802
 40
0.5218606008
 40
0.5580625853
 40
0.5950472217
 40
0.6327806522
 40
0.6712278697
 40
0.710352927
 40
0.7501188358
 40
0.790487845
 40
0.8314214108
 40
0.9148220797
 40
1.0
 40
1.0
 40
1.0
 40
1.0
 10
14.4073760721
 20
7.1013046935
 30
0.0
 10
14.4062288385
 20
7.1027152767
 30
0.0
 10
14.4039462444
 20
7.1056182045
 30
0.0
 10
14.4006067767
 20
7.1101430228
 30
0.0
 10
14.3973015698
 20
7.1149019791
 30
0.0
 10
14.394031476
 20
7.1198937388
 30
0.0
 10
14.3907973265
 20
7.1251170306
 30
0.0
 10
14.3875999976
 20
7.1305705077
 30
0.0
 10
14.3844402481
 20
7.1362527351
 30
0.0
 10
14.3802216733
 20
7.1442397404
 30
0.0
 10
14.3750575907
 20
7.1547963409
 30
0.0
 10
14.3691045442
 20
7.1681870202
 30
0.0
 10
14.3633208802
 20
7.1824519888
 30
0.0
 10
14.357712613
 20
7.1975762994
 30
0.0
 10
14.3522855678
 20
7.2135443239
 30
0.0
 10
14.3470455073
 20
7.2303394401
 30
0.0
 10
14.341997885
 20
7.2479441147
 30
0.0
 10
14.3371480777
 20
7.2663399447
 30
0.0
 10
14.3325012122
 20
7.285507661
 30
0.0
 10
14.3280621748
 20
7.3054271587
 30
0.0
 10
14.3238357273
 20
7.3260775312
 30
0.0
 10
14.3198262983
 20
7.3474370785
 30
0.0
 10
14.3160381632
 20
7.3694833466
 30
0.0
 10
14.3124753531
 20
7.3921931474
 30
0.0
 10
14.3091416053
 20
7.4155425848
 30
0.0
 10
14.3060405064
 20
7.4395070825
 30
0.0
 10
14.3031753094
 20
7.4640614101
 30
0.0
 10
14.3005490593
 20
7.4891797099
 30
0.0
 10
14.2981645673
 20
7.5148355281
 30
0.0
 10
14.2960243199
 20
7.5410018413
 30
0.0
 10
14.2941306289
 20
7.5676510767
 30
0.0
 10
14.2924854837
 20
7.5947551598
 30
0.0
 10
14.2910906061
 20
7.622285575
 30
0.0
 10
14.2895570689
 20
7.6597548839
 30
0.0
 10
14.2882862862
 20
7.7074432352
 30
0.0
 10
14.2879557979
 20
7.7458266192
 30
0.0
 10
14.2879557979
 20
7.7652202074
 30
0.0
  0
SPLINE
  5
2E8
100
AcDbEntity
  8
0
100
AcDbSpline
 62
7
  6
CONTINUOUS
 70
0
 71
3
 72
11
 73
7
 74
0
 42
0.0000001
 43
0.0000001
 44
0.0000000001
 40
0.0
 40
0.0
 40
0.0
 40
0.0
 40
0.2443478307
 40
0.4909970662
 40
0.7421798739
 40
1.0
 40
1.0
 40
1.0
 40
1.0
 10
14.3981982702
 20
7.1453071333
 30
0.0
 10
14.3963957942
 20
7.1454321398
 30
0.0
 10
14.3927839796
 20
7.1458666219
 30
0.0
 10
14.3874196736
 20
7.1470651185
 30
0.0
 10
14.3821027097
 20
7.1488095582
 30
0.0
 10
14.3786453752
 20
7.1503121479
 30
0.0
 10
14.3769312605
 20
7.1511465741
 30
0.0
  0
SPLINE
  5
2E9
100
AcDbEntity
  8
0
100
AcDbSpline
 62
7
  6
CONTINUOUS
 70
0
 71
3
 72
11
 73
7
 74
0
 42
0.0000001
 43
0.0000001
 44
0.0000000001
 40
0.0
 40
0.0
 40
0.0
 40
0.0
 40
0.2442810537
 40
0.4908912445
 40
0.7420884354
 40
1.0
 40
1.0
 40
1.0
 40
1.0
 10
14.5173332296
 20
8.8631810309
 30
0.0
 10
14.5155195978
 20
8.8633068111
 30
0.0
 10
14.5118595481
 20
8.863374327
 30
0.0
 10
14.5063467425
 20
8.8629198122
 30
0.0
 10
14.5008051846
 20
8.8619112933
 30
0.0
 10
14.4971512637
 20
8.8608863293
 30
0.0
 10
14.4953272938
 20
8.8602885483
 30
0.0
  0
SPLINE
  5
2EA
100
AcDbEntity
  8
0
100
AcDbSpline
 62
7
  6
CONTINUOUS
 70
0
 71
3
 72
35
 73
31
 74
0
 42
0.0000001
 43
0.0000001
 44
0.0000000001
 40
0.0
 40
0.0
 40
0.0
 40
0.0
 40
0.0162144409
 40
0.0334275327
 40
0.0516719875
 40
0.0709711135
 40
0.091340711
 40
0.1127898042
 40
0.1353221518
 40
0.1589364893
 40
0.1836276936
 40
0.2093868207
 40
0.236201926
 40
0.264058106
 40
0.2929379774
 40
0.3228218401
 40
0.3536878396
 40
0.3855122911
 40
0.4182695809
 40
0.4519326284
 40
0.4864726132
 40
0.521859505
 40
0.5580617218
 40
0.5950466408
 40
0.6327803091
 40
0.6712278106
 40
0.7501182067
 40
0.831420351
 40
0.9148216555
 40
1.0
 40
1.0
 40
1.0
 40
1.0
 10
14.8089192664
 20
9.868970429
 30
0.0
 10
14.8106314374
 20
9.86686521
 30
0.0
 10
14.8140170702
 20
9.8624064938
 30
0.0
 10
14.8188454463
 20
9.8552277307
 30
0.0
 10
14.8235676146
 20
9.8473700622
 30
0.0
 10
14.8281788521
 20
9.8388418696
 30
0.0
 10
14.8326745629
 20
9.8296516275
 30
0.0
 10
14.8370503188
 20
9.8198087958
 30
0.0
 10
14.8413015
 20
9.8093234345
 30
0.0
 10
14.8454238242
 20
9.7982064041
 30
0.0
 10
14.8494128726
 20
9.7864692101
 30
0.0
 10
14.8532645469
 20
9.7741240825
 30
0.0
 10
14.8569747214
 20
9.7611838939
 30
0.0
 10
14.8605395178
 20
9.74766218
 30
0.0
 10
14.8639551497
 20
9.7335731022
 30
0.0
 10
14.8672179895
 20
9.7189314359
 30
0.0
 10
14.8703246125
 20
9.7037525527
 30
0.0
 10
14.873271672
 20
9.6880523996
 30
0.0
 10
14.8760561118
 20
9.6718474811
 30
0.0
 10
14.8786748978
 20
9.6551548436
 30
0.0
 10
14.8811253402
 20
9.6379920477
 30
0.0
 10
14.88340475
 20
9.6203771634
 30
0.0
 10
14.8855107968
 20
9.6023287292
 30
0.0
 10
14.8874411642
 20
9.5838657608
 30
0.0
 10
14.8891938899
 20
9.5650076772
 30
0.0
 10
14.8913094878
 20
9.5391415615
 30
0.0
 10
14.8934851091
 20
9.5059667554
 30
0.0
 10
14.8953406903
 20
9.4652397901
 30
0.0
 10
14.8964547908
 20
9.423433299
 30
0.0
 10
14.896697699
 20
9.3952199189
 30
0.0
 10
14.896697699
 20
9.3809648711
 30
0.0
  0
SPLINE
  5
2EB
100
AcDbEntity
  8
0
100
AcDbSpline
 62
7
  6
CONTINUOUS
 70
0
 71
3
 72
21
 73
17
 74
0
 42
0.0000001
 43
0.0000001
 44
0.0000000001
 40
0.0
 40
0.0
 40
0.0
 40
0.0
 40
0.1492273264
 40
0.2205054241
 40
0.2896566861
 40
0.3567763202
 40
0.4219711029
 40
0.4853590664
 40
0.547070309
 40
0.6660006247
 40
0.7235864601
 40
0.7801407198
 40
0.8358547365
 40
0.8909292965
 40
0.9455730257
 40
1.0
 40
1.0
 40
1.0
 40
1.0
 10
14.2464238653
 20
6.4000661266
 30
0.0
 10
14.2443753901
 20
6.3981596465
 30
0.0
 10
14.2412578134
 20
6.3954364182
 30
0.0
 10
14.2369724016
 20
6.392097198
 30
0.0
 10
14.233810025
 20
6.3898264964
 30
0.0
 10
14.2306512348
 20
6.3877519246
 30
0.0
 10
14.2274967845
 20
6.3858740029
 30
0.0
 10
14.2243471965
 20
6.3841932305
 30
0.0
 10
14.2202073762
 20
6.3822401492
 30
0.0
 10
14.216022158
 20
6.3806474567
 30
0.0
 10
14.2118160504
 20
6.3794520084
 30
0.0
 10
14.2087039453
 20
6.3787642075
 30
0.0
 10
14.2056020215
 20
6.3782761153
 30
0.0
 10
14.2025110255
 20
6.3779879512
 30
0.0
 10
14.1994321113
 20
6.3778999043
 30
0.0
 10
14.1973864168
 20
6.3779746945
 30
0.0
 10
14.1963682231
 20
6.3780453016
 30
0.0
  0
SPLINE
  5
2EC
100
AcDbEntity
  8
0
100
AcDbSpline
 62
7
  6
CONTINUOUS
 70
0
 71
3
 72
21
 73
17
 74
0
 42
0.0000001
 43
0.0000001
 44
0.0000000001
 40
0.0
 40
0.0
 40
0.0
 40
0.0
 40
0.0544271759
 40
0.1090711766
 40
0.1641460228
 40
0.2198602232
 40
0.276414708
 40
0.3340008262
 40
0.4529310134
 40
0.5146428948
 40
0.5780320546
 40
0.6432279045
 40
0.7103479887
 40
0.7794982902
 40
0.8507729571
 40
1.0
 40
1.0
 40
1.0
 40
1.0
 10
14.7106309865
 20
9.961321123
 30
0.0
 10
14.711649184
 20
9.9612505156
 30
0.0
 10
14.7136856309
 20
9.9610422304
 30
0.0
 10
14.7167229242
 20
9.9605299758
 30
0.0
 10
14.7197445625
 20
9.9598178853
 30
0.0
 10
14.722749439
 20
9.9589063142
 30
0.0
 10
14.7257368232
 20
9.9577955065
 30
0.0
 10
14.7297376299
 20
9.9560308451
 30
0.0
 10
14.7336629869
 20
9.9538757549
 30
0.0
 10
14.737493579
 20
9.9513698596
 30
0.0
 10
14.7403810299
 20
9.949270358
 30
0.0
 10
14.7432461069
 20
9.9469749607
 30
0.0
 10
14.7460883002
 20
9.9444842133
 30
0.0
 10
14.7489068858
 20
9.9417987513
 30
0.0
 10
14.752690314
 20
9.9379000529
 30
0.0
 10
14.7554020961
 20
9.9347726043
 30
0.0
 10
14.7571677741
 20
9.9326015983
 30
0.0
  0
SPLINE
  5
2ED
100
AcDbEntity
  8
0
100
AcDbSpline
 62
7
  6
CONTINUOUS
 70
0
 71
3
 72
53
 73
49
 74
0
 42
0.0000001
 43
0.0000001
 44
0.0000000001
 40
0.0
 40
0.0
 40
0.0
 40
0.0
 40
0.0484984629
 40
0.0964118293
 40
0.1436636999
 40
0.1901845101
 40
0.2359035413
 40
0.2807523617
 40
0.3246644677
 40
0.3675752353
 40
0.4094223239
 40
0.4501458387
 40
0.4896884952
 40
0.5279958474
 40
0.5650166037
 40
0.6007029122
 40
0.6350106353
 40
0.6678997373
 40
0.6993348253
 40
0.7144978409
 40
0.729286443
 40
0.7436978058
 40
0.7577295006
 40
0.7713794692
 40
0.7846462653
 40
0.7975288784
 40
0.810026866
 40
0.8221405036
 40
0.8338706338
 40
0.8452189282
 40
0.8561879139
 40
0.866780943
 40
0.8770025199
 40
0.886858241
 40
0.8963549478
 40
0.9055010282
 40
0.9143063753
 40
0.9227827103
 40
0.9309437952
 40
0.9388054981
 40
0.9463861792
 40
0.9607839242
 40
0.9676582376
 40
0.9743520823
 40
0.9808975889
 40
0.9873293946
 40
0.9936841505
 40
1.0
 40
1.0
 40
1.0
 40
1.0
 10
14.6806087639
 20
8.2194939172
 30
0.0
 10
14.6806087639
 20
8.2306954122
 30
0.0
 10
14.680488263
 20
8.2529634685
 30
0.0
 10
14.6799395331
 20
8.2861410284
 30
0.0
 10
14.6790246622
 20
8.318853635
 30
0.0
 10
14.6777452684
 20
8.3510468273
 30
0.0
 10
14.6761034315
 20
8.3826678575
 30
0.0
 10
14.6741019181
 20
8.4136644543
 30
0.0
 10
14.6717440747
 20
8.4439855095
 30
0.0
 10
14.6690338154
 20
8.4735810305
 30
0.0
 10
14.6659756555
 20
8.5024022169
 30
0.0
 10
14.6625747066
 20
8.5304015744
 30
0.0
 10
14.6588366374
 20
8.5575329722
 30
0.0
 10
14.6547676622
 20
8.5837517199
 30
0.0
 10
14.6503745642
 20
8.6090146684
 30
0.0
 10
14.6456646766
 20
8.6332802666
 30
0.0
 10
14.6406458461
 20
8.6565086881
 30
0.0
 10
14.6353264018
 20
8.6786616665
 30
0.0
 10
14.6305953805
 20
8.6964028657
 30
0.0
 10
14.626657843
 20
8.710023803
 30
0.0
 10
14.6236705409
 20
8.7198254034
 30
0.0
 10
14.6206148762
 20
8.7293318212
 30
0.0
 10
14.6174921088
 20
8.7385391674
 30
0.0
 10
14.6143034722
 20
8.7474436424
 30
0.0
 10
14.6110503374
 20
8.756041609
 30
0.0
 10
14.6077340214
 20
8.7643295383
 30
0.0
 10
14.6043558525
 20
8.7723040243
 30
0.0
 10
14.6009172787
 20
8.7799618274
 30
0.0
 10
14.5974196467
 20
8.7872998005
 30
0.0
 10
14.5938643911
 20
8.7943149536
 30
0.0
 10
14.5902529955
 20
8.8010044504
 30
0.0
 10
14.5865868392
 20
8.8073655366
 30
0.0
 10
14.5828674464
 20
8.8133956568
 30
0.0
 10
14.5790962919
 20
8.8190923703
 30
0.0
 10
14.5752747992
 20
8.8244533293
 30
0.0
 10
14.5714045292
 20
8.8294764106
 30
0.0
 10
14.5674869258
 20
8.8341595326
 30
0.0
 10
14.5635234218
 20
8.8385007815
 30
0.0
 10
14.5595156857
 20
8.842498326
 30
0.0
 10
14.5554646632
 20
8.8461506902
 30
0.0
 10
14.5501014838
 20
8.8504826729
 30
0.0
 10
14.5445595404
 20
8.8542208581
 30
0.0
 10
14.5388629065
 20
8.8572745654
 30
0.0
 10
14.534620336
 20
8.859177428
 30
0.0
 10
14.5303445717
 20
8.8607262863
 30
0.0
 10
14.5260373195
 20
8.8619203337
 30
0.0
 10
14.5217010704
 20
8.8627585319
 30
0.0
 10
14.5187884805
 20
8.8630801053
 30
0.0
 10
14.5173332296
 20
8.8631810309
 30
0.0
  0
SPLINE
  5
2EE
100
AcDbEntity
  8
0
100
AcDbSpline
 62
7
  6
CONTINUOUS
 70
0
 71
3
 72
41
 73
37
 74
0
 42
0.0000001
 43
0.0000001
 44
0.0000000001
 40
0.0
 40
0.0
 40
0.0
 40
0.0
 40
0.0311445023
 40
0.0624426262
 40
0.0938874266
 40
0.1254698196
 40
0.1571774021
 40
0.173076041
 40
0.1890002642
 40
0.2209118757
 40
0.2528982414
 40
0.2689155192
 40
0.2849438007
 40
0.3170178868
 40
0.3491032421
 40
0.3811777079
 40
0.4132193358
 40
0.4452068114
 40
0.4771198707
 40
0.5089397015
 40
0.540649324
 40
0.5722339448
 40
0.6036812775
 40
0.6349818227
 40
0.6661291006
 40
0.6971198291
 40
0.7279540411
 40
0.7586351339
 40
0.7891698461
 40
0.8195681577
 40
0.8498431118
 40
0.8800105574
 40
0.9100888178
 40
0.9400982893
 40
0.9700609798
 40
1.0
 40
1.0
 40
1.0
 40
1.0
 10
7.6422889712
 20
9.1922800015
 30
0.0
 10
7.6372649733
 20
9.1926284169
 30
0.0
 10
7.6272139591
 20
9.1936947215
 30
0.0
 10
7.6122593357
 20
9.1963806847
 30
0.0
 10
7.5974647748
 20
9.20014305
 30
0.0
 10
7.5829106609
 20
9.2049612538
 30
0.0
 10
7.571055899
 20
9.2098312828
 30
0.0
 10
7.5617683126
 20
9.2142254549
 30
0.0
 10
7.5526092216
 20
9.2189540214
 30
0.0
 10
7.5414532732
 20
9.2254672966
 30
0.0
 10
7.5307588716
 20
9.2327400913
 30
0.0
 10
7.5225057046
 20
9.2389951993
 30
0.0
 10
7.5144601964
 20
9.2455376932
 30
0.0
 10
7.5048241244
 20
9.2542300075
 30
0.0
 10
7.4939984535
 20
9.2654245075
 30
0.0
 10
7.4839637465
 20
9.2773268041
 30
0.0
 10
7.4747738671
 20
9.289873191
 30
0.0
 10
7.4664777332
 20
9.3029968888
 30
0.0
 10
7.4591196419
 20
9.3166279508
 30
0.0
 10
7.4527388784
 20
9.3306937507
 30
0.0
 10
7.447369549
 20
9.3451193329
 30
0.0
 10
7.443040388
 20
9.3598278153
 30
0.0
 10
7.4397746066
 20
9.374740791
 30
0.0
 10
7.4375897653
 20
9.3897787418
 30
0.0
 10
7.4364976772
 20
9.4048614557
 30
0.0
 10
7.4365043393
 20
9.4199084502
 30
0.0
 10
7.4376098939
 20
9.4348393966
 30
0.0
 10
7.4398086193
 20
9.449574546
 30
0.0
 10
7.443088951
 20
9.4640351533
 30
0.0
 10
7.4474335353
 20
9.4781439
 30
0.0
 10
7.4528193049
 20
9.4918253035
 30
0.0
 10
7.4592176189
 20
9.5050061521
 30
0.0
 10
7.4665943098
 20
9.5176158101
 30
0.0
 10
7.4749102252
 20
9.5295869572
 30
0.0
 10
7.4841200776
 20
9.5408546542
 30
0.0
 10
7.490826071
 20
9.547860186
 30
0.0
 10
7.4943080835
 20
9.5512235488
 30
0.0
  0
SPLINE
  5
2EF
100
AcDbEntity
  8
0
100
AcDbSpline
 62
7
  6
CONTINUOUS
 70
0
 71
3
 72
41
 73
37
 74
0
 42
0.0000001
 43
0.0000001
 44
0.0000000001
 40
0.0
 40
0.0
 40
0.0
 40
0.0
 40
0.0311445023
 40
0.0624426262
 40
0.0938874266
 40
0.1254698196
 40
0.1571774021
 40
0.173076041
 40
0.1890002642
 40
0.2209118757
 40
0.2528982414
 40
0.2689155192
 40
0.2849438007
 40
0.3170178868
 40
0.3491032421
 40
0.3811777079
 40
0.4132193358
 40
0.4452068114
 40
0.4771198707
 40
0.5089397015
 40
0.540649324
 40
0.5722339448
 40
0.6036812775
 40
0.6349818227
 40
0.6661291006
 40
0.6971198291
 40
0.7279540411
 40
0.7586351339
 40
0.7891698461
 40
0.8195681577
 40
0.8498431118
 40
0.8800105574
 40
0.9100888178
 40
0.9400982893
 40
0.9700609798
 40
1.0
 40
1.0
 40
1.0
 40
1.0
 10
10.7216607104
 20
9.0366803438
 30
0.0
 10
10.7166367126
 20
9.0370287592
 30
0.0
 10
10.7065856983
 20
9.0380950638
 30
0.0
 10
10.6916310749
 20
9.040781027
 30
0.0
 10
10.676836514
 20
9.0445433923
 30
0.0
 10
10.6622824001
 20
9.0493615961
 30
0.0
 10
10.6504276382
 20
9.054231625
 30
0.0
 10
10.6411400519
 20
9.0586257972
 30
0.0
 10
10.6319809608
 20
9.0633543637
 30
0.0
 10
10.6208250125
 20
9.0698676389
 30
0.0
 10
10.6101306108
 20
9.0771404336
 30
0.0
 10
10.6018774439
 20
9.0833955415
 30
0.0
 10
10.5938319357
 20
9.0899380355
 30
0.0
 10
10.5841958637
 20
9.0986303498
 30
0.0
 10
10.5733701927
 20
9.1098248498
 30
0.0
 10
10.5633354857
 20
9.1217271464
 30
0.0
 10
10.5541456063
 20
9.1342735333
 30
0.0
 10
10.5458494725
 20
9.1473972311
 30
0.0
 10
10.5384913812
 20
9.1610282931
 30
0.0
 10
10.5321106176
 20
9.175094093
 30
0.0
 10
10.5267412882
 20
9.1895196752
 30
0.0
 10
10.5224121273
 20
9.2042281576
 30
0.0
 10
10.5191463459
 20
9.2191411333
 30
0.0
 10
10.5169615046
 20
9.2341790841
 30
0.0
 10
10.5158694164
 20
9.249261798
 30
0.0
 10
10.5158760785
 20
9.2643087925
 30
0.0
 10
10.5169816332
 20
9.2792397388
 30
0.0
 10
10.5191803586
 20
9.2939748883
 30
0.0
 10
10.5224606902
 20
9.3084354956
 30
0.0
 10
10.5268052746
 20
9.3225442422
 30
0.0
 10
10.5321910441
 20
9.3362256457
 30
0.0
 10
10.5385893581
 20
9.3494064943
 30
0.0
 10
10.545966049
 20
9.3620161524
 30
0.0
 10
10.5542819645
 20
9.3739872995
 30
0.0
 10
10.5634918168
 20
9.3852549965
 30
0.0
 10
10.5701978103
 20
9.3922605283
 30
0.0
 10
10.5736798227
 20
9.3956238911
 30
0.0
  0
SPLINE
  5
2F0
100
AcDbEntity
  8
0
100
AcDbSpline
 62
7
  6
CONTINUOUS
 70
0
 71
3
 72
41
 73
37
 74
0
 42
0.0000001
 43
0.0000001
 44
0.0000000001
 40
0.0
 40
0.0
 40
0.0
 40
0.0
 40
0.0311445023
 40
0.0624426262
 40
0.0938874266
 40
0.1254698196
 40
0.1571774021
 40
0.173076041
 40
0.1890002642
 40
0.2209118757
 40
0.2528982414
 40
0.2689155192
 40
0.2849438007
 40
0.3170178868
 40
0.3491032421
 40
0.3811777079
 40
0.4132193358
 40
0.4452068114
 40
0.4771198707
 40
0.5089397015
 40
0.540649324
 40
0.5722339448
 40
0.6036812775
 40
0.6349818227
 40
0.6661291006
 40
0.6971198291
 40
0.7279540411
 40
0.7586351339
 40
0.7891698461
 40
0.8195681577
 40
0.8498431118
 40
0.8800105574
 40
0.9100888178
 40
0.9400982893
 40
0.9700609798
 40
1.0
 40
1.0
 40
1.0
 40
1.0
 10
10.7216607104
 20
6.5639101084
 30
0.0
 10
10.7166367126
 20
6.5642585239
 30
0.0
 10
10.7065856983
 20
6.5653248285
 30
0.0
 10
10.6916310749
 20
6.5680107917
 30
0.0
 10
10.676836514
 20
6.5717731569
 30
0.0
 10
10.6622824001
 20
6.5765913608
 30
0.0
 10
10.6504276382
 20
6.5814613897
 30
0.0
 10
10.6411400519
 20
6.5858555618
 30
0.0
 10
10.6319809608
 20
6.5905841284
 30
0.0
 10
10.6208250125
 20
6.5970974035
 30
0.0
 10
10.6101306108
 20
6.6043701982
 30
0.0
 10
10.6018774439
 20
6.6106253062
 30
0.0
 10
10.5938319357
 20
6.6171678001
 30
0.0
 10
10.5841958637
 20
6.6258601144
 30
0.0
 10
10.5733701927
 20
6.6370546145
 30
0.0
 10
10.5633354857
 20
6.6489569111
 30
0.0
 10
10.5541456063
 20
6.661503298
 30
0.0
 10
10.5458494725
 20
6.6746269958
 30
0.0
 10
10.5384913812
 20
6.6882580578
 30
0.0
 10
10.5321106176
 20
6.7023238577
 30
0.0
 10
10.5267412882
 20
6.7167494399
 30
0.0
 10
10.5224121273
 20
6.7314579222
 30
0.0
 10
10.5191463459
 20
6.746370898
 30
0.0
 10
10.5169615046
 20
6.7614088487
 30
0.0
 10
10.5158694164
 20
6.7764915627
 30
0.0
 10
10.5158760785
 20
6.7915385572
 30
0.0
 10
10.5169816332
 20
6.8064695035
 30
0.0
 10
10.5191803586
 20
6.821204653
 30
0.0
 10
10.5224606902
 20
6.8356652603
 30
0.0
 10
10.5268052746
 20
6.8497740069
 30
0.0
 10
10.5321910441
 20
6.8634554104
 30
0.0
 10
10.5385893581
 20
6.876636259
 30
0.0
 10
10.545966049
 20
6.889245917
 30
0.0
 10
10.5542819645
 20
6.9012170641
 30
0.0
 10
10.5634918168
 20
6.9124847612
 30
0.0
 10
10.5701978103
 20
6.919490293
 30
0.0
 10
10.5736798227
 20
6.9228536557
 30
0.0
  0
SPLINE
  5
2F1
100
AcDbEntity
  8
0
100
AcDbSpline
 62
7
  6
CONTINUOUS
 70
0
 71
3
 72
49
 73
45
 74
0
 42
0.0000001
 43
0.0000001
 44
0.0000000001
 40
0.0
 40
0.0
 40
0.0
 40
0.0
 40
0.0378127845
 40
0.0760191223
 40
0.114531607
 40
0.1532645858
 40
0.1921302413
 40
0.2310409706
 40
0.2699088597
 40
0.3086461572
 40
0.3471654842
 40
0.3853800876
 40
0.4232040959
 40
0.4605527702
 40
0.4973427611
 40
0.533492372
 40
0.5689218309
 40
0.6035535573
 40
0.637312442
 40
0.6701261391
 40
0.7019253763
 40
0.7326442909
 40
0.7622208088
 40
0.7905970516
 40
0.80431852
 40
0.8177203446
 40
0.8307967508
 40
0.843542237
 40
0.8559517495
 40
0.8680206515
 40
0.8797447052
 40
0.8911202579
 40
0.9021440651
 40
0.9128135674
 40
0.9231267538
 40
0.9330823402
 40
0.9426798495
 40
0.9519195568
 40
0.960802764
 40
0.9693317342
 40
0.977510198
 40
0.9853432953
 40
0.992837349
 40
1.0
 40
1.0
 40
1.0
 40
1.0
 10
11.4577333729
 20
8.809180216
 30
0.0
 10
11.4577333729
 20
8.8211045895
 30
0.0
 10
11.4578918681
 20
8.8450777209
 30
0.0
 10
11.4585943384
 20
8.8811896925
 30
0.0
 10
11.459761355
 20
8.9175800163
 30
0.0
 10
11.4613900444
 20
8.9541606927
 30
0.0
 10
11.4634765539
 20
8.9908438999
 30
0.0
 10
11.4660158376
 20
9.02754119
 30
0.0
 10
11.4690017962
 20
9.0641642295
 30
0.0
 10
11.472427229
 20
9.1006248184
 30
0.0
 10
11.4762838729
 20
9.136835162
 30
0.0
 10
11.4805624217
 20
9.1727080703
 30
0.0
 10
11.4852525483
 20
9.2081571699
 30
0.0
 10
11.4903429289
 20
9.2430971118
 30
0.0
 10
11.4958212706
 20
9.2774437781
 30
0.0
 10
11.501674339
 20
9.3111144894
 30
0.0
 10
11.507887983
 20
9.3440282084
 30
0.0
 10
11.5144471776
 20
9.3761057366
 30
0.0
 10
11.521336058
 20
9.4072699049
 30
0.0
 10
11.5285379571
 20
9.4374457672
 30
0.0
 10
11.5360354452
 20
9.4665607684
 30
0.0
 10
11.543810374
 20
9.4945449943
 30
0.0
 10
11.5518439146
 20
9.5213311271
 30
0.0
 10
11.5588134686
 20
9.5428347799
 30
0.0
 10
11.564512686
 20
9.5593832081
 30
0.0
 10
11.5687917885
 20
9.5713166574
 30
0.0
 10
11.5731207472
 20
9.5829041245
 30
0.0
 10
11.577497025
 20
9.5941386497
 30
0.0
 10
11.581917961
 20
9.6050134852
 30
0.0
 10
11.5863808696
 20
9.6155221105
 30
0.0
 10
11.5908831223
 20
9.6256582059
 30
0.0
 10
11.595421926
 20
9.6354157181
 30
0.0
 10
11.5999946398
 20
9.6447887781
 30
0.0
 10
11.604598443
 20
9.6537717983
 30
0.0
 10
11.6092306097
 20
9.6623594024
 30
0.0
 10
11.6138883793
 20
9.6705464648
 30
0.0
 10
11.6185689241
 20
9.6783281358
 30
0.0
 10
11.623269545
 20
9.6856997406
 30
0.0
 10
11.6279873279
 20
9.692656941
 30
0.0
 10
11.632719592
 20
9.6991955957
 30
0.0
 10
11.6374635753
 20
9.7053119196
 30
0.0
 10
11.6422166461
 20
9.7110023607
 30
0.0
 10
11.6469757927
 20
9.7162632348
 30
0.0
 10
11.6502228707
 20
9.7195552169
 30
0.0
 10
11.6518474965
 20
9.721124485
 30
0.0
  0
SPLINE
  5
2F2
100
AcDbEntity
  8
0
100
AcDbSpline
 62
7
  6
CONTINUOUS
 70
0
 71
3
 72
50
 73
46
 74
0
 42
0.0000001
 43
0.0000001
 44
0.0000000001
 40
0.0
 40
0.0
 40
0.0
 40
0.0
 40
0.0366713143
 40
0.0733626453
 40
0.1100854344
 40
0.1468567244
 40
0.1836979553
 40
0.2206328678
 40
0.2576851879
 40
0.2948760999
 40
0.3322208362
 40
0.3697251235
 40
0.4073816248
 40
0.4451655888
 40
0.4830303419
 40
0.5209030338
 40
0.5586803367
 40
0.5962248096
 40
0.633362894
 40
0.669885561
 40
0.7055525337
 40
0.7401006565
 40
0.773256322
 40
0.7892273576
 40
0.804750916
 40
0.8197964946
 40
0.8343366185
 40
0.8483456536
 40
0.8618018892
 40
0.8746859794
 40
0.8869830988
 40
0.8986812235
 40
0.9097732268
 40
0.9202552823
 40
0.9301288136
 40
0.9393993448
 40
0.9480782692
 40
0.9561824931
 40
0.9637360492
 40
0.9707707882
 40
0.9773278724
 40
0.9834592974
 40
0.9892288926
 40
0.9947131259
 40
1.0
 40
1.0
 40
1.0
 40
1.0
 10
9.5179542172
 20
8.8760790908
 30
0.0
 10
9.5135009501
 20
8.8761566096
 30
0.0
 10
9.5045943219
 20
8.876572999
 30
0.0
 10
9.4912907124
 20
8.8779797744
 30
0.0
 10
9.478079575
 20
8.8801629577
 30
0.0
 10
9.4649994607
 20
8.8831110373
 30
0.0
 10
9.4520842751
 20
8.88680762
 30
0.0
 10
9.4393641915
 20
8.8912321312
 30
0.0
 10
9.4268656019
 20
8.8963603439
 30
0.0
 10
9.4146116089
 20
8.9021646416
 30
0.0
 10
9.4026227784
 20
8.9086143418
 30
0.0
 10
9.3909180518
 20
8.9156755954
 30
0.0
 10
9.3795156642
 20
8.9233108384
 30
0.0
 10
9.3684339581
 20
8.9314777628
 30
0.0
 10
9.3576921247
 20
8.9401280499
 30
0.0
 10
9.3473107182
 20
8.9492058532
 30
0.0
 10
9.3373117788
 20
8.9586460807
 30
0.0
 10
9.3277185327
 20
8.9683727642
 30
0.0
 10
9.3185545507
 20
8.9782978718
 30
0.0
 10
9.3098423181
 20
8.9883209707
 30
0.0
 10
9.3016012994
 20
8.9983301434
 30
0.0
 10
9.2938455736
 20
9.0082042977
 30
0.0
 10
9.2877184025
 20
9.0163128963
 30
0.0
 10
9.2830494299
 20
9.0226261611
 30
0.0
 10
9.2797124223
 20
9.0271886382
 30
0.0
 10
9.2764943793
 20
9.0316227425
 30
0.0
 10
9.2733925409
 20
9.0359138777
 30
0.0
 10
9.2704034517
 20
9.0400483275
 30
0.0
 10
9.2675231234
 20
9.0440132088
 30
0.0
 10
9.2647468249
 20
9.0477966248
 30
0.0
 10
9.2620695589
 20
9.0513877372
 30
0.0
 10
9.2594855991
 20
9.0547766712
 30
0.0
 10
9.2569892443
 20
9.057954743
 30
0.0
 10
9.2545741144
 20
9.0609140943
 30
0.0
 10
9.2522341257
 20
9.0636481156
 30
0.0
 10
9.2499625932
 20
9.0661508062
 30
0.0
 10
9.2477533245
 20
9.0684174071
 30
0.0
 10
9.245599641
 20
9.0704435173
 30
0.0
 10
9.2434954252
 20
9.0722258692
 30
0.0
 10
9.2414342618
 20
9.0737612979
 30
0.0
 10
9.2394102562
 20
9.0750474591
 30
0.0
 10
9.2374176294
 20
9.076081855
 30
0.0
 10
9.2354511287
 20
9.0768622734
 30
0.0
 10
9.2335069612
 20
9.0773863252
 30
0.0
 10
9.2322066453
 20
9.0775655719
 30
0.0
 10
9.2315660691
 20
9.0776100902
 30
0.0
  0
SPLINE
  5
2F3
100
AcDbEntity
  8
0
100
AcDbSpline
 62
7
  6
CONTINUOUS
 70
0
 71
3
 72
18
 73
14
 74
0
 42
0.0000001
 43
0.0000001
 44
0.0000000001
 40
0.0
 40
0.0
 40
0.0
 40
0.0
 40
0.1504655604
 40
0.2917104522
 40
0.4244369587
 40
0.5495624319
 40
0.6682139564
 40
0.7255497878
 40
0.7817912235
 40
0.8371401983
 40
0.8918093099
 40
0.9460200145
 40
1.0
 40
1.0
 40
1.0
 40
1.0
 10
12.0623341633
 20
10.1176241813
 30
0.0
 10
12.0644544818
 20
10.1196722518
 30
0.0
 10
12.0686921934
 20
10.1235149934
 30
0.0
 10
12.075254208
 20
10.1286361659
 30
0.0
 10
12.0818085766
 20
10.1329192139
 30
0.0
 10
12.0883484142
 20
10.1363571098
 30
0.0
 10
12.0938450547
 20
10.1385371182
 30
0.0
 10
12.0982091574
 20
10.1398323451
 30
0.0
 10
12.1014357601
 20
10.1405788314
 30
0.0
 10
12.1046516384
 20
10.1411109178
 30
0.0
 10
12.1078559165
 20
10.1414283331
 30
0.0
 10
12.1110473156
 20
10.1415308445
 30
0.0
 10
12.1131675856
 20
10.1414558262
 30
0.0
 10
12.1142226334
 20
10.1413826538
 30
0.0
  0
SPLINE
  5
2F4
100
AcDbEntity
  8
0
100
AcDbSpline
 62
7
  6
CONTINUOUS
 70
0
 71
3
 72
23
 73
19
 74
0
 42
0.0000001
 43
0.0000001
 44
0.0000000001
 40
0.0
 40
0.0
 40
0.0
 40
0.0
 40
0.0616482124
 40
0.1233194439
 40
0.1850364753
 40
0.2468215683
 40
0.3086962113
 40
0.3706809222
 40
0.4327950085
 40
0.4950563306
 40
0.5574811863
 40
0.6200840811
 40
0.6828775412
 40
0.7458724798
 40
0.8090768825
 40
0.8724962987
 40
0.9361399042
 40
1.0
 40
1.0
 40
1.0
 40
1.0
 10
9.450322326
 20
8.7165642235
 30
0.0
 10
9.4475168092
 20
8.7138542999
 30
0.0
 10
9.4417577284
 20
8.7085832845
 30
0.0
 10
9.4327049205
 20
8.7011509426
 30
0.0
 10
9.4232590222
 20
8.6942098397
 30
0.0
 10
9.4134441121
 20
8.6877778315
 30
0.0
 10
9.4032848708
 20
8.6818709917
 30
0.0
 10
9.3928069407
 20
8.6765041719
 30
0.0
 10
9.382036687
 20
8.6716909303
 30
0.0
 10
9.3710012601
 20
8.6674433572
 30
0.0
 10
9.3597284813
 20
8.6637720717
 30
0.0
 10
9.3482467322
 20
8.6606863444
 30
0.0
 10
9.3365849202
 20
8.6581939192
 30
0.0
 10
9.3247724273
 20
8.6563010063
 30
0.0
 10
9.3128390769
 20
8.6550123482
 30
0.0
 10
9.3008145559
 20
8.6543311329
 30
0.0
 10
9.2887298473
 20
8.654259179
 30
0.0
 10
9.2806663982
 20
8.654616726
 30
0.0
 10
9.2766355389
 20
8.6548962671
 30
0.0
  0
SPLINE
  5
2F5
100
AcDbEntity
  8
0
100
AcDbSpline
 62
7
  6
CONTINUOUS
 70
0
 71
3
 72
22
 73
18
 74
0
 42
0.0000001
 43
0.0000001
 44
0.0000000001
 40
0.0
 40
0.0
 40
0.0
 40
0.0
 40
0.0611509443
 40
0.1226415251
 40
0.1844515845
 40
0.2465497873
 40
0.3088988062
 40
0.371456777
 40
0.4341802783
 40
0.4970263311
 40
0.5599540186
 40
0.6229255231
 40
0.6859067814
 40
0.7488677223
 40
0.8117821618
 40
0.8746274868
 40
1.0
 40
1.0
 40
1.0
 40
1.0
 10
8.6082148571
 20
8.4590498089
 30
0.0
 10
8.6135148094
 20
8.458682256
 30
0.0
 10
8.6241185065
 20
8.4575020517
 30
0.0
 10
8.6398633518
 20
8.4544317536
 30
0.0
 10
8.6553925363
 20
8.4500925022
 30
0.0
 10
8.6706072775
 20
8.4445367546
 30
0.0
 10
8.6854211184
 20
8.4378298618
 30
0.0
 10
8.6997592771
 20
8.4300463446
 30
0.0
 10
8.7135597701
 20
8.4212663608
 30
0.0
 10
8.7267729139
 20
8.4115724226
 30
0.0
 10
8.739360405
 20
8.4010467503
 30
0.0
 10
8.7512939464
 20
8.3897692737
 30
0.0
 10
8.7625537964
 20
8.3778161606
 30
0.0
 10
8.7731270515
 20
8.3652592722
 30
0.0
 10
8.7830068986
 20
8.352164555
 30
0.0
 10
8.7952385151
 20
8.3340897515
 30
0.0
 10
8.8033885319
 20
8.3198750535
 30
0.0
 10
8.8083604059
 20
8.3101838692
 30
0.0
  0
SPLINE
  5
2F6
100
AcDbEntity
  8
0
100
AcDbSpline
 62
7
  6
CONTINUOUS
 70
0
 71
3
 72
39
 73
35
 74
0
 42
0.0000001
 43
0.0000001
 44
0.0000000001
 40
0.0
 40
0.0
 40
0.0
 40
0.0
 40
0.0308884465
 40
0.061907046
 40
0.0930463537
 40
0.1243040112
 40
0.1556720085
 40
0.1871413956
 40
0.2187021373
 40
0.2503427014
 40
0.2820505271
 40
0.313812167
 40
0.3456134386
 40
0.3774396169
 40
0.4092756565
 40
0.4411063894
 40
0.4729167015
 40
0.5046917515
 40
0.5364171858
 40
0.5680793057
 40
0.5996652537
 40
0.6311632244
 40
0.6625626159
 40
0.6938541642
 40
0.7250301181
 40
0.7560843652
 40
0.7870125084
 40
0.8178119571
 40
0.8484820178
 40
0.8790239025
 40
0.9094407177
 40
0.939737475
 40
0.9699210356
 40
1.0
 40
1.0
 40
1.0
 40
1.0
 10
10.2325157688
 20
6.7364902765
 30
0.0
 10
10.2294603186
 20
6.7367021727
 30
0.0
 10
10.2233478446
 20
6.737312508
 30
0.0
 10
10.2142335649
 20
6.7387780226
 30
0.0
 10
10.2051864478
 20
6.7407904886
 30
0.0
 10
10.1962405031
 20
6.7433421365
 30
0.0
 10
10.1874283398
 20
6.746423706
 30
0.0
 10
10.178782477
 20
6.7500237404
 30
0.0
 10
10.1703347175
 20
6.7541289464
 30
0.0
 10
10.1621161792
 20
6.7587242616
 30
0.0
 10
10.1541570811
 20
6.7637926877
 30
0.0
 10
10.1464866961
 20
6.7693155381
 30
0.0
 10
10.1391332808
 20
6.7752725174
 30
0.0
 10
10.1321239023
 20
6.7816416909
 30
0.0
 10
10.1254843182
 20
6.7883995695
 30
0.0
 10
10.1192389739
 20
6.7955212924
 30
0.0
 10
10.1134109093
 20
6.8029806881
 30
0.0
 10
10.1080215393
 20
6.8107502663
 30
0.0
 10
10.1030906928
 20
6.8188014274
 30
0.0
 10
10.0986365792
 20
6.8271045721
 30
0.0
 10
10.0946756236
 20
6.8356291445
 30
0.0
 10
10.0912223784
 20
6.8443437489
 30
0.0
 10
10.0882895961
 20
6.8532163217
 30
0.0
 10
10.0858881711
 20
6.8622142221
 30
0.0
 10
10.0840269291
 20
6.8713043076
 30
0.0
 10
10.0827127429
 20
6.8804531101
 30
0.0
 10
10.0819505494
 20
6.8896269463
 30
0.0
 10
10.0817432168
 20
6.8987920211
 30
0.0
 10
10.0820914974
 20
6.9079145636
 30
0.0
 10
10.0829941761
 20
6.9169609673
 30
0.0
 10
10.0844480316
 20
6.9258978406
 30
0.0
 10
10.0864477515
 20
6.9346923507
 30
0.0
 10
10.0889857963
 20
6.9433116288
 30
0.0
 10
10.0910343361
 20
6.9489299827
 30
0.0
 10
10.0921448018
 20
6.951698071
 30
0.0
  0
SPLINE
  5
2F7
100
AcDbEntity
  8
0
100
AcDbSpline
 62
7
  6
CONTINUOUS
 70
0
 71
3
 72
45
 73
41
 74
0
 42
0.0000001
 43
0.0000001
 44
0.0000000001
 40
0.0
 40
0.0
 40
0.0
 40
0.0
 40
0.0324528591
 40
0.0648235361
 40
0.0971052694
 40
0.1292926845
 40
0.1933491584
 40
0.2252324037
 40
0.2570098839
 40
0.3202249838
 40
0.3516811129
 40
0.383030642
 40
0.4142748823
 40
0.4454157956
 40
0.4764561284
 40
0.5073996227
 40
0.5382512191
 40
0.5690172462
 40
0.5997056712
 40
0.630326505
 40
0.6608921844
 40
0.6914179613
 40
0.7219222731
 40
0.7524270293
 40
0.767690594
 40
0.7829643777
 40
0.7982518679
 40
0.8135571535
 40
0.8288840725
 40
0.8442368314
 40
0.8596195142
 40
0.8750361522
 40
0.8904908126
 40
0.9059870768
 40
0.9215284964
 40
0.9371181608
 40
0.9527583104
 40
0.9684510539
 40
0.9841990572
 40
1.0
 40
1.0
 40
1.0
 40
1.0
 10
8.4080691881
 20
7.9950269822
 30
0.0
 10
8.4050890914
 20
8.0008357912
 30
0.0
 10
8.3994594254
 20
8.0126075018
 30
0.0
 10
8.3919938069
 20
8.0306689754
 30
0.0
 10
8.3855057082
 20
8.0490484088
 30
0.0
 10
8.3781592123
 20
8.0738475379
 30
0.0
 10
8.3727089883
 20
8.099092278
 30
0.0
 10
8.3691504226
 20
8.1245461836
 30
0.0
 10
8.3668529235
 20
8.1499747518
 30
0.0
 10
8.3664156493
 20
8.1754575795
 30
0.0
 10
8.3678555334
 20
8.2007765831
 30
0.0
 10
8.3698704912
 20
8.2195977992
 30
0.0
 10
8.3728261066
 20
8.2382298362
 30
0.0
 10
8.3767281168
 20
8.2566238353
 30
0.0
 10
8.3815837844
 20
8.2747271712
 30
0.0
 10
8.3874016744
 20
8.2924839393
 30
0.0
 10
8.3941913195
 20
8.3098337707
 30
0.0
 10
8.4019627509
 20
8.3267109986
 30
0.0
 10
8.4107258061
 20
8.3430436799
 30
0.0
 10
8.4204891912
 20
8.3587526798
 30
0.0
 10
8.4312591613
 20
8.3737506986
 30
0.0
 10
8.443038153
 20
8.3879416875
 30
0.0
 10
8.4558215041
 20
8.401219519
 30
0.0
 10
8.4673010676
 20
8.4114276085
 30
0.0
 10
8.4769614327
 20
8.4190137053
 30
0.0
 10
8.4844456683
 20
8.4244010944
 30
0.0
 10
8.4921605769
 20
8.4294679209
 30
0.0
 10
8.5000993643
 20
8.4341974962
 30
0.0
 10
8.508253625
 20
8.4385731605
 30
0.0
 10
8.5166135826
 20
8.4425782237
 30
0.0
 10
8.5251678936
 20
8.4461963048
 30
0.0
 10
8.5339035221
 20
8.4494117525
 30
0.0
 10
8.5428058812
 20
8.4522093147
 30
0.0
 10
8.5518585848
 20
8.4545753005
 30
0.0
 10
8.5610437438
 20
8.4564969753
 30
0.0
 10
8.5703418755
 20
8.4579633046
 30
0.0
 10
8.5797320637
 20
8.4589654788
 30
0.0
 10
8.5891926474
 20
8.4594963148
 30
0.0
 10
8.5987000566
 20
8.4595511935
 30
0.0
 10
8.6050437465
 20
8.4592697262
 30
0.0
 10
8.6082148571
 20
8.4590498089
 30
0.0
  0
SPLINE
  5
2F8
100
AcDbEntity
  8
0
100
AcDbSpline
 62
7
  6
CONTINUOUS
 70
0
 71
3
 72
49
 73
45
 74
0
 42
0.0000001
 43
0.0000001
 44
0.0000000001
 40
0.0
 40
0.0
 40
0.0
 40
0.0
 40
0.0378126678
 40
0.0760191833
 40
0.1145315913
 40
0.1532645855
 40
0.1921302441
 40
0.2310409693
 40
0.2699088596
 40
0.3086461551
 40
0.347165484
 40
0.3853800912
 40
0.4232041003
 40
0.4605527681
 40
0.4973427527
 40
0.5334923658
 40
0.5689218342
 40
0.6035535685
 40
0.6373124477
 40
0.670126132
 40
0.7019253617
 40
0.732644284
 40
0.7622208174
 40
0.7905970638
 40
0.8043185081
 40
0.8177203466
 40
0.830796754
 40
0.8435422278
 40
0.8559517607
 40
0.8680206388
 40
0.8797447099
 40
0.8911202558
 40
0.9021440611
 40
0.9128135739
 40
0.9231267422
 40
0.9330823447
 40
0.9426798516
 40
0.9519195606
 40
0.9608027573
 40
0.9693317075
 40
0.9775101973
 40
0.9853433366
 40
0.9928373965
 40
1.0
 40
1.0
 40
1.0
 40
1.0
 10
14.1300763201
 20
8.6404654384
 30
0.0
 10
14.1300763201
 20
8.6514040299
 30
0.0
 10
14.1302217168
 20
8.6733954001
 30
0.0
 10
14.1308661103
 20
8.7065221109
 30
0.0
 10
14.131936659
 20
8.7399042014
 30
0.0
 10
14.1334307049
 20
8.7734608585
 30
0.0
 10
14.1353447284
 20
8.8071115915
 30
0.0
 10
14.1376741023
 20
8.8407752387
 30
0.0
 10
14.1404132248
 20
8.874370772
 30
0.0
 10
14.1435554877
 20
8.9078172858
 30
0.0
 10
14.1470933118
 20
8.9410342424
 30
0.0
 10
14.1510181631
 20
8.9739416594
 30
0.0
 10
14.155320573
 20
9.0064602995
 30
0.0
 10
14.1599901554
 20
9.0385118683
 30
0.0
 10
14.1650156247
 20
9.0700192064
 30
0.0
 10
14.1703848366
 20
9.1009064743
 30
0.0
 10
14.1760848138
 20
9.1310993326
 30
0.0
 10
14.1821017775
 20
9.1605251229
 30
0.0
 10
14.1884211811
 20
9.1891130493
 30
0.0
 10
14.1950277285
 20
9.2167943647
 30
0.0
 10
14.2019054274
 20
9.2435025212
 30
0.0
 10
14.2090376243
 20
9.2691733904
 30
0.0
 10
14.216407056
 20
9.2937452116
 30
0.0
 10
14.2228004476
 20
9.313471232
 30
0.0
 10
14.2280285538
 20
9.3286516464
 30
0.0
 10
14.2319539038
 20
9.3395985992
 30
0.0
 10
14.2359249998
 20
9.3502281708
 30
0.0
 10
14.239939522
 20
9.3605339714
 30
0.0
 10
14.2439949674
 20
9.3705098264
 30
0.0
 10
14.2480889708
 20
9.380149731
 30
0.0
 10
14.2522190156
 20
9.3894479144
 30
0.0
 10
14.2563826215
 20
9.3983988039
 30
0.0
 10
14.2605773282
 20
9.4069970227
 30
0.0
 10
14.2648005336
 20
9.4152374523
 30
0.0
 10
14.2690497952
 20
9.4231151393
 30
0.0
 10
14.2733225045
 20
9.4306254132
 30
0.0
 10
14.2776161406
 20
9.437763795
 30
0.0
 10
14.2819281715
 20
9.4445260131
 30
0.0
 10
14.286255938
 20
9.4509080838
 30
0.0
 10
14.2905970082
 20
9.4569062034
 30
0.0
 10
14.2949488244
 20
9.462516927
 30
0.0
 10
14.2993089984
 20
9.4677369667
 30
0.0
 10
14.3036747207
 20
9.4725629431
 30
0.0
 10
14.3066533627
 20
9.4755827821
 30
0.0
 10
14.3081436762
 20
9.4770223145
 30
0.0
  0
SPLINE
  5
2F9
100
AcDbEntity
  8
0
100
AcDbSpline
 62
7
  6
CONTINUOUS
 70
0
 71
3
 72
49
 73
45
 74
0
 42
0.0000001
 43
0.0000001
 44
0.0000000001
 40
0.0
 40
0.0
 40
0.0
 40
0.0
 40
0.0378127845
 40
0.0760191223
 40
0.114531607
 40
0.1532645858
 40
0.1921302413
 40
0.2310409706
 40
0.2699088597
 40
0.3086461572
 40
0.3471654842
 40
0.3853800876
 40
0.4232040959
 40
0.4605527702
 40
0.4973427611
 40
0.533492372
 40
0.5689218309
 40
0.6035535573
 40
0.637312442
 40
0.6701261391
 40
0.7019253763
 40
0.7326442909
 40
0.7622208088
 40
0.7905970516
 40
0.80431852
 40
0.8177203446
 40
0.8307967508
 40
0.843542237
 40
0.8559517495
 40
0.8680206515
 40
0.8797447052
 40
0.8911202579
 40
0.9021440651
 40
0.9128135674
 40
0.9231267538
 40
0.9330823402
 40
0.9426798495
 40
0.9519195568
 40
0.960802764
 40
0.9693317342
 40
0.977510198
 40
0.9853432953
 40
0.992837349
 40
1.0
 40
1.0
 40
1.0
 40
1.0
 10
14.0541421478
 20
8.6291186559
 30
0.0
 10
14.0541421478
 20
8.6410430294
 30
0.0
 10
14.054300643
 20
8.6650161608
 30
0.0
 10
14.0550031133
 20
8.7011281323
 30
0.0
 10
14.0561701299
 20
8.7375184562
 30
0.0
 10
14.0577988193
 20
8.7740991326
 30
0.0
 10
14.0598853289
 20
8.8107823398
 30
0.0
 10
14.0624246125
 20
8.8474796299
 30
0.0
 10
14.0654105712
 20
8.8841026694
 30
0.0
 10
14.0688360039
 20
8.9205632583
 30
0.0
 10
14.0726926478
 20
8.9567736019
 30
0.0
 10
14.0769711966
 20
8.9926465102
 30
0.0
 10
14.0816613232
 20
9.0280956098
 30
0.0
 10
14.0867517038
 20
9.0630355517
 30
0.0
 10
14.0922300456
 20
9.097382218
 30
0.0
 10
14.0980831139
 20
9.1310529293
 30
0.0
 10
14.1042967579
 20
9.1639666482
 30
0.0
 10
14.1108559525
 20
9.1960441765
 30
0.0
 10
14.1177448329
 20
9.2272083448
 30
0.0
 10
14.124946732
 20
9.2573842071
 30
0.0
 10
14.1324442201
 20
9.2864992083
 30
0.0
 10
14.1402191489
 20
9.3144834342
 30
0.0
 10
14.1482526895
 20
9.341269567
 30
0.0
 10
14.1552222435
 20
9.3627732198
 30
0.0
 10
14.1609214609
 20
9.379321648
 30
0.0
 10
14.1652005634
 20
9.3912550973
 30
0.0
 10
14.1695295221
 20
9.4028425644
 30
0.0
 10
14.1739057999
 20
9.4140770896
 30
0.0
 10
14.1783267359
 20
9.4249519251
 30
0.0
 10
14.1827896445
 20
9.4354605504
 30
0.0
 10
14.1872918972
 20
9.4455966458
 30
0.0
 10
14.1918307009
 20
9.455354158
 30
0.0
 10
14.1964034148
 20
9.464727218
 30
0.0
 10
14.201007218
 20
9.4737102382
 30
0.0
 10
14.2056393847
 20
9.4822978423
 30
0.0
 10
14.2102971542
 20
9.4904849047
 30
0.0
 10
14.214977699
 20
9.4982665757
 30
0.0
 10
14.2196783199
 20
9.5056381805
 30
0.0
 10
14.2243961028
 20
9.5125953809
 30
0.0
 10
14.2291283669
 20
9.5191340356
 30
0.0
 10
14.2338723502
 20
9.5252503595
 30
0.0
 10
14.238625421
 20
9.5309408006
 30
0.0
 10
14.2433845676
 20
9.5362016747
 30
0.0
 10
14.2466316456
 20
9.5394936568
 30
0.0
 10
14.2482562714
 20
9.5410629249
 30
0.0
  0
SPLINE
  5
2FA
100
AcDbEntity
  8
0
100
AcDbSpline
 62
7
  6
CONTINUOUS
 70
0
 71
3
 72
23
 73
19
 74
0
 42
0.0000001
 43
0.0000001
 44
0.0000000001
 40
0.0
 40
0.0
 40
0.0
 40
0.0
 40
0.061648204
 40
0.1233194452
 40
0.1850364756
 40
0.2468215591
 40
0.308696212
 40
0.3706809269
 40
0.4327950009
 40
0.4950563329
 40
0.557481203
 40
0.6200840606
 40
0.6828775398
 40
0.7458725787
 40
0.8090767404
 40
0.8724961897
 40
0.9361405028
 40
1.0
 40
1.0
 40
1.0
 40
1.0
 10
7.7902698588
 20
6.8879616695
 30
0.0
 10
7.7878795617
 20
6.8856528219
 30
0.0
 10
7.7829728446
 20
6.8811619161
 30
0.0
 10
7.7752598627
 20
6.8748295786
 30
0.0
 10
7.7672119344
 20
6.8689158266
 30
0.0
 10
7.758849666
 20
6.8634357422
 30
0.0
 10
7.7501940052
 20
6.8584031307
 30
0.0
 10
7.7412668019
 20
6.8538306607
 30
0.0
 10
7.7320905767
 20
6.8497297629
 30
0.0
 10
7.7226884088
 20
6.8461108429
 30
0.0
 10
7.7130840088
 20
6.8429829565
 30
0.0
 10
7.7033015859
 20
6.8403538997
 30
0.0
 10
7.6933657364
 20
6.8382303616
 30
0.0
 10
7.6833015149
 20
6.8366176385
 30
0.0
 10
7.6731343308
 20
6.8355196774
 30
0.0
 10
7.6628894321
 20
6.8349392896
 30
0.0
 10
7.6525932746
 20
6.8348780085
 30
0.0
 10
7.6457232239
 20
6.8351826242
 30
0.0
 10
7.6422889712
 20
6.8354207904
 30
0.0
  0
SPLINE
  5
2FB
100
AcDbEntity
  8
0
100
AcDbSpline
 62
7
  6
CONTINUOUS
 70
0
 71
3
 72
39
 73
35
 74
0
 42
0.0000001
 43
0.0000001
 44
0.0000000001
 40
0.0
 40
0.0
 40
0.0
 40
0.0
 40
0.0311449008
 40
0.0624431523
 40
0.093888332
 40
0.1254709881
 40
0.1571788807
 40
0.1889972566
 40
0.2209091706
 40
0.2528958383
 40
0.2849370172
 40
0.3170114073
 40
0.349097067
 40
0.3811718373
 40
0.4132137693
 40
0.4452015485
 40
0.4771149106
 40
0.5089350431
 40
0.540644966
 40
0.5722298857
 40
0.6036775159
 40
0.634978357
 40
0.6661259293
 40
0.697116951
 40
0.727951455
 40
0.7586328387
 40
0.7891678408
 40
0.8195664415
 40
0.8498416836
 40
0.8800094164
 40
0.9100879631
 40
0.9400977201
 40
0.9700606955
 40
1.0
 40
1.0
 40
1.0
 40
1.0
 10
9.2766355389
 20
8.6548962671
 30
0.0
 10
9.270738812
 20
8.6553052065
 30
0.0
 10
9.2589418701
 20
8.656556723
 30
0.0
 10
9.2413894858
 20
8.6597092919
 30
0.0
 10
9.2240250856
 20
8.6641251394
 30
0.0
 10
9.2069424935
 20
8.6697804635
 30
0.0
 10
9.1902324323
 20
8.676644983
 30
0.0
 10
9.1739840455
 20
8.6846819677
 30
0.0
 10
9.1582838897
 20
8.6938484711
 30
0.0
 10
9.1432156245
 20
8.7040955496
 30
0.0
 10
9.1288595337
 20
8.7153685253
 30
0.0
 10
9.1152921123
 20
8.7276072748
 30
0.0
 10
9.1025856614
 20
8.7407465474
 30
0.0
 10
9.0908079071
 20
8.7547163097
 30
0.0
 10
9.0800216432
 20
8.7694421154
 30
0.0
 10
9.0702843993
 20
8.7848454975
 30
0.0
 10
9.0616481365
 20
8.8008443825
 30
0.0
 10
9.0541589722
 20
8.8173535219
 30
0.0
 10
9.047856935
 20
8.8342849415
 30
0.0
 10
9.0427757512
 20
8.8515484035
 30
0.0
 10
9.0389426631
 20
8.8690518817
 30
0.0
 10
9.0363782816
 20
8.8867020447
 30
0.0
 10
9.0350964713
 20
8.9044047477
 30
0.0
 10
9.0351042709
 20
8.9220655278
 30
0.0
 10
9.0364018473
 20
8.939590103
 30
0.0
 10
9.0389824852
 20
8.956884872
 30
0.0
 10
9.0428326121
 20
8.973857411
 30
0.0
 10
9.0479318601
 20
8.9904169708
 30
0.0
 10
9.0542531556
 20
9.0064749569
 30
0.0
 10
9.0617628828
 20
9.0219454402
 30
0.0
 10
9.0704209397
 20
9.0367455145
 30
0.0
 10
9.0801813723
 20
9.0507961663
 30
0.0
 10
9.0909910297
 20
9.0640211721
 30
0.0
 10
9.0988618888
 20
9.0722436423
 30
0.0
 10
9.1029487518
 20
9.0761912524
 30
0.0
  0
SPLINE
  5
2FC
100
AcDbEntity
  8
0
100
AcDbSpline
 62
7
  6
CONTINUOUS
 70
0
 71
3
 72
29
 73
25
 74
0
 42
0.0000001
 43
0.0000001
 44
0.0000000001
 40
0.0
 40
0.0
 40
0.0
 40
0.0
 40
0.0755836755
 40
0.1466143562
 40
0.2134286572
 40
0.2764666867
 40
0.3362686904
 40
0.3651658039
 40
0.3935045519
 40
0.4213816903
 40
0.4488992609
 40
0.4761636692
 40
0.503284649
 40
0.5303738152
 40
0.5575431712
 40
0.5849037119
 40
0.6125638739
 40
0.6406282505
 40
0.6691966684
 40
0.7281925824
 40
0.7902529585
 40
0.8559465767
 40
0.925738346
 40
1.0
 40
1.0
 40
1.0
 40
1.0
 10
14.718630343
 20
9.8735220108
 30
0.0
 10
14.7205424971
 20
9.8753690099
 30
0.0
 10
14.7243642715
 20
9.8788382412
 30
0.0
 10
14.7302788011
 20
9.8834728996
 30
0.0
 10
14.7361865506
 20
9.8873653865
 30
0.0
 10
14.7420814064
 20
9.8905096779
 30
0.0
 10
14.7470362488
 20
9.8925246458
 30
0.0
 10
14.7509716366
 20
9.8937395953
 30
0.0
 10
14.7538815212
 20
9.8944510507
 30
0.0
 10
14.7567820872
 20
9.8949726921
 30
0.0
 10
14.7596725315
 20
9.8953043262
 30
0.0
 10
14.7625519273
 20
9.8954457075
 30
0.0
 10
14.7654193392
 20
9.8953967337
 30
0.0
 10
14.7682738216
 20
9.8951574601
 30
0.0
 10
14.7711144363
 20
9.8947279632
 30
0.0
 10
14.7739402466
 20
9.8941083429
 30
0.0
 10
14.7767503367
 20
9.8932989264
 30
0.0
 10
14.7795439297
 20
9.892300027
 30
0.0
 10
14.7832850034
 20
9.8906992609
 30
0.0
 10
14.7879312452
 20
9.8882015197
 30
0.0
 10
14.7933607945
 20
9.8844855915
 30
0.0
 10
14.7987008705
 20
9.8800250912
 30
0.0
 10
14.8039465427
 20
9.8748269064
 30
0.0
 10
14.8072711701
 20
9.870996864
 30
0.0
 10
14.8089192664
 20
9.868970429
 30
0.0
  0
SPLINE
  5
2FD
100
AcDbEntity
  8
0
100
AcDbSpline
 62
7
  6
CONTINUOUS
 70
0
 71
3
 72
23
 73
19
 74
0
 42
0.0000001
 43
0.0000001
 44
0.0000000001
 40
0.0
 40
0.0
 40
0.0
 40
0.0
 40
0.061648204
 40
0.1233194452
 40
0.1850364756
 40
0.2468215591
 40
0.308696212
 40
0.3706809269
 40
0.4327950009
 40
0.4950563329
 40
0.557481203
 40
0.6200840606
 40
0.6828775398
 40
0.7458725787
 40
0.8090767404
 40
0.8724961897
 40
0.9361405028
 40
1.0
 40
1.0
 40
1.0
 40
1.0
 10
7.7902698588
 20
9.2448208806
 30
0.0
 10
7.7878795617
 20
9.2425120329
 30
0.0
 10
7.7829728446
 20
9.2380211272
 30
0.0
 10
7.7752598627
 20
9.2316887897
 30
0.0
 10
7.7672119344
 20
9.2257750376
 30
0.0
 10
7.758849666
 20
9.2202949532
 30
0.0
 10
7.7501940052
 20
9.2152623417
 30
0.0
 10
7.7412668019
 20
9.2106898717
 30
0.0
 10
7.7320905767
 20
9.206588974
 30
0.0
 10
7.7226884088
 20
9.202970054
 30
0.0
 10
7.7130840088
 20
9.1998421676
 30
0.0
 10
7.7033015859
 20
9.1972131107
 30
0.0
 10
7.6933657364
 20
9.1950895727
 30
0.0
 10
7.6833015149
 20
9.1934768496
 30
0.0
 10
7.6731343308
 20
9.1923788885
 30
0.0
 10
7.6628894321
 20
9.1917985006
 30
0.0
 10
7.6525932746
 20
9.1917372195
 30
0.0
 10
7.6457232239
 20
9.1920418352
 30
0.0
 10
7.6422889712
 20
9.1922800015
 30
0.0
  0
SPLINE
  5
2FE
100
AcDbEntity
  8
0
100
AcDbSpline
 62
7
  6
CONTINUOUS
 70
0
 71
3
 72
18
 73
14
 74
0
 42
0.0000001
 43
0.0000001
 44
0.0000000001
 40
0.0
 40
0.0
 40
0.0
 40
0.0
 40
0.1504654274
 40
0.2917102685
 40
0.4244367914
 40
0.5495623274
 40
0.6682139347
 40
0.7255498045
 40
0.781791271
 40
0.8371402644
 40
0.8918093774
 40
0.9460200616
 40
1.0
 40
1.0
 40
1.0
 40
1.0
 10
14.6587429382
 20
9.9375626212
 30
0.0
 10
14.6608632396
 20
9.9396106752
 30
0.0
 10
14.665100917
 20
9.9434533878
 30
0.0
 10
14.671662877
 20
9.9485745275
 30
0.0
 10
14.678217191
 20
9.9528575568
 30
0.0
 10
14.6847569742
 20
9.9562954482
 30
0.0
 10
14.6902535692
 20
9.958475465
 30
0.0
 10
14.6946176366
 20
9.9597707062
 30
0.0
 10
14.6978442133
 20
9.9605172068
 30
0.0
 10
14.7010600658
 20
9.9610493111
 30
0.0
 10
14.7042643185
 20
9.9613667479
 30
0.0
 10
14.7074556925
 20
9.9614692844
 30
0.0
 10
14.7095759465
 20
9.9613942852
 30
0.0
 10
14.7106309865
 20
9.961321123
 30
0.0
  0
SPLINE
  5
2FF
100
AcDbEntity
  8
0
100
AcDbSpline
 62
7
  6
CONTINUOUS
 70
0
 71
3
 72
23
 73
19
 74
0
 42
0.0000001
 43
0.0000001
 44
0.0000000001
 40
0.0
 40
0.0
 40
0.0
 40
0.0
 40
0.061648204
 40
0.1233194452
 40
0.1850364756
 40
0.2468215591
 40
0.308696212
 40
0.3706809269
 40
0.4327950009
 40
0.4950563329
 40
0.557481203
 40
0.6200840606
 40
0.6828775398
 40
0.7458725787
 40
0.8090767404
 40
0.8724961897
 40
0.9361405028
 40
1.0
 40
1.0
 40
1.0
 40
1.0
 10
10.869641598
 20
9.0892212229
 30
0.0
 10
10.8672513009
 20
9.0869123752
 30
0.0
 10
10.8623445839
 20
9.0824214695
 30
0.0
 10
10.854631602
 20
9.076089132
 30
0.0
 10
10.8465836736
 20
9.0701753799
 30
0.0
 10
10.8382214053
 20
9.0646952955
 30
0.0
 10
10.8295657444
 20
9.059662684
 30
0.0
 10
10.8206385412
 20
9.055090214
 30
0.0
 10
10.8114623159
 20
9.0509893162
 30
0.0
 10
10.802060148
 20
9.0473703963
 30
0.0
 10
10.792455748
 20
9.0442425099
 30
0.0
 10
10.7826733251
 20
9.041613453
 30
0.0
 10
10.7727374756
 20
9.039489915
 30
0.0
 10
10.7626732542
 20
9.0378771919
 30
0.0
 10
10.75250607
 20
9.0367792308
 30
0.0
 10
10.7422611713
 20
9.0361988429
 30
0.0
 10
10.7319650138
 20
9.0361375618
 30
0.0
 10
10.7250949632
 20
9.0364421775
 30
0.0
 10
10.7216607104
 20
9.0366803438
 30
0.0
  0
SPLINE
  5
300
100
AcDbEntity
  8
0
100
AcDbSpline
 62
7
  6
CONTINUOUS
 70
0
 71
3
 72
15
 73
11
 74
0
 42
0.0000001
 43
0.0000001
 44
0.0000000001
 40
0.0
 40
0.0
 40
0.0
 40
0.0
 40
0.1264815869
 40
0.25253796
 40
0.3781414508
 40
0.5033115594
 40
0.6280647667
 40
0.7524151657
 40
0.8763847486
 40
1.0
 40
1.0
 40
1.0
 40
1.0
 10
10.2325157688
 20
6.7364902765
 30
0.0
 10
10.2350611055
 20
6.7363137568
 30
0.0
 10
10.2401530729
 20
6.7360895355
 30
0.0
 10
10.2477841099
 20
6.7361418309
 30
0.0
 10
10.2553762695
 20
6.7365835596
 30
0.0
 10
10.2629093827
 20
6.7374134847
 30
0.0
 10
10.2703643346
 20
6.7386293328
 30
0.0
 10
10.2777219204
 20
6.740228268
 30
0.0
 10
10.2849628972
 20
6.7422058817
 30
0.0
 10
10.2897070671
 20
6.7437758188
 30
0.0
 10
10.2920527299
 20
6.7446220169
 30
0.0
  0
SPLINE
  5
301
100
AcDbEntity
  8
0
100
AcDbSpline
 62
7
  6
CONTINUOUS
 70
0
 71
3
 72
59
 73
55
 74
0
 42
0.0000001
 43
0.0000001
 44
0.0000000001
 40
0.0
 40
0.0
 40
0.0
 40
0.0
 40
0.041773695
 40
0.0840363136
 40
0.1266575373
 40
0.1695052014
 40
0.2124464853
 40
0.2553481089
 40
0.2980769786
 40
0.340500672
 40
0.3824879764
 40
0.4239094142
 40
0.4646377773
 40
0.5045486677
 40
0.543521049
 40
0.5814378133
 40
0.6181863723
 40
0.636089022
 40
0.6536597733
 40
0.6708861219
 40
0.6877559558
 40
0.7042576048
 40
0.7203798641
 40
0.7361120052
 40
0.7514438498
 40
0.7663657397
 40
0.7808686656
 40
0.7949441989
 40
0.8085846768
 40
0.8217831045
 40
0.8345333953
 40
0.8468302594
 40
0.8586694955
 40
0.8700478906
 40
0.8809635592
 40
0.8914158894
 40
0.9014059294
 40
0.9109364239
 40
0.9200122588
 40
0.9286406385
 40
0.9368316139
 40
0.9445984514
 40
0.951958271
 40
0.9589326302
 40
0.9655482476
 40
0.9718377031
 40
0.9778400385
 40
0.9836011712
 40
0.9864084761
 40
0.989175791
 40
0.9919106583
 40
0.9946209104
 40
0.997314613
 40
1.0
 40
1.0
 40
1.0
 40
1.0
 10
14.6806087639
 20
8.2194939172
 30
0.0
 10
14.6806087639
 20
8.2034312052
 30
0.0
 10
14.6803581683
 20
8.1711172767
 30
0.0
 10
14.6792503311
 20
8.1224261625
 30
0.0
 10
14.6774115934
 20
8.0733438395
 30
0.0
 10
14.6748479828
 20
8.0240327829
 30
0.0
 10
14.6715679711
 20
7.9746561386
 30
0.0
 10
14.6675823999
 20
7.925377257
 30
0.0
 10
14.6629044723
 20
7.8763591749
 30
0.0
 10
14.6575496955
 20
7.8277640553
 30
0.0
 10
14.6515358356
 20
7.7797526539
 30
0.0
 10
14.6448828575
 20
7.7324837821
 30
0.0
 10
14.637612861
 20
7.6861137719
 30
0.0
 10
14.6297500067
 20
7.640795971
 30
0.0
 10
14.6213204454
 20
7.5966801609
 30
0.0
 10
14.6123522065
 20
7.5539122917
 30
0.0
 10
14.6043870611
 20
7.5192183569
 30
0.0
 10
14.5977581949
 20
7.4922500792
 30
0.0
 10
14.5927140562
 20
7.4726235295
 30
0.0
 10
14.5875584499
 20
7.4534368911
 30
0.0
 10
14.5822956139
 20
7.4347060142
 30
0.0
 10
14.5769299233
 20
7.4164463876
 30
0.0
 10
14.5714658319
 20
7.3986731026
 30
0.0
 10
14.5659078547
 20
7.3814008475
 30
0.0
 10
14.5602606286
 20
7.3646438879
 30
0.0
 10
14.554528797
 20
7.348416066
 30
0.0
 10
14.5487171627
 20
7.3327307695
 30
0.0
 10
14.5428304811
 20
7.3176009474
 30
0.0
 10
14.5368737021
 20
7.3030390596
 30
0.0
 10
14.5308516762
 20
7.2890571167
 30
0.0
 10
14.5247694775
 20
7.2756666029
 30
0.0
 10
14.5186320341
 20
7.2628785463
 30
0.0
 10
14.5124445144
 20
7.2507034098
 30
0.0
 10
14.5062119041
 20
7.2391511956
 30
0.0
 10
14.4999394269
 20
7.2282313027
 30
0.0
 10
14.4936320981
 20
7.2179526659
 30
0.0
 10
14.4872951432
 20
7.2083235844
 30
0.0
 10
14.4809335639
 20
7.1993518901
 30
0.0
 10
14.4745525125
 20
7.1910447622
 30
0.0
 10
14.4681569065
 20
7.1834089157
 30
0.0
 10
14.4617517206
 20
7.1764504314
 30
0.0
 10
14.4553416858
 20
7.1701749528
 30
0.0
 10
14.4489314805
 20
7.1645875865
 30
0.0
 10
14.4425255466
 20
7.1596930858
 30
0.0
 10
14.4361282707
 20
7.1554959044
 30
0.0
 10
14.42974378
 20
7.1520002792
 30
0.0
 10
14.4233770149
 20
7.1492105554
 30
0.0
 10
14.4180431286
 20
7.1474623596
 30
0.0
 10
14.4138057909
 20
7.1464331522
 30
0.0
 10
14.4106634826
 20
7.145845641
 30
0.0
 10
14.4075307003
 20
7.1454362051
 30
0.0
 10
14.4044080413
 20
7.1452049495
 30
0.0
 10
14.4012963856
 20
7.1451520163
 30
0.0
 10
14.3992283739
 20
7.1452356928
 30
0.0
 10
14.3981982702
 20
7.1453071333
 30
0.0
  0
SPLINE
  5
302
100
AcDbEntity
  8
0
100
AcDbSpline
 62
7
  6
CONTINUOUS
 70
0
 71
3
 72
23
 73
19
 74
0
 42
0.0000001
 43
0.0000001
 44
0.0000000001
 40
0.0
 40
0.0
 40
0.0
 40
0.0
 40
0.061648204
 40
0.1233194452
 40
0.1850364756
 40
0.2468215591
 40
0.308696212
 40
0.3706809269
 40
0.4327950009
 40
0.4950563329
 40
0.557481203
 40
0.6200840606
 40
0.6828775398
 40
0.7458725787
 40
0.8090767404
 40
0.8724961897
 40
0.9361405028
 40
1.0
 40
1.0
 40
1.0
 40
1.0
 10
10.869641598
 20
6.6164509875
 30
0.0
 10
10.8672513009
 20
6.6141421399
 30
0.0
 10
10.8623445839
 20
6.6096512341
 30
0.0
 10
10.854631602
 20
6.6033188967
 30
0.0
 10
10.8465836736
 20
6.5974051446
 30
0.0
 10
10.8382214053
 20
6.5919250602
 30
0.0
 10
10.8295657444
 20
6.5868924487
 30
0.0
 10
10.8206385412
 20
6.5823199787
 30
0.0
 10
10.8114623159
 20
6.5782190809
 30
0.0
 10
10.802060148
 20
6.5746001609
 30
0.0
 10
10.792455748
 20
6.5714722745
 30
0.0
 10
10.7826733251
 20
6.5688432177
 30
0.0
 10
10.7727374756
 20
6.5667196796
 30
0.0
 10
10.7626732542
 20
6.5651069565
 30
0.0
 10
10.75250607
 20
6.5640089954
 30
0.0
 10
10.7422611713
 20
6.5634286076
 30
0.0
 10
10.7319650138
 20
6.5633673265
 30
0.0
 10
10.7250949632
 20
6.5636719422
 30
0.0
 10
10.7216607104
 20
6.5639101084
 30
0.0
  0
SPLINE
  5
303
100
AcDbEntity
  8
0
100
AcDbSpline
 62
7
  6
CONTINUOUS
 70
0
 71
3
 72
23
 73
19
 74
0
 42
0.0000001
 43
0.0000001
 44
0.0000000001
 40
0.0
 40
0.0
 40
0.0
 40
0.0
 40
0.061648222
 40
0.1233194599
 40
0.1850364872
 40
0.2468215826
 40
0.3086962191
 40
0.3706809311
 40
0.4327950059
 40
0.4950563306
 40
0.5574812037
 40
0.620083994
 40
0.682877569
 40
0.7458727056
 40
0.8090763209
 40
0.8724960975
 40
0.9361416631
 40
1.0
 40
1.0
 40
1.0
 40
1.0
 10
10.2601456064
 20
6.696971891
 30
0.0
 10
10.2583949545
 20
6.6952808764
 30
0.0
 10
10.2548013124
 20
6.6919916703
 30
0.0
 10
10.2491523128
 20
6.6873538411
 30
0.0
 10
10.2432580629
 20
6.6830224956
 30
0.0
 10
10.2371335208
 20
6.6790088599
 30
0.0
 10
10.2307941206
 20
6.6753229203
 30
0.0
 10
10.2242558573
 20
6.6719739473
 30
0.0
 10
10.2175351573
 20
6.6689704624
 30
0.0
 10
10.2106490169
 20
6.6663198804
 30
0.0
 10
10.203614741
 20
6.6640289802
 30
0.0
 10
10.1964500686
 20
6.6621034577
 30
0.0
 10
10.1891730376
 20
6.6605481018
 30
0.0
 10
10.1818019865
 20
6.6593669641
 30
0.0
 10
10.1743555257
 20
6.6585627751
 30
0.0
 10
10.1668520954
 20
6.6581376789
 30
0.0
 10
10.1593111477
 20
6.658092826
 30
0.0
 10
10.1542795013
 20
6.6583159043
 30
0.0
 10
10.1517642917
 20
6.6584903347
 30
0.0
  0
SPLINE
  5
304
100
AcDbEntity
  8
0
100
AcDbSpline
 62
7
  6
CONTINUOUS
 70
0
 71
3
 72
77
 73
73
 74
0
 42
0.0000001
 43
0.0000001
 44
0.0000000001
 40
0.0
 40
0.0
 40
0.0
 40
0.0
 40
0.045209572
 40
0.0909997778
 40
0.1371867504
 40
0.1835835602
 40
0.2300026216
 40
0.2762561486
 40
0.3221572158
 40
0.3675207148
 40
0.4121643196
 40
0.4559094764
 40
0.4773908694
 40
0.4985829101
 40
0.5194648079
 40
0.5400161702
 40
0.5602170763
 40
0.5800481215
 40
0.599490396
 40
0.618525607
 40
0.6371360535
 40
0.6553046799
 40
0.6730151776
 40
0.6902519411
 40
0.7070002119
 40
0.7232461044
 40
0.7389766351
 40
0.754179903
 40
0.768845071
 40
0.7829625328
 40
0.7965240589
 40
0.8095228544
 40
0.8219538609
 40
0.8338138898
 40
0.8451018991
 40
0.8558194074
 40
0.8609657343
 40
0.8659713748
 40
0.8708374097
 40
0.8755651742
 40
0.8801563183
 40
0.8846127673
 40
0.8889367626
 40
0.8931309512
 40
0.8971983612
 40
0.9011424304
 40
0.904967104
 40
0.9086768412
 40
0.9122766287
 40
0.9157720683
 40
0.9224735029
 40
0.9256960045
 40
0.9288431775
 40
0.9319239961
 40
0.9349480951
 40
0.9379257404
 40
0.9408677257
 40
0.943785275
 40
0.9466899306
 40
0.9495933982
 40
0.9525074006
 40
0.9554435237
 40
0.9584130653
 40
0.9614269198
 40
0.9644954649
 40
0.9676284627
 40
0.970835031
 40
0.9774998438
 40
0.9845513675
 40
0.988238434
 40
0.9920394709
 40
1.0
 40
1.0
 40
1.0
 40
1.0
 10
14.7724646747
 20
8.2332198723
 30
0.0
 10
14.7724646747
 20
8.2132636198
 30
0.0
 10
14.772108766
 20
8.1730940055
 30
0.0
 10
14.7705393949
 20
8.11255513
 30
0.0
 10
14.7679370876
 20
8.0515271825
 30
0.0
 10
14.7643129533
 20
7.9902733998
 30
0.0
 10
14.7596826054
 20
7.9290579807
 30
0.0
 10
14.7540660258
 20
7.8681448863
 30
0.0
 10
14.7474874998
 20
7.807796787
 30
0.0
 10
14.7399755027
 20
7.7482738435
 30
0.0
 10
14.7315625491
 20
7.6898328305
 30
0.0
 10
14.723785249
 20
7.6419588929
 30
0.0
 10
14.7171314504
 20
7.6043965781
 30
0.0
 10
14.7119696947
 20
7.5768206714
 30
0.0
 10
14.7066121372
 20
7.5497004831
 30
0.0
 10
14.7010645197
 20
7.523065243
 30
0.0
 10
14.695332845
 20
7.4969436822
 30
0.0
 10
14.6894233382
 20
7.4713639655
 30
0.0
 10
14.6833423461
 20
7.4463536795
 30
0.0
 10
14.6770964808
 20
7.4219397823
 30
0.0
 10
14.6706924903
 20
7.3981485907
 30
0.0
 10
14.6641372762
 20
7.3750057471
 30
0.0
 10
14.657437975
 20
7.3525361785
 30
0.0
 10
14.6506017911
 20
7.3307640917
 30
0.0
 10
14.6436361374
 20
7.309712923
 30
0.0
 10
14.6365485675
 20
7.2894053203
 30
0.0
 10
14.6293466982
 20
7.2698631325
 30
0.0
 10
14.6220383682
 20
7.251107345
 30
0.0
 10
14.6146314456
 20
7.2331580963
 30
0.0
 10
14.607133916
 20
7.2160346317
 30
0.0
 10
14.5995539102
 20
7.1997552643
 30
0.0
 10
14.5918995216
 20
7.1843373958
 30
0.0
 10
14.5841790115
 20
7.16979745
 30
0.0
 10
14.5764006063
 20
7.1561508006
 30
0.0
 10
14.5685725876
 20
7.1434120998
 30
0.0
 10
14.5619278727
 20
7.1334334322
 30
0.0
 10
14.5565876103
 20
7.1259263774
 30
0.0
 10
14.5526295046
 20
7.1206078301
 30
0.0
 10
14.5486653231
 20
7.1155261478
 30
0.0
 10
14.5446960653
 20
7.1106826998
 30
0.0
 10
14.5407228218
 20
7.106078749
 30
0.0
 10
14.5367466307
 20
7.1017155272
 30
0.0
 10
14.5327684966
 20
7.0975942373
 30
0.0
 10
14.5287894885
 20
7.0937159505
 30
0.0
 10
14.5248106415
 20
7.0900816961
 30
0.0
 10
14.5208329468
 20
7.0866925047
 30
0.0
 10
14.5168574222
 20
7.083549269
 30
0.0
 10
14.5128851659
 20
7.0806528637
 30
0.0
 10
14.5089169083
 20
7.0780040154
 30
0.0
 10
14.5037067848
 20
7.0748481866
 30
0.0
 10
14.4984306304
 20
7.0721302201
 30
0.0
 10
14.4931067704
 20
7.0699000572
 30
0.0
 10
14.489174738
 20
7.0684999772
 30
0.0
 10
14.4852531458
 20
7.0673514353
 30
0.0
 10
14.4813429555
 20
7.0664549062
 30
0.0
 10
14.4774453519
 20
7.0658107281
 30
0.0
 10
14.4735614928
 20
7.0654191925
 30
0.0
 10
14.4696925799
 20
7.0652805943
 30
0.0
 10
14.46583985
 20
7.0653949884
 30
0.0
 10
14.4620045346
 20
7.0657623216
 30
0.0
 10
14.4581878713
 20
7.0663825317
 30
0.0
 10
14.4543910751
 20
7.0672553591
 30
0.0
 10
14.4506153037
 20
7.0683803848
 30
0.0
 10
14.4468616883
 20
7.06975721
 30
0.0
 10
14.4431313442
 20
7.0713853191
 30
0.0
 10
14.4394251987
 20
7.0732640933
 30
0.0
 10
14.4344538659
 20
7.076139141
 30
0.0
 10
14.4282948503
 20
7.0803902728
 30
0.0
 10
14.4224034969
 20
7.0853365436
 30
0.0
 10
14.4177518289
 20
7.0897605008
 30
0.0
 10
14.4129988313
 20
7.0946524149
 30
0.0
 10
14.409593238
 20
7.0985785731
 30
0.0
 10
14.4073760721
 20
7.1013046935
 30
0.0
  0
SPLINE
  5
305
100
AcDbEntity
  8
0
100
AcDbSpline
 62
7
  6
CONTINUOUS
 70
0
 71
3
 72
41
 73
37
 74
0
 42
0.0000001
 43
0.0000001
 44
0.0000000001
 40
0.0
 40
0.0
 40
0.0
 40
0.0
 40
0.0311445023
 40
0.0624426262
 40
0.0938874266
 40
0.1254698196
 40
0.1571774021
 40
0.173076041
 40
0.1890002642
 40
0.2209118757
 40
0.2528982414
 40
0.2689155192
 40
0.2849438007
 40
0.3170178868
 40
0.3491032421
 40
0.3811777079
 40
0.4132193358
 40
0.4452068114
 40
0.4771198707
 40
0.5089397015
 40
0.540649324
 40
0.5722339448
 40
0.6036812775
 40
0.6349818227
 40
0.6661291006
 40
0.6971198291
 40
0.7279540411
 40
0.7586351339
 40
0.7891698461
 40
0.8195681577
 40
0.8498431118
 40
0.8800105574
 40
0.9100888178
 40
0.9400982893
 40
0.9700609798
 40
1.0
 40
1.0
 40
1.0
 40
1.0
 10
7.6422889712
 20
6.8354207904
 30
0.0
 10
7.6372649733
 20
6.8357692058
 30
0.0
 10
7.6272139591
 20
6.8368355105
 30
0.0
 10
7.6122593357
 20
6.8395214737
 30
0.0
 10
7.5974647748
 20
6.8432838389
 30
0.0
 10
7.5829106609
 20
6.8481020427
 30
0.0
 10
7.571055899
 20
6.8529720717
 30
0.0
 10
7.5617683126
 20
6.8573662438
 30
0.0
 10
7.5526092216
 20
6.8620948104
 30
0.0
 10
7.5414532732
 20
6.8686080855
 30
0.0
 10
7.5307588716
 20
6.8758808802
 30
0.0
 10
7.5225057046
 20
6.8821359882
 30
0.0
 10
7.5144601964
 20
6.8886784821
 30
0.0
 10
7.5048241244
 20
6.8973707964
 30
0.0
 10
7.4939984535
 20
6.9085652964
 30
0.0
 10
7.4839637465
 20
6.9204675931
 30
0.0
 10
7.4747738671
 20
6.9330139799
 30
0.0
 10
7.4664777332
 20
6.9461376777
 30
0.0
 10
7.4591196419
 20
6.9597687397
 30
0.0
 10
7.4527388784
 20
6.9738345396
 30
0.0
 10
7.447369549
 20
6.9882601219
 30
0.0
 10
7.443040388
 20
7.0029686042
 30
0.0
 10
7.4397746066
 20
7.0178815799
 30
0.0
 10
7.4375897653
 20
7.0329195307
 30
0.0
 10
7.4364976772
 20
7.0480022447
 30
0.0
 10
7.4365043393
 20
7.0630492391
 30
0.0
 10
7.4376098939
 20
7.0779801855
 30
0.0
 10
7.4398086193
 20
7.0927153349
 30
0.0
 10
7.443088951
 20
7.1071759422
 30
0.0
 10
7.4474335353
 20
7.1212846889
 30
0.0
 10
7.4528193049
 20
7.1349660924
 30
0.0
 10
7.4592176189
 20
7.148146941
 30
0.0
 10
7.4665943098
 20
7.160756599
 30
0.0
 10
7.4749102252
 20
7.1727277461
 30
0.0
 10
7.4841200776
 20
7.1839954431
 30
0.0
 10
7.490826071
 20
7.191000975
 30
0.0
 10
7.4943080835
 20
7.1943643377
 30
0.0
  0
SPLINE
  5
306
100
AcDbEntity
  8
0
100
AcDbSpline
 62
7
  6
CONTINUOUS
 70
0
 71
3
 72
62
 73
58
 74
0
 42
0.0000001
 43
0.0000001
 44
0.0000000001
 40
0.0
 40
0.0
 40
0.0
 40
0.0
 40
0.0095824259
 40
0.0187368494
 40
0.0274865717
 40
0.0358592106
 40
0.0438873351
 40
0.0516086482
 40
0.0590663659
 40
0.0663090139
 40
0.0733901197
 40
0.080367297
 40
0.0873010143
 40
0.0942529729
 40
0.1012843561
 40
0.1084541168
 40
0.1158175947
 40
0.1234254192
 40
0.1313230316
 40
0.1395503494
 40
0.1481420404
 40
0.1571276655
 40
0.1665322652
 40
0.1763767002
 40
0.1866782104
 40
0.1974508234
 40
0.2087057272
 40
0.220451714
 40
0.2326953346
 40
0.2454413661
 40
0.2586927915
 40
0.272451258
 40
0.286716969
 40
0.301489074
 40
0.3167655708
 40
0.3325435694
 40
0.3488192759
 40
0.365588102
 40
0.3828447608
 40
0.4005832265
 40
0.4187969368
 40
0.4374786357
 40
0.4566206431
 40
0.476214643
 40
0.4962519552
 40
0.5167233437
 40
0.5376192242
 40
0.5589295519
 40
0.6027510509
 40
0.6481008702
 40
0.6948861726
 40
0.7430093679
 40
0.7923685176
 40
0.8428579532
 40
0.8943681644
 40
0.9467874663
 40
1.0
 40
1.0
 40
1.0
 40
1.0
 10
14.5324975517
 20
8.9054957744
 30
0.0
 10
14.5344229398
 20
8.9072877152
 30
0.0
 10
14.5382719587
 20
8.9107027324
 30
0.0
 10
14.5441776198
 20
8.915404036
 30
0.0
 10
14.5500770878
 20
8.9195613613
 30
0.0
 10
14.5559672622
 20
8.9231716672
 30
0.0
 10
14.5618450527
 20
8.9262325163
 30
0.0
 10
14.567707436
 20
8.9287412168
 30
0.0
 10
14.5735510435
 20
8.9306955272
 30
0.0
 10
14.5793723442
 20
8.932093057
 30
0.0
 10
14.58516731
 20
8.9329320016
 30
0.0
 10
14.5909315546
 20
8.9332108519
 30
0.0
 10
14.596660332
 20
8.9329289386
 30
0.0
 10
14.6023487958
 20
8.9320864308
 30
0.0
 10
14.6079922092
 20
8.9306842882
 30
0.0
 10
14.6135862513
 20
8.9287243932
 30
0.0
 10
14.6191269802
 20
8.9262089088
 30
0.0
 10
14.624611064
 20
8.9231406264
 30
0.0
 10
14.6300353578
 20
8.9195221769
 30
0.0
 10
14.6353971783
 20
8.9153566071
 30
0.0
 10
14.6406937457
 20
8.9106467581
 30
0.0
 10
14.6459225416
 20
8.9053958288
 30
0.0
 10
14.6510808577
 20
8.8996069975
 30
0.0
 10
14.6561660963
 20
8.8932837748
 30
0.0
 10
14.6611755484
 20
8.8864298507
 30
0.0
 10
14.6661064954
 20
8.8790492103
 30
0.0
 10
14.6709562523
 20
8.8711461505
 30
0.0
 10
14.6757220239
 20
8.8627252273
 30
0.0
 10
14.6804011828
 20
8.8537913713
 30
0.0
 10
14.6849909249
 20
8.8443497525
 30
0.0
 10
14.6894886944
 20
8.8344059267
 30
0.0
 10
14.6938917459
 20
8.82396569
 30
0.0
 10
14.6981975919
 20
8.8130352033
 30
0.0
 10
14.7024036022
 20
8.8016208816
 30
0.0
 10
14.7065073516
 20
8.7897294709
 30
0.0
 10
14.7105063617
 20
8.7773679866
 30
0.0
 10
14.7143982718
 20
8.7645437428
 30
0.0
 10
14.7181807724
 20
8.7512643305
 30
0.0
 10
14.7218515792
 20
8.737537616
 30
0.0
 10
14.7254085536
 20
8.7233717403
 30
0.0
 10
14.7288495074
 20
8.7087751042
 30
0.0
 10
14.732172464
 20
8.6937563738
 30
0.0
 10
14.7353753578
 20
8.6783244647
 30
0.0
 10
14.7384563574
 20
8.6624885442
 30
0.0
 10
14.7414135498
 20
8.6462580199
 30
0.0
 10
14.7442452273
 20
8.6296425406
 30
0.0
 10
14.7469496692
 20
8.6126519682
 30
0.0
 10
14.7504159842
 20
8.5892940052
 30
0.0
 10
14.7544079773
 20
8.5592300845
 30
0.0
 10
14.7586234931
 20
8.5221487593
 30
0.0
 10
14.7622972586
 20
8.483823597
 30
0.0
 10
14.7654204307
 20
8.4443457785
 30
0.0
 10
14.7679854695
 20
8.4038090694
 30
0.0
 10
14.7699861599
 20
8.3623099097
 30
0.0
 10
14.7714176904
 20
8.3199468286
 30
0.0
 10
14.7722765431
 20
8.2768208138
 30
0.0
 10
14.7724646747
 20
8.2478259671
 30
0.0
 10
14.7724646747
 20
8.2332198723
 30
0.0
  0
SPLINE
  5
307
100
AcDbEntity
  8
0
100
AcDbSpline
 62
7
  6
CONTINUOUS
 70
0
 71
3
 72
42
 73
38
 74
0
 42
0.0000001
 43
0.0000001
 44
0.0000000001
 40
0.0
 40
0.0
 40
0.0
 40
0.0
 40
0.031144028
 40
0.0467773834
 40
0.0624473586
 40
0.093891729
 40
0.1254739719
 40
0.1571813013
 40
0.1889991584
 40
0.2209105411
 40
0.2528966817
 40
0.2849373338
 40
0.3170111966
 40
0.3490963275
 40
0.381170568
 40
0.4132119707
 40
0.4451992228
 40
0.4771120617
 40
0.5089316758
 40
0.5406410848
 40
0.5722254935
 40
0.6036726138
 40
0.6349729465
 40
0.6661200124
 40
0.6971105309
 40
0.727944536
 40
0.7586254253
 40
0.7891599372
 40
0.81955805
 40
0.8498328043
 40
0.8649315682
 40
0.8800056579
 40
0.9100837141
 40
0.9400929792
 40
0.9550815062
 40
0.9700611896
 40
1.0
 40
1.0
 40
1.0
 40
1.0
 10
10.1517642917
 20
6.6584903347
 30
0.0
 10
10.1480847884
 20
6.6587455091
 30
0.0
 10
10.1425696027
 20
6.6593306624
 30
0.0
 10
10.1352669974
 20
6.6605064888
 30
0.0
 10
10.1279759829
 20
6.6619500996
 30
0.0
 10
10.1189353218
 20
6.6642491882
 30
0.0
 10
10.108276011
 20
6.6677780227
 30
0.0
 10
10.097848911
 20
6.6720614849
 30
0.0
 10
10.0877099568
 20
6.6770765206
 30
0.0
 10
10.0779130771
 20
6.6827963839
 30
0.0
 10
10.0685104968
 20
6.689190519
 30
0.0
 10
10.0595523107
 20
6.6962248168
 30
0.0
 10
10.0510862547
 20
6.7038617592
 30
0.0
 10
10.043157441
 20
6.712060626
 30
0.0
 10
10.0358081285
 20
6.7207777148
 30
0.0
 10
10.0290774983
 20
6.7299665708
 30
0.0
 10
10.0230014477
 20
6.7395782318
 30
0.0
 10
10.0176124003
 20
6.7495614855
 30
0.0
 10
10.012939135
 20
6.759863139
 30
0.0
 10
10.0090066324
 20
6.7704282978
 30
0.0
 10
10.0058359432
 20
6.7812006553
 30
0.0
 10
10.0034440646
 20
6.7921227853
 30
0.0
 10
10.0018438534
 20
6.8031364483
 30
0.0
 10
10.0010439591
 20
6.8141828991
 30
0.0
 10
10.0010487714
 20
6.8252031922
 30
0.0
 10
10.0018583982
 20
6.8361385044
 30
0.0
 10
10.003468638
 20
6.8469304028
 30
0.0
 10
10.005871072
 20
6.8575213146
 30
0.0
 10
10.0090528184
 20
6.8678542437
 30
0.0
 10
10.0123432792
 20
6.8762129884
 30
0.0
 10
10.0153460386
 20
6.8827131918
 30
0.0
 10
10.0185865448
 20
6.8890720856
 30
0.0
 10
10.0230858524
 20
6.896763487
 30
0.0
 10
10.0281638535
 20
6.9040734721
 30
0.0
 10
10.0325519497
 20
6.9096610849
 30
0.0
 10
10.0371494473
 20
6.915066264
 30
0.0
 10
10.0408327924
 20
6.9189143431
 30
0.0
 10
10.0433829771
 20
6.921377654
 30
0.0
  0
SPLINE
  5
308
100
AcDbEntity
  8
0
100
AcDbSpline
 62
7
  6
CONTINUOUS
 70
0
 71
3
 72
59
 73
55
 74
0
 42
0.0000001
 43
0.0000001
 44
0.0000000001
 40
0.0
 40
0.0
 40
0.0
 40
0.0
 40
0.0095821467
 40
0.0187369712
 40
0.0274867415
 40
0.0358591934
 40
0.0438870998
 40
0.0516083199
 40
0.0590660033
 40
0.0663085998
 40
0.0733896609
 40
0.0803668098
 40
0.087300521
 40
0.09425249
 40
0.101283904
 40
0.1084537049
 40
0.1158172299
 40
0.1234251353
 40
0.131322794
 40
0.1395502227
 40
0.1481419754
 40
0.1571277033
 40
0.1665323992
 40
0.1763769094
 40
0.1866785429
 40
0.1974512268
 40
0.2087062439
 40
0.2204523196
 40
0.2326960261
 40
0.2454421585
 40
0.2586936669
 40
0.2724522139
 40
0.2867180262
 40
0.3014901792
 40
0.3167667858
 40
0.3325448312
 40
0.3488206197
 40
0.3655895205
 40
0.3828462148
 40
0.4005847778
 40
0.418798505
 40
0.437480288
 40
0.4762156161
 40
0.5167237306
 40
0.55892943
 40
0.6027509884
 40
0.6481008402
 40
0.6948861679
 40
0.7430093738
 40
0.7923685352
 40
0.8428580748
 40
0.89436795
 40
0.9467879518
 40
1.0
 40
1.0
 40
1.0
 40
1.0
 10
14.3064611598
 20
6.4559424958
 30
0.0
 10
14.3050459353
 20
6.4546254199
 30
0.0
 10
14.3022166724
 20
6.4521153082
 30
0.0
 10
14.2978757561
 20
6.44865964
 30
0.0
 10
14.2935392894
 20
6.4456039296
 30
0.0
 10
14.2892098044
 20
6.4429503126
 30
0.0
 10
14.2848894128
 20
6.4407006555
 30
0.0
 10
14.2805803532
 20
6.4388567941
 30
0.0
 10
14.2762850816
 20
6.4374203842
 30
0.0
 10
14.2720061907
 20
6.4363932835
 30
0.0
 10
14.2677466744
 20
6.4357767374
 30
0.0
 10
14.2635097382
 20
6.4355718806
 30
0.0
 10
14.2592988757
 20
6.4357792415
 30
0.0
 10
14.2551176351
 20
6.4363985858
 30
0.0
 10
14.250969522
 20
6.437429357
 30
0.0
 10
14.2468576947
 20
6.4388700569
 30
0.0
 10
14.2427850386
 20
6.440719116
 30
0.0
 10
14.2387540681
 20
6.4429745743
 30
0.0
 10
14.2347669634
 20
6.4456343083
 30
0.0
 10
14.2308258805
 20
6.4486963225
 30
0.0
 10
14.2269326664
 20
6.4521582934
 30
0.0
 10
14.2230893321
 20
6.456018044
 30
0.0
 10
14.2192977829
 20
6.4602731471
 30
0.0
 10
14.2155599229
 20
6.4649210321
 30
0.0
 10
14.2118778277
 20
6.4699590371
 30
0.0
 10
14.2082533684
 20
6.4753841574
 30
0.0
 10
14.2046886446
 20
6.481193304
 30
0.0
 10
14.2011856201
 20
6.4873830808
 30
0.0
 10
14.1977462653
 20
6.4939498833
 30
0.0
 10
14.1943726471
 20
6.5008899139
 30
0.0
 10
14.1910666201
 20
6.508199078
 30
0.0
 10
14.187830212
 20
6.5158731219
 30
0.0
 10
14.1846652798
 20
6.5239075204
 30
0.0
 10
14.1815736805
 20
6.5322975433
 30
0.0
 10
14.1785573102
 20
6.5410382554
 30
0.0
 10
14.1756178683
 20
6.5501244766
 30
0.0
 10
14.1727571872
 20
6.5595508489
 30
0.0
 10
14.1699769204
 20
6.5693117822
 30
0.0
 10
14.1672787222
 20
6.5794014961
 30
0.0
 10
14.1646642564
 20
6.58981401
 30
0.0
 10
14.1621349831
 20
6.6005431525
 30
0.0
 10
14.1588385991
 20
6.615442379
 30
0.0
 10
14.1549539272
 20
6.6348162359
 30
0.0
 10
14.1507094151
 20
6.6589512092
 30
0.0
 10
14.146837876
 20
6.6841873809
 30
0.0
 10
14.1433486232
 20
6.7104647772
 30
0.0
 10
14.1402500806
 20
6.7377210862
 30
0.0
 10
14.1375497259
 20
6.7658915799
 30
0.0
 10
14.1352540832
 20
6.7949093372
 30
0.0
 10
14.1333686908
 20
6.8247054308
 30
0.0
 10
14.131898128
 20
6.855208895
 30
0.0
 10
14.1308458833
 20
6.8863475123
 30
0.0
 10
14.1302146139
 20
6.9180467978
 30
0.0
 10
14.1300763201
 20
6.9393591886
 30
0.0
 10
14.1300763201
 20
6.9500951422
 30
0.0
  0
SPLINE
  5
309
100
AcDbEntity
  8
0
100
AcDbSpline
 62
7
  6
CONTINUOUS
 70
0
 71
3
 72
15
 73
11
 74
0
 42
0.0000001
 43
0.0000001
 44
0.0000000001
 40
0.0
 40
0.0
 40
0.0
 40
0.0
 40
0.1334967241
 40
0.2649187233
 40
0.3940556959
 40
0.5207372129
 40
0.6447996714
 40
0.7661038146
 40
0.88453393
 40
1.0
 40
1.0
 40
1.0
 40
1.0
 10
9.4739897388
 20
7.2029875845
 30
0.0
 10
9.4755870677
 20
7.1990649358
 30
0.0
 10
9.4788962308
 20
7.1913364125
 30
0.0
 10
9.4842404735
 20
7.1800310529
 30
0.0
 10
9.4899138912
 20
7.1691300707
 30
0.0
 10
9.4958997221
 20
7.1586654555
 30
0.0
 10
9.5021808435
 20
7.1486674301
 30
0.0
 10
9.5087390879
 20
7.1391649899
 30
0.0
 10
9.5155552719
 20
7.1301859791
 30
0.0
 10
9.5203200742
 20
7.1244924657
 30
0.0
 10
9.5227416484
 20
7.1217436271
 30
0.0
  0
SPLINE
  5
30A
100
AcDbEntity
  8
0
100
AcDbSpline
 62
7
  6
CONTINUOUS
 70
0
 71
3
 72
52
 73
48
 74
0
 42
0.0000001
 43
0.0000001
 44
0.0000000001
 40
0.0
 40
0.0
 40
0.0
 40
0.0
 40
0.006315855
 40
0.0126706206
 40
0.0191024263
 40
0.0256479374
 40
0.0323417941
 40
0.0392161045
 40
0.0536138683
 40
0.0611945479
 40
0.0690562617
 40
0.0772173543
 40
0.085693692
 40
0.0944990462
 40
0.103645138
 40
0.1131418498
 40
0.1229975739
 40
0.1332191689
 40
0.1438121987
 40
0.1547811893
 40
0.1661295086
 40
0.177859629
 40
0.1899732811
 40
0.2024712964
 40
0.2153538898
 40
0.2286207133
 40
0.2422707053
 40
0.2563023772
 40
0.2707137798
 40
0.3006646127
 40
0.3320997422
 40
0.3649888938
 40
0.3992966149
 40
0.4349829397
 40
0.4720037572
 40
0.5103111361
 40
0.549853795
 40
0.5905773573
 40
0.6324244925
 40
0.67533528
 40
0.7192474126
 40
0.7640962686
 40
0.8098153865
 40
0.8563361567
 40
0.9035880144
 40
0.9515017685
 40
1.0
 40
1.0
 40
1.0
 40
1.0
 10
14.1963682231
 20
6.3780453016
 30
0.0
 10
14.1951005822
 20
6.3781332068
 30
0.0
 10
14.1925634791
 20
6.3784133103
 30
0.0
 10
14.188786268
 20
6.3791434942
 30
0.0
 10
14.1850342977
 20
6.3801835697
 30
0.0
 10
14.181309764
 20
6.3815327539
 30
0.0
 10
14.1776141558
 20
6.3831903203
 30
0.0
 10
14.1726519134
 20
6.3858503136
 30
0.0
 10
14.1678244555
 20
6.3891065994
 30
0.0
 10
14.163152683
 20
6.3928800874
 30
0.0
 10
14.1596239246
 20
6.3960615972
 30
0.0
 10
14.156132865
 20
6.3995437787
 30
0.0
 10
14.1526803326
 20
6.4033253513
 30
0.0
 10
14.1492677864
 20
6.4074047263
 30
0.0
 10
14.1458964741
 20
6.4117802355
 30
0.0
 10
14.1425676465
 20
6.4164500587
 30
0.0
 10
14.1392826636
 20
6.4214123502
 30
0.0
 10
14.1360427842
 20
6.4266650737
 30
0.0
 10
14.1328492617
 20
6.4322060853
 30
0.0
 10
14.1297034426
 20
6.4380331722
 30
0.0
 10
14.126606545
 20
6.4441439386
 30
0.0
 10
14.1235598111
 20
6.450535894
 30
0.0
 10
14.1205645414
 20
6.4572064569
 30
0.0
 10
14.1176219005
 20
6.4641528779
 30
0.0
 10
14.1147330999
 20
6.47137232
 30
0.0
 10
14.1118993715
 20
6.4788618437
 30
0.0
 10
14.1091218259
 20
6.4866183555
 30
0.0
 10
14.106401607
 20
6.4946386914
 30
0.0
 10
14.1028064535
 20
6.505823778
 30
0.0
 10
14.0984745022
 20
6.5204476581
 30
0.0
 10
14.0935867103
 20
6.5387763743
 30
0.0
 10
14.0889530639
 20
6.5580735032
 30
0.0
 10
14.0845812449
 20
6.5783072834
 30
0.0
 10
14.0804785497
 20
6.5994445698
 30
0.0
 10
14.0766518258
 20
6.6214506266
 30
0.0
 10
14.073107421
 20
6.6442892574
 30
0.0
 10
14.0698512478
 20
6.6679228736
 30
0.0
 10
14.0668887578
 20
6.6923125593
 30
0.0
 10
14.0642248637
 20
6.7174181263
 30
0.0
 10
14.0618640005
 20
6.7431981943
 30
0.0
 10
14.0598101281
 20
6.769610259
 30
0.0
 10
14.0580666556
 20
6.796610788
 30
0.0
 10
14.0566364874
 20
6.8241552345
 30
0.0
 10
14.0555220236
 20
6.8521980694
 30
0.0
 10
14.0547250994
 20
6.8806934164
 30
0.0
 10
14.0542471188
 20
6.9095937362
 30
0.0
 10
14.0541421478
 20
6.9289910141
 30
0.0
 10
14.0541421478
 20
6.9387483597
 30
0.0
  0
SPLINE
  5
30B
100
AcDbEntity
  8
0
100
AcDbSpline
 62
7
  6
CONTINUOUS
 70
0
 71
3
 72
52
 73
48
 74
0
 42
0.0000001
 43
0.0000001
 44
0.0000000001
 40
0.0
 40
0.0
 40
0.0
 40
0.0
 40
0.0063158506
 40
0.012670616
 40
0.0191024252
 40
0.0256479434
 40
0.0323418101
 40
0.0392161333
 40
0.0536139289
 40
0.0611946268
 40
0.0690563599
 40
0.0772174726
 40
0.0856938309
 40
0.094499206
 40
0.1036453186
 40
0.113142051
 40
0.1229977955
 40
0.1332194103
 40
0.1438124593
 40
0.1547814684
 40
0.1661298053
 40
0.1778599425
 40
0.1899736103
 40
0.2024716404
 40
0.2153542475
 40
0.2286210835
 40
0.242271087
 40
0.2563027691
 40
0.2707141808
 40
0.3006650281
 40
0.3321001672
 40
0.3649893235
 40
0.3992970443
 40
0.434983364
 40
0.4720041716
 40
0.510311536
 40
0.5498541761
 40
0.5905777153
 40
0.6324248233
 40
0.6753355799
 40
0.719247678
 40
0.7640964962
 40
0.8098155734
 40
0.8563363002
 40
0.903588112
 40
0.9515018181
 40
1.0
 40
1.0
 40
1.0
 40
1.0
 10
11.5999590263
 20
6.558106891
 30
0.0
 10
11.598691388
 20
6.5581948075
 30
0.0
 10
11.5961542901
 20
6.5584749335
 30
0.0
 10
11.5923770884
 20
6.5592051497
 30
0.0
 10
11.5886251274
 20
6.5602452564
 30
0.0
 10
11.5849006031
 20
6.5615944706
 30
0.0
 10
11.5812050045
 20
6.5632520659
 30
0.0
 10
11.5762427743
 20
6.5659120969
 30
0.0
 10
11.5714153297
 20
6.5691684172
 30
0.0
 10
11.56674357
 20
6.5729419366
 30
0.0
 10
11.5632148212
 20
6.5761234693
 30
0.0
 10
11.5597237712
 20
6.5796056727
 30
0.0
 10
11.5562712484
 20
6.5833872658
 30
0.0
 10
11.5528587117
 20
6.5874666603
 30
0.0
 10
11.5494874089
 20
6.5918421878
 30
0.0
 10
11.5461585908
 20
6.596512028
 30
0.0
 10
11.5428736173
 20
6.6014743354
 30
0.0
 10
11.5396337472
 20
6.6067270736
 30
0.0
 10
11.5364402341
 20
6.6122680987
 30
0.0
 10
11.5332944243
 20
6.618095198
 30
0.0
 10
11.5301975359
 20
6.6242059757
 30
0.0
 10
11.5271508111
 20
6.630597941
 30
0.0
 10
11.5241555504
 20
6.6372685128
 30
0.0
 10
11.5212129184
 20
6.6442149415
 30
0.0
 10
11.5183241267
 20
6.6514343902
 30
0.0
 10
11.515490407
 20
6.6589239193
 30
0.0
 10
11.51271287
 20
6.6666804353
 30
0.0
 10
11.5099926596
 20
6.6747007744
 30
0.0
 10
11.5063975175
 20
6.6858858631
 30
0.0
 10
11.5020655801
 20
6.7005097431
 30
0.0
 10
11.4971778037
 20
6.7188384557
 30
0.0
 10
11.4925441723
 20
6.7381355768
 30
0.0
 10
11.4881723675
 20
6.7583693451
 30
0.0
 10
11.4840696857
 20
6.7795066156
 30
0.0
 10
11.4802429746
 20
6.8015126527
 30
0.0
 10
11.4766985816
 20
6.8243512601
 30
0.0
 10
11.4734424192
 20
6.8479848495
 30
0.0
 10
11.4704799393
 20
6.8723745051
 30
0.0
 10
11.4678160542
 20
6.8974800389
 30
0.0
 10
11.465455199
 20
6.9232600707
 30
0.0
 10
11.4634013336
 20
6.9496720965
 30
0.0
 10
11.4616578672
 20
6.9766725841
 30
0.0
 10
11.4602277039
 20
7.004216987
 30
0.0
 10
11.4591132439
 20
7.0322597761
 30
0.0
 10
11.4583163225
 20
7.0607550757
 30
0.0
 10
11.4578383435
 20
7.0896553464
 30
0.0
 10
11.4577333729
 20
7.109052591
 30
0.0
 10
11.4577333729
 20
7.1188099198
 30
0.0
  0
SPLINE
  5
30C
100
AcDbEntity
  8
0
100
AcDbSpline
 62
7
  6
CONTINUOUS
 70
0
 71
3
 72
23
 73
19
 74
0
 42
0.0000001
 43
0.0000001
 44
0.0000000001
 40
0.0
 40
0.0
 40
0.0
 40
0.0
 40
0.0611764421
 40
0.1230805475
 40
0.1855945984
 40
0.248608167
 40
0.3120023202
 40
0.3756572174
 40
0.4394515551
 40
0.5032630123
 40
0.5669692536
 40
0.6304485593
 40
0.69358045
 40
0.7562466857
 40
0.8183317423
 40
0.8797223315
 40
0.9403148384
 40
1.0
 40
1.0
 40
1.0
 40
1.0
 10
9.4648608433
 20
7.410988494
 30
0.0
 10
9.4639558821
 20
7.4067937455
 30
0.0
 10
9.4622807036
 20
7.3983222766
 30
0.0
 10
9.4601828518
 20
7.3854715077
 30
0.0
 10
9.4584896998
 20
7.3724311321
 30
0.0
 10
9.4572060566
 20
7.3592391801
 30
0.0
 10
9.4563356795
 20
7.3459333619
 30
0.0
 10
9.4558810431
 20
7.3325520913
 30
0.0
 10
9.4558434435
 20
7.3191338935
 30
0.0
 10
9.4562230034
 20
7.3057174111
 30
0.0
 10
9.4570186473
 20
7.2923412907
 30
0.0
 10
9.458228066
 20
7.2790440597
 30
0.0
 10
9.4598477624
 20
7.2658640078
 30
0.0
 10
9.4618730874
 20
7.2528390773
 30
0.0
 10
9.4642982349
 20
7.2400068687
 30
0.0
 10
9.4671161887
 20
7.2274040426
 30
0.0
 10
9.4703188612
 20
7.2150673738
 30
0.0
 10
9.4727237617
 20
7.2069782393
 30
0.0
 10
9.4739897388
 20
7.2029875845
 30
0.0
  0
SPLINE
  5
30D
100
AcDbEntity
  8
0
100
AcDbSpline
 62
7
  6
CONTINUOUS
 70
0
 71
3
 72
11
 73
7
 74
0
 42
0.0000001
 43
0.0000001
 44
0.0000000001
 40
0.0
 40
0.0
 40
0.0
 40
0.0
 40
0.2578346853
 40
0.510819433
 40
0.7583760723
 40
1.0
 40
1.0
 40
1.0
 40
1.0
 10
9.4648608433
 20
7.410988494
 30
0.0
 10
9.4659253317
 20
7.4159226959
 30
0.0
 10
9.46823294
 20
7.4256567847
 30
0.0
 10
9.4722679034
 20
7.4399496494
 30
0.0
 10
9.4768300136
 20
7.4537494298
 30
0.0
 10
9.4802543732
 20
7.46269771
 30
0.0
 10
9.4820533612
 20
7.4670726293
 30
0.0
  0
SPLINE
  5
30E
100
AcDbEntity
  8
0
100
AcDbSpline
 62
7
  6
CONTINUOUS
 70
0
 71
3
 72
52
 73
48
 74
0
 42
0.0000001
 43
0.0000001
 44
0.0000000001
 40
0.0
 40
0.0
 40
0.0
 40
0.0
 40
0.1085859327
 40
0.1649102927
 40
0.222574234
 40
0.2815615892
 40
0.3418468243
 40
0.4033955319
 40
0.4661646331
 40
0.5301023438
 40
0.562492113
 40
0.5951503809
 40
0.6280677766
 40
0.661234036
 40
0.6946378719
 40
0.7282665679
 40
0.7621054776
 40
0.7961370489
 40
0.8303390876
 40
0.8474953609
 40
0.8646818789
 40
0.881892197
 40
0.899117636
 40
0.9077324724
 40
0.9163460394
 40
0.9249557166
 40
0.9335580913
 40
0.9421485626
 40
0.9507206641
 40
0.9549970798
 40
0.9592649646
 40
0.9635222145
 40
0.9677660567
 40
0.9719927229
 40
0.9761968909
 40
0.9803706711
 40
0.9845015796
 40
0.9865451227
 40
0.9885689916
 40
0.9905676863
 40
0.9925331759
 40
0.9944544836
 40
0.9963193786
 40
0.9972326631
 40
0.9981398258
 40
0.9990553703
 40
1.0
 40
1.0
 40
1.0
 40
1.0
 10
9.5049647075
 20
7.1090362739
 30
0.0
 10
9.5015633356
 20
7.1130233339
 30
0.0
 10
9.4966998998
 20
7.119343372
 30
0.0
 10
9.4907288131
 20
7.1282756411
 30
0.0
 10
9.4863912954
 20
7.135412201
 30
0.0
 10
9.4822611785
 20
7.1428892976
 30
0.0
 10
9.4783492705
 20
7.1506931533
 30
0.0
 10
9.4746671571
 20
7.1588087809
 30
0.0
 10
9.4712270488
 20
7.1672205648
 30
0.0
 10
9.4685845699
 20
7.174432212
 30
0.0
 10
9.4666032279
 20
7.1803341689
 30
0.0
 10
9.4651806761
 20
7.1848435987
 30
0.0
 10
9.4638305605
 20
7.1894143206
 30
0.0
 10
9.4625557507
 20
7.1940439627
 30
0.0
 10
9.4613596473
 20
7.1987300118
 30
0.0
 10
9.4602464054
 20
7.2034698067
 30
0.0
 10
9.4592212684
 20
7.2082604562
 30
0.0
 10
9.4582912247
 20
7.2130986779
 30
0.0
 10
9.4576041634
 20
7.2171626996
 30
0.0
 10
9.4571139004
 20
7.2204345045
 30
0.0
 10
9.4567784031
 20
7.2229000315
 30
0.0
 10
9.4564789567
 20
7.225373568
 30
0.0
 10
9.4562634214
 20
7.2274402797
 30
0.0
 10
9.4561148232
 20
7.2290965345
 30
0.0
 10
9.4560165263
 20
7.2303397319
 30
0.0
 10
9.4559328751
 20
7.231583403
 30
0.0
 10
9.4558658043
 20
7.2328269732
 30
0.0
 10
9.4558178996
 20
7.2340696248
 30
0.0
 10
9.4557968805
 20
7.2351042242
 30
0.0
 10
9.4557940828
 20
7.2359303447
 30
0.0
 10
9.4557999122
 20
7.2365481918
 30
0.0
 10
9.4558147975
 20
7.2371643204
 30
0.0
 10
9.4558402173
 20
7.237778124
 30
0.0
 10
9.4558781446
 20
7.2383887296
 30
0.0
 10
9.4559312949
 20
7.2389948406
 30
0.0
 10
9.4560036234
 20
7.2395943402
 30
0.0
 10
9.4560850753
 20
7.2400873781
 30
0.0
 10
9.4561683383
 20
7.2404742842
 30
0.0
 10
9.4562415483
 20
7.2407578673
 30
0.0
 10
9.4563284624
 20
7.2410336658
 30
0.0
 10
9.4564332513
 20
7.2412981031
 30
0.0
 10
9.4565619177
 20
7.2415446858
 30
0.0
 10
9.4566990152
 20
7.2417279721
 30
0.0
 10
9.4568332868
 20
7.2418457174
 30
0.0
 10
9.4569474808
 20
7.2419139317
 30
0.0
 10
9.4570759739
 20
7.2419547922
 30
0.0
 10
9.4571666593
 20
7.2419602352
 30
0.0
 10
9.4572121747
 20
7.2419575978
 30
0.0
  0
SPLINE
  5
30F
100
AcDbEntity
  8
0
100
AcDbSpline
 62
7
  6
CONTINUOUS
 70
0
 71
3
 72
36
 73
32
 74
0
 42
0.0000001
 43
0.0000001
 44
0.0000000001
 40
0.0
 40
0.0
 40
0.0
 40
0.0
 40
0.0069610081
 40
0.010672781
 40
0.014482087
 40
0.0183554305
 40
0.0222734415
 40
0.0301900878
 40
0.0381679169
 40
0.046175598
 40
0.0541979539
 40
0.0622266063
 40
0.0782852296
 40
0.0943342712
 40
0.1263799074
 40
0.1583502117
 40
0.1902464872
 40
0.2220729725
 40
0.2538337959
 40
0.2855324133
 40
0.3171716028
 40
0.3802799804
 40
0.4431716383
 40
0.5058542112
 40
0.5683321561
 40
0.6306077842
 40
0.6926819334
 40
0.7545543885
 40
0.8162241926
 40
0.8776897547
 40
1.0
 40
1.0
 40
1.0
 40
1.0
 10
9.4572121747
 20
7.2419575978
 30
0.0
 10
9.4573110886
 20
7.2419518661
 30
0.0
 10
9.4574607073
 20
7.2419046673
 30
0.0
 10
9.4576393878
 20
7.2418021826
 30
0.0
 10
9.4577710184
 20
7.2417068086
 30
0.0
 10
9.4578964715
 20
7.2415992959
 30
0.0
 10
9.4580569243
 20
7.2414434219
 30
0.0
 10
9.4582443939
 20
7.2412322922
 30
0.0
 10
9.4584534549
 20
7.2409637159
 30
0.0
 10
9.4586506238
 20
7.2406845009
 30
0.0
 10
9.4588382245
 20
7.2403979561
 30
0.0
 10
9.4590779152
 20
7.2400087665
 30
0.0
 10
9.4593613789
 20
7.2395125996
 30
0.0
 10
9.4597899924
 20
7.2387062168
 30
0.0
 10
9.4602911502
 20
7.2376824093
 30
0.0
 10
9.4608582372
 20
7.2364405052
 30
0.0
 10
9.4614013194
 20
7.235191343
 30
0.0
 10
9.4619270917
 20
7.2339380655
 30
0.0
 10
9.4624399321
 20
7.2326824899
 30
0.0
 10
9.4629429245
 20
7.2314258155
 30
0.0
 10
9.4636028305
 20
7.2297513754
 30
0.0
 10
9.4644131558
 20
7.2276590245
 30
0.0
 10
9.4653724467
 20
7.225150569
 30
0.0
 10
9.4663238088
 20
7.222648695
 30
0.0
 10
9.4672714939
 20
7.2201548045
 30
0.0
 10
9.4682185623
 20
7.2176699441
 30
0.0
 10
9.4691673148
 20
7.2151949523
 30
0.0
 10
9.4701195157
 20
7.2127305259
 30
0.0
 10
9.4710765516
 20
7.210277266
 30
0.0
 10
9.4723583452
 20
7.2070273394
 30
0.0
 10
9.4733331766
 20
7.2045999405
 30
0.0
 10
9.4739897388
 20
7.2029875845
 30
0.0
  0
ELLIPSE
  5
310
100
AcDbEntity
  8
0
100
AcDbEllipse
 62
7
  6
CONTINUOUS
 10
9.2766355389
 20
7.3141910721
 30
0.0
 11
0.3066396567
 21
-0.1103555434
 31
0.0
 40
0.7275080268
 41
0.0
 42
6.2831853072
  0
ELLIPSE
  5
311
100
AcDbEntity
  8
0
100
AcDbEllipse
 62
7
  6
CONTINUOUS
 10
9.9392608
 20
8.0602970718
 30
0.0
 11
0.2756863353
 21
-0.0688301778
 31
0.0
 40
0.8425784216
 41
0.0
 42
6.2831853072
  0
ENDSEC
  0
SECTION
  2
OBJECTS
  0
DICTIONARY
  5
C
100
AcDbDictionary
280
0
281
1
  3
ACAD_GROUP
350
D
  3
ACAD_MLINESTYLE
350
17
  3
ACAD_LAYOUT
350
1A
  3
ACAD_PLOTSETTINGS
350
19
  3
ACAD_PLOTSTYLENAME
350
E
  3
ACAD_IMAGE_DICT
350
       313
  3
ACAD_IMAGE_VARS
350
       314
  3
ACAD_TABLESTYLE
350
       315
  0
IMAGEDEF_REACTOR
  5
312
100
AcDbRasterImageDefReactor
 90
2
330
288
  0
DICTIONARY
  5
D
102
{ACAD_REACTORS
330
C
102
}
100
AcDbDictionary
280
0
281
1
  0
ACDBDICTIONARYWDFLT
  5
E
102
{ACAD_REACTORS
330
C
102
}
100
AcDbDictionary
281
1
  3
Normal
350
F
100
AcDbDictionaryWithDefault
340
F
  0
DICTIONARY
  5
313
330
C
100
AcDbDictionary
281
1
  3
W4L_assy_2_img_1
350
       318
  0
RASTERVARIABLES
  5
314
330
C
100
AcDbRasterVariables
 90
0
 70
0
 71
1
 72
5
  0
DICTIONARY
  5
17
102
{ACAD_REACTORS
330
C
102
}
100
AcDbDictionary
280
0
281
1
  3
Standard
350
18
  0
DICTIONARY
  5
315
330
C
100
AcDbDictionary
281
1
  3
Standard
350
       319
  3
Standard1
350
       31A
  0
DICTIONARY
  5
19
102
{ACAD_REACTORS
330
C
102
}
100
AcDbDictionary
281
1
  0
DICTIONARY
  5
1A
102
{ACAD_REACTORS
330
C
102
}
100
AcDbDictionary
281
1
  3
Model
350
316
  3
Layout1
350
317
  0
ACDBPLACEHOLDER
  5
F
102
{ACAD_REACTORS
330
E
102
}
  0
MLINESTYLE
  5
18
102
{ACAD_REACTORS
330
17
102
}
100
AcDbMlineStyle
  2
STANDARD
 70
0
  3

 62
256
 51
90.0
 52
90.0
 71
2
 49
0.5
 62
256
  6
BYLAYER
 49
-0.5
 62
256
  6
BYLAYER
  0
LAYOUT
  5
316
102
{ACAD_REACTORS
330
1A
102
}
100
AcDbPlotSettings
  1

  2
none_device
  4
ANSI_C_(22.00_x_17.00_Inches)
  6

 40
0.0
 41
0.0
 42
0.0
 43
0.0
 44
558.8
 45
431.8
 46
0.0
 47
0.0
 48
0.0
 49
0.0
140
0.0
141
0.0
142
1.0
143
1.0
 70
1024
 72
0
 73
0
 74
0
  7

 75
0
147
1.0
148
0.0
149
0.0
100
AcDbLayout
  1
Model
 70
0
 71
0
 10
0.0
 20
0.0
 11
22.0
 21
17.0
 12
0.0
 22
0.0
 32
0.0
 14
0.0
 24
0.0
 34
0.0
 15
0.0
 25
0.0
 35
0.0
146
0.0
 13
0.0
 23
0.0
 33
0.0
 16
1.0
 26
0.0
 36
0.0
 17
0.0
 27
1.0
 37
0.0
 76
0
330
210
345
0
346
0
  0
LAYOUT
  5
317
102
{ACAD_REACTORS
330
1A
102
}
100
AcDbPlotSettings
  1

  2
none_device
  4
ANSI_C_(22.00_x_17.00_Inches)
  6

 40
0.0
 41
0.0
 42
0.0
 43
0.0
 44
558.8
 45
431.8
 46
0.0
 47
0.0
 48
0.0
 49
0.0
140
0.0
141
0.0
142
1.0
143
1.0
 70
0
 72
0
 73
0
 74
0
  7

 75
0
147
1.0
148
0.0
149
0.0
100
AcDbLayout
  1
Layout1
 70
0
 71
1
 10
0.0
 20
0.0
 11
22.0
 21
17.0
 12
0.0
 22
0.0
 32
0.0
 14
0.0
 24
0.0
 34
0.0
 15
0.0
 25
0.0
 35
0.0
146
0.0
 13
0.0
 23
0.0
 33
0.0
 16
1.0
 26
0.0
 36
0.0
 17
0.0
 27
1.0
 37
0.0
 76
0
330
211
345
0
346
0
  0
IMAGEDEF
  5
318
102
{ACAD_REACTORS
330
313
330
312
102
}
100
AcDbRasterImageDef
 90
0
  1
W4L_assy_2_img_1.png
 10
369.0
 20
92.0
 11
0.0066666667
 21
0.0066666667
280
1
281
0
  0
TABLESTYLE
  5
319
102
{ACAD_REACTORS
330
315
330
28B
330
28C
102
}
330
315
100
AcDbTableStyle
  3
Standard
 70
0
 71
0
 40
0.06
 41
0.06
280
1
281
1
  7
Standard
140
0.18
170
1
 62
0
 63
7
283
0
  7
Standard
140
0.18
170
1
 62
0
 63
7
283
0
  7
Standard
140
0.18
170
1
 62
0
 63
7
283
0
  0
TABLESTYLE
  5
31A
102
{ACAD_REACTORS
330
315
330
28A
102
}
330
315
100
AcDbTableStyle
  3
Standard1
 70
1
 71
0
 40
0.06
 41
0.06
280
1
281
1
  7
Standard
140
0.18
170
1
 62
0
 63
7
283
0
  7
Standard
140
0.18
170
1
 62
0
 63
7
283
0
  7
Standard
140
0.18
170
1
 62
0
 63
7
283
0
  0
ENDSEC
  0
EOF
