999
DXF file: W4I_assy_2.dxf
999
Pro/ENGINEER 2014200 by Parametric Technology Corporation
  0
SECTION
  2
HEADER
  9
$ACADVER
  1
AC1021
  9
$DWGCODEPAGE
  3
ANSI_1252
  9
$EXTMAX
 10
22.0
 20
17.0
 30
0.0
  9
$EXTMIN
 10
0.0
 20
0.0
 30
0.0
  9
$LIMMIN
 10
0.0
 20
0.0
  9
$LIMMAX
 10
22.0
 20
17.0
  9
$VIEWCTR
 10
11.0
 20
8.5
  9
$VIEWSIZE
 40
17.0
  9
$CLAYER
  8
0
  9
$LTSCALE
 40
1.21
  9
$CELTYPE
  6
BYLAYER
  9
$DIMSCALE
 40
1.0
  9
$DIMASZ
 40
0.1875
  9
$DIMEXO
 40
0.0625
  9
$DIMDLI
 40
0.836
  9
$DIMEXE
 40
0.125
  9
$DIMCEN
 40
0.198
  9
$DIMLFAC
 40
1.0
  9
$DIMBLK
  1
_FILLED
  9
$DIMTXT
 40
0.1
  9
$DIMTOL
 70
0
  9
$DIMLIM
 70
0
  9
$DIMTFAC
 40
1.0
  9
$DIMGAP
 40
0.09
  9
$DIMDSEP
 70
46
  9
$AUNITS
 70
0
  9
$PDMODE
 70
3
  9
$PDSIZE
 40
0.3125
  9
$HANDSEED
  5
34A
  9
$TILEMODE
 70
1
  9
$MEASUREMENT
 70
0
  9
$INSUNITS
 70
1
  0
ENDSEC
  0
SECTION
  2
CLASSES
  0
CLASS
  1
ACDBDICTIONARYWDFLT
  2
AcDbDictionaryWithDefault
  3
AutoCAD 2000
 90
0
 91
1
280
0
281
0
  0
CLASS
  1
ACDBPLACEHOLDER
  2
AcDbPlaceHolder
  3
AutoCAD 2000
 90
0
 91
1
280
0
281
0
  0
CLASS
  1
LAYOUT
  2
AcDbLayout
  3
AutoCAD 2000
 90
0
 91
0
280
0
281
0
  0
CLASS
  1
RASTERVARIABLES
  2
AcDbRasterVariables
  3
ISM
 90
0
 91
1
280
0
281
0
  0
CLASS
  1
IMAGEDEF
  2
AcDbRasterImageDef
  3
ISM
 90
0
 91
1
280
0
281
0
  0
CLASS
  1
IMAGEDEF_REACTOR
  2
AcDbRasterImageDefReactor
  3
ISM
 90
0
 91
1
280
0
281
0
  0
CLASS
  1
IMAGE
  2
AcDbRasterImage
  3
ISM
 90
127
 91
1
280
0
281
1
  0
CLASS
  1
TABLESTYLE
  2
AcDbTableStyle
  3
ObjectDBX Classes
 90
2047
 91
1
280
0
281
0
  0
CLASS
  1
ACAD_TABLE
  2
AcDbTable
  3
ObjectDBX Classes
 90
1025
 91
3
280
0
281
1
  0
ENDSEC
  0
SECTION
  2
TABLES
  0
TABLE
  2
VPORT
  5
8
100
AcDbSymbolTable
 70
2
  0
VPORT
  5
1F4
100
AcDbSymbolTableRecord
100
AcDbViewportTableRecord
  2
*ACTIVE
 70
0
 10
0.0
 20
0.0
 11
1.0
 21
1.0
 12
11.0
 22
8.5
 13
0.0
 23
0.0
 14
1.0
 24
1.0
 15
0.0
 25
0.0
 16
0.0
 26
0.0
 36
1.0
 17
0.0
 27
0.0
 37
0.0
 40
17.0
 41
1.2941176471
 42
50.0
 43
0.0
 44
0.0
 50
0.0
 51
0.0
 71
0
 72
100
 73
1
 74
1
 75
0
 76
0
 77
0
 78
0
  0
ENDTAB
  0
TABLE
  2
LTYPE
  5
5
100
AcDbSymbolTable
 70
6
  0
LTYPE
  5
14
100
AcDbSymbolTableRecord
100
AcDbLinetypeTableRecord
  2
BYBLOCK
 70
0
  3

 72
65
 73
0
 40
0.0
  0
LTYPE
  5
15
100
AcDbSymbolTableRecord
100
AcDbLinetypeTableRecord
  2
BYLAYER
 70
0
  3

 72
65
 73
0
 40
0.0
  0
LTYPE
  5
16
100
AcDbSymbolTableRecord
100
AcDbLinetypeTableRecord
  2
CONTINUOUS
 70
64
  3
Solid line
 72
65
 73
0
 40
0.0
  0
LTYPE
  5
1F5
100
AcDbSymbolTableRecord
100
AcDbLinetypeTableRecord
  2
CENTER
 70
64
  3
____ _ ____ _ ____ _ ____ _ ____ _ ____ _ ____
 72
65
 73
4
 40
0.6
 49
0.375
 74
0
 49
-0.075
 74
0
 49
0.075
 74
0
 49
-0.075
 74
0
  0
LTYPE
  5
1F6
100
AcDbSymbolTableRecord
100
AcDbLinetypeTableRecord
  2
HIDDEN
 70
64
  3
- - - - - - - - - - - - - - - - - - - -
 72
65
 73
2
 40
0.2
 49
0.1
 74
0
 49
-0.1
 74
0
  0
LTYPE
  5
1F7
100
AcDbSymbolTableRecord
100
AcDbLinetypeTableRecord
  2
PHANTOM
 70
64
  3
_____ _ _ _____ _ _ _____ _ _ _____
 72
65
 73
6
 40
0.8
 49
0.45
 74
0
 49
-0.05
 74
0
 49
0.1
 74
0
 49
-0.05
 74
0
 49
0.1
 74
0
 49
-0.05
 74
0
  0
LTYPE
  5
1F8
100
AcDbSymbolTableRecord
100
AcDbLinetypeTableRecord
  2
DOT
 70
64
  3
. . . . . . . . . . . . . . . . . . . .
 72
65
 73
2
 40
0.2
 49
0.1
 74
0
 49
-0.1
 74
0
  0
LTYPE
  5
1F9
100
AcDbSymbolTableRecord
100
AcDbLinetypeTableRecord
  2
DASHED
 70
64
  3
- - - - - - - - - - - - - - - - - - - -
 72
65
 73
2
 40
0.2
 49
0.1
 74
0
 49
-0.1
 74
0
  0
ENDTAB
  0
TABLE
  2
LAYER
  5
2
100
AcDbSymbolTable
 70
36
  0
LAYER
  5
10
100
AcDbSymbolTableRecord
100
AcDbLayerTableRecord
  2
0
 70
0
 62
7
  6
CONTINUOUS
370
-3
390
F
  0
LAYER
  5
1FA
100
AcDbSymbolTableRecord
100
AcDbLayerTableRecord
  2
DEFAULT_1
 70
0
 62
7
  6
CENTER
370
-3
390
F
  0
LAYER
  5
1FB
100
AcDbSymbolTableRecord
100
AcDbLayerTableRecord
  2
DEFAULT_2
 70
0
 62
8
  6
HIDDEN
370
-3
390
F
  0
LAYER
  5
1FC
100
AcDbSymbolTableRecord
100
AcDbLayerTableRecord
  2
DEFAULT_3
 70
0
 62
7
  6
PHANTOM
370
-3
390
F
  0
LAYER
  5
1FD
100
AcDbSymbolTableRecord
100
AcDbLayerTableRecord
  2
01___PRT_ALL_DTM_PLN
 70
0
 62
7
  6
CONTINUOUS
370
-3
390
F
  0
LAYER
  5
1FE
100
AcDbSymbolTableRecord
100
AcDbLayerTableRecord
  2
01___PRT_DEF_DTM_PLN
 70
0
 62
7
  6
CONTINUOUS
370
-3
390
F
  0
LAYER
  5
1FF
100
AcDbSymbolTableRecord
100
AcDbLayerTableRecord
  2
02___PRT_ALL_AXES
 70
0
 62
7
  6
CONTINUOUS
370
-3
390
F
  0
LAYER
  5
200
100
AcDbSymbolTableRecord
100
AcDbLayerTableRecord
  2
03___PRT_ALL_CURVES
 70
0
 62
7
  6
CONTINUOUS
370
-3
390
F
  0
LAYER
  5
201
100
AcDbSymbolTableRecord
100
AcDbLayerTableRecord
  2
04___PRT_ALL_DTM_PNT
 70
0
 62
7
  6
CONTINUOUS
370
-3
390
F
  0
LAYER
  5
202
100
AcDbSymbolTableRecord
100
AcDbLayerTableRecord
  2
05___PRT_ALL_DTM_CSYS
 70
0
 62
7
  6
CONTINUOUS
370
-3
390
F
  0
LAYER
  5
203
100
AcDbSymbolTableRecord
100
AcDbLayerTableRecord
  2
05___PRT_DEF_DTM_CSYS
 70
0
 62
7
  6
CONTINUOUS
370
-3
390
F
  0
LAYER
  5
204
100
AcDbSymbolTableRecord
100
AcDbLayerTableRecord
  2
06___PRT_ALL_SURFS
 70
0
 62
7
  6
CONTINUOUS
370
-3
390
F
  0
LAYER
  5
205
100
AcDbSymbolTableRecord
100
AcDbLayerTableRecord
  2
DATUM_PLANES
 70
0
 62
7
  6
CONTINUOUS
370
-3
390
F
  0
LAYER
  5
206
100
AcDbSymbolTableRecord
100
AcDbLayerTableRecord
  2
DIMENSIONS
 70
0
 62
7
  6
CONTINUOUS
370
-3
390
F
  0
LAYER
  5
207
100
AcDbSymbolTableRecord
100
AcDbLayerTableRecord
  2
DTM_500001
 70
0
 62
7
  6
CONTINUOUS
370
-3
390
F
  0
LAYER
  5
208
100
AcDbSymbolTableRecord
100
AcDbLayerTableRecord
  2
PARAMETERDIMENSIONS
 70
0
 62
7
  6
CONTINUOUS
370
-3
390
F
  0
LAYER
  5
209
100
AcDbSymbolTableRecord
100
AcDbLayerTableRecord
  2
PLANE
 70
0
 62
7
  6
CONTINUOUS
370
-3
390
F
  0
LAYER
  5
20A
100
AcDbSymbolTableRecord
100
AcDbLayerTableRecord
  2
PORT_AREAS
 70
0
 62
7
  6
CONTINUOUS
370
-3
390
F
  0
LAYER
  5
20B
100
AcDbSymbolTableRecord
100
AcDbLayerTableRecord
  2
SUNNBOMCOSMETIC
 70
0
 62
7
  6
CONTINUOUS
370
-3
390
F
  0
LAYER
  5
20C
100
AcDbSymbolTableRecord
100
AcDbLayerTableRecord
  2
SUNNBOMSTAMPING
 70
0
 62
7
  6
CONTINUOUS
370
-3
390
F
  0
LAYER
  5
20D
100
AcDbSymbolTableRecord
100
AcDbLayerTableRecord
  2
THREADS
 70
0
 62
7
  6
CONTINUOUS
370
-3
390
F
  0
ENDTAB
  0
TABLE
  2
STYLE
  5
3
100
AcDbSymbolTable
 70
1
  0
STYLE
  5
11
100
AcDbSymbolTableRecord
100
AcDbTextStyleTableRecord
  2
STANDARD
 70
0
 40
0.0
 41
0.8
 50
0.0
 71
0
 42
0.2
  3
txt
  4

  0
STYLE
  5
20E
100
AcDbSymbolTableRecord
100
AcDbTextStyleTableRecord
  2
TEXTSTYLE_1
 70
0
 40
0.0
 41
0.8
 50
0.0
 71
0
 42
0.2
  3
gdt
  4

  0
ENDTAB
  0
TABLE
  2
VIEW
  5
6
100
AcDbSymbolTable
 70
0
  0
ENDTAB
  0
TABLE
  2
UCS
  5
7
100
AcDbSymbolTable
 70
0
  0
ENDTAB
  0
TABLE
  2
APPID
  5
9
100
AcDbSymbolTable
 70
1
  0
APPID
  5
20F
100
AcDbSymbolTableRecord
100
AcDbRegAppTableRecord
  2
ACAD
 70
0
  0
ENDTAB
  0
TABLE
  2
BLOCK_RECORD
  5
1
100
AcDbSymbolTable
 70
0
  0
BLOCK_RECORD
  5
210
100
AcDbSymbolTableRecord
100
AcDbBlockTableRecord
  2
*Model_Space
  0
BLOCK_RECORD
  5
211
100
AcDbSymbolTableRecord
100
AcDbBlockTableRecord
  2
*Paper_Space
  0
BLOCK_RECORD
  5
212
100
AcDbSymbolTableRecord
100
AcDbBlockTableRecord
  2
SUN_FIRST_THIRD_ANGLE_BL0
  0
BLOCK_RECORD
  5
213
100
AcDbSymbolTableRecord
100
AcDbBlockTableRecord
  2
*T1
  0
BLOCK_RECORD
  5
214
100
AcDbSymbolTableRecord
100
AcDbBlockTableRecord
  2
*T2
  0
BLOCK_RECORD
  5
215
100
AcDbSymbolTableRecord
100
AcDbBlockTableRecord
  2
*T3
  0
ENDTAB
  0
TABLE
  2
DIMSTYLE
  5
A
100
AcDbSymbolTable
 70
1
100
AcDbDimStyleTable
 71
0
  0
DIMSTYLE
105
216
100
AcDbSymbolTableRecord
100
AcDbDimStyleTableRecord
  2
STANDARD
 70
0
  3

  4

 40
1.0
 41
0.1875
 42
0.0625
 43
0.38
 44
0.125
 45
0.0
 46
0.0
 47
0.001
 48
0.001
140
0.1
141
0.09
142
0.0
143
25.4
144
1.0
145
0.0
146
1.0
147
0.09
 71
0.0
 72
0.0
 73
1
 74
1
 75
0
 76
0
 77
0
 78
4
170
0
171
2
172
0
173
0
174
0
175
0
176
0
177
0
178
0
270
2
271
3
272
3
273
2
274
2
275
0
280
0
281
0
282
0
283
1
284
4
285
0
286
0
287
3
288
0
340
11
278
46
  0
ENDTAB
  0
ENDSEC
  0
SECTION
  2
BLOCKS
  0
BLOCK
  5
20
100
AcDbEntity
  8
0
100
AcDbBlockBegin
  2
*Model_Space
 70
0
 10
0.0
 20
0.0
 30
0.0
  3
*Model_Space
  1

  0
ENDBLK
  5
21
100
AcDbEntity
  8
0
100
AcDbBlockEnd
  0
BLOCK
  5
1C
100
AcDbEntity
  8
0
100
AcDbBlockBegin
  2
*Paper_Space
 70
0
 10
0.0
 20
0.0
 30
0.0
  3
*Paper_Space
  1

  0
ENDBLK
  5
1D
100
AcDbEntity
  8
0
100
AcDbBlockEnd
  0
BLOCK
  5
217
100
AcDbEntity
  8
0
100
AcDbBlockBegin
 62
2
  6
CONTINUOUS
  2
SUN_FIRST_THIRD_ANGLE_BL0
 70
64
 10
20.4816717061
 20
1.2289683772
  3
SUN_FIRST_THIRD_ANGLE_BL0
  1

  0
TEXT
  5
218
100
AcDbEntity
  8
0
100
AcDbText
 62
2
  6
CONTINUOUS
 10
19.4750896608
 20
1.4136269581
  7
STANDARD
 40
0.08
  1
FIRST ANGLE
 41
0.8
 72
0
100
AcDbText
  0
TEXT
  5
219
100
AcDbEntity
  8
0
100
AcDbText
 62
2
  6
CONTINUOUS
 10
20.7842537513
 20
1.4047600029
  7
STANDARD
 40
0.08
  1
THIRD ANGLE
 41
0.8
 72
0
100
AcDbText
  0
LINE
  5
21A
100
AcDbEntity
  8
0
100
AcDbLine
 62
7
  6
CONTINUOUS
 10
19.4767170086
 20
1.1727031207
 11
19.6334271527
 21
1.1717972817
  0
LINE
  5
21B
100
AcDbEntity
  8
0
100
AcDbLine
 62
7
  6
CONTINUOUS
 10
19.6596964832
 20
1.1717972817
 11
19.6950230232
 21
1.171593082
  0
LINE
  5
21C
100
AcDbEntity
  8
0
100
AcDbLine
 62
7
  6
CONTINUOUS
 10
19.7194818561
 20
1.1708914427
 11
19.8852396156
 21
1.1699333054
  0
LINE
  5
21D
100
AcDbEntity
  8
0
100
AcDbLine
 62
7
  6
CONTINUOUS
 10
19.4758111696
 20
1.2723454088
 11
19.88525039
 21
1.3511534004
  0
LINE
  5
21E
100
AcDbEntity
  8
0
100
AcDbLine
 62
7
  6
CONTINUOUS
 10
19.88525039
 20
1.3511534004
 11
19.8831348489
 21
0.9851647912
  0
LINE
  5
21F
100
AcDbEntity
  8
0
100
AcDbLine
 62
7
  6
CONTINUOUS
 10
19.8831348489
 20
0.9851647912
 11
19.4767170086
 21
1.0658141206
  0
LINE
  5
220
100
AcDbEntity
  8
0
100
AcDbLine
 62
7
  6
CONTINUOUS
 10
19.4767170086
 20
1.0658141206
 11
19.4779056764
 21
1.2714536432
  0
CIRCLE
  5
221
100
AcDbEntity
  8
0
100
AcDbCircle
 62
7
  6
CONTINUOUS
 10
20.2068232291
 20
1.1717972817
 40
0.175742101
  0
CIRCLE
  5
222
100
AcDbEntity
  8
0
100
AcDbCircle
 62
7
  6
CONTINUOUS
 10
20.2068232291
 20
1.1717972817
 40
0.1005522074
  0
LINE
  5
223
100
AcDbEntity
  8
0
100
AcDbLine
 62
7
  6
CONTINUOUS
 10
20.2077290681
 20
1.3756110529
 11
20.2071171714
 21
1.2379342989
  0
LINE
  5
224
100
AcDbEntity
  8
0
100
AcDbLine
 62
7
  6
CONTINUOUS
 10
20.2077290681
 20
1.2016899681
 11
20.2074674401
 21
1.1428236749
  0
LINE
  5
225
100
AcDbEntity
  8
0
100
AcDbLine
 62
7
  6
CONTINUOUS
 10
20.208634907
 20
1.101141841
 11
20.2080230104
 21
0.963465087
  0
LINE
  5
226
100
AcDbEntity
  8
0
100
AcDbLine
 62
7
  6
CONTINUOUS
 10
20.0066328138
 20
1.1745147986
 11
20.1443095678
 21
1.1739029019
  0
LINE
  5
227
100
AcDbEntity
  8
0
100
AcDbLine
 62
7
  6
CONTINUOUS
 10
20.1832714155
 20
1.1727031207
 11
20.238153505
 21
1.172335442
  0
LINE
  5
228
100
AcDbEntity
  8
0
100
AcDbLine
 62
7
  6
CONTINUOUS
 10
20.2756669918
 20
1.1717972817
 11
20.407916871
 21
1.1712095044
  0
CIRCLE
  5
229
100
AcDbEntity
  8
0
100
AcDbCircle
 62
7
  6
CONTINUOUS
 10
20.7509457401
 20
1.1693297793
 40
0.1722024983
  0
CIRCLE
  5
22A
100
AcDbEntity
  8
0
100
AcDbCircle
 62
7
  6
CONTINUOUS
 10
20.7509457401
 20
1.1693297793
 40
0.0985164967
  0
LINE
  5
22B
100
AcDbEntity
  8
0
100
AcDbLine
 62
7
  6
CONTINUOUS
 10
20.7169767782
 20
1.170462078
 11
20.7825395137
 21
1.1682766535
  0
LINE
  5
22C
100
AcDbEntity
  8
0
100
AcDbLine
 62
7
  6
CONTINUOUS
 10
20.8177513651
 20
1.1693297793
 11
20.947965719
 21
1.1693297793
  0
LINE
  5
22D
100
AcDbEntity
  8
0
100
AcDbLine
 62
7
  6
CONTINUOUS
 10
20.6875370113
 20
1.170462078
 11
20.5573226574
 21
1.170462078
  0
LINE
  5
22E
100
AcDbEntity
  8
0
100
AcDbLine
 62
7
  6
CONTINUOUS
 10
20.7486811426
 20
1.1987695462
 11
20.7486811426
 21
1.1432869085
  0
LINE
  5
22F
100
AcDbEntity
  8
0
100
AcDbLine
 62
7
  6
CONTINUOUS
 10
20.7498134414
 20
1.1059210505
 11
20.7498134414
 21
0.9757066966
  0
LINE
  5
230
100
AcDbEntity
  8
0
100
AcDbLine
 62
7
  6
CONTINUOUS
 10
20.7486811426
 20
1.2338708068
 11
20.7486811426
 21
1.3640851607
  0
LINE
  5
231
100
AcDbEntity
  8
0
100
AcDbLine
 62
7
  6
CONTINUOUS
 10
21.0702539817
 20
1.2701043662
 11
21.4790138229
 21
1.3448360823
  0
LINE
  5
232
100
AcDbEntity
  8
0
100
AcDbLine
 62
7
  6
CONTINUOUS
 10
21.4790138229
 20
1.3448360823
 11
21.4790138229
 21
0.9779712941
  0
LINE
  5
233
100
AcDbEntity
  8
0
100
AcDbLine
 62
7
  6
CONTINUOUS
 10
21.4790138229
 20
0.9779712941
 11
21.069121683
 21
1.0617614
  0
LINE
  5
234
100
AcDbEntity
  8
0
100
AcDbLine
 62
7
  6
CONTINUOUS
 10
21.0702539817
 20
1.2701043662
 11
21.069121683
 21
1.0617614
  0
LINE
  5
235
100
AcDbEntity
  8
0
100
AcDbLine
 62
7
  6
CONTINUOUS
 10
21.4790138229
 20
1.1693297793
 11
21.3159628059
 21
1.1693297793
  0
LINE
  5
236
100
AcDbEntity
  8
0
100
AcDbLine
 62
7
  6
CONTINUOUS
 10
21.2876553377
 20
1.1693297793
 11
21.2502894796
 21
1.1693297793
  0
LINE
  5
237
100
AcDbEntity
  8
0
100
AcDbLine
 62
7
  6
CONTINUOUS
 10
21.2208497126
 20
1.1659328831
 11
21.0713862804
 21
1.1659328831
  0
LINE
  5
238
100
AcDbEntity
  8
0
100
AcDbLine
 62
7
  6
CONTINUOUS
 10
20.4796138713
 20
1.5284908897
 11
20.4766766948
 21
0.9294458646
  0
ENDBLK
  5
239
100
AcDbEntity
  8
0
  6
BYBLOCK
 62
0
100
AcDbBlockEnd
  0
BLOCK
  5
23A
100
AcDbEntity
  8
0
100
AcDbBlockBegin
  2
*T1
 70
1
 10
0.0
 20
0.0
  3
*T1
  1

  0
LINE
  5
23B
100
AcDbEntity
  8
0
100
AcDbLine
 62
2
  6
CONTINUOUS
 10
9.275
 20
0.0
 11
-0.0
 21
0.0
  0
LINE
  5
23C
100
AcDbEntity
  8
0
100
AcDbLine
 62
2
  6
CONTINUOUS
 10
9.275
 20
0.0
 11
9.275
 21
1.25
  0
LINE
  5
23D
100
AcDbEntity
  8
0
100
AcDbLine
 62
2
  6
CONTINUOUS
 10
9.275
 20
0.625
 11
-0.0
 21
0.625
  0
LINE
  5
23E
100
AcDbEntity
  8
0
100
AcDbLine
 62
2
  6
CONTINUOUS
 10
9.275
 20
1.25
 11
-0.0
 21
1.25
  0
LINE
  5
23F
100
AcDbEntity
  8
0
100
AcDbLine
 62
2
  6
CONTINUOUS
 10
6.8
 20
0.0
 11
6.8
 21
1.25
  0
LINE
  5
240
100
AcDbEntity
  8
0
100
AcDbLine
 62
2
  6
CONTINUOUS
 10
6.4
 20
0.0
 11
6.4
 21
0.625
  0
LINE
  5
241
100
AcDbEntity
  8
0
100
AcDbLine
 62
2
  6
CONTINUOUS
 10
5.9
 20
0.0
 11
5.9
 21
0.625
  0
LINE
  5
242
100
AcDbEntity
  8
0
100
AcDbLine
 62
2
  6
CONTINUOUS
 10
5.2
 20
0.0
 11
5.2
 21
0.625
  0
LINE
  5
243
100
AcDbEntity
  8
0
100
AcDbLine
 62
2
  6
CONTINUOUS
 10
4.1
 20
0.0
 11
4.1
 21
1.25
  0
LINE
  5
244
100
AcDbEntity
  8
0
100
AcDbLine
 62
2
  6
CONTINUOUS
 10
-0.0
 20
0.0
 11
-0.0
 21
1.25
  0
MTEXT
  5
245
100
AcDbEntity
  8
0
100
AcDbMText
 62
2
  6
CONTINUOUS
  7
STANDARD
 71
2
 72
1
 10
6.6
 20
0.325
 30
0.0
 11
1.0
 21
0.0
 31
0.0
 44
0.9
  1
2
 40
0.125
 41
0.2
  0
MTEXT
  5
246
100
AcDbEntity
  8
0
100
AcDbMText
 62
2
  6
CONTINUOUS
  7
STANDARD
 71
2
 72
1
 10
6.15
 20
0.325
 30
0.0
 11
1.0
 21
0.0
 31
0.0
 44
0.9
  1
C
 40
0.125
 41
0.2
  0
MTEXT
  5
247
100
AcDbEntity
  8
0
100
AcDbMText
 62
2
  6
CONTINUOUS
  7
STANDARD
 71
2
 72
1
 10
5.55
 20
0.325
 30
0.0
 11
1.0
 21
0.0
 31
0.0
 44
0.9
  1
2.000
 40
0.125
 41
1.0
  0
MTEXT
  5
248
100
AcDbEntity
  8
0
100
AcDbMText
 62
2
  6
CONTINUOUS
  7
STANDARD
 71
2
 72
1
 10
4.65
 20
0.325
 30
0.0
 11
1.0
 21
0.0
 31
0.0
 44
0.9
  1
Jul-16-20
 40
0.125
 41
1.8
  0
MTEXT
  5
249
100
AcDbEntity
  8
0
100
AcDbMText
 62
2
  6
CONTINUOUS
  7
STANDARD
 71
2
 72
1
 10
2.05
 20
0.4625
 30
0.0
 11
1.0
 21
0.0
 31
0.0
 44
0.9
  1
T-11A Sandwich ISO 03 - 40mm\POn P, port 3 to T - Mirror
 40
0.125
 41
5.6
  0
MTEXT
  5
24A
100
AcDbEntity
  8
0
100
AcDbMText
 62
2
  6
CONTINUOUS
  7
STANDARD
 71
1
 72
1
 10
6.45
 20
0.5625
 30
0.0
 11
1.0
 21
0.0
 31
0.0
 44
0.9
  1
SHEET
 40
0.06
 41
0.48
  0
MTEXT
  5
24B
100
AcDbEntity
  8
0
100
AcDbMText
 62
2
  6
CONTINUOUS
  7
STANDARD
 71
1
 72
1
 10
5.95
 20
0.5625
 30
0.0
 11
1.0
 21
0.0
 31
0.0
 44
0.9
  1
DWG SIZE
 40
0.06
 41
0.768
  0
MTEXT
  5
24C
100
AcDbEntity
  8
0
100
AcDbMText
 62
2
  6
CONTINUOUS
  7
STANDARD
 71
1
 72
1
 10
5.25
 20
0.5625
 30
0.0
 11
1.0
 21
0.0
 31
0.0
 44
0.9
  1
SCALE
 40
0.06
 41
0.48
  0
MTEXT
  5
24D
100
AcDbEntity
  8
0
100
AcDbMText
 62
2
  6
CONTINUOUS
  7
STANDARD
 71
1
 72
1
 10
4.15
 20
0.5625
 30
0.0
 11
1.0
 21
0.0
 31
0.0
 44
0.9
  1
DATE
 40
0.06
 41
0.384
  0
MTEXT
  5
24E
100
AcDbEntity
  8
0
100
AcDbMText
 62
2
  6
CONTINUOUS
  7
STANDARD
 71
1
 72
1
 10
0.05
 20
0.5625
 30
0.0
 11
1.0
 21
0.0
 31
0.0
 44
0.9
  1
DESCRIPTION
 40
0.06
 41
1.056
  0
MTEXT
  5
24F
100
AcDbEntity
  8
0
100
AcDbMText
 62
2
  6
CONTINUOUS
  7
STANDARD
 71
2
 72
1
 10
5.45
 20
1.0375
 30
0.0
 11
1.0
 21
0.0
 31
0.0
 44
0.9
  1
ALL DIMENSIONS IN INCH\PVIEWS ARE THIRD ANGLE
 40
0.12
 41
4.224
  0
MTEXT
  5
250
100
AcDbEntity
  8
0
100
AcDbMText
 62
2
  6
CONTINUOUS
  7
STANDARD
 71
2
 72
1
 10
2.05
 20
0.95
 30
0.0
 11
1.0
 21
0.0
 31
0.0
 44
0.9
  1
W4I
 40
0.125
 41
0.6
  0
MTEXT
  5
251
100
AcDbEntity
  8
0
100
AcDbMText
 62
2
  6
CONTINUOUS
  7
STANDARD
 71
1
 72
1
 10
0.05
 20
1.1875
 30
0.0
 11
1.0
 21
0.0
 31
0.0
 44
0.9
  1
MODEL
 40
0.06
 41
0.48
  0
ENDBLK
  5
252
100
AcDbEntity
  8
0
  6
BYBLOCK
 62
0
100
AcDbBlockEnd
  0
BLOCK
  5
253
100
AcDbEntity
  8
0
100
AcDbBlockBegin
  2
*T2
 70
1
 10
0.0
 20
0.0
  3
*T2
  1

  0
LINE
  5
254
100
AcDbEntity
  8
0
100
AcDbLine
 62
2
  6
CONTINUOUS
 10
0.0
 20
0.0
 11
9.055
 21
0.0
  0
LINE
  5
255
100
AcDbEntity
  8
0
100
AcDbLine
 62
2
  6
CONTINUOUS
 10
0.0
 20
0.0
 11
0.0
 21
-3.094
  0
LINE
  5
256
100
AcDbEntity
  8
0
100
AcDbLine
 62
2
  6
CONTINUOUS
 10
0.0
 20
-0.344
 11
9.055
 21
-0.344
  0
LINE
  5
257
100
AcDbEntity
  8
0
100
AcDbLine
 62
2
  6
CONTINUOUS
 10
0.0
 20
-0.594
 11
9.055
 21
-0.594
  0
LINE
  5
258
100
AcDbEntity
  8
0
100
AcDbLine
 62
2
  6
CONTINUOUS
 10
0.0
 20
-0.844
 11
9.055
 21
-0.844
  0
LINE
  5
259
100
AcDbEntity
  8
0
100
AcDbLine
 62
2
  6
CONTINUOUS
 10
0.0
 20
-1.094
 11
9.055
 21
-1.094
  0
LINE
  5
25A
100
AcDbEntity
  8
0
100
AcDbLine
 62
2
  6
CONTINUOUS
 10
0.0
 20
-1.344
 11
9.055
 21
-1.344
  0
LINE
  5
25B
100
AcDbEntity
  8
0
100
AcDbLine
 62
2
  6
CONTINUOUS
 10
0.0
 20
-1.594
 11
9.055
 21
-1.594
  0
LINE
  5
25C
100
AcDbEntity
  8
0
100
AcDbLine
 62
2
  6
CONTINUOUS
 10
0.0
 20
-1.844
 11
9.055
 21
-1.844
  0
LINE
  5
25D
100
AcDbEntity
  8
0
100
AcDbLine
 62
2
  6
CONTINUOUS
 10
0.0
 20
-2.094
 11
9.055
 21
-2.094
  0
LINE
  5
25E
100
AcDbEntity
  8
0
100
AcDbLine
 62
2
  6
CONTINUOUS
 10
0.0
 20
-2.344
 11
9.055
 21
-2.344
  0
LINE
  5
25F
100
AcDbEntity
  8
0
100
AcDbLine
 62
2
  6
CONTINUOUS
 10
0.0
 20
-2.594
 11
9.055
 21
-2.594
  0
LINE
  5
260
100
AcDbEntity
  8
0
100
AcDbLine
 62
2
  6
CONTINUOUS
 10
0.0
 20
-2.844
 11
9.055
 21
-2.844
  0
LINE
  5
261
100
AcDbEntity
  8
0
100
AcDbLine
 62
2
  6
CONTINUOUS
 10
0.0
 20
-3.094
 11
9.055
 21
-3.094
  0
LINE
  5
262
100
AcDbEntity
  8
0
100
AcDbLine
 62
2
  6
CONTINUOUS
 10
3.055
 20
0.0
 11
3.055
 21
-3.094
  0
LINE
  5
263
100
AcDbEntity
  8
0
100
AcDbLine
 62
2
  6
CONTINUOUS
 10
9.055
 20
0.0
 11
9.055
 21
-3.094
  0
MTEXT
  5
264
100
AcDbEntity
  8
0
100
AcDbMText
 62
2
  6
CONTINUOUS
  7
STANDARD
 71
2
 72
1
 10
1.5275
 20
-0.0995
 30
0.0
 11
1.0
 21
0.0
 31
0.0
 44
0.9
  1
Technical Data
 40
0.145
 41
3.248
  0
MTEXT
  5
265
100
AcDbEntity
  8
0
100
AcDbMText
 62
2
  6
CONTINUOUS
  7
STANDARD
 71
2
 72
1
 10
4.555
 20
-0.0995
 30
0.0
 11
1.0
 21
0.0
 31
0.0
 44
0.9
  1
U.S. Units
 40
0.145
 41
2.32
  0
MTEXT
  5
266
100
AcDbEntity
  8
0
100
AcDbMText
 62
2
  6
CONTINUOUS
  7
STANDARD
 71
2
 72
1
 10
7.555
 20
-0.0995
 30
0.0
 11
1.0
 21
0.0
 31
0.0
 44
0.9
  1
Metric Units
 40
0.145
 41
2.784
  0
MTEXT
  5
267
100
AcDbEntity
  8
0
100
AcDbMText
 62
2
  6
CONTINUOUS
  7
STANDARD
 71
2
 72
1
 10
1.5275
 20
-0.4065
 30
0.0
 11
1.0
 21
0.0
 31
0.0
 44
0.9
  1
Cavity
 40
0.125
 41
1.2
  0
MTEXT
  5
268
100
AcDbEntity
  8
0
100
AcDbMText
 62
2
  6
CONTINUOUS
  7
STANDARD
 71
2
 72
1
 10
6.055
 20
-0.4065
 30
0.0
 11
1.0
 21
0.0
 31
0.0
 44
0.9
  1
T-11A
 40
0.125
 41
1.0
  0
MTEXT
  5
269
100
AcDbEntity
  8
0
100
AcDbMText
 62
2
  6
CONTINUOUS
  7
STANDARD
 71
2
 72
1
 10
1.5275
 20
-0.6565
 30
0.0
 11
1.0
 21
0.0
 31
0.0
 44
0.9
  1
Body Features
 40
0.125
 41
2.6
  0
MTEXT
  5
26A
100
AcDbEntity
  8
0
100
AcDbMText
 62
2
  6
CONTINUOUS
  7
STANDARD
 71
2
 72
1
 10
6.055
 20
-0.6565
 30
0.0
 11
1.0
 21
0.0
 31
0.0
 44
0.9
  1
On P, port 3 to T - Mirror
 40
0.125
 41
5.2
  0
MTEXT
  5
26B
100
AcDbEntity
  8
0
100
AcDbMText
 62
2
  6
CONTINUOUS
  7
STANDARD
 71
2
 72
1
 10
1.5275
 20
-0.9065
 30
0.0
 11
1.0
 21
0.0
 31
0.0
 44
0.9
  1
Body Type
 40
0.125
 41
1.8
  0
MTEXT
  5
26C
100
AcDbEntity
  8
0
100
AcDbMText
 62
2
  6
CONTINUOUS
  7
STANDARD
 71
2
 72
1
 10
6.055
 20
-0.9065
 30
0.0
 11
1.0
 21
0.0
 31
0.0
 44
0.9
  1
Sandwich
 40
0.125
 41
1.6
  0
MTEXT
  5
26D
100
AcDbEntity
  8
0
100
AcDbMText
 62
2
  6
CONTINUOUS
  7
STANDARD
 71
2
 72
1
 10
1.5275
 20
-1.1565
 30
0.0
 11
1.0
 21
0.0
 31
0.0
 44
0.9
  1
Interface
 40
0.125
 41
1.8
  0
MTEXT
  5
26E
100
AcDbEntity
  8
0
100
AcDbMText
 62
2
  6
CONTINUOUS
  7
STANDARD
 71
2
 72
1
 10
6.055
 20
-1.1565
 30
0.0
 11
1.0
 21
0.0
 31
0.0
 44
0.9
  1
ISO 03 - 40mm
 40
0.125
 41
2.6
  0
MTEXT
  5
26F
100
AcDbEntity
  8
0
100
AcDbMText
 62
2
  6
CONTINUOUS
  7
STANDARD
 71
2
 72
1
 10
1.5275
 20
-1.4065
 30
0.0
 11
1.0
 21
0.0
 31
0.0
 44
0.9
  1
Open Cavity Quantity
 40
0.125
 41
4.0
  0
MTEXT
  5
270
100
AcDbEntity
  8
0
100
AcDbMText
 62
2
  6
CONTINUOUS
  7
STANDARD
 71
2
 72
1
 10
6.055
 20
-1.4065
 30
0.0
 11
1.0
 21
0.0
 31
0.0
 44
0.9
  1
1
 40
0.125
 41
0.2
  0
MTEXT
  5
271
100
AcDbEntity
  8
0
100
AcDbMText
 62
2
  6
CONTINUOUS
  7
STANDARD
 71
2
 72
1
 10
1.5275
 20
-1.6565
 30
0.0
 11
1.0
 21
0.0
 31
0.0
 44
0.9
  1
Stack Height
 40
0.125
 41
2.4
  0
MTEXT
  5
272
100
AcDbEntity
  8
0
100
AcDbMText
 62
2
  6
CONTINUOUS
  7
STANDARD
 71
2
 72
1
 10
4.555
 20
-1.6565
 30
0.0
 11
1.0
 21
0.0
 31
0.0
 44
0.9
  1
1.58 in.
 40
0.125
 41
1.6
  0
MTEXT
  5
273
100
AcDbEntity
  8
0
100
AcDbMText
 62
2
  6
CONTINUOUS
  7
STANDARD
 71
2
 72
1
 10
7.555
 20
-1.6565
 30
0.0
 11
1.0
 21
0.0
 31
0.0
 44
0.9
  1
40 mm
 40
0.125
 41
1.0
  0
MTEXT
  5
274
100
AcDbEntity
  8
0
100
AcDbMText
 62
2
  6
CONTINUOUS
  7
STANDARD
 71
2
 72
1
 10
1.5275
 20
-1.9065
 30
0.0
 11
1.0
 21
0.0
 31
0.0
 44
0.9
  1
Weight
 40
0.125
 41
1.2
  0
MTEXT
  5
275
100
AcDbEntity
  8
0
100
AcDbMText
 62
2
  6
CONTINUOUS
  7
STANDARD
 71
2
 72
1
 10
4.555
 20
-1.9065
 30
0.0
 11
1.0
 21
0.0
 31
0.0
 44
0.9
  1
0.763 lb.
 40
0.125
 41
1.8
  0
MTEXT
  5
276
100
AcDbEntity
  8
0
100
AcDbMText
 62
2
  6
CONTINUOUS
  7
STANDARD
 71
2
 72
1
 10
7.555
 20
-1.9065
 30
0.0
 11
1.0
 21
0.0
 31
0.0
 44
0.9
  1
0,346 kg.
 40
0.125
 41
1.8
  0
MTEXT
  5
277
100
AcDbEntity
  8
0
100
AcDbMText
 62
2
  6
CONTINUOUS
  7
STANDARD
 71
2
 72
1
 10
1.5275
 20
-2.1565
 30
0.0
 11
1.0
 21
0.0
 31
0.0
 44
0.9
  1
Mounting Hole Diameter
 40
0.125
 41
4.4
  0
MTEXT
  5
278
100
AcDbEntity
  8
0
100
AcDbMText
 62
2
  6
CONTINUOUS
  7
STANDARD
 71
2
 72
1
 10
4.555
 20
-2.1565
 30
0.0
 11
1.0
 21
0.0
 31
0.0
 44
0.9
  1
.21 in.
 40
0.125
 41
1.4
  0
MTEXT
  5
279
100
AcDbEntity
  8
0
100
AcDbMText
 62
2
  6
CONTINUOUS
  7
STANDARD
 71
2
 72
1
 10
7.555
 20
-2.1565
 30
0.0
 11
1.0
 21
0.0
 31
0.0
 44
0.9
  1
5,4 mm
 40
0.125
 41
1.2
  0
MTEXT
  5
27A
100
AcDbEntity
  8
0
100
AcDbMText
 62
2
  6
CONTINUOUS
  7
STANDARD
 71
2
 72
1
 10
1.5275
 20
-2.4065
 30
0.0
 11
1.0
 21
0.0
 31
0.0
 44
0.9
  1
Mounting Hole Depth
 40
0.125
 41
3.8
  0
MTEXT
  5
27B
100
AcDbEntity
  8
0
100
AcDbMText
 62
2
  6
CONTINUOUS
  7
STANDARD
 71
2
 72
1
 10
6.055
 20
-2.4065
 30
0.0
 11
1.0
 21
0.0
 31
0.0
 44
0.9
  1
Through
 40
0.125
 41
1.4
  0
MTEXT
  5
27C
100
AcDbEntity
  8
0
100
AcDbMText
 62
2
  6
CONTINUOUS
  7
STANDARD
 71
2
 72
1
 10
1.5275
 20
-2.6565
 30
0.0
 11
1.0
 21
0.0
 31
0.0
 44
0.9
  1
Mounting Hole Quantity
 40
0.125
 41
4.4
  0
MTEXT
  5
27D
100
AcDbEntity
  8
0
100
AcDbMText
 62
2
  6
CONTINUOUS
  7
STANDARD
 71
2
 72
1
 10
6.055
 20
-2.6565
 30
0.0
 11
1.0
 21
0.0
 31
0.0
 44
0.9
  1
4
 40
0.125
 41
0.2
  0
MTEXT
  5
27E
100
AcDbEntity
  8
0
100
AcDbMText
 62
2
  6
CONTINUOUS
  7
STANDARD
 71
2
 72
1
 10
1.5275
 20
-2.9065
 30
0.0
 11
1.0
 21
0.0
 31
0.0
 44
0.9
  1
Seal Plate Included (see notes)
 40
0.125
 41
6.2
  0
MTEXT
  5
27F
100
AcDbEntity
  8
0
100
AcDbMText
 62
2
  6
CONTINUOUS
  7
STANDARD
 71
2
 72
1
 10
6.055
 20
-2.9065
 30
0.0
 11
1.0
 21
0.0
 31
0.0
 44
0.9
  1
No
 40
0.125
 41
0.4
  0
ENDBLK
  5
280
100
AcDbEntity
  8
0
  6
BYBLOCK
 62
0
100
AcDbBlockEnd
  0
BLOCK
  5
281
100
AcDbEntity
  8
0
100
AcDbBlockBegin
  2
*T3
 70
1
 10
0.0
 20
0.0
  3
*T3
  1

  0
LINE
  5
282
100
AcDbEntity
  8
0
100
AcDbLine
 62
2
  6
CONTINUOUS
 10
0.0
 20
0.0
 11
4.6
 21
0.0
  0
LINE
  5
283
100
AcDbEntity
  8
0
100
AcDbLine
 62
2
  6
CONTINUOUS
 10
0.0
 20
0.0
 11
0.0
 21
-0.93775
  0
LINE
  5
284
100
AcDbEntity
  8
0
100
AcDbLine
 62
2
  6
CONTINUOUS
 10
0.0
 20
-0.34375
 11
4.6
 21
-0.34375
  0
LINE
  5
285
100
AcDbEntity
  8
0
100
AcDbLine
 62
2
  6
CONTINUOUS
 10
0.0
 20
-0.68775
 11
4.6
 21
-0.68775
  0
LINE
  5
286
100
AcDbEntity
  8
0
100
AcDbLine
 62
2
  6
CONTINUOUS
 10
0.0
 20
-0.93775
 11
4.6
 21
-0.93775
  0
LINE
  5
287
100
AcDbEntity
  8
0
100
AcDbLine
 62
2
  6
CONTINUOUS
 10
1.3
 20
-0.34375
 11
1.3
 21
-0.93775
  0
LINE
  5
288
100
AcDbEntity
  8
0
100
AcDbLine
 62
2
  6
CONTINUOUS
 10
3.3
 20
-0.34375
 11
3.3
 21
-0.93775
  0
LINE
  5
289
100
AcDbEntity
  8
0
100
AcDbLine
 62
2
  6
CONTINUOUS
 10
4.6
 20
0.0
 11
4.6
 21
-0.93775
  0
MTEXT
  5
28A
100
AcDbEntity
  8
0
100
AcDbMText
 62
2
  6
CONTINUOUS
  7
STANDARD
 71
2
 72
1
 10
2.3
 20
-0.099375
 30
0.0
 11
1.0
 21
0.0
 31
0.0
 44
0.9
  1
Port Headings
 40
0.145
 41
3.016
  0
MTEXT
  5
28B
100
AcDbEntity
  8
0
100
AcDbMText
 62
2
  6
CONTINUOUS
  7
STANDARD
 71
2
 72
1
 10
0.65
 20
-0.44325
 30
0.0
 11
1.0
 21
0.0
 31
0.0
 44
0.9
  1
Product
 40
0.145
 41
1.624
  0
MTEXT
  5
28C
100
AcDbEntity
  8
0
100
AcDbMText
 62
2
  6
CONTINUOUS
  7
STANDARD
 71
2
 72
1
 10
2.3
 20
-0.44325
 30
0.0
 11
1.0
 21
0.0
 31
0.0
 44
0.9
  1
Port
 40
0.145
 41
0.928
  0
MTEXT
  5
28D
100
AcDbEntity
  8
0
100
AcDbMText
 62
2
  6
CONTINUOUS
  7
STANDARD
 71
2
 72
1
 10
3.95
 20
-0.44325
 30
0.0
 11
1.0
 21
0.0
 31
0.0
 44
0.9
  1
Size
 40
0.145
 41
0.928
  0
MTEXT
  5
28E
100
AcDbEntity
  8
0
100
AcDbMText
 62
2
  6
CONTINUOUS
  7
STANDARD
 71
2
 72
1
 10
0.65
 20
-0.75025
 30
0.0
 11
1.0
 21
0.0
 31
0.0
 44
0.9
  1
W4I
 40
0.125
 41
0.6
  0
MTEXT
  5
28F
100
AcDbEntity
  8
0
100
AcDbMText
 62
2
  6
CONTINUOUS
  7
STANDARD
 71
2
 72
1
 10
2.3
 20
-0.75025
 30
0.0
 11
1.0
 21
0.0
 31
0.0
 44
0.9
  1
Gage Port (Plugged)
 40
0.125
 41
3.8
  0
MTEXT
  5
290
100
AcDbEntity
  8
0
100
AcDbMText
 62
2
  6
CONTINUOUS
  7
STANDARD
 71
2
 72
1
 10
3.95
 20
-0.75025
 30
0.0
 11
1.0
 21
0.0
 31
0.0
 44
0.9
  1
1/4" NPTF
 40
0.125
 41
1.8
  0
ENDBLK
  5
291
100
AcDbEntity
  8
0
  6
BYBLOCK
 62
0
100
AcDbBlockEnd
  0
ENDSEC
  0
SECTION
  2
ENTITIES
  0
IMAGE
  5
292
100
AcDbEntity
  8
0
100
AcDbRasterImage
 62
7
  6
CONTINUOUS
 10
19.2297077316
 20
0.3094318264
 30
0.0
 11
0.0066666667
 21
0.0
 31
0.0
 12
0.0
 22
0.0066666667
 32
0.0
 13
369.0
 23
92.0
340
       347
 70
9
280
0
281
50
282
50
283
0
360
       341
 71
1
 91
2
 14
-0.5
 24
-0.5
 14
368.5
 24
91.5
  0
INSERT
  5
293
100
AcDbEntity
  8
0
100
AcDbBlockReference
 62
2
  6
CONTINUOUS
  2
SUN_FIRST_THIRD_ANGLE_BL0
 10
20.4816717061
 20
1.2289683772
  0
ACAD_TABLE
  5
294
100
AcDbEntity
  8
0
 62
2
  6
CONTINUOUS
100
AcDbBlockReference
  2
*T1
 10
12.42375
 20
0.30125
 30
0.0
100
AcDbTable
342
       349
343
213
 11
1.0
 21
0.0
 31
0.0
 90
6
 91
4
 92
6
 93
20
 94
0
 95
0
 96
0
 70
1
 41
0.0
141
0.525
141
0.1
141
0.525
141
0.1
142
4.1
142
1.1
142
0.7
142
0.5
142
0.4
142
2.475
171
1
172
0
173
0
174
0
175
1
176
1
 91
33
178
0
145
0.0
301
CELL_VALUE
 90
4
  1
T-11A Sandwich ISO 03 - 40mm\POn P, port 3 to T - Mirror
304
ACVALUE_END
170
2
140
0.125
171
1
172
0
173
0
174
0
175
1
176
1
 91
33
178
0
145
0.0
301
CELL_VALUE
 90
4
  1
Jul-16-20
304
ACVALUE_END
170
5
140
0.125
171
1
172
0
173
0
174
0
175
1
176
1
 91
33
178
0
145
0.0
301
CELL_VALUE
 90
4
  1
2.000
304
ACVALUE_END
170
5
140
0.125
171
1
172
0
173
0
174
0
175
1
176
1
 91
33
178
0
145
0.0
301
CELL_VALUE
 90
4
  1
C
304
ACVALUE_END
170
5
140
0.125
171
1
172
0
173
0
174
0
175
1
176
1
 91
33
178
0
145
0.0
301
CELL_VALUE
 90
4
  1
2
304
ACVALUE_END
170
5
140
0.125
171
1
172
0
173
0
174
0
175
1
176
1
 91
33
178
0
145
0.0
301
CELL_VALUE
 90
4
  1
 
304
ACVALUE_END
170
1
140
0.125
171
1
172
0
173
0
174
0
175
1
176
1
 91
33
178
0
145
0.0
301
CELL_VALUE
 90
4
  1
DESCRIPTION
304
ACVALUE_END
170
1
140
0.06
171
1
172
0
173
0
174
0
175
1
176
1
 91
33
178
0
145
0.0
301
CELL_VALUE
 90
4
  1
DATE
304
ACVALUE_END
170
1
140
0.06
171
1
172
0
173
0
174
0
175
1
176
1
 91
33
178
0
145
0.0
301
CELL_VALUE
 90
4
  1
SCALE
304
ACVALUE_END
170
1
140
0.06
171
1
172
0
173
0
174
0
175
1
176
1
 91
33
178
0
145
0.0
301
CELL_VALUE
 90
4
  1
DWG SIZE
304
ACVALUE_END
170
1
140
0.06
171
1
172
0
173
0
174
0
175
1
176
1
 91
33
178
0
145
0.0
301
CELL_VALUE
 90
4
  1
SHEET
304
ACVALUE_END
170
1
140
0.06
171
1
172
0
173
0
174
0
175
1
176
1
 91
33
178
0
145
0.0
301
CELL_VALUE
 90
4
  1
 
304
ACVALUE_END
170
1
140
0.125
171
1
172
0
173
0
174
0
175
1
176
1
 91
33
178
0
145
0.0
301
CELL_VALUE
 90
4
  1
W4I
304
ACVALUE_END
170
5
140
0.125
171
1
172
0
173
0
174
0
175
4
176
1
 91
33
178
0
145
0.0
301
CELL_VALUE
 90
4
  1
ALL DIMENSIONS IN INCH\PVIEWS ARE THIRD ANGLE
304
ACVALUE_END
170
5
140
0.12
171
1
172
0
173
1
174
0
175
1
176
1
 91
1
178
0
145
0.0
170
1
171
1
172
0
173
1
174
0
175
1
176
1
 91
1
178
0
145
0.0
170
1
171
1
172
0
173
1
174
0
175
1
176
1
 91
1
178
0
145
0.0
170
5
171
1
172
0
173
0
174
0
175
1
176
1
 91
33
178
0
145
0.0
301
CELL_VALUE
 90
4
  1
 
304
ACVALUE_END
170
1
140
0.125
171
1
172
0
173
0
174
0
175
1
176
1
 91
33
178
0
145
0.0
301
CELL_VALUE
 90
4
  1
MODEL
304
ACVALUE_END
170
1
140
0.06
171
1
172
0
173
0
174
0
175
1
176
1
 91
33
178
0
145
0.0
301
CELL_VALUE
 90
4
  1
 
304
ACVALUE_END
170
1
140
0.125
171
1
172
0
173
0
174
0
175
1
176
1
 91
33
178
0
145
0.0
301
CELL_VALUE
 90
4
  1
 
304
ACVALUE_END
170
1
140
0.125
171
1
172
0
173
0
174
0
175
1
176
1
 91
33
178
0
145
0.0
301
CELL_VALUE
 90
4
  1
 
304
ACVALUE_END
170
1
140
0.125
171
1
172
0
173
0
174
0
175
1
176
1
 91
33
178
0
145
0.0
301
CELL_VALUE
 90
4
  1
 
304
ACVALUE_END
170
1
140
0.125
171
1
172
0
173
0
174
0
175
1
176
1
 91
33
178
0
145
0.0
301
CELL_VALUE
 90
4
  1
 
304
ACVALUE_END
170
1
140
0.125
  0
ACAD_TABLE
  5
295
100
AcDbEntity
  8
0
 62
2
  6
CONTINUOUS
100
AcDbBlockReference
  2
*T2
 10
12.4237499994
 20
16.47875
 30
0.0
100
AcDbTable
342
       348
343
214
 11
1.0
 21
0.0
 31
0.0
 90
22
 91
12
 92
3
 93
16
 94
0
 95
0
 96
0
 41
0.028
141
0.344
141
0.25
141
0.25
141
0.25
141
0.25
141
0.25
141
0.25
141
0.25
141
0.25
141
0.25
141
0.25
141
0.25
142
3.055
142
3.0
142
3.0
171
1
172
0
173
0
174
0
175
1
176
1
 91
33
178
0
145
0.0
301
CELL_VALUE
 90
4
  1
Technical Data
304
ACVALUE_END
170
5
140
0.145
171
1
172
0
173
0
174
0
175
1
176
1
 91
33
178
0
145
0.0
301
CELL_VALUE
 90
4
  1
U.S. Units
304
ACVALUE_END
170
5
140
0.145
171
1
172
0
173
0
174
0
175
1
176
1
 91
33
178
0
145
0.0
301
CELL_VALUE
 90
4
  1
Metric Units
304
ACVALUE_END
170
5
140
0.145
171
1
172
0
173
0
174
0
175
1
176
1
 91
33
178
0
145
0.0
301
CELL_VALUE
 90
4
  1
Cavity
304
ACVALUE_END
170
5
140
0.125
171
1
172
0
173
0
174
0
175
2
176
1
 91
33
178
0
145
0.0
301
CELL_VALUE
 90
4
  1
T-11A
304
ACVALUE_END
170
5
140
0.125
171
1
172
0
173
1
174
0
175
1
176
1
 91
1
178
0
145
0.0
170
1
171
1
172
0
173
0
174
0
175
1
176
1
 91
33
178
0
145
0.0
301
CELL_VALUE
 90
4
  1
Body Features
304
ACVALUE_END
170
5
140
0.125
171
1
172
0
173
0
174
0
175
2
176
1
 91
33
178
0
145
0.0
301
CELL_VALUE
 90
4
  1
On P, port 3 to T - Mirror
304
ACVALUE_END
170
5
140
0.125
171
1
172
0
173
1
174
0
175
1
176
1
 91
1
178
0
145
0.0
170
1
171
1
172
0
173
0
174
0
175
1
176
1
 91
33
178
0
145
0.0
301
CELL_VALUE
 90
4
  1
Body Type
304
ACVALUE_END
170
5
140
0.125
171
1
172
0
173
0
174
0
175
2
176
1
 91
33
178
0
145
0.0
301
CELL_VALUE
 90
4
  1
Sandwich
304
ACVALUE_END
170
5
140
0.125
171
1
172
0
173
1
174
0
175
1
176
1
 91
1
178
0
145
0.0
170
1
171
1
172
0
173
0
174
0
175
1
176
1
 91
33
178
0
145
0.0
301
CELL_VALUE
 90
4
  1
Interface
304
ACVALUE_END
170
5
140
0.125
171
1
172
0
173
0
174
0
175
2
176
1
 91
33
178
0
145
0.0
301
CELL_VALUE
 90
4
  1
ISO 03 - 40mm
304
ACVALUE_END
170
5
140
0.125
171
1
172
0
173
1
174
0
175
1
176
1
 91
1
178
0
145
0.0
170
1
171
1
172
0
173
0
174
0
175
1
176
1
 91
33
178
0
145
0.0
301
CELL_VALUE
 90
4
  1
Open Cavity Quantity
304
ACVALUE_END
170
5
140
0.125
171
1
172
0
173
0
174
0
175
2
176
1
 91
33
178
0
145
0.0
301
CELL_VALUE
 90
4
  1
1
304
ACVALUE_END
170
5
140
0.125
171
1
172
0
173
1
174
0
175
1
176
1
 91
1
178
0
145
0.0
170
1
171
1
172
0
173
0
174
0
175
1
176
1
 91
33
178
0
145
0.0
301
CELL_VALUE
 90
4
  1
Stack Height
304
ACVALUE_END
170
5
140
0.125
171
1
172
0
173
0
174
0
175
1
176
1
 91
33
178
0
145
0.0
301
CELL_VALUE
 90
4
  1
1.58 in.
304
ACVALUE_END
170
5
140
0.125
171
1
172
0
173
0
174
0
175
1
176
1
 91
33
178
0
145
0.0
301
CELL_VALUE
 90
4
  1
40 mm
304
ACVALUE_END
170
5
140
0.125
171
1
172
0
173
0
174
0
175
1
176
1
 91
33
178
0
145
0.0
301
CELL_VALUE
 90
4
  1
Weight
304
ACVALUE_END
170
5
140
0.125
171
1
172
0
173
0
174
0
175
1
176
1
 91
33
178
0
145
0.0
301
CELL_VALUE
 90
4
  1
0.763 lb.
304
ACVALUE_END
170
5
140
0.125
171
1
172
0
173
0
174
0
175
1
176
1
 91
33
178
0
145
0.0
301
CELL_VALUE
 90
4
  1
0,346 kg.
304
ACVALUE_END
170
5
140
0.125
171
1
172
0
173
0
174
0
175
1
176
1
 91
33
178
0
145
0.0
301
CELL_VALUE
 90
4
  1
Mounting Hole Diameter
304
ACVALUE_END
170
5
140
0.125
171
1
172
0
173
0
174
0
175
1
176
1
 91
33
178
0
145
0.0
301
CELL_VALUE
 90
4
  1
.21 in.
304
ACVALUE_END
170
5
140
0.125
171
1
172
0
173
0
174
0
175
1
176
1
 91
33
178
0
145
0.0
301
CELL_VALUE
 90
4
  1
5,4 mm
304
ACVALUE_END
170
5
140
0.125
171
1
172
0
173
0
174
0
175
1
176
1
 91
33
178
0
145
0.0
301
CELL_VALUE
 90
4
  1
Mounting Hole Depth
304
ACVALUE_END
170
5
140
0.125
171
1
172
0
173
0
174
0
175
2
176
1
 91
33
178
0
145
0.0
301
CELL_VALUE
 90
4
  1
Through
304
ACVALUE_END
170
5
140
0.125
171
1
172
0
173
1
174
0
175
1
176
1
 91
1
178
0
145
0.0
170
1
171
1
172
0
173
0
174
0
175
1
176
1
 91
33
178
0
145
0.0
301
CELL_VALUE
 90
4
  1
Mounting Hole Quantity
304
ACVALUE_END
170
5
140
0.125
171
1
172
0
173
0
174
0
175
2
176
1
 91
33
178
0
145
0.0
301
CELL_VALUE
 90
4
  1
4
304
ACVALUE_END
170
5
140
0.125
171
1
172
0
173
1
174
0
175
1
176
1
 91
1
178
0
145
0.0
170
1
171
1
172
0
173
0
174
0
175
1
176
1
 91
33
178
0
145
0.0
301
CELL_VALUE
 90
4
  1
Seal Plate Included (see notes)
304
ACVALUE_END
170
5
140
0.125
171
1
172
0
173
0
174
0
175
2
176
1
 91
33
178
0
145
0.0
301
CELL_VALUE
 90
4
  1
No
304
ACVALUE_END
170
5
140
0.125
171
1
172
0
173
1
174
0
175
1
176
1
 91
1
178
0
145
0.0
170
1
  0
ACAD_TABLE
  5
296
100
AcDbEntity
  8
0
 62
2
  6
CONTINUOUS
100
AcDbBlockReference
  2
*T3
 10
0.52125
 20
1.459
 30
0.0
100
AcDbTable
342
       348
343
215
 11
1.0
 21
0.0
 31
0.0
 90
22
 91
3
 92
3
 93
16
 94
0
 95
0
 96
0
 41
0.05
141
0.34375
141
0.344
141
0.25
142
1.3
142
2.0
142
1.3
171
1
172
0
173
0
174
0
175
3
176
1
 91
33
178
0
145
0.0
301
CELL_VALUE
 90
4
  1
Port Headings
304
ACVALUE_END
170
5
140
0.145
171
1
172
0
173
1
174
0
175
1
176
1
 91
1
178
0
145
0.0
170
1
171
1
172
0
173
1
174
0
175
1
176
1
 91
1
178
0
145
0.0
170
1
171
1
172
0
173
0
174
0
175
1
176
1
 91
33
178
0
145
0.0
301
CELL_VALUE
 90
4
  1
Product
304
ACVALUE_END
170
5
140
0.145
171
1
172
0
173
0
174
0
175
1
176
1
 91
33
178
0
145
0.0
301
CELL_VALUE
 90
4
  1
Port
304
ACVALUE_END
170
5
140
0.145
171
1
172
0
173
0
174
0
175
1
176
1
 91
33
178
0
145
0.0
301
CELL_VALUE
 90
4
  1
Size
304
ACVALUE_END
170
5
140
0.145
171
1
172
0
173
0
174
0
175
1
176
1
 91
33
178
0
145
0.0
301
CELL_VALUE
 90
4
  1
W4I
304
ACVALUE_END
170
5
140
0.125
171
1
172
0
173
0
174
0
175
1
176
1
 91
33
178
0
145
0.0
301
CELL_VALUE
 90
4
  1
Gage Port (Plugged)
304
ACVALUE_END
170
5
140
0.125
171
1
172
0
173
0
174
0
175
1
176
1
 91
33
178
0
145
0.0
301
CELL_VALUE
 90
4
  1
1/4" NPTF
304
ACVALUE_END
170
5
140
0.125
  0
MTEXT
  5
297
100
AcDbEntity
  8
0
100
AcDbMText
 62
2
  6
CONTINUOUS
  7
STANDARD
 71
1
 72
1
 10
0.52125
 20
5.75995
 30
0.0
 11
1.0
 21
0.0
 31
0.0
 44
0.6
  3
Notes\P \P1. Important: Carefully consider\P   the maximum system pressure. The\P   pressure rating of the manifold is\P   dependent on the manifold material,\P   with the port type/size a secondary\P   consideration. Manifolds\P   constructed of alu
  1
minum are not\P   rated for pressures higher than\P   3000 psi (210 bar), regardless of\P   the port type/size specified.
 40
0.1
 41
3.04
  0
LINE
  5
298
100
AcDbEntity
  8
0
100
AcDbLine
 62
7
  6
CONTINUOUS
 10
0.30125
 20
0.30125
 11
0.30125
 21
16.69875
  0
LINE
  5
299
100
AcDbEntity
  8
0
100
AcDbLine
 62
7
  6
CONTINUOUS
 10
0.30125
 20
0.30125
 11
21.69875
 21
0.30125
  0
LINE
  5
29A
100
AcDbEntity
  8
0
100
AcDbLine
 62
7
  6
CONTINUOUS
 10
0.30125
 20
16.69875
 11
21.69875
 21
16.69875
  0
LINE
  5
29B
100
AcDbEntity
  8
0
100
AcDbLine
 62
7
  6
CONTINUOUS
 10
21.69875
 20
0.30125
 11
21.69875
 21
16.69875
  0
LINE
  5
29C
100
AcDbEntity
  8
0
100
AcDbLine
 62
7
  6
CONTINUOUS
 10
7.103302301
 20
9.3113372768
 11
7.103302301
 21
7.6209669806
  0
LINE
  5
29D
100
AcDbEntity
  8
0
100
AcDbLine
 62
7
  6
CONTINUOUS
 10
7.1471429382
 20
9.291684083
 11
7.1471429382
 21
7.6013137869
  0
LINE
  5
29E
100
AcDbEntity
  8
0
100
AcDbLine
 62
7
  6
CONTINUOUS
 10
7.6918563238
 20
10.5443938492
 11
7.281369657
 21
10.1478941529
  0
LINE
  5
29F
100
AcDbEntity
  8
0
100
AcDbLine
 62
7
  6
CONTINUOUS
 10
7.7517437286
 20
10.6001280483
 11
7.3412570618
 21
10.203628352
  0
LINE
  5
2A0
100
AcDbEntity
  8
0
100
AcDbLine
 62
7
  6
CONTINUOUS
 10
7.7535761347
 20
10.6018657383
 11
7.7517437286
 21
10.6001280483
  0
LINE
  5
2A1
100
AcDbEntity
  8
0
100
AcDbLine
 62
7
  6
CONTINUOUS
 10
7.6935388397
 20
10.5459891417
 11
7.6918563238
 21
10.5443938492
  0
LINE
  5
2A2
100
AcDbEntity
  8
0
100
AcDbLine
 62
7
  6
CONTINUOUS
 10
7.6918563238
 20
10.5443938492
 11
7.7517276301
 21
10.6001453456
  0
LINE
  5
2A3
100
AcDbEntity
  8
0
100
AcDbLine
 62
7
  6
CONTINUOUS
 10
7.281369657
 20
10.1478941529
 11
7.3412570618
 21
10.203628352
  0
LINE
  5
2A4
100
AcDbEntity
  8
0
100
AcDbLine
 62
7
  6
CONTINUOUS
 10
7.2428322252
 20
7.0693302484
 11
7.1910812736
 21
7.132960748
  0
LINE
  5
2A5
100
AcDbEntity
  8
0
100
AcDbLine
 62
7
  6
CONTINUOUS
 10
7.103302301
 20
7.6209669806
 11
7.1471429382
 21
7.6013137869
  0
LINE
  5
2A6
100
AcDbEntity
  8
0
100
AcDbLine
 62
7
  6
CONTINUOUS
 10
10.5500312232
 20
10.7348411784
 11
9.7347518793
 21
9.9473417578
  0
LINE
  5
2A7
100
AcDbEntity
  8
0
100
AcDbLine
 62
7
  6
CONTINUOUS
 10
9.7347518793
 20
6.5666011655
 11
14.0814183551
 21
6.2651588216
  0
LINE
  5
2A8
100
AcDbEntity
  8
0
100
AcDbLine
 62
7
  6
CONTINUOUS
 10
9.7347518793
 20
6.8710228315
 11
7.2893690121
 21
7.0406107093
  0
LINE
  5
2A9
100
AcDbEntity
  8
0
100
AcDbLine
 62
7
  6
CONTINUOUS
 10
9.7347518793
 20
6.5666011655
 11
9.7347518793
 21
9.9473417578
  0
LINE
  5
2AA
100
AcDbEntity
  8
0
100
AcDbLine
 62
7
  6
CONTINUOUS
 10
7.1471429382
 20
7.6013137869
 11
9.7347518793
 21
7.4218624973
  0
LINE
  5
2AB
100
AcDbEntity
  8
0
100
AcDbLine
 62
7
  6
CONTINUOUS
 10
7.103302301
 20
9.3113372768
 11
7.1471429382
 21
9.291684083
  0
LINE
  5
2AC
100
AcDbEntity
  8
0
100
AcDbLine
 62
7
  6
CONTINUOUS
 10
14.5390974059
 20
7.9880605607
 11
14.4501348055
 21
7.994230138
  0
LINE
  5
2AD
100
AcDbEntity
  8
0
100
AcDbLine
 62
7
  6
CONTINUOUS
 10
14.5764546864
 20
8.2656263957
 11
14.4476539803
 21
8.274558755
  0
LINE
  5
2AE
100
AcDbEntity
  8
0
100
AcDbLine
 62
7
  6
CONTINUOUS
 10
11.9815949914
 20
9.1550972762
 11
11.9591715139
 21
9.134227873
  0
LINE
  5
2AF
100
AcDbEntity
  8
0
100
AcDbLine
 62
7
  6
CONTINUOUS
 10
7.1471429382
 20
9.291684083
 11
9.7347518793
 21
9.1122327935
  0
LINE
  5
2B0
100
AcDbEntity
  8
0
100
AcDbLine
 62
4
  6
CONTINUOUS
 10
14.5007048614
 20
9.2974769145
 11
14.516233991
 21
9.2979880147
  0
LINE
  5
2B1
100
AcDbEntity
  8
0
100
AcDbLine
 62
7
  6
CONTINUOUS
 10
10.9739245587
 20
7.0433262841
 11
10.898730563
 21
6.9706944574
  0
LINE
  5
2B2
100
AcDbEntity
  8
0
100
AcDbLine
 62
7
  6
CONTINUOUS
 10
11.1473481482
 20
6.8632585403
 11
11.072417216
 21
6.7908808134
  0
LINE
  5
2B3
100
AcDbEntity
  8
0
100
AcDbLine
 62
7
  6
CONTINUOUS
 10
14.0814183551
 20
9.6458994139
 11
14.896697699
 21
10.4333988345
  0
LINE
  5
2B4
100
AcDbEntity
  8
0
100
AcDbLine
 62
7
  6
CONTINUOUS
 10
9.7347518793
 20
9.9473417578
 11
14.0814183551
 21
9.6458994139
  0
LINE
  5
2B5
100
AcDbEntity
  8
0
100
AcDbLine
 62
7
  6
CONTINUOUS
 10
7.3412570618
 20
10.203628352
 11
9.821972248
 21
10.0315901696
  0
LINE
  5
2B6
100
AcDbEntity
  8
0
100
AcDbLine
 62
4
  6
CONTINUOUS
 10
14.5007048614
 20
9.1525880352
 11
14.4799993557
 21
9.1325880513
  0
LINE
  5
2B7
100
AcDbEntity
  8
0
100
AcDbLine
 62
7
  6
CONTINUOUS
 10
7.7517437286
 20
10.6001280483
 11
10.2324589148
 21
10.4280898658
  0
LINE
  5
2B8
100
AcDbEntity
  8
0
100
AcDbLine
 62
7
  6
CONTINUOUS
 10
10.2588837199
 20
10.4536142691
 11
7.8036317783
 21
10.6238865696
  0
LINE
  5
2B9
100
AcDbEntity
  8
0
100
AcDbLine
 62
7
  6
CONTINUOUS
 10
14.5017401254
 20
8.7343761621
 11
14.503109615
 21
8.7356746561
  0
LINE
  5
2BA
100
AcDbEntity
  8
0
100
AcDbLine
 62
7
  6
CONTINUOUS
 10
14.896697699
 20
10.4333988345
 11
10.5500312232
 21
10.7348411784
  0
LINE
  5
2BB
100
AcDbEntity
  8
0
100
AcDbLine
 62
4
  6
CONTINUOUS
 10
14.4851757319
 20
9.2679880384
 11
14.5007048614
 21
9.2974769145
  0
LINE
  5
2BC
100
AcDbEntity
  8
0
100
AcDbLine
 62
7
  6
CONTINUOUS
 10
14.5390974059
 20
8.4710235024
 11
14.4643828449
 21
8.3988547741
  0
LINE
  5
2BD
100
AcDbEntity
  8
0
100
AcDbLine
 62
7
  6
CONTINUOUS
 10
14.4643828449
 20
7.9158918323
 11
14.5390974059
 21
7.9880605607
  0
LINE
  5
2BE
100
AcDbEntity
  8
02___PRT_ALL_AXES
100
AcDbLine
 62
7
  6
CONTINUOUS
 10
14.4097434771
 20
7.7243472465
 11
14.5007701717
 21
7.8090652744
  0
LINE
  5
2BF
100
AcDbEntity
  8
02___PRT_ALL_AXES
100
AcDbLine
 62
7
  6
CONTINUOUS
 10
14.475378552
 20
8.6707762588
 11
14.5538396722
 21
8.574304211
  0
LINE
  5
2C0
100
AcDbEntity
  8
0
100
AcDbLine
 62
7
  6
CONTINUOUS
 10
14.0814183551
 20
6.2651588216
 11
14.0814183551
 21
9.6458994139
  0
LINE
  5
2C1
100
AcDbEntity
  8
0
100
AcDbLine
 62
4
  6
CONTINUOUS
 10
14.4696466024
 20
9.1950324985
 11
14.474822979
 21
9.2290102706
  0
LINE
  5
2C2
100
AcDbEntity
  8
0
100
AcDbLine
 62
4
  6
CONTINUOUS
 10
14.474822979
 20
9.2290102706
 11
14.4851757319
 21
9.2679880384
  0
LINE
  5
2C3
100
AcDbEntity
  8
0
100
AcDbLine
 62
4
  6
CONTINUOUS
 10
14.5265867453
 20
9.1920769046
 11
14.5214103663
 21
9.1725880182
  0
LINE
  5
2C4
100
AcDbEntity
  8
0
100
AcDbLine
 62
7
  6
CONTINUOUS
 10
14.4270255644
 20
8.121288939
 11
14.4643828449
 21
7.9158918323
  0
LINE
  5
2C5
100
AcDbEntity
  8
0
100
AcDbLine
 62
4
  6
CONTINUOUS
 10
14.4696466024
 20
9.1660547226
 11
14.4696466024
 21
9.1950324985
  0
LINE
  5
2C6
100
AcDbEntity
  8
0
100
AcDbLine
 62
4
  6
CONTINUOUS
 10
14.5007048614
 20
9.2105435869
 11
14.5007048614
 21
9.1525880352
  0
LINE
  5
2C7
100
AcDbEntity
  8
0
100
AcDbLine
 62
4
  6
CONTINUOUS
 10
14.5317631205
 20
9.2550324512
 11
14.5317631205
 21
9.2260546753
  0
LINE
  5
2C8
100
AcDbEntity
  8
0
100
AcDbLine
 62
7
  6
CONTINUOUS
 10
14.4643828449
 20
8.3988547741
 11
14.4270255644
 21
8.121288939
  0
LINE
  5
2C9
100
AcDbEntity
  8
0
100
AcDbLine
 62
7
  6
CONTINUOUS
 10
14.5390974059
 20
7.9880605607
 11
14.5764546864
 21
8.2656263957
  0
LINE
  5
2CA
100
AcDbEntity
  8
0
100
AcDbLine
 62
4
  6
CONTINUOUS
 10
14.5317631205
 20
9.2260546753
 11
14.5265867453
 21
9.1920769046
  0
LINE
  5
2CB
100
AcDbEntity
  8
0
100
AcDbLine
 62
4
  6
CONTINUOUS
 10
14.4799993557
 20
9.1325880513
 11
14.474822979
 21
9.142076943
  0
LINE
  5
2CC
100
AcDbEntity
  8
0
100
AcDbLine
 62
4
  6
CONTINUOUS
 10
14.516233991
 20
9.2979880147
 11
14.5265867453
 21
9.2790102322
  0
LINE
  5
2CD
100
AcDbEntity
  8
0
100
AcDbLine
 62
4
  6
CONTINUOUS
 10
14.474822979
 20
9.142076943
 11
14.4696466024
 21
9.1660547226
  0
LINE
  5
2CE
100
AcDbEntity
  8
0
100
AcDbLine
 62
4
  6
CONTINUOUS
 10
14.5265867453
 20
9.2790102322
 11
14.5317631205
 21
9.2550324512
  0
LINE
  5
2CF
100
AcDbEntity
  8
0
100
AcDbLine
 62
7
  6
CONTINUOUS
 10
14.5764546864
 20
8.2656263957
 11
14.5390974059
 21
8.4710235024
  0
LINE
  5
2D0
100
AcDbEntity
  8
0
100
AcDbLine
 62
7
  6
CONTINUOUS
 10
14.896697699
 20
7.0526582422
 11
14.896697699
 21
10.4333988345
  0
LINE
  5
2D1
100
AcDbEntity
  8
0
100
AcDbLine
 62
7
  6
CONTINUOUS
 10
14.0814183551
 20
6.2651588216
 11
14.896697699
 21
7.0526582422
  0
ARC
  5
2D2
100
AcDbEntity
  8
0
100
AcDbCircle
 62
7
  6
CONTINUOUS
 10
11.8925593435
 20
8.9669589039
 40
0.4355709259
100
AcDbArc
 50
136.1491272703
 51
138.6433392725
  0
ARC
  5
2D3
100
AcDbEntity
  8
0
100
AcDbCircle
 62
7
  6
CONTINUOUS
 10
12.6466737422
 20
8.0380234088
 40
0.435519879
100
AcDbArc
 50
309.3819572519
 51
311.7297978908
  0
ARC
  5
2D4
100
AcDbEntity
  8
0
100
AcDbCircle
 62
7
  6
CONTINUOUS
 10
11.3175596813
 20
8.130197782
 40
0.435519879
100
AcDbArc
 50
309.3819572518
 51
311.7297978908
  0
ARC
  5
2D5
100
AcDbEntity
  8
0
100
AcDbCircle
 62
7
  6
CONTINUOUS
 10
11.9821166542
 20
7.2920513818
 40
0.435519879
100
AcDbArc
 50
309.3819572518
 51
311.7297978908
  0
ARC
  5
2D6
100
AcDbEntity
  8
0
100
AcDbCircle
 62
7
  6
CONTINUOUS
 10
12.5570625625
 20
8.13079391
 40
0.4354976796
100
AcDbArc
 50
136.0365876126
 51
138.6331153453
  0
ARC
  5
2D7
100
AcDbEntity
  8
0
100
AcDbCircle
 62
7
  6
CONTINUOUS
 10
11.2279485016
 20
8.2229682832
 40
0.4354976796
100
AcDbArc
 50
136.0365876125
 51
138.6331153453
  0
ARC
  5
2D8
100
AcDbEntity
  8
0
100
AcDbCircle
 62
7
  6
CONTINUOUS
 10
11.8925054745
 20
7.384821883
 40
0.4354976796
100
AcDbArc
 50
136.0365876126
 51
138.6331153453
  0
ARC
  5
2D9
100
AcDbEntity
  8
0
100
AcDbCircle
 62
7
  6
CONTINUOUS
 10
11.982144187
 20
8.8742069186
 40
0.435478336
100
AcDbArc
 50
309.3779618933
 51
311.6641323971
  0
ARC
  5
2DA
100
AcDbEntity
  8
0
100
AcDbCircle
 62
7
  6
CONTINUOUS
 10
11.7690858611
 20
7.3878753527
 40
0.2548937285
100
AcDbArc
 50
268.1564653274
 51
278.4126446429
  0
ARC
  5
2DB
100
AcDbEntity
  8
0
100
AcDbCircle
 62
7
  6
CONTINUOUS
 10
11.0481516463
 20
6.9186133554
 40
0.1137311029
100
AcDbArc
 50
296.9624316774
 51
313.9863865026
  0
ARC
  5
2DC
100
AcDbEntity
  8
0
100
AcDbCircle
 62
7
  6
CONTINUOUS
 10
11.0255353994
 20
6.9420254521
 40
0.1137179931
100
AcDbArc
 50
134.0256870622
 51
150.8745713197
  0
SPLINE
  5
2DD
100
AcDbEntity
  8
0
100
AcDbSpline
 62
7
  6
CONTINUOUS
 70
0
 71
3
 72
39
 73
35
 74
0
 42
0.0000001
 43
0.0000001
 44
0.0000000001
 40
0.0
 40
0.0
 40
0.0
 40
0.0
 40
0.0299422331
 40
0.0599092575
 40
0.0899241853
 40
0.1200100237
 40
0.1501875599
 40
0.1804752385
 40
0.2108897545
 40
0.2414436546
 40
0.2721471403
 40
0.3030068828
 40
0.334025345
 40
0.3652026833
 40
0.3965345645
 40
0.4280135898
 40
0.4596299292
 40
0.4913697388
 40
0.5232175329
 40
0.5551555029
 40
0.587163356
 40
0.6192204168
 40
0.6513042093
 40
0.6833916162
 40
0.7154605923
 40
0.7474887634
 40
0.7794547541
 40
0.8113371941
 40
0.843114759
 40
0.8747724449
 40
0.9063035463
 40
0.9377027577
 40
0.968947027
 40
1.0
 40
1.0
 40
1.0
 40
1.0
 10
11.0724171906
 20
6.7908808396
 30
0.0
 10
11.0703435786
 20
6.788877733
 30
0.0
 10
11.0660327355
 20
6.7850337012
 30
0.0
 10
11.0591266963
 20
6.7797964369
 30
0.0
 10
11.0518160444
 20
6.7751138235
 30
0.0
 10
11.0441402762
 20
6.7710146361
 30
0.0
 10
11.036143304
 20
6.7675181374
 30
0.0
 10
11.0278681622
 20
6.764645515
 30
0.0
 10
11.0193606438
 20
6.7624127743
 30
0.0
 10
11.0106680685
 20
6.7608296082
 30
0.0
 10
11.0018376798
 20
6.759908071
 30
0.0
 10
10.9929185185
 20
6.7596506376
 30
0.0
 10
10.9839593593
 20
6.7600586418
 30
0.0
 10
10.9750097604
 20
6.7611321429
 30
0.0
 10
10.9661184701
 20
6.7628617315
 30
0.0
 10
10.9573346443
 20
6.7652403044
 30
0.0
 10
10.9487066722
 20
6.7682543794
 30
0.0
 10
10.9402810278
 20
6.771885403
 30
0.0
 10
10.9321053251
 20
6.7761164593
 30
0.0
 10
10.9242232984
 20
6.7809217855
 30
0.0
 10
10.9166782447
 20
6.7862755158
 30
0.0
 10
10.9095128808
 20
6.7921497419
 30
0.0
 10
10.902764419
 20
6.7985096634
 30
0.0
 10
10.8964716266
 20
6.8053223979
 30
0.0
 10
10.8906686896
 20
6.8125500013
 30
0.0
 10
10.8853860358
 20
6.8201520188
 30
0.0
 10
10.8806555427
 20
6.8280885321
 30
0.0
 10
10.8765006117
 20
6.8363139156
 30
0.0
 10
10.8729445543
 20
6.8447833378
 30
0.0
 10
10.8700084956
 20
6.8534515018
 30
0.0
 10
10.8677060266
 20
6.8622714844
 30
0.0
 10
10.8660532998
 20
6.8711957701
 30
0.0
 10
10.8650574532
 20
6.8801701801
 30
0.0
 10
10.8648331541
 20
6.8861709753
 30
0.0
 10
10.8648331541
 20
6.8891610338
 30
0.0
  0
SPLINE
  5
2DE
100
AcDbEntity
  8
0
100
AcDbSpline
 62
7
  6
CONTINUOUS
 70
0
 71
3
 72
15
 73
11
 74
0
 42
0.0000001
 43
0.0000001
 44
0.0000000001
 40
0.0
 40
0.0
 40
0.0
 40
0.0
 40
0.1234389364
 40
0.2470473381
 40
0.370987441
 40
0.4953935886
 40
0.620395394
 40
0.7461421851
 40
0.8727199755
 40
1.0
 40
1.0
 40
1.0
 40
1.0
 10
10.8987305884
 20
6.9706944312
 30
0.0
 10
10.8960467435
 20
6.9681018405
 30
0.0
 10
10.8909389502
 20
6.9626321349
 30
0.0
 10
10.8841537397
 20
6.9536790296
 30
0.0
 10
10.8783057233
 20
6.9440520955
 30
0.0
 10
10.8734448275
 20
6.9338448756
 30
0.0
 10
10.8696197785
 20
6.9231482717
 30
0.0
 10
10.8668621261
 20
6.9120604851
 30
0.0
 10
10.8652024829
 20
6.9006880142
 30
0.0
 10
10.8648331541
 20
6.8930087113
 30
0.0
 10
10.8648331541
 20
6.8891610338
 30
0.0
  0
SPLINE
  5
2DF
100
AcDbEntity
  8
0
100
AcDbSpline
 62
7
  6
CONTINUOUS
 70
0
 71
3
 72
39
 73
35
 74
0
 42
0.0000001
 43
0.0000001
 44
0.0000000001
 40
0.0
 40
0.0
 40
0.0
 40
0.0
 40
0.031052973
 40
0.0622972423
 40
0.0936964537
 40
0.1252275551
 40
0.156885241
 40
0.1886628059
 40
0.2205452459
 40
0.2525112366
 40
0.2845394077
 40
0.3166083838
 40
0.3486957907
 40
0.3807795832
 40
0.412836644
 40
0.4448444971
 40
0.4767824671
 40
0.5086302612
 40
0.5403700708
 40
0.5719864102
 40
0.6034654355
 40
0.6347973167
 40
0.665974655
 40
0.6969931172
 40
0.7278528597
 40
0.7585563454
 40
0.7891102455
 40
0.8195247615
 40
0.8498124401
 40
0.8799899763
 40
0.9100758147
 40
0.9400907425
 40
0.9700577669
 40
1.0
 40
1.0
 40
1.0
 40
1.0
 10
11.1063146249
 20
6.872414237
 30
0.0
 10
11.1063146249
 20
6.8754042955
 30
0.0
 10
11.1060903258
 20
6.8814050907
 30
0.0
 10
11.1050944792
 20
6.8903795007
 30
0.0
 10
11.1034417524
 20
6.8993037864
 30
0.0
 10
11.1011392834
 20
6.908123769
 30
0.0
 10
11.0982032247
 20
6.916791933
 30
0.0
 10
11.0946471673
 20
6.9252613552
 30
0.0
 10
11.0904922364
 20
6.9334867387
 30
0.0
 10
11.0857617432
 20
6.941423252
 30
0.0
 10
11.0804790894
 20
6.9490252695
 30
0.0
 10
11.0746761524
 20
6.9562528729
 30
0.0
 10
11.06838336
 20
6.9630656074
 30
0.0
 10
11.0616348982
 20
6.9694255289
 30
0.0
 10
11.0544695343
 20
6.975299755
 30
0.0
 10
11.0469244807
 20
6.9806534853
 30
0.0
 10
11.0390424539
 20
6.9854588115
 30
0.0
 10
11.0308667512
 20
6.9896898678
 30
0.0
 10
11.0224411068
 20
6.9933208914
 30
0.0
 10
11.0138131348
 20
6.9963349664
 30
0.0
 10
11.0050293089
 20
6.9987135393
 30
0.0
 10
10.9961380186
 20
7.0004431279
 30
0.0
 10
10.9871884197
 20
7.001516629
 30
0.0
 10
10.9782292605
 20
7.0019246332
 30
0.0
 10
10.9693100992
 20
7.0016671998
 30
0.0
 10
10.9604797105
 20
7.0007456626
 30
0.0
 10
10.9517871352
 20
6.9991624965
 30
0.0
 10
10.9432796168
 20
6.9969297558
 30
0.0
 10
10.935004475
 20
6.9940571334
 30
0.0
 10
10.9270075028
 20
6.9905606347
 30
0.0
 10
10.9193317346
 20
6.9864614473
 30
0.0
 10
10.9120210828
 20
6.9817788339
 30
0.0
 10
10.9051150435
 20
6.9765415696
 30
0.0
 10
10.9008042004
 20
6.9726975378
 30
0.0
 10
10.8987305884
 20
6.9706944312
 30
0.0
  0
SPLINE
  5
2E0
100
AcDbEntity
  8
0
100
AcDbSpline
 62
7
  6
CONTINUOUS
 70
0
 71
3
 72
53
 73
49
 74
0
 42
0.0000001
 43
0.0000001
 44
0.0000000001
 40
0.0
 40
0.0
 40
0.0
 40
0.0
 40
0.0313041153
 40
0.0470567589
 40
0.0628625042
 40
0.0945982077
 40
0.1264996374
 40
0.1585539205
 40
0.1907323133
 40
0.2068600129
 40
0.2230041193
 40
0.2391599002
 40
0.2553223468
 40
0.2714864126
 40
0.2876472596
 40
0.3038000459
 40
0.319939713
 40
0.3360612399
 40
0.3521599324
 40
0.3842632888
 40
0.4162252851
 40
0.4480185945
 40
0.4796216269
 40
0.5110196976
 40
0.5422062894
 40
0.5731821078
 40
0.6039571965
 40
0.6192792312
 40
0.6345582438
 40
0.6649908279
 40
0.6801620739
 40
0.6953058919
 40
0.7104271196
 40
0.7255305534
 40
0.7406211915
 40
0.755704483
 40
0.770786026
 40
0.7858711759
 40
0.800965253
 40
0.816073731
 40
0.8463431443
 40
0.8615227459
 40
0.8767341965
 40
0.907262381
 40
0.922599162
 40
0.9379872792
 40
0.9689083072
 40
1.0
 40
1.0
 40
1.0
 40
1.0
 10
11.0763892676
 20
6.865915201
 30
0.0
 10
11.0763892676
 20
6.8691658259
 30
0.0
 10
11.076147005
 20
6.8740563929
 30
0.0
 10
11.0753544223
 20
6.8805374933
 30
0.0
 10
11.0742444272
 20
6.8870179063
 30
0.0
 10
11.072266359
 20
6.8950405067
 30
0.0
 10
11.0689842201
 20
6.9044346434
 30
0.0
 10
11.0648190685
 20
6.9135223745
 30
0.0
 10
11.060649875
 20
6.9207656951
 30
0.0
 10
11.0569182388
 20
6.926323632
 30
0.0
 10
11.0539245211
 20
6.930366464
 30
0.0
 10
11.0507465357
 20
6.9342705984
 30
0.0
 10
11.0473919799
 20
6.9380269219
 30
0.0
 10
11.043868727
 20
6.9416262345
 30
0.0
 10
11.0401845865
 20
6.9450592201
 30
0.0
 10
11.0363490055
 20
6.948318216
 30
0.0
 10
11.0323714886
 20
6.9513956701
 30
0.0
 10
11.0282614056
 20
6.9542841697
 30
0.0
 10
11.0226233283
 20
6.9578691467
 30
0.0
 10
11.0152949819
 20
6.961844668
 30
0.0
 10
11.0061293148
 20
6.965763354
 30
0.0
 10
10.9966842422
 20
6.9687857872
 30
0.0
 10
10.98705224
 20
6.9708869885
 30
0.0
 10
10.9773246813
 20
6.9720412575
 30
0.0
 10
10.9675956553
 20
6.972242691
 30
0.0
 10
10.9579592194
 20
6.9714835112
 30
0.0
 10
10.9500689656
 20
6.9700577162
 30
0.0
 10
10.9438997651
 20
6.9684478335
 30
0.0
 10
10.9378552159
 20
6.9665352946
 30
0.0
 10
10.9319794275
 20
6.9641659704
 30
0.0
 10
10.9263287429
 20
6.9613572878
 30
0.0
 10
10.922217161
 20
6.9590384494
 30
0.0
 10
10.9182382524
 20
6.9565121244
 30
0.0
 10
10.9144013103
 20
6.953784413
 30
0.0
 10
10.9107158732
 20
6.9508615515
 30
0.0
 10
10.907191408
 20
6.9477499047
 30
0.0
 10
10.9038357588
 20
6.9444577286
 30
0.0
 10
10.9006568138
 20
6.9409931667
 30
0.0
 10
10.8976622471
 20
6.9373641826
 30
0.0
 10
10.893924755
 20
6.9323154306
 30
0.0
 10
10.89058466
 20
6.9269714877
 30
0.0
 10
10.8876703799
 20
6.9213846488
 30
0.0
 10
10.8850384216
 20
6.915629739
 30
0.0
 10
10.8828511109
 20
6.9096625704
 30
0.0
 10
10.8811234788
 20
6.9035389505
 30
0.0
 10
10.8797001002
 20
6.8972952654
 30
0.0
 10
10.8785111543
 20
6.8893323058
 30
0.0
 10
10.8781941062
 20
6.882888649
 30
0.0
 10
10.8781941062
 20
6.8796600821
 30
0.0
  0
SPLINE
  5
2E1
100
AcDbEntity
  8
0
100
AcDbSpline
 62
7
  6
CONTINUOUS
 70
0
 71
3
 72
15
 73
11
 74
0
 42
0.0000001
 43
0.0000001
 44
0.0000000001
 40
0.0
 40
0.0
 40
0.0
 40
0.0
 40
0.1272800245
 40
0.2538578149
 40
0.379604606
 40
0.5046064114
 40
0.629012559
 40
0.7529526619
 40
0.8765610636
 40
1.0
 40
1.0
 40
1.0
 40
1.0
 10
11.1063146249
 20
6.872414237
 30
0.0
 10
11.1063146249
 20
6.8685665595
 30
0.0
 10
11.1059452961
 20
6.8608872566
 30
0.0
 10
11.1042856529
 20
6.8495147857
 30
0.0
 10
11.1015280005
 20
6.8384269991
 30
0.0
 10
11.0977029516
 20
6.8277303952
 30
0.0
 10
11.0928420557
 20
6.8175231753
 30
0.0
 10
11.0869940393
 20
6.8078962412
 30
0.0
 10
11.0802088288
 20
6.7989431359
 30
0.0
 10
11.0751010355
 20
6.7934734303
 30
0.0
 10
11.0724171906
 20
6.7908808396
 30
0.0
  0
SPLINE
  5
2E2
100
AcDbEntity
  8
0
100
AcDbSpline
 62
7
  6
CONTINUOUS
 70
0
 71
3
 72
53
 73
49
 74
0
 42
0.0000001
 43
0.0000001
 44
0.0000000001
 40
0.0
 40
0.0
 40
0.0
 40
0.0
 40
0.0310916928
 40
0.0620127208
 40
0.077400838
 40
0.092737619
 40
0.1232658035
 40
0.1384772541
 40
0.1536568557
 40
0.183926269
 40
0.199034747
 40
0.2141288241
 40
0.229213974
 40
0.244295517
 40
0.2593788085
 40
0.2744694466
 40
0.2895728804
 40
0.3046941081
 40
0.3198379261
 40
0.3350091721
 40
0.3654417562
 40
0.3807207688
 40
0.3960428035
 40
0.4268178922
 40
0.4577937106
 40
0.4889803024
 40
0.5203783731
 40
0.5519814055
 40
0.5837747149
 40
0.6157367112
 40
0.6478400676
 40
0.6639387601
 40
0.680060287
 40
0.6961999541
 40
0.7123527404
 40
0.7285135874
 40
0.7446776532
 40
0.7608400998
 40
0.7769958807
 40
0.7931399871
 40
0.8092676867
 40
0.8414460795
 40
0.8735003626
 40
0.9054017923
 40
0.9371374958
 40
0.9529432411
 40
0.9686958847
 40
1.0
 40
1.0
 40
1.0
 40
1.0
 10
11.0763892676
 20
6.865915201
 30
0.0
 10
11.0763892676
 20
6.8626866341
 30
0.0
 10
11.0760722195
 20
6.8562429772
 30
0.0
 10
11.0748832736
 20
6.8482800177
 30
0.0
 10
11.073459895
 20
6.8420363326
 30
0.0
 10
11.0717322629
 20
6.8359127126
 30
0.0
 10
11.0695449522
 20
6.829945544
 30
0.0
 10
11.0669129938
 20
6.8241906342
 30
0.0
 10
11.0639987138
 20
6.8186037953
 30
0.0
 10
11.0606586188
 20
6.8132598524
 30
0.0
 10
11.0569211267
 20
6.8082111005
 30
0.0
 10
11.05392656
 20
6.8045821164
 30
0.0
 10
11.050747615
 20
6.8011175544
 30
0.0
 10
11.0473919658
 20
6.7978253784
 30
0.0
 10
11.0438675006
 20
6.7947137316
 30
0.0
 10
11.0401820635
 20
6.79179087
 30
0.0
 10
11.0363451214
 20
6.7890631587
 30
0.0
 10
11.0323662127
 20
6.7865368336
 30
0.0
 10
11.0282546309
 20
6.7842179953
 30
0.0
 10
11.0226039463
 20
6.7814093127
 30
0.0
 10
11.0167281579
 20
6.7790399885
 30
0.0
 10
11.0106836087
 20
6.7771274496
 30
0.0
 10
11.0045144082
 20
6.7755175668
 30
0.0
 10
10.9966241544
 20
6.7740917718
 30
0.0
 10
10.9869877185
 20
6.7733325921
 30
0.0
 10
10.9772586925
 20
6.7735340256
 30
0.0
 10
10.9675311338
 20
6.7746882945
 30
0.0
 10
10.9578991316
 20
6.7767894959
 30
0.0
 10
10.948454059
 20
6.779811929
 30
0.0
 10
10.9392883919
 20
6.783730615
 30
0.0
 10
10.9319600455
 20
6.7877061363
 30
0.0
 10
10.9263219682
 20
6.7912911133
 30
0.0
 10
10.9222118852
 20
6.7941796129
 30
0.0
 10
10.9182343683
 20
6.797257067
 30
0.0
 10
10.9143987873
 20
6.8005160629
 30
0.0
 10
10.9107146468
 20
6.8039490486
 30
0.0
 10
10.9071913939
 20
6.8075483611
 30
0.0
 10
10.9038368381
 20
6.8113046847
 30
0.0
 10
10.9006588527
 20
6.815208819
 30
0.0
 10
10.897665135
 20
6.8192516511
 30
0.0
 10
10.8939334988
 20
6.824809588
 30
0.0
 10
10.8897643053
 20
6.8320529085
 30
0.0
 10
10.8855991537
 20
6.8411406396
 30
0.0
 10
10.8823170148
 20
6.8505347763
 30
0.0
 10
10.8803389466
 20
6.8585573768
 30
0.0
 10
10.8792289515
 20
6.8650377897
 30
0.0
 10
10.8784363688
 20
6.8715188902
 30
0.0
 10
10.8781941062
 20
6.8764094572
 30
0.0
 10
10.8781941062
 20
6.8796600821
 30
0.0
  0
SPLINE
  5
2E3
100
AcDbEntity
  8
0
100
AcDbSpline
 62
7
  6
CONTINUOUS
 70
0
 71
3
 72
35
 73
31
 74
0
 42
0.0000001
 43
0.0000001
 44
0.0000000001
 40
0.0
 40
0.0
 40
0.0
 40
0.0
 40
0.0379237658
 40
0.0762666701
 40
0.1537948435
 40
0.2318288405
 40
0.3096806286
 40
0.3866382824
 40
0.4245616369
 40
0.4619996143
 40
0.4988672762
 40
0.5350825448
 40
0.5705646051
 40
0.6052337767
 40
0.6390149664
 40
0.671835283
 40
0.7036234095
 40
0.7343139579
 40
0.7638447836
 40
0.7921560443
 40
0.8191955036
 40
0.844915786
 40
0.8692732406
 40
0.8922342286
 40
0.9137728837
 40
0.9338703622
 40
0.9525226072
 40
0.9697398775
 40
0.985548122
 40
1.0
 40
1.0
 40
1.0
 40
1.0
 10
11.9103155125
 20
8.9064165046
 30
0.0
 10
11.9103155125
 20
8.9094062797
 30
0.0
 10
11.9103556173
 20
8.9154189515
 30
0.0
 10
11.9105928149
 20
8.9275415291
 30
0.0
 10
11.9111830296
 20
8.9428186739
 30
0.0
 10
11.9123480316
 20
8.9611851116
 30
0.0
 10
11.9139608679
 20
8.9794725078
 30
0.0
 10
11.915672868
 20
8.994571921
 30
0.0
 10
11.9172577348
 20
9.006475454
 30
0.0
 10
11.9185412961
 20
9.0152298687
 30
0.0
 10
11.9199227002
 20
9.0238330204
 30
0.0
 10
11.9213983373
 20
9.032264029
 30
0.0
 10
11.9229645069
 20
9.0405023484
 30
0.0
 10
11.9246177116
 20
9.0485278397
 30
0.0
 10
11.9263536725
 20
9.0563210143
 30
0.0
 10
11.9281680176
 20
9.0638629291
 30
0.0
 10
11.9300566593
 20
9.0711351518
 30
0.0
 10
11.9320147447
 20
9.0781200667
 30
0.0
 10
11.9340373199
 20
9.0848007478
 30
0.0
 10
11.9361198166
 20
9.0911608609
 30
0.0
 10
11.9382569107
 20
9.09718507
 30
0.0
 10
11.9404431699
 20
9.1028588901
 30
0.0
 10
11.942673679
 20
9.1081684773
 30
0.0
 10
11.9449427868
 20
9.1131011769
 30
0.0
 10
11.9472447373
 20
9.1176453658
 30
0.0
 10
11.9495745056
 20
9.1217900766
 30
0.0
 10
11.9519263634
 20
9.1255257047
 30
0.0
 10
11.9542947612
 20
9.1288440638
 30
0.0
 10
11.9566747669
 20
9.131736943
 30
0.0
 10
11.9583383265
 20
9.1334522276
 30
0.0
 10
11.9591723536
 20
9.1342284251
 30
0.0
  0
SPLINE
  5
2E4
100
AcDbEntity
  8
0
100
AcDbSpline
 62
7
  6
CONTINUOUS
 70
0
 71
3
 72
22
 73
18
 74
0
 42
0.0000001
 43
0.0000001
 44
0.0000000001
 40
0.0
 40
0.0
 40
0.0
 40
0.0
 40
0.0429570945
 40
0.0889791207
 40
0.1380158046
 40
0.1899949324
 40
0.2448334901
 40
0.3024289667
 40
0.3626657569
 40
0.4254219092
 40
0.4905579339
 40
0.5579246011
 40
0.6273699385
 40
0.6987379854
 40
0.8465951681
 40
0.9227134313
 40
1.0
 40
1.0
 40
1.0
 40
1.0
 10
11.9256308188
 20
8.7893712075
 30
0.0
 10
11.9250063331
 20
8.7909506652
 30
0.0
 10
11.9237942305
 20
8.7942548251
 30
0.0
 10
11.9221299328
 20
8.7994530129
 30
0.0
 10
11.9205604935
 20
8.8050519373
 30
0.0
 10
11.9190898149
 20
8.8110369902
 30
0.0
 10
11.9177222602
 20
8.8173928976
 30
0.0
 10
11.916461199
 20
8.824103168
 30
0.0
 10
11.9153097918
 20
8.8311504245
 30
0.0
 10
11.9142715535
 20
8.8385163783
 30
0.0
 10
11.9133489322
 20
8.8461816581
 30
0.0
 10
11.9125442522
 20
8.8541260396
 30
0.0
 10
11.9118599939
 20
8.8623289655
 30
0.0
 10
11.9111014292
 20
8.8737175562
 30
0.0
 10
11.9106056209
 20
8.8853864504
 30
0.0
 10
11.9103568523
 20
8.8972953482
 30
0.0
 10
11.9103155125
 20
8.9033607596
 30
0.0
 10
11.9103155125
 20
8.9064165046
 30
0.0
  0
SPLINE
  5
2E5
100
AcDbEntity
  8
0
100
AcDbSpline
 62
7
  6
CONTINUOUS
 70
0
 71
3
 72
32
 73
28
 74
0
 42
0.0000001
 43
0.0000001
 44
0.0000000001
 40
0.0
 40
0.0
 40
0.0
 40
0.0
 40
0.0168093338
 40
0.034910689
 40
0.0543091956
 40
0.0750001855
 40
0.0969714846
 40
0.1202004049
 40
0.1446586463
 40
0.1703141444
 40
0.1971274101
 40
0.2250549091
 40
0.2540510839
 40
0.2840649115
 40
0.3150419845
 40
0.3469267563
 40
0.3796597566
 40
0.4131785651
 40
0.4823169127
 40
0.5538092881
 40
0.5902657191
 40
0.6270998594
 40
0.7016100971
 40
0.7767481906
 40
0.8519192504
 40
0.9265486567
 40
1.0
 40
1.0
 40
1.0
 40
1.0
 10
11.9830930047
 20
9.1552589912
 30
0.0
 10
11.9821981434
 20
9.15406366
 30
0.0
 10
11.9804191589
 20
9.15152101
 30
0.0
 10
11.977866563
 20
9.1474252135
 30
0.0
 10
11.9753363135
 20
9.142915828
 30
0.0
 10
11.9728338131
 20
9.1380021925
 30
0.0
 10
11.9703646286
 20
9.1326941397
 30
0.0
 10
11.9679335776
 20
9.1270028924
 30
0.0
 10
11.9655457675
 20
9.1209403121
 30
0.0
 10
11.963206636
 20
9.1145189249
 30
0.0
 10
11.9609208598
 20
9.1077523201
 30
0.0
 10
11.9586932004
 20
9.1006547649
 30
0.0
 10
11.956528734
 20
9.0932410813
 30
0.0
 10
11.954431866
 20
9.0855269572
 30
0.0
 10
11.9524069015
 20
9.0775287211
 30
0.0
 10
11.9504584493
 20
9.0692631698
 30
0.0
 10
11.9485905211
 20
9.0607477661
 30
0.0
 10
11.9461876176
 20
9.0489630974
 30
0.0
 10
11.9434220797
 20
9.0337403907
 30
0.0
 10
11.9410152101
 20
9.0181930906
 30
0.0
 10
11.9392823206
 20
9.005448946
 30
0.0
 10
11.9376708076
 20
8.9924187138
 30
0.0
 10
11.9359317652
 20
8.9759432436
 30
0.0
 10
11.9342946808
 20
8.9560379186
 30
0.0
 10
11.9331138072
 20
8.9360896234
 30
0.0
 10
11.9323994892
 20
8.9162692201
 30
0.0
 10
11.9322358311
 20
8.9031146309
 30
0.0
 10
11.9322358311
 20
8.8965899077
 30
0.0
  0
SPLINE
  5
2E6
100
AcDbEntity
  8
0
100
AcDbSpline
 62
7
  6
CONTINUOUS
 70
0
 71
3
 72
30
 73
26
 74
0
 42
0.0000001
 43
0.0000001
 44
0.0000000001
 40
0.0
 40
0.0
 40
0.0
 40
0.0
 40
0.0851520629
 40
0.168577058
 40
0.2498910225
 40
0.3287779119
 40
0.4049539435
 40
0.4781412995
 40
0.5480688635
 40
0.6144875948
 40
0.6771766893
 40
0.7070600333
 40
0.7359399449
 40
0.7637969413
 40
0.790612775
 40
0.8163715454
 40
0.8410623707
 40
0.864677167
 40
0.8872103002
 40
0.908659354
 40
0.9290283141
 40
0.9483275138
 40
0.9665726611
 40
0.9837861383
 40
1.0
 40
1.0
 40
1.0
 40
1.0
 10
11.9322358311
 20
8.8965899077
 30
0.0
 10
11.9322358311
 20
8.8920744719
 30
0.0
 10
11.9323130101
 20
8.8831349682
 30
0.0
 10
11.9326657438
 20
8.8698877487
 30
0.0
 10
11.9332537838
 20
8.856981349
 30
0.0
 10
11.9340741198
 20
8.8444727652
 30
0.0
 10
11.935123401
 20
8.8324137098
 30
0.0
 10
11.9363968616
 20
8.8208540046
 30
0.0
 10
11.9378890577
 20
8.8098422283
 30
0.0
 10
11.9395938787
 20
8.7994249729
 30
0.0
 10
11.9412097781
 20
8.7911485963
 30
0.0
 10
11.9426107624
 20
8.7848621407
 30
0.0
 10
11.943693079
 20
8.7803978862
 30
0.0
 10
11.9448225817
 20
8.7761133266
 30
0.0
 10
11.9459981296
 20
8.7720130396
 30
0.0
 10
11.9472186391
 20
8.768101407
 30
0.0
 10
11.9484826748
 20
8.7643824211
 30
0.0
 10
11.9497888602
 20
8.760859848
 30
0.0
 10
11.9511358223
 20
8.7575373814
 30
0.0
 10
11.9525223361
 20
8.7544185992
 30
0.0
 10
11.9539469489
 20
8.7515066845
 30
0.0
 10
11.9554080766
 20
8.748804461
 30
0.0
 10
11.9569042944
 20
8.7463146005
 30
0.0
 10
11.9584341528
 20
8.7440398788
 30
0.0
 10
11.9595070094
 20
8.7426271776
 30
0.0
 10
11.960049537
 20
8.741960171
 30
0.0
  0
SPLINE
  5
2E7
100
AcDbEntity
  8
0
100
AcDbSpline
 62
7
  6
CONTINUOUS
 70
0
 71
3
 72
69
 73
65
 74
0
 42
0.0000001
 43
0.0000001
 44
0.0000000001
 40
0.0
 40
0.0
 40
0.0
 40
0.0
 40
0.0312903904
 40
0.0470006528
 40
0.0627445756
 40
0.0785223279
 40
0.0943340764
 40
0.110178696
 40
0.1260536366
 40
0.1419560695
 40
0.1578832983
 40
0.1738324715
 40
0.1898005575
 40
0.2217715317
 40
0.2377758121
 40
0.2537849262
 40
0.2697951068
 40
0.2858026717
 40
0.3018039038
 40
0.3177951149
 40
0.3337728137
 40
0.3497335585
 40
0.3656740791
 40
0.3815913812
 40
0.3974825997
 40
0.4133451737
 40
0.4291768584
 40
0.4449756206
 40
0.4607398374
 40
0.4764681958
 40
0.4921596776
 40
0.5078137322
 40
0.5234300822
 40
0.5390088225
 40
0.5545505019
 40
0.5700558957
 40
0.585526204
 40
0.6009629954
 40
0.616368028
 40
0.6317434933
 40
0.6470918197
 40
0.6624156028
 40
0.6777178217
 40
0.6930015504
 40
0.7082700017
 40
0.7235266723
 40
0.7387750315
 40
0.7540186351
 40
0.7692612099
 40
0.784506353
 40
0.7997576804
 40
0.8150188192
 40
0.8302931417
 40
0.8455840027
 40
0.860894753
 40
0.8762284425
 40
0.8915878651
 40
0.9069752245
 40
0.9223923275
 40
0.9378418307
 40
0.9533270851
 40
0.9688506846
 40
0.9844102313
 40
1.0
 40
1.0
 40
1.0
 40
1.0
 10
12.3774978897
 20
7.2939943537
 30
0.0
 10
12.3774976974
 20
7.3090213253
 30
0.0
 10
12.3763840796
 20
7.3316128564
 30
0.0
 10
12.3727223034
 20
7.3615298796
 30
0.0
 10
12.3688820306
 20
7.383894908
 30
0.0
 10
12.363965415
 20
7.4060969712
 30
0.0
 10
12.3579837631
 20
7.4280864356
 30
0.0
 10
12.3509526023
 20
7.4498120189
 30
0.0
 10
12.3428912099
 20
7.4712232525
 30
0.0
 10
12.3338172679
 20
7.4922686286
 30
0.0
 10
12.3237542308
 20
7.5128987604
 30
0.0
 10
12.3127270352
 20
7.5330667387
 30
0.0
 10
12.2967687933
 20
7.5592815365
 30
0.0
 10
12.278990005
 20
7.584384125
 30
0.0
 10
12.2595330298
 20
7.6081777083
 30
0.0
 10
12.2441216714
 20
7.6253471922
 30
0.0
 10
12.227935625
 20
7.6417896596
 30
0.0
 10
12.2110115708
 20
7.6574661599
 30
0.0
 10
12.1933909697
 20
7.6723412459
 30
0.0
 10
12.1751139655
 20
7.6863785765
 30
0.0
 10
12.1562232403
 20
7.6995444433
 30
0.0
 10
12.1367640814
 20
7.7118091073
 30
0.0
 10
12.11678079
 20
7.7231412955
 30
0.0
 10
12.0963205675
 20
7.7335142108
 30
0.0
 10
12.0754318126
 20
7.7429038531
 30
0.0
 10
12.0541624592
 20
7.7512848945
 30
0.0
 10
12.0325631191
 20
7.7586380574
 30
0.0
 10
12.0106845664
 20
7.7649452685
 30
0.0
 10
11.9885777626
 20
7.7701881101
 30
0.0
 10
11.9662955256
 20
7.7743551191
 30
0.0
 10
11.9438903883
 20
7.7774343638
 30
0.0
 10
11.9214155051
 20
7.7794154153
 30
0.0
 10
11.8989247261
 20
7.7802945641
 30
0.0
 10
11.8764717673
 20
7.780066449
 30
0.0
 10
11.8541108059
 20
7.7787295418
 30
0.0
 10
11.8318956924
 20
7.7762876938
 30
0.0
 10
11.8098806168
 20
7.7727427398
 30
0.0
 10
11.7881193117
 20
7.7681026248
 30
0.0
 10
11.7666647157
 20
7.7623785178
 30
0.0
 10
11.7455704556
 20
7.7555802504
 30
0.0
 10
11.7248881688
 20
7.7477252788
 30
0.0
 10
11.7046690266
 20
7.7388318252
 30
0.0
 10
11.6849645222
 20
7.7289185781
 30
0.0
 10
11.6658226438
 20
7.7180117991
 30
0.0
 10
11.6472918599
 20
7.7061366117
 30
0.0
 10
11.6294194574
 20
7.6933209974
 30
0.0
 10
11.6122485995
 20
7.6795987386
 30
0.0
 10
11.5958238049
 20
7.6650018316
 30
0.0
 10
11.5801860433
 20
7.6495669933
 30
0.0
 10
11.5653728564
 20
7.633334098
 30
0.0
 10
11.5514232868
 20
7.6163417773
 30
0.0
 10
11.5383703749
 20
7.5986340415
 30
0.0
 10
11.5262455422
 20
7.5802556136
 30
0.0
 10
11.5150805711
 20
7.5612511619
 30
0.0
 10
11.5048999533
 20
7.5416696797
 30
0.0
 10
11.4957286831
 20
7.521559459
 30
0.0
 10
11.4875898038
 20
7.5009702573
 30
0.0
 10
11.4804993398
 20
7.4799547153
 30
0.0
 10
11.4744749748
 20
7.4585642111
 30
0.0
 10
11.4695302535
 20
7.4368505408
 30
0.0
 10
11.4656738524
 20
7.4148656007
 30
0.0
 10
11.4629165069
 20
7.3926626355
 30
0.0
 10
11.4612612984
 20
7.3703007999
 30
0.0
 10
11.4608935934
 20
7.3553389534
 30
0.0
 10
11.4608935046
 20
7.3478520858
 30
0.0
  0
SPLINE
  5
2E8
100
AcDbEntity
  8
0
100
AcDbSpline
 62
7
  6
CONTINUOUS
 70
0
 71
3
 72
65
 73
61
 74
0
 42
0.0000001
 43
0.0000001
 44
0.0000000001
 40
0.0
 40
0.0
 40
0.0
 40
0.0
 40
0.0310480611
 40
0.0464649297
 40
0.061800731
 40
0.0922348386
 40
0.1223994853
 40
0.1373982455
 40
0.1523450299
 40
0.1672467782
 40
0.1821108888
 40
0.1969449792
 40
0.2117572313
 40
0.2265559693
 40
0.2413496102
 40
0.2561467317
 40
0.2709558122
 40
0.285785298
 40
0.3006433284
 40
0.3155375101
 40
0.3304753132
 40
0.3454636469
 40
0.3605084676
 40
0.375615484
 40
0.3907897569
 40
0.4060350815
 40
0.4213548945
 40
0.4367520193
 40
0.4522278892
 40
0.4677834893
 40
0.4834192846
 40
0.4991344067
 40
0.5149274953
 40
0.5307967742
 40
0.5467393053
 40
0.5627516644
 40
0.578830121
 40
0.6111574611
 40
0.6274047431
 40
0.643697115
 40
0.6600282616
 40
0.6763917887
 40
0.7091799725
 40
0.7255990827
 40
0.7420225216
 40
0.7584429775
 40
0.774853285
 40
0.7912463688
 40
0.8076151028
 40
0.8239526467
 40
0.8402526445
 40
0.8565088447
 40
0.8727152748
 40
0.8888661881
 40
0.9049558805
 40
0.9369254242
 40
0.952810249
 40
0.9686226856
 40
0.9843555469
 40
1.0
 40
1.0
 40
1.0
 40
1.0
 10
11.6008935142
 20
7.3478518259
 30
0.0
 10
11.6008937302
 20
7.3582106901
 30
0.0
 10
11.6016535921
 20
7.3737279156
 30
0.0
 10
11.6041978626
 20
7.3941958263
 30
0.0
 10
11.6077322647
 20
7.4143097863
 30
0.0
 10
11.6139997375
 20
7.4389046613
 30
0.0
 10
11.622713759
 20
7.4626248452
 30
0.0
 10
11.631073534
 20
7.4808628985
 30
0.0
 10
11.6380117699
 20
7.4941278771
 30
0.0
 10
11.64561066
 20
7.5069731816
 30
0.0
 10
11.6538515699
 20
7.5193713986
 30
0.0
 10
11.6627163719
 20
7.5312943095
 30
0.0
 10
11.6721837484
 20
7.5427162853
 30
0.0
 10
11.6822315938
 20
7.5536127976
 30
0.0
 10
11.6928384751
 20
7.5639587273
 30
0.0
 10
11.7039803203
 20
7.5737313863
 30
0.0
 10
11.7156318788
 20
7.5829096917
 30
0.0
 10
11.7277684324
 20
7.5914716755
 30
0.0
 10
11.7403631231
 20
7.5993975889
 30
0.0
 10
11.7533875756
 20
7.6066698633
 30
0.0
 10
11.7668137224
 20
7.6132698318
 30
0.0
 10
11.780611743
 20
7.6191808488
 30
0.0
 10
11.7947501341
 20
7.624389295
 30
0.0
 10
11.8091974573
 20
7.6288803532
 30
0.0
 10
11.8239208679
 20
7.6326409944
 30
0.0
 10
11.8388859736
 20
7.6356621718
 30
0.0
 10
11.8540582262
 20
7.6379336741
 30
0.0
 10
11.8694019906
 20
7.6394468086
 30
0.0
 10
11.8848805646
 20
7.6401977617
 30
0.0
 10
11.9004569411
 20
7.6401817037
 30
0.0
 10
11.9160933014
 20
7.6393950396
 30
0.0
 10
11.9317515333
 20
7.6378396921
 30
0.0
 10
11.9473931465
 20
7.6355167877
 30
0.0
 10
11.9629791094
 20
7.6324284129
 30
0.0
 10
11.9784708219
 20
7.62858256
 30
0.0
 10
11.9938300586
 20
7.6239863142
 30
0.0
 10
12.0141120792
 20
7.6168572935
 30
0.0
 10
12.03394371
 20
7.6082766136
 30
0.0
 10
12.053165871
 20
7.5983196114
 30
0.0
 10
12.067287972
 20
7.5901572082
 30
0.0
 10
12.0810525073
 20
7.5813332653
 30
0.0
 10
12.0988890692
 20
7.5687067092
 30
0.0
 10
12.1158653159
 20
7.5548499718
 30
0.0
 10
12.1318462922
 20
7.5398721433
 30
0.0
 10
12.1433191941
 20
7.528094341
 30
0.0
 10
12.1542420544
 20
7.5158092439
 30
0.0
 10
12.1645864382
 20
7.5030460995
 30
0.0
 10
12.174328049
 20
7.4898386523
 30
0.0
 10
12.1834429045
 20
7.4762202581
 30
0.0
 10
12.1919068865
 20
7.4622243262
 30
0.0
 10
12.1997011039
 20
7.4478873802
 30
0.0
 10
12.2068069545
 20
7.4332455823
 30
0.0
 10
12.2132055608
 20
7.4183354132
 30
0.0
 10
12.2188840983
 20
7.403195158
 30
0.0
 10
12.2254632551
 20
7.3828012956
 30
0.0
 10
12.2305740548
 20
7.3620486815
 30
0.0
 10
12.234164403
 20
7.3411062909
 30
0.0
 10
12.2360853863
 20
7.3253920853
 30
0.0
 10
12.2372392361
 20
7.309684295
 30
0.0
 10
12.2374977607
 20
7.2992138042
 30
0.0
 10
12.2374978786
 20
7.2939941943
 30
0.0
  0
SPLINE
  5
2E9
100
AcDbEntity
  8
0
100
AcDbSpline
 62
7
  6
CONTINUOUS
 70
0
 71
3
 72
69
 73
65
 74
0
 42
0.0000001
 43
0.0000001
 44
0.0000000001
 40
0.0
 40
0.0
 40
0.0
 40
0.0
 40
0.0312903911
 40
0.0470006543
 40
0.0627445771
 40
0.0785223289
 40
0.0943340764
 40
0.1101786947
 40
0.126053634
 40
0.1419560655
 40
0.157883293
 40
0.1738324649
 40
0.1898005499
 40
0.2217715222
 40
0.2377758016
 40
0.253784915
 40
0.2697950952
 40
0.2858026601
 40
0.3018038922
 40
0.3177951034
 40
0.333772802
 40
0.3497335464
 40
0.3656740664
 40
0.3815913678
 40
0.3974825851
 40
0.4133451574
 40
0.4291768396
 40
0.4449755982
 40
0.4607398103
 40
0.4764681644
 40
0.4921596439
 40
0.5078136996
 40
0.5234300536
 40
0.5390088005
 40
0.5545504881
 40
0.5700558896
 40
0.5855262037
 40
0.6009629988
 40
0.6163680341
 40
0.631743502
 40
0.6470918309
 40
0.6624156163
 40
0.6777178363
 40
0.6930015641
 40
0.7082700105
 40
0.7235266729
 40
0.7387750246
 40
0.7540186258
 40
0.7692612029
 40
0.7845063491
 40
0.7997576767
 40
0.8150188128
 40
0.8302931311
 40
0.8455839876
 40
0.8608947335
 40
0.876228419
 40
0.8915878381
 40
0.906975194
 40
0.9223922944
 40
0.9378417982
 40
0.9533270585
 40
0.9688506682
 40
0.9844102238
 40
1.0
 40
1.0
 40
1.0
 40
1.0
 10
11.4608935068
 20
7.3478518894
 30
0.0
 10
11.4608936991
 20
7.3328249174
 30
0.0
 10
11.4620073173
 20
7.3102333857
 30
0.0
 10
11.4656690933
 20
7.2803163617
 30
0.0
 10
11.4695093662
 20
7.2579513332
 30
0.0
 10
11.4744259817
 20
7.2357492708
 30
0.0
 10
11.4804076333
 20
7.2137598077
 30
0.0
 10
11.4874387934
 20
7.192034226
 30
0.0
 10
11.495500185
 20
7.1706229941
 30
0.0
 10
11.5045741262
 20
7.1495776198
 30
0.0
 10
11.5146371618
 20
7.1289474895
 30
0.0
 10
11.5256643564
 20
7.1087795127
 30
0.0
 10
11.5416225969
 20
7.0825647163
 30
0.0
 10
11.5594013833
 20
7.0574621288
 30
0.0
 10
11.5788583568
 20
7.0336685464
 30
0.0
 10
11.5942697136
 20
7.0164990623
 30
0.0
 10
11.6104557596
 20
7.0000565953
 30
0.0
 10
11.627379813
 20
6.9843800944
 30
0.0
 10
11.6450004132
 20
6.9695050074
 30
0.0
 10
11.6632774174
 20
6.9554676768
 30
0.0
 10
11.6821681416
 20
6.9423018092
 30
0.0
 10
11.7016272994
 20
6.9300371446
 30
0.0
 10
11.7216105901
 20
6.9187049567
 30
0.0
 10
11.7420708108
 20
6.9083320406
 30
0.0
 10
11.7629595637
 20
6.898942398
 30
0.0
 10
11.7842289146
 20
6.8905613574
 30
0.0
 10
11.8058282505
 20
6.8832081935
 30
0.0
 10
11.8277067979
 20
6.8769009831
 30
0.0
 10
11.8498135954
 20
6.8716581412
 30
0.0
 10
11.8720958263
 20
6.8674911294
 30
0.0
 10
11.8945009611
 20
6.8644118854
 30
0.0
 10
11.9169758454
 20
6.8624308313
 30
0.0
 10
11.9394666298
 20
6.8615516781
 30
0.0
 10
11.9619195976
 20
6.8617797937
 30
0.0
 10
11.9842805698
 20
6.8631167003
 30
0.0
 10
12.0064956939
 20
6.8655585475
 30
0.0
 10
12.0285107777
 20
6.8691035025
 30
0.0
 10
12.0502720885
 20
6.873743619
 30
0.0
 10
12.0717266886
 20
6.8794677274
 30
0.0
 10
12.0928209522
 20
6.8862659963
 30
0.0
 10
12.1135032418
 20
6.8941209704
 30
0.0
 10
12.1337223865
 20
6.9030144252
 30
0.0
 10
12.1534268913
 20
6.9129276741
 30
0.0
 10
12.1725687667
 20
6.9238344538
 30
0.0
 10
12.1910995455
 20
6.9357096366
 30
0.0
 10
12.2089719406
 20
6.9485252443
 30
0.0
 10
12.2261427914
 20
6.9622474981
 30
0.0
 10
12.2425675819
 20
6.9768444042
 30
0.0
 10
12.258205345
 20
6.992279243
 30
0.0
 10
12.273018535
 20
7.008512139
 30
0.0
 10
12.2869681055
 20
7.0255044594
 30
0.0
 10
12.3000210161
 20
7.0432121921
 30
0.0
 10
12.3121458455
 20
7.0615906157
 30
0.0
 10
12.3233108141
 20
7.0805950613
 30
0.0
 10
12.3334914314
 20
7.1001765368
 30
0.0
 10
12.3426626988
 20
7.1202867524
 30
0.0
 10
12.3508015787
 20
7.1408759482
 30
0.0
 10
12.3578920449
 20
7.1618914847
 30
0.0
 10
12.3639164095
 20
7.1832819863
 30
0.0
 10
12.3688611349
 20
7.2049956575
 30
0.0
 10
12.3727175394
 20
7.2269806052
 30
0.0
 10
12.3754748846
 20
7.2491835825
 30
0.0
 10
12.3771300967
 20
7.2715454306
 30
0.0
 10
12.377497803
 20
7.2865072849
 30
0.0
 10
12.3774978919
 20
7.2939941562
 30
0.0
  0
SPLINE
  5
2EA
100
AcDbEntity
  8
0
100
AcDbSpline
 62
7
  6
CONTINUOUS
 70
0
 71
3
 72
65
 73
61
 74
0
 42
0.0000001
 43
0.0000001
 44
0.0000000001
 40
0.0
 40
0.0
 40
0.0
 40
0.0
 40
0.0310480609
 40
0.0464649293
 40
0.0618007306
 40
0.0922348384
 40
0.1223994854
 40
0.1373982457
 40
0.1523450303
 40
0.1672467788
 40
0.1821108896
 40
0.1969449801
 40
0.2117572324
 40
0.2265559705
 40
0.2413496115
 40
0.2561467331
 40
0.2709558136
 40
0.2857852993
 40
0.3006433297
 40
0.3155375112
 40
0.3304753141
 40
0.3454636475
 40
0.3605084679
 40
0.3756154841
 40
0.3907897567
 40
0.4060350812
 40
0.4213548941
 40
0.4367520191
 40
0.4522278894
 40
0.4677834902
 40
0.4834192865
 40
0.4991344099
 40
0.5149274995
 40
0.5307967793
 40
0.5467393109
 40
0.5627516699
 40
0.5788301256
 40
0.6111574632
 40
0.6274047439
 40
0.6436971146
 40
0.6600282604
 40
0.676391787
 40
0.7091799709
 40
0.7255990813
 40
0.7420225206
 40
0.7584429769
 40
0.7748532848
 40
0.7912463688
 40
0.8076151029
 40
0.8239526465
 40
0.8402526437
 40
0.8565088432
 40
0.8727152724
 40
0.8888661846
 40
0.9049558761
 40
0.9369254192
 40
0.9528102449
 40
0.9686226826
 40
0.984355545
 40
1.0
 40
1.0
 40
1.0
 40
1.0
 10
12.2374978823
 20
7.293994417
 30
0.0
 10
12.2374976663
 20
7.2836355529
 30
0.0
 10
12.2367378045
 20
7.2681183275
 30
0.0
 10
12.2341935339
 20
7.2476504169
 30
0.0
 10
12.2306591318
 20
7.227536457
 30
0.0
 10
12.2243916591
 20
7.2029415818
 30
0.0
 10
12.2156776375
 20
7.1792213977
 30
0.0
 10
12.2073178624
 20
7.1609833443
 30
0.0
 10
12.2003796264
 20
7.1477183655
 30
0.0
 10
12.1927807362
 20
7.1348730608
 30
0.0
 10
12.1845398262
 20
7.1224748437
 30
0.0
 10
12.1756750241
 20
7.1105519327
 30
0.0
 10
12.1662076474
 20
7.0991299568
 30
0.0
 10
12.1561598018
 20
7.0882334445
 30
0.0
 10
12.1455529205
 20
7.0778875147
 30
0.0
 10
12.1344110752
 20
7.0681148558
 30
0.0
 10
12.1227595166
 20
7.0589365505
 30
0.0
 10
12.110622963
 20
7.0503745666
 30
0.0
 10
12.0980282724
 20
7.0424486534
 30
0.0
 10
12.08500382
 20
7.0351763792
 30
0.0
 10
12.0715776734
 20
7.0285764108
 30
0.0
 10
12.057779653
 20
7.0226653939
 30
0.0
 10
12.0436412622
 20
7.0174569479
 30
0.0
 10
12.0291939393
 20
7.0129658897
 30
0.0
 10
12.0144705289
 20
7.0092052486
 30
0.0
 10
11.9995054233
 20
7.0061840712
 30
0.0
 10
11.9843331707
 20
7.0039125689
 30
0.0
 10
11.9689894062
 20
7.0023994343
 30
0.0
 10
11.9535108317
 20
7.0016484812
 30
0.0
 10
11.9379344545
 20
7.0016645392
 30
0.0
 10
11.9222980932
 20
7.0024512035
 30
0.0
 10
11.9066398602
 20
7.0040065513
 30
0.0
 10
11.890998246
 20
7.0063294558
 30
0.0
 10
11.8754122824
 20
7.0094178311
 30
0.0
 10
11.8599205697
 20
7.0132636845
 30
0.0
 10
11.8445613331
 20
7.0178599303
 30
0.0
 10
11.8242793136
 20
7.0249889506
 30
0.0
 10
11.8044476845
 20
7.0335696304
 30
0.0
 10
11.7852255249
 20
7.0435266318
 30
0.0
 10
11.7711034249
 20
7.0516890344
 30
0.0
 10
11.7573388903
 20
7.0605129769
 30
0.0
 10
11.7395023286
 20
7.0731395328
 30
0.0
 10
11.7225260819
 20
7.0869962699
 30
0.0
 10
11.7065451054
 20
7.1019740986
 30
0.0
 10
11.6950722032
 20
7.1137519011
 30
0.0
 10
11.6841493426
 20
7.1260369984
 30
0.0
 10
11.6738049586
 20
7.1388001431
 30
0.0
 10
11.6640633476
 20
7.1520075904
 30
0.0
 10
11.6549484921
 20
7.1656259846
 30
0.0
 10
11.6464845102
 20
7.1796219163
 30
0.0
 10
11.6386902931
 20
7.1939588617
 30
0.0
 10
11.6315844428
 20
7.208600659
 30
0.0
 10
11.6251858367
 20
7.2235108272
 30
0.0
 10
11.6195072992
 20
7.2386510813
 30
0.0
 10
11.6129281427
 20
7.2590449429
 30
0.0
 10
11.6078173425
 20
7.2797975567
 30
0.0
 10
11.6042269941
 20
7.3007399477
 30
0.0
 10
11.6023060109
 20
7.3164541544
 30
0.0
 10
11.6011521606
 20
7.332161946
 30
0.0
 10
11.6008936358
 20
7.3426324378
 30
0.0
 10
11.6008935179
 20
7.3478520483
 30
0.0
  0
SPLINE
  5
2EB
100
AcDbEntity
  8
0
100
AcDbSpline
 62
7
  6
CONTINUOUS
 70
0
 71
3
 72
69
 73
65
 74
0
 42
0.0000001
 43
0.0000001
 44
0.0000000001
 40
0.0
 40
0.0
 40
0.0
 40
0.0
 40
0.0312903904
 40
0.0470006528
 40
0.0627445756
 40
0.0785223279
 40
0.0943340764
 40
0.110178696
 40
0.1260536366
 40
0.1419560695
 40
0.1578832983
 40
0.1738324715
 40
0.1898005575
 40
0.2217715317
 40
0.2377758121
 40
0.2537849262
 40
0.2697951068
 40
0.2858026717
 40
0.3018039038
 40
0.3177951149
 40
0.3337728137
 40
0.3497335585
 40
0.3656740791
 40
0.3815913812
 40
0.3974825997
 40
0.4133451737
 40
0.4291768584
 40
0.4449756206
 40
0.4607398374
 40
0.4764681958
 40
0.4921596776
 40
0.5078137322
 40
0.5234300822
 40
0.5390088225
 40
0.5545505019
 40
0.5700558957
 40
0.585526204
 40
0.6009629954
 40
0.616368028
 40
0.6317434933
 40
0.6470918197
 40
0.6624156028
 40
0.6777178217
 40
0.6930015504
 40
0.7082700017
 40
0.7235266723
 40
0.7387750315
 40
0.7540186351
 40
0.7692612099
 40
0.784506353
 40
0.7997576804
 40
0.8150188192
 40
0.8302931417
 40
0.8455840027
 40
0.860894753
 40
0.8762284425
 40
0.8915878651
 40
0.9069752245
 40
0.9223923275
 40
0.9378418307
 40
0.9533270851
 40
0.9688506846
 40
0.9844102313
 40
1.0
 40
1.0
 40
1.0
 40
1.0
 10
11.7129409169
 20
8.1321407539
 30
0.0
 10
11.7129407246
 20
8.1471677255
 30
0.0
 10
11.7118271067
 20
8.1697592565
 30
0.0
 10
11.7081653305
 20
8.1996762798
 30
0.0
 10
11.7043250577
 20
8.2220413082
 30
0.0
 10
11.6994084422
 20
8.2442433714
 30
0.0
 10
11.6934267902
 20
8.2662328358
 30
0.0
 10
11.6863956294
 20
8.287958419
 30
0.0
 10
11.678334237
 20
8.3093696527
 30
0.0
 10
11.6692602951
 20
8.3304150288
 30
0.0
 10
11.659197258
 20
8.3510451606
 30
0.0
 10
11.6481700624
 20
8.3712131388
 30
0.0
 10
11.6322118205
 20
8.3974279367
 30
0.0
 10
11.6144330321
 20
8.4225305252
 30
0.0
 10
11.594976057
 20
8.4463241085
 30
0.0
 10
11.5795646986
 20
8.4634935923
 30
0.0
 10
11.5633786521
 20
8.4799360598
 30
0.0
 10
11.5464545979
 20
8.4956125601
 30
0.0
 10
11.5288339968
 20
8.5104876461
 30
0.0
 10
11.5105569926
 20
8.5245249767
 30
0.0
 10
11.4916662675
 20
8.5376908435
 30
0.0
 10
11.4722071086
 20
8.5499555075
 30
0.0
 10
11.4522238172
 20
8.5612876957
 30
0.0
 10
11.4317635947
 20
8.5716606109
 30
0.0
 10
11.4108748398
 20
8.5810502533
 30
0.0
 10
11.3896054863
 20
8.5894312947
 30
0.0
 10
11.3680061462
 20
8.5967844576
 30
0.0
 10
11.3461275936
 20
8.6030916687
 30
0.0
 10
11.3240207897
 20
8.6083345102
 30
0.0
 10
11.3017385528
 20
8.6125015193
 30
0.0
 10
11.2793334154
 20
8.615580764
 30
0.0
 10
11.2568585322
 20
8.6175618155
 30
0.0
 10
11.2343677533
 20
8.6184409643
 30
0.0
 10
11.2119147944
 20
8.6182128492
 30
0.0
 10
11.189553833
 20
8.616875942
 30
0.0
 10
11.1673387196
 20
8.614434094
 30
0.0
 10
11.145323644
 20
8.61088914
 30
0.0
 10
11.1235623388
 20
8.606249025
 30
0.0
 10
11.1021077428
 20
8.600524918
 30
0.0
 10
11.0810134827
 20
8.5937266506
 30
0.0
 10
11.0603311959
 20
8.585871679
 30
0.0
 10
11.0401120538
 20
8.5769782253
 30
0.0
 10
11.0204075493
 20
8.5670649783
 30
0.0
 10
11.0012656709
 20
8.5561581993
 30
0.0
 10
10.9827348871
 20
8.5442830119
 30
0.0
 10
10.9648624846
 20
8.5314673976
 30
0.0
 10
10.9476916266
 20
8.5177451388
 30
0.0
 10
10.9312668321
 20
8.5031482318
 30
0.0
 10
10.9156290704
 20
8.4877133935
 30
0.0
 10
10.9008158836
 20
8.4714804982
 30
0.0
 10
10.8868663139
 20
8.4544881774
 30
0.0
 10
10.873813402
 20
8.4367804417
 30
0.0
 10
10.8616885693
 20
8.4184020137
 30
0.0
 10
10.8505235983
 20
8.3993975621
 30
0.0
 10
10.8403429805
 20
8.3798160799
 30
0.0
 10
10.8311717103
 20
8.3597058592
 30
0.0
 10
10.8230328309
 20
8.3391166575
 30
0.0
 10
10.815942367
 20
8.3181011154
 30
0.0
 10
10.8099180019
 20
8.2967106113
 30
0.0
 10
10.8049732806
 20
8.2749969409
 30
0.0
 10
10.8011168796
 20
8.2530120009
 30
0.0
 10
10.7983595341
 20
8.2308090356
 30
0.0
 10
10.7967043255
 20
8.2084472001
 30
0.0
 10
10.7963366205
 20
8.1934853536
 30
0.0
 10
10.7963365318
 20
8.185998486
 30
0.0
  0
SPLINE
  5
2EC
100
AcDbEntity
  8
0
100
AcDbSpline
 62
7
  6
CONTINUOUS
 70
0
 71
3
 72
65
 73
61
 74
0
 42
0.0000001
 43
0.0000001
 44
0.0000000001
 40
0.0
 40
0.0
 40
0.0
 40
0.0
 40
0.0310480611
 40
0.0464649297
 40
0.061800731
 40
0.0922348386
 40
0.1223994853
 40
0.1373982455
 40
0.1523450299
 40
0.1672467782
 40
0.1821108888
 40
0.1969449792
 40
0.2117572313
 40
0.2265559693
 40
0.2413496102
 40
0.2561467317
 40
0.2709558122
 40
0.285785298
 40
0.3006433284
 40
0.3155375101
 40
0.3304753132
 40
0.3454636469
 40
0.3605084676
 40
0.375615484
 40
0.3907897569
 40
0.4060350815
 40
0.4213548945
 40
0.4367520193
 40
0.4522278892
 40
0.4677834893
 40
0.4834192846
 40
0.4991344067
 40
0.5149274953
 40
0.5307967742
 40
0.5467393053
 40
0.5627516644
 40
0.578830121
 40
0.6111574611
 40
0.6274047431
 40
0.643697115
 40
0.6600282616
 40
0.6763917887
 40
0.7091799725
 40
0.7255990827
 40
0.7420225216
 40
0.7584429775
 40
0.774853285
 40
0.7912463688
 40
0.8076151028
 40
0.8239526467
 40
0.8402526445
 40
0.8565088447
 40
0.8727152748
 40
0.8888661881
 40
0.9049558805
 40
0.9369254242
 40
0.952810249
 40
0.9686226856
 40
0.9843555469
 40
1.0
 40
1.0
 40
1.0
 40
1.0
 10
10.9363365413
 20
8.1859982261
 30
0.0
 10
10.9363367573
 20
8.1963570903
 30
0.0
 10
10.9370966192
 20
8.2118743158
 30
0.0
 10
10.9396408898
 20
8.2323422265
 30
0.0
 10
10.9431752919
 20
8.2524561865
 30
0.0
 10
10.9494427646
 20
8.2770510615
 30
0.0
 10
10.9581567862
 20
8.3007712454
 30
0.0
 10
10.9665165612
 20
8.3190092986
 30
0.0
 10
10.9734547971
 20
8.3322742773
 30
0.0
 10
10.9810536871
 20
8.3451195818
 30
0.0
 10
10.989294597
 20
8.3575177988
 30
0.0
 10
10.998159399
 20
8.3694407097
 30
0.0
 10
11.0076267756
 20
8.3808626855
 30
0.0
 10
11.017674621
 20
8.3917591977
 30
0.0
 10
11.0282815023
 20
8.4021051275
 30
0.0
 10
11.0394233475
 20
8.4118777865
 30
0.0
 10
11.0510749059
 20
8.4210560919
 30
0.0
 10
11.0632114596
 20
8.4296180757
 30
0.0
 10
11.0758061502
 20
8.4375439891
 30
0.0
 10
11.0888306028
 20
8.4448162634
 30
0.0
 10
11.1022567496
 20
8.451416232
 30
0.0
 10
11.1160547702
 20
8.457327249
 30
0.0
 10
11.1301931613
 20
8.4625356952
 30
0.0
 10
11.1446404844
 20
8.4670267534
 30
0.0
 10
11.159363895
 20
8.4707873945
 30
0.0
 10
11.1743290007
 20
8.473808572
 30
0.0
 10
11.1895012534
 20
8.4760800743
 30
0.0
 10
11.2048450177
 20
8.4775932088
 30
0.0
 10
11.2203235918
 20
8.4783441619
 30
0.0
 10
11.2358999682
 20
8.4783281039
 30
0.0
 10
11.2515363286
 20
8.4775414398
 30
0.0
 10
11.2671945605
 20
8.4759860923
 30
0.0
 10
11.2828361737
 20
8.4736631879
 30
0.0
 10
11.2984221365
 20
8.470574813
 30
0.0
 10
11.313913849
 20
8.4667289601
 30
0.0
 10
11.3292730857
 20
8.4621327143
 30
0.0
 10
11.3495551063
 20
8.4550036937
 30
0.0
 10
11.3693867371
 20
8.4464230138
 30
0.0
 10
11.3886088981
 20
8.4364660115
 30
0.0
 10
11.4027309991
 20
8.4283036084
 30
0.0
 10
11.4164955344
 20
8.4194796655
 30
0.0
 10
11.4343320964
 20
8.4068531093
 30
0.0
 10
11.451308343
 20
8.392996372
 30
0.0
 10
11.4672893194
 20
8.3780185435
 30
0.0
 10
11.4787622212
 20
8.3662407412
 30
0.0
 10
11.4896850815
 20
8.3539556441
 30
0.0
 10
11.5000294654
 20
8.3411924997
 30
0.0
 10
11.5097710762
 20
8.3279850525
 30
0.0
 10
11.5188859316
 20
8.3143666583
 30
0.0
 10
11.5273499137
 20
8.3003707263
 30
0.0
 10
11.535144131
 20
8.2860337804
 30
0.0
 10
11.5422499817
 20
8.2713919825
 30
0.0
 10
11.5486485879
 20
8.2564818134
 30
0.0
 10
11.5543271255
 20
8.2413415582
 30
0.0
 10
11.5609062822
 20
8.2209476958
 30
0.0
 10
11.566017082
 20
8.2001950817
 30
0.0
 10
11.5696074302
 20
8.1792526911
 30
0.0
 10
11.5715284134
 20
8.1635384854
 30
0.0
 10
11.5726822632
 20
8.1478306951
 30
0.0
 10
11.5729407879
 20
8.1373602043
 30
0.0
 10
11.5729409058
 20
8.1321405945
 30
0.0
  0
SPLINE
  5
2ED
100
AcDbEntity
  8
0
100
AcDbSpline
 62
7
  6
CONTINUOUS
 70
0
 71
3
 72
69
 73
65
 74
0
 42
0.0000001
 43
0.0000001
 44
0.0000000001
 40
0.0
 40
0.0
 40
0.0
 40
0.0
 40
0.0312903911
 40
0.0470006543
 40
0.0627445771
 40
0.0785223289
 40
0.0943340764
 40
0.1101786947
 40
0.126053634
 40
0.1419560655
 40
0.157883293
 40
0.1738324649
 40
0.1898005499
 40
0.2217715222
 40
0.2377758016
 40
0.253784915
 40
0.2697950952
 40
0.2858026601
 40
0.3018038922
 40
0.3177951034
 40
0.333772802
 40
0.3497335464
 40
0.3656740664
 40
0.3815913678
 40
0.3974825851
 40
0.4133451574
 40
0.4291768396
 40
0.4449755982
 40
0.4607398103
 40
0.4764681644
 40
0.4921596439
 40
0.5078136996
 40
0.5234300536
 40
0.5390088005
 40
0.5545504881
 40
0.5700558896
 40
0.5855262037
 40
0.6009629988
 40
0.6163680341
 40
0.631743502
 40
0.6470918309
 40
0.6624156163
 40
0.6777178363
 40
0.6930015641
 40
0.7082700105
 40
0.7235266729
 40
0.7387750246
 40
0.7540186258
 40
0.7692612029
 40
0.7845063491
 40
0.7997576767
 40
0.8150188128
 40
0.8302931311
 40
0.8455839876
 40
0.8608947335
 40
0.876228419
 40
0.8915878381
 40
0.906975194
 40
0.9223922944
 40
0.9378417982
 40
0.9533270585
 40
0.9688506682
 40
0.9844102238
 40
1.0
 40
1.0
 40
1.0
 40
1.0
 10
10.7963365339
 20
8.1859982895
 30
0.0
 10
10.7963367262
 20
8.1709713176
 30
0.0
 10
10.7974503444
 20
8.1483797859
 30
0.0
 10
10.8011121204
 20
8.1184627619
 30
0.0
 10
10.8049523933
 20
8.0960977334
 30
0.0
 10
10.8098690089
 20
8.073895671
 30
0.0
 10
10.8158506605
 20
8.0519062079
 30
0.0
 10
10.8228818206
 20
8.0301806262
 30
0.0
 10
10.8309432122
 20
8.0087693943
 30
0.0
 10
10.8400171533
 20
7.98772402
 30
0.0
 10
10.850080189
 20
7.9670938896
 30
0.0
 10
10.8611073835
 20
7.9469259128
 30
0.0
 10
10.877065624
 20
7.9207111165
 30
0.0
 10
10.8948444104
 20
7.8956085289
 30
0.0
 10
10.914301384
 20
7.8718149465
 30
0.0
 10
10.9297127407
 20
7.8546454625
 30
0.0
 10
10.9458987867
 20
7.8382029955
 30
0.0
 10
10.9628228401
 20
7.8225264946
 30
0.0
 10
10.9804434404
 20
7.8076514076
 30
0.0
 10
10.9987204445
 20
7.793614077
 30
0.0
 10
11.0176111687
 20
7.7804482094
 30
0.0
 10
11.0370703266
 20
7.7681835447
 30
0.0
 10
11.0570536173
 20
7.7568513569
 30
0.0
 10
11.0775138379
 20
7.7464784407
 30
0.0
 10
11.0984025909
 20
7.7370887982
 30
0.0
 10
11.1196719418
 20
7.7287077576
 30
0.0
 10
11.1412712776
 20
7.7213545937
 30
0.0
 10
11.1631498251
 20
7.7150473833
 30
0.0
 10
11.1852566225
 20
7.7098045414
 30
0.0
 10
11.2075388534
 20
7.7056375296
 30
0.0
 10
11.2299439883
 20
7.7025582856
 30
0.0
 10
11.2524188725
 20
7.7005772314
 30
0.0
 10
11.2749096569
 20
7.6996980782
 30
0.0
 10
11.2973626248
 20
7.6999261939
 30
0.0
 10
11.319723597
 20
7.7012631004
 30
0.0
 10
11.341938721
 20
7.7037049477
 30
0.0
 10
11.3639538049
 20
7.7072499027
 30
0.0
 10
11.3857151157
 20
7.7118900191
 30
0.0
 10
11.4071697158
 20
7.7176141276
 30
0.0
 10
11.4282639793
 20
7.7244123965
 30
0.0
 10
11.4489462689
 20
7.7322673705
 30
0.0
 10
11.4691654137
 20
7.7411608254
 30
0.0
 10
11.4888699185
 20
7.7510740743
 30
0.0
 10
11.5080117939
 20
7.761980854
 30
0.0
 10
11.5265425726
 20
7.7738560367
 30
0.0
 10
11.5444149678
 20
7.7866716444
 30
0.0
 10
11.5615858186
 20
7.8003938983
 30
0.0
 10
11.5780106091
 20
7.8149908044
 30
0.0
 10
11.5936483721
 20
7.8304256432
 30
0.0
 10
11.6084615621
 20
7.8466585392
 30
0.0
 10
11.6224111326
 20
7.8636508596
 30
0.0
 10
11.6354640433
 20
7.8813585923
 30
0.0
 10
11.6475888726
 20
7.8997370159
 30
0.0
 10
11.6587538413
 20
7.9187414615
 30
0.0
 10
11.6689344585
 20
7.938322937
 30
0.0
 10
11.678105726
 20
7.9584331526
 30
0.0
 10
11.6862446059
 20
7.9790223484
 30
0.0
 10
11.693335072
 20
8.0000378849
 30
0.0
 10
11.6993594367
 20
8.0214283865
 30
0.0
 10
11.7043041621
 20
8.0431420577
 30
0.0
 10
11.7081605665
 20
8.0651270054
 30
0.0
 10
11.7109179117
 20
8.0873299827
 30
0.0
 10
11.7125731238
 20
8.1096918307
 30
0.0
 10
11.7129408302
 20
8.1246536851
 30
0.0
 10
11.712940919
 20
8.1321405564
 30
0.0
  0
SPLINE
  5
2EE
100
AcDbEntity
  8
0
100
AcDbSpline
 62
7
  6
CONTINUOUS
 70
0
 71
3
 72
65
 73
61
 74
0
 42
0.0000001
 43
0.0000001
 44
0.0000000001
 40
0.0
 40
0.0
 40
0.0
 40
0.0
 40
0.0310480609
 40
0.0464649293
 40
0.0618007306
 40
0.0922348384
 40
0.1223994854
 40
0.1373982457
 40
0.1523450303
 40
0.1672467788
 40
0.1821108896
 40
0.1969449801
 40
0.2117572324
 40
0.2265559705
 40
0.2413496115
 40
0.2561467331
 40
0.2709558136
 40
0.2857852993
 40
0.3006433297
 40
0.3155375112
 40
0.3304753141
 40
0.3454636475
 40
0.3605084679
 40
0.3756154841
 40
0.3907897567
 40
0.4060350812
 40
0.4213548941
 40
0.4367520191
 40
0.4522278894
 40
0.4677834902
 40
0.4834192865
 40
0.4991344099
 40
0.5149274995
 40
0.5307967793
 40
0.5467393109
 40
0.5627516699
 40
0.5788301256
 40
0.6111574632
 40
0.6274047439
 40
0.6436971146
 40
0.6600282604
 40
0.676391787
 40
0.7091799709
 40
0.7255990813
 40
0.7420225206
 40
0.7584429769
 40
0.7748532848
 40
0.7912463688
 40
0.8076151029
 40
0.8239526465
 40
0.8402526437
 40
0.8565088432
 40
0.8727152724
 40
0.8888661846
 40
0.9049558761
 40
0.9369254192
 40
0.9528102449
 40
0.9686226826
 40
0.984355545
 40
1.0
 40
1.0
 40
1.0
 40
1.0
 10
11.5729409095
 20
8.1321408172
 30
0.0
 10
11.5729406935
 20
8.121781953
 30
0.0
 10
11.5721808317
 20
8.1062647276
 30
0.0
 10
11.5696365611
 20
8.0857968171
 30
0.0
 10
11.566102159
 20
8.0656828571
 30
0.0
 10
11.5598346862
 20
8.041087982
 30
0.0
 10
11.5511206646
 20
8.0173677979
 30
0.0
 10
11.5427608895
 20
7.9991297444
 30
0.0
 10
11.5358226535
 20
7.9858647657
 30
0.0
 10
11.5282237634
 20
7.973019461
 30
0.0
 10
11.5199828533
 20
7.9606212439
 30
0.0
 10
11.5111180512
 20
7.9486983328
 30
0.0
 10
11.5016506745
 20
7.937276357
 30
0.0
 10
11.491602829
 20
7.9263798447
 30
0.0
 10
11.4809959476
 20
7.9160339149
 30
0.0
 10
11.4698541023
 20
7.906261256
 30
0.0
 10
11.4582025438
 20
7.8970829506
 30
0.0
 10
11.4460659902
 20
7.8885209668
 30
0.0
 10
11.4334712996
 20
7.8805950536
 30
0.0
 10
11.4204468471
 20
7.8733227794
 30
0.0
 10
11.4070207005
 20
7.8667228109
 30
0.0
 10
11.3932226801
 20
7.860811794
 30
0.0
 10
11.3790842893
 20
7.855603348
 30
0.0
 10
11.3646369664
 20
7.8511122899
 30
0.0
 10
11.349913556
 20
7.8473516488
 30
0.0
 10
11.3349484505
 20
7.8443304713
 30
0.0
 10
11.3197761978
 20
7.8420589691
 30
0.0
 10
11.3044324333
 20
7.8405458345
 30
0.0
 10
11.2889538588
 20
7.8397948814
 30
0.0
 10
11.2733774817
 20
7.8398109394
 30
0.0
 10
11.2577411204
 20
7.8405976037
 30
0.0
 10
11.2420828874
 20
7.8421529515
 30
0.0
 10
11.2264412731
 20
7.844475856
 30
0.0
 10
11.2108553096
 20
7.8475642312
 30
0.0
 10
11.1953635968
 20
7.8514100847
 30
0.0
 10
11.1800043603
 20
7.8560063305
 30
0.0
 10
11.1597223407
 20
7.8631353508
 30
0.0
 10
11.1398907116
 20
7.8717160306
 30
0.0
 10
11.120668552
 20
7.881673032
 30
0.0
 10
11.106546452
 20
7.8898354346
 30
0.0
 10
11.0927819174
 20
7.8986593771
 30
0.0
 10
11.0749453558
 20
7.9112859329
 30
0.0
 10
11.0579691091
 20
7.9251426701
 30
0.0
 10
11.0419881325
 20
7.9401204988
 30
0.0
 10
11.0305152304
 20
7.9518983012
 30
0.0
 10
11.0195923698
 20
7.9641833986
 30
0.0
 10
11.0092479857
 20
7.9769465433
 30
0.0
 10
10.9995063748
 20
7.9901539906
 30
0.0
 10
10.9903915193
 20
8.0037723848
 30
0.0
 10
10.9819275374
 20
8.0177683165
 30
0.0
 10
10.9741333202
 20
8.0321052619
 30
0.0
 10
10.9670274699
 20
8.0467470592
 30
0.0
 10
10.9606288639
 20
8.0616572274
 30
0.0
 10
10.9549503264
 20
8.0767974815
 30
0.0
 10
10.9483711698
 20
8.0971913431
 30
0.0
 10
10.9432603697
 20
8.1179439568
 30
0.0
 10
10.9396700213
 20
8.1388863479
 30
0.0
 10
10.937749038
 20
8.1546005545
 30
0.0
 10
10.9365951877
 20
8.1703083462
 30
0.0
 10
10.9363366629
 20
8.180778838
 30
0.0
 10
10.936336545
 20
8.1859984485
 30
0.0
  0
SPLINE
  5
2EF
100
AcDbEntity
  8
02___PRT_ALL_AXES
100
AcDbSpline
 62
7
  6
CONTINUOUS
 70
0
 71
3
 72
30
 73
26
 74
0
 42
0.0000001
 43
0.0000001
 44
0.0000000001
 40
0.0
 40
0.0
 40
0.0
 40
0.0
 40
0.0851567075
 40
0.1685811756
 40
0.2498925268
 40
0.3287796935
 40
0.4049575731
 40
0.4781461903
 40
0.5480729123
 40
0.6144922726
 40
0.6771805466
 40
0.7070642966
 40
0.7359447477
 40
0.7638015061
 40
0.7906161475
 40
0.8163748122
 40
0.8410661751
 40
0.864680955
 40
0.8872127349
 40
0.9086610554
 40
0.9290304668
 40
0.9483298984
 40
0.9665738706
 40
0.983786005
 40
1.0
 40
1.0
 40
1.0
 40
1.0
 10
14.6044912015
 20
8.2927075913
 30
0.0
 10
14.6044912015
 20
8.3009311897
 30
0.0
 10
14.6043506845
 20
8.3172114954
 30
0.0
 10
14.6037082806
 20
8.3413364155
 30
0.0
 10
14.6026372946
 20
8.3648402345
 30
0.0
 10
14.6011433944
 20
8.3876198206
 30
0.0
 10
14.5992323686
 20
8.4095811186
 30
0.0
 10
14.5969133946
 20
8.4306329673
 30
0.0
 10
14.5941955248
 20
8.4506867775
 30
0.0
 10
14.5910911
 20
8.469657791
 30
0.0
 10
14.5881479583
 20
8.4847300102
 30
0.0
 10
14.5855966214
 20
8.4961784153
 30
0.0
 10
14.5836256366
 20
8.5043084389
 30
0.0
 10
14.5815686599
 20
8.5121110443
 30
0.0
 10
14.5794275586
 20
8.5195779216
 30
0.0
 10
14.5772048421
 20
8.5267013872
 30
0.0
 10
14.574902942
 20
8.5334741683
 30
0.0
 10
14.5725242759
 20
8.539889134
 30
0.0
 10
14.570071009
 20
8.5459394106
 30
0.0
 10
14.5675458473
 20
8.5516188414
 30
0.0
 10
14.5649515461
 20
8.556921822
 30
0.0
 10
14.5622907644
 20
8.561842903
 30
0.0
 10
14.5595657755
 20
8.5663768714
 30
0.0
 10
14.5567793909
 20
8.5705189068
 30
0.0
 10
14.5548256954
 20
8.5730915294
 30
0.0
 10
14.5538377062
 20
8.57430626
 30
0.0
  0
SPLINE
  5
2F0
100
AcDbEntity
  8
02___PRT_ALL_AXES
100
AcDbSpline
 62
7
  6
CONTINUOUS
 70
0
 71
3
 72
34
 73
30
 74
0
 42
0.0000001
 43
0.0000001
 44
0.0000000001
 40
0.0
 40
0.0
 40
0.0
 40
0.0
 40
0.0379278375
 40
0.0762713143
 40
0.1537937908
 40
0.2318280156
 40
0.3096815497
 40
0.3866383858
 40
0.4619978684
 40
0.4988660314
 40
0.5350815183
 40
0.5705629687
 40
0.6052326648
 40
0.6390139916
 40
0.6718336643
 40
0.703622565
 40
0.7343131374
 40
0.7638433175
 40
0.7921554572
 40
0.8191948081
 40
0.8449145721
 40
0.8692728687
 40
0.8922337087
 40
0.9137720268
 40
0.9338701239
 40
0.9525223229
 40
0.9697394357
 40
0.98554798
 40
1.0
 40
1.0
 40
1.0
 40
1.0
 10
14.6044912015
 20
8.2927075913
 30
0.0
 10
14.6044912015
 20
8.2863596473
 30
0.0
 10
14.6044060981
 20
8.2735940277
 30
0.0
 10
14.6039026
 20
8.2478580926
 30
0.0
 10
14.6026494029
 20
8.2154256824
 30
0.0
 10
14.6001760511
 20
8.1764345962
 30
0.0
 10
14.5967524671
 20
8.1376102434
 30
0.0
 10
14.5924113744
 20
8.0993283271
 30
0.0
 10
14.5880339395
 20
8.0679646386
 30
0.0
 10
14.5840952972
 20
8.0434333608
 30
0.0
 10
14.5809627296
 20
8.0255343368
 30
0.0
 10
14.5776373354
 20
8.0080445328
 30
0.0
 10
14.5741278749
 20
7.9910064312
 30
0.0
 10
14.5704425895
 20
7.9744615611
 30
0.0
 10
14.5665903182
 20
7.9584502116
 30
0.0
 10
14.5625811088
 20
7.9430112395
 30
0.0
 10
14.558424162
 20
7.928182289
 30
0.0
 10
14.5541298502
 20
7.913999351
 30
0.0
 10
14.5497091386
 20
7.900496742
 30
0.0
 10
14.5451720646
 20
7.8877073701
 30
0.0
 10
14.5405303239
 20
7.8756620026
 30
0.0
 10
14.5357953728
 20
7.8643896059
 30
0.0
 10
14.5309779769
 20
7.8539175065
 30
0.0
 10
14.5260907249
 20
7.8442703402
 30
0.0
 10
14.5211449503
 20
7.835470949
 30
0.0
 10
14.5161518891
 20
7.8275402129
 30
0.0
 10
14.5111236801
 20
7.8204954459
 30
0.0
 10
14.5060710746
 20
7.8143537341
 30
0.0
 10
14.5025393345
 20
7.8107121128
 30
0.0
 10
14.5007686907
 20
7.809064232
 30
0.0
  0
SPLINE
  5
2F1
100
AcDbEntity
  8
02___PRT_ALL_AXES
100
AcDbSpline
 62
7
  6
CONTINUOUS
 70
0
 71
3
 72
48
 73
44
 74
0
 42
0.0000001
 43
0.0000001
 44
0.0000000001
 40
0.0
 40
0.0
 40
0.0
 40
0.0
 40
0.0095828109
 40
0.0187376754
 40
0.0274874558
 40
0.0358599436
 40
0.0515983051
 40
0.0590563585
 40
0.0662992792
 40
0.0733805017
 40
0.0803578434
 40
0.08729181
 40
0.0942440226
 40
0.1012756121
 40
0.1084456714
 40
0.1158096542
 40
0.1234180349
 40
0.1313160271
 40
0.1395435436
 40
0.157113504
 40
0.1665189269
 40
0.1763640473
 40
0.1866659278
 40
0.1974386973
 40
0.22043723
 40
0.2454256771
 40
0.2724339011
 40
0.3014716459
 40
0.3325262068
 40
0.3655703144
 40
0.4005665554
 40
0.4374625475
 40
0.476198763
 40
0.5167087271
 40
0.5589157129
 40
0.6027393981
 40
0.6480923304
 40
0.6948786115
 40
0.7430005014
 40
0.7923587642
 40
0.8943759104
 40
0.946805353
 40
1.0
 40
1.0
 40
1.0
 40
1.0
 10
14.5007686907
 20
7.809064232
 30
0.0
 10
14.4999520405
 20
7.8083042022
 30
0.0
 10
14.4983194885
 20
7.8068557252
 30
0.0
 10
14.4958148011
 20
7.8048616642
 30
0.0
 10
14.4933123144
 20
7.8030983901
 30
0.0
 10
14.4900492744
 20
7.8010985984
 30
0.0
 10
14.4867204439
 20
7.799501706
 30
0.0
 10
14.4833562877
 20
7.7983765831
 30
0.0
 10
14.4808871613
 20
7.797783698
 30
0.0
 10
14.4784292743
 20
7.7974281586
 30
0.0
 10
14.4759844262
 20
7.7973101976
 30
0.0
 10
14.4735546377
 20
7.7974299307
 30
0.0
 10
14.4711419306
 20
7.7977872478
 30
0.0
 10
14.4687482854
 20
7.798381807
 30
0.0
 10
14.46637561
 20
7.7992131609
 30
0.0
 10
14.4640256118
 20
7.8002803817
 30
0.0
 10
14.4616996619
 20
7.8015820103
 30
0.0
 10
14.4593989261
 20
7.8031168193
 30
0.0
 10
14.4562990077
 20
7.8055251195
 30
0.0
 10
14.4533250759
 20
7.8083625777
 30
0.0
 10
14.4504728425
 20
7.8115637926
 30
0.0
 10
14.4483158915
 20
7.8142460521
 30
0.0
 10
14.4461911621
 20
7.8171530412
 30
0.0
 10
14.4433401369
 20
7.821420436
 30
0.0
 10
14.4398786854
 20
7.8273281221
 30
0.0
 10
14.4359587317
 20
7.8351347464
 30
0.0
 10
14.432194146
 20
7.8437893705
 30
0.0
 10
14.4285946123
 20
7.8532724323
 30
0.0
 10
14.4251676853
 20
7.8635621086
 30
0.0
 10
14.4219213783
 20
7.8746345787
 30
0.0
 10
14.418864257
 20
7.8864641774
 30
0.0
 10
14.4160027954
 20
7.8990229302
 30
0.0
 10
14.413344137
 20
7.9122812853
 30
0.0
 10
14.4108951538
 20
7.9262080067
 30
0.0
 10
14.4086609941
 20
7.9407701489
 30
0.0
 10
14.4066475568
 20
7.9559332784
 30
0.0
 10
14.4048598114
 20
7.9716612354
 30
0.0
 10
14.403301466
 20
7.9879162371
 30
0.0
 10
14.4019767946
 20
8.0046597145
 30
0.0
 10
14.400510228
 20
8.027838938
 30
0.0
 10
14.3995503251
 20
8.0515497916
 30
0.0
 10
14.3990690148
 20
8.0757183722
 30
0.0
 10
14.3989890493
 20
8.0880149949
 30
0.0
 10
14.3989890493
 20
8.0942077434
 30
0.0
  0
SPLINE
  5
2F2
100
AcDbEntity
  8
02___PRT_ALL_AXES
100
AcDbSpline
 62
7
  6
CONTINUOUS
 70
0
 71
3
 72
55
 73
51
 74
0
 42
0.0000001
 43
0.0000001
 44
0.0000000001
 40
0.0
 40
0.0
 40
0.0
 40
0.0
 40
0.0079607035
 40
0.0154473298
 40
0.022498566
 40
0.0291632982
 40
0.0355006162
 40
0.0415803901
 40
0.0474830944
 40
0.0532975892
 40
0.0591168687
 40
0.0650337275
 40
0.071136355
 40
0.0775041231
 40
0.0808104148
 40
0.0842078603
 40
0.0913015834
 40
0.0988351762
 40
0.1068461642
 40
0.1153637596
 40
0.1244107335
 40
0.1340045005
 40
0.1441567308
 40
0.1548747462
 40
0.1661630168
 40
0.1780236591
 40
0.1904555832
 40
0.2034550122
 40
0.2170168381
 40
0.2311348674
 40
0.245800974
 40
0.2610049564
 40
0.2767358818
 40
0.3097303755
 40
0.344677973
 40
0.3814576177
 40
0.4199358044
 40
0.4599684212
 40
0.5014025853
 40
0.5440768069
 40
0.5878235115
 40
0.632468233
 40
0.6778330602
 40
0.7237358165
 40
0.7699914817
 40
0.8164105507
 40
0.8628059403
 40
0.9089982531
 40
0.9548008325
 40
1.0
 40
1.0
 40
1.0
 40
1.0
 10
14.5538377062
 20
8.57430626
 30
0.0
 10
14.5528972979
 20
8.57546249
 30
0.0
 10
14.551000513
 20
8.5776491917
 30
0.0
 10
14.5480094088
 20
8.5806208417
 30
0.0
 10
14.5449649615
 20
8.5831762175
 30
0.0
 10
14.5418699548
 20
8.5853121738
 30
0.0
 10
14.5387268179
 20
8.5870253215
 30
0.0
 10
14.5355384334
 20
8.5883115765
 30
0.0
 10
14.5323087788
 20
8.5891668353
 30
0.0
 10
14.5290433386
 20
8.5895890891
 30
0.0
 10
14.5257481109
 20
8.5895772701
 30
0.0
 10
14.5224291283
 20
8.589131603
 30
0.0
 10
14.5190922201
 20
8.5882536684
 30
0.0
 10
14.51633451
 20
8.5871783959
 30
0.0
 10
14.5141288634
 20
8.5861163843
 30
0.0
 10
14.5118586409
 20
8.5848820721
 30
0.0
 10
14.5090114316
 20
8.5830617378
 30
0.0
 10
14.505638521
 20
8.5804885569
 30
0.0
 10
14.5022635145
 20
8.5774993539
 30
0.0
 10
14.4988894928
 20
8.5740977828
 30
0.0
 10
14.4955194786
 20
8.5702872367
 30
0.0
 10
14.4921570329
 20
8.5660713002
 30
0.0
 10
14.4888052863
 20
8.5614545659
 30
0.0
 10
14.4854675167
 20
8.5564420798
 30
0.0
 10
14.4821472091
 20
8.5510390058
 30
0.0
 10
14.4788481116
 20
8.545250736
 30
0.0
 10
14.4755736456
 20
8.5390834588
 30
0.0
 10
14.4723271161
 20
8.532543964
 30
0.0
 10
14.4691120281
 20
8.5256392031
 30
0.0
 10
14.4659320278
 20
8.5183763229
 30
0.0
 10
14.4627905809
 20
8.5107630762
 30
0.0
 10
14.4596908194
 20
8.5028078275
 30
0.0
 10
14.4555519316
 20
8.4915769469
 30
0.0
 10
14.4505224955
 20
8.4767379889
 30
0.0
 10
14.4447968069
 20
8.4579842729
 30
0.0
 10
14.4393142323
 20
8.4380912244
 30
0.0
 10
14.4340983619
 20
8.4171444618
 30
0.0
 10
14.4291719762
 20
8.3952338745
 30
0.0
 10
14.4245565849
 20
8.3724537521
 30
0.0
 10
14.4202720279
 20
8.3489021277
 30
0.0
 10
14.416337262
 20
8.3246805014
 30
0.0
 10
14.4127688726
 20
8.2998932478
 30
0.0
 10
14.4095828989
 20
8.274647104
 30
0.0
 10
14.4067925244
 20
8.2490508175
 30
0.0
 10
14.4044106025
 20
8.2232151089
 30
0.0
 10
14.4024464574
 20
8.1972518023
 30
0.0
 10
14.4009094238
 20
8.1712715982
 30
0.0
 10
14.3998054656
 20
8.1453848731
 30
0.0
 10
14.39914034
 20
8.1197072416
 30
0.0
 10
14.3989890493
 20
8.1026698072
 30
0.0
 10
14.3989890493
 20
8.0942077434
 30
0.0
  0
SPLINE
  5
2F3
100
AcDbEntity
  8
0
100
AcDbSpline
 62
7
  6
CONTINUOUS
 70
0
 71
3
 72
69
 73
65
 74
0
 42
0.0000001
 43
0.0000001
 44
0.0000000001
 40
0.0
 40
0.0
 40
0.0
 40
0.0
 40
0.0312903904
 40
0.0470006528
 40
0.0627445756
 40
0.0785223279
 40
0.0943340764
 40
0.110178696
 40
0.1260536366
 40
0.1419560695
 40
0.1578832983
 40
0.1738324715
 40
0.1898005575
 40
0.2217715317
 40
0.2377758121
 40
0.2537849262
 40
0.2697951068
 40
0.2858026717
 40
0.3018039038
 40
0.3177951149
 40
0.3337728137
 40
0.3497335585
 40
0.3656740791
 40
0.3815913812
 40
0.3974825997
 40
0.4133451737
 40
0.4291768584
 40
0.4449756206
 40
0.4607398374
 40
0.4764681958
 40
0.4921596776
 40
0.5078137322
 40
0.5234300822
 40
0.5390088225
 40
0.5545505019
 40
0.5700558957
 40
0.585526204
 40
0.6009629954
 40
0.616368028
 40
0.6317434933
 40
0.6470918197
 40
0.6624156028
 40
0.6777178217
 40
0.6930015504
 40
0.7082700017
 40
0.7235266723
 40
0.7387750315
 40
0.7540186351
 40
0.7692612099
 40
0.784506353
 40
0.7997576804
 40
0.8150188192
 40
0.8302931417
 40
0.8455840027
 40
0.860894753
 40
0.8762284425
 40
0.8915878651
 40
0.9069752245
 40
0.9223923275
 40
0.9378418307
 40
0.9533270851
 40
0.9688506846
 40
0.9844102313
 40
1.0
 40
1.0
 40
1.0
 40
1.0
 10
13.0420549777
 20
8.0399663807
 30
0.0
 10
13.0420547854
 20
8.0549933523
 30
0.0
 10
13.0409411676
 20
8.0775848833
 30
0.0
 10
13.0372793914
 20
8.1075019066
 30
0.0
 10
13.0334391186
 20
8.129866935
 30
0.0
 10
13.028522503
 20
8.1520689982
 30
0.0
 10
13.0225408511
 20
8.1740584626
 30
0.0
 10
13.0155096903
 20
8.1957840459
 30
0.0
 10
13.0074482979
 20
8.2171952795
 30
0.0
 10
12.9983743559
 20
8.2382406556
 30
0.0
 10
12.9883113189
 20
8.2588707874
 30
0.0
 10
12.9772841232
 20
8.2790387657
 30
0.0
 10
12.9613258813
 20
8.3052535635
 30
0.0
 10
12.943547093
 20
8.330356152
 30
0.0
 10
12.9240901178
 20
8.3541497353
 30
0.0
 10
12.9086787594
 20
8.3713192191
 30
0.0
 10
12.892492713
 20
8.3877616866
 30
0.0
 10
12.8755686588
 20
8.4034381869
 30
0.0
 10
12.8579480577
 20
8.4183132729
 30
0.0
 10
12.8396710535
 20
8.4323506035
 30
0.0
 10
12.8207803284
 20
8.4455164703
 30
0.0
 10
12.8013211694
 20
8.4577811343
 30
0.0
 10
12.781337878
 20
8.4691133225
 30
0.0
 10
12.7608776555
 20
8.4794862377
 30
0.0
 10
12.7399889006
 20
8.4888758801
 30
0.0
 10
12.7187195472
 20
8.4972569215
 30
0.0
 10
12.6971202071
 20
8.5046100844
 30
0.0
 10
12.6752416545
 20
8.5109172955
 30
0.0
 10
12.6531348506
 20
8.5161601371
 30
0.0
 10
12.6308526137
 20
8.5203271461
 30
0.0
 10
12.6084474763
 20
8.5234063908
 30
0.0
 10
12.5859725931
 20
8.5253874423
 30
0.0
 10
12.5634818142
 20
8.5262665911
 30
0.0
 10
12.5410288553
 20
8.526038476
 30
0.0
 10
12.5186678939
 20
8.5247015688
 30
0.0
 10
12.4964527804
 20
8.5222597208
 30
0.0
 10
12.4744377048
 20
8.5187147668
 30
0.0
 10
12.4526763997
 20
8.5140746518
 30
0.0
 10
12.4312218037
 20
8.5083505448
 30
0.0
 10
12.4101275436
 20
8.5015522774
 30
0.0
 10
12.3894452568
 20
8.4936973058
 30
0.0
 10
12.3692261146
 20
8.4848038522
 30
0.0
 10
12.3495216102
 20
8.4748906051
 30
0.0
 10
12.3303797318
 20
8.4639838261
 30
0.0
 10
12.3118489479
 20
8.4521086387
 30
0.0
 10
12.2939765454
 20
8.4392930244
 30
0.0
 10
12.2768056875
 20
8.4255707656
 30
0.0
 10
12.2603808929
 20
8.4109738586
 30
0.0
 10
12.2447431313
 20
8.3955390203
 30
0.0
 10
12.2299299444
 20
8.379306125
 30
0.0
 10
12.2159803748
 20
8.3623138042
 30
0.0
 10
12.2029274629
 20
8.3446060685
 30
0.0
 10
12.1908026302
 20
8.3262276405
 30
0.0
 10
12.1796376591
 20
8.3072231889
 30
0.0
 10
12.1694570414
 20
8.2876417067
 30
0.0
 10
12.1602857712
 20
8.267531486
 30
0.0
 10
12.1521468918
 20
8.2469422843
 30
0.0
 10
12.1450564278
 20
8.2259267423
 30
0.0
 10
12.1390320628
 20
8.2045362381
 30
0.0
 10
12.1340873415
 20
8.1828225678
 30
0.0
 10
12.1302309404
 20
8.1608376277
 30
0.0
 10
12.1274735949
 20
8.1386346625
 30
0.0
 10
12.1258183864
 20
8.1162728269
 30
0.0
 10
12.1254506814
 20
8.1013109804
 30
0.0
 10
12.1254505926
 20
8.0938241128
 30
0.0
  0
SPLINE
  5
2F4
100
AcDbEntity
  8
0
100
AcDbSpline
 62
7
  6
CONTINUOUS
 70
0
 71
3
 72
65
 73
61
 74
0
 42
0.0000001
 43
0.0000001
 44
0.0000000001
 40
0.0
 40
0.0
 40
0.0
 40
0.0
 40
0.0310480611
 40
0.0464649297
 40
0.061800731
 40
0.0922348386
 40
0.1223994853
 40
0.1373982455
 40
0.1523450299
 40
0.1672467782
 40
0.1821108888
 40
0.1969449792
 40
0.2117572313
 40
0.2265559693
 40
0.2413496102
 40
0.2561467317
 40
0.2709558122
 40
0.285785298
 40
0.3006433284
 40
0.3155375101
 40
0.3304753132
 40
0.3454636469
 40
0.3605084676
 40
0.375615484
 40
0.3907897569
 40
0.4060350815
 40
0.4213548945
 40
0.4367520193
 40
0.4522278892
 40
0.4677834893
 40
0.4834192846
 40
0.4991344067
 40
0.5149274953
 40
0.5307967742
 40
0.5467393053
 40
0.5627516644
 40
0.578830121
 40
0.6111574611
 40
0.6274047431
 40
0.643697115
 40
0.6600282616
 40
0.6763917887
 40
0.7091799725
 40
0.7255990827
 40
0.7420225216
 40
0.7584429775
 40
0.774853285
 40
0.7912463688
 40
0.8076151028
 40
0.8239526467
 40
0.8402526445
 40
0.8565088447
 40
0.8727152748
 40
0.8888661881
 40
0.9049558805
 40
0.9369254242
 40
0.952810249
 40
0.9686226856
 40
0.9843555469
 40
1.0
 40
1.0
 40
1.0
 40
1.0
 10
12.2654506022
 20
8.0938238529
 30
0.0
 10
12.2654508182
 20
8.1041827171
 30
0.0
 10
12.2662106801
 20
8.1196999426
 30
0.0
 10
12.2687549506
 20
8.1401678533
 30
0.0
 10
12.2722893527
 20
8.1602818133
 30
0.0
 10
12.2785568255
 20
8.1848766883
 30
0.0
 10
12.287270847
 20
8.2085968722
 30
0.0
 10
12.295630622
 20
8.2268349255
 30
0.0
 10
12.3025688579
 20
8.2400999041
 30
0.0
 10
12.310167748
 20
8.2529452086
 30
0.0
 10
12.3184086579
 20
8.2653434256
 30
0.0
 10
12.3272734599
 20
8.2772663365
 30
0.0
 10
12.3367408364
 20
8.2886883123
 30
0.0
 10
12.3467886818
 20
8.2995848245
 30
0.0
 10
12.3573955631
 20
8.3099307543
 30
0.0
 10
12.3685374083
 20
8.3197034133
 30
0.0
 10
12.3801889668
 20
8.3288817187
 30
0.0
 10
12.3923255204
 20
8.3374437025
 30
0.0
 10
12.4049202111
 20
8.3453696159
 30
0.0
 10
12.4179446636
 20
8.3526418902
 30
0.0
 10
12.4313708104
 20
8.3592418588
 30
0.0
 10
12.4451688311
 20
8.3651528758
 30
0.0
 10
12.4593072221
 20
8.370361322
 30
0.0
 10
12.4737545453
 20
8.3748523802
 30
0.0
 10
12.4884779559
 20
8.3786130213
 30
0.0
 10
12.5034430616
 20
8.3816341988
 30
0.0
 10
12.5186153142
 20
8.3839057011
 30
0.0
 10
12.5339590786
 20
8.3854188356
 30
0.0
 10
12.5494376526
 20
8.3861697887
 30
0.0
 10
12.5650140291
 20
8.3861537307
 30
0.0
 10
12.5806503894
 20
8.3853670666
 30
0.0
 10
12.5963086213
 20
8.3838117191
 30
0.0
 10
12.6119502345
 20
8.3814888147
 30
0.0
 10
12.6275361974
 20
8.3784004399
 30
0.0
 10
12.6430279099
 20
8.374554587
 30
0.0
 10
12.6583871466
 20
8.3699583411
 30
0.0
 10
12.6786691672
 20
8.3628293205
 30
0.0
 10
12.698500798
 20
8.3542486406
 30
0.0
 10
12.717722959
 20
8.3442916383
 30
0.0
 10
12.73184506
 20
8.3361292352
 30
0.0
 10
12.7456095953
 20
8.3273052923
 30
0.0
 10
12.7634461572
 20
8.3146787362
 30
0.0
 10
12.7804224039
 20
8.3008219988
 30
0.0
 10
12.7964033803
 20
8.2858441703
 30
0.0
 10
12.8078762821
 20
8.274066368
 30
0.0
 10
12.8187991424
 20
8.2617812709
 30
0.0
 10
12.8291435262
 20
8.2490181265
 30
0.0
 10
12.838885137
 20
8.2358106793
 30
0.0
 10
12.8479999925
 20
8.2221922851
 30
0.0
 10
12.8564639745
 20
8.2081963532
 30
0.0
 10
12.8642581919
 20
8.1938594072
 30
0.0
 10
12.8713640425
 20
8.1792176093
 30
0.0
 10
12.8777626488
 20
8.1643074402
 30
0.0
 10
12.8834411864
 20
8.149167185
 30
0.0
 10
12.8900203431
 20
8.1287733226
 30
0.0
 10
12.8951311428
 20
8.1080207085
 30
0.0
 10
12.898721491
 20
8.0870783179
 30
0.0
 10
12.9006424743
 20
8.0713641123
 30
0.0
 10
12.9017963241
 20
8.055656322
 30
0.0
 10
12.9020548487
 20
8.0451858312
 30
0.0
 10
12.9020549667
 20
8.0399662213
 30
0.0
  0
SPLINE
  5
2F5
100
AcDbEntity
  8
0
100
AcDbSpline
 62
7
  6
CONTINUOUS
 70
0
 71
3
 72
69
 73
65
 74
0
 42
0.0000001
 43
0.0000001
 44
0.0000000001
 40
0.0
 40
0.0
 40
0.0
 40
0.0
 40
0.0312903911
 40
0.0470006543
 40
0.0627445771
 40
0.0785223289
 40
0.0943340764
 40
0.1101786947
 40
0.126053634
 40
0.1419560655
 40
0.157883293
 40
0.1738324649
 40
0.1898005499
 40
0.2217715222
 40
0.2377758016
 40
0.253784915
 40
0.2697950952
 40
0.2858026601
 40
0.3018038922
 40
0.3177951034
 40
0.333772802
 40
0.3497335464
 40
0.3656740664
 40
0.3815913678
 40
0.3974825851
 40
0.4133451574
 40
0.4291768396
 40
0.4449755982
 40
0.4607398103
 40
0.4764681644
 40
0.4921596439
 40
0.5078136996
 40
0.5234300536
 40
0.5390088005
 40
0.5545504881
 40
0.5700558896
 40
0.5855262037
 40
0.6009629988
 40
0.6163680341
 40
0.631743502
 40
0.6470918309
 40
0.6624156163
 40
0.6777178363
 40
0.6930015641
 40
0.7082700105
 40
0.7235266729
 40
0.7387750246
 40
0.7540186258
 40
0.7692612029
 40
0.7845063491
 40
0.7997576767
 40
0.8150188128
 40
0.8302931311
 40
0.8455839876
 40
0.8608947335
 40
0.876228419
 40
0.8915878381
 40
0.906975194
 40
0.9223922944
 40
0.9378417982
 40
0.9533270585
 40
0.9688506682
 40
0.9844102238
 40
1.0
 40
1.0
 40
1.0
 40
1.0
 10
12.1254505948
 20
8.0938239163
 30
0.0
 10
12.1254507871
 20
8.0787969444
 30
0.0
 10
12.1265644053
 20
8.0562054127
 30
0.0
 10
12.1302261813
 20
8.0262883887
 30
0.0
 10
12.1340664542
 20
8.0039233602
 30
0.0
 10
12.1389830697
 20
7.9817212978
 30
0.0
 10
12.1449647213
 20
7.9597318347
 30
0.0
 10
12.1519958815
 20
7.938006253
 30
0.0
 10
12.160057273
 20
7.9165950211
 30
0.0
 10
12.1691312142
 20
7.8955496468
 30
0.0
 10
12.1791942499
 20
7.8749195165
 30
0.0
 10
12.1902214444
 20
7.8547515397
 30
0.0
 10
12.2061796849
 20
7.8285367433
 30
0.0
 10
12.2239584713
 20
7.8034341558
 30
0.0
 10
12.2434154448
 20
7.7796405734
 30
0.0
 10
12.2588268016
 20
7.7624710893
 30
0.0
 10
12.2750128476
 20
7.7460286223
 30
0.0
 10
12.291936901
 20
7.7303521214
 30
0.0
 10
12.3095575012
 20
7.7154770344
 30
0.0
 10
12.3278345054
 20
7.7014397038
 30
0.0
 10
12.3467252296
 20
7.6882738362
 30
0.0
 10
12.3661843874
 20
7.6760091715
 30
0.0
 10
12.3861676781
 20
7.6646769837
 30
0.0
 10
12.4066278988
 20
7.6543040676
 30
0.0
 10
12.4275166517
 20
7.644914425
 30
0.0
 10
12.4487860026
 20
7.6365333844
 30
0.0
 10
12.4703853385
 20
7.6291802205
 30
0.0
 10
12.4922638859
 20
7.6228730101
 30
0.0
 10
12.5143706834
 20
7.6176301682
 30
0.0
 10
12.5366529143
 20
7.6134631564
 30
0.0
 10
12.5590580491
 20
7.6103839124
 30
0.0
 10
12.5815329334
 20
7.6084028582
 30
0.0
 10
12.6040237178
 20
7.6075237051
 30
0.0
 10
12.6264766857
 20
7.6077518207
 30
0.0
 10
12.6488376578
 20
7.6090887272
 30
0.0
 10
12.6710527819
 20
7.6115305745
 30
0.0
 10
12.6930678657
 20
7.6150755295
 30
0.0
 10
12.7148291765
 20
7.619715646
 30
0.0
 10
12.7362837766
 20
7.6254397544
 30
0.0
 10
12.7573780402
 20
7.6322380233
 30
0.0
 10
12.7780603298
 20
7.6400929974
 30
0.0
 10
12.7982794745
 20
7.6489864522
 30
0.0
 10
12.8179839793
 20
7.6588997011
 30
0.0
 10
12.8371258548
 20
7.6698064808
 30
0.0
 10
12.8556566335
 20
7.6816816636
 30
0.0
 10
12.8735290286
 20
7.6944972713
 30
0.0
 10
12.8906998794
 20
7.7082195251
 30
0.0
 10
12.9071246699
 20
7.7228164312
 30
0.0
 10
12.922762433
 20
7.73825127
 30
0.0
 10
12.937575623
 20
7.754484166
 30
0.0
 10
12.9515251935
 20
7.7714764864
 30
0.0
 10
12.9645781042
 20
7.7891842191
 30
0.0
 10
12.9767029335
 20
7.8075626427
 30
0.0
 10
12.9878679022
 20
7.8265670883
 30
0.0
 10
12.9980485194
 20
7.8461485638
 30
0.0
 10
13.0072197868
 20
7.8662587794
 30
0.0
 10
13.0153586668
 20
7.8868479752
 30
0.0
 10
13.0224491329
 20
7.9078635117
 30
0.0
 10
13.0284734975
 20
7.9292540133
 30
0.0
 10
13.0334182229
 20
7.9509676845
 30
0.0
 10
13.0372746274
 20
7.9729526322
 30
0.0
 10
13.0400319726
 20
7.9951556095
 30
0.0
 10
13.0416871847
 20
8.0175174576
 30
0.0
 10
13.042054891
 20
8.0324793119
 30
0.0
 10
13.0420549799
 20
8.0399661832
 30
0.0
  0
SPLINE
  5
2F6
100
AcDbEntity
  8
0
100
AcDbSpline
 62
7
  6
CONTINUOUS
 70
0
 71
3
 72
65
 73
61
 74
0
 42
0.0000001
 43
0.0000001
 44
0.0000000001
 40
0.0
 40
0.0
 40
0.0
 40
0.0
 40
0.0310480609
 40
0.0464649293
 40
0.0618007306
 40
0.0922348384
 40
0.1223994854
 40
0.1373982457
 40
0.1523450303
 40
0.1672467788
 40
0.1821108896
 40
0.1969449801
 40
0.2117572324
 40
0.2265559705
 40
0.2413496115
 40
0.2561467331
 40
0.2709558136
 40
0.2857852993
 40
0.3006433297
 40
0.3155375112
 40
0.3304753141
 40
0.3454636475
 40
0.3605084679
 40
0.3756154841
 40
0.3907897567
 40
0.4060350812
 40
0.4213548941
 40
0.4367520191
 40
0.4522278894
 40
0.4677834902
 40
0.4834192865
 40
0.4991344099
 40
0.5149274995
 40
0.5307967793
 40
0.5467393109
 40
0.5627516699
 40
0.5788301256
 40
0.6111574632
 40
0.6274047439
 40
0.6436971146
 40
0.6600282604
 40
0.676391787
 40
0.7091799709
 40
0.7255990813
 40
0.7420225206
 40
0.7584429769
 40
0.7748532848
 40
0.7912463688
 40
0.8076151029
 40
0.8239526465
 40
0.8402526437
 40
0.8565088432
 40
0.8727152724
 40
0.8888661846
 40
0.9049558761
 40
0.9369254192
 40
0.9528102449
 40
0.9686226826
 40
0.984355545
 40
1.0
 40
1.0
 40
1.0
 40
1.0
 10
12.9020549703
 20
8.039966444
 30
0.0
 10
12.9020547544
 20
8.0296075799
 30
0.0
 10
12.9012948925
 20
8.0140903545
 30
0.0
 10
12.8987506219
 20
7.9936224439
 30
0.0
 10
12.8952162198
 20
7.9735084839
 30
0.0
 10
12.8889487471
 20
7.9489136088
 30
0.0
 10
12.8802347255
 20
7.9251934247
 30
0.0
 10
12.8718749504
 20
7.9069553712
 30
0.0
 10
12.8649367144
 20
7.8936903925
 30
0.0
 10
12.8573378242
 20
7.8808450878
 30
0.0
 10
12.8490969142
 20
7.8684468707
 30
0.0
 10
12.8402321121
 20
7.8565239597
 30
0.0
 10
12.8307647354
 20
7.8451019838
 30
0.0
 10
12.8207168899
 20
7.8342054715
 30
0.0
 10
12.8101100085
 20
7.8238595417
 30
0.0
 10
12.7989681632
 20
7.8140868828
 30
0.0
 10
12.7873166046
 20
7.8049085774
 30
0.0
 10
12.775180051
 20
7.7963465936
 30
0.0
 10
12.7625853604
 20
7.7884206804
 30
0.0
 10
12.749560908
 20
7.7811484062
 30
0.0
 10
12.7361347614
 20
7.7745484378
 30
0.0
 10
12.722336741
 20
7.7686374209
 30
0.0
 10
12.7081983502
 20
7.7634289749
 30
0.0
 10
12.6937510273
 20
7.7589379167
 30
0.0
 10
12.6790276169
 20
7.7551772756
 30
0.0
 10
12.6640625113
 20
7.7521560981
 30
0.0
 10
12.6488902587
 20
7.7498845959
 30
0.0
 10
12.6335464942
 20
7.7483714613
 30
0.0
 10
12.6180679197
 20
7.7476205082
 30
0.0
 10
12.6024915426
 20
7.7476365662
 30
0.0
 10
12.5868551812
 20
7.7484232305
 30
0.0
 10
12.5711969482
 20
7.7499785783
 30
0.0
 10
12.555555334
 20
7.7523014828
 30
0.0
 10
12.5399693704
 20
7.755389858
 30
0.0
 10
12.5244776577
 20
7.7592357115
 30
0.0
 10
12.5091184211
 20
7.7638319573
 30
0.0
 10
12.4888364016
 20
7.7709609776
 30
0.0
 10
12.4690047725
 20
7.7795416574
 30
0.0
 10
12.4497826129
 20
7.7894986588
 30
0.0
 10
12.4356605129
 20
7.7976610614
 30
0.0
 10
12.4218959783
 20
7.8064850039
 30
0.0
 10
12.4040594166
 20
7.8191115598
 30
0.0
 10
12.3870831699
 20
7.8329682969
 30
0.0
 10
12.3711021934
 20
7.8479461256
 30
0.0
 10
12.3596292912
 20
7.8597239281
 30
0.0
 10
12.3487064306
 20
7.8720090254
 30
0.0
 10
12.3383620466
 20
7.8847721701
 30
0.0
 10
12.3286204357
 20
7.8979796174
 30
0.0
 10
12.3195055802
 20
7.9115980116
 30
0.0
 10
12.3110415982
 20
7.9255939433
 30
0.0
 10
12.3032473811
 20
7.9399308887
 30
0.0
 10
12.2961415308
 20
7.954572686
 30
0.0
 10
12.2897429248
 20
7.9694828542
 30
0.0
 10
12.2840643872
 20
7.9846231083
 30
0.0
 10
12.2774852307
 20
8.0050169699
 30
0.0
 10
12.2723744306
 20
8.0257695837
 30
0.0
 10
12.2687840822
 20
8.0467119747
 30
0.0
 10
12.2668630989
 20
8.0624261813
 30
0.0
 10
12.2657092486
 20
8.078133973
 30
0.0
 10
12.2654507238
 20
8.0886044648
 30
0.0
 10
12.2654506059
 20
8.0938240753
 30
0.0
  0
SPLINE
  5
2F7
100
AcDbEntity
  8
0
100
AcDbSpline
 62
7
  6
CONTINUOUS
 70
0
 71
3
 72
69
 73
65
 74
0
 42
0.0000001
 43
0.0000001
 44
0.0000000001
 40
0.0
 40
0.0
 40
0.0
 40
0.0
 40
0.0312903904
 40
0.0470006528
 40
0.0627445756
 40
0.0785223279
 40
0.0943340764
 40
0.110178696
 40
0.1260536366
 40
0.1419560695
 40
0.1578832983
 40
0.1738324715
 40
0.1898005575
 40
0.2217715317
 40
0.2377758121
 40
0.2537849262
 40
0.2697951068
 40
0.2858026717
 40
0.3018039038
 40
0.3177951149
 40
0.3337728137
 40
0.3497335585
 40
0.3656740791
 40
0.3815913812
 40
0.3974825997
 40
0.4133451737
 40
0.4291768584
 40
0.4449756206
 40
0.4607398374
 40
0.4764681958
 40
0.4921596776
 40
0.5078137322
 40
0.5234300822
 40
0.5390088225
 40
0.5545505019
 40
0.5700558957
 40
0.585526204
 40
0.6009629954
 40
0.616368028
 40
0.6317434933
 40
0.6470918197
 40
0.6624156028
 40
0.6777178217
 40
0.6930015504
 40
0.7082700017
 40
0.7235266723
 40
0.7387750315
 40
0.7540186351
 40
0.7692612099
 40
0.784506353
 40
0.7997576804
 40
0.8150188192
 40
0.8302931417
 40
0.8455840027
 40
0.860894753
 40
0.8762284425
 40
0.8915878651
 40
0.9069752245
 40
0.9223923275
 40
0.9378418307
 40
0.9533270851
 40
0.9688506846
 40
0.9844102313
 40
1.0
 40
1.0
 40
1.0
 40
1.0
 10
12.3774978897
 20
8.8761810195
 30
0.0
 10
12.3774976974
 20
8.8912079912
 30
0.0
 10
12.3763840796
 20
8.9137995222
 30
0.0
 10
12.3727223034
 20
8.9437165454
 30
0.0
 10
12.3688820306
 20
8.9660815738
 30
0.0
 10
12.363965415
 20
8.988283637
 30
0.0
 10
12.3579837631
 20
9.0102731014
 30
0.0
 10
12.3509526023
 20
9.0319986847
 30
0.0
 10
12.3428912099
 20
9.0534099183
 30
0.0
 10
12.3338172679
 20
9.0744552945
 30
0.0
 10
12.3237542308
 20
9.0950854263
 30
0.0
 10
12.3127270352
 20
9.1152534045
 30
0.0
 10
12.2967687933
 20
9.1414682024
 30
0.0
 10
12.278990005
 20
9.1665707908
 30
0.0
 10
12.2595330298
 20
9.1903643742
 30
0.0
 10
12.2441216714
 20
9.207533858
 30
0.0
 10
12.227935625
 20
9.2239763254
 30
0.0
 10
12.2110115708
 20
9.2396528258
 30
0.0
 10
12.1933909697
 20
9.2545279118
 30
0.0
 10
12.1751139655
 20
9.2685652424
 30
0.0
 10
12.1562232403
 20
9.2817311092
 30
0.0
 10
12.1367640814
 20
9.2939957731
 30
0.0
 10
12.11678079
 20
9.3053279614
 30
0.0
 10
12.0963205675
 20
9.3157008766
 30
0.0
 10
12.0754318126
 20
9.325090519
 30
0.0
 10
12.0541624592
 20
9.3334715603
 30
0.0
 10
12.0325631191
 20
9.3408247232
 30
0.0
 10
12.0106845664
 20
9.3471319343
 30
0.0
 10
11.9885777626
 20
9.3523747759
 30
0.0
 10
11.9662955256
 20
9.3565417849
 30
0.0
 10
11.9438903883
 20
9.3596210297
 30
0.0
 10
11.9214155051
 20
9.3616020811
 30
0.0
 10
11.8989247261
 20
9.36248123
 30
0.0
 10
11.8764717673
 20
9.3622531148
 30
0.0
 10
11.8541108059
 20
9.3609162076
 30
0.0
 10
11.8318956924
 20
9.3584743597
 30
0.0
 10
11.8098806168
 20
9.3549294056
 30
0.0
 10
11.7881193117
 20
9.3502892907
 30
0.0
 10
11.7666647157
 20
9.3445651837
 30
0.0
 10
11.7455704556
 20
9.3377669163
 30
0.0
 10
11.7248881688
 20
9.3299119447
 30
0.0
 10
11.7046690266
 20
9.321018491
 30
0.0
 10
11.6849645222
 20
9.311105244
 30
0.0
 10
11.6658226438
 20
9.3001984649
 30
0.0
 10
11.6472918599
 20
9.2883232776
 30
0.0
 10
11.6294194574
 20
9.2755076633
 30
0.0
 10
11.6122485995
 20
9.2617854045
 30
0.0
 10
11.5958238049
 20
9.2471884975
 30
0.0
 10
11.5801860433
 20
9.2317536591
 30
0.0
 10
11.5653728564
 20
9.2155207639
 30
0.0
 10
11.5514232868
 20
9.1985284431
 30
0.0
 10
11.5383703749
 20
9.1808207073
 30
0.0
 10
11.5262455422
 20
9.1624422794
 30
0.0
 10
11.5150805711
 20
9.1434378277
 30
0.0
 10
11.5048999533
 20
9.1238563455
 30
0.0
 10
11.4957286831
 20
9.1037461248
 30
0.0
 10
11.4875898038
 20
9.0831569232
 30
0.0
 10
11.4804993398
 20
9.0621413811
 30
0.0
 10
11.4744749748
 20
9.0407508769
 30
0.0
 10
11.4695302535
 20
9.0190372066
 30
0.0
 10
11.4656738524
 20
8.9970522665
 30
0.0
 10
11.4629165069
 20
8.9748493013
 30
0.0
 10
11.4612612984
 20
8.9524874657
 30
0.0
 10
11.4608935934
 20
8.9375256193
 30
0.0
 10
11.4608935046
 20
8.9300387516
 30
0.0
  0
SPLINE
  5
2F8
100
AcDbEntity
  8
0
100
AcDbSpline
 62
7
  6
CONTINUOUS
 70
0
 71
3
 72
65
 73
61
 74
0
 42
0.0000001
 43
0.0000001
 44
0.0000000001
 40
0.0
 40
0.0
 40
0.0
 40
0.0
 40
0.0310480611
 40
0.0464649297
 40
0.061800731
 40
0.0922348386
 40
0.1223994853
 40
0.1373982455
 40
0.1523450299
 40
0.1672467782
 40
0.1821108888
 40
0.1969449792
 40
0.2117572313
 40
0.2265559693
 40
0.2413496102
 40
0.2561467317
 40
0.2709558122
 40
0.285785298
 40
0.3006433284
 40
0.3155375101
 40
0.3304753132
 40
0.3454636469
 40
0.3605084676
 40
0.375615484
 40
0.3907897569
 40
0.4060350815
 40
0.4213548945
 40
0.4367520193
 40
0.4522278892
 40
0.4677834893
 40
0.4834192846
 40
0.4991344067
 40
0.5149274953
 40
0.5307967742
 40
0.5467393053
 40
0.5627516644
 40
0.578830121
 40
0.6111574611
 40
0.6274047431
 40
0.643697115
 40
0.6600282616
 40
0.6763917887
 40
0.7091799725
 40
0.7255990827
 40
0.7420225216
 40
0.7584429775
 40
0.774853285
 40
0.7912463688
 40
0.8076151028
 40
0.8239526467
 40
0.8402526445
 40
0.8565088447
 40
0.8727152748
 40
0.8888661881
 40
0.9049558805
 40
0.9369254242
 40
0.952810249
 40
0.9686226856
 40
0.9843555469
 40
1.0
 40
1.0
 40
1.0
 40
1.0
 10
11.6008935142
 20
8.9300384918
 30
0.0
 10
11.6008937302
 20
8.9403973559
 30
0.0
 10
11.6016535921
 20
8.9559145814
 30
0.0
 10
11.6041978626
 20
8.9763824922
 30
0.0
 10
11.6077322647
 20
8.9964964521
 30
0.0
 10
11.6139997375
 20
9.0210913271
 30
0.0
 10
11.622713759
 20
9.0448115111
 30
0.0
 10
11.631073534
 20
9.0630495643
 30
0.0
 10
11.6380117699
 20
9.0763145429
 30
0.0
 10
11.64561066
 20
9.0891598475
 30
0.0
 10
11.6538515699
 20
9.1015580645
 30
0.0
 10
11.6627163719
 20
9.1134809754
 30
0.0
 10
11.6721837484
 20
9.1249029512
 30
0.0
 10
11.6822315938
 20
9.1357994634
 30
0.0
 10
11.6928384751
 20
9.1461453931
 30
0.0
 10
11.7039803203
 20
9.1559180521
 30
0.0
 10
11.7156318788
 20
9.1650963575
 30
0.0
 10
11.7277684324
 20
9.1736583414
 30
0.0
 10
11.7403631231
 20
9.1815842548
 30
0.0
 10
11.7533875756
 20
9.1888565291
 30
0.0
 10
11.7668137224
 20
9.1954564976
 30
0.0
 10
11.780611743
 20
9.2013675147
 30
0.0
 10
11.7947501341
 20
9.2065759608
 30
0.0
 10
11.8091974573
 20
9.2110670191
 30
0.0
 10
11.8239208679
 20
9.2148276602
 30
0.0
 10
11.8388859736
 20
9.2178488377
 30
0.0
 10
11.8540582262
 20
9.2201203399
 30
0.0
 10
11.8694019906
 20
9.2216334745
 30
0.0
 10
11.8848805646
 20
9.2223844275
 30
0.0
 10
11.9004569411
 20
9.2223683695
 30
0.0
 10
11.9160933014
 20
9.2215817055
 30
0.0
 10
11.9317515333
 20
9.2200263579
 30
0.0
 10
11.9473931465
 20
9.2177034535
 30
0.0
 10
11.9629791094
 20
9.2146150787
 30
0.0
 10
11.9784708219
 20
9.2107692258
 30
0.0
 10
11.9938300586
 20
9.20617298
 30
0.0
 10
12.0141120792
 20
9.1990439594
 30
0.0
 10
12.03394371
 20
9.1904632794
 30
0.0
 10
12.053165871
 20
9.1805062772
 30
0.0
 10
12.067287972
 20
9.172343874
 30
0.0
 10
12.0810525073
 20
9.1635199312
 30
0.0
 10
12.0988890692
 20
9.150893375
 30
0.0
 10
12.1158653159
 20
9.1370366377
 30
0.0
 10
12.1318462922
 20
9.1220588092
 30
0.0
 10
12.1433191941
 20
9.1102810068
 30
0.0
 10
12.1542420544
 20
9.0979959097
 30
0.0
 10
12.1645864382
 20
9.0852327653
 30
0.0
 10
12.174328049
 20
9.0720253182
 30
0.0
 10
12.1834429045
 20
9.0584069239
 30
0.0
 10
12.1919068865
 20
9.044410992
 30
0.0
 10
12.1997011039
 20
9.030074046
 30
0.0
 10
12.2068069545
 20
9.0154322481
 30
0.0
 10
12.2132055608
 20
9.000522079
 30
0.0
 10
12.2188840983
 20
8.9853818238
 30
0.0
 10
12.2254632551
 20
8.9649879615
 30
0.0
 10
12.2305740548
 20
8.9442353474
 30
0.0
 10
12.234164403
 20
8.9232929568
 30
0.0
 10
12.2360853863
 20
8.9075787511
 30
0.0
 10
12.2372392361
 20
8.8918709608
 30
0.0
 10
12.2374977607
 20
8.88140047
 30
0.0
 10
12.2374978786
 20
8.8761808602
 30
0.0
  0
SPLINE
  5
2F9
100
AcDbEntity
  8
0
100
AcDbSpline
 62
7
  6
CONTINUOUS
 70
0
 71
3
 72
69
 73
65
 74
0
 42
0.0000001
 43
0.0000001
 44
0.0000000001
 40
0.0
 40
0.0
 40
0.0
 40
0.0
 40
0.0312903911
 40
0.0470006543
 40
0.0627445771
 40
0.0785223289
 40
0.0943340764
 40
0.1101786947
 40
0.126053634
 40
0.1419560655
 40
0.157883293
 40
0.1738324649
 40
0.1898005499
 40
0.2217715222
 40
0.2377758016
 40
0.253784915
 40
0.2697950952
 40
0.2858026601
 40
0.3018038922
 40
0.3177951034
 40
0.333772802
 40
0.3497335464
 40
0.3656740664
 40
0.3815913678
 40
0.3974825851
 40
0.4133451574
 40
0.4291768396
 40
0.4449755982
 40
0.4607398103
 40
0.4764681644
 40
0.4921596439
 40
0.5078136996
 40
0.5234300536
 40
0.5390088005
 40
0.5545504881
 40
0.5700558896
 40
0.5855262037
 40
0.6009629988
 40
0.6163680341
 40
0.631743502
 40
0.6470918309
 40
0.6624156163
 40
0.6777178363
 40
0.6930015641
 40
0.7082700105
 40
0.7235266729
 40
0.7387750246
 40
0.7540186258
 40
0.7692612029
 40
0.7845063491
 40
0.7997576767
 40
0.8150188128
 40
0.8302931311
 40
0.8455839876
 40
0.8608947335
 40
0.876228419
 40
0.8915878381
 40
0.906975194
 40
0.9223922944
 40
0.9378417982
 40
0.9533270585
 40
0.9688506682
 40
0.9844102238
 40
1.0
 40
1.0
 40
1.0
 40
1.0
 10
11.4608935068
 20
8.9300385552
 30
0.0
 10
11.4608936991
 20
8.9150115832
 30
0.0
 10
11.4620073173
 20
8.8924200515
 30
0.0
 10
11.4656690933
 20
8.8625030276
 30
0.0
 10
11.4695093662
 20
8.8401379991
 30
0.0
 10
11.4744259817
 20
8.8179359366
 30
0.0
 10
11.4804076333
 20
8.7959464735
 30
0.0
 10
11.4874387934
 20
8.7742208918
 30
0.0
 10
11.495500185
 20
8.75280966
 30
0.0
 10
11.5045741262
 20
8.7317642857
 30
0.0
 10
11.5146371618
 20
8.7111341553
 30
0.0
 10
11.5256643564
 20
8.6909661785
 30
0.0
 10
11.5416225969
 20
8.6647513821
 30
0.0
 10
11.5594013833
 20
8.6396487946
 30
0.0
 10
11.5788583568
 20
8.6158552122
 30
0.0
 10
11.5942697136
 20
8.5986857282
 30
0.0
 10
11.6104557596
 20
8.5822432612
 30
0.0
 10
11.627379813
 20
8.5665667603
 30
0.0
 10
11.6450004132
 20
8.5516916732
 30
0.0
 10
11.6632774174
 20
8.5376543427
 30
0.0
 10
11.6821681416
 20
8.524488475
 30
0.0
 10
11.7016272994
 20
8.5122238104
 30
0.0
 10
11.7216105901
 20
8.5008916225
 30
0.0
 10
11.7420708108
 20
8.4905187064
 30
0.0
 10
11.7629595637
 20
8.4811290639
 30
0.0
 10
11.7842289146
 20
8.4727480232
 30
0.0
 10
11.8058282505
 20
8.4653948594
 30
0.0
 10
11.8277067979
 20
8.459087649
 30
0.0
 10
11.8498135954
 20
8.453844807
 30
0.0
 10
11.8720958263
 20
8.4496777952
 30
0.0
 10
11.8945009611
 20
8.4465985512
 30
0.0
 10
11.9169758454
 20
8.4446174971
 30
0.0
 10
11.9394666298
 20
8.4437383439
 30
0.0
 10
11.9619195976
 20
8.4439664596
 30
0.0
 10
11.9842805698
 20
8.4453033661
 30
0.0
 10
12.0064956939
 20
8.4477452134
 30
0.0
 10
12.0285107777
 20
8.4512901684
 30
0.0
 10
12.0502720885
 20
8.4559302848
 30
0.0
 10
12.0717266886
 20
8.4616543932
 30
0.0
 10
12.0928209522
 20
8.4684526621
 30
0.0
 10
12.1135032418
 20
8.4763076362
 30
0.0
 10
12.1337223865
 20
8.4852010911
 30
0.0
 10
12.1534268913
 20
8.4951143399
 30
0.0
 10
12.1725687667
 20
8.5060211196
 30
0.0
 10
12.1910995455
 20
8.5178963024
 30
0.0
 10
12.2089719406
 20
8.5307119101
 30
0.0
 10
12.2261427914
 20
8.544434164
 30
0.0
 10
12.2425675819
 20
8.55903107
 30
0.0
 10
12.258205345
 20
8.5744659088
 30
0.0
 10
12.273018535
 20
8.5906988049
 30
0.0
 10
12.2869681055
 20
8.6076911252
 30
0.0
 10
12.3000210161
 20
8.6253988579
 30
0.0
 10
12.3121458455
 20
8.6437772815
 30
0.0
 10
12.3233108141
 20
8.6627817272
 30
0.0
 10
12.3334914314
 20
8.6823632027
 30
0.0
 10
12.3426626988
 20
8.7024734183
 30
0.0
 10
12.3508015787
 20
8.723062614
 30
0.0
 10
12.3578920449
 20
8.7440781505
 30
0.0
 10
12.3639164095
 20
8.7654686521
 30
0.0
 10
12.3688611349
 20
8.7871823233
 30
0.0
 10
12.3727175394
 20
8.809167271
 30
0.0
 10
12.3754748846
 20
8.8313702483
 30
0.0
 10
12.3771300967
 20
8.8537320964
 30
0.0
 10
12.377497803
 20
8.8686939507
 30
0.0
 10
12.3774978919
 20
8.876180822
 30
0.0
  0
SPLINE
  5
2FA
100
AcDbEntity
  8
0
100
AcDbSpline
 62
7
  6
CONTINUOUS
 70
0
 71
3
 72
65
 73
61
 74
0
 42
0.0000001
 43
0.0000001
 44
0.0000000001
 40
0.0
 40
0.0
 40
0.0
 40
0.0
 40
0.0310480609
 40
0.0464649293
 40
0.0618007306
 40
0.0922348384
 40
0.1223994854
 40
0.1373982457
 40
0.1523450303
 40
0.1672467788
 40
0.1821108896
 40
0.1969449801
 40
0.2117572324
 40
0.2265559705
 40
0.2413496115
 40
0.2561467331
 40
0.2709558136
 40
0.2857852993
 40
0.3006433297
 40
0.3155375112
 40
0.3304753141
 40
0.3454636475
 40
0.3605084679
 40
0.3756154841
 40
0.3907897567
 40
0.4060350812
 40
0.4213548941
 40
0.4367520191
 40
0.4522278894
 40
0.4677834902
 40
0.4834192865
 40
0.4991344099
 40
0.5149274995
 40
0.5307967793
 40
0.5467393109
 40
0.5627516699
 40
0.5788301256
 40
0.6111574632
 40
0.6274047439
 40
0.6436971146
 40
0.6600282604
 40
0.676391787
 40
0.7091799709
 40
0.7255990813
 40
0.7420225206
 40
0.7584429769
 40
0.7748532848
 40
0.7912463688
 40
0.8076151029
 40
0.8239526465
 40
0.8402526437
 40
0.8565088432
 40
0.8727152724
 40
0.8888661846
 40
0.9049558761
 40
0.9369254192
 40
0.9528102449
 40
0.9686226826
 40
0.984355545
 40
1.0
 40
1.0
 40
1.0
 40
1.0
 10
12.2374978823
 20
8.8761810828
 30
0.0
 10
12.2374976663
 20
8.8658222187
 30
0.0
 10
12.2367378045
 20
8.8503049933
 30
0.0
 10
12.2341935339
 20
8.8298370827
 30
0.0
 10
12.2306591318
 20
8.8097231228
 30
0.0
 10
12.2243916591
 20
8.7851282477
 30
0.0
 10
12.2156776375
 20
8.7614080635
 30
0.0
 10
12.2073178624
 20
8.7431700101
 30
0.0
 10
12.2003796264
 20
8.7299050313
 30
0.0
 10
12.1927807362
 20
8.7170597266
 30
0.0
 10
12.1845398262
 20
8.7046615095
 30
0.0
 10
12.1756750241
 20
8.6927385985
 30
0.0
 10
12.1662076474
 20
8.6813166227
 30
0.0
 10
12.1561598018
 20
8.6704201104
 30
0.0
 10
12.1455529205
 20
8.6600741806
 30
0.0
 10
12.1344110752
 20
8.6503015216
 30
0.0
 10
12.1227595166
 20
8.6411232163
 30
0.0
 10
12.110622963
 20
8.6325612325
 30
0.0
 10
12.0980282724
 20
8.6246353192
 30
0.0
 10
12.08500382
 20
8.6173630451
 30
0.0
 10
12.0715776734
 20
8.6107630766
 30
0.0
 10
12.057779653
 20
8.6048520597
 30
0.0
 10
12.0436412622
 20
8.5996436137
 30
0.0
 10
12.0291939393
 20
8.5951525555
 30
0.0
 10
12.0144705289
 20
8.5913919145
 30
0.0
 10
11.9995054233
 20
8.588370737
 30
0.0
 10
11.9843331707
 20
8.5860992347
 30
0.0
 10
11.9689894062
 20
8.5845861001
 30
0.0
 10
11.9535108317
 20
8.5838351471
 30
0.0
 10
11.9379344545
 20
8.5838512051
 30
0.0
 10
11.9222980932
 20
8.5846378693
 30
0.0
 10
11.9066398602
 20
8.5861932172
 30
0.0
 10
11.890998246
 20
8.5885161217
 30
0.0
 10
11.8754122824
 20
8.5916044969
 30
0.0
 10
11.8599205697
 20
8.5954503503
 30
0.0
 10
11.8445613331
 20
8.6000465961
 30
0.0
 10
11.8242793136
 20
8.6071756165
 30
0.0
 10
11.8044476845
 20
8.6157562963
 30
0.0
 10
11.7852255249
 20
8.6257132977
 30
0.0
 10
11.7711034249
 20
8.6338757003
 30
0.0
 10
11.7573388903
 20
8.6426996428
 30
0.0
 10
11.7395023286
 20
8.6553261986
 30
0.0
 10
11.7225260819
 20
8.6691829358
 30
0.0
 10
11.7065451054
 20
8.6841607644
 30
0.0
 10
11.6950722032
 20
8.6959385669
 30
0.0
 10
11.6841493426
 20
8.7082236643
 30
0.0
 10
11.6738049586
 20
8.7209868089
 30
0.0
 10
11.6640633476
 20
8.7341942562
 30
0.0
 10
11.6549484921
 20
8.7478126504
 30
0.0
 10
11.6464845102
 20
8.7618085821
 30
0.0
 10
11.6386902931
 20
8.7761455276
 30
0.0
 10
11.6315844428
 20
8.7907873248
 30
0.0
 10
11.6251858367
 20
8.805697493
 30
0.0
 10
11.6195072992
 20
8.8208377472
 30
0.0
 10
11.6129281427
 20
8.8412316087
 30
0.0
 10
11.6078173425
 20
8.8619842225
 30
0.0
 10
11.6042269941
 20
8.8829266135
 30
0.0
 10
11.6023060109
 20
8.8986408202
 30
0.0
 10
11.6011521606
 20
8.9143486118
 30
0.0
 10
11.6008936358
 20
8.9248191037
 30
0.0
 10
11.6008935179
 20
8.9300387141
 30
0.0
  0
SPLINE
  5
2FB
100
AcDbEntity
  8
0
100
AcDbSpline
 62
7
  6
CONTINUOUS
 70
0
 71
3
 72
24
 73
20
 74
0
 42
0.0000001
 43
0.0000001
 44
0.0000000001
 40
0.0
 40
0.0
 40
0.0
 40
0.0
 40
0.0637767223
 40
0.1273442464
 40
0.1907009953
 40
0.2538548358
 40
0.3168115815
 40
0.3795801539
 40
0.4421711312
 40
0.5045967629
 40
0.566870977
 40
0.6290091758
 40
0.6910281284
 40
0.7529458055
 40
0.8147811999
 40
0.8765541364
 40
0.9074261033
 40
0.938290172
 40
1.0
 40
1.0
 40
1.0
 40
1.0
 10
12.3949117127
 20
8.8626161989
 30
0.0
 10
12.3949117127
 20
8.8549018338
 30
0.0
 10
12.3945424664
 20
8.839495794
 30
0.0
 10
12.3928759063
 20
8.8164804549
 30
0.0
 10
12.3901010577
 20
8.7936475556
 30
0.0
 10
12.3862245657
 20
8.7710506945
 30
0.0
 10
12.3812550943
 20
8.7487415418
 30
0.0
 10
12.3752041181
 20
8.726771668
 30
0.0
 10
12.3680855522
 20
8.705191685
 30
0.0
 10
12.3599157565
 20
8.6840513574
 30
0.0
 10
12.3507135209
 20
8.6633994447
 30
0.0
 10
12.3404999889
 20
8.6432835914
 30
0.0
 10
12.3292987218
 20
8.6237502096
 30
0.0
 10
12.3171354713
 20
8.6048442819
 30
0.0
 10
12.3040384971
 20
8.5866096934
 30
0.0
 10
12.2923683275
 20
8.5720049695
 30
0.0
 10
12.2825984862
 20
8.5607008297
 30
0.0
 10
12.2725467453
 20
8.5496573435
 30
0.0
 10
12.2646910384
 20
8.5416685528
 30
0.0
 10
12.2593222681
 20
8.5364827152
 30
0.0
  0
SPLINE
  5
2FC
100
AcDbEntity
  8
0
100
AcDbSpline
 62
7
  6
CONTINUOUS
 70
0
 71
3
 72
23
 73
19
 74
0
 42
0.0000001
 43
0.0000001
 44
0.0000000001
 40
0.0
 40
0.0
 40
0.0
 40
0.0
 40
0.063776909
 40
0.1273449468
 40
0.1907019575
 40
0.2538561145
 40
0.3168131979
 40
0.3795820804
 40
0.4421733815
 40
0.5045993354
 40
0.5668738682
 40
0.6290123838
 40
0.6910316538
 40
0.75294965
 40
0.8147853622
 40
0.8765586114
 40
0.9382898593
 40
1.0
 40
1.0
 40
1.0
 40
1.0
 10
12.3949117127
 20
7.2804295331
 30
0.0
 10
12.3949117127
 20
7.272715218
 30
0.0
 10
12.3945424628
 20
7.2573092389
 30
0.0
 10
12.3928759274
 20
7.2342939992
 30
0.0
 10
12.3901010987
 20
7.2114611827
 30
0.0
 10
12.3862246451
 20
7.1888644216
 30
0.0
 10
12.3812552087
 20
7.1665553622
 30
0.0
 10
12.3752042828
 20
7.1445855755
 30
0.0
 10
12.3680857862
 20
7.1230056733
 30
0.0
 10
12.3599160687
 20
7.1018654192
 30
0.0
 10
12.3507138962
 20
7.0812135835
 30
0.0
 10
12.3405004472
 20
7.0610978014
 30
0.0
 10
12.3292992744
 20
7.0415644622
 30
0.0
 10
12.3171361691
 20
7.0226586144
 30
0.0
 10
12.3040391748
 20
7.00442393
 30
0.0
 10
12.2900383197
 20
6.9869023446
 30
0.0
 10
12.2751664652
 20
6.9701348121
 30
0.0
 10
12.2646921389
 20
6.9594829564
 30
0.0
 10
12.2593234013
 20
6.9542971317
 30
0.0
  0
SPLINE
  5
2FD
100
AcDbEntity
  8
0
100
AcDbSpline
 62
7
  6
CONTINUOUS
 70
0
 71
3
 72
23
 73
19
 74
0
 42
0.0000001
 43
0.0000001
 44
0.0000000001
 40
0.0
 40
0.0
 40
0.0
 40
0.0
 40
0.063776909
 40
0.1273449468
 40
0.1907019575
 40
0.2538561145
 40
0.3168131979
 40
0.3795820804
 40
0.4421733815
 40
0.5045993354
 40
0.5668738682
 40
0.6290123838
 40
0.6910316538
 40
0.75294965
 40
0.8147853622
 40
0.8765586114
 40
0.9382898593
 40
1.0
 40
1.0
 40
1.0
 40
1.0
 10
11.7303547399
 20
8.1185759332
 30
0.0
 10
11.7303547399
 20
8.1108616182
 30
0.0
 10
11.7299854899
 20
8.0954556391
 30
0.0
 10
11.7283189546
 20
8.0724403994
 30
0.0
 10
11.7255441259
 20
8.0496075828
 30
0.0
 10
11.7216676722
 20
8.0270108218
 30
0.0
 10
11.7166982358
 20
8.0047017624
 30
0.0
 10
11.7106473099
 20
7.9827319757
 30
0.0
 10
11.7035288134
 20
7.9611520735
 30
0.0
 10
11.6953590958
 20
7.9400118194
 30
0.0
 10
11.6861569233
 20
7.9193599837
 30
0.0
 10
11.6759434743
 20
7.8992442016
 30
0.0
 10
11.6647423015
 20
7.8797108624
 30
0.0
 10
11.6525791962
 20
7.8608050146
 30
0.0
 10
11.639482202
 20
7.8425703302
 30
0.0
 10
11.6254813469
 20
7.8250487448
 30
0.0
 10
11.6106094923
 20
7.8082812123
 30
0.0
 10
11.6001351661
 20
7.7976293565
 30
0.0
 10
11.5947664284
 20
7.7924435318
 30
0.0
  0
SPLINE
  5
2FE
100
AcDbEntity
  8
0
100
AcDbSpline
 62
7
  6
CONTINUOUS
 70
0
 71
3
 72
23
 73
19
 74
0
 42
0.0000001
 43
0.0000001
 44
0.0000000001
 40
0.0
 40
0.0
 40
0.0
 40
0.0
 40
0.063776909
 40
0.1273449468
 40
0.1907019575
 40
0.2538561145
 40
0.3168131979
 40
0.3795820804
 40
0.4421733815
 40
0.5045993354
 40
0.5668738682
 40
0.6290123838
 40
0.6910316538
 40
0.75294965
 40
0.8147853622
 40
0.8765586114
 40
0.9382898593
 40
1.0
 40
1.0
 40
1.0
 40
1.0
 10
13.0594688007
 20
8.02640156
 30
0.0
 10
13.0594688007
 20
8.018687245
 30
0.0
 10
13.0590995508
 20
8.0032812659
 30
0.0
 10
13.0574330154
 20
7.9802660262
 30
0.0
 10
13.0546581867
 20
7.9574332097
 30
0.0
 10
13.0507817331
 20
7.9348364486
 30
0.0
 10
13.0458122967
 20
7.9125273892
 30
0.0
 10
13.0397613708
 20
7.8905576025
 30
0.0
 10
13.0326428742
 20
7.8689777003
 30
0.0
 10
13.0244731567
 20
7.8478374462
 30
0.0
 10
13.0152709842
 20
7.8271856105
 30
0.0
 10
13.0050575352
 20
7.8070698284
 30
0.0
 10
12.9938563624
 20
7.7875364892
 30
0.0
 10
12.9816932571
 20
7.7686306414
 30
0.0
 10
12.9685962628
 20
7.750395957
 30
0.0
 10
12.9545954077
 20
7.7328743716
 30
0.0
 10
12.9397235532
 20
7.7161068391
 30
0.0
 10
12.9292492269
 20
7.7054549834
 30
0.0
 10
12.9238804893
 20
7.7002691587
 30
0.0
  0
SPLINE
  5
2FF
100
AcDbEntity
  8
0
100
AcDbSpline
 62
7
  6
CONTINUOUS
 70
0
 71
3
 72
21
 73
17
 74
0
 42
0.0000001
 43
0.0000001
 44
0.0000000001
 40
0.0
 40
0.0
 40
0.0
 40
0.0
 40
0.1273176253
 40
0.2537997538
 40
0.3167617031
 40
0.3795356349
 40
0.4421315552
 40
0.5045621127
 40
0.5668413504
 40
0.6289845238
 40
0.6910084429
 40
0.7529310808
 40
0.8147714271
 40
0.8765493234
 40
0.9382852026
 40
1.0
 40
1.0
 40
1.0
 40
1.0
 10
11.162390383
 20
6.9215792631
 30
0.0
 10
11.162390383
 20
6.917575473
 30
0.0
 10
11.1620082007
 20
6.9095890124
 30
0.0
 10
11.1605647616
 20
6.899716027
 30
0.0
 10
11.1588395539
 20
6.8919715235
 30
0.0
 10
11.1572662505
 20
6.8862591734
 30
0.0
 10
11.1554153888
 20
6.8806483185
 30
0.0
 10
11.1532911423
 20
6.875151779
 30
0.0
 10
11.1508985365
 20
6.8697822032
 30
0.0
 10
11.1482428986
 20
6.8645520475
 30
0.0
 10
11.1453305345
 20
6.8594732878
 30
0.0
 10
11.1421679684
 20
6.8545577398
 30
0.0
 10
11.1387626583
 20
6.849816654
 30
0.0
 10
11.1351222906
 20
6.845261018
 30
0.0
 10
11.1312554889
 20
6.8409014182
 30
0.0
 10
11.1285320537
 20
6.8381319418
 30
0.0
 10
11.1271361448
 20
6.8367836125
 30
0.0
  0
SPLINE
  5
300
100
AcDbEntity
  8
0
100
AcDbSpline
 62
7
  6
CONTINUOUS
 70
0
 71
3
 72
23
 73
19
 74
0
 42
0.0000001
 43
0.0000001
 44
0.0000000001
 40
0.0
 40
0.0
 40
0.0
 40
0.0
 40
0.0637748419
 40
0.1273454053
 40
0.1907023746
 40
0.2538558225
 40
0.3168132293
 40
0.3795821318
 40
0.4421733557
 40
0.5045993383
 40
0.566873869
 40
0.6290123749
 40
0.6910316549
 40
0.7529496458
 40
0.8147853539
 40
0.8765586087
 40
0.9382898542
 40
1.0
 40
1.0
 40
1.0
 40
1.0
 10
13.7481738981
 20
6.8002100938
 30
0.0
 10
13.7481738981
 20
6.7969238924
 30
0.0
 10
13.7480165509
 20
6.7903609041
 30
0.0
 10
13.7473066702
 20
6.7805563581
 30
0.0
 10
13.7461245857
 20
6.7708294556
 30
0.0
 10
13.7444731336
 20
6.7612032439
 30
0.0
 10
13.7423562079
 20
6.7516995635
 30
0.0
 10
13.7397784841
 20
6.742340397
 30
0.0
 10
13.7367459656
 20
6.7331473442
 30
0.0
 10
13.7332656779
 20
6.7241415634
 30
0.0
 10
13.7293454956
 20
6.7153438743
 30
0.0
 10
13.7249945585
 20
6.7067745248
 30
0.0
 10
13.7202228491
 20
6.6984532944
 30
0.0
 10
13.7150412991
 20
6.6903994132
 30
0.0
 10
13.7094619733
 20
6.6826314086
 30
0.0
 10
13.7034975731
 20
6.675167205
 30
0.0
 10
13.6971621185
 20
6.6680242383
 30
0.0
 10
13.6927000423
 20
6.6634865345
 30
0.0
 10
13.6904129505
 20
6.6612773694
 30
0.0
  0
SPLINE
  5
301
100
AcDbEntity
  8
0
100
AcDbSpline
 62
7
  6
CONTINUOUS
 70
0
 71
3
 72
23
 73
19
 74
0
 42
0.0000001
 43
0.0000001
 44
0.0000000001
 40
0.0
 40
0.0
 40
0.0
 40
0.0
 40
0.0637748419
 40
0.1273454053
 40
0.1907023746
 40
0.2538558225
 40
0.3168132293
 40
0.3795821318
 40
0.4421733557
 40
0.5045993383
 40
0.566873869
 40
0.6290123749
 40
0.6910316549
 40
0.7529496458
 40
0.8147853539
 40
0.8765586087
 40
0.9382898542
 40
1.0
 40
1.0
 40
1.0
 40
1.0
 10
13.7481738981
 20
9.1570693049
 30
0.0
 10
13.7481738981
 20
9.1537831035
 30
0.0
 10
13.7480165509
 20
9.1472201152
 30
0.0
 10
13.7473066702
 20
9.1374155692
 30
0.0
 10
13.7461245857
 20
9.1276886667
 30
0.0
 10
13.7444731336
 20
9.118062455
 30
0.0
 10
13.7423562079
 20
9.1085587746
 30
0.0
 10
13.7397784841
 20
9.0991996081
 30
0.0
 10
13.7367459656
 20
9.0900065553
 30
0.0
 10
13.7332656779
 20
9.0810007744
 30
0.0
 10
13.7293454956
 20
9.0722030854
 30
0.0
 10
13.7249945585
 20
9.0636337359
 30
0.0
 10
13.7202228491
 20
9.0553125055
 30
0.0
 10
13.7150412991
 20
9.0472586243
 30
0.0
 10
13.7094619733
 20
9.0394906197
 30
0.0
 10
13.7034975731
 20
9.0320264161
 30
0.0
 10
13.6971621185
 20
9.0248834494
 30
0.0
 10
13.6927000423
 20
9.0203457456
 30
0.0
 10
13.6904129505
 20
9.0181365804
 30
0.0
  0
SPLINE
  5
302
100
AcDbEntity
  8
0
100
AcDbSpline
 62
7
  6
CONTINUOUS
 70
0
 71
3
 72
23
 73
19
 74
0
 42
0.0000001
 43
0.0000001
 44
0.0000000001
 40
0.0
 40
0.0
 40
0.0
 40
0.0
 40
0.0637748419
 40
0.1273454053
 40
0.1907023746
 40
0.2538558225
 40
0.3168132293
 40
0.3795821318
 40
0.4421733557
 40
0.5045993383
 40
0.566873869
 40
0.6290123749
 40
0.6910316549
 40
0.7529496458
 40
0.8147853539
 40
0.8765586087
 40
0.9382898542
 40
1.0
 40
1.0
 40
1.0
 40
1.0
 10
10.6688021589
 20
9.428579958
 30
0.0
 10
10.6688021589
 20
9.4252937567
 30
0.0
 10
10.6686448116
 20
9.4187307684
 30
0.0
 10
10.6679349309
 20
9.4089262223
 30
0.0
 10
10.6667528464
 20
9.3991993199
 30
0.0
 10
10.6651013943
 20
9.3895731082
 30
0.0
 10
10.6629844686
 20
9.3800694277
 30
0.0
 10
10.6604067449
 20
9.3707102613
 30
0.0
 10
10.6573742263
 20
9.3615172085
 30
0.0
 10
10.6538939387
 20
9.3525114276
 30
0.0
 10
10.6499737564
 20
9.3437137386
 30
0.0
 10
10.6456228192
 20
9.3351443891
 30
0.0
 10
10.6408511098
 20
9.3268231587
 30
0.0
 10
10.6356695599
 20
9.3187692775
 30
0.0
 10
10.6300902341
 20
9.3110012729
 30
0.0
 10
10.6241258339
 20
9.3035370693
 30
0.0
 10
10.6177903792
 20
9.2963941026
 30
0.0
 10
10.6133283031
 20
9.2918563988
 30
0.0
 10
10.6110412112
 20
9.2896472336
 30
0.0
  0
SPLINE
  5
303
100
AcDbEntity
  8
0
100
AcDbSpline
 62
7
  6
CONTINUOUS
 70
0
 71
3
 72
23
 73
19
 74
0
 42
0.0000001
 43
0.0000001
 44
0.0000000001
 40
0.0
 40
0.0
 40
0.0
 40
0.0
 40
0.0637748419
 40
0.1273454053
 40
0.1907023746
 40
0.2538558225
 40
0.3168132293
 40
0.3795821318
 40
0.4421733557
 40
0.5045993383
 40
0.566873869
 40
0.6290123749
 40
0.6910316549
 40
0.7529496458
 40
0.8147853539
 40
0.8765586087
 40
0.9382898542
 40
1.0
 40
1.0
 40
1.0
 40
1.0
 10
10.6688021589
 20
6.9558097227
 30
0.0
 10
10.6688021589
 20
6.9525235214
 30
0.0
 10
10.6686448116
 20
6.9459605331
 30
0.0
 10
10.6679349309
 20
6.936155987
 30
0.0
 10
10.6667528464
 20
6.9264290846
 30
0.0
 10
10.6651013943
 20
6.9168028729
 30
0.0
 10
10.6629844686
 20
6.9072991924
 30
0.0
 10
10.6604067449
 20
6.8979400259
 30
0.0
 10
10.6573742263
 20
6.8887469732
 30
0.0
 10
10.6538939387
 20
6.8797411923
 30
0.0
 10
10.6499737564
 20
6.8709435033
 30
0.0
 10
10.6456228192
 20
6.8623741538
 30
0.0
 10
10.6408511098
 20
6.8540529234
 30
0.0
 10
10.6356695599
 20
6.8459990422
 30
0.0
 10
10.6300902341
 20
6.8382310375
 30
0.0
 10
10.6241258339
 20
6.8307668339
 30
0.0
 10
10.6177903792
 20
6.8236238672
 30
0.0
 10
10.6133283031
 20
6.8190861635
 30
0.0
 10
10.6110412112
 20
6.8168769983
 30
0.0
  0
SPLINE
  5
304
100
AcDbEntity
  8
0
100
AcDbSpline
 62
7
  6
CONTINUOUS
 70
0
 71
3
 72
11
 73
7
 74
0
 42
0.0000001
 43
0.0000001
 44
0.0000000001
 40
0.0
 40
0.0
 40
0.0
 40
0.0
 40
0.2498315956
 40
0.5008405382
 40
0.7515708361
 40
1.0
 40
1.0
 40
1.0
 40
1.0
 10
11.851340966
 20
8.8052974103
 30
0.0
 10
11.8572949302
 20
8.803273898
 30
0.0
 10
11.8693637418
 20
8.7995985742
 30
0.0
 10
11.887766895
 20
8.7951742716
 30
0.0
 10
11.9063524698
 20
8.7917898395
 30
0.0
 10
11.9188210927
 20
8.7901913744
 30
0.0
 10
11.9250416923
 20
8.7895544178
 30
0.0
  0
LINE
  5
305
100
AcDbEntity
  8
0
100
AcDbLine
 62
7
  6
CONTINUOUS
 10
11.9250416923
 20
8.7895544178
 11
11.9257459932
 21
8.7897724127
  0
SPLINE
  5
306
100
AcDbEntity
  8
0
100
AcDbSpline
 62
7
  6
CONTINUOUS
 70
0
 71
3
 72
35
 73
31
 74
0
 42
0.0000001
 43
0.0000001
 44
0.0000000001
 40
0.0
 40
0.0
 40
0.0
 40
0.0
 40
0.0851783445
 40
0.168579649
 40
0.2498817933
 40
0.3287721894
 40
0.3672196909
 40
0.4049533592
 40
0.4419382782
 40
0.478140495
 40
0.5135273868
 40
0.5480673716
 40
0.5817304191
 40
0.6144877089
 40
0.6463121604
 40
0.6771781599
 40
0.7070620226
 40
0.735941894
 40
0.763798074
 40
0.7906131793
 40
0.8163723064
 40
0.8410635107
 40
0.8646778482
 40
0.8872101958
 40
0.908659289
 40
0.9290288865
 40
0.9483280125
 40
0.9665724673
 40
0.9837855591
 40
1.0
 40
1.0
 40
1.0
 40
1.0
 10
7.103302301
 20
7.6209669806
 30
0.0
 10
7.103302301
 20
7.6067119329
 30
0.0
 10
7.1035452092
 20
7.5784985528
 30
0.0
 10
7.1046593097
 20
7.5366920617
 30
0.0
 10
7.1065148909
 20
7.4959650964
 30
0.0
 10
7.1086905122
 20
7.4627902902
 30
0.0
 10
7.1108061101
 20
7.4369241746
 30
0.0
 10
7.1125588358
 20
7.418066091
 30
0.0
 10
7.1144892032
 20
7.3996031226
 30
0.0
 10
7.11659525
 20
7.3815546884
 30
0.0
 10
7.1188746598
 20
7.363939804
 30
0.0
 10
7.1213251022
 20
7.3467770081
 30
0.0
 10
7.1239438882
 20
7.3300843706
 30
0.0
 10
7.126728328
 20
7.3138794522
 30
0.0
 10
7.1296753875
 20
7.2981792991
 30
0.0
 10
7.1327820105
 20
7.2830004159
 30
0.0
 10
7.1360448503
 20
7.2683587496
 30
0.0
 10
7.1394604822
 20
7.2542696717
 30
0.0
 10
7.1430252786
 20
7.2407479579
 30
0.0
 10
7.1467354531
 20
7.2278077692
 30
0.0
 10
7.1505871274
 20
7.2154626417
 30
0.0
 10
7.1545761758
 20
7.2037254477
 30
0.0
 10
7.1586985
 20
7.1926084173
 30
0.0
 10
7.1629496812
 20
7.1821230559
 30
0.0
 10
7.1673254371
 20
7.1722802243
 30
0.0
 10
7.1718211479
 20
7.1630899821
 30
0.0
 10
7.1764323854
 20
7.1545617896
 30
0.0
 10
7.1811545537
 20
7.146704121
 30
0.0
 10
7.1859829298
 20
7.139525358
 30
0.0
 10
7.1893685626
 20
7.1350666417
 30
0.0
 10
7.1910807336
 20
7.1329614228
 30
0.0
  0
SPLINE
  5
307
100
AcDbEntity
  8
0
100
AcDbSpline
 62
7
  6
CONTINUOUS
 70
0
 71
3
 72
49
 73
45
 74
0
 42
0.0000001
 43
0.0000001
 44
0.0000000001
 40
0.0
 40
0.0
 40
0.0
 40
0.0
 40
0.0071626035
 40
0.0146566634
 40
0.0224898027
 40
0.0306682925
 40
0.0391972427
 40
0.0480804394
 40
0.0573201484
 40
0.0669176553
 40
0.0768732578
 40
0.0871864261
 40
0.0978559389
 40
0.1088797442
 40
0.1202552901
 40
0.1319793612
 40
0.1440482393
 40
0.1564577722
 40
0.169203246
 40
0.1822796534
 40
0.1956814919
 40
0.2094029362
 40
0.2377791826
 40
0.267355716
 40
0.2980746383
 40
0.329873868
 40
0.3626875523
 40
0.3964464315
 40
0.4310781658
 40
0.4665076342
 40
0.5026572473
 40
0.5394472319
 40
0.5767958997
 40
0.6146199088
 40
0.652834516
 40
0.6913538449
 40
0.7300911404
 40
0.7689590307
 40
0.8078697559
 40
0.8467354145
 40
0.8854684087
 40
0.9239808167
 40
0.9621873322
 40
1.0
 40
1.0
 40
1.0
 40
1.0
 10
7.281369657
 20
10.1478941529
 30
0.0
 10
7.2798793436
 20
10.1464546205
 30
0.0
 10
7.2769007016
 20
10.1434347815
 30
0.0
 10
7.2725349792
 20
10.1386088051
 30
0.0
 10
7.2681748053
 20
10.1333887654
 30
0.0
 10
7.2638229891
 20
10.1277780418
 30
0.0
 10
7.2594819189
 20
10.1217799222
 30
0.0
 10
7.2551541524
 20
10.1153978515
 30
0.0
 10
7.2508421215
 20
10.1086356334
 30
0.0
 10
7.2465484854
 20
10.1014972516
 30
0.0
 10
7.242275776
 20
10.0939869777
 30
0.0
 10
7.2380265144
 20
10.0861092907
 30
0.0
 10
7.2338033091
 20
10.0778688611
 30
0.0
 10
7.2296086023
 20
10.0692706424
 30
0.0
 10
7.2254449965
 20
10.0603197528
 30
0.0
 10
7.2213149517
 20
10.0510215694
 30
0.0
 10
7.2172209483
 20
10.0413816648
 30
0.0
 10
7.2131655028
 20
10.0314058098
 30
0.0
 10
7.2091509807
 20
10.0211000092
 30
0.0
 10
7.2051798847
 20
10.0104704376
 30
0.0
 10
7.2012545346
 20
9.9995234849
 30
0.0
 10
7.1960264284
 20
9.9843430704
 30
0.0
 10
7.1896330369
 20
9.96461705
 30
0.0
 10
7.1822636051
 20
9.9400452288
 30
0.0
 10
7.1751314083
 20
9.9143743596
 30
0.0
 10
7.1682537093
 20
9.8876662032
 30
0.0
 10
7.161647162
 20
9.8599848877
 30
0.0
 10
7.1553277583
 20
9.8313969613
 30
0.0
 10
7.1493107947
 20
9.801971171
 30
0.0
 10
7.1436108174
 20
9.7717783127
 30
0.0
 10
7.1382416056
 20
9.7408910448
 30
0.0
 10
7.1332161363
 20
9.7093837067
 30
0.0
 10
7.1285465538
 20
9.6773321379
 30
0.0
 10
7.124244144
 20
9.6448134978
 30
0.0
 10
7.1203192927
 20
9.6119060808
 30
0.0
 10
7.1167814686
 20
9.5786891242
 30
0.0
 10
7.1136392057
 20
9.5452426104
 30
0.0
 10
7.1109000832
 20
9.5116470771
 30
0.0
 10
7.1085707092
 20
9.4779834299
 30
0.0
 10
7.1066566858
 20
9.4443326969
 30
0.0
 10
7.1051626398
 20
9.4107760398
 30
0.0
 10
7.1040920912
 20
9.3773939493
 30
0.0
 10
7.1034476977
 20
9.3442672385
 30
0.0
 10
7.103302301
 20
9.3222758684
 30
0.0
 10
7.103302301
 20
9.3113372768
 30
0.0
  0
SPLINE
  5
308
100
AcDbEntity
  8
0
100
AcDbSpline
 62
7
  6
CONTINUOUS
 70
0
 71
3
 72
77
 73
73
 74
0
 42
0.0000001
 43
0.0000001
 44
0.0000000001
 40
0.0
 40
0.0
 40
0.0
 40
0.0
 40
0.0036899176
 40
0.007522071
 40
0.0114999204
 40
0.0156263788
 40
0.0199038058
 40
0.0243340484
 40
0.0289185796
 40
0.033658463
 40
0.0385543853
 40
0.0436067755
 40
0.0488157492
 40
0.054181137
 40
0.0653790963
 40
0.0771955482
 40
0.0896219771
 40
0.1026472777
 40
0.1162580548
 40
0.1304389597
 40
0.1451728456
 40
0.1604409111
 40
0.176222927
 40
0.192497322
 40
0.2092412571
 40
0.2264308003
 40
0.2440409869
 40
0.2620458647
 40
0.280418638
 40
0.2991317211
 40
0.3181567738
 40
0.3374648233
 40
0.3570263183
 40
0.3768111644
 40
0.4169278318
 40
0.4575668629
 40
0.4984755306
 40
0.5393989655
 40
0.5800821843
 40
0.6202721022
 40
0.6401043026
 40
0.6597201717
 40
0.6790895176
 40
0.6981826628
 40
0.7169704774
 40
0.7354244796
 40
0.7535169122
 40
0.7712207681
 40
0.7885099037
 40
0.8053591326
 40
0.8217442508
 40
0.8376421658
 40
0.8530310236
 40
0.867890246
 40
0.8822006929
 40
0.8959448464
 40
0.909106896
 40
0.9216729716
 40
0.9336314461
 40
0.9449731416
 40
0.9504108113
 40
0.9556922031
 40
0.960817075
 40
0.9657853893
 40
0.9705974259
 40
0.9752537359
 40
0.9797551755
 40
0.9841030919
 40
0.9882992342
 40
0.9923457204
 40
0.9962450014
 40
1.0
 40
1.0
 40
1.0
 40
1.0
 10
14.4282491412
 20
7.6562439484
 30
0.0
 10
14.4273837849
 20
7.6573079569
 30
0.0
 10
14.42566458
 20
7.6595138057
 30
0.0
 10
14.4231656136
 20
7.6629826004
 30
0.0
 10
14.4206993891
 20
7.6666715796
 30
0.0
 10
14.4182669836
 20
7.6705791905
 30
0.0
 10
14.4158693543
 20
7.6747038587
 30
0.0
 10
14.4135074259
 20
7.6790438678
 30
0.0
 10
14.411182197
 20
7.6835974668
 30
0.0
 10
14.4088946149
 20
7.6883627854
 30
0.0
 10
14.4066455748
 20
7.6933378497
 30
0.0
 10
14.4044360488
 20
7.69852063
 30
0.0
 10
14.402266921
 20
7.7039089968
 30
0.0
 10
14.399388731
 20
7.7114727
 30
0.0
 10
14.3959076409
 20
7.7214324397
 30
0.0
 10
14.3919626863
 20
7.7340026476
 30
0.0
 10
14.3881993375
 20
7.7473354244
 30
0.0
 10
14.3846238775
 20
7.7614087182
 30
0.0
 10
14.3812422582
 20
7.7761993827
 30
0.0
 10
14.3780601681
 20
7.7916829922
 30
0.0
 10
14.3750829571
 20
7.8078339481
 30
0.0
 10
14.3723155911
 20
7.8246255021
 30
0.0
 10
14.3697627311
 20
7.8420298309
 30
0.0
 10
14.3674286785
 20
7.860018075
 30
0.0
 10
14.3653173225
 20
7.8785603839
 30
0.0
 10
14.3634322184
 20
7.8976259814
 30
0.0
 10
14.36177655
 20
7.9171832138
 30
0.0
 10
14.3603530703
 20
7.937199598
 30
0.0
 10
14.3591641768
 20
7.9576418853
 30
0.0
 10
14.3582118891
 20
7.9784761154
 30
0.0
 10
14.3574977834
 20
7.999667672
 30
0.0
 10
14.3570230709
 20
8.0211813332
 30
0.0
 10
14.3567885596
 20
8.0429813773
 30
0.0
 10
14.3567967825
 20
8.0725169107
 30
0.0
 10
14.357414856
 20
8.1098840842
 30
0.0
 10
14.3591064815
 20
8.1550761204
 30
0.0
 10
14.3617405343
 20
8.2005234487
 30
0.0
 10
14.3652994901
 20
8.2459241862
 30
0.0
 10
14.369759727
 20
8.2909767562
 30
0.0
 10
14.3742222139
 20
8.3281433325
 30
0.0
 10
14.3782261369
 20
8.357471854
 30
0.0
 10
14.3814209303
 20
8.3790990536
 30
0.0
 10
14.3848153621
 20
8.4004177032
 30
0.0
 10
14.3884037823
 20
8.4213924057
 30
0.0
 10
14.3921802259
 20
8.441988298
 30
0.0
 10
14.3961383992
 20
8.4621711638
 30
0.0
 10
14.4002716832
 20
8.4819074782
 30
0.0
 10
14.4045732056
 20
8.5011644549
 30
0.0
 10
14.4090357964
 20
8.5199101146
 30
0.0
 10
14.4136519887
 20
8.5381133411
 30
0.0
 10
14.4184140983
 20
8.5557439176
 30
0.0
 10
14.4233141883
 20
8.5727725921
 30
0.0
 10
14.4283440549
 20
8.5891711371
 30
0.0
 10
14.4334953191
 20
8.6049123755
 30
0.0
 10
14.4387594
 20
8.6199702415
 30
0.0
 10
14.4441274874
 20
8.6343198517
 30
0.0
 10
14.4495906432
 20
8.6479375
 30
0.0
 10
14.4551397997
 20
8.6608007873
 30
0.0
 10
14.460765687
 20
8.6728884526
 30
0.0
 10
14.4655752531
 20
8.6824281812
 30
0.0
 10
14.4694605328
 20
8.6896493042
 30
0.0
 10
14.4723469094
 20
8.6947827771
 30
0.0
 10
14.4752454483
 20
8.6997080263
 30
0.0
 10
14.4781550219
 20
8.7044229975
 30
0.0
 10
14.4810743816
 20
8.7089257613
 30
0.0
 10
14.4840023079
 20
8.713214466
 30
0.0
 10
14.4869376527
 20
8.7172873293
 30
0.0
 10
14.4898792231
 20
8.7211427365
 30
0.0
 10
14.4928258598
 20
8.7247791489
 30
0.0
 10
14.4957764193
 20
8.7281950204
 30
0.0
 10
14.498729472
 20
8.731388815
 30
0.0
 10
14.5007362842
 20
8.733406526
 30
0.0
 10
14.5017401254
 20
8.7343761621
 30
0.0
  0
SPLINE
  5
309
100
AcDbEntity
  8
0
100
AcDbSpline
 62
7
  6
CONTINUOUS
 70
0
 71
3
 72
39
 73
35
 74
0
 42
0.0000001
 43
0.0000001
 44
0.0000000001
 40
0.0
 40
0.0
 40
0.0
 40
0.0
 40
0.0299424732
 40
0.0599093222
 40
0.0899243296
 40
0.1200101094
 40
0.1501875682
 40
0.1804754198
 40
0.2108897635
 40
0.2414437392
 40
0.2721472619
 40
0.3030068428
 40
0.334025493
 40
0.3652027101
 40
0.3965345427
 40
0.4280137258
 40
0.4596298807
 40
0.4913697729
 40
0.5232176187
 40
0.5551554339
 40
0.5871634169
 40
0.6192203588
 40
0.6513040742
 40
0.6833918453
 40
0.7154608739
 40
0.7474887339
 40
0.77945382
 40
0.811335781
 40
0.8431159463
 40
0.874777695
 40
0.9063068895
 40
0.9376919983
 40
0.9689248659
 40
1.0
 40
1.0
 40
1.0
 40
1.0
 10
13.3944504194
 20
6.9676793601
 30
0.0
 10
13.397984018
 20
6.9710925605
 30
0.0
 10
13.4053290603
 20
6.9776435132
 30
0.0
 10
13.4170969745
 20
6.9865680209
 30
0.0
 10
13.4295550786
 20
6.994545954
 30
0.0
 10
13.4426337648
 20
7.0015325555
 30
0.0
 10
13.4562611265
 20
7.0074896565
 30
0.0
 10
13.4703619559
 20
7.0123845106
 30
0.0
 10
13.4848585487
 20
7.016190336
 30
0.0
 10
13.4996710387
 20
7.0188863546
 30
0.0
 10
13.5147178709
 20
7.0204579218
 30
0.0
 10
13.5299162454
 20
7.0208965888
 30
0.0
 10
13.5451825747
 20
7.0202001395
 30
0.0
 10
13.5604329407
 20
7.0183725925
 30
0.0
 10
13.5755835519
 20
7.0154241704
 30
0.0
 10
13.5905511979
 20
7.0113712361
 30
0.0
 10
13.6052537008
 20
7.0062361983
 30
0.0
 10
13.6196103597
 20
7.0000473842
 30
0.0
 10
13.6335423877
 20
6.9928388825
 30
0.0
 10
13.6469733378
 20
6.9846503547
 30
0.0
 10
13.6598295172
 20
6.975526818
 30
0.0
 10
13.6720403862
 20
6.9655183993
 30
0.0
 10
13.6835389408
 20
6.9546800619
 30
0.0
 10
13.6942620765
 20
6.9430713064
 30
0.0
 10
13.7041509303
 20
6.9307558472
 30
0.0
 10
13.7131512014
 20
6.9178012663
 30
0.0
 10
13.7212134456
 20
6.9042786468
 30
0.0
 10
13.7282933478
 20
6.8902621856
 30
0.0
 10
13.7343519549
 20
6.8758288001
 30
0.0
 10
13.7393559117
 20
6.8610576748
 30
0.0
 10
13.7432775959
 20
6.8460299743
 30
0.0
 10
13.7460953657
 20
6.8308278817
 30
0.0
 10
13.74779353
 20
6.8155360259
 30
0.0
 10
13.7481738981
 20
6.8053088036
 30
0.0
 10
13.7481738981
 20
6.8002100938
 30
0.0
  0
SPLINE
  5
30A
100
AcDbEntity
  8
0
100
AcDbSpline
 62
7
  6
CONTINUOUS
 70
0
 71
3
 72
39
 73
35
 74
0
 42
0.0000001
 43
0.0000001
 44
0.0000000001
 40
0.0
 40
0.0
 40
0.0
 40
0.0
 40
0.0299424732
 40
0.0599093222
 40
0.0899243296
 40
0.1200101094
 40
0.1501875682
 40
0.1804754198
 40
0.2108897635
 40
0.2414437392
 40
0.2721472619
 40
0.3030068428
 40
0.334025493
 40
0.3652027101
 40
0.3965345427
 40
0.4280137258
 40
0.4596298807
 40
0.4913697729
 40
0.5232176187
 40
0.5551554339
 40
0.5871634169
 40
0.6192203588
 40
0.6513040742
 40
0.6833918453
 40
0.7154608739
 40
0.7474887339
 40
0.77945382
 40
0.811335781
 40
0.8431159463
 40
0.874777695
 40
0.9063068895
 40
0.9376919983
 40
0.9689248659
 40
1.0
 40
1.0
 40
1.0
 40
1.0
 10
13.3944504194
 20
9.3245385712
 30
0.0
 10
13.397984018
 20
9.3279517716
 30
0.0
 10
13.4053290603
 20
9.3345027243
 30
0.0
 10
13.4170969745
 20
9.3434272319
 30
0.0
 10
13.4295550786
 20
9.3514051651
 30
0.0
 10
13.4426337648
 20
9.3583917665
 30
0.0
 10
13.4562611265
 20
9.3643488675
 30
0.0
 10
13.4703619559
 20
9.3692437216
 30
0.0
 10
13.4848585487
 20
9.3730495471
 30
0.0
 10
13.4996710387
 20
9.3757455657
 30
0.0
 10
13.5147178709
 20
9.3773171329
 30
0.0
 10
13.5299162454
 20
9.3777557998
 30
0.0
 10
13.5451825747
 20
9.3770593505
 30
0.0
 10
13.5604329407
 20
9.3752318036
 30
0.0
 10
13.5755835519
 20
9.3722833814
 30
0.0
 10
13.5905511979
 20
9.3682304472
 30
0.0
 10
13.6052537008
 20
9.3630954093
 30
0.0
 10
13.6196103597
 20
9.3569065953
 30
0.0
 10
13.6335423877
 20
9.3496980936
 30
0.0
 10
13.6469733378
 20
9.3415095657
 30
0.0
 10
13.6598295172
 20
9.332386029
 30
0.0
 10
13.6720403862
 20
9.3223776103
 30
0.0
 10
13.6835389408
 20
9.311539273
 30
0.0
 10
13.6942620765
 20
9.2999305175
 30
0.0
 10
13.7041509303
 20
9.2876150583
 30
0.0
 10
13.7131512014
 20
9.2746604774
 30
0.0
 10
13.7212134456
 20
9.2611378579
 30
0.0
 10
13.7282933478
 20
9.2471213967
 30
0.0
 10
13.7343519549
 20
9.2326880112
 30
0.0
 10
13.7393559117
 20
9.2179168859
 30
0.0
 10
13.7432775959
 20
9.2028891853
 30
0.0
 10
13.7460953657
 20
9.1876870927
 30
0.0
 10
13.74779353
 20
9.172395237
 30
0.0
 10
13.7481738981
 20
9.1621680147
 30
0.0
 10
13.7481738981
 20
9.1570693049
 30
0.0
  0
SPLINE
  5
30B
100
AcDbEntity
  8
0
100
AcDbSpline
 62
7
  6
CONTINUOUS
 70
0
 71
3
 72
39
 73
35
 74
0
 42
0.0000001
 43
0.0000001
 44
0.0000000001
 40
0.0
 40
0.0
 40
0.0
 40
0.0
 40
0.0299424732
 40
0.0599093222
 40
0.0899243296
 40
0.1200101094
 40
0.1501875682
 40
0.1804754198
 40
0.2108897635
 40
0.2414437392
 40
0.2721472619
 40
0.3030068428
 40
0.334025493
 40
0.3652027101
 40
0.3965345427
 40
0.4280137258
 40
0.4596298807
 40
0.4913697729
 40
0.5232176187
 40
0.5551554339
 40
0.5871634169
 40
0.6192203588
 40
0.6513040742
 40
0.6833918453
 40
0.7154608739
 40
0.7474887339
 40
0.77945382
 40
0.811335781
 40
0.8431159463
 40
0.874777695
 40
0.9063068895
 40
0.9376919983
 40
0.9689248659
 40
1.0
 40
1.0
 40
1.0
 40
1.0
 10
10.3150786801
 20
9.5960492243
 30
0.0
 10
10.3186122787
 20
9.5994624248
 30
0.0
 10
10.3259573211
 20
9.6060133774
 30
0.0
 10
10.3377252353
 20
9.6149378851
 30
0.0
 10
10.3501833393
 20
9.6229158183
 30
0.0
 10
10.3632620256
 20
9.6299024197
 30
0.0
 10
10.3768893873
 20
9.6358595207
 30
0.0
 10
10.3909902167
 20
9.6407543748
 30
0.0
 10
10.4054868094
 20
9.6445602003
 30
0.0
 10
10.4202992994
 20
9.6472562189
 30
0.0
 10
10.4353461317
 20
9.6488277861
 30
0.0
 10
10.4505445061
 20
9.649266453
 30
0.0
 10
10.4658108354
 20
9.6485700037
 30
0.0
 10
10.4810612015
 20
9.6467424568
 30
0.0
 10
10.4962118127
 20
9.6437940346
 30
0.0
 10
10.5111794587
 20
9.6397411003
 30
0.0
 10
10.5258819615
 20
9.6346060625
 30
0.0
 10
10.5402386205
 20
9.6284172485
 30
0.0
 10
10.5541706485
 20
9.6212087468
 30
0.0
 10
10.5676015986
 20
9.6130202189
 30
0.0
 10
10.5804577779
 20
9.6038966822
 30
0.0
 10
10.5926686469
 20
9.5938882635
 30
0.0
 10
10.6041672016
 20
9.5830499261
 30
0.0
 10
10.6148903373
 20
9.5714411707
 30
0.0
 10
10.624779191
 20
9.5591257115
 30
0.0
 10
10.6337794622
 20
9.5461711305
 30
0.0
 10
10.6418417064
 20
9.532648511
 30
0.0
 10
10.6489216085
 20
9.5186320499
 30
0.0
 10
10.6549802156
 20
9.5041986644
 30
0.0
 10
10.6599841725
 20
9.489427539
 30
0.0
 10
10.6639058566
 20
9.4743998385
 30
0.0
 10
10.6667236265
 20
9.4591977459
 30
0.0
 10
10.6684217908
 20
9.4439058901
 30
0.0
 10
10.6688021589
 20
9.4336786678
 30
0.0
 10
10.6688021589
 20
9.428579958
 30
0.0
  0
SPLINE
  5
30C
100
AcDbEntity
  8
0
100
AcDbSpline
 62
7
  6
CONTINUOUS
 70
0
 71
3
 72
39
 73
35
 74
0
 42
0.0000001
 43
0.0000001
 44
0.0000000001
 40
0.0
 40
0.0
 40
0.0
 40
0.0
 40
0.0299424732
 40
0.0599093222
 40
0.0899243296
 40
0.1200101094
 40
0.1501875682
 40
0.1804754198
 40
0.2108897635
 40
0.2414437392
 40
0.2721472619
 40
0.3030068428
 40
0.334025493
 40
0.3652027101
 40
0.3965345427
 40
0.4280137258
 40
0.4596298807
 40
0.4913697729
 40
0.5232176187
 40
0.5551554339
 40
0.5871634169
 40
0.6192203588
 40
0.6513040742
 40
0.6833918453
 40
0.7154608739
 40
0.7474887339
 40
0.77945382
 40
0.811335781
 40
0.8431159463
 40
0.874777695
 40
0.9063068895
 40
0.9376919983
 40
0.9689248659
 40
1.0
 40
1.0
 40
1.0
 40
1.0
 10
10.3150786801
 20
7.123278989
 30
0.0
 10
10.3186122787
 20
7.1266921894
 30
0.0
 10
10.3259573211
 20
7.1332431421
 30
0.0
 10
10.3377252353
 20
7.1421676498
 30
0.0
 10
10.3501833393
 20
7.150145583
 30
0.0
 10
10.3632620256
 20
7.1571321844
 30
0.0
 10
10.3768893873
 20
7.1630892854
 30
0.0
 10
10.3909902167
 20
7.1679841395
 30
0.0
 10
10.4054868094
 20
7.1717899649
 30
0.0
 10
10.4202992994
 20
7.1744859835
 30
0.0
 10
10.4353461317
 20
7.1760575507
 30
0.0
 10
10.4505445061
 20
7.1764962177
 30
0.0
 10
10.4658108354
 20
7.1757997684
 30
0.0
 10
10.4810612015
 20
7.1739722214
 30
0.0
 10
10.4962118127
 20
7.1710237993
 30
0.0
 10
10.5111794587
 20
7.166970865
 30
0.0
 10
10.5258819615
 20
7.1618358272
 30
0.0
 10
10.5402386205
 20
7.1556470132
 30
0.0
 10
10.5541706485
 20
7.1484385114
 30
0.0
 10
10.5676015986
 20
7.1402499836
 30
0.0
 10
10.5804577779
 20
7.1311264469
 30
0.0
 10
10.5926686469
 20
7.1211180282
 30
0.0
 10
10.6041672016
 20
7.1102796908
 30
0.0
 10
10.6148903373
 20
7.0986709353
 30
0.0
 10
10.624779191
 20
7.0863554761
 30
0.0
 10
10.6337794622
 20
7.0734008952
 30
0.0
 10
10.6418417064
 20
7.0598782757
 30
0.0
 10
10.6489216085
 20
7.0458618145
 30
0.0
 10
10.6549802156
 20
7.031428429
 30
0.0
 10
10.6599841725
 20
7.0166573037
 30
0.0
 10
10.6639058566
 20
7.0016296032
 30
0.0
 10
10.6667236265
 20
6.9864275106
 30
0.0
 10
10.6684217908
 20
6.9711356548
 30
0.0
 10
10.6688021589
 20
6.9609084325
 30
0.0
 10
10.6688021589
 20
6.9558097227
 30
0.0
  0
SPLINE
  5
30D
100
AcDbEntity
  8
0
100
AcDbSpline
 62
7
  6
CONTINUOUS
 70
0
 71
3
 72
41
 73
37
 74
0
 42
0.0000001
 43
0.0000001
 44
0.0000000001
 40
0.0
 40
0.0
 40
0.0
 40
0.0
 40
0.0299421172
 40
0.04492376
 40
0.059914511
 40
0.089929166
 40
0.1200145972
 40
0.135093366
 40
0.1501974852
 40
0.1804849961
 40
0.2108989984
 40
0.2414526287
 40
0.272155802
 40
0.3030150309
 40
0.334033329
 40
0.3652101953
 40
0.3965416763
 40
0.4280205023
 40
0.459636293
 40
0.4913758157
 40
0.5232232898
 40
0.5551607336
 40
0.5871683456
 40
0.6192249134
 40
0.6513082489
 40
0.6833956359
 40
0.7154642792
 40
0.7474917569
 40
0.7794564628
 40
0.8113380448
 40
0.8431178358
 40
0.8747791645
 40
0.9063081103
 40
0.9376924636
 40
0.9689257188
 40
1.0
 40
1.0
 40
1.0
 40
1.0
 10
10.9465038915
 20
7.0237915824
 30
0.0
 10
10.9486605504
 20
7.0258747313
 30
0.0
 10
10.9520226973
 20
7.028873186
 30
0.0
 10
10.956731237
 20
7.0325936922
 30
0.0
 10
10.9615897857
 20
7.036128974
 30
0.0
 10
10.9679293294
 20
7.0401886933
 30
0.0
 10
10.9745771177
 20
7.0437397563
 30
0.0
 10
10.9800598223
 20
7.0462659719
 30
0.0
 10
10.9856557729
 20
7.048583666
 30
0.0
 10
10.9928351338
 20
7.0510758116
 30
0.0
 10
11.0016826016
 20
7.0533984218
 30
0.0
 10
11.0107231183
 20
7.0550438005
 30
0.0
 10
11.0199065816
 20
7.0560028777
 30
0.0
 10
11.029182547
 20
7.0562705351
 30
0.0
 10
11.0384999774
 20
7.0558454074
 30
0.0
 10
11.0478076624
 20
7.0547299435
 30
0.0
 10
11.0570544575
 20
7.0529303717
 30
0.0
 10
11.0661895782
 20
7.0504566899
 30
0.0
 10
11.0751628713
 20
7.0473225815
 30
0.0
 10
11.0839250857
 20
7.0435453382
 30
0.0
 10
11.0924281374
 20
7.0391457636
 30
0.0
 10
11.100625369
 20
7.0341480604
 30
0.0
 10
11.1084717988
 20
7.0285796957
 30
0.0
 10
11.1159243712
 20
7.0224712611
 30
0.0
 10
11.1229421986
 20
7.015856312
 30
0.0
 10
11.1294867709
 20
7.008771166
 30
0.0
 10
11.1355221659
 20
7.0012547096
 30
0.0
 10
11.1410152419
 20
6.9933481871
 30
0.0
 10
11.1459358189
 20
6.9850949789
 30
0.0
 10
11.1502568417
 20
6.976540364
 30
0.0
 10
11.1539545298
 20
6.967731292
 30
0.0
 10
11.1570085658
 20
6.9587160863
 30
0.0
 10
11.1594020171
 20
6.9495443167
 30
0.0
 10
11.1611218307
 20
6.9402660518
 30
0.0
 10
11.1621582072
 20
6.9309330466
 30
0.0
 10
11.162390383
 20
6.9246910871
 30
0.0
 10
11.162390383
 20
6.9215792631
 30
0.0
  0
SPLINE
  5
30E
100
AcDbEntity
  8
0
100
AcDbSpline
 62
7
  6
CONTINUOUS
 70
0
 71
3
 72
48
 73
44
 74
0
 42
0.0000001
 43
0.0000001
 44
0.0000000001
 40
0.0
 40
0.0
 40
0.0
 40
0.0
 40
0.0149718897
 40
0.0299468369
 40
0.0449278839
 40
0.0599180336
 40
0.0749202322
 40
0.0899373568
 40
0.1049721887
 40
0.1200274064
 40
0.1351055645
 40
0.1502090774
 40
0.1653402142
 40
0.180501073
 40
0.1956935825
 40
0.2109194836
 40
0.2261803205
 40
0.2414774416
 40
0.2568119786
 40
0.2721848576
 40
0.3030428416
 40
0.3340598877
 40
0.365235493
 40
0.3965657058
 40
0.4280432614
 40
0.4596577825
 40
0.4913960356
 40
0.5232422374
 40
0.5551784039
 40
0.5871847345
 40
0.6192400218
 40
0.6513220815
 40
0.6834081967
 40
0.7154755701
 40
0.7475017768
 40
0.7794652126
 40
0.8113455287
 40
0.8431240501
 40
0.8747841728
 40
0.9063117021
 40
0.9376953081
 40
0.9689262526
 40
1.0
 40
1.0
 40
1.0
 40
1.0
 10
12.2291312287
 20
8.419521149
 30
0.0
 10
12.2332790391
 20
8.4235276435
 30
0.0
 10
12.2417357324
 20
8.431377468
 30
0.0
 10
12.254880111
 20
8.4426400171
 30
0.0
 10
12.26846702
 20
8.4533763453
 30
0.0
 10
12.2824776195
 20
8.46357128
 30
0.0
 10
12.2968925857
 20
8.4732110094
 30
0.0
 10
12.3116921327
 20
8.4822821529
 30
0.0
 10
12.3268558738
 20
8.4907722656
 30
0.0
 10
12.3423629091
 20
8.4986697316
 30
0.0
 10
12.3581919616
 20
8.5059635585
 30
0.0
 10
12.3743211712
 20
8.5126438859
 30
0.0
 10
12.3907284038
 20
8.5187013877
 30
0.0
 10
12.4073910477
 20
8.5241278212
 30
0.0
 10
12.4242861773
 20
8.5289157468
 30
0.0
 10
12.4413905658
 20
8.5330584857
 30
0.0
 10
12.4586806662
 20
8.5365505158
 30
0.0
 10
12.4761326423
 20
8.5393868757
 30
0.0
 10
12.493722781
 20
8.5415638037
 30
0.0
 10
12.5173546806
 20
8.5435855115
 30
0.0
 10
12.5471267863
 20
8.54444509
 30
0.0
 10
12.582962436
 20
8.5428101844
 30
0.0
 10
12.6187616827
 20
8.5385202346
 30
0.0
 10
12.6543264793
 20
8.5315990929
 30
0.0
 10
12.6894618631
 20
8.5220852114
 30
0.0
 10
12.7239748289
 20
8.5100311748
 30
0.0
 10
12.7576759568
 20
8.4955034642
 30
0.0
 10
12.7903802925
 20
8.4785821048
 30
0.0
 10
12.8219083913
 20
8.4593602139
 30
0.0
 10
12.8520872674
 20
8.4379434688
 30
0.0
 10
12.8807513341
 20
8.4144495357
 30
0.0
 10
12.907743298
 20
8.3890074278
 30
0.0
 10
12.9329150131
 20
8.3617568083
 30
0.0
 10
12.956128316
 20
8.3328472562
 30
0.0
 10
12.9772557466
 20
8.3024374197
 30
0.0
 10
12.9961812419
 20
8.2706941611
 30
0.0
 10
13.0128007668
 20
8.2377916478
 30
0.0
 10
13.0270228791
 20
8.2039104298
 30
0.0
 10
13.0387692439
 20
8.1692363974
 30
0.0
 10
13.0479751262
 20
8.133960044
 30
0.0
 10
13.0545895405
 20
8.0982744221
 30
0.0
 10
13.0585759483
 20
8.0623780139
 30
0.0
 10
13.0594688007
 20
8.0383704583
 30
0.0
 10
13.0594688007
 20
8.02640156
 30
0.0
  0
SPLINE
  5
30F
100
AcDbEntity
  8
0
100
AcDbSpline
 62
7
  6
CONTINUOUS
 70
0
 71
3
 72
48
 73
44
 74
0
 42
0.0000001
 43
0.0000001
 44
0.0000000001
 40
0.0
 40
0.0
 40
0.0
 40
0.0
 40
0.0149718897
 40
0.0299468369
 40
0.0449278839
 40
0.0599180336
 40
0.0749202322
 40
0.0899373568
 40
0.1049721887
 40
0.1200274064
 40
0.1351055645
 40
0.1502090774
 40
0.1653402142
 40
0.180501073
 40
0.1956935825
 40
0.2109194836
 40
0.2261803205
 40
0.2414774416
 40
0.2568119786
 40
0.2721848576
 40
0.3030428416
 40
0.3340598877
 40
0.365235493
 40
0.3965657058
 40
0.4280432614
 40
0.4596577825
 40
0.4913960356
 40
0.5232422374
 40
0.5551784039
 40
0.5871847345
 40
0.6192400218
 40
0.6513220815
 40
0.6834081967
 40
0.7154755701
 40
0.7475017768
 40
0.7794652126
 40
0.8113455287
 40
0.8431240501
 40
0.8747841728
 40
0.9063117021
 40
0.9376953081
 40
0.9689262526
 40
1.0
 40
1.0
 40
1.0
 40
1.0
 10
10.9000171678
 20
8.5116955222
 30
0.0
 10
10.9041649783
 20
8.5157020167
 30
0.0
 10
10.9126216715
 20
8.5235518412
 30
0.0
 10
10.9257660501
 20
8.5348143903
 30
0.0
 10
10.9393529592
 20
8.5455507185
 30
0.0
 10
10.9533635586
 20
8.5557456532
 30
0.0
 10
10.9677785249
 20
8.5653853826
 30
0.0
 10
10.9825780718
 20
8.5744565261
 30
0.0
 10
10.997741813
 20
8.5829466388
 30
0.0
 10
11.0132488483
 20
8.5908441048
 30
0.0
 10
11.0290779007
 20
8.5981379317
 30
0.0
 10
11.0452071104
 20
8.6048182591
 30
0.0
 10
11.0616143429
 20
8.6108757609
 30
0.0
 10
11.0782769868
 20
8.6163021944
 30
0.0
 10
11.0951721164
 20
8.62109012
 30
0.0
 10
11.1122765049
 20
8.6252328589
 30
0.0
 10
11.1295666054
 20
8.628724889
 30
0.0
 10
11.1470185814
 20
8.6315612489
 30
0.0
 10
11.1646087201
 20
8.6337381769
 30
0.0
 10
11.1882406198
 20
8.6357598847
 30
0.0
 10
11.2180127254
 20
8.6366194632
 30
0.0
 10
11.2538483752
 20
8.6349845576
 30
0.0
 10
11.2896476218
 20
8.6306946078
 30
0.0
 10
11.3252124185
 20
8.6237734661
 30
0.0
 10
11.3603478023
 20
8.6142595845
 30
0.0
 10
11.394860768
 20
8.602205548
 30
0.0
 10
11.4285618959
 20
8.5876778374
 30
0.0
 10
11.4612662316
 20
8.570756478
 30
0.0
 10
11.4927943304
 20
8.5515345871
 30
0.0
 10
11.5229732065
 20
8.530117842
 30
0.0
 10
11.5516372732
 20
8.5066239089
 30
0.0
 10
11.5786292371
 20
8.481181801
 30
0.0
 10
11.6038009523
 20
8.4539311815
 30
0.0
 10
11.6270142551
 20
8.4250216294
 30
0.0
 10
11.6481416858
 20
8.3946117928
 30
0.0
 10
11.667067181
 20
8.3628685343
 30
0.0
 10
11.6836867059
 20
8.329966021
 30
0.0
 10
11.6979088182
 20
8.296084803
 30
0.0
 10
11.7096551831
 20
8.2614107706
 30
0.0
 10
11.7188610653
 20
8.2261344172
 30
0.0
 10
11.7254754797
 20
8.1904487953
 30
0.0
 10
11.7294618874
 20
8.1545523871
 30
0.0
 10
11.7303547399
 20
8.1305448315
 30
0.0
 10
11.7303547399
 20
8.1185759332
 30
0.0
  0
SPLINE
  5
310
100
AcDbEntity
  8
0
100
AcDbSpline
 62
7
  6
CONTINUOUS
 70
0
 71
3
 72
48
 73
44
 74
0
 42
0.0000001
 43
0.0000001
 44
0.0000000001
 40
0.0
 40
0.0
 40
0.0
 40
0.0
 40
0.0149718897
 40
0.0299468369
 40
0.0449278839
 40
0.0599180336
 40
0.0749202322
 40
0.0899373568
 40
0.1049721887
 40
0.1200274064
 40
0.1351055645
 40
0.1502090774
 40
0.1653402142
 40
0.180501073
 40
0.1956935825
 40
0.2109194836
 40
0.2261803205
 40
0.2414774416
 40
0.2568119786
 40
0.2721848576
 40
0.3030428416
 40
0.3340598877
 40
0.365235493
 40
0.3965657058
 40
0.4280432614
 40
0.4596577825
 40
0.4913960356
 40
0.5232422374
 40
0.5551784039
 40
0.5871847345
 40
0.6192400218
 40
0.6513220815
 40
0.6834081967
 40
0.7154755701
 40
0.7475017768
 40
0.7794652126
 40
0.8113455287
 40
0.8431240501
 40
0.8747841728
 40
0.9063117021
 40
0.9376953081
 40
0.9689262526
 40
1.0
 40
1.0
 40
1.0
 40
1.0
 10
11.5645741407
 20
7.673549122
 30
0.0
 10
11.5687219511
 20
7.6775556165
 30
0.0
 10
11.5771786443
 20
7.685405441
 30
0.0
 10
11.590323023
 20
7.6966679901
 30
0.0
 10
11.603909932
 20
7.7074043183
 30
0.0
 10
11.6179205315
 20
7.717599253
 30
0.0
 10
11.6323354977
 20
7.7272389825
 30
0.0
 10
11.6471350447
 20
7.7363101259
 30
0.0
 10
11.6622987858
 20
7.7448002386
 30
0.0
 10
11.6778058211
 20
7.7526977046
 30
0.0
 10
11.6936348736
 20
7.7599915316
 30
0.0
 10
11.7097640832
 20
7.7666718589
 30
0.0
 10
11.7261713158
 20
7.7727293608
 30
0.0
 10
11.7428339597
 20
7.7781557942
 30
0.0
 10
11.7597290893
 20
7.7829437198
 30
0.0
 10
11.7768334778
 20
7.7870864587
 30
0.0
 10
11.7941235782
 20
7.7905784888
 30
0.0
 10
11.8115755543
 20
7.7934148487
 30
0.0
 10
11.829165693
 20
7.7955917767
 30
0.0
 10
11.8527975926
 20
7.7976134845
 30
0.0
 10
11.8825696983
 20
7.798473063
 30
0.0
 10
11.918405348
 20
7.7968381574
 30
0.0
 10
11.9542045947
 20
7.7925482076
 30
0.0
 10
11.9897693913
 20
7.7856270659
 30
0.0
 10
12.0249047751
 20
7.7761131844
 30
0.0
 10
12.0594177409
 20
7.7640591478
 30
0.0
 10
12.0931188688
 20
7.7495314373
 30
0.0
 10
12.1258232045
 20
7.7326100778
 30
0.0
 10
12.1573513033
 20
7.7133881869
 30
0.0
 10
12.1875301794
 20
7.6919714418
 30
0.0
 10
12.2161942461
 20
7.6684775087
 30
0.0
 10
12.24318621
 20
7.6430354008
 30
0.0
 10
12.2683579251
 20
7.6157847813
 30
0.0
 10
12.291571228
 20
7.5868752292
 30
0.0
 10
12.3126986586
 20
7.5564653927
 30
0.0
 10
12.3316241539
 20
7.5247221341
 30
0.0
 10
12.3482436788
 20
7.4918196208
 30
0.0
 10
12.362465791
 20
7.4579384028
 30
0.0
 10
12.3742121559
 20
7.4232643704
 30
0.0
 10
12.3834180381
 20
7.387988017
 30
0.0
 10
12.3900324525
 20
7.3523023951
 30
0.0
 10
12.3940188603
 20
7.3164059869
 30
0.0
 10
12.3949117127
 20
7.2923984313
 30
0.0
 10
12.3949117127
 20
7.2804295331
 30
0.0
  0
SPLINE
  5
311
100
AcDbEntity
  8
0
100
AcDbSpline
 62
7
  6
CONTINUOUS
 70
0
 71
3
 72
23
 73
19
 74
0
 42
0.0000001
 43
0.0000001
 44
0.0000000001
 40
0.0
 40
0.0
 40
0.0
 40
0.0
 40
0.0632749605
 40
0.1268548254
 40
0.1904867924
 40
0.253972702
 40
0.3171735144
 40
0.3800097015
 40
0.4424572842
 40
0.5045412635
 40
0.5663270156
 40
0.6279111225
 40
0.6894119262
 40
0.7509597174
 40
0.8126867645
 40
0.8747137587
 40
0.9371362486
 40
1.0
 40
1.0
 40
1.0
 40
1.0
 10
11.6921643717
 20
8.9858427963
 30
0.0
 10
11.6931631503
 20
8.9806014986
 30
0.0
 10
11.6954774195
 20
8.9701500079
 30
0.0
 10
11.6999232254
 20
8.9547039687
 30
0.0
 10
11.7053724633
 20
8.9395622524
 30
0.0
 10
11.7118187818
 20
8.9248516638
 30
0.0
 10
11.7192380014
 20
8.9106820495
 30
0.0
 10
11.7275919569
 20
8.8971450829
 30
0.0
 10
11.7368329395
 20
8.8843132132
 30
0.0
 10
11.7469078716
 20
8.8722404987
 30
0.0
 10
11.7577618708
 20
8.8609643691
 30
0.0
 10
11.7693409604
 20
8.8505080757
 30
0.0
 10
11.7815937622
 20
8.8408833774
 30
0.0
 10
11.7944721653
 20
8.8320931327
 30
0.0
 10
11.8079307523
 20
8.8241338443
 30
0.0
 10
11.8219253013
 20
8.8169974321
 30
0.0
 10
11.8364085715
 20
8.8106735776
 30
0.0
 10
11.8463219681
 20
8.8070031652
 30
0.0
 10
11.851340966
 20
8.8052974103
 30
0.0
  0
SPLINE
  5
312
100
AcDbEntity
  8
0
100
AcDbSpline
 62
7
  6
CONTINUOUS
 70
0
 71
3
 72
50
 73
46
 74
0
 42
0.0000001
 43
0.0000001
 44
0.0000000001
 40
0.0
 40
0.0
 40
0.0
 40
0.0
 40
0.0149717276
 40
0.0299465149
 40
0.0449274004
 40
0.0599173895
 40
0.0749194283
 40
0.0899363912
 40
0.1049710639
 40
0.1200261204
 40
0.1351041175
 40
0.150207471
 40
0.1653384451
 40
0.1804991444
 40
0.1956914919
 40
0.2109172308
 40
0.2261779074
 40
0.2414748638
 40
0.2568092401
 40
0.2721819551
 40
0.2875937169
 40
0.3030450124
 40
0.3185361053
 40
0.334067046
 40
0.3652423188
 40
0.3965721984
 40
0.4280494197
 40
0.4596636038
 40
0.491401517
 40
0.523247377
 40
0.5551832011
 40
0.5871891885
 40
0.6192441311
 40
0.6513258451
 40
0.6834116144
 40
0.7154786419
 40
0.7475045029
 40
0.7794675932
 40
0.8113475647
 40
0.8431257434
 40
0.8747855233
 40
0.906312715
 40
0.9376959769
 40
0.9689265854
 40
1.0
 40
1.0
 40
1.0
 40
1.0
 10
11.5645752738
 20
9.2557368702
 30
0.0
 10
11.5687230855
 20
9.2597433514
 30
0.0
 10
11.5771797919
 20
9.2675931382
 30
0.0
 10
11.5903241881
 20
9.2788556307
 30
0.0
 10
11.6039111419
 20
9.2895918626
 30
0.0
 10
11.6179217161
 20
9.2997867929
 30
0.0
 10
11.6323367352
 20
9.3094264018
 30
0.0
 10
11.6471362644
 20
9.3184975289
 30
0.0
 10
11.6623000201
 20
9.3269875715
 30
0.0
 10
11.6778070756
 20
9.3348849452
 30
0.0
 10
11.6936361006
 20
9.3421787801
 30
0.0
 10
11.7097653408
 20
9.3488589746
 30
0.0
 10
11.7261725472
 20
9.3549164816
 30
0.0
 10
11.7428351946
 20
9.3603428373
 30
0.0
 10
11.7597303217
 20
9.3651306819
 30
0.0
 10
11.7768346885
 20
9.3692734371
 30
0.0
 10
11.7941247795
 20
9.3727653305
 30
0.0
 10
11.8115767813
 20
9.3756017158
 30
0.0
 10
11.8291667121
 20
9.3777785617
 30
0.0
 10
11.8468703566
 20
9.3792929783
 30
0.0
 10
11.8646633907
 20
9.3801428978
 30
0.0
 10
11.8825212626
 20
9.3803270834
 30
0.0
 10
11.9004197179
 20
9.3798453937
 30
0.0
 10
11.924332461
 20
9.3783144518
 30
0.0
 10
11.9542062043
 20
9.3747347066
 30
0.0
 10
11.9897701845
 20
9.3678135354
 30
0.0
 10
12.0249057042
 20
9.3582995685
 30
0.0
 10
12.0594185426
 20
9.3462454734
 30
0.0
 10
12.0931196197
 20
9.3317177359
 30
0.0
 10
12.1258238933
 20
9.314796373
 30
0.0
 10
12.157351924
 20
9.2955744639
 30
0.0
 10
12.1875307202
 20
9.2741576942
 30
0.0
 10
12.216194709
 20
9.2506637475
 30
0.0
 10
12.243186606
 20
9.2252216457
 30
0.0
 10
12.268358275
 20
9.1979710552
 30
0.0
 10
12.2915715208
 20
9.1690615243
 30
0.0
 10
12.3126988871
 20
9.1386517077
 30
0.0
 10
12.3316243231
 20
9.1069084759
 30
0.0
 10
12.3482438002
 20
9.0740059983
 30
0.0
 10
12.3624658852
 20
9.0401248267
 30
0.0
 10
12.3742122223
 20
9.005450839
 30
0.0
 10
12.3834180719
 20
8.9701745325
 30
0.0
 10
12.3900324665
 20
8.9344889606
 30
0.0
 10
12.3940188616
 20
8.8985926036
 30
0.0
 10
12.3949117127
 20
8.874585081
 30
0.0
 10
12.3949117127
 20
8.8626161989
 30
0.0
  0
SPLINE
  5
313
100
AcDbEntity
  8
0
100
AcDbSpline
 62
7
  6
CONTINUOUS
 70
0
 71
3
 72
21
 73
17
 74
0
 42
0.0000001
 43
0.0000001
 44
0.0000000001
 40
0.0
 40
0.0
 40
0.0
 40
0.0
 40
0.1492270429
 40
0.2205017098
 40
0.2896520113
 40
0.3567720955
 40
0.4219679454
 40
0.4853571052
 40
0.5470689866
 40
0.6659991738
 40
0.723585292
 40
0.7801397768
 40
0.8358539772
 40
0.8909288234
 40
0.9455728241
 40
1.0
 40
1.0
 40
1.0
 40
1.0
 10
7.2428322259
 20
7.0693302534
 30
0.0
 10
7.2445979039
 20
7.0671592474
 30
0.0
 10
7.247309686
 20
7.0640317989
 30
0.0
 10
7.2510931142
 20
7.0601331004
 30
0.0
 10
7.2539116998
 20
7.0574476385
 30
0.0
 10
7.2567538931
 20
7.0549568911
 30
0.0
 10
7.2596189701
 20
7.0526614938
 30
0.0
 10
7.262506421
 20
7.0505619922
 30
0.0
 10
7.2663370131
 20
7.0480560969
 30
0.0
 10
7.2702623701
 20
7.0459010067
 30
0.0
 10
7.2742631768
 20
7.0441363452
 30
0.0
 10
7.277250561
 20
7.0430255376
 30
0.0
 10
7.2802554375
 20
7.0421139665
 30
0.0
 10
7.2832770758
 20
7.041401876
 30
0.0
 10
7.2863143691
 20
7.0408896214
 30
0.0
 10
7.288350816
 20
7.0406813362
 30
0.0
 10
7.2893690135
 20
7.0406107288
 30
0.0
  0
SPLINE
  5
314
100
AcDbEntity
  8
0
100
AcDbSpline
 62
7
  6
CONTINUOUS
 70
0
 71
3
 72
21
 73
17
 74
0
 42
0.0000001
 43
0.0000001
 44
0.0000000001
 40
0.0
 40
0.0
 40
0.0
 40
0.0
 40
0.0544269743
 40
0.1090707035
 40
0.1641452635
 40
0.2198592802
 40
0.2764135399
 40
0.3339993753
 40
0.452929691
 40
0.5146409336
 40
0.5780288971
 40
0.6432236798
 40
0.7103433139
 40
0.7794945759
 40
0.8507726736
 40
1.0
 40
1.0
 40
1.0
 40
1.0
 10
7.8036317769
 20
10.6238865501
 30
0.0
 10
7.8026135832
 20
10.6239571573
 30
0.0
 10
7.8005678887
 20
10.6240319474
 30
0.0
 10
7.7974889745
 20
10.6239439006
 30
0.0
 10
7.7943979785
 20
10.6236557364
 30
0.0
 10
7.7912960547
 20
10.6231676442
 30
0.0
 10
7.7881839496
 20
10.6224798434
 30
0.0
 10
7.783977842
 20
10.6212843951
 30
0.0
 10
7.7797926238
 20
10.6196917025
 30
0.0
 10
7.7756528035
 20
10.6177386213
 30
0.0
 10
7.7725032155
 20
10.6160578489
 30
0.0
 10
7.7693487652
 20
10.6141799272
 30
0.0
 10
7.766189975
 20
10.6121053554
 30
0.0
 10
7.7630275984
 20
10.6098346538
 30
0.0
 10
7.7587421866
 20
10.6064954335
 30
0.0
 10
7.7556246099
 20
10.6037722053
 30
0.0
 10
7.7535761347
 20
10.6018657251
 30
0.0
  0
SPLINE
  5
315
100
AcDbEntity
  8
0
100
AcDbSpline
 62
7
  6
CONTINUOUS
 70
0
 71
3
 72
42
 73
38
 74
0
 42
0.0000001
 43
0.0000001
 44
0.0000000001
 40
0.0
 40
0.0
 40
0.0
 40
0.0
 40
0.0092540925
 40
0.0189975816
 40
0.0292077676
 40
0.0398655734
 40
0.050954489
 40
0.0624596511
 40
0.086664567
 40
0.1123806915
 40
0.1395131535
 40
0.1679682543
 40
0.1976518441
 40
0.228468084
 40
0.2603182288
 40
0.2931005741
 40
0.3267104296
 40
0.3610402734
 40
0.3959800279
 40
0.4314173939
 40
0.467238244
 40
0.5033270736
 40
0.5395674812
 40
0.5758426596
 40
0.6120359025
 40
0.6480311271
 40
0.6837134179
 40
0.718969581
 40
0.7536886944
 40
0.787762662
 40
0.8210867873
 40
0.8535603455
 40
0.8850871679
 40
0.9155764753
 40
0.9449425978
 40
0.9731082496
 40
1.0
 40
1.0
 40
1.0
 40
1.0
 10
11.7170634843
 20
7.1595314301
 30
0.0
 10
11.7179794333
 20
7.1604438804
 30
0.0
 10
11.7198531753
 20
7.1623236847
 30
0.0
 10
11.722704314
 20
7.1652430699
 30
0.0
 10
11.7256546829
 20
7.1683392626
 30
0.0
 10
11.7286905568
 20
7.1716130814
 30
0.0
 10
11.7318003584
 20
7.1750644698
 30
0.0
 10
11.7361047994
 20
7.1799861337
 30
0.0
 10
11.7416062742
 20
7.1865743682
 30
0.0
 10
11.7482566005
 20
7.1950415029
 30
0.0
 10
11.7550086224
 20
7.2041776605
 30
0.0
 10
11.76181395
 20
7.2139575872
 30
0.0
 10
11.7686286469
 20
7.224352171
 30
0.0
 10
11.7754121067
 20
7.2353288251
 30
0.0
 10
11.7821263579
 20
7.2468518455
 30
0.0
 10
11.7887356508
 20
7.2588826392
 30
0.0
 10
11.7952061864
 20
7.2713800354
 30
0.0
 10
11.8015059783
 20
7.2843005234
 30
0.0
 10
11.8076047759
 20
7.2975984876
 30
0.0
 10
11.8134740287
 20
7.3112264381
 30
0.0
 10
11.8190869016
 20
7.32513523
 30
0.0
 10
11.8244182955
 20
7.3392742939
 30
0.0
 10
11.8294448693
 20
7.35359187
 30
0.0
 10
11.8341450892
 20
7.3680352335
 30
0.0
 10
11.8384992799
 20
7.3825509201
 30
0.0
 10
11.8424896748
 20
7.397084954
 30
0.0
 10
11.8461004902
 20
7.411583072
 30
0.0
 10
11.849317973
 20
7.4259909543
 30
0.0
 10
11.8521304445
 20
7.4402544515
 30
0.0
 10
11.8545283556
 20
7.4543198035
 30
0.0
 10
11.8565043369
 20
7.4681338578
 30
0.0
 10
11.8580532405
 20
7.4816442772
 30
0.0
 10
11.8591722361
 20
7.4947997831
 30
0.0
 10
11.8598607744
 20
7.5075502279
 30
0.0
 10
11.8601208038
 20
7.519847178
 30
0.0
 10
11.8599565314
 20
7.5316431493
 30
0.0
 10
11.8595592622
 20
7.5393272495
 30
0.0
 10
11.8592866141
 20
7.543074351
 30
0.0
  0
SPLINE
  5
316
100
AcDbEntity
  8
0
100
AcDbSpline
 62
7
  6
CONTINUOUS
 70
0
 71
3
 72
19
 73
15
 74
0
 42
0.0000001
 43
0.0000001
 44
0.0000000001
 40
0.0
 40
0.0
 40
0.0
 40
0.0
 40
0.1286845918
 40
0.2563815459
 40
0.3198506256
 40
0.3830481018
 40
0.445969321
 40
0.5086118602
 40
0.6330315455
 40
0.7563534029
 40
0.8176322313
 40
0.8786584329
 40
0.9394432952
 40
1.0
 40
1.0
 40
1.0
 40
1.0
 10
11.9888029717
 20
7.4451680789
 30
0.0
 10
11.9873909274
 20
7.4519091509
 30
0.0
 10
11.9840447575
 20
7.4652341328
 30
0.0
 10
11.9785456458
 20
7.4814664864
 30
0.0
 10
11.9733916555
 20
7.4940706251
 30
0.0
 10
11.9691653459
 20
7.5032988579
 30
0.0
 10
11.9645784357
 20
7.5123037366
 30
0.0
 10
11.958008504
 20
7.523962793
 30
0.0
 10
11.948940203
 20
7.5379071178
 30
0.0
 10
11.9387470547
 20
7.5509603708
 30
0.0
 10
11.9299874369
 20
7.5607679304
 30
0.0
 10
11.9231402459
 20
7.5677827349
 30
0.0
 10
11.9160150581
 20
7.5744580944
 30
0.0
 10
11.9110787125
 20
7.5786822351
 30
0.0
 10
11.9085689448
 20
7.5807330024
 30
0.0
  0
SPLINE
  5
317
100
AcDbEntity
  8
0
100
AcDbSpline
 62
7
  6
CONTINUOUS
 70
0
 71
3
 72
31
 73
27
 74
0
 42
0.0000001
 43
0.0000001
 44
0.0000000001
 40
0.0
 40
0.0
 40
0.0
 40
0.0
 40
0.0630411049
 40
0.1265107086
 40
0.190307732
 40
0.2543170995
 40
0.3184168373
 40
0.382481751
 40
0.4463878667
 40
0.5100168426
 40
0.5417016845
 40
0.5732776768
 40
0.6047335097
 40
0.6360589697
 40
0.6672450762
 40
0.6982841849
 40
0.7291700476
 40
0.7598979145
 40
0.7904646313
 40
0.82086863
 40
0.851109979
 40
0.8811906501
 40
0.9111139135
 40
0.9408845943
 40
0.9705119581
 40
1.0
 40
1.0
 40
1.0
 40
1.0
 10
11.9888029717
 20
7.4451680789
 30
0.0
 10
11.9905081478
 20
7.4370276021
 30
0.0
 10
11.9931508612
 20
7.4205175089
 30
0.0
 10
11.9947830281
 20
7.3954283554
 30
0.0
 10
11.9940849281
 20
7.3701662917
 30
0.0
 10
11.9910633727
 20
7.3449930971
 30
0.0
 10
11.9857499506
 20
7.3201661555
 30
0.0
 10
11.9781987953
 20
7.295939842
 30
0.0
 10
11.9684880227
 20
7.2725637295
 30
0.0
 10
11.9586616032
 20
7.2539602968
 30
0.0
 10
11.9498237127
 20
7.2397364971
 30
0.0
 10
11.9427354085
 20
7.2294393567
 30
0.0
 10
11.9351973055
 20
7.2195265542
 30
0.0
 10
11.9272285709
 20
7.2100233643
 30
0.0
 10
11.9188497725
 20
7.2009543244
 30
0.0
 10
11.9100824664
 20
7.1923427578
 30
0.0
 10
11.9009491505
 20
7.1842109204
 30
0.0
 10
11.8914733277
 20
7.1765797695
 30
0.0
 10
11.8816794036
 20
7.169468949
 30
0.0
 10
11.8715925431
 20
7.1628968587
 30
0.0
 10
11.8612386915
 20
7.1568804681
 30
0.0
 10
11.8506445188
 20
7.1514352952
 30
0.0
 10
11.8398373786
 20
7.1465754555
 30
0.0
 10
11.8288447616
 20
7.1423133881
 30
0.0
 10
11.8176956765
 20
7.1386604992
 30
0.0
 10
11.8101600303
 20
7.1366326964
 30
0.0
 10
11.8063771573
 20
7.1357242629
 30
0.0
  0
SPLINE
  5
318
100
AcDbEntity
  8
0
100
AcDbSpline
 62
7
  6
CONTINUOUS
 70
0
 71
3
 72
23
 73
19
 74
0
 42
0.0000001
 43
0.0000001
 44
0.0000000001
 40
0.0
 40
0.0
 40
0.0
 40
0.0
 40
0.0637748419
 40
0.1273454053
 40
0.1907023746
 40
0.2538558225
 40
0.3168132293
 40
0.3795821318
 40
0.4421733557
 40
0.5045993383
 40
0.566873869
 40
0.6290123749
 40
0.6910316549
 40
0.7529496458
 40
0.8147853539
 40
0.8765586087
 40
0.9382898542
 40
1.0
 40
1.0
 40
1.0
 40
1.0
 10
13.3366894717
 20
6.8287466357
 30
0.0
 10
13.3366894717
 20
6.832032837
 30
0.0
 10
13.336846819
 20
6.8385958253
 30
0.0
 10
13.3375566997
 20
6.8484003714
 30
0.0
 10
13.3387387842
 20
6.8581272738
 30
0.0
 10
13.3403902363
 20
6.8677534855
 30
0.0
 10
13.342507162
 20
6.877257166
 30
0.0
 10
13.3450848857
 20
6.8866163325
 30
0.0
 10
13.3481174043
 20
6.8958093852
 30
0.0
 10
13.3515976919
 20
6.9048151661
 30
0.0
 10
13.3555178742
 20
6.9136128551
 30
0.0
 10
13.3598688114
 20
6.9221822046
 30
0.0
 10
13.3646405208
 20
6.930503435
 30
0.0
 10
13.3698220707
 20
6.9385573162
 30
0.0
 10
13.3754013965
 20
6.9463253209
 30
0.0
 10
13.3813657967
 20
6.9537895244
 30
0.0
 10
13.3877012514
 20
6.9609324912
 30
0.0
 10
13.3921633275
 20
6.9654701949
 30
0.0
 10
13.3944504194
 20
6.9676793601
 30
0.0
  0
SPLINE
  5
319
100
AcDbEntity
  8
0
100
AcDbSpline
 62
7
  6
CONTINUOUS
 70
0
 71
3
 72
24
 73
20
 74
0
 42
0.0000001
 43
0.0000001
 44
0.0000000001
 40
0.0
 40
0.0
 40
0.0
 40
0.0
 40
0.0637767223
 40
0.1273442464
 40
0.1907009953
 40
0.2538548358
 40
0.3168115815
 40
0.3795801539
 40
0.4421711312
 40
0.5045967629
 40
0.566870977
 40
0.6290091758
 40
0.6910281284
 40
0.7529458055
 40
0.8147811999
 40
0.8765541364
 40
0.9074261033
 40
0.938290172
 40
1.0
 40
1.0
 40
1.0
 40
1.0
 10
11.4289858292
 20
8.9296033864
 30
0.0
 10
11.4289858292
 20
8.9373177515
 30
0.0
 10
11.4293550756
 20
8.9527237913
 30
0.0
 10
11.4310216357
 20
8.9757391304
 30
0.0
 10
11.4337964842
 20
8.9985720297
 30
0.0
 10
11.4376729762
 20
9.0211688909
 30
0.0
 10
11.4426424476
 20
9.0434780435
 30
0.0
 10
11.4486934238
 20
9.0654479173
 30
0.0
 10
11.4558119897
 20
9.0870279003
 30
0.0
 10
11.4639817854
 20
9.1081682279
 30
0.0
 10
11.473184021
 20
9.1288201406
 30
0.0
 10
11.483397553
 20
9.1489359939
 30
0.0
 10
11.4945988201
 20
9.1684693757
 30
0.0
 10
11.5067620706
 20
9.1873753034
 30
0.0
 10
11.5198590448
 20
9.205609892
 30
0.0
 10
11.5315292144
 20
9.2202146158
 30
0.0
 10
11.5412990558
 20
9.2315187556
 30
0.0
 10
11.5513507966
 20
9.2425622419
 30
0.0
 10
11.5592065035
 20
9.2505510325
 30
0.0
 10
11.5645752738
 20
9.2557368702
 30
0.0
  0
SPLINE
  5
31A
100
AcDbEntity
  8
0
100
AcDbSpline
 62
7
  6
CONTINUOUS
 70
0
 71
3
 72
29
 73
25
 74
0
 42
0.0000001
 43
0.0000001
 44
0.0000000001
 40
0.0
 40
0.0
 40
0.0
 40
0.0
 40
0.0755836755
 40
0.1466143562
 40
0.2134286572
 40
0.2764666867
 40
0.3362686904
 40
0.3651658039
 40
0.3935045519
 40
0.4213816903
 40
0.4488992609
 40
0.4761636692
 40
0.503284649
 40
0.5303738152
 40
0.5575431712
 40
0.5849037119
 40
0.6125638739
 40
0.6406282505
 40
0.6691966684
 40
0.7281925824
 40
0.7902529585
 40
0.8559465767
 40
0.925738346
 40
1.0
 40
1.0
 40
1.0
 40
1.0
 10
14.5017401254
 20
7.6525391726
 30
0.0
 10
14.5001837209
 20
7.6510358012
 30
0.0
 10
14.4970729742
 20
7.6482120083
 30
0.0
 10
14.4922588223
 20
7.6444396119
 30
0.0
 10
14.4874501889
 20
7.6412713086
 30
0.0
 10
14.4826520505
 20
7.6387120017
 30
0.0
 10
14.4786190393
 20
7.6370719115
 30
0.0
 10
14.4754158166
 20
7.6360829991
 30
0.0
 10
14.4730473058
 20
7.6355039075
 30
0.0
 10
14.4706863801
 20
7.6350793157
 30
0.0
 10
14.4683336929
 20
7.6348093809
 30
0.0
 10
14.4659899986
 20
7.6346943031
 30
0.0
 10
14.4636560587
 20
7.6347341655
 30
0.0
 10
14.4613326427
 20
7.6349289231
 30
0.0
 10
14.4590205145
 20
7.6352785136
 30
0.0
 10
14.4567204363
 20
7.6357828557
 30
0.0
 10
14.4544331537
 20
7.6364416831
 30
0.0
 10
14.452159299
 20
7.6372547408
 30
0.0
 10
14.449114239
 20
7.63855769
 30
0.0
 10
14.4453324142
 20
7.6405907351
 30
0.0
 10
14.4409130137
 20
7.6436153278
 30
0.0
 10
14.4365664401
 20
7.6472459676
 30
0.0
 10
14.432296707
 20
7.6514770482
 30
0.0
 10
14.4295906149
 20
7.6545945246
 30
0.0
 10
14.4282491412
 20
7.6562439484
 30
0.0
  0
SPLINE
  5
31B
100
AcDbEntity
  8
0
100
AcDbSpline
 62
7
  6
CONTINUOUS
 70
0
 71
3
 72
26
 73
22
 74
0
 42
0.0000001
 43
0.0000001
 44
0.0000000001
 40
0.0
 40
0.0
 40
0.0
 40
0.0
 40
0.0309685298
 40
0.0617485724
 40
0.1228180235
 40
0.1531678793
 40
0.1834269388
 40
0.2136246138
 40
0.2437883791
 40
0.3041176782
 40
0.3646295246
 40
0.4255082645
 40
0.4869107459
 40
0.5489626028
 40
0.6117520697
 40
0.6753192775
 40
0.7396393497
 40
0.8045964387
 40
0.8699486304
 40
0.9352870015
 40
1.0
 40
1.0
 40
1.0
 40
1.0
 10
11.9120097116
 20
8.8613849159
 30
0.0
 10
11.9092088269
 20
8.8619293366
 30
0.0
 10
11.9036453466
 20
8.8631280274
 30
0.0
 10
11.8926837907
 20
8.865946105
 30
0.0
 10
11.8819454872
 20
8.869370997
 30
0.0
 10
11.8714611593
 20
8.873345802
 30
0.0
 10
11.8637430401
 20
8.8765797165
 30
0.0
 10
11.8561528647
 20
8.8800620456
 30
0.0
 10
11.8461989637
 20
8.885022665
 30
0.0
 10
11.8340433209
 20
8.8918103482
 30
0.0
 10
11.8199255769
 20
8.9008278041
 30
0.0
 10
11.8062597094
 20
8.9106858845
 30
0.0
 10
11.7930418991
 20
8.9213634978
 30
0.0
 10
11.7802807803
 20
8.9328475355
 30
0.0
 10
11.7680001025
 20
8.9451276445
 30
0.0
 10
11.7562407385
 20
8.9581906159
 30
0.0
 10
11.7450631072
 20
8.9720129301
 30
0.0
 10
11.7345493673
 20
8.9865506763
 30
0.0
 10
11.7248041594
 20
9.0017269644
 30
0.0
 10
11.7159528985
 20
9.017415574
 30
0.0
 10
11.7106908292
 20
9.0281904359
 30
0.0
 10
11.7082428773
 20
9.0336271096
 30
0.0
  0
SPLINE
  5
31C
100
AcDbEntity
  8
0
100
AcDbSpline
 62
7
  6
CONTINUOUS
 70
0
 71
3
 72
23
 73
19
 74
0
 42
0.0000001
 43
0.0000001
 44
0.0000000001
 40
0.0
 40
0.0
 40
0.0
 40
0.0
 40
0.063776909
 40
0.1273449468
 40
0.1907019575
 40
0.2538561145
 40
0.3168131979
 40
0.3795820804
 40
0.4421733815
 40
0.5045993354
 40
0.5668738682
 40
0.6290123838
 40
0.6910316538
 40
0.75294965
 40
0.8147853622
 40
0.8765586114
 40
0.9382898593
 40
1.0
 40
1.0
 40
1.0
 40
1.0
 10
11.4289858292
 20
7.3474167206
 30
0.0
 10
11.4289858292
 20
7.3551310356
 30
0.0
 10
11.4293550791
 20
7.3705370147
 30
0.0
 10
11.4310216145
 20
7.3935522544
 30
0.0
 10
11.4337964432
 20
7.416385071
 30
0.0
 10
11.4376728968
 20
7.438981832
 30
0.0
 10
11.4426423333
 20
7.4612908915
 30
0.0
 10
11.4486932592
 20
7.4832606782
 30
0.0
 10
11.4558117557
 20
7.5048405804
 30
0.0
 10
11.4639814732
 20
7.5259808344
 30
0.0
 10
11.4731836458
 20
7.5466326701
 30
0.0
 10
11.4833970948
 20
7.5667484522
 30
0.0
 10
11.4945982676
 20
7.5862817914
 30
0.0
 10
11.5067613729
 20
7.6051876392
 30
0.0
 10
11.5198583671
 20
7.6234223237
 30
0.0
 10
11.5338592222
 20
7.640943909
 30
0.0
 10
11.5487310768
 20
7.6577114415
 30
0.0
 10
11.559205403
 20
7.6683632973
 30
0.0
 10
11.5645741407
 20
7.673549122
 30
0.0
  0
SPLINE
  5
31D
100
AcDbEntity
  8
0
100
AcDbSpline
 62
7
  6
CONTINUOUS
 70
0
 71
3
 72
23
 73
19
 74
0
 42
0.0000001
 43
0.0000001
 44
0.0000000001
 40
0.0
 40
0.0
 40
0.0
 40
0.0
 40
0.0637748419
 40
0.1273454053
 40
0.1907023746
 40
0.2538558225
 40
0.3168132293
 40
0.3795821318
 40
0.4421733557
 40
0.5045993383
 40
0.566873869
 40
0.6290123749
 40
0.6910316549
 40
0.7529496458
 40
0.8147853539
 40
0.8765586087
 40
0.9382898542
 40
1.0
 40
1.0
 40
1.0
 40
1.0
 10
13.3366894717
 20
9.1856058467
 30
0.0
 10
13.3366894717
 20
9.1888920481
 30
0.0
 10
13.336846819
 20
9.1954550364
 30
0.0
 10
13.3375566997
 20
9.2052595824
 30
0.0
 10
13.3387387842
 20
9.2149864849
 30
0.0
 10
13.3403902363
 20
9.2246126966
 30
0.0
 10
13.342507162
 20
9.234116377
 30
0.0
 10
13.3450848857
 20
9.2434755435
 30
0.0
 10
13.3481174043
 20
9.2526685963
 30
0.0
 10
13.3515976919
 20
9.2616743772
 30
0.0
 10
13.3555178742
 20
9.2704720662
 30
0.0
 10
13.3598688114
 20
9.2790414157
 30
0.0
 10
13.3646405208
 20
9.2873626461
 30
0.0
 10
13.3698220707
 20
9.2954165273
 30
0.0
 10
13.3754013965
 20
9.3031845319
 30
0.0
 10
13.3813657967
 20
9.3106487355
 30
0.0
 10
13.3877012514
 20
9.3177917022
 30
0.0
 10
13.3921633275
 20
9.322329406
 30
0.0
 10
13.3944504194
 20
9.3245385712
 30
0.0
  0
SPLINE
  5
31E
100
AcDbEntity
  8
0
100
AcDbSpline
 62
7
  6
CONTINUOUS
 70
0
 71
3
 72
23
 73
19
 74
0
 42
0.0000001
 43
0.0000001
 44
0.0000000001
 40
0.0
 40
0.0
 40
0.0
 40
0.0
 40
0.0637748419
 40
0.1273454053
 40
0.1907023746
 40
0.2538558225
 40
0.3168132293
 40
0.3795821318
 40
0.4421733557
 40
0.5045993383
 40
0.566873869
 40
0.6290123749
 40
0.6910316549
 40
0.7529496458
 40
0.8147853539
 40
0.8765586087
 40
0.9382898542
 40
1.0
 40
1.0
 40
1.0
 40
1.0
 10
10.2573177325
 20
9.4571164999
 30
0.0
 10
10.2573177325
 20
9.4604027013
 30
0.0
 10
10.2574750797
 20
9.4669656896
 30
0.0
 10
10.2581849604
 20
9.4767702356
 30
0.0
 10
10.2593670449
 20
9.4864971381
 30
0.0
 10
10.261018497
 20
9.4961233498
 30
0.0
 10
10.2631354227
 20
9.5056270302
 30
0.0
 10
10.2657131465
 20
9.5149861967
 30
0.0
 10
10.2687456651
 20
9.5241792495
 30
0.0
 10
10.2722259527
 20
9.5331850303
 30
0.0
 10
10.276146135
 20
9.5419827194
 30
0.0
 10
10.2804970721
 20
9.5505520689
 30
0.0
 10
10.2852687815
 20
9.5588732993
 30
0.0
 10
10.2904503315
 20
9.5669271805
 30
0.0
 10
10.2960296573
 20
9.5746951851
 30
0.0
 10
10.3019940575
 20
9.5821593887
 30
0.0
 10
10.3083295121
 20
9.5893023554
 30
0.0
 10
10.3127915883
 20
9.5938400592
 30
0.0
 10
10.3150786801
 20
9.5960492243
 30
0.0
  0
SPLINE
  5
31F
100
AcDbEntity
  8
0
100
AcDbSpline
 62
7
  6
CONTINUOUS
 70
0
 71
3
 72
98
 73
94
 74
0
 42
0.0000001
 43
0.0000001
 44
0.0000000001
 40
0.0
 40
0.0
 40
0.0
 40
0.0
 40
0.0039487332
 40
0.0077208505
 40
0.0113255942
 40
0.0147744809
 40
0.0180811205
 40
0.0212612398
 40
0.0243327659
 40
0.0273158305
 40
0.0302326807
 40
0.0331072449
 40
0.0359646216
 40
0.0388303947
 40
0.0417299128
 40
0.0446875663
 40
0.0477262283
 40
0.0508668078
 40
0.0541280142
 40
0.0575263255
 40
0.0610759539
 40
0.0647890849
 40
0.0686759698
 40
0.0727451576
 40
0.0770037293
 40
0.0814573755
 40
0.0861107012
 40
0.0909672469
 40
0.0960296812
 40
0.1012999277
 40
0.1067791578
 40
0.1124680155
 40
0.118366541
 40
0.1244743182
 40
0.130790517
 40
0.1373138541
 40
0.1440427657
 40
0.1509752904
 40
0.1581092025
 40
0.165442006
 40
0.180692546
 40
0.1967023608
 40
0.2134430963
 40
0.2308833918
 40
0.2489891894
 40
0.2677240196
 40
0.2870492398
 40
0.3069242434
 40
0.3273066492
 40
0.3481524713
 40
0.3694163002
 40
0.3910514681
 40
0.4130102049
 40
0.4352437897
 40
0.4577026969
 40
0.48033675
 40
0.5030952732
 40
0.525927236
 40
0.5487813972
 40
0.5716064506
 40
0.5943511742
 40
0.6169645767
 40
0.6393960419
 40
0.6615954736
 40
0.6835134436
 40
0.7051013492
 40
0.7263115606
 40
0.7470975721
 40
0.7674141577
 40
0.7872175351
 40
0.8064655487
 40
0.8251178463
 40
0.8431360674
 40
0.8604840555
 40
0.8771280975
 40
0.8930372126
 40
0.9081834801
 40
0.915462966
 40
0.9225428516
 40
0.9294207281
 40
0.9360944326
 40
0.9425621035
 40
0.9488222613
 40
0.9548737197
 40
0.9607157801
 40
0.9663481425
 40
0.9717709942
 40
0.9769850958
 40
0.9819917823
 40
0.9867932761
 40
0.9913925681
 40
0.9957933246
 40
1.0
 40
1.0
 40
1.0
 40
1.0
 10
14.5031096154
 20
8.7356748304
 30
0.0
 10
14.5042649484
 20
8.7367500388
 30
0.0
 10
14.5065746414
 20
8.738798901
 30
0.0
 10
14.5101186312
 20
8.7416187378
 30
0.0
 10
14.5136589742
 20
8.7441110473
 30
0.0
 10
14.5171935924
 20
8.7462740775
 30
0.0
 10
14.5207207546
 20
8.7481062915
 30
0.0
 10
14.5242386198
 20
8.7496061831
 30
0.0
 10
14.5277451707
 20
8.7507723859
 30
0.0
 10
14.5312382717
 20
8.7516033738
 30
0.0
 10
14.5347154564
 20
8.7520981298
 30
0.0
 10
14.5381740828
 20
8.7522557189
 30
0.0
 10
14.5416112717
 20
8.7520757315
 30
0.0
 10
14.545024104
 20
8.7515583656
 30
0.0
 10
14.5484097002
 20
8.7507041039
 30
0.0
 10
14.5517654755
 20
8.7495141971
 30
0.0
 10
14.5550890642
 20
8.7479899385
 30
0.0
 10
14.5583784201
 20
8.7461329636
 30
0.0
 10
14.5616317538
 20
8.7439450085
 30
0.0
 10
14.5648473065
 20
8.7414277271
 30
0.0
 10
14.5680235668
 20
8.7385830311
 30
0.0
 10
14.5711588766
 20
8.7354127075
 30
0.0
 10
14.5742516862
 20
8.7319187691
 30
0.0
 10
14.5773004168
 20
8.7281033239
 30
0.0
 10
14.5803033744
 20
8.7239685773
 30
0.0
 10
14.5832590204
 20
8.7195170056
 30
0.0
 10
14.5861656223
 20
8.7147511552
 30
0.0
 10
14.5890215837
 20
8.709673836
 30
0.0
 10
14.5918252694
 20
8.7042880153
 30
0.0
 10
14.5945749974
 20
8.6985968332
 30
0.0
 10
14.5972692413
 20
8.6926036651
 30
0.0
 10
14.5999063312
 20
8.6863120191
 30
0.0
 10
14.60248476
 20
8.6797256323
 30
0.0
 10
14.6050029864
 20
8.6728484017
 30
0.0
 10
14.6074594723
 20
8.6656844017
 30
0.0
 10
14.6098528176
 20
8.6582379018
 30
0.0
 10
14.6121815177
 20
8.6505133191
 30
0.0
 10
14.6144442278
 20
8.642515267
 30
0.0
 10
14.6166395932
 20
8.6342484984
 30
0.0
 10
14.6195127485
 20
8.6227233143
 30
0.0
 10
14.6229154536
 20
8.6076759977
 30
0.0
 10
14.6266586802
 20
8.588857484
 30
0.0
 10
14.6301043236
 20
8.5690933283
 30
0.0
 10
14.6332440353
 20
8.5484307445
 30
0.0
 10
14.6360701939
 20
8.5269189757
 30
0.0
 10
14.6385759411
 20
8.5046093917
 30
0.0
 10
14.6407551922
 20
8.481555284
 30
0.0
 10
14.6426026528
 20
8.4578117514
 30
0.0
 10
14.6441138281
 20
8.4334355631
 30
0.0
 10
14.6452850481
 20
8.4084850225
 30
0.0
 10
14.6461134637
 20
8.3830198204
 30
0.0
 10
14.6465970504
 20
8.3571008857
 30
0.0
 10
14.6467346139
 20
8.3307902379
 30
0.0
 10
14.6465257901
 20
8.304150841
 30
0.0
 10
14.6459710567
 20
8.2772464523
 30
0.0
 10
14.6450717283
 20
8.2501414674
 30
0.0
 10
14.6438299451
 20
8.2229007628
 30
0.0
 10
14.6422486699
 20
8.1955895404
 30
0.0
 10
14.6403316793
 20
8.1682731725
 30
0.0
 10
14.6380835598
 20
8.1410170448
 30
0.0
 10
14.635509703
 20
8.1138863969
 30
0.0
 10
14.6326162803
 20
8.0869461655
 30
0.0
 10
14.6294102304
 20
8.0602608301
 30
0.0
 10
14.6258992426
 20
8.0338942592
 30
0.0
 10
14.6220917388
 20
8.0079095546
 30
0.0
 10
14.617996866
 20
7.9823688955
 30
0.0
 10
14.6136244612
 20
7.9573333896
 30
0.0
 10
14.6089850292
 20
7.9328629291
 30
0.0
 10
14.6040897185
 20
7.9090160476
 30
0.0
 10
14.5989502921
 20
7.8858497737
 30
0.0
 10
14.5935791135
 20
7.8634194851
 30
0.0
 10
14.587989108
 20
7.8417787738
 30
0.0
 10
14.5821937279
 20
7.8209793134
 30
0.0
 10
14.5762069231
 20
7.8010707506
 30
0.0
 10
14.5700430997
 20
7.7821005043
 30
0.0
 10
14.5637170958
 20
7.7641138726
 30
0.0
 10
14.5582531729
 20
7.7497970123
 30
0.0
 10
14.5538041985
 20
7.7388750338
 30
0.0
 10
14.5504805477
 20
7.7310641961
 30
0.0
 10
14.5471278421
 20
7.7235300328
 30
0.0
 10
14.5437480539
 20
7.7162770263
 30
0.0
 10
14.5403431798
 20
7.7093095078
 30
0.0
 10
14.5369153151
 20
7.7026316001
 30
0.0
 10
14.5334664295
 20
7.6962472941
 30
0.0
 10
14.529998631
 20
7.6901603505
 30
0.0
 10
14.5265139486
 20
7.6843743799
 30
0.0
 10
14.5230144294
 20
7.6788928223
 30
0.0
 10
14.5195022164
 20
7.6737188885
 30
0.0
 10
14.5159792706
 20
7.6688556437
 30
0.0
 10
14.5124476563
 20
7.6643058629
 30
0.0
 10
14.508909299
 20
7.6600721986
 30
0.0
 10
14.5053664683
 20
7.6561573753
 30
0.0
 10
14.5029494395
 20
7.6537072804
 30
0.0
 10
14.5017401254
 20
7.6525391726
 30
0.0
  0
SPLINE
  5
320
100
AcDbEntity
  8
0
100
AcDbSpline
 62
7
  6
CONTINUOUS
 70
0
 71
3
 72
11
 73
7
 74
0
 42
0.0000001
 43
0.0000001
 44
0.0000000001
 40
0.0
 40
0.0
 40
0.0
 40
0.0
 40
0.265738049
 40
0.5211743995
 40
0.7659976635
 40
1.0
 40
1.0
 40
1.0
 40
1.0
 10
11.8592866141
 20
7.543074351
 30
0.0
 10
11.8590969963
 20
7.5456803364
 30
0.0
 10
11.8586503782
 20
7.5507862385
 30
0.0
 10
11.857756332
 20
7.5582660058
 30
0.0
 10
11.8566563361
 20
7.565402786
 30
0.0
 10
11.8557694817
 20
7.5700279408
 30
0.0
 10
11.8552906761
 20
7.5722784022
 30
0.0
  0
SPLINE
  5
321
100
AcDbEntity
  8
0
100
AcDbSpline
 62
7
  6
CONTINUOUS
 70
0
 71
3
 72
23
 73
19
 74
0
 42
0.0000001
 43
0.0000001
 44
0.0000000001
 40
0.0
 40
0.0
 40
0.0
 40
0.0
 40
0.0637748419
 40
0.1273454053
 40
0.1907023746
 40
0.2538558225
 40
0.3168132293
 40
0.3795821318
 40
0.4421733557
 40
0.5045993383
 40
0.566873869
 40
0.6290123749
 40
0.6910316549
 40
0.7529496458
 40
0.8147853539
 40
0.8765586087
 40
0.9382898542
 40
1.0
 40
1.0
 40
1.0
 40
1.0
 10
10.2573177325
 20
6.9843462646
 30
0.0
 10
10.2573177325
 20
6.9876324659
 30
0.0
 10
10.2574750797
 20
6.9941954543
 30
0.0
 10
10.2581849604
 20
7.0040000003
 30
0.0
 10
10.2593670449
 20
7.0137269027
 30
0.0
 10
10.261018497
 20
7.0233531144
 30
0.0
 10
10.2631354227
 20
7.0328567949
 30
0.0
 10
10.2657131465
 20
7.0422159614
 30
0.0
 10
10.2687456651
 20
7.0514090141
 30
0.0
 10
10.2722259527
 20
7.060414795
 30
0.0
 10
10.276146135
 20
7.069212484
 30
0.0
 10
10.2804970721
 20
7.0777818336
 30
0.0
 10
10.2852687815
 20
7.0861030639
 30
0.0
 10
10.2904503315
 20
7.0941569452
 30
0.0
 10
10.2960296573
 20
7.1019249498
 30
0.0
 10
10.3019940575
 20
7.1093891534
 30
0.0
 10
10.3083295121
 20
7.1165321201
 30
0.0
 10
10.3127915883
 20
7.1210698238
 30
0.0
 10
10.3150786801
 20
7.123278989
 30
0.0
  0
SPLINE
  5
322
100
AcDbEntity
  8
0
100
AcDbSpline
 62
7
  6
CONTINUOUS
 70
0
 71
3
 72
23
 73
19
 74
0
 42
0.0000001
 43
0.0000001
 44
0.0000000001
 40
0.0
 40
0.0
 40
0.0
 40
0.0
 40
0.063776909
 40
0.1273449468
 40
0.1907019575
 40
0.2538561145
 40
0.3168131979
 40
0.3795820804
 40
0.4421733815
 40
0.5045993354
 40
0.5668738682
 40
0.6290123838
 40
0.6910316538
 40
0.75294965
 40
0.8147853622
 40
0.8765586114
 40
0.9382898593
 40
1.0
 40
1.0
 40
1.0
 40
1.0
 10
10.7644288563
 20
8.1855631208
 30
0.0
 10
10.7644288563
 20
8.1932774358
 30
0.0
 10
10.7647981063
 20
8.2086834149
 30
0.0
 10
10.7664646416
 20
8.2316986546
 30
0.0
 10
10.7692394704
 20
8.2545314712
 30
0.0
 10
10.773115924
 20
8.2771282322
 30
0.0
 10
10.7780853604
 20
8.2994372916
 30
0.0
 10
10.7841362863
 20
8.3214070783
 30
0.0
 10
10.7912547828
 20
8.3429869805
 30
0.0
 10
10.7994245004
 20
8.3641272346
 30
0.0
 10
10.8086266729
 20
8.3847790703
 30
0.0
 10
10.8188401219
 20
8.4048948524
 30
0.0
 10
10.8300412947
 20
8.4244281916
 30
0.0
 10
10.8422044
 20
8.4433340394
 30
0.0
 10
10.8553013943
 20
8.4615687239
 30
0.0
 10
10.8693022493
 20
8.4790903092
 30
0.0
 10
10.8841741039
 20
8.4958578417
 30
0.0
 10
10.8946484302
 20
8.5065096975
 30
0.0
 10
10.9000171678
 20
8.5116955222
 30
0.0
  0
SPLINE
  5
323
100
AcDbEntity
  8
0
100
AcDbSpline
 62
7
  6
CONTINUOUS
 70
0
 71
3
 72
36
 73
32
 74
0
 42
0.0000001
 43
0.0000001
 44
0.0000000001
 40
0.0
 40
0.0
 40
0.0
 40
0.0
 40
0.0851784539
 40
0.1685797221
 40
0.2498819146
 40
0.2896481023
 40
0.3287733825
 40
0.3672208992
 40
0.4049545595
 40
0.4419394685
 40
0.478141692
 40
0.5135285455
 40
0.5480685466
 40
0.5817315304
 40
0.6144888397
 40
0.6463132122
 40
0.6771792164
 40
0.7070630016
 40
0.7359428439
 40
0.7637989648
 40
0.790613997
 40
0.8163730895
 40
0.8410641782
 40
0.8646784984
 40
0.8872107022
 40
0.9086597752
 40
0.9290292269
 40
0.9483283084
 40
0.9665726389
 40
0.983785652
 40
1.0
 40
1.0
 40
1.0
 40
1.0
 10
7.1471429382
 20
7.6013137869
 30
0.0
 10
7.1471429382
 20
7.5857740643
 30
0.0
 10
7.1474077304
 20
7.5550180745
 30
0.0
 10
7.1486222719
 20
7.5094441057
 30
0.0
 10
7.1503201028
 20
7.4721772625
 30
0.0
 10
7.1520907011
 20
7.44300523
 30
0.0
 10
7.1536081141
 20
7.4216516682
 30
0.0
 10
7.1553230242
 20
7.4006850825
 30
0.0
 10
7.1572337021
 20
7.3801275359
 30
0.0
 10
7.1593380485
 20
7.3600006979
 30
0.0
 10
7.1616338864
 20
7.3403257596
 30
0.0
 10
7.1641187462
 20
7.321123441
 30
0.0
 10
7.1667900013
 20
7.302413959
 30
0.0
 10
7.169644837
 20
7.2842170053
 30
0.0
 10
7.1726801797
 20
7.2665517288
 30
0.0
 10
7.1758928782
 20
7.2494367089
 30
0.0
 10
7.179279443
 20
7.2328899386
 30
0.0
 10
7.1828363701
 20
7.2169288041
 30
0.0
 10
7.1865598114
 20
7.2015700585
 30
0.0
 10
7.1904458824
 20
7.1868298121
 30
0.0
 10
7.1944904411
 20
7.1727235022
 30
0.0
 10
7.1986892113
 20
7.1592658782
 30
0.0
 10
7.2030378084
 20
7.1464709892
 30
0.0
 10
7.2075315912
 20
7.1343521374
 30
0.0
 10
7.2121659662
 20
7.1229219114
 30
0.0
 10
7.2169360089
 20
7.1121920885
 30
0.0
 10
7.2218369496
 20
7.1021737099
 30
0.0
 10
7.2268637086
 20
7.0928770063
 30
0.0
 10
7.2320114924
 20
7.084311297
 30
0.0
 10
7.2372749822
 20
7.0764856424
 30
0.0
 10
7.2409657643
 20
7.0716251788
 30
0.0
 10
7.2428322259
 20
7.0693302534
 30
0.0
  0
SPLINE
  5
324
100
AcDbEntity
  8
0
100
AcDbSpline
 62
7
  6
CONTINUOUS
 70
0
 71
3
 72
39
 73
35
 74
0
 42
0.0000001
 43
0.0000001
 44
0.0000000001
 40
0.0
 40
0.0
 40
0.0
 40
0.0
 40
0.0299424732
 40
0.0599093222
 40
0.0899243296
 40
0.1200101094
 40
0.1501875682
 40
0.1804754198
 40
0.2108897635
 40
0.2414437392
 40
0.2721472619
 40
0.3030068428
 40
0.334025493
 40
0.3652027101
 40
0.3965345427
 40
0.4280137258
 40
0.4596298807
 40
0.4913697729
 40
0.5232176187
 40
0.5551554339
 40
0.5871634169
 40
0.6192203588
 40
0.6513040742
 40
0.6833918453
 40
0.7154608739
 40
0.7474887339
 40
0.77945382
 40
0.811335781
 40
0.8431159463
 40
0.874777695
 40
0.9063068895
 40
0.9376919983
 40
0.9689248659
 40
1.0
 40
1.0
 40
1.0
 40
1.0
 10
13.6904129505
 20
6.6612773694
 30
0.0
 10
13.6868793519
 20
6.657864169
 30
0.0
 10
13.6795343095
 20
6.6513132163
 30
0.0
 10
13.6677663953
 20
6.6423887086
 30
0.0
 10
13.6553082913
 20
6.6344107754
 30
0.0
 10
13.642229605
 20
6.627424174
 30
0.0
 10
13.6286022433
 20
6.621467073
 30
0.0
 10
13.6145014139
 20
6.6165722189
 30
0.0
 10
13.6000048212
 20
6.6127663934
 30
0.0
 10
13.5851923312
 20
6.6100703748
 30
0.0
 10
13.570145499
 20
6.6084988076
 30
0.0
 10
13.5549471245
 20
6.6080601407
 30
0.0
 10
13.5396807952
 20
6.60875659
 30
0.0
 10
13.5244304291
 20
6.6105841369
 30
0.0
 10
13.5092798179
 20
6.6135325591
 30
0.0
 10
13.494312172
 20
6.6175854934
 30
0.0
 10
13.4796096691
 20
6.6227205312
 30
0.0
 10
13.4652530101
 20
6.6289093452
 30
0.0
 10
13.4513209822
 20
6.636117847
 30
0.0
 10
13.437890032
 20
6.6443063748
 30
0.0
 10
13.4250338527
 20
6.6534299115
 30
0.0
 10
13.4128229837
 20
6.6634383302
 30
0.0
 10
13.401324429
 20
6.6742766676
 30
0.0
 10
13.3906012934
 20
6.685885423
 30
0.0
 10
13.3807124396
 20
6.6982008822
 30
0.0
 10
13.3717121684
 20
6.7111554632
 30
0.0
 10
13.3636499242
 20
6.7246780827
 30
0.0
 10
13.3565700221
 20
6.7386945439
 30
0.0
 10
13.350511415
 20
6.7531279294
 30
0.0
 10
13.3455074581
 20
6.7678990547
 30
0.0
 10
13.341585774
 20
6.7829267552
 30
0.0
 10
13.3387680042
 20
6.7981288478
 30
0.0
 10
13.3370698398
 20
6.8134207036
 30
0.0
 10
13.3366894717
 20
6.8236479259
 30
0.0
 10
13.3366894717
 20
6.8287466357
 30
0.0
  0
SPLINE
  5
325
100
AcDbEntity
  8
0
100
AcDbSpline
 62
7
  6
CONTINUOUS
 70
0
 71
3
 72
39
 73
35
 74
0
 42
0.0000001
 43
0.0000001
 44
0.0000000001
 40
0.0
 40
0.0
 40
0.0
 40
0.0
 40
0.0299424732
 40
0.0599093222
 40
0.0899243296
 40
0.1200101094
 40
0.1501875682
 40
0.1804754198
 40
0.2108897635
 40
0.2414437392
 40
0.2721472619
 40
0.3030068428
 40
0.334025493
 40
0.3652027101
 40
0.3965345427
 40
0.4280137258
 40
0.4596298807
 40
0.4913697729
 40
0.5232176187
 40
0.5551554339
 40
0.5871634169
 40
0.6192203588
 40
0.6513040742
 40
0.6833918453
 40
0.7154608739
 40
0.7474887339
 40
0.77945382
 40
0.811335781
 40
0.8431159463
 40
0.874777695
 40
0.9063068895
 40
0.9376919983
 40
0.9689248659
 40
1.0
 40
1.0
 40
1.0
 40
1.0
 10
13.6904129505
 20
9.0181365804
 30
0.0
 10
13.6868793519
 20
9.01472338
 30
0.0
 10
13.6795343095
 20
9.0081724273
 30
0.0
 10
13.6677663953
 20
8.9992479197
 30
0.0
 10
13.6553082913
 20
8.9912699865
 30
0.0
 10
13.642229605
 20
8.9842833851
 30
0.0
 10
13.6286022433
 20
8.9783262841
 30
0.0
 10
13.6145014139
 20
8.97343143
 30
0.0
 10
13.6000048212
 20
8.9696256045
 30
0.0
 10
13.5851923312
 20
8.9669295859
 30
0.0
 10
13.570145499
 20
8.9653580187
 30
0.0
 10
13.5549471245
 20
8.9649193518
 30
0.0
 10
13.5396807952
 20
8.9656158011
 30
0.0
 10
13.5244304291
 20
8.967443348
 30
0.0
 10
13.5092798179
 20
8.9703917702
 30
0.0
 10
13.494312172
 20
8.9744447044
 30
0.0
 10
13.4796096691
 20
8.9795797423
 30
0.0
 10
13.4652530101
 20
8.9857685563
 30
0.0
 10
13.4513209822
 20
8.992977058
 30
0.0
 10
13.437890032
 20
9.0011655859
 30
0.0
 10
13.4250338527
 20
9.0102891226
 30
0.0
 10
13.4128229837
 20
9.0202975413
 30
0.0
 10
13.401324429
 20
9.0311358786
 30
0.0
 10
13.3906012934
 20
9.0427446341
 30
0.0
 10
13.3807124396
 20
9.0550600933
 30
0.0
 10
13.3717121684
 20
9.0680146742
 30
0.0
 10
13.3636499242
 20
9.0815372937
 30
0.0
 10
13.3565700221
 20
9.0955537549
 30
0.0
 10
13.350511415
 20
9.1099871404
 30
0.0
 10
13.3455074581
 20
9.1247582657
 30
0.0
 10
13.341585774
 20
9.1397859663
 30
0.0
 10
13.3387680042
 20
9.1549880589
 30
0.0
 10
13.3370698398
 20
9.1702799146
 30
0.0
 10
13.3366894717
 20
9.1805071369
 30
0.0
 10
13.3366894717
 20
9.1856058467
 30
0.0
  0
SPLINE
  5
326
100
AcDbEntity
  8
0
100
AcDbSpline
 62
7
  6
CONTINUOUS
 70
0
 71
3
 72
39
 73
35
 74
0
 42
0.0000001
 43
0.0000001
 44
0.0000000001
 40
0.0
 40
0.0
 40
0.0
 40
0.0
 40
0.0299424732
 40
0.0599093222
 40
0.0899243296
 40
0.1200101094
 40
0.1501875682
 40
0.1804754198
 40
0.2108897635
 40
0.2414437392
 40
0.2721472619
 40
0.3030068428
 40
0.334025493
 40
0.3652027101
 40
0.3965345427
 40
0.4280137258
 40
0.4596298807
 40
0.4913697729
 40
0.5232176187
 40
0.5551554339
 40
0.5871634169
 40
0.6192203588
 40
0.6513040742
 40
0.6833918453
 40
0.7154608739
 40
0.7474887339
 40
0.77945382
 40
0.811335781
 40
0.8431159463
 40
0.874777695
 40
0.9063068895
 40
0.9376919983
 40
0.9689248659
 40
1.0
 40
1.0
 40
1.0
 40
1.0
 10
10.6110412112
 20
9.2896472336
 30
0.0
 10
10.6075076126
 20
9.2862340332
 30
0.0
 10
10.6001625703
 20
9.2796830805
 30
0.0
 10
10.5883946561
 20
9.2707585728
 30
0.0
 10
10.575936552
 20
9.2627806397
 30
0.0
 10
10.5628578658
 20
9.2557940382
 30
0.0
 10
10.5492305041
 20
9.2498369372
 30
0.0
 10
10.5351296747
 20
9.2449420832
 30
0.0
 10
10.5206330819
 20
9.2411362577
 30
0.0
 10
10.5058205919
 20
9.2384402391
 30
0.0
 10
10.4907737597
 20
9.2368686719
 30
0.0
 10
10.4755753853
 20
9.236430005
 30
0.0
 10
10.4603090559
 20
9.2371264543
 30
0.0
 10
10.4450586899
 20
9.2389540012
 30
0.0
 10
10.4299080787
 20
9.2419024233
 30
0.0
 10
10.4149404327
 20
9.2459553576
 30
0.0
 10
10.4002379298
 20
9.2510903955
 30
0.0
 10
10.3858812709
 20
9.2572792095
 30
0.0
 10
10.3719492429
 20
9.2644877112
 30
0.0
 10
10.3585182928
 20
9.272676239
 30
0.0
 10
10.3456621134
 20
9.2817997758
 30
0.0
 10
10.3334512445
 20
9.2918081945
 30
0.0
 10
10.3219526898
 20
9.3026465318
 30
0.0
 10
10.3112295541
 20
9.3142552873
 30
0.0
 10
10.3013407003
 20
9.3265707465
 30
0.0
 10
10.2923404292
 20
9.3395253274
 30
0.0
 10
10.284278185
 20
9.3530479469
 30
0.0
 10
10.2771982829
 20
9.3670644081
 30
0.0
 10
10.2711396757
 20
9.3814977936
 30
0.0
 10
10.2661357189
 20
9.3962689189
 30
0.0
 10
10.2622140347
 20
9.4112966194
 30
0.0
 10
10.2593962649
 20
9.4264987121
 30
0.0
 10
10.2576981006
 20
9.4417905678
 30
0.0
 10
10.2573177325
 20
9.4520177901
 30
0.0
 10
10.2573177325
 20
9.4571164999
 30
0.0
  0
SPLINE
  5
327
100
AcDbEntity
  8
0
100
AcDbSpline
 62
7
  6
CONTINUOUS
 70
0
 71
3
 72
23
 73
19
 74
0
 42
0.0000001
 43
0.0000001
 44
0.0000000001
 40
0.0
 40
0.0
 40
0.0
 40
0.0
 40
0.063776909
 40
0.1273449468
 40
0.1907019575
 40
0.2538561145
 40
0.3168131979
 40
0.3795820804
 40
0.4421733815
 40
0.5045993354
 40
0.5668738682
 40
0.6290123838
 40
0.6910316538
 40
0.75294965
 40
0.8147853622
 40
0.8765586114
 40
0.9382898593
 40
1.0
 40
1.0
 40
1.0
 40
1.0
 10
12.0935429172
 20
8.0933887476
 30
0.0
 10
12.0935429172
 20
8.1011030626
 30
0.0
 10
12.0939121672
 20
8.1165090417
 30
0.0
 10
12.0955787025
 20
8.1395242814
 30
0.0
 10
12.0983535312
 20
8.162357098
 30
0.0
 10
12.1022299848
 20
8.184953859
 30
0.0
 10
12.1071994213
 20
8.2072629185
 30
0.0
 10
12.1132503472
 20
8.2292327052
 30
0.0
 10
12.1203688437
 20
8.2508126073
 30
0.0
 10
12.1285385612
 20
8.2719528614
 30
0.0
 10
12.1377407338
 20
8.2926046971
 30
0.0
 10
12.1479541828
 20
8.3127204792
 30
0.0
 10
12.1591553556
 20
8.3322538184
 30
0.0
 10
12.1713184609
 20
8.3511596662
 30
0.0
 10
12.1844154551
 20
8.3693943507
 30
0.0
 10
12.1984163102
 20
8.386915936
 30
0.0
 10
12.2132881648
 20
8.4036834685
 30
0.0
 10
12.223762491
 20
8.4143353243
 30
0.0
 10
12.2291312287
 20
8.419521149
 30
0.0
  0
SPLINE
  5
328
100
AcDbEntity
  8
0
100
AcDbSpline
 62
7
  6
CONTINUOUS
 70
0
 71
3
 72
39
 73
35
 74
0
 42
0.0000001
 43
0.0000001
 44
0.0000000001
 40
0.0
 40
0.0
 40
0.0
 40
0.0
 40
0.0299424732
 40
0.0599093222
 40
0.0899243296
 40
0.1200101094
 40
0.1501875682
 40
0.1804754198
 40
0.2108897635
 40
0.2414437392
 40
0.2721472619
 40
0.3030068428
 40
0.334025493
 40
0.3652027101
 40
0.3965345427
 40
0.4280137258
 40
0.4596298807
 40
0.4913697729
 40
0.5232176187
 40
0.5551554339
 40
0.5871634169
 40
0.6192203588
 40
0.6513040742
 40
0.6833918453
 40
0.7154608739
 40
0.7474887339
 40
0.77945382
 40
0.811335781
 40
0.8431159463
 40
0.874777695
 40
0.9063068895
 40
0.9376919983
 40
0.9689248659
 40
1.0
 40
1.0
 40
1.0
 40
1.0
 10
10.6110412112
 20
6.8168769983
 30
0.0
 10
10.6075076126
 20
6.8134637979
 30
0.0
 10
10.6001625703
 20
6.8069128452
 30
0.0
 10
10.5883946561
 20
6.7979883375
 30
0.0
 10
10.575936552
 20
6.7900104044
 30
0.0
 10
10.5628578658
 20
6.7830238029
 30
0.0
 10
10.5492305041
 20
6.7770667019
 30
0.0
 10
10.5351296747
 20
6.7721718478
 30
0.0
 10
10.5206330819
 20
6.7683660224
 30
0.0
 10
10.5058205919
 20
6.7656700038
 30
0.0
 10
10.4907737597
 20
6.7640984366
 30
0.0
 10
10.4755753853
 20
6.7636597696
 30
0.0
 10
10.4603090559
 20
6.7643562189
 30
0.0
 10
10.4450586899
 20
6.7661837659
 30
0.0
 10
10.4299080787
 20
6.769132188
 30
0.0
 10
10.4149404327
 20
6.7731851223
 30
0.0
 10
10.4002379298
 20
6.7783201601
 30
0.0
 10
10.3858812709
 20
6.7845089742
 30
0.0
 10
10.3719492429
 20
6.7917174759
 30
0.0
 10
10.3585182928
 20
6.7999060037
 30
0.0
 10
10.3456621134
 20
6.8090295404
 30
0.0
 10
10.3334512445
 20
6.8190379591
 30
0.0
 10
10.3219526898
 20
6.8298762965
 30
0.0
 10
10.3112295541
 20
6.841485052
 30
0.0
 10
10.3013407003
 20
6.8538005112
 30
0.0
 10
10.2923404292
 20
6.8667550921
 30
0.0
 10
10.284278185
 20
6.8802777116
 30
0.0
 10
10.2771982829
 20
6.8942941728
 30
0.0
 10
10.2711396757
 20
6.9087275583
 30
0.0
 10
10.2661357189
 20
6.9234986836
 30
0.0
 10
10.2622140347
 20
6.9385263841
 30
0.0
 10
10.2593962649
 20
6.9537284767
 30
0.0
 10
10.2576981006
 20
6.9690203325
 30
0.0
 10
10.2573177325
 20
6.9792475548
 30
0.0
 10
10.2573177325
 20
6.9843462646
 30
0.0
  0
SPLINE
  5
329
100
AcDbEntity
  8
0
100
AcDbSpline
 62
7
  6
CONTINUOUS
 70
0
 71
3
 72
49
 73
45
 74
0
 42
0.0000001
 43
0.0000001
 44
0.0000000001
 40
0.0
 40
0.0
 40
0.0
 40
0.0
 40
0.007162651
 40
0.0146567047
 40
0.022489802
 40
0.0306682658
 40
0.039197236
 40
0.0480804432
 40
0.0573201505
 40
0.0669176598
 40
0.0768732462
 40
0.0871864326
 40
0.0978559349
 40
0.1088797421
 40
0.1202552948
 40
0.1319793485
 40
0.1440482505
 40
0.156457763
 40
0.1692032492
 40
0.1822796554
 40
0.19568148
 40
0.2094029484
 40
0.2377791912
 40
0.2673557091
 40
0.2980746237
 40
0.3298738609
 40
0.362687558
 40
0.3964464427
 40
0.4310781691
 40
0.466507628
 40
0.5026572389
 40
0.5394472298
 40
0.5767959041
 40
0.6146199124
 40
0.6528345158
 40
0.6913538428
 40
0.7300911403
 40
0.7689590294
 40
0.8078697587
 40
0.8467354142
 40
0.885468393
 40
0.9239808777
 40
0.9621872155
 40
1.0
 40
1.0
 40
1.0
 40
1.0
 10
7.3412570618
 20
10.203628352
 30
0.0
 10
7.3396324361
 20
10.202059084
 30
0.0
 10
7.336385358
 20
10.1987671019
 30
0.0
 10
7.3316262114
 20
10.1935062278
 30
0.0
 10
7.3268731406
 20
10.1878157866
 30
0.0
 10
7.3221291573
 20
10.1816994628
 30
0.0
 10
7.3173968932
 20
10.175160808
 30
0.0
 10
7.3126791103
 20
10.1682036077
 30
0.0
 10
7.3079784894
 20
10.1608320028
 30
0.0
 10
7.3032979446
 20
10.1530503319
 30
0.0
 10
7.2986401751
 20
10.1448632694
 30
0.0
 10
7.2940080084
 20
10.1362756654
 30
0.0
 10
7.2894042052
 20
10.1272926451
 30
0.0
 10
7.2848314913
 20
10.1179195852
 30
0.0
 10
7.2802926877
 20
10.1081620729
 30
0.0
 10
7.275790435
 20
10.0980259775
 30
0.0
 10
7.2713275263
 20
10.0875173522
 30
0.0
 10
7.2669065903
 20
10.0766425167
 30
0.0
 10
7.2625303125
 20
10.0654079916
 30
0.0
 10
7.2582013538
 20
10.0538205245
 30
0.0
 10
7.2539222513
 20
10.0418870751
 30
0.0
 10
7.2482230339
 20
10.0253386469
 30
0.0
 10
7.2412534799
 20
10.0038349942
 30
0.0
 10
7.2332199393
 20
9.9770488614
 30
0.0
 10
7.2254450106
 20
9.9490646355
 30
0.0
 10
7.2179475224
 20
9.9199496342
 30
0.0
 10
7.2107456233
 20
9.8897737719
 30
0.0
 10
7.2038567429
 20
9.8586096036
 30
0.0
 10
7.1972975483
 20
9.8265320754
 30
0.0
 10
7.1910839043
 20
9.7936183564
 30
0.0
 10
7.185230836
 20
9.7599476451
 30
0.0
 10
7.1797524942
 20
9.7256009788
 30
0.0
 10
7.1746621136
 20
9.690661037
 30
0.0
 10
7.169971987
 20
9.6552119374
 30
0.0
 10
7.1656934382
 20
9.619339029
 30
0.0
 10
7.1618367944
 20
9.5831286855
 30
0.0
 10
7.1584113616
 20
9.5466680966
 30
0.0
 10
7.155425403
 20
9.510045057
 30
0.0
 10
7.1528861193
 20
9.473347767
 30
0.0
 10
7.1507996097
 20
9.4366645598
 30
0.0
 10
7.1491709204
 20
9.4000838833
 30
0.0
 10
7.1480039037
 20
9.3636935595
 30
0.0
 10
7.1473014334
 20
9.327581588
 30
0.0
 10
7.1471429382
 20
9.3036084566
 30
0.0
 10
7.1471429382
 20
9.291684083
 30
0.0
  0
SPLINE
  5
32A
100
AcDbEntity
  8
0
100
AcDbSpline
 62
7
  6
CONTINUOUS
 70
0
 71
3
 72
23
 73
19
 74
0
 42
0.0000001
 43
0.0000001
 44
0.0000000001
 40
0.0
 40
0.0
 40
0.0
 40
0.0
 40
0.0616662222
 40
0.1233790206
 40
0.1851548208
 40
0.2470095351
 40
0.308958412
 40
0.3710159285
 40
0.4331956853
 40
0.4955102766
 40
0.5579712239
 40
0.6205888462
 40
0.6833721981
 40
0.746329325
 40
0.8094661801
 40
0.87278738
 40
0.9363004604
 40
1.0
 40
1.0
 40
1.0
 40
1.0
 10
12.230224531
 20
8.4186048378
 30
0.0
 10
12.2257724149
 20
8.4135490559
 30
0.0
 10
12.2170980355
 20
8.4032255267
 30
0.0
 10
12.2048127477
 20
8.3871482218
 30
0.0
 10
12.1932715078
 20
8.3705031401
 30
0.0
 10
12.1824963931
 20
8.3533218893
 30
0.0
 10
12.1725075327
 20
8.335636576
 30
0.0
 10
12.1633235843
 20
8.31748046
 30
0.0
 10
12.1549617856
 20
8.2988875689
 30
0.0
 10
12.1474378505
 20
8.2798927627
 30
0.0
 10
12.1407657708
 20
8.2605317088
 30
0.0
 10
12.1349580609
 20
8.2408407089
 30
0.0
 10
12.1300256336
 20
8.2208566574
 30
0.0
 10
12.1259776549
 20
8.2006170597
 30
0.0
 10
12.1228216681
 20
8.1801599689
 30
0.0
 10
12.1205635456
 20
8.1595232596
 30
0.0
 10
12.1192076877
 20
8.1387465613
 30
0.0
 10
12.118907162
 20
8.1248474912
 30
0.0
 10
12.118907162
 20
8.1178887282
 30
0.0
  0
SPLINE
  5
32B
100
AcDbEntity
  8
0
100
AcDbSpline
 62
7
  6
CONTINUOUS
 70
0
 71
3
 72
33
 73
29
 74
0
 42
0.0000001
 43
0.0000001
 44
0.0000000001
 40
0.0
 40
0.0
 40
0.0
 40
0.0
 40
0.06096189
 40
0.1220079793
 40
0.1831756317
 40
0.2444998464
 40
0.2752355044
 40
0.3060219997
 40
0.3368627606
 40
0.367760956
 40
0.3987194825
 40
0.4297409578
 40
0.4608276984
 40
0.4919817292
 40
0.523204751
 40
0.5544981659
 40
0.5858630365
 40
0.6173001249
 40
0.6488098454
 40
0.6803923145
 40
0.7120473007
 40
0.7437742806
 40
0.8074320017
 40
0.871363611
 40
0.9034317119
 40
0.9355622364
 40
0.9677526038
 40
1.0
 40
1.0
 40
1.0
 40
1.0
 10
12.9230055063
 20
7.7013955413
 30
0.0
 10
12.9150018396
 20
7.694825437
 30
0.0
 10
12.8985085783
 20
7.6822428006
 30
0.0
 10
12.8724714154
 20
7.6651632083
 30
0.0
 10
12.8452357651
 20
7.6499400211
 30
0.0
 10
12.8216566626
 20
7.6388651547
 30
0.0
 10
12.8023263172
 20
7.6309976099
 30
0.0
 10
12.7875940827
 20
7.6255937494
 30
0.0
 10
12.7726565071
 20
7.6206978627
 30
0.0
 10
12.7575298618
 20
7.6163153845
 30
0.0
 10
12.7422310052
 20
7.6124510254
 30
0.0
 10
12.7267768159
 20
7.6091092365
 30
0.0
 10
12.7111844536
 20
7.6062935038
 30
0.0
 10
12.6954711424
 20
7.6040071603
 30
0.0
 10
12.6796543126
 20
7.6022524917
 30
0.0
 10
12.6637514496
 20
7.6010316784
 30
0.0
 10
12.6477801752
 20
7.6003458122
 30
0.0
 10
12.6317581643
 20
7.6001958954
 30
0.0
 10
12.6157031387
 20
7.6005818399
 30
0.0
 10
12.5996329294
 20
7.6015034395
 30
0.0
 10
12.583565113
 20
7.6029594814
 30
0.0
 10
12.5621468564
 20
7.6056141394
 30
0.0
 10
12.5354670921
 20
7.610263924
 30
0.0
 10
12.5090899119
 20
7.6166509192
 30
0.0
 10
12.4882060275
 20
7.6227889429
 30
0.0
 10
12.4726513494
 20
7.627908545
 30
0.0
 10
12.4572400626
 20
7.6335332614
 30
0.0
 10
12.447080882
 20
7.6376124613
 30
0.0
 10
12.4420308267
 20
7.6397338271
 30
0.0
  0
SPLINE
  5
32C
100
AcDbEntity
  8
0
100
AcDbSpline
 62
7
  6
CONTINUOUS
 70
0
 71
3
 72
15
 73
11
 74
0
 42
0.0000001
 43
0.0000001
 44
0.0000000001
 40
0.0
 40
0.0
 40
0.0
 40
0.0
 40
0.1262868568
 40
0.2522461237
 40
0.3778534202
 40
0.5030877842
 40
0.6279319664
 40
0.7523699123
 40
0.8763979391
 40
1.0
 40
1.0
 40
1.0
 40
1.0
 10
12.1561613914
 20
7.9293026107
 30
0.0
 10
12.1531014374
 20
7.9368471943
 30
0.0
 10
12.1473428051
 20
7.9520629458
 30
0.0
 10
12.1398044653
 20
7.9752359034
 30
0.0
 10
12.1333938242
 20
7.9986761384
 30
0.0
 10
12.1281268365
 20
8.022325843
 30
0.0
 10
12.1240164282
 20
8.0461273296
 30
0.0
 10
12.121072444
 20
8.0700229387
 30
0.0
 10
12.1193024684
 20
8.0939532646
 30
0.0
 10
12.118907162
 20
8.1099203102
 30
0.0
 10
12.118907162
 20
8.1178887282
 30
0.0
  0
SPLINE
  5
32D
100
AcDbEntity
  8
0
100
AcDbSpline
 62
7
  6
CONTINUOUS
 70
0
 71
3
 72
48
 73
44
 74
0
 42
0.0000001
 43
0.0000001
 44
0.0000000001
 40
0.0
 40
0.0
 40
0.0
 40
0.0
 40
0.0149718897
 40
0.0299468369
 40
0.0449278839
 40
0.0599180336
 40
0.0749202322
 40
0.0899373568
 40
0.1049721887
 40
0.1200274064
 40
0.1351055645
 40
0.1502090774
 40
0.1653402142
 40
0.180501073
 40
0.1956935825
 40
0.2109194836
 40
0.2261803205
 40
0.2414774416
 40
0.2568119786
 40
0.2721848576
 40
0.3030428416
 40
0.3340598877
 40
0.365235493
 40
0.3965657058
 40
0.4280432614
 40
0.4596577825
 40
0.4913960356
 40
0.5232422374
 40
0.5551784039
 40
0.5871847345
 40
0.6192400218
 40
0.6513220815
 40
0.6834081967
 40
0.7154755701
 40
0.7475017768
 40
0.7794652126
 40
0.8113455287
 40
0.8431240501
 40
0.8747841728
 40
0.9063117021
 40
0.9376953081
 40
0.9689262526
 40
1.0
 40
1.0
 40
1.0
 40
1.0
 10
12.9238804893
 20
7.7002691587
 30
0.0
 10
12.9197326788
 20
7.6962626641
 30
0.0
 10
12.9112759856
 20
7.6884128397
 30
0.0
 10
12.8981316069
 20
7.6771502905
 30
0.0
 10
12.8845446979
 20
7.6664139624
 30
0.0
 10
12.8705340984
 20
7.6562190277
 30
0.0
 10
12.8561191322
 20
7.6465792982
 30
0.0
 10
12.8413195853
 20
7.6375081547
 30
0.0
 10
12.8261558441
 20
7.629018042
 30
0.0
 10
12.8106488088
 20
7.621120576
 30
0.0
 10
12.7948197564
 20
7.6138267491
 30
0.0
 10
12.7786905467
 20
7.6071464218
 30
0.0
 10
12.7622833141
 20
7.6010889199
 30
0.0
 10
12.7456206703
 20
7.5956624864
 30
0.0
 10
12.7287255407
 20
7.5908745608
 30
0.0
 10
12.7116211522
 20
7.5867318219
 30
0.0
 10
12.6943310517
 20
7.5832397918
 30
0.0
 10
12.6768790757
 20
7.5804034319
 30
0.0
 10
12.659288937
 20
7.578226504
 30
0.0
 10
12.6356570373
 20
7.5762047961
 30
0.0
 10
12.6058849317
 20
7.5753452176
 30
0.0
 10
12.5700492819
 20
7.5769801232
 30
0.0
 10
12.5342500353
 20
7.581270073
 30
0.0
 10
12.4986852386
 20
7.5881912147
 30
0.0
 10
12.4635498548
 20
7.5977050963
 30
0.0
 10
12.429036889
 20
7.6097591328
 30
0.0
 10
12.3953357611
 20
7.6242868434
 30
0.0
 10
12.3626314255
 20
7.6412082028
 30
0.0
 10
12.3311033266
 20
7.6604300937
 30
0.0
 10
12.3009244506
 20
7.6818468389
 30
0.0
 10
12.2722603839
 20
7.7053407719
 30
0.0
 10
12.24526842
 20
7.7307828799
 30
0.0
 10
12.2200967048
 20
7.7580334993
 30
0.0
 10
12.196883402
 20
7.7869430514
 30
0.0
 10
12.1757559713
 20
7.817352888
 30
0.0
 10
12.1568304761
 20
7.8490961466
 30
0.0
 10
12.1402109512
 20
7.8819986598
 30
0.0
 10
12.1259888389
 20
7.9158798778
 30
0.0
 10
12.114242474
 20
7.9505539103
 30
0.0
 10
12.1050365918
 20
7.9858302636
 30
0.0
 10
12.0984221774
 20
8.0215158855
 30
0.0
 10
12.0944357697
 20
8.0574122937
 30
0.0
 10
12.0935429172
 20
8.0814198494
 30
0.0
 10
12.0935429172
 20
8.0933887476
 30
0.0
  0
SPLINE
  5
32E
100
AcDbEntity
  8
0
100
AcDbSpline
 62
7
  6
CONTINUOUS
 70
0
 71
3
 72
23
 73
19
 74
0
 42
0.0000001
 43
0.0000001
 44
0.0000000001
 40
0.0
 40
0.0
 40
0.0
 40
0.0
 40
0.0616662222
 40
0.1233790206
 40
0.1851548208
 40
0.2470095351
 40
0.308958412
 40
0.3710159285
 40
0.4331956853
 40
0.4955102766
 40
0.5579712239
 40
0.6205888462
 40
0.6833721981
 40
0.746329325
 40
0.8094661801
 40
0.87278738
 40
0.9363004604
 40
1.0
 40
1.0
 40
1.0
 40
1.0
 10
10.9011104702
 20
8.5107792109
 30
0.0
 10
10.896658354
 20
8.5057234291
 30
0.0
 10
10.8879839746
 20
8.4953998999
 30
0.0
 10
10.8756986869
 20
8.479322595
 30
0.0
 10
10.8641574469
 20
8.4626775133
 30
0.0
 10
10.8533823322
 20
8.4454962625
 30
0.0
 10
10.8433934718
 20
8.4278109492
 30
0.0
 10
10.8342095235
 20
8.4096548332
 30
0.0
 10
10.8258477247
 20
8.3910619421
 30
0.0
 10
10.8183237896
 20
8.3720671359
 30
0.0
 10
10.81165171
 20
8.3527060819
 30
0.0
 10
10.8058440001
 20
8.3330150821
 30
0.0
 10
10.8009115727
 20
8.3130310306
 30
0.0
 10
10.796863594
 20
8.2927914329
 30
0.0
 10
10.7937076073
 20
8.2723343421
 30
0.0
 10
10.7914494848
 20
8.2516976328
 30
0.0
 10
10.7900936268
 20
8.2309209344
 30
0.0
 10
10.7897931012
 20
8.2170218644
 30
0.0
 10
10.7897931012
 20
8.2100631014
 30
0.0
  0
SPLINE
  5
32F
100
AcDbEntity
  8
0
100
AcDbSpline
 62
7
  6
CONTINUOUS
 70
0
 71
3
 72
33
 73
29
 74
0
 42
0.0000001
 43
0.0000001
 44
0.0000000001
 40
0.0
 40
0.0
 40
0.0
 40
0.0
 40
0.06096189
 40
0.1220079793
 40
0.1831756317
 40
0.2444998464
 40
0.2752355044
 40
0.3060219997
 40
0.3368627606
 40
0.367760956
 40
0.3987194825
 40
0.4297409578
 40
0.4608276984
 40
0.4919817292
 40
0.523204751
 40
0.5544981659
 40
0.5858630365
 40
0.6173001249
 40
0.6488098454
 40
0.6803923145
 40
0.7120473007
 40
0.7437742806
 40
0.8074320017
 40
0.871363611
 40
0.9034317119
 40
0.9355622364
 40
0.9677526038
 40
1.0
 40
1.0
 40
1.0
 40
1.0
 10
11.5938914454
 20
7.7935699145
 30
0.0
 10
11.5858877788
 20
7.7869998102
 30
0.0
 10
11.5693945174
 20
7.7744171737
 30
0.0
 10
11.5433573545
 20
7.7573375815
 30
0.0
 10
11.5161217042
 20
7.7421143943
 30
0.0
 10
11.4925426018
 20
7.7310395279
 30
0.0
 10
11.4732122563
 20
7.7231719831
 30
0.0
 10
11.4584800218
 20
7.7177681226
 30
0.0
 10
11.4435424463
 20
7.7128722359
 30
0.0
 10
11.4284158009
 20
7.7084897577
 30
0.0
 10
11.4131169444
 20
7.7046253986
 30
0.0
 10
11.397662755
 20
7.7012836097
 30
0.0
 10
11.3820703927
 20
7.698467877
 30
0.0
 10
11.3663570815
 20
7.6961815335
 30
0.0
 10
11.3505402517
 20
7.6944268649
 30
0.0
 10
11.3346373887
 20
7.6932060516
 30
0.0
 10
11.3186661144
 20
7.6925201854
 30
0.0
 10
11.3026441034
 20
7.6923702686
 30
0.0
 10
11.2865890778
 20
7.6927562131
 30
0.0
 10
11.2705188686
 20
7.6936778127
 30
0.0
 10
11.2544510521
 20
7.6951338545
 30
0.0
 10
11.2330327956
 20
7.6977885126
 30
0.0
 10
11.2063530312
 20
7.7024382972
 30
0.0
 10
11.179975851
 20
7.7088252924
 30
0.0
 10
11.1590919667
 20
7.7149633161
 30
0.0
 10
11.1435372886
 20
7.7200829182
 30
0.0
 10
11.1281260017
 20
7.7257076346
 30
0.0
 10
11.1179668211
 20
7.7297868345
 30
0.0
 10
11.1129167658
 20
7.7319082003
 30
0.0
  0
SPLINE
  5
330
100
AcDbEntity
  8
0
100
AcDbSpline
 62
7
  6
CONTINUOUS
 70
0
 71
3
 72
15
 73
11
 74
0
 42
0.0000001
 43
0.0000001
 44
0.0000000001
 40
0.0
 40
0.0
 40
0.0
 40
0.0
 40
0.1262868568
 40
0.2522461237
 40
0.3778534202
 40
0.5030877842
 40
0.6279319664
 40
0.7523699123
 40
0.8763979391
 40
1.0
 40
1.0
 40
1.0
 40
1.0
 10
10.8270473305
 20
8.0214769839
 30
0.0
 10
10.8239873765
 20
8.0290215675
 30
0.0
 10
10.8182287442
 20
8.044237319
 30
0.0
 10
10.8106904044
 20
8.0674102766
 30
0.0
 10
10.8042797633
 20
8.0908505115
 30
0.0
 10
10.7990127757
 20
8.1145002162
 30
0.0
 10
10.7949023673
 20
8.1383017027
 30
0.0
 10
10.7919583832
 20
8.1621973119
 30
0.0
 10
10.7901884076
 20
8.1861276378
 30
0.0
 10
10.7897931012
 20
8.2020946834
 30
0.0
 10
10.7897931012
 20
8.2100631014
 30
0.0
  0
SPLINE
  5
331
100
AcDbEntity
  8
0
100
AcDbSpline
 62
7
  6
CONTINUOUS
 70
0
 71
3
 72
48
 73
44
 74
0
 42
0.0000001
 43
0.0000001
 44
0.0000000001
 40
0.0
 40
0.0
 40
0.0
 40
0.0
 40
0.0149718897
 40
0.0299468369
 40
0.0449278839
 40
0.0599180336
 40
0.0749202322
 40
0.0899373568
 40
0.1049721887
 40
0.1200274064
 40
0.1351055645
 40
0.1502090774
 40
0.1653402142
 40
0.180501073
 40
0.1956935825
 40
0.2109194836
 40
0.2261803205
 40
0.2414774416
 40
0.2568119786
 40
0.2721848576
 40
0.3030428416
 40
0.3340598877
 40
0.365235493
 40
0.3965657058
 40
0.4280432614
 40
0.4596577825
 40
0.4913960356
 40
0.5232422374
 40
0.5551784039
 40
0.5871847345
 40
0.6192400218
 40
0.6513220815
 40
0.6834081967
 40
0.7154755701
 40
0.7475017768
 40
0.7794652126
 40
0.8113455287
 40
0.8431240501
 40
0.8747841728
 40
0.9063117021
 40
0.9376953081
 40
0.9689262526
 40
1.0
 40
1.0
 40
1.0
 40
1.0
 10
11.5947664284
 20
7.7924435318
 30
0.0
 10
11.5906186179
 20
7.7884370373
 30
0.0
 10
11.5821619247
 20
7.7805872129
 30
0.0
 10
11.5690175461
 20
7.7693246637
 30
0.0
 10
11.5554306371
 20
7.7585883356
 30
0.0
 10
11.5414200376
 20
7.7483934008
 30
0.0
 10
11.5270050713
 20
7.7387536714
 30
0.0
 10
11.5122055244
 20
7.7296825279
 30
0.0
 10
11.4970417832
 20
7.7211924152
 30
0.0
 10
11.4815347479
 20
7.7132949492
 30
0.0
 10
11.4657056955
 20
7.7060011223
 30
0.0
 10
11.4495764858
 20
7.699320795
 30
0.0
 10
11.4331692533
 20
7.6932632931
 30
0.0
 10
11.4165066094
 20
7.6878368596
 30
0.0
 10
11.3996114798
 20
7.683048934
 30
0.0
 10
11.3825070913
 20
7.6789061951
 30
0.0
 10
11.3652169909
 20
7.675414165
 30
0.0
 10
11.3477650148
 20
7.6725778051
 30
0.0
 10
11.3301748761
 20
7.6704008771
 30
0.0
 10
11.3065429765
 20
7.6683791693
 30
0.0
 10
11.2767708708
 20
7.6675195908
 30
0.0
 10
11.2409352211
 20
7.6691544964
 30
0.0
 10
11.2051359744
 20
7.6734444462
 30
0.0
 10
11.1695711778
 20
7.6803655879
 30
0.0
 10
11.1344357939
 20
7.6898794695
 30
0.0
 10
11.0999228282
 20
7.701933506
 30
0.0
 10
11.0662217003
 20
7.7164612166
 30
0.0
 10
11.0335173646
 20
7.733382576
 30
0.0
 10
11.0019892658
 20
7.7526044669
 30
0.0
 10
10.9718103897
 20
7.774021212
 30
0.0
 10
10.943146323
 20
7.7975151451
 30
0.0
 10
10.9161543591
 20
7.822957253
 30
0.0
 10
10.8909826439
 20
7.8502078725
 30
0.0
 10
10.8677693411
 20
7.8791174246
 30
0.0
 10
10.8466419104
 20
7.9095272612
 30
0.0
 10
10.8277164152
 20
7.9412705197
 30
0.0
 10
10.8110968903
 20
7.974173033
 30
0.0
 10
10.796874778
 20
8.008054251
 30
0.0
 10
10.7851284132
 20
8.0427282834
 30
0.0
 10
10.7759225309
 20
8.0780046368
 30
0.0
 10
10.7693081166
 20
8.1136902587
 30
0.0
 10
10.7653217088
 20
8.1495866669
 30
0.0
 10
10.7644288563
 20
8.1735942225
 30
0.0
 10
10.7644288563
 20
8.1855631208
 30
0.0
  0
SPLINE
  5
332
100
AcDbEntity
  8
0
100
AcDbSpline
 62
7
  6
CONTINUOUS
 70
0
 71
3
 72
23
 73
19
 74
0
 42
0.0000001
 43
0.0000001
 44
0.0000000001
 40
0.0
 40
0.0
 40
0.0
 40
0.0
 40
0.0616662222
 40
0.1233790206
 40
0.1851548208
 40
0.2470095351
 40
0.308958412
 40
0.3710159285
 40
0.4331956853
 40
0.4955102766
 40
0.5579712239
 40
0.6205888462
 40
0.6833721981
 40
0.746329325
 40
0.8094661801
 40
0.87278738
 40
0.9363004604
 40
1.0
 40
1.0
 40
1.0
 40
1.0
 10
11.565667443
 20
7.6726328108
 30
0.0
 10
11.5612153269
 20
7.6675770289
 30
0.0
 10
11.5525409475
 20
7.6572534997
 30
0.0
 10
11.5402556597
 20
7.6411761948
 30
0.0
 10
11.5287144198
 20
7.6245311131
 30
0.0
 10
11.5179393051
 20
7.6073498623
 30
0.0
 10
11.5079504447
 20
7.589664549
 30
0.0
 10
11.4987664963
 20
7.571508433
 30
0.0
 10
11.4904046976
 20
7.5529155419
 30
0.0
 10
11.4828807625
 20
7.5339207357
 30
0.0
 10
11.4762086828
 20
7.5145596818
 30
0.0
 10
11.4704009729
 20
7.4948686819
 30
0.0
 10
11.4654685455
 20
7.4748846304
 30
0.0
 10
11.4614205669
 20
7.4546450327
 30
0.0
 10
11.4582645801
 20
7.4341879419
 30
0.0
 10
11.4560064576
 20
7.4135512326
 30
0.0
 10
11.4546505997
 20
7.3927745343
 30
0.0
 10
11.454350074
 20
7.3788754642
 30
0.0
 10
11.454350074
 20
7.3719167012
 30
0.0
  0
SPLINE
  5
333
100
AcDbEntity
  8
0
100
AcDbSpline
 62
7
  6
CONTINUOUS
 70
0
 71
3
 72
33
 73
29
 74
0
 42
0.0000001
 43
0.0000001
 44
0.0000000001
 40
0.0
 40
0.0
 40
0.0
 40
0.0
 40
0.06096189
 40
0.1220079793
 40
0.1831756317
 40
0.2444998464
 40
0.2752355044
 40
0.3060219997
 40
0.3368627606
 40
0.367760956
 40
0.3987194825
 40
0.4297409578
 40
0.4608276984
 40
0.4919817292
 40
0.523204751
 40
0.5544981659
 40
0.5858630365
 40
0.6173001249
 40
0.6488098454
 40
0.6803923145
 40
0.7120473007
 40
0.7437742806
 40
0.8074320017
 40
0.871363611
 40
0.9034317119
 40
0.9355622364
 40
0.9677526038
 40
1.0
 40
1.0
 40
1.0
 40
1.0
 10
12.2584484183
 20
6.9554235143
 30
0.0
 10
12.2504447516
 20
6.94885341
 30
0.0
 10
12.2339514903
 20
6.9362707736
 30
0.0
 10
12.2079143274
 20
6.9191911813
 30
0.0
 10
12.1806786771
 20
6.9039679941
 30
0.0
 10
12.1570995746
 20
6.8928931277
 30
0.0
 10
12.1377692292
 20
6.885025583
 30
0.0
 10
12.1230369947
 20
6.8796217224
 30
0.0
 10
12.1080994191
 20
6.8747258357
 30
0.0
 10
12.0929727738
 20
6.8703433575
 30
0.0
 10
12.0776739172
 20
6.8664789984
 30
0.0
 10
12.0622197279
 20
6.8631372095
 30
0.0
 10
12.0466273656
 20
6.8603214768
 30
0.0
 10
12.0309140544
 20
6.8580351333
 30
0.0
 10
12.0150972246
 20
6.8562804647
 30
0.0
 10
11.9991943616
 20
6.8550596514
 30
0.0
 10
11.9832230872
 20
6.8543737853
 30
0.0
 10
11.9672010762
 20
6.8542238684
 30
0.0
 10
11.9511460507
 20
6.8546098129
 30
0.0
 10
11.9350758414
 20
6.8555314125
 30
0.0
 10
11.919008025
 20
6.8569874544
 30
0.0
 10
11.8975897684
 20
6.8596421124
 30
0.0
 10
11.8709100041
 20
6.864291897
 30
0.0
 10
11.8445328239
 20
6.8706788923
 30
0.0
 10
11.8236489395
 20
6.8768169159
 30
0.0
 10
11.8080942614
 20
6.881936518
 30
0.0
 10
11.7926829746
 20
6.8875612344
 30
0.0
 10
11.782523794
 20
6.8916404344
 30
0.0
 10
11.7774737387
 20
6.8937618001
 30
0.0
  0
SPLINE
  5
334
100
AcDbEntity
  8
0
100
AcDbSpline
 62
7
  6
CONTINUOUS
 70
0
 71
3
 72
15
 73
11
 74
0
 42
0.0000001
 43
0.0000001
 44
0.0000000001
 40
0.0
 40
0.0
 40
0.0
 40
0.0
 40
0.1262868568
 40
0.2522461237
 40
0.3778534202
 40
0.5030877842
 40
0.6279319664
 40
0.7523699123
 40
0.8763979391
 40
1.0
 40
1.0
 40
1.0
 40
1.0
 10
11.4916043034
 20
7.1833305838
 30
0.0
 10
11.4885443494
 20
7.1908751673
 30
0.0
 10
11.482785717
 20
7.2060909189
 30
0.0
 10
11.4752473773
 20
7.2292638764
 30
0.0
 10
11.4688367362
 20
7.2527041114
 30
0.0
 10
11.4635697485
 20
7.276353816
 30
0.0
 10
11.4594593402
 20
7.3001553026
 30
0.0
 10
11.456515356
 20
7.3240509118
 30
0.0
 10
11.4547453804
 20
7.3479812376
 30
0.0
 10
11.454350074
 20
7.3639482832
 30
0.0
 10
11.454350074
 20
7.3719167012
 30
0.0
  0
SPLINE
  5
335
100
AcDbEntity
  8
0
100
AcDbSpline
 62
7
  6
CONTINUOUS
 70
0
 71
3
 72
48
 73
44
 74
0
 42
0.0000001
 43
0.0000001
 44
0.0000000001
 40
0.0
 40
0.0
 40
0.0
 40
0.0
 40
0.0149718897
 40
0.0299468369
 40
0.0449278839
 40
0.0599180336
 40
0.0749202322
 40
0.0899373568
 40
0.1049721887
 40
0.1200274064
 40
0.1351055645
 40
0.1502090774
 40
0.1653402142
 40
0.180501073
 40
0.1956935825
 40
0.2109194836
 40
0.2261803205
 40
0.2414774416
 40
0.2568119786
 40
0.2721848576
 40
0.3030428416
 40
0.3340598877
 40
0.365235493
 40
0.3965657058
 40
0.4280432614
 40
0.4596577825
 40
0.4913960356
 40
0.5232422374
 40
0.5551784039
 40
0.5871847345
 40
0.6192400218
 40
0.6513220815
 40
0.6834081967
 40
0.7154755701
 40
0.7475017768
 40
0.7794652126
 40
0.8113455287
 40
0.8431240501
 40
0.8747841728
 40
0.9063117021
 40
0.9376953081
 40
0.9689262526
 40
1.0
 40
1.0
 40
1.0
 40
1.0
 10
12.2593234013
 20
6.9542971317
 30
0.0
 10
12.2551755908
 20
6.9502906371
 30
0.0
 10
12.2467188976
 20
6.9424408127
 30
0.0
 10
12.2335745189
 20
6.9311782635
 30
0.0
 10
12.2199876099
 20
6.9204419354
 30
0.0
 10
12.2059770104
 20
6.9102470007
 30
0.0
 10
12.1915620442
 20
6.9006072712
 30
0.0
 10
12.1767624973
 20
6.8915361277
 30
0.0
 10
12.1615987561
 20
6.8830460151
 30
0.0
 10
12.1460917208
 20
6.8751485491
 30
0.0
 10
12.1302626683
 20
6.8678547221
 30
0.0
 10
12.1141334587
 20
6.8611743948
 30
0.0
 10
12.0977262261
 20
6.8551168929
 30
0.0
 10
12.0810635823
 20
6.8496904594
 30
0.0
 10
12.0641684527
 20
6.8449025338
 30
0.0
 10
12.0470640642
 20
6.8407597949
 30
0.0
 10
12.0297739637
 20
6.8372677648
 30
0.0
 10
12.0123219877
 20
6.8344314049
 30
0.0
 10
11.994731849
 20
6.832254477
 30
0.0
 10
11.9710999493
 20
6.8302327691
 30
0.0
 10
11.9413278436
 20
6.8293731906
 30
0.0
 10
11.9054921939
 20
6.8310080962
 30
0.0
 10
11.8696929473
 20
6.835298046
 30
0.0
 10
11.8341281506
 20
6.8422191877
 30
0.0
 10
11.7989927668
 20
6.8517330693
 30
0.0
 10
11.764479801
 20
6.8637871058
 30
0.0
 10
11.7307786731
 20
6.8783148164
 30
0.0
 10
11.6980743375
 20
6.8952361759
 30
0.0
 10
11.6665462386
 20
6.9144580667
 30
0.0
 10
11.6363673626
 20
6.9358748119
 30
0.0
 10
11.6077032959
 20
6.9593687449
 30
0.0
 10
11.580711332
 20
6.9848108529
 30
0.0
 10
11.5555396168
 20
7.0120614723
 30
0.0
 10
11.532326314
 20
7.0409710245
 30
0.0
 10
11.5111988833
 20
7.071380861
 30
0.0
 10
11.4922733881
 20
7.1031241196
 30
0.0
 10
11.4756538632
 20
7.1360266328
 30
0.0
 10
11.4614317509
 20
7.1699078509
 30
0.0
 10
11.449685386
 20
7.2045818833
 30
0.0
 10
11.4404795038
 20
7.2398582366
 30
0.0
 10
11.4338650894
 20
7.2755438585
 30
0.0
 10
11.4298786817
 20
7.3114402667
 30
0.0
 10
11.4289858292
 20
7.3354478224
 30
0.0
 10
11.4289858292
 20
7.3474167206
 30
0.0
  0
LINE
  5
336
100
AcDbEntity
  8
0
100
AcDbLine
 62
7
  6
CONTINUOUS
 10
11.5656149804
 20
9.2547599028
 11
11.5651836734
 21
9.254269196
  0
SPLINE
  5
337
100
AcDbEntity
  8
0
100
AcDbSpline
 62
7
  6
CONTINUOUS
 70
0
 71
3
 72
23
 73
19
 74
0
 42
0.0000001
 43
0.0000001
 44
0.0000000001
 40
0.0
 40
0.0
 40
0.0
 40
0.0
 40
0.0616656658
 40
0.1233783633
 40
0.1851544346
 40
0.2470096964
 40
0.3089593041
 40
0.3710176548
 40
0.4331982634
 40
0.4955136374
 40
0.5579752285
 40
0.6205933001
 40
0.683376825
 40
0.7463337792
 40
0.8094701885
 40
0.8727904929
 40
0.93630205
 40
1.0
 40
1.0
 40
1.0
 40
1.0
 10
11.5651836734
 20
9.254269196
 30
0.0
 10
11.5607500237
 20
9.2492173088
 30
0.0
 10
11.5521119166
 20
9.2389028171
 30
0.0
 10
11.5398785065
 20
9.222842911
 30
0.0
 10
11.5283865048
 20
9.2062187468
 30
0.0
 10
11.5176578052
 20
9.189061753
 30
0.0
 10
11.5077122796
 20
9.1714038929
 30
0.0
 10
11.4985684711
 20
9.1532781911
 30
0.0
 10
11.4902434945
 20
9.1347184536
 30
0.0
 10
11.4827528522
 20
9.115759353
 30
0.0
 10
11.4761104466
 20
9.0964363095
 30
0.0
 10
11.4703287093
 20
9.0767853831
 30
0.0
 10
11.4654184027
 20
9.0568432448
 30
0.0
 10
11.461388627
 20
9.0366471366
 30
0.0
 10
11.4582468904
 20
9.0162348582
 30
0.0
 10
11.45599897
 20
8.9956440559
 30
0.0
 10
11.454649235
 20
8.9749140601
 30
0.0
 10
11.454350074
 20
8.9610464035
 30
0.0
 10
11.454350074
 20
8.954103367
 30
0.0
  0
SPLINE
  5
338
100
AcDbEntity
  8
0
100
AcDbSpline
 62
7
  6
CONTINUOUS
 70
0
 71
3
 72
32
 73
28
 74
0
 42
0.0000001
 43
0.0000001
 44
0.0000000001
 40
0.0
 40
0.0
 40
0.0
 40
0.0
 40
0.0304787911
 40
0.0609737966
 40
0.0914898454
 40
0.1220316687
 40
0.1526038634
 40
0.1832108903
 40
0.2138570275
 40
0.2445463801
 40
0.2752828284
 40
0.3060700447
 40
0.3678009105
 40
0.4297725848
 40
0.4920047863
 40
0.5545124183
 40
0.6173053594
 40
0.6488148722
 40
0.6803970517
 40
0.7120516985
 40
0.7437782714
 40
0.8074350779
 40
0.8713656627
 40
0.903433233
 40
0.9355632256
 40
0.9677530853
 40
1.0
 40
1.0
 40
1.0
 40
1.0
 10
12.2584261204
 20
8.5375918945
 30
0.0
 10
12.2544285219
 20
8.5343107527
 30
0.0
 10
12.2463136293
 20
8.5278884754
 30
0.0
 10
12.2338029886
 20
8.5186916174
 30
0.0
 10
12.2209646939
 20
8.5099386242
 30
0.0
 10
12.2078130026
 20
8.5016395301
 30
0.0
 10
12.1943625223
 20
8.4938032632
 30
0.0
 10
12.1806280298
 20
8.4864386836
 30
0.0
 10
12.1666247814
 20
8.4795537421
 30
0.0
 10
12.152368243
 20
8.4731562159
 30
0.0
 10
12.137873995
 20
8.4672529803
 30
0.0
 10
12.1182377631
 20
8.4600442532
 30
0.0
 10
12.093169085
 20
8.4523013155
 30
0.0
 10
12.0624296306
 20
8.4450893251
 30
0.0
 10
12.0311376296
 20
8.4399785249
 30
0.0
 10
11.9994332971
 20
8.4369916014
 30
0.0
 10
11.9728130388
 20
8.4362839609
 30
0.0
 10
11.9514552609
 20
8.4367842376
 30
0.0
 10
11.9354011682
 20
8.4376942407
 30
0.0
 10
11.9193493122
 20
8.4391378553
 30
0.0
 10
11.8979517199
 20
8.4417743234
 30
0.0
 10
11.8712966467
 20
8.4463990053
 30
0.0
 10
11.8449421493
 20
8.4527576759
 30
0.0
 10
11.8240750773
 20
8.4588712529
 30
0.0
 10
11.8085322995
 20
8.4639716038
 30
0.0
 10
11.793132143
 20
8.4695762245
 30
0.0
 10
11.7829798343
 20
8.473641486
 30
0.0
 10
11.7779330814
 20
8.475755775
 30
0.0
  0
SPLINE
  5
339
100
AcDbEntity
  8
0
100
AcDbSpline
 62
7
  6
CONTINUOUS
 70
0
 71
3
 72
15
 73
11
 74
0
 42
0.0000001
 43
0.0000001
 44
0.0000000001
 40
0.0
 40
0.0
 40
0.0
 40
0.0
 40
0.126282767
 40
0.2522385941
 40
0.377843431
 40
0.5030765242
 40
0.6279209278
 40
0.7523608532
 40
0.8763921982
 40
1.0
 40
1.0
 40
1.0
 40
1.0
 10
11.4912719647
 20
8.7663386883
 30
0.0
 10
11.4882389384
 20
8.7738536555
 30
0.0
 10
11.4825311573
 20
8.7890083704
 30
0.0
 10
11.4750597864
 20
8.8120849614
 30
0.0
 10
11.4687063919
 20
8.8354248777
 30
0.0
 10
11.463486639
 20
8.8589710783
 30
0.0
 10
11.459413206
 20
8.8826666487
 30
0.0
 10
11.4564957816
 20
8.9064546852
 30
0.0
 10
11.4547417918
 20
8.9302766116
 30
0.0
 10
11.454350074
 20
8.9461710791
 30
0.0
 10
11.454350074
 20
8.954103367
 30
0.0
  0
SPLINE
  5
33A
100
AcDbEntity
  8
0
100
AcDbSpline
 62
7
  6
CONTINUOUS
 70
0
 71
3
 72
50
 73
46
 74
0
 42
0.0000001
 43
0.0000001
 44
0.0000000001
 40
0.0
 40
0.0
 40
0.0
 40
0.0
 40
0.0149717276
 40
0.0299465149
 40
0.0449274004
 40
0.0599173895
 40
0.0749194283
 40
0.0899363912
 40
0.1049710639
 40
0.1200261204
 40
0.1351041175
 40
0.150207471
 40
0.1653384451
 40
0.1804991444
 40
0.1956914919
 40
0.2109172308
 40
0.2261779074
 40
0.2414748638
 40
0.2568092401
 40
0.2721819551
 40
0.2875937169
 40
0.3030450124
 40
0.3185361053
 40
0.334067046
 40
0.3652423188
 40
0.3965721984
 40
0.4280494197
 40
0.4596636038
 40
0.491401517
 40
0.523247377
 40
0.5551832011
 40
0.5871891885
 40
0.6192441311
 40
0.6513258451
 40
0.6834116144
 40
0.7154786419
 40
0.7475045029
 40
0.7794675932
 40
0.8113475647
 40
0.8431257434
 40
0.8747855233
 40
0.906312715
 40
0.9376959769
 40
0.9689265854
 40
1.0
 40
1.0
 40
1.0
 40
1.0
 10
12.2593222681
 20
8.5364827152
 30
0.0
 10
12.2551744565
 20
8.5324762339
 30
0.0
 10
12.2467177501
 20
8.5246264471
 30
0.0
 10
12.2335733538
 20
8.5133639546
 30
0.0
 10
12.2199864001
 20
8.5026277227
 30
0.0
 10
12.2059758258
 20
8.4924327924
 30
0.0
 10
12.1915608067
 20
8.4827931835
 30
0.0
 10
12.1767612776
 20
8.4737220564
 30
0.0
 10
12.1615975218
 20
8.4652320139
 30
0.0
 10
12.1460904664
 20
8.4573346401
 30
0.0
 10
12.1302614413
 20
8.4500408052
 30
0.0
 10
12.1141322011
 20
8.4433606107
 30
0.0
 10
12.0977249948
 20
8.4373031037
 30
0.0
 10
12.0810623473
 20
8.431876748
 30
0.0
 10
12.0641672202
 20
8.4270889034
 30
0.0
 10
12.0470628534
 20
8.4229461482
 30
0.0
 10
12.0297727624
 20
8.4194542549
 30
0.0
 10
12.0123207607
 20
8.4166178695
 30
0.0
 10
11.9947308299
 20
8.4144410236
 30
0.0
 10
11.9770271853
 20
8.412926607
 30
0.0
 10
11.9592341512
 20
8.4120766875
 30
0.0
 10
11.9413762794
 20
8.4118925019
 30
0.0
 10
11.923477824
 20
8.4123741916
 30
0.0
 10
11.8995650809
 20
8.4139051336
 30
0.0
 10
11.8696913376
 20
8.4174848787
 30
0.0
 10
11.8341273574
 20
8.42440605
 30
0.0
 10
11.7989918377
 20
8.4339200168
 30
0.0
 10
11.7644789994
 20
8.4459741119
 30
0.0
 10
11.7307779222
 20
8.4605018494
 30
0.0
 10
11.6980736486
 20
8.4774232124
 30
0.0
 10
11.666545618
 20
8.4966451214
 30
0.0
 10
11.6363668217
 20
8.5180618911
 30
0.0
 10
11.607702833
 20
8.5415558378
 30
0.0
 10
11.5807109359
 20
8.5669979396
 30
0.0
 10
11.5555392669
 20
8.5942485301
 30
0.0
 10
11.5323260211
 20
8.623158061
 30
0.0
 10
11.5111986548
 20
8.6535678777
 30
0.0
 10
11.4922732188
 20
8.6853111094
 30
0.0
 10
11.4756537418
 20
8.718213587
 30
0.0
 10
11.4614316568
 20
8.7520947587
 30
0.0
 10
11.4496853197
 20
8.7867687463
 30
0.0
 10
11.4404794701
 20
8.8220450528
 30
0.0
 10
11.4338650755
 20
8.8577306248
 30
0.0
 10
11.4298786804
 20
8.8936269817
 30
0.0
 10
11.4289858292
 20
8.9176345043
 30
0.0
 10
11.4289858292
 20
8.9296033864
 30
0.0
  0
SPLINE
  5
33B
100
AcDbEntity
  8
0
100
AcDbSpline
 62
7
  6
CONTINUOUS
 70
0
 71
3
 72
48
 73
44
 74
0
 42
0.0000001
 43
0.0000001
 44
0.0000000001
 40
0.0
 40
0.0
 40
0.0
 40
0.0
 40
0.0715502954
 40
0.1428287706
 40
0.2137989952
 40
0.284414979
 40
0.3546176314
 40
0.4243297251
 40
0.4934483206
 40
0.5618325669
 40
0.6292830608
 40
0.6625722268
 40
0.695506726
 40
0.7280232157
 40
0.7600395934
 40
0.7914464257
 40
0.8220937965
 40
0.8517686274
 40
0.8801537285
 40
0.8937181406
 40
0.9067510956
 40
0.919135594
 40
0.9307149342
 40
0.9412730741
 40
0.9460807275
 40
0.9505175792
 40
0.9545298416
 40
0.9580689979
 40
0.9610934119
 40
0.9624143052
 40
0.9636192378
 40
0.9647313615
 40
0.965791843
 40
0.9668604879
 40
0.9680066222
 40
0.969296827
 40
0.9707871818
 40
0.9725163099
 40
0.9745076918
 40
0.9793291473
 40
0.9852580881
 40
0.9921981758
 40
1.0
 40
1.0
 40
1.0
 40
1.0
 10
11.7739029551
 20
7.1269938621
 30
0.0
 10
11.7750072432
 20
7.1270417057
 30
0.0
 10
11.7772107278
 20
7.1271594436
 30
0.0
 10
11.780504778
 20
7.1274028636
 30
0.0
 10
11.7837787647
 20
7.1277127222
 30
0.0
 10
11.7870290648
 20
7.1280889252
 30
0.0
 10
11.7902514076
 20
7.1285313418
 30
0.0
 10
11.7934405802
 20
7.1290397895
 30
0.0
 10
11.7965900379
 20
7.1296140027
 30
0.0
 10
11.7996912161
 20
7.1302535853
 30
0.0
 10
11.8022368159
 20
7.1308430742
 30
0.0
 10
11.8042391774
 20
7.1313481461
 30
0.0
 10
11.805713051
 20
7.1317413028
 30
0.0
 10
11.8071622036
 20
7.1321502566
 30
0.0
 10
11.8085822848
 20
7.13257472
 30
0.0
 10
11.8099675213
 20
7.1330142551
 30
0.0
 10
11.8113100154
 20
7.1334681465
 30
0.0
 10
11.8125984538
 20
7.1339352164
 30
0.0
 10
11.8136285947
 20
7.1343395784
 30
0.0
 10
11.814410828
 20
7.1346706996
 30
0.0
 10
11.8149603951
 20
7.134917038
 30
0.0
 10
11.8154758097
 20
7.1351642213
 30
0.0
 10
11.815948764
 20
7.1354108732
 30
0.0
 10
11.816308922
 20
7.1356201116
 30
0.0
 10
11.8165647093
 20
7.1357880636
 30
0.0
 10
11.8167305887
 20
7.1359083153
 30
0.0
 10
11.8168735632
 20
7.1360263279
 30
0.0
 10
11.8169900724
 20
7.1361411666
 30
0.0
 10
11.8170652684
 20
7.1362379281
 30
0.0
 10
11.8171056496
 20
7.1363138212
 30
0.0
 10
11.8171246707
 20
7.1363669723
 30
0.0
 10
11.8171328595
 20
7.1364188899
 30
0.0
 10
11.8171289684
 20
7.1364693426
 30
0.0
 10
11.8171118307
 20
7.1365175805
 30
0.0
 10
11.8170810102
 20
7.1365627342
 30
0.0
 10
11.8170363851
 20
7.1366044032
 30
0.0
 10
11.8169776845
 20
7.1366424258
 30
0.0
 10
11.8169047225
 20
7.1366768557
 30
0.0
 10
11.8167800781
 20
7.136720715
 30
0.0
 10
11.8165870814
 20
7.1367625065
 30
0.0
 10
11.8163155487
 20
7.1367949871
 30
0.0
 10
11.8159965028
 20
7.1368121559
 30
0.0
 10
11.8157687213
 20
7.1368141649
 30
0.0
 10
11.8156482
 20
7.1368133293
 30
0.0
  0
SPLINE
  5
33C
100
AcDbEntity
  8
0
100
AcDbSpline
 62
7
  6
CONTINUOUS
 70
0
 71
3
 72
16
 73
12
 74
0
 42
0.0000001
 43
0.0000001
 44
0.0000000001
 40
0.0
 40
0.0
 40
0.0
 40
0.0
 40
0.0514061753
 40
0.1066317485
 40
0.1646497169
 40
0.22471888
 40
0.3489705707
 40
0.4766174589
 40
0.6061952013
 40
0.7368979518
 40
1.0
 40
1.0
 40
1.0
 40
1.0
 10
11.8156482
 20
7.1368133293
 30
0.0
 10
11.8154881598
 20
7.1368122196
 30
0.0
 10
11.8151562308
 20
7.1368029683
 30
0.0
 10
11.8146443809
 20
7.1367744039
 30
0.0
 10
11.8141063424
 20
7.1367332641
 30
0.0
 10
11.8133550221
 20
7.1366640673
 30
0.0
 10
11.8123895387
 20
7.1365577079
 30
0.0
 10
11.811211012
 20
7.1364105495
 30
0.0
 10
11.8100140364
 20
7.1362495398
 30
0.0
 10
11.8084004964
 20
7.13602229
 30
0.0
 10
11.8071874576
 20
7.1358441519
 30
0.0
 10
11.8063771573
 20
7.1357242629
 30
0.0
  0
ELLIPSE
  5
33D
100
AcDbEntity
  8
0
100
AcDbEllipse
 62
7
  6
CONTINUOUS
 10
11.9370628436
 20
8.9206271228
 30
0.0
 11
0.214501472
 21
-0.1389102547
 31
0.0
 40
0.9244097329
 41
0.0
 42
6.2831853072
  0
ELLIPSE
  5
33E
100
AcDbEntity
  8
0
100
AcDbEllipse
 62
7
  6
CONTINUOUS
 10
12.6018701038
 20
8.0838484066
 30
0.0
 11
-0.034037961
 21
0.305745397
 31
0.0
 40
0.7819268308
 41
0.1083629016
 42
5.6127097732
  0
ELLIPSE
  5
33F
100
AcDbEntity
  8
0
100
AcDbEllipse
 62
7
  6
CONTINUOUS
 10
11.2721523872
 20
8.1758830979
 30
0.0
 11
0.279633328
 21
-0.0118669502
 31
0.0
 40
0.8684458223
 41
0.0
 42
6.2831853072
  0
ELLIPSE
  5
340
100
AcDbEntity
  8
0
100
AcDbEllipse
 62
7
  6
CONTINUOUS
 10
11.9379617515
 20
7.3386562938
 30
0.0
 11
0.3167557906
 21
0.0153599052
 31
0.0
 40
0.7682784145
 41
0.842871599
 42
5.8907091619
  0
ENDSEC
  0
SECTION
  2
OBJECTS
  0
DICTIONARY
  5
C
100
AcDbDictionary
280
0
281
1
  3
ACAD_GROUP
350
D
  3
ACAD_MLINESTYLE
350
17
  3
ACAD_LAYOUT
350
1A
  3
ACAD_PLOTSETTINGS
350
19
  3
ACAD_PLOTSTYLENAME
350
E
  3
ACAD_IMAGE_DICT
350
       342
  3
ACAD_IMAGE_VARS
350
       343
  3
ACAD_TABLESTYLE
350
       344
  0
IMAGEDEF_REACTOR
  5
341
100
AcDbRasterImageDefReactor
 90
2
330
292
  0
DICTIONARY
  5
D
102
{ACAD_REACTORS
330
C
102
}
100
AcDbDictionary
280
0
281
1
  0
ACDBDICTIONARYWDFLT
  5
E
102
{ACAD_REACTORS
330
C
102
}
100
AcDbDictionary
281
1
  3
Normal
350
F
100
AcDbDictionaryWithDefault
340
F
  0
DICTIONARY
  5
342
330
C
100
AcDbDictionary
281
1
  3
W4I_assy_2_img_1
350
       347
  0
RASTERVARIABLES
  5
343
330
C
100
AcDbRasterVariables
 90
0
 70
0
 71
1
 72
5
  0
DICTIONARY
  5
17
102
{ACAD_REACTORS
330
C
102
}
100
AcDbDictionary
280
0
281
1
  3
Standard
350
18
  0
DICTIONARY
  5
344
330
C
100
AcDbDictionary
281
1
  3
Standard
350
       348
  3
Standard1
350
       349
  0
DICTIONARY
  5
19
102
{ACAD_REACTORS
330
C
102
}
100
AcDbDictionary
281
1
  0
DICTIONARY
  5
1A
102
{ACAD_REACTORS
330
C
102
}
100
AcDbDictionary
281
1
  3
Model
350
345
  3
Layout1
350
346
  0
ACDBPLACEHOLDER
  5
F
102
{ACAD_REACTORS
330
E
102
}
  0
MLINESTYLE
  5
18
102
{ACAD_REACTORS
330
17
102
}
100
AcDbMlineStyle
  2
STANDARD
 70
0
  3

 62
256
 51
90.0
 52
90.0
 71
2
 49
0.5
 62
256
  6
BYLAYER
 49
-0.5
 62
256
  6
BYLAYER
  0
LAYOUT
  5
345
102
{ACAD_REACTORS
330
1A
102
}
100
AcDbPlotSettings
  1

  2
none_device
  4
ANSI_C_(22.00_x_17.00_Inches)
  6

 40
0.0
 41
0.0
 42
0.0
 43
0.0
 44
558.8
 45
431.8
 46
0.0
 47
0.0
 48
0.0
 49
0.0
140
0.0
141
0.0
142
1.0
143
1.0
 70
1024
 72
0
 73
0
 74
0
  7

 75
0
147
1.0
148
0.0
149
0.0
100
AcDbLayout
  1
Model
 70
0
 71
0
 10
0.0
 20
0.0
 11
22.0
 21
17.0
 12
0.0
 22
0.0
 32
0.0
 14
0.0
 24
0.0
 34
0.0
 15
0.0
 25
0.0
 35
0.0
146
0.0
 13
0.0
 23
0.0
 33
0.0
 16
1.0
 26
0.0
 36
0.0
 17
0.0
 27
1.0
 37
0.0
 76
0
330
210
345
0
346
0
  0
LAYOUT
  5
346
102
{ACAD_REACTORS
330
1A
102
}
100
AcDbPlotSettings
  1

  2
none_device
  4
ANSI_C_(22.00_x_17.00_Inches)
  6

 40
0.0
 41
0.0
 42
0.0
 43
0.0
 44
558.8
 45
431.8
 46
0.0
 47
0.0
 48
0.0
 49
0.0
140
0.0
141
0.0
142
1.0
143
1.0
 70
0
 72
0
 73
0
 74
0
  7

 75
0
147
1.0
148
0.0
149
0.0
100
AcDbLayout
  1
Layout1
 70
0
 71
1
 10
0.0
 20
0.0
 11
22.0
 21
17.0
 12
0.0
 22
0.0
 32
0.0
 14
0.0
 24
0.0
 34
0.0
 15
0.0
 25
0.0
 35
0.0
146
0.0
 13
0.0
 23
0.0
 33
0.0
 16
1.0
 26
0.0
 36
0.0
 17
0.0
 27
1.0
 37
0.0
 76
0
330
211
345
0
346
0
  0
IMAGEDEF
  5
347
102
{ACAD_REACTORS
330
342
330
341
102
}
100
AcDbRasterImageDef
 90
0
  1
W4I_assy_2_img_1.png
 10
369.0
 20
92.0
 11
0.0066666667
 21
0.0066666667
280
1
281
0
  0
TABLESTYLE
  5
348
102
{ACAD_REACTORS
330
344
330
295
330
296
102
}
330
344
100
AcDbTableStyle
  3
Standard
 70
0
 71
0
 40
0.06
 41
0.06
280
1
281
1
  7
Standard
140
0.18
170
1
 62
0
 63
7
283
0
  7
Standard
140
0.18
170
1
 62
0
 63
7
283
0
  7
Standard
140
0.18
170
1
 62
0
 63
7
283
0
  0
TABLESTYLE
  5
349
102
{ACAD_REACTORS
330
344
330
294
102
}
330
344
100
AcDbTableStyle
  3
Standard1
 70
1
 71
0
 40
0.06
 41
0.06
280
1
281
1
  7
Standard
140
0.18
170
1
 62
0
 63
7
283
0
  7
Standard
140
0.18
170
1
 62
0
 63
7
283
0
  7
Standard
140
0.18
170
1
 62
0
 63
7
283
0
  0
ENDSEC
  0
EOF
