999
DXF file: W3K_assy_2.dxf
999
Pro/ENGINEER 2014200 by Parametric Technology Corporation
  0
SECTION
  2
HEADER
  9
$ACADVER
  1
AC1021
  9
$DWGCODEPAGE
  3
ANSI_1252
  9
$EXTMAX
 10
22.0
 20
17.0
 30
0.0
  9
$EXTMIN
 10
0.0
 20
0.0
 30
0.0
  9
$LIMMIN
 10
0.0
 20
0.0
  9
$LIMMAX
 10
22.0
 20
17.0
  9
$VIEWCTR
 10
11.0
 20
8.5
  9
$VIEWSIZE
 40
17.0
  9
$CLAYER
  8
0
  9
$LTSCALE
 40
1.21
  9
$CELTYPE
  6
BYLAYER
  9
$DIMSCALE
 40
1.0
  9
$DIMASZ
 40
0.1875
  9
$DIMEXO
 40
0.0625
  9
$DIMDLI
 40
0.836
  9
$DIMEXE
 40
0.125
  9
$DIMCEN
 40
0.198
  9
$DIMLFAC
 40
1.0
  9
$DIMBLK
  1
_FILLED
  9
$DIMTXT
 40
0.1
  9
$DIMTOL
 70
0
  9
$DIMLIM
 70
0
  9
$DIMTFAC
 40
1.0
  9
$DIMGAP
 40
0.09
  9
$DIMDSEP
 70
46
  9
$AUNITS
 70
0
  9
$PDMODE
 70
3
  9
$PDSIZE
 40
0.3125
  9
$HANDSEED
  5
3B2
  9
$TILEMODE
 70
1
  9
$MEASUREMENT
 70
0
  9
$INSUNITS
 70
1
  0
ENDSEC
  0
SECTION
  2
CLASSES
  0
CLASS
  1
ACDBDICTIONARYWDFLT
  2
AcDbDictionaryWithDefault
  3
AutoCAD 2000
 90
0
 91
1
280
0
281
0
  0
CLASS
  1
ACDBPLACEHOLDER
  2
AcDbPlaceHolder
  3
AutoCAD 2000
 90
0
 91
1
280
0
281
0
  0
CLASS
  1
LAYOUT
  2
AcDbLayout
  3
AutoCAD 2000
 90
0
 91
0
280
0
281
0
  0
CLASS
  1
RASTERVARIABLES
  2
AcDbRasterVariables
  3
ISM
 90
0
 91
1
280
0
281
0
  0
CLASS
  1
IMAGEDEF
  2
AcDbRasterImageDef
  3
ISM
 90
0
 91
1
280
0
281
0
  0
CLASS
  1
IMAGEDEF_REACTOR
  2
AcDbRasterImageDefReactor
  3
ISM
 90
0
 91
1
280
0
281
0
  0
CLASS
  1
IMAGE
  2
AcDbRasterImage
  3
ISM
 90
127
 91
1
280
0
281
1
  0
CLASS
  1
TABLESTYLE
  2
AcDbTableStyle
  3
ObjectDBX Classes
 90
2047
 91
1
280
0
281
0
  0
CLASS
  1
ACAD_TABLE
  2
AcDbTable
  3
ObjectDBX Classes
 90
1025
 91
3
280
0
281
1
  0
ENDSEC
  0
SECTION
  2
TABLES
  0
TABLE
  2
VPORT
  5
8
100
AcDbSymbolTable
 70
2
  0
VPORT
  5
1F4
100
AcDbSymbolTableRecord
100
AcDbViewportTableRecord
  2
*ACTIVE
 70
0
 10
0.0
 20
0.0
 11
1.0
 21
1.0
 12
11.0
 22
8.5
 13
0.0
 23
0.0
 14
1.0
 24
1.0
 15
0.0
 25
0.0
 16
0.0
 26
0.0
 36
1.0
 17
0.0
 27
0.0
 37
0.0
 40
17.0
 41
1.2941176471
 42
50.0
 43
0.0
 44
0.0
 50
0.0
 51
0.0
 71
0
 72
100
 73
1
 74
1
 75
0
 76
0
 77
0
 78
0
  0
ENDTAB
  0
TABLE
  2
LTYPE
  5
5
100
AcDbSymbolTable
 70
6
  0
LTYPE
  5
14
100
AcDbSymbolTableRecord
100
AcDbLinetypeTableRecord
  2
BYBLOCK
 70
0
  3

 72
65
 73
0
 40
0.0
  0
LTYPE
  5
15
100
AcDbSymbolTableRecord
100
AcDbLinetypeTableRecord
  2
BYLAYER
 70
0
  3

 72
65
 73
0
 40
0.0
  0
LTYPE
  5
16
100
AcDbSymbolTableRecord
100
AcDbLinetypeTableRecord
  2
CONTINUOUS
 70
64
  3
Solid line
 72
65
 73
0
 40
0.0
  0
LTYPE
  5
1F5
100
AcDbSymbolTableRecord
100
AcDbLinetypeTableRecord
  2
CENTER
 70
64
  3
____ _ ____ _ ____ _ ____ _ ____ _ ____ _ ____
 72
65
 73
4
 40
0.6
 49
0.375
 74
0
 49
-0.075
 74
0
 49
0.075
 74
0
 49
-0.075
 74
0
  0
LTYPE
  5
1F6
100
AcDbSymbolTableRecord
100
AcDbLinetypeTableRecord
  2
HIDDEN
 70
64
  3
- - - - - - - - - - - - - - - - - - - -
 72
65
 73
2
 40
0.2
 49
0.1
 74
0
 49
-0.1
 74
0
  0
LTYPE
  5
1F7
100
AcDbSymbolTableRecord
100
AcDbLinetypeTableRecord
  2
PHANTOM
 70
64
  3
_____ _ _ _____ _ _ _____ _ _ _____
 72
65
 73
6
 40
0.8
 49
0.45
 74
0
 49
-0.05
 74
0
 49
0.1
 74
0
 49
-0.05
 74
0
 49
0.1
 74
0
 49
-0.05
 74
0
  0
LTYPE
  5
1F8
100
AcDbSymbolTableRecord
100
AcDbLinetypeTableRecord
  2
DOT
 70
64
  3
. . . . . . . . . . . . . . . . . . . .
 72
65
 73
2
 40
0.2
 49
0.1
 74
0
 49
-0.1
 74
0
  0
LTYPE
  5
1F9
100
AcDbSymbolTableRecord
100
AcDbLinetypeTableRecord
  2
DASHED
 70
64
  3
- - - - - - - - - - - - - - - - - - - -
 72
65
 73
2
 40
0.2
 49
0.1
 74
0
 49
-0.1
 74
0
  0
ENDTAB
  0
TABLE
  2
LAYER
  5
2
100
AcDbSymbolTable
 70
36
  0
LAYER
  5
10
100
AcDbSymbolTableRecord
100
AcDbLayerTableRecord
  2
0
 70
0
 62
7
  6
CONTINUOUS
370
-3
390
F
  0
LAYER
  5
1FA
100
AcDbSymbolTableRecord
100
AcDbLayerTableRecord
  2
DEFAULT_1
 70
0
 62
7
  6
CENTER
370
-3
390
F
  0
LAYER
  5
1FB
100
AcDbSymbolTableRecord
100
AcDbLayerTableRecord
  2
DEFAULT_2
 70
0
 62
8
  6
HIDDEN
370
-3
390
F
  0
LAYER
  5
1FC
100
AcDbSymbolTableRecord
100
AcDbLayerTableRecord
  2
DEFAULT_3
 70
0
 62
7
  6
PHANTOM
370
-3
390
F
  0
LAYER
  5
1FD
100
AcDbSymbolTableRecord
100
AcDbLayerTableRecord
  2
01___PRT_ALL_DTM_PLN
 70
0
 62
7
  6
CONTINUOUS
370
-3
390
F
  0
LAYER
  5
1FE
100
AcDbSymbolTableRecord
100
AcDbLayerTableRecord
  2
01___PRT_DEF_DTM_PLN
 70
0
 62
7
  6
CONTINUOUS
370
-3
390
F
  0
LAYER
  5
1FF
100
AcDbSymbolTableRecord
100
AcDbLayerTableRecord
  2
02___PRT_ALL_AXES
 70
0
 62
7
  6
CONTINUOUS
370
-3
390
F
  0
LAYER
  5
200
100
AcDbSymbolTableRecord
100
AcDbLayerTableRecord
  2
03___PRT_ALL_CURVES
 70
0
 62
7
  6
CONTINUOUS
370
-3
390
F
  0
LAYER
  5
201
100
AcDbSymbolTableRecord
100
AcDbLayerTableRecord
  2
04___PRT_ALL_DTM_PNT
 70
0
 62
7
  6
CONTINUOUS
370
-3
390
F
  0
LAYER
  5
202
100
AcDbSymbolTableRecord
100
AcDbLayerTableRecord
  2
05___PRT_ALL_DTM_CSYS
 70
0
 62
7
  6
CONTINUOUS
370
-3
390
F
  0
LAYER
  5
203
100
AcDbSymbolTableRecord
100
AcDbLayerTableRecord
  2
05___PRT_DEF_DTM_CSYS
 70
0
 62
7
  6
CONTINUOUS
370
-3
390
F
  0
LAYER
  5
204
100
AcDbSymbolTableRecord
100
AcDbLayerTableRecord
  2
06___PRT_ALL_SURFS
 70
0
 62
7
  6
CONTINUOUS
370
-3
390
F
  0
LAYER
  5
205
100
AcDbSymbolTableRecord
100
AcDbLayerTableRecord
  2
DATUM_PLANES
 70
0
 62
7
  6
CONTINUOUS
370
-3
390
F
  0
LAYER
  5
206
100
AcDbSymbolTableRecord
100
AcDbLayerTableRecord
  2
PORT_AREAS
 70
0
 62
7
  6
CONTINUOUS
370
-3
390
F
  0
LAYER
  5
207
100
AcDbSymbolTableRecord
100
AcDbLayerTableRecord
  2
SUNNBOMCOSMETIC
 70
0
 62
7
  6
CONTINUOUS
370
-3
390
F
  0
LAYER
  5
208
100
AcDbSymbolTableRecord
100
AcDbLayerTableRecord
  2
SUNNBOMSTAMPING
 70
0
 62
7
  6
CONTINUOUS
370
-3
390
F
  0
LAYER
  5
209
100
AcDbSymbolTableRecord
100
AcDbLayerTableRecord
  2
THREADS
 70
0
 62
7
  6
CONTINUOUS
370
-3
390
F
  0
ENDTAB
  0
TABLE
  2
STYLE
  5
3
100
AcDbSymbolTable
 70
1
  0
STYLE
  5
11
100
AcDbSymbolTableRecord
100
AcDbTextStyleTableRecord
  2
STANDARD
 70
0
 40
0.0
 41
0.8
 50
0.0
 71
0
 42
0.2
  3
txt
  4

  0
STYLE
  5
20A
100
AcDbSymbolTableRecord
100
AcDbTextStyleTableRecord
  2
TEXTSTYLE_1
 70
0
 40
0.0
 41
0.8
 50
0.0
 71
0
 42
0.2
  3
gdt
  4

  0
ENDTAB
  0
TABLE
  2
VIEW
  5
6
100
AcDbSymbolTable
 70
0
  0
ENDTAB
  0
TABLE
  2
UCS
  5
7
100
AcDbSymbolTable
 70
0
  0
ENDTAB
  0
TABLE
  2
APPID
  5
9
100
AcDbSymbolTable
 70
1
  0
APPID
  5
20B
100
AcDbSymbolTableRecord
100
AcDbRegAppTableRecord
  2
ACAD
 70
0
  0
ENDTAB
  0
TABLE
  2
BLOCK_RECORD
  5
1
100
AcDbSymbolTable
 70
0
  0
BLOCK_RECORD
  5
20C
100
AcDbSymbolTableRecord
100
AcDbBlockTableRecord
  2
*Model_Space
  0
BLOCK_RECORD
  5
20D
100
AcDbSymbolTableRecord
100
AcDbBlockTableRecord
  2
*Paper_Space
  0
BLOCK_RECORD
  5
20E
100
AcDbSymbolTableRecord
100
AcDbBlockTableRecord
  2
SUN_FIRST_THIRD_ANGLE_BL0
  0
BLOCK_RECORD
  5
20F
100
AcDbSymbolTableRecord
100
AcDbBlockTableRecord
  2
*T1
  0
BLOCK_RECORD
  5
210
100
AcDbSymbolTableRecord
100
AcDbBlockTableRecord
  2
*T2
  0
BLOCK_RECORD
  5
211
100
AcDbSymbolTableRecord
100
AcDbBlockTableRecord
  2
*T3
  0
ENDTAB
  0
TABLE
  2
DIMSTYLE
  5
A
100
AcDbSymbolTable
 70
1
100
AcDbDimStyleTable
 71
0
  0
DIMSTYLE
105
212
100
AcDbSymbolTableRecord
100
AcDbDimStyleTableRecord
  2
STANDARD
 70
0
  3

  4

 40
1.0
 41
0.1875
 42
0.0625
 43
0.38
 44
0.125
 45
0.0
 46
0.0
 47
0.001
 48
0.001
140
0.1
141
0.09
142
0.0
143
25.4
144
1.0
145
0.0
146
1.0
147
0.09
 71
0.0
 72
0.0
 73
1
 74
1
 75
0
 76
0
 77
0
 78
4
170
0
171
2
172
0
173
0
174
0
175
0
176
0
177
0
178
0
270
2
271
3
272
3
273
2
274
2
275
0
280
0
281
0
282
0
283
1
284
4
285
0
286
0
287
3
288
0
340
11
278
46
  0
ENDTAB
  0
ENDSEC
  0
SECTION
  2
BLOCKS
  0
BLOCK
  5
20
100
AcDbEntity
  8
0
100
AcDbBlockBegin
  2
*Model_Space
 70
0
 10
0.0
 20
0.0
 30
0.0
  3
*Model_Space
  1

  0
ENDBLK
  5
21
100
AcDbEntity
  8
0
100
AcDbBlockEnd
  0
BLOCK
  5
1C
100
AcDbEntity
  8
0
100
AcDbBlockBegin
  2
*Paper_Space
 70
0
 10
0.0
 20
0.0
 30
0.0
  3
*Paper_Space
  1

  0
ENDBLK
  5
1D
100
AcDbEntity
  8
0
100
AcDbBlockEnd
  0
BLOCK
  5
213
100
AcDbEntity
  8
0
100
AcDbBlockBegin
 62
2
  6
CONTINUOUS
  2
SUN_FIRST_THIRD_ANGLE_BL0
 70
64
 10
20.4816717061
 20
1.2289683772
  3
SUN_FIRST_THIRD_ANGLE_BL0
  1

  0
TEXT
  5
214
100
AcDbEntity
  8
0
100
AcDbText
 62
2
  6
CONTINUOUS
 10
19.4750896608
 20
1.4136269581
  7
STANDARD
 40
0.08
  1
FIRST ANGLE
 41
0.8
 72
0
100
AcDbText
  0
TEXT
  5
215
100
AcDbEntity
  8
0
100
AcDbText
 62
2
  6
CONTINUOUS
 10
20.7842537513
 20
1.4047600029
  7
STANDARD
 40
0.08
  1
THIRD ANGLE
 41
0.8
 72
0
100
AcDbText
  0
LINE
  5
216
100
AcDbEntity
  8
0
100
AcDbLine
 62
7
  6
CONTINUOUS
 10
19.4767170086
 20
1.1727031207
 11
19.6334271527
 21
1.1717972817
  0
LINE
  5
217
100
AcDbEntity
  8
0
100
AcDbLine
 62
7
  6
CONTINUOUS
 10
19.6596964832
 20
1.1717972817
 11
19.6950230232
 21
1.171593082
  0
LINE
  5
218
100
AcDbEntity
  8
0
100
AcDbLine
 62
7
  6
CONTINUOUS
 10
19.7194818561
 20
1.1708914427
 11
19.8852396156
 21
1.1699333054
  0
LINE
  5
219
100
AcDbEntity
  8
0
100
AcDbLine
 62
7
  6
CONTINUOUS
 10
19.4758111696
 20
1.2723454088
 11
19.88525039
 21
1.3511534004
  0
LINE
  5
21A
100
AcDbEntity
  8
0
100
AcDbLine
 62
7
  6
CONTINUOUS
 10
19.88525039
 20
1.3511534004
 11
19.8831348489
 21
0.9851647912
  0
LINE
  5
21B
100
AcDbEntity
  8
0
100
AcDbLine
 62
7
  6
CONTINUOUS
 10
19.8831348489
 20
0.9851647912
 11
19.4767170086
 21
1.0658141206
  0
LINE
  5
21C
100
AcDbEntity
  8
0
100
AcDbLine
 62
7
  6
CONTINUOUS
 10
19.4767170086
 20
1.0658141206
 11
19.4779056764
 21
1.2714536432
  0
CIRCLE
  5
21D
100
AcDbEntity
  8
0
100
AcDbCircle
 62
7
  6
CONTINUOUS
 10
20.2068232291
 20
1.1717972817
 40
0.175742101
  0
CIRCLE
  5
21E
100
AcDbEntity
  8
0
100
AcDbCircle
 62
7
  6
CONTINUOUS
 10
20.2068232291
 20
1.1717972817
 40
0.1005522074
  0
LINE
  5
21F
100
AcDbEntity
  8
0
100
AcDbLine
 62
7
  6
CONTINUOUS
 10
20.2077290681
 20
1.3756110529
 11
20.2071171714
 21
1.2379342989
  0
LINE
  5
220
100
AcDbEntity
  8
0
100
AcDbLine
 62
7
  6
CONTINUOUS
 10
20.2077290681
 20
1.2016899681
 11
20.2074674401
 21
1.1428236749
  0
LINE
  5
221
100
AcDbEntity
  8
0
100
AcDbLine
 62
7
  6
CONTINUOUS
 10
20.208634907
 20
1.101141841
 11
20.2080230104
 21
0.963465087
  0
LINE
  5
222
100
AcDbEntity
  8
0
100
AcDbLine
 62
7
  6
CONTINUOUS
 10
20.0066328138
 20
1.1745147986
 11
20.1443095678
 21
1.1739029019
  0
LINE
  5
223
100
AcDbEntity
  8
0
100
AcDbLine
 62
7
  6
CONTINUOUS
 10
20.1832714155
 20
1.1727031207
 11
20.238153505
 21
1.172335442
  0
LINE
  5
224
100
AcDbEntity
  8
0
100
AcDbLine
 62
7
  6
CONTINUOUS
 10
20.2756669918
 20
1.1717972817
 11
20.407916871
 21
1.1712095044
  0
CIRCLE
  5
225
100
AcDbEntity
  8
0
100
AcDbCircle
 62
7
  6
CONTINUOUS
 10
20.7509457401
 20
1.1693297793
 40
0.1722024983
  0
CIRCLE
  5
226
100
AcDbEntity
  8
0
100
AcDbCircle
 62
7
  6
CONTINUOUS
 10
20.7509457401
 20
1.1693297793
 40
0.0985164967
  0
LINE
  5
227
100
AcDbEntity
  8
0
100
AcDbLine
 62
7
  6
CONTINUOUS
 10
20.7169767782
 20
1.170462078
 11
20.7825395137
 21
1.1682766535
  0
LINE
  5
228
100
AcDbEntity
  8
0
100
AcDbLine
 62
7
  6
CONTINUOUS
 10
20.8177513651
 20
1.1693297793
 11
20.947965719
 21
1.1693297793
  0
LINE
  5
229
100
AcDbEntity
  8
0
100
AcDbLine
 62
7
  6
CONTINUOUS
 10
20.6875370113
 20
1.170462078
 11
20.5573226574
 21
1.170462078
  0
LINE
  5
22A
100
AcDbEntity
  8
0
100
AcDbLine
 62
7
  6
CONTINUOUS
 10
20.7486811426
 20
1.1987695462
 11
20.7486811426
 21
1.1432869085
  0
LINE
  5
22B
100
AcDbEntity
  8
0
100
AcDbLine
 62
7
  6
CONTINUOUS
 10
20.7498134414
 20
1.1059210505
 11
20.7498134414
 21
0.9757066966
  0
LINE
  5
22C
100
AcDbEntity
  8
0
100
AcDbLine
 62
7
  6
CONTINUOUS
 10
20.7486811426
 20
1.2338708068
 11
20.7486811426
 21
1.3640851607
  0
LINE
  5
22D
100
AcDbEntity
  8
0
100
AcDbLine
 62
7
  6
CONTINUOUS
 10
21.0702539817
 20
1.2701043662
 11
21.4790138229
 21
1.3448360823
  0
LINE
  5
22E
100
AcDbEntity
  8
0
100
AcDbLine
 62
7
  6
CONTINUOUS
 10
21.4790138229
 20
1.3448360823
 11
21.4790138229
 21
0.9779712941
  0
LINE
  5
22F
100
AcDbEntity
  8
0
100
AcDbLine
 62
7
  6
CONTINUOUS
 10
21.4790138229
 20
0.9779712941
 11
21.069121683
 21
1.0617614
  0
LINE
  5
230
100
AcDbEntity
  8
0
100
AcDbLine
 62
7
  6
CONTINUOUS
 10
21.0702539817
 20
1.2701043662
 11
21.069121683
 21
1.0617614
  0
LINE
  5
231
100
AcDbEntity
  8
0
100
AcDbLine
 62
7
  6
CONTINUOUS
 10
21.4790138229
 20
1.1693297793
 11
21.3159628059
 21
1.1693297793
  0
LINE
  5
232
100
AcDbEntity
  8
0
100
AcDbLine
 62
7
  6
CONTINUOUS
 10
21.2876553377
 20
1.1693297793
 11
21.2502894796
 21
1.1693297793
  0
LINE
  5
233
100
AcDbEntity
  8
0
100
AcDbLine
 62
7
  6
CONTINUOUS
 10
21.2208497126
 20
1.1659328831
 11
21.0713862804
 21
1.1659328831
  0
LINE
  5
234
100
AcDbEntity
  8
0
100
AcDbLine
 62
7
  6
CONTINUOUS
 10
20.4796138713
 20
1.5284908897
 11
20.4766766948
 21
0.9294458646
  0
ENDBLK
  5
235
100
AcDbEntity
  8
0
  6
BYBLOCK
 62
0
100
AcDbBlockEnd
  0
BLOCK
  5
236
100
AcDbEntity
  8
0
100
AcDbBlockBegin
  2
*T1
 70
1
 10
0.0
 20
0.0
  3
*T1
  1

  0
LINE
  5
237
100
AcDbEntity
  8
0
100
AcDbLine
 62
2
  6
CONTINUOUS
 10
9.275
 20
0.0
 11
-0.0
 21
0.0
  0
LINE
  5
238
100
AcDbEntity
  8
0
100
AcDbLine
 62
2
  6
CONTINUOUS
 10
9.275
 20
0.0
 11
9.275
 21
1.25
  0
LINE
  5
239
100
AcDbEntity
  8
0
100
AcDbLine
 62
2
  6
CONTINUOUS
 10
9.275
 20
0.625
 11
-0.0
 21
0.625
  0
LINE
  5
23A
100
AcDbEntity
  8
0
100
AcDbLine
 62
2
  6
CONTINUOUS
 10
9.275
 20
1.25
 11
-0.0
 21
1.25
  0
LINE
  5
23B
100
AcDbEntity
  8
0
100
AcDbLine
 62
2
  6
CONTINUOUS
 10
6.8
 20
0.0
 11
6.8
 21
1.25
  0
LINE
  5
23C
100
AcDbEntity
  8
0
100
AcDbLine
 62
2
  6
CONTINUOUS
 10
6.4
 20
0.0
 11
6.4
 21
0.625
  0
LINE
  5
23D
100
AcDbEntity
  8
0
100
AcDbLine
 62
2
  6
CONTINUOUS
 10
5.9
 20
0.0
 11
5.9
 21
0.625
  0
LINE
  5
23E
100
AcDbEntity
  8
0
100
AcDbLine
 62
2
  6
CONTINUOUS
 10
5.2
 20
0.0
 11
5.2
 21
0.625
  0
LINE
  5
23F
100
AcDbEntity
  8
0
100
AcDbLine
 62
2
  6
CONTINUOUS
 10
4.1
 20
0.0
 11
4.1
 21
1.25
  0
LINE
  5
240
100
AcDbEntity
  8
0
100
AcDbLine
 62
2
  6
CONTINUOUS
 10
-0.0
 20
0.0
 11
-0.0
 21
1.25
  0
MTEXT
  5
241
100
AcDbEntity
  8
0
100
AcDbMText
 62
2
  6
CONTINUOUS
  7
STANDARD
 71
2
 72
1
 10
6.6
 20
0.325
 30
0.0
 11
1.0
 21
0.0
 31
0.0
 44
0.9
  1
2
 40
0.125
 41
0.2
  0
MTEXT
  5
242
100
AcDbEntity
  8
0
100
AcDbMText
 62
2
  6
CONTINUOUS
  7
STANDARD
 71
2
 72
1
 10
6.15
 20
0.325
 30
0.0
 11
1.0
 21
0.0
 31
0.0
 44
0.9
  1
C
 40
0.125
 41
0.2
  0
MTEXT
  5
243
100
AcDbEntity
  8
0
100
AcDbMText
 62
2
  6
CONTINUOUS
  7
STANDARD
 71
2
 72
1
 10
5.55
 20
0.325
 30
0.0
 11
1.0
 21
0.0
 31
0.0
 44
0.9
  1
1.000
 40
0.125
 41
1.0
  0
MTEXT
  5
244
100
AcDbEntity
  8
0
100
AcDbMText
 62
2
  6
CONTINUOUS
  7
STANDARD
 71
2
 72
1
 10
4.65
 20
0.325
 30
0.0
 11
1.0
 21
0.0
 31
0.0
 44
0.9
  1
Oct-26-21
 40
0.125
 41
1.8
  0
MTEXT
  5
245
100
AcDbEntity
  8
0
100
AcDbMText
 62
2
  6
CONTINUOUS
  7
STANDARD
 71
2
 72
1
 10
2.05
 20
0.4625
 30
0.0
 11
1.0
 21
0.0
 31
0.0
 44
0.9
  1
T-11A Line mount\P(See Technical Data for Body Features)
 40
0.125
 41
7.6
  0
MTEXT
  5
246
100
AcDbEntity
  8
0
100
AcDbMText
 62
2
  6
CONTINUOUS
  7
STANDARD
 71
1
 72
1
 10
6.45
 20
0.5625
 30
0.0
 11
1.0
 21
0.0
 31
0.0
 44
0.9
  1
SHEET
 40
0.06
 41
0.48
  0
MTEXT
  5
247
100
AcDbEntity
  8
0
100
AcDbMText
 62
2
  6
CONTINUOUS
  7
STANDARD
 71
1
 72
1
 10
5.95
 20
0.5625
 30
0.0
 11
1.0
 21
0.0
 31
0.0
 44
0.9
  1
DWG SIZE
 40
0.06
 41
0.768
  0
MTEXT
  5
248
100
AcDbEntity
  8
0
100
AcDbMText
 62
2
  6
CONTINUOUS
  7
STANDARD
 71
1
 72
1
 10
5.25
 20
0.5625
 30
0.0
 11
1.0
 21
0.0
 31
0.0
 44
0.9
  1
SCALE
 40
0.06
 41
0.48
  0
MTEXT
  5
249
100
AcDbEntity
  8
0
100
AcDbMText
 62
2
  6
CONTINUOUS
  7
STANDARD
 71
1
 72
1
 10
4.15
 20
0.5625
 30
0.0
 11
1.0
 21
0.0
 31
0.0
 44
0.9
  1
DATE
 40
0.06
 41
0.384
  0
MTEXT
  5
24A
100
AcDbEntity
  8
0
100
AcDbMText
 62
2
  6
CONTINUOUS
  7
STANDARD
 71
1
 72
1
 10
0.05
 20
0.5625
 30
0.0
 11
1.0
 21
0.0
 31
0.0
 44
0.9
  1
DESCRIPTION
 40
0.06
 41
1.056
  0
MTEXT
  5
24B
100
AcDbEntity
  8
0
100
AcDbMText
 62
2
  6
CONTINUOUS
  7
STANDARD
 71
2
 72
1
 10
5.45
 20
1.0375
 30
0.0
 11
1.0
 21
0.0
 31
0.0
 44
0.9
  1
ALL DIMENSIONS IN INCH\PVIEWS ARE THIRD ANGLE
 40
0.12
 41
4.224
  0
MTEXT
  5
24C
100
AcDbEntity
  8
0
100
AcDbMText
 62
2
  6
CONTINUOUS
  7
STANDARD
 71
2
 72
1
 10
2.05
 20
0.95
 30
0.0
 11
1.0
 21
0.0
 31
0.0
 44
0.9
  1
W3K
 40
0.125
 41
0.6
  0
MTEXT
  5
24D
100
AcDbEntity
  8
0
100
AcDbMText
 62
2
  6
CONTINUOUS
  7
STANDARD
 71
1
 72
1
 10
0.05
 20
1.1875
 30
0.0
 11
1.0
 21
0.0
 31
0.0
 44
0.9
  1
MODEL
 40
0.06
 41
0.48
  0
ENDBLK
  5
24E
100
AcDbEntity
  8
0
  6
BYBLOCK
 62
0
100
AcDbBlockEnd
  0
BLOCK
  5
24F
100
AcDbEntity
  8
0
100
AcDbBlockBegin
  2
*T2
 70
1
 10
0.0
 20
0.0
  3
*T2
  1

  0
LINE
  5
250
100
AcDbEntity
  8
0
100
AcDbLine
 62
2
  6
CONTINUOUS
 10
0.0
 20
0.0
 11
9.055
 21
0.0
  0
LINE
  5
251
100
AcDbEntity
  8
0
100
AcDbLine
 62
2
  6
CONTINUOUS
 10
0.0
 20
0.0
 11
0.0
 21
-2.844
  0
LINE
  5
252
100
AcDbEntity
  8
0
100
AcDbLine
 62
2
  6
CONTINUOUS
 10
0.0
 20
-0.344
 11
9.055
 21
-0.344
  0
LINE
  5
253
100
AcDbEntity
  8
0
100
AcDbLine
 62
2
  6
CONTINUOUS
 10
0.0
 20
-0.594
 11
9.055
 21
-0.594
  0
LINE
  5
254
100
AcDbEntity
  8
0
100
AcDbLine
 62
2
  6
CONTINUOUS
 10
0.0
 20
-0.844
 11
9.055
 21
-0.844
  0
LINE
  5
255
100
AcDbEntity
  8
0
100
AcDbLine
 62
2
  6
CONTINUOUS
 10
0.0
 20
-1.094
 11
9.055
 21
-1.094
  0
LINE
  5
256
100
AcDbEntity
  8
0
100
AcDbLine
 62
2
  6
CONTINUOUS
 10
0.0
 20
-1.344
 11
9.055
 21
-1.344
  0
LINE
  5
257
100
AcDbEntity
  8
0
100
AcDbLine
 62
2
  6
CONTINUOUS
 10
0.0
 20
-1.594
 11
9.055
 21
-1.594
  0
LINE
  5
258
100
AcDbEntity
  8
0
100
AcDbLine
 62
2
  6
CONTINUOUS
 10
0.0
 20
-1.844
 11
9.055
 21
-1.844
  0
LINE
  5
259
100
AcDbEntity
  8
0
100
AcDbLine
 62
2
  6
CONTINUOUS
 10
0.0
 20
-2.094
 11
9.055
 21
-2.094
  0
LINE
  5
25A
100
AcDbEntity
  8
0
100
AcDbLine
 62
2
  6
CONTINUOUS
 10
0.0
 20
-2.344
 11
9.055
 21
-2.344
  0
LINE
  5
25B
100
AcDbEntity
  8
0
100
AcDbLine
 62
2
  6
CONTINUOUS
 10
0.0
 20
-2.594
 11
9.055
 21
-2.594
  0
LINE
  5
25C
100
AcDbEntity
  8
0
100
AcDbLine
 62
2
  6
CONTINUOUS
 10
0.0
 20
-2.844
 11
9.055
 21
-2.844
  0
LINE
  5
25D
100
AcDbEntity
  8
0
100
AcDbLine
 62
2
  6
CONTINUOUS
 10
3.055
 20
0.0
 11
3.055
 21
-2.844
  0
LINE
  5
25E
100
AcDbEntity
  8
0
100
AcDbLine
 62
2
  6
CONTINUOUS
 10
9.055
 20
0.0
 11
9.055
 21
-2.844
  0
MTEXT
  5
25F
100
AcDbEntity
  8
0
100
AcDbMText
 62
2
  6
CONTINUOUS
  7
STANDARD
 71
2
 72
1
 10
1.5275
 20
-0.0995
 30
0.0
 11
1.0
 21
0.0
 31
0.0
 44
0.9
  1
Technical Data
 40
0.145
 41
3.248
  0
MTEXT
  5
260
100
AcDbEntity
  8
0
100
AcDbMText
 62
2
  6
CONTINUOUS
  7
STANDARD
 71
2
 72
1
 10
4.555
 20
-0.0995
 30
0.0
 11
1.0
 21
0.0
 31
0.0
 44
0.9
  1
U.S. Units
 40
0.145
 41
2.32
  0
MTEXT
  5
261
100
AcDbEntity
  8
0
100
AcDbMText
 62
2
  6
CONTINUOUS
  7
STANDARD
 71
2
 72
1
 10
7.555
 20
-0.0995
 30
0.0
 11
1.0
 21
0.0
 31
0.0
 44
0.9
  1
Metric Units
 40
0.145
 41
2.784
  0
MTEXT
  5
262
100
AcDbEntity
  8
0
100
AcDbMText
 62
2
  6
CONTINUOUS
  7
STANDARD
 71
2
 72
1
 10
1.5275
 20
-0.4065
 30
0.0
 11
1.0
 21
0.0
 31
0.0
 44
0.9
  1
Cavity
 40
0.125
 41
1.2
  0
MTEXT
  5
263
100
AcDbEntity
  8
0
100
AcDbMText
 62
2
  6
CONTINUOUS
  7
STANDARD
 71
2
 72
1
 10
6.055
 20
-0.4065
 30
0.0
 11
1.0
 21
0.0
 31
0.0
 44
0.9
  1
T-11A
 40
0.125
 41
1.0
  0
MTEXT
  5
264
100
AcDbEntity
  8
0
100
AcDbMText
 62
2
  6
CONTINUOUS
  7
STANDARD
 71
2
 72
1
 10
1.5275
 20
-0.6565
 30
0.0
 11
1.0
 21
0.0
 31
0.0
 44
0.9
  1
Body Features
 40
0.125
 41
2.6
  0
MTEXT
  5
265
100
AcDbEntity
  8
0
100
AcDbMText
 62
2
  6
CONTINUOUS
  7
STANDARD
 71
2
 72
1
 10
6.055
 20
-0.6565
 30
0.0
 11
1.0
 21
0.0
 31
0.0
 44
0.9
  1
Ninety degree with reverse flow check - reducing
 40
0.125
 41
9.6
  0
MTEXT
  5
266
100
AcDbEntity
  8
0
100
AcDbMText
 62
2
  6
CONTINUOUS
  7
STANDARD
 71
2
 72
1
 10
1.5275
 20
-0.9065
 30
0.0
 11
1.0
 21
0.0
 31
0.0
 44
0.9
  1
Body Type
 40
0.125
 41
1.8
  0
MTEXT
  5
267
100
AcDbEntity
  8
0
100
AcDbMText
 62
2
  6
CONTINUOUS
  7
STANDARD
 71
2
 72
1
 10
6.055
 20
-0.9065
 30
0.0
 11
1.0
 21
0.0
 31
0.0
 44
0.9
  1
Line mount
 40
0.125
 41
2.0
  0
MTEXT
  5
268
100
AcDbEntity
  8
0
100
AcDbMText
 62
2
  6
CONTINUOUS
  7
STANDARD
 71
2
 72
1
 10
1.5275
 20
-1.1565
 30
0.0
 11
1.0
 21
0.0
 31
0.0
 44
0.9
  1
Interface
 40
0.125
 41
1.8
  0
MTEXT
  5
269
100
AcDbEntity
  8
0
100
AcDbMText
 62
2
  6
CONTINUOUS
  7
STANDARD
 71
2
 72
1
 10
6.055
 20
-1.1565
 30
0.0
 11
1.0
 21
0.0
 31
0.0
 44
0.9
  1
None
 40
0.125
 41
0.8
  0
MTEXT
  5
26A
100
AcDbEntity
  8
0
100
AcDbMText
 62
2
  6
CONTINUOUS
  7
STANDARD
 71
2
 72
1
 10
1.5275
 20
-1.4065
 30
0.0
 11
1.0
 21
0.0
 31
0.0
 44
0.9
  1
Open Cavity Quantity
 40
0.125
 41
4.0
  0
MTEXT
  5
26B
100
AcDbEntity
  8
0
100
AcDbMText
 62
2
  6
CONTINUOUS
  7
STANDARD
 71
2
 72
1
 10
6.055
 20
-1.4065
 30
0.0
 11
1.0
 21
0.0
 31
0.0
 44
0.9
  1
1
 40
0.125
 41
0.2
  0
MTEXT
  5
26C
100
AcDbEntity
  8
0
100
AcDbMText
 62
2
  6
CONTINUOUS
  7
STANDARD
 71
2
 72
1
 10
1.5275
 20
-1.6565
 30
0.0
 11
1.0
 21
0.0
 31
0.0
 44
0.9
  1
Weight
 40
0.125
 41
1.2
  0
MTEXT
  5
26D
100
AcDbEntity
  8
0
100
AcDbMText
 62
2
  6
CONTINUOUS
  7
STANDARD
 71
2
 72
1
 10
4.555
 20
-1.6565
 30
0.0
 11
1.0
 21
0.0
 31
0.0
 44
0.9
  1
1.171 lb.
 40
0.125
 41
1.8
  0
MTEXT
  5
26E
100
AcDbEntity
  8
0
100
AcDbMText
 62
2
  6
CONTINUOUS
  7
STANDARD
 71
2
 72
1
 10
7.555
 20
-1.6565
 30
0.0
 11
1.0
 21
0.0
 31
0.0
 44
0.9
  1
0,531 kg.
 40
0.125
 41
1.8
  0
MTEXT
  5
26F
100
AcDbEntity
  8
0
100
AcDbMText
 62
2
  6
CONTINUOUS
  7
STANDARD
 71
2
 72
1
 10
1.5275
 20
-1.9065
 30
0.0
 11
1.0
 21
0.0
 31
0.0
 44
0.9
  1
Mounting Hole Diameter
 40
0.125
 41
4.4
  0
MTEXT
  5
270
100
AcDbEntity
  8
0
100
AcDbMText
 62
2
  6
CONTINUOUS
  7
STANDARD
 71
2
 72
1
 10
4.555
 20
-1.9065
 30
0.0
 11
1.0
 21
0.0
 31
0.0
 44
0.9
  1
.34 in.
 40
0.125
 41
1.4
  0
MTEXT
  5
271
100
AcDbEntity
  8
0
100
AcDbMText
 62
2
  6
CONTINUOUS
  7
STANDARD
 71
2
 72
1
 10
7.555
 20
-1.9065
 30
0.0
 11
1.0
 21
0.0
 31
0.0
 44
0.9
  1
8.6 mm
 40
0.125
 41
1.2
  0
MTEXT
  5
272
100
AcDbEntity
  8
0
100
AcDbMText
 62
2
  6
CONTINUOUS
  7
STANDARD
 71
2
 72
1
 10
1.5275
 20
-2.1565
 30
0.0
 11
1.0
 21
0.0
 31
0.0
 44
0.9
  1
Mounting Hole Depth
 40
0.125
 41
3.8
  0
MTEXT
  5
273
100
AcDbEntity
  8
0
100
AcDbMText
 62
2
  6
CONTINUOUS
  7
STANDARD
 71
2
 72
1
 10
6.055
 20
-2.1565
 30
0.0
 11
1.0
 21
0.0
 31
0.0
 44
0.9
  1
Through
 40
0.125
 41
1.4
  0
MTEXT
  5
274
100
AcDbEntity
  8
0
100
AcDbMText
 62
2
  6
CONTINUOUS
  7
STANDARD
 71
2
 72
1
 10
1.5275
 20
-2.4065
 30
0.0
 11
1.0
 21
0.0
 31
0.0
 44
0.9
  1
Mounting Hole Quantity
 40
0.125
 41
4.4
  0
MTEXT
  5
275
100
AcDbEntity
  8
0
100
AcDbMText
 62
2
  6
CONTINUOUS
  7
STANDARD
 71
2
 72
1
 10
6.055
 20
-2.4065
 30
0.0
 11
1.0
 21
0.0
 31
0.0
 44
0.9
  1
2
 40
0.125
 41
0.2
  0
MTEXT
  5
276
100
AcDbEntity
  8
0
100
AcDbMText
 62
2
  6
CONTINUOUS
  7
STANDARD
 71
2
 72
1
 10
1.5275
 20
-2.6565
 30
0.0
 11
1.0
 21
0.0
 31
0.0
 44
0.9
  1
Includes integral cartridge(s)
 40
0.125
 41
6.0
  0
MTEXT
  5
277
100
AcDbEntity
  8
0
100
AcDbMText
 62
2
  6
CONTINUOUS
  7
STANDARD
 71
2
 72
1
 10
6.055
 20
-2.6565
 30
0.0
 11
1.0
 21
0.0
 31
0.0
 44
0.9
  1
Yes (see Included Components)
 40
0.125
 41
5.8
  0
ENDBLK
  5
278
100
AcDbEntity
  8
0
  6
BYBLOCK
 62
0
100
AcDbBlockEnd
  0
BLOCK
  5
279
100
AcDbEntity
  8
0
100
AcDbBlockBegin
  2
*T3
 70
1
 10
0.0
 20
0.0
  3
*T3
  1

  0
LINE
  5
27A
100
AcDbEntity
  8
0
100
AcDbLine
 62
2
  6
CONTINUOUS
 10
0.0
 20
0.0
 11
4.6
 21
0.0
  0
LINE
  5
27B
100
AcDbEntity
  8
0
100
AcDbLine
 62
2
  6
CONTINUOUS
 10
0.0
 20
0.0
 11
0.0
 21
-1.43775
  0
LINE
  5
27C
100
AcDbEntity
  8
0
100
AcDbLine
 62
2
  6
CONTINUOUS
 10
0.0
 20
-0.34375
 11
4.6
 21
-0.34375
  0
LINE
  5
27D
100
AcDbEntity
  8
0
100
AcDbLine
 62
2
  6
CONTINUOUS
 10
0.0
 20
-0.68775
 11
4.6
 21
-0.68775
  0
LINE
  5
27E
100
AcDbEntity
  8
0
100
AcDbLine
 62
2
  6
CONTINUOUS
 10
0.0
 20
-0.93775
 11
4.6
 21
-0.93775
  0
LINE
  5
27F
100
AcDbEntity
  8
0
100
AcDbLine
 62
2
  6
CONTINUOUS
 10
0.0
 20
-1.18775
 11
4.6
 21
-1.18775
  0
LINE
  5
280
100
AcDbEntity
  8
0
100
AcDbLine
 62
2
  6
CONTINUOUS
 10
0.0
 20
-1.43775
 11
4.6
 21
-1.43775
  0
LINE
  5
281
100
AcDbEntity
  8
0
100
AcDbLine
 62
2
  6
CONTINUOUS
 10
1.3
 20
-0.34375
 11
1.3
 21
-1.43775
  0
LINE
  5
282
100
AcDbEntity
  8
0
100
AcDbLine
 62
2
  6
CONTINUOUS
 10
3.3
 20
-0.34375
 11
3.3
 21
-1.43775
  0
LINE
  5
283
100
AcDbEntity
  8
0
100
AcDbLine
 62
2
  6
CONTINUOUS
 10
4.6
 20
0.0
 11
4.6
 21
-1.43775
  0
MTEXT
  5
284
100
AcDbEntity
  8
0
100
AcDbMText
 62
2
  6
CONTINUOUS
  7
STANDARD
 71
2
 72
1
 10
2.3
 20
-0.099375
 30
0.0
 11
1.0
 21
0.0
 31
0.0
 44
0.9
  1
Port Headings
 40
0.145
 41
3.016
  0
MTEXT
  5
285
100
AcDbEntity
  8
0
100
AcDbMText
 62
2
  6
CONTINUOUS
  7
STANDARD
 71
2
 72
1
 10
0.65
 20
-0.44325
 30
0.0
 11
1.0
 21
0.0
 31
0.0
 44
0.9
  1
Product
 40
0.145
 41
1.624
  0
MTEXT
  5
286
100
AcDbEntity
  8
0
100
AcDbMText
 62
2
  6
CONTINUOUS
  7
STANDARD
 71
2
 72
1
 10
2.3
 20
-0.44325
 30
0.0
 11
1.0
 21
0.0
 31
0.0
 44
0.9
  1
Port
 40
0.145
 41
0.928
  0
MTEXT
  5
287
100
AcDbEntity
  8
0
100
AcDbMText
 62
2
  6
CONTINUOUS
  7
STANDARD
 71
2
 72
1
 10
3.95
 20
-0.44325
 30
0.0
 11
1.0
 21
0.0
 31
0.0
 44
0.9
  1
Size
 40
0.145
 41
0.928
  0
MTEXT
  5
288
100
AcDbEntity
  8
0
100
AcDbMText
 62
2
  6
CONTINUOUS
  7
STANDARD
 71
2
 72
1
 10
0.65
 20
-0.75025
 30
0.0
 11
1.0
 21
0.0
 31
0.0
 44
0.9
  1
W3K
 40
0.125
 41
0.6
  0
MTEXT
  5
289
100
AcDbEntity
  8
0
100
AcDbMText
 62
2
  6
CONTINUOUS
  7
STANDARD
 71
2
 72
1
 10
2.3
 20
-0.75025
 30
0.0
 11
1.0
 21
0.0
 31
0.0
 44
0.9
  1
Ports 1 &  2
 40
0.125
 41
2.4
  0
MTEXT
  5
28A
100
AcDbEntity
  8
0
100
AcDbMText
 62
2
  6
CONTINUOUS
  7
STANDARD
 71
2
 72
1
 10
3.95
 20
-0.75025
 30
0.0
 11
1.0
 21
0.0
 31
0.0
 44
0.9
  1
SAE 10
 40
0.125
 41
1.2
  0
MTEXT
  5
28B
100
AcDbEntity
  8
0
100
AcDbMText
 62
2
  6
CONTINUOUS
  7
STANDARD
 71
2
 72
1
 10
0.65
 20
-1.00025
 30
0.0
 11
1.0
 21
0.0
 31
0.0
 44
0.9
  1
W3K
 40
0.125
 41
0.6
  0
MTEXT
  5
28C
100
AcDbEntity
  8
0
100
AcDbMText
 62
2
  6
CONTINUOUS
  7
STANDARD
 71
2
 72
1
 10
2.3
 20
-1.00025
 30
0.0
 11
1.0
 21
0.0
 31
0.0
 44
0.9
  1
Port 3
 40
0.125
 41
1.2
  0
MTEXT
  5
28D
100
AcDbEntity
  8
0
100
AcDbMText
 62
2
  6
CONTINUOUS
  7
STANDARD
 71
2
 72
1
 10
3.95
 20
-1.00025
 30
0.0
 11
1.0
 21
0.0
 31
0.0
 44
0.9
  1
SAE 8
 40
0.125
 41
1.0
  0
MTEXT
  5
28E
100
AcDbEntity
  8
0
100
AcDbMText
 62
2
  6
CONTINUOUS
  7
STANDARD
 71
2
 72
1
 10
0.65
 20
-1.25025
 30
0.0
 11
1.0
 21
0.0
 31
0.0
 44
0.9
  1
W3K
 40
0.125
 41
0.6
  0
MTEXT
  5
28F
100
AcDbEntity
  8
0
100
AcDbMText
 62
2
  6
CONTINUOUS
  7
STANDARD
 71
2
 72
1
 10
2.3
 20
-1.25025
 30
0.0
 11
1.0
 21
0.0
 31
0.0
 44
0.9
  1
Gage Port
 40
0.125
 41
1.8
  0
MTEXT
  5
290
100
AcDbEntity
  8
0
100
AcDbMText
 62
2
  6
CONTINUOUS
  7
STANDARD
 71
2
 72
1
 10
3.95
 20
-1.25025
 30
0.0
 11
1.0
 21
0.0
 31
0.0
 44
0.9
  1
SAE 4
 40
0.125
 41
1.0
  0
ENDBLK
  5
291
100
AcDbEntity
  8
0
  6
BYBLOCK
 62
0
100
AcDbBlockEnd
  0
ENDSEC
  0
SECTION
  2
ENTITIES
  0
IMAGE
  5
292
100
AcDbEntity
  8
0
100
AcDbRasterImage
 62
7
  6
CONTINUOUS
 10
19.2297077316
 20
0.3094318264
 30
0.0
 11
0.0066666667
 21
0.0
 31
0.0
 12
0.0
 22
0.0066666667
 32
0.0
 13
369.0
 23
92.0
340
       3AF
 70
9
280
0
281
50
282
50
283
0
360
       3A9
 71
1
 91
2
 14
-0.5
 24
-0.5
 14
368.5
 24
91.5
  0
INSERT
  5
293
100
AcDbEntity
  8
0
100
AcDbBlockReference
 62
2
  6
CONTINUOUS
  2
SUN_FIRST_THIRD_ANGLE_BL0
 10
20.4816717061
 20
1.2289683772
  0
ACAD_TABLE
  5
294
100
AcDbEntity
  8
0
 62
2
  6
CONTINUOUS
100
AcDbBlockReference
  2
*T1
 10
12.42375
 20
0.30125
 30
0.0
100
AcDbTable
342
       3B1
343
20F
 11
1.0
 21
0.0
 31
0.0
 90
6
 91
4
 92
6
 93
20
 94
0
 95
0
 96
0
 70
1
 41
0.0
141
0.525
141
0.1
141
0.525
141
0.1
142
4.1
142
1.1
142
0.7
142
0.5
142
0.4
142
2.475
171
1
172
0
173
0
174
0
175
1
176
1
 91
33
178
0
145
0.0
301
CELL_VALUE
 90
4
  1
T-11A Line mount\P(See Technical Data for Body Features)
304
ACVALUE_END
170
2
140
0.125
171
1
172
0
173
0
174
0
175
1
176
1
 91
33
178
0
145
0.0
301
CELL_VALUE
 90
4
  1
Oct-26-21
304
ACVALUE_END
170
5
140
0.125
171
1
172
0
173
0
174
0
175
1
176
1
 91
33
178
0
145
0.0
301
CELL_VALUE
 90
4
  1
1.000
304
ACVALUE_END
170
5
140
0.125
171
1
172
0
173
0
174
0
175
1
176
1
 91
33
178
0
145
0.0
301
CELL_VALUE
 90
4
  1
C
304
ACVALUE_END
170
5
140
0.125
171
1
172
0
173
0
174
0
175
1
176
1
 91
33
178
0
145
0.0
301
CELL_VALUE
 90
4
  1
2
304
ACVALUE_END
170
5
140
0.125
171
1
172
0
173
0
174
0
175
1
176
1
 91
33
178
0
145
0.0
301
CELL_VALUE
 90
4
  1
 
304
ACVALUE_END
170
1
140
0.125
171
1
172
0
173
0
174
0
175
1
176
1
 91
33
178
0
145
0.0
301
CELL_VALUE
 90
4
  1
DESCRIPTION
304
ACVALUE_END
170
1
140
0.06
171
1
172
0
173
0
174
0
175
1
176
1
 91
33
178
0
145
0.0
301
CELL_VALUE
 90
4
  1
DATE
304
ACVALUE_END
170
1
140
0.06
171
1
172
0
173
0
174
0
175
1
176
1
 91
33
178
0
145
0.0
301
CELL_VALUE
 90
4
  1
SCALE
304
ACVALUE_END
170
1
140
0.06
171
1
172
0
173
0
174
0
175
1
176
1
 91
33
178
0
145
0.0
301
CELL_VALUE
 90
4
  1
DWG SIZE
304
ACVALUE_END
170
1
140
0.06
171
1
172
0
173
0
174
0
175
1
176
1
 91
33
178
0
145
0.0
301
CELL_VALUE
 90
4
  1
SHEET
304
ACVALUE_END
170
1
140
0.06
171
1
172
0
173
0
174
0
175
1
176
1
 91
33
178
0
145
0.0
301
CELL_VALUE
 90
4
  1
 
304
ACVALUE_END
170
1
140
0.125
171
1
172
0
173
0
174
0
175
1
176
1
 91
33
178
0
145
0.0
301
CELL_VALUE
 90
4
  1
W3K
304
ACVALUE_END
170
5
140
0.125
171
1
172
0
173
0
174
0
175
4
176
1
 91
33
178
0
145
0.0
301
CELL_VALUE
 90
4
  1
ALL DIMENSIONS IN INCH\PVIEWS ARE THIRD ANGLE
304
ACVALUE_END
170
5
140
0.12
171
1
172
0
173
1
174
0
175
1
176
1
 91
1
178
0
145
0.0
170
1
171
1
172
0
173
1
174
0
175
1
176
1
 91
1
178
0
145
0.0
170
1
171
1
172
0
173
1
174
0
175
1
176
1
 91
1
178
0
145
0.0
170
5
171
1
172
0
173
0
174
0
175
1
176
1
 91
33
178
0
145
0.0
301
CELL_VALUE
 90
4
  1
 
304
ACVALUE_END
170
1
140
0.125
171
1
172
0
173
0
174
0
175
1
176
1
 91
33
178
0
145
0.0
301
CELL_VALUE
 90
4
  1
MODEL
304
ACVALUE_END
170
1
140
0.06
171
1
172
0
173
0
174
0
175
1
176
1
 91
33
178
0
145
0.0
301
CELL_VALUE
 90
4
  1
 
304
ACVALUE_END
170
1
140
0.125
171
1
172
0
173
0
174
0
175
1
176
1
 91
33
178
0
145
0.0
301
CELL_VALUE
 90
4
  1
 
304
ACVALUE_END
170
1
140
0.125
171
1
172
0
173
0
174
0
175
1
176
1
 91
33
178
0
145
0.0
301
CELL_VALUE
 90
4
  1
 
304
ACVALUE_END
170
1
140
0.125
171
1
172
0
173
0
174
0
175
1
176
1
 91
33
178
0
145
0.0
301
CELL_VALUE
 90
4
  1
 
304
ACVALUE_END
170
1
140
0.125
171
1
172
0
173
0
174
0
175
1
176
1
 91
33
178
0
145
0.0
301
CELL_VALUE
 90
4
  1
 
304
ACVALUE_END
170
1
140
0.125
  0
ACAD_TABLE
  5
295
100
AcDbEntity
  8
0
 62
2
  6
CONTINUOUS
100
AcDbBlockReference
  2
*T2
 10
12.4237499994
 20
16.47875
 30
0.0
100
AcDbTable
342
       3B0
343
210
 11
1.0
 21
0.0
 31
0.0
 90
22
 91
11
 92
3
 93
16
 94
0
 95
0
 96
0
 41
0.028
141
0.344
141
0.25
141
0.25
141
0.25
141
0.25
141
0.25
141
0.25
141
0.25
141
0.25
141
0.25
141
0.25
142
3.055
142
3.0
142
3.0
171
1
172
0
173
0
174
0
175
1
176
1
 91
33
178
0
145
0.0
301
CELL_VALUE
 90
4
  1
Technical Data
304
ACVALUE_END
170
5
140
0.145
171
1
172
0
173
0
174
0
175
1
176
1
 91
33
178
0
145
0.0
301
CELL_VALUE
 90
4
  1
U.S. Units
304
ACVALUE_END
170
5
140
0.145
171
1
172
0
173
0
174
0
175
1
176
1
 91
33
178
0
145
0.0
301
CELL_VALUE
 90
4
  1
Metric Units
304
ACVALUE_END
170
5
140
0.145
171
1
172
0
173
0
174
0
175
1
176
1
 91
33
178
0
145
0.0
301
CELL_VALUE
 90
4
  1
Cavity
304
ACVALUE_END
170
5
140
0.125
171
1
172
0
173
0
174
0
175
2
176
1
 91
33
178
0
145
0.0
301
CELL_VALUE
 90
4
  1
T-11A
304
ACVALUE_END
170
5
140
0.125
171
1
172
0
173
1
174
0
175
1
176
1
 91
1
178
0
145
0.0
170
1
171
1
172
0
173
0
174
0
175
1
176
1
 91
33
178
0
145
0.0
301
CELL_VALUE
 90
4
  1
Body Features
304
ACVALUE_END
170
5
140
0.125
171
1
172
0
173
0
174
0
175
2
176
1
 91
33
178
0
145
0.0
301
CELL_VALUE
 90
4
  1
Ninety degree with reverse flow check - reducing
304
ACVALUE_END
170
5
140
0.125
171
1
172
0
173
1
174
0
175
1
176
1
 91
1
178
0
145
0.0
170
1
171
1
172
0
173
0
174
0
175
1
176
1
 91
33
178
0
145
0.0
301
CELL_VALUE
 90
4
  1
Body Type
304
ACVALUE_END
170
5
140
0.125
171
1
172
0
173
0
174
0
175
2
176
1
 91
33
178
0
145
0.0
301
CELL_VALUE
 90
4
  1
Line mount
304
ACVALUE_END
170
5
140
0.125
171
1
172
0
173
1
174
0
175
1
176
1
 91
1
178
0
145
0.0
170
1
171
1
172
0
173
0
174
0
175
1
176
1
 91
33
178
0
145
0.0
301
CELL_VALUE
 90
4
  1
Interface
304
ACVALUE_END
170
5
140
0.125
171
1
172
0
173
0
174
0
175
2
176
1
 91
33
178
0
145
0.0
301
CELL_VALUE
 90
4
  1
None
304
ACVALUE_END
170
5
140
0.125
171
1
172
0
173
1
174
0
175
1
176
1
 91
1
178
0
145
0.0
170
1
171
1
172
0
173
0
174
0
175
1
176
1
 91
33
178
0
145
0.0
301
CELL_VALUE
 90
4
  1
Open Cavity Quantity
304
ACVALUE_END
170
5
140
0.125
171
1
172
0
173
0
174
0
175
2
176
1
 91
33
178
0
145
0.0
301
CELL_VALUE
 90
4
  1
1
304
ACVALUE_END
170
5
140
0.125
171
1
172
0
173
1
174
0
175
1
176
1
 91
1
178
0
145
0.0
170
1
171
1
172
0
173
0
174
0
175
1
176
1
 91
33
178
0
145
0.0
301
CELL_VALUE
 90
4
  1
Weight
304
ACVALUE_END
170
5
140
0.125
171
1
172
0
173
0
174
0
175
1
176
1
 91
33
178
0
145
0.0
301
CELL_VALUE
 90
4
  1
1.171 lb.
304
ACVALUE_END
170
5
140
0.125
171
1
172
0
173
0
174
0
175
1
176
1
 91
33
178
0
145
0.0
301
CELL_VALUE
 90
4
  1
0,531 kg.
304
ACVALUE_END
170
5
140
0.125
171
1
172
0
173
0
174
0
175
1
176
1
 91
33
178
0
145
0.0
301
CELL_VALUE
 90
4
  1
Mounting Hole Diameter
304
ACVALUE_END
170
5
140
0.125
171
1
172
0
173
0
174
0
175
1
176
1
 91
33
178
0
145
0.0
301
CELL_VALUE
 90
4
  1
.34 in.
304
ACVALUE_END
170
5
140
0.125
171
1
172
0
173
0
174
0
175
1
176
1
 91
33
178
0
145
0.0
301
CELL_VALUE
 90
4
  1
8.6 mm
304
ACVALUE_END
170
5
140
0.125
171
1
172
0
173
0
174
0
175
1
176
1
 91
33
178
0
145
0.0
301
CELL_VALUE
 90
4
  1
Mounting Hole Depth
304
ACVALUE_END
170
5
140
0.125
171
1
172
0
173
0
174
0
175
2
176
1
 91
33
178
0
145
0.0
301
CELL_VALUE
 90
4
  1
Through
304
ACVALUE_END
170
5
140
0.125
171
1
172
0
173
1
174
0
175
1
176
1
 91
1
178
0
145
0.0
170
1
171
1
172
0
173
0
174
0
175
1
176
1
 91
33
178
0
145
0.0
301
CELL_VALUE
 90
4
  1
Mounting Hole Quantity
304
ACVALUE_END
170
5
140
0.125
171
1
172
0
173
0
174
0
175
2
176
1
 91
33
178
0
145
0.0
301
CELL_VALUE
 90
4
  1
2
304
ACVALUE_END
170
5
140
0.125
171
1
172
0
173
1
174
0
175
1
176
1
 91
1
178
0
145
0.0
170
1
171
1
172
0
173
0
174
0
175
1
176
1
 91
33
178
0
145
0.0
301
CELL_VALUE
 90
4
  1
Includes integral cartridge(s)
304
ACVALUE_END
170
5
140
0.125
171
1
172
0
173
0
174
0
175
2
176
1
 91
33
178
0
145
0.0
301
CELL_VALUE
 90
4
  1
Yes (see Included Components)
304
ACVALUE_END
170
5
140
0.125
171
1
172
0
173
1
174
0
175
1
176
1
 91
1
178
0
145
0.0
170
1
  0
ACAD_TABLE
  5
296
100
AcDbEntity
  8
0
 62
2
  6
CONTINUOUS
100
AcDbBlockReference
  2
*T3
 10
0.52125
 20
1.959
 30
0.0
100
AcDbTable
342
       3B0
343
211
 11
1.0
 21
0.0
 31
0.0
 90
22
 91
5
 92
3
 93
16
 94
0
 95
0
 96
0
 41
0.05
141
0.34375
141
0.344
141
0.25
141
0.25
141
0.25
142
1.3
142
2.0
142
1.3
171
1
172
0
173
0
174
0
175
3
176
1
 91
33
178
0
145
0.0
301
CELL_VALUE
 90
4
  1
Port Headings
304
ACVALUE_END
170
5
140
0.145
171
1
172
0
173
1
174
0
175
1
176
1
 91
1
178
0
145
0.0
170
1
171
1
172
0
173
1
174
0
175
1
176
1
 91
1
178
0
145
0.0
170
1
171
1
172
0
173
0
174
0
175
1
176
1
 91
33
178
0
145
0.0
301
CELL_VALUE
 90
4
  1
Product
304
ACVALUE_END
170
5
140
0.145
171
1
172
0
173
0
174
0
175
1
176
1
 91
33
178
0
145
0.0
301
CELL_VALUE
 90
4
  1
Port
304
ACVALUE_END
170
5
140
0.145
171
1
172
0
173
0
174
0
175
1
176
1
 91
33
178
0
145
0.0
301
CELL_VALUE
 90
4
  1
Size
304
ACVALUE_END
170
5
140
0.145
171
1
172
0
173
0
174
0
175
1
176
1
 91
33
178
0
145
0.0
301
CELL_VALUE
 90
4
  1
W3K
304
ACVALUE_END
170
5
140
0.125
171
1
172
0
173
0
174
0
175
1
176
1
 91
33
178
0
145
0.0
301
CELL_VALUE
 90
4
  1
Ports 1 &  2
304
ACVALUE_END
170
5
140
0.125
171
1
172
0
173
0
174
0
175
1
176
1
 91
33
178
0
145
0.0
301
CELL_VALUE
 90
4
  1
SAE 10
304
ACVALUE_END
170
5
140
0.125
171
1
172
0
173
0
174
0
175
1
176
1
 91
33
178
0
145
0.0
301
CELL_VALUE
 90
4
  1
W3K
304
ACVALUE_END
170
5
140
0.125
171
1
172
0
173
0
174
0
175
1
176
1
 91
33
178
0
145
0.0
301
CELL_VALUE
 90
4
  1
Port 3
304
ACVALUE_END
170
5
140
0.125
171
1
172
0
173
0
174
0
175
1
176
1
 91
33
178
0
145
0.0
301
CELL_VALUE
 90
4
  1
SAE 8
304
ACVALUE_END
170
5
140
0.125
171
1
172
0
173
0
174
0
175
1
176
1
 91
33
178
0
145
0.0
301
CELL_VALUE
 90
4
  1
W3K
304
ACVALUE_END
170
5
140
0.125
171
1
172
0
173
0
174
0
175
1
176
1
 91
33
178
0
145
0.0
301
CELL_VALUE
 90
4
  1
Gage Port
304
ACVALUE_END
170
5
140
0.125
171
1
172
0
173
0
174
0
175
1
176
1
 91
33
178
0
145
0.0
301
CELL_VALUE
 90
4
  1
SAE 4
304
ACVALUE_END
170
5
140
0.125
  0
MTEXT
  5
297
100
AcDbEntity
  8
0
100
AcDbMText
 62
2
  6
CONTINUOUS
  7
STANDARD
 71
1
 72
1
 10
0.52125
 20
5.75995
 30
0.0
 11
1.0
 21
0.0
 31
0.0
 44
0.6
  3
Notes\P \P1. Important: Carefully consider\P   the maximum system pressure. The\P   pressure rating of the manifold is\P   dependent on the manifold material,\P   with the port type/size a secondary\P   consideration. Manifolds\P   constructed of alu
  1
minum are not\P   rated for pressures higher than\P   3000 psi (210 bar), regardless of\P   the port type/size specified.
 40
0.1
 41
3.04
  0
LINE
  5
298
100
AcDbEntity
  8
0
100
AcDbLine
 62
7
  6
CONTINUOUS
 10
0.30125
 20
0.30125
 11
0.30125
 21
16.69875
  0
LINE
  5
299
100
AcDbEntity
  8
0
100
AcDbLine
 62
7
  6
CONTINUOUS
 10
0.30125
 20
0.30125
 11
21.69875
 21
0.30125
  0
LINE
  5
29A
100
AcDbEntity
  8
0
100
AcDbLine
 62
7
  6
CONTINUOUS
 10
0.30125
 20
16.69875
 11
21.69875
 21
16.69875
  0
LINE
  5
29B
100
AcDbEntity
  8
0
100
AcDbLine
 62
7
  6
CONTINUOUS
 10
21.69875
 20
0.30125
 11
21.69875
 21
16.69875
  0
LINE
  5
29C
100
AcDbEntity
  8
0
100
AcDbLine
 62
7
  6
CONTINUOUS
 10
9.7128729444
 20
10.7425635365
 11
9.389349405
 21
10.4300637758
  0
LINE
  5
29D
100
AcDbEntity
  8
0
100
AcDbLine
 62
4
  6
CONTINUOUS
 10
9.6404901795
 20
9.9538322521
 11
9.6332457355
 21
9.9446753997
  0
LINE
  5
29E
100
AcDbEntity
  8
0
100
AcDbLine
 62
4
  6
CONTINUOUS
 10
9.6477346235
 20
9.8953742965
 11
9.6332457355
 21
9.8770605873
  0
LINE
  5
29F
100
AcDbEntity
  8
0
100
AcDbLine
 62
4
  6
CONTINUOUS
 10
9.5897790718
 20
9.9766675989
 11
9.6042679597
 21
9.9853220474
  0
LINE
  5
2A0
100
AcDbEntity
  8
0
100
AcDbLine
 62
4
  6
CONTINUOUS
 10
9.6332457355
 20
9.9446753997
 11
9.6187568476
 21
9.9360209442
  0
LINE
  5
2A1
100
AcDbEntity
  8
0
100
AcDbLine
 62
4
  6
CONTINUOUS
 10
9.6332457355
 20
9.8770605873
 11
9.6187568476
 21
9.8684061362
  0
LINE
  5
2A2
100
AcDbEntity
  8
0
100
AcDbLine
 62
7
  6
CONTINUOUS
 10
11.2065145113
 20
6.3251270685
 11
11.2228173394
 21
6.3170737835
  0
LINE
  5
2A3
100
AcDbEntity
  8
0
100
AcDbLine
 62
7
  6
CONTINUOUS
 10
9.389349405
 20
6.9285824481
 11
12.2871270556
 21
6.7276208855
  0
LINE
  5
2A4
100
AcDbEntity
  8
0
100
AcDbLine
 62
7
  6
CONTINUOUS
 10
9.389349405
 20
6.9285824481
 11
9.389349405
 21
7.5718785394
  0
LINE
  5
2A5
100
AcDbEntity
  8
0
100
AcDbLine
 62
7
  6
CONTINUOUS
 10
9.389349405
 20
8.0355440927
 11
9.389349405
 21
10.4300637758
  0
LINE
  5
2A6
100
AcDbEntity
  8
0
100
AcDbLine
 62
7
  6
CONTINUOUS
 10
9.420259034
 20
8.0334005026
 11
9.420259034
 21
7.5697349494
  0
LINE
  5
2A7
100
AcDbEntity
  8
0
100
AcDbLine
 62
4
  6
CONTINUOUS
 10
9.6404901795
 20
9.9634915084
 11
9.6404901795
 21
9.9538322521
  0
LINE
  5
2A8
100
AcDbEntity
  8
0
100
AcDbLine
 62
4
  6
CONTINUOUS
 10
9.6404901795
 20
7.9350472079
 11
9.6404901795
 21
7.8191361044
  0
LINE
  5
2A9
100
AcDbEntity
  8
0
100
AcDbLine
 62
4
  6
CONTINUOUS
 10
9.6477346235
 20
9.9050335563
 11
9.6477346235
 21
9.8953742965
  0
LINE
  5
2AA
100
AcDbEntity
  8
0
100
AcDbLine
 62
4
  6
CONTINUOUS
 10
10.2959398651
 20
9.0804402477
 11
10.3124985949
 21
9.095850624
  0
LINE
  5
2AB
100
AcDbEntity
  8
0
100
AcDbLine
 62
4
  6
CONTINUOUS
 10
11.3864011678
 20
7.4179382392
 11
11.3719122798
 21
7.418943047
  0
LINE
  5
2AC
100
AcDbEntity
  8
0
100
AcDbLine
 62
7
  6
CONTINUOUS
 10
9.389349405
 20
7.5718785394
 11
9.420259034
 21
7.5697349494
  0
LINE
  5
2AD
100
AcDbEntity
  8
0
100
AcDbLine
 62
4
  6
CONTINUOUS
 10
11.3791567238
 20
7.4763961948
 11
11.4081344996
 21
7.4743865792
  0
LINE
  5
2AE
100
AcDbEntity
  8
0
100
AcDbLine
 62
4
  6
CONTINUOUS
 10
11.3719122798
 20
7.5348541504
 11
11.3864011678
 21
7.5338493426
  0
LINE
  5
2AF
100
AcDbEntity
  8
0
100
AcDbLine
 62
4
  6
CONTINUOUS
 10
10.3373366887
 20
8.9782169929
 11
10.3538954168
 21
8.993627371
  0
LINE
  5
2B0
100
AcDbEntity
  8
0
100
AcDbLine
 62
4
  6
CONTINUOUS
 10
10.4284097035
 20
8.9719010578
 11
10.4449684247
 21
8.9873114364
  0
LINE
  5
2B1
100
AcDbEntity
  8
0
100
AcDbLine
 62
4
  6
CONTINUOUS
 10
10.2959398651
 20
9.0638815196
 11
10.2959398651
 21
9.0804402477
  0
LINE
  5
2B2
100
AcDbEntity
  8
0
100
AcDbLine
 62
4
  6
CONTINUOUS
 10
10.3538954168
 20
8.993627371
 11
10.3538954168
 21
9.0101861008
  0
LINE
  5
2B3
100
AcDbEntity
  8
0
100
AcDbLine
 62
4
  6
CONTINUOUS
 10
10.387012873
 20
9.0906830412
 11
10.387012873
 21
8.9913306676
  0
LINE
  5
2B4
100
AcDbEntity
  8
0
100
AcDbLine
 62
4
  6
CONTINUOUS
 10
10.4228901335
 20
8.3811372138
 11
10.4228901335
 21
8.4970483173
  0
LINE
  5
2B5
100
AcDbEntity
  8
0
100
AcDbLine
 62
4
  6
CONTINUOUS
 10
10.4449684247
 20
8.9873114364
 11
10.4449684247
 21
9.0866638101
  0
LINE
  5
2B6
100
AcDbEntity
  8
0
100
AcDbLine
 62
4
  6
CONTINUOUS
 10
10.8147800529
 20
9.0196204629
 11
10.8313387741
 21
9.0267514792
  0
LINE
  5
2B7
100
AcDbEntity
  8
0
100
AcDbLine
 62
7
  6
CONTINUOUS
 10
9.389349405
 20
8.0355440927
 11
9.420259034
 21
8.0334005026
  0
LINE
  5
2B8
100
AcDbEntity
  8
0
100
AcDbLine
 62
4
  6
CONTINUOUS
 10
11.3719122798
 20
7.418943047
 11
11.3574233919
 21
7.4296071137
  0
LINE
  5
2B9
100
AcDbEntity
  8
0
100
AcDbLine
 62
4
  6
CONTINUOUS
 10
11.3864011678
 20
7.5338493426
 11
11.4008900557
 21
7.5231852785
  0
LINE
  5
2BA
100
AcDbEntity
  8
0
100
AcDbLine
 62
4
  6
CONTINUOUS
 10
10.4780858808
 20
8.9684560032
 11
10.4780858808
 21
9.0843671067
  0
LINE
  5
2BB
100
AcDbEntity
  8
0
100
AcDbLine
 62
4
  6
CONTINUOUS
 10
10.4808456783
 20
8.4764703585
 11
10.4808456783
 21
8.3936767129
  0
LINE
  5
2BC
100
AcDbEntity
  8
0
100
AcDbLine
 62
4
  6
CONTINUOUS
 10
10.5360414326
 20
8.9644367721
 11
10.5360414326
 21
9.0803478755
  0
LINE
  5
2BD
100
AcDbEntity
  8
0
100
AcDbLine
 62
4
  6
CONTINUOUS
 10
10.5277620779
 20
8.3738643198
 11
10.5608795341
 21
8.4874787198
  0
LINE
  5
2BE
100
AcDbEntity
  8
0
100
AcDbLine
 62
4
  6
CONTINUOUS
 10
10.7595842788
 20
8.9213361412
 11
10.7927017212
 21
9.0294309679
  0
LINE
  5
2BF
100
AcDbEntity
  8
0
100
AcDbLine
 62
7
  6
CONTINUOUS
 10
12.2871270556
 20
10.2291022132
 11
12.610650595
 21
10.5416019738
  0
LINE
  5
2C0
100
AcDbEntity
  8
0
100
AcDbLine
 62
4
  6
CONTINUOUS
 10
10.9720879869
 20
8.9673143004
 11
10.988646708
 21
8.9744453133
  0
LINE
  5
2C1
100
AcDbEntity
  8
0
100
AcDbLine
 62
4
  6
CONTINUOUS
 10
10.3566552143
 20
8.4354068087
 11
10.4008118259
 21
8.4102662315
  0
LINE
  5
2C2
100
AcDbEntity
  8
0
100
AcDbLine
 62
4
  6
CONTINUOUS
 10
10.4642869502
 20
8.4941774383
 11
10.4808456783
 21
8.4764703585
  0
LINE
  5
2C3
100
AcDbEntity
  8
0
100
AcDbLine
 62
4
  6
CONTINUOUS
 10
9.5897790718
 20
9.8800750107
 11
9.5825346278
 21
9.8902366735
  0
LINE
  5
2C4
100
AcDbEntity
  8
0
100
AcDbLine
 62
4
  6
CONTINUOUS
 10
10.5608795341
 20
8.4874787198
 11
10.593997004
 21
8.369270912
  0
LINE
  5
2C5
100
AcDbEntity
  8
0
100
AcDbLine
 62
4
  6
CONTINUOUS
 10
10.6602318966
 20
8.9558241341
 11
10.6602318966
 21
9.0717352376
  0
LINE
  5
2C6
100
AcDbEntity
  8
0
100
AcDbLine
 62
4
  6
CONTINUOUS
 10
10.6602319163
 20
8.3646775053
 11
10.6602319163
 21
8.4805886087
  0
LINE
  5
2C7
100
AcDbEntity
  8
0
100
AcDbLine
 62
4
  6
CONTINUOUS
 10
10.7099080877
 20
9.0268933584
 11
10.7099080877
 21
8.9523790786
  0
LINE
  5
2C8
100
AcDbEntity
  8
0
100
AcDbLine
 62
4
  6
CONTINUOUS
 10
10.7264668286
 20
8.3600840985
 11
10.7264668286
 21
8.4759952019
  0
LINE
  5
2C9
100
AcDbEntity
  8
0
100
AcDbLine
 62
4
  6
CONTINUOUS
 10
10.8147800529
 20
8.953385548
 11
10.8147800529
 21
9.0196204629
  0
LINE
  5
2CA
100
AcDbEntity
  8
0
100
AcDbLine
 62
4
  6
CONTINUOUS
 10
10.7637239886
 20
8.6125047332
 11
10.7885620842
 21
8.7266933089
  0
LINE
  5
2CB
100
AcDbEntity
  8
0
100
AcDbLine
 62
4
  6
CONTINUOUS
 10
10.7140478027
 20
8.6159497884
 11
10.7388858965
 21
8.6970209081
  0
LINE
  5
2CC
100
AcDbEntity
  8
0
100
AcDbLine
 62
4
  6
CONTINUOUS
 10
10.4808456783
 20
8.3936767129
 11
10.4642869502
 21
8.3782663348
  0
LINE
  5
2CD
100
AcDbEntity
  8
0
100
AcDbLine
 62
4
  6
CONTINUOUS
 10
11.2563461349
 20
8.9889977511
 11
11.2646254678
 21
8.9967029449
  0
LINE
  5
2CE
100
AcDbEntity
  8
0
100
AcDbLine
 62
4
  6
CONTINUOUS
 10
10.879635099
 20
8.6707011896
 11
10.8934340287
 21
8.6780235912
  0
LINE
  5
2CF
100
AcDbEntity
  8
0
100
AcDbLine
 62
4
  6
CONTINUOUS
 10
10.4008118259
 20
8.4544228449
 11
10.3566552143
 21
8.4354068087
  0
LINE
  5
2D0
100
AcDbEntity
  8
0
100
AcDbLine
 62
4
  6
CONTINUOUS
 10
10.2959398651
 20
8.9893672372
 11
10.30421923
 21
8.9805136964
  0
LINE
  5
2D1
100
AcDbEntity
  8
0
100
AcDbLine
 62
4
  6
CONTINUOUS
 10
10.9168922326
 20
8.3468780519
 11
10.9003335114
 21
8.3645851329
  0
LINE
  5
2D2
100
AcDbEntity
  8
0
100
AcDbLine
 62
4
  6
CONTINUOUS
 10
11.3574233919
 20
7.4296071137
 11
11.342934504
 21
7.4499304384
  0
LINE
  5
2D3
100
AcDbEntity
  8
0
100
AcDbLine
 62
4
  6
CONTINUOUS
 10
9.6332457355
 20
9.9253568801
 11
9.6477346235
 21
9.9050335563
  0
LINE
  5
2D4
100
AcDbEntity
  8
0
100
AcDbLine
 62
4
  6
CONTINUOUS
 10
9.6332457355
 20
9.9736531755
 11
9.6404901795
 21
9.9634915084
  0
LINE
  5
2D5
100
AcDbEntity
  8
0
100
AcDbLine
 62
4
  6
CONTINUOUS
 10
11.4008900557
 20
7.5231852785
 11
11.4081344996
 21
7.5130236114
  0
LINE
  5
2D6
100
AcDbEntity
  8
0
100
AcDbLine
 62
4
  6
CONTINUOUS
 10
10.4780858808
 20
9.0843671067
 11
10.5360414326
 21
8.9644367721
  0
LINE
  5
2D7
100
AcDbEntity
  8
0
100
AcDbLine
 62
4
  6
CONTINUOUS
 10
10.7388858965
 20
8.6970209081
 11
10.7637239886
 21
8.6125047332
  0
LINE
  5
2D8
100
AcDbEntity
  8
0
100
AcDbLine
 62
4
  6
CONTINUOUS
 10
10.6892097089
 20
8.7335834195
 11
10.7140478027
 21
8.6159497884
  0
LINE
  5
2D9
100
AcDbEntity
  8
0
100
AcDbLine
 62
4
  6
CONTINUOUS
 10
10.8644562164
 20
9.0575722329
 11
10.8644562164
 21
8.9416611295
  0
LINE
  5
2DA
100
AcDbEntity
  8
0
100
AcDbLine
 62
4
  6
CONTINUOUS
 10
10.8934340287
 20
8.6780235912
 11
10.8934340287
 21
8.7028616868
  0
LINE
  5
2DB
100
AcDbEntity
  8
0
100
AcDbLine
 62
4
  6
CONTINUOUS
 10
10.8961938201
 20
8.6115972841
 11
10.8961938201
 21
8.6529941069
  0
LINE
  5
2DC
100
AcDbEntity
  8
0
100
AcDbLine
 62
4
  6
CONTINUOUS
 10
10.897573714
 20
8.9393644232
 11
10.897573714
 21
9.0221580705
  0
LINE
  5
2DD
100
AcDbEntity
  8
0
100
AcDbLine
 62
4
  6
CONTINUOUS
 10
10.9003335114
 20
8.3645851329
 11
10.9003335114
 21
8.4473787785
  0
LINE
  5
2DE
100
AcDbEntity
  8
0
100
AcDbLine
 62
4
  6
CONTINUOUS
 10
10.9293112763
 20
8.6010212158
 11
10.9293112763
 21
8.7169323193
  0
LINE
  5
2DF
100
AcDbEntity
  8
0
100
AcDbLine
 62
4
  6
CONTINUOUS
 10
10.9362107116
 20
9.0111992181
 11
10.9362107116
 21
8.99464049
  0
LINE
  5
2E0
100
AcDbEntity
  8
0
100
AcDbLine
 62
4
  6
CONTINUOUS
 10
10.9720879869
 20
8.9424762057
 11
10.9720879869
 21
8.9673143004
  0
LINE
  5
2E1
100
AcDbEntity
  8
0
100
AcDbLine
 62
4
  6
CONTINUOUS
 10
10.9969260608
 20
8.3578864169
 11
10.9969260608
 21
8.4406800624
  0
LINE
  5
2E2
100
AcDbEntity
  8
0
100
AcDbLine
 62
4
  6
CONTINUOUS
 10
11.0217641504
 20
8.9307517872
 11
11.0217641504
 21
8.9969867064
  0
LINE
  5
2E3
100
AcDbEntity
  8
0
100
AcDbLine
 62
4
  6
CONTINUOUS
 10
10.9293112763
 20
8.6396582515
 11
10.987266828
 21
8.7129130881
  0
LINE
  5
2E4
100
AcDbEntity
  8
0
100
AcDbLine
 62
4
  6
CONTINUOUS
 10
10.8879144596
 20
8.6038920948
 11
10.8961938201
 21
8.6115972841
  0
LINE
  5
2E5
100
AcDbEntity
  8
0
100
AcDbLine
 62
4
  6
CONTINUOUS
 10
11.330860463
 20
8.9838301649
 11
11.339139796
 21
8.9915353587
  0
LINE
  5
2E6
100
AcDbEntity
  8
0
100
AcDbLine
 62
4
  6
CONTINUOUS
 10
11.3722572383
 20
8.906445009
 11
11.3805365713
 21
8.9141502002
  0
LINE
  5
2E7
100
AcDbEntity
  8
0
100
AcDbLine
 62
4
  6
CONTINUOUS
 10
10.9003335114
 20
8.4473787785
 11
10.9168922326
 21
8.4627891553
  0
LINE
  5
2E8
100
AcDbEntity
  8
0
100
AcDbLine
 62
4
  6
CONTINUOUS
 10
11.1293958854
 20
8.3321408735
 11
11.0879990548
 21
8.3350117535
  0
LINE
  5
2E9
100
AcDbEntity
  8
0
100
AcDbLine
 62
4
  6
CONTINUOUS
 10
11.0383228913
 20
8.3384568071
 11
11.0134847819
 21
8.3401793358
  0
LINE
  5
2EA
100
AcDbEntity
  8
0
100
AcDbLine
 62
4
  6
CONTINUOUS
 10
10.9500096749
 20
8.3445813495
 11
10.9168922326
 21
8.3468780519
  0
LINE
  5
2EB
100
AcDbEntity
  8
0
100
AcDbLine
 62
4
  6
CONTINUOUS
 10
10.4642869502
 20
8.3782663348
 11
10.4228901335
 21
8.3811372138
  0
LINE
  5
2EC
100
AcDbEntity
  8
0
100
AcDbLine
 62
4
  6
CONTINUOUS
 10
10.7264668286
 20
8.3600840985
 11
10.7761430198
 21
8.3566390429
  0
LINE
  5
2ED
100
AcDbEntity
  8
0
100
AcDbLine
 62
4
  6
CONTINUOUS
 10
11.1928710477
 20
8.3277388561
 11
11.2425472112
 21
8.3242938024
  0
LINE
  5
2EE
100
AcDbEntity
  8
0
100
AcDbLine
 62
4
  6
CONTINUOUS
 10
10.53880123
 20
8.4062162116
 11
10.5829578382
 21
8.4031539404
  0
LINE
  5
2EF
100
AcDbEntity
  8
0
100
AcDbLine
 62
4
  6
CONTINUOUS
 10
11.22598849
 20
8.3916770728
 11
11.1928710477
 21
8.3939737753
  0
LINE
  5
2F0
100
AcDbEntity
  8
0
100
AcDbLine
 62
4
  6
CONTINUOUS
 10
10.7595842986
 20
8.4240223134
 11
10.7264668286
 21
8.4263190177
  0
LINE
  5
2F1
100
AcDbEntity
  8
0
100
AcDbLine
 62
4
  6
CONTINUOUS
 10
10.4228901335
 20
8.4970483173
 11
10.4642869502
 21
8.4941774383
  0
LINE
  5
2F2
100
AcDbEntity
  8
0
100
AcDbLine
 62
4
  6
CONTINUOUS
 10
10.6271144464
 20
8.482885313
 11
10.6933493587
 21
8.4782919063
  0
LINE
  5
2F3
100
AcDbEntity
  8
0
100
AcDbLine
 62
4
  6
CONTINUOUS
 10
10.7264668286
 20
8.4759952019
 11
10.7761430198
 21
8.4725501464
  0
LINE
  5
2F4
100
AcDbEntity
  8
0
100
AcDbLine
 62
4
  6
CONTINUOUS
 10
10.9168922326
 20
8.4627891553
 11
10.9500096749
 21
8.4604924529
  0
LINE
  5
2F5
100
AcDbEntity
  8
0
100
AcDbLine
 62
4
  6
CONTINUOUS
 10
11.0134847819
 20
8.4560904393
 11
11.0383228913
 21
8.4543679105
  0
LINE
  5
2F6
100
AcDbEntity
  8
0
100
AcDbLine
 62
4
  6
CONTINUOUS
 10
11.0879990548
 20
8.4509228569
 11
11.1293958854
 21
8.4480519769
  0
LINE
  5
2F7
100
AcDbEntity
  8
0
100
AcDbLine
 62
4
  6
CONTINUOUS
 10
11.1928710477
 20
8.4436499595
 11
11.2425472112
 21
8.4402049058
  0
LINE
  5
2F8
100
AcDbEntity
  8
0
100
AcDbLine
 62
4
  6
CONTINUOUS
 10
10.3538954168
 20
9.0101861008
 11
10.2959398651
 21
9.0638815196
  0
LINE
  5
2F9
100
AcDbEntity
  8
0
100
AcDbLine
 62
4
  6
CONTINUOUS
 10
10.387012873
 20
8.9913306676
 11
10.403571601
 21
8.9736235861
  0
LINE
  5
2FA
100
AcDbEntity
  8
0
100
AcDbLine
 62
4
  6
CONTINUOUS
 10
11.0134847819
 20
8.3401793358
 11
10.9969260608
 21
8.3578864169
  0
LINE
  5
2FB
100
AcDbEntity
  8
0
100
AcDbLine
 62
4
  6
CONTINUOUS
 10
10.3456160528
 20
9.0935539205
 11
10.3538954168
 21
9.0847003771
  0
LINE
  5
2FC
100
AcDbEntity
  8
0
100
AcDbLine
 62
4
  6
CONTINUOUS
 10
11.0383228913
 20
8.4543679105
 11
11.0548816125
 21
8.4366608312
  0
LINE
  5
2FD
100
AcDbEntity
  8
0
100
AcDbLine
 62
4
  6
CONTINUOUS
 10
10.7430255577
 20
9.0328760215
 11
10.7678636671
 21
8.9483598455
  0
LINE
  5
2FE
100
AcDbEntity
  8
0
100
AcDbLine
 62
4
  6
CONTINUOUS
 10
11.0548815927
 20
9.011248732
 11
11.0548815927
 21
8.9367344497
  0
LINE
  5
2FF
100
AcDbEntity
  8
0
100
AcDbLine
 62
4
  6
CONTINUOUS
 10
11.0548816125
 20
8.4366608312
 11
11.0548816125
 21
8.3538671857
  0
LINE
  5
300
100
AcDbEntity
  8
0
100
AcDbLine
 62
4
  6
CONTINUOUS
 10
11.0879990548
 20
8.3350117535
 11
11.0879990548
 21
8.4509228569
  0
LINE
  5
301
100
AcDbEntity
  8
0
100
AcDbLine
 62
4
  6
CONTINUOUS
 10
11.1045578115
 20
8.9250100273
 11
11.1045578115
 21
9.0078036746
  0
LINE
  5
302
100
AcDbEntity
  8
0
100
AcDbLine
 62
7
  6
CONTINUOUS
 10
11.1245682596
 20
6.8082446118
 11
11.1245682596
 21
6.4269207276
  0
LINE
  5
303
100
AcDbEntity
  8
0
100
AcDbLine
 62
4
  6
CONTINUOUS
 10
11.1376752538
 20
8.9309926898
 11
11.1376752538
 21
9.0386244283
  0
LINE
  5
304
100
AcDbEntity
  8
0
100
AcDbLine
 62
4
  6
CONTINUOUS
 10
11.1459546065
 20
8.4303448977
 11
11.1459546065
 21
8.3475512521
  0
LINE
  5
305
100
AcDbEntity
  8
0
100
AcDbLine
 62
4
  6
CONTINUOUS
 10
11.1928710477
 20
8.3277388561
 11
11.1928710477
 21
8.4436499595
  0
LINE
  5
306
100
AcDbEntity
  8
0
100
AcDbLine
 62
4
  6
CONTINUOUS
 10
11.2149493043
 20
9.0332654547
 11
11.2121895267
 21
9.0251774784
  0
LINE
  5
307
100
AcDbEntity
  8
0
100
AcDbLine
 62
4
  6
CONTINUOUS
 10
10.9969260608
 20
8.4406800624
 11
11.0134847819
 21
8.4560904393
  0
LINE
  5
308
100
AcDbEntity
  8
0
100
AcDbLine
 62
4
  6
CONTINUOUS
 10
11.0548816125
 20
8.3538671857
 11
11.0383228913
 21
8.3384568071
  0
LINE
  5
309
100
AcDbEntity
  8
0
100
AcDbLine
 62
4
  6
CONTINUOUS
 10
11.9804455989
 20
8.8739261775
 11
11.9949344869
 21
8.882580626
  0
LINE
  5
30A
100
AcDbEntity
  8
0
100
AcDbLine
 62
7
  6
CONTINUOUS
 10
12.2871270556
 20
8.4875273157
 11
12.2562174266
 21
8.4896709057
  0
LINE
  5
30B
100
AcDbEntity
  8
0
100
AcDbLine
 62
4
  6
CONTINUOUS
 10
10.846517629
 20
8.6067629748
 11
10.8879144596
 21
8.6038920948
  0
LINE
  5
30C
100
AcDbEntity
  8
0
100
AcDbLine
 62
4
  6
CONTINUOUS
 10
10.879635099
 20
8.6707011896
 11
10.863076364
 21
8.6718495418
  0
LINE
  5
30D
100
AcDbEntity
  8
0
100
AcDbLine
 62
4
  6
CONTINUOUS
 10
11.2756646535
 20
8.3937515952
 11
11.3198212617
 21
8.3686110165
  0
LINE
  5
30E
100
AcDbEntity
  8
0
100
AcDbLine
 62
4
  6
CONTINUOUS
 10
10.8961938201
 20
8.6529941069
 11
10.879635099
 21
8.6707011896
  0
LINE
  5
30F
100
AcDbEntity
  8
0
100
AcDbLine
 62
4
  6
CONTINUOUS
 10
11.1293958854
 20
8.4480519769
 11
11.1459546065
 21
8.4303448977
  0
LINE
  5
310
100
AcDbEntity
  8
0
100
AcDbLine
 62
4
  6
CONTINUOUS
 10
10.7016287271
 20
9.0357469015
 11
10.7099080877
 21
9.0268933584
  0
LINE
  5
311
100
AcDbEntity
  8
0
100
AcDbLine
 62
4
  6
CONTINUOUS
 10
10.8934340287
 20
8.7028616868
 11
10.879635099
 21
8.7203773739
  0
LINE
  5
312
100
AcDbEntity
  8
0
100
AcDbLine
 62
4
  6
CONTINUOUS
 10
10.9541493857
 20
8.6655336063
 11
10.987266828
 21
8.5970019847
  0
LINE
  5
313
100
AcDbEntity
  8
0
100
AcDbLine
 62
4
  6
CONTINUOUS
 10
11.342934504
 20
7.4499304384
 11
11.33569006
 21
7.4794106182
  0
LINE
  5
314
100
AcDbEntity
  8
0
100
AcDbLine
 62
4
  6
CONTINUOUS
 10
11.2121895267
 20
8.9175457425
 11
11.2121895267
 21
9.0003393898
  0
LINE
  5
315
100
AcDbEntity
  8
0
100
AcDbLine
 62
4
  6
CONTINUOUS
 10
11.2121895267
 20
9.0251774784
 11
11.2121895267
 21
9.0334568459
  0
LINE
  5
316
100
AcDbEntity
  8
0
100
AcDbLine
 62
7
  6
CONTINUOUS
 10
11.2376230716
 20
6.7383175774
 11
11.2376230716
 21
6.3177183517
  0
LINE
  5
317
100
AcDbEntity
  8
0
100
AcDbLine
 62
4
  6
CONTINUOUS
 10
11.2563461349
 20
8.9227628362
 11
11.2563461349
 21
8.9889977511
  0
LINE
  5
318
100
AcDbEntity
  8
0
100
AcDbLine
 62
7
  6
CONTINUOUS
 10
11.2795032991
 20
6.7274781907
 11
11.2795032991
 21
6.3068789649
  0
LINE
  5
319
100
AcDbEntity
  8
0
100
AcDbLine
 62
4
  6
CONTINUOUS
 10
11.330860463
 20
8.9589920728
 11
11.330860463
 21
8.9838301649
  0
LINE
  5
31A
100
AcDbEntity
  8
0
100
AcDbLine
 62
4
  6
CONTINUOUS
 10
11.3805365713
 20
8.9141502002
 11
11.3805365713
 21
8.9389882949
  0
LINE
  5
31B
100
AcDbEntity
  8
0
100
AcDbLine
 62
4
  6
CONTINUOUS
 10
11.1459546065
 20
8.3475512521
 11
11.1293958854
 21
8.3321408735
  0
LINE
  5
31C
100
AcDbEntity
  8
0
100
AcDbLine
 62
4
  6
CONTINUOUS
 10
12.0239122627
 20
8.832274715
 11
11.9949344869
 21
8.8149658145
  0
LINE
  5
31D
100
AcDbEntity
  8
0
100
AcDbLine
 62
4
  6
CONTINUOUS
 10
11.3198212617
 20
8.3686110165
 11
11.2756646535
 21
8.3495949818
  0
LINE
  5
31E
100
AcDbEntity
  8
0
100
AcDbLine
 62
4
  6
CONTINUOUS
 10
10.879635099
 20
8.7203773739
 11
10.846517629
 21
8.7226740782
  0
LINE
  5
31F
100
AcDbEntity
  8
0
100
AcDbLine
 62
4
  6
CONTINUOUS
 10
11.973201155
 20
8.7681767343
 11
12.0311567067
 21
8.7641575031
  0
LINE
  5
320
100
AcDbEntity
  8
0
100
AcDbLine
 62
4
  6
CONTINUOUS
 10
10.8313387741
 20
8.9439578319
 11
10.8147800529
 21
8.953385548
  0
LINE
  5
321
100
AcDbEntity
  8
0
100
AcDbLine
 62
4
  6
CONTINUOUS
 10
10.988646708
 20
8.9330484896
 11
10.9720879869
 21
8.9424762057
  0
LINE
  5
322
100
AcDbEntity
  8
0
100
AcDbLine
 62
4
  6
CONTINUOUS
 10
9.6042679597
 20
9.869410944
 11
9.5897790718
 21
9.8800750107
  0
LINE
  5
323
100
AcDbEntity
  8
0
100
AcDbLine
 62
4
  6
CONTINUOUS
 10
9.6187568476
 20
9.9360209442
 11
9.6332457355
 21
9.9253568801
  0
LINE
  5
324
100
AcDbEntity
  8
0
100
AcDbLine
 62
4
  6
CONTINUOUS
 10
9.6187568476
 20
9.9843172396
 11
9.6332457355
 21
9.9736531755
  0
LINE
  5
325
100
AcDbEntity
  8
0
100
AcDbLine
 62
4
  6
CONTINUOUS
 10
11.0548815927
 20
8.9367344497
 11
11.0631609809
 21
8.9278809072
  0
LINE
  5
326
100
AcDbEntity
  8
0
100
AcDbLine
 62
4
  6
CONTINUOUS
 10
10.9306911563
 20
9.0198613681
 11
10.9362107116
 21
9.0111992181
  0
LINE
  5
327
100
AcDbEntity
  8
0
100
AcDbLine
 62
4
  6
CONTINUOUS
 10
11.0217641504
 20
8.9969867064
 11
11.0134848174
 21
9.0141196082
  0
LINE
  5
328
100
AcDbEntity
  8
0
100
AcDbLine
 62
4
  6
CONTINUOUS
 10
11.4081344996
 20
7.4743865792
 11
11.4081344996
 21
7.4357495453
  0
LINE
  5
329
100
AcDbEntity
  8
0
100
AcDbLine
 62
4
  6
CONTINUOUS
 10
11.973201155
 20
8.8647693182
 11
11.9804455989
 21
8.8739261775
  0
LINE
  5
32A
100
AcDbEntity
  8
0
100
AcDbLine
 62
4
  6
CONTINUOUS
 10
10.7430255577
 20
8.9224844924
 11
10.7595842788
 21
8.9213361412
  0
LINE
  5
32B
100
AcDbEntity
  8
0
100
AcDbLine
 62
7
  6
CONTINUOUS
 10
12.610650595
 20
8.8000270763
 11
12.579740966
 21
8.8021706663
  0
LINE
  5
32C
100
AcDbEntity
  8
0
100
AcDbLine
 62
4
  6
CONTINUOUS
 10
11.2977430207
 20
8.9116125875
 11
11.2646254678
 21
8.9139092976
  0
LINE
  5
32D
100
AcDbEntity
  8
0
100
AcDbLine
 62
4
  6
CONTINUOUS
 10
11.1625133632
 20
8.9209907961
 11
11.145954642
 21
8.9221391473
  0
LINE
  5
32E
100
AcDbEntity
  8
0
100
AcDbLine
 62
4
  6
CONTINUOUS
 10
11.0217641504
 20
8.9307517872
 11
10.988646708
 21
8.9330484896
  0
LINE
  5
32F
100
AcDbEntity
  8
0
100
AcDbLine
 62
4
  6
CONTINUOUS
 10
10.8644562164
 20
8.9416611295
 11
10.8313387741
 21
8.9439578319
  0
LINE
  5
330
100
AcDbEntity
  8
0
100
AcDbLine
 62
4
  6
CONTINUOUS
 10
10.30421923
 20
8.9805136964
 11
10.3373366887
 21
8.9782169929
  0
LINE
  5
331
100
AcDbEntity
  8
0
100
AcDbLine
 62
4
  6
CONTINUOUS
 10
10.403571601
 20
8.9736235861
 11
10.4284097035
 21
8.9719010578
  0
LINE
  5
332
100
AcDbEntity
  8
0
100
AcDbLine
 62
4
  6
CONTINUOUS
 10
11.0631609809
 20
8.9278809072
 11
11.1045578115
 21
8.9250100273
  0
LINE
  5
333
100
AcDbEntity
  8
0
100
AcDbLine
 62
4
  6
CONTINUOUS
 10
11.339139796
 20
8.9087417114
 11
11.3722572383
 21
8.906445009
  0
LINE
  5
334
100
AcDbEntity
  8
0
100
AcDbLine
 62
4
  6
CONTINUOUS
 10
11.9949344869
 20
8.882580626
 11
12.0094233748
 21
8.8815758182
  0
LINE
  5
335
100
AcDbEntity
  8
0
100
AcDbLine
 62
4
  6
CONTINUOUS
 10
10.988646708
 20
8.9744453133
 11
11.0217641504
 21
8.9721486108
  0
LINE
  5
336
100
AcDbEntity
  8
0
100
AcDbLine
 62
4
  6
CONTINUOUS
 10
11.0134848174
 20
9.0141196082
 11
10.9720879869
 21
9.0169904881
  0
LINE
  5
337
100
AcDbEntity
  8
0
100
AcDbLine
 62
4
  6
CONTINUOUS
 10
10.6602318966
 20
9.0386177814
 11
10.7016287271
 21
9.0357469015
  0
LINE
  5
338
100
AcDbEntity
  8
0
100
AcDbLine
 62
4
  6
CONTINUOUS
 10
10.8313387741
 20
9.0267514792
 11
10.8644562164
 21
9.0244547767
  0
LINE
  5
339
100
AcDbEntity
  8
0
100
AcDbLine
 62
4
  6
CONTINUOUS
 10
10.897573714
 20
9.0221580705
 11
10.9306911563
 21
9.0198613681
  0
LINE
  5
33A
100
AcDbEntity
  8
0
100
AcDbLine
 62
4
  6
CONTINUOUS
 10
11.2646254678
 20
8.9967029449
 11
11.2977430207
 21
8.9944062348
  0
LINE
  5
33B
100
AcDbEntity
  8
0
100
AcDbLine
 62
4
  6
CONTINUOUS
 10
11.339139796
 20
8.9915353587
 11
11.3722572383
 21
8.9892386563
  0
LINE
  5
33C
100
AcDbEntity
  8
0
100
AcDbLine
 62
7
  6
CONTINUOUS
 10
12.2871270556
 20
8.9511928689
 11
12.2562174266
 21
8.953336459
  0
LINE
  5
33D
100
AcDbEntity
  8
0
100
AcDbLine
 62
4
  6
CONTINUOUS
 10
10.3124985949
 20
9.095850624
 11
10.3456160528
 21
9.0935539205
  0
LINE
  5
33E
100
AcDbEntity
  8
0
100
AcDbLine
 62
4
  6
CONTINUOUS
 10
11.2121895267
 20
9.0334568459
 11
11.2149493043
 21
9.0332654547
  0
LINE
  5
33F
100
AcDbEntity
  8
0
100
AcDbLine
 62
4
  6
CONTINUOUS
 10
11.3722572383
 20
8.9450820446
 11
11.339139796
 21
8.9528983231
  0
LINE
  5
340
100
AcDbEntity
  8
0
100
AcDbLine
 62
4
  6
CONTINUOUS
 10
11.339139796
 20
8.9528983231
 11
11.330860463
 21
8.9589920728
  0
LINE
  5
341
100
AcDbEntity
  8
0
100
AcDbLine
 62
4
  6
CONTINUOUS
 10
11.145954642
 20
8.9221391473
 11
11.1376752538
 21
8.9309926898
  0
LINE
  5
342
100
AcDbEntity
  8
0
100
AcDbLine
 62
4
  6
CONTINUOUS
 10
11.2646254678
 20
8.9139092976
 11
11.2563461349
 21
8.9227628362
  0
LINE
  5
343
100
AcDbEntity
  8
0
100
AcDbLine
 62
4
  6
CONTINUOUS
 10
11.330860463
 20
8.91759525
 11
11.339139796
 21
8.9087417114
  0
LINE
  5
344
100
AcDbEntity
  8
0
100
AcDbLine
 62
7
  6
CONTINUOUS
 10
11.701429278
 20
6.6982175246
 11
11.701429278
 21
6.2776182989
  0
LINE
  5
345
100
AcDbEntity
  8
0
100
AcDbLine
 62
7
  6
CONTINUOUS
 10
11.7586387166
 20
6.7021850197
 11
11.7586387166
 21
6.281585794
  0
LINE
  5
346
100
AcDbEntity
  8
0
100
AcDbLine
 62
4
  6
CONTINUOUS
 10
11.33569006
 20
7.4794106182
 11
11.342934504
 21
7.5078859901
  0
LINE
  5
347
100
AcDbEntity
  8
0
100
AcDbLine
 62
4
  6
CONTINUOUS
 10
11.9949344869
 20
8.8149658145
 11
11.9804455989
 21
8.7966521062
  0
LINE
  5
348
100
AcDbEntity
  8
0
100
AcDbLine
 62
4
  6
CONTINUOUS
 10
12.0311567067
 20
8.8414315744
 11
12.0239122627
 21
8.832274715
  0
LINE
  5
349
100
AcDbEntity
  8
0
100
AcDbLine
 62
4
  6
CONTINUOUS
 10
11.3805365713
 20
8.9389882949
 11
11.3722572383
 21
8.9450820446
  0
LINE
  5
34A
100
AcDbEntity
  8
0
100
AcDbLine
 62
4
  6
CONTINUOUS
 10
11.3722572383
 20
8.9892386563
 11
11.3805365713
 21
8.9803851151
  0
LINE
  5
34B
100
AcDbEntity
  8
0
100
AcDbLine
 62
4
  6
CONTINUOUS
 10
11.9804455989
 20
8.7966521062
 11
11.973201155
 21
8.7681767343
  0
LINE
  5
34C
100
AcDbEntity
  8
0
100
AcDbLine
 62
4
  6
CONTINUOUS
 10
11.342934504
 20
7.5078859901
 11
11.3574233919
 21
7.5261997019
  0
LINE
  5
34D
100
AcDbEntity
  8
0
100
AcDbLine
 62
7
  6
CONTINUOUS
 10
12.610650595
 20
9.2636926295
 11
12.579740966
 21
9.2658362196
  0
LINE
  5
34E
100
AcDbEntity
  8
0
100
AcDbLine
 62
4
  6
CONTINUOUS
 10
12.0094233748
 20
8.8815758182
 11
12.0239122627
 21
8.8709117541
  0
LINE
  5
34F
100
AcDbEntity
  8
0
100
AcDbLine
 62
4
  6
CONTINUOUS
 10
12.0311567067
 20
8.860750087
 11
12.0311567067
 21
8.8414315744
  0
LINE
  5
350
100
AcDbEntity
  8
0
100
AcDbLine
 62
7
  6
CONTINUOUS
 10
12.0675098836
 20
6.7428513881
 11
12.0675098836
 21
6.3615275038
  0
LINE
  5
351
100
AcDbEntity
  8
0
100
AcDbLine
 62
7
  6
CONTINUOUS
 10
12.0828390948
 20
6.7417883037
 11
12.0828390948
 21
6.3763343857
  0
LINE
  5
352
100
AcDbEntity
  8
0
100
AcDbLine
 62
4
  6
CONTINUOUS
 10
11.4081344996
 20
7.4357495453
 11
11.4008900557
 21
7.4265926903
  0
LINE
  5
353
100
AcDbEntity
  8
0
100
AcDbLine
 62
4
  6
CONTINUOUS
 10
11.3574233919
 20
7.5261997019
 11
11.3719122798
 21
7.5348541504
  0
LINE
  5
354
100
AcDbEntity
  8
0
100
AcDbLine
 62
4
  6
CONTINUOUS
 10
11.4008900557
 20
7.4265926903
 11
11.3864011678
 21
7.4179382392
  0
LINE
  5
355
100
AcDbEntity
  8
0
100
AcDbLine
 62
4
  6
CONTINUOUS
 10
12.0239122627
 20
8.8709117541
 11
12.0311567067
 21
8.860750087
  0
LINE
  5
356
100
AcDbEntity
  8
0
100
AcDbLine
 62
7
  6
CONTINUOUS
 10
12.2562174266
 20
8.953336459
 11
12.2562174266
 21
8.4896709057
  0
LINE
  5
357
100
AcDbEntity
  8
0
100
AcDbLine
 62
7
  6
CONTINUOUS
 10
12.2871270556
 20
6.7276208855
 11
12.2871270556
 21
8.4875273157
  0
LINE
  5
358
100
AcDbEntity
  8
0
100
AcDbLine
 62
7
  6
CONTINUOUS
 10
12.2871270556
 20
8.9511928689
 11
12.2871270556
 21
10.2291022132
  0
LINE
  5
359
100
AcDbEntity
  8
0
100
AcDbLine
 62
4
  6
CONTINUOUS
 10
9.6187568476
 20
9.8684061362
 11
9.6042679597
 21
9.869410944
  0
LINE
  5
35A
100
AcDbEntity
  8
0
100
AcDbLine
 62
4
  6
CONTINUOUS
 10
9.6042679597
 20
9.937025752
 11
9.6187568476
 21
9.9360209442
  0
LINE
  5
35B
100
AcDbEntity
  8
0
100
AcDbLine
 62
4
  6
CONTINUOUS
 10
9.6042679597
 20
9.9853220474
 11
9.6187568476
 21
9.9843172396
  0
LINE
  5
35C
100
AcDbEntity
  8
0
100
AcDbLine
 62
7
  6
CONTINUOUS
 10
12.579740966
 20
9.2658362196
 11
12.579740966
 21
8.8021706663
  0
LINE
  5
35D
100
AcDbEntity
  8
0
100
AcDbLine
 62
7
  6
CONTINUOUS
 10
12.610650595
 20
7.0401206461
 11
12.610650595
 21
8.8000270763
  0
LINE
  5
35E
100
AcDbEntity
  8
0
100
AcDbLine
 62
7
  6
CONTINUOUS
 10
12.610650595
 20
9.2636926295
 11
12.610650595
 21
10.5416019738
  0
LINE
  5
35F
100
AcDbEntity
  8
0
100
AcDbLine
 62
7
  6
CONTINUOUS
 10
9.389349405
 20
10.4300637758
 11
12.2871270556
 21
10.2291022132
  0
LINE
  5
360
100
AcDbEntity
  8
0
100
AcDbLine
 62
7
  6
CONTINUOUS
 10
12.2871270556
 20
6.7276208855
 11
12.610650595
 21
7.0401206461
  0
LINE
  5
361
100
AcDbEntity
  8
0
100
AcDbLine
 62
7
  6
CONTINUOUS
 10
12.610650595
 20
10.5416019738
 11
9.7128729444
 21
10.7425635365
  0
LINE
  5
362
100
AcDbEntity
  8
0
100
AcDbLine
 62
7
  6
CONTINUOUS
 10
12.0097556245
 20
6.3295051128
 11
11.984590015
 21
6.3170737835
  0
ARC
  5
363
100
AcDbEntity
  8
0
100
AcDbCircle
 62
7
  6
CONTINUOUS
 10
11.6115059339
 20
8.4093209719
 40
1.7134646816
100
AcDbArc
 50
273.0082884861
 51
274.9259735842
  0
ARC
  5
364
100
AcDbEntity
  8
0
100
AcDbCircle
 62
7
  6
CONTINUOUS
 10
11.6115059339
 20
7.9887217461
 40
1.7134646816
100
AcDbArc
 50
273.0082884861
 51
274.9259735842
  0
ARC
  5
365
100
AcDbEntity
  8
0
100
AcDbCircle
 62
7
  6
CONTINUOUS
 10
11.7472714954
 20
6.860440605
 40
0.5922756118
100
AcDbArc
 50
293.5909107106
 51
296.3039528614
  0
ARC
  5
366
100
AcDbEntity
  8
0
100
AcDbCircle
 62
7
  6
CONTINUOUS
 10
10.8837034041
 20
7.6727354489
 40
0.3599794792
100
AcDbArc
 50
312.1743239476
 51
312.9972533505
  0
ARC
  5
367
100
AcDbEntity
  8
0
100
AcDbCircle
 62
7
  6
CONTINUOUS
 10
10.8093184462
 20
7.7497439
 40
0.3599531131
100
AcDbArc
 50
134.7655441739
 51
135.8380696361
  0
ARC
  5
368
100
AcDbEntity
  8
0
100
AcDbCircle
 62
7
  6
CONTINUOUS
 10
10.8509951793
 20
7.6946813963
 40
0.2321771359
100
AcDbArc
 50
349.3351777911
 51
0.0338753506
  0
ARC
  5
369
100
AcDbEntity
  8
0
100
AcDbCircle
 62
7
  6
CONTINUOUS
 10
10.8610202921
 20
7.7252392836
 40
0.2083837396
100
AcDbArc
 50
45.1255806385
 51
46.090882241
  0
SPLINE
  5
36A
100
AcDbEntity
  8
0
100
AcDbSpline
 62
7
  6
CONTINUOUS
 70
0
 71
3
 72
9
 73
5
 74
0
 42
0.0000001
 43
0.0000001
 44
0.0000000001
 40
0.0
 40
0.0
 40
0.0
 40
0.0
 40
0.4865082157
 40
1.0
 40
1.0
 40
1.0
 40
1.0
 10
12.0760414342
 20
6.3688708219
 30
0.0
 10
12.0747279642
 20
6.3676021072
 30
0.0
 10
12.0719468229
 20
6.3650777023
 30
0.0
 10
12.0690335169
 20
6.3627079979
 30
0.0
 10
12.0675098836
 20
6.3615275038
 30
0.0
  0
SPLINE
  5
36B
100
AcDbEntity
  8
0
100
AcDbSpline
 62
7
  6
CONTINUOUS
 70
0
 71
3
 72
9
 73
5
 74
0
 42
0.0000001
 43
0.0000001
 44
0.0000000001
 40
0.0
 40
0.0
 40
0.0
 40
0.0
 40
0.4864210225
 40
1.0
 40
1.0
 40
1.0
 40
1.0
 10
12.0828390948
 20
6.3763343857
 30
0.0
 10
12.0818253878
 20
6.3750480356
 30
0.0
 10
12.0796388976
 20
6.3724832508
 30
0.0
 10
12.0772851785
 20
6.3700721867
 30
0.0
 10
12.0760414342
 20
6.3688708219
 30
0.0
  0
SPLINE
  5
36C
100
AcDbEntity
  8
0
100
AcDbSpline
 62
7
  6
CONTINUOUS
 70
0
 71
3
 72
9
 73
5
 74
0
 42
0.0000001
 43
0.0000001
 44
0.0000000001
 40
0.0
 40
0.0
 40
0.0
 40
0.0
 40
0.503991706
 40
1.0
 40
1.0
 40
1.0
 40
1.0
 10
12.0675098836
 20
6.3615275038
 30
0.0
 10
12.0580365361
 20
6.3557386286
 30
0.0
 10
12.0390211191
 20
6.3446054483
 30
0.0
 10
12.0195244542
 20
6.3343309348
 30
0.0
 10
12.0097283871
 20
6.3294916617
 30
0.0
  0
SPLINE
  5
36D
100
AcDbEntity
  8
0
100
AcDbSpline
 62
7
  6
CONTINUOUS
 70
0
 71
3
 72
23
 73
19
 74
0
 42
0.0000001
 43
0.0000001
 44
0.0000000001
 40
0.0
 40
0.0
 40
0.0
 40
0.0
 40
0.0439943064
 40
0.0899281819
 40
0.1380403338
 40
0.1885309998
 40
0.2415683448
 40
0.2972701743
 40
0.3557174883
 40
0.4169406608
 40
0.4809367475
 40
0.5476614984
 40
0.617045644
 40
0.688992165
 40
0.7633891149
 40
0.8401121098
 40
0.9190285012
 40
1.0
 40
1.0
 40
1.0
 40
1.0
 10
11.206515405
 20
6.3251266269
 30
0.0
 10
11.2047715237
 20
6.3259880864
 30
0.0
 10
11.201271393
 20
6.3278823931
 30
0.0
 10
11.1961149208
 20
6.3311550678
 30
0.0
 10
11.1909515278
 20
6.3349271652
 30
0.0
 10
11.1857838084
 20
6.3392040315
 30
0.0
 10
11.1806159683
 20
6.3439892678
 30
0.0
 10
11.1754500776
 20
6.3492798771
 30
0.0
 10
11.1702904092
 20
6.3550705141
 30
0.0
 10
11.1651388447
 20
6.3613499503
 30
0.0
 10
11.1599991712
 20
6.3681047078
 30
0.0
 10
11.1548730069
 20
6.3753168728
 30
0.0
 10
11.1497632772
 20
6.3829669071
 30
0.0
 10
11.1446712101
 20
6.3910325911
 30
0.0
 10
11.1395986736
 20
6.3994910486
 30
0.0
 10
11.1345464214
 20
6.408318364
 30
0.0
 10
11.1295153937
 20
6.4174905993
 30
0.0
 10
11.1262163251
 20
6.4237427794
 30
0.0
 10
11.1245682596
 20
6.4269207276
 30
0.0
  0
SPLINE
  5
36E
100
AcDbEntity
  8
0
100
AcDbSpline
 62
7
  6
CONTINUOUS
 70
0
 71
3
 72
46
 73
42
 74
0
 42
0.0000001
 43
0.0000001
 44
0.0000000001
 40
0.0
 40
0.0
 40
0.0
 40
0.0
 40
0.0099874435
 40
0.0204476157
 40
0.0313771114
 40
0.0427707225
 40
0.054621686
 40
0.0669224317
 40
0.0796639566
 40
0.0928360449
 40
0.1204269131
 40
0.1495981875
 40
0.1802403745
 40
0.2122335405
 40
0.2454486791
 40
0.2797494061
 40
0.3149926211
 40
0.3510295021
 40
0.387706851
 40
0.4248677397
 40
0.4623524596
 40
0.499999592
 40
0.537646712
 40
0.5751314595
 40
0.6122923998
 40
0.6489698028
 40
0.6850067986
 40
0.7202500982
 40
0.7545508962
 40
0.7877662248
 40
0.8197595459
 40
0.8504018313
 40
0.8795733387
 40
0.9071643906
 40
0.9330770134
 40
0.9453779539
 40
0.9572290359
 40
0.9686226679
 40
0.9795523026
 40
0.9900125123
 40
1.0
 40
1.0
 40
1.0
 40
1.0
 10
11.9845935448
 20
6.3170755709
 30
0.0
 10
11.9822765659
 20
6.3159310098
 30
0.0
 10
11.9774933731
 20
6.3136671598
 30
0.0
 10
11.9700538708
 20
6.3104135005
 30
0.0
 10
11.9621913311
 20
6.307227043
 30
0.0
 10
11.9539148968
 20
6.3041114836
 30
0.0
 10
11.9452340775
 20
6.3010702178
 30
0.0
 10
11.9361587631
 20
6.2981069844
 30
0.0
 10
11.9266993856
 20
6.2952251118
 30
0.0
 10
11.913382749
 20
6.2914367828
 30
0.0
 10
11.8958493845
 20
6.2869466232
 30
0.0
 10
11.8737751165
 20
6.2820123505
 30
0.0
 10
11.8504544306
 20
6.2774755337
 30
0.0
 10
11.8259948337
 20
6.2733573945
 30
0.0
 10
11.8005089302
 20
6.2696770924
 30
0.0
 10
11.7741142258
 20
6.266451958
 30
0.0
 10
11.7469324796
 20
6.2636971329
 30
0.0
 10
11.719089182
 20
6.2614253426
 30
0.0
 10
11.6907128957
 20
6.259647293
 30
0.0
 10
11.6619346625
 20
6.2583713529
 30
0.0
 10
11.6328874167
 20
6.2576033315
 30
0.0
 10
11.6037053518
 20
6.2573468866
 30
0.0
 10
11.5745232798
 20
6.257603296
 30
0.0
 10
11.545476014
 20
6.2583712137
 30
0.0
 10
11.516697744
 20
6.2596471135
 30
0.0
 10
11.4883213993
 20
6.2614251364
 30
0.0
 10
11.4604780276
 20
6.2636968235
 30
0.0
 10
11.4332962066
 20
6.2664516069
 30
0.0
 10
11.406901409
 20
6.2696767239
 30
0.0
 10
11.3814153879
 20
6.2733569283
 30
0.0
 10
11.3569556485
 20
6.2774750206
 30
0.0
 10
11.3336348986
 20
6.2820118529
 30
0.0
 10
11.311560252
 20
6.2869459729
 30
0.0
 10
11.2908333129
 20
6.2922542855
 30
0.0
 10
11.2744906424
 20
6.2970486475
 30
0.0
 10
11.2621753032
 20
6.3010694894
 30
0.0
 10
11.2534943792
 20
6.3041107721
 30
0.0
 10
11.2452178902
 20
6.307226376
 30
0.0
 10
11.2373552501
 20
6.3104127228
 30
0.0
 10
11.2299156633
 20
6.3136663338
 30
0.0
 10
11.2251324562
 20
6.3159302035
 30
0.0
 10
11.2228154642
 20
6.3170747636
 30
0.0
  0
SPLINE
  5
36F
100
AcDbEntity
  8
0
100
AcDbSpline
 62
7
  6
CONTINUOUS
 70
0
 71
3
 72
9
 73
5
 74
0
 42
0.0000001
 43
0.0000001
 44
0.0000000001
 40
0.0
 40
0.0
 40
0.0
 40
0.0
 40
0.5132482879
 40
1.0
 40
1.0
 40
1.0
 40
1.0
 10
11.2795032991
 20
6.7274781907
 30
0.0
 10
11.2722885177
 20
6.7291318866
 30
0.0
 10
11.2582722734
 20
6.7325357461
 30
0.0
 10
11.2443609716
 20
6.7363484064
 30
0.0
 10
11.2376230716
 20
6.7383175774
 30
0.0
  0
SPLINE
  5
370
100
AcDbEntity
  8
0
100
AcDbSpline
 62
7
  6
CONTINUOUS
 70
0
 71
3
 72
17
 73
13
 74
0
 42
0.0000001
 43
0.0000001
 44
0.0000000001
 40
0.0
 40
0.0
 40
0.0
 40
0.0
 40
0.131593939
 40
0.2633887997
 40
0.3943193775
 40
0.5233296479
 40
0.64938366
 40
0.7714770019
 40
0.8307377895
 40
0.888652
 40
0.9451084391
 40
1.0
 40
1.0
 40
1.0
 40
1.0
 10
11.6509171416
 20
6.771663033
 30
0.0
 10
11.6376837352
 20
6.7712824107
 30
0.0
 10
11.6111863355
 20
6.7708439807
 30
0.0
 10
11.571513701
 20
6.7711407118
 30
0.0
 10
11.532119287
 20
6.7723870274
 30
0.0
 10
11.493344057
 20
6.7745718898
 30
0.0
 10
11.4555234611
 20
6.7776761
 30
0.0
 10
11.4247757681
 20
6.7810385203
 30
0.0
 10
11.4009098147
 20
6.7841823056
 30
0.0
 10
11.3836274525
 20
6.7867274356
 30
0.0
 10
11.3668218134
 20
6.7894775502
 30
0.0
 10
11.3557982106
 20
6.7914728815
 30
0.0
 10
11.3503733628
 20
6.7925058149
 30
0.0
  0
SPLINE
  5
371
100
AcDbEntity
  8
0
100
AcDbSpline
 62
7
  6
CONTINUOUS
 70
0
 71
3
 72
9
 73
5
 74
0
 42
0.0000001
 43
0.0000001
 44
0.0000000001
 40
0.0
 40
0.0
 40
0.0
 40
0.0
 40
0.5132482879
 40
1.0
 40
1.0
 40
1.0
 40
1.0
 10
11.2795032991
 20
6.3068789649
 30
0.0
 10
11.2722885177
 20
6.3085326609
 30
0.0
 10
11.2582722734
 20
6.3119365203
 30
0.0
 10
11.2443609716
 20
6.3157491807
 30
0.0
 10
11.2376230716
 20
6.3177183517
 30
0.0
  0
SPLINE
  5
372
100
AcDbEntity
  8
0
100
AcDbSpline
 62
7
  6
CONTINUOUS
 70
0
 71
3
 72
11
 73
7
 74
0
 42
0.0000001
 43
0.0000001
 44
0.0000000001
 40
0.0
 40
0.0
 40
0.0
 40
0.0
 40
0.2432253995
 40
0.4912799274
 40
0.7437055985
 40
1.0
 40
1.0
 40
1.0
 40
1.0
 10
11.8360239493
 20
6.7590337364
 30
0.0
 10
11.8293071172
 20
6.7550779632
 30
0.0
 10
11.8159788569
 20
6.7466771342
 30
0.0
 10
11.7964969748
 20
6.7329302399
 30
0.0
 10
11.7773259526
 20
6.7180620183
 30
0.0
 10
11.7648389603
 20
6.7075726289
 30
0.0
 10
11.7586387166
 20
6.7021850197
 30
0.0
  0
SPLINE
  5
373
100
AcDbEntity
  8
0
100
AcDbSpline
 62
7
  6
CONTINUOUS
 70
0
 71
3
 72
21
 73
17
 74
0
 42
0.0000001
 43
0.0000001
 44
0.0000000001
 40
0.0
 40
0.0
 40
0.0
 40
0.0
 40
0.1230814817
 40
0.1847942657
 40
0.2466337258
 40
0.3086097846
 40
0.3707312098
 40
0.4330051319
 40
0.4954352436
 40
0.5580223626
 40
0.6207641208
 40
0.6836547008
 40
0.7466862848
 40
0.8098488395
 40
0.8731308835
 40
1.0
 40
1.0
 40
1.0
 40
1.0
 10
11.701429278
 20
6.2776182989
 30
0.0
 10
11.6841766374
 20
6.2743659155
 30
0.0
 10
11.6581454998
 20
6.270115197
 30
0.0
 10
11.6232089096
 20
6.2659478476
 30
0.0
 10
11.596842212
 20
6.2636258012
 30
0.0
 10
11.5703551452
 20
6.2621661011
 30
0.0
 10
11.5437710861
 20
6.2616159593
 30
0.0
 10
11.5171192218
 20
6.2620123909
 30
0.0
 10
11.4904327289
 20
6.2633773786
 30
0.0
 10
11.4637469571
 20
6.2657162021
 30
0.0
 10
11.437097254
 20
6.2690184914
 30
0.0
 10
11.4105165899
 20
6.2732575111
 30
0.0
 10
11.3840337466
 20
6.2783921523
 30
0.0
 10
11.3576718692
 20
6.2843719002
 30
0.0
 10
11.3226811947
 20
6.2934010198
 30
0.0
 10
11.2967027362
 20
6.3012510411
 30
0.0
 10
11.2795032991
 20
6.3068789649
 30
0.0
  0
SPLINE
  5
374
100
AcDbEntity
  8
0
100
AcDbSpline
 62
7
  6
CONTINUOUS
 70
0
 71
3
 72
28
 73
24
 74
0
 42
0.0000001
 43
0.0000001
 44
0.0000000001
 40
0.0
 40
0.0
 40
0.0
 40
0.0
 40
0.0640274484
 40
0.1279405369
 40
0.1917105404
 40
0.2553123355
 40
0.3187161223
 40
0.3818930725
 40
0.4133919091
 40
0.4448254452
 40
0.4761912782
 40
0.5074882562
 40
0.5387156619
 40
0.5698732312
 40
0.6009621492
 40
0.6319833386
 40
0.6938248821
 40
0.7554274775
 40
0.8168179251
 40
0.8780243018
 40
0.9085700262
 40
0.9390802882
 40
1.0
 40
1.0
 40
1.0
 40
1.0
 10
11.701429278
 20
6.6982175246
 30
0.0
 10
11.6931284273
 20
6.7025006483
 30
0.0
 10
11.6763973676
 20
6.7107840356
 30
0.0
 10
11.6508782013
 20
6.722246022
 30
0.0
 10
11.624954423
 20
6.7326002844
 30
0.0
 10
11.5986412479
 20
6.7417023404
 30
0.0
 10
11.5719734182
 20
6.7494058148
 30
0.0
 10
11.5494779861
 20
6.7545500467
 30
0.0
 10
11.531373914
 20
6.7578371021
 30
0.0
 10
11.5177666586
 20
6.7598758288
 30
0.0
 10
11.504131331
 20
6.761482506
 30
0.0
 10
11.4904814799
 20
6.7626495829
 30
0.0
 10
11.4768315465
 20
6.7633767327
 30
0.0
 10
11.4631956391
 20
6.7636622651
 30
0.0
 10
11.4495875897
 20
6.7635117916
 30
0.0
 10
11.4315187653
 20
6.762738516
 30
0.0
 10
11.4090592758
 20
6.7607231122
 30
0.0
 10
11.382378319
 20
6.7567220057
 30
0.0
 10
11.3560519573
 20
6.7512712914
 30
0.0
 10
11.3344234847
 20
6.7456354665
 30
0.0
 10
11.3173278898
 20
6.7405441084
 30
0.0
 10
11.3003873686
 20
6.7350938803
 30
0.0
 10
11.2878185241
 20
6.7306154057
 30
0.0
 10
11.2795032991
 20
6.7274781907
 30
0.0
  0
SPLINE
  5
375
100
AcDbEntity
  8
0
100
AcDbSpline
 62
7
  6
CONTINUOUS
 70
0
 71
3
 72
13
 73
9
 74
0
 42
0.0000001
 43
0.0000001
 44
0.0000000001
 40
0.0
 40
0.0
 40
0.0
 40
0.0
 40
0.2392401476
 40
0.3604630295
 40
0.4832816768
 40
0.6081576999
 40
0.7355839368
 40
1.0
 40
1.0
 40
1.0
 40
1.0
 10
11.2376230716
 20
6.3177183517
 30
0.0
 10
11.2350510601
 20
6.3177275038
 30
0.0
 10
11.2311718337
 20
6.3179463957
 30
0.0
 10
11.2260254741
 20
6.3186752135
 30
0.0
 10
11.2221347149
 20
6.3194569521
 30
0.0
 10
11.2182316966
 20
6.3204816833
 30
0.0
 10
11.2129484779
 20
6.3222058881
 30
0.0
 10
11.2090640815
 20
6.3238676069
 30
0.0
 10
11.206515405
 20
6.3251266269
 30
0.0
  0
SPLINE
  5
376
100
AcDbEntity
  8
0
100
AcDbSpline
 62
7
  6
CONTINUOUS
 70
0
 71
3
 72
14
 73
10
 74
0
 42
0.0000001
 43
0.0000001
 44
0.0000000001
 40
0.0
 40
0.0
 40
0.0
 40
0.0
 40
0.2696294493
 40
0.4000826278
 40
0.5273422312
 40
0.6511852899
 40
0.7713928731
 40
0.8877388029
 40
1.0
 40
1.0
 40
1.0
 40
1.0
 10
11.2376230716
 20
6.7383175774
 30
0.0
 10
11.2353828618
 20
6.7442155809
 30
0.0
 10
11.2319718618
 20
6.7529348182
 30
0.0
 10
11.2272606745
 20
6.7643397509
 30
0.0
 10
11.2237380573
 20
6.7725439083
 30
0.0
 10
11.2201874299
 20
6.7804740638
 30
0.0
 10
11.2166091507
 20
6.78811078
 30
0.0
 10
11.2130041011
 20
6.7954340503
 30
0.0
 10
11.2105379331
 20
6.8001815081
 30
0.0
 10
11.2092980831
 20
6.8024973189
 30
0.0
  0
SPLINE
  5
377
100
AcDbEntity
  8
0
100
AcDbSpline
 62
7
  6
CONTINUOUS
 70
0
 71
3
 72
15
 73
11
 74
0
 42
0.0000001
 43
0.0000001
 44
0.0000000001
 40
0.0
 40
0.0
 40
0.0
 40
0.0
 40
0.1319943798
 40
0.2615530082
 40
0.3887795478
 40
0.5138991626
 40
0.6372282088
 40
0.759125931
 40
0.8799459217
 40
1.0
 40
1.0
 40
1.0
 40
1.0
 10
11.9843023616
 20
6.3176636997
 30
0.0
 10
11.9749803544
 20
6.3136014175
 30
0.0
 10
11.9562794724
 20
6.3060622345
 30
0.0
 10
11.9278409127
 20
6.2966007939
 30
0.0
 10
11.8993449249
 20
6.2891874183
 30
0.0
 10
11.8708764255
 20
6.283848544
 30
0.0
 10
11.8425164758
 20
6.2805336715
 30
0.0
 10
11.8143322091
 20
6.2791257434
 30
0.0
 10
11.7863710472
 20
6.2794610795
 30
0.0
 10
11.7678474202
 20
6.2807254085
 30
0.0
 10
11.7586387166
 20
6.281585794
 30
0.0
  0
SPLINE
  5
378
100
AcDbEntity
  8
0
100
AcDbSpline
 62
7
  6
CONTINUOUS
 70
0
 71
3
 72
86
 73
82
 74
0
 42
0.0000001
 43
0.0000001
 44
0.0000000001
 40
0.0
 40
0.0
 40
0.0
 40
0.0
 40
0.0039801735
 40
0.0081241171
 40
0.0124359931
 40
0.016919361
 40
0.0215772361
 40
0.0264119817
 40
0.0314252561
 40
0.0366182449
 40
0.0419916453
 40
0.0475457694
 40
0.0532805541
 40
0.0591955582
 40
0.0652900785
 40
0.0715630739
 40
0.0846387684
 40
0.0984101018
 40
0.112860694
 40
0.1279712428
 40
0.1437198619
 40
0.1600823544
 40
0.1770324406
 40
0.1945419645
 40
0.2125810668
 40
0.2311183398
 40
0.2501209668
 40
0.2695548486
 40
0.289384725
 40
0.3095742955
 40
0.3300863312
 40
0.3508827821
 40
0.3719248818
 40
0.3931732491
 40
0.4145879914
 40
0.4577543474
 40
0.501099203
 40
0.5442952951
 40
0.5657359749
 40
0.587017582
 40
0.6081001434
 40
0.6289441761
 40
0.6495107926
 40
0.6697618048
 40
0.6896598276
 40
0.709168385
 40
0.7282520204
 40
0.7468764117
 40
0.7650084972
 40
0.7826166038
 40
0.7996705814
 40
0.8161419537
 40
0.8320040874
 40
0.8472323859
 40
0.8618045214
 40
0.8757007003
 40
0.8889039845
 40
0.9014006969
 40
0.9073810972
 40
0.9131815075
 40
0.9188013673
 40
0.9242405009
 40
0.9294990443
 40
0.9345775709
 40
0.9394770909
 40
0.9441990928
 40
0.9487456636
 40
0.9531194621
 40
0.9573238984
 40
0.9613631411
 40
0.9652422549
 40
0.9689673208
 40
0.9725454977
 40
0.9759852252
 40
0.9824864215
 40
0.9855752926
 40
0.9885737717
 40
0.9914977072
 40
0.9943643167
 40
0.9971920017
 40
1.0
 40
1.0
 40
1.0
 40
1.0
 10
11.211537751
 20
10.471162682
 30
0.0
 10
11.2105474736
 20
10.4702061474
 30
0.0
 10
11.2084812003
 20
10.4682998394
 30
0.0
 10
11.2052005885
 20
10.4655155259
 30
0.0
 10
11.2016790656
 20
10.4627511735
 30
0.0
 10
11.1979185647
 20
10.4600082714
 30
0.0
 10
11.1939209324
 20
10.4572880874
 30
0.0
 10
11.1896881134
 20
10.4545919586
 30
0.0
 10
11.1852222295
 20
10.4519211587
 30
0.0
 10
11.180525494
 20
10.4492770777
 30
0.0
 10
11.1756002762
 20
10.4466610006
 30
0.0
 10
11.1704490351
 20
10.4440742448
 30
0.0
 10
11.1650743467
 20
10.4415181195
 30
0.0
 10
11.1594789212
 20
10.4389938803
 30
0.0
 10
11.1536655501
 20
10.4365028261
 30
0.0
 10
11.1455146947
 20
10.4331813251
 30
0.0
 10
11.1347956366
 20
10.4291304342
 30
0.0
 10
11.1212841448
 20
10.4244860288
 30
0.0
 10
11.1069790132
 20
10.4200028835
 30
0.0
 10
11.0919090826
 20
10.4156901105
 30
0.0
 10
11.0761046041
 20
10.4115564893
 30
0.0
 10
11.0595974146
 20
10.4076104399
 30
0.0
 10
11.0424207938
 20
10.403859998
 30
0.0
 10
11.0246094063
 20
10.4003128028
 30
0.0
 10
11.0061992181
 20
10.3969760794
 30
0.0
 10
10.9872274216
 20
10.3938566235
 30
0.0
 10
10.9677323582
 20
10.3909607883
 30
0.0
 10
10.9477534403
 20
10.3882944699
 30
0.0
 10
10.9273310698
 20
10.3858630918
 30
0.0
 10
10.9065065521
 20
10.3836716003
 30
0.0
 10
10.8853220111
 20
10.3817244537
 30
0.0
 10
10.863820299
 20
10.3800256116
 30
0.0
 10
10.8420449266
 20
10.378578537
 30
0.0
 10
10.8200399142
 20
10.3773861495
 30
0.0
 10
10.790375773
 20
10.3761359649
 30
0.0
 10
10.7530495898
 20
10.3752278845
 30
0.0
 10
10.7081778065
 20
10.375180538
 30
0.0
 10
10.6708305327
 20
10.3760096928
 30
0.0
 10
10.6411330244
 20
10.3771968624
 30
0.0
 10
10.6190910254
 20
10.3783426507
 30
0.0
 10
10.5972705997
 20
10.3797436032
 30
0.0
 10
10.5757158599
 20
10.3813968972
 30
0.0
 10
10.5544704259
 20
10.3832991641
 30
0.0
 10
10.5335772742
 20
10.3854465342
 30
0.0
 10
10.5130786671
 20
10.3878346382
 30
0.0
 10
10.4930160638
 20
10.3904586175
 30
0.0
 10
10.4734300363
 20
10.3933131327
 30
0.0
 10
10.454360185
 20
10.3963923762
 30
0.0
 10
10.4358450539
 20
10.3996900779
 30
0.0
 10
10.4179220497
 20
10.4031995202
 30
0.0
 10
10.4006273658
 20
10.4069135545
 30
0.0
 10
10.3839959063
 20
10.410824615
 30
0.0
 10
10.3680612119
 20
10.4149247352
 30
0.0
 10
10.3528553769
 20
10.4192055672
 30
0.0
 10
10.3384089954
 20
10.4236583954
 30
0.0
 10
10.3247510057
 20
10.4282741661
 30
0.0
 10
10.311908908
 20
10.4330435086
 30
0.0
 10
10.3017648118
 20
10.4371965018
 30
0.0
 10
10.2940851939
 20
10.4405961683
 30
0.0
 10
10.2886298858
 20
10.4431408489
 30
0.0
 10
10.2833970669
 20
10.4457166238
 30
0.0
 10
10.2783893375
 20
10.4483221741
 30
0.0
 10
10.2736092216
 20
10.4509562287
 30
0.0
 10
10.2690591028
 20
10.453617455
 30
0.0
 10
10.2647412477
 20
10.4563045224
 30
0.0
 10
10.2606578263
 20
10.4590161372
 30
0.0
 10
10.256810843
 20
10.4617509169
 30
0.0
 10
10.2532022421
 20
10.464507586
 30
0.0
 10
10.249833791
 20
10.4672847751
 30
0.0
 10
10.2467071837
 20
10.4700811742
 30
0.0
 10
10.2438239816
 20
10.4728955093
 30
0.0
 10
10.241185675
 20
10.4757263444
 30
0.0
 10
10.2387934619
 20
10.4785727833
 30
0.0
 10
10.2359871131
 20
10.4823154727
 30
0.0
 10
10.2336041009
 20
10.4861590801
 30
0.0
 10
10.2317120612
 20
10.4900847392
 30
0.0
 10
10.2305689159
 20
10.492988067
 30
0.0
 10
10.229678662
 20
10.495898445
 30
0.0
 10
10.229042128
 20
10.4988144891
 30
0.0
 10
10.2286599064
 20
10.5017340934
 30
0.0
 10
10.2285748173
 20
10.5036846233
 30
0.0
 10
10.2285748129
 20
10.5046559584
 30
0.0
  0
SPLINE
  5
379
100
AcDbEntity
  8
0
100
AcDbSpline
 62
7
  6
CONTINUOUS
 70
0
 71
3
 72
23
 73
19
 74
0
 42
0.0000001
 43
0.0000001
 44
0.0000000001
 40
0.0
 40
0.0
 40
0.0
 40
0.0
 40
0.0637775561
 40
0.1273446565
 40
0.1907020307
 40
0.2538561431
 40
0.3168131834
 40
0.3795821015
 40
0.4421733894
 40
0.5045993415
 40
0.5668738676
 40
0.6290123791
 40
0.6910316472
 40
0.7529496401
 40
0.8147853492
 40
0.8765585998
 40
0.9382898533
 40
1.0
 40
1.0
 40
1.0
 40
1.0
 10
11.2376485831
 20
7.6755313327
 30
0.0
 10
11.2376485831
 20
7.6691514771
 30
0.0
 10
11.2373432348
 20
7.6564106559
 30
0.0
 10
11.2359649462
 20
7.6373768931
 30
0.0
 10
11.2336701549
 20
7.6184940601
 30
0.0
 10
11.2304642448
 20
7.5998063668
 30
0.0
 10
11.2263544626
 20
7.5813566349
 30
0.0
 10
11.2213502886
 20
7.5631874789
 30
0.0
 10
11.215463192
 20
7.5453407678
 30
0.0
 10
11.2087067091
 20
7.5278576641
 30
0.0
 10
11.2010963856
 20
7.5107784863
 30
0.0
 10
11.1926497395
 20
7.4941426272
 30
0.0
 10
11.1833862241
 20
7.4779884638
 30
0.0
 10
11.1733271688
 20
7.4623532549
 30
0.0
 10
11.1624957855
 20
7.4472731055
 30
0.0
 10
11.1509169122
 20
7.4327826927
 30
0.0
 10
11.1386177124
 20
7.4189158923
 30
0.0
 10
11.1299552801
 20
7.4101068269
 30
0.0
 10
11.1255152826
 20
7.4058181295
 30
0.0
  0
SPLINE
  5
37A
100
AcDbEntity
  8
0
100
AcDbSpline
 62
7
  6
CONTINUOUS
 70
0
 71
3
 72
21
 73
17
 74
0
 42
0.0000001
 43
0.0000001
 44
0.0000000001
 40
0.0
 40
0.0
 40
0.0
 40
0.0
 40
0.1273176366
 40
0.2537999756
 40
0.3167619475
 40
0.3795355041
 40
0.4421314991
 40
0.5045621439
 40
0.5668413432
 40
0.6289845283
 40
0.6910084528
 40
0.7529310935
 40
0.8147714495
 40
0.8765493365
 40
0.9382852194
 40
1.0
 40
1.0
 40
1.0
 40
1.0
 10
11.487340424
 20
9.982232838
 30
0.0
 10
11.487340424
 20
9.9769355881
 30
0.0
 10
11.4868347666
 20
9.9663690238
 30
0.0
 10
11.4849250625
 20
9.9533064674
 30
0.0
 10
11.4826425415
 20
9.9430600338
 30
0.0
 10
11.480561005
 20
9.9355022607
 30
0.0
 10
11.4781122174
 20
9.9280787767
 30
0.0
 10
11.4753017896
 20
9.9208064968
 30
0.0
 10
11.4721362222
 20
9.9137022349
 30
0.0
 10
11.4686227709
 20
9.9067823746
 30
0.0
 10
11.4647695176
 20
9.9000628903
 30
0.0
 10
11.460585371
 20
9.8935592583
 30
0.0
 10
11.4560799687
 20
9.8872865056
 30
0.0
 10
11.4512636214
 20
9.8812590737
 30
0.0
 10
11.4461476628
 20
9.8754910271
 30
0.0
 10
11.4425444596
 20
9.8718267871
 30
0.0
 10
11.4406976008
 20
9.8700428582
 30
0.0
  0
SPLINE
  5
37B
100
AcDbEntity
  8
0
100
AcDbSpline
 62
7
  6
CONTINUOUS
 70
0
 71
3
 72
21
 73
17
 74
0
 42
0.0000001
 43
0.0000001
 44
0.0000000001
 40
0.0
 40
0.0
 40
0.0
 40
0.0
 40
0.1273176366
 40
0.2537999756
 40
0.3167619475
 40
0.3795355041
 40
0.4421314991
 40
0.5045621439
 40
0.5668413432
 40
0.6289845283
 40
0.6910084528
 40
0.7529310935
 40
0.8147714495
 40
0.8765493365
 40
0.9382852194
 40
1.0
 40
1.0
 40
1.0
 40
1.0
 10
10.5214145405
 20
7.1514423462
 30
0.0
 10
10.5214145405
 20
7.1461450962
 30
0.0
 10
10.5209088831
 20
7.135578532
 30
0.0
 10
10.518999179
 20
7.1225159756
 30
0.0
 10
10.516716658
 20
7.1122695419
 30
0.0
 10
10.5146351215
 20
7.1047117688
 30
0.0
 10
10.5121863339
 20
7.0972882849
 30
0.0
 10
10.5093759061
 20
7.090016005
 30
0.0
 10
10.5062103387
 20
7.0829117431
 30
0.0
 10
10.5026968873
 20
7.0759918827
 30
0.0
 10
10.4988436341
 20
7.0692723985
 30
0.0
 10
10.4946594875
 20
7.0627687665
 30
0.0
 10
10.4901540852
 20
7.0564960138
 30
0.0
 10
10.4853377379
 20
7.0504685819
 30
0.0
 10
10.4802217793
 20
7.0447005353
 30
0.0
 10
10.476618576
 20
7.0410362953
 30
0.0
 10
10.4747717172
 20
7.0392523664
 30
0.0
  0
SPLINE
  5
37C
100
AcDbEntity
  8
0
100
AcDbSpline
 62
7
  6
CONTINUOUS
 70
0
 71
3
 72
39
 73
35
 74
0
 42
0.0000001
 43
0.0000001
 44
0.0000000001
 40
0.0
 40
0.0
 40
0.0
 40
0.0
 40
0.0325374677
 40
0.0647933111
 40
0.0967725205
 40
0.1284928196
 40
0.1599852433
 40
0.1912912154
 40
0.2224599711
 40
0.2535457274
 40
0.2846053564
 40
0.3156965281
 40
0.3468762948
 40
0.3781999538
 40
0.4097201782
 40
0.4414858526
 40
0.4735404185
 40
0.5059192742
 40
0.5386455008
 40
0.5717233323
 40
0.6051287478
 40
0.6387974463
 40
0.6726121875
 40
0.7063942112
 40
0.7399064726
 40
0.7728758801
 40
0.8050345157
 40
0.8361662266
 40
0.8661411753
 40
0.8949256556
 40
0.922570905
 40
0.9491913392
 40
0.9749418776
 40
1.0
 40
1.0
 40
1.0
 40
1.0
 10
10.7435404253
 20
7.8062594738
 30
0.0
 10
10.7435404253
 20
7.8019555086
 30
0.0
 10
10.7438934615
 20
7.7933803971
 30
0.0
 10
10.7454897858
 20
7.7806650404
 30
0.0
 10
10.748126235
 20
7.7682336924
 30
0.0
 10
10.7517643536
 20
7.7561638135
 30
0.0
 10
10.7563545394
 20
7.7445191698
 30
0.0
 10
10.7618399583
 20
7.7333505605
 30
0.0
 10
10.7681600994
 20
7.7226956709
 30
0.0
 10
10.7752539866
 20
7.7125803914
 30
0.0
 10
10.7830626492
 20
7.7030205391
 30
0.0
 10
10.7915308597
 20
7.6940238458
 30
0.0
 10
10.8006081652
 20
7.685591945
 30
0.0
 10
10.8102493229
 20
7.6777222154
 30
0.0
 10
10.820414226
 20
7.6704094355
 30
0.0
 10
10.8310673739
 20
7.6636472411
 30
0.0
 10
10.8421768652
 20
7.657429431
 30
0.0
 10
10.853712828
 20
7.6517511712
 30
0.0
 10
10.8656451162
 20
7.6466101455
 30
0.0
 10
10.8779400392
 20
7.6420076592
 30
0.0
 10
10.89055599
 20
7.6379495903
 30
0.0
 10
10.9034381603
 20
7.6344469744
 30
0.0
 10
10.9165132274
 20
7.6315158413
 30
0.0
 10
10.9296859205
 20
7.6291758942
 30
0.0
 10
10.9428401145
 20
7.6274478212
 30
0.0
 10
10.9558465601
 20
7.6263495871
 30
0.0
 10
10.9685765871
 20
7.6258930369
 30
0.0
 10
10.9809177443
 20
7.6260819741
 30
0.0
 10
10.9927855721
 20
7.6269126086
 30
0.0
 10
11.0041278828
 20
7.6283761664
 30
0.0
 10
11.0149214212
 20
7.6304621134
 30
0.0
 10
11.025164571
 20
7.6331612039
 30
0.0
 10
11.0348675598
 20
7.636466732
 30
0.0
 10
11.0410579761
 20
7.6391032216
 30
0.0
 10
11.0440545288
 20
7.6405200372
 30
0.0
  0
SPLINE
  5
37D
100
AcDbEntity
  8
0
100
AcDbSpline
 62
7
  6
CONTINUOUS
 70
0
 71
3
 72
21
 73
17
 74
0
 42
0.0000001
 43
0.0000001
 44
0.0000000001
 40
0.0
 40
0.0
 40
0.0
 40
0.0
 40
0.1273176368
 40
0.2537999758
 40
0.3167619477
 40
0.3795355043
 40
0.4421314993
 40
0.504562144
 40
0.5668413432
 40
0.6289845282
 40
0.6910084527
 40
0.7529310934
 40
0.8147714494
 40
0.8765493364
 40
0.9382852193
 40
1.0
 40
1.0
 40
1.0
 40
1.0
 10
11.0682514979
 20
7.7309063034
 30
0.0
 10
11.0682514979
 20
7.7249160986
 30
0.0
 10
11.0676796932
 20
7.7129672788
 30
0.0
 10
11.0655201727
 20
7.6981959558
 30
0.0
 10
11.0629390654
 20
7.6866091443
 30
0.0
 10
11.0605852343
 20
7.678062708
 30
0.0
 10
11.0578161104
 20
7.6696681278
 30
0.0
 10
11.0546380386
 20
7.6614445314
 30
0.0
 10
11.0510583699
 20
7.6534109321
 30
0.0
 10
11.0470853091
 20
7.6455858567
 30
0.0
 10
11.0427279955
 20
7.6379873694
 30
0.0
 10
11.037996503
 20
7.6306329711
 30
0.0
 10
11.0329017299
 20
7.6235396543
 30
0.0
 10
11.027455336
 20
7.6167237498
 30
0.0
 10
11.0216701372
 20
7.610201162
 30
0.0
 10
11.0175955838
 20
7.6060575881
 30
0.0
 10
11.0155071296
 20
7.6040402964
 30
0.0
  0
SPLINE
  5
37E
100
AcDbEntity
  8
0
100
AcDbSpline
 62
7
  6
CONTINUOUS
 70
0
 71
3
 72
39
 73
35
 74
0
 42
0.0000001
 43
0.0000001
 44
0.0000000001
 40
0.0
 40
0.0
 40
0.0
 40
0.0
 40
0.0307104587
 40
0.0615397722
 40
0.0924842772
 40
0.1235413793
 40
0.1547056773
 40
0.1859710588
 40
0.2173300343
 40
0.2487740599
 40
0.2802935932
 40
0.3118782207
 40
0.343516783
 40
0.3751975051
 40
0.4069081327
 40
0.4386360717
 40
0.4703685316
 40
0.5020926709
 40
0.5337957434
 40
0.5654652414
 40
0.5970890382
 40
0.6286555266
 40
0.6601537532
 40
0.6915735497
 40
0.7229056563
 40
0.7541418376
 40
0.7852749871
 40
0.8162992216
 40
0.8472099643
 40
0.8780040131
 40
0.9086795968
 40
0.9392364143
 40
0.9696756549
 40
1.0
 40
1.0
 40
1.0
 40
1.0
 10
11.0831722746
 20
7.6948186679
 30
0.0
 10
11.0831722746
 20
7.6992387084
 30
0.0
 10
11.0829239871
 20
7.7080978441
 30
0.0
 10
11.0818130395
 20
7.7213687821
 30
0.0
 10
11.0799662408
 20
7.7346081974
 30
0.0
 10
11.0773895619
 20
7.7477740532
 30
0.0
 10
11.0740909947
 20
7.7608254425
 30
0.0
 10
11.0700809422
 20
7.7737215069
 30
0.0
 10
11.0653719452
 20
7.7864219753
 30
0.0
 10
11.0599787546
 20
7.7988871626
 30
0.0
 10
11.0539182541
 20
7.8110781323
 30
0.0
 10
11.0472094064
 20
7.8229568045
 30
0.0
 10
11.039873193
 20
7.8344860759
 30
0.0
 10
11.0319325485
 20
7.845629934
 30
0.0
 10
11.0234122901
 20
7.8563535681
 30
0.0
 10
11.0143390402
 20
7.8666234767
 30
0.0
 10
11.0047411466
 20
7.8764075737
 30
0.0
 10
10.9946485999
 20
7.8856752949
 30
0.0
 10
10.98409293
 20
7.8943976843
 30
0.0
 10
10.9731071102
 20
7.9025474849
 30
0.0
 10
10.9617254549
 20
7.9100992229
 30
0.0
 10
10.9499835137
 20
7.9170292866
 30
0.0
 10
10.937917961
 20
7.9233159986
 30
0.0
 10
10.9255664856
 20
7.9289396894
 30
0.0
 10
10.9129676742
 20
7.9338827634
 30
0.0
 10
10.9001608868
 20
7.9381297433
 30
0.0
 10
10.8871861358
 20
7.941667321
 30
0.0
 10
10.874083962
 20
7.9444843979
 30
0.0
 10
10.8608953136
 20
7.9465721216
 30
0.0
 10
10.8476614023
 20
7.9479239098
 30
0.0
 10
10.8344236419
 20
7.9485354905
 30
0.0
 10
10.8212232733
 20
7.9484048829
 30
0.0
 10
10.8081021444
 20
7.9475325218
 30
0.0
 10
10.7994174938
 20
7.9464560472
 30
0.0
 10
10.7951033826
 20
7.945794964
 30
0.0
  0
SPLINE
  5
37F
100
AcDbEntity
  8
0
100
AcDbSpline
 62
7
  6
CONTINUOUS
 70
0
 71
3
 72
23
 73
19
 74
0
 42
0.0000001
 43
0.0000001
 44
0.0000000001
 40
0.0
 40
0.0
 40
0.0
 40
0.0
 40
0.0612129118
 40
0.1226464442
 40
0.1842903314
 40
0.2461431154
 40
0.308195877
 40
0.3704388026
 40
0.4328603391
 40
0.4954469087
 40
0.5581833841
 40
0.6210531484
 40
0.6840382913
 40
0.7471197826
 40
0.8102776457
 40
0.8734911783
 40
0.9367391525
 40
1.0
 40
1.0
 40
1.0
 40
1.0
 10
11.0682514979
 20
7.7309063034
 30
0.0
 10
11.0682514979
 20
7.7341354192
 30
0.0
 10
11.0680845867
 20
7.7406064961
 30
0.0
 10
11.0673374859
 20
7.7503034731
 30
0.0
 10
11.066095008
 20
7.759983754
 30
0.0
 10
11.0643606447
 20
7.769621182
 30
0.0
 10
11.0621388901
 20
7.7791904733
 30
0.0
 10
11.0594357041
 20
7.7886662235
 30
0.0
 10
11.0562582758
 20
7.7980233654
 30
0.0
 10
11.0526150038
 20
7.8072371237
 30
0.0
 10
11.0485155476
 20
7.8162831043
 30
0.0
 10
11.0439707992
 20
7.8251373768
 30
0.0
 10
11.0389928014
 20
7.8337765076
 30
0.0
 10
11.0335947134
 20
7.8421776221
 30
0.0
 10
11.027790854
 20
7.8503184718
 30
0.0
 10
11.0215965514
 20
7.8581775798
 30
0.0
 10
11.0150284245
 20
7.8657339379
 30
0.0
 10
11.0104114222
 20
7.8705569036
 30
0.0
 10
11.0080465337
 20
7.8729114449
 30
0.0
  0
SPLINE
  5
380
100
AcDbEntity
  8
0
100
AcDbSpline
 62
7
  6
CONTINUOUS
 70
0
 71
3
 72
31
 73
27
 74
0
 42
0.0000001
 43
0.0000001
 44
0.0000000001
 40
0.0
 40
0.0
 40
0.0
 40
0.0
 40
0.0646616297
 40
0.1292165438
 40
0.1935927498
 40
0.2577242257
 40
0.3215531957
 40
0.3850321932
 40
0.448125883
 40
0.5108124901
 40
0.5420093056
 40
0.5731029264
 40
0.6040948344
 40
0.6349874487
 40
0.6657841305
 40
0.696489164
 40
0.7271077045
 40
0.7576457449
 40
0.7881100769
 40
0.8185082127
 40
0.8488483156
 40
0.8791391386
 40
0.9093899291
 40
0.9396103298
 40
0.9698102974
 40
1.0
 40
1.0
 40
1.0
 40
1.0
 10
11.0055378506
 20
7.8753674229
 30
0.0
 10
11.0010699178
 20
7.8796683719
 30
0.0
 10
10.991752225
 20
7.8878691966
 30
0.0
 10
10.9767544936
 20
7.8988553638
 30
0.0
 10
10.9608732737
 20
7.9084256612
 30
0.0
 10
10.9442548546
 20
7.9164911043
 30
0.0
 10
10.9270506361
 20
7.9229781303
 30
0.0
 10
10.9094174531
 20
7.9278268952
 30
0.0
 10
10.8915174935
 20
7.9309926925
 30
0.0
 10
10.8764859152
 20
7.9322057933
 30
0.0
 10
10.864496066
 20
7.9323087937
 30
0.0
 10
10.8555527807
 20
7.931954458
 30
0.0
 10
10.8466664356
 20
7.9311693289
 30
0.0
 10
10.8378571443
 20
7.9299551694
 30
0.0
 10
10.8291451642
 20
7.9283147585
 30
0.0
 10
10.8205504394
 20
7.926251866
 30
0.0
 10
10.8120926892
 20
7.9237711564
 30
0.0
 10
10.8037913066
 20
7.9208783052
 30
0.0
 10
10.7956653145
 20
7.9175799653
 30
0.0
 10
10.7877333613
 20
7.9138836508
 30
0.0
 10
10.7800136515
 20
7.909797812
 30
0.0
 10
10.7725238666
 20
7.9053318466
 30
0.0
 10
10.765281213
 20
7.9004959818
 30
0.0
 10
10.7583022703
 20
7.8953012182
 30
0.0
 10
10.7516032343
 20
7.8897597169
 30
0.0
 10
10.7473332828
 20
7.8858419493
 30
0.0
 10
10.7452506975
 20
7.8838303265
 30
0.0
  0
SPLINE
  5
381
100
AcDbEntity
  8
0
100
AcDbSpline
 62
7
  6
CONTINUOUS
 70
0
 71
3
 72
53
 73
49
 74
0
 42
0.0000001
 43
0.0000001
 44
0.0000000001
 40
0.0
 40
0.0
 40
0.0
 40
0.0
 40
0.0468839926
 40
0.093479662
 40
0.1396939221
 40
0.1854357785
 40
0.2306147747
 40
0.2751421982
 40
0.3189309336
 40
0.3618958536
 40
0.4039540307
 40
0.4450250155
 40
0.4850311094
 40
0.5238976567
 40
0.5615533556
 40
0.5979305973
 40
0.63296584
 40
0.6666000309
 40
0.6987790954
 40
0.7294545154
 40
0.7442152979
 40
0.7585848654
 40
0.7725591076
 40
0.7861343371
 40
0.7993075024
 40
0.8120760882
 40
0.8244382836
 40
0.8363929734
 40
0.8479398372
 40
0.8590794564
 40
0.8698133453
 40
0.8801441771
 40
0.8900757728
 40
0.8996134305
 40
0.9087639222
 40
0.9175358893
 40
0.9259399121
 40
0.9339889258
 40
0.9416984071
 40
0.9490867647
 40
0.9561756283
 40
0.9629901444
 40
0.9695592545
 40
0.9759157649
 40
0.982096382
 40
0.988141365
 40
0.9940940545
 40
1.0
 40
1.0
 40
1.0
 40
1.0
 10
12.2871270556
 20
8.9511928689
 30
0.0
 10
12.2880790159
 20
8.9613639691
 30
0.0
 10
12.2900946011
 20
8.9816328262
 30
0.0
 10
12.2934617646
 20
9.0118845925
 30
0.0
 10
12.2971582713
 20
9.0418472135
 30
0.0
 10
12.3011762226
 20
9.0714569577
 30
0.0
 10
12.3055070929
 20
9.100651068
 30
0.0
 10
12.3101416506
 20
9.1293675531
 30
0.0
 10
12.315070034
 20
9.1575454908
 30
0.0
 10
12.3202817447
 20
9.1851250914
 30
0.0
 10
12.325765681
 20
9.2120478499
 30
0.0
 10
12.3315101569
 20
9.2382566641
 30
0.0
 10
12.3375029282
 20
9.2636959612
 30
0.0
 10
12.3437312174
 20
9.2883118185
 30
0.0
 10
12.3501817419
 20
9.3120520813
 30
0.0
 10
12.3568407415
 20
9.3348664847
 30
0.0
 10
12.3636940086
 20
9.3567067475
 30
0.0
 10
12.3707269233
 20
9.3775267555
 30
0.0
 10
12.3779244808
 20
9.3972824191
 30
0.0
 10
12.3841237088
 20
9.4130193277
 30
0.0
 10
12.3891623551
 20
9.4250373069
 30
0.0
 10
12.3929244756
 20
9.4336433804
 30
0.0
 10
12.3967161787
 20
9.4419533504
 30
0.0
 10
12.4005355233
 20
9.4499628228
 30
0.0
 10
12.4043804392
 20
9.4576675769
 30
0.0
 10
12.4082489233
 20
9.4650635406
 30
0.0
 10
12.4121389114
 20
9.4721468222
 30
0.0
 10
12.4160483566
 20
9.4789136935
 30
0.0
 10
12.4199752101
 20
9.485360595
 30
0.0
 10
12.4239173883
 20
9.4914841561
 30
0.0
 10
12.4278728681
 20
9.4972811534
 30
0.0
 10
12.4318395442
 20
9.5027485836
 30
0.0
 10
12.4358154266
 20
9.5078835638
 30
0.0
 10
12.439798415
 20
9.5126834587
 30
0.0
 10
12.4437865557
 20
9.5171457289
 30
0.0
 10
12.4477777912
 20
9.5212680924
 30
0.0
 10
12.4517702065
 20
9.5250483495
 30
0.0
 10
12.4557618239
 20
9.5284845323
 30
0.0
 10
12.459750768
 20
9.5315747581
 30
0.0
 10
12.4637351541
 20
9.5343173036
 30
0.0
 10
12.4677131241
 20
9.5367105511
 30
0.0
 10
12.4716828358
 20
9.5387529296
 30
0.0
 10
12.4756423566
 20
9.5404430253
 30
0.0
 10
12.4795897324
 20
9.5417793705
 30
0.0
 10
12.4835227485
 20
9.5427607788
 30
0.0
 10
12.4874392073
 20
9.5433860162
 30
0.0
 10
12.491336094
 20
9.543654378
 30
0.0
 10
12.4939236143
 20
9.5435948205
 30
0.0
 10
12.4952073775
 20
9.543505794
 30
0.0
  0
SPLINE
  5
382
100
AcDbEntity
  8
0
100
AcDbSpline
 62
7
  6
CONTINUOUS
 70
0
 71
3
 72
18
 73
14
 74
0
 42
0.0000001
 43
0.0000001
 44
0.0000000001
 40
0.0
 40
0.0
 40
0.0
 40
0.0
 40
0.0548621106
 40
0.1099281304
 40
0.165399556
 40
0.2214731722
 40
0.2783387379
 40
0.3361775111
 40
0.4554063056
 40
0.5804414047
 40
0.7123341351
 40
0.8519581983
 40
1.0
 40
1.0
 40
1.0
 40
1.0
 10
11.2285748055
 20
10.5046565932
 30
0.0
 10
11.2285748087
 20
10.5039504472
 30
0.0
 10
11.2285299962
 20
10.5025351251
 30
0.0
 10
11.2283285
 20
10.5004144421
 30
0.0
 10
11.2279927496
 20
10.4982949828
 30
0.0
 10
11.2275228719
 20
10.4961775206
 30
0.0
 10
11.2269190649
 20
10.4940625844
 30
0.0
 10
11.2259259143
 20
10.491218566
 30
0.0
 10
11.2243348972
 20
10.4876614636
 30
0.0
 10
11.2219132639
 20
10.4834605074
 30
0.0
 10
11.2189638313
 20
10.4792867368
 30
0.0
 10
11.2154910864
 20
10.4751443581
 30
0.0
 10
11.2129082823
 20
10.4724865137
 30
0.0
 10
11.211537751
 20
10.471162682
 30
0.0
  0
SPLINE
  5
383
100
AcDbEntity
  8
0
100
AcDbSpline
 62
7
  6
CONTINUOUS
 70
0
 71
3
 72
39
 73
35
 74
0
 42
0.0000001
 43
0.0000001
 44
0.0000000001
 40
0.0
 40
0.0
 40
0.0
 40
0.0
 40
0.0299424701
 40
0.0599093174
 40
0.0899243244
 40
0.1200101043
 40
0.1501875649
 40
0.1804754189
 40
0.2108897652
 40
0.2414437446
 40
0.2721472716
 40
0.303006856
 40
0.3340255105
 40
0.3652027321
 40
0.396534568
 40
0.4280137546
 40
0.459629913
 40
0.4913698074
 40
0.5232176551
 40
0.555155472
 40
0.5871634555
 40
0.6192203971
 40
0.6513041118
 40
0.6833918814
 40
0.7154609078
 40
0.747488765
 40
0.7794538478
 40
0.811335806
 40
0.8431159644
 40
0.874777716
 40
0.9063068848
 40
0.9376920706
 40
0.9689246614
 40
1.0
 40
1.0
 40
1.0
 40
1.0
 10
10.550961178
 20
8.00064294
 30
0.0
 10
10.5578210071
 20
8.0072690094
 30
0.0
 10
10.5720800872
 20
8.019986375
 30
0.0
 10
10.5949253462
 20
8.0373115237
 30
0.0
 10
10.6191104677
 20
8.0527990784
 30
0.0
 10
10.6445003139
 20
8.0663621679
 30
0.0
 10
10.670955316
 20
8.0779266488
 30
0.0
 10
10.6983294518
 20
8.0874289893
 30
0.0
 10
10.7264718755
 20
8.0948172078
 30
0.0
 10
10.7552275537
 20
8.1000509202
 30
0.0
 10
10.7844381535
 20
8.1031017306
 30
0.0
 10
10.8139429372
 20
8.1039532548
 30
0.0
 10
10.8435796374
 20
8.1026011435
 30
0.0
 10
10.8731853408
 20
8.0990532232
 30
0.0
 10
10.9025973883
 20
8.093329363
 30
0.0
 10
10.9316542356
 20
8.0854612853
 30
0.0
 10
10.9601963503
 20
8.0754925065
 30
0.0
 10
10.9880670801
 20
8.0634780478
 30
0.0
 10
11.0151134609
 20
8.0494840488
 30
0.0
 10
11.041187084
 20
8.0335875087
 30
0.0
 10
11.0661449099
 20
8.0158758511
 30
0.0
 10
11.0898499818
 20
7.9964463591
 30
0.0
 10
11.1121722165
 20
7.9754057288
 30
0.0
 10
11.1329891381
 20
7.9528694993
 30
0.0
 10
11.1521864581
 20
7.9289613396
 30
0.0
 10
11.1696587446
 20
7.9038124371
 30
0.0
 10
11.1853100498
 20
7.8775608124
 30
0.0
 10
11.1990543261
 20
7.8503504909
 30
0.0
 10
11.2108159358
 20
7.8223307824
 30
0.0
 10
11.2205301475
 20
7.7936554302
 30
0.0
 10
11.2281433789
 20
7.7644819698
 30
0.0
 10
11.2336134677
 20
7.7349700324
 30
0.0
 10
11.2369101898
 20
7.7052837841
 30
0.0
 10
11.2376485831
 20
7.6854295815
 30
0.0
 10
11.2376485831
 20
7.6755313327
 30
0.0
  0
SPLINE
  5
384
100
AcDbEntity
  8
0
100
AcDbSpline
 62
7
  6
CONTINUOUS
 70
0
 71
3
 72
16
 73
12
 74
0
 42
0.0000001
 43
0.0000001
 44
0.0000000001
 40
0.0
 40
0.0
 40
0.0
 40
0.0
 40
0.1263874628
 40
0.2526341353
 40
0.3786314113
 40
0.5042486628
 40
0.6293391799
 40
0.7537505595
 40
0.8156671756
 40
0.8773612465
 40
1.0
 40
1.0
 40
1.0
 40
1.0
 10
10.7765731644
 20
7.9077206522
 30
0.0
 10
10.7740048919
 20
7.9039502212
 30
0.0
 10
10.7691124607
 20
7.8962456541
 30
0.0
 10
10.7625669941
 20
7.8842365966
 30
0.0
 10
10.7568794947
 20
7.8718272915
 30
0.0
 10
10.7521142264
 20
7.8590791129
 30
0.0
 10
10.7483316647
 20
7.8460646736
 30
0.0
 10
10.7460390614
 20
7.8350470812
 30
0.0
 10
10.7447465166
 20
7.8261860815
 30
0.0
 10
10.7438224244
 20
7.8173439991
 30
0.0
 10
10.7435404253
 20
7.8106861978
 30
0.0
 10
10.7435404253
 20
7.8062594738
 30
0.0
  0
SPLINE
  5
385
100
AcDbEntity
  8
0
100
AcDbSpline
 62
7
  6
CONTINUOUS
 70
0
 71
3
 72
42
 73
38
 74
0
 42
0.0000001
 43
0.0000001
 44
0.0000000001
 40
0.0
 40
0.0
 40
0.0
 40
0.0
 40
0.0299419663
 40
0.0449235352
 40
0.0599142051
 40
0.0899287052
 40
0.1200139767
 40
0.135092661
 40
0.150196701
 40
0.1804840414
 40
0.210897872
 40
0.2414513324
 40
0.2721543376
 40
0.3030133986
 40
0.3340315263
 40
0.3652082187
 40
0.3965395244
 40
0.4280181782
 40
0.4596338019
 40
0.4913731609
 40
0.5232204716
 40
0.55515775
 40
0.5871651943
 40
0.6192215961
 40
0.6513047701
 40
0.6833919991
 40
0.7154604852
 40
0.7474878032
 40
0.7794523473
 40
0.8113337692
 40
0.8431133916
 40
0.8747746171
 40
0.9063032365
 40
0.9376879249
 40
0.9533258257
 40
0.968925233
 40
1.0
 40
1.0
 40
1.0
 40
1.0
 10
11.2017047434
 20
10.1174664103
 30
0.0
 10
11.2045581661
 20
10.1202226054
 30
0.0
 10
11.209006475
 20
10.1241899127
 30
0.0
 10
11.2152362624
 20
10.1291124518
 30
0.0
 10
11.2216644239
 20
10.1337900586
 30
0.0
 10
11.2300521325
 20
10.1391614602
 30
0.0
 10
11.2388476667
 20
10.1438598753
 30
0.0
 10
11.2461016882
 20
10.1472023753
 30
0.0
 10
11.2535055842
 20
10.150268893
 30
0.0
 10
11.263004428
 20
10.1535663195
 30
0.0
 10
11.2747103278
 20
10.1566394321
 30
0.0
 10
11.2866716543
 20
10.1588165163
 30
0.0
 10
11.2988221226
 20
10.1600855534
 30
0.0
 10
11.3110949867
 20
10.160439773
 30
0.0
 10
11.3234227178
 20
10.1598773715
 30
0.0
 10
11.3357375596
 20
10.1584015976
 30
0.0
 10
11.3479718474
 20
10.1560207049
 30
0.0
 10
11.3600583884
 20
10.1527479065
 30
0.0
 10
11.3719308228
 20
10.1486012975
 30
0.0
 10
11.3835239837
 20
10.1436037521
 30
0.0
 10
11.3947742493
 20
10.1377827968
 30
0.0
 10
11.4056198879
 20
10.1311704594
 30
0.0
 10
11.4160013918
 20
10.1238030923
 30
0.0
 10
11.4258617998
 20
10.1157211738
 30
0.0
 10
11.4351470055
 20
10.1069690877
 30
0.0
 10
11.4438060516
 20
10.0975948815
 30
0.0
 10
11.451791406
 20
10.0876500054
 30
0.0
 10
11.4590592202
 20
10.0771890321
 30
0.0
 10
11.4655695682
 20
10.0662693639
 30
0.0
 10
11.4712866637
 20
10.0549509087
 30
0.0
 10
11.4761790549
 20
10.0432958021
 30
0.0
 10
11.4802198042
 20
10.0313678985
 30
0.0
 10
11.4833865929
 20
10.0192330624
 30
0.0
 10
11.4852851499
 20
10.0089899408
 30
0.0
 10
11.4863501874
 20
10.0007597235
 30
0.0
 10
11.4871102769
 20
9.9925373797
 30
0.0
 10
11.487340424
 20
9.9863501243
 30
0.0
 10
11.487340424
 20
9.982232838
 30
0.0
  0
SPLINE
  5
386
100
AcDbEntity
  8
0
100
AcDbSpline
 62
7
  6
CONTINUOUS
 70
0
 71
3
 72
42
 73
38
 74
0
 42
0.0000001
 43
0.0000001
 44
0.0000000001
 40
0.0
 40
0.0
 40
0.0
 40
0.0
 40
0.0299419663
 40
0.0449235352
 40
0.0599142051
 40
0.0899287052
 40
0.1200139767
 40
0.135092661
 40
0.150196701
 40
0.1804840414
 40
0.210897872
 40
0.2414513324
 40
0.2721543376
 40
0.3030133986
 40
0.3340315263
 40
0.3652082187
 40
0.3965395244
 40
0.4280181782
 40
0.4596338019
 40
0.4913731609
 40
0.5232204716
 40
0.55515775
 40
0.5871651943
 40
0.6192215961
 40
0.6513047701
 40
0.6833919991
 40
0.7154604852
 40
0.7474878032
 40
0.7794523473
 40
0.8113337692
 40
0.8431133916
 40
0.8747746171
 40
0.9063032365
 40
0.9376879249
 40
0.9533258257
 40
0.968925233
 40
1.0
 40
1.0
 40
1.0
 40
1.0
 10
10.2357788599
 20
7.2866759185
 30
0.0
 10
10.2386322826
 20
7.2894321136
 30
0.0
 10
10.2430805915
 20
7.2933994209
 30
0.0
 10
10.2493103789
 20
7.29832196
 30
0.0
 10
10.2557385403
 20
7.3029995668
 30
0.0
 10
10.2641262489
 20
7.3083709684
 30
0.0
 10
10.2729217831
 20
7.3130693834
 30
0.0
 10
10.2801758046
 20
7.3164118835
 30
0.0
 10
10.2875797007
 20
7.3194784012
 30
0.0
 10
10.2970785445
 20
7.3227758277
 30
0.0
 10
10.3087844443
 20
7.3258489403
 30
0.0
 10
10.3207457707
 20
7.3280260245
 30
0.0
 10
10.3328962391
 20
7.3292950616
 30
0.0
 10
10.3451691031
 20
7.3296492812
 30
0.0
 10
10.3574968342
 20
7.3290868797
 30
0.0
 10
10.3698116761
 20
7.3276111058
 30
0.0
 10
10.3820459638
 20
7.325230213
 30
0.0
 10
10.3941325049
 20
7.3219574147
 30
0.0
 10
10.4060049393
 20
7.3178108057
 30
0.0
 10
10.4175981002
 20
7.3128132602
 30
0.0
 10
10.4288483658
 20
7.306992305
 30
0.0
 10
10.4396940044
 20
7.3003799676
 30
0.0
 10
10.4500755083
 20
7.2930126005
 30
0.0
 10
10.4599359162
 20
7.284930682
 30
0.0
 10
10.469221122
 20
7.2761785959
 30
0.0
 10
10.4778801681
 20
7.2668043897
 30
0.0
 10
10.4858655225
 20
7.2568595136
 30
0.0
 10
10.4931333367
 20
7.2463985403
 30
0.0
 10
10.4996436847
 20
7.2354788721
 30
0.0
 10
10.5053607802
 20
7.2241604169
 30
0.0
 10
10.5102531714
 20
7.2125053103
 30
0.0
 10
10.5142939207
 20
7.2005774067
 30
0.0
 10
10.5174607094
 20
7.1884425706
 30
0.0
 10
10.5193592663
 20
7.178199449
 30
0.0
 10
10.5204243039
 20
7.1699692317
 30
0.0
 10
10.5211843934
 20
7.1617468879
 30
0.0
 10
10.5214145405
 20
7.1555596325
 30
0.0
 10
10.5214145405
 20
7.1514423462
 30
0.0
  0
SPLINE
  5
387
100
AcDbEntity
  8
0
100
AcDbSpline
 62
7
  6
CONTINUOUS
 70
0
 71
3
 72
41
 73
37
 74
0
 42
0.0000001
 43
0.0000001
 44
0.0000000001
 40
0.0
 40
0.0
 40
0.0
 40
0.0
 40
0.0076886577
 40
0.0154017874
 40
0.0231636201
 40
0.030997882
 40
0.0389275852
 40
0.046974865
 40
0.0635000007
 40
0.0807333193
 40
0.0988086676
 40
0.1178395163
 40
0.1379200533
 40
0.1591273198
 40
0.1815230666
 40
0.2051561006
 40
0.2300640302
 40
0.2562749205
 40
0.2838088491
 40
0.3126787846
 40
0.3428918939
 40
0.3744500245
 40
0.4073505566
 40
0.4415869061
 40
0.4771488355
 40
0.5140230971
 40
0.5521934021
 40
0.5916410092
 40
0.6323447357
 40
0.6742811794
 40
0.7174250121
 40
0.7617490149
 40
0.8072242471
 40
0.853819588
 40
0.9015035687
 40
1.0
 40
1.0
 40
1.0
 40
1.0
 10
12.4025702731
 20
8.2077141512
 30
0.0
 10
12.401758092
 20
8.2077704744
 30
0.0
 10
12.4001340442
 20
8.2079308697
 30
0.0
 10
12.3977100629
 20
8.2083138005
 30
0.0
 10
12.3952970671
 20
8.2088391526
 30
0.0
 10
12.3928957515
 20
8.2095067185
 30
0.0
 10
12.3905065827
 20
8.2103163292
 30
0.0
 10
12.387310234
 20
8.2115959507
 30
0.0
 10
12.3833364551
 20
8.2135654053
 30
0.0
 10
12.3786718874
 20
8.2164722097
 30
0.0
 10
12.3740715056
 20
8.2199395879
 30
0.0
 10
12.3695388059
 20
8.2239635331
 30
0.0
 10
12.3650765371
 20
8.2285400956
 30
0.0
 10
12.3606877653
 20
8.2336652353
 30
0.0
 10
12.356375481
 20
8.2393345713
 30
0.0
 10
12.3521428637
 20
8.2455434396
 30
0.0
 10
12.3479931205
 20
8.2522867427
 30
0.0
 10
12.3439294762
 20
8.2595589398
 30
0.0
 10
12.3399552381
 20
8.2673540627
 30
0.0
 10
12.3360735976
 20
8.2756656425
 30
0.0
 10
12.3322878167
 20
8.284486787
 30
0.0
 10
12.3286010282
 20
8.2938101225
 30
0.0
 10
12.3250163411
 20
8.3036278407
 30
0.0
 10
12.3215368048
 20
8.3139316944
 30
0.0
 10
12.3181653355
 20
8.3247129986
 30
0.0
 10
12.314904847
 20
8.3359626606
 30
0.0
 10
12.311758076
 20
8.3476711651
 30
0.0
 10
12.3087277351
 20
8.3598286065
 30
0.0
 10
12.3058164052
 20
8.3724246831
 30
0.0
 10
12.3030265612
 20
8.3854487117
 30
0.0
 10
12.3003606145
 20
8.39888965
 30
0.0
 10
12.2978208089
 20
8.4127360964
 30
0.0
 10
12.2954093652
 20
8.4269762434
 30
0.0
 10
12.2931282787
 20
8.4415980442
 30
0.0
 10
12.2902320849
 20
8.4618044296
 30
0.0
 10
12.288310956
 20
8.477165201
 30
0.0
 10
12.2871270556
 20
8.4875273157
 30
0.0
  0
SPLINE
  5
388
100
AcDbEntity
  8
0
100
AcDbSpline
 62
7
  6
CONTINUOUS
 70
0
 71
3
 72
81
 73
77
 74
0
 42
0.0000001
 43
0.0000001
 44
0.0000000001
 40
0.0
 40
0.0
 40
0.0
 40
0.0
 40
0.0027966306
 40
0.0056681527
 40
0.008629676
 40
0.0116947893
 40
0.018179812
 40
0.0216223936
 40
0.0252084144
 40
0.0289446089
 40
0.032836684
 40
0.0368894129
 40
0.0411067005
 40
0.0454917633
 40
0.0500471134
 40
0.0547747058
 40
0.0596759871
 40
0.0647519008
 40
0.0700030307
 40
0.0754295393
 40
0.0810312728
 40
0.0927578266
 40
0.105176342
 40
0.1182760923
 40
0.1320431116
 40
0.1464606159
 40
0.1615093351
 40
0.1771677713
 40
0.1934124279
 40
0.2102180096
 40
0.2275575851
 40
0.2454027293
 40
0.2637236423
 40
0.2824892774
 40
0.3016674581
 40
0.3212249813
 40
0.3411277145
 40
0.3613406859
 40
0.3818281866
 40
0.4025538648
 40
0.4234808148
 40
0.4657879969
 40
0.5084474116
 40
0.5511528376
 40
0.5935976281
 40
0.6354775219
 40
0.6561122424
 40
0.6764941578
 40
0.6965871654
 40
0.7163558431
 40
0.7357655404
 40
0.7547824804
 40
0.773373861
 40
0.7915079494
 40
0.8091541874
 40
0.8262833042
 40
0.8428674516
 40
0.8588803393
 40
0.8742973768
 40
0.8890958451
 40
0.9032551
 40
0.9167568279
 40
0.9295853337
 40
0.9417278996
 40
0.947539148
 40
0.9531757637
 40
0.958637201
 40
0.963923276
 40
0.9690340854
 40
0.9739701019
 40
0.9787321991
 40
0.9833216831
 40
0.9877404975
 40
0.9919911159
 40
0.9960764636
 40
1.0
 40
1.0
 40
1.0
 40
1.0
 10
12.3772155627
 20
8.4080804512
 30
0.0
 10
12.3763648012
 20
8.4083812361
 30
0.0
 10
12.3746650139
 20
8.4090624783
 30
0.0
 10
12.372166727
 20
8.4102976948
 30
0.0
 10
12.3696913668
 20
8.4117572877
 30
0.0
 10
12.366361138
 20
8.4140437787
 30
0.0
 10
12.363144182
 20
8.4167504598
 30
0.0
 10
12.360043395
 20
8.419817585
 30
0.0
 10
12.3576995031
 20
8.4223830222
 30
0.0
 10
12.3553850697
 20
8.4251659548
 30
0.0
 10
12.3531008813
 20
8.4281653074
 30
0.0
 10
12.3508480286
 20
8.4313796088
 30
0.0
 10
12.3486274562
 20
8.4348073441
 30
0.0
 10
12.3464402308
 20
8.4384469283
 30
0.0
 10
12.3442873153
 20
8.4422966327
 30
0.0
 10
12.3421697194
 20
8.4463546535
 30
0.0
 10
12.3400884538
 20
8.450619085
 30
0.0
 10
12.3380444527
 20
8.4550878995
 30
0.0
 10
12.3360387351
 20
8.4597589967
 30
0.0
 10
12.3340721953
 20
8.464630159
 30
0.0
 10
12.3314638172
 20
8.4714937832
 30
0.0
 10
12.3283176009
 20
8.4805641455
 30
0.0
 10
12.3247682738
 20
8.4920476227
 30
0.0
 10
12.3213965172
 20
8.5042687052
 30
0.0
 10
12.3182088222
 20
8.5172041193
 30
0.0
 10
12.3152113468
 20
8.5308293739
 30
0.0
 10
12.3124098953
 20
8.5451185438
 30
0.0
 10
12.3098098906
 20
8.5600444042
 30
0.0
 10
12.3074163655
 20
8.5755784724
 30
0.0
 10
12.3052339571
 20
8.5916910804
 30
0.0
 10
12.303266895
 20
8.608351437
 30
0.0
 10
12.3015189955
 20
8.6255276864
 30
0.0
 10
12.2999936427
 20
8.6431869693
 30
0.0
 10
12.29869379
 20
8.6612954903
 30
0.0
 10
12.2976219576
 20
8.6798185886
 30
0.0
 10
12.2967802268
 20
8.6987208058
 30
0.0
 10
12.296170238
 20
8.7179659507
 30
0.0
 10
12.2957931747
 20
8.737517172
 30
0.0
 10
12.2956497792
 20
8.7573370178
 30
0.0
 10
12.2957403218
 20
8.7773875604
 30
0.0
 10
12.2961744058
 20
8.8044752372
 30
0.0
 10
12.297302623
 20
8.8386275701
 30
0.0
 10
12.2995694224
 20
8.8797632993
 30
0.0
 10
12.3027369244
 20
8.9208841671
 30
0.0
 10
12.3067808317
 20
8.9616752676
 30
0.0
 10
12.3108749286
 20
8.9952965716
 30
0.0
 10
12.3145712182
 20
9.0217880475
 30
0.0
 10
12.3175276209
 20
9.0412834293
 30
0.0
 10
12.3206760316
 20
9.0604655969
 30
0.0
 10
12.324010428
 20
9.0792978458
 30
0.0
 10
12.3275244008
 20
9.0977441088
 30
0.0
 10
12.3312111992
 20
9.115769074
 30
0.0
 10
12.335063732
 20
9.1333382428
 30
0.0
 10
12.3390745917
 20
9.1504179969
 30
0.0
 10
12.343236065
 20
9.1669756603
 30
0.0
 10
12.3475401509
 20
9.1829795657
 30
0.0
 10
12.3519785678
 20
9.1983991237
 30
0.0
 10
12.3565427715
 20
9.213204885
 30
0.0
 10
12.3612239788
 20
9.2273685941
 30
0.0
 10
12.3660131837
 20
9.240863252
 30
0.0
 10
12.37090118
 20
9.2536631579
 30
0.0
 10
12.3758785794
 20
9.2657440456
 30
0.0
 10
12.3809358222
 20
9.2770828973
 30
0.0
 10
12.3852697644
 20
9.2860221101
 30
0.0
 10
12.3887759313
 20
9.2927786821
 30
0.0
 10
12.3913809353
 20
9.2975730276
 30
0.0
 10
12.393998654
 20
9.3021664036
 30
0.0
 10
12.3966278241
 20
9.3065566543
 30
0.0
 10
12.3992672244
 20
9.3107416842
 30
0.0
 10
12.4019155964
 20
9.3147195074
 30
0.0
 10
12.4045716563
 20
9.3184882514
 30
0.0
 10
12.4072342128
 20
9.3220461273
 30
0.0
 10
12.4099020154
 20
9.3253915111
 30
0.0
 10
12.4125738949
 20
9.3285228287
 30
0.0
 10
12.4152484595
 20
9.3314384596
 30
0.0
 10
12.4170686364
 20
9.3332740092
 30
0.0
 10
12.4179791963
 20
9.3341535426
 30
0.0
  0
SPLINE
  5
389
100
AcDbEntity
  8
0
100
AcDbSpline
 62
7
  6
CONTINUOUS
 70
0
 71
3
 72
15
 73
11
 74
0
 42
0.0000001
 43
0.0000001
 44
0.0000000001
 40
0.0
 40
0.0
 40
0.0
 40
0.0
 40
0.1084409115
 40
0.2203197468
 40
0.3363915422
 40
0.4573221093
 40
0.5836913596
 40
0.7159974707
 40
0.8546566544
 40
1.0
 40
1.0
 40
1.0
 40
1.0
 10
12.4424377854
 20
9.3485574074
 30
0.0
 10
12.4414192813
 20
9.3483495104
 30
0.0
 10
12.4393690337
 20
9.3478282033
 30
0.0
 10
12.4363233528
 20
9.3467575922
 30
0.0
 10
12.433267801
 20
9.345389213
 30
0.0
 10
12.4302045334
 20
9.3437245313
 30
0.0
 10
12.4271351324
 20
9.3417649048
 30
0.0
 10
12.4240612189
 20
9.3395118029
 30
0.0
 10
12.4209846687
 20
9.3369669144
 30
0.0
 10
12.4189812972
 20
9.3351214978
 30
0.0
 10
12.4179791963
 20
9.3341535426
 30
0.0
  0
SPLINE
  5
38A
100
AcDbEntity
  8
0
100
AcDbSpline
 62
7
  6
CONTINUOUS
 70
0
 71
3
 72
20
 73
16
 74
0
 42
0.0000001
 43
0.0000001
 44
0.0000000001
 40
0.0
 40
0.0
 40
0.0
 40
0.0
 40
0.0620951696
 40
0.1242270087
 40
0.1864057831
 40
0.2486403237
 40
0.3109374284
 40
0.3733014627
 40
0.4357343007
 40
0.4982353142
 40
0.5608014826
 40
0.6234277209
 40
0.7488233057
 40
0.8743705703
 40
1.0
 40
1.0
 40
1.0
 40
1.0
 10
10.7479712201
 20
7.8434392833
 30
0.0
 10
10.7507118477
 20
7.8428190822
 30
0.0
 10
10.7562114432
 20
7.8416507506
 30
0.0
 10
10.7645093391
 20
7.8401287485
 30
0.0
 10
10.7728544949
 20
7.8388485181
 30
0.0
 10
10.7812419177
 20
7.8378194521
 30
0.0
 10
10.789665408
 20
7.8370480136
 30
0.0
 10
10.7981177042
 20
7.8365372381
 30
0.0
 10
10.8065909123
 20
7.8362865929
 30
0.0
 10
10.815076897
 20
7.8362920471
 30
0.0
 10
10.8235677848
 20
7.8365463857
 30
0.0
 10
10.8348895249
 20
7.837204125
 30
0.0
 10
10.849017624
 20
7.8385937804
 30
0.0
 10
10.8658847346
 20
7.8410537022
 30
0.0
 10
10.8770605504
 20
7.8431417215
 30
0.0
 10
10.8826305933
 20
7.8442790713
 30
0.0
  0
SPLINE
  5
38B
100
AcDbEntity
  8
0
100
AcDbSpline
 62
7
  6
CONTINUOUS
 70
0
 71
3
 72
15
 73
11
 74
0
 42
0.0000001
 43
0.0000001
 44
0.0000000001
 40
0.0
 40
0.0
 40
0.0
 40
0.0
 40
0.1132678961
 40
0.2308629458
 40
0.3523238203
 40
0.4771639147
 40
0.6048786999
 40
0.734947163
 40
0.8668355235
 40
1.0
 40
1.0
 40
1.0
 40
1.0
 10
10.8826305933
 20
7.8442790713
 30
0.0
 10
10.877740593
 20
7.8451833338
 30
0.0
 10
10.8677498113
 20
7.8468986785
 30
0.0
 10
10.8524467418
 20
7.8491624664
 30
0.0
 10
10.8365942412
 20
7.8511584084
 30
0.0
 10
10.8202626366
 20
7.8528775132
 30
0.0
 10
10.8035243238
 20
7.8543120754
 30
0.0
 10
10.7864535049
 20
7.8554556559
 30
0.0
 10
10.7691259659
 20
7.8563031273
 30
0.0
 10
10.7574940929
 20
7.8566669232
 30
0.0
 10
10.7516491443
 20
7.8567991489
 30
0.0
  0
SPLINE
  5
38C
100
AcDbEntity
  8
0
100
AcDbSpline
 62
7
  6
CONTINUOUS
 70
0
 71
3
 72
23
 73
19
 74
0
 42
0.0000001
 43
0.0000001
 44
0.0000000001
 40
0.0
 40
0.0
 40
0.0
 40
0.0
 40
0.0637775561
 40
0.1273446565
 40
0.1907020307
 40
0.2538561431
 40
0.3168131834
 40
0.3795821015
 40
0.4421733894
 40
0.5045993415
 40
0.5668738676
 40
0.6290123791
 40
0.6910316472
 40
0.7529496401
 40
0.8147853492
 40
0.8765585998
 40
0.9382898533
 40
1.0
 40
1.0
 40
1.0
 40
1.0
 10
10.4388278775
 20
7.7309297368
 30
0.0
 10
10.4388278775
 20
7.7373095923
 30
0.0
 10
10.4391332258
 20
7.7500504136
 30
0.0
 10
10.4405115144
 20
7.7690841764
 30
0.0
 10
10.4428063058
 20
7.7879670094
 30
0.0
 10
10.4460122159
 20
7.8066547027
 30
0.0
 10
10.4501219981
 20
7.8251044346
 30
0.0
 10
10.455126172
 20
7.8432735906
 30
0.0
 10
10.4610132687
 20
7.8611203017
 30
0.0
 10
10.4677697515
 20
7.8786034054
 30
0.0
 10
10.475380075
 20
7.8956825831
 30
0.0
 10
10.4838267211
 20
7.9123184422
 30
0.0
 10
10.4930902365
 20
7.9284726057
 30
0.0
 10
10.5031492918
 20
7.9441078146
 30
0.0
 10
10.5139806751
 20
7.9591879639
 30
0.0
 10
10.5255595484
 20
7.9736783768
 30
0.0
 10
10.5378587482
 20
7.9875451771
 30
0.0
 10
10.5465211806
 20
7.9963542425
 30
0.0
 10
10.550961178
 20
8.00064294
 30
0.0
  0
SPLINE
  5
38D
100
AcDbEntity
  8
0
100
AcDbSpline
 62
7
  6
CONTINUOUS
 70
0
 71
3
 72
21
 73
17
 74
0
 42
0.0000001
 43
0.0000001
 44
0.0000000001
 40
0.0
 40
0.0
 40
0.0
 40
0.0
 40
0.1273176366
 40
0.2537999756
 40
0.3167619475
 40
0.3795355041
 40
0.4421314991
 40
0.5045621439
 40
0.5668413432
 40
0.6289845283
 40
0.6910084528
 40
0.7529310935
 40
0.8147714495
 40
0.8765493365
 40
0.9382852194
 40
1.0
 40
1.0
 40
1.0
 40
1.0
 10
11.1550619201
 20
10.0052764305
 30
0.0
 10
11.1550619201
 20
10.0105736804
 30
0.0
 10
11.1555675776
 20
10.0211402446
 30
0.0
 10
11.1574772816
 20
10.0342028011
 30
0.0
 10
11.1597598026
 20
10.0444492347
 30
0.0
 10
11.1618413391
 20
10.0520070078
 30
0.0
 10
11.1642901267
 20
10.0594304918
 30
0.0
 10
11.1671005545
 20
10.0667027716
 30
0.0
 10
11.1702661219
 20
10.0738070335
 30
0.0
 10
11.1737795733
 20
10.0807268939
 30
0.0
 10
11.1776328266
 20
10.0874463782
 30
0.0
 10
11.1818169731
 20
10.0939500101
 30
0.0
 10
11.1863223755
 20
10.1002227628
 30
0.0
 10
11.1911387227
 20
10.1062501947
 30
0.0
 10
11.1962546813
 20
10.1120182413
 30
0.0
 10
11.1998578846
 20
10.1156824814
 30
0.0
 10
11.2017047434
 20
10.1174664103
 30
0.0
  0
SPLINE
  5
38E
100
AcDbEntity
  8
0
100
AcDbSpline
 62
7
  6
CONTINUOUS
 70
0
 71
3
 72
18
 73
14
 74
0
 42
0.0000001
 43
0.0000001
 44
0.0000000001
 40
0.0
 40
0.0
 40
0.0
 40
0.0
 40
0.0548621106
 40
0.1099281304
 40
0.165399556
 40
0.2214731722
 40
0.2783387379
 40
0.3361775111
 40
0.4554063056
 40
0.5804414047
 40
0.7123341351
 40
0.8519581983
 40
1.0
 40
1.0
 40
1.0
 40
1.0
 10
10.2285748129
 20
10.5046559584
 30
0.0
 10
10.2285748097
 20
10.5053621043
 30
0.0
 10
10.2286196223
 20
10.5067774264
 30
0.0
 10
10.2288211185
 20
10.5088981094
 30
0.0
 10
10.2291568689
 20
10.5110175687
 30
0.0
 10
10.2296267465
 20
10.5131350309
 30
0.0
 10
10.2302305536
 20
10.5152499671
 30
0.0
 10
10.2312237042
 20
10.5180939855
 30
0.0
 10
10.2328147212
 20
10.521651088
 30
0.0
 10
10.2352363545
 20
10.5258520441
 30
0.0
 10
10.2381857872
 20
10.5300258147
 30
0.0
 10
10.2416585321
 20
10.5341681934
 30
0.0
 10
10.2442413361
 20
10.5368260379
 30
0.0
 10
10.2456118675
 20
10.5381498695
 30
0.0
  0
SPLINE
  5
38F
100
AcDbEntity
  8
0
100
AcDbSpline
 62
7
  6
CONTINUOUS
 70
0
 71
3
 72
39
 73
35
 74
0
 42
0.0000001
 43
0.0000001
 44
0.0000000001
 40
0.0
 40
0.0
 40
0.0
 40
0.0
 40
0.0299424701
 40
0.0599093174
 40
0.0899243244
 40
0.1200101043
 40
0.1501875649
 40
0.1804754189
 40
0.2108897652
 40
0.2414437446
 40
0.2721472716
 40
0.303006856
 40
0.3340255105
 40
0.3652027321
 40
0.396534568
 40
0.4280137546
 40
0.459629913
 40
0.4913698074
 40
0.5232176551
 40
0.555155472
 40
0.5871634555
 40
0.6192203971
 40
0.6513041118
 40
0.6833918814
 40
0.7154609078
 40
0.747488765
 40
0.7794538478
 40
0.811335806
 40
0.8431159644
 40
0.874777716
 40
0.9063068848
 40
0.9376920706
 40
0.9689246614
 40
1.0
 40
1.0
 40
1.0
 40
1.0
 10
11.1255152826
 20
7.4058181295
 30
0.0
 10
11.1186554535
 20
7.3991920601
 30
0.0
 10
11.1043963734
 20
7.3864746944
 30
0.0
 10
11.0815511144
 20
7.3691495458
 30
0.0
 10
11.057365993
 20
7.3536619911
 30
0.0
 10
11.0319761467
 20
7.3400989016
 30
0.0
 10
11.0055211446
 20
7.3285344207
 30
0.0
 10
10.9781470088
 20
7.3190320802
 30
0.0
 10
10.9500045851
 20
7.3116438617
 30
0.0
 10
10.921248907
 20
7.3064101493
 30
0.0
 10
10.8920383072
 20
7.3033593389
 30
0.0
 10
10.8625335234
 20
7.3025078147
 30
0.0
 10
10.8328968232
 20
7.303859926
 30
0.0
 10
10.8032911199
 20
7.3074078463
 30
0.0
 10
10.7738790723
 20
7.3131317065
 30
0.0
 10
10.744822225
 20
7.3209997842
 30
0.0
 10
10.7162801103
 20
7.330968563
 30
0.0
 10
10.6884093805
 20
7.3429830216
 30
0.0
 10
10.6613629997
 20
7.3569770207
 30
0.0
 10
10.6352893766
 20
7.3728735608
 30
0.0
 10
10.6103315507
 20
7.3905852183
 30
0.0
 10
10.5866264788
 20
7.4100147104
 30
0.0
 10
10.5643042441
 20
7.4310553406
 30
0.0
 10
10.5434873225
 20
7.4535915701
 30
0.0
 10
10.5242900025
 20
7.4774997299
 30
0.0
 10
10.506817716
 20
7.5026486324
 30
0.0
 10
10.4911664108
 20
7.5289002571
 30
0.0
 10
10.4774221345
 20
7.5561105786
 30
0.0
 10
10.4656605249
 20
7.5841302871
 30
0.0
 10
10.4559463131
 20
7.6128056393
 30
0.0
 10
10.4483330817
 20
7.6419790997
 30
0.0
 10
10.4428629929
 20
7.671491037
 30
0.0
 10
10.4395662708
 20
7.7011772854
 30
0.0
 10
10.4388278775
 20
7.721031488
 30
0.0
 10
10.4388278775
 20
7.7309297368
 30
0.0
  0
SPLINE
  5
390
100
AcDbEntity
  8
0
100
AcDbSpline
 62
7
  6
CONTINUOUS
 70
0
 71
3
 72
39
 73
35
 74
0
 42
0.0000001
 43
0.0000001
 44
0.0000000001
 40
0.0
 40
0.0
 40
0.0
 40
0.0
 40
0.0299332452
 40
0.0598997992
 40
0.0899224663
 40
0.1200227268
 40
0.1502202409
 40
0.1805324066
 40
0.2109739856
 40
0.2415568008
 40
0.2722895069
 40
0.3031774461
 40
0.3342225828
 40
0.3654235103
 40
0.3967755284
 40
0.4282707924
 40
0.4598985176
 40
0.4916452321
 40
0.523495079
 40
0.5554301574
 40
0.5874308899
 40
0.6194764155
 40
0.6515450034
 40
0.6836144759
 40
0.7156626382
 40
0.7476677085
 40
0.7796087418
 40
0.811466043
 40
0.8432215644
 40
0.874859274
 40
0.9063654968
 40
0.9377292646
 40
0.968942242
 40
1.0
 40
1.0
 40
1.0
 40
1.0
 10
11.1253895025
 20
7.4059526621
 30
0.0
 10
11.118408536
 20
7.3996284096
 30
0.0
 10
11.1039353528
 20
7.3875161997
 30
0.0
 10
11.0808560105
 20
7.3710949733
 30
0.0
 10
11.0565185515
 20
7.3564979469
 30
0.0
 10
11.0310555572
 20
7.3438049624
 30
0.0
 10
11.0046034901
 20
7.3330836019
 30
0.0
 10
10.9773046767
 20
7.3243912639
 30
0.0
 10
10.9493057548
 20
7.3177742858
 30
0.0
 10
10.9207570857
 20
7.3132678913
 30
0.0
 10
10.8918119026
 20
7.3108958792
 30
0.0
 10
10.8626254784
 20
7.3106705937
 30
0.0
 10
10.8333542957
 20
7.3125929083
 30
0.0
 10
10.8041552226
 20
7.3166521975
 30
0.0
 10
10.7751846658
 20
7.3228263562
 30
0.0
 10
10.7465977509
 20
7.3310820206
 30
0.0
 10
10.7185475163
 20
7.3413747519
 30
0.0
 10
10.6911840776
 20
7.3536491967
 30
0.0
 10
10.6646538426
 20
7.3678394357
 30
0.0
 10
10.6390987609
 20
7.3838693737
 30
0.0
 10
10.6146555674
 20
7.401653115
 30
0.0
 10
10.5914550158
 20
7.4210953691
 30
0.0
 10
10.5696212376
 20
7.4420920342
 30
0.0
 10
10.5492710962
 20
7.4645307449
 30
0.0
 10
10.5305135125
 20
7.4882914117
 30
0.0
 10
10.5134489019
 20
7.5132468843
 30
0.0
 10
10.4981686847
 20
7.5392636522
 30
0.0
 10
10.4847547879
 20
7.5662025362
 30
0.0
 10
10.4732791353
 20
7.5939193727
 30
0.0
 10
10.4638033444
 20
7.6222658876
 30
0.0
 10
10.4563783941
 20
7.6510902389
 30
0.0
 10
10.4510443491
 20
7.6802386202
 30
0.0
 10
10.4478299436
 20
7.709552943
 30
0.0
 10
10.4471100803
 20
7.7291561954
 30
0.0
 10
10.4471100803
 20
7.7389297308
 30
0.0
  0
SPLINE
  5
391
100
AcDbEntity
  8
0
100
AcDbSpline
 62
7
  6
CONTINUOUS
 70
0
 71
3
 72
56
 73
52
 74
0
 42
0.0000001
 43
0.0000001
 44
0.0000000001
 40
0.0
 40
0.0
 40
0.0
 40
0.0
 40
0.0153876701
 40
0.0307306135
 40
0.0460311901
 40
0.0612920624
 40
0.0765162757
 40
0.0917072149
 40
0.1068685641
 40
0.122004285
 40
0.1371185812
 40
0.1522158552
 40
0.1673006682
 40
0.1823777017
 40
0.1974517116
 40
0.2125274798
 40
0.2276097717
 40
0.2427032933
 40
0.2578126439
 40
0.2729422706
 40
0.2880964322
 40
0.3032791599
 40
0.3184942163
 40
0.3337450641
 40
0.349034841
 40
0.3643663295
 40
0.3797419308
 40
0.3951636539
 40
0.4106331001
 40
0.4261514468
 40
0.4417194443
 40
0.4573374184
 40
0.4730052659
 40
0.4887224569
 40
0.5044880516
 40
0.5203007087
 40
0.552052001
 40
0.5839661869
 40
0.6160198409
 40
0.6481851236
 40
0.6804306937
 40
0.7127227185
 40
0.7450259311
 40
0.7773047179
 40
0.8095242201
 40
0.8416514129
 40
0.8736561436
 40
0.9055121214
 40
0.937197787
 40
0.9686968662
 40
1.0
 40
1.0
 40
1.0
 40
1.0
 10
11.0791618277
 20
7.6517139323
 30
0.0
 10
11.0784947043
 20
7.6481826756
 30
0.0
 10
11.0769952527
 20
7.6411607975
 30
0.0
 10
11.0742508403
 20
7.6307625954
 30
0.0
 10
11.0710201354
 20
7.6205358171
 30
0.0
 10
11.0673100525
 20
7.6105026225
 30
0.0
 10
11.0631285225
 20
7.6006843554
 30
0.0
 10
11.0584844653
 20
7.5911020146
 30
0.0
 10
11.0533877477
 20
7.5817760917
 30
0.0
 10
11.047849273
 20
7.5727265084
 30
0.0
 10
11.0418808801
 20
7.5639725938
 30
0.0
 10
11.0354952864
 20
7.5555330763
 30
0.0
 10
11.0287061262
 20
7.5474260016
 30
0.0
 10
11.0215279326
 20
7.5396686728
 30
0.0
 10
11.0139760334
 20
7.5322776746
 30
0.0
 10
11.0060665411
 20
7.5252688307
 30
0.0
 10
10.9978163878
 20
7.5186570888
 30
0.0
 10
10.98924321
 20
7.5124565651
 30
0.0
 10
10.9803653089
 20
7.5066805358
 30
0.0
 10
10.9712016682
 20
7.5013413268
 30
0.0
 10
10.9617718881
 20
7.4964503092
 30
0.0
 10
10.9520961098
 20
7.492017939
 30
0.0
 10
10.9421950023
 20
7.4880536954
 30
0.0
 10
10.9320897393
 20
7.484565992
 30
0.0
 10
10.9218019085
 20
7.4815622609
 30
0.0
 10
10.9113534771
 20
7.4790489391
 30
0.0
 10
10.9007667725
 20
7.4770313475
 30
0.0
 10
10.890064407
 20
7.475513754
 30
0.0
 10
10.8792692298
 20
7.4744994088
 30
0.0
 10
10.8684042922
 20
7.4739904642
 30
0.0
 10
10.8574927905
 20
7.4739879482
 30
0.0
 10
10.8465580188
 20
7.4744918541
 30
0.0
 10
10.8356233002
 20
7.4755011296
 30
0.0
 10
10.8247120395
 20
7.4770135376
 30
0.0
 10
10.8138472514
 20
7.4790259163
 30
0.0
 10
10.7994365909
 20
7.4823738435
 30
0.0
 10
10.7816544598
 20
7.4877901468
 30
0.0
 10
10.7609050857
 20
7.4961846029
 30
0.0
 10
10.7408861163
 20
7.5064123523
 30
0.0
 10
10.7217690527
 20
7.5183858559
 30
0.0
 10
10.7037161041
 20
7.5320029714
 30
0.0
 10
10.6868809485
 20
7.5471477381
 30
0.0
 10
10.6714067472
 20
7.5636911868
 30
0.0
 10
10.657425193
 20
7.581492552
 30
0.0
 10
10.6450553946
 20
7.6004004429
 30
0.0
 10
10.6344027143
 20
7.6202539852
 30
0.0
 10
10.625558163
 20
7.6408844147
 30
0.0
 10
10.6185973045
 20
7.6621160148
 30
0.0
 10
10.6135799041
 20
7.6837687502
 30
0.0
 10
10.6105491534
 20
7.7056558518
 30
0.0
 10
10.6098685917
 20
7.7203316847
 30
0.0
 10
10.6098685917
 20
7.7276423897
 30
0.0
  0
SPLINE
  5
392
100
AcDbEntity
  8
0
100
AcDbSpline
 62
7
  6
CONTINUOUS
 70
0
 71
3
 72
39
 73
35
 74
0
 42
0.0000001
 43
0.0000001
 44
0.0000000001
 40
0.0
 40
0.0
 40
0.0
 40
0.0
 40
0.0305811937
 40
0.0610137723
 40
0.0913233975
 40
0.1215400474
 40
0.1516970074
 40
0.1818296964
 40
0.2119744064
 40
0.2421669973
 40
0.272441611
 40
0.3028294705
 40
0.3333578016
 40
0.364048938
 40
0.3949196321
 40
0.4259805723
 40
0.457236146
 40
0.4886844118
 40
0.5203172672
 40
0.5521208219
 40
0.5840759175
 40
0.6161587816
 40
0.6483418086
 40
0.6805944152
 40
0.7128839636
 40
0.7451767322
 40
0.7774389062
 40
0.8096375676
 40
0.8417416685
 40
0.8737229691
 40
0.9055569135
 40
0.9372234346
 40
0.9687073156
 40
1.0
 40
1.0
 40
1.0
 40
1.0
 10
11.0815435829
 20
7.6674271209
 30
0.0
 10
11.0799009113
 20
7.6612913646
 30
0.0
 10
11.0760511598
 20
7.6491943906
 30
0.0
 10
11.0686115815
 20
7.6317165602
 30
0.0
 10
11.0595804603
 20
7.6150892656
 30
0.0
 10
11.0490315518
 20
7.599450239
 30
0.0
 10
11.0370504832
 20
7.5849265256
 30
0.0
 10
11.0237348784
 20
7.5716367498
 30
0.0
 10
11.0091932361
 20
7.5596892986
 30
0.0
 10
10.9935442226
 20
7.5491814778
 30
0.0
 10
10.9769155244
 20
7.5401987269
 30
0.0
 10
10.9594427577
 20
7.5328139956
 30
0.0
 10
10.9412683951
 20
7.5270869707
 30
0.0
 10
10.9225404727
 20
7.5230637875
 30
0.0
 10
10.9034113889
 20
7.5207766962
 30
0.0
 10
10.8840366662
 20
7.5202436717
 30
0.0
 10
10.8645736515
 20
7.5214685181
 30
0.0
 10
10.8451802796
 20
7.5244408137
 30
0.0
 10
10.8260137785
 20
7.5291359062
 30
0.0
 10
10.8072294486
 20
7.5355153418
 30
0.0
 10
10.7889794257
 20
7.5435270782
 30
0.0
 10
10.7714114288
 20
7.5531058585
 30
0.0
 10
10.7546676708
 20
7.5641739137
 30
0.0
 10
10.7388836719
 20
7.5766414495
 30
0.0
 10
10.7241871558
 20
7.5904073726
 30
0.0
 10
10.7106971439
 20
7.6053602188
 30
0.0
 10
10.6985228914
 20
7.621378904
 30
0.0
 10
10.6877630336
 20
7.638333745
 30
0.0
 10
10.6785049095
 20
7.6560875344
 30
0.0
 10
10.6708236956
 20
7.6744965909
 30
0.0
 10
10.6647818725
 20
7.6934117263
 30
0.0
 10
10.6604288508
 20
7.7126802946
 30
0.0
 10
10.6578001946
 20
7.7321441299
 30
0.0
 10
10.6572101287
 20
7.7451904165
 30
0.0
 10
10.6572101287
 20
7.7516900365
 30
0.0
  0
SPLINE
  5
393
100
AcDbEntity
  8
0
100
AcDbSpline
 62
7
  6
CONTINUOUS
 70
0
 71
3
 72
41
 73
37
 74
0
 42
0.0000001
 43
0.0000001
 44
0.0000000001
 40
0.0
 40
0.0
 40
0.0
 40
0.0
 40
0.0299421711
 40
0.0599087182
 40
0.0899234237
 40
0.120008901
 40
0.1501860568
 40
0.1804736044
 40
0.2108876432
 40
0.2414413126
 40
0.272144528
 40
0.3030038001
 40
0.3340221401
 40
0.3651990458
 40
0.3965305658
 40
0.4280094351
 40
0.459625275
 40
0.4913648512
 40
0.5232123798
 40
0.5551498765
 40
0.5871575398
 40
0.6192141608
 40
0.6512975542
 40
0.6833850026
 40
0.715453708
 40
0.7314764109
 40
0.7474860766
 40
0.7794508393
 40
0.8113324792
 40
0.8431123189
 40
0.8747737608
 40
0.9063025958
 40
0.9376874988
 40
0.9533255066
 40
0.9689250205
 40
1.0
 40
1.0
 40
1.0
 40
1.0
 10
11.0155071296
 20
7.6040402964
 30
0.0
 10
11.0122804391
 20
7.6009235529
 30
0.0
 10
11.0055733363
 20
7.5949416001
 30
0.0
 10
10.9948275124
 20
7.586792249
 30
0.0
 10
10.9834514449
 20
7.57950726
 30
0.0
 10
10.9715086985
 20
7.5731274999
 30
0.0
 10
10.9590649337
 20
7.5676878227
 30
0.0
 10
10.9461888262
 20
7.56321813
 30
0.0
 10
10.9329513311
 20
7.5597428773
 30
0.0
 10
10.9194253776
 20
7.5572810378
 30
0.0
 10
10.905685437
 20
7.5558459842
 30
0.0
 10
10.8918071175
 20
7.5554454314
 30
0.0
 10
10.8778667461
 20
7.556081403
 30
0.0
 10
10.8639409522
 20
7.5577502297
 30
0.0
 10
10.8501062494
 20
7.5604425771
 30
0.0
 10
10.836438621
 20
7.5641435037
 30
0.0
 10
10.8230131072
 20
7.5688325477
 30
0.0
 10
10.8099033999
 20
7.5744838421
 30
0.0
 10
10.7971814432
 20
7.5810662602
 30
0.0
 10
10.7849170454
 20
7.5885435826
 30
0.0
 10
10.7731774937
 20
7.5968747085
 30
0.0
 10
10.7620272186
 20
7.6060138387
 30
0.0
 10
10.7515273382
 20
7.6159108797
 30
0.0
 10
10.7417357215
 20
7.6265111388
 30
0.0
 10
10.7342078684
 20
7.6358863529
 30
0.0
 10
10.7285913579
 20
7.643679016
 30
0.0
 10
10.7232574832
 20
7.6516490505
 30
0.0
 10
10.7171249925
 20
7.6619348197
 30
0.0
 10
10.7106601765
 20
7.6747336676
 30
0.0
 10
10.7051277514
 20
7.6879134826
 30
0.0
 10
10.7005584271
 20
7.7014017064
 30
0.0
 10
10.6969773756
 20
7.715123952
 30
0.0
 10
10.6948304618
 20
7.7267070153
 30
0.0
 10
10.6936261025
 20
7.7360138596
 30
0.0
 10
10.6927665828
 20
7.7453118003
 30
0.0
 10
10.6925063292
 20
7.7523084348
 30
0.0
 10
10.6925063292
 20
7.7569643194
 30
0.0
  0
SPLINE
  5
394
100
AcDbEntity
  8
0
100
AcDbSpline
 62
7
  6
CONTINUOUS
 70
0
 71
3
 72
23
 73
19
 74
0
 42
0.0000001
 43
0.0000001
 44
0.0000000001
 40
0.0
 40
0.0
 40
0.0
 40
0.0
 40
0.0616887121
 40
0.1234094267
 40
0.1851812358
 40
0.2470227517
 40
0.3089519323
 40
0.3709859142
 40
0.4331408556
 40
0.4954317954
 40
0.5578725184
 40
0.6204754552
 40
0.6832515445
 40
0.7462101503
 40
0.8093592536
 40
0.8727040861
 40
0.9362512237
 40
1.0
 40
1.0
 40
1.0
 40
1.0
 10
10.5510975589
 20
8.0005191321
 30
0.0
 10
10.54696313
 20
7.9962619465
 30
0.0
 10
10.5389013281
 20
7.9875392837
 30
0.0
 10
10.5274667131
 20
7.9738702083
 30
0.0
 10
10.5167111624
 20
7.9596416564
 30
0.0
 10
10.5066579839
 20
7.9448843599
 30
0.0
 10
10.4973284763
 20
7.9296296602
 30
0.0
 10
10.4887425376
 20
7.9139100916
 30
0.0
 10
10.4809184332
 20
7.8977591463
 30
0.0
 10
10.4738727965
 20
7.8812112495
 30
0.0
 10
10.4676206028
 20
7.8643016602
 30
0.0
 10
10.462175141
 20
7.8470664021
 30
0.0
 10
10.4575479868
 20
7.829542192
 30
0.0
 10
10.4537489517
 20
7.8117663296
 30
0.0
 10
10.4507861311
 20
7.7937767669
 30
0.0
 10
10.4486656742
 20
7.7756115358
 30
0.0
 10
10.4473922382
 20
7.7573099887
 30
0.0
 10
10.4471100803
 20
7.7450623097
 30
0.0
 10
10.4471100803
 20
7.7389297308
 30
0.0
  0
SPLINE
  5
395
100
AcDbEntity
  8
0
100
AcDbSpline
 62
7
  6
CONTINUOUS
 70
0
 71
3
 72
25
 73
21
 74
0
 42
0.0000001
 43
0.0000001
 44
0.0000000001
 40
0.0
 40
0.0
 40
0.0
 40
0.0
 40
0.0315740931
 40
0.0630640262
 40
0.0944736623
 40
0.1258074687
 40
0.188252882
 40
0.2504620476
 40
0.3124888564
 40
0.3743928846
 40
0.4362375705
 40
0.4980882253
 40
0.5600099705
 40
0.6220656869
 40
0.6843140476
 40
0.7468077213
 40
0.8095918245
 40
0.8727027429
 40
0.9361663024
 40
1.0
 40
1.0
 40
1.0
 40
1.0
 10
10.7951033826
 20
7.945794964
 30
0.0
 10
10.7918553786
 20
7.9452972483
 30
0.0
 10
10.7853886267
 20
7.9441626828
 30
0.0
 10
10.775784979
 20
7.9420429101
 30
0.0
 10
10.7663070758
 20
7.9395111588
 30
0.0
 10
10.7538767901
 20
7.9355975361
 30
0.0
 10
10.7387274332
 20
7.9296995375
 30
0.0
 10
10.7213003407
 20
7.9210550519
 30
0.0
 10
10.7047657374
 20
7.9109117232
 30
0.0
 10
10.6892430249
 20
7.8993421939
 30
0.0
 10
10.6748431651
 20
7.8864290961
 30
0.0
 10
10.6616693221
 20
7.8722649017
 30
0.0
 10
10.6498157536
 20
7.8569510461
 30
0.0
 10
10.6393672301
 20
7.8405972176
 30
0.0
 10
10.6303982968
 20
7.823320601
 30
0.0
 10
10.6229728205
 20
7.8052448882
 30
0.0
 10
10.6171435688
 20
7.7864995562
 30
0.0
 10
10.6129518554
 20
7.7672182311
 30
0.0
 10
10.6104270617
 20
7.7475404749
 30
0.0
 10
10.6098685917
 20
7.7342855649
 30
0.0
 10
10.6098685917
 20
7.7276423897
 30
0.0
  0
SPLINE
  5
396
100
AcDbEntity
  8
0
100
AcDbSpline
 62
7
  6
CONTINUOUS
 70
0
 71
3
 72
23
 73
19
 74
0
 42
0.0000001
 43
0.0000001
 44
0.0000000001
 40
0.0
 40
0.0
 40
0.0
 40
0.0
 40
0.0628099206
 40
0.1253451757
 40
0.1876459299
 40
0.2497588025
 40
0.3117356371
 40
0.373632091
 40
0.4355060879
 40
0.4974161856
 40
0.5594199225
 40
0.6215722001
 40
0.6839237636
 40
0.7465198309
 40
0.8093988651
 40
0.8725919034
 40
0.9361205944
 40
1.0
 40
1.0
 40
1.0
 40
1.0
 10
10.8106349725
 20
7.9475719208
 30
0.0
 10
10.8051513991
 20
7.9462984279
 30
0.0
 10
10.7943075849
 20
7.9433039692
 30
0.0
 10
10.7785081775
 20
7.9374846214
 30
0.0
 10
10.7633090812
 20
7.9303838692
 30
0.0
 10
10.7488089768
 20
7.9220472486
 30
0.0
 10
10.7351002585
 20
7.9125278138
 30
0.0
 10
10.7222707663
 20
7.9018863609
 30
0.0
 10
10.7104025698
 20
7.890190898
 30
0.0
 10
10.6995715727
 20
7.8775162495
 30
0.0
 10
10.6898469878
 20
7.8639435257
 30
0.0
 10
10.6812908945
 20
7.849559588
 30
0.0
 10
10.6739578379
 20
7.8344564805
 30
0.0
 10
10.6678944895
 20
7.818730783
 30
0.0
 10
10.6631393019
 20
7.802483128
 30
0.0
 10
10.6597224096
 20
7.7858169908
 30
0.0
 10
10.6576652261
 20
7.7688401368
 30
0.0
 10
10.6572101287
 20
7.7574154001
 30
0.0
 10
10.6572101287
 20
7.7516900365
 30
0.0
  0
SPLINE
  5
397
100
AcDbEntity
  8
0
100
AcDbSpline
 62
7
  6
CONTINUOUS
 70
0
 71
3
 72
21
 73
17
 74
0
 42
0.0000001
 43
0.0000001
 44
0.0000000001
 40
0.0
 40
0.0
 40
0.0
 40
0.0
 40
0.0617147807
 40
0.1234506636
 40
0.1852285506
 40
0.2470689066
 40
0.3089915473
 40
0.3710154718
 40
0.4331586568
 40
0.495437856
 40
0.5578685007
 40
0.6204644957
 40
0.6832380523
 40
0.7462000242
 40
0.8726823632
 40
1.0
 40
1.0
 40
1.0
 40
1.0
 10
10.7452506975
 20
7.8838303265
 30
0.0
 10
10.7431622433
 20
7.8818130347
 30
0.0
 10
10.7390876899
 20
7.8776694609
 30
0.0
 10
10.7333024911
 20
7.871146873
 30
0.0
 10
10.7278560971
 20
7.8643309685
 30
0.0
 10
10.7227613241
 20
7.8572376517
 30
0.0
 10
10.7180298316
 20
7.8498832534
 30
0.0
 10
10.7136725179
 20
7.8422847662
 30
0.0
 10
10.7096994572
 20
7.8344596908
 30
0.0
 10
10.7061197885
 20
7.8264260915
 30
0.0
 10
10.7029417167
 20
7.8182024951
 30
0.0
 10
10.7001725928
 20
7.8098079148
 30
0.0
 10
10.6978187617
 20
7.8012614786
 30
0.0
 10
10.6952376544
 20
7.789674667
 30
0.0
 10
10.6930781339
 20
7.7749033441
 30
0.0
 10
10.6925063292
 20
7.7629545243
 30
0.0
 10
10.6925063292
 20
7.7569643194
 30
0.0
  0
SPLINE
  5
398
100
AcDbEntity
  8
0
100
AcDbSpline
 62
7
  6
CONTINUOUS
 70
0
 71
3
 72
42
 73
38
 74
0
 42
0.0000001
 43
0.0000001
 44
0.0000000001
 40
0.0
 40
0.0
 40
0.0
 40
0.0
 40
0.0299419663
 40
0.0449235352
 40
0.0599142051
 40
0.0899287052
 40
0.1200139767
 40
0.135092661
 40
0.150196701
 40
0.1804840414
 40
0.210897872
 40
0.2414513324
 40
0.2721543376
 40
0.3030133986
 40
0.3340315263
 40
0.3652082187
 40
0.3965395244
 40
0.4280181782
 40
0.4596338019
 40
0.4913731609
 40
0.5232204716
 40
0.55515775
 40
0.5871651943
 40
0.6192215961
 40
0.6513047701
 40
0.6833919991
 40
0.7154604852
 40
0.7474878032
 40
0.7794523473
 40
0.8113337692
 40
0.8431133916
 40
0.8747746171
 40
0.9063032365
 40
0.9376879249
 40
0.9533258257
 40
0.968925233
 40
1.0
 40
1.0
 40
1.0
 40
1.0
 10
11.4406976008
 20
9.8700428582
 30
0.0
 10
11.437844178
 20
9.867286663
 30
0.0
 10
11.4333958691
 20
9.8633193557
 30
0.0
 10
11.4271660817
 20
9.8583968166
 30
0.0
 10
11.4207379203
 20
9.8537192098
 30
0.0
 10
11.4123502117
 20
9.8483478083
 30
0.0
 10
11.4035546775
 20
9.8436493932
 30
0.0
 10
11.396300656
 20
9.8403068932
 30
0.0
 10
11.3888967599
 20
9.8372403754
 30
0.0
 10
11.3793979161
 20
9.8339429489
 30
0.0
 10
11.3676920163
 20
9.8308698363
 30
0.0
 10
11.3557306899
 20
9.8286927522
 30
0.0
 10
11.3435802216
 20
9.8274237151
 30
0.0
 10
11.3313073575
 20
9.8270694955
 30
0.0
 10
11.3189796264
 20
9.8276318969
 30
0.0
 10
11.3066647845
 20
9.8291076708
 30
0.0
 10
11.2944304968
 20
9.8314885636
 30
0.0
 10
11.2823439558
 20
9.8347613619
 30
0.0
 10
11.2704715213
 20
9.838907971
 30
0.0
 10
11.2588783604
 20
9.8439055164
 30
0.0
 10
11.2476280949
 20
9.8497264717
 30
0.0
 10
11.2367824563
 20
9.856338809
 30
0.0
 10
11.2264009523
 20
9.8637061761
 30
0.0
 10
11.2165405444
 20
9.8717880946
 30
0.0
 10
11.2072553386
 20
9.8805401807
 30
0.0
 10
11.1985962925
 20
9.889914387
 30
0.0
 10
11.1906109381
 20
9.899859263
 30
0.0
 10
11.1833431239
 20
9.9103202363
 30
0.0
 10
11.1768327759
 20
9.9212399045
 30
0.0
 10
11.1711156804
 20
9.9325583598
 30
0.0
 10
11.1662232892
 20
9.9442134664
 30
0.0
 10
11.16218254
 20
9.95614137
 30
0.0
 10
11.1590157513
 20
9.9682762061
 30
0.0
 10
11.1571171943
 20
9.9785193276
 30
0.0
 10
11.1560521567
 20
9.986749545
 30
0.0
 10
11.1552920673
 20
9.9949718887
 30
0.0
 10
11.1550619201
 20
10.0011591441
 30
0.0
 10
11.1550619201
 20
10.0052764305
 30
0.0
  0
SPLINE
  5
399
100
AcDbEntity
  8
0
100
AcDbSpline
 62
7
  6
CONTINUOUS
 70
0
 71
3
 72
42
 73
38
 74
0
 42
0.0000001
 43
0.0000001
 44
0.0000000001
 40
0.0
 40
0.0
 40
0.0
 40
0.0
 40
0.0299419663
 40
0.0449235352
 40
0.0599142051
 40
0.0899287052
 40
0.1200139767
 40
0.135092661
 40
0.150196701
 40
0.1804840414
 40
0.210897872
 40
0.2414513324
 40
0.2721543376
 40
0.3030133986
 40
0.3340315263
 40
0.3652082187
 40
0.3965395244
 40
0.4280181782
 40
0.4596338019
 40
0.4913731609
 40
0.5232204716
 40
0.55515775
 40
0.5871651943
 40
0.6192215961
 40
0.6513047701
 40
0.6833919991
 40
0.7154604852
 40
0.7474878032
 40
0.7794523473
 40
0.8113337692
 40
0.8431133916
 40
0.8747746171
 40
0.9063032365
 40
0.9376879249
 40
0.9533258257
 40
0.968925233
 40
1.0
 40
1.0
 40
1.0
 40
1.0
 10
10.4747717172
 20
7.0392523664
 30
0.0
 10
10.4719182945
 20
7.0364961712
 30
0.0
 10
10.4674699856
 20
7.0325288639
 30
0.0
 10
10.4612401982
 20
7.0276063248
 30
0.0
 10
10.4548120368
 20
7.022928718
 30
0.0
 10
10.4464243282
 20
7.0175573165
 30
0.0
 10
10.437628794
 20
7.0128589014
 30
0.0
 10
10.4303747725
 20
7.0095164013
 30
0.0
 10
10.4229708764
 20
7.0064498836
 30
0.0
 10
10.4134720326
 20
7.0031524571
 30
0.0
 10
10.4017661328
 20
7.0000793445
 30
0.0
 10
10.3898048064
 20
6.9979022604
 30
0.0
 10
10.377654338
 20
6.9966332233
 30
0.0
 10
10.3653814739
 20
6.9962790037
 30
0.0
 10
10.3530537428
 20
6.9968414051
 30
0.0
 10
10.340738901
 20
6.998317179
 30
0.0
 10
10.3285046132
 20
7.0006980718
 30
0.0
 10
10.3164180722
 20
7.0039708701
 30
0.0
 10
10.3045456378
 20
7.0081174792
 30
0.0
 10
10.2929524769
 20
7.0131150246
 30
0.0
 10
10.2817022113
 20
7.0189359798
 30
0.0
 10
10.2708565727
 20
7.0255483172
 30
0.0
 10
10.2604750688
 20
7.0329156843
 30
0.0
 10
10.2506146609
 20
7.0409976028
 30
0.0
 10
10.2413294551
 20
7.0497496889
 30
0.0
 10
10.232670409
 20
7.0591238951
 30
0.0
 10
10.2246850546
 20
7.0690687712
 30
0.0
 10
10.2174172404
 20
7.0795297445
 30
0.0
 10
10.2109068924
 20
7.0904494127
 30
0.0
 10
10.2051897969
 20
7.101767868
 30
0.0
 10
10.2002974057
 20
7.1134229746
 30
0.0
 10
10.1962566564
 20
7.1253508782
 30
0.0
 10
10.1930898677
 20
7.1374857143
 30
0.0
 10
10.1911913108
 20
7.1477288358
 30
0.0
 10
10.1901262732
 20
7.1559590532
 30
0.0
 10
10.1893661837
 20
7.1641813969
 30
0.0
 10
10.1891360366
 20
7.1703686523
 30
0.0
 10
10.1891360366
 20
7.1744859387
 30
0.0
  0
SPLINE
  5
39A
100
AcDbEntity
  8
0
100
AcDbSpline
 62
7
  6
CONTINUOUS
 70
0
 71
3
 72
21
 73
17
 74
0
 42
0.0000001
 43
0.0000001
 44
0.0000000001
 40
0.0
 40
0.0
 40
0.0
 40
0.0
 40
0.1273176366
 40
0.2537999756
 40
0.3167619475
 40
0.3795355041
 40
0.4421314991
 40
0.5045621439
 40
0.5668413432
 40
0.6289845283
 40
0.6910084528
 40
0.7529310935
 40
0.8147714495
 40
0.8765493365
 40
0.9382852194
 40
1.0
 40
1.0
 40
1.0
 40
1.0
 10
10.1891360366
 20
7.1744859387
 30
0.0
 10
10.1891360366
 20
7.1797831886
 30
0.0
 10
10.189641694
 20
7.1903497528
 30
0.0
 10
10.1915513981
 20
7.2034123093
 30
0.0
 10
10.1938339191
 20
7.2136587429
 30
0.0
 10
10.1959154556
 20
7.221216516
 30
0.0
 10
10.1983642432
 20
7.22864
 30
0.0
 10
10.201174671
 20
7.2359122798
 30
0.0
 10
10.2043402384
 20
7.2430165417
 30
0.0
 10
10.2078536898
 20
7.2499364021
 30
0.0
 10
10.211706943
 20
7.2566558863
 30
0.0
 10
10.2158910896
 20
7.2631595183
 30
0.0
 10
10.2203964919
 20
7.269432271
 30
0.0
 10
10.2252128392
 20
7.2754597029
 30
0.0
 10
10.2303287978
 20
7.2812277495
 30
0.0
 10
10.2339320011
 20
7.2848919895
 30
0.0
 10
10.2357788599
 20
7.2866759185
 30
0.0
  0
SPLINE
  5
39B
100
AcDbEntity
  8
0
100
AcDbSpline
 62
7
  6
CONTINUOUS
 70
0
 71
3
 72
51
 73
47
 74
0
 42
0.0000001
 43
0.0000001
 44
0.0000000001
 40
0.0
 40
0.0
 40
0.0
 40
0.0
 40
0.0061011971
 40
0.0123920689
 40
0.0189006006
 40
0.0256517013
 40
0.0326672769
 40
0.039966354
 40
0.0475653885
 40
0.0554783671
 40
0.0637171983
 40
0.0722918023
 40
0.0812104202
 40
0.0904797723
 40
0.1001051889
 40
0.1100908683
 40
0.1204398489
 40
0.1311543026
 40
0.1422354673
 40
0.1536838528
 40
0.1654992627
 40
0.1776808324
 40
0.1902271837
 40
0.2031363191
 40
0.2164058433
 40
0.2300328302
 40
0.2583449271
 40
0.2880423392
 40
0.3190885085
 40
0.3514420053
 40
0.3850570375
 40
0.4198838766
 40
0.4558692174
 40
0.4929564948
 40
0.531086172
 40
0.5701959957
 40
0.6102212318
 40
0.6510948856
 40
0.692747909
 40
0.7351093993
 40
0.7781067998
 40
0.8216660427
 40
0.8657119328
 40
0.910167688
 40
0.9549568077
 40
1.0
 40
1.0
 40
1.0
 40
1.0
 10
12.3872492366
 20
8.2116339754
 30
0.0
 10
12.3884940837
 20
8.2119992272
 30
0.0
 10
12.3909945098
 20
8.2128396757
 30
0.0
 10
12.3947041586
 20
8.2143937588
 30
0.0
 10
12.3984234091
 20
8.2162576012
 30
0.0
 10
12.4021503543
 20
8.2184299759
 30
0.0
 10
12.4058835044
 20
8.2209096981
 30
0.0
 10
12.409621319
 20
8.2236954191
 30
0.0
 10
12.4133621917
 20
8.2267858155
 30
0.0
 10
12.4171045992
 20
8.2301793446
 30
0.0
 10
12.4208468874
 20
8.2338744659
 30
0.0
 10
12.4245874687
 20
8.2378694344
 30
0.0
 10
12.4283246835
 20
8.2421624268
 30
0.0
 10
12.4320568588
 20
8.2467514791
 30
0.0
 10
12.4357823514
 20
8.2516344686
 30
0.0
 10
12.4394994245
 20
8.256809184
 30
0.0
 10
12.4432064399
 20
8.262273218
 30
0.0
 10
12.4469016473
 20
8.2680240834
 30
0.0
 10
12.4505833843
 20
8.2740591112
 30
0.0
 10
12.4542499332
 20
8.2803755248
 30
0.0
 10
12.4578995922
 20
8.2869704054
 30
0.0
 10
12.4615306935
 20
8.2938406926
 30
0.0
 10
12.4651415105
 20
8.3009832171
 30
0.0
 10
12.468730406
 20
8.3083946494
 30
0.0
 10
12.4722956848
 20
8.3160715705
 30
0.0
 10
12.4770766758
 20
8.3267935718
 30
0.0
 10
12.4829724571
 20
8.340841048
 30
0.0
 10
12.4898400758
 20
8.3584901796
 30
0.0
 10
12.4965746705
 20
8.3771069178
 30
0.0
 10
12.5031636284
 20
8.3966566254
 30
0.0
 10
12.5095946075
 20
8.4171030618
 30
0.0
 10
12.5158555563
 20
8.4384082235
 30
0.0
 10
12.5219347431
 20
8.4605324885
 30
0.0
 10
12.5278207797
 20
8.4834346774
 30
0.0
 10
12.5335026404
 20
8.5070721424
 30
0.0
 10
12.5389696844
 20
8.5314008495
 30
0.0
 10
12.5442116752
 20
8.5563754643
 30
0.0
 10
12.5492187997
 20
8.5819494383
 30
0.0
 10
12.5539816861
 20
8.6080750964
 30
0.0
 10
12.5584914225
 20
8.6347037285
 30
0.0
 10
12.5627395713
 20
8.6617856724
 30
0.0
 10
12.5667181961
 20
8.6892704422
 30
0.0
 10
12.5704198384
 20
8.7171067184
 30
0.0
 10
12.5738376176
 20
8.7452427187
 30
0.0
 10
12.5769650914
 20
8.7736257712
 30
0.0
 10
12.5788484417
 20
8.7926346038
 30
0.0
 10
12.579740966
 20
8.8021706663
 30
0.0
  0
SPLINE
  5
39C
100
AcDbEntity
  8
0
100
AcDbSpline
 62
7
  6
CONTINUOUS
 70
0
 71
3
 72
41
 73
37
 74
0
 42
0.0000001
 43
0.0000001
 44
0.0000000001
 40
0.0
 40
0.0
 40
0.0
 40
0.0
 40
0.0076886577
 40
0.0154017874
 40
0.0231636201
 40
0.030997882
 40
0.0389275852
 40
0.046974865
 40
0.0635000007
 40
0.0807333193
 40
0.0988086676
 40
0.1178395163
 40
0.1379200533
 40
0.1591273198
 40
0.1815230666
 40
0.2051561006
 40
0.2300640302
 40
0.2562749205
 40
0.2838088491
 40
0.3126787846
 40
0.3428918939
 40
0.3744500245
 40
0.4073505566
 40
0.4415869061
 40
0.4771488355
 40
0.5140230971
 40
0.5521934021
 40
0.5916410092
 40
0.6323447357
 40
0.6742811794
 40
0.7174250121
 40
0.7617490149
 40
0.8072242471
 40
0.853819588
 40
0.9015035687
 40
1.0
 40
1.0
 40
1.0
 40
1.0
 10
12.4952073775
 20
9.543505794
 30
0.0
 10
12.4960195585
 20
9.5434494708
 30
0.0
 10
12.4976436063
 20
9.5432890755
 30
0.0
 10
12.5000675877
 20
9.5429061447
 30
0.0
 10
12.5024805835
 20
9.5423807926
 30
0.0
 10
12.504881899
 20
9.5417132267
 30
0.0
 10
12.5072710679
 20
9.540903616
 30
0.0
 10
12.5104674166
 20
9.5396239944
 30
0.0
 10
12.5144411955
 20
9.5376545399
 30
0.0
 10
12.5191057631
 20
9.5347477355
 30
0.0
 10
12.523706145
 20
9.5312803573
 30
0.0
 10
12.5282388447
 20
9.5272564121
 30
0.0
 10
12.5327011135
 20
9.5226798496
 30
0.0
 10
12.5370898852
 20
9.5175547099
 30
0.0
 10
12.5414021696
 20
9.5118853739
 30
0.0
 10
12.5456347869
 20
9.5056765055
 30
0.0
 10
12.54978453
 20
9.4989332025
 30
0.0
 10
12.5538481744
 20
9.4916610054
 30
0.0
 10
12.5578224124
 20
9.4838658825
 30
0.0
 10
12.561704053
 20
9.4755543027
 30
0.0
 10
12.5654898338
 20
9.4667331582
 30
0.0
 10
12.5691766223
 20
9.4574098227
 30
0.0
 10
12.5727613095
 20
9.4475921045
 30
0.0
 10
12.5762408458
 20
9.4372882507
 30
0.0
 10
12.579612315
 20
9.4265069465
 30
0.0
 10
12.5828728036
 20
9.4152572846
 30
0.0
 10
12.5860195746
 20
9.4035487801
 30
0.0
 10
12.5890499155
 20
9.3913913387
 30
0.0
 10
12.5919612453
 20
9.3787952621
 30
0.0
 10
12.5947510894
 20
9.3657712334
 30
0.0
 10
12.5974170361
 20
9.3523302952
 30
0.0
 10
12.5999568417
 20
9.3384838488
 30
0.0
 10
12.6023682854
 20
9.3242437018
 30
0.0
 10
12.6046493719
 20
9.309621901
 30
0.0
 10
12.6075455656
 20
9.2894155156
 30
0.0
 10
12.6094666945
 20
9.2740547442
 30
0.0
 10
12.610650595
 20
9.2636926295
 30
0.0
  0
SPLINE
  5
39D
100
AcDbEntity
  8
0
100
AcDbSpline
 62
7
  6
CONTINUOUS
 70
0
 71
3
 72
53
 73
49
 74
0
 42
0.0000001
 43
0.0000001
 44
0.0000000001
 40
0.0
 40
0.0
 40
0.0
 40
0.0
 40
0.0468839926
 40
0.093479662
 40
0.1396939221
 40
0.1854357785
 40
0.2306147747
 40
0.2751421982
 40
0.3189309336
 40
0.3618958536
 40
0.4039540307
 40
0.4450250155
 40
0.4850311094
 40
0.5238976567
 40
0.5615533556
 40
0.5979305973
 40
0.63296584
 40
0.6666000309
 40
0.6987790954
 40
0.7294545154
 40
0.7442152979
 40
0.7585848654
 40
0.7725591076
 40
0.7861343371
 40
0.7993075024
 40
0.8120760882
 40
0.8244382836
 40
0.8363929734
 40
0.8479398372
 40
0.8590794564
 40
0.8698133453
 40
0.8801441771
 40
0.8900757728
 40
0.8996134305
 40
0.9087639222
 40
0.9175358893
 40
0.9259399121
 40
0.9339889258
 40
0.9416984071
 40
0.9490867647
 40
0.9561756283
 40
0.9629901444
 40
0.9695592545
 40
0.9759157649
 40
0.982096382
 40
0.988141365
 40
0.9940940545
 40
1.0
 40
1.0
 40
1.0
 40
1.0
 10
12.610650595
 20
8.8000270763
 30
0.0
 10
12.6096986346
 20
8.7898559761
 30
0.0
 10
12.6076830494
 20
8.769587119
 30
0.0
 10
12.604315886
 20
8.7393353527
 30
0.0
 10
12.6006193793
 20
8.7093727317
 30
0.0
 10
12.596601428
 20
8.6797629875
 30
0.0
 10
12.5922705577
 20
8.6505688772
 30
0.0
 10
12.587636
 20
8.6218523921
 30
0.0
 10
12.5827076166
 20
8.5936744544
 30
0.0
 10
12.5774959059
 20
8.5660948537
 30
0.0
 10
12.5720119696
 20
8.5391720953
 30
0.0
 10
12.5662674936
 20
8.5129632811
 30
0.0
 10
12.5602747224
 20
8.487523984
 30
0.0
 10
12.5540464331
 20
8.4629081266
 30
0.0
 10
12.5475959086
 20
8.4391678639
 30
0.0
 10
12.5409369091
 20
8.4163534605
 30
0.0
 10
12.534083642
 20
8.3945131977
 30
0.0
 10
12.5270507273
 20
8.3736931897
 30
0.0
 10
12.5198531697
 20
8.353937526
 30
0.0
 10
12.5136539418
 20
8.3382006174
 30
0.0
 10
12.5086152954
 20
8.3261826382
 30
0.0
 10
12.504853175
 20
8.3175765648
 30
0.0
 10
12.5010614719
 20
8.3092665948
 30
0.0
 10
12.4972421273
 20
8.3012571224
 30
0.0
 10
12.4933972114
 20
8.2935523683
 30
0.0
 10
12.4895287273
 20
8.2861564046
 30
0.0
 10
12.4856387392
 20
8.279073123
 30
0.0
 10
12.4817292939
 20
8.2723062516
 30
0.0
 10
12.4778024404
 20
8.2658593502
 30
0.0
 10
12.4738602623
 20
8.2597357891
 30
0.0
 10
12.4699047825
 20
8.2539387918
 30
0.0
 10
12.4659381063
 20
8.2484713616
 30
0.0
 10
12.461962224
 20
8.2433363814
 30
0.0
 10
12.4579792356
 20
8.2385364865
 30
0.0
 10
12.4539910949
 20
8.2340742163
 30
0.0
 10
12.4499998594
 20
8.2299518528
 30
0.0
 10
12.4460074441
 20
8.2261715957
 30
0.0
 10
12.4420158266
 20
8.2227354129
 30
0.0
 10
12.4380268826
 20
8.2196451871
 30
0.0
 10
12.4340424964
 20
8.2169026416
 30
0.0
 10
12.4300645265
 20
8.2145093941
 30
0.0
 10
12.4260948148
 20
8.2124670156
 30
0.0
 10
12.422135294
 20
8.2107769199
 30
0.0
 10
12.4181879181
 20
8.2094405747
 30
0.0
 10
12.4142549021
 20
8.2084591664
 30
0.0
 10
12.4103384432
 20
8.2078339289
 30
0.0
 10
12.4064415566
 20
8.2075655672
 30
0.0
 10
12.4038540362
 20
8.2076251247
 30
0.0
 10
12.4025702731
 20
8.2077141512
 30
0.0
  0
SPLINE
  5
39E
100
AcDbEntity
  8
0
100
AcDbSpline
 62
7
  6
CONTINUOUS
 70
0
 71
3
 72
36
 73
32
 74
0
 42
0.0000001
 43
0.0000001
 44
0.0000000001
 40
0.0
 40
0.0
 40
0.0
 40
0.0
 40
0.0935421599
 40
0.1835082756
 40
0.2696944506
 40
0.3113113525
 40
0.351914181
 40
0.3914823798
 40
0.4299966891
 40
0.4674392252
 40
0.5037936452
 40
0.5390452462
 40
0.5731810393
 40
0.606190032
 40
0.6380632343
 40
0.6687941012
 40
0.6983785025
 40
0.7268153463
 40
0.7541065655
 40
0.7802579309
 40
0.8052791347
 40
0.8291848089
 40
0.8519948089
 40
0.8737354541
 40
0.8944401186
 40
0.9141506945
 40
0.9329185336
 40
0.9508060317
 40
0.9678877461
 40
0.9842516948
 40
1.0
 40
1.0
 40
1.0
 40
1.0
 10
12.579740966
 20
9.2658362196
 30
0.0
 10
12.5786729374
 20
9.2751841636
 30
0.0
 10
12.5764010613
 20
9.293503165
 30
0.0
 10
12.5724946485
 20
9.3203491424
 30
0.0
 10
12.5688448462
 20
9.3419492082
 30
0.0
 10
12.5657053747
 20
9.3585949259
 30
0.0
 10
12.5632764849
 20
9.3706019088
 30
0.0
 10
12.5607475587
 20
9.382269112
 30
0.0
 10
12.558120335
 20
9.3935885252
 30
0.0
 10
12.5553966305
 20
9.4045523578
 30
0.0
 10
12.5525783287
 20
9.4151530758
 30
0.0
 10
12.5496673851
 20
9.4253834005
 30
0.0
 10
12.5466657954
 20
9.4352363108
 30
0.0
 10
12.5435756533
 20
9.4447050559
 30
0.0
 10
12.5403990565
 20
9.4537831497
 30
0.0
 10
12.5371382274
 20
9.4624643944
 30
0.0
 10
12.5337953543
 20
9.470742859
 30
0.0
 10
12.5303727725
 20
9.4786129218
 30
0.0
 10
12.5268727462
 20
9.4860692254
 30
0.0
 10
12.5232976998
 20
9.4931067451
 30
0.0
 10
12.5196499513
 20
9.499720712
 30
0.0
 10
12.5159319772
 20
9.5059067107
 30
0.0
 10
12.5121461169
 20
9.5116605655
 30
0.0
 10
12.5082948448
 20
9.5169784617
 30
0.0
 10
12.504380476
 20
9.5218567929
 30
0.0
 10
12.5004054232
 20
9.5262922878
 30
0.0
 10
12.4963719263
 20
9.5302818283
 30
0.0
 10
12.4922823457
 20
9.5338225291
 30
0.0
 10
12.4881387604
 20
9.5369116382
 30
0.0
 10
12.4839440654
 20
9.5395462455
 30
0.0
 10
12.4810656989
 20
9.5410231289
 30
0.0
 10
12.4796237527
 20
9.5416787878
 30
0.0
  0
SPLINE
  5
39F
100
AcDbEntity
  8
0
100
AcDbSpline
 62
7
  6
CONTINUOUS
 70
0
 71
3
 72
23
 73
19
 74
0
 42
0.0000001
 43
0.0000001
 44
0.0000000001
 40
0.0
 40
0.0
 40
0.0
 40
0.0
 40
0.0781370857
 40
0.1532319508
 40
0.2254044596
 40
0.2947997439
 40
0.3615916163
 40
0.4259789877
 40
0.4881875989
 40
0.5484708552
 40
0.6071108481
 40
0.6644178291
 40
0.7207261421
 40
0.7763901376
 40
0.831777592
 40
0.8872622863
 40
0.9432158635
 40
1.0
 40
1.0
 40
1.0
 40
1.0
 10
12.4179791963
 20
8.4213535827
 30
0.0
 10
12.417130461
 20
8.4205337673
 30
0.0
 10
12.4154334965
 20
8.4189592335
 30
0.0
 10
12.4128371099
 20
8.4167560153
 30
0.0
 10
12.4102424453
 20
8.414760311
 30
0.0
 10
12.4076506758
 20
8.4129732344
 30
0.0
 10
12.4050628754
 20
8.4113956031
 30
0.0
 10
12.402480026
 20
8.4100282707
 30
0.0
 10
12.3999032027
 20
8.4088719699
 30
0.0
 10
12.3973335034
 20
8.4079274487
 30
0.0
 10
12.394772075
 20
8.4071954575
 30
0.0
 10
12.3922201785
 20
8.4066765256
 30
0.0
 10
12.3896791201
 20
8.4063712169
 30
0.0
 10
12.3871503192
 20
8.4062798605
 30
0.0
 10
12.3846352621
 20
8.406402578
 30
0.0
 10
12.3821354055
 20
8.4067394185
 30
0.0
 10
12.3796524082
 20
8.4072899644
 30
0.0
 10
12.37802407
 20
8.4077946052
 30
0.0
 10
12.3772155627
 20
8.4080804512
 30
0.0
  0
SPLINE
  5
3A0
100
AcDbEntity
  8
0
100
AcDbSpline
 62
7
  6
CONTINUOUS
 70
0
 71
3
 72
88
 73
84
 74
0
 42
0.0000001
 43
0.0000001
 44
0.0000000001
 40
0.0
 40
0.0
 40
0.0
 40
0.0
 40
0.0040523269
 40
0.0082800598
 40
0.0126870777
 40
0.0172766444
 40
0.0220514725
 40
0.0270136089
 40
0.0321643812
 40
0.0375046455
 40
0.0430347623
 40
0.0487547109
 40
0.0546640903
 40
0.0607621219
 40
0.0670477664
 40
0.073519641
 40
0.0870150308
 40
0.1012329963
 40
0.1161544047
 40
0.131757172
 40
0.1480165974
 40
0.1649056353
 40
0.1823951215
 40
0.2004539796
 40
0.2190493985
 40
0.2381469909
 40
0.2577109372
 40
0.27770412
 40
0.2980882486
 40
0.3188239878
 40
0.3398710778
 40
0.3611884499
 40
0.3827343393
 40
0.4044663967
 40
0.4263417985
 40
0.4703489153
 40
0.5144085889
 40
0.5363495576
 40
0.558173177
 40
0.5798363943
 40
0.6012965629
 40
0.6225115519
 40
0.6434398568
 40
0.6640407136
 40
0.6842742172
 40
0.704101437
 40
0.7234845356
 40
0.7423868934
 40
0.7607732384
 40
0.7786097871
 40
0.7958644011
 40
0.8125067477
 40
0.8285084812
 40
0.8438434541
 40
0.858487963
 40
0.8724210472
 40
0.8856248614
 40
0.8980851272
 40
0.9040333803
 40
0.9097923268
 40
0.9153615046
 40
0.9207407877
 40
0.9259304652
 40
0.9309313071
 40
0.9357445451
 40
0.9403720436
 40
0.9448162601
 40
0.9490804165
 40
0.9531685583
 40
0.9570856492
 40
0.9608377625
 40
0.9644321251
 40
0.9678773605
 40
0.9711835638
 40
0.9774235815
 40
0.9803901822
 40
0.9832753611
 40
0.9860978439
 40
0.9888777739
 40
0.9916363135
 40
0.9943951627
 40
0.9971760103
 40
1.0
 40
1.0
 40
1.0
 40
1.0
 10
12.4179791963
 20
8.4213535827
 30
0.0
 10
12.4189357198
 20
8.4222775135
 30
0.0
 10
12.4208476604
 20
8.424209783
 30
0.0
 10
12.4236541544
 20
8.4272867033
 30
0.0
 10
12.4264575212
 20
8.4306009585
 30
0.0
 10
12.4292561901
 20
8.4341506632
 30
0.0
 10
12.4320488002
 20
8.4379340026
 30
0.0
 10
12.4348339185
 20
8.4419490599
 30
0.0
 10
12.4376101613
 20
8.4461937372
 30
0.0
 10
12.4403760243
 20
8.4506658439
 30
0.0
 10
12.4431301007
 20
8.4553630268
 30
0.0
 10
12.4458709394
 20
8.4602828428
 30
0.0
 10
12.4485970973
 20
8.4654227254
 30
0.0
 10
12.4513071691
 20
8.470779973
 30
0.0
 10
12.453999705
 20
8.4763517974
 30
0.0
 10
12.4576150468
 20
8.4841725447
 30
0.0
 10
12.4620718675
 20
8.4944702393
 30
0.0
 10
12.4672560435
 20
8.5074679651
 30
0.0
 10
12.4723372085
 20
8.5212457784
 30
0.0
 10
12.477304601
 20
8.5357747201
 30
0.0
 10
12.4821476935
 20
8.5510243706
 30
0.0
 10
12.4868562161
 20
8.5669626983
 30
0.0
 10
12.4914201889
 20
8.5835561988
 30
0.0
 10
12.4958299376
 20
8.6007699565
 30
0.0
 10
12.5000761168
 20
8.6185677313
 30
0.0
 10
12.5041497293
 20
8.6369120379
 30
0.0
 10
12.508042145
 20
8.6557642267
 30
0.0
 10
12.511745119
 20
8.6750845659
 30
0.0
 10
12.5152508141
 20
8.6948323262
 30
0.0
 10
12.5185518117
 20
8.7149658701
 30
0.0
 10
12.5216411273
 20
8.7354427421
 30
0.0
 10
12.5245122273
 20
8.7562197621
 30
0.0
 10
12.5271590328
 20
8.7772531039
 30
0.0
 10
12.5295759695
 20
8.7984984349
 30
0.0
 10
12.5324908075
 20
8.8271039764
 30
0.0
 10
12.5355233619
 20
8.8630602521
 30
0.0
 10
12.5377333689
 20
8.8990979811
 30
0.0
 10
12.5389992646
 20
8.927892641
 30
0.0
 10
12.5396924776
 20
8.9493538811
 30
0.0
 10
12.540129377
 20
8.9706640329
 30
0.0
 10
12.5403090344
 20
8.9917781811
 30
0.0
 10
12.5402310895
 20
9.0126517827
 30
0.0
 10
12.5398957218
 20
9.0332408147
 30
0.0
 10
12.5393036577
 20
9.0535018546
 30
0.0
 10
12.5384561729
 20
9.0733921776
 30
0.0
 10
12.5373550855
 20
9.0928698472
 30
0.0
 10
12.5360027523
 20
9.1118938032
 30
0.0
 10
12.534402064
 20
9.1304239489
 30
0.0
 10
12.5325564398
 20
9.1484212375
 30
0.0
 10
12.5304698201
 20
9.1658477591
 30
0.0
 10
12.5281466646
 20
9.1826668261
 30
0.0
 10
12.5255919371
 20
9.1988430547
 30
0.0
 10
12.522811095
 20
9.2143424409
 30
0.0
 10
12.5198100764
 20
9.2291324458
 30
0.0
 10
12.5165952851
 20
9.2431820502
 30
0.0
 10
12.5131735714
 20
9.2564619212
 30
0.0
 10
12.5095522098
 20
9.268944203
 30
0.0
 10
12.5063264667
 20
9.2788070409
 30
0.0
 10
12.503643248
 20
9.2862710709
 30
0.0
 10
12.5016168865
 20
9.2915667651
 30
0.0
 10
12.4995464965
 20
9.2966443343
 30
0.0
 10
12.4974331225
 20
9.3015011338
 30
0.0
 10
12.4952778602
 20
9.3061346251
 30
0.0
 10
12.4930818637
 20
9.310542412
 30
0.0
 10
12.4908462121
 20
9.3147221871
 30
0.0
 10
12.4885721057
 20
9.3186718087
 30
0.0
 10
12.4862606543
 20
9.3223892197
 30
0.0
 10
12.4839130336
 20
9.3258725088
 30
0.0
 10
12.4815304128
 20
9.3291198916
 30
0.0
 10
12.4791139137
 20
9.3321296551
 30
0.0
 10
12.4766647124
 20
9.334900293
 30
0.0
 10
12.4741839959
 20
9.3374302232
 30
0.0
 10
12.471672557
 20
9.3397183511
 30
0.0
 10
12.4683499686
 20
9.342392626
 30
0.0
 10
12.4649008178
 20
9.3446521408
 30
0.0
 10
12.461346467
 20
9.3464247866
 30
0.0
 10
12.4587005856
 20
9.3474843342
 30
0.0
 10
12.4560319511
 20
9.3482947951
 30
0.0
 10
12.4533421276
 20
9.348855462
 30
0.0
 10
12.4506330159
 20
9.3491657411
 30
0.0
 10
12.4479064893
 20
9.3492252623
 30
0.0
 10
12.4451647806
 20
9.3490342037
 30
0.0
 10
12.443345831
 20
9.3487427576
 30
0.0
 10
12.4424377854
 20
9.3485574074
 30
0.0
  0
SPLINE
  5
3A1
100
AcDbEntity
  8
0
100
AcDbSpline
 62
7
  6
CONTINUOUS
 70
0
 71
3
 72
86
 73
82
 74
0
 42
0.0000001
 43
0.0000001
 44
0.0000000001
 40
0.0
 40
0.0
 40
0.0
 40
0.0
 40
0.0039801735
 40
0.0081241171
 40
0.0124359931
 40
0.016919361
 40
0.0215772361
 40
0.0264119817
 40
0.0314252561
 40
0.0366182449
 40
0.0419916453
 40
0.0475457694
 40
0.0532805541
 40
0.0591955582
 40
0.0652900785
 40
0.0715630739
 40
0.0846387684
 40
0.0984101018
 40
0.112860694
 40
0.1279712428
 40
0.1437198619
 40
0.1600823544
 40
0.1770324406
 40
0.1945419645
 40
0.2125810668
 40
0.2311183398
 40
0.2501209668
 40
0.2695548486
 40
0.289384725
 40
0.3095742955
 40
0.3300863312
 40
0.3508827821
 40
0.3719248818
 40
0.3931732491
 40
0.4145879914
 40
0.4577543474
 40
0.501099203
 40
0.5442952951
 40
0.5657359749
 40
0.587017582
 40
0.6081001434
 40
0.6289441761
 40
0.6495107926
 40
0.6697618048
 40
0.6896598276
 40
0.709168385
 40
0.7282520204
 40
0.7468764117
 40
0.7650084972
 40
0.7826166038
 40
0.7996705814
 40
0.8161419537
 40
0.8320040874
 40
0.8472323859
 40
0.8618045214
 40
0.8757007003
 40
0.8889039845
 40
0.9014006969
 40
0.9073810972
 40
0.9131815075
 40
0.9188013673
 40
0.9242405009
 40
0.9294990443
 40
0.9345775709
 40
0.9394770909
 40
0.9441990928
 40
0.9487456636
 40
0.9531194621
 40
0.9573238984
 40
0.9613631411
 40
0.9652422549
 40
0.9689673208
 40
0.9725454977
 40
0.9759852252
 40
0.9824864215
 40
0.9855752926
 40
0.9885737717
 40
0.9914977072
 40
0.9943643167
 40
0.9971920017
 40
1.0
 40
1.0
 40
1.0
 40
1.0
 10
10.2456118675
 20
10.5381498695
 30
0.0
 10
10.2466021449
 20
10.5391064041
 30
0.0
 10
10.2486684182
 20
10.5410127121
 30
0.0
 10
10.2519490299
 20
10.5437970256
 30
0.0
 10
10.2554705528
 20
10.546561378
 30
0.0
 10
10.2592310537
 20
10.5493042801
 30
0.0
 10
10.263228686
 20
10.5520244642
 30
0.0
 10
10.267461505
 20
10.5547205929
 30
0.0
 10
10.271927389
 20
10.5573913928
 30
0.0
 10
10.2766241245
 20
10.5600354738
 30
0.0
 10
10.2815493423
 20
10.5626515509
 30
0.0
 10
10.2867005834
 20
10.5652383067
 30
0.0
 10
10.2920752718
 20
10.567794432
 30
0.0
 10
10.2976706973
 20
10.5703186712
 30
0.0
 10
10.3034840684
 20
10.5728097254
 30
0.0
 10
10.3116349237
 20
10.5761312264
 30
0.0
 10
10.3223539819
 20
10.5801821173
 30
0.0
 10
10.3358654736
 20
10.5848265227
 30
0.0
 10
10.3501706053
 20
10.589309668
 30
0.0
 10
10.3652405359
 20
10.593622441
 30
0.0
 10
10.3810450144
 20
10.5977560622
 30
0.0
 10
10.3975522038
 20
10.6017021116
 30
0.0
 10
10.4147288246
 20
10.6054525535
 30
0.0
 10
10.4325402122
 20
10.6089997487
 30
0.0
 10
10.4509504004
 20
10.6123364721
 30
0.0
 10
10.4699221969
 20
10.6154559281
 30
0.0
 10
10.4894172603
 20
10.6183517632
 30
0.0
 10
10.5093961782
 20
10.6210180816
 30
0.0
 10
10.5298185486
 20
10.6234494597
 30
0.0
 10
10.5506430663
 20
10.6256409512
 30
0.0
 10
10.5718276074
 20
10.6275880978
 30
0.0
 10
10.5933293194
 20
10.6292869399
 30
0.0
 10
10.6151046918
 20
10.6307340145
 30
0.0
 10
10.6371097042
 20
10.631926402
 30
0.0
 10
10.6667738454
 20
10.6331765866
 30
0.0
 10
10.7041000287
 20
10.6340846671
 30
0.0
 10
10.748971812
 20
10.6341320135
 30
0.0
 10
10.7863190858
 20
10.6333028587
 30
0.0
 10
10.8160165941
 20
10.6321156891
 30
0.0
 10
10.838058593
 20
10.6309699008
 30
0.0
 10
10.8598790187
 20
10.6295689483
 30
0.0
 10
10.8814337585
 20
10.6279156543
 30
0.0
 10
10.9026791925
 20
10.6260133874
 30
0.0
 10
10.9235723443
 20
10.6238660173
 30
0.0
 10
10.9440709513
 20
10.6214779133
 30
0.0
 10
10.9641335547
 20
10.618853934
 30
0.0
 10
10.9837195822
 20
10.6159994188
 30
0.0
 10
11.0027894334
 20
10.6129201753
 30
0.0
 10
11.0213045646
 20
10.6096224736
 30
0.0
 10
11.0392275688
 20
10.6061130313
 30
0.0
 10
11.0565222526
 20
10.6023989971
 30
0.0
 10
11.0731537122
 20
10.5984879365
 30
0.0
 10
11.0890884066
 20
10.5943878163
 30
0.0
 10
11.1042942416
 20
10.5901069843
 30
0.0
 10
11.118740623
 20
10.5856541561
 30
0.0
 10
11.1323986128
 20
10.5810383854
 30
0.0
 10
11.1452407104
 20
10.576269043
 30
0.0
 10
11.1553848067
 20
10.5721160497
 30
0.0
 10
11.1630644246
 20
10.5687163832
 30
0.0
 10
11.1685197326
 20
10.5661717026
 30
0.0
 10
11.1737525516
 20
10.5635959277
 30
0.0
 10
11.178760281
 20
10.5609903775
 30
0.0
 10
11.1835403969
 20
10.5583563228
 30
0.0
 10
11.1880905156
 20
10.5556950965
 30
0.0
 10
11.1924083707
 20
10.5530080291
 30
0.0
 10
11.1964917921
 20
10.5502964143
 30
0.0
 10
11.2003387754
 20
10.5475616346
 30
0.0
 10
11.2039473763
 20
10.5448049655
 30
0.0
 10
11.2073158274
 20
10.5420277764
 30
0.0
 10
11.2104424347
 20
10.5392313773
 30
0.0
 10
11.2133256368
 20
10.5364170422
 30
0.0
 10
11.2159639434
 20
10.5335862071
 30
0.0
 10
11.2183561566
 20
10.5307397682
 30
0.0
 10
11.2211625054
 20
10.5269970788
 30
0.0
 10
11.2235455176
 20
10.5231534714
 30
0.0
 10
11.2254375572
 20
10.5192278123
 30
0.0
 10
11.2265807026
 20
10.5163244845
 30
0.0
 10
11.2274709565
 20
10.5134141065
 30
0.0
 10
11.2281074904
 20
10.5104980625
 30
0.0
 10
11.2284897121
 20
10.5075784581
 30
0.0
 10
11.2285748011
 20
10.5056279282
 30
0.0
 10
11.2285748055
 20
10.5046565932
 30
0.0
  0
SPLINE
  5
3A2
100
AcDbEntity
  8
0
100
AcDbSpline
 62
7
  6
CONTINUOUS
 70
0
 71
3
 72
61
 73
57
 74
0
 42
0.0000001
 43
0.0000001
 44
0.0000000001
 40
0.0
 40
0.0
 40
0.0
 40
0.0
 40
0.0085500831
 40
0.0176518282
 40
0.0273119388
 40
0.0375330487
 40
0.0483143346
 40
0.0596520489
 40
0.0715399689
 40
0.0839696868
 40
0.0969308502
 40
0.110411427
 40
0.1243978625
 40
0.1388751847
 40
0.1538271778
 40
0.1692364905
 40
0.185084685
 40
0.2013523522
 40
0.2180192038
 40
0.2350641067
 40
0.252465154
 40
0.2701997535
 40
0.2882446631
 40
0.3065760341
 40
0.3439996166
 40
0.3822705894
 40
0.4211822648
 40
0.4605233554
 40
0.5000795412
 40
0.5396349815
 40
0.5789738425
 40
0.6178818121
 40
0.6561476434
 40
0.6935646733
 40
0.711892258
 40
0.729933038
 40
0.7476631939
 40
0.7650594851
 40
0.7820993091
 40
0.7987607922
 40
0.8150228167
 40
0.8308650777
 40
0.846268195
 40
0.8612137644
 40
0.8756844182
 40
0.889663959
 40
0.9031374659
 40
0.9160913786
 40
0.9285136711
 40
0.9403940542
 40
0.9517241379
 40
0.9624977005
 40
0.972711059
 40
0.9823634567
 40
0.9914575366
 40
1.0
 40
1.0
 40
1.0
 40
1.0
 10
11.1987740935
 20
10.4607658596
 30
0.0
 10
11.1965349526
 20
10.462368421
 30
0.0
 10
11.1918152467
 20
10.4655428414
 30
0.0
 10
11.1842798562
 20
10.4700853834
 30
0.0
 10
11.1760799268
 20
10.4745501083
 30
0.0
 10
11.1672273695
 20
10.4789304834
 30
0.0
 10
11.1577347002
 20
10.483220322
 30
0.0
 10
11.1476155588
 20
10.4874134243
 30
0.0
 10
11.1368845004
 20
10.4915036878
 30
0.0
 10
11.1255570338
 20
10.495485133
 30
0.0
 10
11.1136495826
 20
10.499351949
 30
0.0
 10
11.1011794368
 20
10.5030984592
 30
0.0
 10
11.0881647302
 20
10.5067191491
 30
0.0
 10
11.074624423
 20
10.5102087165
 30
0.0
 10
11.0605782533
 20
10.5135620339
 30
0.0
 10
11.0460467061
 20
10.5167741577
 30
0.0
 10
11.031050994
 20
10.519840377
 30
0.0
 10
11.0156130164
 20
10.5227561922
 30
0.0
 10
10.9997553195
 20
10.525517306
 30
0.0
 10
10.9835010737
 20
10.5281196623
 30
0.0
 10
10.9668740347
 20
10.5305594508
 30
0.0
 10
10.9498985094
 20
10.5328330748
 30
0.0
 10
10.9325992902
 20
10.534937208
 30
0.0
 10
10.9089736448
 20
10.537530336
 30
0.0
 10
10.8788186345
 20
10.5403177547
 30
0.0
 10
10.8419992796
 20
10.5429219378
 30
0.0
 10
10.8045170742
 20
10.54479238
 30
0.0
 10
10.7665911452
 20
10.5459180633
 30
0.0
 10
10.7284430592
 20
10.546292291
 30
0.0
 10
10.6902957426
 20
10.5459128603
 30
0.0
 10
10.652372119
 20
10.544782022
 30
0.0
 10
10.6148937405
 20
10.5429064594
 30
0.0
 10
10.5780797107
 20
10.5402972725
 30
0.0
 10
10.5479300886
 20
10.5375057149
 30
0.0
 10
10.5243094869
 20
10.5349093411
 30
0.0
 10
10.5070145658
 20
10.5328028366
 30
0.0
 10
10.4900436812
 20
10.5305269005
 30
0.0
 10
10.4734216215
 20
10.5280848504
 30
0.0
 10
10.4571726906
 20
10.5254802672
 30
0.0
 10
10.4413206301
 20
10.5227169893
 30
0.0
 10
10.4258886014
 20
10.5197990789
 30
0.0
 10
10.41089915
 20
10.5167308085
 30
0.0
 10
10.3963741609
 20
10.5135166972
 30
0.0
 10
10.3823348313
 20
10.5101614762
 30
0.0
 10
10.368801646
 20
10.5066700628
 30
0.0
 10
10.3557943321
 20
10.503047589
 30
0.0
 10
10.343331827
 20
10.4992993893
 30
0.0
 10
10.3314322622
 20
10.4954309576
 30
0.0
 10
10.3201129232
 20
10.4914479575
 30
0.0
 10
10.3093902049
 20
10.4873562374
 30
0.0
 10
10.2992796062
 20
10.4831617699
 30
0.0
 10
10.2897956885
 20
10.4788706266
 30
0.0
 10
10.2809520572
 20
10.4744890432
 30
0.0
 10
10.272761205
 20
10.4700232128
 30
0.0
 10
10.2652350834
 20
10.4654796302
 30
0.0
 10
10.260521763
 20
10.4623045236
 30
0.0
 10
10.2582858707
 20
10.460701641
 30
0.0
  0
SPLINE
  5
3A3
100
AcDbEntity
  8
0
100
AcDbSpline
 62
7
  6
CONTINUOUS
 70
0
 71
3
 72
57
 73
53
 74
0
 42
0.0000001
 43
0.0000001
 44
0.0000000001
 40
0.0
 40
0.0
 40
0.0
 40
0.0
 40
0.0090739832
 40
0.0186790865
 40
0.028815889
 40
0.0394822969
 40
0.0506738849
 40
0.0623841681
 40
0.0746049338
 40
0.0873263944
 40
0.1005373187
 40
0.114225248
 40
0.1283765504
 40
0.142976513
 40
0.1580094903
 40
0.1734589125
 40
0.1893073707
 40
0.2055367204
 40
0.2221280724
 40
0.2390618807
 40
0.2738751766
 40
0.3098094971
 40
0.346689497
 40
0.3843335613
 40
0.4225550781
 40
0.4611637228
 40
0.4999667031
 40
0.5387699881
 40
0.5773795474
 40
0.615602579
 40
0.653248746
 40
0.6901314359
 40
0.7260690072
 40
0.7608860807
 40
0.7778219864
 40
0.7944155421
 40
0.8106472236
 40
0.8264981407
 40
0.8419501126
 40
0.8569857603
 40
0.8715884996
 40
0.8857426532
 40
0.8994335431
 40
0.9126475075
 40
0.9253720641
 40
0.9375960175
 40
0.9493095341
 40
0.9605043877
 40
0.9711741236
 40
0.9813142607
 40
0.9909226896
 40
1.0
 40
1.0
 40
1.0
 40
1.0
 10
12.3306232304
 20
8.4740933431
 30
0.0
 10
12.3320523203
 20
8.4761773055
 30
0.0
 10
12.3348968007
 20
8.4805345354
 30
0.0
 10
12.3390167142
 20
8.4874227348
 30
0.0
 10
12.3431056778
 20
8.494839935
 30
0.0
 10
12.3471581968
 20
8.5027762863
 30
0.0
 10
12.3511689312
 20
8.5112214525
 30
0.0
 10
12.3551325714
 20
8.5201642925
 30
0.0
 10
12.3590438272
 20
8.5295930128
 30
0.0
 10
12.362897468
 20
8.5394951412
 30
0.0
 10
12.3666883675
 20
8.549857546
 30
0.0
 10
12.3704114392
 20
8.5606664792
 30
0.0
 10
12.3740617001
 20
8.5719075801
 30
0.0
 10
12.3776342843
 20
8.5835658962
 30
0.0
 10
12.381124392
 20
8.5956259201
 30
0.0
 10
12.3845273569
 20
8.6080715957
 30
0.0
 10
12.3878386403
 20
8.6208863462
 30
0.0
 10
12.3910537866
 20
8.6340531004
 30
0.0
 10
12.3941685274
 20
8.647554326
 30
0.0
 10
12.3982193264
 20
8.666149295
 30
0.0
 10
12.4029919089
 20
8.6900979493
 30
0.0
 10
12.4082048915
 20
8.7196151373
 30
0.0
 10
12.412927104
 20
8.7500127516
 30
0.0
 10
12.4171332115
 20
8.7811287584
 30
0.0
 10
12.4208006582
 20
8.8127974171
 30
0.0
 10
12.4239098058
 20
8.844849957
 30
0.0
 10
12.4264440145
 20
8.8771155545
 30
0.0
 10
12.42838976
 20
8.9094222343
 30
0.0
 10
12.4297366985
 20
8.9415977979
 30
0.0
 10
12.430477704
 20
8.9734707564
 30
0.0
 10
12.4306089182
 20
9.0048712387
 30
0.0
 10
12.4301298115
 20
9.0356319682
 30
0.0
 10
12.4290430911
 20
9.0655889514
 30
0.0
 10
12.4276235556
 20
9.0899697755
 30
0.0
 10
12.4261795923
 20
9.1089482487
 30
0.0
 10
12.4249592427
 20
9.1227521118
 30
0.0
 10
12.4235932769
 20
9.1362386797
 30
0.0
 10
12.4220835026
 20
9.1493899961
 30
0.0
 10
12.4204319452
 20
9.1621885331
 30
0.0
 10
12.4186408443
 20
9.1746172459
 30
0.0
 10
12.4167125948
 20
9.1866595838
 30
0.0
 10
12.4146497846
 20
9.1982995194
 30
0.0
 10
12.412455207
 20
9.2095215728
 30
0.0
 10
12.4101317922
 20
9.2203108266
 30
0.0
 10
12.4076826637
 20
9.2306529557
 30
0.0
 10
12.4051111274
 20
9.2405342506
 30
0.0
 10
12.4024206064
 20
9.2499416252
 30
0.0
 10
12.3996147075
 20
9.2588626626
 30
0.0
 10
12.3966971943
 20
9.2672856049
 30
0.0
 10
12.3936718786
 20
9.2751994568
 30
0.0
 10
12.3905428527
 20
9.2825936972
 30
0.0
 10
12.3883275258
 20
9.2873041231
 30
0.0
 10
12.3871999922
 20
9.2895665441
 30
0.0
  0
SPLINE
  5
3A4
100
AcDbEntity
  8
0
100
AcDbSpline
 62
7
  6
CONTINUOUS
 70
0
 71
3
 72
46
 73
42
 74
0
 42
0.0000001
 43
0.0000001
 44
0.0000000001
 40
0.0
 40
0.0
 40
0.0
 40
0.0
 40
0.0112073763
 40
0.0228002203
 40
0.0347721982
 40
0.0471162545
 40
0.0598246425
 40
0.0728890297
 40
0.1000488613
 40
0.1285188471
 40
0.158213824
 40
0.1890420372
 40
0.2209059277
 40
0.2537028361
 40
0.2873256502
 40
0.321663413
 40
0.3566019035
 40
0.3920242006
 40
0.4278112336
 40
0.4638423255
 40
0.4999957306
 40
0.5361491696
 40
0.5721803632
 40
0.6079675654
 40
0.6433900987
 40
0.6783288914
 40
0.712667021
 40
0.7462902652
 40
0.7790876647
 40
0.8109521051
 40
0.8417809244
 40
0.8714765603
 40
0.8999472544
 40
0.9136966633
 40
0.9271084882
 40
0.9401732573
 40
0.9528820575
 40
0.9652265139
 40
0.9771989212
 40
0.9887921818
 40
1.0
 40
1.0
 40
1.0
 40
1.0
 10
11.0821199427
 20
10.4131999105
 30
0.0
 10
11.0796109365
 20
10.414134568
 30
0.0
 10
11.0744861981
 20
10.4159815736
 30
0.0
 10
11.0666170993
 20
10.4186447609
 30
0.0
 10
11.0584417341
 20
10.4212455707
 30
0.0
 10
11.0499675309
 20
10.4237816053
 30
0.0
 10
11.0412021236
 20
10.4262506079
 30
0.0
 10
11.0289786208
 20
10.4294921544
 30
0.0
 10
11.013024802
 20
10.4333488855
 30
0.0
 10
10.9930906609
 20
10.4376179105
 30
0.0
 10
10.9721988129
 20
10.4415700386
 30
0.0
 10
10.9504248584
 20
10.4451908105
 30
0.0
 10
10.9278474638
 20
10.4484669553
 30
0.0
 10
10.9045483137
 20
10.4513864799
 30
0.0
 10
10.8806117295
 20
10.4539387002
 30
0.0
 10
10.8561243756
 20
10.4561142811
 30
0.0
 10
10.8311749318
 20
10.457905268
 30
0.0
 10
10.8058537685
 20
10.459305115
 30
0.0
 10
10.7802526147
 20
10.4603087068
 30
0.0
 10
10.7544642221
 20
10.460912377
 30
0.0
 10
10.7285820258
 20
10.4611139203
 30
0.0
 10
10.7026998034
 20
10.4609126007
 30
0.0
 10
10.6769113327
 20
10.4603091537
 30
0.0
 10
10.651310049
 20
10.4593057836
 30
0.0
 10
10.6259887043
 20
10.4579061561
 30
0.0
 10
10.6010390282
 20
10.4561153855
 30
0.0
 10
10.5765513917
 20
10.4539400172
 30
0.0
 10
10.5526144767
 20
10.4513880045
 30
0.0
 10
10.5293149447
 20
10.4484686825
 30
0.0
 10
10.5067371325
 20
10.4451927322
 30
0.0
 10
10.4849626775
 20
10.4415721545
 30
0.0
 10
10.4640704201
 20
10.4376201883
 30
0.0
 10
10.4472686322
 20
10.4340223451
 30
0.0
 10
10.4343304642
 20
10.4309810142
 30
0.0
 10
10.4250063989
 20
10.4286528997
 30
0.0
 10
10.4159574196
 20
10.4262533039
 30
0.0
 10
10.4071916974
 20
10.4237844043
 30
0.0
 10
10.3987171649
 20
10.4212484266
 30
0.0
 10
10.3905414611
 20
10.4186477018
 30
0.0
 10
10.3826720188
 20
10.4159845691
 30
0.0
 10
10.3775470424
 20
10.4141376194
 30
0.0
 10
10.3750379159
 20
10.4132029822
 30
0.0
  0
SPLINE
  5
3A5
100
AcDbEntity
  8
0
100
AcDbSpline
 62
7
  6
CONTINUOUS
 70
0
 71
3
 72
45
 73
41
 74
0
 42
0.0000001
 43
0.0000001
 44
0.0000000001
 40
0.0
 40
0.0
 40
0.0
 40
0.0
 40
0.0112203773
 40
0.0228262536
 40
0.0348110858
 40
0.0471675606
 40
0.0598878078
 40
0.0729632814
 40
0.1001426727
 40
0.128628025
 40
0.1583337248
 40
0.1891678098
 40
0.2210327148
 40
0.2538259428
 40
0.2874406848
 40
0.3217664037
 40
0.3566893955
 40
0.3920933336
 40
0.427859803
 40
0.4638688272
 40
0.4999993909
 40
0.5361299597
 40
0.5721389993
 40
0.6079054943
 40
0.6433094681
 40
0.6782325056
 40
0.7125582801
 40
0.7461730873
 40
0.7789663902
 40
0.8108313791
 40
0.841665557
 40
0.8713713583
 40
0.8998568201
 40
0.9270363286
 40
0.9401118738
 40
0.9528321737
 40
0.9651887204
 40
0.9771736109
 40
0.9887795584
 40
1.0
 40
1.0
 40
1.0
 40
1.0
 10
12.310832715
 20
8.554575728
 30
0.0
 10
12.3118314098
 20
8.5568654307
 30
0.0
 10
12.3138155126
 20
8.561544391
 30
0.0
 10
12.3167070003
 20
8.5687353167
 30
0.0
 10
12.3195620062
 20
8.576212192
 30
0.0
 10
12.3223779895
 20
8.5839682849
 30
0.0
 10
12.3251524008
 20
8.591996685
 30
0.0
 10
12.3288405048
 20
8.6031995744
 30
0.0
 10
12.3333186922
 20
8.6178356294
 30
0.0
 10
12.3384214938
 20
8.6361459065
 30
0.0
 10
12.3433017473
 20
8.6553572916
 30
0.0
 10
12.3479418328
 20
8.6754009756
 30
0.0
 10
12.3523249807
 20
8.6962052782
 30
0.0
 10
12.3564353673
 20
8.7176956971
 30
0.0
 10
12.3602581609
 20
8.7397952499
 30
0.0
 10
12.3637795763
 20
8.7624247402
 30
0.0
 10
12.3669869223
 20
8.7855030528
 30
0.0
 10
12.3698686471
 20
8.8089474481
 30
0.0
 10
12.3724143782
 20
8.832673863
 30
0.0
 10
12.3746149591
 20
8.8565972151
 30
0.0
 10
12.3764624821
 20
8.8806317106
 30
0.0
 10
12.377950316
 20
8.9046911543
 30
0.0
 10
12.3790731303
 20
8.9286892608
 30
0.0
 10
12.3798269143
 20
8.9525399659
 30
0.0
 10
12.3802089921
 20
8.9761577378
 30
0.0
 10
12.3802180331
 20
8.9994578863
 30
0.0
 10
12.3798540575
 20
9.0223568692
 30
0.0
 10
12.3791184378
 20
9.0447725959
 30
0.0
 10
12.3780138951
 20
9.0666247252
 30
0.0
 10
12.3765444928
 20
9.0878349639
 30
0.0
 10
12.3747156191
 20
9.1083273389
 30
0.0
 10
12.3725339875
 20
9.1280285408
 30
0.0
 10
12.3700075542
 20
9.1468679873
 30
0.0
 10
12.3675925657
 20
9.161982157
 30
0.0
 10
12.3654862065
 20
9.1735869562
 30
0.0
 10
12.3638465707
 20
9.1819215169
 30
0.0
 10
12.3621281923
 20
9.189992117
 30
0.0
 10
12.3603326038
 20
9.1977915595
 30
0.0
 10
12.3584614291
 20
9.2053128285
 30
0.0
 10
12.3571421861
 20
9.2102209073
 30
0.0
 10
12.3564691236
 20
9.2126265649
 30
0.0
  0
SPLINE
  5
3A6
100
AcDbEntity
  8
0
100
AcDbSpline
 62
7
  6
CONTINUOUS
 70
0
 71
3
 72
12
 73
8
 74
0
 42
0.0000001
 43
0.0000001
 44
0.0000000001
 40
0.0
 40
0.0
 40
0.0
 40
0.0
 40
0.1232601469
 40
0.2471830875
 40
0.4966645069
 40
0.7478027229
 40
1.0
 40
1.0
 40
1.0
 40
1.0
 10
10.8826305933
 20
7.8442790713
 30
0.0
 10
10.88000435
 20
7.8476883188
 30
0.0
 10
10.8746982285
 20
7.8544948019
 30
0.0
 10
10.8638938435
 20
7.8680582316
 30
0.0
 10
10.850062456
 20
7.8849172777
 30
0.0
 10
10.8330050225
 20
7.9049161968
 30
0.0
 10
10.8213597523
 20
7.9180788204
 30
0.0
 10
10.8154635529
 20
7.9246184326
 30
0.0
  0
SPLINE
  5
3A7
100
AcDbEntity
  8
0
100
AcDbSpline
 62
4
  6
CONTINUOUS
 70
0
 71
3
 72
403
 73
399
 74
0
 42
0.0000001
 43
0.0000001
 44
0.0000000001
 40
0.0
 40
0.0
 40
0.0
 40
0.0
 40
0.015625
 40
0.0234375
 40
0.03125
 40
0.0390625
 40
0.04296875
 40
0.046875
 40
0.05078125
 40
0.0546875
 40
0.056640625
 40
0.05859375
 40
0.0595703125
 40
0.060546875
 40
0.0615234375
 40
0.0620117188
 40
0.0622558594
 40
0.0625
 40
0.0627441406
 40
0.0629882812
 40
0.0634765625
 40
0.064453125
 40
0.0654296875
 40
0.06640625
 40
0.068359375
 40
0.0703125
 40
0.07421875
 40
0.078125
 40
0.08203125
 40
0.0859375
 40
0.09375
 40
0.1015625
 40
0.10546875
 40
0.109375
 40
0.11328125
 40
0.1171875
 40
0.119140625
 40
0.12109375
 40
0.1220703125
 40
0.123046875
 40
0.1240234375
 40
0.1245117188
 40
0.1247558594
 40
0.125
 40
0.1252441406
 40
0.1254882812
 40
0.1259765625
 40
0.126953125
 40
0.1279296875
 40
0.12890625
 40
0.130859375
 40
0.1328125
 40
0.13671875
 40
0.140625
 40
0.14453125
 40
0.1484375
 40
0.15625
 40
0.1640625
 40
0.16796875
 40
0.171875
 40
0.17578125
 40
0.1796875
 40
0.181640625
 40
0.18359375
 40
0.1845703125
 40
0.185546875
 40
0.1865234375
 40
0.1870117188
 40
0.1872558594
 40
0.1875
 40
0.1877441406
 40
0.1879882812
 40
0.1884765625
 40
0.189453125
 40
0.1904296875
 40
0.19140625
 40
0.193359375
 40
0.1953125
 40
0.19921875
 40
0.203125
 40
0.20703125
 40
0.2109375
 40
0.21875
 40
0.2265625
 40
0.23046875
 40
0.234375
 40
0.23828125
 40
0.2421875
 40
0.244140625
 40
0.24609375
 40
0.2470703125
 40
0.248046875
 40
0.2490234375
 40
0.2495117188
 40
0.2497558594
 40
0.25
 40
0.2502441406
 40
0.2504882812
 40
0.2509765625
 40
0.251953125
 40
0.2529296875
 40
0.25390625
 40
0.255859375
 40
0.2578125
 40
0.26171875
 40
0.265625
 40
0.26953125
 40
0.2734375
 40
0.28125
 40
0.2890625
 40
0.29296875
 40
0.296875
 40
0.30078125
 40
0.3046875
 40
0.306640625
 40
0.30859375
 40
0.3095703125
 40
0.310546875
 40
0.3115234375
 40
0.3120117188
 40
0.3122558594
 40
0.3125
 40
0.3127441406
 40
0.3129882812
 40
0.3134765625
 40
0.314453125
 40
0.3154296875
 40
0.31640625
 40
0.318359375
 40
0.3203125
 40
0.32421875
 40
0.328125
 40
0.33203125
 40
0.3359375
 40
0.34375
 40
0.3515625
 40
0.35546875
 40
0.359375
 40
0.36328125
 40
0.3671875
 40
0.369140625
 40
0.37109375
 40
0.3720703125
 40
0.373046875
 40
0.3740234375
 40
0.3745117188
 40
0.3747558594
 40
0.375
 40
0.3752441406
 40
0.3754882812
 40
0.3759765625
 40
0.376953125
 40
0.3779296875
 40
0.37890625
 40
0.380859375
 40
0.3828125
 40
0.38671875
 40
0.390625
 40
0.39453125
 40
0.3984375
 40
0.40625
 40
0.4140625
 40
0.41796875
 40
0.421875
 40
0.42578125
 40
0.4296875
 40
0.431640625
 40
0.43359375
 40
0.4345703125
 40
0.435546875
 40
0.4365234375
 40
0.4370117188
 40
0.4372558594
 40
0.4375
 40
0.4377441406
 40
0.4379882812
 40
0.4384765625
 40
0.439453125
 40
0.4404296875
 40
0.44140625
 40
0.443359375
 40
0.4453125
 40
0.44921875
 40
0.453125
 40
0.45703125
 40
0.4609375
 40
0.46875
 40
0.4765625
 40
0.48046875
 40
0.484375
 40
0.48828125
 40
0.4921875
 40
0.494140625
 40
0.49609375
 40
0.4970703125
 40
0.498046875
 40
0.4990234375
 40
0.4995117188
 40
0.4997558594
 40
0.5
 40
0.5002441406
 40
0.5004882812
 40
0.5009765625
 40
0.501953125
 40
0.5029296875
 40
0.50390625
 40
0.505859375
 40
0.5078125
 40
0.51171875
 40
0.515625
 40
0.51953125
 40
0.5234375
 40
0.53125
 40
0.5390625
 40
0.54296875
 40
0.546875
 40
0.55078125
 40
0.5546875
 40
0.556640625
 40
0.55859375
 40
0.5595703125
 40
0.560546875
 40
0.5615234375
 40
0.5620117188
 40
0.5622558594
 40
0.5625
 40
0.5627441406
 40
0.5629882812
 40
0.5634765625
 40
0.564453125
 40
0.5654296875
 40
0.56640625
 40
0.568359375
 40
0.5703125
 40
0.57421875
 40
0.578125
 40
0.58203125
 40
0.5859375
 40
0.59375
 40
0.6015625
 40
0.60546875
 40
0.609375
 40
0.61328125
 40
0.6171875
 40
0.619140625
 40
0.62109375
 40
0.6220703125
 40
0.623046875
 40
0.6240234375
 40
0.6245117188
 40
0.6247558594
 40
0.625
 40
0.6252441406
 40
0.6254882812
 40
0.6259765625
 40
0.626953125
 40
0.6279296875
 40
0.62890625
 40
0.630859375
 40
0.6328125
 40
0.63671875
 40
0.640625
 40
0.64453125
 40
0.6484375
 40
0.65625
 40
0.6640625
 40
0.66796875
 40
0.671875
 40
0.67578125
 40
0.6796875
 40
0.681640625
 40
0.68359375
 40
0.6845703125
 40
0.685546875
 40
0.6865234375
 40
0.6870117188
 40
0.6872558594
 40
0.6875
 40
0.6877441406
 40
0.6879882812
 40
0.6884765625
 40
0.689453125
 40
0.6904296875
 40
0.69140625
 40
0.693359375
 40
0.6953125
 40
0.69921875
 40
0.703125
 40
0.70703125
 40
0.7109375
 40
0.71875
 40
0.7265625
 40
0.73046875
 40
0.734375
 40
0.73828125
 40
0.7421875
 40
0.744140625
 40
0.74609375
 40
0.7470703125
 40
0.748046875
 40
0.7490234375
 40
0.7495117188
 40
0.7497558594
 40
0.75
 40
0.7502441406
 40
0.7504882812
 40
0.7509765625
 40
0.751953125
 40
0.7529296875
 40
0.75390625
 40
0.755859375
 40
0.7578125
 40
0.76171875
 40
0.765625
 40
0.76953125
 40
0.7734375
 40
0.78125
 40
0.7890625
 40
0.79296875
 40
0.796875
 40
0.80078125
 40
0.8046875
 40
0.806640625
 40
0.80859375
 40
0.8095703125
 40
0.810546875
 40
0.8115234375
 40
0.8120117188
 40
0.8122558594
 40
0.8125
 40
0.8127441406
 40
0.8129882812
 40
0.8134765625
 40
0.814453125
 40
0.8154296875
 40
0.81640625
 40
0.818359375
 40
0.8203125
 40
0.82421875
 40
0.828125
 40
0.83203125
 40
0.8359375
 40
0.84375
 40
0.8515625
 40
0.85546875
 40
0.859375
 40
0.86328125
 40
0.8671875
 40
0.869140625
 40
0.87109375
 40
0.8720703125
 40
0.873046875
 40
0.8740234375
 40
0.8745117188
 40
0.8747558594
 40
0.875
 40
0.8752441406
 40
0.8754882812
 40
0.8759765625
 40
0.876953125
 40
0.8779296875
 40
0.87890625
 40
0.880859375
 40
0.8828125
 40
0.88671875
 40
0.890625
 40
0.89453125
 40
0.8984375
 40
0.90625
 40
0.9140625
 40
0.91796875
 40
0.921875
 40
0.92578125
 40
0.9296875
 40
0.931640625
 40
0.93359375
 40
0.9345703125
 40
0.935546875
 40
0.9365234375
 40
0.9370117188
 40
0.9372558594
 40
0.9375
 40
0.9377441406
 40
0.9379882812
 40
0.9384765625
 40
0.939453125
 40
0.9404296875
 40
0.94140625
 40
0.943359375
 40
0.9453125
 40
0.94921875
 40
0.953125
 40
0.95703125
 40
0.9609375
 40
0.96875
 40
0.9765625
 40
0.984375
 40
1.0
 40
1.0
 40
1.0
 40
1.0
 10
10.4128444807
 20
8.8373645187
 30
0.0
 10
10.4159776676
 20
8.8374544431
 30
0.0
 10
10.420677448
 20
8.8375893297
 30
0.0
 10
10.4269438218
 20
8.8377691785
 30
0.0
 10
10.4316436022
 20
8.8379040652
 30
0.0
 10
10.4355600859
 20
8.8380164706
 30
0.0
 10
10.4386932727
 20
8.8381063953
 30
0.0
 10
10.4410431631
 20
8.8381738376
 30
0.0
 10
10.4433930526
 20
8.8382412847
 30
0.0
 10
10.4453512967
 20
8.8382974758
 30
0.0
 10
10.4469178855
 20
8.8383424617
 30
0.0
 10
10.4478970182
 20
8.8383705028
 30
0.0
 10
10.4486802908
 20
8.8383931076
 30
0.0
 10
10.4492678372
 20
8.8384095904
 30
0.0
 10
10.4497571666
 20
8.838424824
 30
0.0
 10
10.4501002713
 20
8.8384325478
 30
0.0
 10
10.4502954347
 20
8.8384415515
 30
0.0
 10
10.4504443327
 20
8.838435374
 30
0.0
 10
10.4505835768
 20
8.8384786224
 30
0.0
 10
10.4507726029
 20
8.8385190467
 30
0.0
 10
10.4511018298
 20
8.8385978217
 30
0.0
 10
10.451572974
 20
8.838706158
 30
0.0
 10
10.4521379961
 20
8.8388379591
 30
0.0
 10
10.4528914815
 20
8.8390130659
 30
0.0
 10
10.4538332962
 20
8.8392321645
 30
0.0
 10
10.4553402232
 20
8.8395826021
 30
0.0
 10
10.457223874
 20
8.8400206903
 30
0.0
 10
10.4594842583
 20
8.8405463785
 30
0.0
 10
10.4617446417
 20
8.8410720714
 30
0.0
 10
10.4647584866
 20
8.8417729936
 30
0.0
 10
10.4685257925
 20
8.842649147
 30
0.0
 10
10.4722930986
 20
8.8435253
 30
0.0
 10
10.4753069433
 20
8.8442262228
 30
0.0
 10
10.4775673273
 20
8.8447519138
 30
0.0
 10
10.4798277094
 20
8.8452776093
 30
0.0
 10
10.4817113669
 20
8.8457156748
 30
0.0
 10
10.4832182802
 20
8.8460661587
 30
0.0
 10
10.4841601298
 20
8.8462851393
 30
0.0
 10
10.4849135436
 20
8.8464604883
 30
0.0
 10
10.4854787844
 20
8.8465915497
 30
0.0
 10
10.4859492443
 20
8.8467022001
 30
0.0
 10
10.4862796928
 20
8.8467768441
 30
0.0
 10
10.4864667616
 20
8.8468238873
 30
0.0
 10
10.4866120181
 20
8.8468468045
 30
0.0
 10
10.4867383343
 20
8.8469169879
 30
0.0
 10
10.4869133624
 20
8.8469940788
 30
0.0
 10
10.4872165836
 20
8.8471366694
 30
0.0
 10
10.487651366
 20
8.8473363542
 30
0.0
 10
10.4881724161
 20
8.8475776951
 30
0.0
 10
10.48886739
 20
8.8478988824
 30
0.0
 10
10.4897360252
 20
8.8483005722
 30
0.0
 10
10.4911258874
 20
8.8489431609
 30
0.0
 10
10.4928631993
 20
8.8497464362
 30
0.0
 10
10.4949479805
 20
8.8507103497
 30
0.0
 10
10.4970327598
 20
8.8516742677
 30
0.0
 10
10.4998124662
 20
8.8529594902
 30
0.0
 10
10.503287099
 20
8.8545660188
 30
0.0
 10
10.5067617319
 20
8.8561725471
 30
0.0
 10
10.509541438
 20
8.8574577701
 30
0.0
 10
10.5116262182
 20
8.8584216863
 30
0.0
 10
10.5137109961
 20
8.8593856068
 30
0.0
 10
10.5154483182
 20
8.8601888602
 30
0.0
 10
10.5168381597
 20
8.8608314938
 30
0.0
 10
10.5177068475
 20
8.8612330694
 30
0.0
 10
10.5184017133
 20
8.861554491
 30
0.0
 10
10.5189230939
 20
8.8617951161
 30
0.0
 10
10.519356842
 20
8.8619970402
 30
0.0
 10
10.5196619096
 20
8.8621356335
 30
0.0
 10
10.5198339793
 20
8.8622191291
 30
0.0
 10
10.5199693831
 20
8.862269639
 30
0.0
 10
10.5200805081
 20
8.8623664466
 30
0.0
 10
10.5202371435
 20
8.8624793741
 30
0.0
 10
10.5205073097
 20
8.8626845216
 30
0.0
 10
10.5208953243
 20
8.8629736556
 30
0.0
 10
10.5213600588
 20
8.8633223002
 30
0.0
 10
10.5219800132
 20
8.8637865716
 30
0.0
 10
10.5227548506
 20
8.8643671122
 30
0.0
 10
10.5239946495
 20
8.8652958646
 30
0.0
 10
10.5255443779
 20
8.8664568437
 30
0.0
 10
10.5274040607
 20
8.8678500021
 30
0.0
 10
10.5292637411
 20
8.8692431649
 30
0.0
 10
10.5317433158
 20
8.8711007138
 30
0.0
 10
10.5348427839
 20
8.8734226504
 30
0.0
 10
10.5379422522
 20
8.8757445867
 30
0.0
 10
10.5404218265
 20
8.8776021361
 30
0.0
 10
10.5422815082
 20
8.8789952973
 30
0.0
 10
10.5441411862
 20
8.8803884618
 30
0.0
 10
10.5456909294
 20
8.8815494218
 30
0.0
 10
10.546930698
 20
8.8824782133
 30
0.0
 10
10.5477056126
 20
8.8830586543
 30
0.0
 10
10.5483254087
 20
8.88352313
 30
0.0
 10
10.5487906268
 20
8.8838711504
 30
0.0
 10
10.5491771285
 20
8.8841622377
 30
0.0
 10
10.5494499954
 20
8.8843638982
 30
0.0
 10
10.5496023036
 20
8.8844824127
 30
0.0
 10
10.5497267204
 20
8.884562059
 30
0.0
 10
10.5498122023
 20
8.8846770235
 30
0.0
 10
10.5499397592
 20
8.8848179902
 30
0.0
 10
10.5501566562
 20
8.8850704216
 30
0.0
 10
10.5504698171
 20
8.8854280371
 30
0.0
 10
10.5508441942
 20
8.8858584602
 30
0.0
 10
10.5513438582
 20
8.886431909
 30
0.0
 10
10.5519682689
 20
8.8871488737
 30
0.0
 10
10.5529674207
 20
8.8882959312
 30
0.0
 10
10.554216328
 20
8.8897297826
 30
0.0
 10
10.5557150306
 20
8.8914503916
 30
0.0
 10
10.5572137296
 20
8.893171004
 30
0.0
 10
10.5592119961
 20
8.8954651527
 30
0.0
 10
10.5617098288
 20
8.898332839
 30
0.0
 10
10.5642076618
 20
8.901200525
 30
0.0
 10
10.5662059277
 20
8.9034946742
 30
0.0
 10
10.5677046283
 20
8.9052152853
 30
0.0
 10
10.5692033249
 20
8.9069358993
 30
0.0
 10
10.570452251
 20
8.9083697352
 30
0.0
 10
10.5714513643
 20
8.9095168243
 30
0.0
 10
10.5720758729
 20
8.9102337086
 30
0.0
 10
10.5725753361
 20
8.9108073222
 30
0.0
 10
10.5729503269
 20
8.9112372417
 30
0.0
 10
10.5732615676
 20
8.9115964328
 30
0.0
 10
10.5734818925
 20
8.9118460517
 30
0.0
 10
10.5736039568
 20
8.9119915248
 30
0.0
 10
10.5737063102
 20
8.9120926469
 30
0.0
 10
10.573767361
 20
8.9122242829
 30
0.0
 10
10.573863169
 20
8.912389154
 30
0.0
 10
10.5740241205
 20
8.9126826375
 30
0.0
 10
10.5742575605
 20
8.913099307
 30
0.0
 10
10.5745361865
 20
8.9136004202
 30
0.0
 10
10.5749082124
 20
8.9142681834
 30
0.0
 10
10.5753730651
 20
8.9151030201
 30
0.0
 10
10.57611693
 20
8.9164386848
 30
0.0
 10
10.5770467265
 20
8.918108291
 30
0.0
 10
10.5781624971
 20
8.9201118076
 30
0.0
 10
10.5792782638
 20
8.9221153271
 30
0.0
 10
10.5807659541
 20
8.9247866854
 30
0.0
 10
10.5826255665
 20
8.9281258837
 30
0.0
 10
10.5844851792
 20
8.9314650817
 30
0.0
 10
10.5859728689
 20
8.9341364404
 30
0.0
 10
10.5870886374
 20
8.9361399588
 30
0.0
 10
10.5882044014
 20
8.9381434794
 30
0.0
 10
10.5891342185
 20
8.9398130732
 30
0.0
 10
10.5898780415
 20
8.9411487632
 30
0.0
 10
10.5903430006
 20
8.9419835355
 30
0.0
 10
10.5907148082
 20
8.942651431
 30
0.0
 10
10.5909941011
 20
8.9431521402
 30
0.0
 10
10.5912254545
 20
8.9435700733
 30
0.0
 10
10.591390131
 20
8.9438613011
 30
0.0
 10
10.5914799705
 20
8.9440297864
 30
0.0
 10
10.5915593544
 20
8.9441503209
 30
0.0
 10
10.591592852
 20
8.9442931383
 30
0.0
 10
10.5916535211
 20
8.9444757891
 30
0.0
 10
10.5917522347
 20
8.9447990491
 30
0.0
 10
10.5918971529
 20
8.945258956
 30
0.0
 10
10.5920693859
 20
8.9458116546
 30
0.0
 10
10.5922996128
 20
8.946548303
 30
0.0
 10
10.5925871969
 20
8.9474692105
 30
0.0
 10
10.593047443
 20
8.9489426083
 30
0.0
 10
10.5936227123
 20
8.9507843741
 30
0.0
 10
10.5943130518
 20
8.952994485
 30
0.0
 10
10.595003387
 20
8.9552045982
 30
0.0
 10
10.5959238354
 20
8.9581514149
 30
0.0
 10
10.5970743954
 20
8.9618349361
 30
0.0
 10
10.5982249558
 20
8.9655184571
 30
0.0
 10
10.5991454036
 20
8.9684652741
 30
0.0
 10
10.5998357407
 20
8.9706753864
 30
0.0
 10
10.6005260731
 20
8.9728855004
 30
0.0
 10
10.6011013646
 20
8.9747272568
 30
0.0
 10
10.6015615653
 20
8.9762006738
 30
0.0
 10
10.6018492648
 20
8.9771215324
 30
0.0
 10
10.6020792549
 20
8.9778582811
 30
0.0
 10
10.6022522115
 20
8.9784106734
 30
0.0
 10
10.6023948657
 20
8.9788715385
 30
0.0
 10
10.6024976209
 20
8.979193088
 30
0.0
 10
10.6025518143
 20
8.9793784796
 30
0.0
 10
10.6026052034
 20
8.9795128778
 30
0.0
 10
10.602609878
 20
8.9796650335
 30
0.0
 10
10.602633103
 20
8.9798617137
 30
0.0
 10
10.6026658298
 20
8.98020879
 30
0.0
 10
10.6027167214
 20
8.9807031045
 30
0.0
 10
10.6027760197
 20
8.9812969277
 30
0.0
 10
10.6028557029
 20
8.9820884664
 30
0.0
 10
10.602955095
 20
8.983077967
 30
0.0
 10
10.6031142408
 20
8.9846611248
 30
0.0
 10
10.6033131325
 20
8.9866400869
 30
0.0
 10
10.6035518198
 20
8.9890148351
 30
0.0
 10
10.6037905026
 20
8.9913895849
 30
0.0
 10
10.6041087478
 20
8.9945559175
 30
0.0
 10
10.6045065538
 20
8.9985138334
 30
0.0
 10
10.6049043602
 20
9.0024717492
 30
0.0
 10
10.6052226047
 20
9.0056380818
 30
0.0
 10
10.6054612895
 20
9.0080128314
 30
0.0
 10
10.6056999693
 20
9.0103875808
 30
0.0
 10
10.6058988843
 20
9.0123665389
 30
0.0
 10
10.6060579825
 20
9.0139497048
 30
0.0
 10
10.6061574958
 20
9.0149391849
 30
0.0
 10
10.6062369303
 20
9.0157307657
 30
0.0
 10
10.6062969883
 20
9.0163244604
 30
0.0
 10
10.6063455032
 20
9.016819177
 30
0.0
 10
10.6063824728
 20
9.0171655355
 30
0.0
 10
10.6063988997
 20
9.0173633657
 30
0.0
 10
10.606424456
 20
9.017511989
 30
0.0
 10
10.6063994169
 20
9.0176596544
 30
0.0
 10
10.6063836796
 20
9.0178568757
 30
0.0
 10
10.6063479167
 20
9.0182018574
 30
0.0
 10
10.6063011257
 20
9.0186947697
 30
0.0
 10
10.6062431365
 20
9.0192862296
 30
0.0
 10
10.6061664603
 20
9.0200748551
 30
0.0
 10
10.606070395
 20
9.0210606327
 30
0.0
 10
10.6059168134
 20
9.0226378792
 30
0.0
 10
10.6057247942
 20
9.0246094366
 30
0.0
 10
10.6054943893
 20
9.0269753057
 30
0.0
 10
10.6052639795
 20
9.0293411748
 30
0.0
 10
10.6049567682
 20
9.0324956669
 30
0.0
 10
10.6045727534
 20
9.0364387821
 30
0.0
 10
10.604188739
 20
9.0403818972
 30
0.0
 10
10.603881527
 20
9.0435363893
 30
0.0
 10
10.6036511193
 20
9.0459022585
 30
0.0
 10
10.6034207068
 20
9.0482681271
 30
0.0
 10
10.603228711
 20
9.0502396862
 30
0.0
 10
10.6030750818
 20
9.0518169292
 30
0.0
 10
10.6029791376
 20
9.0528027157
 30
0.0
 10
10.6029022126
 20
9.053591323
 30
0.0
 10
10.6028449834
 20
9.0541828382
 30
0.0
 10
10.6027958147
 20
9.0546755775
 30
0.0
 10
10.6027642965
 20
9.0550208681
 30
0.0
 10
10.6027417582
 20
9.0552175945
 30
0.0
 10
10.6027376096
 20
9.0553667802
 30
0.0
 10
10.6026847045
 20
9.0555096933
 30
0.0
 10
10.6026311712
 20
9.055702432
 30
0.0
 10
10.6025295642
 20
9.0560387052
 30
0.0
 10
10.602388554
 20
9.0565196286
 30
0.0
 10
10.6022175685
 20
9.0570965086
 30
0.0
 10
10.6019902073
 20
9.0578657615
 30
0.0
 10
10.6017057936
 20
9.0588273004
 30
0.0
 10
10.6012508503
 20
9.0603657778
 30
0.0
 10
10.6006821304
 20
9.0622888694
 30
0.0
 10
10.5999996841
 20
9.0645965816
 30
0.0
 10
10.5993172331
 20
9.0669042931
 30
0.0
 10
10.5984073
 20
9.069981242
 30
0.0
 10
10.597269883
 20
9.0738274281
 30
0.0
 10
10.5961324665
 20
9.0776736143
 30
0.0
 10
10.5952225328
 20
9.0807505631
 30
0.0
 10
10.5945400837
 20
9.0830582751
 30
0.0
 10
10.5938576302
 20
9.0853659856
 30
0.0
 10
10.5932889326
 20
9.0872890823
 30
0.0
 10
10.5928339439
 20
9.0888275492
 30
0.0
 10
10.5925496457
 20
9.089789115
 30
0.0
 10
10.5923220473
 20
9.0905583128
 30
0.0
 10
10.5921517863
 20
9.0911353612
 30
0.0
 10
10.5920085095
 20
9.0916157574
 30
0.0
 10
10.5919109488
 20
9.0919529718
 30
0.0
 10
10.5918509323
 20
9.0921442027
 30
0.0
 10
10.5918179416
 20
9.0922917471
 30
0.0
 10
10.5917389981
 20
9.0924235381
 30
0.0
 10
10.591649769
 20
9.0926047543
 30
0.0
 10
10.5914861499
 20
9.0929193225
 30
0.0
 10
10.5912563128
 20
9.0933700441
 30
0.0
 10
10.590978837
 20
9.0939103372
 30
0.0
 10
10.5906094531
 20
9.0946309281
 30
0.0
 10
10.5901475233
 20
9.0955315981
 30
0.0
 10
10.5894085473
 20
9.0969727085
 30
0.0
 10
10.5884847889
 20
9.0987740833
 30
0.0
 10
10.5873762954
 20
9.1009357387
 30
0.0
 10
10.5862677974
 20
9.1030973926
 30
0.0
 10
10.5847898017
 20
9.1059795984
 30
0.0
 10
10.5829423064
 20
9.1095823554
 30
0.0
 10
10.5810948116
 20
9.1131851125
 30
0.0
 10
10.5796168152
 20
9.116067318
 30
0.0
 10
10.5785083191
 20
9.1182289727
 30
0.0
 10
10.5773998187
 20
9.1203906253
 30
0.0
 10
10.5764760816
 20
9.1221920088
 30
0.0
 10
10.5757370622
 20
9.1236331015
 30
0.0
 10
10.5752752429
 20
9.1245338166
 30
0.0
 10
10.5749056322
 20
9.125254315
 30
0.0
 10
10.5746288492
 20
9.1257948906
 30
0.0
 10
10.5743968446
 20
9.1262447282
 30
0.0
 10
10.5742370948
 20
9.1265608746
 30
0.0
 10
10.5741416661
 20
9.1267395622
 30
0.0
 10
10.5740817659
 20
9.1268791201
 30
0.0
 10
10.5739772518
 20
9.1269974932
 30
0.0
 10
10.5738534615
 20
9.1271627135
 30
0.0
 10
10.573629578
 20
9.127448406
 30
0.0
 10
10.5733135351
 20
9.1278583382
 30
0.0
 10
10.572932661
 20
9.1283494865
 30
0.0
 10
10.5724253957
 20
9.1290046199
 30
0.0
 10
10.5717911199
 20
9.1298234445
 30
0.0
 10
10.5707763872
 20
9.1311336153
 30
0.0
 10
10.569507934
 20
9.1327713112
 30
0.0
 10
10.5679858062
 20
9.1347365539
 30
0.0
 10
10.5664636741
 20
9.1367017946
 30
0.0
 10
10.5644341662
 20
9.1393221161
 30
0.0
 10
10.5618972807
 20
9.1425975178
 30
0.0
 10
10.5593603955
 20
9.1458729197
 30
0.0
 10
10.557330887
 20
9.1484932409
 30
0.0
 10
10.5558087565
 20
9.1504584827
 30
0.0
 10
10.5542866228
 20
9.152423721
 30
0.0
 10
10.5530181879
 20
9.1540614305
 30
0.0
 10
10.5520034181
 20
9.1553715736
 30
0.0
 10
10.5513692366
 20
9.1561904688
 30
0.0
 10
10.5508617778
 20
9.1568454574
 30
0.0
 10
10.5504814945
 20
9.1573370481
 30
0.0
 10
10.5501636032
 20
9.1577455957
 30
0.0
 10
10.5499430193
 20
9.1580337601
 30
0.0
 10
10.5498139422
 20
9.1581950198
 30
0.0
 10
10.5497256676
 20
9.1583255585
 30
0.0
 10
10.5496047749
 20
9.1584194244
 30
0.0
 10
10.5494549621
 20
9.1585573709
 30
0.0
 10
10.5491874888
 20
9.1587928171
 30
0.0
 10
10.5488081555
 20
9.1591322849
 30
0.0
 10
10.5483517693
 20
9.1595383125
 30
0.0
 10
10.5477436687
 20
9.1600801485
 30
0.0
 10
10.546983401
 20
9.1607572839
 30
0.0
 10
10.5457670521
 20
9.1618407898
 30
0.0
 10
10.5442465887
 20
9.1631951416
 30
0.0
 10
10.5424220442
 20
9.1648203768
 30
0.0
 10
10.5405974967
 20
9.1664456085
 30
0.0
 10
10.5381647678
 20
9.1686125854
 30
0.0
 10
10.5351238562
 20
9.171321306
 30
0.0
 10
10.5320829448
 20
9.1740300269
 30
0.0
 10
10.5296502155
 20
9.1761970032
 30
0.0
 10
10.5278256692
 20
9.1778222365
 30
0.0
 10
10.5260011202
 20
9.179447466
 30
0.0
 10
10.524480671
 20
9.1808018356
 30
0.0
 10
10.5232642931
 20
9.181885305
 30
0.0
 10
10.522504099
 20
9.1825625333
 30
0.0
 10
10.5218958475
 20
9.1831041788
 30
0.0
 10
10.5214399223
 20
9.1835107882
 30
0.0
 10
10.5210591466
 20
9.1838484357
 30
0.0
 10
10.5207942481
 20
9.1840871314
 30
0.0
 10
10.5206403098
 20
9.1842198714
 30
0.0
 10
10.5205320895
 20
9.1843297298
 30
0.0
 10
10.5203962196
 20
9.1844002033
 30
0.0
 10
10.5202247041
 20
9.1845079059
 30
0.0
 10
10.5199200586
 20
9.1846899847
 30
0.0
 10
10.5194872
 20
9.1849534435
 30
0.0
 10
10.5189667641
 20
9.1852681618
 30
0.0
 10
10.5182732008
 20
9.1856882865
 30
0.0
 10
10.5174061264
 20
9.1862132711
 30
0.0
 10
10.5160188745
 20
9.1870533421
 30
0.0
 10
10.5142847867
 20
9.1881033981
 30
0.0
 10
10.5122038912
 20
9.1893634793
 30
0.0
 10
10.510122993
 20
9.1906235568
 30
0.0
 10
10.507348463
 20
9.1923036614
 30
0.0
 10
10.5038803002
 20
9.1944037917
 30
0.0
 10
10.5004121375
 20
9.1965039223
 30
0.0
 10
10.4976376072
 20
9.1981840263
 30
0.0
 10
10.49555671
 20
9.1994441055
 30
0.0
 10
10.4934758109
 20
9.2007041804
 30
0.0
 10
10.4917417341
 20
9.2017542561
 30
0.0
 10
10.4903544598
 20
9.2025942869
 30
0.0
 10
10.4894874424
 20
9.2031193738
 30
0.0
 10
10.4887937621
 20
9.2035392884
 30
0.0
 10
10.4882736838
 20
9.2038546488
 30
0.0
 10
10.4878397063
 20
9.2041160986
 30
0.0
 10
10.4875370581
 20
9.2043017639
 30
0.0
 10
10.4873623425
 20
9.20440372
 30
0.0
 10
10.4872363026
 20
9.2044918448
 30
0.0
 10
10.4870911621
 20
9.2045354079
 30
0.0
 10
10.486904304
 20
9.2046090356
 30
0.0
 10
10.4865741981
 20
9.2047306421
 30
0.0
 10
10.4861042411
 20
9.204908152
 30
0.0
 10
10.4855395981
 20
9.2051195431
 30
0.0
 10
10.4847869834
 20
9.205401964
 30
0.0
 10
10.4838461319
 20
9.2057547964
 30
0.0
 10
10.482340816
 20
9.2063194365
 30
0.0
 10
10.4804591551
 20
9.2070251994
 30
0.0
 10
10.478201169
 20
9.2078721308
 30
0.0
 10
10.4759431809
 20
9.208719058
 30
0.0
 10
10.4729325309
 20
9.2098482957
 30
0.0
 10
10.4691692181
 20
9.2112598423
 30
0.0
 10
10.4654059054
 20
9.2126713893
 30
0.0
 10
10.4623952551
 20
9.2138006264
 30
0.0
 10
10.4601372678
 20
9.2146475555
 30
0.0
 10
10.4578792791
 20
9.2154944799
 30
0.0
 10
10.4559976261
 20
9.2162002645
 30
0.0
 10
10.4544922941
 20
9.2167648604
 30
0.0
 10
10.4535514835
 20
9.2171178053
 30
0.0
 10
10.4527987849
 20
9.2173999952
 30
0.0
 10
10.452234398
 20
9.2176120922
 30
0.0
 10
10.4517636398
 20
9.2177873935
 30
0.0
 10
10.4514349642
 20
9.2179129425
 30
0.0
 10
10.4512458143
 20
9.2179802534
 30
0.0
 10
10.4511077136
 20
9.2180432199
 30
0.0
 10
10.4509552336
 20
9.218058469
 30
0.0
 10
10.4507569426
 20
9.2180954455
 30
0.0
 10
10.4504075966
 20
9.2181523996
 30
0.0
 10
10.4499097525
 20
9.2182378168
 30
0.0
 10
10.4493118167
 20
9.2183385821
 30
0.0
 10
10.4485147516
 20
9.2184735419
 30
0.0
 10
10.4475183577
 20
9.2186420342
 30
0.0
 10
10.4459241623
 20
9.2189117378
 30
0.0
 10
10.4439314062
 20
9.2192488276
 30
0.0
 10
10.4415401039
 20
9.2196533523
 30
0.0
 10
10.4391488003
 20
9.2200578725
 30
0.0
 10
10.435960396
 20
9.2205972344
 30
0.0
 10
10.4319748904
 20
9.2212714361
 30
0.0
 10
10.4271922838
 20
9.2220804785
 30
0.0
 10
10.4208154749
 20
9.2231592015
 30
0.0
 10
10.4160328682
 20
9.2239682438
 30
0.0
 10
10.4128444638
 20
9.2245076053
 30
0.0
  0
SPLINE
  5
3A8
100
AcDbEntity
  8
0
100
AcDbSpline
 62
4
  6
CONTINUOUS
 70
0
 71
3
 72
403
 73
399
 74
0
 42
0.0000001
 43
0.0000001
 44
0.0000000001
 40
0.0
 40
0.0
 40
0.0
 40
0.0
 40
0.015625
 40
0.0234375
 40
0.03125
 40
0.0390625
 40
0.04296875
 40
0.046875
 40
0.05078125
 40
0.0546875
 40
0.056640625
 40
0.05859375
 40
0.0595703125
 40
0.060546875
 40
0.0615234375
 40
0.0620117188
 40
0.0622558594
 40
0.0625
 40
0.0627441406
 40
0.0629882812
 40
0.0634765625
 40
0.064453125
 40
0.0654296875
 40
0.06640625
 40
0.068359375
 40
0.0703125
 40
0.07421875
 40
0.078125
 40
0.08203125
 40
0.0859375
 40
0.09375
 40
0.1015625
 40
0.10546875
 40
0.109375
 40
0.11328125
 40
0.1171875
 40
0.119140625
 40
0.12109375
 40
0.1220703125
 40
0.123046875
 40
0.1240234375
 40
0.1245117188
 40
0.1247558594
 40
0.125
 40
0.1252441406
 40
0.1254882812
 40
0.1259765625
 40
0.126953125
 40
0.1279296875
 40
0.12890625
 40
0.130859375
 40
0.1328125
 40
0.13671875
 40
0.140625
 40
0.14453125
 40
0.1484375
 40
0.15625
 40
0.1640625
 40
0.16796875
 40
0.171875
 40
0.17578125
 40
0.1796875
 40
0.181640625
 40
0.18359375
 40
0.1845703125
 40
0.185546875
 40
0.1865234375
 40
0.1870117188
 40
0.1872558594
 40
0.1875
 40
0.1877441406
 40
0.1879882812
 40
0.1884765625
 40
0.189453125
 40
0.1904296875
 40
0.19140625
 40
0.193359375
 40
0.1953125
 40
0.19921875
 40
0.203125
 40
0.20703125
 40
0.2109375
 40
0.21875
 40
0.2265625
 40
0.23046875
 40
0.234375
 40
0.23828125
 40
0.2421875
 40
0.244140625
 40
0.24609375
 40
0.2470703125
 40
0.248046875
 40
0.2490234375
 40
0.2495117188
 40
0.2497558594
 40
0.25
 40
0.2502441406
 40
0.2504882812
 40
0.2509765625
 40
0.251953125
 40
0.2529296875
 40
0.25390625
 40
0.255859375
 40
0.2578125
 40
0.26171875
 40
0.265625
 40
0.26953125
 40
0.2734375
 40
0.28125
 40
0.2890625
 40
0.29296875
 40
0.296875
 40
0.30078125
 40
0.3046875
 40
0.306640625
 40
0.30859375
 40
0.3095703125
 40
0.310546875
 40
0.3115234375
 40
0.3120117188
 40
0.3122558594
 40
0.3125
 40
0.3127441406
 40
0.3129882812
 40
0.3134765625
 40
0.314453125
 40
0.3154296875
 40
0.31640625
 40
0.318359375
 40
0.3203125
 40
0.32421875
 40
0.328125
 40
0.33203125
 40
0.3359375
 40
0.34375
 40
0.3515625
 40
0.35546875
 40
0.359375
 40
0.36328125
 40
0.3671875
 40
0.369140625
 40
0.37109375
 40
0.3720703125
 40
0.373046875
 40
0.3740234375
 40
0.3745117188
 40
0.3747558594
 40
0.375
 40
0.3752441406
 40
0.3754882812
 40
0.3759765625
 40
0.376953125
 40
0.3779296875
 40
0.37890625
 40
0.380859375
 40
0.3828125
 40
0.38671875
 40
0.390625
 40
0.39453125
 40
0.3984375
 40
0.40625
 40
0.4140625
 40
0.41796875
 40
0.421875
 40
0.42578125
 40
0.4296875
 40
0.431640625
 40
0.43359375
 40
0.4345703125
 40
0.435546875
 40
0.4365234375
 40
0.4370117188
 40
0.4372558594
 40
0.4375
 40
0.4377441406
 40
0.4379882812
 40
0.4384765625
 40
0.439453125
 40
0.4404296875
 40
0.44140625
 40
0.443359375
 40
0.4453125
 40
0.44921875
 40
0.453125
 40
0.45703125
 40
0.4609375
 40
0.46875
 40
0.4765625
 40
0.48046875
 40
0.484375
 40
0.48828125
 40
0.4921875
 40
0.494140625
 40
0.49609375
 40
0.4970703125
 40
0.498046875
 40
0.4990234375
 40
0.4995117188
 40
0.4997558594
 40
0.5
 40
0.5002441406
 40
0.5004882812
 40
0.5009765625
 40
0.501953125
 40
0.5029296875
 40
0.50390625
 40
0.505859375
 40
0.5078125
 40
0.51171875
 40
0.515625
 40
0.51953125
 40
0.5234375
 40
0.53125
 40
0.5390625
 40
0.54296875
 40
0.546875
 40
0.55078125
 40
0.5546875
 40
0.556640625
 40
0.55859375
 40
0.5595703125
 40
0.560546875
 40
0.5615234375
 40
0.5620117188
 40
0.5622558594
 40
0.5625
 40
0.5627441406
 40
0.5629882812
 40
0.5634765625
 40
0.564453125
 40
0.5654296875
 40
0.56640625
 40
0.568359375
 40
0.5703125
 40
0.57421875
 40
0.578125
 40
0.58203125
 40
0.5859375
 40
0.59375
 40
0.6015625
 40
0.60546875
 40
0.609375
 40
0.61328125
 40
0.6171875
 40
0.619140625
 40
0.62109375
 40
0.6220703125
 40
0.623046875
 40
0.6240234375
 40
0.6245117188
 40
0.6247558594
 40
0.625
 40
0.6252441406
 40
0.6254882812
 40
0.6259765625
 40
0.626953125
 40
0.6279296875
 40
0.62890625
 40
0.630859375
 40
0.6328125
 40
0.63671875
 40
0.640625
 40
0.64453125
 40
0.6484375
 40
0.65625
 40
0.6640625
 40
0.66796875
 40
0.671875
 40
0.67578125
 40
0.6796875
 40
0.681640625
 40
0.68359375
 40
0.6845703125
 40
0.685546875
 40
0.6865234375
 40
0.6870117188
 40
0.6872558594
 40
0.6875
 40
0.6877441406
 40
0.6879882812
 40
0.6884765625
 40
0.689453125
 40
0.6904296875
 40
0.69140625
 40
0.693359375
 40
0.6953125
 40
0.69921875
 40
0.703125
 40
0.70703125
 40
0.7109375
 40
0.71875
 40
0.7265625
 40
0.73046875
 40
0.734375
 40
0.73828125
 40
0.7421875
 40
0.744140625
 40
0.74609375
 40
0.7470703125
 40
0.748046875
 40
0.7490234375
 40
0.7495117188
 40
0.7497558594
 40
0.75
 40
0.7502441406
 40
0.7504882812
 40
0.7509765625
 40
0.751953125
 40
0.7529296875
 40
0.75390625
 40
0.755859375
 40
0.7578125
 40
0.76171875
 40
0.765625
 40
0.76953125
 40
0.7734375
 40
0.78125
 40
0.7890625
 40
0.79296875
 40
0.796875
 40
0.80078125
 40
0.8046875
 40
0.806640625
 40
0.80859375
 40
0.8095703125
 40
0.810546875
 40
0.8115234375
 40
0.8120117188
 40
0.8122558594
 40
0.8125
 40
0.8127441406
 40
0.8129882812
 40
0.8134765625
 40
0.814453125
 40
0.8154296875
 40
0.81640625
 40
0.818359375
 40
0.8203125
 40
0.82421875
 40
0.828125
 40
0.83203125
 40
0.8359375
 40
0.84375
 40
0.8515625
 40
0.85546875
 40
0.859375
 40
0.86328125
 40
0.8671875
 40
0.869140625
 40
0.87109375
 40
0.8720703125
 40
0.873046875
 40
0.8740234375
 40
0.8745117188
 40
0.8747558594
 40
0.875
 40
0.8752441406
 40
0.8754882812
 40
0.8759765625
 40
0.876953125
 40
0.8779296875
 40
0.87890625
 40
0.880859375
 40
0.8828125
 40
0.88671875
 40
0.890625
 40
0.89453125
 40
0.8984375
 40
0.90625
 40
0.9140625
 40
0.91796875
 40
0.921875
 40
0.92578125
 40
0.9296875
 40
0.931640625
 40
0.93359375
 40
0.9345703125
 40
0.935546875
 40
0.9365234375
 40
0.9370117188
 40
0.9372558594
 40
0.9375
 40
0.9377441406
 40
0.9379882812
 40
0.9384765625
 40
0.939453125
 40
0.9404296875
 40
0.94140625
 40
0.943359375
 40
0.9453125
 40
0.94921875
 40
0.953125
 40
0.95703125
 40
0.9609375
 40
0.96875
 40
0.9765625
 40
0.984375
 40
1.0
 40
1.0
 40
1.0
 40
1.0
 10
10.4128444807
 20
9.2245076042
 30
0.0
 10
10.4097112938
 20
9.2244176797
 30
0.0
 10
10.4050115134
 20
9.2242827931
 30
0.0
 10
10.3987451396
 20
9.2241029443
 30
0.0
 10
10.3940453592
 20
9.2239680576
 30
0.0
 10
10.3901288755
 20
9.2238556523
 30
0.0
 10
10.3869956887
 20
9.2237657275
 30
0.0
 10
10.3846457983
 20
9.2236982852
 30
0.0
 10
10.3822959088
 20
9.2236308382
 30
0.0
 10
10.3803376647
 20
9.223574647
 30
0.0
 10
10.3787710759
 20
9.2235296611
 30
0.0
 10
10.3777919432
 20
9.2235016201
 30
0.0
 10
10.3770086707
 20
9.2234790152
 30
0.0
 10
10.3764211243
 20
9.2234625324
 30
0.0
 10
10.3759317949
 20
9.2234472989
 30
0.0
 10
10.3755886901
 20
9.223439575
 30
0.0
 10
10.3753935268
 20
9.2234305714
 30
0.0
 10
10.3752446287
 20
9.2234367489
 30
0.0
 10
10.3751053847
 20
9.2233935004
 30
0.0
 10
10.3749163585
 20
9.2233530762
 30
0.0
 10
10.3745871317
 20
9.2232743011
 30
0.0
 10
10.3741159874
 20
9.2231659648
 30
0.0
 10
10.3735509653
 20
9.2230341638
 30
0.0
 10
10.37279748
 20
9.2228590569
 30
0.0
 10
10.3718556652
 20
9.2226399583
 30
0.0
 10
10.3703487382
 20
9.2222895207
 30
0.0
 10
10.3684650875
 20
9.2218514325
 30
0.0
 10
10.3662047031
 20
9.2213257444
 30
0.0
 10
10.3639443197
 20
9.2208000514
 30
0.0
 10
10.3609304749
 20
9.2200991292
 30
0.0
 10
10.3571631689
 20
9.2192229758
 30
0.0
 10
10.3533958628
 20
9.2183468229
 30
0.0
 10
10.3503820182
 20
9.2176459
 30
0.0
 10
10.3481216342
 20
9.217120209
 30
0.0
 10
10.345861252
 20
9.2165945136
 30
0.0
 10
10.3439775946
 20
9.2161564481
 30
0.0
 10
10.3424706812
 20
9.2158059642
 30
0.0
 10
10.3415288316
 20
9.2155869835
 30
0.0
 10
10.3407754179
 20
9.2154116345
 30
0.0
 10
10.3402101771
 20
9.2152805731
 30
0.0
 10
10.3397397171
 20
9.2151699228
 30
0.0
 10
10.3394092686
 20
9.2150952787
 30
0.0
 10
10.3392221999
 20
9.2150482355
 30
0.0
 10
10.3390769434
 20
9.2150253184
 30
0.0
 10
10.3389506272
 20
9.214955135
 30
0.0
 10
10.338775599
 20
9.2148780441
 30
0.0
 10
10.3384723778
 20
9.2147354535
 30
0.0
 10
10.3380375954
 20
9.2145357686
 30
0.0
 10
10.3375165454
 20
9.2142944278
 30
0.0
 10
10.3368215714
 20
9.2139732404
 30
0.0
 10
10.3359529363
 20
9.2135715507
 30
0.0
 10
10.3345630741
 20
9.212928962
 30
0.0
 10
10.3328257621
 20
9.2121256866
 30
0.0
 10
10.330740981
 20
9.2111617731
 30
0.0
 10
10.3286562016
 20
9.2101978551
 30
0.0
 10
10.3258764952
 20
9.2089126327
 30
0.0
 10
10.3224018625
 20
9.207306104
 30
0.0
 10
10.3189272295
 20
9.2056995758
 30
0.0
 10
10.3161475234
 20
9.2044143527
 30
0.0
 10
10.3140627432
 20
9.2034504366
 30
0.0
 10
10.3119779654
 20
9.202486516
 30
0.0
 10
10.3102406432
 20
9.2016832627
 30
0.0
 10
10.3088508017
 20
9.2010406291
 30
0.0
 10
10.3079821139
 20
9.2006390534
 30
0.0
 10
10.3072872481
 20
9.2003176318
 30
0.0
 10
10.3067658675
 20
9.2000770067
 30
0.0
 10
10.3063321194
 20
9.1998750826
 30
0.0
 10
10.3060270518
 20
9.1997364894
 30
0.0
 10
10.3058549821
 20
9.1996529937
 30
0.0
 10
10.3057195783
 20
9.1996024838
 30
0.0
 10
10.3056084533
 20
9.1995056763
 30
0.0
 10
10.3054518179
 20
9.1993927487
 30
0.0
 10
10.3051816517
 20
9.1991876013
 30
0.0
 10
10.3047936372
 20
9.1988984672
 30
0.0
 10
10.3043289027
 20
9.1985498226
 30
0.0
 10
10.3037089482
 20
9.1980855513
 30
0.0
 10
10.3029341108
 20
9.1975050107
 30
0.0
 10
10.3016943119
 20
9.1965762583
 30
0.0
 10
10.3001445835
 20
9.1954152792
 30
0.0
 10
10.2982849008
 20
9.1940221208
 30
0.0
 10
10.2964252203
 20
9.192628958
 30
0.0
 10
10.2939456456
 20
9.1907714091
 30
0.0
 10
10.2908461776
 20
9.1884494724
 30
0.0
 10
10.2877467092
 20
9.1861275361
 30
0.0
 10
10.2852671349
 20
9.1842699867
 30
0.0
 10
10.2834074532
 20
9.1828768256
 30
0.0
 10
10.2815477753
 20
9.181483661
 30
0.0
 10
10.279998032
 20
9.1803227011
 30
0.0
 10
10.2787582634
 20
9.1793939096
 30
0.0
 10
10.2779833489
 20
9.1788134685
 30
0.0
 10
10.2773635527
 20
9.1783489928
 30
0.0
 10
10.2768983347
 20
9.1780009725
 30
0.0
 10
10.2765118329
 20
9.1777098852
 30
0.0
 10
10.276238966
 20
9.1775082247
 30
0.0
 10
10.2760866579
 20
9.1773897102
 30
0.0
 10
10.2759622411
 20
9.1773100638
 30
0.0
 10
10.2758767591
 20
9.1771950993
 30
0.0
 10
10.2757492022
 20
9.1770541327
 30
0.0
 10
10.2755323053
 20
9.1768017012
 30
0.0
 10
10.2752191444
 20
9.1764440857
 30
0.0
 10
10.2748447673
 20
9.1760136626
 30
0.0
 10
10.2743451032
 20
9.1754402138
 30
0.0
 10
10.2737206925
 20
9.1747232492
 30
0.0
 10
10.2727215407
 20
9.1735761917
 30
0.0
 10
10.2714726334
 20
9.1721423403
 30
0.0
 10
10.2699739308
 20
9.1704217312
 30
0.0
 10
10.2684752319
 20
9.1687011188
 30
0.0
 10
10.2664769653
 20
9.1664069701
 30
0.0
 10
10.2639791327
 20
9.1635392838
 30
0.0
 10
10.2614812997
 20
9.1606715978
 30
0.0
 10
10.2594830337
 20
9.1583774487
 30
0.0
 10
10.2579843332
 20
9.1566568376
 30
0.0
 10
10.2564856366
 20
9.1549362236
 30
0.0
 10
10.2552367104
 20
9.1535023877
 30
0.0
 10
10.2542375971
 20
9.1523552986
 30
0.0
 10
10.2536130885
 20
9.1516384143
 30
0.0
 10
10.2531136254
 20
9.1510648006
 30
0.0
 10
10.2527386345
 20
9.1506348811
 30
0.0
 10
10.2524273939
 20
9.1502756901
 30
0.0
 10
10.2522070689
 20
9.1500260712
 30
0.0
 10
10.2520850046
 20
9.1498805981
 30
0.0
 10
10.2519826513
 20
9.149779476
 30
0.0
 10
10.2519216004
 20
9.1496478399
 30
0.0
 10
10.2518257925
 20
9.1494829688
 30
0.0
 10
10.2516648409
 20
9.1491894853
 30
0.0
 10
10.2514314009
 20
9.1487728158
 30
0.0
 10
10.251152775
 20
9.1482717027
 30
0.0
 10
10.250780749
 20
9.1476039395
 30
0.0
 10
10.2503158963
 20
9.1467691027
 30
0.0
 10
10.2495720315
 20
9.1454334381
 30
0.0
 10
10.2486422349
 20
9.1437638318
 30
0.0
 10
10.2475264643
 20
9.1417603152
 30
0.0
 10
10.2464106976
 20
9.1397567957
 30
0.0
 10
10.2449230073
 20
9.1370854374
 30
0.0
 10
10.2430633949
 20
9.1337462392
 30
0.0
 10
10.2412037822
 20
9.1304070411
 30
0.0
 10
10.2397160925
 20
9.1277356825
 30
0.0
 10
10.2386003241
 20
9.125732164
 30
0.0
 10
10.23748456
 20
9.1237286434
 30
0.0
 10
10.236554743
 20
9.1220590496
 30
0.0
 10
10.2358109199
 20
9.1207233597
 30
0.0
 10
10.2353459608
 20
9.1198885873
 30
0.0
 10
10.2349741532
 20
9.1192206919
 30
0.0
 10
10.2346948603
 20
9.1187199826
 30
0.0
 10
10.234463507
 20
9.1183020496
 30
0.0
 10
10.2342988304
 20
9.1180108217
 30
0.0
 10
10.2342089909
 20
9.1178423365
 30
0.0
 10
10.234129607
 20
9.1177218019
 30
0.0
 10
10.2340961094
 20
9.1175789845
 30
0.0
 10
10.2340354403
 20
9.1173963338
 30
0.0
 10
10.2339367267
 20
9.1170730737
 30
0.0
 10
10.2337918085
 20
9.1166131668
 30
0.0
 10
10.2336195755
 20
9.1160604682
 30
0.0
 10
10.2333893486
 20
9.1153238198
 30
0.0
 10
10.2331017645
 20
9.1144029123
 30
0.0
 10
10.2326415185
 20
9.1129295146
 30
0.0
 10
10.2320662492
 20
9.1110877488
 30
0.0
 10
10.2313759096
 20
9.1088776378
 30
0.0
 10
10.2306855744
 20
9.1066675247
 30
0.0
 10
10.229765126
 20
9.103720708
 30
0.0
 10
10.228614566
 20
9.1000371868
 30
0.0
 10
10.2274640056
 20
9.0963536657
 30
0.0
 10
10.2265435578
 20
9.0934068487
 30
0.0
 10
10.2258532208
 20
9.0911967364
 30
0.0
 10
10.2251628883
 20
9.0889866224
 30
0.0
 10
10.2245875968
 20
9.087144866
 30
0.0
 10
10.2241273961
 20
9.0856714491
 30
0.0
 10
10.2238396966
 20
9.0847505905
 30
0.0
 10
10.2236097066
 20
9.0840138418
 30
0.0
 10
10.2234367499
 20
9.0834614495
 30
0.0
 10
10.2232940958
 20
9.0830005843
 30
0.0
 10
10.2231913405
 20
9.0826790349
 30
0.0
 10
10.2231371472
 20
9.0824936433
 30
0.0
 10
10.2230837581
 20
9.0823592451
 30
0.0
 10
10.2230790834
 20
9.0822070894
 30
0.0
 10
10.2230558584
 20
9.0820104092
 30
0.0
 10
10.2230231317
 20
9.0816633329
 30
0.0
 10
10.22297224
 20
9.0811690184
 30
0.0
 10
10.2229129417
 20
9.0805751952
 30
0.0
 10
10.2228332585
 20
9.0797836565
 30
0.0
 10
10.2227338664
 20
9.0787941558
 30
0.0
 10
10.2225747206
 20
9.077210998
 30
0.0
 10
10.222375829
 20
9.0752320359
 30
0.0
 10
10.2221371416
 20
9.0728572878
 30
0.0
 10
10.2218984589
 20
9.0704825379
 30
0.0
 10
10.2215802136
 20
9.0673162054
 30
0.0
 10
10.2211824076
 20
9.0633582895
 30
0.0
 10
10.2207846013
 20
9.0594003737
 30
0.0
 10
10.2204663567
 20
9.056234041
 30
0.0
 10
10.220227672
 20
9.0538592915
 30
0.0
 10
10.2199889921
 20
9.0514845421
 30
0.0
 10
10.2197900771
 20
9.0495055839
 30
0.0
 10
10.2196309789
 20
9.047922418
 30
0.0
 10
10.2195314656
 20
9.0469329379
 30
0.0
 10
10.2194520311
 20
9.0461413572
 30
0.0
 10
10.2193919732
 20
9.0455476625
 30
0.0
 10
10.2193434583
 20
9.0450529459
 30
0.0
 10
10.2193064886
 20
9.0447065873
 30
0.0
 10
10.2192900618
 20
9.0445087571
 30
0.0
 10
10.2192645054
 20
9.0443601339
 30
0.0
 10
10.2192895446
 20
9.0442124685
 30
0.0
 10
10.2193052818
 20
9.0440152471
 30
0.0
 10
10.2193410447
 20
9.0436702655
 30
0.0
 10
10.2193878357
 20
9.0431773532
 30
0.0
 10
10.2194458249
 20
9.0425858932
 30
0.0
 10
10.2195225011
 20
9.0417972678
 30
0.0
 10
10.2196185665
 20
9.0408114902
 30
0.0
 10
10.2197721481
 20
9.0392342436
 30
0.0
 10
10.2199641672
 20
9.0372626863
 30
0.0
 10
10.2201945722
 20
9.0348968171
 30
0.0
 10
10.2204249819
 20
9.0325309481
 30
0.0
 10
10.2207321933
 20
9.0293764559
 30
0.0
 10
10.221116208
 20
9.0254333408
 30
0.0
 10
10.2215002224
 20
9.0214902256
 30
0.0
 10
10.2218074344
 20
9.0183357335
 30
0.0
 10
10.2220378422
 20
9.0159698643
 30
0.0
 10
10.2222682546
 20
9.0136039957
 30
0.0
 10
10.2224602504
 20
9.0116324367
 30
0.0
 10
10.2226138796
 20
9.0100551936
 30
0.0
 10
10.2227098238
 20
9.0090694072
 30
0.0
 10
10.2227867488
 20
9.0082807999
 30
0.0
 10
10.222843978
 20
9.0076892846
 30
0.0
 10
10.2228931467
 20
9.0071965453
 30
0.0
 10
10.222924665
 20
9.0068512548
 30
0.0
 10
10.2229472032
 20
9.0066545284
 30
0.0
 10
10.2229513519
 20
9.0065053426
 30
0.0
 10
10.2230042569
 20
9.0063624296
 30
0.0
 10
10.2230577902
 20
9.0061696909
 30
0.0
 10
10.2231593972
 20
9.0058334176
 30
0.0
 10
10.2233004074
 20
9.0053524942
 30
0.0
 10
10.2234713929
 20
9.0047756143
 30
0.0
 10
10.2236987542
 20
9.0040063614
 30
0.0
 10
10.2239831678
 20
9.0030448225
 30
0.0
 10
10.2244381112
 20
9.001506345
 30
0.0
 10
10.225006831
 20
8.9995832534
 30
0.0
 10
10.2256892773
 20
8.9972755413
 30
0.0
 10
10.2263717284
 20
8.9949678297
 30
0.0
 10
10.2272816614
 20
8.9918908808
 30
0.0
 10
10.2284190784
 20
8.9880446947
 30
0.0
 10
10.2295564949
 20
8.9841985085
 30
0.0
 10
10.2304664286
 20
8.9811215597
 30
0.0
 10
10.2311488777
 20
8.9788138478
 30
0.0
 10
10.2318313313
 20
8.9765061373
 30
0.0
 10
10.2324000288
 20
8.9745830405
 30
0.0
 10
10.2328550176
 20
8.9730445736
 30
0.0
 10
10.2331393157
 20
8.9720830079
 30
0.0
 10
10.2333669141
 20
8.9713138101
 30
0.0
 10
10.2335371751
 20
8.9707367617
 30
0.0
 10
10.233680452
 20
8.9702563654
 30
0.0
 10
10.2337780127
 20
8.9699191511
 30
0.0
 10
10.2338380291
 20
8.9697279202
 30
0.0
 10
10.2338710199
 20
8.9695803757
 30
0.0
 10
10.2339499633
 20
8.9694485848
 30
0.0
 10
10.2340391924
 20
8.9692673686
 30
0.0
 10
10.2342028115
 20
8.9689528004
 30
0.0
 10
10.2344326486
 20
8.9685020787
 30
0.0
 10
10.2347101244
 20
8.9679617856
 30
0.0
 10
10.2350795084
 20
8.9672411948
 30
0.0
 10
10.2355414382
 20
8.9663405247
 30
0.0
 10
10.2362804142
 20
8.9648994144
 30
0.0
 10
10.2372041725
 20
8.9630980395
 30
0.0
 10
10.2383126661
 20
8.9609363841
 30
0.0
 10
10.239421164
 20
8.9587747302
 30
0.0
 10
10.2408991598
 20
8.9558925244
 30
0.0
 10
10.242746655
 20
8.9522897675
 30
0.0
 10
10.2445941499
 20
8.9486870103
 30
0.0
 10
10.2460721462
 20
8.9458048048
 30
0.0
 10
10.2471806423
 20
8.9436431501
 30
0.0
 10
10.2482891427
 20
8.9414814975
 30
0.0
 10
10.2492128798
 20
8.939680114
 30
0.0
 10
10.2499518992
 20
8.9382390213
 30
0.0
 10
10.2504137185
 20
8.9373383062
 30
0.0
 10
10.2507833292
 20
8.9366178079
 30
0.0
 10
10.2510601122
 20
8.9360772323
 30
0.0
 10
10.2512921168
 20
8.9356273946
 30
0.0
 10
10.2514518666
 20
8.9353112483
 30
0.0
 10
10.2515472953
 20
8.9351325606
 30
0.0
 10
10.2516071955
 20
8.9349930027
 30
0.0
 10
10.2517117096
 20
8.9348746297
 30
0.0
 10
10.2518354999
 20
8.9347094094
 30
0.0
 10
10.2520593834
 20
8.9344237168
 30
0.0
 10
10.2523754264
 20
8.9340137846
 30
0.0
 10
10.2527563004
 20
8.9335226364
 30
0.0
 10
10.2532635658
 20
8.932867503
 30
0.0
 10
10.2538978415
 20
8.9320486784
 30
0.0
 10
10.2549125743
 20
8.9307385075
 30
0.0
 10
10.2561810274
 20
8.9291008116
 30
0.0
 10
10.2577031552
 20
8.9271355689
 30
0.0
 10
10.2592252873
 20
8.9251703283
 30
0.0
 10
10.2612547953
 20
8.9225500067
 30
0.0
 10
10.2637916808
 20
8.919274605
 30
0.0
 10
10.2663285659
 20
8.9159992031
 30
0.0
 10
10.2683580744
 20
8.9133788819
 30
0.0
 10
10.2698802049
 20
8.9114136401
 30
0.0
 10
10.2714023386
 20
8.9094484018
 30
0.0
 10
10.2726707736
 20
8.9078106923
 30
0.0
 10
10.2736855433
 20
8.9065005492
 30
0.0
 10
10.2743197249
 20
8.905681654
 30
0.0
 10
10.2748271836
 20
8.9050266655
 30
0.0
 10
10.2752074669
 20
8.9045350747
 30
0.0
 10
10.2755253582
 20
8.9041265271
 30
0.0
 10
10.2757459421
 20
8.9038383627
 30
0.0
 10
10.2758750192
 20
8.903677103
 30
0.0
 10
10.2759632939
 20
8.9035465643
 30
0.0
 10
10.2760841866
 20
8.9034526984
 30
0.0
 10
10.2762339993
 20
8.903314752
 30
0.0
 10
10.2765014726
 20
8.9030793057
 30
0.0
 10
10.2768808059
 20
8.9027398379
 30
0.0
 10
10.2773371922
 20
8.9023338103
 30
0.0
 10
10.2779452928
 20
8.9017919744
 30
0.0
 10
10.2787055604
 20
8.9011148389
 30
0.0
 10
10.2799219094
 20
8.900031333
 30
0.0
 10
10.2814423728
 20
8.8986769813
 30
0.0
 10
10.2832669172
 20
8.897051746
 30
0.0
 10
10.2850914647
 20
8.8954265143
 30
0.0
 10
10.2875241937
 20
8.8932595375
 30
0.0
 10
10.2905651053
 20
8.8905508169
 30
0.0
 10
10.2936060166
 20
8.887842096
 30
0.0
 10
10.2960387459
 20
8.8856751196
 30
0.0
 10
10.2978632923
 20
8.8840498864
 30
0.0
 10
10.2996878412
 20
8.8824246569
 30
0.0
 10
10.3012082905
 20
8.8810702872
 30
0.0
 10
10.3024246683
 20
8.8799868178
 30
0.0
 10
10.3031848624
 20
8.8793095896
 30
0.0
 10
10.303793114
 20
8.878767944
 30
0.0
 10
10.3042490392
 20
8.8783613347
 30
0.0
 10
10.3046298148
 20
8.8780236872
 30
0.0
 10
10.3048947133
 20
8.8777849914
 30
0.0
 10
10.3050486516
 20
8.8776522514
 30
0.0
 10
10.3051568719
 20
8.877542393
 30
0.0
 10
10.3052927419
 20
8.8774719195
 30
0.0
 10
10.3054642573
 20
8.8773642169
 30
0.0
 10
10.3057689028
 20
8.8771821382
 30
0.0
 10
10.3062017614
 20
8.8769186793
 30
0.0
 10
10.3067221973
 20
8.876603961
 30
0.0
 10
10.3074157606
 20
8.8761838363
 30
0.0
 10
10.308282835
 20
8.8756588517
 30
0.0
 10
10.3096700869
 20
8.8748187807
 30
0.0
 10
10.3114041747
 20
8.8737687247
 30
0.0
 10
10.3134850703
 20
8.8725086435
 30
0.0
 10
10.3155659685
 20
8.871248566
 30
0.0
 10
10.3183404984
 20
8.8695684614
 30
0.0
 10
10.3218086613
 20
8.8674683312
 30
0.0
 10
10.3252768239
 20
8.8653682006
 30
0.0
 10
10.3280513542
 20
8.8636880965
 30
0.0
 10
10.3301322514
 20
8.8624280174
 30
0.0
 10
10.3322131505
 20
8.8611679425
 30
0.0
 10
10.3339472274
 20
8.8601178668
 30
0.0
 10
10.3353345016
 20
8.859277836
 30
0.0
 10
10.336201519
 20
8.858752749
 30
0.0
 10
10.3368951994
 20
8.8583328345
 30
0.0
 10
10.3374152777
 20
8.8580174741
 30
0.0
 10
10.3378492551
 20
8.8577560242
 30
0.0
 10
10.3381519033
 20
8.857570359
 30
0.0
 10
10.338326619
 20
8.8574684029
 30
0.0
 10
10.3384526588
 20
8.8573802781
 30
0.0
 10
10.3385977993
 20
8.857336715
 30
0.0
 10
10.3387846574
 20
8.8572630872
 30
0.0
 10
10.3391147633
 20
8.8571414807
 30
0.0
 10
10.3395847203
 20
8.8569639709
 30
0.0
 10
10.3401493633
 20
8.8567525797
 30
0.0
 10
10.340901978
 20
8.8564701588
 30
0.0
 10
10.3418428295
 20
8.8561173265
 30
0.0
 10
10.3433481454
 20
8.8555526864
 30
0.0
 10
10.3452298063
 20
8.8548469235
 30
0.0
 10
10.3474877925
 20
8.853999992
 30
0.0
 10
10.3497457805
 20
8.8531530649
 30
0.0
 10
10.3527564306
 20
8.8520238271
 30
0.0
 10
10.3565197434
 20
8.8506122805
 30
0.0
 10
10.360283056
 20
8.8492007335
 30
0.0
 10
10.3632937063
 20
8.8480714964
 30
0.0
 10
10.3655516936
 20
8.8472245674
 30
0.0
 10
10.3678096824
 20
8.8463776429
 30
0.0
 10
10.3696913353
 20
8.8456718583
 30
0.0
 10
10.3711966673
 20
8.8451072625
 30
0.0
 10
10.372137478
 20
8.8447543176
 30
0.0
 10
10.3728901765
 20
8.8444721277
 30
0.0
 10
10.3734545634
 20
8.8442600307
 30
0.0
 10
10.3739253217
 20
8.8440847293
 30
0.0
 10
10.3742539972
 20
8.8439591803
 30
0.0
 10
10.3744431471
 20
8.8438918694
 30
0.0
 10
10.3745812479
 20
8.843828903
 30
0.0
 10
10.3747337278
 20
8.8438136538
 30
0.0
 10
10.3749320188
 20
8.8437766773
 30
0.0
 10
10.3752813648
 20
8.8437197233
 30
0.0
 10
10.3757792089
 20
8.8436343061
 30
0.0
 10
10.3763771447
 20
8.8435335408
 30
0.0
 10
10.3771742098
 20
8.8433985809
 30
0.0
 10
10.3781706038
 20
8.8432300886
 30
0.0
 10
10.3797647991
 20
8.842960385
 30
0.0
 10
10.3817575552
 20
8.8426232953
 30
0.0
 10
10.3841488575
 20
8.8422187705
 30
0.0
 10
10.3865401611
 20
8.8418142503
 30
0.0
 10
10.3897285654
 20
8.8412748885
 30
0.0
 10
10.393714071
 20
8.8406006867
 30
0.0
 10
10.3984966777
 20
8.8397916444
 30
0.0
 10
10.4048734865
 20
8.8387129213
 30
0.0
 10
10.4096560932
 20
8.837903879
 30
0.0
 10
10.4128444976
 20
8.8373645175
 30
0.0
  0
ENDSEC
  0
SECTION
  2
OBJECTS
  0
DICTIONARY
  5
C
100
AcDbDictionary
280
0
281
1
  3
ACAD_GROUP
350
D
  3
ACAD_MLINESTYLE
350
17
  3
ACAD_LAYOUT
350
1A
  3
ACAD_PLOTSETTINGS
350
19
  3
ACAD_PLOTSTYLENAME
350
E
  3
ACAD_IMAGE_DICT
350
       3AA
  3
ACAD_IMAGE_VARS
350
       3AB
  3
ACAD_TABLESTYLE
350
       3AC
  0
IMAGEDEF_REACTOR
  5
3A9
100
AcDbRasterImageDefReactor
 90
2
330
292
  0
DICTIONARY
  5
D
102
{ACAD_REACTORS
330
C
102
}
100
AcDbDictionary
280
0
281
1
  0
ACDBDICTIONARYWDFLT
  5
E
102
{ACAD_REACTORS
330
C
102
}
100
AcDbDictionary
281
1
  3
Normal
350
F
100
AcDbDictionaryWithDefault
340
F
  0
DICTIONARY
  5
3AA
330
C
100
AcDbDictionary
281
1
  3
W3K_assy_2_img_1
350
       3AF
  0
RASTERVARIABLES
  5
3AB
330
C
100
AcDbRasterVariables
 90
0
 70
0
 71
1
 72
5
  0
DICTIONARY
  5
17
102
{ACAD_REACTORS
330
C
102
}
100
AcDbDictionary
280
0
281
1
  3
Standard
350
18
  0
DICTIONARY
  5
3AC
330
C
100
AcDbDictionary
281
1
  3
Standard
350
       3B0
  3
Standard1
350
       3B1
  0
DICTIONARY
  5
19
102
{ACAD_REACTORS
330
C
102
}
100
AcDbDictionary
281
1
  0
DICTIONARY
  5
1A
102
{ACAD_REACTORS
330
C
102
}
100
AcDbDictionary
281
1
  3
Model
350
3AD
  3
Layout1
350
3AE
  0
ACDBPLACEHOLDER
  5
F
102
{ACAD_REACTORS
330
E
102
}
  0
MLINESTYLE
  5
18
102
{ACAD_REACTORS
330
17
102
}
100
AcDbMlineStyle
  2
STANDARD
 70
0
  3

 62
256
 51
90.0
 52
90.0
 71
2
 49
0.5
 62
256
  6
BYLAYER
 49
-0.5
 62
256
  6
BYLAYER
  0
LAYOUT
  5
3AD
102
{ACAD_REACTORS
330
1A
102
}
100
AcDbPlotSettings
  1

  2
none_device
  4
ANSI_C_(22.00_x_17.00_Inches)
  6

 40
0.0
 41
0.0
 42
0.0
 43
0.0
 44
558.8
 45
431.8
 46
0.0
 47
0.0
 48
0.0
 49
0.0
140
0.0
141
0.0
142
1.0
143
1.0
 70
1024
 72
0
 73
0
 74
0
  7

 75
0
147
1.0
148
0.0
149
0.0
100
AcDbLayout
  1
Model
 70
0
 71
0
 10
0.0
 20
0.0
 11
22.0
 21
17.0
 12
0.0
 22
0.0
 32
0.0
 14
0.0
 24
0.0
 34
0.0
 15
0.0
 25
0.0
 35
0.0
146
0.0
 13
0.0
 23
0.0
 33
0.0
 16
1.0
 26
0.0
 36
0.0
 17
0.0
 27
1.0
 37
0.0
 76
0
330
20C
345
0
346
0
  0
LAYOUT
  5
3AE
102
{ACAD_REACTORS
330
1A
102
}
100
AcDbPlotSettings
  1

  2
none_device
  4
ANSI_C_(22.00_x_17.00_Inches)
  6

 40
0.0
 41
0.0
 42
0.0
 43
0.0
 44
558.8
 45
431.8
 46
0.0
 47
0.0
 48
0.0
 49
0.0
140
0.0
141
0.0
142
1.0
143
1.0
 70
0
 72
0
 73
0
 74
0
  7

 75
0
147
1.0
148
0.0
149
0.0
100
AcDbLayout
  1
Layout1
 70
0
 71
1
 10
0.0
 20
0.0
 11
22.0
 21
17.0
 12
0.0
 22
0.0
 32
0.0
 14
0.0
 24
0.0
 34
0.0
 15
0.0
 25
0.0
 35
0.0
146
0.0
 13
0.0
 23
0.0
 33
0.0
 16
1.0
 26
0.0
 36
0.0
 17
0.0
 27
1.0
 37
0.0
 76
0
330
20D
345
0
346
0
  0
IMAGEDEF
  5
3AF
102
{ACAD_REACTORS
330
3AA
330
3A9
102
}
100
AcDbRasterImageDef
 90
0
  1
W3K_assy_2_img_1.png
 10
369.0
 20
92.0
 11
0.0066666667
 21
0.0066666667
280
1
281
0
  0
TABLESTYLE
  5
3B0
102
{ACAD_REACTORS
330
3AC
330
295
330
296
102
}
330
3AC
100
AcDbTableStyle
  3
Standard
 70
0
 71
0
 40
0.06
 41
0.06
280
1
281
1
  7
Standard
140
0.18
170
1
 62
0
 63
7
283
0
  7
Standard
140
0.18
170
1
 62
0
 63
7
283
0
  7
Standard
140
0.18
170
1
 62
0
 63
7
283
0
  0
TABLESTYLE
  5
3B1
102
{ACAD_REACTORS
330
3AC
330
294
102
}
330
3AC
100
AcDbTableStyle
  3
Standard1
 70
1
 71
0
 40
0.06
 41
0.06
280
1
281
1
  7
Standard
140
0.18
170
1
 62
0
 63
7
283
0
  7
Standard
140
0.18
170
1
 62
0
 63
7
283
0
  7
Standard
140
0.18
170
1
 62
0
 63
7
283
0
  0
ENDSEC
  0
EOF
