999
DXF file: W3J_assy_2.dxf
999
Pro/ENGINEER 2014200 by Parametric Technology Corporation
  0
SECTION
  2
HEADER
  9
$ACADVER
  1
AC1021
  9
$DWGCODEPAGE
  3
ANSI_1252
  9
$EXTMAX
 10
22.0
 20
17.0
 30
0.0
  9
$EXTMIN
 10
0.0
 20
0.0
 30
0.0
  9
$LIMMIN
 10
0.0
 20
0.0
  9
$LIMMAX
 10
22.0
 20
17.0
  9
$VIEWCTR
 10
11.0
 20
8.5
  9
$VIEWSIZE
 40
17.0
  9
$CLAYER
  8
0
  9
$LTSCALE
 40
1.21
  9
$CELTYPE
  6
BYLAYER
  9
$DIMSCALE
 40
1.0
  9
$DIMASZ
 40
0.1875
  9
$DIMEXO
 40
0.0625
  9
$DIMDLI
 40
0.836
  9
$DIMEXE
 40
0.125
  9
$DIMCEN
 40
0.198
  9
$DIMLFAC
 40
1.0
  9
$DIMBLK
  1
_FILLED
  9
$DIMTXT
 40
0.1
  9
$DIMTOL
 70
0
  9
$DIMLIM
 70
0
  9
$DIMTFAC
 40
1.0
  9
$DIMGAP
 40
0.09
  9
$DIMDSEP
 70
46
  9
$AUNITS
 70
0
  9
$PDMODE
 70
3
  9
$PDSIZE
 40
0.3125
  9
$HANDSEED
  5
388
  9
$TILEMODE
 70
1
  9
$MEASUREMENT
 70
0
  9
$INSUNITS
 70
1
  0
ENDSEC
  0
SECTION
  2
CLASSES
  0
CLASS
  1
ACDBDICTIONARYWDFLT
  2
AcDbDictionaryWithDefault
  3
AutoCAD 2000
 90
0
 91
1
280
0
281
0
  0
CLASS
  1
ACDBPLACEHOLDER
  2
AcDbPlaceHolder
  3
AutoCAD 2000
 90
0
 91
1
280
0
281
0
  0
CLASS
  1
LAYOUT
  2
AcDbLayout
  3
AutoCAD 2000
 90
0
 91
0
280
0
281
0
  0
CLASS
  1
RASTERVARIABLES
  2
AcDbRasterVariables
  3
ISM
 90
0
 91
1
280
0
281
0
  0
CLASS
  1
IMAGEDEF
  2
AcDbRasterImageDef
  3
ISM
 90
0
 91
1
280
0
281
0
  0
CLASS
  1
IMAGEDEF_REACTOR
  2
AcDbRasterImageDefReactor
  3
ISM
 90
0
 91
1
280
0
281
0
  0
CLASS
  1
IMAGE
  2
AcDbRasterImage
  3
ISM
 90
127
 91
1
280
0
281
1
  0
CLASS
  1
TABLESTYLE
  2
AcDbTableStyle
  3
ObjectDBX Classes
 90
2047
 91
1
280
0
281
0
  0
CLASS
  1
ACAD_TABLE
  2
AcDbTable
  3
ObjectDBX Classes
 90
1025
 91
3
280
0
281
1
  0
ENDSEC
  0
SECTION
  2
TABLES
  0
TABLE
  2
VPORT
  5
8
100
AcDbSymbolTable
 70
2
  0
VPORT
  5
1F4
100
AcDbSymbolTableRecord
100
AcDbViewportTableRecord
  2
*ACTIVE
 70
0
 10
0.0
 20
0.0
 11
1.0
 21
1.0
 12
11.0
 22
8.5
 13
0.0
 23
0.0
 14
1.0
 24
1.0
 15
0.0
 25
0.0
 16
0.0
 26
0.0
 36
1.0
 17
0.0
 27
0.0
 37
0.0
 40
17.0
 41
1.2941176471
 42
50.0
 43
0.0
 44
0.0
 50
0.0
 51
0.0
 71
0
 72
100
 73
1
 74
1
 75
0
 76
0
 77
0
 78
0
  0
ENDTAB
  0
TABLE
  2
LTYPE
  5
5
100
AcDbSymbolTable
 70
6
  0
LTYPE
  5
14
100
AcDbSymbolTableRecord
100
AcDbLinetypeTableRecord
  2
BYBLOCK
 70
0
  3

 72
65
 73
0
 40
0.0
  0
LTYPE
  5
15
100
AcDbSymbolTableRecord
100
AcDbLinetypeTableRecord
  2
BYLAYER
 70
0
  3

 72
65
 73
0
 40
0.0
  0
LTYPE
  5
16
100
AcDbSymbolTableRecord
100
AcDbLinetypeTableRecord
  2
CONTINUOUS
 70
64
  3
Solid line
 72
65
 73
0
 40
0.0
  0
LTYPE
  5
1F5
100
AcDbSymbolTableRecord
100
AcDbLinetypeTableRecord
  2
CENTER
 70
64
  3
____ _ ____ _ ____ _ ____ _ ____ _ ____ _ ____
 72
65
 73
4
 40
0.6
 49
0.375
 74
0
 49
-0.075
 74
0
 49
0.075
 74
0
 49
-0.075
 74
0
  0
LTYPE
  5
1F6
100
AcDbSymbolTableRecord
100
AcDbLinetypeTableRecord
  2
HIDDEN
 70
64
  3
- - - - - - - - - - - - - - - - - - - -
 72
65
 73
2
 40
0.2
 49
0.1
 74
0
 49
-0.1
 74
0
  0
LTYPE
  5
1F7
100
AcDbSymbolTableRecord
100
AcDbLinetypeTableRecord
  2
PHANTOM
 70
64
  3
_____ _ _ _____ _ _ _____ _ _ _____
 72
65
 73
6
 40
0.8
 49
0.45
 74
0
 49
-0.05
 74
0
 49
0.1
 74
0
 49
-0.05
 74
0
 49
0.1
 74
0
 49
-0.05
 74
0
  0
LTYPE
  5
1F8
100
AcDbSymbolTableRecord
100
AcDbLinetypeTableRecord
  2
DOT
 70
64
  3
. . . . . . . . . . . . . . . . . . . .
 72
65
 73
2
 40
0.2
 49
0.1
 74
0
 49
-0.1
 74
0
  0
LTYPE
  5
1F9
100
AcDbSymbolTableRecord
100
AcDbLinetypeTableRecord
  2
DASHED
 70
64
  3
- - - - - - - - - - - - - - - - - - - -
 72
65
 73
2
 40
0.2
 49
0.1
 74
0
 49
-0.1
 74
0
  0
ENDTAB
  0
TABLE
  2
LAYER
  5
2
100
AcDbSymbolTable
 70
36
  0
LAYER
  5
10
100
AcDbSymbolTableRecord
100
AcDbLayerTableRecord
  2
0
 70
0
 62
7
  6
CONTINUOUS
370
-3
390
F
  0
LAYER
  5
1FA
100
AcDbSymbolTableRecord
100
AcDbLayerTableRecord
  2
DEFAULT_1
 70
0
 62
7
  6
CENTER
370
-3
390
F
  0
LAYER
  5
1FB
100
AcDbSymbolTableRecord
100
AcDbLayerTableRecord
  2
DEFAULT_2
 70
0
 62
8
  6
HIDDEN
370
-3
390
F
  0
LAYER
  5
1FC
100
AcDbSymbolTableRecord
100
AcDbLayerTableRecord
  2
DEFAULT_3
 70
0
 62
7
  6
PHANTOM
370
-3
390
F
  0
LAYER
  5
1FD
100
AcDbSymbolTableRecord
100
AcDbLayerTableRecord
  2
01___PRT_ALL_DTM_PLN
 70
0
 62
7
  6
CONTINUOUS
370
-3
390
F
  0
LAYER
  5
1FE
100
AcDbSymbolTableRecord
100
AcDbLayerTableRecord
  2
01___PRT_DEF_DTM_PLN
 70
0
 62
7
  6
CONTINUOUS
370
-3
390
F
  0
LAYER
  5
1FF
100
AcDbSymbolTableRecord
100
AcDbLayerTableRecord
  2
02___PRT_ALL_AXES
 70
0
 62
7
  6
CONTINUOUS
370
-3
390
F
  0
LAYER
  5
200
100
AcDbSymbolTableRecord
100
AcDbLayerTableRecord
  2
03___PRT_ALL_CURVES
 70
0
 62
7
  6
CONTINUOUS
370
-3
390
F
  0
LAYER
  5
201
100
AcDbSymbolTableRecord
100
AcDbLayerTableRecord
  2
04___PRT_ALL_DTM_PNT
 70
0
 62
7
  6
CONTINUOUS
370
-3
390
F
  0
LAYER
  5
202
100
AcDbSymbolTableRecord
100
AcDbLayerTableRecord
  2
05___PRT_ALL_DTM_CSYS
 70
0
 62
7
  6
CONTINUOUS
370
-3
390
F
  0
LAYER
  5
203
100
AcDbSymbolTableRecord
100
AcDbLayerTableRecord
  2
05___PRT_DEF_DTM_CSYS
 70
0
 62
7
  6
CONTINUOUS
370
-3
390
F
  0
LAYER
  5
204
100
AcDbSymbolTableRecord
100
AcDbLayerTableRecord
  2
06___PRT_ALL_SURFS
 70
0
 62
7
  6
CONTINUOUS
370
-3
390
F
  0
LAYER
  5
205
100
AcDbSymbolTableRecord
100
AcDbLayerTableRecord
  2
DATUM_PLANES
 70
0
 62
7
  6
CONTINUOUS
370
-3
390
F
  0
LAYER
  5
206
100
AcDbSymbolTableRecord
100
AcDbLayerTableRecord
  2
PORT_AREAS
 70
0
 62
7
  6
CONTINUOUS
370
-3
390
F
  0
LAYER
  5
207
100
AcDbSymbolTableRecord
100
AcDbLayerTableRecord
  2
SUNNBOMCOSMETIC
 70
0
 62
7
  6
CONTINUOUS
370
-3
390
F
  0
LAYER
  5
208
100
AcDbSymbolTableRecord
100
AcDbLayerTableRecord
  2
SUNNBOMSTAMPING
 70
0
 62
7
  6
CONTINUOUS
370
-3
390
F
  0
LAYER
  5
209
100
AcDbSymbolTableRecord
100
AcDbLayerTableRecord
  2
THREADS
 70
0
 62
7
  6
CONTINUOUS
370
-3
390
F
  0
ENDTAB
  0
TABLE
  2
STYLE
  5
3
100
AcDbSymbolTable
 70
1
  0
STYLE
  5
11
100
AcDbSymbolTableRecord
100
AcDbTextStyleTableRecord
  2
STANDARD
 70
0
 40
0.0
 41
0.8
 50
0.0
 71
0
 42
0.2
  3
txt
  4

  0
STYLE
  5
20A
100
AcDbSymbolTableRecord
100
AcDbTextStyleTableRecord
  2
TEXTSTYLE_1
 70
0
 40
0.0
 41
0.8
 50
0.0
 71
0
 42
0.2
  3
gdt
  4

  0
ENDTAB
  0
TABLE
  2
VIEW
  5
6
100
AcDbSymbolTable
 70
0
  0
ENDTAB
  0
TABLE
  2
UCS
  5
7
100
AcDbSymbolTable
 70
0
  0
ENDTAB
  0
TABLE
  2
APPID
  5
9
100
AcDbSymbolTable
 70
1
  0
APPID
  5
20B
100
AcDbSymbolTableRecord
100
AcDbRegAppTableRecord
  2
ACAD
 70
0
  0
ENDTAB
  0
TABLE
  2
BLOCK_RECORD
  5
1
100
AcDbSymbolTable
 70
0
  0
BLOCK_RECORD
  5
20C
100
AcDbSymbolTableRecord
100
AcDbBlockTableRecord
  2
*Model_Space
  0
BLOCK_RECORD
  5
20D
100
AcDbSymbolTableRecord
100
AcDbBlockTableRecord
  2
*Paper_Space
  0
BLOCK_RECORD
  5
20E
100
AcDbSymbolTableRecord
100
AcDbBlockTableRecord
  2
SUN_FIRST_THIRD_ANGLE_BL0
  0
BLOCK_RECORD
  5
20F
100
AcDbSymbolTableRecord
100
AcDbBlockTableRecord
  2
*T1
  0
BLOCK_RECORD
  5
210
100
AcDbSymbolTableRecord
100
AcDbBlockTableRecord
  2
*T2
  0
BLOCK_RECORD
  5
211
100
AcDbSymbolTableRecord
100
AcDbBlockTableRecord
  2
*T3
  0
ENDTAB
  0
TABLE
  2
DIMSTYLE
  5
A
100
AcDbSymbolTable
 70
1
100
AcDbDimStyleTable
 71
0
  0
DIMSTYLE
105
212
100
AcDbSymbolTableRecord
100
AcDbDimStyleTableRecord
  2
STANDARD
 70
0
  3

  4

 40
1.0
 41
0.1875
 42
0.0625
 43
0.38
 44
0.125
 45
0.0
 46
0.0
 47
0.001
 48
0.001
140
0.1
141
0.09
142
0.0
143
25.4
144
1.0
145
0.0
146
1.0
147
0.09
 71
0.0
 72
0.0
 73
1
 74
1
 75
0
 76
0
 77
0
 78
4
170
0
171
2
172
0
173
0
174
0
175
0
176
0
177
0
178
0
270
2
271
3
272
3
273
2
274
2
275
0
280
0
281
0
282
0
283
1
284
4
285
0
286
0
287
3
288
0
340
11
278
46
  0
ENDTAB
  0
ENDSEC
  0
SECTION
  2
BLOCKS
  0
BLOCK
  5
20
100
AcDbEntity
  8
0
100
AcDbBlockBegin
  2
*Model_Space
 70
0
 10
0.0
 20
0.0
 30
0.0
  3
*Model_Space
  1

  0
ENDBLK
  5
21
100
AcDbEntity
  8
0
100
AcDbBlockEnd
  0
BLOCK
  5
1C
100
AcDbEntity
  8
0
100
AcDbBlockBegin
  2
*Paper_Space
 70
0
 10
0.0
 20
0.0
 30
0.0
  3
*Paper_Space
  1

  0
ENDBLK
  5
1D
100
AcDbEntity
  8
0
100
AcDbBlockEnd
  0
BLOCK
  5
213
100
AcDbEntity
  8
0
100
AcDbBlockBegin
 62
2
  6
CONTINUOUS
  2
SUN_FIRST_THIRD_ANGLE_BL0
 70
64
 10
20.4816717061
 20
1.2289683772
  3
SUN_FIRST_THIRD_ANGLE_BL0
  1

  0
TEXT
  5
214
100
AcDbEntity
  8
0
100
AcDbText
 62
2
  6
CONTINUOUS
 10
19.4750896608
 20
1.4136269581
  7
STANDARD
 40
0.08
  1
FIRST ANGLE
 41
0.8
 72
0
100
AcDbText
  0
TEXT
  5
215
100
AcDbEntity
  8
0
100
AcDbText
 62
2
  6
CONTINUOUS
 10
20.7842537513
 20
1.4047600029
  7
STANDARD
 40
0.08
  1
THIRD ANGLE
 41
0.8
 72
0
100
AcDbText
  0
LINE
  5
216
100
AcDbEntity
  8
0
100
AcDbLine
 62
7
  6
CONTINUOUS
 10
19.4767170086
 20
1.1727031207
 11
19.6334271527
 21
1.1717972817
  0
LINE
  5
217
100
AcDbEntity
  8
0
100
AcDbLine
 62
7
  6
CONTINUOUS
 10
19.6596964832
 20
1.1717972817
 11
19.6950230232
 21
1.171593082
  0
LINE
  5
218
100
AcDbEntity
  8
0
100
AcDbLine
 62
7
  6
CONTINUOUS
 10
19.7194818561
 20
1.1708914427
 11
19.8852396156
 21
1.1699333054
  0
LINE
  5
219
100
AcDbEntity
  8
0
100
AcDbLine
 62
7
  6
CONTINUOUS
 10
19.4758111696
 20
1.2723454088
 11
19.88525039
 21
1.3511534004
  0
LINE
  5
21A
100
AcDbEntity
  8
0
100
AcDbLine
 62
7
  6
CONTINUOUS
 10
19.88525039
 20
1.3511534004
 11
19.8831348489
 21
0.9851647912
  0
LINE
  5
21B
100
AcDbEntity
  8
0
100
AcDbLine
 62
7
  6
CONTINUOUS
 10
19.8831348489
 20
0.9851647912
 11
19.4767170086
 21
1.0658141206
  0
LINE
  5
21C
100
AcDbEntity
  8
0
100
AcDbLine
 62
7
  6
CONTINUOUS
 10
19.4767170086
 20
1.0658141206
 11
19.4779056764
 21
1.2714536432
  0
CIRCLE
  5
21D
100
AcDbEntity
  8
0
100
AcDbCircle
 62
7
  6
CONTINUOUS
 10
20.2068232291
 20
1.1717972817
 40
0.175742101
  0
CIRCLE
  5
21E
100
AcDbEntity
  8
0
100
AcDbCircle
 62
7
  6
CONTINUOUS
 10
20.2068232291
 20
1.1717972817
 40
0.1005522074
  0
LINE
  5
21F
100
AcDbEntity
  8
0
100
AcDbLine
 62
7
  6
CONTINUOUS
 10
20.2077290681
 20
1.3756110529
 11
20.2071171714
 21
1.2379342989
  0
LINE
  5
220
100
AcDbEntity
  8
0
100
AcDbLine
 62
7
  6
CONTINUOUS
 10
20.2077290681
 20
1.2016899681
 11
20.2074674401
 21
1.1428236749
  0
LINE
  5
221
100
AcDbEntity
  8
0
100
AcDbLine
 62
7
  6
CONTINUOUS
 10
20.208634907
 20
1.101141841
 11
20.2080230104
 21
0.963465087
  0
LINE
  5
222
100
AcDbEntity
  8
0
100
AcDbLine
 62
7
  6
CONTINUOUS
 10
20.0066328138
 20
1.1745147986
 11
20.1443095678
 21
1.1739029019
  0
LINE
  5
223
100
AcDbEntity
  8
0
100
AcDbLine
 62
7
  6
CONTINUOUS
 10
20.1832714155
 20
1.1727031207
 11
20.238153505
 21
1.172335442
  0
LINE
  5
224
100
AcDbEntity
  8
0
100
AcDbLine
 62
7
  6
CONTINUOUS
 10
20.2756669918
 20
1.1717972817
 11
20.407916871
 21
1.1712095044
  0
CIRCLE
  5
225
100
AcDbEntity
  8
0
100
AcDbCircle
 62
7
  6
CONTINUOUS
 10
20.7509457401
 20
1.1693297793
 40
0.1722024983
  0
CIRCLE
  5
226
100
AcDbEntity
  8
0
100
AcDbCircle
 62
7
  6
CONTINUOUS
 10
20.7509457401
 20
1.1693297793
 40
0.0985164967
  0
LINE
  5
227
100
AcDbEntity
  8
0
100
AcDbLine
 62
7
  6
CONTINUOUS
 10
20.7169767782
 20
1.170462078
 11
20.7825395137
 21
1.1682766535
  0
LINE
  5
228
100
AcDbEntity
  8
0
100
AcDbLine
 62
7
  6
CONTINUOUS
 10
20.8177513651
 20
1.1693297793
 11
20.947965719
 21
1.1693297793
  0
LINE
  5
229
100
AcDbEntity
  8
0
100
AcDbLine
 62
7
  6
CONTINUOUS
 10
20.6875370113
 20
1.170462078
 11
20.5573226574
 21
1.170462078
  0
LINE
  5
22A
100
AcDbEntity
  8
0
100
AcDbLine
 62
7
  6
CONTINUOUS
 10
20.7486811426
 20
1.1987695462
 11
20.7486811426
 21
1.1432869085
  0
LINE
  5
22B
100
AcDbEntity
  8
0
100
AcDbLine
 62
7
  6
CONTINUOUS
 10
20.7498134414
 20
1.1059210505
 11
20.7498134414
 21
0.9757066966
  0
LINE
  5
22C
100
AcDbEntity
  8
0
100
AcDbLine
 62
7
  6
CONTINUOUS
 10
20.7486811426
 20
1.2338708068
 11
20.7486811426
 21
1.3640851607
  0
LINE
  5
22D
100
AcDbEntity
  8
0
100
AcDbLine
 62
7
  6
CONTINUOUS
 10
21.0702539817
 20
1.2701043662
 11
21.4790138229
 21
1.3448360823
  0
LINE
  5
22E
100
AcDbEntity
  8
0
100
AcDbLine
 62
7
  6
CONTINUOUS
 10
21.4790138229
 20
1.3448360823
 11
21.4790138229
 21
0.9779712941
  0
LINE
  5
22F
100
AcDbEntity
  8
0
100
AcDbLine
 62
7
  6
CONTINUOUS
 10
21.4790138229
 20
0.9779712941
 11
21.069121683
 21
1.0617614
  0
LINE
  5
230
100
AcDbEntity
  8
0
100
AcDbLine
 62
7
  6
CONTINUOUS
 10
21.0702539817
 20
1.2701043662
 11
21.069121683
 21
1.0617614
  0
LINE
  5
231
100
AcDbEntity
  8
0
100
AcDbLine
 62
7
  6
CONTINUOUS
 10
21.4790138229
 20
1.1693297793
 11
21.3159628059
 21
1.1693297793
  0
LINE
  5
232
100
AcDbEntity
  8
0
100
AcDbLine
 62
7
  6
CONTINUOUS
 10
21.2876553377
 20
1.1693297793
 11
21.2502894796
 21
1.1693297793
  0
LINE
  5
233
100
AcDbEntity
  8
0
100
AcDbLine
 62
7
  6
CONTINUOUS
 10
21.2208497126
 20
1.1659328831
 11
21.0713862804
 21
1.1659328831
  0
LINE
  5
234
100
AcDbEntity
  8
0
100
AcDbLine
 62
7
  6
CONTINUOUS
 10
20.4796138713
 20
1.5284908897
 11
20.4766766948
 21
0.9294458646
  0
ENDBLK
  5
235
100
AcDbEntity
  8
0
  6
BYBLOCK
 62
0
100
AcDbBlockEnd
  0
BLOCK
  5
236
100
AcDbEntity
  8
0
100
AcDbBlockBegin
  2
*T1
 70
1
 10
0.0
 20
0.0
  3
*T1
  1

  0
LINE
  5
237
100
AcDbEntity
  8
0
100
AcDbLine
 62
2
  6
CONTINUOUS
 10
9.275
 20
0.0
 11
-0.0
 21
0.0
  0
LINE
  5
238
100
AcDbEntity
  8
0
100
AcDbLine
 62
2
  6
CONTINUOUS
 10
9.275
 20
0.0
 11
9.275
 21
1.25
  0
LINE
  5
239
100
AcDbEntity
  8
0
100
AcDbLine
 62
2
  6
CONTINUOUS
 10
9.275
 20
0.625
 11
-0.0
 21
0.625
  0
LINE
  5
23A
100
AcDbEntity
  8
0
100
AcDbLine
 62
2
  6
CONTINUOUS
 10
9.275
 20
1.25
 11
-0.0
 21
1.25
  0
LINE
  5
23B
100
AcDbEntity
  8
0
100
AcDbLine
 62
2
  6
CONTINUOUS
 10
6.8
 20
0.0
 11
6.8
 21
1.25
  0
LINE
  5
23C
100
AcDbEntity
  8
0
100
AcDbLine
 62
2
  6
CONTINUOUS
 10
6.4
 20
0.0
 11
6.4
 21
0.625
  0
LINE
  5
23D
100
AcDbEntity
  8
0
100
AcDbLine
 62
2
  6
CONTINUOUS
 10
5.9
 20
0.0
 11
5.9
 21
0.625
  0
LINE
  5
23E
100
AcDbEntity
  8
0
100
AcDbLine
 62
2
  6
CONTINUOUS
 10
5.2
 20
0.0
 11
5.2
 21
0.625
  0
LINE
  5
23F
100
AcDbEntity
  8
0
100
AcDbLine
 62
2
  6
CONTINUOUS
 10
4.1
 20
0.0
 11
4.1
 21
1.25
  0
LINE
  5
240
100
AcDbEntity
  8
0
100
AcDbLine
 62
2
  6
CONTINUOUS
 10
-0.0
 20
0.0
 11
-0.0
 21
1.25
  0
MTEXT
  5
241
100
AcDbEntity
  8
0
100
AcDbMText
 62
2
  6
CONTINUOUS
  7
STANDARD
 71
2
 72
1
 10
6.6
 20
0.325
 30
0.0
 11
1.0
 21
0.0
 31
0.0
 44
0.9
  1
2
 40
0.125
 41
0.2
  0
MTEXT
  5
242
100
AcDbEntity
  8
0
100
AcDbMText
 62
2
  6
CONTINUOUS
  7
STANDARD
 71
2
 72
1
 10
6.15
 20
0.325
 30
0.0
 11
1.0
 21
0.0
 31
0.0
 44
0.9
  1
C
 40
0.125
 41
0.2
  0
MTEXT
  5
243
100
AcDbEntity
  8
0
100
AcDbMText
 62
2
  6
CONTINUOUS
  7
STANDARD
 71
2
 72
1
 10
5.55
 20
0.325
 30
0.0
 11
1.0
 21
0.0
 31
0.0
 44
0.9
  1
1.000
 40
0.125
 41
1.0
  0
MTEXT
  5
244
100
AcDbEntity
  8
0
100
AcDbMText
 62
2
  6
CONTINUOUS
  7
STANDARD
 71
2
 72
1
 10
4.65
 20
0.325
 30
0.0
 11
1.0
 21
0.0
 31
0.0
 44
0.9
  1
May-31-24
 40
0.125
 41
1.8
  0
MTEXT
  5
245
100
AcDbEntity
  8
0
100
AcDbMText
 62
2
  6
CONTINUOUS
  7
STANDARD
 71
2
 72
1
 10
2.05
 20
0.4625
 30
0.0
 11
1.0
 21
0.0
 31
0.0
 44
0.9
  1
T-11A Line mount\P(See Technical Data for Body Features)
 40
0.125
 41
7.6
  0
MTEXT
  5
246
100
AcDbEntity
  8
0
100
AcDbMText
 62
2
  6
CONTINUOUS
  7
STANDARD
 71
1
 72
1
 10
6.45
 20
0.5625
 30
0.0
 11
1.0
 21
0.0
 31
0.0
 44
0.9
  1
SHEET
 40
0.06
 41
0.48
  0
MTEXT
  5
247
100
AcDbEntity
  8
0
100
AcDbMText
 62
2
  6
CONTINUOUS
  7
STANDARD
 71
1
 72
1
 10
5.95
 20
0.5625
 30
0.0
 11
1.0
 21
0.0
 31
0.0
 44
0.9
  1
DWG SIZE
 40
0.06
 41
0.768
  0
MTEXT
  5
248
100
AcDbEntity
  8
0
100
AcDbMText
 62
2
  6
CONTINUOUS
  7
STANDARD
 71
1
 72
1
 10
5.25
 20
0.5625
 30
0.0
 11
1.0
 21
0.0
 31
0.0
 44
0.9
  1
SCALE
 40
0.06
 41
0.48
  0
MTEXT
  5
249
100
AcDbEntity
  8
0
100
AcDbMText
 62
2
  6
CONTINUOUS
  7
STANDARD
 71
1
 72
1
 10
4.15
 20
0.5625
 30
0.0
 11
1.0
 21
0.0
 31
0.0
 44
0.9
  1
DATE
 40
0.06
 41
0.384
  0
MTEXT
  5
24A
100
AcDbEntity
  8
0
100
AcDbMText
 62
2
  6
CONTINUOUS
  7
STANDARD
 71
1
 72
1
 10
0.05
 20
0.5625
 30
0.0
 11
1.0
 21
0.0
 31
0.0
 44
0.9
  1
DESCRIPTION
 40
0.06
 41
1.056
  0
MTEXT
  5
24B
100
AcDbEntity
  8
0
100
AcDbMText
 62
2
  6
CONTINUOUS
  7
STANDARD
 71
2
 72
1
 10
5.45
 20
1.0375
 30
0.0
 11
1.0
 21
0.0
 31
0.0
 44
0.9
  1
ALL DIMENSIONS IN INCH\PVIEWS ARE THIRD ANGLE
 40
0.12
 41
4.224
  0
MTEXT
  5
24C
100
AcDbEntity
  8
0
100
AcDbMText
 62
2
  6
CONTINUOUS
  7
STANDARD
 71
2
 72
1
 10
2.05
 20
0.95
 30
0.0
 11
1.0
 21
0.0
 31
0.0
 44
0.9
  1
W3J
 40
0.125
 41
0.6
  0
MTEXT
  5
24D
100
AcDbEntity
  8
0
100
AcDbMText
 62
2
  6
CONTINUOUS
  7
STANDARD
 71
1
 72
1
 10
0.05
 20
1.1875
 30
0.0
 11
1.0
 21
0.0
 31
0.0
 44
0.9
  1
MODEL
 40
0.06
 41
0.48
  0
ENDBLK
  5
24E
100
AcDbEntity
  8
0
  6
BYBLOCK
 62
0
100
AcDbBlockEnd
  0
BLOCK
  5
24F
100
AcDbEntity
  8
0
100
AcDbBlockBegin
  2
*T2
 70
1
 10
0.0
 20
0.0
  3
*T2
  1

  0
LINE
  5
250
100
AcDbEntity
  8
0
100
AcDbLine
 62
2
  6
CONTINUOUS
 10
0.0
 20
0.0
 11
9.055
 21
0.0
  0
LINE
  5
251
100
AcDbEntity
  8
0
100
AcDbLine
 62
2
  6
CONTINUOUS
 10
0.0
 20
0.0
 11
0.0
 21
-2.844
  0
LINE
  5
252
100
AcDbEntity
  8
0
100
AcDbLine
 62
2
  6
CONTINUOUS
 10
0.0
 20
-0.344
 11
9.055
 21
-0.344
  0
LINE
  5
253
100
AcDbEntity
  8
0
100
AcDbLine
 62
2
  6
CONTINUOUS
 10
0.0
 20
-0.594
 11
9.055
 21
-0.594
  0
LINE
  5
254
100
AcDbEntity
  8
0
100
AcDbLine
 62
2
  6
CONTINUOUS
 10
0.0
 20
-0.844
 11
9.055
 21
-0.844
  0
LINE
  5
255
100
AcDbEntity
  8
0
100
AcDbLine
 62
2
  6
CONTINUOUS
 10
0.0
 20
-1.094
 11
9.055
 21
-1.094
  0
LINE
  5
256
100
AcDbEntity
  8
0
100
AcDbLine
 62
2
  6
CONTINUOUS
 10
0.0
 20
-1.344
 11
9.055
 21
-1.344
  0
LINE
  5
257
100
AcDbEntity
  8
0
100
AcDbLine
 62
2
  6
CONTINUOUS
 10
0.0
 20
-1.594
 11
9.055
 21
-1.594
  0
LINE
  5
258
100
AcDbEntity
  8
0
100
AcDbLine
 62
2
  6
CONTINUOUS
 10
0.0
 20
-1.844
 11
9.055
 21
-1.844
  0
LINE
  5
259
100
AcDbEntity
  8
0
100
AcDbLine
 62
2
  6
CONTINUOUS
 10
0.0
 20
-2.094
 11
9.055
 21
-2.094
  0
LINE
  5
25A
100
AcDbEntity
  8
0
100
AcDbLine
 62
2
  6
CONTINUOUS
 10
0.0
 20
-2.344
 11
9.055
 21
-2.344
  0
LINE
  5
25B
100
AcDbEntity
  8
0
100
AcDbLine
 62
2
  6
CONTINUOUS
 10
0.0
 20
-2.594
 11
9.055
 21
-2.594
  0
LINE
  5
25C
100
AcDbEntity
  8
0
100
AcDbLine
 62
2
  6
CONTINUOUS
 10
0.0
 20
-2.844
 11
9.055
 21
-2.844
  0
LINE
  5
25D
100
AcDbEntity
  8
0
100
AcDbLine
 62
2
  6
CONTINUOUS
 10
3.055
 20
0.0
 11
3.055
 21
-2.844
  0
LINE
  5
25E
100
AcDbEntity
  8
0
100
AcDbLine
 62
2
  6
CONTINUOUS
 10
9.055
 20
0.0
 11
9.055
 21
-2.844
  0
MTEXT
  5
25F
100
AcDbEntity
  8
0
100
AcDbMText
 62
2
  6
CONTINUOUS
  7
STANDARD
 71
2
 72
1
 10
1.5275
 20
-0.0995
 30
0.0
 11
1.0
 21
0.0
 31
0.0
 44
0.9
  1
Technical Data
 40
0.145
 41
3.248
  0
MTEXT
  5
260
100
AcDbEntity
  8
0
100
AcDbMText
 62
2
  6
CONTINUOUS
  7
STANDARD
 71
2
 72
1
 10
4.555
 20
-0.0995
 30
0.0
 11
1.0
 21
0.0
 31
0.0
 44
0.9
  1
U.S. Units
 40
0.145
 41
2.32
  0
MTEXT
  5
261
100
AcDbEntity
  8
0
100
AcDbMText
 62
2
  6
CONTINUOUS
  7
STANDARD
 71
2
 72
1
 10
7.555
 20
-0.0995
 30
0.0
 11
1.0
 21
0.0
 31
0.0
 44
0.9
  1
Metric Units
 40
0.145
 41
2.784
  0
MTEXT
  5
262
100
AcDbEntity
  8
0
100
AcDbMText
 62
2
  6
CONTINUOUS
  7
STANDARD
 71
2
 72
1
 10
1.5275
 20
-0.4065
 30
0.0
 11
1.0
 21
0.0
 31
0.0
 44
0.9
  1
Cavity
 40
0.125
 41
1.2
  0
MTEXT
  5
263
100
AcDbEntity
  8
0
100
AcDbMText
 62
2
  6
CONTINUOUS
  7
STANDARD
 71
2
 72
1
 10
6.055
 20
-0.4065
 30
0.0
 11
1.0
 21
0.0
 31
0.0
 44
0.9
  1
T-11A
 40
0.125
 41
1.0
  0
MTEXT
  5
264
100
AcDbEntity
  8
0
100
AcDbMText
 62
2
  6
CONTINUOUS
  7
STANDARD
 71
2
 72
1
 10
1.5275
 20
-0.6565
 30
0.0
 11
1.0
 21
0.0
 31
0.0
 44
0.9
  1
Body Features
 40
0.125
 41
2.6
  0
MTEXT
  5
265
100
AcDbEntity
  8
0
100
AcDbMText
 62
2
  6
CONTINUOUS
  7
STANDARD
 71
2
 72
1
 10
6.055
 20
-0.6565
 30
0.0
 11
1.0
 21
0.0
 31
0.0
 44
0.9
  1
Ninety degree with reverse flow check - reducing
 40
0.125
 41
9.6
  0
MTEXT
  5
266
100
AcDbEntity
  8
0
100
AcDbMText
 62
2
  6
CONTINUOUS
  7
STANDARD
 71
2
 72
1
 10
1.5275
 20
-0.9065
 30
0.0
 11
1.0
 21
0.0
 31
0.0
 44
0.9
  1
Body Type
 40
0.125
 41
1.8
  0
MTEXT
  5
267
100
AcDbEntity
  8
0
100
AcDbMText
 62
2
  6
CONTINUOUS
  7
STANDARD
 71
2
 72
1
 10
6.055
 20
-0.9065
 30
0.0
 11
1.0
 21
0.0
 31
0.0
 44
0.9
  1
Line mount
 40
0.125
 41
2.0
  0
MTEXT
  5
268
100
AcDbEntity
  8
0
100
AcDbMText
 62
2
  6
CONTINUOUS
  7
STANDARD
 71
2
 72
1
 10
1.5275
 20
-1.1565
 30
0.0
 11
1.0
 21
0.0
 31
0.0
 44
0.9
  1
Interface
 40
0.125
 41
1.8
  0
MTEXT
  5
269
100
AcDbEntity
  8
0
100
AcDbMText
 62
2
  6
CONTINUOUS
  7
STANDARD
 71
2
 72
1
 10
6.055
 20
-1.1565
 30
0.0
 11
1.0
 21
0.0
 31
0.0
 44
0.9
  1
None
 40
0.125
 41
0.8
  0
MTEXT
  5
26A
100
AcDbEntity
  8
0
100
AcDbMText
 62
2
  6
CONTINUOUS
  7
STANDARD
 71
2
 72
1
 10
1.5275
 20
-1.4065
 30
0.0
 11
1.0
 21
0.0
 31
0.0
 44
0.9
  1
Open Cavity Quantity
 40
0.125
 41
4.0
  0
MTEXT
  5
26B
100
AcDbEntity
  8
0
100
AcDbMText
 62
2
  6
CONTINUOUS
  7
STANDARD
 71
2
 72
1
 10
6.055
 20
-1.4065
 30
0.0
 11
1.0
 21
0.0
 31
0.0
 44
0.9
  1
1
 40
0.125
 41
0.2
  0
MTEXT
  5
26C
100
AcDbEntity
  8
0
100
AcDbMText
 62
2
  6
CONTINUOUS
  7
STANDARD
 71
2
 72
1
 10
1.5275
 20
-1.6565
 30
0.0
 11
1.0
 21
0.0
 31
0.0
 44
0.9
  1
Weight
 40
0.125
 41
1.2
  0
MTEXT
  5
26D
100
AcDbEntity
  8
0
100
AcDbMText
 62
2
  6
CONTINUOUS
  7
STANDARD
 71
2
 72
1
 10
4.555
 20
-1.6565
 30
0.0
 11
1.0
 21
0.0
 31
0.0
 44
0.9
  1
1.196 lb.
 40
0.125
 41
1.8
  0
MTEXT
  5
26E
100
AcDbEntity
  8
0
100
AcDbMText
 62
2
  6
CONTINUOUS
  7
STANDARD
 71
2
 72
1
 10
7.555
 20
-1.6565
 30
0.0
 11
1.0
 21
0.0
 31
0.0
 44
0.9
  1
0,542 kg.
 40
0.125
 41
1.8
  0
MTEXT
  5
26F
100
AcDbEntity
  8
0
100
AcDbMText
 62
2
  6
CONTINUOUS
  7
STANDARD
 71
2
 72
1
 10
1.5275
 20
-1.9065
 30
0.0
 11
1.0
 21
0.0
 31
0.0
 44
0.9
  1
Mounting Hole Diameter
 40
0.125
 41
4.4
  0
MTEXT
  5
270
100
AcDbEntity
  8
0
100
AcDbMText
 62
2
  6
CONTINUOUS
  7
STANDARD
 71
2
 72
1
 10
4.555
 20
-1.9065
 30
0.0
 11
1.0
 21
0.0
 31
0.0
 44
0.9
  1
.34 in.
 40
0.125
 41
1.4
  0
MTEXT
  5
271
100
AcDbEntity
  8
0
100
AcDbMText
 62
2
  6
CONTINUOUS
  7
STANDARD
 71
2
 72
1
 10
7.555
 20
-1.9065
 30
0.0
 11
1.0
 21
0.0
 31
0.0
 44
0.9
  1
8.6 mm
 40
0.125
 41
1.2
  0
MTEXT
  5
272
100
AcDbEntity
  8
0
100
AcDbMText
 62
2
  6
CONTINUOUS
  7
STANDARD
 71
2
 72
1
 10
1.5275
 20
-2.1565
 30
0.0
 11
1.0
 21
0.0
 31
0.0
 44
0.9
  1
Mounting Hole Depth
 40
0.125
 41
3.8
  0
MTEXT
  5
273
100
AcDbEntity
  8
0
100
AcDbMText
 62
2
  6
CONTINUOUS
  7
STANDARD
 71
2
 72
1
 10
6.055
 20
-2.1565
 30
0.0
 11
1.0
 21
0.0
 31
0.0
 44
0.9
  1
Through
 40
0.125
 41
1.4
  0
MTEXT
  5
274
100
AcDbEntity
  8
0
100
AcDbMText
 62
2
  6
CONTINUOUS
  7
STANDARD
 71
2
 72
1
 10
1.5275
 20
-2.4065
 30
0.0
 11
1.0
 21
0.0
 31
0.0
 44
0.9
  1
Mounting Hole Quantity
 40
0.125
 41
4.4
  0
MTEXT
  5
275
100
AcDbEntity
  8
0
100
AcDbMText
 62
2
  6
CONTINUOUS
  7
STANDARD
 71
2
 72
1
 10
6.055
 20
-2.4065
 30
0.0
 11
1.0
 21
0.0
 31
0.0
 44
0.9
  1
2
 40
0.125
 41
0.2
  0
MTEXT
  5
276
100
AcDbEntity
  8
0
100
AcDbMText
 62
2
  6
CONTINUOUS
  7
STANDARD
 71
2
 72
1
 10
1.5275
 20
-2.6565
 30
0.0
 11
1.0
 21
0.0
 31
0.0
 44
0.9
  1
Includes integral cartridge(s)
 40
0.125
 41
6.0
  0
MTEXT
  5
277
100
AcDbEntity
  8
0
100
AcDbMText
 62
2
  6
CONTINUOUS
  7
STANDARD
 71
2
 72
1
 10
6.055
 20
-2.6565
 30
0.0
 11
1.0
 21
0.0
 31
0.0
 44
0.9
  1
Yes (see Included Components)
 40
0.125
 41
5.8
  0
ENDBLK
  5
278
100
AcDbEntity
  8
0
  6
BYBLOCK
 62
0
100
AcDbBlockEnd
  0
BLOCK
  5
279
100
AcDbEntity
  8
0
100
AcDbBlockBegin
  2
*T3
 70
1
 10
0.0
 20
0.0
  3
*T3
  1

  0
LINE
  5
27A
100
AcDbEntity
  8
0
100
AcDbLine
 62
2
  6
CONTINUOUS
 10
0.0
 20
0.0
 11
4.6
 21
0.0
  0
LINE
  5
27B
100
AcDbEntity
  8
0
100
AcDbLine
 62
2
  6
CONTINUOUS
 10
0.0
 20
0.0
 11
0.0
 21
-1.18775
  0
LINE
  5
27C
100
AcDbEntity
  8
0
100
AcDbLine
 62
2
  6
CONTINUOUS
 10
0.0
 20
-0.34375
 11
4.6
 21
-0.34375
  0
LINE
  5
27D
100
AcDbEntity
  8
0
100
AcDbLine
 62
2
  6
CONTINUOUS
 10
0.0
 20
-0.68775
 11
4.6
 21
-0.68775
  0
LINE
  5
27E
100
AcDbEntity
  8
0
100
AcDbLine
 62
2
  6
CONTINUOUS
 10
0.0
 20
-0.93775
 11
4.6
 21
-0.93775
  0
LINE
  5
27F
100
AcDbEntity
  8
0
100
AcDbLine
 62
2
  6
CONTINUOUS
 10
0.0
 20
-1.18775
 11
4.6
 21
-1.18775
  0
LINE
  5
280
100
AcDbEntity
  8
0
100
AcDbLine
 62
2
  6
CONTINUOUS
 10
1.3
 20
-0.34375
 11
1.3
 21
-1.18775
  0
LINE
  5
281
100
AcDbEntity
  8
0
100
AcDbLine
 62
2
  6
CONTINUOUS
 10
3.3
 20
-0.34375
 11
3.3
 21
-1.18775
  0
LINE
  5
282
100
AcDbEntity
  8
0
100
AcDbLine
 62
2
  6
CONTINUOUS
 10
4.6
 20
0.0
 11
4.6
 21
-1.18775
  0
MTEXT
  5
283
100
AcDbEntity
  8
0
100
AcDbMText
 62
2
  6
CONTINUOUS
  7
STANDARD
 71
2
 72
1
 10
2.3
 20
-0.099375
 30
0.0
 11
1.0
 21
0.0
 31
0.0
 44
0.9
  1
Port Headings
 40
0.145
 41
3.016
  0
MTEXT
  5
284
100
AcDbEntity
  8
0
100
AcDbMText
 62
2
  6
CONTINUOUS
  7
STANDARD
 71
2
 72
1
 10
0.65
 20
-0.44325
 30
0.0
 11
1.0
 21
0.0
 31
0.0
 44
0.9
  1
Product
 40
0.145
 41
1.624
  0
MTEXT
  5
285
100
AcDbEntity
  8
0
100
AcDbMText
 62
2
  6
CONTINUOUS
  7
STANDARD
 71
2
 72
1
 10
2.3
 20
-0.44325
 30
0.0
 11
1.0
 21
0.0
 31
0.0
 44
0.9
  1
Port
 40
0.145
 41
0.928
  0
MTEXT
  5
286
100
AcDbEntity
  8
0
100
AcDbMText
 62
2
  6
CONTINUOUS
  7
STANDARD
 71
2
 72
1
 10
3.95
 20
-0.44325
 30
0.0
 11
1.0
 21
0.0
 31
0.0
 44
0.9
  1
Size
 40
0.145
 41
0.928
  0
MTEXT
  5
287
100
AcDbEntity
  8
0
100
AcDbMText
 62
2
  6
CONTINUOUS
  7
STANDARD
 71
2
 72
1
 10
0.65
 20
-0.75025
 30
0.0
 11
1.0
 21
0.0
 31
0.0
 44
0.9
  1
W3J
 40
0.125
 41
0.6
  0
MTEXT
  5
288
100
AcDbEntity
  8
0
100
AcDbMText
 62
2
  6
CONTINUOUS
  7
STANDARD
 71
2
 72
1
 10
2.3
 20
-0.75025
 30
0.0
 11
1.0
 21
0.0
 31
0.0
 44
0.9
  1
Ports 1, 2, 3
 40
0.125
 41
2.6
  0
MTEXT
  5
289
100
AcDbEntity
  8
0
100
AcDbMText
 62
2
  6
CONTINUOUS
  7
STANDARD
 71
2
 72
1
 10
3.95
 20
-0.75025
 30
0.0
 11
1.0
 21
0.0
 31
0.0
 44
0.9
  1
SAE 8
 40
0.125
 41
1.0
  0
MTEXT
  5
28A
100
AcDbEntity
  8
0
100
AcDbMText
 62
2
  6
CONTINUOUS
  7
STANDARD
 71
2
 72
1
 10
0.65
 20
-1.00025
 30
0.0
 11
1.0
 21
0.0
 31
0.0
 44
0.9
  1
W3J
 40
0.125
 41
0.6
  0
MTEXT
  5
28B
100
AcDbEntity
  8
0
100
AcDbMText
 62
2
  6
CONTINUOUS
  7
STANDARD
 71
2
 72
1
 10
2.3
 20
-1.00025
 30
0.0
 11
1.0
 21
0.0
 31
0.0
 44
0.9
  1
Gage Port
 40
0.125
 41
1.8
  0
MTEXT
  5
28C
100
AcDbEntity
  8
0
100
AcDbMText
 62
2
  6
CONTINUOUS
  7
STANDARD
 71
2
 72
1
 10
3.95
 20
-1.00025
 30
0.0
 11
1.0
 21
0.0
 31
0.0
 44
0.9
  1
SAE 4
 40
0.125
 41
1.0
  0
ENDBLK
  5
28D
100
AcDbEntity
  8
0
  6
BYBLOCK
 62
0
100
AcDbBlockEnd
  0
ENDSEC
  0
SECTION
  2
ENTITIES
  0
IMAGE
  5
28E
100
AcDbEntity
  8
0
100
AcDbRasterImage
 62
7
  6
CONTINUOUS
 10
19.2297077316
 20
0.3094318264
 30
0.0
 11
0.0066666667
 21
0.0
 31
0.0
 12
0.0
 22
0.0066666667
 32
0.0
 13
369.0
 23
92.0
340
       385
 70
9
280
0
281
50
282
50
283
0
360
       37F
 71
1
 91
2
 14
-0.5
 24
-0.5
 14
368.5
 24
91.5
  0
INSERT
  5
28F
100
AcDbEntity
  8
0
100
AcDbBlockReference
 62
2
  6
CONTINUOUS
  2
SUN_FIRST_THIRD_ANGLE_BL0
 10
20.4816717061
 20
1.2289683772
  0
ACAD_TABLE
  5
290
100
AcDbEntity
  8
0
 62
2
  6
CONTINUOUS
100
AcDbBlockReference
  2
*T1
 10
12.42375
 20
0.30125
 30
0.0
100
AcDbTable
342
       387
343
20F
 11
1.0
 21
0.0
 31
0.0
 90
6
 91
4
 92
6
 93
20
 94
0
 95
0
 96
0
 70
1
 41
0.0
141
0.525
141
0.1
141
0.525
141
0.1
142
4.1
142
1.1
142
0.7
142
0.5
142
0.4
142
2.475
171
1
172
0
173
0
174
0
175
1
176
1
 91
33
178
0
145
0.0
301
CELL_VALUE
 90
4
  1
T-11A Line mount\P(See Technical Data for Body Features)
304
ACVALUE_END
170
2
140
0.125
171
1
172
0
173
0
174
0
175
1
176
1
 91
33
178
0
145
0.0
301
CELL_VALUE
 90
4
  1
May-31-24
304
ACVALUE_END
170
5
140
0.125
171
1
172
0
173
0
174
0
175
1
176
1
 91
33
178
0
145
0.0
301
CELL_VALUE
 90
4
  1
1.000
304
ACVALUE_END
170
5
140
0.125
171
1
172
0
173
0
174
0
175
1
176
1
 91
33
178
0
145
0.0
301
CELL_VALUE
 90
4
  1
C
304
ACVALUE_END
170
5
140
0.125
171
1
172
0
173
0
174
0
175
1
176
1
 91
33
178
0
145
0.0
301
CELL_VALUE
 90
4
  1
2
304
ACVALUE_END
170
5
140
0.125
171
1
172
0
173
0
174
0
175
1
176
1
 91
33
178
0
145
0.0
301
CELL_VALUE
 90
4
  1
 
304
ACVALUE_END
170
1
140
0.125
171
1
172
0
173
0
174
0
175
1
176
1
 91
33
178
0
145
0.0
301
CELL_VALUE
 90
4
  1
DESCRIPTION
304
ACVALUE_END
170
1
140
0.06
171
1
172
0
173
0
174
0
175
1
176
1
 91
33
178
0
145
0.0
301
CELL_VALUE
 90
4
  1
DATE
304
ACVALUE_END
170
1
140
0.06
171
1
172
0
173
0
174
0
175
1
176
1
 91
33
178
0
145
0.0
301
CELL_VALUE
 90
4
  1
SCALE
304
ACVALUE_END
170
1
140
0.06
171
1
172
0
173
0
174
0
175
1
176
1
 91
33
178
0
145
0.0
301
CELL_VALUE
 90
4
  1
DWG SIZE
304
ACVALUE_END
170
1
140
0.06
171
1
172
0
173
0
174
0
175
1
176
1
 91
33
178
0
145
0.0
301
CELL_VALUE
 90
4
  1
SHEET
304
ACVALUE_END
170
1
140
0.06
171
1
172
0
173
0
174
0
175
1
176
1
 91
33
178
0
145
0.0
301
CELL_VALUE
 90
4
  1
 
304
ACVALUE_END
170
1
140
0.125
171
1
172
0
173
0
174
0
175
1
176
1
 91
33
178
0
145
0.0
301
CELL_VALUE
 90
4
  1
W3J
304
ACVALUE_END
170
5
140
0.125
171
1
172
0
173
0
174
0
175
4
176
1
 91
33
178
0
145
0.0
301
CELL_VALUE
 90
4
  1
ALL DIMENSIONS IN INCH\PVIEWS ARE THIRD ANGLE
304
ACVALUE_END
170
5
140
0.12
171
1
172
0
173
1
174
0
175
1
176
1
 91
1
178
0
145
0.0
170
1
171
1
172
0
173
1
174
0
175
1
176
1
 91
1
178
0
145
0.0
170
1
171
1
172
0
173
1
174
0
175
1
176
1
 91
1
178
0
145
0.0
170
5
171
1
172
0
173
0
174
0
175
1
176
1
 91
33
178
0
145
0.0
301
CELL_VALUE
 90
4
  1
 
304
ACVALUE_END
170
1
140
0.125
171
1
172
0
173
0
174
0
175
1
176
1
 91
33
178
0
145
0.0
301
CELL_VALUE
 90
4
  1
MODEL
304
ACVALUE_END
170
1
140
0.06
171
1
172
0
173
0
174
0
175
1
176
1
 91
33
178
0
145
0.0
301
CELL_VALUE
 90
4
  1
 
304
ACVALUE_END
170
1
140
0.125
171
1
172
0
173
0
174
0
175
1
176
1
 91
33
178
0
145
0.0
301
CELL_VALUE
 90
4
  1
 
304
ACVALUE_END
170
1
140
0.125
171
1
172
0
173
0
174
0
175
1
176
1
 91
33
178
0
145
0.0
301
CELL_VALUE
 90
4
  1
 
304
ACVALUE_END
170
1
140
0.125
171
1
172
0
173
0
174
0
175
1
176
1
 91
33
178
0
145
0.0
301
CELL_VALUE
 90
4
  1
 
304
ACVALUE_END
170
1
140
0.125
171
1
172
0
173
0
174
0
175
1
176
1
 91
33
178
0
145
0.0
301
CELL_VALUE
 90
4
  1
 
304
ACVALUE_END
170
1
140
0.125
  0
ACAD_TABLE
  5
291
100
AcDbEntity
  8
0
 62
2
  6
CONTINUOUS
100
AcDbBlockReference
  2
*T2
 10
12.4237499994
 20
16.47875
 30
0.0
100
AcDbTable
342
       386
343
210
 11
1.0
 21
0.0
 31
0.0
 90
22
 91
11
 92
3
 93
16
 94
0
 95
0
 96
0
 41
0.028
141
0.344
141
0.25
141
0.25
141
0.25
141
0.25
141
0.25
141
0.25
141
0.25
141
0.25
141
0.25
141
0.25
142
3.055
142
3.0
142
3.0
171
1
172
0
173
0
174
0
175
1
176
1
 91
33
178
0
145
0.0
301
CELL_VALUE
 90
4
  1
Technical Data
304
ACVALUE_END
170
5
140
0.145
171
1
172
0
173
0
174
0
175
1
176
1
 91
33
178
0
145
0.0
301
CELL_VALUE
 90
4
  1
U.S. Units
304
ACVALUE_END
170
5
140
0.145
171
1
172
0
173
0
174
0
175
1
176
1
 91
33
178
0
145
0.0
301
CELL_VALUE
 90
4
  1
Metric Units
304
ACVALUE_END
170
5
140
0.145
171
1
172
0
173
0
174
0
175
1
176
1
 91
33
178
0
145
0.0
301
CELL_VALUE
 90
4
  1
Cavity
304
ACVALUE_END
170
5
140
0.125
171
1
172
0
173
0
174
0
175
2
176
1
 91
33
178
0
145
0.0
301
CELL_VALUE
 90
4
  1
T-11A
304
ACVALUE_END
170
5
140
0.125
171
1
172
0
173
1
174
0
175
1
176
1
 91
1
178
0
145
0.0
170
1
171
1
172
0
173
0
174
0
175
1
176
1
 91
33
178
0
145
0.0
301
CELL_VALUE
 90
4
  1
Body Features
304
ACVALUE_END
170
5
140
0.125
171
1
172
0
173
0
174
0
175
2
176
1
 91
33
178
0
145
0.0
301
CELL_VALUE
 90
4
  1
Ninety degree with reverse flow check - reducing
304
ACVALUE_END
170
5
140
0.125
171
1
172
0
173
1
174
0
175
1
176
1
 91
1
178
0
145
0.0
170
1
171
1
172
0
173
0
174
0
175
1
176
1
 91
33
178
0
145
0.0
301
CELL_VALUE
 90
4
  1
Body Type
304
ACVALUE_END
170
5
140
0.125
171
1
172
0
173
0
174
0
175
2
176
1
 91
33
178
0
145
0.0
301
CELL_VALUE
 90
4
  1
Line mount
304
ACVALUE_END
170
5
140
0.125
171
1
172
0
173
1
174
0
175
1
176
1
 91
1
178
0
145
0.0
170
1
171
1
172
0
173
0
174
0
175
1
176
1
 91
33
178
0
145
0.0
301
CELL_VALUE
 90
4
  1
Interface
304
ACVALUE_END
170
5
140
0.125
171
1
172
0
173
0
174
0
175
2
176
1
 91
33
178
0
145
0.0
301
CELL_VALUE
 90
4
  1
None
304
ACVALUE_END
170
5
140
0.125
171
1
172
0
173
1
174
0
175
1
176
1
 91
1
178
0
145
0.0
170
1
171
1
172
0
173
0
174
0
175
1
176
1
 91
33
178
0
145
0.0
301
CELL_VALUE
 90
4
  1
Open Cavity Quantity
304
ACVALUE_END
170
5
140
0.125
171
1
172
0
173
0
174
0
175
2
176
1
 91
33
178
0
145
0.0
301
CELL_VALUE
 90
4
  1
1
304
ACVALUE_END
170
5
140
0.125
171
1
172
0
173
1
174
0
175
1
176
1
 91
1
178
0
145
0.0
170
1
171
1
172
0
173
0
174
0
175
1
176
1
 91
33
178
0
145
0.0
301
CELL_VALUE
 90
4
  1
Weight
304
ACVALUE_END
170
5
140
0.125
171
1
172
0
173
0
174
0
175
1
176
1
 91
33
178
0
145
0.0
301
CELL_VALUE
 90
4
  1
1.196 lb.
304
ACVALUE_END
170
5
140
0.125
171
1
172
0
173
0
174
0
175
1
176
1
 91
33
178
0
145
0.0
301
CELL_VALUE
 90
4
  1
0,542 kg.
304
ACVALUE_END
170
5
140
0.125
171
1
172
0
173
0
174
0
175
1
176
1
 91
33
178
0
145
0.0
301
CELL_VALUE
 90
4
  1
Mounting Hole Diameter
304
ACVALUE_END
170
5
140
0.125
171
1
172
0
173
0
174
0
175
1
176
1
 91
33
178
0
145
0.0
301
CELL_VALUE
 90
4
  1
.34 in.
304
ACVALUE_END
170
5
140
0.125
171
1
172
0
173
0
174
0
175
1
176
1
 91
33
178
0
145
0.0
301
CELL_VALUE
 90
4
  1
8.6 mm
304
ACVALUE_END
170
5
140
0.125
171
1
172
0
173
0
174
0
175
1
176
1
 91
33
178
0
145
0.0
301
CELL_VALUE
 90
4
  1
Mounting Hole Depth
304
ACVALUE_END
170
5
140
0.125
171
1
172
0
173
0
174
0
175
2
176
1
 91
33
178
0
145
0.0
301
CELL_VALUE
 90
4
  1
Through
304
ACVALUE_END
170
5
140
0.125
171
1
172
0
173
1
174
0
175
1
176
1
 91
1
178
0
145
0.0
170
1
171
1
172
0
173
0
174
0
175
1
176
1
 91
33
178
0
145
0.0
301
CELL_VALUE
 90
4
  1
Mounting Hole Quantity
304
ACVALUE_END
170
5
140
0.125
171
1
172
0
173
0
174
0
175
2
176
1
 91
33
178
0
145
0.0
301
CELL_VALUE
 90
4
  1
2
304
ACVALUE_END
170
5
140
0.125
171
1
172
0
173
1
174
0
175
1
176
1
 91
1
178
0
145
0.0
170
1
171
1
172
0
173
0
174
0
175
1
176
1
 91
33
178
0
145
0.0
301
CELL_VALUE
 90
4
  1
Includes integral cartridge(s)
304
ACVALUE_END
170
5
140
0.125
171
1
172
0
173
0
174
0
175
2
176
1
 91
33
178
0
145
0.0
301
CELL_VALUE
 90
4
  1
Yes (see Included Components)
304
ACVALUE_END
170
5
140
0.125
171
1
172
0
173
1
174
0
175
1
176
1
 91
1
178
0
145
0.0
170
1
  0
ACAD_TABLE
  5
292
100
AcDbEntity
  8
0
 62
2
  6
CONTINUOUS
100
AcDbBlockReference
  2
*T3
 10
0.52125
 20
1.709
 30
0.0
100
AcDbTable
342
       386
343
211
 11
1.0
 21
0.0
 31
0.0
 90
22
 91
4
 92
3
 93
16
 94
0
 95
0
 96
0
 41
0.05
141
0.34375
141
0.344
141
0.25
141
0.25
142
1.3
142
2.0
142
1.3
171
1
172
0
173
0
174
0
175
3
176
1
 91
33
178
0
145
0.0
301
CELL_VALUE
 90
4
  1
Port Headings
304
ACVALUE_END
170
5
140
0.145
171
1
172
0
173
1
174
0
175
1
176
1
 91
1
178
0
145
0.0
170
1
171
1
172
0
173
1
174
0
175
1
176
1
 91
1
178
0
145
0.0
170
1
171
1
172
0
173
0
174
0
175
1
176
1
 91
33
178
0
145
0.0
301
CELL_VALUE
 90
4
  1
Product
304
ACVALUE_END
170
5
140
0.145
171
1
172
0
173
0
174
0
175
1
176
1
 91
33
178
0
145
0.0
301
CELL_VALUE
 90
4
  1
Port
304
ACVALUE_END
170
5
140
0.145
171
1
172
0
173
0
174
0
175
1
176
1
 91
33
178
0
145
0.0
301
CELL_VALUE
 90
4
  1
Size
304
ACVALUE_END
170
5
140
0.145
171
1
172
0
173
0
174
0
175
1
176
1
 91
33
178
0
145
0.0
301
CELL_VALUE
 90
4
  1
W3J
304
ACVALUE_END
170
5
140
0.125
171
1
172
0
173
0
174
0
175
1
176
1
 91
33
178
0
145
0.0
301
CELL_VALUE
 90
4
  1
Ports 1, 2, 3
304
ACVALUE_END
170
5
140
0.125
171
1
172
0
173
0
174
0
175
1
176
1
 91
33
178
0
145
0.0
301
CELL_VALUE
 90
4
  1
SAE 8
304
ACVALUE_END
170
5
140
0.125
171
1
172
0
173
0
174
0
175
1
176
1
 91
33
178
0
145
0.0
301
CELL_VALUE
 90
4
  1
W3J
304
ACVALUE_END
170
5
140
0.125
171
1
172
0
173
0
174
0
175
1
176
1
 91
33
178
0
145
0.0
301
CELL_VALUE
 90
4
  1
Gage Port
304
ACVALUE_END
170
5
140
0.125
171
1
172
0
173
0
174
0
175
1
176
1
 91
33
178
0
145
0.0
301
CELL_VALUE
 90
4
  1
SAE 4
304
ACVALUE_END
170
5
140
0.125
  0
MTEXT
  5
293
100
AcDbEntity
  8
0
100
AcDbMText
 62
2
  6
CONTINUOUS
  7
STANDARD
 71
1
 72
1
 10
0.52125
 20
5.75995
 30
0.0
 11
1.0
 21
0.0
 31
0.0
 44
0.6
  3
Notes\P \P1. Important: Carefully consider\P   the maximum system pressure. The\P   pressure rating of the manifold is\P   dependent on the manifold material,\P   with the port type/size a secondary\P   consideration. Manifolds\P   constructed of alu
  3
minum are not\P   rated for pressures higher than\P   3000 psi (210 bar), regardless of\P   the port type/size specified.\P2. This drawing is for reference\P   only. It is generated by an\P   automated process and does not fall\P   under Sun's docume
  1
nt control\P   process.
 40
0.1
 41
3.04
  0
LINE
  5
294
100
AcDbEntity
  8
0
100
AcDbLine
 62
7
  6
CONTINUOUS
 10
0.30125
 20
0.30125
 11
0.30125
 21
16.69875
  0
LINE
  5
295
100
AcDbEntity
  8
0
100
AcDbLine
 62
7
  6
CONTINUOUS
 10
0.30125
 20
0.30125
 11
21.69875
 21
0.30125
  0
LINE
  5
296
100
AcDbEntity
  8
0
100
AcDbLine
 62
7
  6
CONTINUOUS
 10
0.30125
 20
16.69875
 11
21.69875
 21
16.69875
  0
LINE
  5
297
100
AcDbEntity
  8
0
100
AcDbLine
 62
7
  6
CONTINUOUS
 10
21.69875
 20
0.30125
 11
21.69875
 21
16.69875
  0
LINE
  5
298
100
AcDbEntity
  8
0
100
AcDbLine
 62
7
  6
CONTINUOUS
 10
9.7128729444
 20
10.7425635365
 11
9.389349405
 21
10.4300637758
  0
LINE
  5
299
100
AcDbEntity
  8
0
100
AcDbLine
 62
4
  6
CONTINUOUS
 10
9.6404901795
 20
9.9538322521
 11
9.6332457355
 21
9.9446753997
  0
LINE
  5
29A
100
AcDbEntity
  8
0
100
AcDbLine
 62
4
  6
CONTINUOUS
 10
9.6477346235
 20
9.8953742965
 11
9.6332457355
 21
9.8770605873
  0
LINE
  5
29B
100
AcDbEntity
  8
0
100
AcDbLine
 62
4
  6
CONTINUOUS
 10
9.5897790718
 20
9.9766675989
 11
9.6042679597
 21
9.9853220474
  0
LINE
  5
29C
100
AcDbEntity
  8
0
100
AcDbLine
 62
4
  6
CONTINUOUS
 10
9.6332457355
 20
9.9446753997
 11
9.6187568476
 21
9.9360209442
  0
LINE
  5
29D
100
AcDbEntity
  8
0
100
AcDbLine
 62
4
  6
CONTINUOUS
 10
9.6332457355
 20
9.8770605873
 11
9.6187568476
 21
9.8684061362
  0
LINE
  5
29E
100
AcDbEntity
  8
0
100
AcDbLine
 62
7
  6
CONTINUOUS
 10
11.2065145113
 20
6.3251270685
 11
11.2228173394
 21
6.3170737835
  0
LINE
  5
29F
100
AcDbEntity
  8
0
100
AcDbLine
 62
7
  6
CONTINUOUS
 10
9.389349405
 20
6.9285824481
 11
12.2871270556
 21
6.7276208855
  0
LINE
  5
2A0
100
AcDbEntity
  8
0
100
AcDbLine
 62
7
  6
CONTINUOUS
 10
9.389349405
 20
6.9285824481
 11
9.389349405
 21
10.4300637758
  0
LINE
  5
2A1
100
AcDbEntity
  8
0
100
AcDbLine
 62
4
  6
CONTINUOUS
 10
9.6404901795
 20
9.9634915084
 11
9.6404901795
 21
9.9538322521
  0
LINE
  5
2A2
100
AcDbEntity
  8
0
100
AcDbLine
 62
4
  6
CONTINUOUS
 10
9.6404901795
 20
7.9350472079
 11
9.6404901795
 21
7.8191361044
  0
LINE
  5
2A3
100
AcDbEntity
  8
0
100
AcDbLine
 62
4
  6
CONTINUOUS
 10
9.6477346235
 20
9.9050335563
 11
9.6477346235
 21
9.8953742965
  0
LINE
  5
2A4
100
AcDbEntity
  8
0
100
AcDbLine
 62
4
  6
CONTINUOUS
 10
11.3864011678
 20
7.4179382392
 11
11.3719122798
 21
7.418943047
  0
LINE
  5
2A5
100
AcDbEntity
  8
0
100
AcDbLine
 62
4
  6
CONTINUOUS
 10
11.3791567238
 20
7.4763961948
 11
11.4081344996
 21
7.4743865792
  0
LINE
  5
2A6
100
AcDbEntity
  8
0
100
AcDbLine
 62
4
  6
CONTINUOUS
 10
11.3719122798
 20
7.5348541504
 11
11.3864011678
 21
7.5338493426
  0
LINE
  5
2A7
100
AcDbEntity
  8
0
100
AcDbLine
 62
4
  6
CONTINUOUS
 10
10.2886264138
 20
9.0975061653
 11
10.2886264138
 21
9.0395506136
  0
LINE
  5
2A8
100
AcDbEntity
  8
0
100
AcDbLine
 62
4
  6
CONTINUOUS
 10
10.3465819655
 20
9.0355313825
 11
10.3465819655
 21
8.9775758307
  0
LINE
  5
2A9
100
AcDbEntity
  8
0
100
AcDbLine
 62
4
  6
CONTINUOUS
 10
10.3755597414
 20
8.9755662152
 11
10.3755597414
 21
9.0914773186
  0
LINE
  5
2AA
100
AcDbEntity
  8
0
100
AcDbLine
 62
4
  6
CONTINUOUS
 10
10.4228901047
 20
8.3811372158
 11
10.4228901047
 21
8.4970483192
  0
LINE
  5
2AB
100
AcDbEntity
  8
0
100
AcDbLine
 62
4
  6
CONTINUOUS
 10
10.4335152931
 20
9.0874580874
 11
10.4335152931
 21
8.971546984
  0
LINE
  5
2AC
100
AcDbEntity
  8
0
100
AcDbLine
 62
4
  6
CONTINUOUS
 10
10.462493069
 20
9.0854484719
 11
10.462493069
 21
8.9695373684
  0
LINE
  5
2AD
100
AcDbEntity
  8
0
100
AcDbLine
 62
4
  6
CONTINUOUS
 10
11.3719122798
 20
7.418943047
 11
11.3574233919
 21
7.4296071137
  0
LINE
  5
2AE
100
AcDbEntity
  8
0
100
AcDbLine
 62
4
  6
CONTINUOUS
 10
11.3864011678
 20
7.5338493426
 11
11.4008900557
 21
7.5231852785
  0
LINE
  5
2AF
100
AcDbEntity
  8
0
100
AcDbLine
 62
4
  6
CONTINUOUS
 10
10.4808456495
 20
8.4764703605
 11
10.4808456495
 21
8.3936767149
  0
LINE
  5
2B0
100
AcDbEntity
  8
0
100
AcDbLine
 62
4
  6
CONTINUOUS
 10
10.5204486207
 20
9.0814292407
 11
10.5204486207
 21
8.9655181373
  0
LINE
  5
2B1
100
AcDbEntity
  8
0
100
AcDbLine
 62
4
  6
CONTINUOUS
 10
10.6363597241
 20
8.9574796749
 11
10.6363597241
 21
9.0733907784
  0
LINE
  5
2B2
100
AcDbEntity
  8
0
100
AcDbLine
 62
4
  6
CONTINUOUS
 10
10.5277620491
 20
8.3738643218
 11
10.5608795053
 21
8.4874787218
  0
LINE
  5
2B3
100
AcDbEntity
  8
0
100
AcDbLine
 62
7
  6
CONTINUOUS
 10
12.2871270556
 20
10.2291022132
 11
12.610650595
 21
10.5416019738
  0
LINE
  5
2B4
100
AcDbEntity
  8
0
100
AcDbLine
 62
4
  6
CONTINUOUS
 10
10.3566551855
 20
8.4354068107
 11
10.4008117971
 21
8.4102662335
  0
LINE
  5
2B5
100
AcDbEntity
  8
0
100
AcDbLine
 62
4
  6
CONTINUOUS
 10
10.4642869214
 20
8.4941774403
 11
10.4808456495
 21
8.4764703605
  0
LINE
  5
2B6
100
AcDbEntity
  8
0
100
AcDbLine
 62
4
  6
CONTINUOUS
 10
9.5897790718
 20
9.8800750107
 11
9.5825346278
 21
9.8902366735
  0
LINE
  5
2B7
100
AcDbEntity
  8
0
100
AcDbLine
 62
4
  6
CONTINUOUS
 10
10.5608795053
 20
8.4874787218
 11
10.5939969753
 21
8.369270914
  0
LINE
  5
2B8
100
AcDbEntity
  8
0
100
AcDbLine
 62
4
  6
CONTINUOUS
 10
10.6602318876
 20
8.3646775073
 11
10.6602318876
 21
8.4805886107
  0
LINE
  5
2B9
100
AcDbEntity
  8
0
100
AcDbLine
 62
4
  6
CONTINUOUS
 10
10.6943152758
 20
8.9534604438
 11
10.6943152758
 21
9.0114159955
  0
LINE
  5
2BA
100
AcDbEntity
  8
0
100
AcDbLine
 62
4
  6
CONTINUOUS
 10
10.7264667999
 20
8.3600841005
 11
10.7264667999
 21
8.4759952039
  0
LINE
  5
2BB
100
AcDbEntity
  8
0
100
AcDbLine
 62
4
  6
CONTINUOUS
 10
10.7416456441
 20
8.9501780716
 11
10.7416456441
 21
9.0081336233
  0
LINE
  5
2BC
100
AcDbEntity
  8
0
100
AcDbLine
 62
4
  6
CONTINUOUS
 10
10.7996011958
 20
9.0041143921
 11
10.7996011958
 21
8.8882032887
  0
LINE
  5
2BD
100
AcDbEntity
  8
0
100
AcDbLine
 62
4
  6
CONTINUOUS
 10
10.8382382303
 20
8.943479353
 11
10.8382382303
 21
9.0014349047
  0
LINE
  5
2BE
100
AcDbEntity
  8
0
100
AcDbLine
 62
4
  6
CONTINUOUS
 10
10.7720033126
 20
8.6119305602
 11
10.7968414081
 21
8.7261191358
  0
LINE
  5
2BF
100
AcDbEntity
  8
0
100
AcDbLine
 62
4
  6
CONTINUOUS
 10
10.7223271266
 20
8.6153756154
 11
10.7471652204
 21
8.696446735
  0
LINE
  5
2C0
100
AcDbEntity
  8
0
100
AcDbLine
 62
4
  6
CONTINUOUS
 10
10.4808456495
 20
8.3936767149
 11
10.4642869214
 21
8.3782663368
  0
LINE
  5
2C1
100
AcDbEntity
  8
0
100
AcDbLine
 62
4
  6
CONTINUOUS
 10
10.8879144229
 20
8.6701270166
 11
10.9017133526
 21
8.6774494181
  0
LINE
  5
2C2
100
AcDbEntity
  8
0
100
AcDbLine
 62
4
  6
CONTINUOUS
 10
10.4008117971
 20
8.4544228469
 11
10.3566551855
 21
8.4354068107
  0
LINE
  5
2C3
100
AcDbEntity
  8
0
100
AcDbLine
 62
4
  6
CONTINUOUS
 10
10.9168922038
 20
8.3468780539
 11
10.9003334826
 21
8.3645851349
  0
LINE
  5
2C4
100
AcDbEntity
  8
0
100
AcDbLine
 62
4
  6
CONTINUOUS
 10
11.3574233919
 20
7.4296071137
 11
11.342934504
 21
7.4499304384
  0
LINE
  5
2C5
100
AcDbEntity
  8
0
100
AcDbLine
 62
4
  6
CONTINUOUS
 10
9.6332457355
 20
9.9253568801
 11
9.6477346235
 21
9.9050335563
  0
LINE
  5
2C6
100
AcDbEntity
  8
0
100
AcDbLine
 62
4
  6
CONTINUOUS
 10
9.6332457355
 20
9.9736531755
 11
9.6404901795
 21
9.9634915084
  0
LINE
  5
2C7
100
AcDbEntity
  8
0
100
AcDbLine
 62
4
  6
CONTINUOUS
 10
11.4008900557
 20
7.5231852785
 11
11.4081344996
 21
7.5130236114
  0
LINE
  5
2C8
100
AcDbEntity
  8
0
100
AcDbLine
 62
4
  6
CONTINUOUS
 10
10.7471652204
 20
8.696446735
 11
10.7720033126
 21
8.6119305602
  0
LINE
  5
2C9
100
AcDbEntity
  8
0
100
AcDbLine
 62
4
  6
CONTINUOUS
 10
10.6974890328
 20
8.7330092465
 11
10.7223271266
 21
8.6153756154
  0
LINE
  5
2CA
100
AcDbEntity
  8
0
100
AcDbLine
 62
4
  6
CONTINUOUS
 10
10.896193782
 20
9.0553712252
 11
10.896193782
 21
8.9394601218
  0
LINE
  5
2CB
100
AcDbEntity
  8
0
100
AcDbLine
 62
4
  6
CONTINUOUS
 10
10.9003334826
 20
8.3645851349
 11
10.9003334826
 21
8.4473787805
  0
LINE
  5
2CC
100
AcDbEntity
  8
0
100
AcDbLine
 62
4
  6
CONTINUOUS
 10
10.9017133526
 20
8.6774494181
 11
10.9017133526
 21
8.7022875137
  0
LINE
  5
2CD
100
AcDbEntity
  8
0
100
AcDbLine
 62
4
  6
CONTINUOUS
 10
10.9044731441
 20
8.6110231111
 11
10.9044731441
 21
8.6524199338
  0
LINE
  5
2CE
100
AcDbEntity
  8
0
100
AcDbLine
 62
4
  6
CONTINUOUS
 10
10.9348308165
 20
8.9947361861
 11
10.9348308165
 21
8.9367806344
  0
LINE
  5
2CF
100
AcDbEntity
  8
0
100
AcDbLine
 62
4
  6
CONTINUOUS
 10
10.9789874308
 20
8.6141348926
 11
10.9789874308
 21
8.7134872662
  0
LINE
  5
2D0
100
AcDbEntity
  8
0
100
AcDbLine
 62
4
  6
CONTINUOUS
 10
10.996926032
 20
8.3578864188
 11
10.996926032
 21
8.4406800644
  0
LINE
  5
2D1
100
AcDbEntity
  8
0
100
AcDbLine
 62
4
  6
CONTINUOUS
 10
10.8961937835
 20
8.6033179218
 11
10.9044731441
 21
8.6110231111
  0
LINE
  5
2D2
100
AcDbEntity
  8
0
100
AcDbLine
 62
4
  6
CONTINUOUS
 10
10.9624287096
 20
8.598724514
 11
10.9789874308
 21
8.6141348926
  0
LINE
  5
2D3
100
AcDbEntity
  8
0
100
AcDbLine
 62
4
  6
CONTINUOUS
 10
10.9003334826
 20
8.4473787805
 11
10.9168922038
 21
8.4627891573
  0
LINE
  5
2D4
100
AcDbEntity
  8
0
100
AcDbLine
 62
4
  6
CONTINUOUS
 10
11.1293958566
 20
8.3321408755
 11
11.087999026
 21
8.3350117555
  0
LINE
  5
2D5
100
AcDbEntity
  8
0
100
AcDbLine
 62
4
  6
CONTINUOUS
 10
11.0383228625
 20
8.3384568091
 11
11.0134847532
 21
8.3401793378
  0
LINE
  5
2D6
100
AcDbEntity
  8
0
100
AcDbLine
 62
4
  6
CONTINUOUS
 10
10.9500096461
 20
8.3445813515
 11
10.9168922038
 21
8.3468780539
  0
LINE
  5
2D7
100
AcDbEntity
  8
0
100
AcDbLine
 62
4
  6
CONTINUOUS
 10
10.4642869214
 20
8.3782663368
 11
10.4228901047
 21
8.3811372158
  0
LINE
  5
2D8
100
AcDbEntity
  8
0
100
AcDbLine
 62
4
  6
CONTINUOUS
 10
10.7264667999
 20
8.3600841005
 11
10.776142991
 21
8.3566390449
  0
LINE
  5
2D9
100
AcDbEntity
  8
0
100
AcDbLine
 62
4
  6
CONTINUOUS
 10
11.1928710189
 20
8.3277388581
 11
11.2425471824
 21
8.3242938044
  0
LINE
  5
2DA
100
AcDbEntity
  8
0
100
AcDbLine
 62
4
  6
CONTINUOUS
 10
10.5388012012
 20
8.4062162136
 11
10.5829578094
 21
8.4031539424
  0
LINE
  5
2DB
100
AcDbEntity
  8
0
100
AcDbLine
 62
4
  6
CONTINUOUS
 10
11.2259884612
 20
8.3916770748
 11
11.1928710189
 21
8.3939737773
  0
LINE
  5
2DC
100
AcDbEntity
  8
0
100
AcDbLine
 62
4
  6
CONTINUOUS
 10
10.7595842698
 20
8.4240223154
 11
10.7264667999
 21
8.4263190197
  0
LINE
  5
2DD
100
AcDbEntity
  8
0
100
AcDbLine
 62
4
  6
CONTINUOUS
 10
10.4228901047
 20
8.4970483192
 11
10.4642869214
 21
8.4941774403
  0
LINE
  5
2DE
100
AcDbEntity
  8
0
100
AcDbLine
 62
4
  6
CONTINUOUS
 10
10.6271144176
 20
8.482885315
 11
10.6933493299
 21
8.4782919083
  0
LINE
  5
2DF
100
AcDbEntity
  8
0
100
AcDbLine
 62
4
  6
CONTINUOUS
 10
10.7264667999
 20
8.4759952039
 11
10.776142991
 21
8.4725501484
  0
LINE
  5
2E0
100
AcDbEntity
  8
0
100
AcDbLine
 62
4
  6
CONTINUOUS
 10
10.9168922038
 20
8.4627891573
 11
10.9500096461
 21
8.4604924549
  0
LINE
  5
2E1
100
AcDbEntity
  8
0
100
AcDbLine
 62
4
  6
CONTINUOUS
 10
11.0134847532
 20
8.4560904413
 11
11.0383228625
 21
8.4543679125
  0
LINE
  5
2E2
100
AcDbEntity
  8
0
100
AcDbLine
 62
4
  6
CONTINUOUS
 10
11.087999026
 20
8.4509228589
 11
11.1293958566
 21
8.4480519789
  0
LINE
  5
2E3
100
AcDbEntity
  8
0
100
AcDbLine
 62
4
  6
CONTINUOUS
 10
11.1928710189
 20
8.4436499615
 11
11.2425471824
 21
8.4402049078
  0
LINE
  5
2E4
100
AcDbEntity
  8
0
100
AcDbLine
 62
4
  6
CONTINUOUS
 10
11.0134847532
 20
8.3401793378
 11
10.996926032
 21
8.3578864188
  0
LINE
  5
2E5
100
AcDbEntity
  8
0
100
AcDbLine
 62
4
  6
CONTINUOUS
 10
11.0383228625
 20
8.4543679125
 11
11.0548815837
 21
8.4366608332
  0
LINE
  5
2E6
100
AcDbEntity
  8
0
100
AcDbLine
 62
4
  6
CONTINUOUS
 10
11.0314234027
 20
8.9300819158
 11
11.0314234027
 21
8.9687189502
  0
LINE
  5
2E7
100
AcDbEntity
  8
0
100
AcDbLine
 62
4
  6
CONTINUOUS
 10
11.0548815837
 20
8.4366608332
 11
11.0548815837
 21
8.3538671877
  0
LINE
  5
2E8
100
AcDbEntity
  8
0
100
AcDbLine
 62
4
  6
CONTINUOUS
 10
11.087999026
 20
8.3350117555
 11
11.087999026
 21
8.4509228589
  0
LINE
  5
2E9
100
AcDbEntity
  8
0
100
AcDbLine
 62
4
  6
CONTINUOUS
 10
11.0893789544
 20
8.9840182363
 11
11.0893789544
 21
8.9260626846
  0
LINE
  5
2EA
100
AcDbEntity
  8
0
100
AcDbLine
 62
7
  6
CONTINUOUS
 10
11.1245682596
 20
6.8082446118
 11
11.1245682596
 21
6.4269207276
  0
LINE
  5
2EB
100
AcDbEntity
  8
0
100
AcDbLine
 62
4
  6
CONTINUOUS
 10
11.1280159889
 20
8.9813387489
 11
11.1280159889
 21
8.9233831972
  0
LINE
  5
2EC
100
AcDbEntity
  8
0
100
AcDbLine
 62
4
  6
CONTINUOUS
 10
11.1459545778
 20
8.4303448997
 11
11.1459545778
 21
8.3475512541
  0
LINE
  5
2ED
100
AcDbEntity
  8
0
100
AcDbLine
 62
4
  6
CONTINUOUS
 10
11.1859715406
 20
8.919363966
 11
11.1859715406
 21
8.9773195177
  0
LINE
  5
2EE
100
AcDbEntity
  8
0
100
AcDbLine
 62
4
  6
CONTINUOUS
 10
11.1928710189
 20
8.3277388581
 11
11.1928710189
 21
8.4436499615
  0
LINE
  5
2EF
100
AcDbEntity
  8
0
100
AcDbLine
 62
4
  6
CONTINUOUS
 10
10.996926032
 20
8.4406800644
 11
11.0134847532
 21
8.4560904413
  0
LINE
  5
2F0
100
AcDbEntity
  8
0
100
AcDbLine
 62
4
  6
CONTINUOUS
 10
11.0548815837
 20
8.3538671877
 11
11.0383228625
 21
8.3384568091
  0
LINE
  5
2F1
100
AcDbEntity
  8
0
100
AcDbLine
 62
4
  6
CONTINUOUS
 10
11.9804455989
 20
8.8739261775
 11
11.9949344869
 21
8.882580626
  0
LINE
  5
2F2
100
AcDbEntity
  8
0
100
AcDbLine
 62
4
  6
CONTINUOUS
 10
10.8547969529
 20
8.6061888017
 11
10.8961937835
 21
8.6033179218
  0
LINE
  5
2F3
100
AcDbEntity
  8
0
100
AcDbLine
 62
4
  6
CONTINUOUS
 10
10.9375906002
 20
8.6004470428
 11
10.9624287096
 21
8.598724514
  0
LINE
  5
2F4
100
AcDbEntity
  8
0
100
AcDbLine
 62
4
  6
CONTINUOUS
 10
10.8879144229
 20
8.6701270166
 11
10.8713556879
 21
8.6712753687
  0
LINE
  5
2F5
100
AcDbEntity
  8
0
100
AcDbLine
 62
4
  6
CONTINUOUS
 10
11.2756646247
 20
8.3937515972
 11
11.3198212329
 21
8.3686110185
  0
LINE
  5
2F6
100
AcDbEntity
  8
0
100
AcDbLine
 62
4
  6
CONTINUOUS
 10
10.9044731441
 20
8.6524199338
 11
10.8879144229
 21
8.6701270166
  0
LINE
  5
2F7
100
AcDbEntity
  8
0
100
AcDbLine
 62
4
  6
CONTINUOUS
 10
11.1293958566
 20
8.4480519789
 11
11.1459545778
 21
8.4303448997
  0
LINE
  5
2F8
100
AcDbEntity
  8
0
100
AcDbLine
 62
4
  6
CONTINUOUS
 10
10.9017133526
 20
8.7022875137
 11
10.8879144229
 21
8.7198032008
  0
LINE
  5
2F9
100
AcDbEntity
  8
0
100
AcDbLine
 62
4
  6
CONTINUOUS
 10
11.342934504
 20
7.4499304384
 11
11.33569006
 21
7.4794106182
  0
LINE
  5
2FA
100
AcDbEntity
  8
0
100
AcDbLine
 62
4
  6
CONTINUOUS
 10
11.2246085751
 20
8.9166844786
 11
11.2246085751
 21
9.032595582
  0
LINE
  5
2FB
100
AcDbEntity
  8
0
100
AcDbLine
 62
7
  6
CONTINUOUS
 10
11.2376230716
 20
6.7383175774
 11
11.2376230716
 21
6.3177183517
  0
LINE
  5
2FC
100
AcDbEntity
  8
0
100
AcDbLine
 62
4
  6
CONTINUOUS
 10
11.2632456096
 20
8.9140049911
 11
11.2632456096
 21
8.9719605428
  0
LINE
  5
2FD
100
AcDbEntity
  8
0
100
AcDbLine
 62
7
  6
CONTINUOUS
 10
11.2795032991
 20
6.7274781907
 11
11.2795032991
 21
6.3068789649
  0
LINE
  5
2FE
100
AcDbEntity
  8
0
100
AcDbLine
 62
4
  6
CONTINUOUS
 10
11.301882644
 20
8.9692810554
 11
11.301882644
 21
8.9113255037
  0
LINE
  5
2FF
100
AcDbEntity
  8
0
100
AcDbLine
 62
4
  6
CONTINUOUS
 10
11.1459545778
 20
8.3475512541
 11
11.1293958566
 21
8.3321408755
  0
LINE
  5
300
100
AcDbEntity
  8
0
100
AcDbLine
 62
4
  6
CONTINUOUS
 10
12.0239122627
 20
8.832274715
 11
11.9949344869
 21
8.8149658145
  0
LINE
  5
301
100
AcDbEntity
  8
0
100
AcDbLine
 62
4
  6
CONTINUOUS
 10
11.3198212329
 20
8.3686110185
 11
11.2756646247
 21
8.3495949838
  0
LINE
  5
302
100
AcDbEntity
  8
0
100
AcDbLine
 62
4
  6
CONTINUOUS
 10
10.8879144229
 20
8.7198032008
 11
10.8547969529
 21
8.7220999051
  0
LINE
  5
303
100
AcDbEntity
  8
0
100
AcDbLine
 62
4
  6
CONTINUOUS
 10
11.973201155
 20
8.7681767343
 11
12.0311567067
 21
8.7641575031
  0
LINE
  5
304
100
AcDbEntity
  8
0
100
AcDbLine
 62
4
  6
CONTINUOUS
 10
10.7996011958
 20
8.8882032887
 11
10.7609641614
 21
8.8908827761
  0
LINE
  5
305
100
AcDbEntity
  8
0
100
AcDbLine
 62
4
  6
CONTINUOUS
 10
9.6042679597
 20
9.869410944
 11
9.5897790718
 21
9.8800750107
  0
LINE
  5
306
100
AcDbEntity
  8
0
100
AcDbLine
 62
4
  6
CONTINUOUS
 10
9.6187568476
 20
9.9360209442
 11
9.6332457355
 21
9.9253568801
  0
LINE
  5
307
100
AcDbEntity
  8
0
100
AcDbLine
 62
4
  6
CONTINUOUS
 10
9.6187568476
 20
9.9843172396
 11
9.6332457355
 21
9.9736531755
  0
LINE
  5
308
100
AcDbEntity
  8
0
100
AcDbLine
 62
4
  6
CONTINUOUS
 10
11.3984752302
 20
8.9625823368
 11
11.3984752302
 21
8.9336045609
  0
LINE
  5
309
100
AcDbEntity
  8
0
100
AcDbLine
 62
4
  6
CONTINUOUS
 10
11.4081344996
 20
7.4743865792
 11
11.4081344996
 21
7.4357495453
  0
LINE
  5
30A
100
AcDbEntity
  8
0
100
AcDbLine
 62
4
  6
CONTINUOUS
 10
11.4564307819
 20
8.9295853298
 11
11.4564307819
 21
8.9006075539
  0
LINE
  5
30B
100
AcDbEntity
  8
0
100
AcDbLine
 62
4
  6
CONTINUOUS
 10
11.973201155
 20
8.8647693182
 11
11.9804455989
 21
8.8739261775
  0
LINE
  5
30C
100
AcDbEntity
  8
0
100
AcDbLine
 62
4
  6
CONTINUOUS
 10
11.4564307819
 20
8.9006075539
 11
11.3984752302
 21
8.9046267851
  0
LINE
  5
30D
100
AcDbEntity
  8
0
100
AcDbLine
 62
4
  6
CONTINUOUS
 10
11.0893789544
 20
8.9260626846
 11
11.0314234027
 21
8.9300819158
  0
LINE
  5
30E
100
AcDbEntity
  8
0
100
AcDbLine
 62
4
  6
CONTINUOUS
 10
10.896193782
 20
8.9394601218
 11
10.8382382303
 21
8.943479353
  0
LINE
  5
30F
100
AcDbEntity
  8
0
100
AcDbLine
 62
4
  6
CONTINUOUS
 10
10.7996011958
 20
8.9461588404
 11
10.7416456441
 21
8.9501780716
  0
LINE
  5
310
100
AcDbEntity
  8
0
100
AcDbLine
 62
4
  6
CONTINUOUS
 10
10.4335152931
 20
8.971546984
 11
10.3755597414
 21
8.9755662152
  0
LINE
  5
311
100
AcDbEntity
  8
0
100
AcDbLine
 62
4
  6
CONTINUOUS
 10
10.3465819655
 20
8.9775758307
 11
10.2886264138
 21
8.9815950619
  0
LINE
  5
312
100
AcDbEntity
  8
0
100
AcDbLine
 62
4
  6
CONTINUOUS
 10
11.1280159889
 20
8.9233831972
 11
11.1859715406
 21
8.919363966
  0
LINE
  5
313
100
AcDbEntity
  8
0
100
AcDbLine
 62
4
  6
CONTINUOUS
 10
11.301882644
 20
8.9113255037
 11
11.3598381958
 21
8.9073062725
  0
LINE
  5
314
100
AcDbEntity
  8
0
100
AcDbLine
 62
4
  6
CONTINUOUS
 10
11.9949344869
 20
8.882580626
 11
12.0094233748
 21
8.8815758182
  0
LINE
  5
315
100
AcDbEntity
  8
0
100
AcDbLine
 62
4
  6
CONTINUOUS
 10
11.3984752302
 20
8.9336045609
 11
11.4564307819
 21
8.9295853298
  0
LINE
  5
316
100
AcDbEntity
  8
0
100
AcDbLine
 62
4
  6
CONTINUOUS
 10
11.0314234027
 20
8.9687189502
 11
11.0893789544
 21
8.9646997191
  0
LINE
  5
317
100
AcDbEntity
  8
0
100
AcDbLine
 62
4
  6
CONTINUOUS
 10
11.0893789544
 20
8.9840182363
 11
11.0507419199
 21
8.9866977238
  0
LINE
  5
318
100
AcDbEntity
  8
0
100
AcDbLine
 62
4
  6
CONTINUOUS
 10
10.6943152758
 20
9.0114159955
 11
10.6363597241
 21
9.0154352266
  0
LINE
  5
319
100
AcDbEntity
  8
0
100
AcDbLine
 62
4
  6
CONTINUOUS
 10
10.2886264138
 20
9.0395506136
 11
10.3465819655
 21
9.0355313825
  0
LINE
  5
31A
100
AcDbEntity
  8
0
100
AcDbLine
 62
4
  6
CONTINUOUS
 10
10.8382382303
 20
9.0014349047
 11
10.896193782
 21
8.9974156735
  0
LINE
  5
31B
100
AcDbEntity
  8
0
100
AcDbLine
 62
4
  6
CONTINUOUS
 10
10.9348308165
 20
8.9947361861
 11
10.9927863682
 21
8.9907169549
  0
LINE
  5
31C
100
AcDbEntity
  8
0
100
AcDbLine
 62
4
  6
CONTINUOUS
 10
11.301882644
 20
8.9692810554
 11
11.3598381958
 21
8.9652618242
  0
LINE
  5
31D
100
AcDbEntity
  8
0
100
AcDbLine
 62
4
  6
CONTINUOUS
 10
11.3984752302
 20
8.9625823368
 11
11.4564307819
 21
8.9585631056
  0
LINE
  5
31E
100
AcDbEntity
  8
0
100
AcDbLine
 62
4
  6
CONTINUOUS
 10
11.2560011656
 20
9.0014407226
 11
11.2704900535
 21
9.0004359148
  0
LINE
  5
31F
100
AcDbEntity
  8
0
100
AcDbLine
 62
4
  6
CONTINUOUS
 10
10.3465819655
 20
9.0934869342
 11
10.2886264138
 21
9.0975061653
  0
LINE
  5
320
100
AcDbEntity
  8
0
100
AcDbLine
 62
4
  6
CONTINUOUS
 10
10.462493069
 20
9.0854484719
 11
10.5204486207
 21
9.0814292407
  0
LINE
  5
321
100
AcDbEntity
  8
0
100
AcDbLine
 62
7
  6
CONTINUOUS
 10
11.701429278
 20
6.6982175246
 11
11.701429278
 21
6.2776182989
  0
LINE
  5
322
100
AcDbEntity
  8
0
100
AcDbLine
 62
7
  6
CONTINUOUS
 10
11.7586387166
 20
6.7021850197
 11
11.7586387166
 21
6.281585794
  0
LINE
  5
323
100
AcDbEntity
  8
0
100
AcDbLine
 62
4
  6
CONTINUOUS
 10
11.33569006
 20
7.4794106182
 11
11.342934504
 21
7.5078859901
  0
LINE
  5
324
100
AcDbEntity
  8
0
100
AcDbLine
 62
4
  6
CONTINUOUS
 10
11.9949344869
 20
8.8149658145
 11
11.9804455989
 21
8.7966521062
  0
LINE
  5
325
100
AcDbEntity
  8
0
100
AcDbLine
 62
4
  6
CONTINUOUS
 10
12.0311567067
 20
8.8414315744
 11
12.0239122627
 21
8.832274715
  0
LINE
  5
326
100
AcDbEntity
  8
0
100
AcDbLine
 62
4
  6
CONTINUOUS
 10
11.9804455989
 20
8.7966521062
 11
11.973201155
 21
8.7681767343
  0
LINE
  5
327
100
AcDbEntity
  8
0
100
AcDbLine
 62
4
  6
CONTINUOUS
 10
11.342934504
 20
7.5078859901
 11
11.3574233919
 21
7.5261997019
  0
LINE
  5
328
100
AcDbEntity
  8
0
100
AcDbLine
 62
4
  6
CONTINUOUS
 10
12.0094233748
 20
8.8815758182
 11
12.0239122627
 21
8.8709117541
  0
LINE
  5
329
100
AcDbEntity
  8
0
100
AcDbLine
 62
4
  6
CONTINUOUS
 10
12.0311567067
 20
8.860750087
 11
12.0311567067
 21
8.8414315744
  0
LINE
  5
32A
100
AcDbEntity
  8
0
100
AcDbLine
 62
7
  6
CONTINUOUS
 10
12.0675098836
 20
6.7428513881
 11
12.0675098836
 21
6.3615275038
  0
LINE
  5
32B
100
AcDbEntity
  8
0
100
AcDbLine
 62
7
  6
CONTINUOUS
 10
12.0828390948
 20
6.7417883037
 11
12.0828390948
 21
6.3763343857
  0
LINE
  5
32C
100
AcDbEntity
  8
0
100
AcDbLine
 62
4
  6
CONTINUOUS
 10
11.4081344996
 20
7.4357495453
 11
11.4008900557
 21
7.4265926903
  0
LINE
  5
32D
100
AcDbEntity
  8
0
100
AcDbLine
 62
4
  6
CONTINUOUS
 10
11.3574233919
 20
7.5261997019
 11
11.3719122798
 21
7.5348541504
  0
LINE
  5
32E
100
AcDbEntity
  8
0
100
AcDbLine
 62
4
  6
CONTINUOUS
 10
11.4008900557
 20
7.4265926903
 11
11.3864011678
 21
7.4179382392
  0
LINE
  5
32F
100
AcDbEntity
  8
0
100
AcDbLine
 62
4
  6
CONTINUOUS
 10
12.0239122627
 20
8.8709117541
 11
12.0311567067
 21
8.860750087
  0
LINE
  5
330
100
AcDbEntity
  8
0
100
AcDbLine
 62
7
  6
CONTINUOUS
 10
12.2871270556
 20
6.7276208855
 11
12.2871270556
 21
10.2291022132
  0
LINE
  5
331
100
AcDbEntity
  8
0
100
AcDbLine
 62
4
  6
CONTINUOUS
 10
9.6187568476
 20
9.8684061362
 11
9.6042679597
 21
9.869410944
  0
LINE
  5
332
100
AcDbEntity
  8
0
100
AcDbLine
 62
4
  6
CONTINUOUS
 10
9.6042679597
 20
9.937025752
 11
9.6187568476
 21
9.9360209442
  0
LINE
  5
333
100
AcDbEntity
  8
0
100
AcDbLine
 62
4
  6
CONTINUOUS
 10
9.6042679597
 20
9.9853220474
 11
9.6187568476
 21
9.9843172396
  0
LINE
  5
334
100
AcDbEntity
  8
0
100
AcDbLine
 62
7
  6
CONTINUOUS
 10
12.610650595
 20
7.0401206461
 11
12.610650595
 21
10.5416019738
  0
LINE
  5
335
100
AcDbEntity
  8
0
100
AcDbLine
 62
7
  6
CONTINUOUS
 10
9.389349405
 20
10.4300637758
 11
12.2871270556
 21
10.2291022132
  0
LINE
  5
336
100
AcDbEntity
  8
0
100
AcDbLine
 62
7
  6
CONTINUOUS
 10
12.2871270556
 20
6.7276208855
 11
12.610650595
 21
7.0401206461
  0
LINE
  5
337
100
AcDbEntity
  8
0
100
AcDbLine
 62
7
  6
CONTINUOUS
 10
12.610650595
 20
10.5416019738
 11
9.7128729444
 21
10.7425635365
  0
LINE
  5
338
100
AcDbEntity
  8
0
100
AcDbLine
 62
7
  6
CONTINUOUS
 10
12.0097556245
 20
6.3295051128
 11
11.984590015
 21
6.3170737835
  0
ARC
  5
339
100
AcDbEntity
  8
0
100
AcDbCircle
 62
7
  6
CONTINUOUS
 10
11.6115059339
 20
8.4093209719
 40
1.7134646816
100
AcDbArc
 50
273.0082884861
 51
274.9259735842
  0
ARC
  5
33A
100
AcDbEntity
  8
0
100
AcDbCircle
 62
7
  6
CONTINUOUS
 10
11.6115059339
 20
7.9887217461
 40
1.7134646816
100
AcDbArc
 50
273.0082884861
 51
274.9259735842
  0
ARC
  5
33B
100
AcDbEntity
  8
0
100
AcDbCircle
 62
7
  6
CONTINUOUS
 10
11.7472714954
 20
6.860440605
 40
0.5922756118
100
AcDbArc
 50
293.5909107106
 51
296.3039528614
  0
ARC
  5
33C
100
AcDbEntity
  8
0
100
AcDbCircle
 62
7
  6
CONTINUOUS
 10
10.8837034041
 20
7.6727354489
 40
0.3599794792
100
AcDbArc
 50
312.1743239476
 51
312.9972533505
  0
ARC
  5
33D
100
AcDbEntity
  8
0
100
AcDbCircle
 62
7
  6
CONTINUOUS
 10
10.8093184462
 20
7.7497439
 40
0.3599531131
100
AcDbArc
 50
134.7655441739
 51
135.8380696361
  0
ARC
  5
33E
100
AcDbEntity
  8
0
100
AcDbCircle
 62
7
  6
CONTINUOUS
 10
10.8509951793
 20
7.6946813963
 40
0.2321771359
100
AcDbArc
 50
349.3351777911
 51
0.0338753506
  0
ARC
  5
33F
100
AcDbEntity
  8
0
100
AcDbCircle
 62
7
  6
CONTINUOUS
 10
10.8610202921
 20
7.7252392836
 40
0.2083837396
100
AcDbArc
 50
45.1255806385
 51
46.090882241
  0
SPLINE
  5
340
100
AcDbEntity
  8
0
100
AcDbSpline
 62
7
  6
CONTINUOUS
 70
0
 71
3
 72
9
 73
5
 74
0
 42
0.0000001
 43
0.0000001
 44
0.0000000001
 40
0.0
 40
0.0
 40
0.0
 40
0.0
 40
0.4865082157
 40
1.0
 40
1.0
 40
1.0
 40
1.0
 10
12.0760414342
 20
6.3688708219
 30
0.0
 10
12.0747279642
 20
6.3676021072
 30
0.0
 10
12.0719468229
 20
6.3650777023
 30
0.0
 10
12.0690335169
 20
6.3627079979
 30
0.0
 10
12.0675098836
 20
6.3615275038
 30
0.0
  0
SPLINE
  5
341
100
AcDbEntity
  8
0
100
AcDbSpline
 62
7
  6
CONTINUOUS
 70
0
 71
3
 72
9
 73
5
 74
0
 42
0.0000001
 43
0.0000001
 44
0.0000000001
 40
0.0
 40
0.0
 40
0.0
 40
0.0
 40
0.4864210225
 40
1.0
 40
1.0
 40
1.0
 40
1.0
 10
12.0828390948
 20
6.3763343857
 30
0.0
 10
12.0818253878
 20
6.3750480356
 30
0.0
 10
12.0796388976
 20
6.3724832508
 30
0.0
 10
12.0772851785
 20
6.3700721867
 30
0.0
 10
12.0760414342
 20
6.3688708219
 30
0.0
  0
SPLINE
  5
342
100
AcDbEntity
  8
0
100
AcDbSpline
 62
7
  6
CONTINUOUS
 70
0
 71
3
 72
9
 73
5
 74
0
 42
0.0000001
 43
0.0000001
 44
0.0000000001
 40
0.0
 40
0.0
 40
0.0
 40
0.0
 40
0.503991706
 40
1.0
 40
1.0
 40
1.0
 40
1.0
 10
12.0675098836
 20
6.3615275038
 30
0.0
 10
12.0580365361
 20
6.3557386286
 30
0.0
 10
12.0390211191
 20
6.3446054483
 30
0.0
 10
12.0195244542
 20
6.3343309348
 30
0.0
 10
12.0097283871
 20
6.3294916617
 30
0.0
  0
SPLINE
  5
343
100
AcDbEntity
  8
0
100
AcDbSpline
 62
7
  6
CONTINUOUS
 70
0
 71
3
 72
23
 73
19
 74
0
 42
0.0000001
 43
0.0000001
 44
0.0000000001
 40
0.0
 40
0.0
 40
0.0
 40
0.0
 40
0.0439943064
 40
0.0899281819
 40
0.1380403338
 40
0.1885309998
 40
0.2415683448
 40
0.2972701743
 40
0.3557174883
 40
0.4169406608
 40
0.4809367475
 40
0.5476614984
 40
0.617045644
 40
0.688992165
 40
0.7633891149
 40
0.8401121098
 40
0.9190285012
 40
1.0
 40
1.0
 40
1.0
 40
1.0
 10
11.206515405
 20
6.3251266269
 30
0.0
 10
11.2047715237
 20
6.3259880864
 30
0.0
 10
11.201271393
 20
6.3278823931
 30
0.0
 10
11.1961149208
 20
6.3311550678
 30
0.0
 10
11.1909515278
 20
6.3349271652
 30
0.0
 10
11.1857838084
 20
6.3392040315
 30
0.0
 10
11.1806159683
 20
6.3439892678
 30
0.0
 10
11.1754500776
 20
6.3492798771
 30
0.0
 10
11.1702904092
 20
6.3550705141
 30
0.0
 10
11.1651388447
 20
6.3613499503
 30
0.0
 10
11.1599991712
 20
6.3681047078
 30
0.0
 10
11.1548730069
 20
6.3753168728
 30
0.0
 10
11.1497632772
 20
6.3829669071
 30
0.0
 10
11.1446712101
 20
6.3910325911
 30
0.0
 10
11.1395986736
 20
6.3994910486
 30
0.0
 10
11.1345464214
 20
6.408318364
 30
0.0
 10
11.1295153937
 20
6.4174905993
 30
0.0
 10
11.1262163251
 20
6.4237427794
 30
0.0
 10
11.1245682596
 20
6.4269207276
 30
0.0
  0
SPLINE
  5
344
100
AcDbEntity
  8
0
100
AcDbSpline
 62
7
  6
CONTINUOUS
 70
0
 71
3
 72
46
 73
42
 74
0
 42
0.0000001
 43
0.0000001
 44
0.0000000001
 40
0.0
 40
0.0
 40
0.0
 40
0.0
 40
0.0099874435
 40
0.0204476157
 40
0.0313771114
 40
0.0427707225
 40
0.054621686
 40
0.0669224317
 40
0.0796639566
 40
0.0928360449
 40
0.1204269131
 40
0.1495981875
 40
0.1802403745
 40
0.2122335405
 40
0.2454486791
 40
0.2797494061
 40
0.3149926211
 40
0.3510295021
 40
0.387706851
 40
0.4248677397
 40
0.4623524596
 40
0.499999592
 40
0.537646712
 40
0.5751314595
 40
0.6122923998
 40
0.6489698028
 40
0.6850067986
 40
0.7202500982
 40
0.7545508962
 40
0.7877662248
 40
0.8197595459
 40
0.8504018313
 40
0.8795733387
 40
0.9071643906
 40
0.9330770134
 40
0.9453779539
 40
0.9572290359
 40
0.9686226679
 40
0.9795523026
 40
0.9900125123
 40
1.0
 40
1.0
 40
1.0
 40
1.0
 10
11.9845935448
 20
6.3170755709
 30
0.0
 10
11.9822765659
 20
6.3159310098
 30
0.0
 10
11.9774933731
 20
6.3136671598
 30
0.0
 10
11.9700538708
 20
6.3104135005
 30
0.0
 10
11.9621913311
 20
6.307227043
 30
0.0
 10
11.9539148968
 20
6.3041114836
 30
0.0
 10
11.9452340775
 20
6.3010702178
 30
0.0
 10
11.9361587631
 20
6.2981069844
 30
0.0
 10
11.9266993856
 20
6.2952251118
 30
0.0
 10
11.913382749
 20
6.2914367828
 30
0.0
 10
11.8958493845
 20
6.2869466232
 30
0.0
 10
11.8737751165
 20
6.2820123505
 30
0.0
 10
11.8504544306
 20
6.2774755337
 30
0.0
 10
11.8259948337
 20
6.2733573945
 30
0.0
 10
11.8005089302
 20
6.2696770924
 30
0.0
 10
11.7741142258
 20
6.266451958
 30
0.0
 10
11.7469324796
 20
6.2636971329
 30
0.0
 10
11.719089182
 20
6.2614253426
 30
0.0
 10
11.6907128957
 20
6.259647293
 30
0.0
 10
11.6619346625
 20
6.2583713529
 30
0.0
 10
11.6328874167
 20
6.2576033315
 30
0.0
 10
11.6037053518
 20
6.2573468866
 30
0.0
 10
11.5745232798
 20
6.257603296
 30
0.0
 10
11.545476014
 20
6.2583712137
 30
0.0
 10
11.516697744
 20
6.2596471135
 30
0.0
 10
11.4883213993
 20
6.2614251364
 30
0.0
 10
11.4604780276
 20
6.2636968235
 30
0.0
 10
11.4332962066
 20
6.2664516069
 30
0.0
 10
11.406901409
 20
6.2696767239
 30
0.0
 10
11.3814153879
 20
6.2733569283
 30
0.0
 10
11.3569556485
 20
6.2774750206
 30
0.0
 10
11.3336348986
 20
6.2820118529
 30
0.0
 10
11.311560252
 20
6.2869459729
 30
0.0
 10
11.2908333129
 20
6.2922542855
 30
0.0
 10
11.2744906424
 20
6.2970486475
 30
0.0
 10
11.2621753032
 20
6.3010694894
 30
0.0
 10
11.2534943792
 20
6.3041107721
 30
0.0
 10
11.2452178902
 20
6.307226376
 30
0.0
 10
11.2373552501
 20
6.3104127228
 30
0.0
 10
11.2299156633
 20
6.3136663338
 30
0.0
 10
11.2251324562
 20
6.3159302035
 30
0.0
 10
11.2228154642
 20
6.3170747636
 30
0.0
  0
SPLINE
  5
345
100
AcDbEntity
  8
0
100
AcDbSpline
 62
7
  6
CONTINUOUS
 70
0
 71
3
 72
9
 73
5
 74
0
 42
0.0000001
 43
0.0000001
 44
0.0000000001
 40
0.0
 40
0.0
 40
0.0
 40
0.0
 40
0.5132482879
 40
1.0
 40
1.0
 40
1.0
 40
1.0
 10
11.2795032991
 20
6.7274781907
 30
0.0
 10
11.2722885177
 20
6.7291318866
 30
0.0
 10
11.2582722734
 20
6.7325357461
 30
0.0
 10
11.2443609716
 20
6.7363484064
 30
0.0
 10
11.2376230716
 20
6.7383175774
 30
0.0
  0
SPLINE
  5
346
100
AcDbEntity
  8
0
100
AcDbSpline
 62
7
  6
CONTINUOUS
 70
0
 71
3
 72
17
 73
13
 74
0
 42
0.0000001
 43
0.0000001
 44
0.0000000001
 40
0.0
 40
0.0
 40
0.0
 40
0.0
 40
0.131593939
 40
0.2633887997
 40
0.3943193775
 40
0.5233296479
 40
0.64938366
 40
0.7714770019
 40
0.8307377895
 40
0.888652
 40
0.9451084391
 40
1.0
 40
1.0
 40
1.0
 40
1.0
 10
11.6509171416
 20
6.771663033
 30
0.0
 10
11.6376837352
 20
6.7712824107
 30
0.0
 10
11.6111863355
 20
6.7708439807
 30
0.0
 10
11.571513701
 20
6.7711407118
 30
0.0
 10
11.532119287
 20
6.7723870274
 30
0.0
 10
11.493344057
 20
6.7745718898
 30
0.0
 10
11.4555234611
 20
6.7776761
 30
0.0
 10
11.4247757681
 20
6.7810385203
 30
0.0
 10
11.4009098147
 20
6.7841823056
 30
0.0
 10
11.3836274525
 20
6.7867274356
 30
0.0
 10
11.3668218134
 20
6.7894775502
 30
0.0
 10
11.3557982106
 20
6.7914728815
 30
0.0
 10
11.3503733628
 20
6.7925058149
 30
0.0
  0
SPLINE
  5
347
100
AcDbEntity
  8
0
100
AcDbSpline
 62
7
  6
CONTINUOUS
 70
0
 71
3
 72
9
 73
5
 74
0
 42
0.0000001
 43
0.0000001
 44
0.0000000001
 40
0.0
 40
0.0
 40
0.0
 40
0.0
 40
0.5132482879
 40
1.0
 40
1.0
 40
1.0
 40
1.0
 10
11.2795032991
 20
6.3068789649
 30
0.0
 10
11.2722885177
 20
6.3085326609
 30
0.0
 10
11.2582722734
 20
6.3119365203
 30
0.0
 10
11.2443609716
 20
6.3157491807
 30
0.0
 10
11.2376230716
 20
6.3177183517
 30
0.0
  0
SPLINE
  5
348
100
AcDbEntity
  8
0
100
AcDbSpline
 62
7
  6
CONTINUOUS
 70
0
 71
3
 72
11
 73
7
 74
0
 42
0.0000001
 43
0.0000001
 44
0.0000000001
 40
0.0
 40
0.0
 40
0.0
 40
0.0
 40
0.2432253995
 40
0.4912799274
 40
0.7437055985
 40
1.0
 40
1.0
 40
1.0
 40
1.0
 10
11.8360239493
 20
6.7590337364
 30
0.0
 10
11.8293071172
 20
6.7550779632
 30
0.0
 10
11.8159788569
 20
6.7466771342
 30
0.0
 10
11.7964969748
 20
6.7329302399
 30
0.0
 10
11.7773259526
 20
6.7180620183
 30
0.0
 10
11.7648389603
 20
6.7075726289
 30
0.0
 10
11.7586387166
 20
6.7021850197
 30
0.0
  0
SPLINE
  5
349
100
AcDbEntity
  8
0
100
AcDbSpline
 62
7
  6
CONTINUOUS
 70
0
 71
3
 72
21
 73
17
 74
0
 42
0.0000001
 43
0.0000001
 44
0.0000000001
 40
0.0
 40
0.0
 40
0.0
 40
0.0
 40
0.1230814817
 40
0.1847942657
 40
0.2466337258
 40
0.3086097846
 40
0.3707312098
 40
0.4330051319
 40
0.4954352436
 40
0.5580223626
 40
0.6207641208
 40
0.6836547008
 40
0.7466862848
 40
0.8098488395
 40
0.8731308835
 40
1.0
 40
1.0
 40
1.0
 40
1.0
 10
11.701429278
 20
6.2776182989
 30
0.0
 10
11.6841766374
 20
6.2743659155
 30
0.0
 10
11.6581454998
 20
6.270115197
 30
0.0
 10
11.6232089096
 20
6.2659478476
 30
0.0
 10
11.596842212
 20
6.2636258012
 30
0.0
 10
11.5703551452
 20
6.2621661011
 30
0.0
 10
11.5437710861
 20
6.2616159593
 30
0.0
 10
11.5171192218
 20
6.2620123909
 30
0.0
 10
11.4904327289
 20
6.2633773786
 30
0.0
 10
11.4637469571
 20
6.2657162021
 30
0.0
 10
11.437097254
 20
6.2690184914
 30
0.0
 10
11.4105165899
 20
6.2732575111
 30
0.0
 10
11.3840337466
 20
6.2783921523
 30
0.0
 10
11.3576718692
 20
6.2843719002
 30
0.0
 10
11.3226811947
 20
6.2934010198
 30
0.0
 10
11.2967027362
 20
6.3012510411
 30
0.0
 10
11.2795032991
 20
6.3068789649
 30
0.0
  0
SPLINE
  5
34A
100
AcDbEntity
  8
0
100
AcDbSpline
 62
7
  6
CONTINUOUS
 70
0
 71
3
 72
28
 73
24
 74
0
 42
0.0000001
 43
0.0000001
 44
0.0000000001
 40
0.0
 40
0.0
 40
0.0
 40
0.0
 40
0.0640274484
 40
0.1279405369
 40
0.1917105404
 40
0.2553123355
 40
0.3187161223
 40
0.3818930725
 40
0.4133919091
 40
0.4448254452
 40
0.4761912782
 40
0.5074882562
 40
0.5387156619
 40
0.5698732312
 40
0.6009621492
 40
0.6319833386
 40
0.6938248821
 40
0.7554274775
 40
0.8168179251
 40
0.8780243018
 40
0.9085700262
 40
0.9390802882
 40
1.0
 40
1.0
 40
1.0
 40
1.0
 10
11.701429278
 20
6.6982175246
 30
0.0
 10
11.6931284273
 20
6.7025006483
 30
0.0
 10
11.6763973676
 20
6.7107840356
 30
0.0
 10
11.6508782013
 20
6.722246022
 30
0.0
 10
11.624954423
 20
6.7326002844
 30
0.0
 10
11.5986412479
 20
6.7417023404
 30
0.0
 10
11.5719734182
 20
6.7494058148
 30
0.0
 10
11.5494779861
 20
6.7545500467
 30
0.0
 10
11.531373914
 20
6.7578371021
 30
0.0
 10
11.5177666586
 20
6.7598758288
 30
0.0
 10
11.504131331
 20
6.761482506
 30
0.0
 10
11.4904814799
 20
6.7626495829
 30
0.0
 10
11.4768315465
 20
6.7633767327
 30
0.0
 10
11.4631956391
 20
6.7636622651
 30
0.0
 10
11.4495875897
 20
6.7635117916
 30
0.0
 10
11.4315187653
 20
6.762738516
 30
0.0
 10
11.4090592758
 20
6.7607231122
 30
0.0
 10
11.382378319
 20
6.7567220057
 30
0.0
 10
11.3560519573
 20
6.7512712914
 30
0.0
 10
11.3344234847
 20
6.7456354665
 30
0.0
 10
11.3173278898
 20
6.7405441084
 30
0.0
 10
11.3003873686
 20
6.7350938803
 30
0.0
 10
11.2878185241
 20
6.7306154057
 30
0.0
 10
11.2795032991
 20
6.7274781907
 30
0.0
  0
SPLINE
  5
34B
100
AcDbEntity
  8
0
100
AcDbSpline
 62
7
  6
CONTINUOUS
 70
0
 71
3
 72
13
 73
9
 74
0
 42
0.0000001
 43
0.0000001
 44
0.0000000001
 40
0.0
 40
0.0
 40
0.0
 40
0.0
 40
0.2392401476
 40
0.3604630295
 40
0.4832816768
 40
0.6081576999
 40
0.7355839368
 40
1.0
 40
1.0
 40
1.0
 40
1.0
 10
11.2376230716
 20
6.3177183517
 30
0.0
 10
11.2350510601
 20
6.3177275038
 30
0.0
 10
11.2311718337
 20
6.3179463957
 30
0.0
 10
11.2260254741
 20
6.3186752135
 30
0.0
 10
11.2221347149
 20
6.3194569521
 30
0.0
 10
11.2182316966
 20
6.3204816833
 30
0.0
 10
11.2129484779
 20
6.3222058881
 30
0.0
 10
11.2090640815
 20
6.3238676069
 30
0.0
 10
11.206515405
 20
6.3251266269
 30
0.0
  0
SPLINE
  5
34C
100
AcDbEntity
  8
0
100
AcDbSpline
 62
7
  6
CONTINUOUS
 70
0
 71
3
 72
14
 73
10
 74
0
 42
0.0000001
 43
0.0000001
 44
0.0000000001
 40
0.0
 40
0.0
 40
0.0
 40
0.0
 40
0.2696294493
 40
0.4000826278
 40
0.5273422312
 40
0.6511852899
 40
0.7713928731
 40
0.8877388029
 40
1.0
 40
1.0
 40
1.0
 40
1.0
 10
11.2376230716
 20
6.7383175774
 30
0.0
 10
11.2353828618
 20
6.7442155809
 30
0.0
 10
11.2319718618
 20
6.7529348182
 30
0.0
 10
11.2272606745
 20
6.7643397509
 30
0.0
 10
11.2237380573
 20
6.7725439083
 30
0.0
 10
11.2201874299
 20
6.7804740638
 30
0.0
 10
11.2166091507
 20
6.78811078
 30
0.0
 10
11.2130041011
 20
6.7954340503
 30
0.0
 10
11.2105379331
 20
6.8001815081
 30
0.0
 10
11.2092980831
 20
6.8024973189
 30
0.0
  0
SPLINE
  5
34D
100
AcDbEntity
  8
0
100
AcDbSpline
 62
7
  6
CONTINUOUS
 70
0
 71
3
 72
15
 73
11
 74
0
 42
0.0000001
 43
0.0000001
 44
0.0000000001
 40
0.0
 40
0.0
 40
0.0
 40
0.0
 40
0.1319943798
 40
0.2615530082
 40
0.3887795478
 40
0.5138991626
 40
0.6372282088
 40
0.759125931
 40
0.8799459217
 40
1.0
 40
1.0
 40
1.0
 40
1.0
 10
11.9843023616
 20
6.3176636997
 30
0.0
 10
11.9749803544
 20
6.3136014175
 30
0.0
 10
11.9562794724
 20
6.3060622345
 30
0.0
 10
11.9278409127
 20
6.2966007939
 30
0.0
 10
11.8993449249
 20
6.2891874183
 30
0.0
 10
11.8708764255
 20
6.283848544
 30
0.0
 10
11.8425164758
 20
6.2805336715
 30
0.0
 10
11.8143322091
 20
6.2791257434
 30
0.0
 10
11.7863710472
 20
6.2794610795
 30
0.0
 10
11.7678474202
 20
6.2807254085
 30
0.0
 10
11.7586387166
 20
6.281585794
 30
0.0
  0
SPLINE
  5
34E
100
AcDbEntity
  8
0
100
AcDbSpline
 62
7
  6
CONTINUOUS
 70
0
 71
3
 72
86
 73
82
 74
0
 42
0.0000001
 43
0.0000001
 44
0.0000000001
 40
0.0
 40
0.0
 40
0.0
 40
0.0
 40
0.0039801735
 40
0.0081241171
 40
0.0124359931
 40
0.016919361
 40
0.0215772361
 40
0.0264119817
 40
0.0314252561
 40
0.0366182449
 40
0.0419916453
 40
0.0475457694
 40
0.0532805541
 40
0.0591955582
 40
0.0652900785
 40
0.0715630739
 40
0.0846387684
 40
0.0984101018
 40
0.112860694
 40
0.1279712428
 40
0.1437198619
 40
0.1600823544
 40
0.1770324406
 40
0.1945419645
 40
0.2125810668
 40
0.2311183398
 40
0.2501209668
 40
0.2695548486
 40
0.289384725
 40
0.3095742955
 40
0.3300863312
 40
0.3508827821
 40
0.3719248818
 40
0.3931732491
 40
0.4145879914
 40
0.4577543474
 40
0.501099203
 40
0.5442952951
 40
0.5657359749
 40
0.587017582
 40
0.6081001434
 40
0.6289441761
 40
0.6495107926
 40
0.6697618048
 40
0.6896598276
 40
0.709168385
 40
0.7282520204
 40
0.7468764117
 40
0.7650084972
 40
0.7826166038
 40
0.7996705814
 40
0.8161419537
 40
0.8320040874
 40
0.8472323859
 40
0.8618045214
 40
0.8757007003
 40
0.8889039845
 40
0.9014006969
 40
0.9073810972
 40
0.9131815075
 40
0.9188013673
 40
0.9242405009
 40
0.9294990443
 40
0.9345775709
 40
0.9394770909
 40
0.9441990928
 40
0.9487456636
 40
0.9531194621
 40
0.9573238984
 40
0.9613631411
 40
0.9652422549
 40
0.9689673208
 40
0.9725454977
 40
0.9759852252
 40
0.9824864215
 40
0.9855752926
 40
0.9885737717
 40
0.9914977072
 40
0.9943643167
 40
0.9971920017
 40
1.0
 40
1.0
 40
1.0
 40
1.0
 10
11.211537751
 20
10.471162682
 30
0.0
 10
11.2105474736
 20
10.4702061474
 30
0.0
 10
11.2084812003
 20
10.4682998394
 30
0.0
 10
11.2052005885
 20
10.4655155259
 30
0.0
 10
11.2016790656
 20
10.4627511735
 30
0.0
 10
11.1979185647
 20
10.4600082714
 30
0.0
 10
11.1939209324
 20
10.4572880874
 30
0.0
 10
11.1896881134
 20
10.4545919586
 30
0.0
 10
11.1852222295
 20
10.4519211587
 30
0.0
 10
11.180525494
 20
10.4492770777
 30
0.0
 10
11.1756002762
 20
10.4466610006
 30
0.0
 10
11.1704490351
 20
10.4440742448
 30
0.0
 10
11.1650743467
 20
10.4415181195
 30
0.0
 10
11.1594789212
 20
10.4389938803
 30
0.0
 10
11.1536655501
 20
10.4365028261
 30
0.0
 10
11.1455146947
 20
10.4331813251
 30
0.0
 10
11.1347956366
 20
10.4291304342
 30
0.0
 10
11.1212841448
 20
10.4244860288
 30
0.0
 10
11.1069790132
 20
10.4200028835
 30
0.0
 10
11.0919090826
 20
10.4156901105
 30
0.0
 10
11.0761046041
 20
10.4115564893
 30
0.0
 10
11.0595974146
 20
10.4076104399
 30
0.0
 10
11.0424207938
 20
10.403859998
 30
0.0
 10
11.0246094063
 20
10.4003128028
 30
0.0
 10
11.0061992181
 20
10.3969760794
 30
0.0
 10
10.9872274216
 20
10.3938566235
 30
0.0
 10
10.9677323582
 20
10.3909607883
 30
0.0
 10
10.9477534403
 20
10.3882944699
 30
0.0
 10
10.9273310698
 20
10.3858630918
 30
0.0
 10
10.9065065521
 20
10.3836716003
 30
0.0
 10
10.8853220111
 20
10.3817244537
 30
0.0
 10
10.863820299
 20
10.3800256116
 30
0.0
 10
10.8420449266
 20
10.378578537
 30
0.0
 10
10.8200399142
 20
10.3773861495
 30
0.0
 10
10.790375773
 20
10.3761359649
 30
0.0
 10
10.7530495898
 20
10.3752278845
 30
0.0
 10
10.7081778065
 20
10.375180538
 30
0.0
 10
10.6708305327
 20
10.3760096928
 30
0.0
 10
10.6411330244
 20
10.3771968624
 30
0.0
 10
10.6190910254
 20
10.3783426507
 30
0.0
 10
10.5972705997
 20
10.3797436032
 30
0.0
 10
10.5757158599
 20
10.3813968972
 30
0.0
 10
10.5544704259
 20
10.3832991641
 30
0.0
 10
10.5335772742
 20
10.3854465342
 30
0.0
 10
10.5130786671
 20
10.3878346382
 30
0.0
 10
10.4930160638
 20
10.3904586175
 30
0.0
 10
10.4734300363
 20
10.3933131327
 30
0.0
 10
10.454360185
 20
10.3963923762
 30
0.0
 10
10.4358450539
 20
10.3996900779
 30
0.0
 10
10.4179220497
 20
10.4031995202
 30
0.0
 10
10.4006273658
 20
10.4069135545
 30
0.0
 10
10.3839959063
 20
10.410824615
 30
0.0
 10
10.3680612119
 20
10.4149247352
 30
0.0
 10
10.3528553769
 20
10.4192055672
 30
0.0
 10
10.3384089954
 20
10.4236583954
 30
0.0
 10
10.3247510057
 20
10.4282741661
 30
0.0
 10
10.311908908
 20
10.4330435086
 30
0.0
 10
10.3017648118
 20
10.4371965018
 30
0.0
 10
10.2940851939
 20
10.4405961683
 30
0.0
 10
10.2886298858
 20
10.4431408489
 30
0.0
 10
10.2833970669
 20
10.4457166238
 30
0.0
 10
10.2783893375
 20
10.4483221741
 30
0.0
 10
10.2736092216
 20
10.4509562287
 30
0.0
 10
10.2690591028
 20
10.453617455
 30
0.0
 10
10.2647412477
 20
10.4563045224
 30
0.0
 10
10.2606578263
 20
10.4590161372
 30
0.0
 10
10.256810843
 20
10.4617509169
 30
0.0
 10
10.2532022421
 20
10.464507586
 30
0.0
 10
10.249833791
 20
10.4672847751
 30
0.0
 10
10.2467071837
 20
10.4700811742
 30
0.0
 10
10.2438239816
 20
10.4728955093
 30
0.0
 10
10.241185675
 20
10.4757263444
 30
0.0
 10
10.2387934619
 20
10.4785727833
 30
0.0
 10
10.2359871131
 20
10.4823154727
 30
0.0
 10
10.2336041009
 20
10.4861590801
 30
0.0
 10
10.2317120612
 20
10.4900847392
 30
0.0
 10
10.2305689159
 20
10.492988067
 30
0.0
 10
10.229678662
 20
10.495898445
 30
0.0
 10
10.229042128
 20
10.4988144891
 30
0.0
 10
10.2286599064
 20
10.5017340934
 30
0.0
 10
10.2285748173
 20
10.5036846233
 30
0.0
 10
10.2285748129
 20
10.5046559584
 30
0.0
  0
SPLINE
  5
34F
100
AcDbEntity
  8
0
100
AcDbSpline
 62
7
  6
CONTINUOUS
 70
0
 71
3
 72
18
 73
14
 74
0
 42
0.0000001
 43
0.0000001
 44
0.0000000001
 40
0.0
 40
0.0
 40
0.0
 40
0.0
 40
0.150467608
 40
0.291710008
 40
0.4244359371
 40
0.549562455
 40
0.6682139939
 40
0.7255497488
 40
0.7817912909
 40
0.8371402503
 40
0.8918093826
 40
0.9460201179
 40
1.0
 40
1.0
 40
1.0
 40
1.0
 10
12.4488888253
 20
9.4455062439
 30
0.0
 10
12.4505568087
 20
9.4471173923
 30
0.0
 10
12.4538904073
 20
9.4501403213
 30
0.0
 10
12.4590524578
 20
9.4541688904
 30
0.0
 10
12.4642084452
 20
9.4575381825
 30
0.0
 10
12.4693530312
 20
9.4602426671
 30
0.0
 10
12.4736769992
 20
9.4619576157
 30
0.0
 10
12.4771100387
 20
9.4629765355
 30
0.0
 10
12.47964825
 20
9.4635638264
 30
0.0
 10
12.4821780405
 20
9.4639824037
 30
0.0
 10
12.4846987014
 20
9.4642321192
 30
0.0
 10
12.4872092302
 20
9.464312843
 30
0.0
 10
12.4888771533
 20
9.4642538505
 30
0.0
 10
12.4897071117
 20
9.4641962962
 30
0.0
  0
SPLINE
  5
350
100
AcDbEntity
  8
0
100
AcDbSpline
 62
7
  6
CONTINUOUS
 70
0
 71
3
 72
23
 73
19
 74
0
 42
0.0000001
 43
0.0000001
 44
0.0000000001
 40
0.0
 40
0.0
 40
0.0
 40
0.0
 40
0.0637775561
 40
0.1273446565
 40
0.1907020307
 40
0.2538561431
 40
0.3168131834
 40
0.3795821015
 40
0.4421733894
 40
0.5045993415
 40
0.5668738676
 40
0.6290123791
 40
0.6910316472
 40
0.7529496401
 40
0.8147853492
 40
0.8765585998
 40
0.9382898533
 40
1.0
 40
1.0
 40
1.0
 40
1.0
 10
11.2376485831
 20
7.6755313327
 30
0.0
 10
11.2376485831
 20
7.6691514771
 30
0.0
 10
11.2373432348
 20
7.6564106559
 30
0.0
 10
11.2359649462
 20
7.6373768931
 30
0.0
 10
11.2336701549
 20
7.6184940601
 30
0.0
 10
11.2304642448
 20
7.5998063668
 30
0.0
 10
11.2263544626
 20
7.5813566349
 30
0.0
 10
11.2213502886
 20
7.5631874789
 30
0.0
 10
11.215463192
 20
7.5453407678
 30
0.0
 10
11.2087067091
 20
7.5278576641
 30
0.0
 10
11.2010963856
 20
7.5107784863
 30
0.0
 10
11.1926497395
 20
7.4941426272
 30
0.0
 10
11.1833862241
 20
7.4779884638
 30
0.0
 10
11.1733271688
 20
7.4623532549
 30
0.0
 10
11.1624957855
 20
7.4472731055
 30
0.0
 10
11.1509169122
 20
7.4327826927
 30
0.0
 10
11.1386177124
 20
7.4189158923
 30
0.0
 10
11.1299552801
 20
7.4101068269
 30
0.0
 10
11.1255152826
 20
7.4058181295
 30
0.0
  0
SPLINE
  5
351
100
AcDbEntity
  8
0
100
AcDbSpline
 62
7
  6
CONTINUOUS
 70
0
 71
3
 72
21
 73
17
 74
0
 42
0.0000001
 43
0.0000001
 44
0.0000000001
 40
0.0
 40
0.0
 40
0.0
 40
0.0
 40
0.1273176366
 40
0.2537999756
 40
0.3167619475
 40
0.3795355041
 40
0.4421314991
 40
0.5045621439
 40
0.5668413432
 40
0.6289845283
 40
0.6910084528
 40
0.7529310935
 40
0.8147714495
 40
0.8765493365
 40
0.9382852194
 40
1.0
 40
1.0
 40
1.0
 40
1.0
 10
11.487340424
 20
9.982232838
 30
0.0
 10
11.487340424
 20
9.9769355881
 30
0.0
 10
11.4868347666
 20
9.9663690238
 30
0.0
 10
11.4849250625
 20
9.9533064674
 30
0.0
 10
11.4826425415
 20
9.9430600338
 30
0.0
 10
11.480561005
 20
9.9355022607
 30
0.0
 10
11.4781122174
 20
9.9280787767
 30
0.0
 10
11.4753017896
 20
9.9208064968
 30
0.0
 10
11.4721362222
 20
9.9137022349
 30
0.0
 10
11.4686227709
 20
9.9067823746
 30
0.0
 10
11.4647695176
 20
9.9000628903
 30
0.0
 10
11.460585371
 20
9.8935592583
 30
0.0
 10
11.4560799687
 20
9.8872865056
 30
0.0
 10
11.4512636214
 20
9.8812590737
 30
0.0
 10
11.4461476628
 20
9.8754910271
 30
0.0
 10
11.4425444596
 20
9.8718267871
 30
0.0
 10
11.4406976008
 20
9.8700428582
 30
0.0
  0
SPLINE
  5
352
100
AcDbEntity
  8
0
100
AcDbSpline
 62
7
  6
CONTINUOUS
 70
0
 71
3
 72
21
 73
17
 74
0
 42
0.0000001
 43
0.0000001
 44
0.0000000001
 40
0.0
 40
0.0
 40
0.0
 40
0.0
 40
0.1273176366
 40
0.2537999756
 40
0.3167619475
 40
0.3795355041
 40
0.4421314991
 40
0.5045621439
 40
0.5668413432
 40
0.6289845283
 40
0.6910084528
 40
0.7529310935
 40
0.8147714495
 40
0.8765493365
 40
0.9382852194
 40
1.0
 40
1.0
 40
1.0
 40
1.0
 10
10.5214145405
 20
7.1514423462
 30
0.0
 10
10.5214145405
 20
7.1461450962
 30
0.0
 10
10.5209088831
 20
7.135578532
 30
0.0
 10
10.518999179
 20
7.1225159756
 30
0.0
 10
10.516716658
 20
7.1122695419
 30
0.0
 10
10.5146351215
 20
7.1047117688
 30
0.0
 10
10.5121863339
 20
7.0972882849
 30
0.0
 10
10.5093759061
 20
7.090016005
 30
0.0
 10
10.5062103387
 20
7.0829117431
 30
0.0
 10
10.5026968873
 20
7.0759918827
 30
0.0
 10
10.4988436341
 20
7.0692723985
 30
0.0
 10
10.4946594875
 20
7.0627687665
 30
0.0
 10
10.4901540852
 20
7.0564960138
 30
0.0
 10
10.4853377379
 20
7.0504685819
 30
0.0
 10
10.4802217793
 20
7.0447005353
 30
0.0
 10
10.476618576
 20
7.0410362953
 30
0.0
 10
10.4747717172
 20
7.0392523664
 30
0.0
  0
SPLINE
  5
353
100
AcDbEntity
  8
0
100
AcDbSpline
 62
7
  6
CONTINUOUS
 70
0
 71
3
 72
39
 73
35
 74
0
 42
0.0000001
 43
0.0000001
 44
0.0000000001
 40
0.0
 40
0.0
 40
0.0
 40
0.0
 40
0.0325374677
 40
0.0647933111
 40
0.0967725205
 40
0.1284928196
 40
0.1599852433
 40
0.1912912154
 40
0.2224599711
 40
0.2535457274
 40
0.2846053564
 40
0.3156965281
 40
0.3468762948
 40
0.3781999538
 40
0.4097201782
 40
0.4414858526
 40
0.4735404185
 40
0.5059192742
 40
0.5386455008
 40
0.5717233323
 40
0.6051287478
 40
0.6387974463
 40
0.6726121875
 40
0.7063942112
 40
0.7399064726
 40
0.7728758801
 40
0.8050345157
 40
0.8361662266
 40
0.8661411753
 40
0.8949256556
 40
0.922570905
 40
0.9491913392
 40
0.9749418776
 40
1.0
 40
1.0
 40
1.0
 40
1.0
 10
10.7435404253
 20
7.8062594738
 30
0.0
 10
10.7435404253
 20
7.8019555086
 30
0.0
 10
10.7438934615
 20
7.7933803971
 30
0.0
 10
10.7454897858
 20
7.7806650404
 30
0.0
 10
10.748126235
 20
7.7682336924
 30
0.0
 10
10.7517643536
 20
7.7561638135
 30
0.0
 10
10.7563545394
 20
7.7445191698
 30
0.0
 10
10.7618399583
 20
7.7333505605
 30
0.0
 10
10.7681600994
 20
7.7226956709
 30
0.0
 10
10.7752539866
 20
7.7125803914
 30
0.0
 10
10.7830626492
 20
7.7030205391
 30
0.0
 10
10.7915308597
 20
7.6940238458
 30
0.0
 10
10.8006081652
 20
7.685591945
 30
0.0
 10
10.8102493229
 20
7.6777222154
 30
0.0
 10
10.820414226
 20
7.6704094355
 30
0.0
 10
10.8310673739
 20
7.6636472411
 30
0.0
 10
10.8421768652
 20
7.657429431
 30
0.0
 10
10.853712828
 20
7.6517511712
 30
0.0
 10
10.8656451162
 20
7.6466101455
 30
0.0
 10
10.8779400392
 20
7.6420076592
 30
0.0
 10
10.89055599
 20
7.6379495903
 30
0.0
 10
10.9034381603
 20
7.6344469744
 30
0.0
 10
10.9165132274
 20
7.6315158413
 30
0.0
 10
10.9296859205
 20
7.6291758942
 30
0.0
 10
10.9428401145
 20
7.6274478212
 30
0.0
 10
10.9558465601
 20
7.6263495871
 30
0.0
 10
10.9685765871
 20
7.6258930369
 30
0.0
 10
10.9809177443
 20
7.6260819741
 30
0.0
 10
10.9927855721
 20
7.6269126086
 30
0.0
 10
11.0041278828
 20
7.6283761664
 30
0.0
 10
11.0149214212
 20
7.6304621134
 30
0.0
 10
11.025164571
 20
7.6331612039
 30
0.0
 10
11.0348675598
 20
7.636466732
 30
0.0
 10
11.0410579761
 20
7.6391032216
 30
0.0
 10
11.0440545288
 20
7.6405200372
 30
0.0
  0
SPLINE
  5
354
100
AcDbEntity
  8
0
100
AcDbSpline
 62
7
  6
CONTINUOUS
 70
0
 71
3
 72
21
 73
17
 74
0
 42
0.0000001
 43
0.0000001
 44
0.0000000001
 40
0.0
 40
0.0
 40
0.0
 40
0.0
 40
0.1273176368
 40
0.2537999758
 40
0.3167619477
 40
0.3795355043
 40
0.4421314993
 40
0.504562144
 40
0.5668413432
 40
0.6289845282
 40
0.6910084527
 40
0.7529310934
 40
0.8147714494
 40
0.8765493364
 40
0.9382852193
 40
1.0
 40
1.0
 40
1.0
 40
1.0
 10
11.0682514979
 20
7.7309063034
 30
0.0
 10
11.0682514979
 20
7.7249160986
 30
0.0
 10
11.0676796932
 20
7.7129672788
 30
0.0
 10
11.0655201727
 20
7.6981959558
 30
0.0
 10
11.0629390654
 20
7.6866091443
 30
0.0
 10
11.0605852343
 20
7.678062708
 30
0.0
 10
11.0578161104
 20
7.6696681278
 30
0.0
 10
11.0546380386
 20
7.6614445314
 30
0.0
 10
11.0510583699
 20
7.6534109321
 30
0.0
 10
11.0470853091
 20
7.6455858567
 30
0.0
 10
11.0427279955
 20
7.6379873694
 30
0.0
 10
11.037996503
 20
7.6306329711
 30
0.0
 10
11.0329017299
 20
7.6235396543
 30
0.0
 10
11.027455336
 20
7.6167237498
 30
0.0
 10
11.0216701372
 20
7.610201162
 30
0.0
 10
11.0175955838
 20
7.6060575881
 30
0.0
 10
11.0155071296
 20
7.6040402964
 30
0.0
  0
SPLINE
  5
355
100
AcDbEntity
  8
0
100
AcDbSpline
 62
7
  6
CONTINUOUS
 70
0
 71
3
 72
39
 73
35
 74
0
 42
0.0000001
 43
0.0000001
 44
0.0000000001
 40
0.0
 40
0.0
 40
0.0
 40
0.0
 40
0.0307104587
 40
0.0615397722
 40
0.0924842772
 40
0.1235413793
 40
0.1547056773
 40
0.1859710588
 40
0.2173300343
 40
0.2487740599
 40
0.2802935932
 40
0.3118782207
 40
0.343516783
 40
0.3751975051
 40
0.4069081327
 40
0.4386360717
 40
0.4703685316
 40
0.5020926709
 40
0.5337957434
 40
0.5654652414
 40
0.5970890382
 40
0.6286555266
 40
0.6601537532
 40
0.6915735497
 40
0.7229056563
 40
0.7541418376
 40
0.7852749871
 40
0.8162992216
 40
0.8472099643
 40
0.8780040131
 40
0.9086795968
 40
0.9392364143
 40
0.9696756549
 40
1.0
 40
1.0
 40
1.0
 40
1.0
 10
11.0831722746
 20
7.6948186679
 30
0.0
 10
11.0831722746
 20
7.6992387084
 30
0.0
 10
11.0829239871
 20
7.7080978441
 30
0.0
 10
11.0818130395
 20
7.7213687821
 30
0.0
 10
11.0799662408
 20
7.7346081974
 30
0.0
 10
11.0773895619
 20
7.7477740532
 30
0.0
 10
11.0740909947
 20
7.7608254425
 30
0.0
 10
11.0700809422
 20
7.7737215069
 30
0.0
 10
11.0653719452
 20
7.7864219753
 30
0.0
 10
11.0599787546
 20
7.7988871626
 30
0.0
 10
11.0539182541
 20
7.8110781323
 30
0.0
 10
11.0472094064
 20
7.8229568045
 30
0.0
 10
11.039873193
 20
7.8344860759
 30
0.0
 10
11.0319325485
 20
7.845629934
 30
0.0
 10
11.0234122901
 20
7.8563535681
 30
0.0
 10
11.0143390402
 20
7.8666234767
 30
0.0
 10
11.0047411466
 20
7.8764075737
 30
0.0
 10
10.9946485999
 20
7.8856752949
 30
0.0
 10
10.98409293
 20
7.8943976843
 30
0.0
 10
10.9731071102
 20
7.9025474849
 30
0.0
 10
10.9617254549
 20
7.9100992229
 30
0.0
 10
10.9499835137
 20
7.9170292866
 30
0.0
 10
10.937917961
 20
7.9233159986
 30
0.0
 10
10.9255664856
 20
7.9289396894
 30
0.0
 10
10.9129676742
 20
7.9338827634
 30
0.0
 10
10.9001608868
 20
7.9381297433
 30
0.0
 10
10.8871861358
 20
7.941667321
 30
0.0
 10
10.874083962
 20
7.9444843979
 30
0.0
 10
10.8608953136
 20
7.9465721216
 30
0.0
 10
10.8476614023
 20
7.9479239098
 30
0.0
 10
10.8344236419
 20
7.9485354905
 30
0.0
 10
10.8212232733
 20
7.9484048829
 30
0.0
 10
10.8081021444
 20
7.9475325218
 30
0.0
 10
10.7994174938
 20
7.9464560472
 30
0.0
 10
10.7951033826
 20
7.945794964
 30
0.0
  0
SPLINE
  5
356
100
AcDbEntity
  8
0
100
AcDbSpline
 62
7
  6
CONTINUOUS
 70
0
 71
3
 72
23
 73
19
 74
0
 42
0.0000001
 43
0.0000001
 44
0.0000000001
 40
0.0
 40
0.0
 40
0.0
 40
0.0
 40
0.0612129118
 40
0.1226464442
 40
0.1842903314
 40
0.2461431154
 40
0.308195877
 40
0.3704388026
 40
0.4328603391
 40
0.4954469087
 40
0.5581833841
 40
0.6210531484
 40
0.6840382913
 40
0.7471197826
 40
0.8102776457
 40
0.8734911783
 40
0.9367391525
 40
1.0
 40
1.0
 40
1.0
 40
1.0
 10
11.0682514979
 20
7.7309063034
 30
0.0
 10
11.0682514979
 20
7.7341354192
 30
0.0
 10
11.0680845867
 20
7.7406064961
 30
0.0
 10
11.0673374859
 20
7.7503034731
 30
0.0
 10
11.066095008
 20
7.759983754
 30
0.0
 10
11.0643606447
 20
7.769621182
 30
0.0
 10
11.0621388901
 20
7.7791904733
 30
0.0
 10
11.0594357041
 20
7.7886662235
 30
0.0
 10
11.0562582758
 20
7.7980233654
 30
0.0
 10
11.0526150038
 20
7.8072371237
 30
0.0
 10
11.0485155476
 20
7.8162831043
 30
0.0
 10
11.0439707992
 20
7.8251373768
 30
0.0
 10
11.0389928014
 20
7.8337765076
 30
0.0
 10
11.0335947134
 20
7.8421776221
 30
0.0
 10
11.027790854
 20
7.8503184718
 30
0.0
 10
11.0215965514
 20
7.8581775798
 30
0.0
 10
11.0150284245
 20
7.8657339379
 30
0.0
 10
11.0104114222
 20
7.8705569036
 30
0.0
 10
11.0080465337
 20
7.8729114449
 30
0.0
  0
SPLINE
  5
357
100
AcDbEntity
  8
0
100
AcDbSpline
 62
7
  6
CONTINUOUS
 70
0
 71
3
 72
31
 73
27
 74
0
 42
0.0000001
 43
0.0000001
 44
0.0000000001
 40
0.0
 40
0.0
 40
0.0
 40
0.0
 40
0.0646616297
 40
0.1292165438
 40
0.1935927498
 40
0.2577242257
 40
0.3215531957
 40
0.3850321932
 40
0.448125883
 40
0.5108124901
 40
0.5420093056
 40
0.5731029264
 40
0.6040948344
 40
0.6349874487
 40
0.6657841305
 40
0.696489164
 40
0.7271077045
 40
0.7576457449
 40
0.7881100769
 40
0.8185082127
 40
0.8488483156
 40
0.8791391386
 40
0.9093899291
 40
0.9396103298
 40
0.9698102974
 40
1.0
 40
1.0
 40
1.0
 40
1.0
 10
11.0055378506
 20
7.8753674229
 30
0.0
 10
11.0010699178
 20
7.8796683719
 30
0.0
 10
10.991752225
 20
7.8878691966
 30
0.0
 10
10.9767544936
 20
7.8988553638
 30
0.0
 10
10.9608732737
 20
7.9084256612
 30
0.0
 10
10.9442548546
 20
7.9164911043
 30
0.0
 10
10.9270506361
 20
7.9229781303
 30
0.0
 10
10.9094174531
 20
7.9278268952
 30
0.0
 10
10.8915174935
 20
7.9309926925
 30
0.0
 10
10.8764859152
 20
7.9322057933
 30
0.0
 10
10.864496066
 20
7.9323087937
 30
0.0
 10
10.8555527807
 20
7.931954458
 30
0.0
 10
10.8466664356
 20
7.9311693289
 30
0.0
 10
10.8378571443
 20
7.9299551694
 30
0.0
 10
10.8291451642
 20
7.9283147585
 30
0.0
 10
10.8205504394
 20
7.926251866
 30
0.0
 10
10.8120926892
 20
7.9237711564
 30
0.0
 10
10.8037913066
 20
7.9208783052
 30
0.0
 10
10.7956653145
 20
7.9175799653
 30
0.0
 10
10.7877333613
 20
7.9138836508
 30
0.0
 10
10.7800136515
 20
7.909797812
 30
0.0
 10
10.7725238666
 20
7.9053318466
 30
0.0
 10
10.765281213
 20
7.9004959818
 30
0.0
 10
10.7583022703
 20
7.8953012182
 30
0.0
 10
10.7516032343
 20
7.8897597169
 30
0.0
 10
10.7473332828
 20
7.8858419493
 30
0.0
 10
10.7452506975
 20
7.8838303265
 30
0.0
  0
SPLINE
  5
358
100
AcDbEntity
  8
0
100
AcDbSpline
 62
7
  6
CONTINUOUS
 70
0
 71
3
 72
18
 73
14
 74
0
 42
0.0000001
 43
0.0000001
 44
0.0000000001
 40
0.0
 40
0.0
 40
0.0
 40
0.0
 40
0.0548621106
 40
0.1099281304
 40
0.165399556
 40
0.2214731722
 40
0.2783387379
 40
0.3361775111
 40
0.4554063056
 40
0.5804414047
 40
0.7123341351
 40
0.8519581983
 40
1.0
 40
1.0
 40
1.0
 40
1.0
 10
11.2285748055
 20
10.5046565932
 30
0.0
 10
11.2285748087
 20
10.5039504472
 30
0.0
 10
11.2285299962
 20
10.5025351251
 30
0.0
 10
11.2283285
 20
10.5004144421
 30
0.0
 10
11.2279927496
 20
10.4982949828
 30
0.0
 10
11.2275228719
 20
10.4961775206
 30
0.0
 10
11.2269190649
 20
10.4940625844
 30
0.0
 10
11.2259259143
 20
10.491218566
 30
0.0
 10
11.2243348972
 20
10.4876614636
 30
0.0
 10
11.2219132639
 20
10.4834605074
 30
0.0
 10
11.2189638313
 20
10.4792867368
 30
0.0
 10
11.2154910864
 20
10.4751443581
 30
0.0
 10
11.2129082823
 20
10.4724865137
 30
0.0
 10
11.211537751
 20
10.471162682
 30
0.0
  0
SPLINE
  5
359
100
AcDbEntity
  8
0
100
AcDbSpline
 62
7
  6
CONTINUOUS
 70
0
 71
3
 72
39
 73
35
 74
0
 42
0.0000001
 43
0.0000001
 44
0.0000000001
 40
0.0
 40
0.0
 40
0.0
 40
0.0
 40
0.0299424701
 40
0.0599093174
 40
0.0899243244
 40
0.1200101043
 40
0.1501875649
 40
0.1804754189
 40
0.2108897652
 40
0.2414437446
 40
0.2721472716
 40
0.303006856
 40
0.3340255105
 40
0.3652027321
 40
0.396534568
 40
0.4280137546
 40
0.459629913
 40
0.4913698074
 40
0.5232176551
 40
0.555155472
 40
0.5871634555
 40
0.6192203971
 40
0.6513041118
 40
0.6833918814
 40
0.7154609078
 40
0.747488765
 40
0.7794538478
 40
0.811335806
 40
0.8431159644
 40
0.874777716
 40
0.9063068848
 40
0.9376920706
 40
0.9689246614
 40
1.0
 40
1.0
 40
1.0
 40
1.0
 10
10.550961178
 20
8.00064294
 30
0.0
 10
10.5578210071
 20
8.0072690094
 30
0.0
 10
10.5720800872
 20
8.019986375
 30
0.0
 10
10.5949253462
 20
8.0373115237
 30
0.0
 10
10.6191104677
 20
8.0527990784
 30
0.0
 10
10.6445003139
 20
8.0663621679
 30
0.0
 10
10.670955316
 20
8.0779266488
 30
0.0
 10
10.6983294518
 20
8.0874289893
 30
0.0
 10
10.7264718755
 20
8.0948172078
 30
0.0
 10
10.7552275537
 20
8.1000509202
 30
0.0
 10
10.7844381535
 20
8.1031017306
 30
0.0
 10
10.8139429372
 20
8.1039532548
 30
0.0
 10
10.8435796374
 20
8.1026011435
 30
0.0
 10
10.8731853408
 20
8.0990532232
 30
0.0
 10
10.9025973883
 20
8.093329363
 30
0.0
 10
10.9316542356
 20
8.0854612853
 30
0.0
 10
10.9601963503
 20
8.0754925065
 30
0.0
 10
10.9880670801
 20
8.0634780478
 30
0.0
 10
11.0151134609
 20
8.0494840488
 30
0.0
 10
11.041187084
 20
8.0335875087
 30
0.0
 10
11.0661449099
 20
8.0158758511
 30
0.0
 10
11.0898499818
 20
7.9964463591
 30
0.0
 10
11.1121722165
 20
7.9754057288
 30
0.0
 10
11.1329891381
 20
7.9528694993
 30
0.0
 10
11.1521864581
 20
7.9289613396
 30
0.0
 10
11.1696587446
 20
7.9038124371
 30
0.0
 10
11.1853100498
 20
7.8775608124
 30
0.0
 10
11.1990543261
 20
7.8503504909
 30
0.0
 10
11.2108159358
 20
7.8223307824
 30
0.0
 10
11.2205301475
 20
7.7936554302
 30
0.0
 10
11.2281433789
 20
7.7644819698
 30
0.0
 10
11.2336134677
 20
7.7349700324
 30
0.0
 10
11.2369101898
 20
7.7052837841
 30
0.0
 10
11.2376485831
 20
7.6854295815
 30
0.0
 10
11.2376485831
 20
7.6755313327
 30
0.0
  0
SPLINE
  5
35A
100
AcDbEntity
  8
0
100
AcDbSpline
 62
7
  6
CONTINUOUS
 70
0
 71
3
 72
16
 73
12
 74
0
 42
0.0000001
 43
0.0000001
 44
0.0000000001
 40
0.0
 40
0.0
 40
0.0
 40
0.0
 40
0.1263874628
 40
0.2526341353
 40
0.3786314113
 40
0.5042486628
 40
0.6293391799
 40
0.7537505595
 40
0.8156671756
 40
0.8773612465
 40
1.0
 40
1.0
 40
1.0
 40
1.0
 10
10.7765731644
 20
7.9077206522
 30
0.0
 10
10.7740048919
 20
7.9039502212
 30
0.0
 10
10.7691124607
 20
7.8962456541
 30
0.0
 10
10.7625669941
 20
7.8842365966
 30
0.0
 10
10.7568794947
 20
7.8718272915
 30
0.0
 10
10.7521142264
 20
7.8590791129
 30
0.0
 10
10.7483316647
 20
7.8460646736
 30
0.0
 10
10.7460390614
 20
7.8350470812
 30
0.0
 10
10.7447465166
 20
7.8261860815
 30
0.0
 10
10.7438224244
 20
7.8173439991
 30
0.0
 10
10.7435404253
 20
7.8106861978
 30
0.0
 10
10.7435404253
 20
7.8062594738
 30
0.0
  0
SPLINE
  5
35B
100
AcDbEntity
  8
0
100
AcDbSpline
 62
7
  6
CONTINUOUS
 70
0
 71
3
 72
42
 73
38
 74
0
 42
0.0000001
 43
0.0000001
 44
0.0000000001
 40
0.0
 40
0.0
 40
0.0
 40
0.0
 40
0.0299419663
 40
0.0449235352
 40
0.0599142051
 40
0.0899287052
 40
0.1200139767
 40
0.135092661
 40
0.150196701
 40
0.1804840414
 40
0.210897872
 40
0.2414513324
 40
0.2721543376
 40
0.3030133986
 40
0.3340315263
 40
0.3652082187
 40
0.3965395244
 40
0.4280181782
 40
0.4596338019
 40
0.4913731609
 40
0.5232204716
 40
0.55515775
 40
0.5871651943
 40
0.6192215961
 40
0.6513047701
 40
0.6833919991
 40
0.7154604852
 40
0.7474878032
 40
0.7794523473
 40
0.8113337692
 40
0.8431133916
 40
0.8747746171
 40
0.9063032365
 40
0.9376879249
 40
0.9533258257
 40
0.968925233
 40
1.0
 40
1.0
 40
1.0
 40
1.0
 10
11.2017047434
 20
10.1174664103
 30
0.0
 10
11.2045581661
 20
10.1202226054
 30
0.0
 10
11.209006475
 20
10.1241899127
 30
0.0
 10
11.2152362624
 20
10.1291124518
 30
0.0
 10
11.2216644239
 20
10.1337900586
 30
0.0
 10
11.2300521325
 20
10.1391614602
 30
0.0
 10
11.2388476667
 20
10.1438598753
 30
0.0
 10
11.2461016882
 20
10.1472023753
 30
0.0
 10
11.2535055842
 20
10.150268893
 30
0.0
 10
11.263004428
 20
10.1535663195
 30
0.0
 10
11.2747103278
 20
10.1566394321
 30
0.0
 10
11.2866716543
 20
10.1588165163
 30
0.0
 10
11.2988221226
 20
10.1600855534
 30
0.0
 10
11.3110949867
 20
10.160439773
 30
0.0
 10
11.3234227178
 20
10.1598773715
 30
0.0
 10
11.3357375596
 20
10.1584015976
 30
0.0
 10
11.3479718474
 20
10.1560207049
 30
0.0
 10
11.3600583884
 20
10.1527479065
 30
0.0
 10
11.3719308228
 20
10.1486012975
 30
0.0
 10
11.3835239837
 20
10.1436037521
 30
0.0
 10
11.3947742493
 20
10.1377827968
 30
0.0
 10
11.4056198879
 20
10.1311704594
 30
0.0
 10
11.4160013918
 20
10.1238030923
 30
0.0
 10
11.4258617998
 20
10.1157211738
 30
0.0
 10
11.4351470055
 20
10.1069690877
 30
0.0
 10
11.4438060516
 20
10.0975948815
 30
0.0
 10
11.451791406
 20
10.0876500054
 30
0.0
 10
11.4590592202
 20
10.0771890321
 30
0.0
 10
11.4655695682
 20
10.0662693639
 30
0.0
 10
11.4712866637
 20
10.0549509087
 30
0.0
 10
11.4761790549
 20
10.0432958021
 30
0.0
 10
11.4802198042
 20
10.0313678985
 30
0.0
 10
11.4833865929
 20
10.0192330624
 30
0.0
 10
11.4852851499
 20
10.0089899408
 30
0.0
 10
11.4863501874
 20
10.0007597235
 30
0.0
 10
11.4871102769
 20
9.9925373797
 30
0.0
 10
11.487340424
 20
9.9863501243
 30
0.0
 10
11.487340424
 20
9.982232838
 30
0.0
  0
SPLINE
  5
35C
100
AcDbEntity
  8
0
100
AcDbSpline
 62
7
  6
CONTINUOUS
 70
0
 71
3
 72
42
 73
38
 74
0
 42
0.0000001
 43
0.0000001
 44
0.0000000001
 40
0.0
 40
0.0
 40
0.0
 40
0.0
 40
0.0299419663
 40
0.0449235352
 40
0.0599142051
 40
0.0899287052
 40
0.1200139767
 40
0.135092661
 40
0.150196701
 40
0.1804840414
 40
0.210897872
 40
0.2414513324
 40
0.2721543376
 40
0.3030133986
 40
0.3340315263
 40
0.3652082187
 40
0.3965395244
 40
0.4280181782
 40
0.4596338019
 40
0.4913731609
 40
0.5232204716
 40
0.55515775
 40
0.5871651943
 40
0.6192215961
 40
0.6513047701
 40
0.6833919991
 40
0.7154604852
 40
0.7474878032
 40
0.7794523473
 40
0.8113337692
 40
0.8431133916
 40
0.8747746171
 40
0.9063032365
 40
0.9376879249
 40
0.9533258257
 40
0.968925233
 40
1.0
 40
1.0
 40
1.0
 40
1.0
 10
10.2357788599
 20
7.2866759185
 30
0.0
 10
10.2386322826
 20
7.2894321136
 30
0.0
 10
10.2430805915
 20
7.2933994209
 30
0.0
 10
10.2493103789
 20
7.29832196
 30
0.0
 10
10.2557385403
 20
7.3029995668
 30
0.0
 10
10.2641262489
 20
7.3083709684
 30
0.0
 10
10.2729217831
 20
7.3130693834
 30
0.0
 10
10.2801758046
 20
7.3164118835
 30
0.0
 10
10.2875797007
 20
7.3194784012
 30
0.0
 10
10.2970785445
 20
7.3227758277
 30
0.0
 10
10.3087844443
 20
7.3258489403
 30
0.0
 10
10.3207457707
 20
7.3280260245
 30
0.0
 10
10.3328962391
 20
7.3292950616
 30
0.0
 10
10.3451691031
 20
7.3296492812
 30
0.0
 10
10.3574968342
 20
7.3290868797
 30
0.0
 10
10.3698116761
 20
7.3276111058
 30
0.0
 10
10.3820459638
 20
7.325230213
 30
0.0
 10
10.3941325049
 20
7.3219574147
 30
0.0
 10
10.4060049393
 20
7.3178108057
 30
0.0
 10
10.4175981002
 20
7.3128132602
 30
0.0
 10
10.4288483658
 20
7.306992305
 30
0.0
 10
10.4396940044
 20
7.3003799676
 30
0.0
 10
10.4500755083
 20
7.2930126005
 30
0.0
 10
10.4599359162
 20
7.284930682
 30
0.0
 10
10.469221122
 20
7.2761785959
 30
0.0
 10
10.4778801681
 20
7.2668043897
 30
0.0
 10
10.4858655225
 20
7.2568595136
 30
0.0
 10
10.4931333367
 20
7.2463985403
 30
0.0
 10
10.4996436847
 20
7.2354788721
 30
0.0
 10
10.5053607802
 20
7.2241604169
 30
0.0
 10
10.5102531714
 20
7.2125053103
 30
0.0
 10
10.5142939207
 20
7.2005774067
 30
0.0
 10
10.5174607094
 20
7.1884425706
 30
0.0
 10
10.5193592663
 20
7.178199449
 30
0.0
 10
10.5204243039
 20
7.1699692317
 30
0.0
 10
10.5211843934
 20
7.1617468879
 30
0.0
 10
10.5214145405
 20
7.1555596325
 30
0.0
 10
10.5214145405
 20
7.1514423462
 30
0.0
  0
SPLINE
  5
35D
100
AcDbEntity
  8
0
100
AcDbSpline
 62
7
  6
CONTINUOUS
 70
0
 71
3
 72
91
 73
87
 74
0
 42
0.0000001
 43
0.0000001
 44
0.0000000001
 40
0.0
 40
0.0
 40
0.0
 40
0.0
 40
0.0027164146
 40
0.005453202
 40
0.008230252
 40
0.0110665198
 40
0.0139797053
 40
0.0169859824
 40
0.0200999174
 40
0.023334401
 40
0.0267007187
 40
0.0302086385
 40
0.0338665091
 40
0.0376814414
 40
0.0416593691
 40
0.0458052582
 40
0.0501231421
 40
0.0546162891
 40
0.0592872586
 40
0.064137982
 40
0.0691698666
 40
0.0743837897
 40
0.079780237
 40
0.0853592528
 40
0.0911205635
 40
0.0970635488
 40
0.1031872988
 40
0.1094906474
 40
0.1226297881
 40
0.1364673429
 40
0.1509860432
 40
0.166165828
 40
0.1819841602
 40
0.1984162836
 40
0.2154354412
 40
0.2330130641
 40
0.2511189358
 40
0.2697213391
 40
0.2887871904
 40
0.3082821639
 40
0.3281708096
 40
0.3484166635
 40
0.368982358
 40
0.3898297276
 40
0.4109199118
 40
0.4322134566
 40
0.4536704139
 40
0.4752504412
 40
0.4969128994
 40
0.5186169519
 40
0.5403216628
 40
0.5619860952
 40
0.5835694083
 40
0.6050309559
 40
0.6263303839
 40
0.6474277291
 40
0.6682835187
 40
0.688858872
 40
0.7091156002
 40
0.7290163102
 40
0.7485245085
 40
0.7676047097
 40
0.7862225487
 40
0.8043448976
 40
0.8219399925
 40
0.8389775679
 40
0.8554290014
 40
0.8712674776
 40
0.8864681732
 40
0.9010084737
 40
0.9148682315
 40
0.9280300795
 40
0.9343449284
 40
0.9404802779
 40
0.9464349254
 40
0.952207944
 40
0.9577987094
 40
0.9632068925
 40
0.9684325652
 40
0.9734761403
 40
0.9783384919
 40
0.9830209404
 40
0.9875254382
 40
0.9918545985
 40
0.9960115586
 40
1.0
 40
1.0
 40
1.0
 40
1.0
 10
12.4080705389
 20
8.2870236489
 30
0.0
 10
12.406969376
 20
8.2871000101
 30
0.0
 10
12.4047644293
 20
8.287352962
 30
0.0
 10
12.4014850736
 20
8.2880298647
 30
0.0
 10
12.3982305157
 20
8.2890041832
 30
0.0
 10
12.3950030385
 20
8.2902748804
 30
0.0
 10
12.39180436
 20
8.2918409382
 30
0.0
 10
12.3886360649
 20
8.2937010248
 30
0.0
 10
12.3854996615
 20
8.2958538979
 30
0.0
 10
12.3823965124
 20
8.2982981431
 30
0.0
 10
12.3793279663
 20
8.3010323493
 30
0.0
 10
12.3762953642
 20
8.3040550346
 30
0.0
 10
12.3732999886
 20
8.3073645901
 30
0.0
 10
12.370343227
 20
8.3109593804
 30
0.0
 10
12.367426353
 20
8.3148375689
 30
0.0
 10
12.3645507754
 20
8.3189972782
 30
0.0
 10
12.3617177958
 20
8.3234364314
 30
0.0
 10
12.3589287924
 20
8.3281528598
 30
0.0
 10
12.3561851068
 20
8.333144236
 30
0.0
 10
12.3534880553
 20
8.3384080899
 30
0.0
 10
12.3508390024
 20
8.3439418309
 30
0.0
 10
12.3482392037
 20
8.3497426992
 30
0.0
 10
12.3456900066
 20
8.3558078294
 30
0.0
 10
12.3431926307
 20
8.3621341892
 30
0.0
 10
12.3407483599
 20
8.3687186348
 30
0.0
 10
12.338358406
 20
8.3755578721
 30
0.0
 10
12.3360239441
 20
8.3826484942
 30
0.0
 10
12.3329442901
 20
8.3925707439
 30
0.0
 10
12.3292527672
 20
8.40558284
 30
0.0
 10
12.3251213148
 20
8.4219324878
 30
0.0
 10
12.3212375639
 20
8.4391935706
 30
0.0
 10
12.317609395
 20
8.4573314866
 30
0.0
 10
12.3142441925
 20
8.4763100131
 30
0.0
 10
12.3111488038
 20
8.4960911301
 30
0.0
 10
12.3083295286
 20
8.5166351827
 30
0.0
 10
12.3057921052
 20
8.537900949
 30
0.0
 10
12.3035416986
 20
8.5598457359
 30
0.0
 10
12.3015828903
 20
8.5824254678
 30
0.0
 10
12.2999196692
 20
8.605594779
 30
0.0
 10
12.298555424
 20
8.6293071073
 30
0.0
 10
12.2974929373
 20
8.6535147891
 30
0.0
 10
12.2967343782
 20
8.6781691566
 30
0.0
 10
12.2962812993
 20
8.7032206377
 30
0.0
 10
12.2961346355
 20
8.7286188575
 30
0.0
 10
12.2962947015
 20
8.7543127408
 30
0.0
 10
12.2967611921
 20
8.7802506153
 30
0.0
 10
12.2975331824
 20
8.8063803159
 30
0.0
 10
12.2986091307
 20
8.8326492897
 30
0.0
 10
12.2999868806
 20
8.8590047023
 30
0.0
 10
12.3016636645
 20
8.8853935445
 30
0.0
 10
12.3036361104
 20
8.91176274
 30
0.0
 10
12.3059002495
 20
8.9380592526
 30
0.0
 10
12.3084515238
 20
8.9642301929
 30
0.0
 10
12.3112847952
 20
8.990222925
 30
0.0
 10
12.3143943561
 20
9.0159851724
 30
0.0
 10
12.3177739406
 20
9.0414651239
 30
0.0
 10
12.3214167362
 20
9.0666115384
 30
0.0
 10
12.3253153966
 20
9.0913738502
 30
0.0
 10
12.3294620579
 20
9.1157022701
 30
0.0
 10
12.3338483544
 20
9.1395478868
 30
0.0
 10
12.3384654346
 20
9.1628627657
 30
0.0
 10
12.3433039794
 20
9.1856000466
 30
0.0
 10
12.3483542201
 20
9.2077140394
 30
0.0
 10
12.3536059585
 20
9.2291603189
 30
0.0
 10
12.3590485859
 20
9.2498958178
 30
0.0
 10
12.3646711042
 20
9.2698789183
 30
0.0
 10
12.3704621509
 20
9.289069537
 30
0.0
 10
12.3764100221
 20
9.3074292171
 30
0.0
 10
12.3825026979
 20
9.3249211918
 30
0.0
 10
12.3887278734
 20
9.3415105436
 30
0.0
 10
12.3950729791
 20
9.3571640237
 30
0.0
 10
12.400522403
 20
9.3695682987
 30
0.0
 10
12.4049400908
 20
9.3789920134
 30
0.0
 10
12.4082296005
 20
9.3857089188
 30
0.0
 10
12.4115394851
 20
9.3921693968
 30
0.0
 10
12.414868114
 20
9.3983702222
 30
0.0
 10
12.4182137904
 20
9.4043083076
 30
0.0
 10
12.4215748854
 20
9.4099806792
 30
0.0
 10
12.4249496775
 20
9.4153845369
 30
0.0
 10
12.4283365437
 20
9.4205171683
 30
0.0
 10
12.431733748
 20
9.4253760403
 30
0.0
 10
12.4351396488
 20
9.42995874
 30
0.0
 10
12.4385525993
 20
9.4342630308
 30
0.0
 10
12.4419709966
 20
9.4382868322
 30
0.0
 10
12.4453930423
 20
9.4420279613
 30
0.0
 10
12.4477231352
 20
9.4443802737
 30
0.0
 10
12.4488888253
 20
9.4455062439
 30
0.0
  0
SPLINE
  5
35E
100
AcDbEntity
  8
0
100
AcDbSpline
 62
7
  6
CONTINUOUS
 70
0
 71
3
 72
78
 73
74
 74
0
 42
0.0000001
 43
0.0000001
 44
0.0000000001
 40
0.0
 40
0.0
 40
0.0
 40
0.0
 40
0.0027966493
 40
0.0056682021
 40
0.0116913231
 40
0.0148721515
 40
0.0181792687
 40
0.0216219023
 40
0.0252079504
 40
0.0289441896
 40
0.032836314
 40
0.0368890703
 40
0.0411064178
 40
0.0454915166
 40
0.0500469073
 40
0.0547745577
 40
0.0596758685
 40
0.0647518381
 40
0.0700030116
 40
0.0810307655
 40
0.0927574002
 40
0.1051759979
 40
0.1182758382
 40
0.132042943
 40
0.1464605257
 40
0.1615093221
 40
0.1771678358
 40
0.193412564
 40
0.2102182129
 40
0.2275578587
 40
0.2454030706
 40
0.2637240415
 40
0.2824897301
 40
0.3016679683
 40
0.3212255498
 40
0.3411283305
 40
0.3613413433
 40
0.3818288877
 40
0.4234809086
 40
0.4657881558
 40
0.5084476299
 40
0.551153105
 40
0.5935979354
 40
0.6354778631
 40
0.656112597
 40
0.6764945252
 40
0.696587546
 40
0.7163562337
 40
0.7357659357
 40
0.7547828844
 40
0.7733742778
 40
0.7915083747
 40
0.80915461
 40
0.8262837295
 40
0.8428678905
 40
0.8588807896
 40
0.8742978235
 40
0.8890962884
 40
0.9032555546
 40
0.9167572978
 40
0.9295858042
 40
0.9417283685
 40
0.9531757164
 40
0.9586371621
 40
0.9639232487
 40
0.9690340572
 40
0.973970079
 40
0.9787321628
 40
0.9833216477
 40
0.9877404899
 40
0.9919911414
 40
0.9960764945
 40
1.0
 40
1.0
 40
1.0
 40
1.0
 10
12.3830383884
 20
8.475176805
 30
0.0
 10
12.3823091644
 20
8.4754346291
 30
0.0
 10
12.3808521546
 20
8.4760186224
 30
0.0
 10
12.3779514233
 20
8.4774528471
 30
0.0
 10
12.3751314093
 20
8.4792657197
 30
0.0
 10
12.3724092907
 20
8.4814037901
 30
0.0
 10
12.3703525093
 20
8.4832264337
 30
0.0
 10
12.3683193846
 20
8.485237618
 30
0.0
 10
12.3663104264
 20
8.4874364723
 30
0.0
 10
12.3643266142
 20
8.4898219217
 30
0.0
 10
12.3623687684
 20
8.4923928309
 30
0.0
 10
12.3604377348
 20
8.495147972
 30
0.0
 10
12.3585344238
 20
8.4980860809
 30
0.0
 10
12.3566596554
 20
8.5012057524
 30
0.0
 10
12.3548143063
 20
8.5045055319
 30
0.0
 10
12.3529992513
 20
8.5079838758
 30
0.0
 10
12.3512153016
 20
8.5116391259
 30
0.0
 10
12.3494633137
 20
8.5154695794
 30
0.0
 10
12.3471329534
 20
8.5208969392
 30
0.0
 10
12.3443147088
 20
8.5281140425
 30
0.0
 10
12.3411260722
 20
8.5373064045
 30
0.0
 10
12.3380838108
 20
8.5471495458
 30
0.0
 10
12.3351937589
 20
8.5576247704
 30
0.0
 10
12.3324614712
 20
8.5687123179
 30
0.0
 10
12.3298922265
 20
8.5803911381
 30
0.0
 10
12.3274910029
 20
8.5926390277
 30
0.0
 10
12.32526245
 20
8.6054326473
 30
0.0
 10
12.3232108771
 20
8.6187475828
 30
0.0
 10
12.3213402593
 20
8.6325584053
 30
0.0
 10
12.3196542278
 20
8.6468387243
 30
0.0
 10
12.3181560501
 20
8.6615612327
 30
0.0
 10
12.3168486219
 20
8.6766977632
 30
0.0
 10
12.3157344771
 20
8.6922193505
 30
0.0
 10
12.3148157823
 20
8.7080962885
 30
0.0
 10
12.3140943203
 20
8.7242981841
 30
0.0
 10
12.3135714909
 20
8.7407940069
 30
0.0
 10
12.3132482932
 20
8.7575521947
 30
0.0
 10
12.3130835879
 20
8.7803280411
 30
0.0
 10
12.3133859598
 20
8.8092157825
 30
0.0
 10
12.3145421494
 20
8.8442180359
 30
0.0
 10
12.3164851875
 20
8.8794772678
 30
0.0
 10
12.319200187
 20
8.9147236251
 30
0.0
 10
12.3226664152
 20
8.9496873519
 30
0.0
 10
12.326175645
 20
8.9785055407
 30
0.0
 10
12.3293438996
 20
9.0012124619
 30
0.0
 10
12.3318779614
 20
9.0179227448
 30
0.0
 10
12.334576599
 20
9.0343645588
 30
0.0
 10
12.3374346537
 20
9.0505064407
 30
0.0
 10
12.3404466337
 20
9.0663174767
 30
0.0
 10
12.3436067448
 20
9.081767403
 30
0.0
 10
12.3469089111
 20
9.0968266494
 30
0.0
 10
12.3503467868
 20
9.1114663954
 30
0.0
 10
12.353913766
 20
9.1256586317
 30
0.0
 10
12.3576029797
 20
9.1393762224
 30
0.0
 10
12.3614073285
 20
9.1525929509
 30
0.0
 10
12.3653194945
 20
9.1652835675
 30
0.0
 10
12.3693319566
 20
9.1774238489
 30
0.0
 10
12.3734369865
 20
9.1889906564
 30
0.0
 10
12.377626689
 20
9.199961983
 30
0.0
 10
12.3818930158
 20
9.2103169743
 30
0.0
 10
12.3862278009
 20
9.2200360619
 30
0.0
 10
12.3906227333
 20
9.2291007668
 30
0.0
 10
12.3943850331
 20
9.2362025619
 30
0.0
 10
12.3974244755
 20
9.2415360635
 30
0.0
 10
12.3996780561
 20
9.2452991318
 30
0.0
 10
12.4019404025
 20
9.2488862846
 30
0.0
 10
12.4042104197
 20
9.2522958398
 30
0.0
 10
12.4064870367
 20
9.2555261778
 30
0.0
 10
12.4087692246
 20
9.2585757783
 30
0.0
 10
12.4110559142
 20
9.2614432557
 30
0.0
 10
12.4133461082
 20
9.2641272415
 30
0.0
 10
12.4156385848
 20
9.2666263484
 30
0.0
 10
12.417198725
 20
9.2681996681
 30
0.0
 10
12.4179791963
 20
9.2689535455
 30
0.0
  0
SPLINE
  5
35F
100
AcDbEntity
  8
0
100
AcDbSpline
 62
7
  6
CONTINUOUS
 70
0
 71
3
 72
15
 73
11
 74
0
 42
0.0000001
 43
0.0000001
 44
0.0000000001
 40
0.0
 40
0.0
 40
0.0
 40
0.0
 40
0.108441033
 40
0.2203202389
 40
0.3363917414
 40
0.457322038
 40
0.5836915292
 40
0.7159988585
 40
0.8546582553
 40
1.0
 40
1.0
 40
1.0
 40
1.0
 10
12.4389434368
 20
9.2812996582
 30
0.0
 10
12.4380704427
 20
9.281121458
 30
0.0
 10
12.4363131047
 20
9.2806746184
 30
0.0
 10
12.4337025628
 20
9.2797569212
 30
0.0
 10
12.4310835459
 20
9.2785840453
 30
0.0
 10
12.4284579308
 20
9.2771571701
 30
0.0
 10
12.4258270371
 20
9.2754775029
 30
0.0
 10
12.4231922819
 20
9.273546272
 30
0.0
 10
12.4205552709
 20
9.2713649619
 30
0.0
 10
12.418838121
 20
9.2697832031
 30
0.0
 10
12.4179791963
 20
9.2689535455
 30
0.0
  0
SPLINE
  5
360
100
AcDbEntity
  8
0
100
AcDbSpline
 62
7
  6
CONTINUOUS
 70
0
 71
3
 72
15
 73
11
 74
0
 42
0.0000001
 43
0.0000001
 44
0.0000000001
 40
0.0
 40
0.0
 40
0.0
 40
0.0
 40
0.1132678961
 40
0.2308629458
 40
0.3523238203
 40
0.4771639147
 40
0.6048786999
 40
0.734947163
 40
0.8668355235
 40
1.0
 40
1.0
 40
1.0
 40
1.0
 10
10.8826305933
 20
7.8442790713
 30
0.0
 10
10.877740593
 20
7.8451833338
 30
0.0
 10
10.8677498113
 20
7.8468986785
 30
0.0
 10
10.8524467418
 20
7.8491624664
 30
0.0
 10
10.8365942412
 20
7.8511584084
 30
0.0
 10
10.8202626366
 20
7.8528775132
 30
0.0
 10
10.8035243238
 20
7.8543120754
 30
0.0
 10
10.7864535049
 20
7.8554556559
 30
0.0
 10
10.7691259659
 20
7.8563031273
 30
0.0
 10
10.7574940929
 20
7.8566669232
 30
0.0
 10
10.7516491443
 20
7.8567991489
 30
0.0
  0
SPLINE
  5
361
100
AcDbEntity
  8
0
100
AcDbSpline
 62
7
  6
CONTINUOUS
 70
0
 71
3
 72
85
 73
81
 74
0
 42
0.0000001
 43
0.0000001
 44
0.0000000001
 40
0.0
 40
0.0
 40
0.0
 40
0.0
 40
0.0040523015
 40
0.0082800489
 40
0.0126871091
 40
0.0172767088
 40
0.0220515382
 40
0.0270136769
 40
0.0321644652
 40
0.0375047407
 40
0.0430348848
 40
0.0487548409
 40
0.0546642381
 40
0.0607622928
 40
0.0735193811
 40
0.0870148027
 40
0.1012328019
 40
0.1161542559
 40
0.1317570782
 40
0.1480165551
 40
0.1649056363
 40
0.1823951659
 40
0.2004540778
 40
0.2190495565
 40
0.2381472068
 40
0.2577112073
 40
0.2777044432
 40
0.2980886303
 40
0.3188244294
 40
0.3398715782
 40
0.3611890083
 40
0.3827349565
 40
0.4263417812
 40
0.4703490114
 40
0.5144087942
 40
0.5581727434
 40
0.5798360128
 40
0.6012962287
 40
0.6225112594
 40
0.6434396051
 40
0.6640405056
 40
0.6842740525
 40
0.7041013073
 40
0.7234844345
 40
0.7423868195
 40
0.7607731934
 40
0.7786097701
 40
0.7958644037
 40
0.8125067657
 40
0.828508514
 40
0.8438435
 40
0.8584880145
 40
0.8724210992
 40
0.8856249155
 40
0.8980851854
 40
0.904033427
 40
0.909792385
 40
0.9153615468
 40
0.9207408324
 40
0.9259305068
 40
0.9309313327
 40
0.9357445819
 40
0.9403720585
 40
0.944816278
 40
0.9490804273
 40
0.9531685533
 40
0.9570856524
 40
0.9608377435
 40
0.9644321096
 40
0.9678773368
 40
0.9711835297
 40
0.9774235376
 40
0.9803901424
 40
0.983275319
 40
0.9860978022
 40
0.9888777378
 40
0.9916362827
 40
0.9943951391
 40
0.9971759967
 40
1.0
 40
1.0
 40
1.0
 40
1.0
 10
12.4179791963
 20
8.4865535798
 30
0.0
 10
12.4187990671
 20
8.4873455143
 30
0.0
 10
12.4204378667
 20
8.4890017421
 30
0.0
 10
12.4228434335
 20
8.4916391057
 30
0.0
 10
12.4252463385
 20
8.4944799048
 30
0.0
 10
12.4276452027
 20
8.4975225241
 30
0.0
 10
12.4300388741
 20
8.5007653868
 30
0.0
 10
12.4324261138
 20
8.5042068662
 30
0.0
 10
12.434805745
 20
8.5078451658
 30
0.0
 10
12.4371765
 20
8.5116783999
 30
0.0
 10
12.4395371283
 20
8.5157045685
 30
0.0
 10
12.4418864272
 20
8.5199215542
 30
0.0
 10
12.4442231445
 20
8.5243271777
 30
0.0
 10
12.4473677559
 20
8.5305435579
 30
0.0
 10
12.4512504595
 20
8.5387758983
 30
0.0
 10
12.4557729438
 20
8.5492250035
 30
0.0
 10
12.4602165322
 20
8.5603660157
 30
0.0
 10
12.4645718181
 20
8.5721755601
 30
0.0
 10
12.4688295824
 20
8.5846289691
 30
0.0
 10
12.4729808053
 20
8.5977001161
 30
0.0
 10
12.4770166864
 20
8.6113615552
 30
0.0
 10
12.4809286686
 20
8.6255845697
 30
0.0
 10
12.484708454
 20
8.6403392387
 30
0.0
 10
12.4883480347
 20
8.6555944977
 30
0.0
 10
12.491839702
 20
8.6713182115
 30
0.0
 10
12.4951760595
 20
8.6874772499
 30
0.0
 10
12.4983500404
 20
8.7040375593
 30
0.0
 10
12.5013549205
 20
8.7209642312
 30
0.0
 10
12.504184346
 20
8.7382215772
 30
0.0
 10
12.5068323257
 20
8.7557731986
 30
0.0
 10
12.5092932819
 20
8.7735821088
 30
0.0
 10
12.5123301713
 20
8.7977158569
 30
0.0
 10
12.51561818
 20
8.8282485046
 30
0.0
 10
12.5187314237
 20
8.865159746
 30
0.0
 10
12.5210013165
 20
8.9021767068
 30
0.0
 10
12.5221783256
 20
8.9329553317
 30
0.0
 10
12.5226793709
 20
8.9573916227
 30
0.0
 10
12.5228333439
 20
8.9754894917
 30
0.0
 10
12.5227665263
 20
8.9933811526
 30
0.0
 10
12.5224790588
 20
9.0110289018
 30
0.0
 10
12.5219715709
 20
9.0283955143
 30
0.0
 10
12.5212451513
 20
9.0454443688
 30
0.0
 10
12.5203013526
 20
9.0621395161
 30
0.0
 10
12.5191421988
 20
9.0784457619
 30
0.0
 10
12.5177701702
 20
9.0943287406
 30
0.0
 10
12.5161881988
 20
9.1097549853
 30
0.0
 10
12.5143996612
 20
9.1246919998
 30
0.0
 10
12.5124083742
 20
9.1391083352
 30
0.0
 10
12.5102185972
 20
9.152973663
 30
0.0
 10
12.5078350087
 20
9.1662588393
 30
0.0
 10
12.505262699
 20
9.1789359727
 30
0.0
 10
12.5025071524
 20
9.1909784728
 30
0.0
 10
12.4995742438
 20
9.202361199
 30
0.0
 10
12.4964702065
 20
9.2130602764
 30
0.0
 10
12.4937052878
 20
9.2215141222
 30
0.0
 10
12.491405362
 20
9.2279118428
 30
0.0
 10
12.4896684943
 20
9.2324510011
 30
0.0
 10
12.4878938526
 20
9.2368031855
 30
0.0
 10
12.4860823923
 20
9.2409661444
 30
0.0
 10
12.4842350242
 20
9.2449376955
 30
0.0
 10
12.4823527188
 20
9.2487157766
 30
0.0
 10
12.4804364672
 20
9.2522984365
 30
0.0
 10
12.4784872034
 20
9.2556837994
 30
0.0
 10
12.4765059693
 20
9.2588701416
 30
0.0
 10
12.4744937194
 20
9.2618558024
 30
0.0
 10
12.4724514505
 20
9.2646392438
 30
0.0
 10
12.47038019
 20
9.2672190436
 30
0.0
 10
12.4682808399
 20
9.2695938345
 30
0.0
 10
12.4661545275
 20
9.2717623437
 30
0.0
 10
12.464001855
 20
9.273723572
 30
0.0
 10
12.4611539125
 20
9.2760157737
 30
0.0
 10
12.4581974862
 20
9.2779524616
 30
0.0
 10
12.4551509072
 20
9.2794718694
 30
0.0
 10
12.4528829998
 20
9.2803800242
 30
0.0
 10
12.4505955925
 20
9.2810746697
 30
0.0
 10
12.448290031
 20
9.2815552502
 30
0.0
 10
12.4459679267
 20
9.2818211404
 30
0.0
 10
12.4436309026
 20
9.2818721664
 30
0.0
 10
12.441280863
 20
9.281708365
 30
0.0
 10
12.4397217632
 20
9.2814585343
 30
0.0
 10
12.4389434368
 20
9.2812996582
 30
0.0
  0
SPLINE
  5
362
100
AcDbEntity
  8
0
100
AcDbSpline
 62
7
  6
CONTINUOUS
 70
0
 71
3
 72
61
 73
57
 74
0
 42
0.0000001
 43
0.0000001
 44
0.0000000001
 40
0.0
 40
0.0
 40
0.0
 40
0.0
 40
0.0085500831
 40
0.0176518282
 40
0.0273119388
 40
0.0375330487
 40
0.0483143346
 40
0.0596520489
 40
0.0715399689
 40
0.0839696868
 40
0.0969308502
 40
0.110411427
 40
0.1243978625
 40
0.1388751847
 40
0.1538271778
 40
0.1692364905
 40
0.185084685
 40
0.2013523522
 40
0.2180192038
 40
0.2350641067
 40
0.252465154
 40
0.2701997535
 40
0.2882446631
 40
0.3065760341
 40
0.3439996166
 40
0.3822705894
 40
0.4211822648
 40
0.4605233554
 40
0.5000795412
 40
0.5396349815
 40
0.5789738425
 40
0.6178818121
 40
0.6561476434
 40
0.6935646733
 40
0.711892258
 40
0.729933038
 40
0.7476631939
 40
0.7650594851
 40
0.7820993091
 40
0.7987607922
 40
0.8150228167
 40
0.8308650777
 40
0.846268195
 40
0.8612137644
 40
0.8756844182
 40
0.889663959
 40
0.9031374659
 40
0.9160913786
 40
0.9285136711
 40
0.9403940542
 40
0.9517241379
 40
0.9624977005
 40
0.972711059
 40
0.9823634567
 40
0.9914575366
 40
1.0
 40
1.0
 40
1.0
 40
1.0
 10
11.1987740935
 20
10.4607658596
 30
0.0
 10
11.1965349526
 20
10.462368421
 30
0.0
 10
11.1918152467
 20
10.4655428414
 30
0.0
 10
11.1842798562
 20
10.4700853834
 30
0.0
 10
11.1760799268
 20
10.4745501083
 30
0.0
 10
11.1672273695
 20
10.4789304834
 30
0.0
 10
11.1577347002
 20
10.483220322
 30
0.0
 10
11.1476155588
 20
10.4874134243
 30
0.0
 10
11.1368845004
 20
10.4915036878
 30
0.0
 10
11.1255570338
 20
10.495485133
 30
0.0
 10
11.1136495826
 20
10.499351949
 30
0.0
 10
11.1011794368
 20
10.5030984592
 30
0.0
 10
11.0881647302
 20
10.5067191491
 30
0.0
 10
11.074624423
 20
10.5102087165
 30
0.0
 10
11.0605782533
 20
10.5135620339
 30
0.0
 10
11.0460467061
 20
10.5167741577
 30
0.0
 10
11.031050994
 20
10.519840377
 30
0.0
 10
11.0156130164
 20
10.5227561922
 30
0.0
 10
10.9997553195
 20
10.525517306
 30
0.0
 10
10.9835010737
 20
10.5281196623
 30
0.0
 10
10.9668740347
 20
10.5305594508
 30
0.0
 10
10.9498985094
 20
10.5328330748
 30
0.0
 10
10.9325992902
 20
10.534937208
 30
0.0
 10
10.9089736448
 20
10.537530336
 30
0.0
 10
10.8788186345
 20
10.5403177547
 30
0.0
 10
10.8419992796
 20
10.5429219378
 30
0.0
 10
10.8045170742
 20
10.54479238
 30
0.0
 10
10.7665911452
 20
10.5459180633
 30
0.0
 10
10.7284430592
 20
10.546292291
 30
0.0
 10
10.6902957426
 20
10.5459128603
 30
0.0
 10
10.652372119
 20
10.544782022
 30
0.0
 10
10.6148937405
 20
10.5429064594
 30
0.0
 10
10.5780797107
 20
10.5402972725
 30
0.0
 10
10.5479300886
 20
10.5375057149
 30
0.0
 10
10.5243094869
 20
10.5349093411
 30
0.0
 10
10.5070145658
 20
10.5328028366
 30
0.0
 10
10.4900436812
 20
10.5305269005
 30
0.0
 10
10.4734216215
 20
10.5280848504
 30
0.0
 10
10.4571726906
 20
10.5254802672
 30
0.0
 10
10.4413206301
 20
10.5227169893
 30
0.0
 10
10.4258886014
 20
10.5197990789
 30
0.0
 10
10.41089915
 20
10.5167308085
 30
0.0
 10
10.3963741609
 20
10.5135166972
 30
0.0
 10
10.3823348313
 20
10.5101614762
 30
0.0
 10
10.368801646
 20
10.5066700628
 30
0.0
 10
10.3557943321
 20
10.503047589
 30
0.0
 10
10.343331827
 20
10.4992993893
 30
0.0
 10
10.3314322622
 20
10.4954309576
 30
0.0
 10
10.3201129232
 20
10.4914479575
 30
0.0
 10
10.3093902049
 20
10.4873562374
 30
0.0
 10
10.2992796062
 20
10.4831617699
 30
0.0
 10
10.2897956885
 20
10.4788706266
 30
0.0
 10
10.2809520572
 20
10.4744890432
 30
0.0
 10
10.272761205
 20
10.4700232128
 30
0.0
 10
10.2652350834
 20
10.4654796302
 30
0.0
 10
10.260521763
 20
10.4623045236
 30
0.0
 10
10.2582858707
 20
10.460701641
 30
0.0
  0
SPLINE
  5
363
100
AcDbEntity
  8
0
100
AcDbSpline
 62
7
  6
CONTINUOUS
 70
0
 71
3
 72
46
 73
42
 74
0
 42
0.0000001
 43
0.0000001
 44
0.0000000001
 40
0.0
 40
0.0
 40
0.0
 40
0.0
 40
0.0112073763
 40
0.0228002203
 40
0.0347721982
 40
0.0471162545
 40
0.0598246425
 40
0.0728890297
 40
0.1000488613
 40
0.1285188471
 40
0.158213824
 40
0.1890420372
 40
0.2209059277
 40
0.2537028361
 40
0.2873256502
 40
0.321663413
 40
0.3566019035
 40
0.3920242006
 40
0.4278112336
 40
0.4638423255
 40
0.4999957306
 40
0.5361491696
 40
0.5721803632
 40
0.6079675654
 40
0.6433900987
 40
0.6783288914
 40
0.712667021
 40
0.7462902652
 40
0.7790876647
 40
0.8109521051
 40
0.8417809244
 40
0.8714765603
 40
0.8999472544
 40
0.9136966633
 40
0.9271084882
 40
0.9401732573
 40
0.9528820575
 40
0.9652265139
 40
0.9771989212
 40
0.9887921818
 40
1.0
 40
1.0
 40
1.0
 40
1.0
 10
11.0821199427
 20
10.4131999105
 30
0.0
 10
11.0796109365
 20
10.414134568
 30
0.0
 10
11.0744861981
 20
10.4159815736
 30
0.0
 10
11.0666170993
 20
10.4186447609
 30
0.0
 10
11.0584417341
 20
10.4212455707
 30
0.0
 10
11.0499675309
 20
10.4237816053
 30
0.0
 10
11.0412021236
 20
10.4262506079
 30
0.0
 10
11.0289786208
 20
10.4294921544
 30
0.0
 10
11.013024802
 20
10.4333488855
 30
0.0
 10
10.9930906609
 20
10.4376179105
 30
0.0
 10
10.9721988129
 20
10.4415700386
 30
0.0
 10
10.9504248584
 20
10.4451908105
 30
0.0
 10
10.9278474638
 20
10.4484669553
 30
0.0
 10
10.9045483137
 20
10.4513864799
 30
0.0
 10
10.8806117295
 20
10.4539387002
 30
0.0
 10
10.8561243756
 20
10.4561142811
 30
0.0
 10
10.8311749318
 20
10.457905268
 30
0.0
 10
10.8058537685
 20
10.459305115
 30
0.0
 10
10.7802526147
 20
10.4603087068
 30
0.0
 10
10.7544642221
 20
10.460912377
 30
0.0
 10
10.7285820258
 20
10.4611139203
 30
0.0
 10
10.7026998034
 20
10.4609126007
 30
0.0
 10
10.6769113327
 20
10.4603091537
 30
0.0
 10
10.651310049
 20
10.4593057836
 30
0.0
 10
10.6259887043
 20
10.4579061561
 30
0.0
 10
10.6010390282
 20
10.4561153855
 30
0.0
 10
10.5765513917
 20
10.4539400172
 30
0.0
 10
10.5526144767
 20
10.4513880045
 30
0.0
 10
10.5293149447
 20
10.4484686825
 30
0.0
 10
10.5067371325
 20
10.4451927322
 30
0.0
 10
10.4849626775
 20
10.4415721545
 30
0.0
 10
10.4640704201
 20
10.4376201883
 30
0.0
 10
10.4472686322
 20
10.4340223451
 30
0.0
 10
10.4343304642
 20
10.4309810142
 30
0.0
 10
10.4250063989
 20
10.4286528997
 30
0.0
 10
10.4159574196
 20
10.4262533039
 30
0.0
 10
10.4071916974
 20
10.4237844043
 30
0.0
 10
10.3987171649
 20
10.4212484266
 30
0.0
 10
10.3905414611
 20
10.4186477018
 30
0.0
 10
10.3826720188
 20
10.4159845691
 30
0.0
 10
10.3775470424
 20
10.4141376194
 30
0.0
 10
10.3750379159
 20
10.4132029822
 30
0.0
  0
SPLINE
  5
364
100
AcDbEntity
  8
0
100
AcDbSpline
 62
7
  6
CONTINUOUS
 70
0
 71
3
 72
51
 73
47
 74
0
 42
0.0000001
 43
0.0000001
 44
0.0000000001
 40
0.0
 40
0.0
 40
0.0
 40
0.0
 40
0.0103086877
 40
0.0210704676
 40
0.0322802399
 40
0.0439316924
 40
0.0560173473
 40
0.0685287966
 40
0.0814566261
 40
0.0947906743
 40
0.1085199221
 40
0.1226327001
 40
0.1371166329
 40
0.151958741
 40
0.1826621704
 40
0.2146289112
 40
0.2477367159
 40
0.2818568025
 40
0.3168547678
 40
0.3525914482
 40
0.3889237459
 40
0.4257054342
 40
0.462787949
 40
0.5000211717
 40
0.5372542078
 40
0.574336163
 40
0.6111169213
 40
0.6474479232
 40
0.6831829488
 40
0.7181789094
 40
0.7522966526
 40
0.7854017889
 40
0.8173655523
 40
0.8480657114
 40
0.8629060728
 40
0.8773882065
 40
0.8914991067
 40
0.9052264337
 40
0.9185584894
 40
0.931484287
 40
0.9439936479
 40
0.9560771722
 40
0.9677264599
 40
0.9789340216
 40
0.9896935771
 40
1.0
 40
1.0
 40
1.0
 40
1.0
 10
12.3355857871
 20
8.5565361948
 30
0.0
 10
12.3366418508
 20
8.5585543037
 30
0.0
 10
12.338741427
 20
8.5627102957
 30
0.0
 10
12.3417935794
 20
8.5691573751
 30
0.0
 10
12.3448134614
 20
8.5759456776
 30
0.0
 10
12.347797754
 20
8.5830678641
 30
0.0
 10
12.3507432762
 20
8.5905163006
 30
0.0
 10
12.353646792
 20
8.5982829827
 30
0.0
 10
12.356505206
 20
8.6063595445
 30
0.0
 10
12.3593153747
 20
8.6147372927
 30
0.0
 10
12.3620742926
 20
8.6234071923
 30
0.0
 10
12.3647789373
 20
8.6323598935
 30
0.0
 10
12.3674264112
 20
8.6415857447
 30
0.0
 10
12.3709156908
 20
8.6543825218
 30
0.0
 10
12.3751044868
 20
8.6709907853
 30
0.0
 10
12.3798043122
 20
8.691626368
 30
0.0
 10
12.3842119267
 20
8.7130974856
 30
0.0
 10
12.3883081588
 20
8.7353114169
 30
0.0
 10
12.3920751798
 20
8.7581723342
 30
0.0
 10
12.395496614
 20
8.7815815347
 30
0.0
 10
12.3985575977
 20
8.8054379324
 30
0.0
 10
12.4012448446
 20
8.829638486
 30
0.0
 10
12.403546701
 20
8.8540786543
 30
0.0
 10
12.4054531959
 20
8.8786528511
 30
0.0
 10
12.406956083
 20
8.9032549061
 30
0.0
 10
12.4080488777
 20
8.9277785271
 30
0.0
 10
12.4087268859
 20
8.9521177635
 30
0.0
 10
12.4089872236
 20
8.9761674687
 30
0.0
 10
12.4088288313
 20
8.9998237575
 30
0.0
 10
12.4082524816
 20
9.0229844646
 30
0.0
 10
12.4072607735
 20
9.0455495783
 30
0.0
 10
12.4058581423
 20
9.0674217345
 30
0.0
 10
12.4040507801
 20
9.0885064614
 30
0.0
 10
12.4021938115
 20
9.1055320778
 30
0.0
 10
12.4005037004
 20
9.1186863984
 30
0.0
 10
12.3991546119
 20
9.128188104
 30
0.0
 10
12.3977111869
 20
9.1374271168
 30
0.0
 10
12.3961749963
 20
9.1463934775
 30
0.0
 10
12.3945477103
 20
9.1550775113
 30
0.0
 10
12.3928310884
 20
9.1634698562
 30
0.0
 10
12.3910270228
 20
9.1715614694
 30
0.0
 10
12.3891374356
 20
9.1793436399
 30
0.0
 10
12.38716443
 20
9.186807995
 30
0.0
 10
12.3851100861
 20
9.1939465346
 30
0.0
 10
12.3829767085
 20
9.200751537
 30
0.0
 10
12.3814706407
 20
9.2051564226
 30
0.0
 10
12.3807031293
 20
9.2073004099
 30
0.0
  0
SPLINE
  5
365
100
AcDbEntity
  8
0
100
AcDbSpline
 62
7
  6
CONTINUOUS
 70
0
 71
3
 72
39
 73
35
 74
0
 42
0.0000001
 43
0.0000001
 44
0.0000000001
 40
0.0
 40
0.0
 40
0.0
 40
0.0
 40
0.0248516718
 40
0.0508785803
 40
0.0780238769
 40
0.1062259306
 40
0.1354188324
 40
0.1655328354
 40
0.19649475
 40
0.228228317
 40
0.2606545532
 40
0.2936920778
 40
0.327257428
 40
0.3612653661
 40
0.395629181
 40
0.4302609844
 40
0.4650720094
 40
0.4999729049
 40
0.5348740281
 40
0.5696857356
 40
0.6043186744
 40
0.6386840743
 40
0.6726940412
 40
0.7062618569
 40
0.7393022754
 40
0.7717318243
 40
0.8034691116
 40
0.8344351414
 40
0.8645536407
 40
0.8937514031
 40
0.9219586614
 40
0.9491094861
 40
0.9751422236
 40
1.0
 40
1.0
 40
1.0
 40
1.0
 10
12.3220776658
 20
8.6274016975
 30
0.0
 10
12.3235069931
 20
8.6314413818
 30
0.0
 10
12.3263186967
 20
8.6397526582
 30
0.0
 10
12.3303161962
 20
8.6525996425
 30
0.0
 10
12.3341830108
 20
8.6660885538
 30
0.0
 10
12.3379084452
 20
8.680182462
 30
0.0
 10
12.3414822418
 20
8.6948429183
 30
0.0
 10
12.3448945512
 20
8.7100298458
 30
0.0
 10
12.3481359787
 20
8.7257017172
 30
0.0
 10
12.3511976022
 20
8.7418156574
 30
0.0
 10
12.3540709979
 20
8.7583275702
 30
0.0
 10
12.3567482629
 20
8.7751922602
 30
0.0
 10
12.3592220365
 20
8.792363559
 30
0.0
 10
12.3614855197
 20
8.8097944524
 30
0.0
 10
12.3635324935
 20
8.8274372099
 30
0.0
 10
12.3653573374
 20
8.8452435167
 30
0.0
 10
12.3669550447
 20
8.8631646073
 30
0.0
 10
12.3683212341
 20
8.8811514007
 30
0.0
 10
12.3694521622
 20
8.8991546354
 30
0.0
 10
12.3703447334
 20
8.9171250045
 30
0.0
 10
12.3709965088
 20
8.9350132915
 30
0.0
 10
12.3714057129
 20
8.952770505
 30
0.0
 10
12.3715712387
 20
8.9703480147
 30
0.0
 10
12.3714926539
 20
8.9876976857
 30
0.0
 10
12.3711701993
 20
9.0047720116
 30
0.0
 10
12.370604789
 20
9.0215242457
 30
0.0
 10
12.3697980084
 20
9.0379085298
 30
0.0
 10
12.3687521102
 20
9.0538800218
 30
0.0
 10
12.3674700098
 20
9.0693950194
 30
0.0
 10
12.3659552762
 20
9.0844110892
 30
0.0
 10
12.3642121287
 20
9.0988871705
 30
0.0
 10
12.362245416
 20
9.1127837584
 30
0.0
 10
12.3600606311
 20
9.1260627919
 30
0.0
 10
12.3584238447
 20
9.1346848578
 30
0.0
 10
12.3575661931
 20
9.1388843198
 30
0.0
  0
SPLINE
  5
366
100
AcDbEntity
  8
0
100
AcDbSpline
 62
7
  6
CONTINUOUS
 70
0
 71
3
 72
20
 73
16
 74
0
 42
0.0000001
 43
0.0000001
 44
0.0000000001
 40
0.0
 40
0.0
 40
0.0
 40
0.0
 40
0.0620951696
 40
0.1242270087
 40
0.1864057831
 40
0.2486403237
 40
0.3109374284
 40
0.3733014627
 40
0.4357343007
 40
0.4982353142
 40
0.5608014826
 40
0.6234277209
 40
0.7488233057
 40
0.8743705703
 40
1.0
 40
1.0
 40
1.0
 40
1.0
 10
10.7479712201
 20
7.8434392833
 30
0.0
 10
10.7507118477
 20
7.8428190822
 30
0.0
 10
10.7562114432
 20
7.8416507506
 30
0.0
 10
10.7645093391
 20
7.8401287485
 30
0.0
 10
10.7728544949
 20
7.8388485181
 30
0.0
 10
10.7812419177
 20
7.8378194521
 30
0.0
 10
10.789665408
 20
7.8370480136
 30
0.0
 10
10.7981177042
 20
7.8365372381
 30
0.0
 10
10.8065909123
 20
7.8362865929
 30
0.0
 10
10.815076897
 20
7.8362920471
 30
0.0
 10
10.8235677848
 20
7.8365463857
 30
0.0
 10
10.8348895249
 20
7.837204125
 30
0.0
 10
10.849017624
 20
7.8385937804
 30
0.0
 10
10.8658847346
 20
7.8410537022
 30
0.0
 10
10.8770605504
 20
7.8431417215
 30
0.0
 10
10.8826305933
 20
7.8442790713
 30
0.0
  0
SPLINE
  5
367
100
AcDbEntity
  8
0
100
AcDbSpline
 62
7
  6
CONTINUOUS
 70
0
 71
3
 72
86
 73
82
 74
0
 42
0.0000001
 43
0.0000001
 44
0.0000000001
 40
0.0
 40
0.0
 40
0.0
 40
0.0
 40
0.0039801735
 40
0.0081241171
 40
0.0124359931
 40
0.016919361
 40
0.0215772361
 40
0.0264119817
 40
0.0314252561
 40
0.0366182449
 40
0.0419916453
 40
0.0475457694
 40
0.0532805541
 40
0.0591955582
 40
0.0652900785
 40
0.0715630739
 40
0.0846387684
 40
0.0984101018
 40
0.112860694
 40
0.1279712428
 40
0.1437198619
 40
0.1600823544
 40
0.1770324406
 40
0.1945419645
 40
0.2125810668
 40
0.2311183398
 40
0.2501209668
 40
0.2695548486
 40
0.289384725
 40
0.3095742955
 40
0.3300863312
 40
0.3508827821
 40
0.3719248818
 40
0.3931732491
 40
0.4145879914
 40
0.4577543474
 40
0.501099203
 40
0.5442952951
 40
0.5657359749
 40
0.587017582
 40
0.6081001434
 40
0.6289441761
 40
0.6495107926
 40
0.6697618048
 40
0.6896598276
 40
0.709168385
 40
0.7282520204
 40
0.7468764117
 40
0.7650084972
 40
0.7826166038
 40
0.7996705814
 40
0.8161419537
 40
0.8320040874
 40
0.8472323859
 40
0.8618045214
 40
0.8757007003
 40
0.8889039845
 40
0.9014006969
 40
0.9073810972
 40
0.9131815075
 40
0.9188013673
 40
0.9242405009
 40
0.9294990443
 40
0.9345775709
 40
0.9394770909
 40
0.9441990928
 40
0.9487456636
 40
0.9531194621
 40
0.9573238984
 40
0.9613631411
 40
0.9652422549
 40
0.9689673208
 40
0.9725454977
 40
0.9759852252
 40
0.9824864215
 40
0.9855752926
 40
0.9885737717
 40
0.9914977072
 40
0.9943643167
 40
0.9971920017
 40
1.0
 40
1.0
 40
1.0
 40
1.0
 10
10.2456118675
 20
10.5381498695
 30
0.0
 10
10.2466021449
 20
10.5391064041
 30
0.0
 10
10.2486684182
 20
10.5410127121
 30
0.0
 10
10.2519490299
 20
10.5437970256
 30
0.0
 10
10.2554705528
 20
10.546561378
 30
0.0
 10
10.2592310537
 20
10.5493042801
 30
0.0
 10
10.263228686
 20
10.5520244642
 30
0.0
 10
10.267461505
 20
10.5547205929
 30
0.0
 10
10.271927389
 20
10.5573913928
 30
0.0
 10
10.2766241245
 20
10.5600354738
 30
0.0
 10
10.2815493423
 20
10.5626515509
 30
0.0
 10
10.2867005834
 20
10.5652383067
 30
0.0
 10
10.2920752718
 20
10.567794432
 30
0.0
 10
10.2976706973
 20
10.5703186712
 30
0.0
 10
10.3034840684
 20
10.5728097254
 30
0.0
 10
10.3116349237
 20
10.5761312264
 30
0.0
 10
10.3223539819
 20
10.5801821173
 30
0.0
 10
10.3358654736
 20
10.5848265227
 30
0.0
 10
10.3501706053
 20
10.589309668
 30
0.0
 10
10.3652405359
 20
10.593622441
 30
0.0
 10
10.3810450144
 20
10.5977560622
 30
0.0
 10
10.3975522038
 20
10.6017021116
 30
0.0
 10
10.4147288246
 20
10.6054525535
 30
0.0
 10
10.4325402122
 20
10.6089997487
 30
0.0
 10
10.4509504004
 20
10.6123364721
 30
0.0
 10
10.4699221969
 20
10.6154559281
 30
0.0
 10
10.4894172603
 20
10.6183517632
 30
0.0
 10
10.5093961782
 20
10.6210180816
 30
0.0
 10
10.5298185486
 20
10.6234494597
 30
0.0
 10
10.5506430663
 20
10.6256409512
 30
0.0
 10
10.5718276074
 20
10.6275880978
 30
0.0
 10
10.5933293194
 20
10.6292869399
 30
0.0
 10
10.6151046918
 20
10.6307340145
 30
0.0
 10
10.6371097042
 20
10.631926402
 30
0.0
 10
10.6667738454
 20
10.6331765866
 30
0.0
 10
10.7041000287
 20
10.6340846671
 30
0.0
 10
10.748971812
 20
10.6341320135
 30
0.0
 10
10.7863190858
 20
10.6333028587
 30
0.0
 10
10.8160165941
 20
10.6321156891
 30
0.0
 10
10.838058593
 20
10.6309699008
 30
0.0
 10
10.8598790187
 20
10.6295689483
 30
0.0
 10
10.8814337585
 20
10.6279156543
 30
0.0
 10
10.9026791925
 20
10.6260133874
 30
0.0
 10
10.9235723443
 20
10.6238660173
 30
0.0
 10
10.9440709513
 20
10.6214779133
 30
0.0
 10
10.9641335547
 20
10.618853934
 30
0.0
 10
10.9837195822
 20
10.6159994188
 30
0.0
 10
11.0027894334
 20
10.6129201753
 30
0.0
 10
11.0213045646
 20
10.6096224736
 30
0.0
 10
11.0392275688
 20
10.6061130313
 30
0.0
 10
11.0565222526
 20
10.6023989971
 30
0.0
 10
11.0731537122
 20
10.5984879365
 30
0.0
 10
11.0890884066
 20
10.5943878163
 30
0.0
 10
11.1042942416
 20
10.5901069843
 30
0.0
 10
11.118740623
 20
10.5856541561
 30
0.0
 10
11.1323986128
 20
10.5810383854
 30
0.0
 10
11.1452407104
 20
10.576269043
 30
0.0
 10
11.1553848067
 20
10.5721160497
 30
0.0
 10
11.1630644246
 20
10.5687163832
 30
0.0
 10
11.1685197326
 20
10.5661717026
 30
0.0
 10
11.1737525516
 20
10.5635959277
 30
0.0
 10
11.178760281
 20
10.5609903775
 30
0.0
 10
11.1835403969
 20
10.5583563228
 30
0.0
 10
11.1880905156
 20
10.5556950965
 30
0.0
 10
11.1924083707
 20
10.5530080291
 30
0.0
 10
11.1964917921
 20
10.5502964143
 30
0.0
 10
11.2003387754
 20
10.5475616346
 30
0.0
 10
11.2039473763
 20
10.5448049655
 30
0.0
 10
11.2073158274
 20
10.5420277764
 30
0.0
 10
11.2104424347
 20
10.5392313773
 30
0.0
 10
11.2133256368
 20
10.5364170422
 30
0.0
 10
11.2159639434
 20
10.5335862071
 30
0.0
 10
11.2183561566
 20
10.5307397682
 30
0.0
 10
11.2211625054
 20
10.5269970788
 30
0.0
 10
11.2235455176
 20
10.5231534714
 30
0.0
 10
11.2254375572
 20
10.5192278123
 30
0.0
 10
11.2265807026
 20
10.5163244845
 30
0.0
 10
11.2274709565
 20
10.5134141065
 30
0.0
 10
11.2281074904
 20
10.5104980625
 30
0.0
 10
11.2284897121
 20
10.5075784581
 30
0.0
 10
11.2285748011
 20
10.5056279282
 30
0.0
 10
11.2285748055
 20
10.5046565932
 30
0.0
  0
SPLINE
  5
368
100
AcDbEntity
  8
0
100
AcDbSpline
 62
7
  6
CONTINUOUS
 70
0
 71
3
 72
18
 73
14
 74
0
 42
0.0000001
 43
0.0000001
 44
0.0000000001
 40
0.0
 40
0.0
 40
0.0
 40
0.0
 40
0.0548621106
 40
0.1099281304
 40
0.165399556
 40
0.2214731722
 40
0.2783387379
 40
0.3361775111
 40
0.4554063056
 40
0.5804414047
 40
0.7123341351
 40
0.8519581983
 40
1.0
 40
1.0
 40
1.0
 40
1.0
 10
10.2285748129
 20
10.5046559584
 30
0.0
 10
10.2285748097
 20
10.5053621043
 30
0.0
 10
10.2286196223
 20
10.5067774264
 30
0.0
 10
10.2288211185
 20
10.5088981094
 30
0.0
 10
10.2291568689
 20
10.5110175687
 30
0.0
 10
10.2296267465
 20
10.5131350309
 30
0.0
 10
10.2302305536
 20
10.5152499671
 30
0.0
 10
10.2312237042
 20
10.5180939855
 30
0.0
 10
10.2328147212
 20
10.521651088
 30
0.0
 10
10.2352363545
 20
10.5258520441
 30
0.0
 10
10.2381857872
 20
10.5300258147
 30
0.0
 10
10.2416585321
 20
10.5341681934
 30
0.0
 10
10.2442413361
 20
10.5368260379
 30
0.0
 10
10.2456118675
 20
10.5381498695
 30
0.0
  0
SPLINE
  5
369
100
AcDbEntity
  8
0
100
AcDbSpline
 62
7
  6
CONTINUOUS
 70
0
 71
3
 72
21
 73
17
 74
0
 42
0.0000001
 43
0.0000001
 44
0.0000000001
 40
0.0
 40
0.0
 40
0.0
 40
0.0
 40
0.1273176366
 40
0.2537999756
 40
0.3167619475
 40
0.3795355041
 40
0.4421314991
 40
0.5045621439
 40
0.5668413432
 40
0.6289845283
 40
0.6910084528
 40
0.7529310935
 40
0.8147714495
 40
0.8765493365
 40
0.9382852194
 40
1.0
 40
1.0
 40
1.0
 40
1.0
 10
10.1891360366
 20
7.1744859387
 30
0.0
 10
10.1891360366
 20
7.1797831886
 30
0.0
 10
10.189641694
 20
7.1903497528
 30
0.0
 10
10.1915513981
 20
7.2034123093
 30
0.0
 10
10.1938339191
 20
7.2136587429
 30
0.0
 10
10.1959154556
 20
7.221216516
 30
0.0
 10
10.1983642432
 20
7.22864
 30
0.0
 10
10.201174671
 20
7.2359122798
 30
0.0
 10
10.2043402384
 20
7.2430165417
 30
0.0
 10
10.2078536898
 20
7.2499364021
 30
0.0
 10
10.211706943
 20
7.2566558863
 30
0.0
 10
10.2158910896
 20
7.2631595183
 30
0.0
 10
10.2203964919
 20
7.269432271
 30
0.0
 10
10.2252128392
 20
7.2754597029
 30
0.0
 10
10.2303287978
 20
7.2812277495
 30
0.0
 10
10.2339320011
 20
7.2848919895
 30
0.0
 10
10.2357788599
 20
7.2866759185
 30
0.0
  0
SPLINE
  5
36A
100
AcDbEntity
  8
0
100
AcDbSpline
 62
7
  6
CONTINUOUS
 70
0
 71
3
 72
39
 73
35
 74
0
 42
0.0000001
 43
0.0000001
 44
0.0000000001
 40
0.0
 40
0.0
 40
0.0
 40
0.0
 40
0.0299424701
 40
0.0599093174
 40
0.0899243244
 40
0.1200101043
 40
0.1501875649
 40
0.1804754189
 40
0.2108897652
 40
0.2414437446
 40
0.2721472716
 40
0.303006856
 40
0.3340255105
 40
0.3652027321
 40
0.396534568
 40
0.4280137546
 40
0.459629913
 40
0.4913698074
 40
0.5232176551
 40
0.555155472
 40
0.5871634555
 40
0.6192203971
 40
0.6513041118
 40
0.6833918814
 40
0.7154609078
 40
0.747488765
 40
0.7794538478
 40
0.811335806
 40
0.8431159644
 40
0.874777716
 40
0.9063068848
 40
0.9376920706
 40
0.9689246614
 40
1.0
 40
1.0
 40
1.0
 40
1.0
 10
11.1255152826
 20
7.4058181295
 30
0.0
 10
11.1186554535
 20
7.3991920601
 30
0.0
 10
11.1043963734
 20
7.3864746944
 30
0.0
 10
11.0815511144
 20
7.3691495458
 30
0.0
 10
11.057365993
 20
7.3536619911
 30
0.0
 10
11.0319761467
 20
7.3400989016
 30
0.0
 10
11.0055211446
 20
7.3285344207
 30
0.0
 10
10.9781470088
 20
7.3190320802
 30
0.0
 10
10.9500045851
 20
7.3116438617
 30
0.0
 10
10.921248907
 20
7.3064101493
 30
0.0
 10
10.8920383072
 20
7.3033593389
 30
0.0
 10
10.8625335234
 20
7.3025078147
 30
0.0
 10
10.8328968232
 20
7.303859926
 30
0.0
 10
10.8032911199
 20
7.3074078463
 30
0.0
 10
10.7738790723
 20
7.3131317065
 30
0.0
 10
10.744822225
 20
7.3209997842
 30
0.0
 10
10.7162801103
 20
7.330968563
 30
0.0
 10
10.6884093805
 20
7.3429830216
 30
0.0
 10
10.6613629997
 20
7.3569770207
 30
0.0
 10
10.6352893766
 20
7.3728735608
 30
0.0
 10
10.6103315507
 20
7.3905852183
 30
0.0
 10
10.5866264788
 20
7.4100147104
 30
0.0
 10
10.5643042441
 20
7.4310553406
 30
0.0
 10
10.5434873225
 20
7.4535915701
 30
0.0
 10
10.5242900025
 20
7.4774997299
 30
0.0
 10
10.506817716
 20
7.5026486324
 30
0.0
 10
10.4911664108
 20
7.5289002571
 30
0.0
 10
10.4774221345
 20
7.5561105786
 30
0.0
 10
10.4656605249
 20
7.5841302871
 30
0.0
 10
10.4559463131
 20
7.6128056393
 30
0.0
 10
10.4483330817
 20
7.6419790997
 30
0.0
 10
10.4428629929
 20
7.671491037
 30
0.0
 10
10.4395662708
 20
7.7011772854
 30
0.0
 10
10.4388278775
 20
7.721031488
 30
0.0
 10
10.4388278775
 20
7.7309297368
 30
0.0
  0
SPLINE
  5
36B
100
AcDbEntity
  8
0
100
AcDbSpline
 62
7
  6
CONTINUOUS
 70
0
 71
3
 72
39
 73
35
 74
0
 42
0.0000001
 43
0.0000001
 44
0.0000000001
 40
0.0
 40
0.0
 40
0.0
 40
0.0
 40
0.0299332452
 40
0.0598997992
 40
0.0899224663
 40
0.1200227268
 40
0.1502202409
 40
0.1805324066
 40
0.2109739856
 40
0.2415568008
 40
0.2722895069
 40
0.3031774461
 40
0.3342225828
 40
0.3654235103
 40
0.3967755284
 40
0.4282707924
 40
0.4598985176
 40
0.4916452321
 40
0.523495079
 40
0.5554301574
 40
0.5874308899
 40
0.6194764155
 40
0.6515450034
 40
0.6836144759
 40
0.7156626382
 40
0.7476677085
 40
0.7796087418
 40
0.811466043
 40
0.8432215644
 40
0.874859274
 40
0.9063654968
 40
0.9377292646
 40
0.968942242
 40
1.0
 40
1.0
 40
1.0
 40
1.0
 10
11.1253895025
 20
7.4059526621
 30
0.0
 10
11.118408536
 20
7.3996284096
 30
0.0
 10
11.1039353528
 20
7.3875161997
 30
0.0
 10
11.0808560105
 20
7.3710949733
 30
0.0
 10
11.0565185515
 20
7.3564979469
 30
0.0
 10
11.0310555572
 20
7.3438049624
 30
0.0
 10
11.0046034901
 20
7.3330836019
 30
0.0
 10
10.9773046767
 20
7.3243912639
 30
0.0
 10
10.9493057548
 20
7.3177742858
 30
0.0
 10
10.9207570857
 20
7.3132678913
 30
0.0
 10
10.8918119026
 20
7.3108958792
 30
0.0
 10
10.8626254784
 20
7.3106705937
 30
0.0
 10
10.8333542957
 20
7.3125929083
 30
0.0
 10
10.8041552226
 20
7.3166521975
 30
0.0
 10
10.7751846658
 20
7.3228263562
 30
0.0
 10
10.7465977509
 20
7.3310820206
 30
0.0
 10
10.7185475163
 20
7.3413747519
 30
0.0
 10
10.6911840776
 20
7.3536491967
 30
0.0
 10
10.6646538426
 20
7.3678394357
 30
0.0
 10
10.6390987609
 20
7.3838693737
 30
0.0
 10
10.6146555674
 20
7.401653115
 30
0.0
 10
10.5914550158
 20
7.4210953691
 30
0.0
 10
10.5696212376
 20
7.4420920342
 30
0.0
 10
10.5492710962
 20
7.4645307449
 30
0.0
 10
10.5305135125
 20
7.4882914117
 30
0.0
 10
10.5134489019
 20
7.5132468843
 30
0.0
 10
10.4981686847
 20
7.5392636522
 30
0.0
 10
10.4847547879
 20
7.5662025362
 30
0.0
 10
10.4732791353
 20
7.5939193727
 30
0.0
 10
10.4638033444
 20
7.6222658876
 30
0.0
 10
10.4563783941
 20
7.6510902389
 30
0.0
 10
10.4510443491
 20
7.6802386202
 30
0.0
 10
10.4478299436
 20
7.709552943
 30
0.0
 10
10.4471100803
 20
7.7291561954
 30
0.0
 10
10.4471100803
 20
7.7389297308
 30
0.0
  0
SPLINE
  5
36C
100
AcDbEntity
  8
0
100
AcDbSpline
 62
7
  6
CONTINUOUS
 70
0
 71
3
 72
56
 73
52
 74
0
 42
0.0000001
 43
0.0000001
 44
0.0000000001
 40
0.0
 40
0.0
 40
0.0
 40
0.0
 40
0.0153876701
 40
0.0307306135
 40
0.0460311901
 40
0.0612920624
 40
0.0765162757
 40
0.0917072149
 40
0.1068685641
 40
0.122004285
 40
0.1371185812
 40
0.1522158552
 40
0.1673006682
 40
0.1823777017
 40
0.1974517116
 40
0.2125274798
 40
0.2276097717
 40
0.2427032933
 40
0.2578126439
 40
0.2729422706
 40
0.2880964322
 40
0.3032791599
 40
0.3184942163
 40
0.3337450641
 40
0.349034841
 40
0.3643663295
 40
0.3797419308
 40
0.3951636539
 40
0.4106331001
 40
0.4261514468
 40
0.4417194443
 40
0.4573374184
 40
0.4730052659
 40
0.4887224569
 40
0.5044880516
 40
0.5203007087
 40
0.552052001
 40
0.5839661869
 40
0.6160198409
 40
0.6481851236
 40
0.6804306937
 40
0.7127227185
 40
0.7450259311
 40
0.7773047179
 40
0.8095242201
 40
0.8416514129
 40
0.8736561436
 40
0.9055121214
 40
0.937197787
 40
0.9686968662
 40
1.0
 40
1.0
 40
1.0
 40
1.0
 10
11.0791618277
 20
7.6517139323
 30
0.0
 10
11.0784947043
 20
7.6481826756
 30
0.0
 10
11.0769952527
 20
7.6411607975
 30
0.0
 10
11.0742508403
 20
7.6307625954
 30
0.0
 10
11.0710201354
 20
7.6205358171
 30
0.0
 10
11.0673100525
 20
7.6105026225
 30
0.0
 10
11.0631285225
 20
7.6006843554
 30
0.0
 10
11.0584844653
 20
7.5911020146
 30
0.0
 10
11.0533877477
 20
7.5817760917
 30
0.0
 10
11.047849273
 20
7.5727265084
 30
0.0
 10
11.0418808801
 20
7.5639725938
 30
0.0
 10
11.0354952864
 20
7.5555330763
 30
0.0
 10
11.0287061262
 20
7.5474260016
 30
0.0
 10
11.0215279326
 20
7.5396686728
 30
0.0
 10
11.0139760334
 20
7.5322776746
 30
0.0
 10
11.0060665411
 20
7.5252688307
 30
0.0
 10
10.9978163878
 20
7.5186570888
 30
0.0
 10
10.98924321
 20
7.5124565651
 30
0.0
 10
10.9803653089
 20
7.5066805358
 30
0.0
 10
10.9712016682
 20
7.5013413268
 30
0.0
 10
10.9617718881
 20
7.4964503092
 30
0.0
 10
10.9520961098
 20
7.492017939
 30
0.0
 10
10.9421950023
 20
7.4880536954
 30
0.0
 10
10.9320897393
 20
7.484565992
 30
0.0
 10
10.9218019085
 20
7.4815622609
 30
0.0
 10
10.9113534771
 20
7.4790489391
 30
0.0
 10
10.9007667725
 20
7.4770313475
 30
0.0
 10
10.890064407
 20
7.475513754
 30
0.0
 10
10.8792692298
 20
7.4744994088
 30
0.0
 10
10.8684042922
 20
7.4739904642
 30
0.0
 10
10.8574927905
 20
7.4739879482
 30
0.0
 10
10.8465580188
 20
7.4744918541
 30
0.0
 10
10.8356233002
 20
7.4755011296
 30
0.0
 10
10.8247120395
 20
7.4770135376
 30
0.0
 10
10.8138472514
 20
7.4790259163
 30
0.0
 10
10.7994365909
 20
7.4823738435
 30
0.0
 10
10.7816544598
 20
7.4877901468
 30
0.0
 10
10.7609050857
 20
7.4961846029
 30
0.0
 10
10.7408861163
 20
7.5064123523
 30
0.0
 10
10.7217690527
 20
7.5183858559
 30
0.0
 10
10.7037161041
 20
7.5320029714
 30
0.0
 10
10.6868809485
 20
7.5471477381
 30
0.0
 10
10.6714067472
 20
7.5636911868
 30
0.0
 10
10.657425193
 20
7.581492552
 30
0.0
 10
10.6450553946
 20
7.6004004429
 30
0.0
 10
10.6344027143
 20
7.6202539852
 30
0.0
 10
10.625558163
 20
7.6408844147
 30
0.0
 10
10.6185973045
 20
7.6621160148
 30
0.0
 10
10.6135799041
 20
7.6837687502
 30
0.0
 10
10.6105491534
 20
7.7056558518
 30
0.0
 10
10.6098685917
 20
7.7203316847
 30
0.0
 10
10.6098685917
 20
7.7276423897
 30
0.0
  0
SPLINE
  5
36D
100
AcDbEntity
  8
0
100
AcDbSpline
 62
7
  6
CONTINUOUS
 70
0
 71
3
 72
39
 73
35
 74
0
 42
0.0000001
 43
0.0000001
 44
0.0000000001
 40
0.0
 40
0.0
 40
0.0
 40
0.0
 40
0.0305811937
 40
0.0610137723
 40
0.0913233975
 40
0.1215400474
 40
0.1516970074
 40
0.1818296964
 40
0.2119744064
 40
0.2421669973
 40
0.272441611
 40
0.3028294705
 40
0.3333578016
 40
0.364048938
 40
0.3949196321
 40
0.4259805723
 40
0.457236146
 40
0.4886844118
 40
0.5203172672
 40
0.5521208219
 40
0.5840759175
 40
0.6161587816
 40
0.6483418086
 40
0.6805944152
 40
0.7128839636
 40
0.7451767322
 40
0.7774389062
 40
0.8096375676
 40
0.8417416685
 40
0.8737229691
 40
0.9055569135
 40
0.9372234346
 40
0.9687073156
 40
1.0
 40
1.0
 40
1.0
 40
1.0
 10
11.0815435829
 20
7.6674271209
 30
0.0
 10
11.0799009113
 20
7.6612913646
 30
0.0
 10
11.0760511598
 20
7.6491943906
 30
0.0
 10
11.0686115815
 20
7.6317165602
 30
0.0
 10
11.0595804603
 20
7.6150892656
 30
0.0
 10
11.0490315518
 20
7.599450239
 30
0.0
 10
11.0370504832
 20
7.5849265256
 30
0.0
 10
11.0237348784
 20
7.5716367498
 30
0.0
 10
11.0091932361
 20
7.5596892986
 30
0.0
 10
10.9935442226
 20
7.5491814778
 30
0.0
 10
10.9769155244
 20
7.5401987269
 30
0.0
 10
10.9594427577
 20
7.5328139956
 30
0.0
 10
10.9412683951
 20
7.5270869707
 30
0.0
 10
10.9225404727
 20
7.5230637875
 30
0.0
 10
10.9034113889
 20
7.5207766962
 30
0.0
 10
10.8840366662
 20
7.5202436717
 30
0.0
 10
10.8645736515
 20
7.5214685181
 30
0.0
 10
10.8451802796
 20
7.5244408137
 30
0.0
 10
10.8260137785
 20
7.5291359062
 30
0.0
 10
10.8072294486
 20
7.5355153418
 30
0.0
 10
10.7889794257
 20
7.5435270782
 30
0.0
 10
10.7714114288
 20
7.5531058585
 30
0.0
 10
10.7546676708
 20
7.5641739137
 30
0.0
 10
10.7388836719
 20
7.5766414495
 30
0.0
 10
10.7241871558
 20
7.5904073726
 30
0.0
 10
10.7106971439
 20
7.6053602188
 30
0.0
 10
10.6985228914
 20
7.621378904
 30
0.0
 10
10.6877630336
 20
7.638333745
 30
0.0
 10
10.6785049095
 20
7.6560875344
 30
0.0
 10
10.6708236956
 20
7.6744965909
 30
0.0
 10
10.6647818725
 20
7.6934117263
 30
0.0
 10
10.6604288508
 20
7.7126802946
 30
0.0
 10
10.6578001946
 20
7.7321441299
 30
0.0
 10
10.6572101287
 20
7.7451904165
 30
0.0
 10
10.6572101287
 20
7.7516900365
 30
0.0
  0
SPLINE
  5
36E
100
AcDbEntity
  8
0
100
AcDbSpline
 62
7
  6
CONTINUOUS
 70
0
 71
3
 72
41
 73
37
 74
0
 42
0.0000001
 43
0.0000001
 44
0.0000000001
 40
0.0
 40
0.0
 40
0.0
 40
0.0
 40
0.0299421711
 40
0.0599087182
 40
0.0899234237
 40
0.120008901
 40
0.1501860568
 40
0.1804736044
 40
0.2108876432
 40
0.2414413126
 40
0.272144528
 40
0.3030038001
 40
0.3340221401
 40
0.3651990458
 40
0.3965305658
 40
0.4280094351
 40
0.459625275
 40
0.4913648512
 40
0.5232123798
 40
0.5551498765
 40
0.5871575398
 40
0.6192141608
 40
0.6512975542
 40
0.6833850026
 40
0.715453708
 40
0.7314764109
 40
0.7474860766
 40
0.7794508393
 40
0.8113324792
 40
0.8431123189
 40
0.8747737608
 40
0.9063025958
 40
0.9376874988
 40
0.9533255066
 40
0.9689250205
 40
1.0
 40
1.0
 40
1.0
 40
1.0
 10
11.0155071296
 20
7.6040402964
 30
0.0
 10
11.0122804391
 20
7.6009235529
 30
0.0
 10
11.0055733363
 20
7.5949416001
 30
0.0
 10
10.9948275124
 20
7.586792249
 30
0.0
 10
10.9834514449
 20
7.57950726
 30
0.0
 10
10.9715086985
 20
7.5731274999
 30
0.0
 10
10.9590649337
 20
7.5676878227
 30
0.0
 10
10.9461888262
 20
7.56321813
 30
0.0
 10
10.9329513311
 20
7.5597428773
 30
0.0
 10
10.9194253776
 20
7.5572810378
 30
0.0
 10
10.905685437
 20
7.5558459842
 30
0.0
 10
10.8918071175
 20
7.5554454314
 30
0.0
 10
10.8778667461
 20
7.556081403
 30
0.0
 10
10.8639409522
 20
7.5577502297
 30
0.0
 10
10.8501062494
 20
7.5604425771
 30
0.0
 10
10.836438621
 20
7.5641435037
 30
0.0
 10
10.8230131072
 20
7.5688325477
 30
0.0
 10
10.8099033999
 20
7.5744838421
 30
0.0
 10
10.7971814432
 20
7.5810662602
 30
0.0
 10
10.7849170454
 20
7.5885435826
 30
0.0
 10
10.7731774937
 20
7.5968747085
 30
0.0
 10
10.7620272186
 20
7.6060138387
 30
0.0
 10
10.7515273382
 20
7.6159108797
 30
0.0
 10
10.7417357215
 20
7.6265111388
 30
0.0
 10
10.7342078684
 20
7.6358863529
 30
0.0
 10
10.7285913579
 20
7.643679016
 30
0.0
 10
10.7232574832
 20
7.6516490505
 30
0.0
 10
10.7171249925
 20
7.6619348197
 30
0.0
 10
10.7106601765
 20
7.6747336676
 30
0.0
 10
10.7051277514
 20
7.6879134826
 30
0.0
 10
10.7005584271
 20
7.7014017064
 30
0.0
 10
10.6969773756
 20
7.715123952
 30
0.0
 10
10.6948304618
 20
7.7267070153
 30
0.0
 10
10.6936261025
 20
7.7360138596
 30
0.0
 10
10.6927665828
 20
7.7453118003
 30
0.0
 10
10.6925063292
 20
7.7523084348
 30
0.0
 10
10.6925063292
 20
7.7569643194
 30
0.0
  0
SPLINE
  5
36F
100
AcDbEntity
  8
0
100
AcDbSpline
 62
7
  6
CONTINUOUS
 70
0
 71
3
 72
23
 73
19
 74
0
 42
0.0000001
 43
0.0000001
 44
0.0000000001
 40
0.0
 40
0.0
 40
0.0
 40
0.0
 40
0.0616887121
 40
0.1234094267
 40
0.1851812358
 40
0.2470227517
 40
0.3089519323
 40
0.3709859142
 40
0.4331408556
 40
0.4954317954
 40
0.5578725184
 40
0.6204754552
 40
0.6832515445
 40
0.7462101503
 40
0.8093592536
 40
0.8727040861
 40
0.9362512237
 40
1.0
 40
1.0
 40
1.0
 40
1.0
 10
10.5510975589
 20
8.0005191321
 30
0.0
 10
10.54696313
 20
7.9962619465
 30
0.0
 10
10.5389013281
 20
7.9875392837
 30
0.0
 10
10.5274667131
 20
7.9738702083
 30
0.0
 10
10.5167111624
 20
7.9596416564
 30
0.0
 10
10.5066579839
 20
7.9448843599
 30
0.0
 10
10.4973284763
 20
7.9296296602
 30
0.0
 10
10.4887425376
 20
7.9139100916
 30
0.0
 10
10.4809184332
 20
7.8977591463
 30
0.0
 10
10.4738727965
 20
7.8812112495
 30
0.0
 10
10.4676206028
 20
7.8643016602
 30
0.0
 10
10.462175141
 20
7.8470664021
 30
0.0
 10
10.4575479868
 20
7.829542192
 30
0.0
 10
10.4537489517
 20
7.8117663296
 30
0.0
 10
10.4507861311
 20
7.7937767669
 30
0.0
 10
10.4486656742
 20
7.7756115358
 30
0.0
 10
10.4473922382
 20
7.7573099887
 30
0.0
 10
10.4471100803
 20
7.7450623097
 30
0.0
 10
10.4471100803
 20
7.7389297308
 30
0.0
  0
SPLINE
  5
370
100
AcDbEntity
  8
0
100
AcDbSpline
 62
7
  6
CONTINUOUS
 70
0
 71
3
 72
25
 73
21
 74
0
 42
0.0000001
 43
0.0000001
 44
0.0000000001
 40
0.0
 40
0.0
 40
0.0
 40
0.0
 40
0.0315740931
 40
0.0630640262
 40
0.0944736623
 40
0.1258074687
 40
0.188252882
 40
0.2504620476
 40
0.3124888564
 40
0.3743928846
 40
0.4362375705
 40
0.4980882253
 40
0.5600099705
 40
0.6220656869
 40
0.6843140476
 40
0.7468077213
 40
0.8095918245
 40
0.8727027429
 40
0.9361663024
 40
1.0
 40
1.0
 40
1.0
 40
1.0
 10
10.7951033826
 20
7.945794964
 30
0.0
 10
10.7918553786
 20
7.9452972483
 30
0.0
 10
10.7853886267
 20
7.9441626828
 30
0.0
 10
10.775784979
 20
7.9420429101
 30
0.0
 10
10.7663070758
 20
7.9395111588
 30
0.0
 10
10.7538767901
 20
7.9355975361
 30
0.0
 10
10.7387274332
 20
7.9296995375
 30
0.0
 10
10.7213003407
 20
7.9210550519
 30
0.0
 10
10.7047657374
 20
7.9109117232
 30
0.0
 10
10.6892430249
 20
7.8993421939
 30
0.0
 10
10.6748431651
 20
7.8864290961
 30
0.0
 10
10.6616693221
 20
7.8722649017
 30
0.0
 10
10.6498157536
 20
7.8569510461
 30
0.0
 10
10.6393672301
 20
7.8405972176
 30
0.0
 10
10.6303982968
 20
7.823320601
 30
0.0
 10
10.6229728205
 20
7.8052448882
 30
0.0
 10
10.6171435688
 20
7.7864995562
 30
0.0
 10
10.6129518554
 20
7.7672182311
 30
0.0
 10
10.6104270617
 20
7.7475404749
 30
0.0
 10
10.6098685917
 20
7.7342855649
 30
0.0
 10
10.6098685917
 20
7.7276423897
 30
0.0
  0
SPLINE
  5
371
100
AcDbEntity
  8
0
100
AcDbSpline
 62
7
  6
CONTINUOUS
 70
0
 71
3
 72
23
 73
19
 74
0
 42
0.0000001
 43
0.0000001
 44
0.0000000001
 40
0.0
 40
0.0
 40
0.0
 40
0.0
 40
0.0628099206
 40
0.1253451757
 40
0.1876459299
 40
0.2497588025
 40
0.3117356371
 40
0.373632091
 40
0.4355060879
 40
0.4974161856
 40
0.5594199225
 40
0.6215722001
 40
0.6839237636
 40
0.7465198309
 40
0.8093988651
 40
0.8725919034
 40
0.9361205944
 40
1.0
 40
1.0
 40
1.0
 40
1.0
 10
10.8106349725
 20
7.9475719208
 30
0.0
 10
10.8051513991
 20
7.9462984279
 30
0.0
 10
10.7943075849
 20
7.9433039692
 30
0.0
 10
10.7785081775
 20
7.9374846214
 30
0.0
 10
10.7633090812
 20
7.9303838692
 30
0.0
 10
10.7488089768
 20
7.9220472486
 30
0.0
 10
10.7351002585
 20
7.9125278138
 30
0.0
 10
10.7222707663
 20
7.9018863609
 30
0.0
 10
10.7104025698
 20
7.890190898
 30
0.0
 10
10.6995715727
 20
7.8775162495
 30
0.0
 10
10.6898469878
 20
7.8639435257
 30
0.0
 10
10.6812908945
 20
7.849559588
 30
0.0
 10
10.6739578379
 20
7.8344564805
 30
0.0
 10
10.6678944895
 20
7.818730783
 30
0.0
 10
10.6631393019
 20
7.802483128
 30
0.0
 10
10.6597224096
 20
7.7858169908
 30
0.0
 10
10.6576652261
 20
7.7688401368
 30
0.0
 10
10.6572101287
 20
7.7574154001
 30
0.0
 10
10.6572101287
 20
7.7516900365
 30
0.0
  0
SPLINE
  5
372
100
AcDbEntity
  8
0
100
AcDbSpline
 62
7
  6
CONTINUOUS
 70
0
 71
3
 72
21
 73
17
 74
0
 42
0.0000001
 43
0.0000001
 44
0.0000000001
 40
0.0
 40
0.0
 40
0.0
 40
0.0
 40
0.0617147807
 40
0.1234506636
 40
0.1852285506
 40
0.2470689066
 40
0.3089915473
 40
0.3710154718
 40
0.4331586568
 40
0.495437856
 40
0.5578685007
 40
0.6204644957
 40
0.6832380523
 40
0.7462000242
 40
0.8726823632
 40
1.0
 40
1.0
 40
1.0
 40
1.0
 10
10.7452506975
 20
7.8838303265
 30
0.0
 10
10.7431622433
 20
7.8818130347
 30
0.0
 10
10.7390876899
 20
7.8776694609
 30
0.0
 10
10.7333024911
 20
7.871146873
 30
0.0
 10
10.7278560971
 20
7.8643309685
 30
0.0
 10
10.7227613241
 20
7.8572376517
 30
0.0
 10
10.7180298316
 20
7.8498832534
 30
0.0
 10
10.7136725179
 20
7.8422847662
 30
0.0
 10
10.7096994572
 20
7.8344596908
 30
0.0
 10
10.7061197885
 20
7.8264260915
 30
0.0
 10
10.7029417167
 20
7.8182024951
 30
0.0
 10
10.7001725928
 20
7.8098079148
 30
0.0
 10
10.6978187617
 20
7.8012614786
 30
0.0
 10
10.6952376544
 20
7.789674667
 30
0.0
 10
10.6930781339
 20
7.7749033441
 30
0.0
 10
10.6925063292
 20
7.7629545243
 30
0.0
 10
10.6925063292
 20
7.7569643194
 30
0.0
  0
SPLINE
  5
373
100
AcDbEntity
  8
0
100
AcDbSpline
 62
7
  6
CONTINUOUS
 70
0
 71
3
 72
42
 73
38
 74
0
 42
0.0000001
 43
0.0000001
 44
0.0000000001
 40
0.0
 40
0.0
 40
0.0
 40
0.0
 40
0.0299419663
 40
0.0449235352
 40
0.0599142051
 40
0.0899287052
 40
0.1200139767
 40
0.135092661
 40
0.150196701
 40
0.1804840414
 40
0.210897872
 40
0.2414513324
 40
0.2721543376
 40
0.3030133986
 40
0.3340315263
 40
0.3652082187
 40
0.3965395244
 40
0.4280181782
 40
0.4596338019
 40
0.4913731609
 40
0.5232204716
 40
0.55515775
 40
0.5871651943
 40
0.6192215961
 40
0.6513047701
 40
0.6833919991
 40
0.7154604852
 40
0.7474878032
 40
0.7794523473
 40
0.8113337692
 40
0.8431133916
 40
0.8747746171
 40
0.9063032365
 40
0.9376879249
 40
0.9533258257
 40
0.968925233
 40
1.0
 40
1.0
 40
1.0
 40
1.0
 10
11.4406976008
 20
9.8700428582
 30
0.0
 10
11.437844178
 20
9.867286663
 30
0.0
 10
11.4333958691
 20
9.8633193557
 30
0.0
 10
11.4271660817
 20
9.8583968166
 30
0.0
 10
11.4207379203
 20
9.8537192098
 30
0.0
 10
11.4123502117
 20
9.8483478083
 30
0.0
 10
11.4035546775
 20
9.8436493932
 30
0.0
 10
11.396300656
 20
9.8403068932
 30
0.0
 10
11.3888967599
 20
9.8372403754
 30
0.0
 10
11.3793979161
 20
9.8339429489
 30
0.0
 10
11.3676920163
 20
9.8308698363
 30
0.0
 10
11.3557306899
 20
9.8286927522
 30
0.0
 10
11.3435802216
 20
9.8274237151
 30
0.0
 10
11.3313073575
 20
9.8270694955
 30
0.0
 10
11.3189796264
 20
9.8276318969
 30
0.0
 10
11.3066647845
 20
9.8291076708
 30
0.0
 10
11.2944304968
 20
9.8314885636
 30
0.0
 10
11.2823439558
 20
9.8347613619
 30
0.0
 10
11.2704715213
 20
9.838907971
 30
0.0
 10
11.2588783604
 20
9.8439055164
 30
0.0
 10
11.2476280949
 20
9.8497264717
 30
0.0
 10
11.2367824563
 20
9.856338809
 30
0.0
 10
11.2264009523
 20
9.8637061761
 30
0.0
 10
11.2165405444
 20
9.8717880946
 30
0.0
 10
11.2072553386
 20
9.8805401807
 30
0.0
 10
11.1985962925
 20
9.889914387
 30
0.0
 10
11.1906109381
 20
9.899859263
 30
0.0
 10
11.1833431239
 20
9.9103202363
 30
0.0
 10
11.1768327759
 20
9.9212399045
 30
0.0
 10
11.1711156804
 20
9.9325583598
 30
0.0
 10
11.1662232892
 20
9.9442134664
 30
0.0
 10
11.16218254
 20
9.95614137
 30
0.0
 10
11.1590157513
 20
9.9682762061
 30
0.0
 10
11.1571171943
 20
9.9785193276
 30
0.0
 10
11.1560521567
 20
9.986749545
 30
0.0
 10
11.1552920673
 20
9.9949718887
 30
0.0
 10
11.1550619201
 20
10.0011591441
 30
0.0
 10
11.1550619201
 20
10.0052764305
 30
0.0
  0
SPLINE
  5
374
100
AcDbEntity
  8
0
100
AcDbSpline
 62
7
  6
CONTINUOUS
 70
0
 71
3
 72
18
 73
14
 74
0
 42
0.0000001
 43
0.0000001
 44
0.0000000001
 40
0.0
 40
0.0
 40
0.0
 40
0.0
 40
0.150467608
 40
0.291710008
 40
0.4244359371
 40
0.549562455
 40
0.6682139939
 40
0.7255497488
 40
0.7817912909
 40
0.8371402503
 40
0.8918093826
 40
0.9460201179
 40
1.0
 40
1.0
 40
1.0
 40
1.0
 10
12.4488888253
 20
8.3057137013
 30
0.0
 10
12.4472208418
 20
8.3041025529
 30
0.0
 10
12.4438872432
 20
8.3010796238
 30
0.0
 10
12.4387251927
 20
8.2970510547
 30
0.0
 10
12.4335692054
 20
8.2936817627
 30
0.0
 10
12.4284246193
 20
8.2909772781
 30
0.0
 10
12.4241006514
 20
8.2892623295
 30
0.0
 10
12.4206676119
 20
8.2882434097
 30
0.0
 10
12.4181294006
 20
8.2876561188
 30
0.0
 10
12.4155996101
 20
8.2872375415
 30
0.0
 10
12.4130789491
 20
8.286987826
 30
0.0
 10
12.4105684203
 20
8.2869071022
 30
0.0
 10
12.4089004972
 20
8.2869660947
 30
0.0
 10
12.4080705389
 20
8.2870236489
 30
0.0
  0
SPLINE
  5
375
100
AcDbEntity
  8
0
100
AcDbSpline
 62
7
  6
CONTINUOUS
 70
0
 71
3
 72
42
 73
38
 74
0
 42
0.0000001
 43
0.0000001
 44
0.0000000001
 40
0.0
 40
0.0
 40
0.0
 40
0.0
 40
0.0299419663
 40
0.0449235352
 40
0.0599142051
 40
0.0899287052
 40
0.1200139767
 40
0.135092661
 40
0.150196701
 40
0.1804840414
 40
0.210897872
 40
0.2414513324
 40
0.2721543376
 40
0.3030133986
 40
0.3340315263
 40
0.3652082187
 40
0.3965395244
 40
0.4280181782
 40
0.4596338019
 40
0.4913731609
 40
0.5232204716
 40
0.55515775
 40
0.5871651943
 40
0.6192215961
 40
0.6513047701
 40
0.6833919991
 40
0.7154604852
 40
0.7474878032
 40
0.7794523473
 40
0.8113337692
 40
0.8431133916
 40
0.8747746171
 40
0.9063032365
 40
0.9376879249
 40
0.9533258257
 40
0.968925233
 40
1.0
 40
1.0
 40
1.0
 40
1.0
 10
10.4747717172
 20
7.0392523664
 30
0.0
 10
10.4719182945
 20
7.0364961712
 30
0.0
 10
10.4674699856
 20
7.0325288639
 30
0.0
 10
10.4612401982
 20
7.0276063248
 30
0.0
 10
10.4548120368
 20
7.022928718
 30
0.0
 10
10.4464243282
 20
7.0175573165
 30
0.0
 10
10.437628794
 20
7.0128589014
 30
0.0
 10
10.4303747725
 20
7.0095164013
 30
0.0
 10
10.4229708764
 20
7.0064498836
 30
0.0
 10
10.4134720326
 20
7.0031524571
 30
0.0
 10
10.4017661328
 20
7.0000793445
 30
0.0
 10
10.3898048064
 20
6.9979022604
 30
0.0
 10
10.377654338
 20
6.9966332233
 30
0.0
 10
10.3653814739
 20
6.9962790037
 30
0.0
 10
10.3530537428
 20
6.9968414051
 30
0.0
 10
10.340738901
 20
6.998317179
 30
0.0
 10
10.3285046132
 20
7.0006980718
 30
0.0
 10
10.3164180722
 20
7.0039708701
 30
0.0
 10
10.3045456378
 20
7.0081174792
 30
0.0
 10
10.2929524769
 20
7.0131150246
 30
0.0
 10
10.2817022113
 20
7.0189359798
 30
0.0
 10
10.2708565727
 20
7.0255483172
 30
0.0
 10
10.2604750688
 20
7.0329156843
 30
0.0
 10
10.2506146609
 20
7.0409976028
 30
0.0
 10
10.2413294551
 20
7.0497496889
 30
0.0
 10
10.232670409
 20
7.0591238951
 30
0.0
 10
10.2246850546
 20
7.0690687712
 30
0.0
 10
10.2174172404
 20
7.0795297445
 30
0.0
 10
10.2109068924
 20
7.0904494127
 30
0.0
 10
10.2051897969
 20
7.101767868
 30
0.0
 10
10.2002974057
 20
7.1134229746
 30
0.0
 10
10.1962566564
 20
7.1253508782
 30
0.0
 10
10.1930898677
 20
7.1374857143
 30
0.0
 10
10.1911913108
 20
7.1477288358
 30
0.0
 10
10.1901262732
 20
7.1559590532
 30
0.0
 10
10.1893661837
 20
7.1641813969
 30
0.0
 10
10.1891360366
 20
7.1703686523
 30
0.0
 10
10.1891360366
 20
7.1744859387
 30
0.0
  0
SPLINE
  5
376
100
AcDbEntity
  8
0
100
AcDbSpline
 62
7
  6
CONTINUOUS
 70
0
 71
3
 72
23
 73
19
 74
0
 42
0.0000001
 43
0.0000001
 44
0.0000000001
 40
0.0
 40
0.0
 40
0.0
 40
0.0
 40
0.0637775561
 40
0.1273446565
 40
0.1907020307
 40
0.2538561431
 40
0.3168131834
 40
0.3795821015
 40
0.4421733894
 40
0.5045993415
 40
0.5668738676
 40
0.6290123791
 40
0.6910316472
 40
0.7529496401
 40
0.8147853492
 40
0.8765585998
 40
0.9382898533
 40
1.0
 40
1.0
 40
1.0
 40
1.0
 10
10.4388278775
 20
7.7309297368
 30
0.0
 10
10.4388278775
 20
7.7373095923
 30
0.0
 10
10.4391332258
 20
7.7500504136
 30
0.0
 10
10.4405115144
 20
7.7690841764
 30
0.0
 10
10.4428063058
 20
7.7879670094
 30
0.0
 10
10.4460122159
 20
7.8066547027
 30
0.0
 10
10.4501219981
 20
7.8251044346
 30
0.0
 10
10.455126172
 20
7.8432735906
 30
0.0
 10
10.4610132687
 20
7.8611203017
 30
0.0
 10
10.4677697515
 20
7.8786034054
 30
0.0
 10
10.475380075
 20
7.8956825831
 30
0.0
 10
10.4838267211
 20
7.9123184422
 30
0.0
 10
10.4930902365
 20
7.9284726057
 30
0.0
 10
10.5031492918
 20
7.9441078146
 30
0.0
 10
10.5139806751
 20
7.9591879639
 30
0.0
 10
10.5255595484
 20
7.9736783768
 30
0.0
 10
10.5378587482
 20
7.9875451771
 30
0.0
 10
10.5465211806
 20
7.9963542425
 30
0.0
 10
10.550961178
 20
8.00064294
 30
0.0
  0
SPLINE
  5
377
100
AcDbEntity
  8
0
100
AcDbSpline
 62
7
  6
CONTINUOUS
 70
0
 71
3
 72
91
 73
87
 74
0
 42
0.0000001
 43
0.0000001
 44
0.0000000001
 40
0.0
 40
0.0
 40
0.0
 40
0.0
 40
0.0027164146
 40
0.005453202
 40
0.008230252
 40
0.0110665198
 40
0.0139797053
 40
0.0169859824
 40
0.0200999174
 40
0.023334401
 40
0.0267007187
 40
0.0302086385
 40
0.0338665091
 40
0.0376814414
 40
0.0416593691
 40
0.0458052582
 40
0.0501231421
 40
0.0546162891
 40
0.0592872586
 40
0.064137982
 40
0.0691698666
 40
0.0743837897
 40
0.079780237
 40
0.0853592528
 40
0.0911205635
 40
0.0970635488
 40
0.1031872988
 40
0.1094906474
 40
0.1226297881
 40
0.1364673429
 40
0.1509860432
 40
0.166165828
 40
0.1819841602
 40
0.1984162836
 40
0.2154354412
 40
0.2330130641
 40
0.2511189358
 40
0.2697213391
 40
0.2887871904
 40
0.3082821639
 40
0.3281708096
 40
0.3484166635
 40
0.368982358
 40
0.3898297276
 40
0.4109199118
 40
0.4322134566
 40
0.4536704139
 40
0.4752504412
 40
0.4969128994
 40
0.5186169519
 40
0.5403216628
 40
0.5619860952
 40
0.5835694083
 40
0.6050309559
 40
0.6263303839
 40
0.6474277291
 40
0.6682835187
 40
0.688858872
 40
0.7091156002
 40
0.7290163102
 40
0.7485245085
 40
0.7676047097
 40
0.7862225487
 40
0.8043448976
 40
0.8219399925
 40
0.8389775679
 40
0.8554290014
 40
0.8712674776
 40
0.8864681732
 40
0.9010084737
 40
0.9148682315
 40
0.9280300795
 40
0.9343449284
 40
0.9404802779
 40
0.9464349254
 40
0.952207944
 40
0.9577987094
 40
0.9632068925
 40
0.9684325652
 40
0.9734761403
 40
0.9783384919
 40
0.9830209404
 40
0.9875254382
 40
0.9918545985
 40
0.9960115586
 40
1.0
 40
1.0
 40
1.0
 40
1.0
 10
12.4897071117
 20
9.4641962962
 30
0.0
 10
12.4908082746
 20
9.4641199351
 30
0.0
 10
12.4930132213
 20
9.4638669832
 30
0.0
 10
12.4962925769
 20
9.4631900805
 30
0.0
 10
12.4995471348
 20
9.462215762
 30
0.0
 10
12.502774612
 20
9.4609450648
 30
0.0
 10
12.5059732905
 20
9.459379007
 30
0.0
 10
12.5091415857
 20
9.4575189203
 30
0.0
 10
12.5122779891
 20
9.4553660473
 30
0.0
 10
12.5153811381
 20
9.4529218021
 30
0.0
 10
12.5184496843
 20
9.4501875958
 30
0.0
 10
12.5214822863
 20
9.4471649105
 30
0.0
 10
12.5244776619
 20
9.4438553551
 30
0.0
 10
12.5274344235
 20
9.4402605648
 30
0.0
 10
12.5303512976
 20
9.4363823763
 30
0.0
 10
12.5332268752
 20
9.432222667
 30
0.0
 10
12.5360598548
 20
9.4277835138
 30
0.0
 10
12.5388488582
 20
9.4230670854
 30
0.0
 10
12.5415925438
 20
9.4180757092
 30
0.0
 10
12.5442895953
 20
9.4128118553
 30
0.0
 10
12.5469386482
 20
9.4072781143
 30
0.0
 10
12.5495384468
 20
9.401477246
 30
0.0
 10
12.552087644
 20
9.3954121157
 30
0.0
 10
12.5545850199
 20
9.389085756
 30
0.0
 10
12.5570292906
 20
9.3825013104
 30
0.0
 10
12.5594192446
 20
9.3756620731
 30
0.0
 10
12.5617537064
 20
9.368571451
 30
0.0
 10
12.5648333605
 20
9.3586492013
 30
0.0
 10
12.5685248834
 20
9.3456371052
 30
0.0
 10
12.5726563358
 20
9.3292874574
 30
0.0
 10
12.5765400867
 20
9.3120263745
 30
0.0
 10
12.5801682556
 20
9.2938884586
 30
0.0
 10
12.583533458
 20
9.274909932
 30
0.0
 10
12.5866288467
 20
9.255128815
 30
0.0
 10
12.589448122
 20
9.2345847625
 30
0.0
 10
12.5919855454
 20
9.2133189962
 30
0.0
 10
12.594235952
 20
9.1913742093
 30
0.0
 10
12.5961947603
 20
9.1687944774
 30
0.0
 10
12.5978579814
 20
9.1456251662
 30
0.0
 10
12.5992222266
 20
9.1219128379
 30
0.0
 10
12.6002847132
 20
9.0977051561
 30
0.0
 10
12.6010432724
 20
9.0730507886
 30
0.0
 10
12.6014963512
 20
9.0479993075
 30
0.0
 10
12.6016430151
 20
9.0226010877
 30
0.0
 10
12.601482949
 20
8.9969072044
 30
0.0
 10
12.6010164585
 20
8.9709693299
 30
0.0
 10
12.6002444681
 20
8.9448396293
 30
0.0
 10
12.5991685199
 20
8.9185706555
 30
0.0
 10
12.5977907699
 20
8.8922152429
 30
0.0
 10
12.5961139861
 20
8.8658264007
 30
0.0
 10
12.5941415402
 20
8.8394572052
 30
0.0
 10
12.5918774011
 20
8.8131606926
 30
0.0
 10
12.5893261268
 20
8.7869897523
 30
0.0
 10
12.5864928554
 20
8.7609970202
 30
0.0
 10
12.5833832945
 20
8.7352347727
 30
0.0
 10
12.58000371
 20
8.7097548213
 30
0.0
 10
12.5763609144
 20
8.6846084067
 30
0.0
 10
12.572462254
 20
8.659846095
 30
0.0
 10
12.5683155926
 20
8.6355176751
 30
0.0
 10
12.5639292962
 20
8.6116720584
 30
0.0
 10
12.559312216
 20
8.5883571795
 30
0.0
 10
12.5544736712
 20
8.5656198986
 30
0.0
 10
12.5494234305
 20
8.5435059058
 30
0.0
 10
12.5441716921
 20
8.5220596263
 30
0.0
 10
12.5387290647
 20
8.5013241273
 30
0.0
 10
12.5331065464
 20
8.4813410268
 30
0.0
 10
12.5273154997
 20
8.4621504082
 30
0.0
 10
12.5213676284
 20
8.443790728
 30
0.0
 10
12.5152749526
 20
8.4262987534
 30
0.0
 10
12.5090497771
 20
8.4097094016
 30
0.0
 10
12.5027046714
 20
8.3940559214
 30
0.0
 10
12.4972552476
 20
8.3816516464
 30
0.0
 10
12.4928375597
 20
8.3722279318
 30
0.0
 10
12.48954805
 20
8.3655110263
 30
0.0
 10
12.4862381655
 20
8.3590505484
 30
0.0
 10
12.4829095366
 20
8.352849723
 30
0.0
 10
12.4795638602
 20
8.3469116376
 30
0.0
 10
12.4762027652
 20
8.341239266
 30
0.0
 10
12.4728279731
 20
8.3358354082
 30
0.0
 10
12.4694411069
 20
8.3307027768
 30
0.0
 10
12.4660439026
 20
8.3258439049
 30
0.0
 10
12.4626380018
 20
8.3212612052
 30
0.0
 10
12.4592250512
 20
8.3169569144
 30
0.0
 10
12.4558066539
 20
8.312933113
 30
0.0
 10
12.4523846082
 20
8.3091919839
 30
0.0
 10
12.4500545154
 20
8.3068396715
 30
0.0
 10
12.4488888253
 20
8.3057137013
 30
0.0
  0
SPLINE
  5
378
100
AcDbEntity
  8
0
100
AcDbSpline
 62
7
  6
CONTINUOUS
 70
0
 71
3
 72
84
 73
80
 74
0
 42
0.0000001
 43
0.0000001
 44
0.0000000001
 40
0.0
 40
0.0
 40
0.0
 40
0.0
 40
0.0038900711
 40
0.0079384671
 40
0.0121485517
 40
0.016523196
 40
0.0210648294
 40
0.0257753409
 40
0.0306560174
 40
0.0357077488
 40
0.0409310156
 40
0.0463259695
 40
0.0518924526
 40
0.0576299774
 40
0.0635378383
 40
0.0696150414
 40
0.0822721501
 40
0.0955897357
 40
0.109552921
 40
0.1241443013
 40
0.1393442271
 40
0.1551310304
 40
0.1714812222
 40
0.188369665
 40
0.2057697185
 40
0.2236533693
 40
0.2419913474
 40
0.260753231
 40
0.2799075531
 40
0.2994219011
 40
0.3192630096
 40
0.3393968492
 40
0.3597887131
 40
0.380403302
 40
0.4012048129
 40
0.4432227384
 40
0.4855498032
 40
0.5278899008
 40
0.5699468146
 40
0.5907774501
 40
0.6114275005
 40
0.6318610846
 40
0.6520428114
 40
0.6719378639
 40
0.6915120844
 40
0.7107320631
 40
0.7295652318
 40
0.7479799549
 40
0.7659456229
 40
0.7834327536
 40
0.800413099
 40
0.816859765
 40
0.8327473437
 40
0.8480520512
 40
0.8627518884
 40
0.8768268306
 40
0.8902590523
 40
0.9030332082
 40
0.9151367728
 40
0.9209342848
 40
0.9265609575
 40
0.9320162545
 40
0.9372998816
 40
0.9424118707
 40
0.9473526024
 40
0.9521228014
 40
0.9567236584
 40
0.9611567853
 40
0.9654243511
 40
0.9695291031
 40
0.9734744361
 40
0.9772645259
 40
0.9809043448
 40
0.9843998469
 40
0.987758014
 40
0.9909869951
 40
0.9940962274
 40
0.9970964843
 40
1.0
 40
1.0
 40
1.0
 40
1.0
 10
12.4179791963
 20
8.3078572914
 30
0.0
 10
12.4191012553
 20
8.3089411172
 30
0.0
 10
12.421344238
 20
8.3112017639
 30
0.0
 10
12.42464095
 20
8.3147902697
 30
0.0
 10
12.4279344227
 20
8.3186412529
 30
0.0
 10
12.4312230106
 20
8.3227527704
 30
0.0
 10
12.4345052968
 20
8.3271229543
 30
0.0
 10
12.4377797873
 20
8.3317498467
 30
0.0
 10
12.4410450431
 20
8.336631305
 30
0.0
 10
12.4442995031
 20
8.3417650971
 30
0.0
 10
12.4475416929
 20
8.3471488337
 30
0.0
 10
12.4507701126
 20
8.3527800313
 30
0.0
 10
12.4539832484
 20
8.3586560951
 30
0.0
 10
12.4571796425
 20
8.3647742879
 30
0.0
 10
12.4603577829
 20
8.3711317949
 30
0.0
 10
12.4646269567
 20
8.3800447166
 30
0.0
 10
12.4698981592
 20
8.391770292
 30
0.0
 10
12.4760448963
 20
8.4065621218
 30
0.0
 10
12.4820841891
 20
8.4222323053
 30
0.0
 10
12.4880047269
 20
8.438751701
 30
0.0
 10
12.4937954173
 20
8.4560897208
 30
0.0
 10
12.499445406
 20
8.4742141492
 30
0.0
 10
12.5049441026
 20
8.4930912835
 30
0.0
 10
12.5102811982
 20
8.5126859881
 30
0.0
 10
12.515446688
 20
8.5329617715
 30
0.0
 10
12.5204308897
 20
8.5538808564
 30
0.0
 10
12.5252244607
 20
8.5754042509
 30
0.0
 10
12.5298184228
 20
8.5974918218
 30
0.0
 10
12.5342041731
 20
8.6201023731
 30
0.0
 10
12.5383734996
 20
8.6431937278
 30
0.0
 10
12.5423185962
 20
8.6667228069
 30
0.0
 10
12.5460320792
 20
8.6906457132
 30
0.0
 10
12.5495069907
 20
8.7149177981
 30
0.0
 10
12.5527368591
 20
8.7394937989
 30
0.0
 10
12.5567216333
 20
8.7727157068
 30
0.0
 10
12.561043447
 20
8.8146641421
 30
0.0
 10
12.5651523863
 20
8.8653059553
 30
0.0
 10
12.5681702788
 20
8.9160401425
 30
0.0
 10
12.5697624951
 20
8.9582131054
 30
0.0
 10
12.5704683472
 20
8.9917072317
 30
0.0
 10
12.5707117991
 20
9.016536
 30
0.0
 10
12.5706706251
 20
9.0411056843
 30
0.0
 10
12.5703448969
 20
9.0653704696
 30
0.0
 10
12.5697352464
 20
9.0892850649
 30
0.0
 10
12.5688428305
 20
9.1128048469
 30
0.0
 10
12.5676693379
 20
9.1358859303
 30
0.0
 10
12.5662169901
 20
9.1584852559
 30
0.0
 10
12.5644885329
 20
9.1805606715
 30
0.0
 10
12.5624872305
 20
9.2020710094
 30
0.0
 10
12.5602168605
 20
9.2229761641
 30
0.0
 10
12.5576817063
 20
9.2432371701
 30
0.0
 10
12.5548865508
 20
9.26281628
 30
0.0
 10
12.5518366725
 20
9.2816770416
 30
0.0
 10
12.5485378286
 20
9.299784367
 30
0.0
 10
12.5449962436
 20
9.3171046085
 30
0.0
 10
12.5412185957
 20
9.3336056056
 30
0.0
 10
12.5372119989
 20
9.3492568396
 30
0.0
 10
12.5329839839
 20
9.3640292275
 30
0.0
 10
12.5292308483
 20
9.3757470022
 30
0.0
 10
12.526114861
 20
9.3846534126
 30
0.0
 10
12.5237610201
 20
9.3910005906
 30
0.0
 10
12.5213579049
 20
9.3971083641
 30
0.0
 10
12.5189065794
 20
9.4029739103
 30
0.0
 10
12.516408186
 20
9.4085945143
 30
0.0
 10
12.5138639021
 20
9.4139675917
 30
0.0
 10
12.5112748488
 20
9.4190906501
 30
0.0
 10
12.5086422652
 20
9.4239613543
 30
0.0
 10
12.5059672992
 20
9.4285774515
 30
0.0
 10
12.5032511795
 20
9.4329368359
 30
0.0
 10
12.5004951235
 20
9.4370375193
 30
0.0
 10
12.4977003072
 20
9.440877603
 30
0.0
 10
12.4948680006
 20
9.4444553623
 30
0.0
 10
12.4919993514
 20
9.4477691081
 30
0.0
 10
12.4890956109
 20
9.4508173264
 30
0.0
 10
12.4861579526
 20
9.4535985592
 30
0.0
 10
12.4831875764
 20
9.4561114101
 30
0.0
 10
12.4801856577
 20
9.4583546637
 30
0.0
 10
12.4771536096
 20
9.4603268948
 30
0.0
 10
12.4750817121
 20
9.4614776468
 30
0.0
 10
12.4740432356
 20
9.4620043142
 30
0.0
  0
SPLINE
  5
379
100
AcDbEntity
  8
0
100
AcDbSpline
 62
7
  6
CONTINUOUS
 70
0
 71
3
 72
15
 73
11
 74
0
 42
0.0000001
 43
0.0000001
 44
0.0000000001
 40
0.0
 40
0.0
 40
0.0
 40
0.0
 40
0.1419816654
 40
0.278595296
 40
0.410044345
 40
0.536574793
 40
0.6584794438
 40
0.7760922473
 40
0.8897912072
 40
1.0
 40
1.0
 40
1.0
 40
1.0
 10
12.4179791963
 20
8.3078572914
 30
0.0
 10
12.4169501824
 20
8.3068633402
 30
0.0
 10
12.4148927425
 20
8.3049521083
 30
0.0
 10
12.411746689
 20
8.3022716561
 30
0.0
 10
12.4086026282
 20
8.2998351662
 30
0.0
 10
12.4054619047
 20
8.2976438942
 30
0.0
 10
12.4023257589
 20
8.2956987859
 30
0.0
 10
12.39919526
 20
8.2940007934
 30
0.0
 10
12.3960718651
 20
8.2925508185
 30
0.0
 10
12.3939647565
 20
8.2917383984
 30
0.0
 10
12.3929149438
 20
8.2913762847
 30
0.0
  0
SPLINE
  5
37A
100
AcDbEntity
  8
0
100
AcDbSpline
 62
7
  6
CONTINUOUS
 70
0
 71
3
 72
23
 73
19
 74
0
 42
0.0000001
 43
0.0000001
 44
0.0000000001
 40
0.0
 40
0.0
 40
0.0
 40
0.0
 40
0.0781363634
 40
0.1532312145
 40
0.2254044137
 40
0.2948000444
 40
0.3615918227
 40
0.425978862
 40
0.488187118
 40
0.5484703241
 40
0.6071102923
 40
0.6644171419
 40
0.7207254262
 40
0.7763893711
 40
0.8317768817
 40
0.8872617001
 40
0.9432155646
 40
1.0
 40
1.0
 40
1.0
 40
1.0
 10
12.4179791963
 20
8.4865535798
 30
0.0
 10
12.4172517047
 20
8.4858508769
 30
0.0
 10
12.4157971472
 20
8.4845012644
 30
0.0
 10
12.4135716358
 20
8.4826127689
 30
0.0
 10
12.4113475963
 20
8.4809021282
 30
0.0
 10
12.4091260305
 20
8.4793703261
 30
0.0
 10
12.4069078766
 20
8.4780180628
 30
0.0
 10
12.4046939782
 20
8.476846056
 30
0.0
 10
12.4024852339
 20
8.4758549616
 30
0.0
 10
12.4002826033
 20
8.4750453726
 30
0.0
 10
12.3980870577
 20
8.4744179575
 30
0.0
 10
12.3958996781
 20
8.4739732005
 30
0.0
 10
12.3937215978
 20
8.4737115079
 30
0.0
 10
12.3915540188
 20
8.4736332513
 30
0.0
 10
12.3893982254
 20
8.4737384884
 30
0.0
 10
12.3872554535
 20
8.4740272225
 30
0.0
 10
12.3851271445
 20
8.4744992013
 30
0.0
 10
12.3837314061
 20
8.4749317819
 30
0.0
 10
12.3830383884
 20
8.475176805
 30
0.0
  0
SPLINE
  5
37B
100
AcDbEntity
  8
0
100
AcDbSpline
 62
7
  6
CONTINUOUS
 70
0
 71
3
 72
12
 73
8
 74
0
 42
0.0000001
 43
0.0000001
 44
0.0000000001
 40
0.0
 40
0.0
 40
0.0
 40
0.0
 40
0.1232601469
 40
0.2471830875
 40
0.4966645069
 40
0.7478027229
 40
1.0
 40
1.0
 40
1.0
 40
1.0
 10
10.8826305933
 20
7.8442790713
 30
0.0
 10
10.88000435
 20
7.8476883188
 30
0.0
 10
10.8746982285
 20
7.8544948019
 30
0.0
 10
10.8638938435
 20
7.8680582316
 30
0.0
 10
10.850062456
 20
7.8849172777
 30
0.0
 10
10.8330050225
 20
7.9049161968
 30
0.0
 10
10.8213597523
 20
7.9180788204
 30
0.0
 10
10.8154635529
 20
7.9246184326
 30
0.0
  0
SPLINE
  5
37C
100
AcDbEntity
  8
0
100
AcDbSpline
 62
7
  6
CONTINUOUS
 70
0
 71
3
 72
21
 73
17
 74
0
 42
0.0000001
 43
0.0000001
 44
0.0000000001
 40
0.0
 40
0.0
 40
0.0
 40
0.0
 40
0.1273176366
 40
0.2537999756
 40
0.3167619475
 40
0.3795355041
 40
0.4421314991
 40
0.5045621439
 40
0.5668413432
 40
0.6289845283
 40
0.6910084528
 40
0.7529310935
 40
0.8147714495
 40
0.8765493365
 40
0.9382852194
 40
1.0
 40
1.0
 40
1.0
 40
1.0
 10
11.1550619201
 20
10.0052764305
 30
0.0
 10
11.1550619201
 20
10.0105736804
 30
0.0
 10
11.1555675776
 20
10.0211402446
 30
0.0
 10
11.1574772816
 20
10.0342028011
 30
0.0
 10
11.1597598026
 20
10.0444492347
 30
0.0
 10
11.1618413391
 20
10.0520070078
 30
0.0
 10
11.1642901267
 20
10.0594304918
 30
0.0
 10
11.1671005545
 20
10.0667027716
 30
0.0
 10
11.1702661219
 20
10.0738070335
 30
0.0
 10
11.1737795733
 20
10.0807268939
 30
0.0
 10
11.1776328266
 20
10.0874463782
 30
0.0
 10
11.1818169731
 20
10.0939500101
 30
0.0
 10
11.1863223755
 20
10.1002227628
 30
0.0
 10
11.1911387227
 20
10.1062501947
 30
0.0
 10
11.1962546813
 20
10.1120182413
 30
0.0
 10
11.1998578846
 20
10.1156824814
 30
0.0
 10
11.2017047434
 20
10.1174664103
 30
0.0
  0
SPLINE
  5
37D
100
AcDbEntity
  8
0
100
AcDbSpline
 62
4
  6
CONTINUOUS
 70
0
 71
3
 72
397
 73
393
 74
0
 42
0.0000001
 43
0.0000001
 44
0.0000000001
 40
0.0
 40
0.0
 40
0.0
 40
0.0
 40
0.015625
 40
0.0234375
 40
0.03125
 40
0.0390625
 40
0.04296875
 40
0.046875
 40
0.05078125
 40
0.0546875
 40
0.056640625
 40
0.05859375
 40
0.0595703125
 40
0.060546875
 40
0.0615234375
 40
0.0620117188
 40
0.0622558594
 40
0.0625
 40
0.0627441406
 40
0.0629882812
 40
0.0634765625
 40
0.064453125
 40
0.0654296875
 40
0.06640625
 40
0.068359375
 40
0.0703125
 40
0.07421875
 40
0.078125
 40
0.08203125
 40
0.0859375
 40
0.09375
 40
0.1015625
 40
0.10546875
 40
0.109375
 40
0.11328125
 40
0.1171875
 40
0.119140625
 40
0.12109375
 40
0.1220703125
 40
0.123046875
 40
0.1240234375
 40
0.1245117188
 40
0.1247558594
 40
0.125
 40
0.1252441406
 40
0.1254882812
 40
0.1259765625
 40
0.126953125
 40
0.1279296875
 40
0.12890625
 40
0.130859375
 40
0.1328125
 40
0.13671875
 40
0.140625
 40
0.14453125
 40
0.1484375
 40
0.15625
 40
0.1640625
 40
0.16796875
 40
0.171875
 40
0.17578125
 40
0.1796875
 40
0.181640625
 40
0.18359375
 40
0.1845703125
 40
0.185546875
 40
0.1865234375
 40
0.1870117188
 40
0.1872558594
 40
0.1875
 40
0.1877441406
 40
0.1879882812
 40
0.1884765625
 40
0.189453125
 40
0.1904296875
 40
0.19140625
 40
0.193359375
 40
0.1953125
 40
0.19921875
 40
0.203125
 40
0.20703125
 40
0.2109375
 40
0.21875
 40
0.2265625
 40
0.23046875
 40
0.234375
 40
0.23828125
 40
0.2421875
 40
0.244140625
 40
0.24609375
 40
0.2470703125
 40
0.248046875
 40
0.2490234375
 40
0.2495117188
 40
0.2497558594
 40
0.25
 40
0.2502441406
 40
0.2504882812
 40
0.2509765625
 40
0.251953125
 40
0.2529296875
 40
0.25390625
 40
0.255859375
 40
0.2578125
 40
0.26171875
 40
0.265625
 40
0.26953125
 40
0.2734375
 40
0.28125
 40
0.2890625
 40
0.29296875
 40
0.296875
 40
0.30078125
 40
0.3046875
 40
0.306640625
 40
0.30859375
 40
0.3095703125
 40
0.310546875
 40
0.3115234375
 40
0.3120117188
 40
0.3122558594
 40
0.3125
 40
0.3127441406
 40
0.3129882812
 40
0.3134765625
 40
0.314453125
 40
0.3154296875
 40
0.31640625
 40
0.318359375
 40
0.3203125
 40
0.32421875
 40
0.328125
 40
0.33203125
 40
0.3359375
 40
0.34375
 40
0.3515625
 40
0.35546875
 40
0.359375
 40
0.36328125
 40
0.3671875
 40
0.369140625
 40
0.37109375
 40
0.3720703125
 40
0.373046875
 40
0.3740234375
 40
0.3745117188
 40
0.3747558594
 40
0.375
 40
0.3752441406
 40
0.3754882812
 40
0.3759765625
 40
0.376953125
 40
0.3779296875
 40
0.37890625
 40
0.380859375
 40
0.3828125
 40
0.38671875
 40
0.390625
 40
0.39453125
 40
0.3984375
 40
0.40625
 40
0.4140625
 40
0.41796875
 40
0.421875
 40
0.42578125
 40
0.4296875
 40
0.431640625
 40
0.43359375
 40
0.4345703125
 40
0.435546875
 40
0.4365234375
 40
0.4370117188
 40
0.4372558594
 40
0.4375
 40
0.4377441406
 40
0.4379882812
 40
0.4384765625
 40
0.439453125
 40
0.4404296875
 40
0.44140625
 40
0.443359375
 40
0.4453125
 40
0.44921875
 40
0.453125
 40
0.45703125
 40
0.4609375
 40
0.46875
 40
0.4765625
 40
0.48046875
 40
0.484375
 40
0.48828125
 40
0.4921875
 40
0.494140625
 40
0.49609375
 40
0.4970703125
 40
0.498046875
 40
0.4990234375
 40
0.4995117188
 40
0.4997558594
 40
0.5
 40
0.5002441406
 40
0.5004882812
 40
0.5009765625
 40
0.501953125
 40
0.5029296875
 40
0.50390625
 40
0.505859375
 40
0.5078125
 40
0.51171875
 40
0.515625
 40
0.51953125
 40
0.5234375
 40
0.53125
 40
0.5390625
 40
0.54296875
 40
0.546875
 40
0.55078125
 40
0.5546875
 40
0.556640625
 40
0.55859375
 40
0.5595703125
 40
0.560546875
 40
0.5615234375
 40
0.5620117188
 40
0.5622558594
 40
0.5625
 40
0.5627441406
 40
0.5629882812
 40
0.5634765625
 40
0.564453125
 40
0.5654296875
 40
0.56640625
 40
0.568359375
 40
0.5703125
 40
0.57421875
 40
0.578125
 40
0.58203125
 40
0.5859375
 40
0.59375
 40
0.6015625
 40
0.60546875
 40
0.609375
 40
0.61328125
 40
0.6171875
 40
0.619140625
 40
0.62109375
 40
0.6220703125
 40
0.623046875
 40
0.6240234375
 40
0.6245117188
 40
0.625
 40
0.6254882812
 40
0.6259765625
 40
0.626953125
 40
0.6279296875
 40
0.62890625
 40
0.630859375
 40
0.6328125
 40
0.63671875
 40
0.640625
 40
0.64453125
 40
0.6484375
 40
0.65625
 40
0.6640625
 40
0.66796875
 40
0.671875
 40
0.67578125
 40
0.6796875
 40
0.681640625
 40
0.68359375
 40
0.6845703125
 40
0.685546875
 40
0.6865234375
 40
0.6870117188
 40
0.6872558594
 40
0.6875
 40
0.6877441406
 40
0.6879882812
 40
0.6884765625
 40
0.689453125
 40
0.6904296875
 40
0.69140625
 40
0.693359375
 40
0.6953125
 40
0.69921875
 40
0.703125
 40
0.70703125
 40
0.7109375
 40
0.71875
 40
0.7265625
 40
0.73046875
 40
0.734375
 40
0.73828125
 40
0.7421875
 40
0.744140625
 40
0.74609375
 40
0.7470703125
 40
0.748046875
 40
0.7490234375
 40
0.7495117188
 40
0.7497558594
 40
0.75
 40
0.7502441406
 40
0.7504882812
 40
0.7509765625
 40
0.751953125
 40
0.7529296875
 40
0.75390625
 40
0.755859375
 40
0.7578125
 40
0.76171875
 40
0.765625
 40
0.76953125
 40
0.7734375
 40
0.78125
 40
0.7890625
 40
0.79296875
 40
0.796875
 40
0.80078125
 40
0.8046875
 40
0.806640625
 40
0.80859375
 40
0.8095703125
 40
0.810546875
 40
0.8115234375
 40
0.8120117188
 40
0.8125
 40
0.8129882812
 40
0.8134765625
 40
0.814453125
 40
0.8154296875
 40
0.81640625
 40
0.818359375
 40
0.8203125
 40
0.82421875
 40
0.828125
 40
0.83203125
 40
0.8359375
 40
0.84375
 40
0.8515625
 40
0.85546875
 40
0.859375
 40
0.86328125
 40
0.8671875
 40
0.869140625
 40
0.87109375
 40
0.8720703125
 40
0.873046875
 40
0.8740234375
 40
0.8745117188
 40
0.875
 40
0.8754882812
 40
0.8759765625
 40
0.876953125
 40
0.8779296875
 40
0.87890625
 40
0.880859375
 40
0.8828125
 40
0.88671875
 40
0.890625
 40
0.89453125
 40
0.8984375
 40
0.90625
 40
0.9140625
 40
0.91796875
 40
0.921875
 40
0.92578125
 40
0.9296875
 40
0.931640625
 40
0.93359375
 40
0.9345703125
 40
0.935546875
 40
0.9365234375
 40
0.9370117188
 40
0.9372558594
 40
0.9375
 40
0.9377441406
 40
0.9379882812
 40
0.9384765625
 40
0.939453125
 40
0.9404296875
 40
0.94140625
 40
0.943359375
 40
0.9453125
 40
0.94921875
 40
0.953125
 40
0.95703125
 40
0.9609375
 40
0.96875
 40
0.9765625
 40
0.984375
 40
1.0
 40
1.0
 40
1.0
 40
1.0
 10
10.4045375172
 20
8.8576454961
 30
0.0
 10
10.407351757
 20
8.8577262666
 30
0.0
 10
10.4115731166
 20
8.8578474222
 30
0.0
 10
10.4172015961
 20
8.8580089631
 30
0.0
 10
10.4214229557
 20
8.8581301188
 30
0.0
 10
10.4249407554
 20
8.8582310817
 30
0.0
 10
10.4277549951
 20
8.8583118524
 30
0.0
 10
10.4298656751
 20
8.8583724293
 30
0.0
 10
10.4319763543
 20
8.8584330105
 30
0.0
 10
10.4337352561
 20
8.8584834816
 30
0.0
 10
10.4351423719
 20
8.8585238881
 30
0.0
 10
10.4360218324
 20
8.8585490747
 30
0.0
 10
10.4367253706
 20
8.8585693784
 30
0.0
 10
10.4372531069
 20
8.8585841833
 30
0.0
 10
10.4376926243
 20
8.8585978662
 30
0.0
 10
10.4380008022
 20
8.8586048037
 30
0.0
 10
10.4381760986
 20
8.8586128909
 30
0.0
 10
10.4383098394
 20
8.8586073422
 30
0.0
 10
10.4384349089
 20
8.8586461881
 30
0.0
 10
10.4386046929
 20
8.8586824973
 30
0.0
 10
10.4389004056
 20
8.8587532534
 30
0.0
 10
10.4393235891
 20
8.8588505614
 30
0.0
 10
10.4398310939
 20
8.8589689456
 30
0.0
 10
10.4405078772
 20
8.8591262272
 30
0.0
 10
10.4413538186
 20
8.8593230223
 30
0.0
 10
10.4427073458
 20
8.8596377866
 30
0.0
 10
10.4443992477
 20
8.860031279
 30
0.0
 10
10.446429533
 20
8.8605034541
 30
0.0
 10
10.4484598175
 20
8.8609756333
 30
0.0
 10
10.4511668638
 20
8.8616052042
 30
0.0
 10
10.4545506716
 20
8.8623921683
 30
0.0
 10
10.4579344794
 20
8.863179132
 30
0.0
 10
10.4606415255
 20
8.8638087035
 30
0.0
 10
10.4626718105
 20
8.864280881
 30
0.0
 10
10.4647020939
 20
8.8647530626
 30
0.0
 10
10.4663940018
 20
8.8651465345
 30
0.0
 10
10.4677475168
 20
8.8654613405
 30
0.0
 10
10.4685934895
 20
8.8656580297
 30
0.0
 10
10.4692702084
 20
8.8658155287
 30
0.0
 10
10.4697779097
 20
8.8659332486
 30
0.0
 10
10.4702004786
 20
8.8660326351
 30
0.0
 10
10.4704972886
 20
8.8660996807
 30
0.0
 10
10.4706653144
 20
8.866141935
 30
0.0
 10
10.4707957843
 20
8.8661625193
 30
0.0
 10
10.470909242
 20
8.8662255583
 30
0.0
 10
10.4710664529
 20
8.8662948016
 30
0.0
 10
10.4713388073
 20
8.866422877
 30
0.0
 10
10.4717293304
 20
8.8666022347
 30
0.0
 10
10.4721973394
 20
8.8668190078
 30
0.0
 10
10.4728215675
 20
8.8671074995
 30
0.0
 10
10.4736017787
 20
8.8674682987
 30
0.0
 10
10.474850158
 20
8.8680454742
 30
0.0
 10
10.4764106178
 20
8.868766979
 30
0.0
 10
10.4782831757
 20
8.8696327695
 30
0.0
 10
10.480155732
 20
8.8704985642
 30
0.0
 10
10.4826524743
 20
8.8716529556
 30
0.0
 10
10.4857734019
 20
8.8730959454
 30
0.0
 10
10.4888943297
 20
8.8745389348
 30
0.0
 10
10.4913910717
 20
8.8756933268
 30
0.0
 10
10.4932636288
 20
8.8765591197
 30
0.0
 10
10.4951361837
 20
8.8774249166
 30
0.0
 10
10.4966966527
 20
8.8781464017
 30
0.0
 10
10.4979450133
 20
8.8787236175
 30
0.0
 10
10.4987252719
 20
8.8790843142
 30
0.0
 10
10.4993494028
 20
8.8793730162
 30
0.0
 10
10.4998177088
 20
8.8795891465
 30
0.0
 10
10.5002073028
 20
8.8797705155
 30
0.0
 10
10.5004813157
 20
8.8798950004
 30
0.0
 10
10.5006358693
 20
8.8799699965
 30
0.0
 10
10.5007574894
 20
8.8800153647
 30
0.0
 10
10.5008573023
 20
8.8801023176
 30
0.0
 10
10.5009979928
 20
8.8802037495
 30
0.0
 10
10.501240657
 20
8.8803880137
 30
0.0
 10
10.5015891731
 20
8.8806477149
 30
0.0
 10
10.5020065993
 20
8.8809608688
 30
0.0
 10
10.5025634446
 20
8.881377879
 30
0.0
 10
10.5032594064
 20
8.8818993226
 30
0.0
 10
10.5043729982
 20
8.8827335314
 30
0.0
 10
10.5057649698
 20
8.883776327
 30
0.0
 10
10.5074353436
 20
8.8850276669
 30
0.0
 10
10.5091057152
 20
8.8862790107
 30
0.0
 10
10.5113328781
 20
8.8879474678
 30
0.0
 10
10.5141168315
 20
8.8900330396
 30
0.0
 10
10.5169007851
 20
8.8921186111
 30
0.0
 10
10.5191279476
 20
8.8937870687
 30
0.0
 10
10.5207983204
 20
8.8950384111
 30
0.0
 10
10.5224686898
 20
8.8962897565
 30
0.0
 10
10.5238606748
 20
8.8973325348
 30
0.0
 10
10.5249742394
 20
8.8981667787
 30
0.0
 10
10.5256702704
 20
8.8986881329
 30
0.0
 10
10.5262269735
 20
8.8991053267
 30
0.0
 10
10.5266448341
 20
8.8994179198
 30
0.0
 10
10.5269919913
 20
8.8996793755
 30
0.0
 10
10.5272370813
 20
8.8998605077
 30
0.0
 10
10.5273738851
 20
8.8999669578
 30
0.0
 10
10.5274856367
 20
8.9000384964
 30
0.0
 10
10.5275624169
 20
8.900141758
 30
0.0
 10
10.527676989
 20
8.9002683747
 30
0.0
 10
10.5278718066
 20
8.9004951096
 30
0.0
 10
10.5281530888
 20
8.9008163211
 30
0.0
 10
10.5284893557
 20
8.9012029287
 30
0.0
 10
10.5289381557
 20
8.9017180024
 30
0.0
 10
10.5294990037
 20
8.9023619826
 30
0.0
 10
10.5303964454
 20
8.9033922738
 30
0.0
 10
10.5315182184
 20
8.9046801643
 30
0.0
 10
10.5328643585
 20
8.9062256215
 30
0.0
 10
10.5342104952
 20
8.9077710818
 30
0.0
 10
10.5360053454
 20
8.9098316944
 30
0.0
 10
10.5382489077
 20
8.9124074605
 30
0.0
 10
10.5404924703
 20
8.9149832264
 30
0.0
 10
10.54228732
 20
8.9170438394
 30
0.0
 10
10.5436334582
 20
8.9185892985
 30
0.0
 10
10.5449795928
 20
8.9201347601
 30
0.0
 10
10.5461013828
 20
8.9214226367
 30
0.0
 10
10.5469987899
 20
8.9224529562
 30
0.0
 10
10.5475597258
 20
8.9230968643
 30
0.0
 10
10.5480083454
 20
8.9236120861
 30
0.0
 10
10.5483451635
 20
8.9239982414
 30
0.0
 10
10.548624721
 20
8.9243208681
 30
0.0
 10
10.5488226177
 20
8.9245450767
 30
0.0
 10
10.5489322563
 20
8.9246757411
 30
0.0
 10
10.5490241904
 20
8.9247665694
 30
0.0
 10
10.5490790265
 20
8.9248848053
 30
0.0
 10
10.5491650816
 20
8.9250328932
 30
0.0
 10
10.5493096488
 20
8.9252965011
 30
0.0
 10
10.5495193255
 20
8.9256707551
 30
0.0
 10
10.5497695883
 20
8.9261208567
 30
0.0
 10
10.5501037433
 20
8.9267206441
 30
0.0
 10
10.5505212757
 20
8.9274704975
 30
0.0
 10
10.5511894178
 20
8.9286701962
 30
0.0
 10
10.5520245644
 20
8.9301698426
 30
0.0
 10
10.5530267536
 20
8.9319694083
 30
0.0
 10
10.5540289392
 20
8.9337689768
 30
0.0
 10
10.555365188
 20
8.9361684004
 30
0.0
 10
10.5570354985
 20
8.9391676803
 30
0.0
 10
10.5587058093
 20
8.94216696
 30
0.0
 10
10.5600420576
 20
8.9445663839
 30
0.0
 10
10.5610442448
 20
8.9463659514
 30
0.0
 10
10.5620464281
 20
8.9481655207
 30
0.0
 10
10.5628815931
 20
8.9496651559
 30
0.0
 10
10.5635496976
 20
8.9508648774
 30
0.0
 10
10.5639673255
 20
8.951614673
 30
0.0
 10
10.5643012845
 20
8.952214579
 30
0.0
 10
10.5645521463
 20
8.9526643179
 30
0.0
 10
10.5647599488
 20
8.9530397069
 30
0.0
 10
10.5649078618
 20
8.9533012887
 30
0.0
 10
10.564988556
 20
8.9534526228
 30
0.0
 10
10.5650598589
 20
8.9535608874
 30
0.0
 10
10.5650899465
 20
8.9536891665
 30
0.0
 10
10.5651444398
 20
8.953853224
 30
0.0
 10
10.5652331047
 20
8.9541435774
 30
0.0
 10
10.5653632707
 20
8.9545566674
 30
0.0
 10
10.565517971
 20
8.9550531033
 30
0.0
 10
10.5657247617
 20
8.9557147635
 30
0.0
 10
10.5659830707
 20
8.9565419259
 30
0.0
 10
10.5663964654
 20
8.9578653371
 30
0.0
 10
10.5669131743
 20
8.9595196177
 30
0.0
 10
10.5675332398
 20
8.9615047474
 30
0.0
 10
10.5681533013
 20
8.9634898789
 30
0.0
 10
10.5689800514
 20
8.9661367203
 30
0.0
 10
10.5700134885
 20
8.9694452722
 30
0.0
 10
10.571046926
 20
8.9727538241
 30
0.0
 10
10.5718736755
 20
8.9754006657
 30
0.0
 10
10.5724937388
 20
8.9773857965
 30
0.0
 10
10.5731137978
 20
8.9793709288
 30
0.0
 10
10.5736305267
 20
8.981025201
 30
0.0
 10
10.5740438807
 20
8.9823486294
 30
0.0
 10
10.5743022934
 20
8.983175748
 30
0.0
 10
10.5745088713
 20
8.9838374983
 30
0.0
 10
10.5746642215
 20
8.9843336591
 30
0.0
 10
10.574792354
 20
8.9847476098
 30
0.0
 10
10.5748846492
 20
8.9850364266
 30
0.0
 10
10.5749333258
 20
8.985202946
 30
0.0
 10
10.5749812801
 20
8.985323663
 30
0.0
 10
10.5749854789
 20
8.9854603298
 30
0.0
 10
10.5750063396
 20
8.9856369887
 30
0.0
 10
10.575035735
 20
8.9859487338
 30
0.0
 10
10.575081446
 20
8.9863927289
 30
0.0
 10
10.575134708
 20
8.986926103
 30
0.0
 10
10.5752062797
 20
8.9876370659
 30
0.0
 10
10.575295554
 20
8.9885258389
 30
0.0
 10
10.5754384994
 20
8.989947837
 30
0.0
 10
10.5756171446
 20
8.9917253478
 30
0.0
 10
10.5758315344
 20
8.9938583552
 30
0.0
 10
10.5760459201
 20
8.995991364
 30
0.0
 10
10.5763317691
 20
8.9988353753
 30
0.0
 10
10.5766890799
 20
9.0023903896
 30
0.0
 10
10.577046391
 20
9.0059454038
 30
0.0
 10
10.5773322394
 20
9.0087894151
 30
0.0
 10
10.5775466269
 20
9.0109224237
 30
0.0
 10
10.57776101
 20
9.0130554322
 30
0.0
 10
10.5779396762
 20
9.0148329395
 30
0.0
 10
10.5780825788
 20
9.0162549448
 30
0.0
 10
10.5781719619
 20
9.0171436994
 30
0.0
 10
10.5782433103
 20
9.0178547
 30
0.0
 10
10.5782972546
 20
9.0183879588
 30
0.0
 10
10.5783408308
 20
9.0188323149
 30
0.0
 10
10.5783740371
 20
9.0191434154
 30
0.0
 10
10.5783887918
 20
9.0193211073
 30
0.0
 10
10.5784117466
 20
9.0194546012
 30
0.0
 10
10.5783892563
 20
9.0195872348
 30
0.0
 10
10.578375121
 20
9.0197643797
 30
0.0
 10
10.5783429987
 20
9.0200742435
 30
0.0
 10
10.5783009709
 20
9.0205169791
 30
0.0
 10
10.5782488848
 20
9.0210482305
 30
0.0
 10
10.5781800139
 20
9.0217565767
 30
0.0
 10
10.5780937276
 20
9.0226420057
 30
0.0
 10
10.5779557801
 20
9.0240586942
 30
0.0
 10
10.5777833078
 20
9.0258295541
 30
0.0
 10
10.5775763573
 20
9.0279545863
 30
0.0
 10
10.5773694024
 20
9.0300796184
 30
0.0
 10
10.5770934641
 20
9.0329129945
 30
0.0
 10
10.5767485406
 20
9.0364547147
 30
0.0
 10
10.5764036175
 20
9.0399964349
 30
0.0
 10
10.5761276786
 20
9.0428298111
 30
0.0
 10
10.5759207255
 20
9.0449548433
 30
0.0
 10
10.5757137682
 20
9.047079875
 30
0.0
 10
10.5755413169
 20
9.0488507364
 30
0.0
 10
10.5754033266
 20
9.0502674218
 30
0.0
 10
10.5753171492
 20
9.0511528587
 30
0.0
 10
10.5752480549
 20
9.0518611886
 30
0.0
 10
10.5751966514
 20
9.0523924898
 30
0.0
 10
10.5751524879
 20
9.0528350699
 30
0.0
 10
10.5751241781
 20
9.0531452112
 30
0.0
 10
10.5751039341
 20
9.0533219115
 30
0.0
 10
10.5751002078
 20
9.0534559107
 30
0.0
 10
10.5750526883
 20
9.0535842757
 30
0.0
 10
10.5750046045
 20
9.0537573943
 30
0.0
 10
10.5749133408
 20
9.0540594362
 30
0.0
 10
10.5747866849
 20
9.0544914033
 30
0.0
 10
10.5746331051
 20
9.0550095589
 30
0.0
 10
10.5744288884
 20
9.0557005047
 30
0.0
 10
10.574173427
 20
9.0565641623
 30
0.0
 10
10.5737647953
 20
9.0579460283
 30
0.0
 10
10.5732539691
 20
9.0596733561
 30
0.0
 10
10.5726409933
 20
9.0617461514
 30
0.0
 10
10.5720280134
 20
9.0638189462
 30
0.0
 10
10.5712107082
 20
9.0665826728
 30
0.0
 10
10.5701890764
 20
9.070037331
 30
0.0
 10
10.5691674442
 20
9.0734919891
 30
0.0
 10
10.5683501395
 20
9.0762557159
 30
0.0
 10
10.5677371581
 20
9.07832851
 30
0.0
 10
10.5671241878
 20
9.080401308
 30
0.0
 10
10.5666133446
 20
9.0821286277
 30
0.0
 10
10.5662047477
 20
9.0835105101
 30
0.0
 10
10.5659491976
 20
9.0843741259
 30
0.0
 10
10.5657451629
 20
9.0850651575
 30
0.0
 10
10.5655910272
 20
9.0855830509
 30
0.0
 10
10.5654661106
 20
9.0860158387
 30
0.0
 10
10.5653582608
 20
9.086359355
 30
0.0
 10
10.5652990049
 20
9.086624408
 30
0.0
 10
10.5651571814
 20
9.0868611551
 30
0.0
 10
10.5649969253
 20
9.0871867055
 30
0.0
 10
10.5647867097
 20
9.0875902511
 30
0.0
 10
10.5645386866
 20
9.0880759579
 30
0.0
 10
10.5642065096
 20
9.0887230598
 30
0.0
 10
10.563791795
 20
9.0895321109
 30
0.0
 10
10.5631279685
 20
9.0908264955
 30
0.0
 10
10.5622982825
 20
9.0924445095
 30
0.0
 10
10.5613026177
 20
9.0943861121
 30
0.0
 10
10.560306964
 20
9.0963277185
 30
0.0
 10
10.5589794219
 20
9.0989165257
 30
0.0
 10
10.5573199956
 20
9.1021525351
 30
0.0
 10
10.5556605689
 20
9.1053885445
 30
0.0
 10
10.5543330273
 20
9.1079773518
 30
0.0
 10
10.5533373721
 20
9.1099189578
 30
0.0
 10
10.552341713
 20
9.111860562
 30
0.0
 10
10.5515120091
 20
9.1134785711
 30
0.0
 10
10.5508482192
 20
9.1147729657
 30
0.0
 10
10.5504334114
 20
9.1155819913
 30
0.0
 10
10.5501014258
 20
9.1162291455
 30
0.0
 10
10.5498528183
 20
9.1167146925
 30
0.0
 10
10.5496444309
 20
9.1171187382
 30
0.0
 10
10.5495009431
 20
9.117402702
 30
0.0
 10
10.5494152287
 20
9.1175631999
 30
0.0
 10
10.5493614261
 20
9.1176885513
 30
0.0
 10
10.5492675512
 20
9.1177948744
 30
0.0
 10
10.5491563623
 20
9.1179432759
 30
0.0
 10
10.5489552693
 20
9.118199886
 30
0.0
 10
10.5486713984
 20
9.1185680886
 30
0.0
 10
10.548329296
 20
9.1190092397
 30
0.0
 10
10.5478736684
 20
9.1195976828
 30
0.0
 10
10.5473039596
 20
9.120333154
 30
0.0
 10
10.546392523
 20
9.1215099542
 30
0.0
 10
10.5452531939
 20
9.1229809386
 30
0.0
 10
10.5438860132
 20
9.1247461266
 30
0.0
 10
10.5425188287
 20
9.1265113128
 30
0.0
 10
10.5406959173
 20
9.128864895
 30
0.0
 10
10.5384172777
 20
9.1318068726
 30
0.0
 10
10.5361386383
 20
9.1347488504
 30
0.0
 10
10.5343157265
 20
9.1371024323
 30
0.0
 10
10.5329485434
 20
9.1388676195
 30
0.0
 10
10.5315813575
 20
9.1406328036
 30
0.0
 10
10.5304420446
 20
9.1421038002
 30
0.0
 10
10.5295305748
 20
9.1432805755
 30
0.0
 10
10.5289609506
 20
9.14401611
 30
0.0
 10
10.5285051494
 20
9.1446044231
 30
0.0
 10
10.5281635776
 20
9.1450459717
 30
0.0
 10
10.5278780465
 20
9.1454129306
 30
0.0
 10
10.5276799172
 20
9.1456717609
 30
0.0
 10
10.5275639797
 20
9.145816605
 30
0.0
 10
10.5274846911
 20
9.1459338553
 30
0.0
 10
10.5273761048
 20
9.146018166
 30
0.0
 10
10.5272415424
 20
9.14614207
 30
0.0
 10
10.527001297
 20
9.1463535487
 30
0.0
 10
10.5266605784
 20
9.1466584598
 30
0.0
 10
10.5262506507
 20
9.1470231553
 30
0.0
 10
10.5257044525
 20
9.1475098343
 30
0.0
 10
10.5250215774
 20
9.1481180398
 30
0.0
 10
10.5239290484
 20
9.1490912487
 30
0.0
 10
10.5225633627
 20
9.1503077323
 30
0.0
 10
10.5209245504
 20
9.1517675244
 30
0.0
 10
10.5192857352
 20
9.1532273134
 30
0.0
 10
10.5171006493
 20
9.1551736997
 30
0.0
 10
10.5143692917
 20
9.1576066824
 30
0.0
 10
10.5116379339
 20
9.1600396649
 30
0.0
 10
10.5094528483
 20
9.1619860517
 30
0.0
 10
10.5078140323
 20
9.1634458393
 30
0.0
 10
10.506175223
 20
9.1649056365
 30
0.0
 10
10.5048095278
 20
9.1661221044
 30
0.0
 10
10.5037170183
 20
9.1670953453
 30
0.0
 10
10.5030340934
 20
9.1677034692
 30
0.0
 10
10.5024879974
 20
9.1681903157
 30
0.0
 10
10.5020777577
 20
9.1685544996
 30
0.0
 10
10.5017380151
 20
9.1688610113
 30
0.0
 10
10.5014614577
 20
9.1690994358
 30
0.0
 10
10.5012670553
 20
9.1692967939
 30
0.0
 10
10.5010229722
 20
9.1694233853
 30
0.0
 10
10.5007148822
 20
9.1696168936
 30
0.0
 10
10.5003238156
 20
9.1698502978
 30
0.0
 10
10.4998570842
 20
9.170134013
 30
0.0
 10
10.4992338855
 20
9.1705110321
 30
0.0
 10
10.4984551919
 20
9.17098274
 30
0.0
 10
10.4972091118
 20
9.17173723
 30
0.0
 10
10.4956515702
 20
9.1726804258
 30
0.0
 10
10.4937824952
 20
9.1738122251
 30
0.0
 10
10.4919134269
 20
9.1749440339
 30
0.0
 10
10.4894213334
 20
9.176453109
 30
0.0
 10
10.4863062175
 20
9.1783394542
 30
0.0
 10
10.4831911011
 20
9.1802257984
 30
0.0
 10
10.4806990084
 20
9.1817348749
 30
0.0
 10
10.4788299377
 20
9.1828666795
 30
0.0
 10
10.4769608716
 20
9.1839984948
 30
0.0
 10
10.4754033022
 20
9.1849416406
 30
0.0
 10
10.4741572789
 20
9.1856962326
 30
0.0
 10
10.4733784408
 20
9.186167681
 30
0.0
 10
10.4727555387
 20
9.1865452327
 30
0.0
 10
10.472287901
 20
9.1868273206
 30
0.0
 10
10.4718996701
 20
9.1870658166
 30
0.0
 10
10.4715857947
 20
9.1872489366
 30
0.0
 10
10.4713593796
 20
9.1874072532
 30
0.0
 10
10.4710986445
 20
9.1874855017
 30
0.0
 10
10.470762986
 20
9.1876178018
 30
0.0
 10
10.4703392999
 20
9.1877735809
 30
0.0
 10
10.469832637
 20
9.1879646232
 30
0.0
 10
10.4691564716
 20
9.1882179118
 30
0.0
 10
10.4683114754
 20
9.1885350136
 30
0.0
 10
10.4669593638
 20
9.189042102
 30
0.0
 10
10.4652692646
 20
9.1896760568
 30
0.0
 10
10.4632411284
 20
9.1904367621
 30
0.0
 10
10.4612129968
 20
9.1911974782
 30
0.0
 10
10.4585088196
 20
9.1922117626
 30
0.0
 10
10.4551285988
 20
9.1934796193
 30
0.0
 10
10.4517483777
 20
9.1947474757
 30
0.0
 10
10.4490442009
 20
9.1957617606
 30
0.0
 10
10.4470160685
 20
9.1965224753
 30
0.0
 10
10.4449879349
 20
9.1972831859
 30
0.0
 10
10.4432978275
 20
9.1979171241
 30
0.0
 10
10.4419457329
 20
9.1984242462
 30
0.0
 10
10.4411006934
 20
9.1987412625
 30
0.0
 10
10.4404246168
 20
9.1989947265
 30
0.0
 10
10.4399176825
 20
9.1991852328
 30
0.0
 10
10.4394948457
 20
9.1993426891
 30
0.0
 10
10.4391996282
 20
9.1994554577
 30
0.0
 10
10.439029733
 20
9.1995159166
 30
0.0
 10
10.4389056905
 20
9.1995724732
 30
0.0
 10
10.4387687324
 20
9.1995861701
 30
0.0
 10
10.4385906268
 20
9.1996193825
 30
0.0
 10
10.4382768429
 20
9.1996705388
 30
0.0
 10
10.4378296775
 20
9.1997472609
 30
0.0
 10
10.4372926094
 20
9.1998377686
 30
0.0
 10
10.4365766827
 20
9.1999589901
 30
0.0
 10
10.4356817181
 20
9.2001103304
 30
0.0
 10
10.4342498061
 20
9.2003525792
 30
0.0
 10
10.4324599054
 20
9.2006553544
 30
0.0
 10
10.4303120291
 20
9.2010187
 30
0.0
 10
10.4281641516
 20
9.2013820415
 30
0.0
 10
10.4253003154
 20
9.2018664982
 30
0.0
 10
10.42172052
 20
9.2024720687
 30
0.0
 10
10.4174247655
 20
9.2031987534
 30
0.0
 10
10.4116970928
 20
9.2041676663
 30
0.0
 10
10.4074013384
 20
9.204894351
 30
0.0
 10
10.404537502
 20
9.2053788075
 30
0.0
  0
SPLINE
  5
37E
100
AcDbEntity
  8
0
100
AcDbSpline
 62
4
  6
CONTINUOUS
 70
0
 71
3
 72
397
 73
393
 74
0
 42
0.0000001
 43
0.0000001
 44
0.0000000001
 40
0.0
 40
0.0
 40
0.0
 40
0.0
 40
0.015625
 40
0.0234375
 40
0.03125
 40
0.0390625
 40
0.04296875
 40
0.046875
 40
0.05078125
 40
0.0546875
 40
0.056640625
 40
0.05859375
 40
0.0595703125
 40
0.060546875
 40
0.0615234375
 40
0.0620117188
 40
0.0622558594
 40
0.0625
 40
0.0627441406
 40
0.0629882812
 40
0.0634765625
 40
0.064453125
 40
0.0654296875
 40
0.06640625
 40
0.068359375
 40
0.0703125
 40
0.07421875
 40
0.078125
 40
0.08203125
 40
0.0859375
 40
0.09375
 40
0.1015625
 40
0.10546875
 40
0.109375
 40
0.11328125
 40
0.1171875
 40
0.119140625
 40
0.12109375
 40
0.1220703125
 40
0.123046875
 40
0.1240234375
 40
0.1245117188
 40
0.1247558594
 40
0.125
 40
0.1252441406
 40
0.1254882812
 40
0.1259765625
 40
0.126953125
 40
0.1279296875
 40
0.12890625
 40
0.130859375
 40
0.1328125
 40
0.13671875
 40
0.140625
 40
0.14453125
 40
0.1484375
 40
0.15625
 40
0.1640625
 40
0.16796875
 40
0.171875
 40
0.17578125
 40
0.1796875
 40
0.181640625
 40
0.18359375
 40
0.1845703125
 40
0.185546875
 40
0.1865234375
 40
0.1870117188
 40
0.1872558594
 40
0.1875
 40
0.1877441406
 40
0.1879882812
 40
0.1884765625
 40
0.189453125
 40
0.1904296875
 40
0.19140625
 40
0.193359375
 40
0.1953125
 40
0.19921875
 40
0.203125
 40
0.20703125
 40
0.2109375
 40
0.21875
 40
0.2265625
 40
0.23046875
 40
0.234375
 40
0.23828125
 40
0.2421875
 40
0.244140625
 40
0.24609375
 40
0.2470703125
 40
0.248046875
 40
0.2490234375
 40
0.2495117188
 40
0.2497558594
 40
0.25
 40
0.2502441406
 40
0.2504882812
 40
0.2509765625
 40
0.251953125
 40
0.2529296875
 40
0.25390625
 40
0.255859375
 40
0.2578125
 40
0.26171875
 40
0.265625
 40
0.26953125
 40
0.2734375
 40
0.28125
 40
0.2890625
 40
0.29296875
 40
0.296875
 40
0.30078125
 40
0.3046875
 40
0.306640625
 40
0.30859375
 40
0.3095703125
 40
0.310546875
 40
0.3115234375
 40
0.3120117188
 40
0.3122558594
 40
0.3125
 40
0.3127441406
 40
0.3129882812
 40
0.3134765625
 40
0.314453125
 40
0.3154296875
 40
0.31640625
 40
0.318359375
 40
0.3203125
 40
0.32421875
 40
0.328125
 40
0.33203125
 40
0.3359375
 40
0.34375
 40
0.3515625
 40
0.35546875
 40
0.359375
 40
0.36328125
 40
0.3671875
 40
0.369140625
 40
0.37109375
 40
0.3720703125
 40
0.373046875
 40
0.3740234375
 40
0.3745117188
 40
0.3747558594
 40
0.375
 40
0.3752441406
 40
0.3754882812
 40
0.3759765625
 40
0.376953125
 40
0.3779296875
 40
0.37890625
 40
0.380859375
 40
0.3828125
 40
0.38671875
 40
0.390625
 40
0.39453125
 40
0.3984375
 40
0.40625
 40
0.4140625
 40
0.41796875
 40
0.421875
 40
0.42578125
 40
0.4296875
 40
0.431640625
 40
0.43359375
 40
0.4345703125
 40
0.435546875
 40
0.4365234375
 40
0.4370117188
 40
0.4372558594
 40
0.4375
 40
0.4377441406
 40
0.4379882812
 40
0.4384765625
 40
0.439453125
 40
0.4404296875
 40
0.44140625
 40
0.443359375
 40
0.4453125
 40
0.44921875
 40
0.453125
 40
0.45703125
 40
0.4609375
 40
0.46875
 40
0.4765625
 40
0.48046875
 40
0.484375
 40
0.48828125
 40
0.4921875
 40
0.494140625
 40
0.49609375
 40
0.4970703125
 40
0.498046875
 40
0.4990234375
 40
0.4995117188
 40
0.4997558594
 40
0.5
 40
0.5002441406
 40
0.5004882812
 40
0.5009765625
 40
0.501953125
 40
0.5029296875
 40
0.50390625
 40
0.505859375
 40
0.5078125
 40
0.51171875
 40
0.515625
 40
0.51953125
 40
0.5234375
 40
0.53125
 40
0.5390625
 40
0.54296875
 40
0.546875
 40
0.55078125
 40
0.5546875
 40
0.556640625
 40
0.55859375
 40
0.5595703125
 40
0.560546875
 40
0.5615234375
 40
0.5620117188
 40
0.5622558594
 40
0.5625
 40
0.5627441406
 40
0.5629882812
 40
0.5634765625
 40
0.564453125
 40
0.5654296875
 40
0.56640625
 40
0.568359375
 40
0.5703125
 40
0.57421875
 40
0.578125
 40
0.58203125
 40
0.5859375
 40
0.59375
 40
0.6015625
 40
0.60546875
 40
0.609375
 40
0.61328125
 40
0.6171875
 40
0.619140625
 40
0.62109375
 40
0.6220703125
 40
0.623046875
 40
0.6240234375
 40
0.6245117188
 40
0.625
 40
0.6254882812
 40
0.6259765625
 40
0.626953125
 40
0.6279296875
 40
0.62890625
 40
0.630859375
 40
0.6328125
 40
0.63671875
 40
0.640625
 40
0.64453125
 40
0.6484375
 40
0.65625
 40
0.6640625
 40
0.66796875
 40
0.671875
 40
0.67578125
 40
0.6796875
 40
0.681640625
 40
0.68359375
 40
0.6845703125
 40
0.685546875
 40
0.6865234375
 40
0.6870117188
 40
0.6872558594
 40
0.6875
 40
0.6877441406
 40
0.6879882812
 40
0.6884765625
 40
0.689453125
 40
0.6904296875
 40
0.69140625
 40
0.693359375
 40
0.6953125
 40
0.69921875
 40
0.703125
 40
0.70703125
 40
0.7109375
 40
0.71875
 40
0.7265625
 40
0.73046875
 40
0.734375
 40
0.73828125
 40
0.7421875
 40
0.744140625
 40
0.74609375
 40
0.7470703125
 40
0.748046875
 40
0.7490234375
 40
0.7495117188
 40
0.7497558594
 40
0.75
 40
0.7502441406
 40
0.7504882812
 40
0.7509765625
 40
0.751953125
 40
0.7529296875
 40
0.75390625
 40
0.755859375
 40
0.7578125
 40
0.76171875
 40
0.765625
 40
0.76953125
 40
0.7734375
 40
0.78125
 40
0.7890625
 40
0.79296875
 40
0.796875
 40
0.80078125
 40
0.8046875
 40
0.806640625
 40
0.80859375
 40
0.8095703125
 40
0.810546875
 40
0.8115234375
 40
0.8120117188
 40
0.8125
 40
0.8129882812
 40
0.8134765625
 40
0.814453125
 40
0.8154296875
 40
0.81640625
 40
0.818359375
 40
0.8203125
 40
0.82421875
 40
0.828125
 40
0.83203125
 40
0.8359375
 40
0.84375
 40
0.8515625
 40
0.85546875
 40
0.859375
 40
0.86328125
 40
0.8671875
 40
0.869140625
 40
0.87109375
 40
0.8720703125
 40
0.873046875
 40
0.8740234375
 40
0.8745117188
 40
0.875
 40
0.8754882812
 40
0.8759765625
 40
0.876953125
 40
0.8779296875
 40
0.87890625
 40
0.880859375
 40
0.8828125
 40
0.88671875
 40
0.890625
 40
0.89453125
 40
0.8984375
 40
0.90625
 40
0.9140625
 40
0.91796875
 40
0.921875
 40
0.92578125
 40
0.9296875
 40
0.931640625
 40
0.93359375
 40
0.9345703125
 40
0.935546875
 40
0.9365234375
 40
0.9370117188
 40
0.9372558594
 40
0.9375
 40
0.9377441406
 40
0.9379882812
 40
0.9384765625
 40
0.939453125
 40
0.9404296875
 40
0.94140625
 40
0.943359375
 40
0.9453125
 40
0.94921875
 40
0.953125
 40
0.95703125
 40
0.9609375
 40
0.96875
 40
0.9765625
 40
0.984375
 40
1.0
 40
1.0
 40
1.0
 40
1.0
 10
10.4045375172
 20
9.2053788064
 30
0.0
 10
10.4017232775
 20
9.205298036
 30
0.0
 10
10.3975019179
 20
9.2051768804
 30
0.0
 10
10.3918734384
 20
9.2050153395
 30
0.0
 10
10.3876520788
 20
9.2048941838
 30
0.0
 10
10.3841342791
 20
9.2047932209
 30
0.0
 10
10.3813200394
 20
9.2047124502
 30
0.0
 10
10.3792093594
 20
9.2046518733
 30
0.0
 10
10.3770986802
 20
9.2045912921
 30
0.0
 10
10.3753397783
 20
9.204540821
 30
0.0
 10
10.3739326626
 20
9.2045004145
 30
0.0
 10
10.3730532021
 20
9.2044752279
 30
0.0
 10
10.3723496639
 20
9.2044549242
 30
0.0
 10
10.3718219276
 20
9.2044401193
 30
0.0
 10
10.3713824102
 20
9.2044264364
 30
0.0
 10
10.3710742323
 20
9.2044194989
 30
0.0
 10
10.3708989359
 20
9.2044114117
 30
0.0
 10
10.3707651951
 20
9.2044169604
 30
0.0
 10
10.3706401256
 20
9.2043781145
 30
0.0
 10
10.3704703416
 20
9.2043418052
 30
0.0
 10
10.3701746289
 20
9.2042710492
 30
0.0
 10
10.3697514454
 20
9.2041737412
 30
0.0
 10
10.3692439405
 20
9.204055357
 30
0.0
 10
10.3685671573
 20
9.2038980754
 30
0.0
 10
10.3677212159
 20
9.2037012802
 30
0.0
 10
10.3663676886
 20
9.203386516
 30
0.0
 10
10.3646757868
 20
9.2029930235
 30
0.0
 10
10.3626455015
 20
9.2025208485
 30
0.0
 10
10.360615217
 20
9.2020486693
 30
0.0
 10
10.3579081707
 20
9.2014190984
 30
0.0
 10
10.3545243629
 20
9.2006321343
 30
0.0
 10
10.3511405551
 20
9.1998451706
 30
0.0
 10
10.348433509
 20
9.1992155991
 30
0.0
 10
10.3464032239
 20
9.1987434216
 30
0.0
 10
10.3443729406
 20
9.19827124
 30
0.0
 10
10.3426810327
 20
9.1978777681
 30
0.0
 10
10.3413275177
 20
9.1975629621
 30
0.0
 10
10.340481545
 20
9.1973662729
 30
0.0
 10
10.339804826
 20
9.1972087738
 30
0.0
 10
10.3392971248
 20
9.197091054
 30
0.0
 10
10.3388745559
 20
9.1969916675
 30
0.0
 10
10.3385777459
 20
9.1969246219
 30
0.0
 10
10.3384097201
 20
9.1968823676
 30
0.0
 10
10.3382792502
 20
9.1968617833
 30
0.0
 10
10.3381657925
 20
9.1967987443
 30
0.0
 10
10.3380085816
 20
9.196729501
 30
0.0
 10
10.3377362272
 20
9.1966014256
 30
0.0
 10
10.3373457041
 20
9.1964220679
 30
0.0
 10
10.3368776951
 20
9.1962052947
 30
0.0
 10
10.3362534669
 20
9.1959168031
 30
0.0
 10
10.3354732558
 20
9.1955560039
 30
0.0
 10
10.3342248765
 20
9.1949788284
 30
0.0
 10
10.3326644167
 20
9.1942573236
 30
0.0
 10
10.3307918588
 20
9.1933915331
 30
0.0
 10
10.3289193025
 20
9.1925257384
 30
0.0
 10
10.3264225602
 20
9.191371347
 30
0.0
 10
10.3233016326
 20
9.1899283572
 30
0.0
 10
10.3201807048
 20
9.1884853678
 30
0.0
 10
10.3176839628
 20
9.1873309758
 30
0.0
 10
10.3158114057
 20
9.1864651829
 30
0.0
 10
10.3139388508
 20
9.1855993859
 30
0.0
 10
10.3123783818
 20
9.1848779009
 30
0.0
 10
10.3111300211
 20
9.1843006851
 30
0.0
 10
10.3103497626
 20
9.1839399884
 30
0.0
 10
10.3097256317
 20
9.1836512864
 30
0.0
 10
10.3092573257
 20
9.183435156
 30
0.0
 10
10.3088677317
 20
9.1832537871
 30
0.0
 10
10.3085937188
 20
9.1831293022
 30
0.0
 10
10.3084391652
 20
9.1830543061
 30
0.0
 10
10.308317545
 20
9.1830089379
 30
0.0
 10
10.3082177322
 20
9.182921985
 30
0.0
 10
10.3080770417
 20
9.1828205531
 30
0.0
 10
10.3078343775
 20
9.1826362889
 30
0.0
 10
10.3074858614
 20
9.1823765877
 30
0.0
 10
10.3070684352
 20
9.1820634338
 30
0.0
 10
10.3065115899
 20
9.1816464236
 30
0.0
 10
10.3058156281
 20
9.18112498
 30
0.0
 10
10.3047020363
 20
9.1802907712
 30
0.0
 10
10.3033100647
 20
9.1792479756
 30
0.0
 10
10.3016396909
 20
9.1779966357
 30
0.0
 10
10.2999693193
 20
9.1767452919
 30
0.0
 10
10.2977421564
 20
9.1750768348
 30
0.0
 10
10.294958203
 20
9.172991263
 30
0.0
 10
10.2921742494
 20
9.1709056915
 30
0.0
 10
10.2899470869
 20
9.1692372339
 30
0.0
 10
10.2882767141
 20
9.1679858915
 30
0.0
 10
10.2866063447
 20
9.1667345461
 30
0.0
 10
10.2852143597
 20
9.1656917678
 30
0.0
 10
10.2841007951
 20
9.1648575239
 30
0.0
 10
10.2834047641
 20
9.1643361696
 30
0.0
 10
10.282848061
 20
9.1639189759
 30
0.0
 10
10.2824302004
 20
9.1636063828
 30
0.0
 10
10.2820830432
 20
9.1633449271
 30
0.0
 10
10.2818379532
 20
9.1631637949
 30
0.0
 10
10.2817011494
 20
9.1630573448
 30
0.0
 10
10.2815893978
 20
9.1629858062
 30
0.0
 10
10.2815126176
 20
9.1628825446
 30
0.0
 10
10.2813980455
 20
9.1627559279
 30
0.0
 10
10.2812032279
 20
9.162529193
 30
0.0
 10
10.2809219457
 20
9.1622079815
 30
0.0
 10
10.2805856788
 20
9.1618213739
 30
0.0
 10
10.2801368788
 20
9.1613063002
 30
0.0
 10
10.2795760308
 20
9.16066232
 30
0.0
 10
10.2786785891
 20
9.1596320288
 30
0.0
 10
10.2775568161
 20
9.1583441383
 30
0.0
 10
10.276210676
 20
9.1567986811
 30
0.0
 10
10.2748645392
 20
9.1552532208
 30
0.0
 10
10.2730696891
 20
9.1531926082
 30
0.0
 10
10.2708261268
 20
9.1506168421
 30
0.0
 10
10.2685825642
 20
9.1480410762
 30
0.0
 10
10.2667877145
 20
9.1459804632
 30
0.0
 10
10.2654415763
 20
9.1444350041
 30
0.0
 10
10.2640954417
 20
9.1428895425
 30
0.0
 10
10.2629736517
 20
9.1416016659
 30
0.0
 10
10.2620762445
 20
9.1405713463
 30
0.0
 10
10.2615153087
 20
9.1399274383
 30
0.0
 10
10.2610666891
 20
9.1394122164
 30
0.0
 10
10.260729871
 20
9.1390260612
 30
0.0
 10
10.2604503135
 20
9.1387034345
 30
0.0
 10
10.2602524168
 20
9.1384792259
 30
0.0
 10
10.2601427782
 20
9.1383485615
 30
0.0
 10
10.2600508441
 20
9.1382577332
 30
0.0
 10
10.259996008
 20
9.1381394973
 30
0.0
 10
10.2599099529
 20
9.1379914094
 30
0.0
 10
10.2597653857
 20
9.1377278015
 30
0.0
 10
10.259555709
 20
9.1373535475
 30
0.0
 10
10.2593054462
 20
9.1369034458
 30
0.0
 10
10.2589712912
 20
9.1363036585
 30
0.0
 10
10.2585537588
 20
9.1355538051
 30
0.0
 10
10.2578856167
 20
9.1343541064
 30
0.0
 10
10.2570504701
 20
9.13285446
 30
0.0
 10
10.2560482809
 20
9.1310548942
 30
0.0
 10
10.2550460953
 20
9.1292553258
 30
0.0
 10
10.2537098465
 20
9.1268559022
 30
0.0
 10
10.252039536
 20
9.1238566223
 30
0.0
 10
10.2503692252
 20
9.1208573426
 30
0.0
 10
10.2490329769
 20
9.1184579187
 30
0.0
 10
10.2480307897
 20
9.1166583512
 30
0.0
 10
10.2470286064
 20
9.1148587819
 30
0.0
 10
10.2461934414
 20
9.1133591467
 30
0.0
 10
10.2455253369
 20
9.1121594252
 30
0.0
 10
10.245107709
 20
9.1114096296
 30
0.0
 10
10.24477375
 20
9.1108097236
 30
0.0
 10
10.2445228882
 20
9.1103599847
 30
0.0
 10
10.2443150857
 20
9.1099845957
 30
0.0
 10
10.2441671727
 20
9.1097230138
 30
0.0
 10
10.2440864785
 20
9.1095716798
 30
0.0
 10
10.2440151756
 20
9.1094634152
 30
0.0
 10
10.2439850879
 20
9.1093351361
 30
0.0
 10
10.2439305947
 20
9.1091710786
 30
0.0
 10
10.2438419298
 20
9.1088807252
 30
0.0
 10
10.2437117638
 20
9.1084676352
 30
0.0
 10
10.2435570635
 20
9.1079711993
 30
0.0
 10
10.2433502728
 20
9.1073095391
 30
0.0
 10
10.2430919638
 20
9.1064823767
 30
0.0
 10
10.2426785691
 20
9.1051589655
 30
0.0
 10
10.2421618602
 20
9.1035046849
 30
0.0
 10
10.2415417947
 20
9.1015195552
 30
0.0
 10
10.2409217332
 20
9.0995344237
 30
0.0
 10
10.2400949831
 20
9.0968875823
 30
0.0
 10
10.239061546
 20
9.0935790303
 30
0.0
 10
10.2380281085
 20
9.0902704785
 30
0.0
 10
10.237201359
 20
9.0876236369
 30
0.0
 10
10.2365812957
 20
9.0856385061
 30
0.0
 10
10.2359612367
 20
9.0836533737
 30
0.0
 10
10.2354445078
 20
9.0819991016
 30
0.0
 10
10.2350311538
 20
9.0806756731
 30
0.0
 10
10.2347727411
 20
9.0798485546
 30
0.0
 10
10.2345661632
 20
9.0791868043
 30
0.0
 10
10.2344108129
 20
9.0786906435
 30
0.0
 10
10.2342826805
 20
9.0782766928
 30
0.0
 10
10.2341903853
 20
9.077987876
 30
0.0
 10
10.2341417087
 20
9.0778213566
 30
0.0
 10
10.2340937544
 20
9.0777006396
 30
0.0
 10
10.2340895556
 20
9.0775639728
 30
0.0
 10
10.2340686948
 20
9.0773873139
 30
0.0
 10
10.2340392995
 20
9.0770755688
 30
0.0
 10
10.2339935885
 20
9.0766315737
 30
0.0
 10
10.2339403265
 20
9.0760981996
 30
0.0
 10
10.2338687548
 20
9.0753872367
 30
0.0
 10
10.2337794804
 20
9.0744984636
 30
0.0
 10
10.2336365351
 20
9.0730764656
 30
0.0
 10
10.2334578899
 20
9.0712989547
 30
0.0
 10
10.2332435001
 20
9.0691659474
 30
0.0
 10
10.2330291144
 20
9.0670329386
 30
0.0
 10
10.2327432653
 20
9.0641889273
 30
0.0
 10
10.2323859546
 20
9.060633913
 30
0.0
 10
10.2320286435
 20
9.0570788988
 30
0.0
 10
10.2317427951
 20
9.0542348874
 30
0.0
 10
10.2315284076
 20
9.0521018789
 30
0.0
 10
10.2313140245
 20
9.0499688704
 30
0.0
 10
10.2311353583
 20
9.0481913631
 30
0.0
 10
10.2309924557
 20
9.0467693578
 30
0.0
 10
10.2309030726
 20
9.0458806032
 30
0.0
 10
10.2308317242
 20
9.0451696026
 30
0.0
 10
10.2307777799
 20
9.0446363438
 30
0.0
 10
10.2307342037
 20
9.0441919876
 30
0.0
 10
10.2307009974
 20
9.0438808871
 30
0.0
 10
10.2306862427
 20
9.0437031953
 30
0.0
 10
10.2306632879
 20
9.0435697014
 30
0.0
 10
10.2306857782
 20
9.0434370678
 30
0.0
 10
10.2306999135
 20
9.0432599229
 30
0.0
 10
10.2307320358
 20
9.0429500591
 30
0.0
 10
10.2307740636
 20
9.0425073235
 30
0.0
 10
10.2308261497
 20
9.0419760721
 30
0.0
 10
10.2308950206
 20
9.0412677259
 30
0.0
 10
10.2309813069
 20
9.0403822969
 30
0.0
 10
10.2311192544
 20
9.0389656084
 30
0.0
 10
10.2312917267
 20
9.0371947485
 30
0.0
 10
10.2314986772
 20
9.0350697163
 30
0.0
 10
10.2317056321
 20
9.0329446842
 30
0.0
 10
10.2319815704
 20
9.030111308
 30
0.0
 10
10.2323264939
 20
9.0265695879
 30
0.0
 10
10.232671417
 20
9.0230278676
 30
0.0
 10
10.2329473559
 20
9.0201944915
 30
0.0
 10
10.233154309
 20
9.0180694593
 30
0.0
 10
10.2333612662
 20
9.0159444276
 30
0.0
 10
10.2335337176
 20
9.0141735662
 30
0.0
 10
10.2336717079
 20
9.0127568808
 30
0.0
 10
10.2337578853
 20
9.0118714439
 30
0.0
 10
10.2338269796
 20
9.011163114
 30
0.0
 10
10.2338783831
 20
9.0106318128
 30
0.0
 10
10.2339225466
 20
9.0101892326
 30
0.0
 10
10.2339508564
 20
9.0098790914
 30
0.0
 10
10.2339711004
 20
9.0097023911
 30
0.0
 10
10.2339748267
 20
9.0095683919
 30
0.0
 10
10.2340223462
 20
9.0094400269
 30
0.0
 10
10.23407043
 20
9.0092669083
 30
0.0
 10
10.2341616937
 20
9.0089648664
 30
0.0
 10
10.2342883496
 20
9.0085328993
 30
0.0
 10
10.2344419294
 20
9.0080147437
 30
0.0
 10
10.2346461461
 20
9.0073237979
 30
0.0
 10
10.2349016075
 20
9.0064601403
 30
0.0
 10
10.2353102392
 20
9.0050782743
 30
0.0
 10
10.2358210654
 20
9.0033509465
 30
0.0
 10
10.2364340412
 20
9.0012781512
 30
0.0
 10
10.2370470211
 20
8.9992053564
 30
0.0
 10
10.2378643263
 20
8.9964416298
 30
0.0
 10
10.2388859581
 20
8.9929869716
 30
0.0
 10
10.2399075903
 20
8.9895323135
 30
0.0
 10
10.240724895
 20
8.9867685867
 30
0.0
 10
10.2413378764
 20
8.9846957926
 30
0.0
 10
10.2419508467
 20
8.9826229946
 30
0.0
 10
10.2424616899
 20
8.9808956749
 30
0.0
 10
10.2428702868
 20
8.9795137925
 30
0.0
 10
10.2431258368
 20
8.9786501767
 30
0.0
 10
10.2433298716
 20
8.9779591451
 30
0.0
 10
10.2434840072
 20
8.9774412517
 30
0.0
 10
10.2436089239
 20
8.9770084639
 30
0.0
 10
10.2437167737
 20
8.9766649476
 30
0.0
 10
10.2437760296
 20
8.9763998946
 30
0.0
 10
10.2439178531
 20
8.9761631475
 30
0.0
 10
10.2440781092
 20
8.9758375971
 30
0.0
 10
10.2442883248
 20
8.9754340515
 30
0.0
 10
10.2445363479
 20
8.9749483447
 30
0.0
 10
10.2448685249
 20
8.9743012428
 30
0.0
 10
10.2452832395
 20
8.9734921917
 30
0.0
 10
10.245947066
 20
8.9721978071
 30
0.0
 10
10.246776752
 20
8.9705797931
 30
0.0
 10
10.2477724168
 20
8.9686381905
 30
0.0
 10
10.2487680704
 20
8.9666965841
 30
0.0
 10
10.2500956126
 20
8.9641077769
 30
0.0
 10
10.2517550389
 20
8.9608717675
 30
0.0
 10
10.2534144656
 20
8.9576357581
 30
0.0
 10
10.2547420072
 20
8.9550469507
 30
0.0
 10
10.2557376624
 20
8.9531053448
 30
0.0
 10
10.2567333215
 20
8.9511637406
 30
0.0
 10
10.2575630254
 20
8.9495457315
 30
0.0
 10
10.2582268153
 20
8.9482513368
 30
0.0
 10
10.2586416231
 20
8.9474423113
 30
0.0
 10
10.2589736087
 20
8.9467951571
 30
0.0
 10
10.2592222162
 20
8.9463096101
 30
0.0
 10
10.2594306036
 20
8.9459055644
 30
0.0
 10
10.2595740914
 20
8.9456216006
 30
0.0
 10
10.2596598058
 20
8.9454611027
 30
0.0
 10
10.2597136084
 20
8.9453357513
 30
0.0
 10
10.2598074833
 20
8.9452294282
 30
0.0
 10
10.2599186722
 20
8.9450810267
 30
0.0
 10
10.2601197652
 20
8.9448244166
 30
0.0
 10
10.2604036361
 20
8.944456214
 30
0.0
 10
10.2607457385
 20
8.9440150629
 30
0.0
 10
10.2612013661
 20
8.9434266198
 30
0.0
 10
10.2617710749
 20
8.9426911486
 30
0.0
 10
10.2626825114
 20
8.9415143484
 30
0.0
 10
10.2638218406
 20
8.940043364
 30
0.0
 10
10.2651890213
 20
8.938278176
 30
0.0
 10
10.2665562058
 20
8.9365129898
 30
0.0
 10
10.2683791171
 20
8.9341594076
 30
0.0
 10
10.2706577568
 20
8.93121743
 30
0.0
 10
10.2729363962
 20
8.9282754522
 30
0.0
 10
10.274759308
 20
8.9259218703
 30
0.0
 10
10.2761264911
 20
8.9241566831
 30
0.0
 10
10.277493677
 20
8.922391499
 30
0.0
 10
10.2786329899
 20
8.9209205024
 30
0.0
 10
10.2795444597
 20
8.9197437271
 30
0.0
 10
10.2801140839
 20
8.9190081926
 30
0.0
 10
10.2805698851
 20
8.9184198795
 30
0.0
 10
10.2809114569
 20
8.9179783309
 30
0.0
 10
10.281196988
 20
8.917611372
 30
0.0
 10
10.2813951173
 20
8.9173525417
 30
0.0
 10
10.2815110548
 20
8.9172076976
 30
0.0
 10
10.2815903434
 20
8.9170904473
 30
0.0
 10
10.2816989297
 20
8.9170061366
 30
0.0
 10
10.281833492
 20
8.9168822326
 30
0.0
 10
10.2820737375
 20
8.9166707539
 30
0.0
 10
10.2824144561
 20
8.9163658428
 30
0.0
 10
10.2828243838
 20
8.9160011473
 30
0.0
 10
10.283370582
 20
8.9155144683
 30
0.0
 10
10.2840534571
 20
8.9149062628
 30
0.0
 10
10.2851459861
 20
8.9139330539
 30
0.0
 10
10.2865116718
 20
8.9127165703
 30
0.0
 10
10.2881504841
 20
8.9112567782
 30
0.0
 10
10.2897892993
 20
8.9097969892
 30
0.0
 10
10.2919743852
 20
8.9078506029
 30
0.0
 10
10.2947057428
 20
8.9054176202
 30
0.0
 10
10.2974371006
 20
8.9029846377
 30
0.0
 10
10.2996221862
 20
8.9010382509
 30
0.0
 10
10.3012610022
 20
8.8995784633
 30
0.0
 10
10.3028998115
 20
8.8981186661
 30
0.0
 10
10.3042655067
 20
8.8969021982
 30
0.0
 10
10.3053580162
 20
8.8959289573
 30
0.0
 10
10.306040941
 20
8.8953208334
 30
0.0
 10
10.3065870371
 20
8.8948339869
 30
0.0
 10
10.3069972768
 20
8.894469803
 30
0.0
 10
10.3073370194
 20
8.8941632913
 30
0.0
 10
10.3076135767
 20
8.8939248668
 30
0.0
 10
10.3078079792
 20
8.8937275087
 30
0.0
 10
10.3080520623
 20
8.8936009173
 30
0.0
 10
10.3083601523
 20
8.893407409
 30
0.0
 10
10.3087512189
 20
8.8931740048
 30
0.0
 10
10.3092179503
 20
8.8928902896
 30
0.0
 10
10.309841149
 20
8.8925132705
 30
0.0
 10
10.3106198426
 20
8.8920415626
 30
0.0
 10
10.3118659227
 20
8.8912870726
 30
0.0
 10
10.3134234643
 20
8.8903438768
 30
0.0
 10
10.3152925393
 20
8.8892120775
 30
0.0
 10
10.3171616076
 20
8.8880802687
 30
0.0
 10
10.3196537011
 20
8.8865711936
 30
0.0
 10
10.322768817
 20
8.8846848484
 30
0.0
 10
10.3258839334
 20
8.8827985042
 30
0.0
 10
10.3283760261
 20
8.8812894277
 30
0.0
 10
10.3302450968
 20
8.8801576231
 30
0.0
 10
10.3321141628
 20
8.8790258078
 30
0.0
 10
10.3336717323
 20
8.878082662
 30
0.0
 10
10.3349177556
 20
8.87732807
 30
0.0
 10
10.3356965937
 20
8.8768566216
 30
0.0
 10
10.3363194957
 20
8.8764790698
 30
0.0
 10
10.3367871335
 20
8.876196982
 30
0.0
 10
10.3371753644
 20
8.875958486
 30
0.0
 10
10.3374892397
 20
8.875775366
 30
0.0
 10
10.3377156549
 20
8.8756170493
 30
0.0
 10
10.33797639
 20
8.8755388009
 30
0.0
 10
10.3383120485
 20
8.8754065008
 30
0.0
 10
10.3387357346
 20
8.8752507217
 30
0.0
 10
10.3392423975
 20
8.8750596794
 30
0.0
 10
10.3399185629
 20
8.8748063908
 30
0.0
 10
10.3407635591
 20
8.874489289
 30
0.0
 10
10.3421156707
 20
8.8739822006
 30
0.0
 10
10.3438057698
 20
8.8733482458
 30
0.0
 10
10.3458339061
 20
8.8725875405
 30
0.0
 10
10.3478620377
 20
8.8718268244
 30
0.0
 10
10.3505662149
 20
8.87081254
 30
0.0
 10
10.3539464357
 20
8.8695446833
 30
0.0
 10
10.3573266567
 20
8.8682768269
 30
0.0
 10
10.3600308336
 20
8.867262542
 30
0.0
 10
10.362058966
 20
8.8665018273
 30
0.0
 10
10.3640870996
 20
8.8657411167
 30
0.0
 10
10.365777207
 20
8.8651071785
 30
0.0
 10
10.3671293016
 20
8.8646000564
 30
0.0
 10
10.3679743411
 20
8.8642830401
 30
0.0
 10
10.3686504177
 20
8.8640295761
 30
0.0
 10
10.369157352
 20
8.8638390698
 30
0.0
 10
10.3695801887
 20
8.8636816135
 30
0.0
 10
10.3698754063
 20
8.8635688449
 30
0.0
 10
10.3700453015
 20
8.863508386
 30
0.0
 10
10.370169344
 20
8.8634518294
 30
0.0
 10
10.3703063021
 20
8.8634381325
 30
0.0
 10
10.3704844077
 20
8.8634049201
 30
0.0
 10
10.3707981916
 20
8.8633537638
 30
0.0
 10
10.3712453569
 20
8.8632770417
 30
0.0
 10
10.371782425
 20
8.8631865339
 30
0.0
 10
10.3724983518
 20
8.8630653125
 30
0.0
 10
10.3733933164
 20
8.8629139722
 30
0.0
 10
10.3748252284
 20
8.8626717234
 30
0.0
 10
10.3766151291
 20
8.8623689482
 30
0.0
 10
10.3787630054
 20
8.8620056026
 30
0.0
 10
10.3809108829
 20
8.8616422611
 30
0.0
 10
10.3837747191
 20
8.8611578044
 30
0.0
 10
10.3873545145
 20
8.8605522339
 30
0.0
 10
10.391650269
 20
8.8598255492
 30
0.0
 10
10.3973779416
 20
8.8588566363
 30
0.0
 10
10.4016736961
 20
8.8581299516
 30
0.0
 10
10.4045375324
 20
8.8576454951
 30
0.0
  0
ENDSEC
  0
SECTION
  2
OBJECTS
  0
DICTIONARY
  5
C
100
AcDbDictionary
280
0
281
1
  3
ACAD_GROUP
350
D
  3
ACAD_MLINESTYLE
350
17
  3
ACAD_LAYOUT
350
1A
  3
ACAD_PLOTSETTINGS
350
19
  3
ACAD_PLOTSTYLENAME
350
E
  3
ACAD_IMAGE_DICT
350
       380
  3
ACAD_IMAGE_VARS
350
       381
  3
ACAD_TABLESTYLE
350
       382
  0
IMAGEDEF_REACTOR
  5
37F
100
AcDbRasterImageDefReactor
 90
2
330
28E
  0
DICTIONARY
  5
D
102
{ACAD_REACTORS
330
C
102
}
100
AcDbDictionary
280
0
281
1
  0
ACDBDICTIONARYWDFLT
  5
E
102
{ACAD_REACTORS
330
C
102
}
100
AcDbDictionary
281
1
  3
Normal
350
F
100
AcDbDictionaryWithDefault
340
F
  0
DICTIONARY
  5
380
330
C
100
AcDbDictionary
281
1
  3
W3J_assy_2_img_1
350
       385
  0
RASTERVARIABLES
  5
381
330
C
100
AcDbRasterVariables
 90
0
 70
0
 71
1
 72
5
  0
DICTIONARY
  5
17
102
{ACAD_REACTORS
330
C
102
}
100
AcDbDictionary
280
0
281
1
  3
Standard
350
18
  0
DICTIONARY
  5
382
330
C
100
AcDbDictionary
281
1
  3
Standard
350
       386
  3
Standard1
350
       387
  0
DICTIONARY
  5
19
102
{ACAD_REACTORS
330
C
102
}
100
AcDbDictionary
281
1
  0
DICTIONARY
  5
1A
102
{ACAD_REACTORS
330
C
102
}
100
AcDbDictionary
281
1
  3
Model
350
383
  3
Layout1
350
384
  0
ACDBPLACEHOLDER
  5
F
102
{ACAD_REACTORS
330
E
102
}
  0
MLINESTYLE
  5
18
102
{ACAD_REACTORS
330
17
102
}
100
AcDbMlineStyle
  2
STANDARD
 70
0
  3

 62
256
 51
90.0
 52
90.0
 71
2
 49
0.5
 62
256
  6
BYLAYER
 49
-0.5
 62
256
  6
BYLAYER
  0
LAYOUT
  5
383
102
{ACAD_REACTORS
330
1A
102
}
100
AcDbPlotSettings
  1

  2
none_device
  4
ANSI_C_(22.00_x_17.00_Inches)
  6

 40
0.0
 41
0.0
 42
0.0
 43
0.0
 44
558.8
 45
431.8
 46
0.0
 47
0.0
 48
0.0
 49
0.0
140
0.0
141
0.0
142
1.0
143
1.0
 70
1024
 72
0
 73
0
 74
0
  7

 75
0
147
1.0
148
0.0
149
0.0
100
AcDbLayout
  1
Model
 70
0
 71
0
 10
0.0
 20
0.0
 11
22.0
 21
17.0
 12
0.0
 22
0.0
 32
0.0
 14
0.0
 24
0.0
 34
0.0
 15
0.0
 25
0.0
 35
0.0
146
0.0
 13
0.0
 23
0.0
 33
0.0
 16
1.0
 26
0.0
 36
0.0
 17
0.0
 27
1.0
 37
0.0
 76
0
330
20C
345
0
346
0
  0
LAYOUT
  5
384
102
{ACAD_REACTORS
330
1A
102
}
100
AcDbPlotSettings
  1

  2
none_device
  4
ANSI_C_(22.00_x_17.00_Inches)
  6

 40
0.0
 41
0.0
 42
0.0
 43
0.0
 44
558.8
 45
431.8
 46
0.0
 47
0.0
 48
0.0
 49
0.0
140
0.0
141
0.0
142
1.0
143
1.0
 70
0
 72
0
 73
0
 74
0
  7

 75
0
147
1.0
148
0.0
149
0.0
100
AcDbLayout
  1
Layout1
 70
0
 71
1
 10
0.0
 20
0.0
 11
22.0
 21
17.0
 12
0.0
 22
0.0
 32
0.0
 14
0.0
 24
0.0
 34
0.0
 15
0.0
 25
0.0
 35
0.0
146
0.0
 13
0.0
 23
0.0
 33
0.0
 16
1.0
 26
0.0
 36
0.0
 17
0.0
 27
1.0
 37
0.0
 76
0
330
20D
345
0
346
0
  0
IMAGEDEF
  5
385
102
{ACAD_REACTORS
330
380
330
37F
102
}
100
AcDbRasterImageDef
 90
0
  1
W3J_assy_2_img_1.png
 10
369.0
 20
92.0
 11
0.0066666667
 21
0.0066666667
280
1
281
0
  0
TABLESTYLE
  5
386
102
{ACAD_REACTORS
330
382
330
291
330
292
102
}
330
382
100
AcDbTableStyle
  3
Standard
 70
0
 71
0
 40
0.06
 41
0.06
280
1
281
1
  7
Standard
140
0.18
170
1
 62
0
 63
7
283
0
  7
Standard
140
0.18
170
1
 62
0
 63
7
283
0
  7
Standard
140
0.18
170
1
 62
0
 63
7
283
0
  0
TABLESTYLE
  5
387
102
{ACAD_REACTORS
330
382
330
290
102
}
330
382
100
AcDbTableStyle
  3
Standard1
 70
1
 71
0
 40
0.06
 41
0.06
280
1
281
1
  7
Standard
140
0.18
170
1
 62
0
 63
7
283
0
  7
Standard
140
0.18
170
1
 62
0
 63
7
283
0
  7
Standard
140
0.18
170
1
 62
0
 63
7
283
0
  0
ENDSEC
  0
EOF
